  0
SECTION
  2
HEADER
  9
$ACADVER
  1
AC1024
  9
$DWGCODEPAGE
  3
ANSI_1252
  9
$EXTMAX
 10
297.0
 20
210.0
 30
0.0
  9
$EXTMIN
 10
0.0
 20
0.0
 30
0.0
  9
$LIMMIN
 10
0.0
 20
0.0
  9
$LIMMAX
 10
297.0
 20
210.0
  9
$VIEWCTR
 10
148.5
 20
105.0
  9
$VIEWSIZE
 40
210.0
  9
$CLAYER
  8
0
  9
$LTSCALE
 40
16.335
  9
$CELTYPE
  6
BYLAYER
  9
$DIMSCALE
 40
1.0
  9
$DIMASZ
 40
3.0
  9
$DIMEXO
 40
0.5
  9
$DIMDLI
 40
11.286
  9
$DIMEXE
 40
1.5
  9
$DIMCEN
 40
2.673
  9
$DIMLFAC
 40
1.0
  9
$DIMBLK
  1
_FILLED
  9
$DIMALT
 70
0
  9
$DIMALTF
 40
0.0393700787
  9
$DIMTXT
 40
3.0
  9
$DIMTOL
 70
1
  9
$DIMLIM
 70
0
  9
$DIMTFAC
 40
1.0
  9
$DIMTP
 40
0.01
  9
$DIMTM
 40
0.01
  9
$DIMGAP
 40
0.625
  9
$DIMDSEP
 70
44
  9
$AUNITS
 70
0
  9
$PDMODE
 70
3
  9
$PDSIZE
 40
3.0
  9
$HANDSEED
  5
5D6
  9
$TILEMODE
 70
1
  9
$MEASUREMENT
 70
1
  9
$INSUNITS
 70
4
  0
ENDSEC
  0
SECTION
  2
CLASSES
  0
CLASS
  1
ACDBDICTIONARYWDFLT
  2
AcDbDictionaryWithDefault
  3
AutoCAD 2000
 90
0
 91
1
280
0
281
0
  0
CLASS
  1
ACDBPLACEHOLDER
  2
AcDbPlaceHolder
  3
AutoCAD 2000
 90
0
 91
1
280
0
281
0
  0
CLASS
  1
LAYOUT
  2
AcDbLayout
  3
AutoCAD 2000
 90
0
 91
0
280
0
281
0
  0
ENDSEC
  0
SECTION
  2
TABLES
  0
TABLE
  2
VPORT
  5
8
100
AcDbSymbolTable
 70
2
  0
VPORT
  5
1F4
100
AcDbSymbolTableRecord
100
AcDbViewportTableRecord
  2
*ACTIVE
 70
0
 10
0.0
 20
0.0
 11
1.0
 21
1.0
 12
148.5
 22
105.0
 13
0.0
 23
0.0
 14
1.0
 24
1.0
 15
0.0
 25
0.0
 16
0.0
 26
0.0
 36
1.0
 17
0.0
 27
0.0
 37
0.0
 40
210.0
 41
1.4142857143
 42
50.0
 43
0.0
 44
0.0
 50
0.0
 51
0.0
 71
0
 72
100
 73
1
 74
1
 75
0
 76
0
 77
0
 78
0
  0
ENDTAB
  0
TABLE
  2
LTYPE
  5
5
100
AcDbSymbolTable
 70
6
  0
LTYPE
  5
14
100
AcDbSymbolTableRecord
100
AcDbLinetypeTableRecord
  2
BYBLOCK
 70
0
  3

 72
65
 73
0
 40
0.0
  0
LTYPE
  5
15
100
AcDbSymbolTableRecord
100
AcDbLinetypeTableRecord
  2
BYLAYER
 70
0
  3

 72
65
 73
0
 40
0.0
  0
LTYPE
  5
16
100
AcDbSymbolTableRecord
100
AcDbLinetypeTableRecord
  2
CONTINUOUS
 70
64
  3
Solid line
 72
65
 73
0
 40
0.0
  0
LTYPE
  5
1F5
100
AcDbSymbolTableRecord
100
AcDbLinetypeTableRecord
  2
CENTER
 70
64
  3
____ _ ____ _ ____ _ ____ _ ____ _ ____ _ ____
 72
65
 73
4
 40
0.6
 49
0.375
 74
0
 49
-0.075
 74
0
 49
0.075
 74
0
 49
-0.075
 74
0
  0
LTYPE
  5
1F6
100
AcDbSymbolTableRecord
100
AcDbLinetypeTableRecord
  2
HIDDEN
 70
64
  3
- - - - - - - - - - - - - - - - - - - -
 72
65
 73
2
 40
0.2
 49
0.1
 74
0
 49
-0.1
 74
0
  0
LTYPE
  5
1F7
100
AcDbSymbolTableRecord
100
AcDbLinetypeTableRecord
  2
PHANTOM
 70
64
  3
_____ _ _ _____ _ _ _____ _ _ _____
 72
65
 73
6
 40
0.8
 49
0.45
 74
0
 49
-0.05
 74
0
 49
0.1
 74
0
 49
-0.05
 74
0
 49
0.1
 74
0
 49
-0.05
 74
0
  0
LTYPE
  5
1F8
100
AcDbSymbolTableRecord
100
AcDbLinetypeTableRecord
  2
DOT
 70
64
  3
. . . . . . . . . . . . . . . . . . . .
 72
65
 73
2
 40
0.2
 49
0.1
 74
0
 49
-0.1
 74
0
  0
LTYPE
  5
1F9
100
AcDbSymbolTableRecord
100
AcDbLinetypeTableRecord
  2
DASHED
 70
64
  3
- - - - - - - - - - - - - - - - - - - -
 72
65
 73
2
 40
0.2
 49
0.1
 74
0
 49
-0.1
 74
0
  0
ENDTAB
  0
TABLE
  2
LAYER
  5
2
100
AcDbSymbolTable
 70
36
  0
LAYER
  5
10
100
AcDbSymbolTableRecord
100
AcDbLayerTableRecord
  2
0
 70
0
 62
7
  6
CONTINUOUS
370
-3
390
F
  0
LAYER
  5
1FA
100
AcDbSymbolTableRecord
100
AcDbLayerTableRecord
  2
DEFAULT_1
 70
0
 62
7
  6
CENTER
370
-3
390
F
  0
LAYER
  5
1FB
100
AcDbSymbolTableRecord
100
AcDbLayerTableRecord
  2
DEFAULT_2
 70
0
 62
7
  6
HIDDEN
370
-3
390
F
  0
LAYER
  5
1FC
100
AcDbSymbolTableRecord
100
AcDbLayerTableRecord
  2
DEFAULT_3
 70
0
 62
7
  6
PHANTOM
370
-3
390
F
  0
LAYER
  5
1FD
100
AcDbSymbolTableRecord
100
AcDbLayerTableRecord
  2
ASSI
 70
0
 62
7
  6
CONTINUOUS
370
-3
390
F
  0
LAYER
  5
1FE
100
AcDbSymbolTableRecord
100
AcDbLayerTableRecord
  2
COORDINATE
 70
0
 62
7
  6
CONTINUOUS
370
-3
390
F
  0
LAYER
  5
1FF
100
AcDbSymbolTableRecord
100
AcDbLayerTableRecord
  2
COORD_ORIGINE
 70
0
 62
7
  6
CONTINUOUS
370
-3
390
F
  0
LAYER
  5
200
100
AcDbSymbolTableRecord
100
AcDbLayerTableRecord
  2
COPY_PUBLISH
 70
0
 62
7
  6
CONTINUOUS
370
-3
390
F
  0
LAYER
  5
201
100
AcDbSymbolTableRecord
100
AcDbLayerTableRecord
  2
COSMETIC
 70
0
 62
7
  6
CONTINUOUS
370
-3
390
F
  0
LAYER
  5
202
100
AcDbSymbolTableRecord
100
AcDbLayerTableRecord
  2
COSMETICHE
 70
0
 62
7
  6
CONTINUOUS
370
-3
390
F
  0
LAYER
  5
203
100
AcDbSymbolTableRecord
100
AcDbLayerTableRecord
  2
COSMETICI
 70
0
 62
7
  6
CONTINUOUS
370
-3
390
F
  0
LAYER
  5
204
100
AcDbSymbolTableRecord
100
AcDbLayerTableRecord
  2
CURVE
 70
0
 62
7
  6
CONTINUOUS
370
-3
390
F
  0
LAYER
  5
205
100
AcDbSymbolTableRecord
100
AcDbLayerTableRecord
  2
DRAFT
 70
0
 62
7
  6
CONTINUOUS
370
-3
390
F
  0
LAYER
  5
206
100
AcDbSymbolTableRecord
100
AcDbLayerTableRecord
  2
IMPORT
 70
0
 62
7
  6
CONTINUOUS
370
-3
390
F
  0
LAYER
  5
207
100
AcDbSymbolTableRecord
100
AcDbLayerTableRecord
  2
IMPORT_IGES
 70
0
 62
7
  6
CONTINUOUS
370
-3
390
F
  0
LAYER
  5
208
100
AcDbSymbolTableRecord
100
AcDbLayerTableRecord
  2
INTF_1
 70
0
 62
7
  6
CONTINUOUS
370
-3
390
F
  0
LAYER
  5
209
100
AcDbSymbolTableRecord
100
AcDbLayerTableRecord
  2
INTF_11
 70
0
 62
7
  6
CONTINUOUS
370
-3
390
F
  0
LAYER
  5
20A
100
AcDbSymbolTableRecord
100
AcDbLayerTableRecord
  2
INTF_12
 70
0
 62
7
  6
CONTINUOUS
370
-3
390
F
  0
LAYER
  5
20B
100
AcDbSymbolTableRecord
100
AcDbLayerTableRecord
  2
NOTE
 70
0
 62
7
  6
CONTINUOUS
370
-3
390
F
  0
LAYER
  5
20C
100
AcDbSymbolTableRecord
100
AcDbLayerTableRecord
  2
PIANI
 70
0
 62
7
  6
CONTINUOUS
370
-3
390
F
  0
LAYER
  5
20D
100
AcDbSymbolTableRecord
100
AcDbLayerTableRecord
  2
PIANI_DI_RIFERIMENTO
 70
0
 62
7
  6
CONTINUOUS
370
-3
390
F
  0
LAYER
  5
20E
100
AcDbSymbolTableRecord
100
AcDbLayerTableRecord
  2
PIANI_ORIGINE
 70
0
 62
7
  6
CONTINUOUS
370
-3
390
F
  0
LAYER
  5
20F
100
AcDbSymbolTableRecord
100
AcDbLayerTableRecord
  2
PUNTI
 70
0
 62
7
  6
CONTINUOUS
370
-3
390
F
  0
LAYER
  5
210
100
AcDbSymbolTableRecord
100
AcDbLayerTableRecord
  2
RACCORDO
 70
0
 62
7
  6
CONTINUOUS
370
-3
390
F
  0
LAYER
  5
211
100
AcDbSymbolTableRecord
100
AcDbLayerTableRecord
  2
RGB____0____0____0__
 70
0
 62
7
  6
CONTINUOUS
370
-3
390
F
  0
LAYER
  5
212
100
AcDbSymbolTableRecord
100
AcDbLayerTableRecord
  2
SIMBOLI
 70
0
 62
7
  6
CONTINUOUS
370
-3
390
F
  0
LAYER
  5
213
100
AcDbSymbolTableRecord
100
AcDbLayerTableRecord
  2
SMUSSO
 70
0
 62
7
  6
CONTINUOUS
370
-3
390
F
  0
LAYER
  5
214
100
AcDbSymbolTableRecord
100
AcDbLayerTableRecord
  2
SNAPLINE
 70
0
 62
7
  6
CONTINUOUS
370
-3
390
F
  0
LAYER
  5
215
100
AcDbSymbolTableRecord
100
AcDbLayerTableRecord
  2
SUPERFICI
 70
0
 62
7
  6
CONTINUOUS
370
-3
390
F
  0
LAYER
  5
216
100
AcDbSymbolTableRecord
100
AcDbLayerTableRecord
  2
TRASH
 70
0
 62
7
  6
CONTINUOUS
370
-3
390
F
  0
LAYER
  5
217
100
AcDbSymbolTableRecord
100
AcDbLayerTableRecord
  2
XSEC_DATUMS
 70
0
 62
7
  6
CONTINUOUS
370
-3
390
F
  0
ENDTAB
  0
TABLE
  2
STYLE
  5
3
100
AcDbSymbolTable
 70
1
  0
STYLE
  5
11
100
AcDbSymbolTableRecord
100
AcDbTextStyleTableRecord
  2
STANDARD
 70
0
 40
0.0
 41
0.8
 50
0.0
 71
0
 42
0.2
  3
txt
  4

  0
STYLE
  5
218
100
AcDbSymbolTableRecord
100
AcDbTextStyleTableRecord
  2
TEXTSTYLE_1
 70
0
 40
0.0
 41
0.8
 50
0.0
 71
0
 42
0.2
  3
gdt
  4

  0
ENDTAB
  0
TABLE
  2
VIEW
  5
6
100
AcDbSymbolTable
 70
0
  0
ENDTAB
  0
TABLE
  2
UCS
  5
7
100
AcDbSymbolTable
 70
0
  0
ENDTAB
  0
TABLE
  2
APPID
  5
9
100
AcDbSymbolTable
 70
1
  0
APPID
  5
219
100
AcDbSymbolTableRecord
100
AcDbRegAppTableRecord
  2
ACAD
 70
0
  0
ENDTAB
  0
TABLE
  2
BLOCK_RECORD
  5
1
100
AcDbSymbolTable
 70
0
  0
BLOCK_RECORD
  5
21A
100
AcDbSymbolTableRecord
100
AcDbBlockTableRecord
  2
*Model_Space
  0
BLOCK_RECORD
  5
21B
100
AcDbSymbolTableRecord
100
AcDbBlockTableRecord
  2
*Paper_Space
  0
BLOCK_RECORD
  5
21C
100
AcDbSymbolTableRecord
100
AcDbBlockTableRecord
  2
_FILLED
  0
ENDTAB
  0
TABLE
  2
DIMSTYLE
  5
A
100
AcDbSymbolTable
 70
1
100
AcDbDimStyleTable
 71
0
  0
DIMSTYLE
105
21D
100
AcDbSymbolTableRecord
100
AcDbDimStyleTableRecord
  2
STANDARD
 70
0
  3

  4

 40
1.0
 41
3.0
 42
0.5
 43
0.38
 44
1.5
 45
0.0
 46
0.0
 47
0.01
 48
0.01
140
3.0
141
0.09
142
0.0
143
25.4
144
1.0
145
0.0
146
1.0
147
0.625
 71
1.0
 72
0.0
 73
0
 74
0
 75
0
 76
0
 77
1
 78
8
 79
2
170
0
171
1
172
0
173
0
174
0
175
0
176
0
177
0
178
0
270
2
179
2
271
2
272
2
273
2
274
2
275
0
280
0
281
0
282
0
283
1
284
8
285
0
286
0
287
3
288
0
340
11
278
44
341
21C
342
21C
343
21C
344
21C
  0
ENDTAB
  0
ENDSEC
  0
SECTION
  2
BLOCKS
  0
BLOCK
  5
20
100
AcDbEntity
  8
0
100
AcDbBlockBegin
  2
*Model_Space
 70
0
 10
0.0
 20
0.0
 30
0.0
  3
*Model_Space
  1

  0
ENDBLK
  5
21
100
AcDbEntity
  8
0
100
AcDbBlockEnd
  0
BLOCK
  5
1C
100
AcDbEntity
  8
0
100
AcDbBlockBegin
  2
*Paper_Space
 70
0
 10
0.0
 20
0.0
 30
0.0
  3
*Paper_Space
  1

  0
ENDBLK
  5
1D
100
AcDbEntity
  8
0
100
AcDbBlockEnd
  0
BLOCK
  5
21E
100
AcDbEntity
  8
0
100
AcDbBlockBegin
  2
_FILLED
 70
64
 10
0.0
 20
0.0
  3
_FILLED
  1

  0
SOLID
  5
21F
100
AcDbEntity
  8
0
  6
BYBLOCK
 62
0
100
AcDbTrace
 10
0.0
 20
0.0
 11
-1.0
 21
0.3166666667
 12
-1.0
 22
-0.3166666667
 13
-1.0
 23
-0.3166666667
  0
ENDBLK
  5
220
100
AcDbEntity
  8
0
  6
BYBLOCK
 62
0
100
AcDbBlockEnd
  0
ENDSEC
  0
SECTION
  2
ENTITIES
  0
LINE
  5
221
100
AcDbEntity
  8
SUPERFICI
100
AcDbLine
 62
7
  6
CONTINUOUS
 10
-20.7909865347
 20
29.6006330778
 11
-18.8467006311
 21
30.4123491292
  0
LINE
  5
222
100
AcDbEntity
  8
SUPERFICI
100
AcDbLine
 62
250
  6
CONTINUOUS
 10
-20.6958048766
 20
29.5462426503
 11
-18.7520080657
 21
30.3577545113
  0
LINE
  5
223
100
AcDbEntity
  8
SUPERFICI
100
AcDbLine
 62
7
  6
CONTINUOUS
 10
-18.8467002739
 20
30.4123492783
 11
-18.8462178513
 21
30.4125459787
  0
LINE
  5
224
100
AcDbEntity
  8
SUPERFICI
100
AcDbLine
 62
7
  6
CONTINUOUS
 10
-18.8462175164
 20
30.412546112
 11
-18.1927600146
 21
30.6726530503
  0
LINE
  5
225
100
AcDbEntity
  8
SUPERFICI
100
AcDbLine
 62
250
  6
CONTINUOUS
 10
-17.4270063522
 20
27.9645621183
 11
-16.7784136406
 21
28.5396985591
  0
LWPOLYLINE
  5
226
100
AcDbEntity
  8
SUPERFICI
100
AcDbPolyline
 62
7
  6
CONTINUOUS
 90
15
 70
0
 10
-24.8745429462
 20
26.8396562168
 10
-24.8866126728
 20
26.8339245251
 10
-24.9617797487
 20
26.7944474552
 10
-25.0350806434
 20
26.7493359042
 10
-25.1067417463
 20
26.6982936336
 10
-25.1759182488
 20
26.6416367215
 10
-25.2409523784
 20
26.5805943415
 10
-25.3016093484
 20
26.5153443052
 10
-25.3575658731
 20
26.4460279576
 10
-25.4075235667
 20
26.3741398181
 10
-25.4513138392
 20
26.2999386271
 10
-25.4887727192
 20
26.2235135355
 10
-25.5191644745
 20
26.1462694297
 10
-25.5423346678
 20
26.0688565807
 10
-25.5569695861
 20
25.9995812042
  0
LINE
  5
227
100
AcDbEntity
  8
SUPERFICI
100
AcDbLine
 62
7
  6
CONTINUOUS
 10
-24.8745750755
 20
26.8396412839
 11
-20.7538128115
 21
28.7685660321
  0
LINE
  5
228
100
AcDbEntity
  8
SUPERFICI
100
AcDbLine
 62
250
  6
CONTINUOUS
 10
-24.6852619906
 20
26.7306156691
 11
-20.637060827
 21
28.6255746379
  0
LINE
  5
229
100
AcDbEntity
  8
SUPERFICI
100
AcDbLine
 62
250
  6
CONTINUOUS
 10
-17.5520042368
 20
28.8880559763
 11
-16.9034115252
 21
29.1533210761
  0
LINE
  5
22A
100
AcDbEntity
  8
SUPERFICI
100
AcDbLine
 62
250
  6
CONTINUOUS
 10
-17.4270063522
 20
28.5581917545
 11
-16.7784136406
 21
28.8234568543
  0
LINE
  5
22B
100
AcDbEntity
  8
SUPERFICI
100
AcDbLine
 62
250
  6
CONTINUOUS
 10
-19.5075893837
 20
28.0909818193
 11
-17.5520046387
 21
28.8880564685
  0
LINE
  5
22C
100
AcDbEntity
  8
SUPERFICI
100
AcDbLine
 62
250
  6
CONTINUOUS
 10
-19.3825910971
 20
27.7611165368
 11
-17.4270063522
 21
28.5581911861
  0
LINE
  5
22D
100
AcDbEntity
  8
SUPERFICI
100
AcDbLine
 62
250
  6
CONTINUOUS
 10
-18.7520084676
 20
30.3577550036
 11
-18.099043922
 21
30.6176657221
  0
LINE
  5
22E
100
AcDbEntity
  8
SUPERFICI
100
AcDbLine
 62
7
  6
CONTINUOUS
 10
-17.4270063522
 20
27.8949636847
 11
-16.7388042615
 21
28.5052235502
  0
LINE
  5
22F
100
AcDbEntity
  8
SUPERFICI
100
AcDbLine
 62
7
  6
CONTINUOUS
 10
-17.4270063522
 20
27.2500412177
 11
-18.5139476756
 21
26.7652780047
  0
LINE
  5
230
100
AcDbEntity
  8
SUPERFICI
100
AcDbLine
 62
7
  6
CONTINUOUS
 10
-16.0270063522
 20
26.6667692476
 11
-17.3221174312
 21
26.1260759015
  0
LINE
  5
231
100
AcDbEntity
  8
SUPERFICI
100
AcDbLine
 62
7
  6
CONTINUOUS
 10
-16.8554078918
 20
25.5544757867
 11
-15.8118527514
 21
25.9764013476
  0
LINE
  5
232
100
AcDbEntity
  8
SUPERFICI
100
AcDbLine
 62
7
  6
CONTINUOUS
 10
-14.7207494027
 20
26.4488044087
 11
-9.0715599411
 21
28.7279717341
  0
LINE
  5
233
100
AcDbEntity
  8
SUPERFICI
100
AcDbLine
 62
7
  6
CONTINUOUS
 10
-9.5074713488
 20
29.2618519951
 11
-16.0270063522
 21
26.6667692476
  0
LINE
  5
234
100
AcDbEntity
  8
SUPERFICI
100
AcDbLine
 62
7
  6
CONTINUOUS
 10
-7.8659594205
 20
31.0594986945
 11
-16.5638898633
 21
27.60304346
  0
LINE
  5
235
100
AcDbEntity
  8
SUPERFICI
100
AcDbLine
 62
7
  6
CONTINUOUS
 10
-7.8684418459
 20
31.1499249467
 11
-16.6272579639
 21
27.6806532162
  0
LINE
  5
236
100
AcDbEntity
  8
RACCORDO
100
AcDbLine
 62
7
  6
CONTINUOUS
 10
-14.0713411494
 20
29.1506151105
 11
-9.0992131737
 21
31.0761574097
  0
LINE
  5
237
100
AcDbEntity
  8
RACCORDO
100
AcDbLine
 62
7
  6
CONTINUOUS
 10
-16.978065795
 20
28.1103033082
 11
-9.5080567488
 21
30.9945575838
  0
LINE
  5
238
100
AcDbEntity
  8
RACCORDO
100
AcDbLine
 62
250
  6
CONTINUOUS
 10
-16.975263498
 20
28.1068712093
 11
-9.4640624711
 21
31.0070298909
  0
LINE
  5
239
100
AcDbEntity
  8
DRAFT
100
AcDbLine
 62
7
  6
CONTINUOUS
 10
-16.9320154825
 20
28.0539034241
 11
-14.0713411494
 21
29.1506151105
  0
LWPOLYLINE
  5
23A
100
AcDbEntity
  8
RACCORDO
100
AcDbPolyline
 62
7
  6
CONTINUOUS
 90
3
 70
0
 10
-9.4702064777
 20
31.0083980065
 10
-9.4943173369
 20
30.9997596002
 10
-9.5080706446
 20
30.99455221
  0
LINE
  5
23B
100
AcDbEntity
  8
RACCORDO
100
AcDbLine
 62
7
  6
CONTINUOUS
 10
-9.4458914073
 20
31.0164900053
 11
-9.4702064777
 21
31.0083980065
  0
LWPOLYLINE
  5
23C
100
AcDbEntity
  8
SUPERFICI
100
AcDbPolyline
 62
7
  6
CONTINUOUS
 90
10
 70
0
 10
-25.5569782046
 20
25.9995315263
 10
-25.7097770143
 20
25.0576226029
 10
-25.8555115663
 20
24.0648859846
 10
-25.9846352536
 20
23.0774667721
 10
-26.0971200567
 20
22.0955735869
 10
-26.1929415519
 20
21.1194104519
 10
-26.272078171
 20
20.149181314
 10
-26.3345113999
 20
19.1850880171
 10
-26.3802256164
 20
18.2273350441
 10
-26.4079204069
 20
17.3339747968
  0
LINE
  5
23D
100
AcDbEntity
  8
SUPERFICI
100
AcDbLine
 62
7
  6
CONTINUOUS
 10
-25.5569695861
 20
25.9995812042
 11
-25.5569780257
 21
25.9995314959
  0
LINE
  5
23E
100
AcDbEntity
  8
SUPERFICI
100
AcDbLine
 62
7
  6
CONTINUOUS
 10
-15.9850190541
 20
24.7583389405
 11
-16.8554078918
 21
24.373071747
  0
LINE
  5
23F
100
AcDbEntity
  8
SUPERFICI
100
AcDbLine
 62
7
  6
CONTINUOUS
 10
-14.5646420993
 20
23.306460927
 11
-14.3020063522
 21
23.4227134946
  0
LINE
  5
240
100
AcDbEntity
  8
DRAFT
100
AcDbLine
 62
7
  6
CONTINUOUS
 10
-13.304802224
 20
24.5348452308
 11
-12.7665736001
 21
24.7584500882
  0
LINE
  5
241
100
AcDbEntity
  8
SUPERFICI
100
AcDbLine
 62
7
  6
CONTINUOUS
 10
-14.3020063522
 20
23.4227134946
 11
-13.4455689751
 21
23.775754856
  0
LINE
  5
242
100
AcDbEntity
  8
SUPERFICI
100
AcDbLine
 62
250
  6
CONTINUOUS
 10
-14.402005083
 20
24.6765572772
 11
-13.5575953444
 21
25.0242374412
  0
LINE
  5
243
100
AcDbEntity
  8
SUPERFICI
100
AcDbLine
 62
250
  6
CONTINUOUS
 10
-14.3020063522
 20
24.4126677748
 11
-13.4560926661
 21
24.7609671793
  0
LINE
  5
244
100
AcDbEntity
  8
0
100
AcDbLine
 62
7
  6
CONTINUOUS
 10
-7.0511482242
 20
27.5208823448
 11
-6.444972976
 21
27.7683523535
  0
LINE
  5
245
100
AcDbEntity
  8
DRAFT
100
AcDbLine
 62
7
  6
CONTINUOUS
 10
-9.0796293702
 20
26.6974482163
 11
-6.4477677544
 21
27.771775244
  0
LINE
  5
246
100
AcDbEntity
  8
ASSI
100
AcDbLine
 62
7
  6
CONTINUOUS
 10
-10.2784779191
 20
27.0965260676
 11
-8.9095884564
 21
27.650581097
  0
LINE
  5
247
100
AcDbEntity
  8
SUPERFICI
100
AcDbLine
 62
250
  6
CONTINUOUS
 10
-14.6640337069
 20
24.5706158595
 11
-14.4020055907
 21
24.676557899
  0
LINE
  5
248
100
AcDbEntity
  8
SUPERFICI
100
AcDbLine
 62
250
  6
CONTINUOUS
 10
-14.5646420993
 20
24.3064797974
 11
-14.3020063522
 21
24.4126675115
  0
LINE
  5
249
100
AcDbEntity
  8
0
100
AcDbLine
 62
7
  6
CONTINUOUS
 10
-5.7734636206
 20
28.4967251951
 11
-6.4477677544
 21
28.224676973
  0
LINE
  5
24A
100
AcDbEntity
  8
DRAFT
100
AcDbLine
 62
7
  6
CONTINUOUS
 10
-6.4477677544
 20
28.224676973
 11
-9.2587827926
 21
27.0905720418
  0
LINE
  5
24B
100
AcDbEntity
  8
RACCORDO
100
AcDbLine
 62
7
  6
CONTINUOUS
 10
-10.2582074529
 20
26.8546637734
 11
-10.8724410443
 21
26.62257814
  0
LINE
  5
24C
100
AcDbEntity
  8
RACCORDO
100
AcDbLine
 62
250
  6
CONTINUOUS
 10
-10.1844933435
 20
26.8102074559
 11
-10.8120869426
 21
26.5730737986
  0
LINE
  5
24D
100
AcDbEntity
  8
SUPERFICI
100
AcDbLine
 62
250
  6
CONTINUOUS
 10
3.1715863594
 20
-29.6149471987
 11
2.5229936478
 21
-29.5765236643
  0
LINE
  5
24E
100
AcDbEntity
  8
SUPERFICI
100
AcDbLine
 62
250
  6
CONTINUOUS
 10
3.1535820745
 20
-29.2650836175
 11
3.0115561771
 21
-29.2566698058
  0
LWPOLYLINE
  5
24F
100
AcDbEntity
  8
SUPERFICI
100
AcDbPolyline
 62
7
  6
CONTINUOUS
 90
10
 70
0
 10
-26.4079152105
 20
3.8893452514
 10
-26.3799687566
 20
3.0131806069
 10
-26.3340523863
 20
2.0924825769
 10
-26.2713625802
 20
1.1795349161
 10
-26.1919145681
 20
0.2745297309
 10
-26.0957266951
 20
-0.6223438986
 10
-25.9828207332
 20
-1.5108955901
 10
-25.85322133
 20
-2.3909390136
 10
-25.7069566162
 20
-3.2622877185
 10
-25.554478467
 20
-4.0723692446
  0
LWPOLYLINE
  5
250
100
AcDbEntity
  8
SUPERFICI
100
AcDbPolyline
 62
7
  6
CONTINUOUS
 90
10
 70
0
 10
-26.407920405
 20
17.333974962
 10
-26.4377876618
 20
15.8677541281
 10
-26.4610929948
 20
14.3519029545
 10
-26.47662586
 20
12.8392805367
 10
-26.4843859848
 20
11.3299151433
 10
-26.4843732485
 20
9.8238331232
 10
-26.4765876422
 20
8.3210602724
 10
-26.4610292684
 20
6.821622846
 10
-26.4376983823
 20
5.3255488917
 10
-26.4079152118
 20
3.8893452548
  0
LINE
  5
251
100
AcDbEntity
  8
RACCORDO
100
AcDbLine
 62
7
  6
CONTINUOUS
 10
-13.1661544415
 20
24.3650370702
 11
-10.8747195862
 21
26.6211019478
  0
LINE
  5
252
100
AcDbEntity
  8
RACCORDO
100
AcDbLine
 62
250
  6
CONTINUOUS
 10
-13.1174532618
 20
24.3053905502
 11
-10.8130476847
 21
26.574225937
  0
LINE
  5
253
100
AcDbEntity
  8
SUPERFICI
100
AcDbLine
 62
7
  6
CONTINUOUS
 10
-13.2778367325
 20
23.2505119836
 11
-13.538075259
 21
23.1409998173
  0
LINE
  5
254
100
AcDbEntity
  8
SUPERFICI
100
AcDbLine
 62
250
  6
CONTINUOUS
 10
-13.2020071137
 20
23.2068659186
 11
-13.4614080308
 21
23.0977062306
  0
LINE
  5
255
100
AcDbEntity
  8
SUPERFICI
100
AcDbLine
 62
7
  6
CONTINUOUS
 10
-12.3135889863
 20
21.6919207424
 11
-13.346681024
 21
21.2571805503
  0
LINE
  5
256
100
AcDbEntity
  8
RACCORDO
100
AcDbLine
 62
250
  6
CONTINUOUS
 10
-7.5731172925
 20
24.7138619868
 11
-8.8620564816
 21
24.1847839925
  0
LINE
  5
257
100
AcDbEntity
  8
RACCORDO
100
AcDbLine
 62
250
  6
CONTINUOUS
 10
-7.473132523
 20
24.450006336
 11
-8.7410737892
 21
23.9295474752
  0
LINE
  5
258
100
AcDbEntity
  8
SUPERFICI
100
AcDbLine
 62
7
  6
CONTINUOUS
 10
-13.277327254
 20
23.2507199072
 11
-13.2778330454
 21
23.2505135352
  0
LINE
  5
259
100
AcDbEntity
  8
SUPERFICI
100
AcDbLine
 62
7
  6
CONTINUOUS
 10
-5.5370334034
 20
24.3990784842
 11
-11.1858916864
 21
22.1195055496
  0
LINE
  5
25A
100
AcDbEntity
  8
SUPERFICI
100
AcDbLine
 62
7
  6
CONTINUOUS
 10
-12.4238597547
 20
23.5881257747
 11
-13.2773234613
 21
23.2507214069
  0
LINE
  5
25B
100
AcDbEntity
  8
SUPERFICI
100
AcDbLine
 62
250
  6
CONTINUOUS
 10
-12.3490457447
 20
23.5440725172
 11
-13.2020076214
 21
23.2068665404
  0
LINE
  5
25C
100
AcDbEntity
  8
RACCORDO
100
AcDbLine
 62
7
  6
CONTINUOUS
 10
4.4621958456
 20
-26.3832356659
 11
4.1088453125
 21
-26.4501845289
  0
LWPOLYLINE
  5
25D
100
AcDbEntity
  8
SUPERFICI
100
AcDbPolyline
 62
7
  6
CONTINUOUS
 90
5
 70
0
 10
-25.5543681278
 20
-4.0729218364
 10
-25.5449572797
 20
-4.1139792451
 10
-25.5260056154
 20
-4.1754266937
 10
-25.5017471334
 20
-4.2344889181
 10
-25.4724043998
 20
-4.2907064659
  0
LINE
  5
25E
100
AcDbEntity
  8
SUPERFICI
100
AcDbLine
 62
7
  6
CONTINUOUS
 10
-25.554478467
 20
-4.0723692446
 11
-25.554368345
 21
-4.0729218798
  0
LINE
  5
25F
100
AcDbEntity
  8
RACCORDO
100
AcDbLine
 62
250
  6
CONTINUOUS
 10
-8.8611181676
 20
24.1836102716
 11
-10.9581237917
 21
22.2114203229
  0
LINE
  5
260
100
AcDbEntity
  8
RACCORDO
100
AcDbLine
 62
250
  6
CONTINUOUS
 10
-8.7620717121
 20
23.8930960256
 11
-10.2435744082
 21
22.4997737128
  0
LINE
  5
261
100
AcDbEntity
  8
SUPERFICI
100
AcDbLine
 62
7
  6
CONTINUOUS
 10
-11.5770063522
 20
20.08528372
 11
-12.8799714846
 21
19.5041763958
  0
LINE
  5
262
100
AcDbEntity
  8
SUPERFICI
100
AcDbLine
 62
7
  6
CONTINUOUS
 10
-12.0909865347
 20
18.9453526967
 11
-10.1467006311
 21
19.7570687481
  0
LINE
  5
263
100
AcDbEntity
  8
SUPERFICI
100
AcDbLine
 62
250
  6
CONTINUOUS
 10
-11.9958048766
 20
18.8909622692
 11
-10.0520080657
 21
19.7024741302
  0
LINE
  5
264
100
AcDbEntity
  8
SUPERFICI
100
AcDbLine
 62
7
  6
CONTINUOUS
 10
-11.5770063522
 20
21.2166545699
 11
-5.1011219957
 21
23.8651982233
  0
LINE
  5
265
100
AcDbEntity
  8
SUPERFICI
100
AcDbLine
 62
7
  6
CONTINUOUS
 10
-11.5770063522
 20
20.08528372
 11
-5.0608281747
 21
22.7503069672
  0
LINE
  5
266
100
AcDbEntity
  8
SUPERFICI
100
AcDbLine
 62
7
  6
CONTINUOUS
 10
-10.1467002739
 20
19.7570688972
 11
-10.1462178513
 21
19.7572655976
  0
LINE
  5
267
100
AcDbEntity
  8
SUPERFICI
100
AcDbLine
 62
7
  6
CONTINUOUS
 10
-12.8799714846
 20
20.6855804354
 11
-11.5770063522
 21
21.2166545699
  0
LINE
  5
268
100
AcDbEntity
  8
DRAFT
100
AcDbLine
 62
7
  6
CONTINUOUS
 10
-4.8391963942
 20
23.9798357769
 11
-3.4421781977
 21
24.5435965779
  0
LINE
  5
269
100
AcDbEntity
  8
0
100
AcDbLine
 62
7
  6
CONTINUOUS
 10
-3.4421781977
 20
24.5435965779
 11
-2.7679135942
 21
24.8156932147
  0
LINE
  5
26A
100
AcDbEntity
  8
SUPERFICI
100
AcDbLine
 62
7
  6
CONTINUOUS
 10
-10.1462175164
 20
19.7572657309
 11
-9.4927600146
 21
20.0173726692
  0
LINE
  5
26B
100
AcDbEntity
  8
SUPERFICI
100
AcDbLine
 62
250
  6
CONTINUOUS
 10
-10.0520084676
 20
19.7024746225
 11
-9.399043922
 21
19.962385341
  0
LINE
  5
26C
100
AcDbEntity
  8
RACCORDO
100
AcDbLine
 62
7
  6
CONTINUOUS
 10
-22.1633835366
 20
15.3166326889
 11
-22.1588523295
 21
15.3182925407
  0
LWPOLYLINE
  5
26D
100
AcDbEntity
  8
RACCORDO
100
AcDbPolyline
 62
7
  6
CONTINUOUS
 90
23
 70
0
 10
-22.1633989883
 20
15.3166264687
 10
-22.0283537562
 20
15.3621640025
 10
-21.7622272226
 20
15.4296527532
 10
-21.4867556691
 20
15.4718115516
 10
-21.2022904165
 20
15.4892335207
 10
-20.9079242502
 20
15.4822552626
 10
-20.6042254637
 20
15.4508859434
 10
-20.2924662732
 20
15.3952517649
 10
-19.9726197558
 20
15.3152772641
 10
-19.6454006045
 20
15.210954928
 10
-19.3119463537
 20
15.082470973
 10
-18.97269615
 20
14.9298096743
 10
-18.6285223393
 20
14.7531483584
 10
-18.280283063
 20
14.552724701
 10
-17.9282404832
 20
14.3284587435
 10
-17.5731997376
 20
14.0805935973
 10
-17.2158996433
 20
13.8094011579
 10
-16.8563846757
 20
13.5146223769
 10
-16.4953713625
 20
13.1965125408
 10
-16.1335309968
 20
12.8553587108
 10
-15.7707673848
 20
12.4907111074
 10
-15.407451795
 20
12.1025205491
 10
-15.044471521
 20
11.6913279899
  0
LWPOLYLINE
  5
26E
100
AcDbEntity
  8
SUPERFICI
100
AcDbPolyline
 62
7
  6
CONTINUOUS
 90
17
 70
0
 10
-3.631241543
 20
-31.0540477386
 10
-3.6067659536
 20
-31.082450676
 10
-3.5629707976
 20
-31.1264427364
 10
-3.5147107533
 20
-31.1669109139
 10
-3.4623045733
 20
-31.203352137
 10
-3.4060552975
 20
-31.2353717884
 10
-3.3463398033
 20
-31.2626064579
 10
-3.2836021891
 20
-31.2847491967
 10
-3.2181283045
 20
-31.3016115438
 10
-3.1503653697
 20
-31.3130037815
 10
-3.0808917497
 20
-31.3188031818
 10
-3.0099775949
 20
-31.3189831136
 10
-2.937884865
 20
-31.313520571
 10
-2.8650420149
 20
-31.3024260535
 10
-2.7916930288
 20
-31.2857097279
 10
-2.7179491194
 20
-31.2633223677
 10
2.9581232833
 20
-29.2790437491
  0
LINE
  5
26F
100
AcDbEntity
  8
SUPERFICI
100
AcDbLine
 62
7
  6
CONTINUOUS
 10
-3.6309907319
 20
-31.0543555164
 11
-25.4108627768
 21
-4.3795689299
  0
LINE
  5
270
100
AcDbEntity
  8
SUPERFICI
100
AcDbLine
 62
250
  6
CONTINUOUS
 10
-3.7131516272
 20
-30.876435253
 11
-25.4921937146
 21
-4.2026651526
  0
LWPOLYLINE
  5
271
100
AcDbEntity
  8
SUPERFICI
100
AcDbPolyline
 62
7
  6
CONTINUOUS
 90
3
 70
0
 10
-25.4724043998
 20
-4.2907064659
 10
-25.4383167002
 20
-4.3435759051
 10
-25.4105546724
 20
-4.3799454818
  0
LINE
  5
272
100
AcDbEntity
  8
SUPERFICI
100
AcDbLine
 62
7
  6
CONTINUOUS
 10
-20.9446712571
 20
29.3699311764
 11
-20.9446712571
 21
29.0914174243
  0
LINE
  5
273
100
AcDbEntity
  8
SUPERFICI
100
AcDbLine
 62
250
  6
CONTINUOUS
 10
-20.9111776081
 20
29.2815428288
 11
-20.9111776081
 21
29.0030290766
  0
LINE
  5
274
100
AcDbEntity
  8
SUPERFICI
100
AcDbLine
 62
250
  6
CONTINUOUS
 10
-19.7229621152
 20
27.5477682456
 11
-19.7229621152
 21
27.8262819978
  0
LINE
  5
275
100
AcDbEntity
  8
SUPERFICI
100
AcDbLine
 62
250
  6
CONTINUOUS
 10
-19.3825910971
 20
27.4826027847
 11
-19.3825910971
 21
27.7611165368
  0
LINE
  5
276
100
AcDbEntity
  8
SUPERFICI
100
AcDbLine
 62
250
  6
CONTINUOUS
 10
-18.8543186936
 20
26.8212275
 11
-18.8543186936
 21
27.3421322065
  0
LINE
  5
277
100
AcDbEntity
  8
SUPERFICI
100
AcDbLine
 62
7
  6
CONTINUOUS
 10
0.1981276559
 20
21.2704353196
 11
-7.5332884375
 21
17.9529604135
  0
LINE
  5
278
100
AcDbEntity
  8
SUPERFICI
100
AcDbLine
 62
7
  6
CONTINUOUS
 10
-0.6754177943
 20
22.2529197153
 11
-8.4453085422
 21
19.0699523594
  0
LINE
  5
279
100
AcDbEntity
  8
SUPERFICI
100
AcDbLine
 62
250
  6
CONTINUOUS
 10
-8.8520042368
 20
18.2327755952
 11
-8.2034115252
 21
18.4980406949
  0
LINE
  5
27A
100
AcDbEntity
  8
SUPERFICI
100
AcDbLine
 62
250
  6
CONTINUOUS
 10
-8.7270063522
 20
17.9029113734
 11
-8.0784136406
 21
18.1681764732
  0
LINE
  5
27B
100
AcDbEntity
  8
SUPERFICI
100
AcDbLine
 62
250
  6
CONTINUOUS
 10
-10.8075893837
 20
17.4357014382
 11
-8.8520046387
 21
18.2327760874
  0
LINE
  5
27C
100
AcDbEntity
  8
SUPERFICI
100
AcDbLine
 62
250
  6
CONTINUOUS
 10
-10.6825910971
 20
17.1058361557
 11
-8.7270063522
 21
17.902910805
  0
LINE
  5
27D
100
AcDbEntity
  8
SUPERFICI
100
AcDbLine
 62
7
  6
CONTINUOUS
 10
-0.2127584058
 20
-30.3875581325
 11
0.249240148
 21
-30.9533884919
  0
LINE
  5
27E
100
AcDbEntity
  8
SUPERFICI
100
AcDbLine
 62
250
  6
CONTINUOUS
 10
-0.1862511685
 20
-30.3782914185
 11
0.2263829644
 21
-30.8836629565
  0
LINE
  5
27F
100
AcDbEntity
  8
SUPERFICI
100
AcDbLine
 62
250
  6
CONTINUOUS
 10
0.2263829644
 20
-30.6060754017
 11
-0.0099308479
 21
-30.3166512721
  0
LINE
  5
280
100
AcDbEntity
  8
SUPERFICI
100
AcDbLine
 62
250
  6
CONTINUOUS
 10
0.3346361399
 20
-30.408788119
 11
0.1995985371
 21
-30.2434015076
  0
LINE
  5
281
100
AcDbEntity
  8
SUPERFICI
100
AcDbLine
 62
250
  6
CONTINUOUS
 10
-18.5139476756
 20
26.7652780047
 11
-18.5139476756
 21
27.4247014809
  0
LINE
  5
282
100
AcDbEntity
  8
SUPERFICI
100
AcDbLine
 62
7
  6
CONTINUOUS
 10
-17.4270063522
 20
27.2500412177
 11
-17.4270063522
 21
28.5581917545
  0
LINE
  5
283
100
AcDbEntity
  8
SUPERFICI
100
AcDbLine
 62
7
  6
CONTINUOUS
 10
-17.3221174312
 20
26.1260759015
 11
-17.3221174312
 21
24.9446718619
  0
LINE
  5
284
100
AcDbEntity
  8
SUPERFICI
100
AcDbLine
 62
7
  6
CONTINUOUS
 10
-16.8554078918
 20
24.373071747
 11
-16.8554078918
 21
25.5544757867
  0
LINE
  5
285
100
AcDbEntity
  8
SUPERFICI
100
AcDbLine
 62
250
  6
CONTINUOUS
 10
-16.7784136406
 20
28.8234568543
 11
-16.7784136406
 21
28.5396985591
  0
LINE
  5
286
100
AcDbEntity
  8
SUPERFICI
100
AcDbLine
 62
7
  6
CONTINUOUS
 10
-16.654671101
 20
28.9760331527
 11
-16.654671101
 21
28.6922748575
  0
LINE
  5
287
100
AcDbEntity
  8
SUPERFICI
100
AcDbLine
 62
250
  6
CONTINUOUS
 10
-8.7270063522
 20
17.3092817372
 11
-8.0784136406
 21
17.884418178
  0
LINE
  5
288
100
AcDbEntity
  8
SUPERFICI
100
AcDbLine
 62
7
  6
CONTINUOUS
 10
-8.7270063522
 20
17.2396833036
 11
-8.0388042615
 21
17.8499431691
  0
LINE
  5
289
100
AcDbEntity
  8
SUPERFICI
100
AcDbLine
 62
7
  6
CONTINUOUS
 10
-8.7270063522
 20
16.5947608366
 11
-9.8139476756
 21
16.1099976235
  0
LINE
  5
28A
100
AcDbEntity
  8
SUPERFICI
100
AcDbLine
 62
7
  6
CONTINUOUS
 10
-9.5405338797
 20
15.8204404194
 11
-7.5967518586
 21
16.6339484297
  0
LINE
  5
28B
100
AcDbEntity
  8
SUPERFICI
100
AcDbLine
 62
250
  6
CONTINUOUS
 10
-9.4452759125
 20
15.7660825495
 11
-7.5020084676
 21
16.5793752004
  0
LINE
  5
28C
100
AcDbEntity
  8
SUPERFICI
100
AcDbLine
 62
250
  6
CONTINUOUS
 10
-6.3020042368
 20
15.1096761731
 11
-5.6534115252
 21
15.3749412729
  0
LINE
  5
28D
100
AcDbEntity
  8
SUPERFICI
100
AcDbLine
 62
7
  6
CONTINUOUS
 10
-7.5967514457
 20
16.6339486026
 11
-7.5962438147
 21
16.6341558408
  0
LINE
  5
28E
100
AcDbEntity
  8
SUPERFICI
100
AcDbLine
 62
250
  6
CONTINUOUS
 10
-8.2583702605
 20
14.3124259393
 11
-6.3020042368
 21
15.1096761731
  0
LINE
  5
28F
100
AcDbEntity
  8
SUPERFICI
100
AcDbLine
 62
7
  6
CONTINUOUS
 10
-7.5962434622
 20
16.6341559812
 11
-6.9427600146
 21
16.8942732472
  0
LINE
  5
290
100
AcDbEntity
  8
SUPERFICI
100
AcDbLine
 62
250
  6
CONTINUOUS
 10
-7.5020084676
 20
16.5793752004
 11
-6.849043922
 21
16.8392859189
  0
LINE
  5
291
100
AcDbEntity
  8
RACCORDO
100
AcDbLine
 62
7
  6
CONTINUOUS
 10
2.4863599656
 20
18.6884551395
 11
10.8641176647
 21
21.9090052352
  0
LINE
  5
292
100
AcDbEntity
  8
SUPERFICI
100
AcDbLine
 62
250
  6
CONTINUOUS
 10
3.2389780638
 20
-29.3042570141
 11
3.2388538388
 21
-29.3041051947
  0
LINE
  5
293
100
AcDbEntity
  8
RACCORDO
100
AcDbLine
 62
250
  6
CONTINUOUS
 10
-4.5791278351
 20
-22.9352094095
 11
-6.7159830153
 21
-20.3180463248
  0
LINE
  5
294
100
AcDbEntity
  8
RACCORDO
100
AcDbLine
 62
250
  6
CONTINUOUS
 10
-24.2041328759
 20
1.1004757061
 11
-26.340985038
 21
3.7175135918
  0
LINE
  5
295
100
AcDbEntity
  8
SUPERFICI
100
AcDbLine
 62
250
  6
CONTINUOUS
 10
3.1121199486
 20
-29.2143030914
 11
3.1535820745
 21
-29.2650836175
  0
LINE
  5
296
100
AcDbEntity
  8
SUPERFICI
100
AcDbLine
 62
7
  6
CONTINUOUS
 10
-15.9850190541
 20
25.7657047127
 11
-15.9850190541
 21
24.7583389405
  0
LINE
  5
297
100
AcDbEntity
  8
SUPERFICI
100
AcDbLine
 62
250
  6
CONTINUOUS
 10
-14.8363318921
 20
23.35149023
 11
-14.8363318921
 21
24.3588560022
  0
LINE
  5
298
100
AcDbEntity
  8
SUPERFICI
100
AcDbLine
 62
250
  6
CONTINUOUS
 10
-14.5646420993
 20
23.306460927
 11
-14.5646420993
 21
24.3064797974
  0
LINE
  5
299
100
AcDbEntity
  8
SUPERFICI
100
AcDbLine
 62
7
  6
CONTINUOUS
 10
-14.3020063522
 20
23.4227134946
 11
-14.3020063522
 21
24.4126675115
  0
LINE
  5
29A
100
AcDbEntity
  8
SUPERFICI
100
AcDbLine
 62
7
  6
CONTINUOUS
 10
-13.6605011353
 20
22.9566570514
 11
-13.6605011353
 21
21.95029827
  0
LINE
  5
29B
100
AcDbEntity
  8
SUPERFICI
100
AcDbLine
 62
250
  6
CONTINUOUS
 10
-13.6337062161
 20
22.8859463733
 11
-13.6337062161
 21
21.8785806011
  0
LINE
  5
29C
100
AcDbEntity
  8
SUPERFICI
100
AcDbLine
 62
7
  6
CONTINUOUS
 10
-13.346681024
 20
21.2571805503
 11
-13.346681024
 21
20.0757765106
  0
LINE
  5
29D
100
AcDbEntity
  8
SUPERFICI
100
AcDbLine
 62
250
  6
CONTINUOUS
 10
-6.1770063522
 20
14.1861823151
 11
-5.5284136406
 21
14.7613187559
  0
LINE
  5
29E
100
AcDbEntity
  8
SUPERFICI
100
AcDbLine
 62
7
  6
CONTINUOUS
 10
-6.1770063522
 20
14.1165838815
 11
-5.4888042615
 21
14.726843747
  0
LINE
  5
29F
100
AcDbEntity
  8
SUPERFICI
100
AcDbLine
 62
7
  6
CONTINUOUS
 10
-6.1770063522
 20
13.4716614145
 11
-7.2644380572
 21
12.9872877182
  0
LINE
  5
2A0
100
AcDbEntity
  8
SUPERFICI
100
AcDbLine
 62
7
  6
CONTINUOUS
 10
-4.7770063522
 20
12.8883894445
 11
-6.0716810855
 21
12.3465446003
  0
LINE
  5
2A1
100
AcDbEntity
  8
SUPERFICI
100
AcDbLine
 62
250
  6
CONTINUOUS
 10
-6.1770063522
 20
14.7798119513
 11
-5.5284136406
 21
15.0450770511
  0
LINE
  5
2A2
100
AcDbEntity
  8
SUPERFICI
100
AcDbLine
 62
250
  6
CONTINUOUS
 10
-8.1333723758
 20
13.9825617176
 11
-6.1770063522
 21
14.7798119513
  0
LINE
  5
2A3
100
AcDbEntity
  8
SUPERFICI
100
AcDbLine
 62
7
  6
CONTINUOUS
 10
1.7425286512
 20
15.4834721919
 11
-4.7770063522
 21
12.8883894445
  0
LINE
  5
2A4
100
AcDbEntity
  8
SUPERFICI
100
AcDbLine
 62
7
  6
CONTINUOUS
 10
3.3840405795
 20
17.2811188913
 11
-4.444602547
 21
14.1701082099
  0
LINE
  5
2A5
100
AcDbEntity
  8
SUPERFICI
100
AcDbLine
 62
7
  6
CONTINUOUS
 10
3.3815581541
 20
17.3715451436
 11
-4.5072739022
 21
14.2468646307
  0
LINE
  5
2A6
100
AcDbEntity
  8
RACCORDO
100
AcDbLine
 62
250
  6
CONTINUOUS
 10
3.0787563688
 20
17.9629206829
 11
11.5247939622
 21
21.2097187113
  0
LINE
  5
2A7
100
AcDbEntity
  8
SUPERFICI
100
AcDbLine
 62
7
  6
CONTINUOUS
 10
3.1518607975
 20
-29.197560589
 11
3.2389780664
 21
-29.3042570172
  0
LINE
  5
2A8
100
AcDbEntity
  8
DRAFT
100
AcDbLine
 62
7
  6
CONTINUOUS
 10
4.1088453125
 20
-26.4501845289
 11
3.999901089
 21
-26.3167556499
  0
LINE
  5
2A9
100
AcDbEntity
  8
SUPERFICI
100
AcDbLine
 62
7
  6
CONTINUOUS
 10
-13.4455689751
 20
23.775754856
 11
-13.4560926661
 21
24.7609671793
  0
LINE
  5
2AA
100
AcDbEntity
  8
SUPERFICI
100
AcDbLine
 62
7
  6
CONTINUOUS
 10
-12.8799714846
 20
19.5041763958
 11
-12.8799714846
 21
20.6855804354
  0
LINE
  5
2AB
100
AcDbEntity
  8
SUPERFICI
100
AcDbLine
 62
7
  6
CONTINUOUS
 10
-12.2446712571
 20
18.7146507953
 11
-12.2446712571
 21
18.4361370432
  0
LINE
  5
2AC
100
AcDbEntity
  8
SUPERFICI
100
AcDbLine
 62
250
  6
CONTINUOUS
 10
-12.2111776081
 20
18.6262624477
 11
-12.2111776081
 21
18.3477486955
  0
LINE
  5
2AD
100
AcDbEntity
  8
SUPERFICI
100
AcDbLine
 62
7
  6
CONTINUOUS
 10
-11.5770063522
 20
20.08528372
 11
-11.5770063522
 21
21.2166545699
  0
LINE
  5
2AE
100
AcDbEntity
  8
SUPERFICI
100
AcDbLine
 62
250
  6
CONTINUOUS
 10
-11.0229621152
 20
16.8924878645
 11
-11.0229621152
 21
17.1710016166
  0
LINE
  5
2AF
100
AcDbEntity
  8
SUPERFICI
100
AcDbLine
 62
250
  6
CONTINUOUS
 10
-10.6825910971
 20
16.8273224036
 11
-10.6825910971
 21
17.1058361557
  0
LINE
  5
2B0
100
AcDbEntity
  8
SUPERFICI
100
AcDbLine
 62
7
  6
CONTINUOUS
 10
-4.7350190541
 20
10.9799591373
 11
-5.6054078918
 21
10.5946919439
  0
LINE
  5
2B1
100
AcDbEntity
  8
DRAFT
100
AcDbLine
 62
7
  6
CONTINUOUS
 10
-2.054802224
 20
10.7564654276
 11
0.9784107696
 21
12.0166012305
  0
LINE
  5
2B2
100
AcDbEntity
  8
SUPERFICI
100
AcDbLine
 62
250
  6
CONTINUOUS
 10
-3.152005083
 20
10.898177474
 11
-2.3075953444
 21
11.245857638
  0
LINE
  5
2B3
100
AcDbEntity
  8
SUPERFICI
100
AcDbLine
 62
250
  6
CONTINUOUS
 10
-3.0520063522
 20
10.6342879716
 11
-2.2060926661
 21
10.9825873762
  0
LINE
  5
2B4
100
AcDbEntity
  8
SMUSSO
100
AcDbLine
 62
7
  6
CONTINUOUS
 10
-16.8087462212
 20
6.6956875465
 11
-16.76196287
 21
6.7147867697
  0
LINE
  5
2B5
100
AcDbEntity
  8
0
100
AcDbLine
 62
7
  6
CONTINUOUS
 10
4.1988517758
 20
13.7425025416
 11
4.805027024
 21
13.9899725504
  0
LINE
  5
2B6
100
AcDbEntity
  8
DRAFT
100
AcDbLine
 62
7
  6
CONTINUOUS
 10
1.9854659876
 20
12.8435902598
 11
4.8022322456
 21
13.9933954409
  0
LINE
  5
2B7
100
AcDbEntity
  8
DRAFT
100
AcDbLine
 62
7
  6
CONTINUOUS
 10
-16.6016276404
 20
6.4195935961
 11
-16.1081956973
 21
6.620495154
  0
LINE
  5
2B8
100
AcDbEntity
  8
SUPERFICI
100
AcDbLine
 62
7
  6
CONTINUOUS
 10
-5.6054078918
 20
11.7754788976
 11
-4.5619540242
 21
12.1978567024
  0
LINE
  5
2B9
100
AcDbEntity
  8
SUPERFICI
100
AcDbLine
 62
250
  6
CONTINUOUS
 10
-3.414134472
 20
10.7920705925
 11
-3.152005083
 21
10.898177474
  0
LINE
  5
2BA
100
AcDbEntity
  8
SUPERFICI
100
AcDbLine
 62
250
  6
CONTINUOUS
 10
-3.3146420993
 20
10.5279761223
 11
-3.0520063522
 21
10.6342879716
  0
LINE
  5
2BB
100
AcDbEntity
  8
ASSI
100
AcDbLine
 62
7
  6
CONTINUOUS
 10
0.9715220809
 20
13.3181462644
 11
2.3404115436
 21
13.8722012938
  0
LINE
  5
2BC
100
AcDbEntity
  8
SUPERFICI
100
AcDbLine
 62
7
  6
CONTINUOUS
 10
-3.4707494027
 20
12.6704246056
 11
2.1784400589
 21
14.9495919309
  0
LINE
  5
2BD
100
AcDbEntity
  8
0
100
AcDbLine
 62
7
  6
CONTINUOUS
 10
5.4765363794
 20
14.718345392
 11
4.8022322456
 21
14.4462971699
  0
LINE
  5
2BE
100
AcDbEntity
  8
DRAFT
100
AcDbLine
 62
7
  6
CONTINUOUS
 10
4.8022322456
 20
14.4462971699
 11
1.9912172074
 21
13.3121922386
  0
LINE
  5
2BF
100
AcDbEntity
  8
DRAFT
100
AcDbLine
 62
7
  6
CONTINUOUS
 10
0.4129282879
 20
11.4817910795
 11
1.9068350402
 21
12.0462575948
  0
LINE
  5
2C0
100
AcDbEntity
  8
RACCORDO
100
AcDbLine
 62
250
  6
CONTINUOUS
 10
-15.2236540438
 20
2.6822757352
 11
-15.2729134945
 21
2.812269378
  0
LINE
  5
2C1
100
AcDbEntity
  8
RACCORDO
100
AcDbLine
 62
7
  6
CONTINUOUS
 10
-14.9403761475
 20
2.4813393392
 11
-15.0655046324
 21
2.8115482095
  0
LINE
  5
2C2
100
AcDbEntity
  8
DRAFT
100
AcDbLine
 62
250
  6
CONTINUOUS
 10
-10.2780334198
 20
26.8471726134
 11
-10.2795687776
 21
27.0978620909
  0
LINE
  5
2C3
100
AcDbEntity
  8
SUPERFICI
100
AcDbLine
 62
250
  6
CONTINUOUS
 10
-10.1543186936
 20
16.1659471189
 11
-10.1543186936
 21
16.6868518254
  0
LINE
  5
2C4
100
AcDbEntity
  8
SUPERFICI
100
AcDbLine
 62
250
  6
CONTINUOUS
 10
-9.8139476756
 20
16.1099976235
 11
-9.8139476756
 21
16.7694210998
  0
LINE
  5
2C5
100
AcDbEntity
  8
SUPERFICI
100
AcDbLine
 62
7
  6
CONTINUOUS
 10
-9.6940163367
 20
15.5898230655
 11
-9.6940163367
 21
15.3122355107
  0
LINE
  5
2C6
100
AcDbEntity
  8
SUPERFICI
100
AcDbLine
 62
250
  6
CONTINUOUS
 10
-9.6605226877
 20
15.5014347179
 11
-9.6605226877
 21
15.2238471631
  0
LINE
  5
2C7
100
AcDbEntity
  8
SUPERFICI
100
AcDbLine
 62
7
  6
CONTINUOUS
 10
-8.7896282627
 20
27.8666674192
 11
-8.7896282627
 21
28.815085171
  0
LINE
  5
2C8
100
AcDbEntity
  8
RACCORDO
100
AcDbLine
 62
7
  6
CONTINUOUS
 10
-8.7620717121
 20
23.8930960256
 11
-8.7620717121
 21
23.0976278772
  0
LINE
  5
2C9
100
AcDbEntity
  8
SUPERFICI
100
AcDbLine
 62
7
  6
CONTINUOUS
 10
-8.7270063522
 20
16.5947608366
 11
-8.7270063522
 21
17.9029113734
  0
LINE
  5
2CA
100
AcDbEntity
  8
SUPERFICI
100
AcDbLine
 62
250
  6
CONTINUOUS
 10
-8.4736170356
 20
13.7701905529
 11
-8.4736170356
 21
14.0477781077
  0
LINE
  5
2CB
100
AcDbEntity
  8
SUPERFICI
100
AcDbLine
 62
250
  6
CONTINUOUS
 10
-8.1333723758
 20
13.7049741627
 11
-8.1333723758
 21
13.9825617176
  0
LINE
  5
2CC
100
AcDbEntity
  8
SUPERFICI
100
AcDbLine
 62
250
  6
CONTINUOUS
 10
-8.0784136406
 20
18.1681764732
 11
-8.0784136406
 21
17.884418178
  0
LINE
  5
2CD
100
AcDbEntity
  8
SUPERFICI
100
AcDbLine
 62
7
  6
CONTINUOUS
 10
-7.954671101
 20
18.3207527716
 11
-7.954671101
 21
18.0369944764
  0
LINE
  5
2CE
100
AcDbEntity
  8
SUPERFICI
100
AcDbLine
 62
7
  6
CONTINUOUS
 10
-3.3146420993
 20
9.5280811238
 11
-3.0520063522
 21
9.6443336914
  0
LINE
  5
2CF
100
AcDbEntity
  8
SMUSSO
100
AcDbLine
 62
7
  6
CONTINUOUS
 10
-1.8392550678
 20
10.4924751535
 11
0.4129282879
 21
11.4817910795
  0
LINE
  5
2D0
100
AcDbEntity
  8
SUPERFICI
100
AcDbLine
 62
7
  6
CONTINUOUS
 10
-2.0278611702
 20
9.4721222789
 11
-2.2881500113
 21
9.3624646676
  0
LINE
  5
2D1
100
AcDbEntity
  8
SUPERFICI
100
AcDbLine
 62
250
  6
CONTINUOUS
 10
-1.9520076214
 20
9.4284867373
 11
-2.2115087959
 21
9.3191609636
  0
LINE
  5
2D2
100
AcDbEntity
  8
SUPERFICI
100
AcDbLine
 62
7
  6
CONTINUOUS
 10
-3.0520063522
 20
9.6443336914
 11
-2.1955689751
 21
9.9973750528
  0
LINE
  5
2D3
100
AcDbEntity
  8
SUPERFICI
100
AcDbLine
 62
7
  6
CONTINUOUS
 10
-2.0273425256
 20
9.4723340666
 11
-2.0278574323
 21
9.4721238536
  0
LINE
  5
2D4
100
AcDbEntity
  8
RACCORDO
100
AcDbLine
 62
7
  6
CONTINUOUS
 10
-15.334163159
 20
2.7872643072
 11
-15.2729134945
 21
2.812269378
  0
LINE
  5
2D5
100
AcDbEntity
  8
SUPERFICI
100
AcDbLine
 62
7
  6
CONTINUOUS
 10
-1.1738597547
 20
9.8097459716
 11
-2.0273386454
 21
9.4723356009
  0
LINE
  5
2D6
100
AcDbEntity
  8
SUPERFICI
100
AcDbLine
 62
250
  6
CONTINUOUS
 10
-1.0990457447
 20
9.765692714
 11
-1.9520076214
 21
9.4284867373
  0
LINE
  5
2D7
100
AcDbEntity
  8
RACCORDO
100
AcDbLine
 62
7
  6
CONTINUOUS
 10
2.929381661
 20
11.8051555966
 11
1.6275589557
 21
11.3132672476
  0
LINE
  5
2D8
100
AcDbEntity
  8
RACCORDO
100
AcDbLine
 62
250
  6
CONTINUOUS
 10
3.0030957705
 20
11.7606992791
 11
1.6879130574
 21
11.2637629062
  0
LINE
  5
2D9
100
AcDbEntity
  8
SMUSSO
100
AcDbLine
 62
7
  6
CONTINUOUS
 10
-16.76196287
 20
6.7147867697
 11
-16.8003161066
 21
6.7575642465
  0
LINE
  5
2DA
100
AcDbEntity
  8
RACCORDO
100
AcDbLine
 62
250
  6
CONTINUOUS
 10
-24.2041285626
 20
14.5353748991
 11
-26.340985038
 21
17.1525424343
  0
LINE
  5
2DB
100
AcDbEntity
  8
RACCORDO
100
AcDbLine
 62
250
  6
CONTINUOUS
 10
-4.5791278351
 20
-9.5001805669
 11
-6.7159871021
 21
-6.883136835
  0
LINE
  5
2DC
100
AcDbEntity
  8
RACCORDO
100
AcDbLine
 62
7
  6
CONTINUOUS
 10
-16.6500641094
 20
6.6365200372
 11
-16.789977213
 21
6.8078778933
  0
LINE
  5
2DD
100
AcDbEntity
  8
RACCORDO
100
AcDbLine
 62
7
  6
CONTINUOUS
 10
-6.6791222738
 20
-7.2097374018
 11
-7.3032336534
 21
-5.5627334131
  0
LWPOLYLINE
  5
2DE
100
AcDbEntity
  8
RACCORDO
100
AcDbPolyline
 62
7
  6
CONTINUOUS
 90
28
 70
0
 10
-6.7688337984
 20
-6.8314965412
 10
-6.6264757877
 20
-7.4317050062
 10
-6.4776136765
 20
-8.0999068002
 10
-6.3407052377
 20
-8.7604060215
 10
-6.215877433
 20
-9.4123901327
 10
-6.1033028989
 20
-10.0547544416
 10
-6.0031755804
 20
-10.6861136844
 10
-5.9155808822
 20
-11.3055569128
 10
-5.840591673
 20
-11.9121715685
 10
-5.7783040509
 20
-12.5046348357
 10
-5.7287262858
 20
-13.0821191114
 10
-5.6918514325
 20
-13.6438049977
 10
-5.6676671734
 20
-14.1884571881
 10
-5.6560975212
 20
-14.7153657381
 10
-5.6570473918
 20
-15.2238223481
 10
-5.6703811191
 20
-15.7126719264
 10
-5.6959186136
 20
-16.1812323219
 10
-5.7334642594
 20
-16.6290546893
 10
-5.7827670946
 20
-17.0553727175
 10
-5.8434999268
 20
-17.4593683677
 10
-5.9154061442
 20
-17.8409979526
 10
-5.9983184205
 20
-18.2004871297
 10
-6.0919220544
 20
-18.5373182559
 10
-6.1958702412
 20
-18.8510462983
 10
-6.3099292446
 20
-19.1416450032
 10
-6.4337101707
 20
-19.4086852374
 10
-6.5666853054
 20
-19.651637372
 10
-6.693719915
 20
-19.849361757
  0
LINE
  5
2DF
100
AcDbEntity
  8
RACCORDO
100
AcDbLine
 62
250
  6
CONTINUOUS
 10
-7.0623376834
 20
-5.7100474144
 11
-7.0627312208
 21
-5.6695884431
  0
LINE
  5
2E0
100
AcDbEntity
  8
0
100
AcDbLine
 62
7
  6
CONTINUOUS
 10
-6.4477677544
 20
28.224676973
 11
-6.444972976
 21
27.7683523535
  0
LINE
  5
2E1
100
AcDbEntity
  8
SUPERFICI
100
AcDbLine
 62
250
  6
CONTINUOUS
 10
-7.6046827169
 20
13.0432935325
 11
-7.6046827169
 21
13.5642757131
  0
LINE
  5
2E2
100
AcDbEntity
  8
RACCORDO
100
AcDbLine
 62
250
  6
CONTINUOUS
 10
-7.473132523
 20
24.450006336
 11
-7.473132523
 21
23.6177738505
  0
LINE
  5
2E3
100
AcDbEntity
  8
RACCORDO
100
AcDbLine
 62
7
  6
CONTINUOUS
 10
-7.3761401379
 20
24.5712280982
 11
-7.3761401379
 21
23.6569147184
  0
LINE
  5
2E4
100
AcDbEntity
  8
SUPERFICI
100
AcDbLine
 62
250
  6
CONTINUOUS
 10
-7.2644380572
 20
12.9872877182
 11
-7.2644380572
 21
13.6467165843
  0
LINE
  5
2E5
100
AcDbEntity
  8
0
100
AcDbLine
 62
7
  6
CONTINUOUS
 10
-6.4477677544
 20
27.771775244
 11
-6.4477677544
 21
28.224676973
  0
LINE
  5
2E6
100
AcDbEntity
  8
SUPERFICI
100
AcDbLine
 62
7
  6
CONTINUOUS
 10
-6.1770063522
 20
13.4716614145
 11
-6.1770063522
 21
14.7798119513
  0
LINE
  5
2E7
100
AcDbEntity
  8
SUPERFICI
100
AcDbLine
 62
7
  6
CONTINUOUS
 10
-6.0716810855
 20
12.3465446003
 11
-6.0716810855
 21
11.1657576466
  0
LINE
  5
2E8
100
AcDbEntity
  8
SUPERFICI
100
AcDbLine
 62
7
  6
CONTINUOUS
 10
-5.6054078918
 20
10.5946919439
 11
-5.6054078918
 21
11.7754788976
  0
LINE
  5
2E9
100
AcDbEntity
  8
SUPERFICI
100
AcDbLine
 62
250
  6
CONTINUOUS
 10
-5.5284136406
 20
15.0450770511
 11
-5.5284136406
 21
14.7613187559
  0
LINE
  5
2EA
100
AcDbEntity
  8
SUPERFICI
100
AcDbLine
 62
7
  6
CONTINUOUS
 10
-5.404671101
 20
15.1976533496
 11
-5.404671101
 21
14.9138950544
  0
LINE
  5
2EB
100
AcDbEntity
  8
RACCORDO
100
AcDbLine
 62
7
  6
CONTINUOUS
 10
-0.5847782639
 20
9.1358462544
 11
1.6252804138
 21
11.3117910554
  0
LINE
  5
2EC
100
AcDbEntity
  8
RACCORDO
100
AcDbLine
 62
250
  6
CONTINUOUS
 10
-0.5360770842
 20
9.0761997343
 11
1.6869523153
 21
11.2649150446
  0
LINE
  5
2ED
100
AcDbEntity
  8
SUPERFICI
100
AcDbLine
 62
7
  6
CONTINUOUS
 10
-0.3270063522
 20
6.3069039169
 11
-1.6304078302
 21
5.7263310047
  0
LINE
  5
2EE
100
AcDbEntity
  8
SUPERFICI
100
AcDbLine
 62
7
  6
CONTINUOUS
 10
-1.0636892437
 20
7.9133748536
 11
-2.096681024
 21
7.4781836612
  0
LINE
  5
2EF
100
AcDbEntity
  8
SUPERFICI
100
AcDbLine
 62
7
  6
CONTINUOUS
 10
-0.3270063522
 20
7.4382747668
 11
6.1488780043
 21
10.0868184201
  0
LINE
  5
2F0
100
AcDbEntity
  8
SUPERFICI
100
AcDbLine
 62
7
  6
CONTINUOUS
 10
-0.3270063522
 20
6.3069039169
 11
6.1891718253
 21
8.971927164
  0
LINE
  5
2F1
100
AcDbEntity
  8
SUPERFICI
100
AcDbLine
 62
7
  6
CONTINUOUS
 10
1.1032485543
 20
5.9786682214
 11
1.1037561853
 21
5.9788754597
  0
LINE
  5
2F2
100
AcDbEntity
  8
SUPERFICI
100
AcDbLine
 62
7
  6
CONTINUOUS
 10
-1.6304078302
 20
6.9071179584
 11
-0.3270063522
 21
7.4382747668
  0
LINE
  5
2F3
100
AcDbEntity
  8
RACCORDO
100
AcDbLine
 62
7
  6
CONTINUOUS
 10
15.2789534042
 20
11.7659402773
 11
15.7094631526
 21
11.9407272212
  0
LINE
  5
2F4
100
AcDbEntity
  8
SUPERFICI
100
AcDbLine
 62
7
  6
CONTINUOUS
 10
5.7129665966
 20
10.6206986811
 11
0.0641083136
 21
8.3411257465
  0
LINE
  5
2F5
100
AcDbEntity
  8
DRAFT
100
AcDbLine
 62
7
  6
CONTINUOUS
 10
6.4109376493
 20
10.2015100665
 11
7.8078218023
 21
10.7652167747
  0
LINE
  5
2F6
100
AcDbEntity
  8
0
100
AcDbLine
 62
7
  6
CONTINUOUS
 10
7.8078218023
 20
10.7652167747
 11
8.4820864058
 21
11.0373134115
  0
LINE
  5
2F7
100
AcDbEntity
  8
SUPERFICI
100
AcDbLine
 62
7
  6
CONTINUOUS
 10
1.1037565378
 20
5.9788756001
 11
1.7572399854
 21
6.238992866
  0
LINE
  5
2F8
100
AcDbEntity
  8
SUPERFICI
100
AcDbLine
 62
7
  6
CONTINUOUS
 10
-4.9081131599
 20
28.1357828895
 11
-4.9057744163
 21
27.7539185192
  0
LINE
  5
2F9
100
AcDbEntity
  8
SUPERFICI
100
AcDbLine
 62
250
  6
CONTINUOUS
 10
-5.0608281747
 20
22.7503069672
 11
-5.0608281747
 21
23.1788409749
  0
LINE
  5
2FA
100
AcDbEntity
  8
SUPERFICI
100
AcDbLine
 62
250
  6
CONTINUOUS
 10
-5.0608281747
 20
23.3042784647
 11
-5.0608281747
 21
23.8801324494
  0
LINE
  5
2FB
100
AcDbEntity
  8
SUPERFICI
100
AcDbLine
 62
7
  6
CONTINUOUS
 10
-4.8365855528
 20
23.0252011241
 11
-4.8365855528
 21
23.9733660243
  0
LINE
  5
2FC
100
AcDbEntity
  8
SUPERFICI
100
AcDbLine
 62
7
  6
CONTINUOUS
 10
-4.7350190541
 20
11.9872010376
 11
-4.7350190541
 21
10.9799591373
  0
LINE
  5
2FD
100
AcDbEntity
  8
SUPERFICI
100
AcDbLine
 62
250
  6
CONTINUOUS
 10
-3.5863318921
 20
9.5731104268
 11
-3.5863318921
 21
10.5803523271
  0
LINE
  5
2FE
100
AcDbEntity
  8
SUPERFICI
100
AcDbLine
 62
250
  6
CONTINUOUS
 10
-3.3146420993
 20
9.5280811238
 11
-3.3146420993
 21
10.5279761223
  0
LINE
  5
2FF
100
AcDbEntity
  8
SUPERFICI
100
AcDbLine
 62
7
  6
CONTINUOUS
 10
-3.0520063522
 20
9.6443336914
 11
-3.0520063522
 21
10.6342879716
  0
LINE
  5
300
100
AcDbEntity
  8
SUPERFICI
100
AcDbLine
 62
7
  6
CONTINUOUS
 10
-2.4105011353
 20
9.1781533764
 11
-2.4105011353
 21
8.1719184668
  0
LINE
  5
301
100
AcDbEntity
  8
SUPERFICI
100
AcDbLine
 62
250
  6
CONTINUOUS
 10
-2.3837062161
 20
9.1074426982
 11
-2.3837062161
 21
8.1002007979
  0
LINE
  5
302
100
AcDbEntity
  8
SUPERFICI
100
AcDbLine
 62
7
  6
CONTINUOUS
 10
11.4481276559
 20
7.4920555165
 11
2.9623299837
 21
3.8508828651
  0
LINE
  5
303
100
AcDbEntity
  8
SUPERFICI
100
AcDbLine
 62
7
  6
CONTINUOUS
 10
-0.8405338797
 20
5.1651600383
 11
1.1032481414
 21
5.9786680486
  0
LINE
  5
304
100
AcDbEntity
  8
SUPERFICI
100
AcDbLine
 62
250
  6
CONTINUOUS
 10
-0.7452759125
 20
5.1108021684
 11
1.1979915324
 21
5.9240948193
  0
LINE
  5
305
100
AcDbEntity
  8
SUPERFICI
100
AcDbLine
 62
7
  6
CONTINUOUS
 10
10.5745822057
 20
8.4745399121
 11
2.7684730005
 21
5.2767355179
  0
LINE
  5
306
100
AcDbEntity
  8
SUPERFICI
100
AcDbLine
 62
250
  6
CONTINUOUS
 10
2.3979957632
 20
4.454395792
 11
3.0465884748
 21
4.7196608918
  0
LINE
  5
307
100
AcDbEntity
  8
SUPERFICI
100
AcDbLine
 62
250
  6
CONTINUOUS
 10
2.5229936478
 20
4.1245315702
 11
3.1715863594
 21
4.38979667
  0
LINE
  5
308
100
AcDbEntity
  8
SUPERFICI
100
AcDbLine
 62
250
  6
CONTINUOUS
 10
0.4416297395
 20
3.6571455582
 11
2.3979957632
 21
4.454395792
  0
LINE
  5
309
100
AcDbEntity
  8
SUPERFICI
100
AcDbLine
 62
250
  6
CONTINUOUS
 10
0.5666276242
 20
3.3272813365
 11
2.5229936478
 21
4.1245315702
  0
LINE
  5
30A
100
AcDbEntity
  8
SUPERFICI
100
AcDbLine
 62
250
  6
CONTINUOUS
 10
1.1979915324
 20
5.9240948193
 11
1.850956078
 21
6.1840055378
  0
LINE
  5
30B
100
AcDbEntity
  8
RACCORDO
100
AcDbLine
 62
250
  6
CONTINUOUS
 10
15.7409824091
 20
10.742536551
 11
10.9565507817
 21
8.8725423584
  0
LINE
  5
30C
100
AcDbEntity
  8
RACCORDO
100
AcDbLine
 62
250
  6
CONTINUOUS
 10
15.9130326112
 20
10.5318245686
 11
11.1285975051
 21
8.6618290163
  0
LINE
  5
30D
100
AcDbEntity
  8
RACCORDO
100
AcDbLine
 62
7
  6
CONTINUOUS
 10
16.8105853711
 20
10.5921334313
 11
16.3750697157
 21
10.4234774463
  0
LINE
  5
30E
100
AcDbEntity
  8
RACCORDO
100
AcDbLine
 62
7
  6
CONTINUOUS
 10
-7.0366477663
 20
-5.7704398972
 11
-7.0855177074
 21
-5.7830163225
  0
LINE
  5
30F
100
AcDbEntity
  8
RACCORDO
100
AcDbLine
 62
250
  6
CONTINUOUS
 10
-7.0528956591
 20
-5.7076175586
 11
-7.0623376834
 21
-5.7100474144
  0
LINE
  5
310
100
AcDbEntity
  8
RACCORDO
100
AcDbLine
 62
7
  6
CONTINUOUS
 10
-15.044471521
 20
11.6913279899
 11
-14.7192454708
 21
11.3027006306
  0
LINE
  5
311
100
AcDbEntity
  8
SUPERFICI
100
AcDbLine
 62
250
  6
CONTINUOUS
 10
-25.4921937146
 20
25.793819191
 11
-3.7131516272
 21
-0.8799509094
  0
LWPOLYLINE
  5
312
100
AcDbEntity
  8
RACCORDO
100
AcDbPolyline
 62
7
  6
CONTINUOUS
 90
28
 70
0
 10
-14.7192355823
 20
11.3026883109
 10
-14.3742726582
 20
10.8691269007
 10
-13.9921772064
 20
10.3626008578
 10
-13.6137423443
 20
9.832842432
 10
-13.2395027818
 20
9.2805256898
 10
-12.8700873258
 20
8.7065594927
 10
-12.5062083354
 20
8.1121192328
 10
-12.1483519792
 20
7.4981664587
 10
-11.7969731254
 20
6.8657119533
 10
-11.4526399132
 20
6.2161086715
 10
-11.1157144532
 20
5.5504655673
 10
-10.7865306351
 20
4.8699370965
 10
-10.4655252754
 20
4.1760273388
 10
-10.1529483659
 20
3.4699676812
 10
-9.8490150882
 20
2.7530087207
 10
-9.5540320442
 20
2.0267333171
 10
-9.2681447094
 20
1.2924431868
 10
-8.9914764318
 20
0.5514638494
 10
-8.7242334209
 20
-0.1945602959
 10
-8.4664847567
 20
-0.94427043
 10
-8.2182780871
 20
-1.6963120813
 10
-7.9797355646
 20
-2.4490324087
 10
-7.7508724547
 20
-3.2010479918
 10
-7.5316878386
 20
-3.9509910217
 10
-7.3222434305
 20
-4.6972382757
 10
-7.122535877
 20
-5.4383542505
 10
-6.9325064904
 20
-6.173101251
 10
-6.7688338369
 20
-6.8314961987
  0
LINE
  5
313
100
AcDbEntity
  8
SUPERFICI
100
AcDbLine
 62
7
  6
CONTINUOUS
 10
-2.1955689751
 20
9.9973750528
 11
-2.2060926661
 21
10.9825873762
  0
LINE
  5
314
100
AcDbEntity
  8
SUPERFICI
100
AcDbLine
 62
7
  6
CONTINUOUS
 10
-2.096681024
 20
7.4781836612
 11
-2.096681024
 21
6.2973967074
  0
LINE
  5
315
100
AcDbEntity
  8
SUPERFICI
100
AcDbLine
 62
7
  6
CONTINUOUS
 10
-1.6304078302
 20
5.7263310047
 11
-1.6304078302
 21
6.9071179584
  0
LINE
  5
316
100
AcDbEntity
  8
SUPERFICI
100
AcDbLine
 62
7
  6
CONTINUOUS
 10
-0.9940163367
 20
4.9345426844
 11
-0.9940163367
 21
4.6569551296
  0
LINE
  5
317
100
AcDbEntity
  8
SUPERFICI
100
AcDbLine
 62
250
  6
CONTINUOUS
 10
-0.9605226877
 20
4.8461543368
 11
-0.9605226877
 21
4.568566782
  0
LINE
  5
318
100
AcDbEntity
  8
SUPERFICI
100
AcDbLine
 62
7
  6
CONTINUOUS
 10
-0.3270063522
 20
6.3069039169
 11
-0.3270063522
 21
7.4382747668
  0
LINE
  5
319
100
AcDbEntity
  8
DRAFT
100
AcDbLine
 62
250
  6
CONTINUOUS
 10
0.1981276559
 20
21.2704353196
 11
0.1981276559
 21
21.2011421727
  0
LINE
  5
31A
100
AcDbEntity
  8
SUPERFICI
100
AcDbLine
 62
250
  6
CONTINUOUS
 10
0.2263829644
 20
-30.8836629565
 11
0.2263829644
 21
-30.6060754017
  0
LINE
  5
31B
100
AcDbEntity
  8
SUPERFICI
100
AcDbLine
 62
250
  6
CONTINUOUS
 10
0.2263829644
 20
3.1149101718
 11
0.2263829644
 21
3.3924977266
  0
LINE
  5
31C
100
AcDbEntity
  8
SUPERFICI
100
AcDbLine
 62
7
  6
CONTINUOUS
 10
0.4406027651
 20
21.7446803558
 11
0.4406071714
 21
21.7449283967
  0
LINE
  5
31D
100
AcDbEntity
  8
SUPERFICI
100
AcDbLine
 62
250
  6
CONTINUOUS
 10
2.5229936478
 20
3.530901934
 11
3.1715863594
 21
4.1060383748
  0
LINE
  5
31E
100
AcDbEntity
  8
SUPERFICI
100
AcDbLine
 62
7
  6
CONTINUOUS
 10
2.5229936478
 20
3.4613035004
 11
3.2111957385
 21
4.0715633659
  0
LINE
  5
31F
100
AcDbEntity
  8
DRAFT
100
AcDbLine
 62
7
  6
CONTINUOUS
 10
4.1088453125
 20
2.1768896618
 11
6.8971977251
 21
3.4695046634
  0
LINE
  5
320
100
AcDbEntity
  8
SUPERFICI
100
AcDbLine
 62
7
  6
CONTINUOUS
 10
2.5229936478
 20
2.8163810334
 11
1.4355619428
 21
2.3320073371
  0
LINE
  5
321
100
AcDbEntity
  8
DRAFT
100
AcDbLine
 62
7
  6
CONTINUOUS
 10
3.6925422097
 20
2.7844272446
 11
6.4629282879
 21
4.0013739295
  0
LINE
  5
322
100
AcDbEntity
  8
SUPERFICI
100
AcDbLine
 62
250
  6
CONTINUOUS
 10
2.7731839477
 20
2.5099617468
 11
-2.8980467149
 21
0.0468354983
  0
LINE
  5
323
100
AcDbEntity
  8
SUPERFICI
100
AcDbLine
 62
250
  6
CONTINUOUS
 10
3.0229936478
 20
1.8502933843
 11
-2.6329797709
 21
-0.6062063452
  0
LINE
  5
324
100
AcDbEntity
  8
SUPERFICI
100
AcDbLine
 62
7
  6
CONTINUOUS
 10
11.4481276559
 20
7.1653529765
 11
3.0767160996
 21
3.5483120359
  0
LINE
  5
325
100
AcDbEntity
  8
SUPERFICI
100
AcDbLine
 62
250
  6
CONTINUOUS
 10
3.6346587908
 20
2.8649745864
 11
2.7729968209
 21
2.5101909294
  0
LINE
  5
326
100
AcDbEntity
  8
SUPERFICI
100
AcDbLine
 62
250
  6
CONTINUOUS
 10
3.8846556177
 20
2.2052508305
 11
3.0229936478
 21
1.8504671735
  0
LINE
  5
327
100
AcDbEntity
  8
SUPERFICI
100
AcDbLine
 62
7
  6
CONTINUOUS
 10
3.8846556177
 20
1.3216675394
 11
4.2550444554
 21
1.4728781492
  0
LINE
  5
328
100
AcDbEntity
  8
RACCORDO
100
AcDbLine
 62
7
  6
CONTINUOUS
 10
6.8971977251
 20
3.4695046634
 11
11.8279878073
 21
5.4456753356
  0
LINE
  5
329
100
AcDbEntity
  8
RACCORDO
100
AcDbLine
 62
250
  6
CONTINUOUS
 10
12.2181337856
 20
6.1666671365
 11
20.9952545615
 21
9.6108206625
  0
LINE
  5
32A
100
AcDbEntity
  8
RACCORDO
100
AcDbLine
 62
250
  6
CONTINUOUS
 10
12.6552881969
 20
5.0386341167
 11
21.6915127422
 21
8.5844602964
  0
LINE
  5
32B
100
AcDbEntity
  8
SUPERFICI
100
AcDbLine
 62
7
  6
CONTINUOUS
 10
3.8846556177
 20
1.7177674705
 11
4.0137719878
 21
1.7683753664
  0
LINE
  5
32C
100
AcDbEntity
  8
RACCORDO
100
AcDbLine
 62
7
  6
CONTINUOUS
 10
6.4629282879
 20
4.0013739295
 11
12.2137628306
 21
6.1743030826
  0
LINE
  5
32D
100
AcDbEntity
  8
SUPERFICI
100
AcDbLine
 62
7
  6
CONTINUOUS
 10
4.7463175876
 20
-0.0852768887
 11
3.0229936478
 21
-0.5537078489
  0
LINE
  5
32E
100
AcDbEntity
  8
SUPERFICI
100
AcDbLine
 62
7
  6
CONTINUOUS
 10
4.7724995203
 20
-0.1173430765
 11
3.0229936478
 21
-0.5537078489
  0
LINE
  5
32F
100
AcDbEntity
  8
SUPERFICI
100
AcDbLine
 62
250
  6
CONTINUOUS
 10
-24.6852619906
 20
26.7306156691
 11
-2.8980467149
 21
0.0468354983
  0
LINE
  5
330
100
AcDbEntity
  8
DRAFT
100
AcDbLine
 62
250
  6
CONTINUOUS
 10
0.9784107696
 20
12.0166012305
 11
0.9704312224
 21
13.3194822878
  0
LINE
  5
331
100
AcDbEntity
  8
SUPERFICI
100
AcDbLine
 62
7
  6
CONTINUOUS
 10
0.4406086185
 20
21.7446471846
 11
0.4406086185
 21
21.4792277894
  0
LINE
  5
332
100
AcDbEntity
  8
SUPERFICI
100
AcDbLine
 62
250
  6
CONTINUOUS
 10
0.5666276242
 20
-30.9488793467
 11
0.5666276242
 21
-30.6712917918
  0
LINE
  5
333
100
AcDbEntity
  8
SUPERFICI
100
AcDbLine
 62
250
  6
CONTINUOUS
 10
0.5666276242
 20
3.0496937816
 11
0.5666276242
 21
3.3272813365
  0
LINE
  5
334
100
AcDbEntity
  8
SUPERFICI
100
AcDbLine
 62
250
  6
CONTINUOUS
 10
1.0953172831
 20
2.3880131514
 11
1.0953172831
 21
2.908995332
  0
LINE
  5
335
100
AcDbEntity
  8
SUPERFICI
100
AcDbLine
 62
250
  6
CONTINUOUS
 10
1.4355619428
 20
-29.9130527894
 11
1.4355619428
 21
-29.8113187789
  0
LINE
  5
336
100
AcDbEntity
  8
SUPERFICI
100
AcDbLine
 62
250
  6
CONTINUOUS
 10
1.4355619428
 20
2.3320073371
 11
1.4355619428
 21
2.9914362032
  0
LINE
  5
337
100
AcDbEntity
  8
SUPERFICI
100
AcDbLine
 62
7
  6
CONTINUOUS
 10
2.4603717373
 20
15.0367058391
 11
2.4603717373
 21
14.0882876161
  0
LINE
  5
338
100
AcDbEntity
  8
SUPERFICI
100
AcDbLine
 62
7
  6
CONTINUOUS
 10
2.5229936478
 20
-29.4311615216
 11
2.5229936478
 21
-30.1701533005
  0
LINE
  5
339
100
AcDbEntity
  8
SUPERFICI
100
AcDbLine
 62
7
  6
CONTINUOUS
 10
2.5229936478
 20
2.8163810334
 11
2.5229936478
 21
4.1245315702
  0
LINE
  5
33A
100
AcDbEntity
  8
SUPERFICI
100
AcDbLine
 62
7
  6
CONTINUOUS
 10
3.0229936478
 20
1.8504671735
 11
3.0229936478
 21
-0.5537078489
  0
LINE
  5
33B
100
AcDbEntity
  8
SUPERFICI
100
AcDbLine
 62
7
  6
CONTINUOUS
 10
3.0229936478
 20
-29.1208337752
 11
3.0229936478
 21
-26.7166587528
  0
LINE
  5
33C
100
AcDbEntity
  8
DRAFT
100
AcDbLine
 62
250
  6
CONTINUOUS
 10
2.3471104106
 20
11.7612294837
 11
2.3558432417
 21
12.5818491678
  0
LINE
  5
33D
100
AcDbEntity
  8
DRAFT
100
AcDbLine
 62
7
  6
CONTINUOUS
 10
1.9854659876
 20
12.8435902598
 11
1.9912172074
 21
13.3121922386
  0
LINE
  5
33E
100
AcDbEntity
  8
RACCORDO
100
AcDbLine
 62
7
  6
CONTINUOUS
 10
16.2736297902
 20
12.0601594116
 11
15.9514022984
 21
11.8040009908
  0
LINE
  5
33F
100
AcDbEntity
  8
SUPERFICI
100
AcDbLine
 62
7
  6
CONTINUOUS
 10
3.8846556177
 20
-0.1886395376
 11
4.7463175876
 21
0.1764287736
  0
LINE
  5
340
100
AcDbEntity
  8
RACCORDO
100
AcDbLine
 62
250
  6
CONTINUOUS
 10
12.1928371046
 20
4.4828532054
 11
4.4621958456
 21
1.2444122924
  0
LINE
  5
341
100
AcDbEntity
  8
RACCORDO
100
AcDbLine
 62
250
  6
CONTINUOUS
 10
12.4856872082
 20
3.1243343025
 11
4.7687380505
 21
-0.1083638678
  0
LINE
  5
342
100
AcDbEntity
  8
RACCORDO
100
AcDbLine
 62
7
  6
CONTINUOUS
 10
-7.3169395344
 20
-5.4110264983
 11
-7.2530950712
 21
-5.3849621054
  0
LINE
  5
343
100
AcDbEntity
  8
SUPERFICI
100
AcDbLine
 62
7
  6
CONTINUOUS
 10
0.4261656451
 20
2.9538585089
 11
1.2067304793
 21
2.90152565
  0
LINE
  5
344
100
AcDbEntity
  8
SUPERFICI
100
AcDbLine
 62
250
  6
CONTINUOUS
 10
0.5666276242
 20
3.0496937816
 11
1.4355619428
 21
2.9914362032
  0
LINE
  5
345
100
AcDbEntity
  8
SUPERFICI
100
AcDbLine
 62
7
  6
CONTINUOUS
 10
-20.8883204245
 20
28.9333035413
 11
-19.7001049316
 21
27.4780427102
  0
LINE
  5
346
100
AcDbEntity
  8
SUPERFICI
100
AcDbLine
 62
7
  6
CONTINUOUS
 10
-12.1883204245
 20
18.2780231602
 11
-11.0001049316
 21
16.8227623291
  0
LINE
  5
347
100
AcDbEntity
  8
SUPERFICI
100
AcDbLine
 62
7
  6
CONTINUOUS
 10
-9.637665504
 20
15.1541216277
 11
-8.450759852
 21
13.7004650175
  0
LINE
  5
348
100
AcDbEntity
  8
SUPERFICI
100
AcDbLine
 62
7
  6
CONTINUOUS
 10
-0.937665504
 20
4.4988412466
 11
0.249240148
 21
3.0451846364
  0
LINE
  5
349
100
AcDbEntity
  8
SUPERFICI
100
AcDbLine
 62
250
  6
CONTINUOUS
 10
-20.9111776081
 20
29.0030290766
 11
-19.7229621152
 21
27.5477682456
  0
LINE
  5
34A
100
AcDbEntity
  8
SUPERFICI
100
AcDbLine
 62
250
  6
CONTINUOUS
 10
-12.2111776081
 20
18.3477486955
 11
-11.0229621152
 21
16.8924878645
  0
LINE
  5
34B
100
AcDbEntity
  8
SUPERFICI
100
AcDbLine
 62
250
  6
CONTINUOUS
 10
-9.6605226877
 20
15.2238471631
 11
-8.4736170356
 21
13.7701905529
  0
LINE
  5
34C
100
AcDbEntity
  8
SUPERFICI
100
AcDbLine
 62
250
  6
CONTINUOUS
 10
-0.9605226877
 20
4.568566782
 11
0.2263829644
 21
3.1149101718
  0
LINE
  5
34D
100
AcDbEntity
  8
SUPERFICI
100
AcDbLine
 62
250
  6
CONTINUOUS
 10
0.2263829644
 20
3.3924977266
 11
-0.9605226877
 21
4.8461543368
  0
LINE
  5
34E
100
AcDbEntity
  8
SUPERFICI
100
AcDbLine
 62
250
  6
CONTINUOUS
 10
-8.4736170356
 20
14.0477781077
 11
-9.6605226877
 21
15.5014347179
  0
LINE
  5
34F
100
AcDbEntity
  8
SUPERFICI
100
AcDbLine
 62
250
  6
CONTINUOUS
 10
-11.0229621152
 20
17.1710016166
 11
-12.2111776081
 21
18.6262624477
  0
LINE
  5
350
100
AcDbEntity
  8
SUPERFICI
100
AcDbLine
 62
250
  6
CONTINUOUS
 10
-19.7229621152
 20
27.8262819978
 11
-20.9111776081
 21
29.2815428288
  0
LINE
  5
351
100
AcDbEntity
  8
SUPERFICI
100
AcDbLine
 62
7
  6
CONTINUOUS
 10
-19.3041159771
 20
27.3721144161
 11
-18.8543186936
 21
26.8212275
  0
LINE
  5
352
100
AcDbEntity
  8
SUPERFICI
100
AcDbLine
 62
7
  6
CONTINUOUS
 10
-10.6041159771
 20
16.716834035
 11
-10.1543186936
 21
16.1659471189
  0
LINE
  5
353
100
AcDbEntity
  8
SUPERFICI
100
AcDbLine
 62
7
  6
CONTINUOUS
 10
1.0953172831
 20
2.3880131514
 11
0.6453024478
 21
2.9391665129
  0
LINE
  5
354
100
AcDbEntity
  8
SUPERFICI
100
AcDbLine
 62
7
  6
CONTINUOUS
 10
-1.6304078302
 20
5.7263310047
 11
-2.096681024
 21
6.2973967074
  0
LINE
  5
355
100
AcDbEntity
  8
SUPERFICI
100
AcDbLine
 62
7
  6
CONTINUOUS
 10
-5.6054078918
 20
10.5946919439
 11
-6.0716810855
 21
11.1657576466
  0
LINE
  5
356
100
AcDbEntity
  8
SUPERFICI
100
AcDbLine
 62
7
  6
CONTINUOUS
 10
-7.6046827169
 20
13.0432935325
 11
-8.0546975522
 21
13.594446894
  0
LINE
  5
357
100
AcDbEntity
  8
SUPERFICI
100
AcDbLine
 62
7
  6
CONTINUOUS
 10
-12.8799714846
 20
19.5041763958
 11
-13.346681024
 21
20.0757765106
  0
LINE
  5
358
100
AcDbEntity
  8
SUPERFICI
100
AcDbLine
 62
7
  6
CONTINUOUS
 10
-16.8554078918
 20
24.373071747
 11
-17.3221174312
 21
24.9446718619
  0
LINE
  5
359
100
AcDbEntity
  8
SUPERFICI
100
AcDbLine
 62
250
  6
CONTINUOUS
 10
0.4416297395
 20
3.6571455582
 11
-0.7452759125
 21
5.1108021684
  0
LINE
  5
35A
100
AcDbEntity
  8
SUPERFICI
100
AcDbLine
 62
250
  6
CONTINUOUS
 10
-8.2583702605
 20
14.3124259393
 11
-9.4452759125
 21
15.7660825495
  0
LINE
  5
35B
100
AcDbEntity
  8
SUPERFICI
100
AcDbLine
 62
250
  6
CONTINUOUS
 10
-10.8075893837
 20
17.4357014382
 11
-11.9958048766
 21
18.8909622692
  0
LINE
  5
35C
100
AcDbEntity
  8
SUPERFICI
100
AcDbLine
 62
250
  6
CONTINUOUS
 10
-19.5075893837
 20
28.0909818193
 11
-20.6958048766
 21
29.5462426503
  0
LINE
  5
35D
100
AcDbEntity
  8
SUPERFICI
100
AcDbLine
 62
7
  6
CONTINUOUS
 10
-8.7899142779
 20
28.8159374298
 11
-8.7896282643
 21
28.815119929
  0
LINE
  5
35E
100
AcDbEntity
  8
0
100
AcDbLine
 62
7
  6
CONTINUOUS
 10
4.8022322456
 20
14.4462971699
 11
4.805027024
 21
13.9899725504
  0
LINE
  5
35F
100
AcDbEntity
  8
SUPERFICI
100
AcDbLine
 62
250
  6
CONTINUOUS
 10
3.1715863594
 20
4.38979667
 11
3.1715863594
 21
4.1060383748
  0
LINE
  5
360
100
AcDbEntity
  8
SUPERFICI
100
AcDbLine
 62
250
  6
CONTINUOUS
 10
3.1715863594
 20
-29.6149471987
 11
3.1715863594
 21
-29.8987054938
  0
LINE
  5
361
100
AcDbEntity
  8
SUPERFICI
100
AcDbLine
 62
7
  6
CONTINUOUS
 10
3.295328899
 20
4.5423729685
 11
3.295328899
 21
4.2586146733
  0
LINE
  5
362
100
AcDbEntity
  8
SUPERFICI
100
AcDbLine
 62
7
  6
CONTINUOUS
 10
3.295328899
 20
-29.4623709002
 11
3.295328899
 21
-29.7461291954
  0
LINE
  5
363
100
AcDbEntity
  8
SUPERFICI
100
AcDbLine
 62
7
  6
CONTINUOUS
 10
3.8846556177
 20
-28.7578224644
 11
3.8846556177
 21
-26.3639320963
  0
LINE
  5
364
100
AcDbEntity
  8
SUPERFICI
100
AcDbLine
 62
7
  6
CONTINUOUS
 10
3.8846556177
 20
-0.1886395376
 11
3.8846556177
 21
2.2052508305
  0
LINE
  5
365
100
AcDbEntity
  8
SUPERFICI
100
AcDbLine
 62
7
  6
CONTINUOUS
 10
4.7463175876
 20
0.1764287736
 11
4.7463175876
 21
-0.0852768887
  0
LINE
  5
366
100
AcDbEntity
  8
SUPERFICI
100
AcDbLine
 62
7
  6
CONTINUOUS
 10
4.7463175876
 20
-25.7955599375
 11
4.7463175876
 21
-26.0112054398
  0
LINE
  5
367
100
AcDbEntity
  8
SUPERFICI
100
AcDbLine
 62
7
  6
CONTINUOUS
 10
4.7724995203
 20
-0.1173430765
 11
4.7724995203
 21
-25.7815659653
  0
LINE
  5
368
100
AcDbEntity
  8
0
100
AcDbLine
 62
7
  6
CONTINUOUS
 10
4.8022322456
 20
13.9933954409
 11
4.8022322456
 21
14.4462971699
  0
LINE
  5
369
100
AcDbEntity
  8
SUPERFICI
100
AcDbLine
 62
250
  6
CONTINUOUS
 10
3.295328899
 20
-29.4623709004
 11
3.2953288947
 21
-29.4624036872
  0
LINE
  5
36A
100
AcDbEntity
  8
RACCORDO
100
AcDbLine
 62
7
  6
CONTINUOUS
 10
-6.6938134327
 20
-19.8494964262
 11
-6.6937199173
 21
-19.8493617554
  0
LINE
  5
36B
100
AcDbEntity
  8
RACCORDO
100
AcDbLine
 62
7
  6
CONTINUOUS
 10
-10.1823322937
 20
-8.2122110276
 11
-10.8955328414
 21
-8.5041640828
  0
LINE
  5
36C
100
AcDbEntity
  8
DRAFT
100
AcDbLine
 62
7
  6
CONTINUOUS
 10
23.608833343
 20
4.4710487919
 11
23.6531629434
 21
4.4881884828
  0
LINE
  5
36D
100
AcDbEntity
  8
SUPERFICI
100
AcDbLine
 62
7
  6
CONTINUOUS
 10
-6.0716810855
 20
12.3465446003
 11
-5.6054078918
 21
11.7754788976
  0
LINE
  5
36E
100
AcDbEntity
  8
SUPERFICI
100
AcDbLine
 62
7
  6
CONTINUOUS
 10
-2.096681024
 20
7.4781836612
 11
-1.6304078302
 21
6.9071179584
  0
LINE
  5
36F
100
AcDbEntity
  8
SUPERFICI
100
AcDbLine
 62
7
  6
CONTINUOUS
 10
-12.8799714846
 20
20.6855804354
 11
-13.346681024
 21
21.2571805503
  0
LINE
  5
370
100
AcDbEntity
  8
SUPERFICI
100
AcDbLine
 62
7
  6
CONTINUOUS
 10
-16.8554078918
 20
25.5544757867
 11
-17.3221174312
 21
26.1260759015
  0
LINE
  5
371
100
AcDbEntity
  8
SUPERFICI
100
AcDbLine
 62
7
  6
CONTINUOUS
 10
-15.9850190541
 20
24.7583389405
 11
-14.8363318921
 21
23.35149023
  0
LINE
  5
372
100
AcDbEntity
  8
SUPERFICI
100
AcDbLine
 62
7
  6
CONTINUOUS
 10
-13.6337062161
 20
21.8785806011
 11
-13.182683656
 21
21.3261930338
  0
LINE
  5
373
100
AcDbEntity
  8
SUPERFICI
100
AcDbLine
 62
7
  6
CONTINUOUS
 10
-4.7350190541
 20
10.9799591373
 11
-3.5863318921
 21
9.5731104268
  0
LINE
  5
374
100
AcDbEntity
  8
SUPERFICI
100
AcDbLine
 62
7
  6
CONTINUOUS
 10
-2.3837062161
 20
8.1002007979
 11
-1.9323563321
 21
7.5474123423
  0
LINE
  5
375
100
AcDbEntity
  8
SUPERFICI
100
AcDbLine
 62
7
  6
CONTINUOUS
 10
4.7724995203
 20
-0.1173430765
 11
4.7463175876
 21
-0.0852768887
  0
LINE
  5
376
100
AcDbEntity
  8
SUPERFICI
100
AcDbLine
 62
7
  6
CONTINUOUS
 10
-17.4270063522
 20
27.2500412177
 11
-16.7159286501
 21
26.3791524489
  0
LINE
  5
377
100
AcDbEntity
  8
SUPERFICI
100
AcDbLine
 62
7
  6
CONTINUOUS
 10
-11.5770063522
 20
20.08528372
 11
-11.0135354395
 21
19.3951756095
  0
LINE
  5
378
100
AcDbEntity
  8
SUPERFICI
100
AcDbLine
 62
7
  6
CONTINUOUS
 10
-8.7270063522
 20
16.5947608366
 11
-8.4629923746
 21
16.2714110716
  0
LINE
  5
379
100
AcDbEntity
  8
SUPERFICI
100
AcDbLine
 62
7
  6
CONTINUOUS
 10
-6.1770063522
 20
13.4716614145
 11
-5.4654967832
 21
12.600243719
  0
LINE
  5
37A
100
AcDbEntity
  8
SUPERFICI
100
AcDbLine
 62
7
  6
CONTINUOUS
 10
-0.3270063522
 20
6.3069039169
 11
0.2370076254
 21
5.6161306905
  0
LINE
  5
37B
100
AcDbEntity
  8
SUPERFICI
100
AcDbLine
 62
7
  6
CONTINUOUS
 10
2.5229936478
 20
2.8163810334
 11
2.7731839477
 21
2.5099617468
  0
LINE
  5
37C
100
AcDbEntity
  8
SUPERFICI
100
AcDbLine
 62
7
  6
CONTINUOUS
 10
-2.4105011353
 20
8.8586534671
 11
-3.0520063522
 21
9.6443336914
  0
LINE
  5
37D
100
AcDbEntity
  8
SUPERFICI
100
AcDbLine
 62
7
  6
CONTINUOUS
 10
-13.6605011353
 20
22.6370332702
 11
-14.3020063522
 21
23.4227134946
  0
LINE
  5
37E
100
AcDbEntity
  8
SUPERFICI
100
AcDbLine
 62
250
  6
CONTINUOUS
 10
-1.3204369357
 20
7.8052091002
 11
-2.3837062161
 21
9.1074426982
  0
LINE
  5
37F
100
AcDbEntity
  8
SUPERFICI
100
AcDbLine
 62
250
  6
CONTINUOUS
 10
-3.5863318921
 20
10.5803523271
 11
-4.7350190541
 21
11.9872010376
  0
LINE
  5
380
100
AcDbEntity
  8
SUPERFICI
100
AcDbLine
 62
250
  6
CONTINUOUS
 10
-12.5705114424
 20
21.5838040269
 11
-13.6337062161
 21
22.8859463733
  0
LINE
  5
381
100
AcDbEntity
  8
SUPERFICI
100
AcDbLine
 62
250
  6
CONTINUOUS
 10
-14.8363318921
 20
24.3588560022
 11
-15.9850190541
 21
25.7657047127
  0
LINE
  5
382
100
AcDbEntity
  8
SUPERFICI
100
AcDbLine
 62
250
  6
CONTINUOUS
 10
-1.0636892437
 20
7.9133748536
 11
-2.2115087959
 21
9.3191609636
  0
LINE
  5
383
100
AcDbEntity
  8
SUPERFICI
100
AcDbLine
 62
250
  6
CONTINUOUS
 10
-3.414134472
 20
10.7920705925
 11
-4.5619540242
 21
12.1978567024
  0
LINE
  5
384
100
AcDbEntity
  8
SUPERFICI
100
AcDbLine
 62
250
  6
CONTINUOUS
 10
-12.3135889863
 20
21.6919207424
 11
-13.4614080308
 21
23.0977062306
  0
LINE
  5
385
100
AcDbEntity
  8
SUPERFICI
100
AcDbLine
 62
250
  6
CONTINUOUS
 10
-14.6640337069
 20
24.5706158595
 11
-15.8118527514
 21
25.9764013476
  0
LINE
  5
386
100
AcDbEntity
  8
SUPERFICI
100
AcDbLine
 62
7
  6
CONTINUOUS
 10
4.0137719878
 20
1.7683753664
 11
4.2550444554
 21
1.4728781492
  0
LINE
  5
387
100
AcDbEntity
  8
SUPERFICI
100
AcDbLine
 62
7
  6
CONTINUOUS
 10
-16.0270063522
 20
26.6667692476
 11
-14.402005083
 21
24.6765572772
  0
LINE
  5
388
100
AcDbEntity
  8
SUPERFICI
100
AcDbLine
 62
7
  6
CONTINUOUS
 10
-13.2020076214
 20
23.2068665404
 11
-11.5770063522
 21
21.2166545699
  0
LINE
  5
389
100
AcDbEntity
  8
SUPERFICI
100
AcDbLine
 62
7
  6
CONTINUOUS
 10
-4.7770063522
 20
12.8883894445
 11
-3.152005083
 21
10.898177474
  0
LINE
  5
38A
100
AcDbEntity
  8
SUPERFICI
100
AcDbLine
 62
7
  6
CONTINUOUS
 10
-1.9520076214
 20
9.4284867373
 11
-0.3270063522
 21
7.4382747668
  0
LINE
  5
38B
100
AcDbEntity
  8
DRAFT
100
AcDbLine
 62
7
  6
CONTINUOUS
 10
3.8140082917
 20
2.5379897909
 11
4.1088453125
 21
2.1768896618
  0
LINE
  5
38C
100
AcDbEntity
  8
SUPERFICI
100
AcDbLine
 62
7
  6
CONTINUOUS
 10
-13.4455689751
 20
23.775754856
 11
-13.0804346802
 21
23.3285585009
  0
LINE
  5
38D
100
AcDbEntity
  8
SUPERFICI
100
AcDbLine
 62
7
  6
CONTINUOUS
 10
-2.1955689751
 20
9.9973750528
 11
-1.8304346802
 21
9.5501786977
  0
LINE
  5
38E
100
AcDbEntity
  8
SUPERFICI
100
AcDbLine
 62
7
  6
CONTINUOUS
 10
-17.0646190044
 20
28.2163089074
 11
-16.5638898633
 21
27.60304346
  0
LINE
  5
38F
100
AcDbEntity
  8
SUPERFICI
100
AcDbLine
 62
7
  6
CONTINUOUS
 10
2.8853809956
 20
3.7826487232
 11
3.6346587908
 21
2.8649745864
  0
LINE
  5
390
100
AcDbEntity
  8
SUPERFICI
100
AcDbLine
 62
7
  6
CONTINUOUS
 10
2.3979957632
 20
4.454395792
 11
1.1979915324
 21
5.9240948193
  0
LINE
  5
391
100
AcDbEntity
  8
SUPERFICI
100
AcDbLine
 62
7
  6
CONTINUOUS
 10
-6.3020042368
 20
15.1096761731
 11
-7.5020084676
 21
16.5793752004
  0
LINE
  5
392
100
AcDbEntity
  8
SUPERFICI
100
AcDbLine
 62
7
  6
CONTINUOUS
 10
-8.8520042368
 20
18.2327755952
 11
-10.0520084676
 21
19.7024746225
  0
LINE
  5
393
100
AcDbEntity
  8
SUPERFICI
100
AcDbLine
 62
7
  6
CONTINUOUS
 10
-17.5520042368
 20
28.8880559763
 11
-18.7520084676
 21
30.3577550036
  0
LINE
  5
394
100
AcDbEntity
  8
SMUSSO
100
AcDbLine
 62
7
  6
CONTINUOUS
 10
3.19402433
 20
3.5989974751
 11
3.8151451103
 21
2.838282985
  0
LINE
  5
395
100
AcDbEntity
  8
SUPERFICI
100
AcDbLine
 62
7
  6
CONTINUOUS
 10
-13.4556507559
 20
24.7195961965
 11
-12.5054670196
 21
23.5558635386
  0
LINE
  5
396
100
AcDbEntity
  8
SUPERFICI
100
AcDbLine
 62
7
  6
CONTINUOUS
 10
-2.2056507559
 20
10.9412163934
 11
-1.2554670196
 21
9.7774837355
  0
LINE
  5
397
100
AcDbEntity
  8
SUPERFICI
100
AcDbLine
 62
7
  6
CONTINUOUS
 10
-14.7207494027
 20
26.4488044087
 11
-13.5575953444
 21
25.0242374412
  0
LINE
  5
398
100
AcDbEntity
  8
SUPERFICI
100
AcDbLine
 62
7
  6
CONTINUOUS
 10
-12.3490457447
 20
23.5440725172
 11
-11.1858916864
 21
22.1195055496
  0
LINE
  5
399
100
AcDbEntity
  8
SUPERFICI
100
AcDbLine
 62
7
  6
CONTINUOUS
 10
-3.4707494027
 20
12.6704246056
 11
-2.3075953444
 21
11.245857638
  0
LINE
  5
39A
100
AcDbEntity
  8
SUPERFICI
100
AcDbLine
 62
7
  6
CONTINUOUS
 10
-1.0990457447
 20
9.765692714
 11
0.0641083136
 21
8.3411257465
  0
LINE
  5
39B
100
AcDbEntity
  8
SUPERFICI
100
AcDbLine
 62
250
  6
CONTINUOUS
 10
-18.099043922
 20
30.6176657221
 11
-16.9034115252
 21
29.1533210761
  0
LINE
  5
39C
100
AcDbEntity
  8
SUPERFICI
100
AcDbLine
 62
250
  6
CONTINUOUS
 10
-9.399043922
 20
19.962385341
 11
-8.2034115252
 21
18.4980406949
  0
LINE
  5
39D
100
AcDbEntity
  8
SUPERFICI
100
AcDbLine
 62
250
  6
CONTINUOUS
 10
-6.849043922
 20
16.8392859189
 11
-5.6534115252
 21
15.3749412729
  0
LINE
  5
39E
100
AcDbEntity
  8
SUPERFICI
100
AcDbLine
 62
250
  6
CONTINUOUS
 10
1.850956078
 20
6.1840055378
 11
3.0465884748
 21
4.7196608918
  0
LINE
  5
39F
100
AcDbEntity
  8
SUPERFICI
100
AcDbLine
 62
7
  6
CONTINUOUS
 10
-17.9066543304
 20
30.5984916818
 11
-16.7110219336
 21
29.1341470357
  0
LINE
  5
3A0
100
AcDbEntity
  8
SUPERFICI
100
AcDbLine
 62
7
  6
CONTINUOUS
 10
-9.2066543304
 20
19.9432113006
 11
-8.0110219336
 21
18.4788666546
  0
LINE
  5
3A1
100
AcDbEntity
  8
SUPERFICI
100
AcDbLine
 62
7
  6
CONTINUOUS
 10
-6.6566543304
 20
16.8201118786
 11
-5.4610219336
 21
15.3557672326
  0
LINE
  5
3A2
100
AcDbEntity
  8
SUPERFICI
100
AcDbLine
 62
7
  6
CONTINUOUS
 10
2.0433456696
 20
6.1648314975
 11
3.2389780664
 21
4.7004868515
  0
LINE
  5
3A3
100
AcDbEntity
  8
SUPERFICI
100
AcDbLine
 62
7
  6
CONTINUOUS
 10
-4.444602547
 20
14.1701082099
 11
-8.4453085422
 21
19.0699523594
  0
LINE
  5
3A4
100
AcDbEntity
  8
SUPERFICI
100
AcDbLine
 62
7
  6
CONTINUOUS
 10
4.2550444554
 20
1.4728781492
 11
4.7463175876
 21
0.1764287736
  0
LINE
  5
3A5
100
AcDbEntity
  8
RACCORDO
100
AcDbLine
 62
7
  6
CONTINUOUS
 10
4.1088453125
 20
2.1768896618
 11
4.4621958456
 21
1.2444122924
  0
LINE
  5
3A6
100
AcDbEntity
  8
SUPERFICI
100
AcDbLine
 62
7
  6
CONTINUOUS
 10
6.3418868401
 20
14.3574030864
 11
6.3442255837
 21
13.9755387161
  0
LINE
  5
3A7
100
AcDbEntity
  8
SUPERFICI
100
AcDbLine
 62
250
  6
CONTINUOUS
 10
6.1891718253
 20
10.1017526462
 11
6.1891718253
 21
9.5258986615
  0
LINE
  5
3A8
100
AcDbEntity
  8
SUPERFICI
100
AcDbLine
 62
250
  6
CONTINUOUS
 10
6.1891718253
 20
9.4004611718
 11
6.1891718253
 21
8.971927164
  0
LINE
  5
3A9
100
AcDbEntity
  8
SUPERFICI
100
AcDbLine
 62
7
  6
CONTINUOUS
 10
6.4134144472
 20
10.19498592
 11
6.4134144472
 21
9.2468213209
  0
LWPOLYLINE
  5
3AA
100
AcDbEntity
  8
RACCORDO
100
AcDbPolyline
 62
7
  6
CONTINUOUS
 90
9
 70
0
 10
-6.6938134327
 20
-19.8494964262
 10
-6.7780242365
 20
-19.9653162397
 10
-6.8824364839
 20
-20.094515726
 10
-6.9909201956
 20
-20.2130351242
 10
-7.1033409543
 20
-20.320158189
 10
-7.2197621162
 20
-20.4154276349
 10
-7.3405280259
 20
-20.4985782595
 10
-7.4659537814
 20
-20.5692465203
 10
-7.5238743268
 20
-20.5968135455
  0
LINE
  5
3AB
100
AcDbEntity
  8
DRAFT
100
AcDbLine
 62
7
  6
CONTINUOUS
 10
-0.07168458
 20
11.5803434572
 11
0.1154701088
 21
11.3511267119
  0
LINE
  5
3AC
100
AcDbEntity
  8
DRAFT
100
AcDbLine
 62
7
  6
CONTINUOUS
 10
5.597240485
 20
4.6373565575
 11
6.2079641344
 21
3.8893759001
  0
LINE
  5
3AD
100
AcDbEntity
  8
DRAFT
100
AcDbLine
 62
7
  6
CONTINUOUS
 10
-14.0713411494
 20
29.1506151105
 11
-13.7890228693
 21
28.8048472449
  0
LINE
  5
3AE
100
AcDbEntity
  8
DRAFT
100
AcDbLine
 62
7
  6
CONTINUOUS
 10
6.4629282879
 20
4.0013739295
 11
6.8971977251
 21
3.4695046634
  0
LINE
  5
3AF
100
AcDbEntity
  8
DRAFT
100
AcDbLine
 62
7
  6
CONTINUOUS
 10
0.4129282879
 20
11.4817910795
 11
1.0301522799
 21
10.7258491608
  0
LINE
  5
3B0
100
AcDbEntity
  8
DRAFT
100
AcDbLine
 62
7
  6
CONTINUOUS
 10
-5.3027304891
 20
18.8355682438
 11
-2.2772662229
 21
15.1301464003
  0
LINE
  5
3B1
100
AcDbEntity
  8
RACCORDO
100
AcDbLine
 62
7
  6
CONTINUOUS
 10
3.0803902537
 20
9.5583336015
 11
1.6879130574
 21
11.2637629062
  0
LINE
  5
3B2
100
AcDbEntity
  8
RACCORDO
100
AcDbLine
 62
7
  6
CONTINUOUS
 10
-8.8620564816
 20
24.1847839925
 11
-10.8120869426
 21
26.5730737986
  0
LINE
  5
3B3
100
AcDbEntity
  8
SUPERFICI
100
AcDbLine
 62
7
  6
CONTINUOUS
 10
2.4600856876
 20
15.037557709
 11
2.4603717358
 21
15.0367401684
  0
LINE
  5
3B4
100
AcDbEntity
  8
DRAFT
100
AcDbLine
 62
7
  6
CONTINUOUS
 10
25.3740375621
 20
-1.2560700695
 11
25.9049979428
 21
-1.0276582506
  0
LWPOLYLINE
  5
3B5
100
AcDbEntity
  8
RACCORDO
100
AcDbPolyline
 62
7
  6
CONTINUOUS
 90
52
 70
0
 10
-8.9519295242
 20
26.5724467761
 10
-8.962309864
 20
26.5848893784
 10
-8.97881898
 20
26.6036458
 10
-8.9960692743
 20
26.6220383613
 10
-9.0140564234
 20
26.6400568615
 10
-9.0327638293
 20
26.6576801824
 10
-9.052160242
 20
26.6748763364
 10
-9.0722333035
 20
26.691632844
 10
-9.0929699466
 20
26.7079376321
 10
-9.1143343803
 20
26.7237620985
 10
-9.1363107919
 20
26.7390949614
 10
-9.1588841799
 20
26.7539265736
 10
-9.1820167598
 20
26.7682332662
 10
-9.20569093
 20
26.7820060647
 10
-9.2298893995
 20
26.7952369628
 10
-9.2545718734
 20
26.8079060912
 10
-9.2797175996
 20
26.8200058495
 10
-9.3053087814
 20
26.8315306915
 10
-9.3313069026
 20
26.8424660551
 10
-9.3576876103
 20
26.852805403
 10
-9.3844340838
 20
26.8625455923
 10
-9.4115171955
 20
26.8716787172
 10
-9.4389152582
 20
26.880200645
 10
-9.4666076531
 20
26.8881076896
 10
-9.4945654512
 20
26.89539382
 10
-9.5227659981
 20
26.9020559116
 10
-9.5511886932
 20
26.9080912419
 10
-9.5798064759
 20
26.9134958238
 10
-9.6085960713
 20
26.9182674693
 10
-9.6375369287
 20
26.9224042272
 10
-9.6666052154
 20
26.9259038793
 10
-9.6957787942
 20
26.9287651061
 10
-9.7250357152
 20
26.9309863044
 10
-9.7543519332
 20
26.9325662176
 10
-9.7837056728
 20
26.9335041913
 10
-9.8130744505
 20
26.9337992551
 10
-9.8424330163
 20
26.9334511617
 10
-9.8717595361
 20
26.9324599366
 10
-9.9010315676
 20
26.9308254286
 10
-9.9302231484
 20
26.9285485683
 10
-9.9593123161
 20
26.9256301193
 10
-9.9882769234
 20
26.922070833
 10
-10.0170912688
 20
26.9178727428
 10
-10.0457333749
 20
26.9130373272
 10
-10.0741815424
 20
26.9075662418
 10
-10.102411015
 20
26.9014624585
 10
-10.130399497
 20
26.894728271
 10
-10.1581262483
 20
26.8873659406
 10
-10.18556969
 20
26.8793782875
 10
-10.2127087774
 20
26.8707677184
 10
-10.2395207582
 20
26.8615380134
 10
-10.2582079318
 20
26.8546635165
  0
LINE
  5
3B6
100
AcDbEntity
  8
DRAFT
100
AcDbLine
 62
7
  6
CONTINUOUS
 10
2.3471104106
 20
11.7612294837
 11
2.3752780193
 21
11.7267313494
  0
LINE
  5
3B7
100
AcDbEntity
  8
DRAFT
100
AcDbLine
 62
7
  6
CONTINUOUS
 10
2.3630341934
 20
12.2133178686
 11
2.7512520396
 21
11.7378500526
  0
LINE
  5
3B8
100
AcDbEntity
  8
DRAFT
100
AcDbLine
 62
7
  6
CONTINUOUS
 10
-7.0786459755
 20
23.7769672329
 11
-7.3761401379
 21
24.1413216825
  0
LINE
  5
3B9
100
AcDbEntity
  8
RACCORDO
100
AcDbLine
 62
250
  6
CONTINUOUS
 10
3.0030957705
 20
11.7606992791
 11
4.3748149629
 21
10.0806932333
  0
LINE
  5
3BA
100
AcDbEntity
  8
RACCORDO
100
AcDbLine
 62
250
  6
CONTINUOUS
 10
-7.5731172925
 20
24.7138619868
 11
-9.1038253242
 21
26.5885887983
  0
LINE
  5
3BB
100
AcDbEntity
  8
DRAFT
100
AcDbLine
 62
7
  6
CONTINUOUS
 10
-7.3761401379
 20
24.5010459005
 11
-6.8577245957
 21
23.8661191239
  0
LINE
  5
3BC
100
AcDbEntity
  8
DRAFT
100
AcDbLine
 62
7
  6
CONTINUOUS
 10
2.3558432417
 20
12.5818491678
 11
2.9802934162
 21
11.8170570191
  0
LINE
  5
3BD
100
AcDbEntity
  8
RACCORDO
100
AcDbLine
 62
7
  6
CONTINUOUS
 10
3.1549922589
 20
11.744556497
 11
4.4791523934
 21
10.1227981633
  0
LINE
  5
3BE
100
AcDbEntity
  8
RACCORDO
100
AcDbLine
 62
7
  6
CONTINUOUS
 10
-7.4212208041
 20
24.6977192046
 11
-8.9519288359
 21
26.5724460161
  0
LINE
  5
3BF
100
AcDbEntity
  8
SUPERFICI
100
AcDbLine
 62
250
  6
CONTINUOUS
 10
-9.5074713488
 20
29.2618519951
 11
-9.0715599411
 21
28.7279717341
  0
LINE
  5
3C0
100
AcDbEntity
  8
SUPERFICI
100
AcDbLine
 62
250
  6
CONTINUOUS
 10
-5.5370334034
 20
24.3990784842
 11
-5.1011219957
 21
23.8651982233
  0
LINE
  5
3C1
100
AcDbEntity
  8
SUPERFICI
100
AcDbLine
 62
250
  6
CONTINUOUS
 10
1.7425286512
 20
15.4834721919
 11
2.1784400589
 21
14.9495919309
  0
LINE
  5
3C2
100
AcDbEntity
  8
SUPERFICI
100
AcDbLine
 62
250
  6
CONTINUOUS
 10
5.7129665966
 20
10.6206986811
 11
6.1488780043
 21
10.0868184201
  0
LWPOLYLINE
  5
3C3
100
AcDbEntity
  8
RACCORDO
100
AcDbPolyline
 62
7
  6
CONTINUOUS
 90
25
 70
0
 10
12.9706491241
 20
3.7304417387
 10
12.9703313599
 20
3.7662856825
 10
12.9691069706
 20
3.8099268641
 10
12.9669579931
 20
3.8542085099
 10
12.9638684475
 20
3.899270762
 10
12.959833106
 20
3.9450311656
 10
12.9548810234
 20
3.9911671934
 10
12.9490186721
 20
4.0376964048
 10
12.9422500095
 20
4.0846345742
 10
12.9346398426
 20
4.1316271128
 10
12.9262088047
 20
4.1786751102
 10
12.9169741612
 20
4.2257850467
 10
12.9070350381
 20
4.2725789784
 10
12.896426784
 20
4.3190415119
 10
12.8851782848
 20
4.3651743882
 10
12.8734178818
 20
4.4105962179
 10
12.8611908264
 20
4.4552907355
 10
12.8485374743
 20
4.4992519295
 10
12.8356131965
 20
4.5420924595
 10
12.8224725882
 20
4.5837955675
 10
12.8091628042
 20
4.6243596249
 10
12.7958591582
 20
4.6634069262
 10
12.7826636454
 20
4.7008077066
 10
12.7695873104
 20
4.7366866706
 10
12.2671170741
 20
6.0630015748
  0
LINE
  5
3C4
100
AcDbEntity
  8
SUPERFICI
100
AcDbLine
 62
250
  6
CONTINUOUS
 10
11.4481276559
 20
7.1653529765
 11
11.4481276559
 21
7.4920555165
  0
LINE
  5
3C5
100
AcDbEntity
  8
SUPERFICI
100
AcDbLine
 62
7
  6
CONTINUOUS
 10
11.6906086185
 20
7.4710211032
 11
11.6906086185
 21
7.9662673814
  0
LINE
  5
3C6
100
AcDbEntity
  8
RACCORDO
100
AcDbLine
 62
250
  6
CONTINUOUS
 10
12.4856872082
 20
3.1243343025
 11
12.4856872082
 21
-15.8097682564
  0
LINE
  5
3C7
100
AcDbEntity
  8
RACCORDO
100
AcDbLine
 62
7
  6
CONTINUOUS
 10
12.9706491332
 20
3.7304455462
 11
12.9706491332
 21
-14.4940994949
  0
LINE
  5
3C8
100
AcDbEntity
  8
RACCORDO
100
AcDbLine
 62
7
  6
CONTINUOUS
 10
13.3280231686
 20
-22.0485041899
 11
13.3280231686
 21
-21.8369056693
  0
LINE
  5
3C9
100
AcDbEntity
  8
SUPERFICI
100
AcDbLine
 62
7
  6
CONTINUOUS
 10
11.6906027651
 20
7.9663005526
 11
11.6906071714
 21
7.9665485935
  0
LINE
  5
3CA
100
AcDbEntity
  8
0
100
AcDbLine
 62
7
  6
CONTINUOUS
 10
4.1988517758
 20
13.7425025416
 11
6.3442255837
 21
13.9755387161
  0
LINE
  5
3CB
100
AcDbEntity
  8
SUPERFICI
100
AcDbLine
 62
250
  6
CONTINUOUS
 10
-8.2738023632
 20
13.6091367499
 11
-8.2738343547
 21
13.60913889
  0
LINE
  5
3CC
100
AcDbEntity
  8
SUPERFICI
100
AcDbLine
 62
7
  6
CONTINUOUS
 10
-8.2738343549
 20
13.60913889
 11
-7.4932703376
 21
13.5568060859
  0
LINE
  5
3CD
100
AcDbEntity
  8
SUPERFICI
100
AcDbLine
 62
250
  6
CONTINUOUS
 10
-8.1333723758
 20
13.7049741627
 11
-7.2644380572
 21
13.6467165843
  0
LINE
  5
3CE
100
AcDbEntity
  8
RACCORDO
100
AcDbLine
 62
250
  6
CONTINUOUS
 10
15.9130326112
 20
10.5318245686
 11
16.3750697157
 21
10.4234774463
  0
LINE
  5
3CF
100
AcDbEntity
  8
RACCORDO
100
AcDbLine
 62
7
  6
CONTINUOUS
 10
16.3534363456
 20
10.5828769223
 11
16.6232796136
 21
10.5195981811
  0
LINE
  5
3D0
100
AcDbEntity
  8
SUPERFICI
100
AcDbLine
 62
7
  6
CONTINUOUS
 10
-9.0019188858
 20
29.0755874592
 11
-8.7900724269
 21
28.8161295951
  0
LINE
  5
3D1
100
AcDbEntity
  8
SUPERFICI
100
AcDbLine
 62
7
  6
CONTINUOUS
 10
-5.0489624254
 20
24.2342243075
 11
-4.8371160026
 21
23.9747664876
  0
LINE
  5
3D2
100
AcDbEntity
  8
SUPERFICI
100
AcDbLine
 62
7
  6
CONTINUOUS
 10
2.2480810242
 20
15.2972077662
 11
2.4599274471
 21
15.0377499463
  0
LINE
  5
3D3
100
AcDbEntity
  8
SUPERFICI
100
AcDbLine
 62
7
  6
CONTINUOUS
 10
6.2010374485
 20
10.4558446587
 11
6.4128839075
 21
10.1963867946
  0
LINE
  5
3D4
100
AcDbEntity
  8
0
100
AcDbLine
 62
7
  6
CONTINUOUS
 10
-7.0511482242
 20
27.5208823448
 11
-4.3282495885
 21
24.1860262053
  0
LINE
  5
3D5
100
AcDbEntity
  8
0
100
AcDbLine
 62
7
  6
CONTINUOUS
 10
4.1988517758
 20
13.7425025416
 11
6.9217504115
 21
10.4076464022
  0
LINE
  5
3D6
100
AcDbEntity
  8
0
100
AcDbLine
 62
7
  6
CONTINUOUS
 10
-6.4477677544
 20
27.771775244
 11
-6.444972976
 21
27.7683523535
  0
LINE
  5
3D7
100
AcDbEntity
  8
0
100
AcDbLine
 62
7
  6
CONTINUOUS
 10
4.8022322456
 20
13.9933954409
 11
4.805027024
 21
13.9899725504
  0
LINE
  5
3D8
100
AcDbEntity
  8
RACCORDO
100
AcDbLine
 62
7
  6
CONTINUOUS
 10
11.2662697519
 20
7.0867775201
 11
12.0590365845
 21
6.1158404076
  0
LINE
  5
3D9
100
AcDbEntity
  8
SUPERFICI
100
AcDbLine
 62
250
  6
CONTINUOUS
 10
-7.8659594205
 20
31.0594986945
 11
-5.7734636206
 21
28.4967251951
  0
LINE
  5
3DA
100
AcDbEntity
  8
SUPERFICI
100
AcDbLine
 62
250
  6
CONTINUOUS
 10
-2.7679135942
 20
24.8156932147
 11
-0.6754177943
 21
22.2529197153
  0
LINE
  5
3DB
100
AcDbEntity
  8
SUPERFICI
100
AcDbLine
 62
250
  6
CONTINUOUS
 10
3.3840405795
 20
17.2811188913
 11
5.4765363794
 21
14.718345392
  0
LINE
  5
3DC
100
AcDbEntity
  8
SUPERFICI
100
AcDbLine
 62
250
  6
CONTINUOUS
 10
8.4820864058
 20
11.0373134115
 11
10.5745822057
 21
8.4745399121
  0
LINE
  5
3DD
100
AcDbEntity
  8
DRAFT
100
AcDbLine
 62
7
  6
CONTINUOUS
 10
0.3533006149
 20
21.3009086397
 11
3.5189876036
 21
17.4237497358
  0
LINE
  5
3DE
100
AcDbEntity
  8
SUPERFICI
100
AcDbLine
 62
7
  6
CONTINUOUS
 10
-4.9057744163
 20
27.7539185192
 11
-2.5586171729
 21
24.8792497231
  0
LINE
  5
3DF
100
AcDbEntity
  8
SUPERFICI
100
AcDbLine
 62
7
  6
CONTINUOUS
 10
6.3442255837
 20
13.9755387161
 11
8.6913828271
 21
11.10086992
  0
LINE
  5
3E0
100
AcDbEntity
  8
RACCORDO
100
AcDbLine
 62
250
  6
CONTINUOUS
 10
11.8279878073
 20
5.4456753356
 11
12.1928371046
 21
4.4828532054
  0
LINE
  5
3E1
100
AcDbEntity
  8
RACCORDO
100
AcDbLine
 62
250
  6
CONTINUOUS
 10
18.053442953
 20
-12.9152056167
 11
16.6410022803
 21
-8.3326108494
  0
LINE
  5
3E2
100
AcDbEntity
  8
RACCORDO
100
AcDbLine
 62
7
  6
CONTINUOUS
 10
-7.5201504902
 20
-20.5951331364
 11
-7.5239001643
 21
-20.5968257221
  0
LWPOLYLINE
  5
3E3
100
AcDbEntity
  8
RACCORDO
100
AcDbPolyline
 62
7
  6
CONTINUOUS
 90
64
 70
0
 10
25.6634217917
 20
-5.3049941502
 10
25.6785694223
 20
-5.2982563966
 10
25.7056845518
 20
-5.285440624
 10
25.7323495272
 20
-5.2718584803
 10
25.7585291956
 20
-5.2575354014
 10
25.7842143852
 20
-5.242484305
 10
25.8094197988
 20
-5.2267019594
 10
25.8341226362
 20
-5.2102062109
 10
25.8583016853
 20
-5.1930151639
 10
25.8819709196
 20
-5.1751208814
 10
25.9051077008
 20
-5.1565404684
 10
25.9276899973
 20
-5.1372919705
 10
25.9497288126
 20
-5.1173642056
 10
25.9712000003
 20
-5.0967750155
 10
25.992081326
 20
-5.0755420832
 10
26.012382013
 20
-5.0536497781
 10
26.0320835499
 20
-5.0311085764
 10
26.0511548716
 20
-5.0079449772
 10
26.069583199
 20
-4.9841652872
 10
26.0874304453
 20
-4.9596687148
 10
26.104579313
 20
-4.9345954188
 10
26.1207817554
 20
-4.909332826
 10
26.1360309684
 20
-4.8839561204
 10
26.1503621944
 20
-4.85847421
 10
26.1636510403
 20
-4.8332021947
 10
26.175870709
 20
-4.8083298985
 10
26.1871394301
 20
-4.7837590835
 10
26.1975634795
 20
-4.7593736007
 10
26.2071701493
 20
-4.7352141074
 10
26.2159941297
 20
-4.7113024142
 10
26.2241268356
 20
-4.687483403
 10
26.2315900104
 20
-4.6637679635
 10
26.2383977965
 20
-4.6401908039
 10
26.2446063516
 20
-4.6166258823
 10
26.250239443
 20
-4.5930277915
 10
26.255289116
 20
-4.5694798237
 10
26.2597578372
 20
-4.546044962
 10
26.263663522
 20
-4.5227177484
 10
26.2670168438
 20
-4.4995352687
 10
26.2698212484
 20
-4.4766189647
 10
26.2720999314
 20
-4.4539749821
 10
26.2738750695
 20
-4.4316160531
 10
26.2751634144
 20
-4.4096659741
 10
26.2759934031
 20
-4.3881448476
 10
26.2763941476
 20
-4.3670334404
 10
26.2763929479
 20
-4.3463903605
 10
26.2760209657
 20
-4.3263021865
 10
26.2753057266
 20
-4.3066661463
 10
26.2742590355
 20
-4.2872599016
 10
26.2728906172
 20
-4.2680377451
 10
26.271214313
 20
-4.2490332358
 10
26.2692313116
 20
-4.230150075
 10
26.2669456709
 20
-4.2113668252
 10
26.2643636571
 20
-4.1926882718
 10
26.2614817703
 20
-4.1740580119
 10
26.2582993055
 20
-4.1554580005
 10
26.2548168084
 20
-4.1368829291
 10
26.2510266966
 20
-4.118292214
 10
26.2469222932
 20
-4.0996619484
 10
26.2424991278
 20
-4.0809844055
 10
26.2377477106
 20
-4.0622365048
 10
26.2326563492
 20
-4.0433936363
 10
26.2272123166
 20
-4.0244352274
 10
26.2230382218
 20
-4.0106112658
  0
LINE
  5
3E4
100
AcDbEntity
  8
RACCORDO
100
AcDbLine
 62
250
  6
CONTINUOUS
 10
25.6920265778
 20
-4.3950114246
 11
16.6410022803
 21
-8.3326108494
  0
LINE
  5
3E5
100
AcDbEntity
  8
RACCORDO
100
AcDbLine
 62
7
  6
CONTINUOUS
 10
25.6634313045
 20
-5.3049900344
 11
17.4576294558
 21
-8.8748763026
  0
LINE
  5
3E6
100
AcDbEntity
  8
SUPERFICI
100
AcDbLine
 62
7
  6
CONTINUOUS
 10
-10.823083156
 20
16.7314297653
 11
-10.0427827101
 21
16.6794171534
  0
LINE
  5
3E7
100
AcDbEntity
  8
SUPERFICI
100
AcDbLine
 62
250
  6
CONTINUOUS
 10
-10.6825910971
 20
16.8273224036
 11
-9.8139476756
 21
16.7694210998
  0
LINE
  5
3E8
100
AcDbEntity
  8
RACCORDO
100
AcDbLine
 62
250
  6
CONTINUOUS
 10
16.8105853711
 20
10.5921334313
 11
20.9952545615
 21
9.6108206625
  0
LINE
  5
3E9
100
AcDbEntity
  8
RACCORDO
100
AcDbLine
 62
7
  6
CONTINUOUS
 10
17.3105240953
 20
10.6292232845
 11
21.4951932857
 21
9.6479105157
  0
LINE
  5
3EA
100
AcDbEntity
  8
SUPERFICI
100
AcDbLine
 62
7
  6
CONTINUOUS
 10
-7.3674946184
 20
31.3148229854
 11
-5.001491547
 21
28.417072858
  0
LINE
  5
3EB
100
AcDbEntity
  8
SUPERFICI
100
AcDbLine
 62
7
  6
CONTINUOUS
 10
-2.0007689356
 20
24.7419532292
 11
0.3652341358
 21
21.8442031018
  0
LINE
  5
3EC
100
AcDbEntity
  8
SUPERFICI
100
AcDbLine
 62
7
  6
CONTINUOUS
 10
3.8825053816
 20
17.5364431822
 11
6.248508453
 21
14.6386930548
  0
LINE
  5
3ED
100
AcDbEntity
  8
SUPERFICI
100
AcDbLine
 62
7
  6
CONTINUOUS
 10
9.2492310644
 20
10.963573426
 11
11.6152341358
 21
8.0658232986
  0
LINE
  5
3EE
100
AcDbEntity
  8
RACCORDO
100
AcDbLine
 62
7
  6
CONTINUOUS
 10
17.4512087039
 20
-8.8540444869
 11
18.5844526299
 21
-12.5307990476
  0
LINE
  5
3EF
100
AcDbEntity
  8
RACCORDO
100
AcDbLine
 62
250
  6
CONTINUOUS
 10
18.1438531589
 20
-19.7214574335
 11
18.1438531589
 21
-13.4314530686
  0
LINE
  5
3F0
100
AcDbEntity
  8
RACCORDO
100
AcDbLine
 62
7
  6
CONTINUOUS
 10
18.628815084
 20
-19.1153486226
 11
18.628815084
 21
-12.8253442576
  0
LINE
  5
3F1
100
AcDbEntity
  8
RACCORDO
100
AcDbLine
 62
250
  6
CONTINUOUS
 10
12.8841555227
 20
-15.0880289154
 11
18.053442953
 21
-12.9152056167
  0
LINE
  5
3F2
100
AcDbEntity
  8
RACCORDO
100
AcDbLine
 62
250
  6
CONTINUOUS
 10
18.1438531589
 20
-13.4314530686
 11
12.4856872082
 21
-15.8097682564
  0
LINE
  5
3F3
100
AcDbEntity
  8
RACCORDO
100
AcDbLine
 62
250
  6
CONTINUOUS
 10
15.2789534042
 20
11.7659402773
 11
15.7409824091
 21
10.742536551
  0
LINE
  5
3F4
100
AcDbEntity
  8
RACCORDO
100
AcDbLine
 62
250
  6
CONTINUOUS
 10
11.5247939622
 20
21.2097187113
 11
15.7094631526
 21
11.9407272212
  0
LINE
  5
3F5
100
AcDbEntity
  8
RACCORDO
100
AcDbLine
 62
7
  6
CONTINUOUS
 10
15.8885141755
 20
11.94329742
 11
16.5203769456
 21
10.5437290496
  0
LINE
  5
3F6
100
AcDbEntity
  8
RACCORDO
100
AcDbLine
 62
7
  6
CONTINUOUS
 10
12.1343547335
 20
21.387075854
 11
16.3190239239
 21
12.1180843639
  0
LINE
  5
3F7
100
AcDbEntity
  8
SUPERFICI
100
AcDbLine
 62
250
  6
CONTINUOUS
 10
0.7411143552
 20
-30.054091993
 11
0.3346361399
 21
-30.408788119
  0
LINE
  5
3F8
100
AcDbEntity
  8
SUPERFICI
100
AcDbLine
 62
250
  6
CONTINUOUS
 10
1.4355619428
 20
-29.9130527894
 11
0.5666276242
 21
-30.6712917918
  0
LINE
  5
3F9
100
AcDbEntity
  8
RACCORDO
100
AcDbLine
 62
250
  6
CONTINUOUS
 10
25.6920265778
 20
-4.3950114246
 11
21.6915127422
 21
8.5844602964
  0
LINE
  5
3FA
100
AcDbEntity
  8
RACCORDO
100
AcDbLine
 62
7
  6
CONTINUOUS
 10
22.2225224191
 20
8.9688668655
 11
24.0625687817
 21
2.9989263255
  0
LINE
  5
3FB
100
AcDbEntity
  8
RACCORDO
100
AcDbLine
 62
7
  6
CONTINUOUS
 10
25.2676700003
 20
-0.9109657113
 11
26.2230373573
 21
-4.0106084326
  0
LINE
  5
3FC
100
AcDbEntity
  8
SUPERFICI
100
AcDbLine
 62
7
  6
CONTINUOUS
 10
3.0229936478
 20
-26.7166587528
 11
4.7724995203
 21
-25.7815659653
  0
LINE
  5
3FD
100
AcDbEntity
  8
RACCORDO
100
AcDbLine
 62
250
  6
CONTINUOUS
 10
13.3280231686
 20
-21.8369056693
 11
18.1438531589
 21
-19.7214574335
  0
LINE
  5
3FE
100
AcDbEntity
  8
RACCORDO
100
AcDbLine
 62
7
  6
CONTINUOUS
 10
13.3273436122
 20
-22.0970808526
 11
18.0309934463
 21
-20.0309099613
  0
LINE
  5
3FF
100
AcDbEntity
  8
RACCORDO
100
AcDbLine
 62
250
  6
CONTINUOUS
 10
4.7724995203
 20
-25.7345325317
 11
13.3280231686
 21
-22.0485041899
  0
LINE
  5
400
100
AcDbEntity
  8
RACCORDO
100
AcDbLine
 62
7
  6
CONTINUOUS
 10
4.5154475828
 20
-26.3669915208
 11
13.088426296
 21
-22.6734429071
  0
LINE
  5
401
100
AcDbEntity
  8
SUPERFICI
100
AcDbLine
 62
7
  6
CONTINUOUS
 10
3.8846556177
 20
-26.3639320963
 11
4.7463175876
 21
-26.0112054398
  0
LINE
  5
402
100
AcDbEntity
  8
SUPERFICI
100
AcDbLine
 62
250
  6
CONTINUOUS
 10
-19.5230512537
 20
27.3867080246
 11
-19.5230831559
 21
27.3867101464
  0
LINE
  5
403
100
AcDbEntity
  8
SUPERFICI
100
AcDbLine
 62
7
  6
CONTINUOUS
 10
-19.523083156
 20
27.3867101464
 11
-18.7427834528
 21
27.334697584
  0
LINE
  5
404
100
AcDbEntity
  8
SUPERFICI
100
AcDbLine
 62
250
  6
CONTINUOUS
 10
-19.3825910971
 20
27.4826027847
 11
-18.5139476756
 21
27.4247014809
  0
LINE
  5
405
100
AcDbEntity
  8
SUPERFICI
100
AcDbLine
 62
250
  6
CONTINUOUS
 10
3.0229936478
 20
-29.1208337752
 11
3.8846556177
 21
-28.7578224644
  0
LINE
  5
406
100
AcDbEntity
  8
SUPERFICI
100
AcDbLine
 62
7
  6
CONTINUOUS
 10
2.9618961516
 20
-29.2775911781
 11
3.8242894633
 21
-28.9142717589
  0
LINE
  5
407
100
AcDbEntity
  8
SUPERFICI
100
AcDbLine
 62
250
  6
CONTINUOUS
 10
2.5229936478
 20
-30.1701533005
 11
3.1715863594
 21
-29.8987054938
  0
LINE
  5
408
100
AcDbEntity
  8
SUPERFICI
100
AcDbLine
 62
7
  6
CONTINUOUS
 10
2.4927391542
 20
-30.2484097154
 11
3.141846442
 21
-29.9767465493
  0
LINE
  5
409
100
AcDbEntity
  8
SUPERFICI
100
AcDbLine
 62
7
  6
CONTINUOUS
 10
2.4927387388
 20
-30.2484098893
 11
2.4922311128
 21
-30.2486171255
  0
LINE
  5
40A
100
AcDbEntity
  8
SUPERFICI
100
AcDbLine
 62
250
  6
CONTINUOUS
 10
0.5666276242
 20
-30.9488793467
 11
2.5229936478
 21
-30.1701533005
  0
LINE
  5
40B
100
AcDbEntity
  8
SUPERFICI
100
AcDbLine
 62
7
  6
CONTINUOUS
 10
0.5353458322
 20
-31.0275498605
 11
2.4922307578
 21
-30.2486172669
  0
LINE
  5
40C
100
AcDbEntity
  8
SUPERFICI
100
AcDbLine
 62
250
  6
CONTINUOUS
 10
-2.6329797709
 20
-31.0979421749
 11
3.0229936478
 21
-29.120659986
  0
LINE
  5
40D
100
AcDbEntity
  8
0
100
AcDbLine
 62
7
  6
CONTINUOUS
 10
-7.0511482242
 20
27.5208823448
 11
-4.9057744163
 21
27.7539185192
  0
LWPOLYLINE
  5
40E
100
AcDbEntity
  8
RACCORDO
100
AcDbPolyline
 62
7
  6
CONTINUOUS
 90
7
 70
0
 10
-9.3118686017
 20
31.0505023832
 10
-9.3217075705
 20
31.0485926957
 10
-9.3468454402
 20
31.0433003945
 10
-9.3718455679
 20
31.0374406111
 10
-9.3966961857
 20
31.0310162302
 10
-9.4213834389
 20
31.0240310427
 10
-9.4458914073
 20
31.0164900053
  0
LINE
  5
40F
100
AcDbEntity
  8
RACCORDO
100
AcDbLine
 62
250
  6
CONTINUOUS
 10
-9.4640624711
 20
31.0070298909
 11
-9.0992131737
 21
31.0761574097
  0
LINE
  5
410
100
AcDbEntity
  8
RACCORDO
100
AcDbLine
 62
7
  6
CONTINUOUS
 10
-9.3118354374
 20
31.0505087017
 11
-8.9421486395
 21
31.1205527754
  0
ARC
  5
411
100
AcDbEntity
  8
RACCORDO
100
AcDbCircle
 62
250
  6
CONTINUOUS
 10
-31.8214694662
 20
-2.4377950172
 40
22.0246354908
100
AcDbArc
 50
38.7815441352
 51
39.2304210598
  0
ARC
  5
412
100
AcDbEntity
  8
DRAFT
100
AcDbCircle
 62
7
  6
CONTINUOUS
 10
-3.8634940817
 20
-5.1693066165
 40
3.4624857877
100
AcDbArc
 50
183.9917409077
 51
184.7851797506
  0
ARC
  5
413
100
AcDbEntity
  8
RACCORDO
100
AcDbCircle
 62
250
  6
CONTINUOUS
 10
-13.1932531685
 20
-9.7926138857
 40
3.3189668618
100
AcDbArc
 50
0.0553345392
 51
2.5527071764
  0
ARC
  5
414
100
AcDbEntity
  8
DRAFT
100
AcDbCircle
 62
7
  6
CONTINUOUS
 10
-8.8295619647
 20
-8.3169389746
 40
1.8210763747
100
AcDbArc
 50
229.7729693189
 51
230.5449044827
  0
ARC
  5
415
100
AcDbEntity
  8
DRAFT
100
AcDbCircle
 62
7
  6
CONTINUOUS
 10
-8.9199679832
 20
-8.4273028941
 40
1.6784112927
100
AcDbArc
 50
230.5336813504
 51
232.9571305884
  0
ARC
  5
416
100
AcDbEntity
  8
RACCORDO
100
AcDbCircle
 62
7
  6
CONTINUOUS
 10
17.628814529
 20
-19.1153481962
 40
1.0000005633
100
AcDbArc
 50
293.714625518
 51
359.9998142118
  0
ARC
  5
417
100
AcDbEntity
  8
RACCORDO
100
AcDbCircle
 62
7
  6
CONTINUOUS
 10
17.6288187791
 20
-12.8253443872
 40
0.999996285
100
AcDbArc
 50
0.0002075702
 51
17.130357812
  0
ARC
  5
418
100
AcDbEntity
  8
SUPERFICI
100
AcDbCircle
 62
250
  6
CONTINUOUS
 10
-25.1229709579
 20
-4.1445173511
 40
0.3716596439
100
AcDbArc
 50
216.0995532583
 51
219.2309468434
  0
ARC
  5
419
100
AcDbEntity
  8
SUPERFICI
100
AcDbCircle
 62
7
  6
CONTINUOUS
 10
0.4428892852
 20
-30.7952732953
 40
0.2500012316
100
AcDbArc
 50
219.2324238464
 51
291.7047858964
  0
ARC
  5
41A
100
AcDbEntity
  8
SUPERFICI
100
AcDbCircle
 62
7
  6
CONTINUOUS
 10
3.0454248144
 20
-29.7461846093
 40
0.2498892478
100
AcDbArc
 50
292.7122075698
 51
0.1338915376
  0
ARC
  5
41B
100
AcDbEntity
  8
SUPERFICI
100
AcDbCircle
 62
7
  6
CONTINUOUS
 10
3.0455352033
 20
-29.4623049486
 40
0.2497842756
100
AcDbArc
 50
359.9773531144
 51
39.294754207
  0
ARC
  5
41C
100
AcDbEntity
  8
RACCORDO
100
AcDbCircle
 62
7
  6
CONTINUOUS
 10
-7.1478612735
 20
-5.5411427382
 40
0.2497593245
100
AcDbArc
 50
252.9298161836
 51
284.4332303396
  0
ARC
  5
41D
100
AcDbEntity
  8
SUPERFICI
100
AcDbCircle
 62
250
  6
CONTINUOUS
 10
3.1701873096
 20
-29.7461292567
 40
0.1251414186
100
AcDbArc
 50
355.8093581284
 51
0.0000413759
  0
ARC
  5
41E
100
AcDbEntity
  8
SUPERFICI
100
AcDbCircle
 62
7
  6
CONTINUOUS
 10
2.9368396114
 20
-29.2181378763
 40
0.0645175813
100
AcDbArc
 50
289.2671552075
 51
292.8445978675
  0
ARC
  5
41F
100
AcDbEntity
  8
RACCORDO
100
AcDbCircle
 62
250
  6
CONTINUOUS
 10
-17.9388989624
 20
2.7477749423
 40
3.3102489014
100
AcDbArc
 50
0.0556227667
 51
2.5593911321
  0
ARC
  5
420
100
AcDbEntity
  8
DRAFT
100
AcDbCircle
 62
7
  6
CONTINUOUS
 10
-13.4966494431
 20
4.5973397898
 40
2.5798649651
100
AcDbArc
 50
223.916579744
 51
225.1636147062
  0
ARC
  5
421
100
AcDbEntity
  8
DRAFT
100
AcDbCircle
 62
7
  6
CONTINUOUS
 10
-13.6386290412
 20
4.4546932921
 40
2.3786033988
100
AcDbArc
 50
225.1660995279
 51
226.6569257871
  0
ARC
  5
422
100
AcDbEntity
  8
DRAFT
100
AcDbCircle
 62
7
  6
CONTINUOUS
 10
-15.1454492024
 20
6.4830175331
 40
1.677583397
100
AcDbArc
 50
172.0424511797
 51
174.0224726991
  0
ARC
  5
423
100
AcDbEntity
  8
DRAFT
100
AcDbCircle
 62
7
  6
CONTINUOUS
 10
-15.301198891
 20
6.5048877609
 40
1.5203057386
100
AcDbArc
 50
170.3817408102
 51
172.046135091
  0
ARC
  5
424
100
AcDbEntity
  8
RACCORDO
100
AcDbCircle
 62
250
  6
CONTINUOUS
 10
-15.317019874
 20
2.325326453
 40
0.6243130789
100
AcDbArc
 50
325.3931797082
 51
328.7976486096
  0
ARC
  5
425
100
AcDbEntity
  8
RACCORDO
100
AcDbCircle
 62
250
  6
CONTINUOUS
 10
-15.2763820639
 20
2.2974992414
 40
0.575061159
100
AcDbArc
 50
323.093843515
 51
325.3756242334
  0
ARC
  5
426
100
AcDbEntity
  8
DRAFT
100
AcDbCircle
 62
7
  6
CONTINUOUS
 10
-16.2128984343
 20
6.788887968
 40
0.5597341279
100
AcDbArc
 50
147.882110195
 51
148.6646314374
  0
ARC
  5
427
100
AcDbEntity
  8
DRAFT
100
AcDbCircle
 62
7
  6
CONTINUOUS
 10
-16.24340225
 20
6.808381039
 40
0.5235350753
100
AcDbArc
 50
144.1615381728
 51
147.9140690052
  0
ARC
  5
428
100
AcDbEntity
  8
SUPERFICI
100
AcDbCircle
 62
250
  6
CONTINUOUS
 10
-2.0840932156
 20
9.0230605212
 40
0.3225523181
100
AcDbArc
 50
131.4698681751
 51
134.8261134754
  0
ARC
  5
429
100
AcDbEntity
  8
SUPERFICI
100
AcDbCircle
 62
250
  6
CONTINUOUS
 10
-5.6364651482
 20
15.0225460319
 40
0.2826920905
100
AcDbArc
 50
292.471468005
 51
294.7023667075
  0
ARC
  5
42A
100
AcDbEntity
  8
SUPERFICI
100
AcDbCircle
 62
250
  6
CONTINUOUS
 10
-2.1070050346
 20
9.0662081842
 40
0.2736898696
100
AcDbArc
 50
112.4472550105
 51
114.3200358579
  0
ARC
  5
42B
100
AcDbEntity
  8
SUPERFICI
100
AcDbCircle
 62
7
  6
CONTINUOUS
 10
-0.7424049959
 20
4.6570529927
 40
0.2516019096
100
AcDbArc
 50
180.0148212547
 51
186.5285613363
  0
ARC
  5
42C
100
AcDbEntity
  8
SUPERFICI
100
AcDbCircle
 62
7
  6
CONTINUOUS
 10
-9.4424049959
 20
15.3123333738
 40
0.2516019096
100
AcDbArc
 50
180.0148212547
 51
186.5285613363
  0
ARC
  5
42D
100
AcDbEntity
  8
SUPERFICI
100
AcDbCircle
 62
7
  6
CONTINUOUS
 10
-6.8504655656
 20
16.6617688998
 40
0.2502704414
100
AcDbArc
 50
39.2486805924
 51
111.6752398925
  0
ARC
  5
42E
100
AcDbEntity
  8
SUPERFICI
100
AcDbCircle
 62
7
  6
CONTINUOUS
 10
-5.6548767474
 20
15.1975795961
 40
0.250206746
100
AcDbArc
 50
0.0263453882
 51
39.2216205748
  0
ARC
  5
42F
100
AcDbEntity
  8
SUPERFICI
100
AcDbCircle
 62
7
  6
CONTINUOUS
 10
-0.7439544823
 20
4.6568681037
 40
0.2500414496
100
AcDbArc
 50
186.526839126
 51
192.548578527
  0
ARC
  5
430
100
AcDbEntity
  8
SUPERFICI
100
AcDbCircle
 62
7
  6
CONTINUOUS
 10
-9.4439544823
 20
15.3121484848
 40
0.2500414496
100
AcDbArc
 50
186.526839126
 51
192.548578527
  0
ARC
  5
431
100
AcDbEntity
  8
SUPERFICI
100
AcDbCircle
 62
7
  6
CONTINUOUS
 10
-0.7440175678
 20
4.9345415754
 40
0.2500005477
100
AcDbArc
 50
112.7098355319
 51
180.000523267
  0
ARC
  5
432
100
AcDbEntity
  8
SUPERFICI
100
AcDbCircle
 62
7
  6
CONTINUOUS
 10
-9.4440105441
 20
15.589830377
 40
0.2499966131
100
AcDbArc
 50
112.7163944995
 51
180.122812436
  0
ARC
  5
433
100
AcDbEntity
  8
SUPERFICI
100
AcDbCircle
 62
7
  6
CONTINUOUS
 10
-8.2571442183
 20
13.8584905301
 40
0.2499072062
100
AcDbArc
 50
219.153844981
 51
266.1780282573
  0
ARC
  5
434
100
AcDbEntity
  8
SUPERFICI
100
AcDbCircle
 62
7
  6
CONTINUOUS
 10
-2.2105089569
 20
9.1781583358
 40
0.1999921785
100
AcDbArc
 50
112.8415397499
 51
180.0014208421
  0
ARC
  5
435
100
AcDbEntity
  8
SUPERFICI
100
AcDbCircle
 62
250
  6
CONTINUOUS
 10
-9.5685376643
 20
15.3122504605
 40
0.1254785021
100
AcDbArc
 50
180.0068262322
 51
185.9290420937
  0
ARC
  5
436
100
AcDbEntity
  8
SUPERFICI
100
AcDbCircle
 62
250
  6
CONTINUOUS
 10
-0.8685376643
 20
4.6569700793
 40
0.1254785021
100
AcDbArc
 50
180.0068262322
 51
185.9290420937
  0
ARC
  5
437
100
AcDbEntity
  8
SUPERFICI
100
AcDbCircle
 62
250
  6
CONTINUOUS
 10
-5.530046375
 20
14.9139052231
 40
0.1253751035
100
AcDbArc
 50
353.9033448976
 51
359.9953529443
  0
ARC
  5
438
100
AcDbEntity
  8
SUPERFICI
100
AcDbCircle
 62
250
  6
CONTINUOUS
 10
-6.729613738
 20
16.7605206758
 40
0.0942027836
100
AcDbArc
 50
39.240988186
 51
45.3135040892
  0
ARC
  5
439
100
AcDbEntity
  8
SUPERFICI
100
AcDbCircle
 62
250
  6
CONTINUOUS
 10
-9.5649440896
 20
15.2134967125
 40
0.0938816961
100
AcDbArc
 50
216.5575481
 51
219.2307185613
  0
ARC
  5
43A
100
AcDbEntity
  8
SUPERFICI
100
AcDbCircle
 62
250
  6
CONTINUOUS
 10
-0.8649440895
 20
4.5582163314
 40
0.0938816961
100
AcDbArc
 50
216.5575481002
 51
219.2307185611
  0
ARC
  5
43B
100
AcDbEntity
  8
RACCORDO
100
AcDbCircle
 62
250
  6
CONTINUOUS
 10
-9.1492387572
 20
30.1929975463
 40
0.8727904151
100
AcDbArc
 50
100.738872386
 51
111.1438747216
  0
ARC
  5
43C
100
AcDbEntity
  8
DRAFT
100
AcDbCircle
 62
7
  6
CONTINUOUS
 10
-0.0516016239
 20
21.7823193865
 40
0.6325596154
100
AcDbArc
 50
293.2529829607
 51
296.3568963977
  0
ARC
  5
43D
100
AcDbEntity
  8
SUPERFICI
100
AcDbCircle
 62
250
  6
CONTINUOUS
 10
-13.3340725962
 20
22.801542224
 40
0.3225824457
100
AcDbArc
 50
131.4536514622
 51
134.8104735986
  0
ARC
  5
43E
100
AcDbEntity
  8
SUPERFICI
100
AcDbCircle
 62
7
  6
CONTINUOUS
 10
-9.3799035974
 20
29.0049852334
 40
0.2850692352
100
AcDbArc
 50
96.5997446042
 51
107.7700278824
  0
ARC
  5
43F
100
AcDbEntity
  8
SUPERFICI
100
AcDbCircle
 62
250
  6
CONTINUOUS
 10
-8.1864671188
 20
18.1456500929
 40
0.2826971304
100
AcDbArc
 50
292.4714776992
 51
294.7003927973
  0
ARC
  5
440
100
AcDbEntity
  8
SUPERFICI
100
AcDbCircle
 62
250
  6
CONTINUOUS
 10
-16.8864671188
 20
28.800930474
 40
0.2826971303
100
AcDbArc
 50
292.4714776991
 51
294.7003927973
  0
ARC
  5
441
100
AcDbEntity
  8
SUPERFICI
100
AcDbCircle
 62
250
  6
CONTINUOUS
 10
-13.3570553454
 20
22.8448285031
 40
0.273562841
100
AcDbArc
 50
112.4240127668
 51
114.2978117857
  0
ARC
  5
442
100
AcDbEntity
  8
SUPERFICI
100
AcDbCircle
 62
7
  6
CONTINUOUS
 10
-11.9930592828
 20
18.4362344053
 40
0.2516025033
100
AcDbArc
 50
180.0147202843
 51
186.5085995153
  0
ARC
  5
443
100
AcDbEntity
  8
SUPERFICI
100
AcDbCircle
 62
7
  6
CONTINUOUS
 10
-20.6930592828
 20
29.0915147864
 40
0.2516025033
100
AcDbArc
 50
180.0147202843
 51
186.5085995154
  0
ARC
  5
444
100
AcDbEntity
  8
SUPERFICI
100
AcDbCircle
 62
7
  6
CONTINUOUS
 10
-18.1004655656
 20
30.440148703
 40
0.2502704414
100
AcDbArc
 50
39.2486805924
 51
111.6752398925
  0
ARC
  5
445
100
AcDbEntity
  8
SUPERFICI
100
AcDbCircle
 62
7
  6
CONTINUOUS
 10
-8.2048767474
 20
18.3206790181
 40
0.250206746
100
AcDbArc
 50
0.0263453882
 51
39.2216205748
  0
ARC
  5
446
100
AcDbEntity
  8
SUPERFICI
100
AcDbCircle
 62
7
  6
CONTINUOUS
 10
-11.9946093731
 20
18.4360499419
 40
0.2500414943
100
AcDbArc
 50
186.5068653138
 51
192.5298370862
  0
ARC
  5
447
100
AcDbEntity
  8
SUPERFICI
100
AcDbCircle
 62
7
  6
CONTINUOUS
 10
-20.6946093731
 20
29.091330323
 40
0.2500414943
100
AcDbArc
 50
186.5068653139
 51
192.5298370861
  0
ARC
  5
448
100
AcDbEntity
  8
SUPERFICI
100
AcDbCircle
 62
7
  6
CONTINUOUS
 10
-10.8064455967
 20
16.9808965233
 40
0.2500209426
100
AcDbArc
 50
219.2393343589
 51
266.1844521232
  0
ARC
  5
449
100
AcDbEntity
  8
SUPERFICI
100
AcDbCircle
 62
7
  6
CONTINUOUS
 10
-16.9046684236
 20
28.9760341928
 40
0.2499972683
100
AcDbArc
 50
0.0027873398
 51
39.2317239332
  0
ARC
  5
44A
100
AcDbEntity
  8
SUPERFICI
100
AcDbCircle
 62
7
  6
CONTINUOUS
 10
-20.6946655566
 20
29.3699384879
 40
0.2499965119
100
AcDbArc
 50
112.6663491006
 51
180.1229057392
  0
ARC
  5
44B
100
AcDbEntity
  8
SUPERFICI
100
AcDbCircle
 62
7
  6
CONTINUOUS
 10
-11.9946655566
 20
18.7146581068
 40
0.2499965119
100
AcDbArc
 50
112.6663491006
 51
180.1229057392
  0
ARC
  5
44C
100
AcDbEntity
  8
SUPERFICI
100
AcDbCircle
 62
7
  6
CONTINUOUS
 10
-9.4003080594
 20
19.7851501473
 40
0.2499493222
100
AcDbArc
 50
39.2393369496
 51
111.7083894509
  0
ARC
  5
44D
100
AcDbEntity
  8
SUPERFICI
100
AcDbCircle
 62
7
  6
CONTINUOUS
 10
-19.506489232
 20
27.6360682467
 40
0.2499072568
100
AcDbArc
 50
219.1537996882
 51
266.2001155003
  0
ARC
  5
44E
100
AcDbEntity
  8
RACCORDO
100
AcDbCircle
 62
250
  6
CONTINUOUS
 10
-9.4184170242
 20
30.7621957926
 40
0.2490526873
100
AcDbArc
 50
100.5606549715
 51
111.096266313
  0
ARC
  5
44F
100
AcDbEntity
  8
RACCORDO
100
AcDbCircle
 62
7
  6
CONTINUOUS
 10
-7.5761443405
 20
24.5712266283
 40
0.2000042025
100
AcDbArc
 50
0.0004210899
 51
39.2324317955
  0
ARC
  5
450
100
AcDbEntity
  8
SUPERFICI
100
AcDbCircle
 62
7
  6
CONTINUOUS
 10
-13.4604915515
 20
22.9566626392
 40
0.1999976136
100
AcDbArc
 50
112.8286777917
 51
180.1228097556
  0
ARC
  5
451
100
AcDbEntity
  8
SUPERFICI
100
AcDbCircle
 62
250
  6
CONTINUOUS
 10
-20.8191955878
 20
29.0914322146
 40
0.125475498
100
AcDbArc
 50
180.0067536114
 51
185.906217113
  0
ARC
  5
452
100
AcDbEntity
  8
SUPERFICI
100
AcDbCircle
 62
250
  6
CONTINUOUS
 10
-12.1191955878
 20
18.4361518335
 40
0.1254754979
100
AcDbArc
 50
180.0067536113
 51
185.9062171131
  0
ARC
  5
453
100
AcDbEntity
  8
SUPERFICI
100
AcDbCircle
 62
250
  6
CONTINUOUS
 10
-17.979613738
 20
30.5389004789
 40
0.0942027836
100
AcDbArc
 50
39.2409881859
 51
45.3135040892
  0
ARC
  5
454
100
AcDbEntity
  8
SUPERFICI
100
AcDbCircle
 62
250
  6
CONTINUOUS
 10
-20.8155987695
 20
28.9926788142
 40
0.0938820014
100
AcDbArc
 50
216.5514142046
 51
219.2307146677
  0
ARC
  5
455
100
AcDbEntity
  8
SUPERFICI
100
AcDbCircle
 62
250
  6
CONTINUOUS
 10
-12.1155987695
 20
18.3373984331
 40
0.0938820013
100
AcDbArc
 50
216.5514142045
 51
219.2307146678
  0
ARC
  5
456
100
AcDbEntity
  8
DRAFT
100
AcDbCircle
 62
7
  6
CONTINUOUS
 10
10.4005708679
 20
16.462554502
 40
9.0916449424
100
AcDbArc
 50
207.8642438636
 51
211.5776171898
  0
ARC
  5
457
100
AcDbEntity
  8
RACCORDO
100
AcDbCircle
 62
7
  6
CONTINUOUS
 10
21.2668851533
 20
8.6743217053
 40
0.9999997174
100
AcDbArc
 50
17.1302059779
 51
76.8017885083
  0
ARC
  5
458
100
AcDbEntity
  8
SUPERFICI
100
AcDbCircle
 62
7
  6
CONTINUOUS
 10
1.8700975509
 20
15.2266005452
 40
0.2850742376
100
AcDbArc
 50
96.5942694589
 51
107.7699480017
  0
ARC
  5
459
100
AcDbEntity
  8
SUPERFICI
100
AcDbCircle
 62
250
  6
CONTINUOUS
 10
3.0635348912
 20
4.3672655581
 40
0.2826919897
100
AcDbArc
 50
292.4714678098
 51
294.7024058313
  0
ARC
  5
45A
100
AcDbEntity
  8
SUPERFICI
100
AcDbCircle
 62
7
  6
CONTINUOUS
 10
0.4428994706
 20
3.2033187892
 40
0.2500209039
100
AcDbArc
 50
219.239308618
 51
266.1623415079
  0
ARC
  5
45B
100
AcDbEntity
  8
SUPERFICI
100
AcDbCircle
 62
7
  6
CONTINUOUS
 10
3.0453315764
 20
4.5423740085
 40
0.2499972683
100
AcDbArc
 50
0.0027873398
 51
39.2317239332
  0
ARC
  5
45C
100
AcDbEntity
  8
SUPERFICI
100
AcDbCircle
 62
7
  6
CONTINUOUS
 10
1.8496919406
 20
6.0067703442
 40
0.2499493222
100
AcDbArc
 50
39.2393369496
 51
111.7083894509
  0
ARC
  5
45D
100
AcDbEntity
  8
RACCORDO
100
AcDbCircle
 62
7
  6
CONTINUOUS
 10
3.0000726609
 20
11.6180651392
 40
0.2000001589
100
AcDbArc
 50
39.2274055747
 51
110.6982754551
  0
ARC
  5
45E
100
AcDbEntity
  8
SUPERFICI
100
AcDbCircle
 62
250
  6
CONTINUOUS
 10
3.1700573184
 20
4.2586199571
 40
0.1252714097
100
AcDbArc
 50
354.6154081356
 51
359.997584279
  0
ARC
  5
45F
100
AcDbEntity
  8
RACCORDO
100
AcDbCircle
 62
250
  6
CONTINUOUS
 10
3.0968584387
 20
11.6970913072
 40
0.0750497678
100
AcDbArc
 50
39.2309889334
 51
40.3789971018
  0
ARC
  5
460
100
AcDbEntity
  8
DRAFT
100
AcDbCircle
 62
7
  6
CONTINUOUS
 10
0.8612542753
 20
31.5317353628
 40
11.2398274114
100
AcDbArc
 50
222.8689323894
 51
224.0293273808
  0
ARC
  5
461
100
AcDbEntity
  8
RACCORDO
100
AcDbCircle
 62
7
  6
CONTINUOUS
 10
11.2229351971
 20
20.9755977339
 40
0.9999997924
100
AcDbArc
 50
24.2977933554
 51
111.0275989594
  0
ARC
  5
462
100
AcDbEntity
  8
RACCORDO
100
AcDbCircle
 62
250
  6
CONTINUOUS
 10
10.9127180078
 20
21.7825768565
 40
0.135447917
100
AcDbArc
 50
109.9207863865
 51
111.0272630621
  0
ARC
  5
463
100
AcDbEntity
  8
SUPERFICI
100
AcDbCircle
 62
250
  6
CONTINUOUS
 10
282.4689030164
 20
-16.2176949882
 40
287.1266219209
100
AcDbArc
 50
178.6594055863
 51
181.3405944137
  0
ARC
  5
464
100
AcDbEntity
  8
SUPERFICI
100
AcDbCircle
 62
250
  6
CONTINUOUS
 10
282.8542917818
 20
-16.3501749669
 40
286.8365935436
100
AcDbArc
 50
178.6593920218
 51
181.3406079782
  0
ARC
  5
465
100
AcDbEntity
  8
SUPERFICI
100
AcDbCircle
 62
250
  6
CONTINUOUS
 10
263.904774462
 20
10.4345881357
 40
290.3234951183
100
AcDbArc
 50
178.6740832473
 51
181.2915815609
  0
SPLINE
  5
466
100
AcDbEntity
  8
RACCORDO
100
AcDbSpline
 62
250
  6
CONTINUOUS
 70
0
 71
3
 72
10
 73
6
 74
0
 42
0.0000001
 43
0.0000001
 44
0.0000000001
 40
0.0
 40
0.0
 40
0.0
 40
0.0
 40
0.34689077
 40
0.6346517898
 40
1.0
 40
1.0
 40
1.0
 40
1.0
 10
-7.0855168505
 20
-5.7830146237
 30
0.0
 10
-7.0766405791
 20
-5.7807196943
 30
0.0
 10
-7.0675037445
 20
-5.7622717534
 30
0.0
 10
-7.0634167564
 20
-5.737261178
 30
0.0
 10
-7.0624195943
 20
-5.7197030334
 30
0.0
 10
-7.0623376834
 20
-5.7100474144
 30
0.0
  0
SPLINE
  5
467
100
AcDbEntity
  8
RACCORDO
100
AcDbSpline
 62
250
  6
CONTINUOUS
 70
0
 71
3
 72
9
 73
5
 74
0
 42
0.0000001
 43
0.0000001
 44
0.0000000001
 40
0.0
 40
0.0
 40
0.0
 40
0.0
 40
0.7524313672
 40
1.0
 40
1.0
 40
1.0
 40
1.0
 10
-7.0623376834
 20
-5.7100474144
 30
0.0
 10
-7.1078574229
 20
-5.7222136438
 30
0.0
 10
-7.1729238303
 20
-5.7252849844
 30
0.0
 10
-7.2340046814
 20
-5.7110642443
 30
0.0
 10
-7.2487953117
 20
-5.7064192994
 30
0.0
  0
SPLINE
  5
468
100
AcDbEntity
  8
RACCORDO
100
AcDbSpline
 62
7
  6
CONTINUOUS
 70
0
 71
3
 72
11
 73
7
 74
0
 42
0.0000001
 43
0.0000001
 44
0.0000000001
 40
0.0
 40
0.0
 40
0.0
 40
0.0
 40
0.0835587118
 40
0.2652367062
 40
0.5707834609
 40
1.0
 40
1.0
 40
1.0
 40
1.0
 10
-16.6117398263
 20
6.5826296554
 30
0.0
 10
-16.6118067289
 20
6.584476795
 30
0.0
 10
-16.6148715704
 20
6.5898318115
 30
0.0
 10
-16.621549237
 20
6.600270669
 30
0.0
 10
-16.6339585337
 20
6.6164942073
 30
0.0
 10
-16.6440593018
 20
6.6291656799
 30
0.0
 10
-16.6500641094
 20
6.6365200372
 30
0.0
  0
SPLINE
  5
469
100
AcDbEntity
  8
RACCORDO
100
AcDbSpline
 62
7
  6
CONTINUOUS
 70
0
 71
3
 72
8
 73
4
 74
0
 42
0.0000001
 43
0.0000001
 44
0.0000000001
 40
0.0
 40
0.0
 40
0.0
 40
0.0
 40
1.0
 40
1.0
 40
1.0
 40
1.0
 10
-15.0737570087
 20
2.8250144417
 30
0.0
 10
-15.070255773
 20
2.8212223306
 30
0.0
 10
-15.0674331661
 20
2.8166749112
 30
0.0
 10
-15.0656136297
 20
2.8118449997
 30
0.0
  0
SPLINE
  5
46A
100
AcDbEntity
  8
RACCORDO
100
AcDbSpline
 62
7
  6
CONTINUOUS
 70
0
 71
3
 72
15
 73
11
 74
0
 42
0.0000001
 43
0.0000001
 44
0.0000000001
 40
0.0
 40
0.0
 40
0.0
 40
0.0
 40
0.1067038611
 40
0.2288517076
 40
0.3614822493
 40
0.4994576453
 40
0.6375017686
 40
0.7703404614
 40
0.8928206205
 40
1.0
 40
1.0
 40
1.0
 40
1.0
 10
-15.0737599659
 20
2.8250137223
 30
0.0
 10
-15.173107538
 20
2.9329197058
 30
0.0
 10
-15.3699229717
 20
3.1793876226
 30
0.0
 10
-15.6413200456
 20
3.5962590899
 30
0.0
 10
-15.8986295899
 20
4.071501055
 30
0.0
 10
-16.1297085092
 20
4.5840105747
 30
0.0
 10
-16.3244074748
 20
5.1117198911
 30
0.0
 10
-16.4744703271
 20
5.631765767
 30
0.0
 10
-16.5737522159
 20
6.1206102712
 30
0.0
 10
-16.6066763746
 20
6.4354045631
 30
0.0
 10
-16.611750883
 20
6.582646086
 30
0.0
  0
SPLINE
  5
46B
100
AcDbEntity
  8
RACCORDO
100
AcDbSpline
 62
7
  6
CONTINUOUS
 70
0
 71
3
 72
34
 73
30
 74
0
 42
0.0000001
 43
0.0000001
 44
0.0000000001
 40
0.0
 40
0.0
 40
0.0
 40
0.0
 40
0.061961856
 40
0.1325674642
 40
0.2100079328
 40
0.2924514527
 40
0.3780689395
 40
0.4649976673
 40
0.5513659464
 40
0.6353064907
 40
0.7149728227
 40
0.7885424886
 40
0.8224809328
 40
0.8542154042
 40
0.8835039544
 40
0.9100966631
 40
0.9337312864
 40
0.954124367
 40
0.9630147029
 40
0.9709697929
 40
0.9779381443
 40
0.983871221
 40
0.9887744156
 40
0.9926871329
 40
0.9956373043
 40
0.9976431871
 40
0.9987872922
 40
0.9992160129
 40
1.0
 40
1.0
 40
1.0
 40
1.0
 10
-14.6822414593
 20
2.8924098893
 30
0.0
 10
-14.6822414593
 20
2.9939874494
 30
0.0
 10
-14.694615906
 20
3.2113527526
 30
0.0
 10
-14.7424147492
 20
3.5525787517
 30
0.0
 10
-14.820564978
 20
3.9225419525
 30
0.0
 10
-14.9274873345
 20
4.3107709781
 30
0.0
 10
-15.0607060521
 20
4.7072087953
 30
0.0
 10
-15.2170696554
 20
5.1020208016
 30
0.0
 10
-15.3927889515
 20
5.4855872904
 30
0.0
 10
-15.5834855776
 20
5.8485581767
 30
0.0
 10
-15.7841476039
 20
6.1818606861
 30
0.0
 10
-15.9593359825
 20
6.4341345571
 30
0.0
 10
-16.1004259131
 20
6.6136521733
 30
0.0
 10
-16.2018596362
 20
6.7318177037
 30
0.0
 10
-16.3005598829
 20
6.8362514895
 30
0.0
 10
-16.3952103432
 20
6.925995139
 30
0.0
 10
-16.4841402867
 20
7.0002472283
 30
0.0
 10
-16.5547366551
 20
7.0508613214
 30
0.0
 10
-16.6067696223
 20
7.0828275679
 30
0.0
 10
-16.6409786077
 20
7.1016725119
 30
0.0
 10
-16.6717450296
 20
7.11661789
 30
0.0
 10
-16.6987664007
 20
7.1277475201
 30
0.0
 10
-16.7216653091
 20
7.1354371845
 30
0.0
 10
-16.7404846534
 20
7.1402438795
 30
0.0
 10
-16.7544697052
 20
7.142980101
 30
0.0
 10
-16.765109817
 20
7.143882112
 30
0.0
 10
-16.769818465
 20
7.1443888001
 30
0.0
 10
-16.7755595776
 20
7.1435270496
 30
0.0
 10
-16.7712198184
 20
7.1441771522
 30
0.0
 10
-16.7700210667
 20
7.1446406401
 30
0.0
  0
SPLINE
  5
46C
100
AcDbEntity
  8
RACCORDO
100
AcDbSpline
 62
7
  6
CONTINUOUS
 70
0
 71
3
 72
21
 73
17
 74
0
 42
0.0000001
 43
0.0000001
 44
0.0000000001
 40
0.0
 40
0.0
 40
0.0
 40
0.0
 40
0.0057369712
 40
0.0121774755
 40
0.0184803496
 40
0.0271213704
 40
0.0517349859
 40
0.0866677374
 40
0.1327379504
 40
0.1902484055
 40
0.2586588021
 40
0.3374210697
 40
0.4260341661
 40
0.5239791025
 40
0.7457961372
 40
1.0
 40
1.0
 40
1.0
 40
1.0
 10
-14.8005981196
 20
2.3205593321
 30
0.0
 10
-14.8016512745
 20
2.3201062794
 30
0.0
 10
-14.8053693383
 20
2.3174499307
 30
0.0
 10
-14.8001170761
 20
2.3216890951
 30
0.0
 10
-14.7979033832
 20
2.3242763614
 30
0.0
 10
-14.7923218777
 20
2.330500634
 30
0.0
 10
-14.7844476405
 20
2.3412440438
 30
0.0
 10
-14.7731990936
 20
2.3593168952
 30
0.0
 10
-14.7607496237
 20
2.3840070414
 30
0.0
 10
-14.7475108775
 20
2.4157765608
 30
0.0
 10
-14.7341974286
 20
2.4544724252
 30
0.0
 10
-14.7215715413
 20
2.4998989238
 30
0.0
 10
-14.7102110032
 20
2.5517119406
 30
0.0
 10
-14.6965243651
 20
2.6321922959
 30
0.0
 10
-14.6849975092
 20
2.7464483282
 30
0.0
 10
-14.6822414593
 20
2.8416100988
 30
0.0
 10
-14.6822414593
 20
2.8924098893
 30
0.0
  0
SPLINE
  5
46D
100
AcDbEntity
  8
RACCORDO
100
AcDbSpline
 62
7
  6
CONTINUOUS
 70
0
 71
3
 72
34
 73
30
 74
0
 42
0.0000001
 43
0.0000001
 44
0.0000000001
 40
0.0
 40
0.0
 40
0.0
 40
0.0
 40
0.061960297
 40
0.1325576503
 40
0.2099854636
 40
0.2924136331
 40
0.3780142154
 40
0.4649254632
 40
0.5512765693
 40
0.6352011631
 40
0.7148538413
 40
0.7884135579
 40
0.8223490199
 40
0.8540822702
 40
0.8833717775
 40
0.9099682603
 40
0.9336101581
 40
0.9540150501
 40
0.9629132779
 40
0.9708777689
 40
0.9778572335
 40
0.9838034358
 40
0.9887220111
 40
0.99265208
 40
0.9956213139
 40
0.9976478324
 40
0.9988142083
 40
0.9992666004
 40
1.0
 40
1.0
 40
1.0
 40
1.0
 10
-9.9278776931
 20
-9.6479871714
 30
0.0
 10
-9.9278776931
 20
-9.5460809291
 30
0.0
 10
-9.9402905075
 20
-9.3280228948
 30
0.0
 10
-9.9882386749
 20
-8.9857205657
 30
0.0
 10
-10.0666301674
 20
-8.614609036
 30
0.0
 10
-10.1738804729
 20
-8.2251849299
 30
0.0
 10
-10.3075067524
 20
-7.8275316236
 30
0.0
 10
-10.4643484906
 20
-7.4315107885
 30
0.0
 10
-10.6406058513
 20
-7.0467690496
 30
0.0
 10
-10.8318885133
 20
-6.6826826354
 30
0.0
 10
-11.0331714332
 20
-6.3483490395
 30
0.0
 10
-11.2089063484
 20
-6.0952886058
 30
0.0
 10
-11.3504418173
 20
-5.9152037462
 30
0.0
 10
-11.4522027472
 20
-5.7966568674
 30
0.0
 10
-11.551228235
 20
-5.6918777498
 30
0.0
 10
-11.6462016112
 20
-5.601827812
 30
0.0
 10
-11.7354494193
 20
-5.5273082142
 30
0.0
 10
-11.8063121722
 20
-5.4765033107
 30
0.0
 10
-11.8585543945
 20
-5.4444058764
 30
0.0
 10
-11.892915269
 20
-5.4254756111
 30
0.0
 10
-11.9238311545
 20
-5.4104566451
 30
0.0
 10
-11.9510021281
 20
-5.3992661562
 30
0.0
 10
-11.9740439488
 20
-5.3915268483
 30
0.0
 10
-11.9930155121
 20
-5.3866822288
 30
0.0
 10
-12.0071165296
 20
-5.3839194895
 30
0.0
 10
-12.0179437546
 20
-5.3830063712
 30
0.0
 10
-12.0226766155
 20
-5.3824913679
 30
0.0
 10
-12.0285744552
 20
-5.3833668774
 30
0.0
 10
-12.024425903
 20
-5.3827592717
 30
0.0
 10
-12.023300845
 20
-5.3823242768
 30
0.0
  0
SPLINE
  5
46E
100
AcDbEntity
  8
RACCORDO
100
AcDbSpline
 62
7
  6
CONTINUOUS
 70
0
 71
3
 72
21
 73
17
 74
0
 42
0.0000001
 43
0.0000001
 44
0.0000000001
 40
0.0
 40
0.0
 40
0.0
 40
0.0
 40
0.0052590145
 40
0.0119116672
 40
0.0183119786
 40
0.0270439973
 40
0.051819308
 40
0.0868842153
 40
0.133053075
 40
0.1906284768
 40
0.2590732562
 40
0.3378418964
 40
0.42643572
 40
0.5243383418
 40
0.7460109341
 40
1.0
 40
1.0
 40
1.0
 40
1.0
 10
-10.0472806471
 20
-10.2225654831
 30
0.0
 10
-10.04825013
 20
-10.2229825413
 30
0.0
 10
-10.0517922264
 20
-10.2255092518
 30
0.0
 10
-10.0464324981
 20
-10.2211939923
 30
0.0
 10
-10.0441982839
 20
-10.2185720799
 30
0.0
 10
-10.0385280732
 20
-10.2122546095
 30
0.0
 10
-10.0305867634
 20
-10.2014138241
 30
0.0
 10
-10.0192437735
 20
-10.1831931925
 30
0.0
 10
-10.0067170199
 20
-10.1583477748
 30
0.0
 10
-9.9934070132
 20
-10.126406801
 30
0.0
 10
-9.9800320864
 20
-10.0875275845
 30
0.0
 10
-9.9673525459
 20
-10.0419052386
 30
0.0
 10
-9.9559470443
 20
-9.9898846286
 30
0.0
 10
-9.9422105522
 20
-9.9091057593
 30
0.0
 10
-9.9306432875
 20
-9.7944485687
 30
0.0
 10
-9.9278776931
 20
-9.6989579184
 30
0.0
 10
-9.9278776931
 20
-9.6479871714
 30
0.0
  0
SPLINE
  5
46F
100
AcDbEntity
  8
DRAFT
100
AcDbSpline
 62
7
  6
CONTINUOUS
 70
0
 71
3
 72
9
 73
5
 74
0
 42
0.0000001
 43
0.0000001
 44
0.0000000001
 40
0.0
 40
0.0
 40
0.0
 40
0.0
 40
0.4705570323
 40
1.0
 40
1.0
 40
1.0
 40
1.0
 10
-7.2894762544
 20
-4.820334262
 30
0.0
 10
-7.3020924967
 20
-4.8795343581
 30
0.0
 10
-7.3200813698
 20
-5.0072552509
 30
0.0
 10
-7.3250825635
 20
-5.1359664972
 30
0.0
 10
-7.3250825635
 20
-5.2040707193
 30
0.0
  0
SPLINE
  5
470
100
AcDbEntity
  8
DRAFT
100
AcDbSpline
 62
7
  6
CONTINUOUS
 70
0
 71
3
 72
9
 73
5
 74
0
 42
0.0000001
 43
0.0000001
 44
0.0000000001
 40
0.0
 40
0.0
 40
0.0
 40
0.0
 40
0.4601124534
 40
1.0
 40
1.0
 40
1.0
 40
1.0
 10
-16.6909886057
 20
7.0799757245
 30
0.0
 10
-16.7181551615
 20
7.0353594307
 30
0.0
 10
-16.7639739836
 20
6.9303085994
 30
0.0
 10
-16.7898780189
 20
6.8193340631
 30
0.0
 10
-16.8001334496
 20
6.7589049414
 30
0.0
  0
SPLINE
  5
471
100
AcDbEntity
  8
DRAFT
100
AcDbSpline
 62
7
  6
CONTINUOUS
 70
0
 71
3
 72
9
 73
5
 74
0
 42
0.0000001
 43
0.0000001
 44
0.0000000001
 40
0.0
 40
0.0
 40
0.0
 40
0.0
 40
0.2385292443
 40
1.0
 40
1.0
 40
1.0
 40
1.0
 10
-16.813911272
 20
6.6577183525
 30
0.0
 10
-16.8158001833
 20
6.6397649456
 30
0.0
 10
-16.8225822367
 20
6.5643793371
 30
0.0
 10
-16.8250825635
 20
6.488635607
 30
0.0
 10
-16.8250825635
 20
6.4310055589
 30
0.0
  0
SPLINE
  5
472
100
AcDbEntity
  8
DRAFT
100
AcDbSpline
 62
7
  6
CONTINUOUS
 70
0
 71
3
 72
9
 73
5
 74
0
 42
0.0000001
 43
0.0000001
 44
0.0000000001
 40
0.0
 40
0.0
 40
0.0
 40
0.0
 40
0.2338340461
 40
1.0
 40
1.0
 40
1.0
 40
1.0
 10
-11.6214090718
 20
-5.6261246996
 30
0.0
 10
-11.6249257672
 20
-5.6494011729
 30
0.0
 10
-11.6376746844
 20
-5.7492884678
 30
0.0
 10
-11.6420698616
 20
-5.8501385493
 30
0.0
 10
-11.6420698616
 20
-5.9272703062
 30
0.0
  0
SPLINE
  5
473
100
AcDbEntity
  8
SUPERFICI
100
AcDbSpline
 62
7
  6
CONTINUOUS
 70
0
 71
3
 72
9
 73
5
 74
0
 42
0.0000001
 43
0.0000001
 44
0.0000000001
 40
0.0
 40
0.0
 40
0.0
 40
0.0
 40
0.2457493892
 40
1.0
 40
1.0
 40
1.0
 40
1.0
 10
5.9001947208
 20
10.6616606026
 30
0.0
 10
5.9295966351
 20
10.6549766386
 30
0.0
 10
6.045965571
 20
10.6130889382
 30
0.0
 10
6.1421310459
 20
10.5279318048
 30
0.0
 10
6.2006885796
 20
10.4562721858
 30
0.0
  0
SPLINE
  5
474
100
AcDbEntity
  8
SUPERFICI
100
AcDbSpline
 62
7
  6
CONTINUOUS
 70
0
 71
3
 72
11
 73
7
 74
0
 42
0.0000001
 43
0.0000001
 44
0.0000000001
 40
0.0
 40
0.0
 40
0.0
 40
0.0
 40
0.2420720482
 40
0.4897987914
 40
0.742848419
 40
1.0
 40
1.0
 40
1.0
 40
1.0
 10
1.8373602537
 20
15.5097888047
 30
0.0
 10
1.8758048322
 20
15.5142566617
 30
0.0
 10
1.9558405863
 20
15.5074749966
 30
0.0
 10
2.0664957152
 20
15.4608718012
 30
0.0
 10
2.1651223762
 20
15.3890579973
 30
0.0
 10
2.2215959354
 20
15.3296171236
 30
0.0
 10
2.2476129954
 20
15.297781645
 30
0.0
  0
SPLINE
  5
475
100
AcDbEntity
  8
SUPERFICI
100
AcDbSpline
 62
7
  6
CONTINUOUS
 70
0
 71
3
 72
8
 73
4
 74
0
 42
0.0000001
 43
0.0000001
 44
0.0000000001
 40
0.0
 40
0.0
 40
0.0
 40
0.0
 40
1.0
 40
1.0
 40
1.0
 40
1.0
 10
-8.0388042615
 20
17.8499431691
 30
0.0
 10
-8.0143939421
 20
17.8715889014
 30
0.0
 10
-7.9939273447
 20
17.8985989694
 30
0.0
 10
-7.9797023057
 20
17.9279596522
 30
0.0
  0
SPLINE
  5
476
100
AcDbEntity
  8
SUPERFICI
100
AcDbSpline
 62
7
  6
CONTINUOUS
 70
0
 71
3
 72
8
 73
4
 74
0
 42
0.0000001
 43
0.0000001
 44
0.0000000001
 40
0.0
 40
0.0
 40
0.0
 40
0.0
 40
1.0
 40
1.0
 40
1.0
 40
1.0
 10
-7.9797023057
 20
17.9279596522
 30
0.0
 10
-7.9634414243
 20
17.9615223428
 30
0.0
 10
-7.9546702174
 20
17.9997122126
 30
0.0
 10
-7.9546703277
 20
18.0370065884
 30
0.0
  0
SPLINE
  5
477
100
AcDbEntity
  8
SUPERFICI
100
AcDbSpline
 62
7
  6
CONTINUOUS
 70
0
 71
3
 72
8
 73
4
 74
0
 42
0.0000001
 43
0.0000001
 44
0.0000000001
 40
0.0
 40
0.0
 40
0.0
 40
0.0
 40
1.0
 40
1.0
 40
1.0
 40
1.0
 10
-16.7388042615
 20
28.5052235502
 30
0.0
 10
-16.7143939421
 20
28.5268692825
 30
0.0
 10
-16.6939273447
 20
28.5538793505
 30
0.0
 10
-16.6797023057
 20
28.5832400333
 30
0.0
  0
SPLINE
  5
478
100
AcDbEntity
  8
SUPERFICI
100
AcDbSpline
 62
7
  6
CONTINUOUS
 70
0
 71
3
 72
8
 73
4
 74
0
 42
0.0000001
 43
0.0000001
 44
0.0000000001
 40
0.0
 40
0.0
 40
0.0
 40
0.0
 40
1.0
 40
1.0
 40
1.0
 40
1.0
 10
-16.6797023057
 20
28.5832400333
 30
0.0
 10
-16.6634414243
 20
28.616802724
 30
0.0
 10
-16.6546702174
 20
28.6549925937
 30
0.0
 10
-16.6546703277
 20
28.6922869695
 30
0.0
  0
SPLINE
  5
479
100
AcDbEntity
  8
SUPERFICI
100
AcDbSpline
 62
7
  6
CONTINUOUS
 70
0
 71
3
 72
8
 73
4
 74
0
 42
0.0000001
 43
0.0000001
 44
0.0000000001
 40
0.0
 40
0.0
 40
0.0
 40
0.0
 40
1.0
 40
1.0
 40
1.0
 40
1.0
 10
-12.1881848451
 20
18.2778798331
 30
0.0
 10
-12.2125660785
 20
18.3076969846
 30
0.0
 10
-12.2303342254
 20
18.3442061575
 30
0.0
 10
-12.2386956698
 20
18.3818039408
 30
0.0
  0
SPLINE
  5
47A
100
AcDbEntity
  8
SUPERFICI
100
AcDbSpline
 62
7
  6
CONTINUOUS
 70
0
 71
3
 72
8
 73
4
 74
0
 42
0.0000001
 43
0.0000001
 44
0.0000000001
 40
0.0
 40
0.0
 40
0.0
 40
0.0
 40
1.0
 40
1.0
 40
1.0
 40
1.0
 10
-20.8881848451
 20
28.9331602142
 30
0.0
 10
-20.9125660785
 20
28.9629773657
 30
0.0
 10
-20.9303342254
 20
28.9994865386
 30
0.0
 10
-20.9386956698
 20
29.0370843219
 30
0.0
  0
SPLINE
  5
47B
100
AcDbEntity
  8
SUPERFICI
100
AcDbSpline
 62
7
  6
CONTINUOUS
 70
0
 71
3
 72
8
 73
4
 74
0
 42
0.0000001
 43
0.0000001
 44
0.0000000001
 40
0.0
 40
0.0
 40
0.0
 40
0.0
 40
1.0
 40
1.0
 40
1.0
 40
1.0
 10
-0.9375302414
 20
4.4986982935
 30
0.0
 10
-0.9618946022
 20
4.5284948074
 30
0.0
 10
-0.979655035
 20
4.5649732469
 30
0.0
 10
-0.9880229785
 20
4.6025422746
 30
0.0
  0
SPLINE
  5
47C
100
AcDbEntity
  8
SUPERFICI
100
AcDbSpline
 62
7
  6
CONTINUOUS
 70
0
 71
3
 72
8
 73
4
 74
0
 42
0.0000001
 43
0.0000001
 44
0.0000000001
 40
0.0
 40
0.0
 40
0.0
 40
0.0
 40
1.0
 40
1.0
 40
1.0
 40
1.0
 10
-9.6375302414
 20
15.1539786746
 30
0.0
 10
-9.6618946022
 20
15.1837751886
 30
0.0
 10
-9.679655035
 20
15.220253628
 30
0.0
 10
-9.6880229785
 20
15.2578226557
 30
0.0
  0
SPLINE
  5
47D
100
AcDbEntity
  8
SUPERFICI
100
AcDbSpline
 62
7
  6
CONTINUOUS
 70
0
 71
3
 72
8
 73
4
 74
0
 42
0.0000001
 43
0.0000001
 44
0.0000000001
 40
0.0
 40
0.0
 40
0.0
 40
0.0
 40
1.0
 40
1.0
 40
1.0
 40
1.0
 10
-5.404671101
 20
14.9138950544
 30
0.0
 10
-5.404671101
 20
14.8748583258
 30
0.0
 10
-5.4143159847
 20
14.8347919693
 30
0.0
 10
-5.4321029231
 20
14.8000429981
 30
0.0
  0
SPLINE
  5
47E
100
AcDbEntity
  8
SUPERFICI
100
AcDbSpline
 62
7
  6
CONTINUOUS
 70
0
 71
3
 72
8
 73
4
 74
0
 42
0.0000001
 43
0.0000001
 44
0.0000000001
 40
0.0
 40
0.0
 40
0.0
 40
0.0
 40
1.0
 40
1.0
 40
1.0
 40
1.0
 10
-5.4321029231
 20
14.8000429981
 30
0.0
 10
-5.4461651031
 20
14.7725708002
 30
0.0
 10
-5.4657119536
 20
14.7473251341
 30
0.0
 10
-5.488804047
 20
14.7268502278
 30
0.0
  0
SPLINE
  5
47F
100
AcDbEntity
  8
SUPERFICI
100
AcDbSpline
 62
7
  6
CONTINUOUS
 70
0
 71
3
 72
8
 73
4
 74
0
 42
0.0000001
 43
0.0000001
 44
0.0000000001
 40
0.0
 40
0.0
 40
0.0
 40
0.0
 40
1.0
 40
1.0
 40
1.0
 40
1.0
 10
3.2953220714
 20
4.2589340196
 30
0.0
 10
3.29535887
 20
4.2181858901
 30
0.0
 10
3.2848662335
 20
4.1762613349
 30
0.0
 10
3.2655919425
 20
4.1403598988
 30
0.0
  0
SPLINE
  5
480
100
AcDbEntity
  8
SUPERFICI
100
AcDbSpline
 62
7
  6
CONTINUOUS
 70
0
 71
3
 72
8
 73
4
 74
0
 42
0.0000001
 43
0.0000001
 44
0.0000000001
 40
0.0
 40
0.0
 40
0.0
 40
0.0
 40
1.0
 40
1.0
 40
1.0
 40
1.0
 10
3.2655919425
 20
4.1403598988
 30
0.0
 10
3.2517625246
 20
4.1146004059
 30
0.0
 10
3.2330706903
 20
4.0909483273
 30
0.0
 10
3.2111850774
 20
4.0715621409
 30
0.0
  0
SPLINE
  5
481
100
AcDbEntity
  8
DRAFT
100
AcDbSpline
 62
7
  6
CONTINUOUS
 70
0
 71
3
 72
9
 73
5
 74
0
 42
0.0000001
 43
0.0000001
 44
0.0000000001
 40
0.0
 40
0.0
 40
0.0
 40
0.0
 40
0.2551636556
 40
1.0
 40
1.0
 40
1.0
 40
1.0
 10
0.2292303081
 20
21.2155168698
 30
0.0
 10
0.2342491238
 20
21.218005217
 30
0.0
 10
0.2537829104
 20
21.228026122
 30
0.0
 10
0.2727645939
 20
21.23913443
 30
0.0
 10
0.2864707446
 20
21.2480523719
 30
0.0
  0
SPLINE
  5
482
100
AcDbEntity
  8
DRAFT
100
AcDbSpline
 62
7
  6
CONTINUOUS
 70
0
 71
3
 72
11
 73
7
 74
0
 42
0.0000001
 43
0.0000001
 44
0.0000000001
 40
0.0
 40
0.0
 40
0.0
 40
0.0
 40
0.2881425931
 40
0.548507841
 40
0.7832894706
 40
1.0
 40
1.0
 40
1.0
 40
1.0
 10
0.2864707446
 20
21.2480523719
 30
0.0
 10
0.3097307819
 20
21.2631865744
 30
0.0
 10
0.3518489011
 20
21.2956241581
 30
0.0
 10
0.4016868903
 20
21.3530519735
 30
0.0
 10
0.433113569
 20
21.4148848172
 30
0.0
 10
0.4406049594
 20
21.4585991343
 30
0.0
 10
0.4406043644
 20
21.4794699114
 30
0.0
  0
SPLINE
  5
483
100
AcDbEntity
  8
SUPERFICI
100
AcDbSpline
 62
7
  6
CONTINUOUS
 70
0
 71
3
 72
11
 73
7
 74
0
 42
0.0000001
 43
0.0000001
 44
0.0000000001
 40
0.0
 40
0.0
 40
0.0
 40
0.0
 40
0.242071504
 40
0.4897979936
 40
0.7428478264
 40
1.0
 40
1.0
 40
1.0
 40
1.0
 10
-9.4126673807
 20
29.288165394
 30
0.0
 10
-9.3742210632
 20
29.2926371487
 30
0.0
 10
-9.2941798123
 20
29.2858609898
 30
0.0
 10
-9.1835162703
 20
29.2392591767
 30
0.0
 10
-9.0848824586
 20
29.1674427031
 30
0.0
 10
-9.0284052501
 20
29.1079984264
 30
0.0
 10
-9.0023866316
 20
29.0761609923
 30
0.0
  0
SPLINE
  5
484
100
AcDbEntity
  8
SUPERFICI
100
AcDbSpline
 62
7
  6
CONTINUOUS
 70
0
 71
3
 72
9
 73
5
 74
0
 42
0.0000001
 43
0.0000001
 44
0.0000000001
 40
0.0
 40
0.0
 40
0.0
 40
0.0
 40
0.2457493322
 40
1.0
 40
1.0
 40
1.0
 40
1.0
 10
-5.3498052792
 20
24.4400404058
 30
0.0
 10
-5.3204032723
 20
24.4333564207
 30
0.0
 10
-5.204033954
 20
24.3914685309
 30
0.0
 10
-5.107868245
 20
24.3063109691
 30
0.0
 10
-5.0493106208
 20
24.234651011
 30
0.0
  0
LINE
  5
485
100
AcDbEntity
  8
SUPERFICI
100
AcDbLine
 62
7
  6
CONTINUOUS
 10
6.4131303697
 20
10.1960856051
 11
6.4134147723
 21
10.1952610686
  0
LINE
  5
486
100
AcDbEntity
  8
SUPERFICI
100
AcDbLine
 62
7
  6
CONTINUOUS
 10
-4.8368696152
 20
23.9744653887
 11
-4.8365852283
 21
23.9736408899
  0
SPLINE
  5
487
100
AcDbEntity
  8
RACCORDO
100
AcDbSpline
 62
7
  6
CONTINUOUS
 70
0
 71
3
 72
9
 73
5
 74
0
 42
0.0000001
 43
0.0000001
 44
0.0000000001
 40
0.0
 40
0.0
 40
0.0
 40
0.0
 40
0.256553271
 40
1.0
 40
1.0
 40
1.0
 40
1.0
 10
-7.2530950712
 20
-5.3849621054
 30
0.0
 10
-7.243472104
 20
-5.3810335455
 30
0.0
 10
-7.2069574106
 20
-5.3634127521
 30
0.0
 10
-7.1749103483
 20
-5.3363749962
 30
0.0
 10
-7.1563501064
 20
-5.3126530504
 30
0.0
  0
SPLINE
  5
488
100
AcDbEntity
  8
SUPERFICI
100
AcDbSpline
 62
7
  6
CONTINUOUS
 70
0
 71
3
 72
12
 73
8
 74
0
 42
0.0000001
 43
0.0000001
 44
0.0000000001
 40
0.0
 40
0.0
 40
0.0
 40
0.0
 40
0.1524323989
 40
0.2538014082
 40
0.3733280612
 40
0.66183027
 40
1.0
 40
1.0
 40
1.0
 40
1.0
 10
6.1463673144
 20
9.3096112581
 30
0.0
 10
6.1637788208
 20
9.322634568
 30
0.0
 10
6.1815876497
 20
9.3576127797
 30
0.0
 10
6.1915593265
 20
9.4095395738
 30
0.0
 10
6.1952402187
 20
9.4824992407
 30
0.0
 10
6.1828363956
 20
9.5887034329
 30
0.0
 10
6.1607656385
 20
9.6755597029
 30
0.0
 10
6.1463673144
 20
9.7215977855
 30
0.0
  0
SPLINE
  5
489
100
AcDbEntity
  8
SUPERFICI
100
AcDbSpline
 62
7
  6
CONTINUOUS
 70
0
 71
3
 72
12
 73
8
 74
0
 42
0.0000001
 43
0.0000001
 44
0.0000000001
 40
0.0
 40
0.0
 40
0.0
 40
0.0
 40
0.1524323989
 40
0.2538014082
 40
0.3733280612
 40
0.66183027
 40
1.0
 40
1.0
 40
1.0
 40
1.0
 10
-5.1036326856
 20
23.0879910613
 30
0.0
 10
-5.0862211792
 20
23.1010143712
 30
0.0
 10
-5.0684123503
 20
23.1359925829
 30
0.0
 10
-5.0584406735
 20
23.187919377
 30
0.0
 10
-5.0547597813
 20
23.2608790439
 30
0.0
 10
-5.0671636044
 20
23.3670832361
 30
0.0
 10
-5.0892343615
 20
23.453939506
 30
0.0
 10
-5.1036326856
 20
23.4999775887
 30
0.0
  0
SPLINE
  5
48A
100
AcDbEntity
  8
DRAFT
100
AcDbSpline
 62
7
  6
CONTINUOUS
 70
0
 71
3
 72
13
 73
9
 74
0
 42
0.0000001
 43
0.0000001
 44
0.0000000001
 40
0.0
 40
0.0
 40
0.0
 40
0.0
 40
0.2241359459
 40
0.4754043118
 40
0.6075599673
 40
0.7405098613
 40
0.8720318581
 40
1.0
 40
1.0
 40
1.0
 40
1.0
 10
2.3471104106
 20
11.7612294837
 30
0.0
 10
2.2774449157
 20
11.8465519413
 30
0.0
 10
2.0862815967
 20
11.9927824124
 30
0.0
 10
1.7984012516
 20
12.0871000535
 30
0.0
 10
1.5455876423
 20
12.1152969899
 30
0.0
 10
1.3499505028
 20
12.1096276051
 30
0.0
 10
1.159688692
 20
12.0761160804
 30
0.0
 10
1.0364877481
 20
12.0407290712
 30
0.0
 10
0.9784107696
 20
12.0166012305
 30
0.0
  0
SPLINE
  5
48B
100
AcDbEntity
  8
DRAFT
100
AcDbSpline
 62
7
  6
CONTINUOUS
 70
0
 71
3
 72
9
 73
5
 74
0
 42
0.0000001
 43
0.0000001
 44
0.0000000001
 40
0.0
 40
0.0
 40
0.0
 40
0.0
 40
0.2417154904
 40
1.0
 40
1.0
 40
1.0
 40
1.0
 10
-7.3250825635
 20
-5.2040707193
 30
0.0
 10
-7.3250825635
 20
-5.2207030861
 30
0.0
 10
-7.3244174141
 20
-5.2895121309
 30
0.0
 10
-7.3212093677
 20
-5.3582885639
 30
0.0
 10
-7.3175802084
 20
-5.4103395171
 30
0.0
  0
SPLINE
  5
48C
100
AcDbEntity
  8
DRAFT
100
AcDbSpline
 62
7
  6
CONTINUOUS
 70
0
 71
3
 72
11
 73
7
 74
0
 42
0.0000001
 43
0.0000001
 44
0.0000000001
 40
0.0
 40
0.0
 40
0.0
 40
0.0
 40
0.224908342
 40
0.4762926456
 40
0.7398317378
 40
1.0
 40
1.0
 40
1.0
 40
1.0
 10
-7.313911272
 20
-5.4581474771
 30
0.0
 10
-7.2979206406
 20
-5.6493014332
 30
0.0
 10
-7.2323783382
 20
-6.0515475033
 30
0.0
 10
-7.0644599524
 20
-6.6607022702
 30
0.0
 10
-6.8299602222
 20
-7.2797294228
 30
0.0
 10
-6.6344363462
 20
-7.6821955199
 30
0.0
 10
-6.5274625424
 20
-7.8766015996
 30
0.0
  0
SPLINE
  5
48D
100
AcDbEntity
  8
DRAFT
100
AcDbSpline
 62
7
  6
CONTINUOUS
 70
0
 71
3
 72
15
 73
11
 74
0
 42
0.0000001
 43
0.0000001
 44
0.0000000001
 40
0.0
 40
0.0
 40
0.0
 40
0.0
 40
0.1068024226
 40
0.2285374743
 40
0.3609066618
 40
0.4988484429
 40
0.63694609
 40
0.7697753656
 40
0.8922470721
 40
1.0
 40
1.0
 40
1.0
 40
1.0
 10
-16.8250825635
 20
6.4310055589
 30
0.0
 10
-16.8250825635
 20
6.2893051572
 30
0.0
 10
-16.8011636713
 20
5.9860451767
 30
0.0
 10
-16.7131154249
 20
5.5147706238
 30
0.0
 10
-16.573497608
 20
5.0130848021
 30
0.0
 10
-16.3883038293
 20
4.5033264404
 30
0.0
 10
-16.1656834547
 20
4.0080973734
 30
0.0
 10
-15.9155509829
 20
3.5493159403
 30
0.0
 10
-15.6491905043
 20
3.1472735744
 30
0.0
 10
-15.4542310079
 20
2.9108866275
 30
0.0
 10
-15.3550562827
 20
2.8079188622
 30
0.0
  0
SPLINE
  5
48E
100
AcDbEntity
  8
DRAFT
100
AcDbSpline
 62
7
  6
CONTINUOUS
 70
0
 71
3
 72
11
 73
7
 74
0
 42
0.0000001
 43
0.0000001
 44
0.0000000001
 40
0.0
 40
0.0
 40
0.0
 40
0.0
 40
0.2988723796
 40
0.5642951924
 40
0.7969771109
 40
1.0
 40
1.0
 40
1.0
 40
1.0
 10
-15.2712198506
 20
2.7248374085
 30
0.0
 10
-15.2265710422
 20
2.6827264087
 30
0.0
 10
-15.1389914815
 20
2.6065485959
 30
0.0
 10
-15.0045219071
 20
2.5125637971
 30
0.0
 10
-14.87597963
 20
2.4465939814
 30
0.0
 10
-14.7896162051
 20
2.4203728432
 30
0.0
 10
-14.7485227364
 20
2.4133360807
 30
0.0
  0
SPLINE
  5
48F
100
AcDbEntity
  8
DRAFT
100
AcDbSpline
 62
7
  6
CONTINUOUS
 70
0
 71
3
 72
11
 73
7
 74
0
 42
0.0000001
 43
0.0000001
 44
0.0000000001
 40
0.0
 40
0.0
 40
0.0
 40
0.0
 40
0.2136301437
 40
0.458474425
 40
0.7245164081
 40
1.0
 40
1.0
 40
1.0
 40
1.0
 10
-11.6420698616
 20
-5.9272703062
 30
0.0
 10
-11.6420698616
 20
-6.0798522407
 30
0.0
 10
-11.6143824012
 20
-6.4073417631
 30
0.0
 10
-11.5138098696
 20
-6.9156600078
 30
0.0
 10
-11.3552088529
 20
-7.4551714826
 30
0.0
 10
-11.2162481136
 20
-7.8166346932
 30
0.0
 10
-11.1383875413
 20
-7.9973337275
 30
0.0
  0
LINE
  5
490
100
AcDbEntity
  8
DRAFT
100
AcDbLine
 62
7
  6
CONTINUOUS
 10
-11.1383875413
 20
-7.9973337275
 11
-11.1335339694
 21
-8.008572085
  0
SPLINE
  5
491
100
AcDbEntity
  8
DRAFT
100
AcDbSpline
 62
7
  6
CONTINUOUS
 70
0
 71
3
 72
11
 73
7
 74
0
 42
0.0000001
 43
0.0000001
 44
0.0000000001
 40
0.0
 40
0.0
 40
0.0
 40
0.0
 40
0.2855936956
 40
0.5548364431
 40
0.7960536705
 40
1.0
 40
1.0
 40
1.0
 40
1.0
 10
-11.1335339694
 20
-8.008572085
 30
0.0
 10
-11.055871628
 20
-8.18798607
 30
0.0
 10
-10.891097776
 20
-8.5307304451
 30
0.0
 10
-10.6136431458
 20
-9.0006710541
 30
0.0
 10
-10.3237972694
 20
-9.3955283736
 30
0.0
 10
-10.1122416317
 20
-9.617157859
 30
0.0
 10
-10.0056457854
 20
-9.707315186
 30
0.0
  0
SPLINE
  5
492
100
AcDbEntity
  8
SUPERFICI
100
AcDbSpline
 62
250
  6
CONTINUOUS
 70
0
 71
3
 72
9
 73
5
 74
0
 42
0.0000001
 43
0.0000001
 44
0.0000000001
 40
0.0
 40
0.0
 40
0.0
 40
0.0
 40
0.2277396987
 40
1.0
 40
1.0
 40
1.0
 40
1.0
 10
-2.3837062161
 20
9.1074426982
 30
0.0
 10
-2.3837062161
 20
9.1137902948
 30
0.0
 10
-2.3813996483
 20
9.1416664795
 30
0.0
 10
-2.3710053132
 20
9.1684116057
 30
0.0
 10
-2.3606808679
 20
9.1872984403
 30
0.0
  0
SPLINE
  5
493
100
AcDbEntity
  8
SUPERFICI
100
AcDbSpline
 62
250
  6
CONTINUOUS
 70
0
 71
3
 72
9
 73
5
 74
0
 42
0.0000001
 43
0.0000001
 44
0.0000000001
 40
0.0
 40
0.0
 40
0.0
 40
0.0
 40
0.2403285696
 40
1.0
 40
1.0
 40
1.0
 40
1.0
 10
-2.3606808679
 20
9.1872984403
 30
0.0
 10
-2.357556549
 20
9.1930138558
 30
0.0
 10
-2.3435806276
 20
9.2162568029
 30
0.0
 10
-2.3260804229
 20
9.2373144584
 30
0.0
 10
-2.3114789027
 20
9.2518305962
 30
0.0
  0
SPLINE
  5
494
100
AcDbEntity
  8
SUPERFICI
100
AcDbSpline
 62
250
  6
CONTINUOUS
 70
0
 71
3
 72
9
 73
5
 74
0
 42
0.0000001
 43
0.0000001
 44
0.0000000001
 40
0.0
 40
0.0
 40
0.0
 40
0.0
 40
0.2540554512
 40
1.0
 40
1.0
 40
1.0
 40
1.0
 10
-2.2976957732
 20
9.264750292
 30
0.0
 10
-2.2917766905
 20
9.2699824562
 30
0.0
 10
-2.2677410791
 20
9.2897185411
 30
0.0
 10
-2.2408580289
 20
9.3060602678
 30
0.0
 10
-2.2197195666
 20
9.3156106281
 30
0.0
  0
SPLINE
  5
495
100
AcDbEntity
  8
DRAFT
100
AcDbSpline
 62
7
  6
CONTINUOUS
 70
0
 71
3
 72
25
 73
21
 74
0
 42
0.0000001
 43
0.0000001
 44
0.0000000001
 40
0.0
 40
0.0
 40
0.0
 40
0.0
 40
0.0346041011
 40
0.0540540364
 40
0.0750095532
 40
0.0974940745
 40
0.1215051756
 40
0.1739762435
 40
0.2320451168
 40
0.2951082516
 40
0.3624104452
 40
0.4330835186
 40
0.5061768609
 40
0.5806838364
 40
0.6555660916
 40
0.7297770356
 40
0.8022847463
 40
0.872096401
 40
0.9382807156
 40
1.0
 40
1.0
 40
1.0
 40
1.0
 10
-20.0340265415
 20
15.332887625
 30
0.0
 10
-20.2259013029
 20
15.0108964904
 30
0.0
 10
-20.4606153598
 20
14.4683803768
 30
0.0
 10
-20.6859049383
 20
13.6876066268
 30
0.0
 10
-20.8243141683
 20
13.0198363946
 30
0.0
 10
-20.9250712955
 20
12.2957794748
 30
0.0
 10
-21.0112129449
 20
11.2267445503
 30
0.0
 10
-21.0147909106
 20
9.7670437087
 30
0.0
 10
-20.8681386697
 20
7.8907875714
 30
0.0
 10
-20.5723306018
 20
5.8698779381
 30
0.0
 10
-20.1318398233
 20
3.7361809058
 30
0.0
 10
-19.5533923869
 20
1.5233275935
 30
0.0
 10
-18.8460263914
 20
-0.7335723241
 30
0.0
 10
-18.0208883663
 20
-2.9986644699
 30
0.0
 10
-17.0910591416
 20
-5.2359313927
 30
0.0
 10
-16.071324199
 20
-7.40980733
 30
0.0
 10
-14.9779441992
 20
-9.4857627466
 30
0.0
 10
-13.8283314136
 20
-11.4309265056
 30
0.0
 10
-12.6409072547
 20
-13.2144701689
 30
0.0
 10
-11.8041174294
 20
-14.32015077
 30
0.0
 10
-11.3813003462
 20
-14.8379938243
 30
0.0
  0
SPLINE
  5
496
100
AcDbEntity
  8
SUPERFICI
100
AcDbSpline
 62
250
  6
CONTINUOUS
 70
0
 71
3
 72
11
 73
7
 74
0
 42
0.0000001
 43
0.0000001
 44
0.0000000001
 40
0.0
 40
0.0
 40
0.0
 40
0.0
 40
0.2125046023
 40
0.4627977799
 40
0.7335814704
 40
1.0
 40
1.0
 40
1.0
 40
1.0
 10
-3.5863318921
 20
10.5803523271
 30
0.0
 10
-3.5863318921
 20
10.6005858218
 30
0.0
 10
-3.5749607179
 20
10.6445793974
 30
0.0
 10
-3.5370465383
 20
10.7040722537
 30
0.0
 10
-3.48227206
 20
10.7562513033
 30
0.0
 10
-3.4375804688
 20
10.7823874303
 30
0.0
 10
-3.414134472
 20
10.7920705925
 30
0.0
  0
SPLINE
  5
497
100
AcDbEntity
  8
SUPERFICI
100
AcDbSpline
 62
7
  6
CONTINUOUS
 70
0
 71
3
 72
15
 73
11
 74
0
 42
0.0000001
 43
0.0000001
 44
0.0000000001
 40
0.0
 40
0.0
 40
0.0
 40
0.0
 40
0.0198507479
 40
0.0641658206
 40
0.136741896
 40
0.2405101697
 40
0.3781112429
 40
0.5513140286
 40
0.7598460282
 40
1.0
 40
1.0
 40
1.0
 40
1.0
 10
-4.8365852283
 20
23.9736408899
 30
0.0
 10
-4.8366008041
 20
23.9720257806
 30
0.0
 10
-4.8413703091
 20
23.9681813518
 30
0.0
 10
-4.8501348872
 20
23.962541928
 30
0.0
 10
-4.8665214278
 20
23.9542443293
 30
0.0
 10
-4.8896111492
 20
23.9437409029
 30
0.0
 10
-4.9208259048
 20
23.9307471651
 30
0.0
 10
-4.9601929303
 20
23.9154581393
 30
0.0
 10
-5.0077459177
 20
23.8981227867
 30
0.0
 10
-5.0422835584
 20
23.8862909548
 30
0.0
 10
-5.0608281747
 20
23.8801324494
 30
0.0
  0
SPLINE
  5
498
100
AcDbEntity
  8
SUPERFICI
100
AcDbSpline
 62
7
  6
CONTINUOUS
 70
0
 71
3
 72
13
 73
9
 74
0
 42
0.0000001
 43
0.0000001
 44
0.0000000001
 40
0.0
 40
0.0
 40
0.0
 40
0.0
 40
0.0253140014
 40
0.0736173436
 40
0.1487502431
 40
0.2529953088
 40
0.5568780833
 40
1.0
 40
1.0
 40
1.0
 40
1.0
 10
-8.7896282621
 20
28.8151209772
 30
0.0
 10
-8.7896294646
 20
28.814226467
 30
0.0
 10
-8.7914539252
 20
28.8119706292
 30
0.0
 10
-8.7954981945
 20
28.808875269
 30
0.0
 10
-8.8024304278
 20
28.8046039711
 30
0.0
 10
-8.8174757497
 20
28.796625135
 30
0.0
 10
-8.8449049347
 20
28.7841296948
 30
0.0
 10
-8.8693224803
 20
28.7741353966
 30
0.0
 10
-8.8838895569
 20
28.7683919999
 30
0.0
  0
SPLINE
  5
499
100
AcDbEntity
  8
SUPERFICI
100
AcDbSpline
 62
250
  6
CONTINUOUS
 70
0
 71
3
 72
11
 73
7
 74
0
 42
0.0000001
 43
0.0000001
 44
0.0000000001
 40
0.0
 40
0.0
 40
0.0
 40
0.0
 40
0.2075747329
 40
0.4377798135
 40
0.7021147786
 40
1.0
 40
1.0
 40
1.0
 40
1.0
 10
-8.0110408126
 20
18.478889582
 30
0.0
 10
-8.0200396459
 20
18.489902993
 30
0.0
 10
-8.0448309741
 20
18.508745192
 30
0.0
 10
-8.0925172629
 20
18.5203442969
 30
0.0
 10
-8.1473010943
 20
18.5169102805
 30
0.0
 10
-8.1844841567
 20
18.5056778513
 30
0.0
 10
-8.2034115252
 20
18.4980406949
 30
0.0
  0
SPLINE
  5
49A
100
AcDbEntity
  8
SUPERFICI
100
AcDbSpline
 62
250
  6
CONTINUOUS
 70
0
 71
3
 72
11
 73
7
 74
0
 42
0.0000001
 43
0.0000001
 44
0.0000000001
 40
0.0
 40
0.0
 40
0.0
 40
0.0
 40
0.1711820396
 40
0.3854832738
 40
0.6614619159
 40
1.0
 40
1.0
 40
1.0
 40
1.0
 10
-18.1927397943
 20
30.6726610897
 30
0.0
 10
-18.1866702508
 20
30.6750720995
 30
0.0
 10
-18.1710898301
 20
30.6757454491
 30
0.0
 10
-18.1476988312
 20
30.6650891658
 30
0.0
 10
-18.122863518
 20
30.6452466573
 30
0.0
 10
-18.1071466131
 20
30.6277237446
 30
0.0
 10
-18.099043922
 20
30.6176657221
 30
0.0
  0
SPLINE
  5
49B
100
AcDbEntity
  8
SUPERFICI
100
AcDbSpline
 62
250
  6
CONTINUOUS
 70
0
 71
3
 72
9
 73
5
 74
0
 42
0.0000001
 43
0.0000001
 44
0.0000000001
 40
0.0
 40
0.0
 40
0.0
 40
0.0
 40
0.4901831207
 40
1.0
 40
1.0
 40
1.0
 40
1.0
 10
-25.4232698978
 20
-4.363495518
 30
0.0
 10
-25.4402158291
 20
-4.3402569778
 30
0.0
 10
-25.4693172091
 20
-4.2886444719
 30
0.0
 10
-25.4863552163
 20
-4.2320028096
 30
0.0
 10
-25.4921937146
 20
-4.2026651526
 30
0.0
  0
SPLINE
  5
49C
100
AcDbEntity
  8
SUPERFICI
100
AcDbSpline
 62
250
  6
CONTINUOUS
 70
0
 71
3
 72
11
 73
7
 74
0
 42
0.0000001
 43
0.0000001
 44
0.0000000001
 40
0.0
 40
0.0
 40
0.0
 40
0.0
 40
0.1704440777
 40
0.3845310311
 40
0.6608303392
 40
1.0
 40
1.0
 40
1.0
 40
1.0
 10
-12.0909865329
 20
18.9453526944
 30
0.0
 10
-12.0849308528
 20
18.9478809905
 30
0.0
 10
-12.0692422874
 20
18.9487705178
 30
0.0
 10
-12.0455432047
 20
18.9382855017
 30
0.0
 10
-12.0202251439
 20
18.9185423849
 30
0.0
 10
-12.0041235554
 20
18.9010281218
 30
0.0
 10
-11.9958048766
 20
18.8909622692
 30
0.0
  0
SPLINE
  5
49D
100
AcDbEntity
  8
SUPERFICI
100
AcDbSpline
 62
250
  6
CONTINUOUS
 70
0
 71
3
 72
11
 73
7
 74
0
 42
0.0000001
 43
0.0000001
 44
0.0000000001
 40
0.0
 40
0.0
 40
0.0
 40
0.0
 40
0.1711742046
 40
0.3854566182
 40
0.6614355096
 40
1.0
 40
1.0
 40
1.0
 40
1.0
 10
-9.4927600143
 20
20.0173726683
 30
0.0
 10
-9.4866913042
 20
20.0197882305
 30
0.0
 10
-9.4711084884
 20
20.0204707801
 30
0.0
 10
-9.4477111231
 20
20.0098173192
 30
0.0
 10
-9.4228695201
 20
19.989972793
 30
0.0
 10
-9.4071487421
 20
19.9724460063
 30
0.0
 10
-9.399043922
 20
19.962385341
 30
0.0
  0
SPLINE
  5
49E
100
AcDbEntity
  8
SUPERFICI
100
AcDbSpline
 62
7
  6
CONTINUOUS
 70
0
 71
3
 72
11
 73
7
 74
0
 42
0.0000001
 43
0.0000001
 44
0.0000000001
 40
0.0
 40
0.0
 40
0.0
 40
0.0
 40
0.1709063423
 40
0.3853158248
 40
0.6614491679
 40
1.0
 40
1.0
 40
1.0
 40
1.0
 10
-10.1462178518
 20
19.7572655964
 30
0.0
 10
-10.1401447059
 20
19.7596829241
 30
0.0
 10
-10.1245364548
 20
19.7603583681
 30
0.0
 10
-10.1010637444
 20
19.7497538741
 30
0.0
 10
-10.0760570939
 20
19.7299841626
 30
0.0
 10
-10.0601977291
 20
19.7125043785
 30
0.0
 10
-10.0520084676
 20
19.7024746225
 30
0.0
  0
SPLINE
  5
49F
100
AcDbEntity
  8
SUPERFICI
100
AcDbSpline
 62
250
  6
CONTINUOUS
 70
0
 71
3
 72
11
 73
7
 74
0
 42
0.0000001
 43
0.0000001
 44
0.0000000001
 40
0.0
 40
0.0
 40
0.0
 40
0.0
 40
0.2075738273
 40
0.4377730007
 40
0.7021072526
 40
1.0
 40
1.0
 40
1.0
 40
1.0
 10
-16.7110220247
 20
29.1341469613
 30
0.0
 10
-16.7200186049
 20
29.1451647363
 30
0.0
 10
-16.74480831
 20
29.1640165269
 30
0.0
 10
-16.7924997865
 20
29.1756242684
 30
0.0
 10
-16.847291931
 20
29.1721931629
 30
0.0
 10
-16.8844809949
 20
29.1609595081
 30
0.0
 10
-16.9034115252
 20
29.1533210761
 30
0.0
  0
SPLINE
  5
4A0
100
AcDbEntity
  8
SUPERFICI
100
AcDbSpline
 62
250
  6
CONTINUOUS
 70
0
 71
3
 72
11
 73
7
 74
0
 42
0.0000001
 43
0.0000001
 44
0.0000000001
 40
0.0
 40
0.0
 40
0.0
 40
0.0
 40
0.2082155591
 40
0.440325359
 40
0.7046961233
 40
1.0
 40
1.0
 40
1.0
 40
1.0
 10
-17.9133677825
 20
30.6058753834
 30
0.0
 10
-17.9230273774
 20
30.6154309489
 30
0.0
 10
-17.9481572741
 20
30.6311618025
 30
0.0
 10
-17.9940324729
 20
30.6400271793
 30
0.0
 10
-18.046007693
 20
30.6356857958
 30
0.0
 10
-18.0811734162
 20
30.6248764364
 30
0.0
 10
-18.099043922
 20
30.6176657221
 30
0.0
  0
SPLINE
  5
4A1
100
AcDbEntity
  8
SUPERFICI
100
AcDbSpline
 62
250
  6
CONTINUOUS
 70
0
 71
3
 72
11
 73
7
 74
0
 42
0.0000001
 43
0.0000001
 44
0.0000000001
 40
0.0
 40
0.0
 40
0.0
 40
0.0
 40
0.1704440777
 40
0.3845310311
 40
0.6608303392
 40
1.0
 40
1.0
 40
1.0
 40
1.0
 10
-20.7909865329
 20
29.6006330755
 30
0.0
 10
-20.7849308528
 20
29.6031613716
 30
0.0
 10
-20.7692422874
 20
29.6040508989
 30
0.0
 10
-20.7455432047
 20
29.5935658828
 30
0.0
 10
-20.7202251439
 20
29.573822766
 30
0.0
 10
-20.7041235554
 20
29.5563085029
 30
0.0
 10
-20.6958048766
 20
29.5462426503
 30
0.0
  0
SPLINE
  5
4A2
100
AcDbEntity
  8
SUPERFICI
100
AcDbSpline
 62
7
  6
CONTINUOUS
 70
0
 71
3
 72
11
 73
7
 74
0
 42
0.0000001
 43
0.0000001
 44
0.0000000001
 40
0.0
 40
0.0
 40
0.0
 40
0.0
 40
0.1709063424
 40
0.3853158248
 40
0.6614491679
 40
1.0
 40
1.0
 40
1.0
 40
1.0
 10
-18.8462178518
 20
30.4125459775
 30
0.0
 10
-18.8401447059
 20
30.4149633052
 30
0.0
 10
-18.8245364548
 20
30.4156387492
 30
0.0
 10
-18.8010637444
 20
30.4050342552
 30
0.0
 10
-18.7760570939
 20
30.3852645438
 30
0.0
 10
-18.7601977291
 20
30.3677847596
 30
0.0
 10
-18.7520084676
 20
30.3577550036
 30
0.0
  0
SPLINE
  5
4A3
100
AcDbEntity
  8
SUPERFICI
100
AcDbSpline
 62
250
  6
CONTINUOUS
 70
0
 71
3
 72
11
 73
7
 74
0
 42
0.0000001
 43
0.0000001
 44
0.0000000001
 40
0.0
 40
0.0
 40
0.0
 40
0.0
 40
0.2075739795
 40
0.4377738092
 40
0.7021082332
 40
1.0
 40
1.0
 40
1.0
 40
1.0
 10
-9.2066562571
 20
19.9432134746
 30
0.0
 10
-9.2156530607
 20
19.9542308262
 30
0.0
 10
-9.2404429339
 20
19.9730816846
 30
0.0
 10
-9.2881339228
 20
19.9846885778
 30
0.0
 10
-9.3429252497
 20
19.9812571758
 30
0.0
 10
-9.3801137163
 20
19.9700236421
 30
0.0
 10
-9.399043922
 20
19.962385341
 30
0.0
  0
SPLINE
  5
4A4
100
AcDbEntity
  8
SUPERFICI
100
AcDbSpline
 62
250
  6
CONTINUOUS
 70
0
 71
3
 72
11
 73
7
 74
0
 42
0.0000001
 43
0.0000001
 44
0.0000000001
 40
0.0
 40
0.0
 40
0.0
 40
0.0
 40
0.2418214799
 40
0.5124979782
 40
0.7765524183
 40
1.0
 40
1.0
 40
1.0
 40
1.0
 10
-5.6534115252
 20
15.3749412729
 30
0.0
 10
-5.6350172987
 20
15.3527118197
 30
0.0
 10
-5.6015609032
 20
15.30105126
 30
0.0
 10
-5.5627583342
 20
15.2166296372
 30
0.0
 10
-5.5363677397
 20
15.1298730579
 30
0.0
 10
-5.5282248772
 20
15.0717371046
 30
0.0
 10
-5.5284136406
 20
15.0450770511
 30
0.0
  0
SPLINE
  5
4A5
100
AcDbEntity
  8
SUPERFICI
100
AcDbSpline
 62
7
  6
CONTINUOUS
 70
0
 71
3
 72
11
 73
7
 74
0
 42
0.0000001
 43
0.0000001
 44
0.0000000001
 40
0.0
 40
0.0
 40
0.0
 40
0.0
 40
0.2417343893
 40
0.5125565706
 40
0.7767307613
 40
1.0
 40
1.0
 40
1.0
 40
1.0
 10
-6.3020042368
 20
15.1096761731
 30
0.0
 10
-6.2837735165
 20
15.087348192
 30
0.0
 10
-6.2505762933
 20
15.0355742159
 30
0.0
 10
-6.2119148968
 20
14.9511379434
 30
0.0
 10
-6.1854183633
 20
14.8644710202
 30
0.0
 10
-6.1770063522
 20
14.8064353984
 30
0.0
 10
-6.1770063522
 20
14.7798119513
 30
0.0
  0
SPLINE
  5
4A6
100
AcDbEntity
  8
SUPERFICI
100
AcDbSpline
 62
250
  6
CONTINUOUS
 70
0
 71
3
 72
11
 73
7
 74
0
 42
0.0000001
 43
0.0000001
 44
0.0000000001
 40
0.0
 40
0.0
 40
0.0
 40
0.0
 40
0.2416498317
 40
0.5126132317
 40
0.7769037845
 40
1.0
 40
1.0
 40
1.0
 40
1.0
 10
-8.2583702605
 20
14.3124259393
 30
0.0
 10
-8.2403046485
 20
14.2899990093
 30
0.0
 10
-8.2073681348
 20
14.2381116465
 30
0.0
 10
-8.1688485195
 20
14.1536602929
 30
0.0
 10
-8.1422452533
 20
14.0670826799
 30
0.0
 10
-8.133562992
 20
14.0091480944
 30
0.0
 10
-8.1333723758
 20
13.9825617176
 30
0.0
  0
SPLINE
  5
4A7
100
AcDbEntity
  8
SUPERFICI
100
AcDbSpline
 62
250
  6
CONTINUOUS
 70
0
 71
3
 72
9
 73
5
 74
0
 42
0.0000001
 43
0.0000001
 44
0.0000000001
 40
0.0
 40
0.0
 40
0.0
 40
0.0
 40
0.2330366453
 40
1.0
 40
1.0
 40
1.0
 40
1.0
 10
-9.6605226877
 20
15.5014347179
 30
0.0
 10
-9.6605226877
 20
15.50715613
 30
0.0
 10
-9.6590601298
 20
15.5317078695
 30
0.0
 10
-9.6522272122
 20
15.5557494689
 30
0.0
 10
-9.6451269355
 20
15.5731896629
 30
0.0
  0
SPLINE
  5
4A8
100
AcDbEntity
  8
SUPERFICI
100
AcDbSpline
 62
250
  6
CONTINUOUS
 70
0
 71
3
 72
9
 73
5
 74
0
 42
0.0000001
 43
0.0000001
 44
0.0000000001
 40
0.0
 40
0.0
 40
0.0
 40
0.0
 40
0.238129165
 40
1.0
 40
1.0
 40
1.0
 40
1.0
 10
-9.6451269355
 20
15.5731896629
 30
0.0
 10
-9.6425422319
 20
15.5795383918
 30
0.0
 10
-9.6305970596
 20
15.6057515768
 30
0.0
 10
-9.6147014825
 20
15.6300826862
 30
0.0
 10
-9.6011300365
 20
15.6473100867
 30
0.0
  0
SPLINE
  5
4A9
100
AcDbEntity
  8
SUPERFICI
100
AcDbSpline
 62
250
  6
CONTINUOUS
 70
0
 71
3
 72
9
 73
5
 74
0
 42
0.0000001
 43
0.0000001
 44
0.0000000001
 40
0.0
 40
0.0
 40
0.0
 40
0.0
 40
0.7547371054
 40
1.0
 40
1.0
 40
1.0
 40
1.0
 10
-9.6011300365
 20
15.6473100867
 30
0.0
 10
-9.5704423629
 20
15.6862645829
 30
0.0
 10
-9.5190249962
 20
15.7305276655
 30
0.0
 10
-9.4601706743
 20
15.7599310349
 30
0.0
 10
-9.4452759125
 20
15.7660825495
 30
0.0
  0
SPLINE
  5
4AA
100
AcDbEntity
  8
SUPERFICI
100
AcDbSpline
 62
250
  6
CONTINUOUS
 70
0
 71
3
 72
11
 73
7
 74
0
 42
0.0000001
 43
0.0000001
 44
0.0000000001
 40
0.0
 40
0.0
 40
0.0
 40
0.0
 40
0.2125047541
 40
0.4627979021
 40
0.7335815338
 40
1.0
 40
1.0
 40
1.0
 40
1.0
 10
-8.4736170356
 20
14.0477781077
 30
0.0
 10
-8.4736170356
 20
14.073069994
 30
0.0
 10
-8.4594030524
 20
14.128061977
 30
0.0
 10
-8.4120103166
 20
14.2024280468
 30
0.0
 10
-8.3435422265
 20
14.2676518406
 30
0.0
 10
-8.2876777495
 20
14.3003219895
 30
0.0
 10
-8.2583702605
 20
14.3124259393
 30
0.0
  0
SPLINE
  5
4AB
100
AcDbEntity
  8
SUPERFICI
100
AcDbSpline
 62
250
  6
CONTINUOUS
 70
0
 71
3
 72
11
 73
7
 74
0
 42
0.0000001
 43
0.0000001
 44
0.0000000001
 40
0.0
 40
0.0
 40
0.0
 40
0.0
 40
0.2075739795
 40
0.4377738092
 40
0.7021082332
 40
1.0
 40
1.0
 40
1.0
 40
1.0
 10
2.0433437429
 20
6.1648336715
 30
0.0
 10
2.0343469393
 20
6.1758510231
 30
0.0
 10
2.0095570661
 20
6.1947018814
 30
0.0
 10
1.9618660772
 20
6.2063087746
 30
0.0
 10
1.9070747503
 20
6.2028773726
 30
0.0
 10
1.8698862837
 20
6.1916438389
 30
0.0
 10
1.850956078
 20
6.1840055378
 30
0.0
  0
SPLINE
  5
4AC
100
AcDbEntity
  8
SUPERFICI
100
AcDbSpline
 62
250
  6
CONTINUOUS
 70
0
 71
3
 72
9
 73
5
 74
0
 42
0.0000001
 43
0.0000001
 44
0.0000000001
 40
0.0
 40
0.0
 40
0.0
 40
0.0
 40
0.5143249037
 40
1.0
 40
1.0
 40
1.0
 40
1.0
 10
-20.9111776081
 20
29.0030290766
 30
0.0
 10
-20.9201998752
 20
29.0140790521
 30
0.0
 10
-20.9352117927
 20
29.0378613667
 30
0.0
 10
-20.9426192206
 20
29.0651213798
 30
0.0
 10
-20.9440050188
 20
29.0785207269
 30
0.0
  0
SPLINE
  5
4AD
100
AcDbEntity
  8
SUPERFICI
100
AcDbSpline
 62
250
  6
CONTINUOUS
 70
0
 71
3
 72
9
 73
5
 74
0
 42
0.0000001
 43
0.0000001
 44
0.0000000001
 40
0.0
 40
0.0
 40
0.0
 40
0.0
 40
0.5149559689
 40
1.0
 40
1.0
 40
1.0
 40
1.0
 10
-20.9111776081
 20
29.2815428288
 30
0.0
 10
-20.9215377708
 20
29.2942313849
 30
0.0
 10
-20.9383552564
 20
29.3219545956
 30
0.0
 10
-20.9446043516
 20
29.3539731089
 30
0.0
 10
-20.9446699548
 20
29.36940232
 30
0.0
  0
SPLINE
  5
4AE
100
AcDbEntity
  8
SUPERFICI
100
AcDbSpline
 62
250
  6
CONTINUOUS
 70
0
 71
3
 72
9
 73
5
 74
0
 42
0.0000001
 43
0.0000001
 44
0.0000000001
 40
0.0
 40
0.0
 40
0.0
 40
0.0
 40
0.2330309804
 40
1.0
 40
1.0
 40
1.0
 40
1.0
 10
-20.9111776081
 20
29.2815428288
 30
0.0
 10
-20.9111776081
 20
29.287266417
 30
0.0
 10
-20.909713898
 20
29.3118280945
 30
0.0
 10
-20.9028758294
 20
29.3358790177
 30
0.0
 10
-20.8957705447
 20
29.3533255499
 30
0.0
  0
SPLINE
  5
4AF
100
AcDbEntity
  8
SUPERFICI
100
AcDbSpline
 62
250
  6
CONTINUOUS
 70
0
 71
3
 72
9
 73
5
 74
0
 42
0.0000001
 43
0.0000001
 44
0.0000000001
 40
0.0
 40
0.0
 40
0.0
 40
0.0
 40
0.2381287207
 40
1.0
 40
1.0
 40
1.0
 40
1.0
 10
-20.8957705447
 20
29.3533255499
 30
0.0
 10
-20.8931839563
 20
29.3596767376
 30
0.0
 10
-20.8812301476
 20
29.3858998564
 30
0.0
 10
-20.8653235377
 20
29.4102391119
 30
0.0
 10
-20.8517429317
 20
29.4274715345
 30
0.0
  0
SPLINE
  5
4B0
100
AcDbEntity
  8
SUPERFICI
100
AcDbSpline
 62
250
  6
CONTINUOUS
 70
0
 71
3
 72
9
 73
5
 74
0
 42
0.0000001
 43
0.0000001
 44
0.0000000001
 40
0.0
 40
0.0
 40
0.0
 40
0.0
 40
0.7547596589
 40
1.0
 40
1.0
 40
1.0
 40
1.0
 10
-20.8517429317
 20
29.4274715345
 30
0.0
 10
-20.8210365936
 20
29.466434788
 30
0.0
 10
-20.7695908934
 20
29.5107029174
 30
0.0
 10
-20.7107058547
 20
29.5400956467
 30
0.0
 10
-20.6958048766
 20
29.5462426503
 30
0.0
  0
SPLINE
  5
4B1
100
AcDbEntity
  8
SUPERFICI
100
AcDbSpline
 62
250
  6
CONTINUOUS
 70
0
 71
3
 72
11
 73
7
 74
0
 42
0.0000001
 43
0.0000001
 44
0.0000000001
 40
0.0
 40
0.0
 40
0.0
 40
0.0
 40
0.2125101794
 40
0.462818092
 40
0.7336067688
 40
1.0
 40
1.0
 40
1.0
 40
1.0
 10
-19.7229621152
 20
27.8262819978
 30
0.0
 10
-19.7229621152
 20
27.851584086
 30
0.0
 10
-19.7087367025
 20
27.9065989174
 30
0.0
 10
-19.6613121649
 20
27.9809881637
 30
0.0
 10
-19.5928042561
 20
28.0462216411
 30
0.0
 10
-19.5369100805
 20
28.0788863429
 30
0.0
 10
-19.5075893837
 20
28.0909818193
 30
0.0
  0
SPLINE
  5
4B2
100
AcDbEntity
  8
SUPERFICI
100
AcDbSpline
 62
250
  6
CONTINUOUS
 70
0
 71
3
 72
11
 73
7
 74
0
 42
0.0000001
 43
0.0000001
 44
0.0000000001
 40
0.0
 40
0.0
 40
0.0
 40
0.0
 40
0.2418213074
 40
0.5124978498
 40
0.7765523592
 40
1.0
 40
1.0
 40
1.0
 40
1.0
 10
-16.9034115252
 20
29.1533210761
 30
0.0
 10
-16.8850173118
 20
29.1310916387
 30
0.0
 10
-16.8515609202
 20
29.0794310955
 30
0.0
 10
-16.8127583491
 20
28.9950094809
 30
0.0
 10
-16.7863677441
 20
28.9082528834
 30
0.0
 10
-16.7782248772
 20
28.8501169148
 30
0.0
 10
-16.7784136406
 20
28.8234568543
 30
0.0
  0
SPLINE
  5
4B3
100
AcDbEntity
  8
SUPERFICI
100
AcDbSpline
 62
7
  6
CONTINUOUS
 70
0
 71
3
 72
11
 73
7
 74
0
 42
0.0000001
 43
0.0000001
 44
0.0000000001
 40
0.0
 40
0.0
 40
0.0
 40
0.0
 40
0.2417387239
 40
0.5125536476
 40
0.7767218875
 40
1.0
 40
1.0
 40
1.0
 40
1.0
 10
-17.5520042368
 20
28.8880559763
 30
0.0
 10
-17.5337726482
 20
28.8657269316
 30
0.0
 10
-17.5005510204
 20
28.8139676687
 30
0.0
 10
-17.4618892497
 20
28.7295282348
 30
0.0
 10
-17.4353901116
 20
28.6428578744
 30
0.0
 10
-17.4270063522
 20
28.5848170504
 30
0.0
 10
-17.4270063522
 20
28.5581917545
 30
0.0
  0
SPLINE
  5
4B4
100
AcDbEntity
  8
SUPERFICI
100
AcDbSpline
 62
250
  6
CONTINUOUS
 70
0
 71
3
 72
11
 73
7
 74
0
 42
0.0000001
 43
0.0000001
 44
0.0000000001
 40
0.0
 40
0.0
 40
0.0
 40
0.0
 40
0.2416583372
 40
0.5126077411
 40
0.7768867341
 40
1.0
 40
1.0
 40
1.0
 40
1.0
 10
-19.5075893837
 20
28.0909818193
 30
0.0
 10
-19.4895071202
 20
28.0685647152
 30
0.0
 10
-19.4565443906
 20
28.0166884927
 30
0.0
 10
-19.4180104724
 20
27.9322383902
 30
0.0
 10
-19.3914178231
 20
27.8456516148
 30
0.0
 10
-19.3827625705
 20
27.7877067254
 30
0.0
 10
-19.3825910971
 20
27.7611165368
 30
0.0
  0
SPLINE
  5
4B5
100
AcDbEntity
  8
SUPERFICI
100
AcDbSpline
 62
250
  6
CONTINUOUS
 70
0
 71
3
 72
11
 73
7
 74
0
 42
0.0000001
 43
0.0000001
 44
0.0000000001
 40
0.0
 40
0.0
 40
0.0
 40
0.0
 40
0.2075747329
 40
0.4377798135
 40
0.7021147786
 40
1.0
 40
1.0
 40
1.0
 40
1.0
 10
-5.4610408126
 20
15.3557901599
 30
0.0
 10
-5.4700396459
 20
15.366803571
 30
0.0
 10
-5.4948309741
 20
15.38564577
 30
0.0
 10
-5.5425172629
 20
15.3972448749
 30
0.0
 10
-5.5973010943
 20
15.3938108585
 30
0.0
 10
-5.6344841567
 20
15.3825784292
 30
0.0
 10
-5.6534115252
 20
15.3749412729
 30
0.0
  0
SPLINE
  5
4B6
100
AcDbEntity
  8
SUPERFICI
100
AcDbSpline
 62
250
  6
CONTINUOUS
 70
0
 71
3
 72
11
 73
7
 74
0
 42
0.0000001
 43
0.0000001
 44
0.0000000001
 40
0.0
 40
0.0
 40
0.0
 40
0.0
 40
0.2230894087
 40
0.4606406385
 40
0.7193543992
 40
1.0
 40
1.0
 40
1.0
 40
1.0
 10
3.2949941534
 20
-29.755274004
 30
0.0
 10
3.2939154426
 20
-29.7699958336
 30
0.0
 10
3.2861261626
 20
-29.8001920377
 30
0.0
 10
3.2596748865
 20
-29.8405858894
 30
0.0
 10
3.2205456725
 20
-29.8747317909
 30
0.0
 10
3.1887452817
 20
-29.8916059575
 30
0.0
 10
3.1715863594
 20
-29.8987054938
 30
0.0
  0
SPLINE
  5
4B7
100
AcDbEntity
  8
SUPERFICI
100
AcDbSpline
 62
250
  6
CONTINUOUS
 70
0
 71
3
 72
11
 73
7
 74
0
 42
0.0000001
 43
0.0000001
 44
0.0000000001
 40
0.0
 40
0.0
 40
0.0
 40
0.0
 40
0.1704053466
 40
0.3844818548
 40
0.6607978752
 40
1.0
 40
1.0
 40
1.0
 40
1.0
 10
-0.8405338784
 20
5.1651600354
 30
0.0
 10
-0.8344790137
 20
5.1676942348
 30
0.0
 10
-0.8187851189
 20
5.1685947021
 30
0.0
 10
-0.7950704276
 20
5.1581187795
 30
0.0
 10
-0.7697274415
 20
5.1383814058
 30
0.0
 10
-0.7536058499
 20
5.1208681221
 30
0.0
 10
-0.7452759125
 20
5.1108021684
 30
0.0
  0
SPLINE
  5
4B8
100
AcDbEntity
  8
SUPERFICI
100
AcDbSpline
 62
250
  6
CONTINUOUS
 70
0
 71
3
 72
11
 73
7
 74
0
 42
0.0000001
 43
0.0000001
 44
0.0000000001
 40
0.0
 40
0.0
 40
0.0
 40
0.0
 40
0.2418214799
 40
0.5124979782
 40
0.7765524183
 40
1.0
 40
1.0
 40
1.0
 40
1.0
 10
-8.2034115252
 20
18.4980406949
 30
0.0
 10
-8.1850172987
 20
18.4758112418
 30
0.0
 10
-8.1515609032
 20
18.4241506821
 30
0.0
 10
-8.1127583342
 20
18.3397290592
 30
0.0
 10
-8.0863677397
 20
18.25297248
 30
0.0
 10
-8.0782248772
 20
18.1948365267
 30
0.0
 10
-8.0784136406
 20
18.1681764732
 30
0.0
  0
SPLINE
  5
4B9
100
AcDbEntity
  8
SUPERFICI
100
AcDbSpline
 62
7
  6
CONTINUOUS
 70
0
 71
3
 72
11
 73
7
 74
0
 42
0.0000001
 43
0.0000001
 44
0.0000000001
 40
0.0
 40
0.0
 40
0.0
 40
0.0
 40
0.2417387239
 40
0.5125536476
 40
0.7767218875
 40
1.0
 40
1.0
 40
1.0
 40
1.0
 10
-8.8520042368
 20
18.2327755952
 30
0.0
 10
-8.8337726482
 20
18.2104465505
 30
0.0
 10
-8.8005510204
 20
18.1586872876
 30
0.0
 10
-8.7618892497
 20
18.0742478537
 30
0.0
 10
-8.7353901116
 20
17.9875774933
 30
0.0
 10
-8.7270063522
 20
17.9295366693
 30
0.0
 10
-8.7270063522
 20
17.9029113734
 30
0.0
  0
SPLINE
  5
4BA
100
AcDbEntity
  8
SUPERFICI
100
AcDbSpline
 62
250
  6
CONTINUOUS
 70
0
 71
3
 72
11
 73
7
 74
0
 42
0.0000001
 43
0.0000001
 44
0.0000000001
 40
0.0
 40
0.0
 40
0.0
 40
0.0
 40
0.2416581645
 40
0.5126076124
 40
0.7768866749
 40
1.0
 40
1.0
 40
1.0
 40
1.0
 10
-10.8075893837
 20
17.4357014382
 30
0.0
 10
-10.7895071331
 20
17.4132843501
 30
0.0
 10
-10.7565444074
 20
17.3614081439
 30
0.0
 10
-10.7180104873
 20
17.2769580497
 30
0.0
 10
-10.6914178276
 20
17.190371256
 30
0.0
 10
-10.6827625706
 20
17.1324263513
 30
0.0
 10
-10.6825910971
 20
17.1058361557
 30
0.0
  0
SPLINE
  5
4BB
100
AcDbEntity
  8
SUPERFICI
100
AcDbSpline
 62
250
  6
CONTINUOUS
 70
0
 71
3
 72
9
 73
5
 74
0
 42
0.0000001
 43
0.0000001
 44
0.0000000001
 40
0.0
 40
0.0
 40
0.0
 40
0.0
 40
0.2330309804
 40
1.0
 40
1.0
 40
1.0
 40
1.0
 10
-12.2111776081
 20
18.6262624477
 30
0.0
 10
-12.2111776081
 20
18.6319860359
 30
0.0
 10
-12.209713898
 20
18.6565477134
 30
0.0
 10
-12.2028758294
 20
18.6805986366
 30
0.0
 10
-12.1957705447
 20
18.6980451688
 30
0.0
  0
SPLINE
  5
4BC
100
AcDbEntity
  8
SUPERFICI
100
AcDbSpline
 62
250
  6
CONTINUOUS
 70
0
 71
3
 72
9
 73
5
 74
0
 42
0.0000001
 43
0.0000001
 44
0.0000000001
 40
0.0
 40
0.0
 40
0.0
 40
0.0
 40
0.2381287207
 40
1.0
 40
1.0
 40
1.0
 40
1.0
 10
-12.1957705447
 20
18.6980451688
 30
0.0
 10
-12.1931839563
 20
18.7043963565
 30
0.0
 10
-12.1812301476
 20
18.7306194753
 30
0.0
 10
-12.1653235377
 20
18.7549587308
 30
0.0
 10
-12.1517429317
 20
18.7721911534
 30
0.0
  0
SPLINE
  5
4BD
100
AcDbEntity
  8
SUPERFICI
100
AcDbSpline
 62
250
  6
CONTINUOUS
 70
0
 71
3
 72
9
 73
5
 74
0
 42
0.0000001
 43
0.0000001
 44
0.0000000001
 40
0.0
 40
0.0
 40
0.0
 40
0.0
 40
0.7547596589
 40
1.0
 40
1.0
 40
1.0
 40
1.0
 10
-12.1517429317
 20
18.7721911534
 30
0.0
 10
-12.1210365936
 20
18.8111544069
 30
0.0
 10
-12.0695908934
 20
18.8554225363
 30
0.0
 10
-12.0107058547
 20
18.8848152656
 30
0.0
 10
-11.9958048766
 20
18.8909622692
 30
0.0
  0
SPLINE
  5
4BE
100
AcDbEntity
  8
SUPERFICI
100
AcDbSpline
 62
250
  6
CONTINUOUS
 70
0
 71
3
 72
11
 73
7
 74
0
 42
0.0000001
 43
0.0000001
 44
0.0000000001
 40
0.0
 40
0.0
 40
0.0
 40
0.0
 40
0.2125101247
 40
0.4628179687
 40
0.7336065909
 40
1.0
 40
1.0
 40
1.0
 40
1.0
 10
-11.0229621152
 20
17.1710016166
 30
0.0
 10
-11.0229621152
 20
17.1963036984
 30
0.0
 10
-11.0087367104
 20
17.2513185154
 30
0.0
 10
-10.9613121918
 20
17.3257077487
 30
0.0
 10
-10.8928042856
 20
17.3909412373
 30
0.0
 10
-10.8369101001
 20
17.4236059537
 30
0.0
 10
-10.8075893837
 20
17.4357014382
 30
0.0
  0
SPLINE
  5
4BF
100
AcDbEntity
  8
SUPERFICI
100
AcDbSpline
 62
250
  6
CONTINUOUS
 70
0
 71
3
 72
9
 73
5
 74
0
 42
0.0000001
 43
0.0000001
 44
0.0000000001
 40
0.0
 40
0.0
 40
0.0
 40
0.0
 40
0.5143249037
 40
1.0
 40
1.0
 40
1.0
 40
1.0
 10
-12.2111776081
 20
18.3477486955
 30
0.0
 10
-12.2201998752
 20
18.3587986709
 30
0.0
 10
-12.2352117927
 20
18.3825809856
 30
0.0
 10
-12.2426192206
 20
18.4098409987
 30
0.0
 10
-12.2440050188
 20
18.4232403458
 30
0.0
  0
SPLINE
  5
4C0
100
AcDbEntity
  8
SUPERFICI
100
AcDbSpline
 62
250
  6
CONTINUOUS
 70
0
 71
3
 72
11
 73
7
 74
0
 42
0.0000001
 43
0.0000001
 44
0.0000000001
 40
0.0
 40
0.0
 40
0.0
 40
0.0
 40
0.1711742046
 40
0.3854566182
 40
0.6614355096
 40
1.0
 40
1.0
 40
1.0
 40
1.0
 10
1.7572399857
 20
6.2389928652
 30
0.0
 10
1.7633086958
 20
6.2414084274
 30
0.0
 10
1.7788915116
 20
6.2420909769
 30
0.0
 10
1.8022888769
 20
6.231437516
 30
0.0
 10
1.8271304799
 20
6.2115929899
 30
0.0
 10
1.8428512579
 20
6.1940662032
 30
0.0
 10
1.850956078
 20
6.1840055378
 30
0.0
  0
SPLINE
  5
4C1
100
AcDbEntity
  8
SUPERFICI
100
AcDbSpline
 62
250
  6
CONTINUOUS
 70
0
 71
3
 72
9
 73
5
 74
0
 42
0.0000001
 43
0.0000001
 44
0.0000000001
 40
0.0
 40
0.0
 40
0.0
 40
0.0
 40
0.5149559689
 40
1.0
 40
1.0
 40
1.0
 40
1.0
 10
-12.2111776081
 20
18.6262624477
 30
0.0
 10
-12.2215377708
 20
18.6389510038
 30
0.0
 10
-12.2383552564
 20
18.6666742145
 30
0.0
 10
-12.2446043516
 20
18.6986927278
 30
0.0
 10
-12.2446699548
 20
18.7141219389
 30
0.0
  0
SPLINE
  5
4C2
100
AcDbEntity
  8
SUPERFICI
100
AcDbSpline
 62
7
  6
CONTINUOUS
 70
0
 71
3
 72
11
 73
7
 74
0
 42
0.0000001
 43
0.0000001
 44
0.0000000001
 40
0.0
 40
0.0
 40
0.0
 40
0.0
 40
0.1708924126
 40
0.385308629
 40
0.6614483084
 40
1.0
 40
1.0
 40
1.0
 40
1.0
 10
1.1037561844
 20
5.9788754584
 30
0.0
 10
1.1098295684
 20
5.9812928809
 30
0.0
 10
1.1254391012
 20
5.9819678963
 30
0.0
 10
1.148916111
 20
5.9713663603
 30
0.0
 10
1.1739293223
 20
5.9515986682
 30
0.0
 10
1.1898012615
 20
5.9341258116
 30
0.0
 10
1.1979915324
 20
5.9240948193
 30
0.0
  0
SPLINE
  5
4C3
100
AcDbEntity
  8
SUPERFICI
100
AcDbSpline
 62
250
  6
CONTINUOUS
 70
0
 71
3
 72
11
 73
7
 74
0
 42
0.0000001
 43
0.0000001
 44
0.0000000001
 40
0.0
 40
0.0
 40
0.0
 40
0.0
 40
0.2075738273
 40
0.4377730007
 40
0.7021072526
 40
1.0
 40
1.0
 40
1.0
 40
1.0
 10
3.2389779753
 20
4.7004867771
 30
0.0
 10
3.2299813951
 20
4.711504552
 30
0.0
 10
3.20519169
 20
4.7303563426
 30
0.0
 10
3.1575002135
 20
4.7419640841
 30
0.0
 10
3.102708069
 20
4.7385329786
 30
0.0
 10
3.0655190051
 20
4.7272993239
 30
0.0
 10
3.0465884748
 20
4.7196608918
 30
0.0
  0
SPLINE
  5
4C4
100
AcDbEntity
  8
SUPERFICI
100
AcDbSpline
 62
250
  6
CONTINUOUS
 70
0
 71
3
 72
10
 73
6
 74
0
 42
0.0000001
 43
0.0000001
 44
0.0000000001
 40
0.0
 40
0.0
 40
0.0
 40
0.0
 40
0.4728480805
 40
0.7396676731
 40
1.0
 40
1.0
 40
1.0
 40
1.0
 10
-11.0229621152
 20
17.1710016166
 30
0.0
 10
-10.9866814923
 20
17.1265671098
 30
0.0
 10
-10.8967251662
 20
17.0849156493
 30
0.0
 10
-10.7755179034
 20
17.0796945539
 30
0.0
 10
-10.7118813108
 20
17.0940226338
 30
0.0
 10
-10.6825910971
 20
17.1058361557
 30
0.0
  0
SPLINE
  5
4C5
100
AcDbEntity
  8
SUPERFICI
100
AcDbSpline
 62
250
  6
CONTINUOUS
 70
0
 71
3
 72
9
 73
5
 74
0
 42
0.0000001
 43
0.0000001
 44
0.0000000001
 40
0.0
 40
0.0
 40
0.0
 40
0.0
 40
0.2370163925
 40
1.0
 40
1.0
 40
1.0
 40
1.0
 10
-11.0229621152
 20
16.8924878645
 30
0.0
 10
-11.0184329014
 20
16.8869407331
 30
0.0
 10
-10.99788758
 20
16.8647127403
 30
0.0
 10
-10.9723319188
 20
16.847413741
 30
0.0
 10
-10.9517541087
 20
16.8370214397
 30
0.0
  0
SPLINE
  5
4C6
100
AcDbEntity
  8
SUPERFICI
100
AcDbSpline
 62
250
  6
CONTINUOUS
 70
0
 71
3
 72
9
 73
5
 74
0
 42
0.0000001
 43
0.0000001
 44
0.0000000001
 40
0.0
 40
0.0
 40
0.0
 40
0.0
 40
0.2455883964
 40
1.0
 40
1.0
 40
1.0
 40
1.0
 10
-10.9517541087
 20
16.8370214397
 30
0.0
 10
-10.9485154927
 20
16.8353858588
 30
0.0
 10
-10.9351937307
 20
16.8289946778
 30
0.0
 10
-10.9213680906
 20
16.8236642382
 30
0.0
 10
-10.9107674183
 20
16.8202229135
 30
0.0
  0
SPLINE
  5
4C7
100
AcDbEntity
  8
SUPERFICI
100
AcDbSpline
 62
250
  6
CONTINUOUS
 70
0
 71
3
 72
9
 73
5
 74
0
 42
0.0000001
 43
0.0000001
 44
0.0000000001
 40
0.0
 40
0.0
 40
0.0
 40
0.0
 40
0.7535691306
 40
1.0
 40
1.0
 40
1.0
 40
1.0
 10
-10.9107674183
 20
16.8202229135
 30
0.0
 10
-10.855625897
 20
16.8023221735
 30
0.0
 10
-10.7741441014
 20
16.7984156237
 30
0.0
 10
-10.7001735369
 20
16.8202309382
 30
0.0
 10
-10.6825910971
 20
16.8273224036
 30
0.0
  0
SPLINE
  5
4C8
100
AcDbEntity
  8
SUPERFICI
100
AcDbSpline
 62
250
  6
CONTINUOUS
 70
0
 71
3
 72
9
 73
5
 74
0
 42
0.0000001
 43
0.0000001
 44
0.0000000001
 40
0.0
 40
0.0
 40
0.0
 40
0.0
 40
0.2330344798
 40
1.0
 40
1.0
 40
1.0
 40
1.0
 10
-0.9605226877
 20
4.8461543368
 30
0.0
 10
-0.9605226877
 20
4.8518765803
 30
0.0
 10
-0.9590596896
 20
4.8764321171
 30
0.0
 10
-0.952224804
 20
4.9004772792
 30
0.0
 10
-0.9451226139
 20
4.9179198951
 30
0.0
  0
SPLINE
  5
4C9
100
AcDbEntity
  8
SUPERFICI
100
AcDbSpline
 62
250
  6
CONTINUOUS
 70
0
 71
3
 72
9
 73
5
 74
0
 42
0.0000001
 43
0.0000001
 44
0.0000000001
 40
0.0
 40
0.0
 40
0.0
 40
0.0
 40
0.2381290304
 40
1.0
 40
1.0
 40
1.0
 40
1.0
 10
-0.9451226139
 20
4.9179198951
 30
0.0
 10
-0.9425372009
 20
4.9242695372
 30
0.0
 10
-0.9305887847
 20
4.9504864074
 30
0.0
 10
-0.9146890795
 20
4.9748205354
 30
0.0
 10
-0.9011142101
 20
4.9920497942
 30
0.0
  0
SPLINE
  5
4CA
100
AcDbEntity
  8
SUPERFICI
100
AcDbSpline
 62
250
  6
CONTINUOUS
 70
0
 71
3
 72
9
 73
5
 74
0
 42
0.0000001
 43
0.0000001
 44
0.0000000001
 40
0.0
 40
0.0
 40
0.0
 40
0.0
 40
0.7547390116
 40
1.0
 40
1.0
 40
1.0
 40
1.0
 10
-0.9011142101
 20
4.9920497942
 30
0.0
 10
-0.870427651
 20
5.0309972531
 30
0.0
 10
-0.8190157226
 20
5.0752524441
 30
0.0
 10
-0.7601686534
 20
5.1046514884
 30
0.0
 10
-0.7452759125
 20
5.1108021684
 30
0.0
  0
SPLINE
  5
4CB
100
AcDbEntity
  8
SUPERFICI
100
AcDbSpline
 62
250
  6
CONTINUOUS
 70
0
 71
3
 72
11
 73
7
 74
0
 42
0.0000001
 43
0.0000001
 44
0.0000000001
 40
0.0
 40
0.0
 40
0.0
 40
0.0
 40
0.2082155591
 40
0.440325359
 40
0.7046961233
 40
1.0
 40
1.0
 40
1.0
 40
1.0
 10
-6.6633677825
 20
16.8274955802
 30
0.0
 10
-6.6730273774
 20
16.8370511457
 30
0.0
 10
-6.6981572741
 20
16.8527819994
 30
0.0
 10
-6.7440324729
 20
16.8616473762
 30
0.0
 10
-6.796007693
 20
16.8573059927
 30
0.0
 10
-6.8311734162
 20
16.8464966332
 30
0.0
 10
-6.849043922
 20
16.8392859189
 30
0.0
  0
SPLINE
  5
4CC
100
AcDbEntity
  8
SUPERFICI
100
AcDbSpline
 62
250
  6
CONTINUOUS
 70
0
 71
3
 72
10
 73
6
 74
0
 42
0.0000001
 43
0.0000001
 44
0.0000000001
 40
0.0
 40
0.0
 40
0.0
 40
0.0
 40
0.4728483177
 40
0.7396679053
 40
1.0
 40
1.0
 40
1.0
 40
1.0
 10
-19.7229621152
 20
27.8262819978
 30
0.0
 10
-19.6866814744
 20
27.781847469
 30
0.0
 10
-19.5967251061
 20
27.740196011
 30
0.0
 10
-19.4755178435
 20
27.734974941
 30
0.0
 10
-19.4118812844
 20
27.7493030256
 30
0.0
 10
-19.3825910971
 20
27.7611165368
 30
0.0
  0
SPLINE
  5
4CD
100
AcDbEntity
  8
SUPERFICI
100
AcDbSpline
 62
250
  6
CONTINUOUS
 70
0
 71
3
 72
9
 73
5
 74
0
 42
0.0000001
 43
0.0000001
 44
0.0000000001
 40
0.0
 40
0.0
 40
0.0
 40
0.0
 40
0.2370172435
 40
1.0
 40
1.0
 40
1.0
 40
1.0
 10
-19.7229621152
 20
27.5477682456
 30
0.0
 10
-19.7184332483
 20
27.5422215391
 30
0.0
 10
-19.6978896849
 20
27.5199952387
 30
0.0
 10
-19.6723364998
 20
27.5026971417
 30
0.0
 10
-19.6517606466
 20
27.4923051227
 30
0.0
  0
SPLINE
  5
4CE
100
AcDbEntity
  8
SUPERFICI
100
AcDbSpline
 62
250
  6
CONTINUOUS
 70
0
 71
3
 72
9
 73
5
 74
0
 42
0.0000001
 43
0.0000001
 44
0.0000000001
 40
0.0
 40
0.0
 40
0.0
 40
0.0
 40
0.2455884804
 40
1.0
 40
1.0
 40
1.0
 40
1.0
 10
-19.6517606466
 20
27.4923051227
 30
0.0
 10
-19.6485223722
 20
27.4906696032
 30
0.0
 10
-19.6352020192
 20
27.4842786287
 30
0.0
 10
-19.6213778354
 20
27.4789482165
 30
0.0
 10
-19.6107782669
 20
27.4755068167
 30
0.0
  0
SPLINE
  5
4CF
100
AcDbEntity
  8
SUPERFICI
100
AcDbSpline
 62
250
  6
CONTINUOUS
 70
0
 71
3
 72
9
 73
5
 74
0
 42
0.0000001
 43
0.0000001
 44
0.0000000001
 40
0.0
 40
0.0
 40
0.0
 40
0.0
 40
0.753568195
 40
1.0
 40
1.0
 40
1.0
 40
1.0
 10
-19.6107782669
 20
27.4755068167
 30
0.0
 10
-19.5556348234
 20
27.4576031982
 30
0.0
 10
-19.4741486826
 20
27.453694942
 30
0.0
 10
-19.4001744495
 20
27.4755109512
 30
0.0
 10
-19.3825910971
 20
27.4826027847
 30
0.0
  0
SPLINE
  5
4D0
100
AcDbEntity
  8
SUPERFICI
100
AcDbSpline
 62
250
  6
CONTINUOUS
 70
0
 71
3
 72
9
 73
5
 74
0
 42
0.0000001
 43
0.0000001
 44
0.0000000001
 40
0.0
 40
0.0
 40
0.0
 40
0.0
 40
0.2277283894
 40
1.0
 40
1.0
 40
1.0
 40
1.0
 10
-13.6337062161
 20
22.8859463733
 30
0.0
 10
-13.6337062161
 20
22.8922981866
 30
0.0
 10
-13.6313964493
 20
22.9201942821
 30
0.0
 10
-13.6209887097
 20
22.946957024
 30
0.0
 10
-13.6106519492
 20
22.9658550001
 30
0.0
  0
SPLINE
  5
4D1
100
AcDbEntity
  8
SUPERFICI
100
AcDbSpline
 62
250
  6
CONTINUOUS
 70
0
 71
3
 72
9
 73
5
 74
0
 42
0.0000001
 43
0.0000001
 44
0.0000000001
 40
0.0
 40
0.0
 40
0.0
 40
0.0
 40
0.240335125
 40
1.0
 40
1.0
 40
1.0
 40
1.0
 10
-13.6106519492
 20
22.9658550001
 30
0.0
 10
-13.6075250634
 20
22.9715716667
 30
0.0
 10
-13.5935386338
 20
22.9948187413
 30
0.0
 10
-13.5760272462
 20
23.0158789186
 30
0.0
 10
-13.5614170609
 20
23.0303957331
 30
0.0
  0
SPLINE
  5
4D2
100
AcDbEntity
  8
SUPERFICI
100
AcDbSpline
 62
250
  6
CONTINUOUS
 70
0
 71
3
 72
9
 73
5
 74
0
 42
0.0000001
 43
0.0000001
 44
0.0000000001
 40
0.0
 40
0.0
 40
0.0
 40
0.0
 40
0.2540706744
 40
1.0
 40
1.0
 40
1.0
 40
1.0
 10
-13.5476266834
 20
23.0433150225
 30
0.0
 10
-13.5417047505
 20
23.0485467174
 30
0.0
 10
-13.5176593205
 20
23.0682791996
 30
0.0
 10
-13.490766213
 20
23.0846152788
 30
0.0
 10
-13.4696208602
 20
23.094158872
 30
0.0
  0
SPLINE
  5
4D3
100
AcDbEntity
  8
SUPERFICI
100
AcDbSpline
 62
250
  6
CONTINUOUS
 70
0
 71
3
 72
11
 73
7
 74
0
 42
0.0000001
 43
0.0000001
 44
0.0000000001
 40
0.0
 40
0.0
 40
0.0
 40
0.0
 40
0.2125048088
 40
0.4627980254
 40
0.7335817115
 40
1.0
 40
1.0
 40
1.0
 40
1.0
 10
0.2263829644
 20
3.3924977266
 30
0.0
 10
0.2263829644
 20
3.4177896194
 30
0.0
 10
0.2405969555
 20
3.4727816168
 30
0.0
 10
0.2879897102
 20
3.5471476996
 30
0.0
 10
0.3564578029
 20
3.6123714822
 30
0.0
 10
0.4123222701
 20
3.6450416165
 30
0.0
 10
0.4416297395
 20
3.6571455582
 30
0.0
  0
SPLINE
  5
4D4
100
AcDbEntity
  8
SUPERFICI
100
AcDbSpline
 62
250
  6
CONTINUOUS
 70
0
 71
3
 72
11
 73
7
 74
0
 42
0.0000001
 43
0.0000001
 44
0.0000000001
 40
0.0
 40
0.0
 40
0.0
 40
0.0
 40
0.2125101247
 40
0.4628179687
 40
0.7336065909
 40
1.0
 40
1.0
 40
1.0
 40
1.0
 10
-14.8363318921
 20
24.3588560022
 30
0.0
 10
-14.8363318921
 20
24.3790976676
 30
0.0
 10
-14.8249515682
 20
24.4231095212
 30
0.0
 10
-14.7870119533
 20
24.4826209078
 30
0.0
 10
-14.7322056284
 20
24.5348076988
 30
0.0
 10
-14.68749028
 20
24.5609394719
 30
0.0
 10
-14.6640337069
 20
24.5706158595
 30
0.0
  0
SPLINE
  5
4D5
100
AcDbEntity
  8
SUPERFICI
100
AcDbSpline
 62
250
  6
CONTINUOUS
 70
0
 71
3
 72
10
 73
6
 74
0
 42
0.0000001
 43
0.0000001
 44
0.0000000001
 40
0.0
 40
0.0
 40
0.0
 40
0.0
 40
0.4728326754
 40
0.7396478058
 40
1.0
 40
1.0
 40
1.0
 40
1.0
 10
0.2263829644
 20
-30.6060754017
 30
0.0
 10
0.2626492419
 20
-30.6504923391
 30
0.0
 10
0.3525590146
 20
-30.692138786
 30
0.0
 10
0.4737210398
 20
-30.6973885385
 30
0.0
 10
0.5373402694
 20
-30.683088198
 30
0.0
 10
0.5666276242
 20
-30.6712917918
 30
0.0
  0
SPLINE
  5
4D6
100
AcDbEntity
  8
SUPERFICI
100
AcDbSpline
 62
250
  6
CONTINUOUS
 70
0
 71
3
 72
11
 73
7
 74
0
 42
0.0000001
 43
0.0000001
 44
0.0000000001
 40
0.0
 40
0.0
 40
0.0
 40
0.0
 40
0.1704054207
 40
0.3844820514
 40
0.6607982963
 40
1.0
 40
1.0
 40
1.0
 40
1.0
 10
-9.5405338776
 20
15.8204404166
 30
0.0
 10
-9.5344790113
 20
15.8229746195
 30
0.0
 10
-9.5187851064
 20
15.8238750808
 30
0.0
 10
-9.4950704035
 20
15.813399148
 30
0.0
 10
-9.469727426
 20
15.7936617672
 30
0.0
 10
-9.4536058395
 20
15.7761484906
 30
0.0
 10
-9.4452759125
 20
15.7660825495
 30
0.0
  0
SPLINE
  5
4D7
100
AcDbEntity
  8
SUPERFICI
100
AcDbSpline
 62
250
  6
CONTINUOUS
 70
0
 71
3
 72
9
 73
5
 74
0
 42
0.0000001
 43
0.0000001
 44
0.0000000001
 40
0.0
 40
0.0
 40
0.0
 40
0.0
 40
0.2370198363
 40
1.0
 40
1.0
 40
1.0
 40
1.0
 10
0.2263829644
 20
-30.8836629565
 30
0.0
 10
0.230910773
 20
-30.8892083669
 30
0.0
 10
0.2514489733
 20
-30.911429504
 30
0.0
 10
0.2769946051
 20
-30.9287248479
 30
0.0
 10
0.2975644884
 20
-30.9391160054
 30
0.0
  0
SPLINE
  5
4D8
100
AcDbEntity
  8
SUPERFICI
100
AcDbSpline
 62
250
  6
CONTINUOUS
 70
0
 71
3
 72
9
 73
5
 74
0
 42
0.0000001
 43
0.0000001
 44
0.0000000001
 40
0.0
 40
0.0
 40
0.0
 40
0.0
 40
0.2455886677
 40
1.0
 40
1.0
 40
1.0
 40
1.0
 10
0.2975644884
 20
-30.9391160054
 30
0.0
 10
0.3008017829
 20
-30.9407513689
 30
0.0
 10
0.3141180994
 20
-30.9471418323
 30
0.0
 10
0.3279381205
 20
-30.9524722387
 30
0.0
 10
0.3385345388
 20
-30.9559139046
 30
0.0
  0
SPLINE
  5
4D9
100
AcDbEntity
  8
SUPERFICI
100
AcDbSpline
 62
250
  6
CONTINUOUS
 70
0
 71
3
 72
9
 73
5
 74
0
 42
0.0000001
 43
0.0000001
 44
0.0000000001
 40
0.0
 40
0.0
 40
0.0
 40
0.0
 40
0.7535506565
 40
1.0
 40
1.0
 40
1.0
 40
1.0
 10
0.3385345388
 20
-30.9559139046
 30
0.0
 10
0.393650933
 20
-30.9738154458
 30
0.0
 10
0.4750968659
 20
-30.9777377183
 30
0.0
 10
0.5490472869
 20
-30.9559603822
 30
0.0
 10
0.5666276242
 20
-30.9488793467
 30
0.0
  0
SPLINE
  5
4DA
100
AcDbEntity
  8
SUPERFICI
100
AcDbSpline
 62
250
  6
CONTINUOUS
 70
0
 71
3
 72
11
 73
7
 74
0
 42
0.0000001
 43
0.0000001
 44
0.0000000001
 40
0.0
 40
0.0
 40
0.0
 40
0.0
 40
0.2418213074
 40
0.5124978498
 40
0.7765523592
 40
1.0
 40
1.0
 40
1.0
 40
1.0
 10
3.0465884748
 20
4.7196608918
 30
0.0
 10
3.0649826882
 20
4.6974314545
 30
0.0
 10
3.0984390798
 20
4.6457709112
 30
0.0
 10
3.1372416509
 20
4.5613492966
 30
0.0
 10
3.1636322559
 20
4.4745926991
 30
0.0
 10
3.1717751228
 20
4.4164567306
 30
0.0
 10
3.1715863594
 20
4.38979667
 30
0.0
  0
SPLINE
  5
4DB
100
AcDbEntity
  8
SUPERFICI
100
AcDbSpline
 62
7
  6
CONTINUOUS
 70
0
 71
3
 72
11
 73
7
 74
0
 42
0.0000001
 43
0.0000001
 44
0.0000000001
 40
0.0
 40
0.0
 40
0.0
 40
0.0
 40
0.1708924126
 40
0.385308629
 40
0.6614483084
 40
1.0
 40
1.0
 40
1.0
 40
1.0
 10
-7.5962438156
 20
16.6341558395
 30
0.0
 10
-7.5901704316
 20
16.636573262
 30
0.0
 10
-7.5745608988
 20
16.6372482774
 30
0.0
 10
-7.551083889
 20
16.6266467414
 30
0.0
 10
-7.5260706777
 20
16.6068790493
 30
0.0
 10
-7.5101987385
 20
16.5894061927
 30
0.0
 10
-7.5020084676
 20
16.5793752004
 30
0.0
  0
SPLINE
  5
4DC
100
AcDbEntity
  8
SUPERFICI
100
AcDbSpline
 62
7
  6
CONTINUOUS
 70
0
 71
3
 72
11
 73
7
 74
0
 42
0.0000001
 43
0.0000001
 44
0.0000000001
 40
0.0
 40
0.0
 40
0.0
 40
0.0
 40
0.2417343893
 40
0.5125565706
 40
0.7767307613
 40
1.0
 40
1.0
 40
1.0
 40
1.0
 10
2.3979957632
 20
4.454395792
 30
0.0
 10
2.4162264835
 20
4.4320678109
 30
0.0
 10
2.4494237067
 20
4.3802938348
 30
0.0
 10
2.4880851032
 20
4.2958575622
 30
0.0
 10
2.5145816367
 20
4.2091906391
 30
0.0
 10
2.5229936478
 20
4.1511550173
 30
0.0
 10
2.5229936478
 20
4.1245315702
 30
0.0
  0
SPLINE
  5
4DD
100
AcDbEntity
  8
SUPERFICI
100
AcDbSpline
 62
250
  6
CONTINUOUS
 70
0
 71
3
 72
11
 73
7
 74
0
 42
0.0000001
 43
0.0000001
 44
0.0000000001
 40
0.0
 40
0.0
 40
0.0
 40
0.0
 40
0.2416500043
 40
0.5126133603
 40
0.7769038436
 40
1.0
 40
1.0
 40
1.0
 40
1.0
 10
0.4416297395
 20
3.6571455582
 30
0.0
 10
0.4596953644
 20
3.6347186121
 30
0.0
 10
0.492631882
 20
3.582831233
 30
0.0
 10
0.5311514954
 20
3.4983798713
 30
0.0
 10
0.5577547512
 20
3.4118022765
 30
0.0
 10
0.566437008
 20
3.3538677062
 30
0.0
 10
0.5666276242
 20
3.3272813365
 30
0.0
  0
SPLINE
  5
4DE
100
AcDbEntity
  8
SUPERFICI
100
AcDbSpline
 62
250
  6
CONTINUOUS
 70
0
 71
3
 72
9
 73
5
 74
0
 42
0.0000001
 43
0.0000001
 44
0.0000000001
 40
0.0
 40
0.0
 40
0.0
 40
0.0
 40
0.4852217621
 40
1.0
 40
1.0
 40
1.0
 40
1.0
 10
-7.9546712722
 20
18.0369944762
 30
0.0
 10
-7.9546709158
 20
18.0215950495
 30
0.0
 10
-7.960760379
 20
17.98962345
 30
0.0
 10
-7.9774134644
 20
17.9618871665
 30
0.0
 10
-7.9876918753
 20
17.949188081
 30
0.0
  0
SPLINE
  5
4DF
100
AcDbEntity
  8
SUPERFICI
100
AcDbSpline
 62
250
  6
CONTINUOUS
 70
0
 71
3
 72
9
 73
5
 74
0
 42
0.0000001
 43
0.0000001
 44
0.0000000001
 40
0.0
 40
0.0
 40
0.0
 40
0.0
 40
0.2357955315
 40
1.0
 40
1.0
 40
1.0
 40
1.0
 10
-7.9876918753
 20
17.949188081
 30
0.0
 10
-7.9926986385
 20
17.943002172
 30
0.0
 10
-8.0157275508
 20
17.9182233849
 30
0.0
 10
-8.0449042798
 20
17.8995986638
 30
0.0
 10
-8.0683355354
 20
17.888818248
 30
0.0
  0
SPLINE
  5
4E0
100
AcDbEntity
  8
SUPERFICI
100
AcDbSpline
 62
7
  6
CONTINUOUS
 70
0
 71
3
 72
13
 73
9
 74
0
 42
0.0000001
 43
0.0000001
 44
0.0000000001
 40
0.0
 40
0.0
 40
0.0
 40
0.0
 40
0.0253136902
 40
0.0736167351
 40
0.1487494305
 40
0.2529944127
 40
0.5568773565
 40
1.0
 40
1.0
 40
1.0
 40
1.0
 10
2.4603717379
 20
15.0367412133
 30
0.0
 10
2.4603705586
 20
15.0358467138
 30
0.0
 10
2.4585461258
 20
15.0335908645
 30
0.0
 10
2.4545018839
 20
15.0304955229
 30
0.0
 10
2.4475696703
 20
15.0262242209
 30
0.0
 10
2.4325243508
 20
15.0182453806
 30
0.0
 10
2.4050951314
 20
15.0057499183
 30
0.0
 10
2.3806775485
 20
14.9957556049
 30
0.0
 10
2.3661104431
 20
14.9900121968
 30
0.0
  0
SPLINE
  5
4E1
100
AcDbEntity
  8
SUPERFICI
100
AcDbSpline
 62
7
  6
CONTINUOUS
 70
0
 71
3
 72
15
 73
11
 74
0
 42
0.0000001
 43
0.0000001
 44
0.0000000001
 40
0.0
 40
0.0
 40
0.0
 40
0.0
 40
0.019850868
 40
0.0641660589
 40
0.1367422207
 40
0.2405105584
 40
0.3781116776
 40
0.5513144612
 40
0.7598463534
 40
1.0
 40
1.0
 40
1.0
 40
1.0
 10
6.4134147723
 20
10.1952610686
 30
0.0
 10
6.4133991763
 20
10.1936459498
 30
0.0
 10
6.4086296607
 20
10.1898015313
 30
0.0
 10
6.3998650478
 20
10.1841620862
 30
0.0
 10
6.3834784926
 20
10.1758644897
 30
0.0
 10
6.3603887538
 20
10.1653610572
 30
0.0
 10
6.3291739921
 20
10.1523673209
 30
0.0
 10
6.2898069725
 20
10.1370782997
 30
0.0
 10
6.2422540207
 20
10.1197429625
 30
0.0
 10
6.2077164154
 20
10.1079111429
 30
0.0
 10
6.1891718253
 20
10.1017526462
 30
0.0
  0
SPLINE
  5
4E2
100
AcDbEntity
  8
SUPERFICI
100
AcDbSpline
 62
250
  6
CONTINUOUS
 70
0
 71
3
 72
11
 73
7
 74
0
 42
0.0000001
 43
0.0000001
 44
0.0000000001
 40
0.0
 40
0.0
 40
0.0
 40
0.0
 40
0.3283577863
 40
0.5988997381
 40
0.8166153957
 40
1.0
 40
1.0
 40
1.0
 40
1.0
 10
3.1715863594
 20
-29.8987054938
 30
0.0
 10
3.1716547135
 20
-29.9083029465
 30
0.0
 10
3.1708050121
 20
-29.9258592003
 30
0.0
 10
3.1655601663
 20
-29.9493007244
 30
0.0
 10
3.1564107556
 20
-29.9670596905
 30
0.0
 10
3.1468074082
 20
-29.974666604
 30
0.0
 10
3.1418640818
 20
-29.9767391563
 30
0.0
  0
SPLINE
  5
4E3
100
AcDbEntity
  8
SUPERFICI
100
AcDbSpline
 62
250
  6
CONTINUOUS
 70
0
 71
3
 72
11
 73
7
 74
0
 42
0.0000001
 43
0.0000001
 44
0.0000000001
 40
0.0
 40
0.0
 40
0.0
 40
0.0
 40
0.222987956
 40
0.4596006124
 40
0.7181525724
 40
1.0
 40
1.0
 40
1.0
 40
1.0
 10
-7.9546712724
 20
18.3207527612
 30
0.0
 10
-7.9546709169
 20
18.3053267541
 30
0.0
 10
-7.9607981201
 20
18.2732745065
 30
0.0
 10
-7.986831417
 20
18.229984084
 30
0.0
 10
-8.027135414
 20
18.1934789747
 30
0.0
 10
-8.0603970586
 20
18.1756308678
 30
0.0
 10
-8.0784136406
 20
18.1681764732
 30
0.0
  0
SPLINE
  5
4E4
100
AcDbEntity
  8
SUPERFICI
100
AcDbSpline
 62
7
  6
CONTINUOUS
 70
0
 71
3
 72
11
 73
7
 74
0
 42
0.0000001
 43
0.0000001
 44
0.0000000001
 40
0.0
 40
0.0
 40
0.0
 40
0.0
 40
0.3282037626
 40
0.5988398589
 40
0.81672041
 40
1.0
 40
1.0
 40
1.0
 40
1.0
 10
2.5229936478
 20
-30.1701533005
 30
0.0
 10
2.5229936478
 20
-30.1797860888
 30
0.0
 10
2.5220183601
 20
-30.1974059698
 30
0.0
 10
2.5166092395
 20
-30.2209136274
 30
0.0
 10
2.5073485466
 20
-30.2387054678
 30
0.0
 10
2.4977009044
 20
-30.2463330241
 30
0.0
 10
2.4927387388
 20
-30.2484098858
 30
0.0
  0
SPLINE
  5
4E5
100
AcDbEntity
  8
SUPERFICI
100
AcDbSpline
 62
250
  6
CONTINUOUS
 70
0
 71
3
 72
11
 73
7
 74
0
 42
0.0000001
 43
0.0000001
 44
0.0000000001
 40
0.0
 40
0.0
 40
0.0
 40
0.0
 40
0.328635844
 40
0.5993263817
 40
0.8169394838
 40
1.0
 40
1.0
 40
1.0
 40
1.0
 10
0.5666276242
 20
-30.9488793467
 30
0.0
 10
0.5665581841
 20
-30.9586205102
 30
0.0
 10
0.5654417001
 20
-30.9764232899
 30
0.0
 10
0.5597807927
 20
-31.0001262324
 30
0.0
 10
0.5502452352
 20
-31.0179936617
 30
0.0
 10
0.5403874076
 20
-31.0255431333
 30
0.0
 10
0.5353458319
 20
-31.0275498596
 30
0.0
  0
SPLINE
  5
4E6
100
AcDbEntity
  8
SUPERFICI
100
AcDbSpline
 62
250
  6
CONTINUOUS
 70
0
 71
3
 72
9
 73
5
 74
0
 42
0.0000001
 43
0.0000001
 44
0.0000000001
 40
0.0
 40
0.0
 40
0.0
 40
0.0
 40
0.4852217621
 40
1.0
 40
1.0
 40
1.0
 40
1.0
 10
-16.6546712722
 20
28.6922748573
 30
0.0
 10
-16.6546709158
 20
28.6768754306
 30
0.0
 10
-16.660760379
 20
28.6449038311
 30
0.0
 10
-16.6774134644
 20
28.6171675476
 30
0.0
 10
-16.6876918753
 20
28.6044684621
 30
0.0
  0
SPLINE
  5
4E7
100
AcDbEntity
  8
SUPERFICI
100
AcDbSpline
 62
250
  6
CONTINUOUS
 70
0
 71
3
 72
9
 73
5
 74
0
 42
0.0000001
 43
0.0000001
 44
0.0000000001
 40
0.0
 40
0.0
 40
0.0
 40
0.0
 40
0.2357955315
 40
1.0
 40
1.0
 40
1.0
 40
1.0
 10
-16.6876918753
 20
28.6044684621
 30
0.0
 10
-16.6926986385
 20
28.5982825531
 30
0.0
 10
-16.7157275508
 20
28.573503766
 30
0.0
 10
-16.7449042798
 20
28.5548790449
 30
0.0
 10
-16.7683355354
 20
28.5440986291
 30
0.0
  0
SPLINE
  5
4E8
100
AcDbEntity
  8
SUPERFICI
100
AcDbSpline
 62
250
  6
CONTINUOUS
 70
0
 71
3
 72
11
 73
7
 74
0
 42
0.0000001
 43
0.0000001
 44
0.0000000001
 40
0.0
 40
0.0
 40
0.0
 40
0.0
 40
0.2229878749
 40
0.4596004368
 40
0.7181522788
 40
1.0
 40
1.0
 40
1.0
 40
1.0
 10
-16.6546712718
 20
28.9760331818
 30
0.0
 10
-16.6546709088
 20
28.9606071774
 30
0.0
 10
-16.6607981041
 20
28.9285549339
 30
0.0
 10
-16.6868313793
 20
28.8852645125
 30
0.0
 10
-16.7271353752
 20
28.8487593776
 30
0.0
 10
-16.7603970364
 20
28.8309112581
 30
0.0
 10
-16.7784136406
 20
28.8234568543
 30
0.0
  0
SPLINE
  5
4E9
100
AcDbEntity
  8
RACCORDO
100
AcDbSpline
 62
7
  6
CONTINUOUS
 70
0
 71
3
 72
11
 73
7
 74
0
 42
0.0000001
 43
0.0000001
 44
0.0000000001
 40
0.0
 40
0.0
 40
0.0
 40
0.0
 40
0.3479280951
 40
0.632897836
 40
0.8461405181
 40
1.0
 40
1.0
 40
1.0
 40
1.0
 10
-15.2729134945
 20
2.812269378
 30
0.0
 10
-15.2505879269
 20
2.8213837528
 30
0.0
 10
-15.2089852141
 20
2.8357558488
 30
0.0
 10
-15.1509344021
 20
2.8461404375
 30
0.0
 10
-15.1053338607
 20
2.8444746656
 30
0.0
 10
-15.0809909508
 20
2.8328493647
 30
0.0
 10
-15.0737570087
 20
2.8250144417
 30
0.0
  0
SPLINE
  5
4EA
100
AcDbEntity
  8
RACCORDO
100
AcDbSpline
 62
250
  6
CONTINUOUS
 70
0
 71
3
 72
16
 73
12
 74
0
 42
0.0000001
 43
0.0000001
 44
0.0000000001
 40
0.0
 40
0.0
 40
0.0
 40
0.0
 40
0.1104986017
 40
0.2365293522
 40
0.3729416798
 40
0.5137466034
 40
0.652648856
 40
0.7834893062
 40
0.9007046413
 40
0.9528265411
 40
1.0
 40
1.0
 40
1.0
 40
1.0
 10
-15.2729134945
 20
2.812269378
 30
0.0
 10
-15.3812064775
 20
2.925612562
 30
0.0
 10
-15.5932685568
 20
3.1871601467
 30
0.0
 10
-15.8804076982
 20
3.6323622647
 30
0.0
 10
-16.1467365233
 20
4.1394703446
 30
0.0
 10
-16.3785907633
 20
4.6830164545
 30
0.0
 10
-16.5643469379
 20
5.2357379793
 30
0.0
 10
-16.6946656962
 20
5.7696884116
 30
0.0
 10
-16.754507493
 20
6.1924296001
 30
0.0
 10
-16.7662760553
 20
6.4995901188
 30
0.0
 10
-16.7604382135
 20
6.6405662413
 30
0.0
 10
-16.7541815501
 20
6.7071967315
 30
0.0
  0
SPLINE
  5
4EB
100
AcDbEntity
  8
RACCORDO
100
AcDbSpline
 62
250
  6
CONTINUOUS
 70
0
 71
3
 72
9
 73
5
 74
0
 42
0.0000001
 43
0.0000001
 44
0.0000000001
 40
0.0
 40
0.0
 40
0.0
 40
0.0
 40
0.2682780069
 40
1.0
 40
1.0
 40
1.0
 40
1.0
 10
-7.2530950712
 20
-5.3849621054
 30
0.0
 10
-7.256241325
 20
-5.3457794656
 30
0.0
 10
-7.265508378
 20
-5.1995719031
 30
0.0
 10
-7.2648034369
 20
-5.0524943435
 30
0.0
 10
-7.2557696908
 20
-4.9456619007
 30
0.0
  0
SPLINE
  5
4EC
100
AcDbEntity
  8
RACCORDO
100
AcDbSpline
 62
7
  6
CONTINUOUS
 70
0
 71
3
 72
18
 73
14
 74
0
 42
0.0000001
 43
0.0000001
 44
0.0000000001
 40
0.0
 40
0.0
 40
0.0
 40
0.0
 40
0.3640485276
 40
0.6736356913
 40
0.80148214
 40
0.8565439157
 40
0.9043369782
 40
0.943691175
 40
0.972813436
 40
0.9829961784
 40
0.9901516996
 40
0.9948147894
 40
1.0
 40
1.0
 40
1.0
 40
1.0
 10
-16.7541815501
 20
6.7071967315
 30
0.0
 10
-16.7375449892
 20
6.6909530267
 30
0.0
 10
-16.706582421
 20
6.6610777548
 30
0.0
 10
-16.6691714525
 20
6.626130256
 30
0.0
 10
-16.6456262439
 20
6.6052652728
 30
0.0
 10
-16.6343576408
 20
6.5957720292
 30
0.0
 10
-16.6272752025
 20
6.5900792014
 30
0.0
 10
-16.6213059684
 20
6.585668612
 30
0.0
 10
-16.6170969145
 20
6.5828927662
 30
0.0
 10
-16.6143803393
 20
6.5816753053
 30
0.0
 10
-16.6130391808
 20
6.5812586764
 30
0.0
 10
-16.6118349719
 20
6.5815514544
 30
0.0
 10
-16.6117278391
 20
6.5822986968
 30
0.0
 10
-16.6117398263
 20
6.5826296554
 30
0.0
  0
SPLINE
  5
4ED
100
AcDbEntity
  8
SUPERFICI
100
AcDbSpline
 62
250
  6
CONTINUOUS
 70
0
 71
3
 72
9
 73
5
 74
0
 42
0.0000001
 43
0.0000001
 44
0.0000000001
 40
0.0
 40
0.0
 40
0.0
 40
0.0
 40
0.4543698835
 40
1.0
 40
1.0
 40
1.0
 40
1.0
 10
0.2263829644
 20
-30.6060754017
 30
0.0
 10
0.2263829644
 20
-30.5712944211
 30
0.0
 10
0.2528668437
 20
-30.4954737056
 30
0.0
 10
0.3032758815
 20
-30.4363742584
 30
0.0
 10
0.3346361399
 20
-30.408788119
 30
0.0
  0
SPLINE
  5
4EE
100
AcDbEntity
  8
SUPERFICI
100
AcDbSpline
 62
250
  6
CONTINUOUS
 70
0
 71
3
 72
10
 73
6
 74
0
 42
0.0000001
 43
0.0000001
 44
0.0000000001
 40
0.0
 40
0.0
 40
0.0
 40
0.0
 40
0.2105231746
 40
0.47429583
 40
1.0
 40
1.0
 40
1.0
 40
1.0
 10
0.5666276242
 20
-30.6712917918
 30
0.0
 10
0.5492980833
 20
-30.6538453566
 30
0.0
 10
0.511299549
 20
-30.6135081945
 30
0.0
 10
0.4331715778
 20
-30.5266817365
 30
0.0
 10
0.3731691809
 20
-30.4565987658
 30
0.0
 10
0.3346361399
 20
-30.408788119
 30
0.0
  0
SPLINE
  5
4EF
100
AcDbEntity
  8
SUPERFICI
100
AcDbSpline
 62
7
  6
CONTINUOUS
 70
0
 71
3
 72
9
 73
5
 74
0
 42
0.0000001
 43
0.0000001
 44
0.0000000001
 40
0.0
 40
0.0
 40
0.0
 40
0.0
 40
0.4668640601
 40
1.0
 40
1.0
 40
1.0
 40
1.0
 10
1.4355619428
 20
-29.9130527894
 30
0.0
 10
1.4088923878
 20
-29.9112644148
 30
0.0
 10
1.352211304
 20
-29.9007467649
 30
0.0
 10
1.2980736128
 20
-29.8814492031
 30
0.0
 10
1.2701363481
 20
-29.8691525774
 30
0.0
  0
SPLINE
  5
4F0
100
AcDbEntity
  8
SUPERFICI
100
AcDbSpline
 62
250
  6
CONTINUOUS
 70
0
 71
3
 72
11
 73
7
 74
0
 42
0.0000001
 43
0.0000001
 44
0.0000000001
 40
0.0
 40
0.0
 40
0.0
 40
0.0
 40
0.2521749425
 40
0.5170495997
 40
0.7725074425
 40
1.0
 40
1.0
 40
1.0
 40
1.0
 10
3.1715863594
 20
-29.6149471987
 30
0.0
 10
3.186382368
 20
-29.5878293743
 30
0.0
 10
3.2076193823
 20
-29.5270649801
 30
0.0
 10
3.2150198839
 20
-29.4317702819
 30
0.0
 10
3.1989009396
 20
-29.3405892726
 30
0.0
 10
3.1712828544
 20
-29.2866083307
 30
0.0
 10
3.1535820745
 20
-29.2650836175
 30
0.0
  0
SPLINE
  5
4F1
100
AcDbEntity
  8
RACCORDO
100
AcDbSpline
 62
250
  6
CONTINUOUS
 70
0
 71
3
 72
11
 73
7
 74
0
 42
0.0000001
 43
0.0000001
 44
0.0000000001
 40
0.0
 40
0.0
 40
0.0
 40
0.0
 40
0.252779658
 40
0.5075278409
 40
0.7579574965
 40
1.0
 40
1.0
 40
1.0
 40
1.0
 10
-24.2041053316
 20
14.5354100547
 30
0.0
 10
-24.1761447265
 20
14.4784619767
 30
0.0
 10
-24.0982147944
 20
14.3736883843
 30
0.0
 10
-23.9361396969
 20
14.2671655721
 30
0.0
 10
-23.749834692
 20
14.2229964524
 30
0.0
 10
-23.623809819
 20
14.2411169148
 30
0.0
 10
-23.566687172
 20
14.261786211
 30
0.0
  0
SPLINE
  5
4F2
100
AcDbEntity
  8
RACCORDO
100
AcDbSpline
 62
250
  6
CONTINUOUS
 70
0
 71
3
 72
12
 73
8
 74
0
 42
0.0000001
 43
0.0000001
 44
0.0000000001
 40
0.0
 40
0.0
 40
0.0
 40
0.0
 40
0.0795088308
 40
0.1779091718
 40
0.4231670105
 40
0.7094051455
 40
1.0
 40
1.0
 40
1.0
 40
1.0
 10
-24.2041053672
 20
1.1003811986
 30
0.0
 10
-24.188434153
 20
1.0929808015
 30
0.0
 10
-24.150896102
 20
1.0817817996
 30
0.0
 10
-24.0591565922
 20
1.0704829172
 30
0.0
 10
-23.9211067299
 20
1.0785073235
 30
0.0
 10
-23.7450597135
 20
1.1134730338
 30
0.0
 10
-23.6252451596
 20
1.1531109048
 30
0.0
 10
-23.5666871736
 20
1.1772585609
 30
0.0
  0
SPLINE
  5
4F3
100
AcDbEntity
  8
RACCORDO
100
AcDbSpline
 62
250
  6
CONTINUOUS
 70
0
 71
3
 72
11
 73
7
 74
0
 42
0.0000001
 43
0.0000001
 44
0.0000000001
 40
0.0
 40
0.0
 40
0.0
 40
0.0
 40
0.257229186
 40
0.5090915518
 40
0.7559735944
 40
1.0
 40
1.0
 40
1.0
 40
1.0
 10
-6.7160074333
 20
-20.3180769855
 30
0.0
 10
-6.7352269305
 20
-20.2805831845
 30
0.0
 10
-6.7642012921
 20
-20.2012664761
 30
0.0
 10
-6.7754773069
 20
-20.0765171944
 30
0.0
 10
-6.7531487307
 20
-19.9553850274
 30
0.0
 10
-6.716606562
 20
-19.8823307928
 30
0.0
 10
-6.6938141877
 20
-19.8494959021
 30
0.0
  0
SPLINE
  5
4F4
100
AcDbEntity
  8
RACCORDO
100
AcDbSpline
 62
250
  6
CONTINUOUS
 70
0
 71
3
 72
9
 73
5
 74
0
 42
0.0000001
 43
0.0000001
 44
0.0000000001
 40
0.0
 40
0.0
 40
0.0
 40
0.0
 40
0.5584828171
 40
1.0
 40
1.0
 40
1.0
 40
1.0
 10
-6.7160074741
 20
-6.8830481608
 30
0.0
 10
-6.7289143572
 20
-6.8773524424
 30
0.0
 10
-6.7513940378
 20
-6.8647044553
 30
0.0
 10
-6.766196089
 20
-6.8423332504
 30
0.0
 10
-6.7688367361
 20
-6.8314972576
 30
0.0
  0
SPLINE
  5
4F5
100
AcDbEntity
  8
SUPERFICI
100
AcDbSpline
 62
250
  6
CONTINUOUS
 70
0
 71
3
 72
13
 73
9
 74
0
 42
0.0000001
 43
0.0000001
 44
0.0000000001
 40
0.0
 40
0.0
 40
0.0
 40
0.0
 40
0.4222876672
 40
0.7333201663
 40
0.8446146455
 40
0.9256091458
 40
0.976423363
 40
1.0
 40
1.0
 40
1.0
 40
1.0
 10
3.1715863594
 20
4.1060383748
 30
0.0
 10
3.1768392966
 20
4.1007577233
 30
0.0
 10
3.1860219886
 20
4.0916697646
 30
0.0
 10
3.1969506705
 20
4.0814727831
 30
0.0
 10
3.2036603044
 20
4.0757480803
 30
0.0
 10
3.2071892571
 20
4.0731262434
 30
0.0
 10
3.2093200106
 20
4.0717424391
 30
0.0
 10
3.210873535
 20
4.0712876036
 30
0.0
 10
3.2111893507
 20
4.0715581427
 30
0.0
  0
SPLINE
  5
4F6
100
AcDbEntity
  8
SUPERFICI
100
AcDbSpline
 62
250
  6
CONTINUOUS
 70
0
 71
3
 72
9
 73
5
 74
0
 42
0.0000001
 43
0.0000001
 44
0.0000000001
 40
0.0
 40
0.0
 40
0.0
 40
0.0
 40
0.5193580806
 40
1.0
 40
1.0
 40
1.0
 40
1.0
 10
0.2263829644
 20
-30.8836629565
 30
0.0
 10
0.2263829644
 20
-30.8965586529
 30
0.0
 10
0.2297131821
 20
-30.9216361368
 30
0.0
 10
0.2416919781
 20
-30.9441443471
 30
0.0
 10
0.2492402426
 20
-30.9533884222
 30
0.0
  0
SPLINE
  5
4F7
100
AcDbEntity
  8
RACCORDO
100
AcDbSpline
 62
250
  6
CONTINUOUS
 70
0
 71
3
 72
15
 73
11
 74
0
 42
0.0000001
 43
0.0000001
 44
0.0000000001
 40
0.0
 40
0.0
 40
0.0
 40
0.0
 40
0.1180324792
 40
0.2461053316
 40
0.3803774755
 40
0.5166851927
 40
0.6507640647
 40
0.7784580781
 40
0.8959516424
 40
1.0
 40
1.0
 40
1.0
 40
1.0
 10
-6.3622901304
 20
-8.6568786096
 30
0.0
 10
-6.4489462581
 20
-8.5440172025
 30
0.0
 10
-6.6175490341
 20
-8.299316505
 30
0.0
 10
-6.8469292924
 20
-7.901813307
 30
0.0
 10
-7.0572967489
 20
-7.4692857001
 30
0.0
 10
-7.2411328277
 20
-7.0170380317
 30
0.0
 10
-7.3919379848
 20
-6.561062879
 30
0.0
 10
-7.50446904
 20
-6.1174432089
 30
0.0
 10
-7.5748766046
 20
-5.7018899312
 30
0.0
 10
-7.5936150619
 20
-5.4347571476
 30
0.0
 10
-7.5936150619
 20
-5.3093235598
 30
0.0
  0
SPLINE
  5
4F8
100
AcDbEntity
  8
SUPERFICI
100
AcDbSpline
 62
250
  6
CONTINUOUS
 70
0
 71
3
 72
13
 73
9
 74
0
 42
0.0000001
 43
0.0000001
 44
0.0000000001
 40
0.0
 40
0.0
 40
0.0
 40
0.0
 40
0.4226510949
 40
0.7337988921
 40
0.8450516796
 40
0.9259377587
 40
0.9765841178
 40
1.0
 40
1.0
 40
1.0
 40
1.0
 10
-5.5284136406
 20
14.7613187559
 30
0.0
 10
-5.5231555112
 20
14.7560328849
 30
0.0
 10
-5.5139660867
 20
14.7469375782
 30
0.0
 10
-5.5030284316
 20
14.7367354513
 30
0.0
 10
-5.4963192856
 20
14.7310103265
 30
0.0
 10
-5.492790102
 20
14.728395283
 30
0.0
 10
-5.4906696982
 20
14.7270130016
 30
0.0
 10
-5.4891135764
 20
14.7265699782
 30
0.0
 10
-5.4888044332
 20
14.7268439395
 30
0.0
  0
SPLINE
  5
4F9
100
AcDbEntity
  8
SUPERFICI
100
AcDbSpline
 62
250
  6
CONTINUOUS
 70
0
 71
3
 72
9
 73
5
 74
0
 42
0.0000001
 43
0.0000001
 44
0.0000000001
 40
0.0
 40
0.0
 40
0.0
 40
0.0
 40
0.5143211836
 40
1.0
 40
1.0
 40
1.0
 40
1.0
 10
-9.6605226877
 20
15.2238471631
 30
0.0
 10
-9.6695395162
 20
15.2348904776
 30
0.0
 10
-9.6845439272
 20
15.2586570868
 30
0.0
 10
-9.6919546167
 20
15.2858980259
 30
0.0
 10
-9.6933449299
 20
15.2992889429
 30
0.0
  0
SPLINE
  5
4FA
100
AcDbEntity
  8
SUPERFICI
100
AcDbSpline
 62
250
  6
CONTINUOUS
 70
0
 71
3
 72
9
 73
5
 74
0
 42
0.0000001
 43
0.0000001
 44
0.0000000001
 40
0.0
 40
0.0
 40
0.0
 40
0.0
 40
0.5149559633
 40
1.0
 40
1.0
 40
1.0
 40
1.0
 10
-9.6605226877
 20
15.5014347179
 30
0.0
 10
-9.6708828937
 20
15.5141233271
 30
0.0
 10
-9.6877004377
 20
15.5418466691
 30
0.0
 10
-9.6939494818
 20
15.5738653394
 30
0.0
 10
-9.6940150371
 20
15.5892946157
 30
0.0
  0
SPLINE
  5
4FB
100
AcDbEntity
  8
RACCORDO
100
AcDbSpline
 62
250
  6
CONTINUOUS
 70
0
 71
3
 72
11
 73
7
 74
0
 42
0.0000001
 43
0.0000001
 44
0.0000000001
 40
0.0
 40
0.0
 40
0.0
 40
0.0
 40
0.2573929646
 40
0.507364701
 40
0.7536159192
 40
1.0
 40
1.0
 40
1.0
 40
1.0
 10
-23.5666872593
 20
14.2617864003
 30
0.0
 10
-23.4745736203
 20
14.3834499357
 30
0.0
 10
-23.2772084981
 20
14.611887381
 30
0.0
 10
-22.9394784109
 20
14.9066865439
 30
0.0
 10
-22.5678836584
 20
15.1456707481
 30
0.0
 10
-22.3005303098
 20
15.2662701255
 30
0.0
 10
-22.1634093369
 20
15.3166226652
 30
0.0
  0
SPLINE
  5
4FC
100
AcDbEntity
  8
RACCORDO
100
AcDbSpline
 62
250
  6
CONTINUOUS
 70
0
 71
3
 72
17
 73
13
 74
0
 42
0.0000001
 43
0.0000001
 44
0.0000000001
 40
0.0
 40
0.0
 40
0.0
 40
0.0
 40
0.1652780463
 40
0.3216287187
 40
0.4672384407
 40
0.6006074833
 40
0.7206505059
 40
0.7755101526
 40
0.8269014099
 40
0.8748845936
 40
0.91959046
 40
1.0
 40
1.0
 40
1.0
 40
1.0
 10
-23.5666872593
 20
1.1772586055
 30
0.0
 10
-23.7659026321
 20
1.8903057253
 30
0.0
 10
-24.1189607438
 20
3.2879366296
 30
0.0
 10
-24.5154908833
 20
5.3442386353
 30
0.0
 10
-24.7595964808
 20
7.2806081506
 30
0.0
 10
-24.8469335036
 20
9.0677811985
 30
0.0
 10
-24.7864083702
 20
10.450213738
 30
0.0
 10
-24.6509803355
 20
11.4554426384
 30
0.0
 10
-24.5131719499
 20
12.1329847664
 30
0.0
 10
-24.3365663298
 20
12.7546886585
 30
0.0
 10
-24.0604626275
 20
13.4795496018
 30
0.0
 10
-23.7841045937
 20
13.9746167798
 30
0.0
 10
-23.5666872593
 20
14.2617864003
 30
0.0
  0
SPLINE
  5
4FD
100
AcDbEntity
  8
SUPERFICI
100
AcDbSpline
 62
250
  6
CONTINUOUS
 70
0
 71
3
 72
9
 73
5
 74
0
 42
0.0000001
 43
0.0000001
 44
0.0000000001
 40
0.0
 40
0.0
 40
0.0
 40
0.0
 40
0.5193397392
 40
1.0
 40
1.0
 40
1.0
 40
1.0
 10
-8.4736170356
 20
13.7701905529
 30
0.0
 10
-8.4736170356
 20
13.7573449772
 30
0.0
 10
-8.4703129775
 20
13.7323667543
 30
0.0
 10
-8.458434288
 20
13.7099237493
 30
0.0
 10
-8.4509438164
 20
13.7006913151
 30
0.0
  0
SPLINE
  5
4FE
100
AcDbEntity
  8
RACCORDO
100
AcDbSpline
 62
250
  6
CONTINUOUS
 70
0
 71
3
 72
15
 73
11
 74
0
 42
0.0000001
 43
0.0000001
 44
0.0000000001
 40
0.0
 40
0.0
 40
0.0
 40
0.0
 40
0.1091808643
 40
0.2269370546
 40
0.3513126689
 40
0.4802323864
 40
0.6115876111
 40
0.7433073376
 40
0.8733991798
 40
1.0
 40
1.0
 40
1.0
 40
1.0
 10
-14.3470539635
 20
-16.1333192787
 30
0.0
 10
-14.8012592545
 20
-15.5770345313
 30
0.0
 10
-15.712964872
 20
-14.3941385676
 30
0.0
 10
-17.0385739224
 20
-12.5005051203
 30
0.0
 10
-18.3517958081
 20
-10.4423510556
 30
0.0
 10
-19.620655836
 20
-8.2524707552
 30
0.0
 10
-20.8117215112
 20
-5.9645571686
 30
0.0
 10
-21.891252557
 20
-3.6131653447
 30
0.0
 10
-22.8263832472
 20
-1.2340888043
 30
0.0
 10
-23.3426089995
 20
0.3752284473
 30
0.0
 10
-23.5666872593
 20
1.1772586055
 30
0.0
  0
SPLINE
  5
4FF
100
AcDbEntity
  8
SUPERFICI
100
AcDbSpline
 62
250
  6
CONTINUOUS
 70
0
 71
3
 72
9
 73
5
 74
0
 42
0.0000001
 43
0.0000001
 44
0.0000000001
 40
0.0
 40
0.0
 40
0.0
 40
0.0
 40
0.5190699344
 40
1.0
 40
1.0
 40
1.0
 40
1.0
 10
-9.6605226877
 20
15.2238471631
 30
0.0
 10
-9.6605226877
 20
15.2117048684
 30
0.0
 10
-9.6575708973
 20
15.1881171334
 30
0.0
 10
-9.6470563432
 20
15.166614698
 30
0.0
 10
-9.6403554081
 20
15.1575779688
 30
0.0
  0
SPLINE
  5
500
100
AcDbEntity
  8
SUPERFICI
100
AcDbSpline
 62
250
  6
CONTINUOUS
 70
0
 71
3
 72
10
 73
6
 74
0
 42
0.0000001
 43
0.0000001
 44
0.0000000001
 40
0.0
 40
0.0
 40
0.0
 40
0.0
 40
0.4728325763
 40
0.7396477546
 40
1.0
 40
1.0
 40
1.0
 40
1.0
 10
-8.4736170356
 20
14.0477781077
 30
0.0
 10
-8.4373507656
 20
14.0033611795
 30
0.0
 10
-8.347441005
 20
13.9617147295
 30
0.0
 10
-8.2262789791
 20
13.9564649682
 30
0.0
 10
-8.1626597365
 20
13.970765309
 30
0.0
 10
-8.1333723758
 20
13.9825617176
 30
0.0
  0
SPLINE
  5
501
100
AcDbEntity
  8
SUPERFICI
100
AcDbSpline
 62
250
  6
CONTINUOUS
 70
0
 71
3
 72
9
 73
5
 74
0
 42
0.0000001
 43
0.0000001
 44
0.0000000001
 40
0.0
 40
0.0
 40
0.0
 40
0.0
 40
0.2370214411
 40
1.0
 40
1.0
 40
1.0
 40
1.0
 10
-8.4736170356
 20
13.7701905529
 30
0.0
 10
-8.4690898814
 20
13.764645944
 30
0.0
 10
-8.4485549972
 20
13.7424279996
 30
0.0
 10
-8.4230140357
 20
13.7251343584
 30
0.0
 10
-8.4024478438
 20
13.7147437341
 30
0.0
  0
SPLINE
  5
502
100
AcDbEntity
  8
SUPERFICI
100
AcDbSpline
 62
250
  6
CONTINUOUS
 70
0
 71
3
 72
9
 73
5
 74
0
 42
0.0000001
 43
0.0000001
 44
0.0000000001
 40
0.0
 40
0.0
 40
0.0
 40
0.0
 40
0.2455887681
 40
1.0
 40
1.0
 40
1.0
 40
1.0
 10
-8.4024478438
 20
13.7147437341
 30
0.0
 10
-8.3992111428
 20
13.7131084609
 30
0.0
 10
-8.3858972703
 20
13.70671829
 30
0.0
 10
-8.3720797672
 20
13.701387872
 30
0.0
 10
-8.3614852538
 20
13.6979460343
 30
0.0
  0
SPLINE
  5
503
100
AcDbEntity
  8
SUPERFICI
100
AcDbSpline
 62
250
  6
CONTINUOUS
 70
0
 71
3
 72
9
 73
5
 74
0
 42
0.0000001
 43
0.0000001
 44
0.0000000001
 40
0.0
 40
0.0
 40
0.0
 40
0.0
 40
0.7535489474
 40
1.0
 40
1.0
 40
1.0
 40
1.0
 10
-8.3614852538
 20
13.6979460343
 30
0.0
 10
-8.3063653533
 20
13.6800392416
 30
0.0
 10
-8.2249114937
 20
13.6761138549
 30
0.0
 10
-8.1509543788
 20
13.6978924563
 30
0.0
 10
-8.1333723758
 20
13.7049741627
 30
0.0
  0
SPLINE
  5
504
100
AcDbEntity
  8
SUPERFICI
100
AcDbSpline
 62
7
  6
CONTINUOUS
 70
0
 71
3
 72
9
 73
5
 74
0
 42
0.0000001
 43
0.0000001
 44
0.0000000001
 40
0.0
 40
0.0
 40
0.0
 40
0.0
 40
0.2648221628
 40
1.0
 40
1.0
 40
1.0
 40
1.0
 10
-7.2644380572
 20
13.6467165843
 30
0.0
 10
-7.2810009705
 20
13.6322634567
 30
0.0
 10
-7.347216968
 20
13.5828109015
 30
0.0
 10
-7.4324561388
 20
13.5527396028
 30
0.0
 10
-7.493345731
 20
13.5568112454
 30
0.0
  0
SPLINE
  5
505
100
AcDbEntity
  8
SUPERFICI
100
AcDbSpline
 62
250
  6
CONTINUOUS
 70
0
 71
3
 72
11
 73
7
 74
0
 42
0.0000001
 43
0.0000001
 44
0.0000000001
 40
0.0
 40
0.0
 40
0.0
 40
0.0
 40
0.2860177768
 40
0.5452121725
 40
0.7800520953
 40
1.0
 40
1.0
 40
1.0
 40
1.0
 10
-8.1333723758
 20
13.7049741627
 30
0.0
 10
-8.1416103173
 20
13.6900444716
 30
0.0
 10
-8.1599865371
 20
13.6629060328
 30
0.0
 10
-8.1944680364
 20
13.6309781457
 30
0.0
 10
-8.233114214
 20
13.6115872456
 30
0.0
 10
-8.2607186882
 20
13.6082640758
 30
0.0
 10
-8.2738023485
 20
13.6091369706
 30
0.0
  0
SPLINE
  5
506
100
AcDbEntity
  8
SUPERFICI
100
AcDbSpline
 62
250
  6
CONTINUOUS
 70
0
 71
3
 72
9
 73
5
 74
0
 42
0.0000001
 43
0.0000001
 44
0.0000000001
 40
0.0
 40
0.0
 40
0.0
 40
0.0
 40
0.5143211836
 40
1.0
 40
1.0
 40
1.0
 40
1.0
 10
-0.9605226877
 20
4.568566782
 30
0.0
 10
-0.9695395162
 20
4.5796100965
 30
0.0
 10
-0.9845439272
 20
4.6033767057
 30
0.0
 10
-0.9919546167
 20
4.6306176448
 30
0.0
 10
-0.9933449299
 20
4.6440085618
 30
0.0
  0
SPLINE
  5
507
100
AcDbEntity
  8
SUPERFICI
100
AcDbSpline
 62
250
  6
CONTINUOUS
 70
0
 71
3
 72
9
 73
5
 74
0
 42
0.0000001
 43
0.0000001
 44
0.0000000001
 40
0.0
 40
0.0
 40
0.0
 40
0.0
 40
0.51497021
 40
1.0
 40
1.0
 40
1.0
 40
1.0
 10
-0.9605226877
 20
4.8461543368
 30
0.0
 10
-0.9709392793
 20
4.8589120039
 30
0.0
 10
-0.9878311577
 20
4.8868050511
 30
0.0
 10
-0.9940153857
 20
4.9190267868
 30
0.0
 10
-0.9940161652
 20
4.9345392923
 30
0.0
  0
SPLINE
  5
508
100
AcDbEntity
  8
SUPERFICI
100
AcDbSpline
 62
250
  6
CONTINUOUS
 70
0
 71
3
 72
9
 73
5
 74
0
 42
0.0000001
 43
0.0000001
 44
0.0000000001
 40
0.0
 40
0.0
 40
0.0
 40
0.0
 40
0.5193538051
 40
1.0
 40
1.0
 40
1.0
 40
1.0
 10
0.2263829644
 20
3.1149101718
 30
0.0
 10
0.2263829644
 20
3.1020145828
 30
0.0
 10
0.2297129116
 20
3.0769369388
 30
0.0
 10
0.2416922941
 20
3.0544291772
 30
0.0
 10
0.2492402824
 20
3.0451847409
 30
0.0
  0
SPLINE
  5
509
100
AcDbEntity
  8
SUPERFICI
100
AcDbSpline
 62
250
  6
CONTINUOUS
 70
0
 71
3
 72
9
 73
5
 74
0
 42
0.0000001
 43
0.0000001
 44
0.0000000001
 40
0.0
 40
0.0
 40
0.0
 40
0.0
 40
0.5190699344
 40
1.0
 40
1.0
 40
1.0
 40
1.0
 10
-0.9605226877
 20
4.568566782
 30
0.0
 10
-0.9605226877
 20
4.5564244873
 30
0.0
 10
-0.9575708973
 20
4.5328367523
 30
0.0
 10
-0.9470563432
 20
4.5113343169
 30
0.0
 10
-0.9403554081
 20
4.5022975877
 30
0.0
  0
SPLINE
  5
50A
100
AcDbEntity
  8
SUPERFICI
100
AcDbSpline
 62
250
  6
CONTINUOUS
 70
0
 71
3
 72
11
 73
7
 74
0
 42
0.0000001
 43
0.0000001
 44
0.0000000001
 40
0.0
 40
0.0
 40
0.0
 40
0.0
 40
0.2860230927
 40
0.5452162803
 40
0.7800518855
 40
1.0
 40
1.0
 40
1.0
 40
1.0
 10
0.5666276242
 20
3.0496937816
 30
0.0
 10
0.5583880722
 20
3.0347611717
 30
0.0
 10
0.5400079303
 20
3.0076179455
 30
0.0
 10
0.5055178398
 20
2.9756867381
 30
0.0
 10
0.4668617206
 20
2.956298349
 30
0.0
 10
0.4392513871
 20
2.952981788
 30
0.0
 10
0.4261656599
 20
2.9538587288
 30
0.0
  0
SPLINE
  5
50B
100
AcDbEntity
  8
SUPERFICI
100
AcDbSpline
 62
250
  6
CONTINUOUS
 70
0
 71
3
 72
10
 73
6
 74
0
 42
0.0000001
 43
0.0000001
 44
0.0000000001
 40
0.0
 40
0.0
 40
0.0
 40
0.0
 40
0.472832813
 40
0.7396479864
 40
1.0
 40
1.0
 40
1.0
 40
1.0
 10
0.2263829644
 20
3.3924977266
 30
0.0
 10
0.2626492523
 20
3.3480807765
 30
0.0
 10
0.352559055
 20
3.306434329
 30
0.0
 10
0.4737210806
 20
3.301184593
 30
0.0
 10
0.5373402898
 20
3.3154849385
 30
0.0
 10
0.5666276242
 20
3.3272813365
 30
0.0
  0
SPLINE
  5
50C
100
AcDbEntity
  8
SUPERFICI
100
AcDbSpline
 62
250
  6
CONTINUOUS
 70
0
 71
3
 72
9
 73
5
 74
0
 42
0.0000001
 43
0.0000001
 44
0.0000000001
 40
0.0
 40
0.0
 40
0.0
 40
0.0
 40
0.2370205915
 40
1.0
 40
1.0
 40
1.0
 40
1.0
 10
0.2263829644
 20
3.1149101718
 30
0.0
 10
0.2309104649
 20
3.1093651387
 30
0.0
 10
0.2514471038
 20
3.0871455049
 30
0.0
 10
0.2769905367
 20
3.0698509626
 30
0.0
 10
0.297558682
 20
3.0594600562
 30
0.0
  0
SPLINE
  5
50D
100
AcDbEntity
  8
SUPERFICI
100
AcDbSpline
 62
250
  6
CONTINUOUS
 70
0
 71
3
 72
9
 73
5
 74
0
 42
0.0000001
 43
0.0000001
 44
0.0000000001
 40
0.0
 40
0.0
 40
0.0
 40
0.0
 40
0.2455886841
 40
1.0
 40
1.0
 40
1.0
 40
1.0
 10
0.297558682
 20
3.0594600562
 30
0.0
 10
0.3007957238
 20
3.0578247216
 30
0.0
 10
0.3141110026
 20
3.0514343444
 30
0.0
 10
0.3279299592
 20
3.0461038987
 30
0.0
 10
0.3385255742
 20
3.0426621356
 30
0.0
  0
SPLINE
  5
50E
100
AcDbEntity
  8
SUPERFICI
100
AcDbSpline
 62
250
  6
CONTINUOUS
 70
0
 71
3
 72
9
 73
5
 74
0
 42
0.0000001
 43
0.0000001
 44
0.0000000001
 40
0.0
 40
0.0
 40
0.0
 40
0.0
 40
0.7535498819
 40
1.0
 40
1.0
 40
1.0
 40
1.0
 10
0.3385255742
 20
3.0426621356
 30
0.0
 10
0.3936435565
 20
3.024758216
 30
0.0
 10
0.4750930797
 20
3.0208345329
 30
0.0
 10
0.5490465324
 20
3.0426124423
 30
0.0
 10
0.5666276242
 20
3.0496937816
 30
0.0
  0
SPLINE
  5
50F
100
AcDbEntity
  8
DRAFT
100
AcDbSpline
 62
7
  6
CONTINUOUS
 70
0
 71
3
 72
12
 73
8
 74
0
 42
0.0000001
 43
0.0000001
 44
0.0000000001
 40
0.0
 40
0.0
 40
0.0
 40
0.0
 40
0.1219629497
 40
0.2466202083
 40
0.3734578054
 40
0.501426325
 40
1.0
 40
1.0
 40
1.0
 40
1.0
 10
-10.2784779191
 20
27.0965260676
 30
0.0
 10
-10.239255256
 20
27.1123504638
 30
0.0
 10
-10.1574094662
 20
27.1378545787
 30
0.0
 10
-10.0314583863
 20
27.1683756134
 30
0.0
 10
-9.9007159456
 20
27.1858150213
 30
0.0
 10
-9.6398115991
 20
27.1968330228
 30
0.0
 10
-9.4185771417
 20
27.1565941029
 30
0.0
 10
-9.2587827926
 20
27.0905720418
 30
0.0
  0
SPLINE
  5
510
100
AcDbEntity
  8
SUPERFICI
100
AcDbSpline
 62
250
  6
CONTINUOUS
 70
0
 71
3
 72
9
 73
5
 74
0
 42
0.0000001
 43
0.0000001
 44
0.0000000001
 40
0.0
 40
0.0
 40
0.0
 40
0.0
 40
0.5193397302
 40
1.0
 40
1.0
 40
1.0
 40
1.0
 10
-19.7229621152
 20
27.5477682456
 30
0.0
 10
-19.7229621152
 20
27.5349226999
 30
0.0
 10
-19.7196580725
 20
27.5099445364
 30
0.0
 10
-19.7077794431
 20
27.4875015703
 30
0.0
 10
-19.7002890059
 20
27.4782691434
 30
0.0
  0
SPLINE
  5
511
100
AcDbEntity
  8
SUPERFICI
100
AcDbSpline
 62
250
  6
CONTINUOUS
 70
0
 71
3
 72
9
 73
5
 74
0
 42
0.0000001
 43
0.0000001
 44
0.0000000001
 40
0.0
 40
0.0
 40
0.0
 40
0.0
 40
0.5190690969
 40
1.0
 40
1.0
 40
1.0
 40
1.0
 10
-20.9111776081
 20
29.0030290766
 30
0.0
 10
-20.9111776081
 20
28.990888517
 30
0.0
 10
-20.9082266601
 20
28.9673041958
 30
0.0
 10
-20.8977153522
 20
28.9458041476
 30
0.0
 10
-20.8910163193
 20
28.9367679623
 30
0.0
  0
SPLINE
  5
512
100
AcDbEntity
  8
SUPERFICI
100
AcDbSpline
 62
7
  6
CONTINUOUS
 70
0
 71
3
 72
9
 73
5
 74
0
 42
0.0000001
 43
0.0000001
 44
0.0000000001
 40
0.0
 40
0.0
 40
0.0
 40
0.0
 40
0.2648015374
 40
1.0
 40
1.0
 40
1.0
 40
1.0
 10
-18.5139476756
 20
27.4247014809
 30
0.0
 10
-18.530506073
 20
27.4102407013
 30
0.0
 10
-18.5967138105
 20
27.3607552359
 30
0.0
 10
-18.6819562524
 20
27.3306537617
 30
0.0
 10
-18.742858376
 20
27.3347026821
 30
0.0
  0
SPLINE
  5
513
100
AcDbEntity
  8
SUPERFICI
100
AcDbSpline
 62
250
  6
CONTINUOUS
 70
0
 71
3
 72
11
 73
7
 74
0
 42
0.0000001
 43
0.0000001
 44
0.0000000001
 40
0.0
 40
0.0
 40
0.0
 40
0.0
 40
0.2859748343
 40
0.5451568602
 40
0.780014485
 40
1.0
 40
1.0
 40
1.0
 40
1.0
 10
-19.3825910971
 20
27.4826027847
 30
0.0
 10
-19.3908269786
 20
27.4676685251
 30
0.0
 10
-19.4092019718
 20
27.4405201749
 30
0.0
 10
-19.4436879906
 20
27.4085778168
 30
0.0
 10
-19.4823454327
 20
27.3891727015
 30
0.0
 10
-19.5099607348
 20
27.3858399535
 30
0.0
 10
-19.5230512389
 20
27.3867082462
 30
0.0
  0
SPLINE
  5
514
100
AcDbEntity
  8
SUPERFICI
100
AcDbSpline
 62
250
  6
CONTINUOUS
 70
0
 71
3
 72
9
 73
5
 74
0
 42
0.0000001
 43
0.0000001
 44
0.0000000001
 40
0.0
 40
0.0
 40
0.0
 40
0.0
 40
0.5193538051
 40
1.0
 40
1.0
 40
1.0
 40
1.0
 10
-11.0229621152
 20
16.8924878645
 30
0.0
 10
-11.0229621152
 20
16.8795922756
 30
0.0
 10
-11.019632168
 20
16.8545146315
 30
0.0
 10
-11.0076527855
 20
16.8320068699
 30
0.0
 10
-11.0001047972
 20
16.8227624337
 30
0.0
  0
SPLINE
  5
515
100
AcDbEntity
  8
SUPERFICI
100
AcDbSpline
 62
250
  6
CONTINUOUS
 70
0
 71
3
 72
9
 73
5
 74
0
 42
0.0000001
 43
0.0000001
 44
0.0000000001
 40
0.0
 40
0.0
 40
0.0
 40
0.0
 40
0.5190690969
 40
1.0
 40
1.0
 40
1.0
 40
1.0
 10
-12.2111776081
 20
18.3477486955
 30
0.0
 10
-12.2111776081
 20
18.3356081359
 30
0.0
 10
-12.2082266601
 20
18.3120238147
 30
0.0
 10
-12.1977153522
 20
18.2905237665
 30
0.0
 10
-12.1910163193
 20
18.2814875812
 30
0.0
  0
SPLINE
  5
516
100
AcDbEntity
  8
SUPERFICI
100
AcDbSpline
 62
250
  6
CONTINUOUS
 70
0
 71
3
 72
11
 73
7
 74
0
 42
0.0000001
 43
0.0000001
 44
0.0000000001
 40
0.0
 40
0.0
 40
0.0
 40
0.0
 40
0.2859801255
 40
0.5451609474
 40
0.7800142748
 40
1.0
 40
1.0
 40
1.0
 40
1.0
 10
-10.6825910971
 20
16.8273224036
 30
0.0
 10
-10.6908285834
 20
16.8123852339
 30
0.0
 10
-10.7092074863
 20
16.7852321099
 30
0.0
 10
-10.7437020712
 20
16.7532864396
 30
0.0
 10
-10.7823694269
 20
16.7338838246
 30
0.0
 10
-10.8099905739
 20
16.7305576613
 30
0.0
 10
-10.8230831413
 20
16.7314299861
 30
0.0
  0
SPLINE
  5
517
100
AcDbEntity
  8
DRAFT
100
AcDbSpline
 62
7
  6
CONTINUOUS
 70
0
 71
3
 72
12
 73
8
 74
0
 42
0.0000001
 43
0.0000001
 44
0.0000000001
 40
0.0
 40
0.0
 40
0.0
 40
0.0
 40
0.1219629497
 40
0.2466202083
 40
0.3734578054
 40
0.501426325
 40
1.0
 40
1.0
 40
1.0
 40
1.0
 10
0.9715220809
 20
13.3181462644
 30
0.0
 10
1.010744744
 20
13.3339706606
 30
0.0
 10
1.0925905338
 20
13.3594747755
 30
0.0
 10
1.2185416137
 20
13.3899958102
 30
0.0
 10
1.3492840544
 20
13.4074352182
 30
0.0
 10
1.6101884009
 20
13.4184532196
 30
0.0
 10
1.8314228583
 20
13.3782142997
 30
0.0
 10
1.9912172074
 20
13.3121922386
 30
0.0
  0
SPLINE
  5
518
100
AcDbEntity
  8
SUPERFICI
100
AcDbSpline
 62
7
  6
CONTINUOUS
 70
0
 71
3
 72
9
 73
5
 74
0
 42
0.0000001
 43
0.0000001
 44
0.0000000001
 40
0.0
 40
0.0
 40
0.0
 40
0.0
 40
0.2361506926
 40
1.0
 40
1.0
 40
1.0
 40
1.0
 10
-10.0428571073
 20
16.6794221906
 30
0.0
 10
-10.0232484838
 20
16.6781187855
 30
0.0
 10
-9.939465122
 20
16.6844457687
 30
0.0
 10
-9.8618255873
 20
16.727608362
 30
0.0
 10
-9.8139476756
 20
16.7694210998
 30
0.0
  0
SPLINE
  5
519
100
AcDbEntity
  8
RACCORDO
100
AcDbSpline
 62
250
  6
CONTINUOUS
 70
0
 71
3
 72
22
 73
18
 74
0
 42
0.0000001
 43
0.0000001
 44
0.0000000001
 40
0.0
 40
0.0
 40
0.0
 40
0.0
 40
0.0142329841
 40
0.0289782747
 40
0.0617714633
 40
0.1011874283
 40
0.1483195679
 40
0.2032493604
 40
0.2654436097
 40
0.3339705764
 40
0.4076227997
 40
0.5645077393
 40
0.7237564434
 40
0.8002882044
 40
0.8727013369
 40
0.939667277
 40
1.0
 40
1.0
 40
1.0
 40
1.0
 10
-14.8006011571
 20
2.3205667228
 30
0.0
 10
-14.8221267322
 20
2.3113048537
 30
0.0
 10
-14.8681607852
 20
2.2971963866
 30
0.0
 10
-14.9701425317
 20
2.2884502327
 30
0.0
 10
-15.1130419316
 20
2.3183965116
 30
0.0
 10
-15.2892718381
 20
2.4081995294
 30
0.0
 10
-15.4756237332
 20
2.5494389234
 30
0.0
 10
-15.6687497569
 20
2.7395185673
 30
0.0
 10
-15.8648306136
 20
2.9745031288
 30
0.0
 10
-16.0594859071
 20
3.2493357543
 30
0.0
 10
-16.3165528907
 20
3.6696389474
 30
0.0
 10
-16.6014120743
 20
4.2462819609
 30
0.0
 10
-16.8265964154
 20
4.8536843413
 30
0.0
 10
-16.9622849034
 20
5.3428878644
 30
0.0
 10
-17.0361599814
 20
5.6908821669
 30
0.0
 10
-17.0818475992
 20
6.0167805933
 30
0.0
 10
-17.0936150619
 20
6.2264192553
 30
0.0
 10
-17.0936150619
 20
6.3257527184
 30
0.0
  0
SPLINE
  5
51A
100
AcDbEntity
  8
SUPERFICI
100
AcDbSpline
 62
250
  6
CONTINUOUS
 70
0
 71
3
 72
13
 73
9
 74
0
 42
0.0000001
 43
0.0000001
 44
0.0000000001
 40
0.0
 40
0.0
 40
0.0
 40
0.0
 40
0.4226514289
 40
0.7337990739
 40
0.8450517922
 40
0.9259378405
 40
0.9765841485
 40
1.0
 40
1.0
 40
1.0
 40
1.0
 10
-16.7784136406
 20
28.5396985591
 30
0.0
 10
-16.773155507
 20
28.5344126838
 30
0.0
 10
-16.7639660802
 20
28.5253173748
 30
0.0
 10
-16.7530284231
 20
28.5151152467
 30
0.0
 10
-16.7463192801
 20
28.5093901254
 30
0.0
 10
-16.7427900981
 20
28.5067750836
 30
0.0
 10
-16.7406696964
 20
28.5053928033
 30
0.0
 10
-16.7391135748
 20
28.5049497816
 30
0.0
 10
-16.7388044328
 20
28.5052237433
 30
0.0
  0
SPLINE
  5
51B
100
AcDbEntity
  8
RACCORDO
100
AcDbSpline
 62
250
  6
CONTINUOUS
 70
0
 71
3
 72
10
 73
6
 74
0
 42
0.0000001
 43
0.0000001
 44
0.0000000001
 40
0.0
 40
0.0
 40
0.0
 40
0.0
 40
0.317538574
 40
0.5886419471
 40
1.0
 40
1.0
 40
1.0
 40
1.0
 10
-7.5936150619
 20
-5.3093235598
 30
0.0
 10
-7.5936150619
 20
-5.223149671
 30
0.0
 10
-7.5856191844
 20
-5.0625660279
 30
0.0
 10
-7.5364392526
 20
-4.7974871623
 30
0.0
 10
-7.4504065584
 20
-4.6180731746
 30
0.0
 10
-7.3646664487
 20
-4.5465823388
 30
0.0
  0
SPLINE
  5
51C
100
AcDbEntity
  8
RACCORDO
100
AcDbSpline
 62
250
  6
CONTINUOUS
 70
0
 71
3
 72
13
 73
9
 74
0
 42
0.0000001
 43
0.0000001
 44
0.0000000001
 40
0.0
 40
0.0
 40
0.0
 40
0.0
 40
0.3284075051
 40
0.5984233507
 40
0.7129693188
 40
0.815927725
 40
0.9102310257
 40
1.0
 40
1.0
 40
1.0
 40
1.0
 10
-17.0936150619
 20
6.3257527184
 30
0.0
 10
-17.0936150619
 20
6.4273793543
 30
0.0
 10
-17.0831757378
 20
6.612817573
 30
0.0
 10
-17.0327301911
 20
6.8297639377
 30
0.0
 10
-16.9681599984
 20
6.9667531487
 30
0.0
 10
-16.9123250939
 20
7.0461760172
 30
0.0
 10
-16.8465907029
 20
7.1070218817
 30
0.0
 10
-16.795927354
 20
7.1346133798
 30
0.0
 10
-16.7700185067
 20
7.1446343157
 30
0.0
  0
SPLINE
  5
51D
100
AcDbEntity
  8
SUPERFICI
100
AcDbSpline
 62
250
  6
CONTINUOUS
 70
0
 71
3
 72
13
 73
9
 74
0
 42
0.0000001
 43
0.0000001
 44
0.0000000001
 40
0.0
 40
0.0
 40
0.0
 40
0.0
 40
0.4226514289
 40
0.7337990739
 40
0.8450517922
 40
0.9259378405
 40
0.9765841485
 40
1.0
 40
1.0
 40
1.0
 40
1.0
 10
-8.0784136406
 20
17.884418178
 30
0.0
 10
-8.073155507
 20
17.8791323027
 30
0.0
 10
-8.0639660802
 20
17.8700369937
 30
0.0
 10
-8.0530284231
 20
17.8598348656
 30
0.0
 10
-8.0463192801
 20
17.8541097443
 30
0.0
 10
-8.0427900981
 20
17.8514947025
 30
0.0
 10
-8.0406696964
 20
17.8501124222
 30
0.0
 10
-8.0391135748
 20
17.8496694004
 30
0.0
 10
-8.0388044328
 20
17.8499433622
 30
0.0
  0
SPLINE
  5
51E
100
AcDbEntity
  8
RACCORDO
100
AcDbSpline
 62
250
  6
CONTINUOUS
 70
0
 71
3
 72
13
 73
9
 74
0
 42
0.0000001
 43
0.0000001
 44
0.0000000001
 40
0.0
 40
0.0
 40
0.0
 40
0.0
 40
0.3284075051
 40
0.5984233507
 40
0.7129693188
 40
0.815927725
 40
0.9102310257
 40
1.0
 40
1.0
 40
1.0
 40
1.0
 10
-12.3479788282
 20
-6.2039553417
 30
0.0
 10
-12.3479788282
 20
-6.1019882729
 30
0.0
 10
-12.3375045339
 20
-5.9159288659
 30
0.0
 10
-12.2868900028
 20
-5.6982557657
 30
0.0
 10
-12.2221035103
 20
-5.5608076628
 30
0.0
 10
-12.1660815678
 20
-5.4811187405
 30
0.0
 10
-12.1001269772
 20
-5.420069052
 30
0.0
 10
-12.0492939141
 20
-5.3923851269
 30
0.0
 10
-12.0232982764
 20
-5.3823306225
 30
0.0
  0
SPLINE
  5
51F
100
AcDbEntity
  8
RACCORDO
100
AcDbSpline
 62
250
  6
CONTINUOUS
 70
0
 71
3
 72
20
 73
16
 74
0
 42
0.0000001
 43
0.0000001
 44
0.0000000001
 40
0.0
 40
0.0
 40
0.0
 40
0.0
 40
0.04835702
 40
0.0951568191
 40
0.1413593497
 40
0.1879540873
 40
0.2358881006
 40
0.2860053022
 40
0.3390130641
 40
0.3954716969
 40
0.4558026078
 40
0.5203047197
 40
0.66239889
 40
0.8224627246
 40
1.0
 40
1.0
 40
1.0
 40
1.0
 10
-24.2041319843
 20
14.5353790901
 30
0.0
 10
-24.0942694659
 20
14.6821150111
 30
0.0
 10
-23.8560186281
 20
14.955310611
 30
0.0
 10
-23.4403429718
 20
15.2973539265
 30
0.0
 10
-22.9778829494
 20
15.5599947753
 30
0.0
 10
-22.473288923
 20
15.7408490353
 30
0.0
 10
-21.9313702635
 20
15.8385703106
 30
0.0
 10
-21.3568586246
 20
15.8525116786
 30
0.0
 10
-20.7542127505
 20
15.782509736
 30
0.0
 10
-20.12769254
 20
15.6286586089
 30
0.0
 10
-19.481415487
 20
15.3912873229
 30
0.0
 10
-18.5694596261
 20
14.9497775669
 30
0.0
 10
-17.4059898998
 20
14.177485604
 30
0.0
 10
-16.0424201674
 20
12.9680584457
 30
0.0
 10
-15.1866300436
 20
12.0127728997
 30
0.0
 10
-14.7609928878
 20
11.4914801765
 30
0.0
  0
SPLINE
  5
520
100
AcDbEntity
  8
RACCORDO
100
AcDbSpline
 62
250
  6
CONTINUOUS
 70
0
 71
3
 72
15
 73
11
 74
0
 42
0.0000001
 43
0.0000001
 44
0.0000000001
 40
0.0
 40
0.0
 40
0.0
 40
0.0
 40
0.1094489046
 40
0.2266469306
 40
0.3501914169
 40
0.4784427033
 40
0.6095746226
 40
0.7416181415
 40
0.8724838443
 40
1.0
 40
1.0
 40
1.0
 40
1.0
 10
-14.6523903275
 20
11.3573958127
 30
0.0
 10
-14.1959590949
 20
10.7893520265
 30
0.0
 10
-13.3077644399
 20
9.5666320463
 30
0.0
 10
-12.0900997572
 20
7.576103505
 30
0.0
 10
-10.9521809499
 20
5.3969257403
 30
0.0
 10
-9.9053322857
 20
3.0709190697
 30
0.0
 10
-8.9565872354
 20
0.6426395966
 30
0.0
 10
-8.1097927626
 20
-1.8412116545
 30
0.0
 10
-7.3664643054
 20
-4.3326527101
 30
0.0
 10
-6.9318187176
 20
-5.9974997484
 30
0.0
 10
-6.7307764576
 20
-6.8223423626
 30
0.0
  0
LINE
  5
521
100
AcDbEntity
  8
RACCORDO
100
AcDbLine
 62
250
  6
CONTINUOUS
 10
-6.7307764576
 20
-6.8223423626
 11
-6.7159836719
 21
-6.8831410359
  0
SPLINE
  5
522
100
AcDbEntity
  8
RACCORDO
100
AcDbSpline
 62
250
  6
CONTINUOUS
 70
0
 71
3
 72
22
 73
18
 74
0
 42
0.0000001
 43
0.0000001
 44
0.0000000001
 40
0.0
 40
0.0
 40
0.0
 40
0.0
 40
0.0490055737
 40
0.0937363802
 40
0.1355557412
 40
0.1761741076
 40
0.2174666987
 40
0.2612020853
 40
0.3088308271
 40
0.3614136855
 40
0.4196571128
 40
0.4839855425
 40
0.5546090408
 40
0.6315764783
 40
0.7148131249
 40
0.8041457197
 40
1.0
 40
1.0
 40
1.0
 40
1.0
 10
-6.7159830153
 20
-20.3180463248
 30
0.0
 10
-6.8106094825
 20
-20.4558153428
 30
0.0
 10
-7.0083963608
 20
-20.7086411269
 30
0.0
 10
-7.3499725632
 20
-21.0236909252
 30
0.0
 10
-7.7220452153
 20
-21.2525418298
 30
0.0
 10
-8.1238120691
 20
-21.3923845654
 30
0.0
 10
-8.5526550545
 20
-21.4422345411
 30
0.0
 10
-9.0060447555
 20
-21.403758689
 30
0.0
 10
-9.483047428
 20
-21.2798191798
 30
0.0
 10
-9.9837683184
 20
-21.0729631845
 30
0.0
 10
-10.5083740819
 20
-20.7852516429
 30
0.0
 10
-11.056645424
 20
-20.4185927384
 30
0.0
 10
-11.627895537
 20
-19.975012709
 30
0.0
 10
-12.2209912021
 20
-19.4567814815
 30
0.0
 10
-12.8344296805
 20
-18.8664645278
 30
0.0
 10
-13.7037730404
 20
-17.9588693953
 30
0.0
 10
-14.3385299328
 20
-17.2207718549
 30
0.0
 10
-14.7609928878
 20
-16.7033641543
 30
0.0
  0
SPLINE
  5
523
100
AcDbEntity
  8
RACCORDO
100
AcDbSpline
 62
250
  6
CONTINUOUS
 70
0
 71
3
 72
15
 73
11
 74
0
 42
0.0000001
 43
0.0000001
 44
0.0000000001
 40
0.0
 40
0.0
 40
0.0
 40
0.0
 40
0.1091959121
 40
0.2270041612
 40
0.3514429237
 40
0.4804113886
 40
0.6117814846
 40
0.7434727438
 40
0.8734952513
 40
1.0
 40
1.0
 40
1.0
 40
1.0
 10
-14.7609928878
 20
-16.7033641543
 30
0.0
 10
-15.2277958359
 20
-16.1316475963
 30
0.0
 10
-16.1643603477
 20
-14.9152697656
 30
0.0
 10
-17.524734469
 20
-12.9670082486
 30
0.0
 10
-18.8711318666
 20
-10.848768334
 30
0.0
 10
-20.1706901587
 20
-8.5949545655
 30
0.0
 10
-21.3892745593
 20
-6.2408491511
 30
0.0
 10
-22.4926814723
 20
-3.8224791717
 30
0.0
 10
-23.4478502119
 20
-1.3769089715
 30
0.0
 10
-23.9751364827
 20
0.2766331972
 30
0.0
 10
-24.2041328759
 20
1.1004757061
 30
0.0
  0
LINE
  5
524
100
AcDbEntity
  8
RACCORDO
100
AcDbLine
 62
7
  6
CONTINUOUS
 10
-10.3678866134
 20
-7.6791858034
 11
-11.138250777
 21
-7.9973625349
  0
SPLINE
  5
525
100
AcDbEntity
  8
RACCORDO
100
AcDbSpline
 62
250
  6
CONTINUOUS
 70
0
 71
3
 72
22
 73
18
 74
0
 42
0.0000001
 43
0.0000001
 44
0.0000000001
 40
0.0
 40
0.0
 40
0.0
 40
0.0
 40
0.0142329841
 40
0.0289782747
 40
0.0617714633
 40
0.1011874283
 40
0.1483195679
 40
0.2032493604
 40
0.2654436097
 40
0.3339705764
 40
0.4076227997
 40
0.5645077393
 40
0.7237564434
 40
0.8002882044
 40
0.8727013369
 40
0.939667277
 40
1.0
 40
1.0
 40
1.0
 40
1.0
 10
-10.0472836947
 20
-10.2225580676
 30
0.0
 10
-10.0688813771
 20
-10.2318509625
 30
0.0
 10
-10.1150696367
 20
-10.2460066907
 30
0.0
 10
-10.2173930057
 20
-10.2547821429
 30
0.0
 10
-10.3607710957
 20
-10.2247355487
 30
0.0
 10
-10.5375913441
 20
-10.1346317052
 30
0.0
 10
-10.7245674881
 20
-9.9929191819
 30
0.0
 10
-10.918340453
 20
-9.8022028017
 30
0.0
 10
-11.1150781491
 20
-9.5664310796
 30
0.0
 10
-11.3103855067
 20
-9.290677809
 30
0.0
 10
-11.5683136234
 20
-8.8689666676
 30
0.0
 10
-11.8541270395
 20
-8.2903919925
 30
0.0
 10
-12.080065712
 20
-7.6809549116
 30
0.0
 10
-12.2162087347
 20
-7.1901126352
 30
0.0
 10
-12.2903312824
 20
-6.8409526077
 30
0.0
 10
-12.3361719463
 20
-6.5139624738
 30
0.0
 10
-12.3479788281
 20
-6.3036215559
 30
0.0
 10
-12.3479788282
 20
-6.2039553417
 30
0.0
  0
LINE
  5
526
100
AcDbEntity
  8
DRAFT
100
AcDbLine
 62
7
  6
CONTINUOUS
 10
-9.2622068221
 20
26.8115799887
 11
-9.2587827926
 21
27.0905720418
  0
SPLINE
  5
527
100
AcDbEntity
  8
SUPERFICI
100
AcDbSpline
 62
7
  6
CONTINUOUS
 70
0
 71
3
 72
11
 73
7
 74
0
 42
0.0000001
 43
0.0000001
 44
0.0000000001
 40
0.0
 40
0.0
 40
0.0
 40
0.0
 40
0.176667195
 40
0.4048363585
 40
0.6822690425
 40
1.0
 40
1.0
 40
1.0
 40
1.0
 10
-0.3270063522
 20
6.6831236527
 30
0.0
 10
-0.3176193661
 20
6.6990368537
 30
0.0
 10
-0.3048012338
 20
6.740372211
 30
0.0
 10
-0.3000536255
 20
6.8117831259
 30
0.0
 10
-0.3071972886
 20
6.8978668589
 30
0.0
 10
-0.3192131095
 20
6.9590434626
 30
0.0
 10
-0.3270063522
 20
6.9913443528
 30
0.0
  0
SPLINE
  5
528
100
AcDbEntity
  8
SUPERFICI
100
AcDbSpline
 62
7
  6
CONTINUOUS
 70
0
 71
3
 72
11
 73
7
 74
0
 42
0.0000001
 43
0.0000001
 44
0.0000000001
 40
0.0
 40
0.0
 40
0.0
 40
0.0
 40
0.176667195
 40
0.4048363585
 40
0.6822690425
 40
1.0
 40
1.0
 40
1.0
 40
1.0
 10
-11.5770063522
 20
20.4615034559
 30
0.0
 10
-11.5676193661
 20
20.4774166569
 30
0.0
 10
-11.5548012338
 20
20.5187520142
 30
0.0
 10
-11.5500536255
 20
20.5901629291
 30
0.0
 10
-11.5571972886
 20
20.6762466621
 30
0.0
 10
-11.5692131095
 20
20.7374232658
 30
0.0
 10
-11.5770063522
 20
20.769724156
 30
0.0
  0
SPLINE
  5
529
100
AcDbEntity
  8
SUPERFICI
100
AcDbSpline
 62
250
  6
CONTINUOUS
 70
0
 71
3
 72
11
 73
7
 74
0
 42
0.0000001
 43
0.0000001
 44
0.0000000001
 40
0.0
 40
0.0
 40
0.0
 40
0.0
 40
0.2229877572
 40
0.4596037685
 40
0.7181564971
 40
1.0
 40
1.0
 40
1.0
 40
1.0
 10
3.2953287243
 20
-29.4624036872
 30
0.0
 10
3.2953250376
 20
-29.4778272776
 30
0.0
 10
3.2891914377
 20
-29.509872976
 30
0.0
 10
3.2631562749
 20
-29.5531528912
 30
0.0
 10
3.2228563305
 20
-29.58964946
 30
0.0
 10
3.1895998846
 20
-29.6074940688
 30
0.0
 10
3.1715863594
 20
-29.6149471987
 30
0.0
  0
SPLINE
  5
52A
100
AcDbEntity
  8
SUPERFICI
100
AcDbSpline
 62
250
  6
CONTINUOUS
 70
0
 71
3
 72
9
 73
5
 74
0
 42
0.0000001
 43
0.0000001
 44
0.0000000001
 40
0.0
 40
0.0
 40
0.0
 40
0.0
 40
0.4716397776
 40
1.0
 40
1.0
 40
1.0
 40
1.0
 10
3.2388537078
 20
-29.3041053018
 30
0.0
 10
3.2293005895
 20
-29.2924548853
 30
0.0
 10
3.2024979151
 20
-29.2727551877
 30
0.0
 10
3.170426753
 20
-29.2661474639
 30
0.0
 10
3.1535820745
 20
-29.2650836175
 30
0.0
  0
SPLINE
  5
52B
100
AcDbEntity
  8
DRAFT
100
AcDbSpline
 62
7
  6
CONTINUOUS
 70
0
 71
3
 72
9
 73
5
 74
0
 42
0.0000001
 43
0.0000001
 44
0.0000000001
 40
0.0
 40
0.0
 40
0.0
 40
0.0
 40
0.2345765127
 40
1.0
 40
1.0
 40
1.0
 40
1.0
 10
2.3558432417
 20
12.5818491678
 30
0.0
 10
2.3332795368
 20
12.6094839496
 30
0.0
 10
2.2281642705
 20
12.7199975434
 30
0.0
 10
2.0932635969
 20
12.7996422856
 30
0.0
 10
1.9854659876
 20
12.8435902598
 30
0.0
  0
SPLINE
  5
52C
100
AcDbEntity
  8
SUPERFICI
100
AcDbSpline
 62
7
  6
CONTINUOUS
 70
0
 71
3
 72
17
 73
13
 74
0
 42
0.0000001
 43
0.0000001
 44
0.0000000001
 40
0.0
 40
0.0
 40
0.0
 40
0.0
 40
0.0507062542
 40
0.1051037038
 40
0.2236004953
 40
0.3524626511
 40
0.4875975958
 40
0.6244817822
 40
0.7584602611
 40
0.8850077647
 40
0.9441748904
 40
1.0
 40
1.0
 40
1.0
 40
1.0
 10
3.0229936478
 20
1.8502933843
 30
0.0
 10
3.0229936478
 20
1.8623912473
 30
0.0
 10
3.022685956
 20
1.8874834524
 30
0.0
 10
3.0177749949
 20
1.940652655
 30
0.0
 10
3.0048763876
 20
2.0116092507
 30
0.0
 10
2.9812043048
 20
2.0998257486
 30
0.0
 10
2.9498132139
 20
2.1902546899
 30
0.0
 10
2.9120393834
 20
2.2795272269
 30
0.0
 10
2.869403899
 20
2.3642932626
 30
0.0
 10
2.8303501425
 20
2.4299124665
 30
0.0
 10
2.7979138311
 20
2.4775499504
 30
0.0
 10
2.7816077218
 20
2.4996447726
 30
0.0
 10
2.7731839477
 20
2.5099617468
 30
0.0
  0
SPLINE
  5
52D
100
AcDbEntity
  8
SUPERFICI
100
AcDbSpline
 62
250
  6
CONTINUOUS
 70
0
 71
3
 72
11
 73
7
 74
0
 42
0.0000001
 43
0.0000001
 44
0.0000000001
 40
0.0
 40
0.0
 40
0.0
 40
0.0
 40
0.2627956444
 40
0.5287659948
 40
0.7792871774
 40
1.0
 40
1.0
 40
1.0
 40
1.0
 10
-2.6329797709
 20
-0.6062063452
 30
0.0
 10
-2.6842119928
 20
-0.6284582068
 30
0.0
 10
-2.7822412776
 20
-0.6855282773
 30
0.0
 10
-2.9061437207
 20
-0.7971955018
 30
0.0
 10
-2.9982853632
 20
-0.925439497
 30
0.0
 10
-3.0345397777
 20
-1.0208789623
 30
0.0
 10
-3.0425755242
 20
-1.0670970315
 30
0.0
  0
SPLINE
  5
52E
100
AcDbEntity
  8
SUPERFICI
100
AcDbSpline
 62
250
  6
CONTINUOUS
 70
0
 71
3
 72
11
 73
7
 74
0
 42
0.0000001
 43
0.0000001
 44
0.0000000001
 40
0.0
 40
0.0
 40
0.0
 40
0.0
 40
0.2624156089
 40
0.5283650619
 40
0.7790874659
 40
1.0
 40
1.0
 40
1.0
 40
1.0
 10
-2.8980467149
 20
0.0468354983
 30
0.0
 10
-3.0000926902
 20
0.0016653869
 30
0.0
 10
-3.1952792361
 20
-0.1137838591
 30
0.0
 10
-3.4417627268
 20
-0.3386116702
 30
0.0
 10
-3.6250235921
 20
-0.5961418672
 30
0.0
 10
-3.6971543127
 20
-0.7873765281
 30
0.0
 10
-3.7131516272
 20
-0.8799509094
 30
0.0
  0
SPLINE
  5
52F
100
AcDbEntity
  8
SUPERFICI
100
AcDbSpline
 62
250
  6
CONTINUOUS
 70
0
 71
3
 72
11
 73
7
 74
0
 42
0.0000001
 43
0.0000001
 44
0.0000000001
 40
0.0
 40
0.0
 40
0.0
 40
0.0
 40
0.2211110982
 40
0.4855408742
 40
0.7575907786
 40
1.0
 40
1.0
 40
1.0
 40
1.0
 10
-2.6329797709
 20
-0.6062063452
 30
0.0
 10
-2.6364631101
 20
-0.5538274252
 30
0.0
 10
-2.6591586062
 20
-0.4399790888
 30
0.0
 10
-2.7173615599
 20
-0.2694883328
 30
0.0
 10
-2.7969089808
 20
-0.1021472629
 30
0.0
 10
-2.8625613837
 20
0.0015263766
 30
0.0
 10
-2.8980467149
 20
0.0468354983
 30
0.0
  0
SPLINE
  5
530
100
AcDbEntity
  8
SUPERFICI
100
AcDbSpline
 62
250
  6
CONTINUOUS
 70
0
 71
3
 72
9
 73
5
 74
0
 42
0.0000001
 43
0.0000001
 44
0.0000000001
 40
0.0
 40
0.0
 40
0.0
 40
0.0
 40
0.2562293497
 40
1.0
 40
1.0
 40
1.0
 40
1.0
 10
-3.0425755242
 20
-1.0670970315
 30
0.0
 10
-3.1686733908
 20
-1.7924356699
 30
0.0
 10
-3.6118799748
 20
-4.631392094
 30
0.0
 10
-3.8540204633
 20
-7.5028984966
 30
0.0
 10
-3.9037884889
 20
-9.63937806
 30
0.0
  0
SPLINE
  5
531
100
AcDbEntity
  8
SUPERFICI
100
AcDbSpline
 62
250
  6
CONTINUOUS
 70
0
 71
3
 72
9
 73
5
 74
0
 42
0.0000001
 43
0.0000001
 44
0.0000000001
 40
0.0
 40
0.0
 40
0.0
 40
0.0
 40
0.2562300925
 40
1.0
 40
1.0
 40
1.0
 40
1.0
 10
-3.7131516272
 20
-0.8799509094
 30
0.0
 10
-3.8399468651
 20
-1.6093497342
 30
0.0
 10
-4.2856033663
 20
-4.4641882084
 30
0.0
 10
-4.5290845266
 20
-7.3517542739
 30
0.0
 10
-4.5791278351
 20
-9.5001805669
 30
0.0
  0
SPLINE
  5
532
100
AcDbEntity
  8
SUPERFICI
100
AcDbSpline
 62
250
  6
CONTINUOUS
 70
0
 71
3
 72
11
 73
7
 74
0
 42
0.0000001
 43
0.0000001
 44
0.0000000001
 40
0.0
 40
0.0
 40
0.0
 40
0.0
 40
0.251388558
 40
0.516296325
 40
0.7722441692
 40
1.0
 40
1.0
 40
1.0
 40
1.0
 10
-3.0425755242
 20
-1.0670970315
 30
0.0
 10
-3.1014788533
 20
-1.0830018209
 30
0.0
 10
-3.2280431669
 20
-1.0961560937
 30
0.0
 10
-3.4151718508
 20
-1.0683309214
 30
0.0
 10
-3.5847669845
 20
-0.9982606344
 30
0.0
 10
-3.6782724005
 20
-0.9228344198
 30
0.0
 10
-3.7131516258
 20
-0.879950909
 30
0.0
  0
SPLINE
  5
533
100
AcDbEntity
  8
SUPERFICI
100
AcDbSpline
 62
250
  6
CONTINUOUS
 70
0
 71
3
 72
11
 73
7
 74
0
 42
0.0000001
 43
0.0000001
 44
0.0000000001
 40
0.0
 40
0.0
 40
0.0
 40
0.0
 40
0.2580425358
 40
0.5229611585
 40
0.7751168353
 40
1.0
 40
1.0
 40
1.0
 40
1.0
 10
-3.9037884889
 20
-9.63937806
 30
0.0
 10
-3.9623627355
 20
-9.661436511
 30
0.0
 10
-4.0886331935
 20
-9.6873690163
 30
0.0
 10
-4.2783578775
 20
-9.675108402
 30
0.0
 10
-4.4505418316
 20
-9.6153246131
 30
0.0
 10
-4.5446374884
 20
-9.5424392306
 30
0.0
 10
-4.579127835
 20
-9.5001805669
 30
0.0
  0
SPLINE
  5
534
100
AcDbEntity
  8
SUPERFICI
100
AcDbSpline
 62
250
  6
CONTINUOUS
 70
0
 71
3
 72
9
 73
5
 74
0
 42
0.0000001
 43
0.0000001
 44
0.0000000001
 40
0.0
 40
0.0
 40
0.0
 40
0.0
 40
0.5073030165
 40
1.0
 40
1.0
 40
1.0
 40
1.0
 10
-3.9037884889
 20
-23.0609718737
 30
0.0
 10
-3.8718927086
 20
-24.4052150923
 30
0.0
 10
-3.7015825051
 20
-27.0537868101
 30
0.0
 10
-3.3002569441
 20
-29.6779056238
 30
0.0
 10
-3.0425755242
 20
-30.9581382601
 30
0.0
  0
SPLINE
  5
535
100
AcDbEntity
  8
SUPERFICI
100
AcDbSpline
 62
250
  6
CONTINUOUS
 70
0
 71
3
 72
9
 73
5
 74
0
 42
0.0000001
 43
0.0000001
 44
0.0000000001
 40
0.0
 40
0.0
 40
0.0
 40
0.0
 40
0.5073047214
 40
1.0
 40
1.0
 40
1.0
 40
1.0
 10
-4.5791278351
 20
-22.9352094095
 30
0.0
 10
-4.5470558382
 20
-24.2869560807
 30
0.0
 10
-4.375804811
 20
-26.9503031122
 30
0.0
 10
-3.9722593358
 20
-29.5890632168
 30
0.0
 10
-3.7131516272
 20
-30.876435253
 30
0.0
  0
SPLINE
  5
536
100
AcDbEntity
  8
SUPERFICI
100
AcDbSpline
 62
250
  6
CONTINUOUS
 70
0
 71
3
 72
12
 73
8
 74
0
 42
0.0000001
 43
0.0000001
 44
0.0000000001
 40
0.0
 40
0.0
 40
0.0
 40
0.0
 40
0.2597034452
 40
0.3929655431
 40
0.5250527054
 40
0.7759669158
 40
1.0
 40
1.0
 40
1.0
 40
1.0
 10
-3.9037884889
 20
-23.0609718737
 30
0.0
 10
-3.9621035694
 20
-23.084724877
 30
0.0
 10
-4.0565785943
 20
-23.1068242658
 30
0.0
 10
-4.1840885536
 20
-23.1101870323
 30
0.0
 10
-4.308835679
 20
-23.0961728079
 30
0.0
 10
-4.4506506416
 20
-23.0494525383
 30
0.0
 10
-4.5447661835
 20
-22.9772781626
 30
0.0
 10
-4.5791278337
 20
-22.9352094089
 30
0.0
  0
SPLINE
  5
537
100
AcDbEntity
  8
SUPERFICI
100
AcDbSpline
 62
250
  6
CONTINUOUS
 70
0
 71
3
 72
14
 73
10
 74
0
 42
0.0000001
 43
0.0000001
 44
0.0000000001
 40
0.0
 40
0.0
 40
0.0
 40
0.0
 40
0.1110607258
 40
0.2183878522
 40
0.3268995559
 40
0.4412293429
 40
0.5647532573
 40
0.6992209794
 40
1.0
 40
1.0
 40
1.0
 40
1.0
 10
-3.0425755242
 20
-30.9581382601
 30
0.0
 10
-3.0389724172
 20
-30.9760372254
 30
0.0
 10
-3.0276563472
 20
-31.0106059638
 30
0.0
 10
-2.9973555003
 20
-31.0558167705
 30
0.0
 10
-2.9552810333
 20
-31.0911871592
 30
0.0
 10
-2.903193162
 20
-31.1155516862
 30
0.0
 10
-2.8429105466
 20
-31.1284963031
 30
0.0
 10
-2.750671469
 20
-31.1304684764
 30
0.0
 10
-2.6796569581
 20
-31.1142594949
 30
0.0
 10
-2.6329797709
 20
-31.0979421749
 30
0.0
  0
SPLINE
  5
538
100
AcDbEntity
  8
SUPERFICI
100
AcDbSpline
 62
250
  6
CONTINUOUS
 70
0
 71
3
 72
9
 73
5
 74
0
 42
0.0000001
 43
0.0000001
 44
0.0000000001
 40
0.0
 40
0.0
 40
0.0
 40
0.0
 40
0.5091090764
 40
1.0
 40
1.0
 40
1.0
 40
1.0
 10
-3.7131516272
 20
-30.876435253
 30
0.0
 10
-3.7065761733
 20
-30.9092254056
 30
0.0
 10
-3.6866295995
 20
-30.9725229781
 30
0.0
 10
-3.6516082261
 20
-31.0290521695
 30
0.0
 10
-3.6312392962
 20
-31.054050667
 30
0.0
  0
SPLINE
  5
539
100
AcDbEntity
  8
SUPERFICI
100
AcDbSpline
 62
250
  6
CONTINUOUS
 70
0
 71
3
 72
11
 73
7
 74
0
 42
0.0000001
 43
0.0000001
 44
0.0000000001
 40
0.0
 40
0.0
 40
0.0
 40
0.0
 40
0.2657429729
 40
0.5302660591
 40
0.7777158797
 40
1.0
 40
1.0
 40
1.0
 40
1.0
 10
-3.0425755242
 20
-30.9581382601
 30
0.0
 10
-3.0994419255
 20
-30.987361673
 30
0.0
 10
-3.2225687111
 20
-31.0282803449
 30
0.0
 10
-3.412098147
 20
-31.0350705318
 30
0.0
 10
-3.5854442063
 20
-30.9877443737
 30
0.0
 10
-3.6792855199
 20
-30.9178260732
 30
0.0
 10
-3.7131514134
 20
-30.8764351394
 30
0.0
  0
SPLINE
  5
53A
100
AcDbEntity
  8
SUPERFICI
100
AcDbSpline
 62
250
  6
CONTINUOUS
 70
0
 71
3
 72
12
 73
8
 74
0
 42
0.0000001
 43
0.0000001
 44
0.0000000001
 40
0.0
 40
0.0
 40
0.0
 40
0.0
 40
0.3232408505
 40
0.5300118367
 40
0.7075309968
 40
0.8608700431
 40
1.0
 40
1.0
 40
1.0
 40
1.0
 10
-2.6329797709
 20
-31.0979421749
 30
0.0
 10
-2.6342682773
 20
-31.1183275014
 30
0.0
 10
-2.6383441506
 20
-31.1517399763
 30
0.0
 10
-2.6507944856
 20
-31.194853837
 30
0.0
 10
-2.6660601139
 20
-31.2254881291
 30
0.0
 10
-2.685691516
 20
-31.2483010349
 30
0.0
 10
-2.7020786322
 20
-31.2578039216
 30
0.0
 10
-2.7103778265
 20
-31.2607054999
 30
0.0
  0
SPLINE
  5
53B
100
AcDbEntity
  8
SUPERFICI
100
AcDbSpline
 62
7
  6
CONTINUOUS
 70
0
 71
3
 72
12
 73
8
 74
0
 42
0.0000001
 43
0.0000001
 44
0.0000000001
 40
0.0
 40
0.0
 40
0.0
 40
0.0
 40
0.3243308603
 40
0.5321971047
 40
0.7099904458
 40
0.8626968289
 40
1.0
 40
1.0
 40
1.0
 40
1.0
 10
3.0229936478
 20
-29.120659986
 30
0.0
 10
3.0229936478
 20
-29.1398260263
 30
0.0
 10
3.0221316104
 20
-29.1714341019
 30
0.0
 10
3.0129577681
 20
-29.2125710234
 30
0.0
 10
3.0007035576
 20
-29.2421693055
 30
0.0
 10
2.9839374677
 20
-29.2646171067
 30
0.0
 10
2.9693648017
 20
-29.274444645
 30
0.0
 10
2.9618874673
 20
-29.2775947784
 30
0.0
  0
SPLINE
  5
53C
100
AcDbEntity
  8
SUPERFICI
100
AcDbSpline
 62
250
  6
CONTINUOUS
 70
0
 71
3
 72
11
 73
7
 74
0
 42
0.0000001
 43
0.0000001
 44
0.0000000001
 40
0.0
 40
0.0
 40
0.0
 40
0.0
 40
0.2213199424
 40
0.4724497217
 40
0.7383534642
 40
1.0
 40
1.0
 40
1.0
 40
1.0
 10
-25.4921937146
 20
25.793819191
 30
0.0
 10
-25.4763413971
 20
25.8866805404
 30
0.0
 10
-25.4049570547
 20
26.0786452791
 30
0.0
 10
-25.2237210833
 20
26.3382597242
 30
0.0
 10
-24.9798815308
 20
26.5660562235
 30
0.0
 10
-24.786458325
 20
26.6841128653
 30
0.0
 10
-24.6852619906
 20
26.7306156691
 30
0.0
  0
SPLINE
  5
53D
100
AcDbEntity
  8
SUPERFICI
100
AcDbSpline
 62
250
  6
CONTINUOUS
 70
0
 71
3
 72
9
 73
5
 74
0
 42
0.0000001
 43
0.0000001
 44
0.0000000001
 40
0.0
 40
0.0
 40
0.0
 40
0.0
 40
0.2437325678
 40
1.0
 40
1.0
 40
1.0
 40
1.0
 10
-26.340985038
 20
17.1525424343
 30
0.0
 10
-26.3248846954
 20
17.8581454277
 30
0.0
 10
-26.2021502372
 20
20.7517062402
 30
0.0
 10
-25.8585252307
 20
23.6347207558
 30
0.0
 10
-25.4921937146
 20
25.793819191
 30
0.0
  0
LINE
  5
53E
100
AcDbEntity
  8
SUPERFICI
100
AcDbLine
 62
250
  6
CONTINUOUS
 10
-26.340985038
 20
3.7175135918
 11
-26.3449587377
 21
3.8905683296
  0
LINE
  5
53F
100
AcDbEntity
  8
SUPERFICI
100
AcDbLine
 62
250
  6
CONTINUOUS
 10
-25.4921937146
 20
-4.2026651526
 11
-25.5190951832
 21
-4.0657816753
  0
SPLINE
  5
540
100
AcDbEntity
  8
SUPERFICI
100
AcDbSpline
 62
250
  6
CONTINUOUS
 70
0
 71
3
 72
9
 73
5
 74
0
 42
0.0000001
 43
0.0000001
 44
0.0000000001
 40
0.0
 40
0.0
 40
0.0
 40
0.0
 40
0.4922151682
 40
1.0
 40
1.0
 40
1.0
 40
1.0
 10
-25.5190951832
 20
-4.0657816753
 30
0.0
 10
-25.7648641954
 20
-2.8042310859
 30
0.0
 10
-26.1475206888
 20
-0.2173947557
 30
0.0
 10
-26.3101406021
 20
2.3919496461
 30
0.0
 10
-26.340985038
 20
3.7175135918
 30
0.0
  0
SPLINE
  5
541
100
AcDbEntity
  8
SUPERFICI
100
AcDbSpline
 62
250
  6
CONTINUOUS
 70
0
 71
3
 72
11
 73
7
 74
0
 42
0.0000001
 43
0.0000001
 44
0.0000000001
 40
0.0
 40
0.0
 40
0.0
 40
0.0
 40
0.1711820396
 40
0.3854832738
 40
0.6614619159
 40
1.0
 40
1.0
 40
1.0
 40
1.0
 10
-6.9427397943
 20
16.8942812865
 30
0.0
 10
-6.9366702508
 20
16.8966922963
 30
0.0
 10
-6.9210898301
 20
16.897365646
 30
0.0
 10
-6.8976988312
 20
16.8867093626
 30
0.0
 10
-6.872863518
 20
16.8668668541
 30
0.0
 10
-6.8571466131
 20
16.8493439415
 30
0.0
 10
-6.849043922
 20
16.8392859189
 30
0.0
  0
SPLINE
  5
542
100
AcDbEntity
  8
SUPERFICI
100
AcDbSpline
 62
7
  6
CONTINUOUS
 70
0
 71
3
 72
9
 73
5
 74
0
 42
0.0000001
 43
0.0000001
 44
0.0000000001
 40
0.0
 40
0.0
 40
0.0
 40
0.0
 40
0.2361293335
 40
1.0
 40
1.0
 40
1.0
 40
1.0
 10
1.2066556832
 20
2.9015307402
 30
0.0
 10
1.2262590656
 20
2.9002201258
 30
0.0
 10
1.3100323809
 20
2.9065165799
 30
0.0
 10
1.3876733278
 20
2.9496476453
 30
0.0
 10
1.4355619428
 20
2.9914362032
 30
0.0
  0
SPLINE
  5
543
100
AcDbEntity
  8
RACCORDO
100
AcDbSpline
 62
250
  6
CONTINUOUS
 70
0
 71
3
 72
20
 73
16
 74
0
 42
0.0000001
 43
0.0000001
 44
0.0000000001
 40
0.0
 40
0.0
 40
0.0
 40
0.0
 40
0.0379868665
 40
0.0763320655
 40
0.1161614334
 40
0.1584594244
 40
0.204018006
 40
0.25343219
 40
0.3071232008
 40
0.365369669
 40
0.4283365046
 40
0.4960988783
 40
0.6459399833
 40
0.8143273047
 40
1.0
 40
1.0
 40
1.0
 40
1.0
 10
-7.5238839844
 20
-20.596818079
 30
0.0
 10
-7.6232197217
 20
-20.6415273184
 30
0.0
 10
-7.8311574272
 20
-20.7141237186
 30
0.0
 10
-8.1617090079
 20
-20.7667815191
 30
0.0
 10
-8.5086505466
 20
-20.763342659
 30
0.0
 10
-8.8713014742
 20
-20.7048652223
 30
0.0
 10
-9.2495412382
 20
-20.5925663442
 30
0.0
 10
-9.6433683899
 20
-20.4275411748
 30
0.0
 10
-10.0527536986
 20
-20.2108024986
 30
0.0
 10
-10.4775210129
 20
-19.9433482475
 30
0.0
 10
-10.9173513931
 20
-19.626251793
 30
0.0
 10
-11.5443812138
 20
-19.1216026305
 30
0.0
 10
-12.3577222039
 20
-18.3689185738
 30
0.0
 10
-13.3515971247
 20
-17.3190131699
 30
0.0
 10
-14.0103054246
 20
-16.5457507297
 30
0.0
 10
-14.3470539635
 20
-16.1333192787
 30
0.0
  0
SPLINE
  5
544
100
AcDbEntity
  8
RACCORDO
100
AcDbSpline
 62
250
  6
CONTINUOUS
 70
0
 71
3
 72
18
 73
14
 74
0
 42
0.0000001
 43
0.0000001
 44
0.0000000001
 40
0.0
 40
0.0
 40
0.0
 40
0.0
 40
0.1669891607
 40
0.2472612059
 40
0.3250333938
 40
0.47210601
 40
0.6064987194
 40
0.7268663885
 40
0.7815298459
 40
0.8324373662
 40
0.8796097419
 40
0.9231400387
 40
1.0
 40
1.0
 40
1.0
 40
1.0
 10
-6.7159871021
 20
-6.883136835
 30
0.0
 10
-6.5351548026
 20
-7.6251347815
 30
0.0
 10
-6.2925281476
 20
-8.7302471683
 30
0.0
 10
-6.030068779
 20
-10.1935608494
 30
0.0
 10
-5.8208208464
 20
-11.5733481048
 30
0.0
 10
-5.642657328
 20
-13.207738114
 30
0.0
 10
-5.5646997714
 20
-15.0452803853
 30
0.0
 10
-5.618196721
 20
-16.4616566113
 30
0.0
 10
-5.7391895539
 20
-17.4883920342
 30
0.0
 10
-5.8622511187
 20
-18.1764567303
 30
0.0
 10
-6.0202519907
 20
-18.8053671455
 30
0.0
 10
-6.2665987947
 20
-19.5311302332
 30
0.0
 10
-6.5157615241
 20
-20.0291259226
 30
0.0
 10
-6.7159865414
 20
-20.3180420061
 30
0.0
  0
SPLINE
  5
545
100
AcDbEntity
  8
RACCORDO
100
AcDbSpline
 62
250
  6
CONTINUOUS
 70
0
 71
3
 72
17
 73
13
 74
0
 42
0.0000001
 43
0.0000001
 44
0.0000000001
 40
0.0
 40
0.0
 40
0.0
 40
0.0
 40
0.1652698721
 40
0.3216127148
 40
0.4672186141
 40
0.6005902798
 40
0.7206423702
 40
0.7755078726
 40
0.8269049055
 40
0.874892659
 40
0.9196004885
 40
1.0
 40
1.0
 40
1.0
 40
1.0
 10
-24.2041293405
 20
1.1004713762
 30
0.0
 10
-24.4082094906
 20
1.8326011118
 30
0.0
 10
-24.769845595
 20
3.2676004754
 30
0.0
 10
-25.1759351237
 20
5.3787851395
 30
0.0
 10
-25.4258895601
 20
7.3667786564
 30
0.0
 10
-25.5153085814
 20
9.2016060149
 30
0.0
 10
-25.453335449
 20
10.6209431275
 30
0.0
 10
-25.3146659443
 20
11.6530966932
 30
0.0
 10
-25.1735514359
 20
12.3488380144
 30
0.0
 10
-24.9926995976
 20
12.9872913848
 30
0.0
 10
-24.7099485877
 20
13.7317135841
 30
0.0
 10
-24.4268986355
 20
14.2402792663
 30
0.0
 10
-24.2041285626
 20
14.5353748991
 30
0.0
  0
SPLINE
  5
546
100
AcDbEntity
  8
SUPERFICI
100
AcDbSpline
 62
250
  6
CONTINUOUS
 70
0
 71
3
 72
9
 73
5
 74
0
 42
0.0000001
 43
0.0000001
 44
0.0000000001
 40
0.0
 40
0.0
 40
0.0
 40
0.0
 40
0.4859022527
 40
1.0
 40
1.0
 40
1.0
 40
1.0
 10
-5.4053803748
 20
14.9005896321
 30
0.0
 10
-5.406791297
 20
14.8873763688
 30
0.0
 10
-5.4141148783
 20
14.8605185079
 30
0.0
 10
-5.4288374808
 20
14.8370304319
 30
0.0
 10
-5.4376817211
 20
14.8261012059
 30
0.0
  0
SPLINE
  5
547
100
AcDbEntity
  8
SUPERFICI
100
AcDbSpline
 62
250
  6
CONTINUOUS
 70
0
 71
3
 72
9
 73
5
 74
0
 42
0.0000001
 43
0.0000001
 44
0.0000000001
 40
0.0
 40
0.0
 40
0.0
 40
0.0
 40
0.2357940489
 40
1.0
 40
1.0
 40
1.0
 40
1.0
 10
-5.4376817211
 20
14.8261012059
 30
0.0
 10
-5.4426881971
 20
14.8199144781
 30
0.0
 10
-5.4657165329
 20
14.795132185
 30
0.0
 10
-5.4948944059
 20
14.7765047691
 30
0.0
 10
-5.5183268229
 20
14.7657228357
 30
0.0
  0
SPLINE
  5
548
100
AcDbEntity
  8
SUPERFICI
100
AcDbSpline
 62
250
  6
CONTINUOUS
 70
0
 71
3
 72
11
 73
7
 74
0
 42
0.0000001
 43
0.0000001
 44
0.0000000001
 40
0.0
 40
0.0
 40
0.0
 40
0.0
 40
0.222987956
 40
0.4596006124
 40
0.7181525724
 40
1.0
 40
1.0
 40
1.0
 40
1.0
 10
-5.4046712724
 20
15.1976533392
 30
0.0
 10
-5.4046709169
 20
15.1822273321
 30
0.0
 10
-5.4107981201
 20
15.1501750844
 30
0.0
 10
-5.436831417
 20
15.1068846619
 30
0.0
 10
-5.477135414
 20
15.0703795526
 30
0.0
 10
-5.5103970586
 20
15.0525314458
 30
0.0
 10
-5.5284136406
 20
15.0450770511
 30
0.0
  0
SPLINE
  5
549
100
AcDbEntity
  8
DRAFT
100
AcDbSpline
 62
7
  6
CONTINUOUS
 70
0
 71
3
 72
14
 73
10
 74
0
 42
0.0000001
 43
0.0000001
 44
0.0000000001
 40
0.0
 40
0.0
 40
0.0
 40
0.0
 40
0.3027806085
 40
0.4414475605
 40
0.5711733548
 40
0.6918018065
 40
0.8033122632
 40
0.9058976424
 40
1.0
 40
1.0
 40
1.0
 40
1.0
 10
-11.3813003462
 20
-14.8379938243
 30
0.0
 10
-10.954427157
 20
-15.3608045735
 30
0.0
 10
-10.3032567162
 20
-16.1009158515
 30
0.0
 10
-9.3925176032
 20
-16.9913663248
 30
0.0
 10
-8.7392519485
 20
-17.5624881895
 30
0.0
 10
-8.0988353801
 20
-18.0539746264
 30
0.0
 10
-7.4740943053
 20
-18.4634624419
 30
0.0
 10
-6.8680197892
 20
-18.7889822594
 30
0.0
 10
-6.4612794588
 20
-18.9557181294
 30
0.0
 10
-6.2624728518
 20
-19.0226432426
 30
0.0
  0
SPLINE
  5
54A
100
AcDbEntity
  8
RACCORDO
100
AcDbSpline
 62
250
  6
CONTINUOUS
 70
0
 71
3
 72
15
 73
11
 74
0
 42
0.0000001
 43
0.0000001
 44
0.0000000001
 40
0.0
 40
0.0
 40
0.0
 40
0.0
 40
0.1800003559
 40
0.3385573353
 40
0.4756001181
 40
0.5931458879
 40
0.6957729358
 40
0.7912845779
 40
0.8896770812
 40
1.0
 40
1.0
 40
1.0
 40
1.0
 10
-8.1339490715
 20
-5.2033651057
 30
0.0
 10
-8.1339490715
 20
-5.1198755713
 30
0.0
 10
-8.1274913643
 20
-4.9626917441
 30
0.0
 10
-8.094405335
 20
-4.7440379513
 30
0.0
 10
-8.0386618471
 20
-4.5597824562
 30
0.0
 10
-7.9602296169
 20
-4.4122472162
 30
0.0
 10
-7.8581950122
 20
-4.3039993821
 30
0.0
 10
-7.7327340799
 20
-4.2405072726
 30
0.0
 10
-7.5897069482
 20
-4.2257544297
 30
0.0
 10
-7.4935974273
 20
-4.2453504634
 30
0.0
 10
-7.4447800316
 20
-4.2606912367
 30
0.0
  0
SPLINE
  5
54B
100
AcDbEntity
  8
RACCORDO
100
AcDbSpline
 62
250
  6
CONTINUOUS
 70
0
 71
3
 72
16
 73
12
 74
0
 42
0.0000001
 43
0.0000001
 44
0.0000000001
 40
0.0
 40
0.0
 40
0.0
 40
0.0
 40
0.0457098758
 40
0.0966498045
 40
0.2125561539
 40
0.3433268044
 40
0.4830753054
 40
0.6251847637
 40
0.7628603162
 40
0.8896396346
 40
1.0
 40
1.0
 40
1.0
 40
1.0
 10
-6.178722612
 20
-9.6243993342
 30
0.0
 10
-6.2382104201
 20
-9.5781126485
 30
0.0
 10
-6.3582372662
 20
-9.4727670076
 30
0.0
 10
-6.600317242
 20
-9.2188617149
 30
0.0
 10
-6.8982698027
 20
-8.8270440165
 30
0.0
 10
-7.2292601009
 20
-8.2815800084
 30
0.0
 10
-7.5298007178
 20
-7.6701975368
 30
0.0
 10
-7.7835662553
 20
-7.02582988
 30
0.0
 10
-7.9769713352
 20
-6.3829839378
 30
0.0
 10
-8.0999036218
 20
-5.7764091647
 30
0.0
 10
-8.1339490715
 20
-5.3853457884
 30
0.0
 10
-8.1339490715
 20
-5.2033651057
 30
0.0
  0
SPLINE
  5
54C
100
AcDbEntity
  8
RACCORDO
100
AcDbSpline
 62
250
  6
CONTINUOUS
 70
0
 71
3
 72
18
 73
14
 74
0
 42
0.0000001
 43
0.0000001
 44
0.0000000001
 40
0.0
 40
0.0
 40
0.0
 40
0.0
 40
0.1723633144
 40
0.3179245448
 40
0.3809900463
 40
0.4381772398
 40
0.5384782613
 40
0.5850963066
 40
0.6317800046
 40
0.7325625828
 40
0.7901169115
 40
0.8535968777
 40
1.0
 40
1.0
 40
1.0
 40
1.0
 10
-17.6339490715
 20
6.4317111725
 30
0.0
 10
-17.6339490715
 20
6.5364127002
 30
0.0
 10
-17.6241069091
 20
6.7297757614
 30
0.0
 10
-17.5783634034
 20
6.9580861013
 30
0.0
 10
-17.5202161471
 20
7.1092379087
 30
0.0
 10
-17.4559465444
 20
7.2269532336
 30
0.0
 10
-17.3702144813
 20
7.3215429981
 30
0.0
 10
-17.265806156
 20
7.3777655396
 30
0.0
 10
-17.1511275983
 20
7.4090606699
 30
0.0
 10
-17.0232903135
 20
7.3998478091
 30
0.0
 10
-16.8946582083
 20
7.3592695936
 30
0.0
 10
-16.7470035871
 20
7.2904708394
 30
0.0
 10
-16.6412846496
 20
7.2175359389
 30
0.0
 10
-16.5715485803
 20
7.1623471895
 30
0.0
  0
SPLINE
  5
54D
100
AcDbEntity
  8
RACCORDO
100
AcDbSpline
 62
250
  6
CONTINUOUS
 70
0
 71
3
 72
16
 73
12
 74
0
 42
0.0000001
 43
0.0000001
 44
0.0000000001
 40
0.0
 40
0.0
 40
0.0
 40
0.0
 40
0.0456387088
 40
0.0962521607
 40
0.2108754222
 40
0.3398831557
 40
0.477947087
 40
0.6190557893
 40
0.7569833596
 40
0.8857195928
 40
1.0
 40
1.0
 40
1.0
 40
1.0
 10
-16.5715485803
 20
7.1623471895
 30
0.0
 10
-16.5144449254
 20
7.1171556649
 30
0.0
 10
-16.3992901001
 20
7.0151051493
 30
0.0
 10
-16.1670883836
 20
6.7712022334
 30
0.0
 10
-15.8807927713
 20
6.3974268267
 30
0.0
 10
-15.5611491164
 20
5.8781163083
 30
0.0
 10
-15.2683471699
 20
5.2954892816
 30
0.0
 10
-15.0170770761
 20
4.678495173
 30
0.0
 10
-14.8198061994
 20
4.0576637433
 30
0.0
 10
-14.6861058112
 20
3.4639462993
 30
0.0
 10
-14.6400397012
 20
3.0777634985
 30
0.0
 10
-14.6319521326
 20
2.8955939347
 30
0.0
  0
SPLINE
  5
54E
100
AcDbEntity
  8
RACCORDO
100
AcDbSpline
 62
250
  6
CONTINUOUS
 70
0
 71
3
 72
11
 73
7
 74
0
 42
0.0000001
 43
0.0000001
 44
0.0000000001
 40
0.0
 40
0.0
 40
0.0
 40
0.0
 40
0.2981687496
 40
0.564095285
 40
0.7973122922
 40
1.0
 40
1.0
 40
1.0
 40
1.0
 10
-14.6286516208
 20
2.7509885328
 30
0.0
 10
-14.6286516208
 20
2.6741598762
 30
0.0
 10
-14.6341692742
 20
2.5287040959
 30
0.0
 10
-14.6620962302
 20
2.3247370505
 30
0.0
 10
-14.7090204657
 20
2.1495392005
 30
0.0
 10
-14.7559393501
 20
2.0465513227
 30
0.0
 10
-14.7830180523
 20
2.0018935003
 30
0.0
  0
SPLINE
  5
54F
100
AcDbEntity
  8
RACCORDO
100
AcDbSpline
 62
250
  6
CONTINUOUS
 70
0
 71
3
 72
25
 73
21
 74
0
 42
0.0000001
 43
0.0000001
 44
0.0000000001
 40
0.0
 40
0.0
 40
0.0
 40
0.0
 40
0.016144869
 40
0.0312865695
 40
0.0460630558
 40
0.0611663786
 40
0.0946538142
 40
0.1140506828
 40
0.1355134322
 40
0.184994799
 40
0.2432370839
 40
0.3095170881
 40
0.3826156251
 40
0.460980282
 40
0.5428342084
 40
0.7092190094
 40
0.7898890206
 40
0.8663257452
 40
0.9368501643
 40
1.0
 40
1.0
 40
1.0
 40
1.0
 10
-14.8165515804
 20
1.9521714795
 30
0.0
 10
-14.8356953267
 20
1.926691228
 30
0.0
 10
-14.8771778941
 20
1.880316829
 30
0.0
 10
-14.9513418784
 20
1.8264306582
 30
0.0
 10
-15.0341675664
 20
1.7919451382
 30
0.0
 10
-15.158703439
 20
1.7719338746
 30
0.0
 10
-15.2944645888
 20
1.7954401309
 30
0.0
 10
-15.4305420761
 20
1.8505844312
 30
0.0
 10
-15.5869997408
 20
1.937115049
 30
0.0
 10
-15.7897085823
 20
2.0939714767
 30
0.0
 10
-16.0312898782
 20
2.3390656205
 30
0.0
 10
-16.275857559
 20
2.643713736
 30
0.0
 10
-16.5169577246
 20
3.0000199432
 30
0.0
 10
-16.7481946174
 20
3.3987461279
 30
0.0
 10
-17.036368326
 20
3.9757963094
 30
0.0
 10
-17.2756783139
 20
4.5812882524
 30
0.0
 10
-17.456843437
 20
5.1939485239
 30
0.0
 10
-17.5562022141
 20
5.6325733386
 30
0.0
 10
-17.6178870057
 20
6.0431102601
 30
0.0
 10
-17.6339490715
 20
6.3070514846
 30
0.0
 10
-17.6339490715
 20
6.4317111725
 30
0.0
  0
SPLINE
  5
550
100
AcDbEntity
  8
RACCORDO
100
AcDbSpline
 62
250
  6
CONTINUOUS
 70
0
 71
3
 72
29
 73
25
 74
0
 42
0.0000001
 43
0.0000001
 44
0.0000000001
 40
0.0
 40
0.0
 40
0.0
 40
0.0
 40
0.0564323695
 40
0.080629816
 40
0.1021899538
 40
0.1213435978
 40
0.1385189051
 40
0.154380329
 40
0.1698232432
 40
0.1858271739
 40
0.2032572859
 40
0.2227481308
 40
0.2446889516
 40
0.2692818411
 40
0.2965825865
 40
0.3590281824
 40
0.4309166251
 40
0.5103333195
 40
0.5948930799
 40
0.6819268625
 40
0.7686362751
 40
0.8522419656
 40
0.9301175787
 40
1.0
 40
1.0
 40
1.0
 40
1.0
 10
-12.8883128378
 20
-6.0979968876
 30
0.0
 10
-12.8883128378
 20
-5.9732709675
 30
0.0
 10
-12.8778507583
 20
-5.7942532624
 30
0.0
 10
-12.8306722672
 20
-5.5729708067
 30
0.0
 10
-12.7836811345
 20
-5.4369354647
 30
0.0
 10
-12.7233974817
 20
-5.3233566427
 30
0.0
 10
-12.6498663543
 20
-5.2332770536
 30
0.0
 10
-12.5630863008
 20
-5.168351547
 30
0.0
 10
-12.4642268037
 20
-5.1303410089
 30
0.0
 10
-12.3554863673
 20
-5.1201149004
 30
0.0
 10
-12.2388282452
 20
-5.1368592979
 30
0.0
 10
-12.1153180549
 20
-5.1796358874
 30
0.0
 10
-11.9856987017
 20
-5.2475794276
 30
0.0
 10
-11.8508644081
 20
-5.3400411812
 30
0.0
 10
-11.6567415926
 20
-5.5023040083
 30
0.0
 10
-11.4112571161
 20
-5.7634961907
 30
0.0
 10
-11.126923697
 20
-6.1415699342
 30
0.0
 10
-10.8509883094
 20
-6.584556847
 30
0.0
 10
-10.5935562901
 20
-7.0765094757
 30
0.0
 10
-10.3640504537
 20
-7.5997210524
 30
0.0
 10
-10.1708445407
 20
-8.1351477711
 30
0.0
 10
-10.0209284873
 20
-8.6633388232
 30
0.0
 10
-9.9195637687
 20
-9.1650721565
 30
0.0
 10
-9.8844123631
 20
-9.4904905799
 30
0.0
 10
-9.8775798079
 20
-9.6447923888
 30
0.0
  0
SPLINE
  5
551
100
AcDbEntity
  8
RACCORDO
100
AcDbSpline
 62
250
  6
CONTINUOUS
 70
0
 71
3
 72
29
 73
25
 74
0
 42
0.0000001
 43
0.0000001
 44
0.0000000001
 40
0.0
 40
0.0
 40
0.0
 40
0.0
 40
0.0562975369
 40
0.0803424065
 40
0.1017048804
 40
0.1206391986
 40
0.1376143392
 40
0.1533547342
 40
0.1688175436
 40
0.1850185371
 40
0.2028201039
 40
0.2228314693
 40
0.2454073837
 40
0.2707193653
 40
0.2987920842
 40
0.3628387086
 40
0.4362348599
 40
0.5168774248
 40
0.6022045575
 40
0.6893889151
 40
0.7755030121
 40
0.8576765875
 40
0.9332589909
 40
1.0
 40
1.0
 40
1.0
 40
1.0
 10
-9.8742878546
 20
-9.7894085279
 30
0.0
 10
-9.8742878546
 20
-9.9165467161
 30
0.0
 10
-9.8851135586
 20
-10.0988638002
 30
0.0
 10
-9.9343554388
 20
-10.323648532
 30
0.0
 10
-9.9833429437
 20
-10.4609766202
 30
0.0
 10
-10.0462113075
 20
-10.5748155502
 30
0.0
 10
-10.1229572756
 20
-10.664020425
 30
0.0
 10
-10.2135320075
 20
-10.7267084294
 30
0.0
 10
-10.3164574723
 20
-10.761020104
 30
0.0
 10
-10.4292614826
 20
-10.7662980988
 30
0.0
 10
-10.5500039234
 20
-10.7436257191
 30
0.0
 10
-10.677669095
 20
-10.6939822864
 30
0.0
 10
-10.8114868252
 20
-10.6182761758
 30
0.0
 10
-10.9504562025
 20
-10.5171985132
 30
0.0
 10
-11.149962539
 20
-10.3420387944
 30
0.0
 10
-11.4011773091
 20
-10.0636575933
 30
0.0
 10
-11.6906281192
 20
-9.6643971957
 30
0.0
 10
-11.9692694915
 20
-9.2004766227
 30
0.0
 10
-12.2264510186
 20
-8.6893524394
 30
0.0
 10
-12.4523573121
 20
-8.1502466575
 30
0.0
 10
-12.6384007455
 20
-7.603636598
 30
0.0
 10
-12.7776268642
 20
-7.0701958114
 30
0.0
 10
-12.8649361541
 20
-6.5701968127
 30
0.0
 10
-12.8883128378
 20
-6.2487198397
 30
0.0
 10
-12.8883128378
 20
-6.0979968876
 30
0.0
  0
SPLINE
  5
552
100
AcDbEntity
  8
SUPERFICI
100
AcDbSpline
 62
250
  6
CONTINUOUS
 70
0
 71
3
 72
9
 73
5
 74
0
 42
0.0000001
 43
0.0000001
 44
0.0000000001
 40
0.0
 40
0.0
 40
0.0
 40
0.0
 40
0.4935289465
 40
1.0
 40
1.0
 40
1.0
 40
1.0
 10
-25.5543682915
 20
-4.0729218691
 30
0.0
 10
-25.5496853433
 20
-4.0963034529
 30
0.0
 10
-25.5340938968
 20
-4.1426474672
 30
0.0
 10
-25.5076514499
 20
-4.183694099
 30
0.0
 10
-25.4921937126
 20
-4.2026651515
 30
0.0
  0
SPLINE
  5
553
100
AcDbEntity
  8
SUPERFICI
100
AcDbSpline
 62
250
  6
CONTINUOUS
 70
0
 71
3
 72
9
 73
5
 74
0
 42
0.0000001
 43
0.0000001
 44
0.0000000001
 40
0.0
 40
0.0
 40
0.0
 40
0.0
 40
0.4857896745
 40
1.0
 40
1.0
 40
1.0
 40
1.0
 10
3.2947759351
 20
4.2468644153
 30
0.0
 10
3.2935059697
 20
4.2333889653
 30
0.0
 10
3.2862857758
 20
4.2059379577
 30
0.0
 10
3.2713319673
 20
4.1819597094
 30
0.0
 10
3.2623195473
 20
4.1708223922
 30
0.0
  0
SPLINE
  5
554
100
AcDbEntity
  8
SUPERFICI
100
AcDbSpline
 62
250
  6
CONTINUOUS
 70
0
 71
3
 72
9
 73
5
 74
0
 42
0.0000001
 43
0.0000001
 44
0.0000000001
 40
0.0
 40
0.0
 40
0.0
 40
0.0
 40
0.235793764
 40
1.0
 40
1.0
 40
1.0
 40
1.0
 10
3.2623195473
 20
4.1708223922
 30
0.0
 10
3.2573130599
 20
4.1646355038
 30
0.0
 10
3.234284552
 20
4.1398525418
 30
0.0
 10
3.2051061853
 20
4.1212246795
 30
0.0
 10
3.1816733497
 20
4.110442534
 30
0.0
  0
SPLINE
  5
555
100
AcDbEntity
  8
SUPERFICI
100
AcDbSpline
 62
250
  6
CONTINUOUS
 70
0
 71
3
 72
11
 73
7
 74
0
 42
0.0000001
 43
0.0000001
 44
0.0000000001
 40
0.0
 40
0.0
 40
0.0
 40
0.0
 40
0.2229878749
 40
0.4596004368
 40
0.7181522788
 40
1.0
 40
1.0
 40
1.0
 40
1.0
 10
3.2953287282
 20
4.5423729975
 30
0.0
 10
3.2953290912
 20
4.5269469931
 30
0.0
 10
3.2892018959
 20
4.4948947496
 30
0.0
 10
3.2631686207
 20
4.4516043282
 30
0.0
 10
3.2228646248
 20
4.4150991933
 30
0.0
 10
3.1896029636
 20
4.3972510738
 30
0.0
 10
3.1715863594
 20
4.38979667
 30
0.0
  0
SPLINE
  5
556
100
AcDbEntity
  8
SUPERFICI
100
AcDbSpline
 62
250
  6
CONTINUOUS
 70
0
 71
3
 72
9
 73
5
 74
0
 42
0.0000001
 43
0.0000001
 44
0.0000000001
 40
0.0
 40
0.0
 40
0.0
 40
0.0
 40
0.4863505975
 40
1.0
 40
1.0
 40
1.0
 40
1.0
 10
-26.4079150535
 20
3.8893452551
 30
0.0
 10
-26.4072104491
 20
3.8590370977
 30
0.0
 10
-26.3942366873
 20
3.7965487243
 30
0.0
 10
-26.3612305245
 20
3.7423182806
 30
0.0
 10
-26.3409850379
 20
3.7175135918
 30
0.0
  0
SPLINE
  5
557
100
AcDbEntity
  8
SUPERFICI
100
AcDbSpline
 62
250
  6
CONTINUOUS
 70
0
 71
3
 72
10
 73
6
 74
0
 42
0.0000001
 43
0.0000001
 44
0.0000000001
 40
0.0
 40
0.0
 40
0.0
 40
0.0
 40
0.4727554652
 40
0.7395484662
 40
1.0
 40
1.0
 40
1.0
 40
1.0
 10
-3.5863318921
 20
10.5803523271
 30
0.0
 10
-3.557376279
 20
10.5448890885
 30
0.0
 10
-3.4856346483
 20
10.5115920873
 30
0.0
 10
-3.3888861445
 20
10.5072778682
 30
0.0
 10
-3.3380603734
 20
10.5186073662
 30
0.0
 10
-3.3146420993
 20
10.5279761223
 30
0.0
  0
SPLINE
  5
558
100
AcDbEntity
  8
SUPERFICI
100
AcDbSpline
 62
250
  6
CONTINUOUS
 70
0
 71
3
 72
9
 73
5
 74
0
 42
0.0000001
 43
0.0000001
 44
0.0000000001
 40
0.0
 40
0.0
 40
0.0
 40
0.0
 40
0.5149702002
 40
1.0
 40
1.0
 40
1.0
 40
1.0
 10
-2.3837062161
 20
9.1074426982
 30
0.0
 10
-2.3920397792
 20
9.117649187
 30
0.0
 10
-2.4055536677
 20
9.1399645024
 30
0.0
 10
-2.4105007089
 20
9.1657429398
 30
0.0
 10
-2.4105010027
 20
9.1781533764
 30
0.0
  0
SPLINE
  5
559
100
AcDbEntity
  8
SUPERFICI
100
AcDbSpline
 62
250
  6
CONTINUOUS
 70
0
 71
3
 72
11
 73
7
 74
0
 42
0.0000001
 43
0.0000001
 44
0.0000000001
 40
0.0
 40
0.0
 40
0.0
 40
0.0
 40
0.3387992105
 40
0.6149755665
 40
0.8292017188
 40
1.0
 40
1.0
 40
1.0
 40
1.0
 10
-2.2115087959
 20
9.3191609636
 30
0.0
 10
-2.2182130132
 20
9.3272084323
 30
0.0
 10
-2.2311906618
 20
9.3412069398
 30
0.0
 10
-2.2515854531
 20
9.356960524
 30
0.0
 10
-2.2706695597
 20
9.3652863126
 30
0.0
 10
-2.2832759232
 20
9.3645163767
 30
0.0
 10
-2.2881426507
 20
9.3624677635
 30
0.0
  0
SPLINE
  5
55A
100
AcDbEntity
  8
SUPERFICI
100
AcDbSpline
 62
7
  6
CONTINUOUS
 70
0
 71
3
 72
11
 73
7
 74
0
 42
0.0000001
 43
0.0000001
 44
0.0000000001
 40
0.0
 40
0.0
 40
0.0
 40
0.0
 40
0.3384594156
 40
0.6145997271
 40
0.8290809958
 40
1.0
 40
1.0
 40
1.0
 40
1.0
 10
-1.9520076214
 20
9.4284867373
 30
0.0
 10
-1.9585541018
 20
9.4365045056
 30
0.0
 10
-1.9712412798
 20
9.4504727159
 30
0.0
 10
-1.9912352135
 20
9.4662816109
 30
0.0
 10
-2.0099999832
 20
9.4747713925
 30
0.0
 10
-2.022481418
 20
9.4742556432
 30
0.0
 10
-2.0273424571
 20
9.4723339313
 30
0.0
  0
SPLINE
  5
55B
100
AcDbEntity
  8
SUPERFICI
100
AcDbSpline
 62
7
  6
CONTINUOUS
 70
0
 71
3
 72
11
 73
7
 74
0
 42
0.0000001
 43
0.0000001
 44
0.0000000001
 40
0.0
 40
0.0
 40
0.0
 40
0.0
 40
0.2417338234
 40
0.5125553532
 40
0.7767300931
 40
1.0
 40
1.0
 40
1.0
 40
1.0
 10
-3.152005083
 20
10.898177474
 30
0.0
 10
-3.1374206208
 20
10.8803152288
 30
0.0
 10
-3.1108627735
 20
10.8388965747
 30
0.0
 10
-3.0799334889
 20
10.7713481412
 30
0.0
 10
-3.0587359623
 20
10.7020150457
 30
0.0
 10
-3.0520063522
 20
10.6555866763
 30
0.0
 10
-3.0520063522
 20
10.6342879716
 30
0.0
  0
SPLINE
  5
55C
100
AcDbEntity
  8
SUPERFICI
100
AcDbSpline
 62
250
  6
CONTINUOUS
 70
0
 71
3
 72
11
 73
7
 74
0
 42
0.0000001
 43
0.0000001
 44
0.0000000001
 40
0.0
 40
0.0
 40
0.0
 40
0.0
 40
0.2415303708
 40
0.5124908181
 40
0.7768444592
 40
1.0
 40
1.0
 40
1.0
 40
1.0
 10
-3.414134472
 20
10.7920705925
 30
0.0
 10
-3.3997501204
 20
10.7740918929
 30
0.0
 10
-3.3735339753
 20
10.732520201
 30
0.0
 10
-3.3428789967
 20
10.6649027366
 30
0.0
 10
-3.3217068884
 20
10.5956042446
 30
0.0
 10
-3.3147948642
 20
10.5492487593
 30
0.0
 10
-3.3146420993
 20
10.5279761223
 30
0.0
  0
SPLINE
  5
55D
100
AcDbEntity
  8
SUPERFICI
100
AcDbSpline
 62
250
  6
CONTINUOUS
 70
0
 71
3
 72
10
 73
6
 74
0
 42
0.0000001
 43
0.0000001
 44
0.0000000001
 40
0.0
 40
0.0
 40
0.0
 40
0.0
 40
0.4727553449
 40
0.7395484049
 40
1.0
 40
1.0
 40
1.0
 40
1.0
 10
-14.8363318921
 20
24.3588560022
 30
0.0
 10
-14.8073762862
 20
24.3233927725
 30
0.0
 10
-14.7356346673
 20
24.2900957684
 30
0.0
 10
-14.6388861627
 20
24.2857815406
 30
0.0
 10
-14.588060379
 20
24.297111039
 30
0.0
 10
-14.5646420993
 20
24.3064797974
 30
0.0
  0
SPLINE
  5
55E
100
AcDbEntity
  8
SUPERFICI
100
AcDbSpline
 62
250
  6
CONTINUOUS
 70
0
 71
3
 72
9
 73
5
 74
0
 42
0.0000001
 43
0.0000001
 44
0.0000000001
 40
0.0
 40
0.0
 40
0.0
 40
0.0
 40
0.5149558504
 40
1.0
 40
1.0
 40
1.0
 40
1.0
 10
-13.6337062161
 20
22.8859463733
 30
0.0
 10
-13.6419943511
 20
22.8960972242
 30
0.0
 10
-13.6554483519
 20
22.9182758129
 30
0.0
 10
-13.6604476145
 20
22.943890647
 30
0.0
 10
-13.6605000985
 20
22.9562340291
 30
0.0
  0
SPLINE
  5
55F
100
AcDbEntity
  8
SUPERFICI
100
AcDbSpline
 62
250
  6
CONTINUOUS
 70
0
 71
3
 72
11
 73
7
 74
0
 42
0.0000001
 43
0.0000001
 44
0.0000000001
 40
0.0
 40
0.0
 40
0.0
 40
0.0
 40
0.3387005787
 40
0.61483276
 40
0.8290890337
 40
1.0
 40
1.0
 40
1.0
 40
1.0
 10
-13.4614080308
 20
23.0977062306
 30
0.0
 10
-13.4681122473
 20
23.1057537448
 30
0.0
 10
-13.4810917058
 20
23.1197523649
 30
0.0
 10
-13.5014934382
 20
23.1355042193
 30
0.0
 10
-13.5205903245
 20
23.1438250853
 30
0.0
 10
-13.5332037049
 20
23.1430499563
 30
0.0
 10
-13.5380752569
 20
23.1409998142
 30
0.0
  0
SPLINE
  5
560
100
AcDbEntity
  8
SUPERFICI
100
AcDbSpline
 62
7
  6
CONTINUOUS
 70
0
 71
3
 72
11
 73
7
 74
0
 42
0.0000001
 43
0.0000001
 44
0.0000000001
 40
0.0
 40
0.0
 40
0.0
 40
0.0
 40
0.3384295564
 40
0.6145594001
 40
0.8290477458
 40
1.0
 40
1.0
 40
1.0
 40
1.0
 10
-13.2020071137
 20
23.2068659186
 30
0.0
 10
-13.2085526667
 20
23.2148825511
 30
0.0
 10
-13.2212272603
 20
23.2288590244
 30
0.0
 10
-13.2412189464
 20
23.2446681577
 30
0.0
 10
-13.2599833954
 20
23.2531587054
 30
0.0
 10
-13.2724654612
 20
23.2526417546
 30
0.0
 10
-13.2773271861
 20
23.2507197716
 30
0.0
  0
SPLINE
  5
561
100
AcDbEntity
  8
SUPERFICI
100
AcDbSpline
 62
7
  6
CONTINUOUS
 70
0
 71
3
 72
11
 73
7
 74
0
 42
0.0000001
 43
0.0000001
 44
0.0000000001
 40
0.0
 40
0.0
 40
0.0
 40
0.0
 40
0.2417399228
 40
0.5125550947
 40
0.7767264507
 40
1.0
 40
1.0
 40
1.0
 40
1.0
 10
-14.4020055907
 20
24.676557899
 30
0.0
 10
-14.3874203657
 20
24.6586947195
 30
0.0
 10
-14.3608404621
 20
24.6172892105
 30
0.0
 10
-14.3299180387
 20
24.5497338948
 30
0.0
 10
-14.308723965
 20
24.4803980771
 30
0.0
 10
-14.3020063522
 20
24.4339671402
 30
0.0
 10
-14.3020063522
 20
24.4126675115
 30
0.0
  0
SPLINE
  5
562
100
AcDbEntity
  8
SUPERFICI
100
AcDbSpline
 62
250
  6
CONTINUOUS
 70
0
 71
3
 72
11
 73
7
 74
0
 42
0.0000001
 43
0.0000001
 44
0.0000000001
 40
0.0
 40
0.0
 40
0.0
 40
0.0
 40
0.2415144112
 40
0.5124603811
 40
0.7768152959
 40
1.0
 40
1.0
 40
1.0
 40
1.0
 10
-14.6640337069
 20
24.5706158595
 30
0.0
 10
-14.6496496388
 20
24.5526376167
 30
0.0
 10
-14.6234390926
 20
24.5110624796
 30
0.0
 10
-14.5928047794
 20
24.4434347406
 30
0.0
 10
-14.5716632404
 20
24.3741215797
 30
0.0
 10
-14.5647795724
 20
24.3277562316
 30
0.0
 10
-14.5646420993
 20
24.3064797974
 30
0.0
  0
SPLINE
  5
563
100
AcDbEntity
  8
SUPERFICI
100
AcDbSpline
 62
250
  6
CONTINUOUS
 70
0
 71
3
 72
9
 73
5
 74
0
 42
0.0000001
 43
0.0000001
 44
0.0000000001
 40
0.0
 40
0.0
 40
0.0
 40
0.0
 40
0.4836417286
 40
1.0
 40
1.0
 40
1.0
 40
1.0
 10
-26.4079201264
 20
17.3339747904
 30
0.0
 10
-26.4086427013
 20
17.3023019739
 30
0.0
 10
-26.3969094515
 20
17.2359943624
 30
0.0
 10
-26.3623824163
 20
17.1787383518
 30
0.0
 10
-26.3409850359
 20
17.1525424351
 30
0.0
  0
SPLINE
  5
564
100
AcDbEntity
  8
SUPERFICI
100
AcDbSpline
 62
250
  6
CONTINUOUS
 70
0
 71
3
 72
9
 73
5
 74
0
 42
0.0000001
 43
0.0000001
 44
0.0000000001
 40
0.0
 40
0.0
 40
0.0
 40
0.0
 40
0.4718180597
 40
1.0
 40
1.0
 40
1.0
 40
1.0
 10
-25.5569778212
 20
25.9995314612
 30
0.0
 10
-25.5627870029
 20
25.9652941605
 30
0.0
 10
-25.5557193179
 20
25.8887308943
 30
0.0
 10
-25.5168374002
 20
25.8238850636
 30
0.0
 10
-25.4921935008
 20
25.793819252
 30
0.0
  0
SPLINE
  5
565
100
AcDbEntity
  8
SUPERFICI
100
AcDbSpline
 62
250
  6
CONTINUOUS
 70
0
 71
3
 72
12
 73
8
 74
0
 42
0.0000001
 43
0.0000001
 44
0.0000000001
 40
0.0
 40
0.0
 40
0.0
 40
0.0
 40
0.1622352339
 40
0.2605051943
 40
0.3744932565
 40
0.6537234539
 40
1.0
 40
1.0
 40
1.0
 40
1.0
 10
-24.8745429232
 20
26.8396561677
 30
0.0
 10
-24.8632692123
 20
26.8449248405
 30
0.0
 10
-24.8418217142
 20
26.8463142713
 30
0.0
 10
-24.8143076247
 20
26.8380330607
 30
0.0
 10
-24.7803704316
 20
26.8211764253
 30
0.0
 10
-24.7354238514
 20
26.7858573133
 30
0.0
 10
-24.7024706087
 20
26.7508478128
 30
0.0
 10
-24.6852619906
 20
26.7306156691
 30
0.0
  0
SPLINE
  5
566
100
AcDbEntity
  8
RACCORDO
100
AcDbSpline
 62
7
  6
CONTINUOUS
 70
0
 71
3
 72
41
 73
37
 74
0
 42
0.0000001
 43
0.0000001
 44
0.0000000001
 40
0.0
 40
0.0
 40
0.0
 40
0.0
 40
0.0117306954
 40
0.0234307812
 40
0.0350910212
 40
0.0467217796
 40
0.0700340197
 40
0.0938746377
 40
0.1187799826
 40
0.1451880525
 40
0.1733822218
 40
0.2034980693
 40
0.2355496996
 40
0.2694562
 40
0.3050639523
 40
0.3421633997
 40
0.380502455
 40
0.4197973388
 40
0.5000010774
 40
0.5802047683
 40
0.6194995818
 40
0.657838567
 40
0.6949378892
 40
0.7305455335
 40
0.7644518791
 40
0.7965033351
 40
0.8266190558
 40
0.8548130191
 40
0.8812208923
 40
0.9061260179
 40
0.9299665027
 40
0.9532784098
 40
0.9649091684
 40
0.9765692275
 40
0.9882693549
 40
1.0
 40
1.0
 40
1.0
 40
1.0
 10
23.6531629434
 20
4.4881884828
 30
0.0
 10
23.6784819702
 20
4.4979778851
 30
0.0
 10
23.7303725584
 20
4.5142965995
 30
0.0
 10
23.8104864794
 20
4.5287167306
 30
0.0
 10
23.8915230841
 20
4.5333103729
 30
0.0
 10
23.9993841792
 20
4.5271031656
 30
0.0
 10
24.1331728489
 20
4.4977619965
 30
0.0
 10
24.28801252
 20
4.4342152012
 30
0.0
 10
24.4386562299
 20
4.3464288107
 30
0.0
 10
24.586649916
 20
4.2366185925
 30
0.0
 10
24.7331217092
 20
4.1059894004
 30
0.0
 10
24.878479496
 20
3.955446607
 30
0.0
 10
25.0225565887
 20
3.7859604585
 30
0.0
 10
25.1647760413
 20
3.5987124266
 30
0.0
 10
25.3042970456
 20
3.395134857
 30
0.0
 10
25.4401161093
 20
3.176903126
 30
0.0
 10
25.5711480175
 20
2.9459073657
 30
0.0
 10
25.7390874664
 20
2.6214758302
 30
0.0
 10
25.9287924236
 20
2.199625094
 30
0.0
 10
26.088522092
 20
1.7655371941
 30
0.0
 10
26.1956191737
 20
1.4162674199
 30
0.0
 10
26.2636877499
 20
1.1595677025
 30
0.0
 10
26.3194037307
 20
0.9086348916
 30
0.0
 10
26.3622198165
 20
0.6655787726
 30
0.0
 10
26.391680087
 20
0.4322982243
 30
0.0
 10
26.4073828851
 20
0.2104047408
 30
0.0
 10
26.4089129492
 20
0.0011460746
 30
0.0
 10
26.3957113013
 20
-0.1946681037
 30
0.0
 10
26.3668527967
 20
-0.3766766106
 30
0.0
 10
26.3206860256
 20
-0.5448079669
 30
0.0
 10
26.2545607976
 20
-0.6985623699
 30
0.0
 10
26.1795323062
 20
-0.8131519038
 30
0.0
 10
26.1068331771
 20
-0.8930713574
 30
0.0
 10
26.0457354741
 20
-0.9465040367
 30
0.0
 10
25.978419347
 20
-0.9922713826
 30
0.0
 10
25.9299340094
 20
-1.0169310993
 30
0.0
 10
25.9049979428
 20
-1.0276582506
 30
0.0
  0
SPLINE
  5
567
100
AcDbEntity
  8
RACCORDO
100
AcDbSpline
 62
7
  6
CONTINUOUS
 70
0
 71
3
 72
8
 73
4
 74
0
 42
0.0000001
 43
0.0000001
 44
0.0000000001
 40
0.0
 40
0.0
 40
0.0
 40
0.0
 40
1.0
 40
1.0
 40
1.0
 40
1.0
 10
-10.8747038089
 20
26.6211170964
 30
0.0
 10
-10.8740898848
 20
26.6217310535
 30
0.0
 10
-10.8733360045
 20
26.6222334801
 30
0.0
 10
-10.8725258945
 20
26.6225458387
 30
0.0
  0
SPLINE
  5
568
100
AcDbEntity
  8
RACCORDO
100
AcDbSpline
 62
7
  6
CONTINUOUS
 70
0
 71
3
 72
8
 73
4
 74
0
 42
0.0000001
 43
0.0000001
 44
0.0000000001
 40
0.0
 40
0.0
 40
0.0
 40
0.0
 40
1.0
 40
1.0
 40
1.0
 40
1.0
 10
1.6252961911
 20
11.311806204
 30
0.0
 10
1.6259101152
 20
11.3124201611
 30
0.0
 10
1.6266639954
 20
11.3129225877
 30
0.0
 10
1.6274741055
 20
11.3132349463
 30
0.0
  0
SPLINE
  5
569
100
AcDbEntity
  8
RACCORDO
100
AcDbSpline
 62
7
  6
CONTINUOUS
 70
0
 71
3
 72
11
 73
7
 74
0
 42
0.0000001
 43
0.0000001
 44
0.0000000001
 40
0.0
 40
0.0
 40
0.0
 40
0.0
 40
0.2532233597
 40
0.5037666526
 40
0.7523865945
 40
1.0
 40
1.0
 40
1.0
 40
1.0
 10
16.8105853711
 20
10.5921334313
 30
0.0
 10
16.8506076234
 20
10.6076322826
 30
0.0
 10
16.9325754642
 20
10.6327857438
 30
0.0
 10
17.0591259546
 20
10.6518712613
 30
0.0
 10
17.1861652405
 20
10.6517454268
 30
0.0
 10
17.2696617691
 20
10.6388053502
 30
0.0
 10
17.3105210207
 20
10.629223861
 30
0.0
  0
SPLINE
  5
56A
100
AcDbEntity
  8
RACCORDO
100
AcDbSpline
 62
7
  6
CONTINUOUS
 70
0
 71
3
 72
15
 73
11
 74
0
 42
0.0000001
 43
0.0000001
 44
0.0000000001
 40
0.0
 40
0.0
 40
0.0
 40
0.0
 40
0.2050173001
 40
0.3857819812
 40
0.542260822
 40
0.6747734716
 40
0.7840945577
 40
0.8718660236
 40
0.9415202407
 40
1.0
 40
1.0
 40
1.0
 40
1.0
 10
16.2736297902
 20
12.0601594116
 30
0.0
 10
16.2777261979
 20
12.0634158977
 30
0.0
 10
16.2853430051
 20
12.0696607572
 30
0.0
 10
16.2956875235
 20
12.0788639569
 30
0.0
 10
16.3042202049
 20
12.0872986771
 30
0.0
 10
16.3109320648
 20
12.0949502127
 30
0.0
 10
16.3158298186
 20
12.1018166961
 30
0.0
 10
16.3189188803
 20
12.1079246594
 30
0.0
 10
16.3202045984
 20
12.1133697593
 30
0.0
 10
16.3196384133
 20
12.1167229225
 30
0.0
 10
16.3190242679
 20
12.1180834329
 30
0.0
  0
SPLINE
  5
56B
100
AcDbEntity
  8
RACCORDO
100
AcDbSpline
 62
250
  6
CONTINUOUS
 70
0
 71
3
 72
9
 73
5
 74
0
 42
0.0000001
 43
0.0000001
 44
0.0000000001
 40
0.0
 40
0.0
 40
0.0
 40
0.0
 40
0.4892701782
 40
1.0
 40
1.0
 40
1.0
 40
1.0
 10
25.3075674935
 20
-1.0405162799
 30
0.0
 10
25.3206928681
 20
-1.0196040981
 30
0.0
 10
25.3548510962
 20
-0.9811481961
 30
0.0
 10
25.39884597
 20
-0.9548630721
 30
0.0
 10
25.4225380741
 20
-0.9447178267
 30
0.0
  0
SPLINE
  5
56C
100
AcDbEntity
  8
RACCORDO
100
AcDbSpline
 62
250
  6
CONTINUOUS
 70
0
 71
3
 72
29
 73
25
 74
0
 42
0.0000001
 43
0.0000001
 44
0.0000000001
 40
0.0
 40
0.0
 40
0.0
 40
0.0
 40
0.065083228
 40
0.1314169577
 40
0.1987619945
 40
0.26689422
 40
0.335607874
 40
0.3701173417
 40
0.4046863348
 40
0.4392684214
 40
0.4737876223
 40
0.5081130257
 40
0.5420493598
 40
0.5753982697
 40
0.6080592461
 40
0.6400388687
 40
0.6713853949
 40
0.7021401194
 40
0.7323248183
 40
0.7909909295
 40
0.8472949671
 40
0.9010456648
 40
0.9520108329
 40
1.0
 40
1.0
 40
1.0
 40
1.0
 10
24.0622624061
 20
2.999921657
 30
0.0
 10
24.0889456006
 20
2.9133510344
 30
0.0
 10
24.134079612
 20
2.7357997284
 30
0.0
 10
24.1822338755
 20
2.4631999522
 30
0.0
 10
24.2155967483
 20
2.1841730888
 30
0.0
 10
24.2378002322
 20
1.9007769445
 30
0.0
 10
24.2502356345
 20
1.6625819666
 30
0.0
 10
24.2594834359
 20
1.4710129818
 30
0.0
 10
24.2672506287
 20
1.3269344248
 30
0.0
 10
24.2774702421
 20
1.1829845718
 30
0.0
 10
24.2925474428
 20
1.0397703138
 30
0.0
 10
24.3157413791
 20
0.8984798745
 30
0.0
 10
24.3504626882
 20
0.7611508275
 30
0.0
 10
24.3980426825
 20
0.6301771845
 30
0.0
 10
24.4562470149
 20
0.5066660879
 30
0.0
 10
24.5212335839
 20
0.3898589248
 30
0.0
 10
24.5897624697
 20
0.2782442405
 30
0.0
 10
24.6596303048
 20
0.1704473233
 30
0.0
 10
24.7517782602
 20
0.0317958616
 30
0.0
 10
24.8641033904
 20
-0.1361467536
 30
0.0
 10
24.9904343348
 20
-0.3341553793
 30
0.0
 10
25.103081815
 20
-0.5280390873
 30
0.0
 10
25.1980351222
 20
-0.7183848565
 30
0.0
 10
25.247950928
 20
-0.8471535229
 30
0.0
 10
25.2676720062
 20
-0.9109721767
 30
0.0
  0
LINE
  5
56D
100
AcDbEntity
  8
RACCORDO
100
AcDbLine
 62
250
  6
CONTINUOUS
 10
25.2676720062
 20
-0.9109721767
 11
25.267971182
 21
-0.9119415708
  0
SPLINE
  5
56E
100
AcDbEntity
  8
RACCORDO
100
AcDbSpline
 62
250
  6
CONTINUOUS
 70
0
 71
3
 72
9
 73
5
 74
0
 42
0.0000001
 43
0.0000001
 44
0.0000000001
 40
0.0
 40
0.0
 40
0.0
 40
0.0
 40
0.4651569297
 40
1.0
 40
1.0
 40
1.0
 40
1.0
 10
23.9476525026
 20
3.371661479
 30
0.0
 10
23.9692768032
 20
3.369450352
 30
0.0
 10
24.0165834958
 20
3.3725699026
 30
0.0
 10
24.0616275259
 20
3.386088844
 30
0.0
 10
24.0848722898
 20
3.3952734678
 30
0.0
  0
SPLINE
  5
56F
100
AcDbEntity
  8
RACCORDO
100
AcDbSpline
 62
250
  6
CONTINUOUS
 70
0
 71
3
 72
19
 73
15
 74
0
 42
0.0000001
 43
0.0000001
 44
0.0000000001
 40
0.0
 40
0.0
 40
0.0
 40
0.0
 40
0.0249798107
 40
0.0522672186
 40
0.0836231693
 40
0.1201549306
 40
0.1624759403
 40
0.2108778807
 40
0.265445232
 40
0.3261229746
 40
0.4650853258
 40
0.6257423098
 40
0.8052042622
 40
1.0
 40
1.0
 40
1.0
 40
1.0
 10
22.2225226415
 20
8.9688657613
 30
0.0
 10
22.2241957052
 20
8.963436789
 30
0.0
 10
22.2257727502
 20
8.9514135487
 30
0.0
 10
22.2224760442
 20
8.9324670832
 30
0.0
 10
22.213941173
 20
8.9124237679
 30
0.0
 10
22.2003396959
 20
8.8912711786
 30
0.0
 10
22.1817549964
 20
8.8690149008
 30
0.0
 10
22.1582637397
 20
8.8457260729
 30
0.0
 10
22.1299723448
 20
8.8215055179
 30
0.0
 10
22.0839043779
 20
8.7865346764
 30
0.0
 10
22.0150682374
 20
8.7418949623
 30
0.0
 10
21.9198273638
 20
8.6888690566
 30
0.0
 10
21.8105050466
 20
8.6353978193
 30
0.0
 10
21.7324500175
 20
8.6013918904
 30
0.0
 10
21.6915127422
 20
8.5844602964
 30
0.0
  0
SPLINE
  5
570
100
AcDbEntity
  8
RACCORDO
100
AcDbSpline
 62
250
  6
CONTINUOUS
 70
0
 71
3
 72
11
 73
7
 74
0
 42
0.0000001
 43
0.0000001
 44
0.0000000001
 40
0.0
 40
0.0
 40
0.0
 40
0.0
 40
0.2476134182
 40
0.496233361
 40
0.746776659
 40
1.0
 40
1.0
 40
1.0
 40
1.0
 10
21.495193244
 20
9.647910381
 30
0.0
 10
21.4543337768
 20
9.6574920836
 30
0.0
 10
21.3708367741
 20
9.6704325176
 30
0.0
 10
21.2437967031
 20
9.6705586488
 30
0.0
 10
21.1172454098
 20
9.6514731871
 30
0.0
 10
21.0352770554
 20
9.6263196074
 30
0.0
 10
20.9952545615
 20
9.6108206625
 30
0.0
  0
SPLINE
  5
571
100
AcDbEntity
  8
RACCORDO
100
AcDbSpline
 62
250
  6
CONTINUOUS
 70
0
 71
3
 72
19
 73
15
 74
0
 42
0.0000001
 43
0.0000001
 44
0.0000000001
 40
0.0
 40
0.0
 40
0.0
 40
0.0
 40
0.0249798529
 40
0.0522675605
 40
0.0836238253
 40
0.1201557849
 40
0.1624769303
 40
0.2108791067
 40
0.2654467947
 40
0.3261247726
 40
0.4650869581
 40
0.6257435642
 40
0.8052044963
 40
1.0
 40
1.0
 40
1.0
 40
1.0
 10
26.2230382154
 20
-4.0106112678
 30
0.0
 10
26.2247110984
 20
-4.0160402897
 30
0.0
 10
26.2262876106
 20
-4.0280636533
 30
0.0
 10
26.2229902569
 20
-4.0470100742
 30
0.0
 10
26.214454985
 20
-4.0670533374
 30
0.0
 10
26.2008532984
 20
-4.0882058776
 30
0.0
 10
26.1822684569
 20
-4.1104621031
 30
0.0
 10
26.1587770104
 20
-4.1337508428
 30
0.0
 10
26.1304853993
 20
-4.1579712712
 30
0.0
 10
26.0844173337
 20
-4.1929418704
 30
0.0
 10
26.0155814231
 20
-4.2375813884
 30
0.0
 10
25.9203410644
 20
-4.2906068848
 30
0.0
 10
25.8110193496
 20
-4.3440777496
 30
0.0
 10
25.7329647951
 20
-4.3780834739
 30
0.0
 10
25.6920276803
 20
-4.3950150015
 30
0.0
  0
SPLINE
  5
572
100
AcDbEntity
  8
RACCORDO
100
AcDbSpline
 62
250
  6
CONTINUOUS
 70
0
 71
3
 72
22
 73
18
 74
0
 42
0.0000001
 43
0.0000001
 44
0.0000000001
 40
0.0
 40
0.0
 40
0.0
 40
0.0
 40
0.0056551506
 40
0.0120687616
 40
0.0197755234
 40
0.0290838878
 40
0.0530853329
 40
0.0847223075
 40
0.1241255278
 40
0.1712320828
 40
0.2258710684
 40
0.2877973097
 40
0.3567072947
 40
0.432248054
 40
0.6015928322
 40
0.7922180513
 40
1.0
 40
1.0
 40
1.0
 40
1.0
 10
12.1343541737
 20
21.3870769244
 30
0.0
 10
12.1338549852
 20
21.3881820702
 30
0.0
 10
12.1322886591
 20
21.3903325627
 30
0.0
 10
12.1287268977
 20
21.3927358434
 30
0.0
 10
12.123991296
 20
21.3945032665
 30
0.0
 10
12.1153385997
 20
21.396215926
 30
0.0
 10
12.1013386352
 20
21.3965283174
 30
0.0
 10
12.0810276002
 20
21.3947278764
 30
0.0
 10
12.0559994497
 20
21.3906732419
 30
0.0
 10
12.0263873697
 20
21.3843795661
 30
0.0
 10
11.992335055
 20
21.3758549756
 30
0.0
 10
11.9540298325
 20
21.365139132
 30
0.0
 10
11.9116804924
 20
21.3522847191
 30
0.0
 10
11.8476544924
 20
21.3315774154
 30
0.0
 10
11.7594833028
 20
21.3007621493
 30
0.0
 10
11.64549023
 20
21.2579921615
 30
0.0
 10
11.5660767636
 20
21.2264795273
 30
0.0
 10
11.5247939622
 20
21.2097187113
 30
0.0
  0
SPLINE
  5
573
100
AcDbEntity
  8
RACCORDO
100
AcDbSpline
 62
7
  6
CONTINUOUS
 70
0
 71
3
 72
22
 73
18
 74
0
 42
0.0000001
 43
0.0000001
 44
0.0000000001
 40
0.0
 40
0.0
 40
0.0
 40
0.0
 40
0.005654995
 40
0.0120680808
 40
0.0197741271
 40
0.0290817061
 40
0.0530815962
 40
0.0847172106
 40
0.1241193395
 40
0.1712250991
 40
0.2258635934
 40
0.2877896464
 40
0.3566997379
 40
0.4322408865
 40
0.6015872221
 40
0.7922148907
 40
1.0
 40
1.0
 40
1.0
 40
1.0
 10
16.3190242679
 20
12.1180834329
 30
0.0
 10
16.3185253545
 20
12.1191886708
 30
0.0
 10
16.3169596143
 20
12.1213394356
 30
0.0
 10
16.3133984725
 20
12.123743172
 30
0.0
 10
16.3086634427
 20
12.1255109671
 30
0.0
 10
16.3000114738
 20
12.1272241268
 30
0.0
 10
16.2860122427
 20
12.1275370111
 30
0.0
 10
16.2657019585
 20
12.1257370641
 30
0.0
 10
16.2406743549
 20
12.1216828415
 30
0.0
 10
16.2110626216
 20
12.1153894942
 30
0.0
 10
16.17701045
 20
12.1068651418
 30
0.0
 10
16.1387051741
 20
12.0961494455
 30
0.0
 10
16.0963555914
 20
12.0832950892
 30
0.0
 10
16.0323289139
 20
12.0625877101
 30
0.0
 10
15.9441565
 20
12.0317721308
 30
0.0
 10
15.830161579
 20
11.9890015219
 30
0.0
 10
15.7507467215
 20
11.9574883488
 30
0.0
 10
15.7094631526
 20
11.9407272212
 30
0.0
  0
SPLINE
  5
574
100
AcDbEntity
  8
RACCORDO
100
AcDbSpline
 62
250
  6
CONTINUOUS
 70
0
 71
3
 72
15
 73
11
 74
0
 42
0.0000001
 43
0.0000001
 44
0.0000000001
 40
0.0
 40
0.0
 40
0.0
 40
0.0
 40
0.1131890155
 40
0.2266695177
 40
0.3418112958
 40
0.4602768586
 40
0.5839057548
 40
0.7144411609
 40
0.8530821716
 40
1.0
 40
1.0
 40
1.0
 40
1.0
 10
16.4938670482
 20
10.5499701439
 30
0.0
 10
16.4744967506
 20
10.574878968
 30
0.0
 10
16.4323777769
 20
10.6222938185
 30
0.0
 10
16.3592911093
 20
10.6839656546
 30
0.0
 10
16.2762066624
 20
10.7343735841
 30
0.0
 10
16.1832593472
 20
10.7714399627
 30
0.0
 10
16.0810850363
 20
10.7928964684
 30
0.0
 10
15.9710925087
 20
10.7965327787
 30
0.0
 10
15.8556687399
 20
10.780682059
 30
0.0
 10
15.7791871944
 20
10.7572962005
 30
0.0
 10
15.7409823139
 20
10.7425367617
 30
0.0
  0
SPLINE
  5
575
100
AcDbEntity
  8
RACCORDO
100
AcDbSpline
 62
250
  6
CONTINUOUS
 70
0
 71
3
 72
11
 73
7
 74
0
 42
0.0000001
 43
0.0000001
 44
0.0000000001
 40
0.0
 40
0.0
 40
0.0
 40
0.0
 40
0.2124495984
 40
0.4492282037
 40
0.7122875718
 40
1.0
 40
1.0
 40
1.0
 40
1.0
 10
16.353434413
 20
10.5828773487
 30
0.0
 10
16.3224366386
 20
10.5901393924
 30
0.0
 10
16.2552903994
 20
10.5991003785
 30
0.0
 10
16.1481953408
 20
10.5952347141
 30
0.0
 10
16.031822633
 20
10.5733953892
 30
0.0
 10
15.9531752079
 20
10.5475580314
 30
0.0
 10
15.9130326492
 20
10.5318245596
 30
0.0
  0
SPLINE
  5
576
100
AcDbEntity
  8
RACCORDO
100
AcDbSpline
 62
250
  6
CONTINUOUS
 70
0
 71
3
 72
20
 73
16
 74
0
 42
0.0000001
 43
0.0000001
 44
0.0000000001
 40
0.0
 40
0.0
 40
0.0
 40
0.0
 40
0.0330699718
 40
0.0679237284
 40
0.1059260539
 40
0.1480487283
 40
0.1948924296
 40
0.2467614636
 40
0.3037367854
 40
0.365732062
 40
0.432533439
 40
0.5038275222
 40
0.6582206753
 40
0.8251182454
 40
1.0
 40
1.0
 40
1.0
 40
1.0
 10
10.8665681047
 20
21.9099201903
 30
0.0
 10
10.8771311199
 20
21.9137482922
 30
0.0
 10
10.8999099524
 20
21.9188779839
 30
0.0
 10
10.9361689734
 20
21.9183275905
 30
0.0
 10
10.9745303779
 20
21.9098622425
 30
0.0
 10
11.0146956092
 20
21.8937087111
 30
0.0
 10
11.0564274522
 20
21.8700718932
 30
0.0
 10
11.0994490055
 20
21.8391577155
 30
0.0
 10
11.1434509192
 20
21.8012110257
 30
0.0
 10
11.1880954339
 20
21.7565290074
 30
0.0
 10
11.2330312027
 20
21.705466247
 30
0.0
 10
11.2944838598
 20
21.6273236154
 30
0.0
 10
11.3689971733
 20
21.5164613115
 30
0.0
 10
11.4516366936
 20
21.3693766206
 30
0.0
 10
11.5012312618
 20
21.2642615429
 30
0.0
 10
11.5247939622
 20
21.2097187113
 30
0.0
  0
SPLINE
  5
577
100
AcDbEntity
  8
RACCORDO
100
AcDbSpline
 62
250
  6
CONTINUOUS
 70
0
 71
3
 72
24
 73
20
 74
0
 42
0.0000001
 43
0.0000001
 44
0.0000000001
 40
0.0
 40
0.0
 40
0.0
 40
0.0
 40
0.0040596022
 40
0.0091464942
 40
0.0158262812
 40
0.0243472387
 40
0.0348195853
 40
0.0472948884
 40
0.0617932052
 40
0.0783192221
 40
0.1174171221
 40
0.1644578716
 40
0.2192265076
 40
0.2814482134
 40
0.3507977505
 40
0.4269050923
 40
0.5977100063
 40
0.7901456197
 40
1.0
 40
1.0
 40
1.0
 40
1.0
 10
12.7593379537
 20
4.7640511297
 30
0.0
 10
12.7596435794
 20
4.7632446449
 30
0.0
 10
12.7597524872
 20
4.7612038297
 30
0.0
 10
12.7584754183
 20
4.758036771
 30
0.0
 10
12.7560019414
 20
4.7544852569
 30
0.0
 10
12.7522804051
 20
4.7504814898
 30
0.0
 10
12.7473057576
 20
4.7460072181
 30
0.0
 10
12.7410669748
 20
4.741064981
 30
0.0
 10
12.7335683365
 20
4.7356597908
 30
0.0
 10
12.7211857445
 20
4.7273731023
 30
0.0
 10
12.7025584664
 20
4.7160107809
 30
0.0
 10
12.6764731161
 20
4.7013178195
 30
0.0
 10
12.6456808995
 20
4.6849948051
 30
0.0
 10
12.6103493872
 20
4.6671343709
 30
0.0
 10
12.570669903
 20
4.6478389126
 30
0.0
 10
12.5098763803
 20
4.6192258486
 30
0.0
 10
12.4247775526
 20
4.5808669821
 30
0.0
 10
12.3129963192
 20
4.5326018656
 30
0.0
 10
12.2340917888
 20
4.499755584
 30
0.0
 10
12.1928385984
 20
4.4828492633
 30
0.0
  0
SPLINE
  5
578
100
AcDbEntity
  8
RACCORDO
100
AcDbSpline
 62
250
  6
CONTINUOUS
 70
0
 71
3
 72
14
 73
10
 74
0
 42
0.0000001
 43
0.0000001
 44
0.0000000001
 40
0.0
 40
0.0
 40
0.0
 40
0.0
 40
0.1109861904
 40
0.2237641334
 40
0.3399288938
 40
0.4607305886
 40
0.5869953126
 40
0.7191109566
 40
1.0
 40
1.0
 40
1.0
 40
1.0
 10
12.9706490224
 20
3.7304417387
 30
0.0
 10
12.9706490359
 20
3.7000610637
 30
0.0
 10
12.9650109111
 20
3.6386675016
 30
0.0
 10
12.9398948019
 20
3.5485939305
 30
0.0
 10
12.8986221603
 20
3.4617156897
 30
0.0
 10
12.8419987663
 20
3.3795194466
 30
0.0
 10
12.7710315427
 20
3.3032933125
 30
0.0
 10
12.6567114687
 20
3.2093974175
 30
0.0
 10
12.5564536236
 20
3.1544034475
 30
0.0
 10
12.4856872082
 20
3.1243367353
 30
0.0
  0
SPLINE
  5
579
100
AcDbEntity
  8
RACCORDO
100
AcDbSpline
 62
7
  6
CONTINUOUS
 70
0
 71
3
 72
13
 73
9
 74
0
 42
0.0000001
 43
0.0000001
 44
0.0000000001
 40
0.0
 40
0.0
 40
0.0
 40
0.0
 40
0.1151211771
 40
0.2040002583
 40
0.3168646004
 40
0.4539383265
 40
0.6144857589
 40
1.0
 40
1.0
 40
1.0
 40
1.0
 10
-10.8725258945
 20
26.6225458387
 30
0.0
 10
-10.8697149974
 20
26.6236296519
 30
0.0
 10
-10.8638842037
 20
26.6218983389
 30
0.0
 10
-10.8569257637
 20
26.617738983
 30
0.0
 10
-10.8497968772
 20
26.6123345906
 30
0.0
 10
-10.8417914666
 20
26.6051960633
 30
0.0
 10
-10.8290882312
 20
26.5925951688
 30
0.0
 10
-10.8195885574
 20
26.5819067731
 30
0.0
 10
-10.8130476847
 20
26.574225937
 30
0.0
  0
SPLINE
  5
57A
100
AcDbEntity
  8
RACCORDO
100
AcDbSpline
 62
250
  6
CONTINUOUS
 70
0
 71
3
 72
12
 73
8
 74
0
 42
0.0000001
 43
0.0000001
 44
0.0000000001
 40
0.0
 40
0.0
 40
0.0
 40
0.0
 40
0.111134065
 40
0.2240621582
 40
0.4605915143
 40
0.7187365131
 40
1.0
 40
1.0
 40
1.0
 40
1.0
 10
-7.3761401442
 20
24.5712280982
 30
0.0
 10
-7.3761402181
 20
24.5651519316
 30
0.0
 10
-7.3772696202
 20
24.5528720952
 30
0.0
 10
-7.3840542101
 20
24.5285017069
 30
0.0
 10
-7.4012860921
 20
24.4993558236
 30
0.0
 10
-7.4328693132
 20
24.470341986
 30
0.0
 10
-7.4589791563
 20
24.456019714
 30
0.0
 10
-7.473132523
 20
24.450006336
 30
0.0
  0
SPLINE
  5
57B
100
AcDbEntity
  8
RACCORDO
100
AcDbSpline
 62
250
  6
CONTINUOUS
 70
0
 71
3
 72
13
 73
9
 74
0
 42
0.0000001
 43
0.0000001
 44
0.0000000001
 40
0.0
 40
0.0
 40
0.0
 40
0.0
 40
0.1028367291
 40
0.2089209979
 40
0.4391995588
 40
0.566972079
 40
0.7034329129
 40
1.0
 40
1.0
 40
1.0
 40
1.0
 10
3.1540295384
 20
11.7457116014
 30
0.0
 10
3.1504515821
 20
11.74991881
 30
0.0
 10
3.1421985892
 20
11.7576778773
 30
0.0
 10
3.1218417936
 20
11.7698850447
 30
0.0
 10
3.0970395138
 20
11.7759331382
 30
0.0
 10
3.0704516143
 20
11.7764810428
 30
0.0
 10
3.0404374051
 20
11.7731752492
 30
0.0
 10
3.0179143551
 20
11.7665377465
 30
0.0
 10
3.0030957705
 20
11.7606992791
 30
0.0
  0
SPLINE
  5
57C
100
AcDbEntity
  8
RACCORDO
100
AcDbSpline
 62
7
  6
CONTINUOUS
 70
0
 71
3
 72
13
 73
9
 74
0
 42
0.0000001
 43
0.0000001
 44
0.0000000001
 40
0.0
 40
0.0
 40
0.0
 40
0.0
 40
0.1151211771
 40
0.2040002583
 40
0.3168646004
 40
0.4539383265
 40
0.6144857589
 40
1.0
 40
1.0
 40
1.0
 40
1.0
 10
1.6274741055
 20
11.3132349463
 30
0.0
 10
1.6302850026
 20
11.3143187595
 30
0.0
 10
1.6361157963
 20
11.3125874465
 30
0.0
 10
1.6430742363
 20
11.3084280906
 30
0.0
 10
1.6502031228
 20
11.3030236982
 30
0.0
 10
1.6582085334
 20
11.2958851709
 30
0.0
 10
1.6709117688
 20
11.2832842764
 30
0.0
 10
1.6804114426
 20
11.2725958807
 30
0.0
 10
1.6869523153
 20
11.2649150446
 30
0.0
  0
SPLINE
  5
57D
100
AcDbEntity
  8
RACCORDO
100
AcDbSpline
 62
250
  6
CONTINUOUS
 70
0
 71
3
 72
14
 73
10
 74
0
 42
0.0000001
 43
0.0000001
 44
0.0000000001
 40
0.0
 40
0.0
 40
0.0
 40
0.0
 40
0.110986219
 40
0.2237641054
 40
0.339928929
 40
0.4607305258
 40
0.5869953014
 40
0.719110771
 40
1.0
 40
1.0
 40
1.0
 40
1.0
 10
18.6288150744
 20
-19.115351435
 30
0.0
 10
18.6288147759
 20
-19.1457321554
 30
0.0
 10
18.6231768844
 20
-19.2071257272
 30
0.0
 10
18.5980613801
 20
-19.2971996739
 30
0.0
 10
18.55678813
 20
-19.384077714
 30
0.0
 10
18.5001653422
 20
-19.4662745111
 30
0.0
 10
18.4291977049
 20
-19.5425003948
 30
0.0
 10
18.3148778463
 20
-19.6363968142
 30
0.0
 10
18.2146197087
 20
-19.6913906642
 30
0.0
 10
18.1438531589
 20
-19.7214574335
 30
0.0
  0
SPLINE
  5
57E
100
AcDbEntity
  8
RACCORDO
100
AcDbSpline
 62
250
  6
CONTINUOUS
 70
0
 71
3
 72
19
 73
15
 74
0
 42
0.0000001
 43
0.0000001
 44
0.0000000001
 40
0.0
 40
0.0
 40
0.0
 40
0.0
 40
0.0249797953
 40
0.0522670724
 40
0.0836228365
 40
0.1201544008
 40
0.1624752303
 40
0.2108770232
 40
0.2654442677
 40
0.3261219483
 40
0.4650843129
 40
0.6257414863
 40
0.8052037788
 40
1.0
 40
1.0
 40
1.0
 40
1.0
 10
18.5844525222
 20
-12.5307990807
 30
0.0
 10
18.5861257047
 20
-12.5362280225
 30
0.0
 10
18.5877030033
 20
-12.5482512205
 30
0.0
 10
18.5844066063
 20
-12.5671977034
 30
0.0
 10
18.5758719838
 20
-12.5872410419
 30
0.0
 10
18.5622707087
 20
-12.6083936609
 30
0.0
 10
18.5436861673
 20
-12.630649979
 30
0.0
 10
18.5201950245
 20
-12.6539388596
 30
0.0
 10
18.4919036993
 20
-12.6781594796
 30
0.0
 10
18.4458357495
 20
-12.7131304421
 30
0.0
 10
18.3769995164
 20
-12.757770322
 30
0.0
 10
18.2817584104
 20
-12.8107964308
 30
0.0
 10
18.1724357225
 20
-12.8642678879
 30
0.0
 10
18.0943803967
 20
-12.898273953
 30
0.0
 10
18.053442953
 20
-12.9152056167
 30
0.0
  0
SPLINE
  5
57F
100
AcDbEntity
  8
RACCORDO
100
AcDbSpline
 62
250
  6
CONTINUOUS
 70
0
 71
3
 72
14
 73
10
 74
0
 42
0.0000001
 43
0.0000001
 44
0.0000000001
 40
0.0
 40
0.0
 40
0.0
 40
0.0
 40
0.317508501
 40
0.4649834783
 40
0.6011690642
 40
0.7238141377
 40
0.8313269239
 40
0.9230859814
 40
1.0
 40
1.0
 40
1.0
 40
1.0
 10
15.7409881983
 20
10.7425388137
 30
0.0
 10
15.7528317092
 20
10.7154872273
 30
0.0
 10
15.7723401284
 20
10.676733513
 30
0.0
 10
15.8022615943
 20
10.629459666
 30
0.0
 10
15.8248016502
 20
10.5990754334
 30
0.0
 10
15.8474668794
 20
10.5735652547
 30
0.0
 10
15.8697810952
 20
10.5534735661
 30
0.0
 10
15.8912691046
 20
10.5392102517
 30
0.0
 10
15.9060466099
 20
10.5333541994
 30
0.0
 10
15.9130349217
 20
10.5318254716
 30
0.0
  0
SPLINE
  5
580
100
AcDbEntity
  8
RACCORDO
100
AcDbSpline
 62
7
  6
CONTINUOUS
 70
0
 71
3
 72
22
 73
18
 74
0
 42
0.0000001
 43
0.0000001
 44
0.0000000001
 40
0.0
 40
0.0
 40
0.0
 40
0.0
 40
0.2077851093
 40
0.3984127779
 40
0.5677591135
 40
0.6433002621
 40
0.7122103536
 40
0.7741364066
 40
0.8287749009
 40
0.8758806605
 40
0.9152827894
 40
0.9469184038
 40
0.9709182939
 40
0.9802258729
 40
0.9879319192
 40
0.994345005
 40
1.0
 40
1.0
 40
1.0
 40
1.0
 10
15.2789534042
 20
11.7659402773
 30
0.0
 10
15.3202369731
 20
11.7827014049
 30
0.0
 10
15.3996518306
 20
11.814214578
 30
0.0
 10
15.5136467516
 20
11.8569851869
 30
0.0
 10
15.6018191655
 20
11.8878007663
 30
0.0
 10
15.665845843
 20
11.9085081453
 30
0.0
 10
15.7081954257
 20
11.9213625016
 30
0.0
 10
15.7465007016
 20
11.9320781979
 30
0.0
 10
15.7805528732
 20
11.9406025503
 30
0.0
 10
15.8101646065
 20
11.9468958976
 30
0.0
 10
15.8351922101
 20
11.9509501202
 30
0.0
 10
15.8555024943
 20
11.9527500672
 30
0.0
 10
15.8695017254
 20
11.9524371829
 30
0.0
 10
15.8781536943
 20
11.9507240233
 30
0.0
 10
15.8828887241
 20
11.9489562282
 30
0.0
 10
15.8864498659
 20
11.9465524917
 30
0.0
 10
15.8880156061
 20
11.944401727
 30
0.0
 10
15.8885145195
 20
11.943296489
 30
0.0
  0
SPLINE
  5
581
100
AcDbEntity
  8
RACCORDO
100
AcDbSpline
 62
7
  6
CONTINUOUS
 70
0
 71
3
 72
20
 73
16
 74
0
 42
0.0000001
 43
0.0000001
 44
0.0000000001
 40
0.0
 40
0.0
 40
0.0
 40
0.0
 40
0.0099676225
 40
0.0217283252
 40
0.0353693547
 40
0.0508947214
 40
0.0874104033
 40
0.1307697782
 40
0.1803546273
 40
0.2355599792
 40
0.3606586634
 40
0.5023090956
 40
0.6575620911
 40
0.8240898981
 40
1.0
 40
1.0
 40
1.0
 40
1.0
 10
17.4513784657
 20
-8.8545955529
 30
0.0
 10
17.450431851
 20
-8.8515131485
 30
0.0
 10
17.4475890419
 20
-8.8450337738
 30
0.0
 10
17.4415205997
 20
-8.8353091634
 30
0.0
 10
17.4334086815
 20
-8.8248232211
 30
0.0
 10
17.4191952503
 20
-8.8090116211
 30
0.0
 10
17.3966589636
 20
-8.7878593742
 30
0.0
 10
17.364314901
 20
-8.7612339893
 30
0.0
 10
17.3259646918
 20
-8.7324689583
 30
0.0
 10
17.2650333437
 20
-8.6898158595
 30
0.0
 10
17.1774753082
 20
-8.6333549748
 30
0.0
 10
17.0605148318
 20
-8.5629281694
 30
0.0
 10
16.9303689244
 20
-8.4884926984
 30
0.0
 10
16.789250917
 20
-8.4109758749
 30
0.0
 10
16.6914143742
 20
-8.3590103542
 30
0.0
 10
16.6410022803
 20
-8.3326108494
 30
0.0
  0
SPLINE
  5
582
100
AcDbEntity
  8
RACCORDO
100
AcDbSpline
 62
250
  6
CONTINUOUS
 70
0
 71
3
 72
20
 73
16
 74
0
 42
0.0000001
 43
0.0000001
 44
0.0000000001
 40
0.0
 40
0.0
 40
0.0
 40
0.0
 40
0.1780589844
 40
0.3454301205
 40
0.4985397801
 40
0.5688327995
 40
0.6345500148
 40
0.6954913329
 40
0.7515513284
 40
0.8027452246
 40
0.8492448688
 40
0.8914268037
 40
0.9299294469
 40
0.9657016205
 40
1.0
 40
1.0
 40
1.0
 40
1.0
 10
25.6920265256
 20
-4.3950114474
 30
0.0
 10
25.7097439901
 20
-4.4495547583
 30
0.0
 10
25.7408740284
 20
-4.5564663708
 30
0.0
 10
25.7750501978
 20
-4.7134866805
 30
0.0
 10
25.7919727683
 20
-4.8383956587
 30
0.0
 10
25.7974398765
 20
-4.9313941488
 30
0.0
 10
25.7975836508
 20
-4.9948665889
 30
0.0
 10
25.7938970942
 20
-5.053648378
 30
0.0
 10
25.7863997657
 20
-5.107361045
 30
0.0
 10
25.7751316238
 20
-5.1556652583
 30
0.0
 10
25.7601405129
 20
-5.1982632839
 30
0.0
 10
25.7414744529
 20
-5.234889162
 30
0.0
 10
25.7191637582
 20
-5.2652873206
 30
0.0
 10
25.6932812787
 20
-5.2891532735
 30
0.0
 10
25.6735604983
 20
-5.3005833302
 30
0.0
 10
25.6634308608
 20
-5.3049902255
 30
0.0
  0
SPLINE
  5
583
100
AcDbEntity
  8
RACCORDO
100
AcDbSpline
 62
250
  6
CONTINUOUS
 70
0
 71
3
 72
19
 73
15
 74
0
 42
0.0000001
 43
0.0000001
 44
0.0000000001
 40
0.0
 40
0.0
 40
0.0
 40
0.0
 40
0.0351480959
 40
0.0744814502
 40
0.1183934967
 40
0.1670152927
 40
0.2202870065
 40
0.2780055813
 40
0.3398586457
 40
0.405448178
 40
0.5458849963
 40
0.6950466494
 40
0.8481016536
 40
1.0
 40
1.0
 40
1.0
 40
1.0
 10
20.9952545615
 20
9.6108206625
 30
0.0
 10
21.0099127433
 20
9.6077094021
 30
0.0
 10
21.0403299295
 20
9.597937162
 30
0.0
 10
21.0855572892
 20
9.5752108234
 30
0.0
 10
21.1324167698
 20
9.543937369
 30
0.0
 10
21.1805003257
 20
9.5044125431
 30
0.0
 10
21.2293962052
 20
9.4569952277
 30
0.0
 10
21.2786527571
 20
9.4021212583
 30
0.0
 10
21.3278110418
 20
9.3403021916
 30
0.0
 10
21.3941079746
 20
9.2472570376
 30
0.0
 10
21.4729945463
 20
9.1177497635
 30
0.0
 10
21.5580762392
 20
8.9491052614
 30
0.0
 10
21.6323796148
 20
8.7701514354
 30
0.0
 10
21.6734655424
 20
8.6466537779
 30
0.0
 10
21.6915127422
 20
8.5844602964
 30
0.0
  0
SPLINE
  5
584
100
AcDbEntity
  8
RACCORDO
100
AcDbSpline
 62
7
  6
CONTINUOUS
 70
0
 71
3
 72
11
 73
7
 74
0
 42
0.0000001
 43
0.0000001
 44
0.0000000001
 40
0.0
 40
0.0
 40
0.0
 40
0.0
 40
0.25211355
 40
0.5036804784
 40
0.7533397474
 40
1.0
 40
1.0
 40
1.0
 40
1.0
 10
12.8841555227
 20
-15.0880289154
 30
0.0
 10
12.8621662504
 20
-15.1540811366
 30
0.0
 10
12.8113464442
 20
-15.2838299861
 30
0.0
 10
12.7178844015
 20
-15.4699556082
 30
0.0
 10
12.6096476141
 20
-15.646109118
 30
0.0
 10
12.5283335789
 20
-15.7566615792
 30
0.0
 10
12.4856872082
 20
-15.8097682564
 30
0.0
  0
SPLINE
  5
585
100
AcDbEntity
  8
RACCORDO
100
AcDbSpline
 62
250
  6
CONTINUOUS
 70
0
 71
3
 72
13
 73
9
 74
0
 42
0.0000001
 43
0.0000001
 44
0.0000000001
 40
0.0
 40
0.0
 40
0.0
 40
0.0
 40
0.2970093969
 40
0.4335144035
 40
0.5612113137
 40
0.7911143501
 40
0.897089455
 40
1.0
 40
1.0
 40
1.0
 40
1.0
 10
-7.5731172925
 20
24.7138619868
 30
0.0
 10
-7.5581399625
 20
24.7197629992
 30
0.0
 10
-7.5353723924
 20
24.7264503903
 30
0.0
 10
-7.5050459036
 20
24.7296857936
 30
0.0
 10
-7.4782376364
 20
24.7289879668
 30
0.0
 10
-7.4532733703
 20
24.7226515337
 30
0.0
 10
-7.4329329112
 20
24.7100295239
 30
0.0
 10
-7.424751776
 20
24.7020430904
 30
0.0
 10
-7.4212238692
 20
24.6977227725
 30
0.0
  0
SPLINE
  5
586
100
AcDbEntity
  8
RACCORDO
100
AcDbSpline
 62
250
  6
CONTINUOUS
 70
0
 71
3
 72
13
 73
9
 74
0
 42
0.0000001
 43
0.0000001
 44
0.0000000001
 40
0.0
 40
0.0
 40
0.0
 40
0.0
 40
0.2970104655
 40
0.433515573
 40
0.5612122902
 40
0.7911144023
 40
0.8970892519
 40
1.0
 40
1.0
 40
1.0
 40
1.0
 10
-9.1038253242
 20
26.5885887983
 30
0.0
 10
-9.0888476052
 20
26.594489964
 30
0.0
 10
-9.0660794355
 20
26.6011774769
 30
0.0
 10
-9.0357521818
 20
26.6044127044
 30
0.0
 10
-9.0089433764
 20
26.603714506
 30
0.0
 10
-8.983978717
 20
26.5973773584
 30
0.0
 10
-8.9636383081
 20
26.5847543244
 30
0.0
 10
-8.955457356
 20
26.5767673307
 30
0.0
 10
-8.9519295745
 20
26.572446735
 30
0.0
  0
SPLINE
  5
587
100
AcDbEntity
  8
RACCORDO
100
AcDbSpline
 62
250
  6
CONTINUOUS
 70
0
 71
3
 72
15
 73
11
 74
0
 42
0.0000001
 43
0.0000001
 44
0.0000000001
 40
0.0
 40
0.0
 40
0.0
 40
0.0
 40
0.1087560964
 40
0.2251633497
 40
0.3485079908
 40
0.4772325064
 40
0.609206046
 40
0.7419800667
 40
0.8730312741
 40
1.0
 40
1.0
 40
1.0
 40
1.0
 10
-9.1038253242
 20
26.5885887983
 30
0.0
 10
-9.1306004776
 20
26.6213807706
 30
0.0
 10
-9.193800399
 20
26.6831463156
 30
0.0
 10
-9.3074050781
 20
26.7584696854
 30
0.0
 10
-9.4388947737
 20
26.817257822
 30
0.0
 10
-9.5834222366
 20
26.8574254099
 30
0.0
 10
-9.735734355
 20
26.8775901922
 30
0.0
 10
-9.8902806565
 20
26.8770266389
 30
0.0
 10
-10.0413719369
 20
26.8557725035
 30
0.0
 10
-10.1382593282
 20
26.8276763158
 30
0.0
 10
-10.1844933435
 20
26.8102074559
 30
0.0
  0
SPLINE
  5
588
100
AcDbEntity
  8
RACCORDO
100
AcDbSpline
 62
250
  6
CONTINUOUS
 70
0
 71
3
 72
13
 73
9
 74
0
 42
0.0000001
 43
0.0000001
 44
0.0000000001
 40
0.0
 40
0.0
 40
0.0
 40
0.0
 40
0.3370887513
 40
0.6120499227
 40
0.7263842222
 40
0.8268542334
 40
0.9164733079
 40
1.0
 40
1.0
 40
1.0
 40
1.0
 10
-10.1844933435
 20
26.8102074559
 30
0.0
 10
-10.1907969585
 20
26.8182457895
 30
0.0
 10
-10.2030443366
 20
26.832236567
 30
0.0
 10
-10.2201871844
 20
26.8463584333
 30
0.0
 10
-10.2334001516
 20
26.8532428823
 30
0.0
 10
-10.2422628086
 20
26.8560205374
 30
0.0
 10
-10.2506162749
 20
26.85665742
 30
0.0
 10
-10.2558395826
 20
26.8555583178
 30
0.0
 10
-10.2582073996
 20
26.8546636322
 30
0.0
  0
SPLINE
  5
589
100
AcDbEntity
  8
RACCORDO
100
AcDbSpline
 62
250
  6
CONTINUOUS
 70
0
 71
3
 72
15
 73
11
 74
0
 42
0.0000001
 43
0.0000001
 44
0.0000000001
 40
0.0
 40
0.0
 40
0.0
 40
0.0
 40
0.1052062742
 40
0.2239312016
 40
0.3527735062
 40
0.4876784885
 40
0.6242433337
 40
0.757972545
 40
0.884526976
 40
1.0
 40
1.0
 40
1.0
 40
1.0
 10
-7.473132523
 20
24.450006336
 30
0.0
 10
-7.472921568
 20
24.4600673129
 30
0.0
 10
-7.4741003968
 20
24.4815216003
 30
0.0
 10
-7.4795143534
 20
24.5148720046
 30
0.0
 10
-7.4885201291
 20
24.5503745938
 30
0.0
 10
-7.5007883114
 20
24.5866837787
 30
0.0
 10
-7.5158611228
 20
24.6224281016
 30
0.0
 10
-7.5331672766
 20
24.6562554489
 30
0.0
 10
-7.552044334
 20
24.6868853939
 30
0.0
 10
-7.5659666415
 20
24.705443843
 30
0.0
 10
-7.5731172925
 20
24.7138619868
 30
0.0
  0
SPLINE
  5
58A
100
AcDbEntity
  8
RACCORDO
100
AcDbSpline
 62
7
  6
CONTINUOUS
 70
0
 71
3
 72
20
 73
16
 74
0
 42
0.0000001
 43
0.0000001
 44
0.0000000001
 40
0.0
 40
0.0
 40
0.0
 40
0.0
 40
0.1156670489
 40
0.2434711488
 40
0.378023448
 40
0.5138895645
 40
0.5807111015
 40
0.6460094971
 40
0.7092734829
 40
0.7700784643
 40
0.8281654132
 40
0.8837435032
 40
0.9388199727
 40
0.9683258804
 40
1.0
 40
1.0
 40
1.0
 40
1.0
 10
-8.8611181676
 20
24.1836102716
 30
0.0
 10
-8.8541984116
 20
24.1747692596
 30
0.0
 10
-8.8400390002
 20
24.1558403889
 30
0.0
 10
-8.8190545346
 20
24.1257340711
 30
0.0
 10
-8.7979464173
 20
24.0933464579
 30
0.0
 10
-8.7809541836
 20
24.0653600339
 30
0.0
 10
-8.7681014646
 20
24.0427436015
 30
0.0
 10
-8.7591074604
 20
24.0260451829
 30
0.0
 10
-8.7508533876
 20
24.0096180453
 30
0.0
 10
-8.7435248933
 20
23.9935227735
 30
0.0
 10
-8.7374320585
 20
23.9776990952
 30
0.0
 10
-8.7330984029
 20
23.9618812155
 30
0.0
 10
-8.7325763402
 20
23.9479650947
 30
0.0
 10
-8.7361101776
 20
23.9371204159
 30
0.0
 10
-8.7392519217
 20
23.9320239106
 30
0.0
 10
-8.7410737892
 20
23.9295474752
 30
0.0
  0
SPLINE
  5
58B
100
AcDbEntity
  8
RACCORDO
100
AcDbSpline
 62
250
  6
CONTINUOUS
 70
0
 71
3
 72
13
 73
9
 74
0
 42
0.0000001
 43
0.0000001
 44
0.0000000001
 40
0.0
 40
0.0
 40
0.0
 40
0.0
 40
0.3370863221
 40
0.6120475375
 40
0.7263826215
 40
0.8268536272
 40
0.9164734467
 40
1.0
 40
1.0
 40
1.0
 40
1.0
 10
3.0030957705
 20
11.7606992791
 30
0.0
 10
2.9967923187
 20
11.7687374045
 30
0.0
 10
2.9845452358
 20
11.7827278807
 30
0.0
 10
2.9674028621
 20
11.7968495615
 30
0.0
 10
2.9541902297
 20
11.8037341551
 30
0.0
 10
2.9453277579
 20
11.80651205
 30
0.0
 10
2.9369744415
 20
11.807149315
 30
0.0
 10
2.93175115
 20
11.8060505688
 30
0.0
 10
2.9293833206
 20
11.8051560621
 30
0.0
  0
SPLINE
  5
58C
100
AcDbEntity
  8
RACCORDO
100
AcDbSpline
 62
250
  6
CONTINUOUS
 70
0
 71
3
 72
14
 73
10
 74
0
 42
0.0000001
 43
0.0000001
 44
0.0000000001
 40
0.0
 40
0.0
 40
0.0
 40
0.0
 40
0.2770742449
 40
0.4114374858
 40
0.5415329384
 40
0.666331494
 40
0.7848846766
 40
0.8963457382
 40
1.0
 40
1.0
 40
1.0
 40
1.0
 10
12.1928370904
 20
4.4828531994
 30
0.0
 10
12.2389554342
 20
4.3623739381
 30
0.0
 10
12.3012362404
 20
4.1809780803
 30
0.0
 10
12.369468242
 20
3.9382036559
 30
0.0
 10
12.4115323242
 20
3.7618601007
 30
0.0
 10
12.4446143975
 20
3.5911035468
 30
0.0
 10
12.4684038543
 20
3.4275560049
 30
0.0
 10
12.4826817289
 20
3.2727850369
 30
0.0
 10
12.4858982786
 20
3.1725947757
 30
0.0
 10
12.4856871966
 20
3.1243342977
 30
0.0
  0
SPLINE
  5
58D
100
AcDbEntity
  8
RACCORDO
100
AcDbSpline
 62
250
  6
CONTINUOUS
 70
0
 71
3
 72
11
 73
7
 74
0
 42
0.0000001
 43
0.0000001
 44
0.0000000001
 40
0.0
 40
0.0
 40
0.0
 40
0.0
 40
0.2768500086
 40
0.5388976918
 40
0.7812988478
 40
1.0
 40
1.0
 40
1.0
 40
1.0
 10
18.053442953
 20
-12.9152056167
 30
0.0
 10
18.0679817768
 20
-12.9615140117
 30
0.0
 10
18.0936862187
 20
-13.0524999354
 30
0.0
 10
18.1224316008
 20
-13.1865345292
 30
0.0
 10
18.1399359687
 20
-13.3122202896
 30
0.0
 10
18.1441081936
 20
-13.3931114657
 30
0.0
 10
18.1438531589
 20
-13.4314530686
 30
0.0
  0
SPLINE
  5
58E
100
AcDbEntity
  8
RACCORDO
100
AcDbSpline
 62
250
  6
CONTINUOUS
 70
0
 71
3
 72
14
 73
10
 74
0
 42
0.0000001
 43
0.0000001
 44
0.0000000001
 40
0.0
 40
0.0
 40
0.0
 40
0.0
 40
0.2808893081
 40
0.41300478
 40
0.539269535
 40
0.6600710971
 40
0.7762358864
 40
0.8890137574
 40
1.0
 40
1.0
 40
1.0
 40
1.0
 10
18.1438531589
 20
-13.4314530686
 30
0.0
 10
18.2146199698
 20
-13.4013861883
 30
0.0
 10
18.3148784586
 20
-13.3463920986
 30
0.0
 10
18.4291986086
 20
-13.2524952083
 30
0.0
 10
18.5001663381
 20
-13.1762689406
 30
0.0
 10
18.5567890905
 20
-13.0940717311
 30
0.0
 10
18.5980621691
 20
-13.0071932669
 30
0.0
 10
18.62317736
 20
-12.9171189045
 30
0.0
 10
18.6288149472
 20
-12.855725088
 30
0.0
 10
18.6288150745
 20
-12.8253442576
 30
0.0
  0
SPLINE
  5
58F
100
AcDbEntity
  8
RACCORDO
100
AcDbSpline
 62
250
  6
CONTINUOUS
 70
0
 71
3
 72
15
 73
11
 74
0
 42
0.0000001
 43
0.0000001
 44
0.0000000001
 40
0.0
 40
0.0
 40
0.0
 40
0.0
 40
0.1708777789
 40
0.3274620481
 40
0.4695853522
 40
0.5975449602
 40
0.7122662568
 40
0.8155147676
 40
0.9101130954
 40
1.0
 40
1.0
 40
1.0
 40
1.0
 10
18.1438531589
 20
-19.7214574335
 30
0.0
 10
18.1442747497
 20
-19.741205921
 30
0.0
 10
18.1439465679
 20
-19.7790917667
 30
0.0
 10
18.1394811094
 20
-19.8332470409
 30
0.0
 10
18.1310923092
 20
-19.8819288806
 30
0.0
 10
18.1188204586
 20
-19.9247956025
 30
0.0
 10
18.1027058702
 20
-19.9615546045
 30
0.0
 10
18.0827567063
 20
-19.99193438
 30
0.0
 10
18.0590049866
 20
-20.0155975555
 30
0.0
 10
18.0405095004
 20
-20.0267296542
 30
0.0
 10
18.0309962699
 20
-20.0309087091
 30
0.0
  0
SPLINE
  5
590
100
AcDbEntity
  8
RACCORDO
100
AcDbSpline
 62
250
  6
CONTINUOUS
 70
0
 71
3
 72
9
 73
5
 74
0
 42
0.0000001
 43
0.0000001
 44
0.0000000001
 40
0.0
 40
0.0
 40
0.0
 40
0.0
 40
0.5237352236
 40
1.0
 40
1.0
 40
1.0
 40
1.0
 10
25.4225380741
 20
-0.9447178267
 30
0.0
 10
25.4123367078
 20
-0.9820652353
 30
0.0
 10
25.3895454756
 20
-1.0525389403
 30
0.0
 10
25.3586240963
 20
-1.1199520052
 30
0.0
 10
25.3416141863
 20
-1.1507766521
 30
0.0
  0
SPLINE
  5
591
100
AcDbEntity
  8
RACCORDO
100
AcDbSpline
 62
250
  6
CONTINUOUS
 70
0
 71
3
 72
40
 73
36
 74
0
 42
0.0000001
 43
0.0000001
 44
0.0000000001
 40
0.0
 40
0.0
 40
0.0
 40
0.0
 40
0.0313681826
 40
0.063190831
 40
0.0956189737
 40
0.1287153207
 40
0.1624862358
 40
0.1969047338
 40
0.2674809543
 40
0.3400523312
 40
0.3769571793
 40
0.4142074223
 40
0.4517492166
 40
0.4706067703
 40
0.4895014712
 40
0.508405298
 40
0.5272707292
 40
0.5460235699
 40
0.5645671445
 40
0.582808015
 40
0.6006900585
 40
0.6353522754
 40
0.6687418759
 40
0.7010131277
 40
0.7322286135
 40
0.7623892372
 40
0.8193881236
 40
0.8461160048
 40
0.8715793185
 40
0.895729535
 40
0.9185530812
 40
0.9401066547
 40
0.9605713521
 40
0.9803241228
 40
1.0
 40
1.0
 40
1.0
 40
1.0
 10
24.0848722898
 20
3.3952734678
 30
0.0
 10
24.1147275194
 20
3.3558618056
 30
0.0
 10
24.1693048194
 20
3.2721292447
 30
0.0
 10
24.2356896598
 20
3.1364921058
 30
0.0
 10
24.2885971182
 20
2.9922104711
 30
0.0
 10
24.3295369366
 20
2.8409806386
 30
0.0
 10
24.3599544456
 20
2.6841358434
 30
0.0
 10
24.3884401529
 20
2.4671659469
 30
0.0
 10
24.4035559212
 20
2.1872995815
 30
0.0
 10
24.399323814
 20
1.9034191708
 30
0.0
 10
24.3892944489
 20
1.6723614362
 30
0.0
 10
24.3801007521
 20
1.4965447562
 30
0.0
 10
24.3731920604
 20
1.349085536
 30
0.0
 10
24.3702887358
 20
1.2304338547
 30
0.0
 10
24.3702967466
 20
1.1411185599
 30
0.0
 10
24.3735928981
 20
1.0518362806
 30
0.0
 10
24.3815694045
 20
0.9630470384
 30
0.0
 10
24.3957577178
 20
0.8755716209
 30
0.0
 10
24.4174011518
 20
0.7906137861
 30
0.0
 10
24.4468119172
 20
0.7094726915
 30
0.0
 10
24.4946705491
 20
0.608524053
 30
0.0
 10
24.5672638668
 20
0.4936608358
 30
0.0
 10
24.6640180174
 20
0.3684848823
 30
0.0
 10
24.7628606737
 20
0.2520618776
 30
0.0
 10
24.860420974
 20
0.1412889514
 30
0.0
 10
24.983757845
 20
0.0012965386
 30
0.0
 10
25.1000065238
 20
-0.1356047848
 30
0.0
 10
25.2043292418
 20
-0.2725512422
 30
0.0
 10
25.2726655949
 20
-0.3716653201
 30
0.0
 10
25.3315468404
 20
-0.4695986624
 30
0.0
 10
25.3795668471
 20
-0.5665221248
 30
0.0
 10
25.4151080584
 20
-0.6626048573
 30
0.0
 10
25.4362354072
 20
-0.7580462264
 30
0.0
 10
25.4406198628
 20
-0.8528812084
 30
0.0
 10
25.4307097301
 20
-0.9148003196
 30
0.0
 10
25.4225380741
 20
-0.9447178267
 30
0.0
  0
SPLINE
  5
592
100
AcDbEntity
  8
RACCORDO
100
AcDbSpline
 62
250
  6
CONTINUOUS
 70
0
 71
3
 72
41
 73
37
 74
0
 42
0.0000001
 43
0.0000001
 44
0.0000000001
 40
0.0
 40
0.0
 40
0.0
 40
0.0
 40
0.0077268974
 40
0.015597791
 40
0.0237313082
 40
0.0322327245
 40
0.0506570963
 40
0.0714149976
 40
0.0947935525
 40
0.1209097018
 40
0.1497577819
 40
0.1812429133
 40
0.2152030894
 40
0.2514243403
 40
0.2896516179
 40
0.3295970275
 40
0.3709467334
 40
0.4133667402
 40
0.5
 40
0.5866332572
 40
0.6290532687
 40
0.6704029653
 40
0.7103483887
 40
0.7485756503
 40
0.7847969189
 40
0.8187570797
 40
0.8502422214
 40
0.8790902973
 40
0.905206442
 40
0.9285850079
 40
0.949342893
 40
0.967767282
 40
0.9762686929
 40
0.9844022033
 40
0.9922731008
 40
1.0
 40
1.0
 40
1.0
 40
1.0
 10
23.653162992
 20
4.4881883628
 30
0.0
 10
23.6692214044
 20
4.4943973171
 30
0.0
 10
23.7025556438
 20
4.5046832832
 30
0.0
 10
23.7548778243
 20
4.5132907009
 30
0.0
 10
23.8095940536
 20
4.5151522294
 30
0.0
 10
23.8875869903
 20
4.5084917777
 30
0.0
 10
23.9912344131
 20
4.4819240605
 30
0.0
 10
24.1188869548
 20
4.4247375028
 30
0.0
 10
24.2523267207
 20
4.3421936973
 30
0.0
 10
24.3904775173
 20
4.2350696287
 30
0.0
 10
24.5321950605
 20
4.1043206961
 30
0.0
 10
24.6761986944
 20
3.9511252299
 30
0.0
 10
24.8211563064
 20
3.7768893205
 30
0.0
 10
24.965703209
 20
3.5832335047
 30
0.0
 10
25.1084691119
 20
3.3719745588
 30
0.0
 10
25.2480946363
 20
3.1451063609
 30
0.0
 10
25.3832526278
 20
2.9047753358
 30
0.0
 10
25.5569767802
 20
2.5670789409
 30
0.0
 10
25.753829868
 20
2.128204903
 30
0.0
 10
25.9203682595
 20
1.6769549491
 30
0.0
 10
26.0326180227
 20
1.3141617319
 30
0.0
 10
26.1042730567
 20
1.0479057459
 30
0.0
 10
26.163315471
 20
0.7881396066
 30
0.0
 10
26.2091900151
 20
0.5373249572
 30
0.0
 10
26.2414733289
 20
0.297837682
 30
0.0
 10
26.2598716989
 20
0.0719342173
 30
0.0
 10
26.264226583
 20
-0.1382726362
 30
0.0
 10
26.2545049361
 20
-0.3308463648
 30
0.0
 10
26.230796905
 20
-0.5040489424
 30
0.0
 10
26.1932516792
 20
-0.6563972544
 30
0.0
 10
26.1420931579
 20
-0.7865828156
 30
0.0
 10
26.0866531847
 20
-0.8780980496
 30
0.0
 10
26.0356051631
 20
-0.9374391359
 30
0.0
 10
25.9952191991
 20
-0.9744026492
 30
0.0
 10
25.9518224404
 20
-1.0048726111
 30
0.0
 10
25.9208135844
 20
-1.0208546239
 30
0.0
 10
25.9049979413
 20
-1.0276582471
 30
0.0
  0
SPLINE
  5
593
100
AcDbEntity
  8
RACCORDO
100
AcDbSpline
 62
250
  6
CONTINUOUS
 70
0
 71
3
 72
9
 73
5
 74
0
 42
0.0000001
 43
0.0000001
 44
0.0000000001
 40
0.0
 40
0.0
 40
0.0
 40
0.0
 40
0.2397374991
 40
1.0
 40
1.0
 40
1.0
 40
1.0
 10
23.854420553
 20
3.6743504561
 30
0.0
 10
23.8738626467
 20
3.6529300036
 30
0.0
 10
23.9538335837
 20
3.5625599519
 30
0.0
 10
24.029478093
 20
3.4683982477
 30
0.0
 10
24.0848722898
 20
3.3952734678
 30
0.0
  0
ELLIPSE
  5
594
100
AcDbEntity
  8
SUPERFICI
100
AcDbEllipse
 62
7
  6
CONTINUOUS
 10
1.740001038
 20
15.1289067086
 30
0.0
 11
0.3893849782
 21
0.3136656429
 31
0.0
 40
0.6144126451
 41
1.0118598672
 42
1.1053913983
  0
ELLIPSE
  5
595
100
AcDbEntity
  8
SUPERFICI
100
AcDbEllipse
 62
7
  6
CONTINUOUS
 10
-12.3475214112
 20
23.4032431653
 30
0.0
 11
-0.0767232596
 21
0.1847266106
 31
0.0
 40
0.3473291832
 41
-0.8590890646
 42
-0.0059489279
  0
ELLIPSE
  5
596
100
AcDbEntity
  8
SUPERFICI
100
AcDbEllipse
 62
7
  6
CONTINUOUS
 10
-1.0975214112
 20
9.6248633622
 30
0.0
 11
-0.0767232596
 21
0.1847266106
 31
0.0
 40
0.3473291832
 41
-0.8590890646
 42
-0.0059489279
  0
ELLIPSE
  5
597
100
AcDbEntity
  8
SUPERFICI
100
AcDbEllipse
 62
7
  6
CONTINUOUS
 10
8.4726847426
 20
10.333505721
 30
0.0
 11
0.7776783435
 21
0.6286743548
 31
0.0
 40
0.6061924848
 41
0.0029641157
 42
1.1042879098
  0
ELLIPSE
  5
598
100
AcDbEntity
  8
SUPERFICI
100
AcDbEllipse
 62
7
  6
CONTINUOUS
 10
-9.509998962
 20
28.9072865117
 30
0.0
 11
0.3893849782
 21
0.3136656429
 31
0.0
 40
0.6144126451
 41
1.0118598672
 42
1.1053913983
  0
ELLIPSE
  5
599
100
AcDbEntity
  8
SUPERFICI
100
AcDbEllipse
 62
7
  6
CONTINUOUS
 10
-2.7773152574
 20
24.1118855241
 30
0.0
 11
0.7776783435
 21
0.6286743548
 31
0.0
 40
0.6061924848
 41
0.0029641157
 42
1.1042879098
  0
ELLIPSE
  5
59A
100
AcDbEntity
  8
DRAFT
100
AcDbEllipse
 62
7
  6
CONTINUOUS
 10
498.6267850726
 20
217.8690422109
 30
0.0
 11
1309.6494571232
 21
556.5074801666
 31
0.0
 40
0.0105617403
 41
1.9567295123
 42
1.9630833315
  0
ELLIPSE
  5
59B
100
AcDbEntity
  8
SUPERFICI
100
AcDbEllipse
 62
7
  6
CONTINUOUS
 10
3.6346460981
 20
-28.4516066378
 30
0.0
 11
-0.1889950269
 21
0.4629340652
 31
0.0
 40
0.3535345573
 41
-3.1376842107
 42
-2.4279024556
  0
ELLIPSE
  5
59C
100
AcDbEntity
  8
SUPERFICI
100
AcDbEllipse
 62
7
  6
CONTINUOUS
 10
3.6346460981
 20
2.5114307577
 30
0.0
 11
-0.1889882442
 21
0.4629096965
 31
0.0
 40
0.3535700877
 41
-2.4278610135
 42
-0.8571154554
  0
ELLIPSE
  5
59D
100
AcDbEntity
  8
SUPERFICI
100
AcDbEllipse
 62
7
  6
CONTINUOUS
 10
3.6239629642
 20
17.4158960757
 30
0.0
 11
0.4998026032
 21
0.1741991198
 31
0.0
 40
0.080645694
 41
7.3046882261
 42
8.3320266012
  0
ELLIPSE
  5
59E
100
AcDbEntity
  8
SUPERFICI
100
AcDbEllipse
 62
7
  6
CONTINUOUS
 10
-7.6260370358
 20
31.1942758789
 30
0.0
 11
0.4998026032
 21
0.1741991198
 31
0.0
 40
0.080645694
 41
1.021502919
 42
2.048841294
  0
ELLIPSE
  5
59F
100
AcDbEntity
  8
SUPERFICI
100
AcDbEllipse
 62
7
  6
CONTINUOUS
 10
11.1906086185
 20
7.4683535341
 30
0.0
 11
0.4999853442
 21
0.0053907705
 31
0.0
 40
0.7101512765
 41
-1.0374008586
 42
-0.0076406844
  0
ELLIPSE
  5
5A0
100
AcDbEntity
  8
DRAFT
100
AcDbEllipse
 62
7
  6
CONTINUOUS
 10
16.4139499907
 20
15.5540770906
 30
0.0
 11
14.9995603257
 21
0.1617231153
 31
0.0
 40
0.7101512765
 41
-2.7892908174
 42
-2.778345689
  0
ELLIPSE
  5
5A1
100
AcDbEntity
  8
SUPERFICI
100
AcDbEllipse
 62
7
  6
CONTINUOUS
 10
-2.3060963976
 20
11.1050593785
 30
0.0
 11
-0.0767163504
 21
0.1847022887
 31
0.0
 40
0.3474164087
 41
-2.429985331
 42
-0.8592397729
  0
ELLIPSE
  5
5A2
100
AcDbEntity
  8
SUPERFICI
100
AcDbEllipse
 62
7
  6
CONTINUOUS
 10
-13.5560963976
 20
24.8834391816
 30
0.0
 11
-0.0767163504
 21
0.1847022887
 31
0.0
 40
0.3474164087
 41
-2.429985331
 42
-0.8592397729
  0
ELLIPSE
  5
5A3
100
AcDbEntity
  8
SUPERFICI
100
AcDbEllipse
 62
7
  6
CONTINUOUS
 10
-5.541734235
 20
24.0471746389
 30
0.0
 11
0.3888391718
 21
0.3143371774
 31
0.0
 40
0.6061924848
 41
0.6559394188
 42
1.1042879098
  0
ELLIPSE
  5
5A4
100
AcDbEntity
  8
SUPERFICI
100
AcDbEllipse
 62
7
  6
CONTINUOUS
 10
5.708265765
 20
10.2687948358
 30
0.0
 11
0.3888391718
 21
0.3143371774
 31
0.0
 40
0.6061924848
 41
0.6559394188
 42
1.1042879098
  0
ELLIPSE
  5
5A5
100
AcDbEntity
  8
SUPERFICI
100
AcDbEllipse
 62
7
  6
CONTINUOUS
 10
-4.5609412865
 20
12.0568428971
 30
0.0
 11
0.1561728727
 21
0.1249499327
 31
0.0
 40
0.6154201267
 41
1.1190794746
 42
2.6840580372
  0
ELLIPSE
  5
5A6
100
AcDbEntity
  8
SUPERFICI
100
AcDbEllipse
 62
7
  6
CONTINUOUS
 10
55.1836986901
 20
48.237980971
 30
0.0
 11
74.1784560007
 21
30.6920708834
 31
0.0
 40
0.0040695631
 41
2.5179393721
 42
2.6888820213
  0
ELLIPSE
  5
5A7
100
AcDbEntity
  8
SUPERFICI
100
AcDbEllipse
 62
7
  6
CONTINUOUS
 10
-5.1036326856
 20
23.5106120132
 30
0.0
 11
0.3852221766
 21
0.3187642025
 31
0.0
 40
0.6102990632
 41
1.003798544
 42
1.0973300751
  0
ELLIPSE
  5
5A8
100
AcDbEntity
  8
SUPERFICI
100
AcDbEllipse
 62
7
  6
CONTINUOUS
 10
55.1836986901
 20
48.237980971
 30
0.0
 11
74.1784560007
 21
30.6920708834
 31
0.0
 40
0.0040695631
 41
-2.6922496622
 42
-2.5213070129
  0
ELLIPSE
  5
5A9
100
AcDbEntity
  8
SUPERFICI
100
AcDbEllipse
 62
7
  6
CONTINUOUS
 10
-8.3710251623
 20
30.9627530422
 30
0.0
 11
1.0049613849
 21
0.3496472548
 31
0.0
 40
0.079818817
 41
-1.0722123037
 42
0.1229948363
  0
ELLIPSE
  5
5AA
100
AcDbEntity
  8
SUPERFICI
100
AcDbEllipse
 62
7
  6
CONTINUOUS
 10
-0.1804286588
 20
20.9313619809
 30
0.0
 11
-0.4639649443
 21
1.3333008873
 31
0.0
 40
0.6598824178
 41
5.1235817886
 42
6.3187889287
  0
ELLIPSE
  5
5AB
100
AcDbEntity
  8
SUPERFICI
100
AcDbEllipse
 62
7
  6
CONTINUOUS
 10
-5.7741385637
 20
27.7822294989
 30
0.0
 11
0.7714323831
 21
0.6363234218
 31
0.0
 40
0.618533726
 41
5.8164466793
 42
7.381425242
  0
ELLIPSE
  5
5AC
100
AcDbEntity
  8
SUPERFICI
100
AcDbEllipse
 62
7
  6
CONTINUOUS
 10
5.4758614363
 20
14.0038496958
 30
0.0
 11
0.7714323831
 21
0.6363234218
 31
0.0
 40
0.618533726
 41
5.8164466793
 42
7.381425242
  0
ELLIPSE
  5
5AD
100
AcDbEntity
  8
SUPERFICI
100
AcDbEllipse
 62
7
  6
CONTINUOUS
 10
11.0695713412
 20
7.1529821777
 30
0.0
 11
-0.4639649443
 21
1.3333008873
 31
0.0
 40
0.6598824178
 41
5.1235817886
 42
6.3187889287
  0
ELLIPSE
  5
5AE
100
AcDbEntity
  8
SUPERFICI
100
AcDbEllipse
 62
7
  6
CONTINUOUS
 10
-9.9378123427
 20
16.2635999405
 30
0.0
 11
0.2497008669
 21
0.0168853507
 31
0.0
 40
0.7240643587
 41
-2.666917715
 42
-1.101357376
  0
ELLIPSE
  5
5AF
100
AcDbEntity
  8
SUPERFICI
100
AcDbEllipse
 62
7
  6
CONTINUOUS
 10
-18.6378123427
 20
26.9188803217
 30
0.0
 11
0.2497008669
 21
0.0168853507
 31
0.0
 40
0.7240643587
 41
-2.666917715
 42
-1.101357376
  0
ELLIPSE
  5
5B0
100
AcDbEntity
  8
SUPERFICI
100
AcDbEllipse
 62
7
  6
CONTINUOUS
 10
-15.8109412865
 20
25.8353465722
 30
0.0
 11
0.1561728727
 21
0.1249499327
 31
0.0
 40
0.6154201267
 41
1.1184976982
 42
2.6840580372
  0
ELLIPSE
  5
5B1
100
AcDbEntity
  8
SUPERFICI
100
AcDbEllipse
 62
7
  6
CONTINUOUS
 10
-7.388176366
 20
13.1409463542
 30
0.0
 11
0.2497008669
 21
0.0168853507
 31
0.0
 40
0.7240643587
 41
-2.666917715
 42
-1.1019391524
  0
ELLIPSE
  5
5B2
100
AcDbEntity
  8
SUPERFICI
100
AcDbEllipse
 62
7
  6
CONTINUOUS
 10
1.311823634
 20
2.4856659731
 30
0.0
 11
0.2497008669
 21
0.0168853507
 31
0.0
 40
0.7240643587
 41
-2.666917715
 42
-1.1019391524
  0
ELLIPSE
  5
5B3
100
AcDbEntity
  8
SUPERFICI
100
AcDbEllipse
 62
7
  6
CONTINUOUS
 10
-9.2426709727
 20
27.8682809141
 30
0.0
 11
0.4530370595
 21
-0.0032093262
 31
0.0
 40
0.7050320741
 41
-0.7398222569
 42
0.0049819684
  0
ELLIPSE
  5
5B4
100
AcDbEntity
  8
SUPERFICI
100
AcDbEllipse
 62
7
  6
CONTINUOUS
 10
2.0073290273
 20
14.089901111
 30
0.0
 11
0.4530370595
 21
-0.0032093262
 31
0.0
 40
0.7050320741
 41
-0.7398222569
 42
0.0049819684
  0
ELLIPSE
  5
5B5
100
AcDbEntity
  8
SUPERFICI
100
AcDbEllipse
 62
7
  6
CONTINUOUS
 10
-5.2896282627
 20
23.0268121288
 30
0.0
 11
0.4530370595
 21
-0.0032093262
 31
0.0
 40
0.7050320741
 41
-1.0363853632
 42
0.0049872036
  0
ELLIPSE
  5
5B6
100
AcDbEntity
  8
SUPERFICI
100
AcDbEllipse
 62
7
  6
CONTINUOUS
 10
5.9603717373
 20
9.2484323256
 30
0.0
 11
0.4530370595
 21
-0.0032093262
 31
0.0
 40
0.7050320741
 41
-1.0363853632
 42
0.0049872036
  0
ELLIPSE
  5
5B7
100
AcDbEntity
  8
DRAFT
100
AcDbEllipse
 62
7
  6
CONTINUOUS
 10
16.4139499907
 20
1214.6221686165
 30
0.0
 11
12.9340793946
 21
1220.7340311212
 31
0.0
 40
0.006223045
 41
-3.3150163088
 42
-3.3126917709
  0
ELLIPSE
  5
5B8
100
AcDbEntity
  8
RACCORDO
100
AcDbEllipse
 62
7
  6
CONTINUOUS
 10
-15.2817812933
 20
4.9381645537
 30
0.0
 11
-1.8710563096
 21
2.0980468396
 31
0.0
 40
0.0486032944
 41
-0.6124117193
 42
-0.6056689833
  0
ELLIPSE
  5
5B9
100
AcDbEntity
  8
SUPERFICI
100
AcDbEllipse
 62
7
  6
CONTINUOUS
 10
11.1906086185
 20
8.1486856171
 30
0.0
 11
-0.241475643
 21
0.6629882704
 31
0.0
 40
0.6603791198
 41
-3.1045625826
 42
-2.0772242075
  0
ELLIPSE
  5
5BA
100
AcDbEntity
  8
SUPERFICI
100
AcDbEllipse
 62
7
  6
CONTINUOUS
 10
-0.0593913815
 20
21.9270654202
 30
0.0
 11
-0.241475643
 21
0.6629882704
 31
0.0
 40
0.6603791198
 41
-3.1045625826
 42
-2.0772242075
  0
ELLIPSE
  5
5BB
100
AcDbEntity
  8
SUPERFICI
100
AcDbEllipse
 62
7
  6
CONTINUOUS
 10
2.8789748377
 20
17.184373239
 30
0.0
 11
1.0049613849
 21
0.3496472548
 31
0.0
 40
0.079818817
 41
-1.0722123037
 42
0.1229948363
  0
ELLIPSE
  5
5BC
100
AcDbEntity
  8
SUPERFICI
100
AcDbEllipse
 62
7
  6
CONTINUOUS
 10
-3.4131268113
 20
9.6512326842
 30
0.0
 11
0.1997606936
 21
0.0135082805
 31
0.0
 40
0.7240643587
 41
-2.666917715
 42
-1.1048480345
  0
ELLIPSE
  5
5BD
100
AcDbEntity
  8
SUPERFICI
100
AcDbEllipse
 62
7
  6
CONTINUOUS
 10
-2.2105011353
 20
8.1783230553
 30
0.0
 11
0.1997606936
 21
0.0135082805
 31
0.0
 40
0.7240643587
 41
3.0926129494
 42
3.6162675922
  0
ELLIPSE
  5
5BE
100
AcDbEntity
  8
SUPERFICI
100
AcDbEllipse
 62
7
  6
CONTINUOUS
 10
-14.6631268113
 20
23.4296124873
 30
0.0
 11
0.1997606936
 21
0.0135082805
 31
0.0
 40
0.7240643587
 41
-2.666917715
 42
-1.1048480345
  0
ELLIPSE
  5
5BF
100
AcDbEntity
  8
SUPERFICI
100
AcDbEllipse
 62
7
  6
CONTINUOUS
 10
-13.4605011353
 20
21.9567028584
 30
0.0
 11
0.1997606936
 21
0.0135082805
 31
0.0
 40
0.7240643587
 41
3.0926129494
 42
3.6162675922
  0
ELLIPSE
  5
5C0
100
AcDbEntity
  8
SUPERFICI
100
AcDbEllipse
 62
7
  6
CONTINUOUS
 10
-9.2426709727
 20
62.9106965814
 30
0.0
 11
-0.2248455365
 21
36.9862026897
 31
0.0
 40
0.0106339457
 41
-2.834945752
 42
-2.7469501455
  0
ELLIPSE
  5
5C1
100
AcDbEntity
  8
SUPERFICI
100
AcDbEllipse
 62
7
  6
CONTINUOUS
 10
-9.0718974126
 20
28.370723886
 30
0.0
 11
0.3857161916
 21
0.3181617109
 31
0.0
 40
0.618533726
 41
0.6498914437
 42
1.0982399348
  0
ELLIPSE
  5
5C2
100
AcDbEntity
  8
SUPERFICI
100
AcDbEllipse
 62
7
  6
CONTINUOUS
 10
66.4336986901
 20
34.4596011679
 30
0.0
 11
74.1784560007
 21
30.6920708834
 31
0.0
 40
0.0040695631
 41
2.5179393721
 42
2.6888820213
  0
ELLIPSE
  5
5C3
100
AcDbEntity
  8
SUPERFICI
100
AcDbEllipse
 62
7
  6
CONTINUOUS
 10
6.1463673144
 20
9.7322322101
 30
0.0
 11
0.3852221766
 21
0.3187642025
 31
0.0
 40
0.6102990632
 41
1.003798544
 42
1.0973300751
  0
ELLIPSE
  5
5C4
100
AcDbEntity
  8
SUPERFICI
100
AcDbEllipse
 62
7
  6
CONTINUOUS
 10
66.4336986901
 20
34.4596011679
 30
0.0
 11
74.1784560007
 21
30.6920708834
 31
0.0
 40
0.0040695631
 41
-2.6922496622
 42
-2.5213070129
  0
ELLIPSE
  5
5C5
100
AcDbEntity
  8
SUPERFICI
100
AcDbEllipse
 62
7
  6
CONTINUOUS
 10
2.1781025874
 20
14.5923440828
 30
0.0
 11
0.3857161916
 21
0.3181617109
 31
0.0
 40
0.618533726
 41
0.6498914437
 42
1.0982399348
  0
ELLIPSE
  5
5C6
100
AcDbEntity
  8
SUPERFICI
100
AcDbEllipse
 62
7
  6
CONTINUOUS
 10
2.0073290273
 20
49.1323167782
 30
0.0
 11
-0.2248455365
 21
36.9862026897
 31
0.0
 40
0.0106339457
 41
-2.834945752
 42
-2.7469501455
  0
ELLIPSE
  5
5C7
100
AcDbEntity
  8
RACCORDO
100
AcDbEllipse
 62
7
  6
CONTINUOUS
 10
11.4490200245
 20
5.3998516918
 30
0.0
 11
0.5578532303
 21
0.9810453341
 31
0.0
 40
0.6868078488
 41
-0.5168669933
 42
-0.3723221523
  0
ELLIPSE
  5
5C8
100
AcDbEntity
  8
RACCORDO
100
AcDbEllipse
 62
7
  6
CONTINUOUS
 10
12.3278708405
 20
-20.8233943057
 30
0.0
 11
-0.7561303673
 21
1.8519051081
 31
0.0
 40
0.3535028648
 41
-3.1348284189
 42
-2.4280000474
  0
ELLIPSE
  5
5C9
100
AcDbEntity
  8
RACCORDO
100
AcDbEllipse
 62
7
  6
CONTINUOUS
 10
11.1057221781
 20
6.3058004388
 30
0.0
 11
1.0516050168
 21
-0.5814084415
 31
0.0
 40
0.6865200958
 41
-0.5107675381
 42
0.5356445293
  0
ELLIPSE
  5
5CA
100
AcDbEntity
  8
RACCORDO
100
AcDbEllipse
 62
7
  6
CONTINUOUS
 10
-8.4071759992
 20
30.2041224075
 30
0.0
 11
1.0305616595
 21
-0.5930322269
 31
0.0
 40
0.7011680174
 41
8.0388470332
 42
8.9097208631
  0
ELLIPSE
  5
5CB
100
AcDbEntity
  8
RACCORDO
100
AcDbEllipse
 62
7
  6
CONTINUOUS
 10
11.9706491332
 20
-13.9706686031
 30
0.0
 11
-0.4542541205
 21
1.6373066656
 31
0.0
 40
0.5441083044
 41
-2.4613061785
 42
-2.0424401217
  0
ELLIPSE
  5
5CC
100
AcDbEntity
  8
RACCORDO
100
AcDbEllipse
 62
7
  6
CONTINUOUS
 10
3.7548921273
 20
-24.5169429194
 30
0.0
 11
-0.7561303673
 21
1.8519051081
 31
0.0
 40
0.3535028648
 41
3.0699132682
 42
3.6386998514
  0
ELLIPSE
  5
5CD
100
AcDbEntity
  8
RACCORDO
100
AcDbEllipse
 62
7
  6
CONTINUOUS
 10
3.7548921273
 20
-24.5169429194
 30
0.0
 11
-0.7561303673
 21
1.8519051081
 31
0.0
 40
0.3535028648
 41
-2.5596614861
 42
-2.4634120736
  0
ELLIPSE
  5
5CE
100
AcDbEntity
  8
RACCORDO
100
AcDbEllipse
 62
7
  6
CONTINUOUS
 10
1.4365490138
 20
11.0272943184
 30
0.0
 11
0.2471009741
 21
0.2412419165
 31
0.0
 40
0.4565017896
 41
-0.0405675473
 42
-0.0310746859
  0
ELLIPSE
  5
5CF
100
AcDbEntity
  8
RACCORDO
100
AcDbEllipse
 62
7
  6
CONTINUOUS
 10
-11.0634509862
 20
26.3366052108
 30
0.0
 11
0.2471009741
 21
0.2412419165
 31
0.0
 40
0.4565017896
 41
-0.0405675473
 42
-0.0310746859
  0
ELLIPSE
  5
5D0
100
AcDbEntity
  8
RACCORDO
100
AcDbEllipse
 62
7
  6
CONTINUOUS
 10
-9.1084650555
 20
23.9422462185
 30
0.0
 11
0.2407223687
 21
0.2487268715
 31
0.0
 40
0.4543842591
 41
-0.0628635649
 42
-0.0533707036
  0
ELLIPSE
  5
5D1
100
AcDbEntity
  8
RACCORDO
100
AcDbEllipse
 62
7
  6
CONTINUOUS
 10
-3.8498673442
 20
28.7278021049
 30
0.0
 11
4.9114610509
 21
4.8369474301
 31
0.0
 40
0.0176665793
 41
3.0317005315
 42
3.1241958558
  0
ELLIPSE
  5
5D2
100
AcDbEntity
  8
RACCORDO
100
AcDbEllipse
 62
7
  6
CONTINUOUS
 10
3.7548921273
 20
1.1106527489
 30
0.0
 11
-0.7560629481
 21
1.8516628263
 31
0.0
 40
0.3535911687
 41
3.8681126509
 42
3.9869496768
  0
ELLIPSE
  5
5D3
100
AcDbEntity
  8
RACCORDO
100
AcDbEllipse
 62
7
  6
CONTINUOUS
 10
3.7548921273
 20
1.1106527489
 30
0.0
 11
-0.7560629481
 21
1.8516628263
 31
0.0
 40
0.3535911687
 41
4.0687679043
 42
4.6405602297
  0
ENDSEC
  0
SECTION
  2
OBJECTS
  0
DICTIONARY
  5
C
100
AcDbDictionary
280
0
281
1
  3
ACAD_GROUP
350
D
  3
ACAD_MLINESTYLE
350
17
  3
ACAD_LAYOUT
350
1A
  3
ACAD_PLOTSETTINGS
350
19
  3
ACAD_PLOTSTYLENAME
350
E
  0
DICTIONARY
  5
D
102
{ACAD_REACTORS
330
C
102
}
100
AcDbDictionary
280
0
281
1
  0
ACDBDICTIONARYWDFLT
  5
E
102
{ACAD_REACTORS
330
C
102
}
100
AcDbDictionary
281
1
  3
Normal
350
F
100
AcDbDictionaryWithDefault
340
F
  0
DICTIONARY
  5
17
102
{ACAD_REACTORS
330
C
102
}
100
AcDbDictionary
280
0
281
1
  3
Standard
350
18
  0
DICTIONARY
  5
19
102
{ACAD_REACTORS
330
C
102
}
100
AcDbDictionary
281
1
  0
DICTIONARY
  5
1A
102
{ACAD_REACTORS
330
C
102
}
100
AcDbDictionary
281
1
  3
Model
350
5D4
  3
Layout1
350
5D5
  0
ACDBPLACEHOLDER
  5
F
102
{ACAD_REACTORS
330
E
102
}
  0
MLINESTYLE
  5
18
102
{ACAD_REACTORS
330
17
102
}
100
AcDbMlineStyle
  2
STANDARD
 70
0
  3

 62
256
 51
90.0
 52
90.0
 71
2
 49
0.5
 62
256
  6
BYLAYER
 49
-0.5
 62
256
  6
BYLAYER
  0
LAYOUT
  5
5D4
102
{ACAD_REACTORS
330
1A
102
}
100
AcDbPlotSettings
  1

  2
none_device
  4
ISO_A4_(297.00_x_210.00_MM)
  6

 40
0.0
 41
0.0
 42
0.0
 43
0.0
 44
297.0
 45
210.0
 46
0.0
 47
0.0
 48
0.0
 49
0.0
140
0.0
141
0.0
142
1.0
143
1.0
 70
1024
 72
1
 73
0
 74
0
  7

 75
0
147
1.0
148
0.0
149
0.0
100
AcDbLayout
  1
Model
 70
0
 71
0
 10
0.0
 20
0.0
 11
297.0
 21
210.0
 12
0.0
 22
0.0
 32
0.0
 14
0.0
 24
0.0
 34
0.0
 15
0.0
 25
0.0
 35
0.0
146
0.0
 13
0.0
 23
0.0
 33
0.0
 16
1.0
 26
0.0
 36
0.0
 17
0.0
 27
1.0
 37
0.0
 76
0
330
21A
345
0
346
0
  0
LAYOUT
  5
5D5
102
{ACAD_REACTORS
330
1A
102
}
100
AcDbPlotSettings
  1

  2
none_device
  4
ISO_A4_(297.00_x_210.00_MM)
  6

 40
0.0
 41
0.0
 42
0.0
 43
0.0
 44
297.0
 45
210.0
 46
0.0
 47
0.0
 48
0.0
 49
0.0
140
0.0
141
0.0
142
1.0
143
1.0
 70
0
 72
1
 73
0
 74
0
  7

 75
0
147
1.0
148
0.0
149
0.0
100
AcDbLayout
  1
Layout1
 70
0
 71
1
 10
0.0
 20
0.0
 11
297.0
 21
210.0
 12
0.0
 22
0.0
 32
0.0
 14
0.0
 24
0.0
 34
0.0
 15
0.0
 25
0.0
 35
0.0
146
0.0
 13
0.0
 23
0.0
 33
0.0
 16
1.0
 26
0.0
 36
0.0
 17
0.0
 27
1.0
 37
0.0
 76
0
330
21B
345
0
346
0
  0
ENDSEC
  0
EOF
