  0
SECTION
  2
HEADER
  9
$ACADVER
  1
AC1024
  9
$DWGCODEPAGE
  3
ANSI_1252
  9
$EXTMAX
 10
558.8
 20
431.8
 30
0.0
  9
$EXTMIN
 10
0.0
 20
0.0
 30
0.0
  9
$LIMMIN
 10
0.0
 20
0.0
  9
$LIMMAX
 10
558.8
 20
431.8
  9
$VIEWCTR
 10
279.4
 20
215.9
  9
$VIEWSIZE
 40
431.8
  9
$CLAYER
  8
0
  9
$LTSCALE
 40
30.734
  9
$CELTYPE
  6
BYLAYER
  9
$DIMSCALE
 40
1.0
  9
$DIMASZ
 40
3.0
  9
$DIMEXO
 40
0.5
  9
$DIMDLI
 40
21.2344
  9
$DIMEXE
 40
1.5
  9
$DIMCEN
 40
5.0292
  9
$DIMLFAC
 40
1.0
  9
$DIMBLK
  1
_FILLED
  9
$DIMALT
 70
0
  9
$DIMALTF
 40
0.0393700787
  9
$DIMTXT
 40
3.0
  9
$DIMTOL
 70
1
  9
$DIMLIM
 70
0
  9
$DIMTFAC
 40
1.0
  9
$DIMTP
 40
0.01
  9
$DIMTM
 40
0.01
  9
$DIMGAP
 40
0.625
  9
$DIMDSEP
 70
44
  9
$AUNITS
 70
0
  9
$PDMODE
 70
3
  9
$PDSIZE
 40
3.0
  9
$HANDSEED
  5
4AB
  9
$TILEMODE
 70
1
  9
$MEASUREMENT
 70
1
  9
$INSUNITS
 70
4
  0
ENDSEC
  0
SECTION
  2
CLASSES
  0
CLASS
  1
ACDBDICTIONARYWDFLT
  2
AcDbDictionaryWithDefault
  3
AutoCAD 2000
 90
0
 91
1
280
0
281
0
  0
CLASS
  1
ACDBPLACEHOLDER
  2
AcDbPlaceHolder
  3
AutoCAD 2000
 90
0
 91
1
280
0
281
0
  0
CLASS
  1
LAYOUT
  2
AcDbLayout
  3
AutoCAD 2000
 90
0
 91
0
280
0
281
0
  0
ENDSEC
  0
SECTION
  2
TABLES
  0
TABLE
  2
VPORT
  5
8
100
AcDbSymbolTable
 70
2
  0
VPORT
  5
1F4
100
AcDbSymbolTableRecord
100
AcDbViewportTableRecord
  2
*ACTIVE
 70
0
 10
0.0
 20
0.0
 11
1.0
 21
1.0
 12
279.4
 22
215.9
 13
0.0
 23
0.0
 14
1.0
 24
1.0
 15
0.0
 25
0.0
 16
0.0
 26
0.0
 36
1.0
 17
0.0
 27
0.0
 37
0.0
 40
431.8
 41
1.2941176471
 42
50.0
 43
0.0
 44
0.0
 50
0.0
 51
0.0
 71
0
 72
100
 73
1
 74
1
 75
0
 76
0
 77
0
 78
0
  0
ENDTAB
  0
TABLE
  2
LTYPE
  5
5
100
AcDbSymbolTable
 70
6
  0
LTYPE
  5
14
100
AcDbSymbolTableRecord
100
AcDbLinetypeTableRecord
  2
BYBLOCK
 70
0
  3

 72
65
 73
0
 40
0.0
  0
LTYPE
  5
15
100
AcDbSymbolTableRecord
100
AcDbLinetypeTableRecord
  2
BYLAYER
 70
0
  3

 72
65
 73
0
 40
0.0
  0
LTYPE
  5
16
100
AcDbSymbolTableRecord
100
AcDbLinetypeTableRecord
  2
CONTINUOUS
 70
64
  3
Solid line
 72
65
 73
0
 40
0.0
  0
LTYPE
  5
1F5
100
AcDbSymbolTableRecord
100
AcDbLinetypeTableRecord
  2
CENTER
 70
64
  3
____ _ ____ _ ____ _ ____ _ ____ _ ____ _ ____
 72
65
 73
4
 40
0.6
 49
0.375
 74
0
 49
-0.075
 74
0
 49
0.075
 74
0
 49
-0.075
 74
0
  0
LTYPE
  5
1F6
100
AcDbSymbolTableRecord
100
AcDbLinetypeTableRecord
  2
HIDDEN
 70
64
  3
- - - - - - - - - - - - - - - - - - - -
 72
65
 73
2
 40
0.2
 49
0.1
 74
0
 49
-0.1
 74
0
  0
LTYPE
  5
1F7
100
AcDbSymbolTableRecord
100
AcDbLinetypeTableRecord
  2
PHANTOM
 70
64
  3
_____ _ _ _____ _ _ _____ _ _ _____
 72
65
 73
6
 40
0.8
 49
0.45
 74
0
 49
-0.05
 74
0
 49
0.1
 74
0
 49
-0.05
 74
0
 49
0.1
 74
0
 49
-0.05
 74
0
  0
LTYPE
  5
1F8
100
AcDbSymbolTableRecord
100
AcDbLinetypeTableRecord
  2
DOT
 70
64
  3
. . . . . . . . . . . . . . . . . . . .
 72
65
 73
2
 40
0.2
 49
0.1
 74
0
 49
-0.1
 74
0
  0
LTYPE
  5
1F9
100
AcDbSymbolTableRecord
100
AcDbLinetypeTableRecord
  2
DASHED
 70
64
  3
- - - - - - - - - - - - - - - - - - - -
 72
65
 73
2
 40
0.2
 49
0.1
 74
0
 49
-0.1
 74
0
  0
ENDTAB
  0
TABLE
  2
LAYER
  5
2
100
AcDbSymbolTable
 70
36
  0
LAYER
  5
10
100
AcDbSymbolTableRecord
100
AcDbLayerTableRecord
  2
0
 70
0
 62
7
  6
CONTINUOUS
370
-3
390
F
  0
LAYER
  5
1FA
100
AcDbSymbolTableRecord
100
AcDbLayerTableRecord
  2
DEFAULT_1
 70
0
 62
7
  6
CENTER
370
-3
390
F
  0
LAYER
  5
1FB
100
AcDbSymbolTableRecord
100
AcDbLayerTableRecord
  2
DEFAULT_2
 70
0
 62
7
  6
HIDDEN
370
-3
390
F
  0
LAYER
  5
1FC
100
AcDbSymbolTableRecord
100
AcDbLayerTableRecord
  2
DEFAULT_3
 70
0
 62
7
  6
PHANTOM
370
-3
390
F
  0
LAYER
  5
1FD
100
AcDbSymbolTableRecord
100
AcDbLayerTableRecord
  2
ASSI
 70
0
 62
7
  6
CONTINUOUS
370
-3
390
F
  0
LAYER
  5
1FE
100
AcDbSymbolTableRecord
100
AcDbLayerTableRecord
  2
COORDINATE
 70
0
 62
7
  6
CONTINUOUS
370
-3
390
F
  0
LAYER
  5
1FF
100
AcDbSymbolTableRecord
100
AcDbLayerTableRecord
  2
COORD_ORIGINE
 70
0
 62
7
  6
CONTINUOUS
370
-3
390
F
  0
LAYER
  5
200
100
AcDbSymbolTableRecord
100
AcDbLayerTableRecord
  2
COPY_PUBLISH
 70
0
 62
7
  6
CONTINUOUS
370
-3
390
F
  0
LAYER
  5
201
100
AcDbSymbolTableRecord
100
AcDbLayerTableRecord
  2
COSMETIC
 70
0
 62
7
  6
CONTINUOUS
370
-3
390
F
  0
LAYER
  5
202
100
AcDbSymbolTableRecord
100
AcDbLayerTableRecord
  2
COSMETICHE
 70
0
 62
7
  6
CONTINUOUS
370
-3
390
F
  0
LAYER
  5
203
100
AcDbSymbolTableRecord
100
AcDbLayerTableRecord
  2
CURVE
 70
0
 62
7
  6
CONTINUOUS
370
-3
390
F
  0
LAYER
  5
204
100
AcDbSymbolTableRecord
100
AcDbLayerTableRecord
  2
DRAFT
 70
0
 62
7
  6
CONTINUOUS
370
-3
390
F
  0
LAYER
  5
205
100
AcDbSymbolTableRecord
100
AcDbLayerTableRecord
  2
IMPORT_IGES
 70
0
 62
7
  6
CONTINUOUS
370
-3
390
F
  0
LAYER
  5
206
100
AcDbSymbolTableRecord
100
AcDbLayerTableRecord
  2
INCISIONI_LASER
 70
0
 62
7
  6
CONTINUOUS
370
-3
390
F
  0
LAYER
  5
207
100
AcDbSymbolTableRecord
100
AcDbLayerTableRecord
  2
INTF_1
 70
0
 62
7
  6
CONTINUOUS
370
-3
390
F
  0
LAYER
  5
208
100
AcDbSymbolTableRecord
100
AcDbLayerTableRecord
  2
INTF_11
 70
0
 62
7
  6
CONTINUOUS
370
-3
390
F
  0
LAYER
  5
209
100
AcDbSymbolTableRecord
100
AcDbLayerTableRecord
  2
NOTE
 70
0
 62
7
  6
CONTINUOUS
370
-3
390
F
  0
LAYER
  5
20A
100
AcDbSymbolTableRecord
100
AcDbLayerTableRecord
  2
PIANI
 70
0
 62
7
  6
CONTINUOUS
370
-3
390
F
  0
LAYER
  5
20B
100
AcDbSymbolTableRecord
100
AcDbLayerTableRecord
  2
PIANI_ORIGINE
 70
0
 62
7
  6
CONTINUOUS
370
-3
390
F
  0
LAYER
  5
20C
100
AcDbSymbolTableRecord
100
AcDbLayerTableRecord
  2
PIANI_RIFERIMENTO
 70
0
 62
7
  6
CONTINUOUS
370
-3
390
F
  0
LAYER
  5
20D
100
AcDbSymbolTableRecord
100
AcDbLayerTableRecord
  2
PIANI_SFORMO
 70
0
 62
7
  6
CONTINUOUS
370
-3
390
F
  0
LAYER
  5
20E
100
AcDbSymbolTableRecord
100
AcDbLayerTableRecord
  2
PUNTI
 70
0
 62
7
  6
CONTINUOUS
370
-3
390
F
  0
LAYER
  5
20F
100
AcDbSymbolTableRecord
100
AcDbLayerTableRecord
  2
RACCORDO
 70
0
 62
7
  6
CONTINUOUS
370
-3
390
F
  0
LAYER
  5
210
100
AcDbSymbolTableRecord
100
AcDbLayerTableRecord
  2
SKEL
 70
0
 62
7
  6
CONTINUOUS
370
-3
390
F
  0
LAYER
  5
211
100
AcDbSymbolTableRecord
100
AcDbLayerTableRecord
  2
SMUSSO
 70
0
 62
7
  6
CONTINUOUS
370
-3
390
F
  0
LAYER
  5
212
100
AcDbSymbolTableRecord
100
AcDbLayerTableRecord
  2
SNAPLINE
 70
0
 62
7
  6
CONTINUOUS
370
-3
390
F
  0
LAYER
  5
213
100
AcDbSymbolTableRecord
100
AcDbLayerTableRecord
  2
SUPERFICI
 70
0
 62
7
  6
CONTINUOUS
370
-3
390
F
  0
LAYER
  5
214
100
AcDbSymbolTableRecord
100
AcDbLayerTableRecord
  2
TRASH
 70
0
 62
7
  6
CONTINUOUS
370
-3
390
F
  0
LAYER
  5
215
100
AcDbSymbolTableRecord
100
AcDbLayerTableRecord
  2
XSEC_DATUMS
 70
0
 62
7
  6
CONTINUOUS
370
-3
390
F
  0
ENDTAB
  0
TABLE
  2
STYLE
  5
3
100
AcDbSymbolTable
 70
1
  0
STYLE
  5
11
100
AcDbSymbolTableRecord
100
AcDbTextStyleTableRecord
  2
STANDARD
 70
0
 40
0.0
 41
0.8
 50
0.0
 71
0
 42
0.2
  3
txt
  4

  0
STYLE
  5
216
100
AcDbSymbolTableRecord
100
AcDbTextStyleTableRecord
  2
TEXTSTYLE_1
 70
0
 40
0.0
 41
0.8
 50
0.0
 71
0
 42
0.2
  3
gdt
  4

  0
ENDTAB
  0
TABLE
  2
VIEW
  5
6
100
AcDbSymbolTable
 70
0
  0
ENDTAB
  0
TABLE
  2
UCS
  5
7
100
AcDbSymbolTable
 70
0
  0
ENDTAB
  0
TABLE
  2
APPID
  5
9
100
AcDbSymbolTable
 70
1
  0
APPID
  5
217
100
AcDbSymbolTableRecord
100
AcDbRegAppTableRecord
  2
ACAD
 70
0
  0
ENDTAB
  0
TABLE
  2
BLOCK_RECORD
  5
1
100
AcDbSymbolTable
 70
0
  0
BLOCK_RECORD
  5
218
100
AcDbSymbolTableRecord
100
AcDbBlockTableRecord
  2
*Model_Space
  0
BLOCK_RECORD
  5
219
100
AcDbSymbolTableRecord
100
AcDbBlockTableRecord
  2
*Paper_Space
  0
BLOCK_RECORD
  5
21A
100
AcDbSymbolTableRecord
100
AcDbBlockTableRecord
  2
_FILLED
  0
ENDTAB
  0
TABLE
  2
DIMSTYLE
  5
A
100
AcDbSymbolTable
 70
1
100
AcDbDimStyleTable
 71
0
  0
DIMSTYLE
105
21B
100
AcDbSymbolTableRecord
100
AcDbDimStyleTableRecord
  2
STANDARD
 70
0
  3

  4

 40
1.0
 41
3.0
 42
0.5
 43
0.38
 44
1.5
 45
0.0
 46
0.0
 47
0.01
 48
0.01
140
3.0
141
0.09
142
0.0
143
25.4
144
1.0
145
0.0
146
1.0
147
0.625
 71
1
 72
0
 73
0
 74
0
 75
0
 76
0
 77
1
 78
8
 79
2
170
0
171
1
172
0
173
0
174
0
175
0
176
0
177
0
178
0
270
2
179
2
271
2
272
2
273
2
274
2
275
0
280
0
281
0
282
0
283
1
284
8
285
0
286
0
287
3
288
0
340
11
278
44
341
21A
342
21A
343
21A
344
21A
  0
ENDTAB
  0
ENDSEC
  0
SECTION
  2
BLOCKS
  0
BLOCK
  5
20
100
AcDbEntity
  8
0
100
AcDbBlockBegin
  2
*Model_Space
 70
0
 10
0.0
 20
0.0
 30
0.0
  3
*Model_Space
  1

  0
ENDBLK
  5
21
100
AcDbEntity
  8
0
100
AcDbBlockEnd
  0
BLOCK
  5
1C
100
AcDbEntity
  8
0
100
AcDbBlockBegin
  2
*Paper_Space
 70
0
 10
0.0
 20
0.0
 30
0.0
  3
*Paper_Space
  1

  0
ENDBLK
  5
1D
100
AcDbEntity
  8
0
100
AcDbBlockEnd
  0
BLOCK
  5
21C
100
AcDbEntity
  8
0
100
AcDbBlockBegin
  2
_FILLED
 70
64
 10
0.0
 20
0.0
  3
_FILLED
  1

  0
SOLID
  5
21D
100
AcDbEntity
  8
0
  6
BYBLOCK
 62
0
100
AcDbTrace
 10
0.0
 20
0.0
 11
-1.0
 21
0.3166666667
 12
-1.0
 22
-0.3166666667
 13
-1.0
 23
-0.3166666667
  0
ENDBLK
  5
21E
100
AcDbEntity
  8
0
  6
BYBLOCK
 62
0
100
AcDbBlockEnd
  0
ENDSEC
  0
SECTION
  2
ENTITIES
  0
LINE
  5
21F
100
AcDbEntity
  8
0
100
AcDbLine
 62
7
  6
CONTINUOUS
 10
-15.610645097
 20
23.9122663332
 11
-14.0274714316
 21
24.7244643913
  0
LINE
  5
220
100
AcDbEntity
  8
0
100
AcDbLine
 62
250
  6
CONTINUOUS
 10
-15.4975594308
 20
23.9058183581
 11
-13.9148028277
 21
24.7178024554
  0
LINE
  5
221
100
AcDbEntity
  8
0
100
AcDbLine
 62
7
  6
CONTINUOUS
 10
-14.0274714336
 20
24.7244643904
 11
-14.025735017
 21
24.725332613
  0
LWPOLYLINE
  5
222
100
AcDbEntity
  8
0
100
AcDbPolyline
 62
250
  6
CONTINUOUS
 90
16
 70
0
 10
-15.610645097
 20
23.9122663332
 10
-15.6072473727
 20
23.9139239576
 10
-15.6005021517
 20
23.9167365054
 10
-15.5935214128
 20
23.9190350588
 10
-15.5863209688
 20
23.9208144112
 10
-15.5789171304
 20
23.9220705319
 10
-15.571326669
 20
23.9228005755
 10
-15.5635667785
 20
23.9230028884
 10
-15.555655037
 20
23.9226770121
 10
-15.5476093663
 20
23.921823685
 10
-15.5394479917
 20
23.9204448399
 10
-15.5311894004
 20
23.9185436003
 10
-15.5228523
 20
23.9161242729
 10
-15.514455576
 20
23.9131923381
 10
-15.5060182488
 20
23.9097544373
 10
-15.4975594308
 20
23.9058183581
  0
LINE
  5
223
100
AcDbEntity
  8
0
100
AcDbLine
 62
7
  6
CONTINUOUS
 10
-14.0257350178
 20
24.7253326127
 11
-13.4908650601
 21
24.985884713
  0
LWPOLYLINE
  5
224
100
AcDbEntity
  8
0
100
AcDbPolyline
 62
7
  6
CONTINUOUS
 90
16
 70
0
 10
-14.025735017
 20
24.725332613
 10
-14.0240773886
 20
24.7261201215
 10
-14.0173418998
 20
24.7289276595
 10
-14.0103741605
 20
24.731219521
 10
-14.0031899035
 20
24.7329905409
 10
-13.9958053879
 20
24.7342367159
 10
-13.9882374335
 20
24.7349551811
 10
-13.980503112
 20
24.7351443462
 10
-13.9726199061
 20
24.7348038029
 10
-13.9646058066
 20
24.7339342613
 10
-13.9564788762
 20
24.7325377383
 10
-13.9482574652
 20
24.7306174284
 10
-13.9399603684
 20
24.7281776018
 10
-13.9316063751
 20
24.7252237908
 10
-13.9232142259
 20
24.7217627778
 10
-13.9148028277
 20
24.7178024554
  0
LWPOLYLINE
  5
225
100
AcDbEntity
  8
0
100
AcDbPolyline
 62
7
  6
CONTINUOUS
 90
22
 70
0
 10
-19.1821194857
 20
20.5466707864
 10
-19.1972142465
 20
20.5376866081
 10
-19.242967389
 20
20.5080549415
 10
-19.2871802276
 20
20.4758062096
 10
-19.3298869957
 20
20.4410164017
 10
-19.3710396564
 20
20.4038059231
 10
-19.4104987004
 20
20.3643823734
 10
-19.4482620916
 20
20.3228245487
 10
-19.4843081903
 20
20.2792082045
 10
-19.5184655381
 20
20.2337912939
 10
-19.5507148102
 20
20.1866491506
 10
-19.5810210759
 20
20.1378524591
 10
-19.6092057096
 20
20.0877079701
 10
-19.635236808
 20
20.0362923072
 10
-19.6590681449
 20
19.9836780028
 10
-19.6805394069
 20
19.9301971008
 10
-19.6996113068
 20
19.875922558
 10
-19.716230168
 20
19.8209235
 10
-19.7302679129
 20
19.765521321
 10
-19.7416621704
 20
19.7098560401
 10
-19.750370857
 20
19.6539047245
 10
-19.752711585
 20
19.6347749675
  0
LINE
  5
226
100
AcDbEntity
  8
0
100
AcDbLine
 62
7
  6
CONTINUOUS
 10
-19.1822185389
 20
20.5466133619
 11
-15.1506316449
 21
22.8973977862
  0
LINE
  5
227
100
AcDbEntity
  8
0
100
AcDbLine
 62
250
  6
CONTINUOUS
 10
-18.9491028445
 20
20.5377069871
 11
-15.0435380372
 21
22.815008992
  0
LWPOLYLINE
  5
228
100
AcDbEntity
  8
0
100
AcDbPolyline
 62
250
  6
CONTINUOUS
 90
19
 70
0
 10
-19.18211961
 20
20.5466710037
 10
-19.1720581928
 20
20.552102557
 10
-19.1611287092
 20
20.557103851
 10
-19.1498258485
 20
20.5613880751
 10
-19.1381679492
 20
20.5649482728
 10
-19.1261739077
 20
20.5677786708
 10
-19.1138631498
 20
20.5698746869
 10
-19.1012556603
 20
20.5712329023
 10
-19.0883718653
 20
20.5718511162
 10
-19.0752325741
 20
20.571728364
 10
-19.061859099
 20
20.5708648301
 10
-19.0482731258
 20
20.5692619024
 10
-19.0344965937
 20
20.5669222192
 10
-19.0205518469
 20
20.5638495567
 10
-19.0064615001
 20
20.5600488798
 10
-18.9922483076
 20
20.5555263888
 10
-18.9779352881
 20
20.5502894152
 10
-18.9635456878
 20
20.54434641
 10
-18.9491028445
 20
20.5377069871
  0
LINE
  5
229
100
AcDbEntity
  8
0
100
AcDbLine
 62
250
  6
CONTINUOUS
 10
-13.8190213604
 20
23.0665493229
 11
-12.2177405696
 21
23.8692713264
  0
LINE
  5
22A
100
AcDbEntity
  8
0
100
AcDbLine
 62
250
  6
CONTINUOUS
 10
-13.6422476567
 20
22.761659784
 11
-12.0409668659
 21
23.5643817875
  0
LINE
  5
22B
100
AcDbEntity
  8
0
100
AcDbLine
 62
250
  6
CONTINUOUS
 10
-12.2177405696
 20
23.8692713264
 11
-11.6894733978
 21
24.1327101464
  0
LINE
  5
22C
100
AcDbEntity
  8
0
100
AcDbLine
 62
250
  6
CONTINUOUS
 10
-12.0409668659
 20
23.5643817875
 11
-11.5126996942
 21
23.8278206076
  0
LINE
  5
22D
100
AcDbEntity
  8
0
100
AcDbLine
 62
250
  6
CONTINUOUS
 10
-13.9148028277
 20
24.7178024554
 11
-13.380352949
 21
24.978149922
  0
LINE
  5
22E
100
AcDbEntity
  8
0
100
AcDbLine
 62
250
  6
CONTINUOUS
 10
-13.4908650601
 20
24.985884713
 11
-13.4867632341
 21
24.9876908434
  0
LWPOLYLINE
  5
22F
100
AcDbEntity
  8
0
100
AcDbPolyline
 62
250
  6
CONTINUOUS
 90
15
 70
0
 10
-13.4867632341
 20
24.9876908434
 10
-13.4824654064
 20
24.9894808171
 10
-13.4755094248
 20
24.9917650981
 10
-13.4683400829
 20
24.9935268396
 10
-13.4609736871
 20
24.9947620217
 10
-13.4534270902
 20
24.9954678315
 10
-13.4457175041
 20
24.9956427007
 10
-13.4378623049
 20
24.9952862756
 10
-13.4298791462
 20
24.9943993717
 10
-13.4217848986
 20
24.9929837476
 10
-13.4135990879
 20
24.9910427039
 10
-13.4053438216
 20
24.9885818069
 10
-13.397039066
 20
24.9856077574
 10
-13.3887024845
 20
24.9821276249
 10
-13.380352949
 20
24.978149922
  0
LWPOLYLINE
  5
230
100
AcDbEntity
  8
0
100
AcDbPolyline
 62
7
  6
CONTINUOUS
 90
19
 70
0
 10
-4.691641775
 20
24.9716471492
 10
-4.6807291617
 20
24.97536622
 10
-4.6694423054
 20
24.9784986105
 10
-4.6577909251
 20
24.9810370706
 10
-4.6457915624
 20
24.9829774034
 10
-4.6334491708
 20
24.9843098771
 10
-4.6207555642
 20
24.9850181723
 10
-4.6077284681
 20
24.9850964528
 10
-4.5943726159
 20
24.9845354701
 10
-4.5806575153
 20
24.9833108783
 10
-4.5666068293
 20
24.9814201509
 10
-4.5522195097
 20
24.9788472296
 10
-4.5374230783
 20
24.9755410918
 10
-4.5222102593
 20
24.9714874881
 10
-4.5066098824
 20
24.9666722491
 10
-4.4906009158
 20
24.9610381633
 10
-4.4741930581
 20
24.9545669883
 10
-4.4574071382
 20
24.94724492
 10
-4.4403831325
 20
24.9390899142
  0
LWPOLYLINE
  5
231
100
AcDbEntity
  8
0
100
AcDbPolyline
 62
250
  6
CONTINUOUS
 90
22
 70
0
 10
-19.383365592
 20
-17.6692726409
 10
-19.4000315216
 20
-17.6584522484
 10
-19.4161794322
 20
-17.6467077879
 10
-19.4317924939
 20
-17.6340515723
 10
-19.4468540143
 20
-17.6204970919
 10
-19.4613478239
 20
-17.6060588357
 10
-19.475258766
 20
-17.5907520442
 10
-19.488571943
 20
-17.574593059
 10
-19.5012730999
 20
-17.5575990996
 10
-19.5133490068
 20
-17.5397880788
 10
-19.5247867401
 20
-17.5211789776
 10
-19.5355740415
 20
-17.5017916115
 10
-19.5456996949
 20
-17.4816463993
 10
-19.5551529064
 20
-17.460764678
 10
-19.5639234823
 20
-17.439168757
 10
-19.5720021987
 20
-17.4168816932
 10
-19.5793803816
 20
-17.3939273808
 10
-19.5860501893
 20
-17.3703300815
 10
-19.5920047597
 20
-17.3461144506
 10
-19.597237784
 20
-17.3213060662
 10
-19.6017435487
 20
-17.2959314322
 10
-19.6055172114
 20
-17.2700175047
  0
LINE
  5
232
100
AcDbEntity
  8
0
100
AcDbLine
 62
250
  6
CONTINUOUS
 10
-12.0409668659
 20
22.8373369351
 11
-11.5126996942
 21
23.4802890908
  0
LINE
  5
233
100
AcDbEntity
  8
0
100
AcDbLine
 62
7
  6
CONTINUOUS
 10
-12.0409668659
 20
22.7478064687
 11
-11.4973391218
 21
23.4094539243
  0
LINE
  5
234
100
AcDbEntity
  8
0
100
AcDbLine
 62
7
  6
CONTINUOUS
 10
-10.4499766082
 20
20.0379961236
 11
-9.7428698271
 21
20.4369359824
  0
LINE
  5
235
100
AcDbEntity
  8
0
100
AcDbLine
 62
7
  6
CONTINUOUS
 10
-12.0409668659
 20
21.9622311266
 11
-12.9310270486
 21
21.4655502053
  0
LINE
  5
236
100
AcDbEntity
  8
0
100
AcDbLine
 62
7
  6
CONTINUOUS
 10
-10.0610678786
 20
22.357922279
 11
-11.11555731
 21
21.8169492403
  0
LINE
  5
237
100
AcDbEntity
  8
0
100
AcDbLine
 62
7
  6
CONTINUOUS
 10
-10.4499766082
 20
21.4841588894
 11
-9.6022712223
 21
21.9140517861
  0
LINE
  5
238
100
AcDbEntity
  8
0
100
AcDbLine
 62
250
  6
CONTINUOUS
 10
-7.9759256255
 20
21.1008789877
 11
-7.7629708397
 21
21.2088737595
  0
LINE
  5
239
100
AcDbEntity
  8
0
100
AcDbLine
 62
250
  6
CONTINUOUS
 10
-7.8336815179
 20
20.8573775357
 11
-7.6215494835
 21
20.9649550694
  0
LINE
  5
23A
100
AcDbEntity
  8
0
100
AcDbLine
 62
7
  6
CONTINUOUS
 10
-3.9524580676
 20
25.9958476896
 11
-11.3379739116
 21
22.3128030422
  0
LINE
  5
23B
100
AcDbEntity
  8
0
100
AcDbLine
 62
7
  6
CONTINUOUS
 10
-4.0839586989
 20
24.6369228576
 11
-8.6822096553
 21
22.3705615601
  0
LINE
  5
23C
100
AcDbEntity
  8
0
100
AcDbLine
 62
7
  6
CONTINUOUS
 10
-4.0528117593
 20
23.2666337483
 11
-4.0153048994
 21
23.2851199284
  0
LINE
  5
23D
100
AcDbEntity
  8
0
100
AcDbLine
 62
250
  6
CONTINUOUS
 10
-7.7629708397
 20
21.2088737595
 11
-7.0558640585
 21
21.5573887617
  0
LINE
  5
23E
100
AcDbEntity
  8
0
100
AcDbLine
 62
7
  6
CONTINUOUS
 10
-0.8999213049
 20
24.4695793083
 11
-3.0493790732
 21
23.4101660786
  0
LINE
  5
23F
100
AcDbEntity
  8
0
100
AcDbLine
 62
250
  6
CONTINUOUS
 10
-7.6215494835
 20
20.9649550694
 11
-6.9144427023
 21
21.3134700716
  0
LINE
  5
240
100
AcDbEntity
  8
0
100
AcDbLine
 62
7
  6
CONTINUOUS
 10
-4.7248444726
 20
24.9573657445
 11
-10.0610678786
 21
22.357922279
  0
LWPOLYLINE
  5
241
100
AcDbEntity
  8
0
100
AcDbPolyline
 62
7
  6
CONTINUOUS
 90
7
 70
0
 10
-4.0839586989
 20
24.6369228576
 10
-4.0787449995
 20
24.6394449473
 10
-4.0735403171
 20
24.6418693341
 10
-4.068344652
 20
24.6441960178
 10
-4.0631580039
 20
24.6464249986
 10
-4.0579803731
 20
24.6485562764
 10
-4.0528117593
 20
24.6505898512
  0
LINE
  5
242
100
AcDbEntity
  8
RACCORDO
100
AcDbLine
 62
7
  6
CONTINUOUS
 10
4.1255270722
 20
29.1233667557
 11
-2.9953270647
 21
25.7651916717
  0
LINE
  5
243
100
AcDbEntity
  8
RACCORDO
100
AcDbLine
 62
250
  6
CONTINUOUS
 10
4.5644118226
 20
29.0909638207
 11
-2.7489494916
 21
25.6420028852
  0
LWPOLYLINE
  5
244
100
AcDbEntity
  8
0
100
AcDbPolyline
 62
7
  6
CONTINUOUS
 90
31
 70
0
 10
-4.0187275091
 20
23.2837430275
 10
-3.9920435012
 20
23.2963250913
 10
-3.9649736731
 20
23.3082817677
 10
-3.9375180247
 20
23.3196130567
 10
-3.9097689554
 20
23.3302802335
 10
-3.8816340657
 20
23.340322023
 10
-3.8528361577
 20
23.3498545994
 10
-3.8232460445
 20
23.3589270996
 10
-3.792992913
 20
23.3674903868
 10
-3.7621871248
 20
23.3755132247
 10
-3.7308266641
 20
23.3829936386
 10
-3.6989135468
 20
23.3899336033
 10
-3.6665641831
 20
23.3963078063
 10
-3.6337769774
 20
23.4021141818
 10
-3.6005535253
 20
23.4073547956
 10
-3.5670150232
 20
23.4120105338
 10
-3.5331603241
 20
23.4160792598
 10
-3.4989905749
 20
23.4195631101
 10
-3.4646304134
 20
23.4224493806
 10
-3.4300791423
 20
23.4247358891
 10
-3.3953374589
 20
23.4264248179
 10
-3.3605320928
 20
23.4275100098
 10
-3.3256628144
 20
23.4279892599
 10
-3.2907298532
 20
23.4278647732
 10
-3.2558606272
 20
23.4271370075
 10
-3.2210553669
 20
23.4258037596
 10
-3.1863138418
 20
23.4238672326
 10
-3.1517627773
 20
23.4213344943
 10
-3.1174444153
 20
23.4182079005
 10
-3.0833165139
 20
23.4144850952
 10
-3.0493790732
 20
23.4101660786
  0
LWPOLYLINE
  5
245
100
AcDbEntity
  8
RACCORDO
100
AcDbPolyline
 62
250
  6
CONTINUOUS
 90
9
 70
0
 10
4.5644118226
 20
29.0909638207
 10
4.6253074592
 20
29.1168860328
 10
4.6856685588
 20
29.1361265664
 10
4.7450452333
 20
29.1485385572
 10
4.8029972632
 20
29.1540259897
 10
4.859089014
 20
29.1525435213
 10
4.9128936715
 20
29.1441002155
 10
4.9640081318
 20
29.1287589687
 10
4.9991808018
 20
29.1133790809
  0
LWPOLYLINE
  5
246
100
AcDbEntity
  8
RACCORDO
100
AcDbPolyline
 62
7
  6
CONTINUOUS
 90
5
 70
0
 10
-3.9447104834
 20
22.107535619
 10
-3.9267537716
 20
22.1145560403
 10
-3.9086902824
 20
22.1193536526
 10
-3.8889882266
 20
22.1223468173
 10
-3.8676196704
 20
22.1233238251
  0
LWPOLYLINE
  5
247
100
AcDbEntity
  8
RACCORDO
100
AcDbPolyline
 62
250
  6
CONTINUOUS
 90
7
 70
0
 10
-3.9003496774
 20
22.1276361819
 10
-3.8695116245
 20
22.136711111
 10
-3.83683074
 20
22.1406661622
 10
-3.8026649816
 20
22.1394580027
 10
-3.7673885529
 20
22.1330998546
 10
-3.731387806
 20
22.1216613496
 10
-3.6950570389
 20
22.1052677533
  0
LINE
  5
248
100
AcDbEntity
  8
0
100
AcDbLine
 62
250
  6
CONTINUOUS
 10
0.7909582985
 20
-23.9711440449
 11
0.2626911267
 21
-23.8626417678
  0
LINE
  5
249
100
AcDbEntity
  8
0
100
AcDbLine
 62
250
  6
CONTINUOUS
 10
0.7015445031
 20
-23.6515772389
 11
0.2626911267
 21
-23.5614399122
  0
LWPOLYLINE
  5
24A
100
AcDbEntity
  8
0
100
AcDbPolyline
 62
7
  6
CONTINUOUS
 90
16
 70
0
 10
-0.627369056
 20
-24.1782508087
 10
-0.6331077393
 20
-24.1770331193
 10
-0.6390334589
 20
-24.175715045
 10
-0.6451449405
 20
-24.1743004689
 10
-0.6514435169
 20
-24.1727972042
 10
-0.6579245721
 20
-24.171205759
 10
-0.6645775997
 20
-24.1695193095
 10
-0.6714004844
 20
-24.1677426397
 10
-0.6783906867
 20
-24.1658803247
 10
-0.6855368033
 20
-24.1639254519
 10
-0.6928359877
 20
-24.1618833051
 10
-0.7002850054
 20
-24.1597589866
 10
-0.7078716139
 20
-24.1575455347
 10
-0.7155922093
 20
-24.1552487256
 10
-0.7234428448
 20
-24.1528741781
 10
-0.7314105047
 20
-24.1504149201
  0
LWPOLYLINE
  5
24B
100
AcDbEntity
  8
0
100
AcDbPolyline
 62
7
  6
CONTINUOUS
 90
3
 70
0
 10
-0.7314105047
 20
-24.1504149201
 10
-0.7476791159
 20
-24.1452671578
 10
-0.75596157
 20
-24.1425778702
  0
LWPOLYLINE
  5
24C
100
AcDbEntity
  8
0
100
AcDbPolyline
 62
7
  6
CONTINUOUS
 90
3
 70
0
 10
-0.75596157
 20
-24.1425778702
 10
-0.7727880712
 20
-24.136988339
 10
-0.7813120579
 20
-24.1340879538
  0
LWPOLYLINE
  5
24D
100
AcDbEntity
  8
0
100
AcDbPolyline
 62
7
  6
CONTINUOUS
 90
3
 70
0
 10
-0.7813120579
 20
-24.1340879538
 10
-0.7985427874
 20
-24.1280977512
 10
-0.8072278557
 20
-24.1250085321
  0
LWPOLYLINE
  5
24E
100
AcDbEntity
  8
0
100
AcDbPolyline
 62
7
  6
CONTINUOUS
 90
3
 70
0
 10
-0.8072278557
 20
-24.1250085321
 10
-0.8246945423
 20
-24.1186656144
 10
-0.8334528241
 20
-24.1154133761
  0
LWPOLYLINE
  5
24F
100
AcDbEntity
  8
0
100
AcDbPolyline
 62
7
  6
CONTINUOUS
 90
17
 70
0
 10
-0.8334528241
 20
-24.1154133761
 10
-0.8509721424
 20
-24.1087730244
 10
-0.8597081651
 20
-24.1053873753
 10
-0.8684142037
 20
-24.1019644196
 10
-0.8770814687
 20
-24.098512682
 10
-0.8856921186
 20
-24.095027254
 10
-0.8942366725
 20
-24.0915165881
 10
-0.9027055674
 20
-24.0879895624
 10
-0.9110804129
 20
-24.0844421411
 10
-0.9193508162
 20
-24.0808829054
 10
-0.9275064721
 20
-24.0773210059
 10
-0.9355286928
 20
-24.0737534543
 10
-0.9433959069
 20
-24.0701950102
 10
-0.9511076795
 20
-24.066648299
 10
-0.9586755717
 20
-24.0630945802
 10
-0.966094107
 20
-24.05953634
 10
-0.9733419871
 20
-24.0559945975
  0
LWPOLYLINE
  5
250
100
AcDbEntity
  8
0
100
AcDbPolyline
 62
7
  6
CONTINUOUS
 90
15
 70
0
 10
-4.4580939931
 20
-25.1334037194
 10
-4.4166614851
 20
-25.1521169465
 10
-4.3738756959
 20
-25.1681570953
 10
-4.3299700535
 20
-25.1814086025
 10
-4.285063035
 20
-25.1918136888
 10
-4.2391388095
 20
-25.199335452
 10
-4.1923591537
 20
-25.2038924736
 10
-4.1449203804
 20
-25.205416712
 10
-4.0968317439
 20
-25.2038515025
 10
-4.0482550709
 20
-25.1991319833
 10
-3.9993757478
 20
-25.1912126211
 10
-3.9501989222
 20
-25.1800178051
 10
-3.9008174706
 20
-25.1654728342
 10
-3.8514450323
 20
-25.1475434457
 10
-3.8365571512
 20
-25.141456969
  0
LWPOLYLINE
  5
251
100
AcDbEntity
  8
0
100
AcDbPolyline
 62
250
  6
CONTINUOUS
 90
34
 70
0
 10
-1.6911116237
 20
-25.3692084961
 10
-1.682546692
 20
-25.3732928506
 10
-1.6736009087
 20
-25.3771715204
 10
-1.6642938797
 20
-25.3808355384
 10
-1.6546446947
 20
-25.3842768658
 10
-1.6446759076
 20
-25.3874869534
 10
-1.6344139161
 20
-25.390457091
 10
-1.6238833546
 20
-25.3931802195
 10
-1.6131064339
 20
-25.3956506645
 10
-1.6021071965
 20
-25.3978629066
 10
-1.5909102263
 20
-25.3998119798
 10
-1.5795408336
 20
-25.4014934573
 10
-1.5680248159
 20
-25.4029035175
 10
-1.5563881795
 20
-25.4040389823
 10
-1.5446569956
 20
-25.4048973142
 10
-1.5328575731
 20
-25.4054765879
 10
-1.5210164174
 20
-25.4057754981
 10
-1.5091601922
 20
-25.4057933677
 10
-1.4973155839
 20
-25.4055301539
 10
-1.4855092384
 20
-25.4049864478
 10
-1.4737677048
 20
-25.4041634705
 10
-1.462117396
 20
-25.4030630718
 10
-1.4505845141
 20
-25.4016877254
 10
-1.4391950012
 20
-25.4000405235
 10
-1.4279744834
 20
-25.3981251713
 10
-1.4169482
 20
-25.3959459764
 10
-1.4061409499
 20
-25.3935078396
 10
-1.3955770444
 20
-25.3908162449
 10
-1.385280239
 20
-25.3878772443
 10
-1.3752736992
 20
-25.3846974492
 10
-1.3655799495
 20
-25.3812840178
 10
-1.3562207974
 20
-25.3776446308
 10
-1.3472172859
 20
-25.3737874727
 10
-1.3385896641
 20
-25.3697212199
  0
LWPOLYLINE
  5
252
100
AcDbEntity
  8
0
100
AcDbPolyline
 62
250
  6
CONTINUOUS
 90
34
 70
0
 10
-1.6911116237
 20
-25.0292345619
 10
-1.6825320033
 20
-25.0333255958
 10
-1.6735741248
 20
-25.0372086529
 10
-1.6642581337
 20
-25.0408750008
 10
-1.654604992
 20
-25.0443163903
 10
-1.644636398
 20
-25.0475250864
 10
-1.6343747335
 20
-25.0504938832
 10
-1.6238430482
 20
-25.0532161076
 10
-1.6130650482
 20
-25.0556856277
 10
-1.602065009
 20
-25.0578968796
 10
-1.5908676822
 20
-25.0598448882
 10
-1.5794982375
 20
-25.0615252754
 10
-1.5679822445
 20
-25.0629342619
 10
-1.5563456024
 20
-25.064068679
 10
-1.544614481
 20
-25.0649259756
 10
-1.5328152625
 20
-25.0655042237
 10
-1.520974474
 20
-25.0658021229
 10
-1.5091187536
 20
-25.0658190028
 10
-1.4972747897
 20
-25.0655548263
 10
-1.4854692355
 20
-25.0650101903
 10
-1.4737286235
 20
-25.0641863213
 10
-1.4620793313
 20
-25.0630850712
 10
-1.450547472
 20
-25.0617089054
 10
-1.4391590671
 20
-25.0600609259
 10
-1.4279399523
 20
-25.0581448802
 10
-1.4169154933
 20
-25.0559651242
 10
-1.4061103167
 20
-25.0535265513
 10
-1.3955484949
 20
-25.0508346037
 10
-1.3852529541
 20
-25.0478950862
 10
-1.3752477153
 20
-25.0447148178
 10
-1.3655574063
 20
-25.0413017379
 10
-1.3562042771
 20
-25.0376639517
 10
-1.3472083773
 20
-25.0338095349
 10
-1.3385896641
 20
-25.0297472858
  0
LINE
  5
253
100
AcDbEntity
  8
0
100
AcDbLine
 62
7
  6
CONTINUOUS
 10
-19.3554873894
 20
-17.6847245858
 11
-19.3557292569
 21
-17.684603763
  0
LINE
  5
254
100
AcDbEntity
  8
0
100
AcDbLine
 62
7
  6
CONTINUOUS
 10
-4.4580939931
 20
-25.1334037194
 11
-19.355729253
 21
-17.6846037649
  0
LINE
  5
255
100
AcDbEntity
  8
0
100
AcDbLine
 62
250
  6
CONTINUOUS
 10
-4.716437352
 20
-24.7145574344
 11
-19.6055172114
 21
-17.2700175047
  0
LINE
  5
256
100
AcDbEntity
  8
0
100
AcDbLine
 62
7
  6
CONTINUOUS
 10
-3.0295639128
 20
-24.8027141534
 11
-1.6261383273
 21
-25.5044269462
  0
LINE
  5
257
100
AcDbEntity
  8
0
100
AcDbLine
 62
250
  6
CONTINUOUS
 10
-2.9178696981
 20
-24.7558294589
 11
-1.6911116237
 21
-25.3692084961
  0
LINE
  5
258
100
AcDbEntity
  8
0
100
AcDbLine
 62
250
  6
CONTINUOUS
 10
-1.6911116237
 20
-25.0292345619
 11
-2.5482361385
 21
-24.6006723046
  0
LINE
  5
259
100
AcDbEntity
  8
0
100
AcDbLine
 62
250
  6
CONTINUOUS
 10
-1.6027232761
 20
-24.7975403881
 11
-2.2482790483
 21
-24.474762502
  0
LINE
  5
25A
100
AcDbEntity
  8
0
100
AcDbLine
 62
7
  6
CONTINUOUS
 10
-0.9733419871
 20
-24.0559945975
 11
-1.0999151883
 21
-23.9927259985
  0
LINE
  5
25B
100
AcDbEntity
  8
0
100
AcDbLine
 62
250
  6
CONTINUOUS
 10
-19.3661995088
 20
-17.6791573856
 11
-19.3722539033
 21
-17.6760570564
  0
LWPOLYLINE
  5
25C
100
AcDbEntity
  8
0
100
AcDbPolyline
 62
250
  6
CONTINUOUS
 90
18
 70
0
 10
-19.751790717
 20
-17.0947487439
 10
-19.7507043262
 20
-17.1019366298
 10
-19.7480858196
 20
-17.114361392
 10
-19.7445509116
 20
-17.1266302806
 10
-19.7401061842
 20
-17.1387204515
 10
-19.7347599132
 20
-17.1506093931
 10
-19.7285220532
 20
-17.1622749687
 10
-19.7214042188
 20
-17.1736954574
 10
-19.7134196633
 20
-17.1848495946
 10
-19.7045832536
 20
-17.1957166117
 10
-19.6949114428
 20
-17.2062762747
 10
-19.6844222394
 20
-17.2165089219
 10
-19.673135174
 20
-17.2263955004
 10
-19.6610712627
 20
-17.2359176019
 10
-19.648252968
 20
-17.2450574964
 10
-19.6347041573
 20
-17.2537981659
 10
-19.6204500578
 20
-17.2621233354
 10
-19.6055172103
 20
-17.2700175039
  0
LWPOLYLINE
  5
25D
100
AcDbEntity
  8
0
100
AcDbPolyline
 62
250
  6
CONTINUOUS
 90
19
 70
0
 10
-20.4398679843
 20
-7.3070503078
 10
-20.4392085117
 20
-7.3183227205
 10
-20.4376236057
 20
-7.3293155863
 10
-20.4351122352
 20
-7.3402527043
 10
-20.4316790751
 20
-7.3511137149
 10
-20.4273305162
 20
-7.3618784005
 10
-20.4220746534
 20
-7.3725267223
 10
-20.4159212705
 20
-7.3830388587
 10
-20.4088818221
 20
-7.3933952411
 10
-20.4009694121
 20
-7.4035765911
 10
-20.3921987695
 20
-7.413563956
 10
-20.3825862209
 20
-7.4233387444
 10
-20.3721496602
 20
-7.4328827605
 10
-20.3609085149
 20
-7.4421782379
 10
-20.3488837107
 20
-7.4512078732
 10
-20.3360976316
 20
-7.4599548576
 10
-20.322574079
 20
-7.4684029085
 10
-20.3083382272
 20
-7.4765363
 10
-20.2934165761
 20
-7.4843398916
  0
LWPOLYLINE
  5
25E
100
AcDbEntity
  8
0
100
AcDbPolyline
 62
7
  6
CONTINUOUS
 90
10
 70
0
 10
-20.4398679838
 20
-7.3070502381
 10
-20.4166667478
 20
-8.4024396592
 10
-20.3796554252
 20
-9.5211169894
 10
-20.329305714
 20
-10.6321829158
 10
-20.265626377
 20
-11.7354055009
 10
-20.1886285626
 20
-12.830556734
 10
-20.0983259402
 20
-13.9174079846
 10
-19.9947343913
 20
-14.9957344954
 10
-19.8778725347
 20
-16.0653103165
 10
-19.7518035154
 20
-17.0946498089
  0
LWPOLYLINE
  5
25F
100
AcDbEntity
  8
0
100
AcDbPolyline
 62
250
  6
CONTINUOUS
 90
13
 70
0
 10
-20.2934165762
 20
-7.4843398916
 10
-20.3125782111
 20
-6.1231110364
 10
-20.328255701
 20
-4.7600370585
 10
-20.3404490996
 20
-3.3951317408
 10
-20.3491584503
 20
-2.0284180352
 10
-20.3543839712
 20
-0.6599006299
 10
-20.356125818
 20
0.7104341707
 10
-20.35438397
 20
2.0825726166
 10
-20.3491584482
 20
3.4565009554
 10
-20.340449097
 20
4.8322330659
 10
-20.3282556985
 20
6.2097644874
 10
-20.3125782094
 20
7.589072302
 10
-20.2934165762
 20
8.9701427803
  0
LWPOLYLINE
  5
260
100
AcDbEntity
  8
0
100
AcDbPolyline
 62
250
  6
CONTINUOUS
 90
20
 70
0
 10
-20.4398698184
 20
9.1462223987
 10
-20.4398640018
 20
9.1422684933
 10
-20.4392085106
 20
9.1317359241
 10
-20.4376236046
 20
9.1212162447
 10
-20.4351122341
 20
9.1107290375
 10
-20.4316790739
 20
9.1002938246
 10
-20.427330515
 20
9.0899300311
 10
-20.4220746522
 20
9.0796569492
 10
-20.4159212693
 20
9.0694937024
 10
-20.4088818209
 20
9.0594592096
 10
-20.4009694109
 20
9.04957215
 10
-20.3921987683
 20
9.0398509285
 10
-20.3825862197
 20
9.0303136411
 10
-20.372149659
 20
9.0209780416
 10
-20.3609085138
 20
9.0118615082
 10
-20.3488837095
 20
9.0029810114
 10
-20.3360976304
 20
8.9943530822
 10
-20.3225740779
 20
8.9859937817
 10
-20.3083382261
 20
8.9779186706
 10
-20.2934165751
 20
8.9701427808
  0
LWPOLYLINE
  5
261
100
AcDbEntity
  8
0
100
AcDbPolyline
 62
7
  6
CONTINUOUS
 90
10
 70
0
 10
-20.4398698185
 20
9.1462224592
 10
-20.4643593047
 20
7.3292713877
 10
-20.4830791225
 20
5.4843342522
 10
-20.4955576363
 20
3.6425390894
 10
-20.5017945845
 20
1.8039200011
 10
-20.5017898242
 20
-0.0314911309
 10
-20.4955433026
 20
-1.8636630357
 10
-20.4830550566
 20
-3.692563925
 10
-20.4643252426
 20
-5.5181598973
 10
-20.4398679843
 20
-7.3070503078
  0
LWPOLYLINE
  5
262
100
AcDbEntity
  8
0
100
AcDbPolyline
 62
250
  6
CONTINUOUS
 90
16
 70
0
 10
-20.2934165762
 20
8.9701427803
 10
-20.280693196
 20
9.6555549209
 10
-20.2632255559
 20
10.3432590563
 10
-20.2410150042
 20
11.0332030059
 10
-20.2140632995
 20
11.7253344166
 10
-20.1823724795
 20
12.4196007838
 10
-20.1459448594
 20
13.1159494557
 10
-20.1047832663
 20
13.8143276676
 10
-20.0588908604
 20
14.5146823869
 10
-20.0082710045
 20
15.2169603346
 10
-19.9529276302
 20
15.9211082064
 10
-19.8928649887
 20
16.6270726386
 10
-19.8280874688
 20
17.3348000543
 10
-19.7585999878
 20
18.0442367725
 10
-19.6844079928
 20
18.7553290118
 10
-19.6055172114
 20
19.4680228549
  0
LWPOLYLINE
  5
263
100
AcDbEntity
  8
0
100
AcDbPolyline
 62
250
  6
CONTINUOUS
 90
21
 70
0
 10
-19.752711585
 20
19.6347749675
 10
-19.7530210906
 20
19.6314201829
 10
-19.7531741647
 20
19.6227257131
 10
-19.7524013633
 20
19.6139484363
 10
-19.7507041253
 20
19.6051046953
 10
-19.748085611
 20
19.5962109569
 10
-19.7445506961
 20
19.5872837809
 10
-19.7401059625
 20
19.5783397895
 10
-19.7347596862
 20
19.5693956359
 10
-19.7285218217
 20
19.5604679739
 10
-19.7214039839
 20
19.5515734264
 10
-19.7134194258
 20
19.5427285548
 10
-19.7045830145
 20
19.5339498278
 10
-19.694911203
 20
19.5252535912
 10
-19.684422
 20
19.5166560369
 10
-19.673134936
 20
19.5081731732
 10
-19.661071027
 20
19.4998207951
 10
-19.6482527356
 20
19.4916144541
 10
-19.634703929
 20
19.4835694303
 10
-19.6204498344
 20
19.4757007031
 10
-19.6055169927
 20
19.4680229239
  0
LWPOLYLINE
  5
264
100
AcDbEntity
  8
0
100
AcDbPolyline
 62
7
  6
CONTINUOUS
 90
10
 70
0
 10
-19.7527074645
 20
19.6348127301
 10
-19.8788545825
 20
18.4740604543
 10
-19.9954953298
 20
17.2853874282
 10
-20.0989039736
 20
16.1014953096
 10
-20.1890576389
 20
14.9226309463
 10
-20.2659361044
 20
13.7490385582
 10
-20.3295213642
 20
12.5809646251
 10
-20.3797980782
 20
11.4186511196
 10
-20.4167533218
 20
10.2623409201
 10
-20.4398698184
 20
9.1462223987
  0
LWPOLYLINE
  5
265
100
AcDbEntity
  8
0
100
AcDbPolyline
 62
250
  6
CONTINUOUS
 90
43
 70
0
 10
-19.6055172114
 20
19.4680228549
 10
-19.6017436197
 20
19.4977765602
 10
-19.5972379114
 20
19.5277360047
 10
-19.5920049111
 20
19.5578693952
 10
-19.5860502836
 20
19.588144793
 10
-19.5793803444
 20
19.6185300397
 10
-19.5720020546
 20
19.6489927913
 10
-19.5639233413
 20
19.6795007271
 10
-19.5551528346
 20
19.7100214929
 10
-19.5456996737
 20
19.7405226272
 10
-19.5355739952
 20
19.77097181
 10
-19.5247866299
 20
19.801336726
 10
-19.513348837
 20
19.8315850086
 10
-19.5012728918
 20
19.8616845831
 10
-19.4885717064
 20
19.8916035467
 10
-19.4752585197
 20
19.9213100306
 10
-19.4613476023
 20
19.9507725687
 10
-19.4468538426
 20
19.9799599164
 10
-19.4317923653
 20
20.0088409297
 10
-19.4161793223
 20
20.0373850095
 10
-19.4000314197
 20
20.0655619119
 10
-19.3833654998
 20
20.0933415661
 10
-19.3661994281
 20
20.1206945554
 10
-19.3485515796
 20
20.1475919009
 10
-19.3304403636
 20
20.1740048711
 10
-19.3118851912
 20
20.1999055073
 10
-19.2929059292
 20
20.2252663781
 10
-19.2735223841
 20
20.2500603623
 10
-19.2537553349
 20
20.274261219
 10
-19.233625944
 20
20.2978433355
 10
-19.2131552098
 20
20.32078148
 10
-19.1923650681
 20
20.343051393
 10
-19.1712777856
 20
20.3646295102
 10
-19.14991537
 20
20.3854927088
 10
-19.1283007143
 20
20.4056189335
 10
-19.1064569681
 20
20.4249869051
 10
-19.0844069302
 20
20.4435758414
 10
-19.0621742393
 20
20.4613661036
 10
-19.0397826993
 20
20.4783388999
 10
-19.0172556501
 20
20.4944759917
 10
-18.9946170097
 20
20.5097602385
 10
-18.9718912485
 20
20.5241756171
 10
-18.9491027141
 20
20.5377069219
  0
LWPOLYLINE
  5
266
100
AcDbEntity
  8
0
100
AcDbPolyline
 62
250
  6
CONTINUOUS
 90
30
 70
0
 10
-13.6422476567
 20
22.4216858499
 10
-13.6466681822
 20
22.4107943551
 10
-13.6514753776
 20
22.4001280863
 10
-13.6566583931
 20
22.3897111165
 10
-13.6622055312
 20
22.3795669563
 10
-13.6681042722
 20
22.3697185003
 10
-13.674341303
 20
22.3601879761
 10
-13.6809025471
 20
22.3509968935
 10
-13.687773196
 20
22.3421659961
 10
-13.6949377432
 20
22.3337152147
 10
-13.7023800186
 20
22.3256636224
 10
-13.7100832255
 20
22.318029391
 10
-13.7180299783
 20
22.3108297506
 10
-13.7262023415
 20
22.3040809504
 10
-13.7345818706
 20
22.2977982219
 10
-13.7431496535
 20
22.291995745
 10
-13.7518863532
 20
22.2866866154
 10
-13.7607722516
 20
22.2818828156
 10
-13.7697872937
 20
22.2775951874
 10
-13.778911133
 20
22.2738334078
 10
-13.7881231775
 20
22.270605967
 10
-13.7974026364
 20
22.2679201489
 10
-13.8067285663
 20
22.2657820155
 10
-13.8160799191
 20
22.2641963922
 10
-13.8254355895
 20
22.2631668578
 10
-13.8347744623
 20
22.2626957359
 10
-13.8440754601
 20
22.2627840898
 10
-13.8533175911
 20
22.26343172
 10
-13.8624799965
 20
22.2646371649
 10
-13.8690911503
 20
22.2658646891
  0
LINE
  5
267
100
AcDbEntity
  8
RACCORDO
100
AcDbLine
 62
7
  6
CONTINUOUS
 10
-5.6723110474
 20
20.6041079328
 11
-3.982720842
 21
22.0828272139
  0
LINE
  5
268
100
AcDbEntity
  8
RACCORDO
100
AcDbLine
 62
250
  6
CONTINUOUS
 10
-5.3282503656
 20
20.6935819153
 11
-3.734109371
 21
22.0887646157
  0
LWPOLYLINE
  5
269
100
AcDbEntity
  8
RACCORDO
100
AcDbPolyline
 62
7
  6
CONTINUOUS
 90
4
 70
0
 10
-3.9827222788
 20
22.0828259564
 10
-3.9716631003
 20
22.0916804454
 10
-3.9581613992
 20
22.1005263545
 10
-3.9447104834
 20
22.107535619
  0
LWPOLYLINE
  5
26A
100
AcDbEntity
  8
0
100
AcDbPolyline
 62
7
  6
CONTINUOUS
 90
18
 70
0
 10
-4.0187275091
 20
23.2837430275
 10
-4.0072407766
 20
23.291977769
 10
-3.9964904408
 20
23.3001446874
 10
-3.9864765017
 20
23.3082437829
 10
-3.9772219444
 20
23.3162013755
 10
-3.9687037839
 20
23.3240911451
 10
-3.960853064
 20
23.3321341309
 10
-3.9536362234
 20
23.3404176504
 10
-3.9470868236
 20
23.3488543861
 10
-3.9412365933
 20
23.3574034255
 10
-3.9360889302
 20
23.3660653085
 10
-3.9316404367
 20
23.3748394952
 10
-3.9279126481
 20
23.3836834535
 10
-3.9249090617
 20
23.3925975252
 10
-3.9226261803
 20
23.4015813684
 10
-3.9210750475
 20
23.410591426
 10
-3.9202592159
 20
23.4196278208
 10
-3.9201208505
 20
23.4251944969
  0
LINE
  5
26B
100
AcDbEntity
  8
0
100
AcDbLine
 62
7
  6
CONTINUOUS
 10
-7.6215494835
 20
19.7525224354
 11
-7.8336815179
 21
19.6328404777
  0
LINE
  5
26C
100
AcDbEntity
  8
0
100
AcDbLine
 62
7
  6
CONTINUOUS
 10
-6.155737133
 20
20.3658340398
 11
-6.3685046572
 21
20.2579342331
  0
LINE
  5
26D
100
AcDbEntity
  8
0
100
AcDbLine
 62
250
  6
CONTINUOUS
 10
-6.0659145649
 20
20.3603456221
 11
-6.2788693507
 21
20.2523508503
  0
LINE
  5
26E
100
AcDbEntity
  8
0
100
AcDbLine
 62
7
  6
CONTINUOUS
 10
-4.652523754
 20
19.4391780519
 11
-5.5002291399
 21
19.0092851552
  0
LINE
  5
26F
100
AcDbEntity
  8
0
100
AcDbLine
 62
7
  6
CONTINUOUS
 10
-3.767817526
 20
19.2112971027
 11
-4.8346484382
 21
18.6764948044
  0
LINE
  5
270
100
AcDbEntity
  8
0
100
AcDbLine
 62
7
  6
CONTINUOUS
 10
-3.0493790732
 20
22.8466034203
 11
-1.945412204
 21
23.3985868548
  0
LINE
  5
271
100
AcDbEntity
  8
0
100
AcDbLine
 62
7
  6
CONTINUOUS
 10
-6.1549723323
 20
20.3662164247
 11
-6.1557371175
 21
20.3658340477
  0
LINE
  5
272
100
AcDbEntity
  8
0
100
AcDbLine
 62
7
  6
CONTINUOUS
 10
1.5066745431
 20
21.8416062366
 11
-3.767817526
 21
19.2112971027
  0
LINE
  5
273
100
AcDbEntity
  8
0
100
AcDbLine
 62
7
  6
CONTINUOUS
 10
-6.9144427023
 20
20.1015412861
 11
-7.6215494835
 21
19.7525224354
  0
LINE
  5
274
100
AcDbEntity
  8
0
100
AcDbLine
 62
7
  6
CONTINUOUS
 10
-5.4478655679
 20
20.7147314184
 11
-6.1549723491
 21
20.3662164162
  0
LINE
  5
275
100
AcDbEntity
  8
0
100
AcDbLine
 62
250
  6
CONTINUOUS
 10
-5.3588077837
 20
20.7088606243
 11
-6.0659145649
 21
20.3603456221
  0
LINE
  5
276
100
AcDbEntity
  8
0
100
AcDbLine
 62
7
  6
CONTINUOUS
 10
0.8657887694
 20
22.1620491234
 11
-3.732462187
 21
19.8956878259
  0
LWPOLYLINE
  5
277
100
AcDbEntity
  8
0
100
AcDbPolyline
 62
7
  6
CONTINUOUS
 90
7
 70
0
 10
0.8657887694
 20
22.1620491234
 10
0.8710024689
 20
22.1645712132
 10
0.8762071512
 20
22.1669955999
 10
0.8814028163
 20
22.1693222837
 10
0.8865894644
 20
22.1715512645
 10
0.8917670952
 20
22.1736825423
 10
0.896935709
 20
22.1757161171
  0
LINE
  5
278
100
AcDbEntity
  8
RACCORDO
100
AcDbLine
 62
250
  6
CONTINUOUS
 10
-3.6696976226
 20
22.117238232
 11
-3.6245334036
 21
22.1390460134
  0
LWPOLYLINE
  5
279
100
AcDbEntity
  8
0
100
AcDbPolyline
 62
7
  6
CONTINUOUS
 90
21
 70
0
 10
3.3427193822
 20
22.3482589647
 10
3.3673471582
 20
22.3598693267
 10
3.3918841596
 20
22.3703934865
 10
3.4163303864
 20
22.3798314441
 10
3.4407182688
 20
22.3881927047
 10
3.4650153765
 20
22.3954677631
 10
3.4891244193
 20
22.4016281038
 10
3.5130368767
 20
22.4066683173
 10
3.5367612691
 20
22.4105938132
 10
3.5602258673
 20
22.4133923046
 10
3.5834402812
 20
22.4150603509
 10
3.606394901
 20
22.4156013926
 10
3.628989168
 20
22.4150134643
 10
3.6512093615
 20
22.4132934408
 10
3.6730692024
 20
22.4104444472
 10
3.6945092943
 20
22.4064738933
 10
3.7155416368
 20
22.4013745715
 10
3.7361542303
 20
22.3951536895
 10
3.7562516798
 20
22.3878402805
 10
3.7758183353
 20
22.3794360208
 10
3.7858194686
 20
22.3746190257
  0
LWPOLYLINE
  5
27A
100
AcDbEntity
  8
RACCORDO
100
AcDbPolyline
 62
250
  6
CONTINUOUS
 90
61
 70
0
 10
-3.6245334036
 20
22.1390460134
 10
-3.6049780739
 20
22.1483049081
 10
-3.594829057
 20
22.1530326481
 10
-3.5843800263
 20
22.1578043606
 10
-3.5736314671
 20
22.1626204168
 10
-3.5625828942
 20
22.1674804453
 10
-3.5511801436
 20
22.1723621463
 10
-3.5394215333
 20
22.1772669787
 10
-3.5273087453
 20
22.1821934834
 10
-3.5147926616
 20
22.1871149837
 10
-3.5018685443
 20
22.1920339494
 10
-3.4885411313
 20
22.1969479106
 10
-3.4747755187
 20
22.2018227812
 10
-3.4605685046
 20
22.2066601201
 10
-3.4459232908
 20
22.2114583683
 10
-3.4308145783
 20
22.2161787633
 10
-3.4152394121
 20
22.2208227167
 10
-3.3992007471
 20
22.2253888169
 10
-3.3826821487
 20
22.2298340665
 10
-3.3656668793
 20
22.234162382
 10
-3.3481716764
 20
22.238369847
 10
-3.3302303183
 20
22.2424017143
 10
-3.3117834839
 20
22.2462644324
 10
-3.2928904944
 20
22.2499515529
 10
-3.2737630919
 20
22.2533889831
 10
-3.254393639
 20
22.2565664307
 10
-3.2347897732
 20
22.259494188
 10
-3.2151861483
 20
22.2621290398
 10
-3.1955984988
 20
22.2644589624
 10
-3.1760110902
 20
22.2664959794
 10
-3.1566113729
 20
22.2682329464
 10
-3.1374231884
 20
22.2696618146
 10
-3.1184226952
 20
22.2707906328
 10
-3.0997258195
 20
22.2716364024
 10
-3.0813572
 20
22.2721962192
 10
-3.063292198
 20
22.2724729874
 10
-3.0455728244
 20
22.2724924224
 10
-3.0281973804
 20
22.2722540735
 10
-3.0111675647
 20
22.2717583912
 10
-2.994530484
 20
22.2710324433
 10
-2.9782880005
 20
22.2700752561
 10
-2.9624382519
 20
22.2688878032
 10
-2.9470227578
 20
22.2675000731
 10
-2.9320545183
 20
22.2659129237
 10
-2.9175205333
 20
22.2641254971
 10
-2.9034233226
 20
22.2621652086
 10
-2.8897690813
 20
22.2600338179
 10
-2.8765516143
 20
22.2577295653
 10
-2.8637548556
 20
22.2552745863
 10
-2.8513822293
 20
22.252671062
 10
-2.8394303112
 20
22.2499168114
 10
-2.8278727629
 20
22.2470274265
 10
-2.8167101486
 20
22.2440050225
 10
-2.8059419041
 20
22.2408474843
 10
-2.7955399978
 20
22.2375640575
 10
-2.7855033235
 20
22.2341565223
 10
-2.7758329875
 20
22.2306230985
 10
-2.7665042779
 20
22.2269676922
 10
-2.7575089575
 20
22.2231916051
 10
-2.7488552634
 20
22.2192935353
 10
-2.7405431958
 20
22.215273483
  0
LWPOLYLINE
  5
27B
100
AcDbEntity
  8
RACCORDO
100
AcDbPolyline
 62
250
  6
CONTINUOUS
 90
3
 70
0
 10
-3.6950570389
 20
22.1052677533
 10
-3.6867355021
 20
22.1091625788
 10
-3.6696976226
 20
22.117238232
  0
LINE
  5
27C
100
AcDbEntity
  8
RACCORDO
100
AcDbLine
 62
250
  6
CONTINUOUS
 10
-3.7325160349
 20
22.0879679477
 11
-3.6950570389
 21
22.1052677533
  0
LINE
  5
27D
100
AcDbEntity
  8
RACCORDO
100
AcDbLine
 62
250
  6
CONTINUOUS
 10
-3.9108593473
 20
22.123168026
 11
-3.9003496774
 21
22.1276361819
  0
LWPOLYLINE
  5
27E
100
AcDbEntity
  8
0
100
AcDbPolyline
 62
7
  6
CONTINUOUS
 90
19
 70
0
 10
0.896935709
 20
22.1757161171
 10
0.9078442473
 20
22.1795549482
 10
0.9191309778
 20
22.1828022188
 10
0.9307859505
 20
22.1854506343
 10
0.9427925868
 20
22.1874958457
 10
0.9551455109
 20
22.1889281977
 10
0.9678520776
 20
22.1897317046
 10
0.9808947694
 20
22.1899003337
 10
0.9942681598
 20
22.1894250419
 10
1.0080004568
 20
22.1882825509
 10
1.0220662064
 20
22.1864706138
 10
1.0364675872
 20
22.1839732162
 10
1.051279289
 20
22.1807400212
 10
1.066508261
 20
22.1767572975
 10
1.0821258101
 20
22.1720104082
 10
1.0981561869
 20
22.1664410362
 10
1.1145904175
 20
22.160030779
 10
1.1314069918
 20
22.1527656438
 10
1.1500629192
 20
22.1438658176
  0
LWPOLYLINE
  5
27F
100
AcDbEntity
  8
0
100
AcDbPolyline
 62
250
  6
CONTINUOUS
 90
5
 70
0
 10
0.7249595544
 20
-23.6596646149
 10
0.7207709891
 20
-23.6576979592
 10
0.7145511024
 20
-23.6552223193
 10
0.7081382046
 20
-23.6531807838
 10
0.7015445031
 20
-23.6515772389
  0
LINE
  5
280
100
AcDbEntity
  8
0
100
AcDbLine
 62
250
  6
CONTINUOUS
 10
0.2626911267
 20
-23.4321505507
 11
0.7015445031
 21
-23.6515772389
  0
LINE
  5
281
100
AcDbEntity
  8
0
100
AcDbLine
 62
7
  6
CONTINUOUS
 10
0.2626911267
 20
-23.4285304011
 11
0.7249595544
 21
-23.6596646149
  0
LINE
  5
282
100
AcDbEntity
  8
0
100
AcDbLine
 62
250
  6
CONTINUOUS
 10
0.7098748066
 20
-23.6560428225
 11
0.7015445031
 21
-23.6515772389
  0
LINE
  5
283
100
AcDbEntity
  8
RACCORDO
100
AcDbLine
 62
250
  6
CONTINUOUS
 10
-17.1217488484
 20
-9.8293875665
 11
-17.2491152414
 21
-9.5134021145
  0
LINE
  5
284
100
AcDbEntity
  8
RACCORDO
100
AcDbLine
 62
250
  6
CONTINUOUS
 10
-16.9346515424
 20
-9.5460666857
 11
-17.0879395221
 21
-9.164400858
  0
LINE
  5
285
100
AcDbEntity
  8
RACCORDO
100
AcDbLine
 62
250
  6
CONTINUOUS
 10
-17.2491152414
 20
-9.5134021145
 11
-17.3757334657
 21
-9.197020948
  0
LINE
  5
286
100
AcDbEntity
  8
RACCORDO
100
AcDbLine
 62
250
  6
CONTINUOUS
 10
-17.0879395221
 20
-9.164400858
 11
-17.2402195346
 21
-8.7821304811
  0
LWPOLYLINE
  5
287
100
AcDbEntity
  8
RACCORDO
100
AcDbPolyline
 62
250
  6
CONTINUOUS
 90
10
 70
0
 10
-17.3757334657
 20
-9.197020948
 10
-17.7827614741
 20
-8.1703872038
 10
-18.0632819463
 20
-7.4602047824
 10
-18.3431644603
 20
-6.7497004144
 10
-18.6224091025
 20
-6.03887598
 10
-18.901015774
 20
-5.3277316527
 10
-19.1789841805
 20
-4.6162658953
 10
-19.4563142114
 20
-3.9044788756
 10
-19.7330059495
 20
-3.1923724715
 10
-20.0090593838
 20
-2.4799477076
  0
LWPOLYLINE
  5
288
100
AcDbEntity
  8
RACCORDO
100
AcDbPolyline
 62
250
  6
CONTINUOUS
 90
10
 70
0
 10
-17.2402195346
 20
-8.7821304811
 10
-17.5132762039
 20
-8.0929658149
 10
-17.7857313784
 20
-7.4034986655
 10
-18.0575850582
 20
-6.7137290329
 10
-18.3288379726
 20
-6.0236550399
 10
-18.5994893922
 20
-5.3332785637
 10
-18.869537129
 20
-4.642605236
 10
-19.1389804534
 20
-3.9516369339
 10
-19.407820095
 20
-3.2603717803
 10
-19.6746379833
 20
-2.5724658232
  0
LWPOLYLINE
  5
289
100
AcDbEntity
  8
0
100
AcDbPolyline
 62
7
  6
CONTINUOUS
 90
18
 70
0
 10
-19.7517905516
 20
-17.0947487225
 10
-19.7492878915
 20
-17.1127448676
 10
-19.7400099823
 20
-17.1646838268
 10
-19.7280080228
 20
-17.2147417967
 10
-19.7134229095
 20
-17.2627984267
 10
-19.6963650064
 20
-17.308854087
 10
-19.6768994769
 20
-17.3529790953
 10
-19.655155117
 20
-17.3950644919
 10
-19.6312528807
 20
-17.4350455359
 10
-19.6052227558
 20
-17.4729898331
 10
-19.5772045591
 20
-17.5087822947
 10
-19.5473280955
 20
-17.5423437523
 10
-19.5155863062
 20
-17.5737388513
 10
-19.4821210733
 20
-17.6028575365
 10
-19.4470780162
 20
-17.6296099222
 10
-19.4104279014
 20
-17.6540331655
 10
-19.3722539033
 20
-17.6760570564
 10
-19.3554860233
 20
-17.6847249783
  0
LINE
  5
28A
100
AcDbEntity
  8
0
100
AcDbLine
 62
7
  6
CONTINUOUS
 10
-19.7518035154
 20
-17.0946498089
 11
-19.751790717
 21
-17.0947487439
  0
LWPOLYLINE
  5
28B
100
AcDbEntity
  8
0
100
AcDbPolyline
 62
250
  6
CONTINUOUS
 90
16
 70
0
 10
-19.6055172114
 20
-17.2700175047
 10
-19.6844079928
 20
-16.6390019256
 10
-19.7585999878
 20
-16.0047227752
 10
-19.8280874688
 20
-15.3672282431
 10
-19.8928649887
 20
-14.7265668247
 10
-19.9529276302
 20
-14.0827871226
 10
-20.0082710044
 20
-13.4359378422
 10
-20.0588908604
 20
-12.7860680582
 10
-20.1047832663
 20
-12.133227181
 10
-20.1459448594
 20
-11.4774647579
 10
-20.1823724795
 20
-10.818830623
 10
-20.2140632995
 20
-10.1573747521
 10
-20.2410150042
 20
-9.4931472272
 10
-20.2632255559
 20
-8.8261984304
 10
-20.280693196
 20
-8.1565790411
 10
-20.2934165762
 20
-7.4843398916
  0
LINE
  5
28C
100
AcDbEntity
  8
0
100
AcDbLine
 62
7
  6
CONTINUOUS
 10
-15.7465309915
 20
23.6898298907
 11
-15.7465309915
 21
23.3498559566
  0
LINE
  5
28D
100
AcDbEntity
  8
0
100
AcDbLine
 62
250
  6
CONTINUOUS
 10
-15.6733076868
 20
23.6014415431
 11
-15.6733076868
 21
23.261467609
  0
LWPOLYLINE
  5
28E
100
AcDbEntity
  8
0
100
AcDbPolyline
 62
250
  6
CONTINUOUS
 90
34
 70
0
 10
-15.6733076868
 20
23.6014415431
 10
-15.673108884
 20
23.6118060213
 10
-15.6725129217
 20
23.6223460062
 10
-15.6715211386
 20
23.6330377918
 10
-15.6701357625
 20
23.6438573377
 10
-15.6683599084
 20
23.654780302
 10
-15.6661975733
 20
23.665782096
 10
-15.6636536227
 20
23.6768379681
 10
-15.6607337779
 20
23.6879230572
 10
-15.657444608
 20
23.6990124269
 10
-15.653793511
 20
23.7100811367
 10
-15.6497887004
 20
23.7211042891
 10
-15.6454391882
 20
23.7320570824
 10
-15.6407547595
 20
23.7429148801
 10
-15.6357459515
 20
23.7536532632
 10
-15.6304240329
 20
23.7642480764
 10
-15.6248009725
 20
23.7746754961
 10
-15.6188894218
 20
23.7849120649
 10
-15.6127026901
 20
23.7949347418
 10
-15.6062547135
 20
23.8047209598
 10
-15.5995599802
 20
23.8142487395
 10
-15.592633504
 20
23.8234967146
 10
-15.5854907936
 20
23.832444165
 10
-15.5781479761
 20
23.8410708758
 10
-15.5706217294
 20
23.8493572662
 10
-15.5629290952
 20
23.8572846147
 10
-15.5550872826
 20
23.8648352276
 10
-15.5471137836
 20
23.8719922768
 10
-15.5390253062
 20
23.8787406498
 10
-15.5308412349
 20
23.8850640598
 10
-15.5225835641
 20
23.8909458357
 10
-15.5142721434
 20
23.8963725857
 10
-15.505924511
 20
23.9013335997
 10
-15.4975594308
 20
23.9058183581
  0
LWPOLYLINE
  5
28F
100
AcDbEntity
  8
RACCORDO
100
AcDbPolyline
 62
7
  6
CONTINUOUS
 90
13
 70
0
 10
-18.3207067318
 20
-2.1312722398
 10
-18.3231973646
 20
-2.1424229624
 10
-18.3253290903
 20
-2.1534137531
 10
-18.3270677749
 20
-2.1642333777
 10
-18.3283648917
 20
-2.174906889
 10
-18.3292004287
 20
-2.1853878526
 10
-18.3295827128
 20
-2.1955582687
 10
-18.3294753715
 20
-2.2054089602
 10
-18.328848126
 20
-2.2149309724
 10
-18.3277151759
 20
-2.2240058739
 10
-18.3260386915
 20
-2.2326284073
 10
-18.3237878071
 20
-2.2407874749
 10
-18.3220962552
 20
-2.2455925501
  0
LINE
  5
290
100
AcDbEntity
  8
0
100
AcDbLine
 62
7
  6
CONTINUOUS
 10
-3.767817526
 20
17.8256564566
 11
-4.8346484382
 21
17.2303320386
  0
LWPOLYLINE
  5
291
100
AcDbEntity
  8
0
100
AcDbPolyline
 62
7
  6
CONTINUOUS
 90
21
 70
0
 10
1.5394931401
 20
20.4723317267
 10
1.5520816848
 20
20.4788722264
 10
1.5640901658
 20
20.4856375895
 10
1.5755185832
 20
20.4926278161
 10
1.5863835107
 20
20.4998549287
 10
1.5966683745
 20
20.5073069047
 10
1.6063234533
 20
20.514947677
 10
1.6153457381
 20
20.5227781921
 10
1.6237382379
 20
20.5307975034
 10
1.6314602587
 20
20.5389667037
 10
1.6385085343
 20
20.5472865152
 10
1.644886331
 20
20.5557562157
 10
1.6505627533
 20
20.5643347315
 10
1.6555343927
 20
20.5730225855
 10
1.6598046578
 20
20.5818192547
 10
1.6633528787
 20
20.5906820967
 10
1.6661755513
 20
20.5996114355
 10
1.6682761799
 20
20.6086069471
 10
1.6696446067
 20
20.6176250167
 10
1.6702772768
 20
20.6266657496
 10
1.6703257742
 20
20.6299711902
  0
LINE
  5
292
100
AcDbEntity
  8
0
100
AcDbLine
 62
7
  6
CONTINUOUS
 10
-3.3069871043
 20
17.7604373369
 11
-1.723813439
 21
18.572635395
  0
LINE
  5
293
100
AcDbEntity
  8
0
100
AcDbLine
 62
250
  6
CONTINUOUS
 10
-3.1939014382
 20
17.7539893617
 11
-1.611144835
 21
18.5659734591
  0
LINE
  5
294
100
AcDbEntity
  8
0
100
AcDbLine
 62
7
  6
CONTINUOUS
 10
8.1960918155
 20
21.9887216463
 11
12.4235088247
 21
24.1573867103
  0
LINE
  5
295
100
AcDbEntity
  8
DRAFT
100
AcDbLine
 62
7
  6
CONTINUOUS
 10
7.9937211001
 20
21.6606138885
 11
12.2087472668
 21
23.8091894274
  0
LINE
  5
296
100
AcDbEntity
  8
0
100
AcDbLine
 62
250
  6
CONTINUOUS
 10
-1.5153633678
 20
16.9147203265
 11
0.0859174231
 21
17.71744233
  0
LINE
  5
297
100
AcDbEntity
  8
0
100
AcDbLine
 62
7
  6
CONTINUOUS
 10
-1.723813441
 20
18.572635394
 11
-1.7220770243
 21
18.5735036167
  0
LINE
  5
298
100
AcDbEntity
  8
0
100
AcDbLine
 62
7
  6
CONTINUOUS
 10
-3.767817526
 20
17.8256564566
 11
1.5394931401
 21
20.4723317267
  0
LINE
  5
299
100
AcDbEntity
  8
0
100
AcDbLine
 62
250
  6
CONTINUOUS
 10
0.0859174231
 20
17.71744233
 11
0.6141845948
 21
17.9808811501
  0
LINE
  5
29A
100
AcDbEntity
  8
DRAFT
100
AcDbLine
 62
7
  6
CONTINUOUS
 10
7.5184582915
 20
21.2985505791
 11
8.554850204
 21
21.8128298803
  0
LINE
  5
29B
100
AcDbEntity
  8
0
100
AcDbLine
 62
7
  6
CONTINUOUS
 10
1.6703279913
 20
21.5239796554
 11
3.3427193822
 21
22.3482589647
  0
LINE
  5
29C
100
AcDbEntity
  8
RACCORDO
100
AcDbLine
 62
7
  6
CONTINUOUS
 10
12.1124399403
 20
25.3169497619
 11
11.7502332008
 21
25.1399811108
  0
LWPOLYLINE
  5
29D
100
AcDbEntity
  8
0
100
AcDbPolyline
 62
250
  6
CONTINUOUS
 90
16
 70
0
 10
-3.3069871043
 20
17.7604373369
 10
-3.3035893801
 20
17.7620949613
 10
-3.2968441591
 20
17.764907509
 10
-3.2898634202
 20
17.7672060625
 10
-3.2826629762
 20
17.7689854149
 10
-3.2752591378
 20
17.7702415356
 10
-3.2676686763
 20
17.7709715792
 10
-3.2599087859
 20
17.771173892
 10
-3.2519970444
 20
17.7708480158
 10
-3.2439513737
 20
17.7699946886
 10
-3.235789999
 20
17.7686158436
 10
-3.2275314077
 20
17.766714604
 10
-3.2191943074
 20
17.7642952766
 10
-3.2107975834
 20
17.7613633418
 10
-3.2023602562
 20
17.7579254409
 10
-3.1939014382
 20
17.7539893617
  0
LINE
  5
29E
100
AcDbEntity
  8
0
100
AcDbLine
 62
7
  6
CONTINUOUS
 10
-1.7220770252
 20
18.5735036163
 11
-1.1872070674
 21
18.8340557167
  0
LINE
  5
29F
100
AcDbEntity
  8
0
100
AcDbLine
 62
250
  6
CONTINUOUS
 10
-1.611144835
 20
18.5659734591
 11
-1.0766949563
 21
18.8263209256
  0
LINE
  5
2A0
100
AcDbEntity
  8
0
100
AcDbLine
 62
7
  6
CONTINUOUS
 10
6.3952561448
 20
20.8219905834
 11
0.6516780995
 21
18.0241117686
  0
LINE
  5
2A1
100
AcDbEntity
  8
0
100
AcDbLine
 62
7
  6
CONTINUOUS
 10
8.1933950176
 20
22.7472031737
 11
12.4235001285
 21
24.8033476469
  0
LWPOLYLINE
  5
2A2
100
AcDbEntity
  8
0
100
AcDbPolyline
 62
7
  6
CONTINUOUS
 90
16
 70
0
 10
-1.7220770243
 20
18.5735036167
 10
-1.720419396
 20
18.5742911252
 10
-1.7136839071
 20
18.5770986631
 10
-1.7067161679
 20
18.5793905247
 10
-1.6995319109
 20
18.5811615446
 10
-1.6921473952
 20
18.5824077196
 10
-1.6845794409
 20
18.5831261848
 10
-1.6768451193
 20
18.5833153499
 10
-1.6689619134
 20
18.5829748066
 10
-1.6609478139
 20
18.582105265
 10
-1.6528208836
 20
18.580708742
 10
-1.6445994725
 20
18.5787884321
 10
-1.6363023758
 20
18.5763486054
 10
-1.6279483824
 20
18.5733947945
 10
-1.6195562333
 20
18.5699337815
 10
-1.611144835
 20
18.5659734591
  0
LINE
  5
2A3
100
AcDbEntity
  8
0
100
AcDbLine
 62
7
  6
CONTINUOUS
 10
7.3204715766
 20
22.0698625169
 11
5.7981573739
 21
21.3684494524
  0
LINE
  5
2A4
100
AcDbEntity
  8
0
100
AcDbLine
 62
250
  6
CONTINUOUS
 10
-1.1872070674
 20
18.8340557167
 11
-1.1827745832
 21
18.8359994344
  0
LWPOLYLINE
  5
2A5
100
AcDbEntity
  8
0
100
AcDbPolyline
 62
250
  6
CONTINUOUS
 90
15
 70
0
 10
-1.1827745832
 20
18.8359994344
 10
-1.1788260122
 20
18.8376449055
 10
-1.1718714732
 20
18.8399303589
 10
-1.1647036678
 20
18.841693392
 10
-1.1573388326
 20
18.8429300112
 10
-1.1497936505
 20
18.8436374151
 10
-1.1420852132
 20
18.8438140014
 10
-1.134230982
 20
18.84345937
 10
-1.1262487484
 20
18.8425743243
 10
-1.118156594
 20
18.8411608691
 10
-1.1099728494
 20
18.8392222062
 10
-1.1017160525
 20
18.836762727
 10
-1.0934049069
 20
18.833788003
 10
-1.0850582392
 20
18.8303047724
 10
-1.0766949563
 20
18.8263209256
  0
LINE
  5
2A6
100
AcDbEntity
  8
RACCORDO
100
AcDbLine
 62
250
  6
CONTINUOUS
 10
-20.2934165762
 20
-7.4843398916
 11
-17.5016030527
 21
-8.8802466534
  0
LINE
  5
2A7
100
AcDbEntity
  8
RACCORDO
100
AcDbLine
 62
250
  6
CONTINUOUS
 10
-16.0436758703
 20
-9.6092102446
 11
-9.6783805196
 21
-12.7918579199
  0
LINE
  5
2A8
100
AcDbEntity
  8
RACCORDO
100
AcDbLine
 62
250
  6
CONTINUOUS
 10
-8.2204533372
 20
-13.5208215111
 11
-5.4286398136
 21
-14.9167282729
  0
LINE
  5
2A9
100
AcDbEntity
  8
RACCORDO
100
AcDbLine
 62
250
  6
CONTINUOUS
 10
-8.5699903713
 20
-14.1052668487
 11
-8.9400799065
 21
-13.6679187749
  0
LINE
  5
2AA
100
AcDbEntity
  8
RACCORDO
100
AcDbLine
 62
250
  6
CONTINUOUS
 10
-8.9400799065
 20
-13.6679187749
 11
-9.3095434427
 21
-13.2301149351
  0
LINE
  5
2AB
100
AcDbEntity
  8
RACCORDO
100
AcDbLine
 62
250
  6
CONTINUOUS
 10
-9.3095434427
 20
-13.2301149351
 11
-10.2836236601
 21
-12.0721846335
  0
LWPOLYLINE
  5
2AC
100
AcDbEntity
  8
RACCORDO
100
AcDbPolyline
 62
7
  6
CONTINUOUS
 90
13
 70
0
 10
-15.540195148
 20
-9.375953938
 10
-15.5378930901
 20
-9.381491973
 10
-15.5329267349
 20
-9.3919471119
 10
-15.527262742
 20
-9.4023475406
 10
-15.5209238813
 20
-9.412656983
 10
-15.5139305512
 20
-9.4228237088
 10
-15.5063737723
 20
-9.4328479147
 10
-15.498274591
 20
-9.4427003683
 10
-15.4896566152
 20
-9.4523398107
 10
-15.4806124131
 20
-9.4617525495
 10
-15.471189194
 20
-9.4709158464
 10
-15.4613891263
 20
-9.4797979885
 10
-15.4512376401
 20
-9.4883757334
  0
LINE
  5
2AD
100
AcDbEntity
  8
RACCORDO
100
AcDbLine
 62
250
  6
CONTINUOUS
 10
-15.9075375
 20
-8.3319613483
 11
-15.4512352287
 21
-9.4883788428
  0
LWPOLYLINE
  5
2AE
100
AcDbEntity
  8
RACCORDO
100
AcDbPolyline
 62
7
  6
CONTINUOUS
 90
10
 70
0
 10
-18.3221021652
 20
-2.2455771976
 10
-18.0611811451
 20
-2.9225456086
 10
-17.7417653855
 20
-3.7489289838
 10
-17.421526435
 20
-4.574862326
 10
-17.1004648637
 20
-5.4003442442
 10
-16.7785812161
 20
-6.225373414
 10
-16.4558760565
 20
-7.0499484584
 10
-16.1323500487
 20
-7.874067746
 10
-15.808003889
 20
-8.6977295612
 10
-15.5401831948
 20
-9.3759392994
  0
LWPOLYLINE
  5
2AF
100
AcDbEntity
  8
RACCORDO
100
AcDbPolyline
 62
250
  6
CONTINUOUS
 90
6
 70
0
 10
-18.3206982953
 20
-2.1312947492
 10
-17.8209244163
 20
-3.4274324506
 10
-17.3295952262
 20
-4.695509123
 10
-16.8468382503
 20
-5.9355839372
 10
-16.3727783057
 20
-7.1477154067
 10
-15.9075375
 20
-8.3319613483
  0
LWPOLYLINE
  5
2B0
100
AcDbEntity
  8
RACCORDO
100
AcDbPolyline
 62
250
  6
CONTINUOUS
 90
19
 70
0
 10
-16.0436758704
 20
-9.6092102447
 10
-16.0494991977
 20
-9.5928880126
 10
-16.0542035196
 20
-9.5761274597
 10
-16.0577530788
 20
-9.5590559822
 10
-16.0601208954
 20
-9.5418033395
 10
-16.0612889717
 20
-9.5245006682
 10
-16.0612484292
 20
-9.5072794848
 10
-16.0599995761
 20
-9.4902706867
 10
-16.0575519048
 20
-9.473603557
 10
-16.0539240199
 20
-9.4574047817
 10
-16.0491434969
 20
-9.4417974868
 10
-16.0432466722
 20
-9.4269003026
 10
-16.0362783673
 20
-9.4128264618
 10
-16.028291548
 20
-9.399682939
 10
-16.0193469216
 20
-9.3875696374
 10
-16.0095124758
 20
-9.3765786296
 10
-15.9988629617
 20
-9.3667934577
 10
-15.9874793258
 20
-9.3582884984
 10
-15.9754480944
 20
-9.3511283973
  0
LWPOLYLINE
  5
2B1
100
AcDbEntity
  8
0
100
AcDbPolyline
 62
250
  6
CONTINUOUS
 90
22
 70
0
 10
-15.6733076868
 20
23.261467609
 10
-15.6731394346
 20
23.2521078607
 10
-15.6726349981
 20
23.2429341815
 10
-15.6717953377
 20
23.233964034
 10
-15.6706220516
 20
23.2252144933
 10
-15.6691173733
 20
23.2167022147
 10
-15.667284167
 20
23.2084434019
 10
-15.6651259223
 20
23.2004537759
 10
-15.6626467476
 20
23.1927485454
 10
-15.6598513621
 20
23.1853423778
 10
-15.656745087
 20
23.1782493712
 10
-15.6533338353
 20
23.1714830274
 10
-15.6496241004
 20
23.1650562267
 10
-15.6456229441
 20
23.1589812027
 10
-15.6413379828
 20
23.1532695197
 10
-15.6367773732
 20
23.1479320502
 10
-15.6319497966
 20
23.1429789543
 10
-15.6268644426
 20
23.1384196605
 10
-15.6215309915
 20
23.1342628477
 10
-15.6159595958
 20
23.1305164287
 10
-15.6101608609
 20
23.1271875349
 10
-15.6083343904
 20
23.1262491589
  0
LWPOLYLINE
  5
2B2
100
AcDbEntity
  8
0
100
AcDbPolyline
 62
250
  6
CONTINUOUS
 90
22
 70
0
 10
-13.9947696164
 20
22.4221985738
 10
-13.9946013205
 20
22.4128376234
 10
-13.9940967533
 20
22.4036627924
 10
-13.9932568755
 20
22.3946915501
 10
-13.9920832897
 20
22.3859410014
 10
-13.9905782288
 20
22.3774277834
 10
-13.9887445424
 20
22.3691680405
 10
-13.9865856984
 20
22.3611774529
 10
-13.984105811
 20
22.3534712993
 10
-13.9813096312
 20
22.3460643504
 10
-13.9782025087
 20
22.3389707509
 10
-13.9747903466
 20
22.3322039547
 10
-13.9710796186
 20
22.3257767977
 10
-13.9670773579
 20
22.3197014778
 10
-13.9627912087
 20
22.3139896139
 10
-13.9582293992
 20
22.308652161
 10
-13.9534006697
 20
22.3036993109
 10
-13.9483141839
 20
22.2991404305
 10
-13.9429795689
 20
22.2949841373
 10
-13.9374062987
 20
22.2912379203
 10
-13.9316056128
 20
22.2879094375
 10
-13.9298049189
 20
22.2869844237
  0
LINE
  5
2B3
100
AcDbEntity
  8
0
100
AcDbLine
 62
7
  6
CONTINUOUS
 10
-15.0435380372
 20
22.8438509823
 11
-15.0435380372
 21
22.3898768806
  0
LINE
  5
2B4
100
AcDbEntity
  8
0
100
AcDbLine
 62
250
  6
CONTINUOUS
 10
-14.9703147325
 20
22.8072393299
 11
-14.9703147325
 21
22.2981651858
  0
LINE
  5
2B5
100
AcDbEntity
  8
0
100
AcDbLine
 62
250
  6
CONTINUOUS
 10
-13.9947696164
 20
22.4221985738
 11
-13.9947696164
 21
22.7621725079
  0
LINE
  5
2B6
100
AcDbEntity
  8
0
100
AcDbLine
 62
250
  6
CONTINUOUS
 10
-13.6422476567
 20
22.4216858499
 11
-13.6422476567
 21
22.761659784
  0
LINE
  5
2B7
100
AcDbEntity
  8
0
100
AcDbLine
 62
250
  6
CONTINUOUS
 10
-13.2835490083
 20
21.4547823237
 11
-13.2835490083
 21
22.1436029466
  0
LINE
  5
2B8
100
AcDbEntity
  8
0
100
AcDbLine
 62
250
  6
CONTINUOUS
 10
-12.9310270486
 20
21.4655502053
 11
-12.9310270486
 21
22.2731823271
  0
LWPOLYLINE
  5
2B9
100
AcDbEntity
  8
RACCORDO
100
AcDbPolyline
 62
250
  6
CONTINUOUS
 90
7
 70
0
 10
-13.8912978252
 20
0.9697310599
 10
-13.8854144186
 20
1.7637510551
 10
-13.8783299577
 20
2.5583461683
 10
-13.8700444232
 20
3.3535137667
 10
-13.8605578003
 20
4.1492512157
 10
-13.8498700776
 20
4.9455558785
 10
-13.8379812479
 20
5.7424251161
  0
LWPOLYLINE
  5
2BA
100
AcDbEntity
  8
RACCORDO
100
AcDbPolyline
 62
250
  6
CONTINUOUS
 90
7
 70
0
 10
-13.6097640459
 20
1.1408892857
 10
-13.6038656737
 20
1.9057124643
 10
-13.5968526304
 20
2.6710736292
 10
-13.588724916
 20
3.4369727806
 10
-13.5794825305
 20
4.2034099184
 10
-13.569125474
 20
4.9703850426
 10
-13.5576537465
 20
5.7378981533
  0
LWPOLYLINE
  5
2BB
100
AcDbEntity
  8
RACCORDO
100
AcDbPolyline
 62
250
  6
CONTINUOUS
 90
7
 70
0
 10
-13.5576537465
 20
5.7378981533
 10
-13.5518621972
 20
6.070636546
 10
-13.54490958
 20
6.4038482162
 10
-13.536795895
 20
6.7375331639
 10
-13.5275211422
 20
7.0716913891
 10
-13.5170853215
 20
7.4063228918
 10
-13.5069119267
 20
7.7002942624
  0
LWPOLYLINE
  5
2BC
100
AcDbEntity
  8
RACCORDO
100
AcDbPolyline
 62
250
  6
CONTINUOUS
 90
7
 70
0
 10
-13.8379812479
 20
5.7424251161
 10
-13.8316177299
 20
6.1049537478
 10
-13.8238768318
 20
6.468108326
 10
-13.8147587153
 20
6.8318811221
 10
-13.8042635709
 20
7.1962643939
 10
-13.7923916181
 20
7.561250386
 10
-13.7791431048
 20
7.9268313301
  0
LWPOLYLINE
  5
2BD
100
AcDbEntity
  8
0
100
AcDbPolyline
 62
250
  6
CONTINUOUS
 90
34
 70
0
 10
-13.9947696164
 20
22.7621725079
 10
-13.9945708136
 20
22.7725369861
 10
-13.9939748513
 20
22.783076971
 10
-13.9929830682
 20
22.7937687566
 10
-13.9915976921
 20
22.8045883024
 10
-13.989821838
 20
22.8155112668
 10
-13.9876595029
 20
22.8265130608
 10
-13.9851155523
 20
22.8375689329
 10
-13.9821957075
 20
22.8486540219
 10
-13.9789065376
 20
22.8597433917
 10
-13.9752554406
 20
22.8708121015
 10
-13.97125063
 20
22.8818352539
 10
-13.9669011178
 20
22.8927880472
 10
-13.9622166891
 20
22.9036458449
 10
-13.9572078811
 20
22.914384228
 10
-13.9518859625
 20
22.9249790411
 10
-13.9462629021
 20
22.9354064609
 10
-13.9403513514
 20
22.9456430297
 10
-13.9341646197
 20
22.9556657066
 10
-13.9277166431
 20
22.9654519246
 10
-13.9210219098
 20
22.9749797043
 10
-13.9140954336
 20
22.9842276794
 10
-13.9069527232
 20
22.9931751298
 10
-13.8996099057
 20
23.0018018406
 10
-13.892083659
 20
23.010088231
 10
-13.8843910248
 20
23.0180155795
 10
-13.8765492122
 20
23.0255661924
 10
-13.8685757132
 20
23.0327232416
 10
-13.8604872358
 20
23.0394716146
 10
-13.8523031645
 20
23.0457950245
 10
-13.8440454937
 20
23.0516768005
 10
-13.835734073
 20
23.0571035505
 10
-13.8273864406
 20
23.0620645645
 10
-13.8190213604
 20
23.0665493229
  0
LWPOLYLINE
  5
2BE
100
AcDbEntity
  8
RACCORDO
100
AcDbPolyline
 62
7
  6
CONTINUOUS
 90
9
 70
0
 10
-11.8904546547
 20
6.8939334804
 10
-11.8900881317
 20
6.8955749916
 10
-11.8889564661
 20
6.8979819421
 10
-11.8870749926
 20
6.9007984091
 10
-11.8844358268
 20
6.9039609828
 10
-11.8811525705
 20
6.9074927129
 10
-11.8772341981
 20
6.9113539379
 10
-11.8726818878
 20
6.9154919509
 10
-11.8675924807
 20
6.9199213389
  0
LWPOLYLINE
  5
2BF
100
AcDbEntity
  8
RACCORDO
100
AcDbPolyline
 62
7
  6
CONTINUOUS
 90
25
 70
0
 10
-17.1218636576
 20
-9.8294175353
 10
-17.1191887768
 20
-9.8180164836
 10
-17.1160402818
 20
-9.8063505894
 10
-17.1124253135
 20
-9.7944169562
 10
-17.1083692306
 20
-9.7821776916
 10
-17.103869052
 20
-9.7696679271
 10
-17.0988932129
 20
-9.7569956577
 10
-17.0934665122
 20
-9.7441641714
 10
-17.0876038041
 20
-9.7311741806
 10
-17.0812609881
 20
-9.7181300505
 10
-17.0744740913
 20
-9.7050359078
 10
-17.0672633426
 20
-9.6918973234
 10
-17.0595621483
 20
-9.6788192214
 10
-17.051420111
 20
-9.6658002708
 10
-17.0428653337
 20
-9.6528577684
 10
-17.0338030929
 20
-9.6401223933
 10
-17.0243046373
 20
-9.6275866029
 10
-17.0144120262
 20
-9.615284572
 10
-17.0039998662
 20
-9.6034091036
 10
-16.9931228391
 20
-9.5919261848
 10
-16.9819044034
 20
-9.5809169392
 10
-16.9703404462
 20
-9.570752351
 10
-16.9585087418
 20
-9.5615830998
 10
-16.946570546
 20
-9.5533396623
 10
-16.9346601343
 20
-9.5460711301
  0
LWPOLYLINE
  5
2C0
100
AcDbEntity
  8
RACCORDO
100
AcDbPolyline
 62
7
  6
CONTINUOUS
 90
7
 70
0
 10
-11.8675924807
 20
6.9199213389
 10
-11.8619748568
 20
6.9246056959
 10
-11.855837212
 20
6.929499262
 10
-11.8492747274
 20
6.9346071225
 10
-11.8423276682
 20
6.9399059971
 10
-11.8349817159
 20
6.9453440057
 10
-11.8272516992
 20
6.9508856273
  0
LWPOLYLINE
  5
2C1
100
AcDbEntity
  8
0
100
AcDbPolyline
 62
250
  6
CONTINUOUS
 90
43
 70
0
 10
-4.0484644816
 20
13.0873878057
 10
-4.0716548743
 20
13.07405743
 10
-4.0947805655
 20
13.0598420165
 10
-4.1178172077
 20
13.0447567705
 10
-4.140740759
 20
13.0288179297
 10
-4.1635268728
 20
13.0120424203
 10
-4.1861509241
 20
12.9944478383
 10
-4.2085890884
 20
12.9760529652
 10
-4.2308177476
 20
12.9568774502
 10
-4.2528128788
 20
12.9369414632
 10
-4.274551318
 20
12.9162662764
 10
-4.2960101866
 20
12.8948739522
 10
-4.3171662949
 20
12.8727870225
 10
-4.3379973584
 20
12.8500290427
 10
-4.3584814592
 20
12.8266242811
 10
-4.3785964708
 20
12.8025974056
 10
-4.3983212095
 20
12.7779740183
 10
-4.4176349177
 20
12.7527803705
 10
-4.436516725
 20
12.7270430518
 10
-4.4549467401
 20
12.7007894812
 10
-4.4729055763
 20
12.6740476295
 10
-4.4903738338
 20
12.6468457331
 10
-4.5073331089
 20
12.6192127565
 10
-4.5237655646
 20
12.5911781307
 10
-4.5396534535
 20
12.5627714738
 10
-4.5549800384
 20
12.5340230143
 10
-4.5697291985
 20
12.5049633668
 10
-4.5838849972
 20
12.4756232694
 10
-4.5974325128
 20
12.4460339499
 10
-4.6103575081
 20
12.4162268913
 10
-4.6226460332
 20
12.3862336067
 10
-4.6342851403
 20
12.3560859812
 10
-4.6452625898
 20
12.3258161073
 10
-4.6555665183
 20
12.2954560496
 10
-4.6651860575
 20
12.2650381044
 10
-4.6741111082
 20
12.2345946106
 10
-4.6823320405
 20
12.2041577842
 10
-4.6898401847
 20
12.1737599598
 10
-4.6966276532
 20
12.1434334778
 10
-4.7026871126
 20
12.113210496
 10
-4.7080121233
 20
12.0831231107
 10
-4.7125971447
 20
12.0532033227
 10
-4.716437352
 20
12.0234829252
  0
LWPOLYLINE
  5
2C2
100
AcDbEntity
  8
0
100
AcDbPolyline
 62
250
  6
CONTINUOUS
 90
43
 70
0
 10
-3.6819462747
 20
12.4847586455
 10
-3.6936800329
 20
12.4781468809
 10
-3.7053571506
 20
12.471106739
 10
-3.7169776277
 20
12.4636382199
 10
-3.7285537043
 20
12.4557324672
 10
-3.7400731403
 20
12.4473983373
 10
-3.7514992158
 20
12.4386623996
 10
-3.7628316346
 20
12.4295233673
 10
-3.7740706929
 20
12.4199825271
 10
-3.7851805599
 20
12.4100703088
 10
-3.7961608233
 20
12.399785528
 10
-3.8070118954
 20
12.389129369
 10
-3.8176991822
 20
12.3781358141
 10
-3.8282221597
 20
12.3668037897
 10
-3.8385813519
 20
12.3551343694
 10
-3.8487437377
 20
12.3431647565
 10
-3.858708691
 20
12.3308939922
 10
-3.8684768379
 20
12.3183230354
 10
-3.8780170353
 20
12.305491966
 10
-3.8873285551
 20
12.2923999561
 10
-3.8964121253
 20
12.2790478337
 10
-3.9052387868
 20
12.2654781633
 10
-3.9138077201
 20
12.2516902519
 10
-3.9221197446
 20
12.2376847925
 10
-3.9301483596
 20
12.2235064283
 10
-3.9378926633
 20
12.2091546049
 10
-3.9453535575
 20
12.1946298768
 10
-3.9525072471
 20
12.179978551
 10
-3.9593527504
 20
12.1652002291
 10
-3.9658910491
 20
12.1502953095
 10
-3.9721012927
 20
12.1353112944
 10
-3.9779824387
 20
12.1202479234
 10
-3.9835355296
 20
12.105105457
 10
-3.9887428423
 20
12.0899321786
 10
-3.993603277
 20
12.0747279725
 10
-3.9981179336
 20
12.0594929544
 10
-4.0022723885
 20
12.0442757547
 10
-4.0060654732
 20
12.02907652
 10
-4.0094983563
 20
12.0138951036
 10
-4.0125601194
 20
11.998779696
 10
-4.015247123
 20
11.9837463606
 10
-4.0175630065
 20
11.9687790341
 10
-4.0195077701
 20
11.9538777164
  0
LINE
  5
2C3
100
AcDbEntity
  8
0
100
AcDbLine
 62
7
  6
CONTINUOUS
 10
0.2626911267
 20
15.8104021302
 11
-0.627369056
 21
15.313721209
  0
LINE
  5
2C4
100
AcDbEntity
  8
0
100
AcDbLine
 62
250
  6
CONTINUOUS
 10
0.6158965122
 20
15.6337994375
 11
-4.0484643513
 21
13.0873877405
  0
LINE
  5
2C5
100
AcDbEntity
  8
0
100
AcDbLine
 62
250
  6
CONTINUOUS
 10
0.9691972129
 20
15.0239553831
 11
-3.6819462747
 21
12.4847586455
  0
LINE
  5
2C6
100
AcDbEntity
  8
0
100
AcDbLine
 62
7
  6
CONTINUOUS
 10
7.2747637277
 20
20.0962058938
 11
0.4545470813
 21
16.4165425458
  0
LINE
  5
2C7
100
AcDbEntity
  8
DRAFT
100
AcDbLine
 62
7
  6
CONTINUOUS
 10
1.3444219381
 20
15.9703195102
 11
7.9723810877
 21
19.4520525387
  0
LINE
  5
2C8
100
AcDbEntity
  8
0
100
AcDbLine
 62
7
  6
CONTINUOUS
 10
7.2747637277
 20
19.4967794558
 11
0.8977078918
 21
16.1949621405
  0
LINE
  5
2C9
100
AcDbEntity
  8
0
100
AcDbLine
 62
250
  6
CONTINUOUS
 10
1.3174934999
 20
15.9850693365
 11
0.6165575461
 21
15.6334689206
  0
LINE
  5
2CA
100
AcDbEntity
  8
0
100
AcDbLine
 62
250
  6
CONTINUOUS
 10
1.6710424031
 20
15.3752968387
 11
0.9701064493
 21
15.0236964229
  0
LINE
  5
2CB
100
AcDbEntity
  8
0
100
AcDbLine
 62
250
  6
CONTINUOUS
 10
-1.3385896641
 20
16.6098307877
 11
0.2626911267
 21
17.4125527912
  0
LINE
  5
2CC
100
AcDbEntity
  8
0
100
AcDbLine
 62
7
  6
CONTINUOUS
 10
8.422708265
 20
20.9959162043
 11
8.9176830118
 21
21.2434035777
  0
LINE
  5
2CD
100
AcDbEntity
  8
RACCORDO
100
AcDbLine
 62
7
  6
CONTINUOUS
 10
11.2447067495
 20
20.8492915916
 11
9.9332424385
 21
20.1935594361
  0
LINE
  5
2CE
100
AcDbEntity
  8
RACCORDO
100
AcDbLine
 62
7
  6
CONTINUOUS
 10
9.2320186966
 20
19.8429475651
 11
8.0797748752
 21
19.2668256544
  0
LINE
  5
2CF
100
AcDbEntity
  8
0
100
AcDbLine
 62
7
  6
CONTINUOUS
 10
11.7405004148
 20
20.581807832
 11
9.4736230307
 21
19.4483691399
  0
LINE
  5
2D0
100
AcDbEntity
  8
0
100
AcDbLine
 62
7
  6
CONTINUOUS
 10
8.7723992889
 20
19.097757269
 11
8.3534805717
 21
18.8882979104
  0
LINE
  5
2D1
100
AcDbEntity
  8
0
100
AcDbLine
 62
7
  6
CONTINUOUS
 10
10.2956418746
 20
19.5980322775
 11
10.0469885013
 21
19.4737055908
  0
LINE
  5
2D2
100
AcDbEntity
  8
0
100
AcDbLine
 62
7
  6
CONTINUOUS
 10
9.8719795786
 20
19.1483331638
 11
9.8348564669
 21
19.129771608
  0
LINE
  5
2D3
100
AcDbEntity
  8
RACCORDO
100
AcDbLine
 62
7
  6
CONTINUOUS
 10
11.9795562427
 20
19.962254173
 11
10.6680893613
 21
19.3065207324
  0
LINE
  5
2D4
100
AcDbEntity
  8
RACCORDO
100
AcDbLine
 62
7
  6
CONTINUOUS
 10
9.9668656195
 20
18.9559088614
 11
8.9475831202
 21
18.4462676118
  0
LINE
  5
2D5
100
AcDbEntity
  8
0
100
AcDbLine
 62
250
  6
CONTINUOUS
 10
0.2626911267
 20
17.4125527912
 11
0.7909582985
 21
17.6759916113
  0
LWPOLYLINE
  5
2D6
100
AcDbEntity
  8
RACCORDO
100
AcDbPolyline
 62
7
  6
CONTINUOUS
 90
10
 70
0
 10
11.9795273468
 20
19.9622397251
 10
11.9907076122
 20
19.9675874296
 10
12.0012918394
 20
19.9721661869
 10
12.0112800284
 20
19.975975997
 10
12.0207478337
 20
19.9790330172
 10
12.0296196009
 20
19.9813210902
 10
12.0376683661
 20
19.9827917439
 10
12.0448184746
 20
19.9834288209
 10
12.0511455812
 20
19.9832484787
 10
12.0566496858
 20
19.9822507171
  0
LINE
  5
2D7
100
AcDbEntity
  8
0
100
AcDbLine
 62
7
  6
CONTINUOUS
 10
11.477399793
 20
18.1535520932
 11
10.920670416
 21
17.9806091526
  0
LWPOLYLINE
  5
2D8
100
AcDbEntity
  8
RACCORDO
100
AcDbPolyline
 62
7
  6
CONTINUOUS
 90
23
 70
0
 10
-20.0090594226
 20
-2.4799503331
 10
-19.9984525963
 20
-2.4883996079
 10
-19.9873820841
 20
-2.4967220409
 10
-19.9758472505
 20
-2.5048803168
 10
-19.9638274701
 20
-2.5128295312
 10
-19.9513483104
 20
-2.5205363832
 10
-19.9384810036
 20
-2.5279787029
 10
-19.9252376027
 20
-2.535108817
 10
-19.9116239429
 20
-2.5418898372
 10
-19.8977025885
 20
-2.548310606
 10
-19.8834911301
 20
-2.5543174574
 10
-19.8690016272
 20
-2.5598688963
 10
-19.8542865999
 20
-2.5649593335
 10
-19.8393652097
 20
-2.5695255699
 10
-19.8242620707
 20
-2.5735158132
 10
-19.8090364352
 20
-2.5769179812
 10
-19.7937119932
 20
-2.5796530748
 10
-19.7783326838
 20
-2.5816539281
 10
-19.7629915666
 20
-2.5828891602
 10
-19.7476806686
 20
-2.5832602288
 10
-19.7325202194
 20
-2.5826689257
 10
-19.7178079536
 20
-2.5810684634
 10
-19.7080526586
 20
-2.5793511551
  0
LINE
  5
2D9
100
AcDbEntity
  8
RACCORDO
100
AcDbLine
 62
250
  6
CONTINUOUS
 10
-8.4972848974
 20
-13.7547532208
 11
-8.977336399
 21
-13.1873767993
  0
LINE
  5
2DA
100
AcDbEntity
  8
RACCORDO
100
AcDbLine
 62
250
  6
CONTINUOUS
 10
-8.977336399
 20
-13.1873767993
 11
-9.4687529266
 21
-12.6044759812
  0
LINE
  5
2DB
100
AcDbEntity
  8
RACCORDO
100
AcDbLine
 62
250
  6
CONTINUOUS
 10
-9.4687529266
 20
-12.6044759812
 11
-9.9502234477
 21
-12.0321519183
  0
LINE
  5
2DC
100
AcDbEntity
  8
DRAFT
100
AcDbLine
 62
7
  6
CONTINUOUS
 10
-7.7302324942
 20
-12.4825964385
 11
-8.6322373757
 21
-11.3937802294
  0
LWPOLYLINE
  5
2DD
100
AcDbEntity
  8
RACCORDO
100
AcDbPolyline
 62
250
  6
CONTINUOUS
 90
15
 70
0
 10
-8.2204533323
 20
-13.5208215086
 10
-8.2306564324
 20
-13.5077803204
 10
-8.2397174161
 20
-13.4942799648
 10
-8.2475680197
 20
-13.4804221508
 10
-8.2541490984
 20
-13.4663112805
 10
-8.2594110717
 20
-13.4520536625
 10
-8.2633142968
 20
-13.4377567107
 10
-8.2658293676
 20
-13.4235281356
 10
-8.266937336
 20
-13.4094751324
 10
-8.2666298549
 20
-13.3957035737
 10
-8.2649092408
 20
-13.3823172118
 10
-8.2617884563
 20
-13.3694168967
 10
-8.2572910129
 20
-13.357099817
 10
-8.2514507934
 20
-13.3454587671
 10
-8.2503187906
 20
-13.3435390779
  0
LWPOLYLINE
  5
2DE
100
AcDbEntity
  8
0
100
AcDbPolyline
 62
250
  6
CONTINUOUS
 90
9
 70
0
 10
0.7672101017
 20
-23.7091541863
 10
0.7611037084
 20
-23.7009606406
 10
0.7546634104
 20
-23.6931785927
 10
0.7479037289
 20
-23.6858255861
 10
0.7408397377
 20
-23.6789180473
 10
0.7334875485
 20
-23.6724717595
 10
0.7258643272
 20
-23.6665016946
 10
0.7179875322
 20
-23.6610213477
 10
0.7098748066
 20
-23.6560428225
  0
LWPOLYLINE
  5
2DF
100
AcDbEntity
  8
0
100
AcDbPolyline
 62
250
  6
CONTINUOUS
 90
34
 70
0
 10
-1.3385896641
 20
-25.0297472858
 10
-1.3430101896
 20
-25.0228285048
 10
-1.3478173849
 20
-25.0157246945
 10
-1.3530004005
 20
-25.008451888
 10
-1.3585475386
 20
-25.0010264995
 10
-1.3644462796
 20
-24.9934652876
 10
-1.3706833104
 20
-24.9857853175
 10
-1.3772445545
 20
-24.9780039226
 10
-1.3841152034
 20
-24.9701386649
 10
-1.3912797506
 20
-24.9622072959
 10
-1.398722026
 20
-24.9542277162
 10
-1.4064252329
 20
-24.9462179352
 10
-1.4143719856
 20
-24.9381960306
 10
-1.4225443488
 20
-24.9301801073
 10
-1.4309238779
 20
-24.9221882567
 10
-1.4394916608
 20
-24.9142385161
 10
-1.4482283606
 20
-24.9063488274
 10
-1.457114259
 20
-24.8985369973
 10
-1.466129301
 20
-24.8908206567
 10
-1.4752531403
 20
-24.8832172207
 10
-1.4844651849
 20
-24.87574385
 10
-1.4937446437
 20
-24.8684174115
 10
-1.5030705736
 20
-24.8612544405
 10
-1.5124219265
 20
-24.8542711035
 10
-1.5217775969
 20
-24.8474831613
 10
-1.5311164696
 20
-24.8409059341
 10
-1.5404174674
 20
-24.8345542661
 10
-1.5496595985
 20
-24.8284424928
 10
-1.5588220038
 20
-24.8225844081
 10
-1.5678840045
 20
-24.8169932333
 10
-1.576825148
 20
-24.8116815873
 10
-1.5856252548
 20
-24.8066614583
 10
-1.5942644636
 20
-24.8019441764
 10
-1.6027232761
 20
-24.7975403881
  0
LINE
  5
2E0
100
AcDbEntity
  8
DRAFT
100
AcDbLine
 62
7
  6
CONTINUOUS
 10
-12.2530989003
 20
1.8244526655
 11
-12.2530989003
 21
7.0733877492
  0
LINE
  5
2E1
100
AcDbEntity
  8
0
100
AcDbLine
 62
7
  6
CONTINUOUS
 10
-12.0409668659
 20
21.9622311266
 11
-12.0409668659
 21
23.5643817875
  0
LINE
  5
2E2
100
AcDbEntity
  8
0
100
AcDbLine
 62
250
  6
CONTINUOUS
 10
-11.5126996942
 20
23.8278206076
 11
-11.5126996942
 21
23.4802890908
  0
LINE
  5
2E3
100
AcDbEntity
  8
0
100
AcDbLine
 62
7
  6
CONTINUOUS
 10
-11.4405018372
 20
23.9156932398
 11
-11.4405018372
 21
23.568161723
  0
LINE
  5
2E4
100
AcDbEntity
  8
0
100
AcDbLine
 62
7
  6
CONTINUOUS
 10
-11.11555731
 20
21.8169492403
 11
-11.11555731
 21
20.3707864745
  0
LINE
  5
2E5
100
AcDbEntity
  8
0
100
AcDbLine
 62
7
  6
CONTINUOUS
 10
-10.4499766082
 20
20.0379961236
 11
-10.4499766082
 21
21.4841588894
  0
LINE
  5
2E6
100
AcDbEntity
  8
0
100
AcDbLine
 62
7
  6
CONTINUOUS
 10
-9.7428698271
 20
21.6705503341
 11
-9.7428698271
 21
20.4369359824
  0
LWPOLYLINE
  5
2E7
100
AcDbEntity
  8
RACCORDO
100
AcDbPolyline
 62
7
  6
CONTINUOUS
 90
8
 70
0
 10
-11.9500605553
 20
4.331152633
 10
-11.9574488463
 20
3.7927726445
 10
-11.9643076349
 20
3.2546552593
 10
-11.9706369084
 20
2.7168015041
 10
-11.9764366569
 20
2.1792122025
 10
-11.9817068715
 20
1.6418879763
 10
-11.9864475409
 20
1.10482965
 10
-11.9933355522
 20
0.1858035862
  0
LWPOLYLINE
  5
2E8
100
AcDbEntity
  8
RACCORDO
100
AcDbPolyline
 62
250
  6
CONTINUOUS
 90
7
 70
0
 10
-11.8840751419
 20
4.7654720631
 10
-11.8955562128
 20
3.9683989462
 10
-11.905877371
 20
3.1719110011
 10
-11.9150386235
 20
2.3760108668
 10
-11.9230399816
 20
1.5807011802
 10
-11.9298814605
 20
0.785984576
 10
-11.935563079
 20
-0.0081363132
  0
LWPOLYLINE
  5
2E9
100
AcDbEntity
  8
0
100
AcDbPolyline
 62
250
  6
CONTINUOUS
 90
18
 70
0
 10
-11.4405018412
 20
23.9156707545
 10
-11.4405553987
 20
23.9131058716
 10
-11.4410818261
 20
23.9071835675
 10
-11.4421692384
 20
23.9012803947
 10
-11.4438151931
 20
23.8954096279
 10
-11.4460159903
 20
23.8895844735
 10
-11.4487666832
 20
23.8838180326
 10
-11.452061087
 20
23.8781232761
 10
-11.4558917915
 20
23.8725130172
 10
-11.4602501811
 20
23.8669998755
 10
-11.4651264548
 20
23.8615962505
 10
-11.4705096442
 20
23.8563142977
 10
-11.4763876454
 20
23.851165895
 10
-11.4827472355
 20
23.8461626251
 10
-11.4895740983
 20
23.8413157503
 10
-11.4968528724
 20
23.8366361742
 10
-11.5045671886
 20
23.8321344185
 10
-11.5126996942
 20
23.8278206076
  0
LWPOLYLINE
  5
2EA
100
AcDbEntity
  8
0
100
AcDbPolyline
 62
250
  6
CONTINUOUS
 90
18
 70
0
 10
-11.4405018372
 20
23.5681592733
 10
-11.4405562601
 20
23.5655536356
 10
-11.4410846131
 20
23.5596316536
 10
-11.4421738851
 20
23.5537288766
 10
-11.4438216231
 20
23.5478585705
 10
-11.4460241233
 20
23.5420339244
 10
-11.448776455
 20
23.5362679948
 10
-11.4520724139
 20
23.5305737923
 10
-11.4559045054
 20
23.5249642349
 10
-11.4602640174
 20
23.5194520055
 10
-11.4651411631
 20
23.5140494172
 10
-11.4705250584
 20
23.5087685063
 10
-11.4764040934
 20
23.5036207358
 10
-11.4827646302
 20
23.4986181165
 10
-11.4895907899
 20
23.4937729619
 10
-11.4968663624
 20
23.4890963973
 10
-11.504575196
 20
23.4845984474
 10
-11.5126996942
 20
23.4802890908
  0
LWPOLYLINE
  5
2EB
100
AcDbEntity
  8
0
100
AcDbPolyline
 62
7
  6
CONTINUOUS
 90
31
 70
0
 10
-9.7428698271
 20
21.6705503341
 10
-9.7426730972
 20
21.6797205683
 10
-9.7420970073
 20
21.6890071457
 10
-9.7411415576
 20
21.6984100662
 10
-9.7398020993
 20
21.7079554693
 10
-9.7380832812
 20
21.7176172155
 10
-9.7359990486
 20
21.7273168869
 10
-9.7335464039
 20
21.7370548656
 10
-9.7307283449
 20
21.7468307695
 10
-9.7275678105
 20
21.7565650345
 10
-9.7240620607
 20
21.7662571983
 10
-9.7202138356
 20
21.7759077232
 10
-9.7160542946
 20
21.7854384321
 10
-9.7115808455
 20
21.7948484841
 10
-9.7067960804
 20
21.8041387202
 10
-9.7017389355
 20
21.8132334855
 10
-9.6964071733
 20
21.8221311744
 10
-9.6908030313
 20
21.8308333925
 10
-9.6849721584
 20
21.8392693027
 10
-9.6789127947
 20
21.8474366224
 10
-9.6726267002
 20
21.855337634
 10
-9.6661648031
 20
21.8629083476
 10
-9.6595255916
 20
21.8701461739
 10
-9.6527105776
 20
21.8770537021
 10
-9.6457752258
 20
21.8835747097
 10
-9.6387186067
 20
21.8897059965
 10
-9.6315416498
 20
21.8954507627
 10
-9.6243026076
 20
21.9007623869
 10
-9.6170208978
 20
21.9056253286
 10
-9.6096771026
 20
21.9100551283
 10
-9.6022712223
 20
21.9140517861
  0
LWPOLYLINE
  5
2EC
100
AcDbEntity
  8
RACCORDO
100
AcDbPolyline
 62
7
  6
CONTINUOUS
 90
8
 70
0
 10
-11.9019788257
 20
6.5528888526
 10
-11.9097368557
 20
6.3022534729
 10
-11.9168681634
 20
6.0519174417
 10
-11.9233726946
 20
5.8018832484
 10
-11.9292504082
 20
5.5521526092
 10
-11.9345012364
 20
5.3027280195
 10
-11.9391250937
 20
5.0536127494
 10
-11.9500605553
 20
4.331152633
  0
LINE
  5
2ED
100
AcDbEntity
  8
RACCORDO
100
AcDbLine
 62
7
  6
CONTINUOUS
 10
-11.8904331799
 20
6.893920679
 11
-11.9019788257
 21
6.5528888526
  0
LWPOLYLINE
  5
2EE
100
AcDbEntity
  8
RACCORDO
100
AcDbPolyline
 62
250
  6
CONTINUOUS
 90
7
 70
0
 10
-11.8272519631
 20
6.9508857592
 10
-11.8400466534
 20
6.5850779037
 10
-11.8515119815
 20
6.2198885992
 10
-11.8616476993
 20
5.8553256141
 10
-11.8704535876
 20
5.4913967039
 10
-11.8779294557
 20
5.1281096107
 10
-11.8840751419
 20
4.7654720631
  0
LWPOLYLINE
  5
2EF
100
AcDbEntity
  8
0
100
AcDbPolyline
 62
7
  6
CONTINUOUS
 90
25
 70
0
 10
-3.767817526
 20
18.2864296486
 10
-3.7622395358
 20
18.2984565173
 10
-3.7571324398
 20
18.3109210571
 10
-3.752496238
 20
18.3238232679
 10
-3.7483257777
 20
18.3371825746
 10
-3.7446262116
 20
18.3509795524
 10
-3.741412998
 20
18.3651559265
 10
-3.738688173
 20
18.3797132761
 10
-3.7364497005
 20
18.394650022
 10
-3.7347069306
 20
18.4099031526
 10
-3.733461937
 20
18.4254739866
 10
-3.732712646
 20
18.4413612053
 10
-3.732462187
 20
18.4574978399
 10
-3.732712646
 20
18.4738849336
 10
-3.733461937
 20
18.4905214433
 10
-3.7347069306
 20
18.5073372709
 10
-3.7364497005
 20
18.5243331713
 10
-3.738688173
 20
18.5415083898
 10
-3.741412998
 20
18.5587905644
 10
-3.7446262116
 20
18.5761801521
 10
-3.7483257777
 20
18.593676696
 10
-3.752496238
 20
18.6112064631
 10
-3.7571324398
 20
18.6287448756
 10
-3.7622395358
 20
18.6463165114
 10
-3.767817526
 20
18.6639213704
  0
LWPOLYLINE
  5
2F0
100
AcDbEntity
  8
0
100
AcDbPolyline
 62
7
  6
CONTINUOUS
 90
31
 70
0
 10
1.504629631
 20
20.8899635966
 10
1.5129424306
 20
20.9006569012
 10
1.5207217571
 20
20.9119718242
 10
1.5279676107
 20
20.9239083653
 10
1.534690601
 20
20.9364891556
 10
1.5408801183
 20
20.9496915642
 10
1.5465043335
 20
20.963447698
 10
1.5515603345
 20
20.9777604093
 10
1.5560510334
 20
20.9926268458
 10
1.5599533371
 20
21.0079705573
 10
1.5632642146
 20
21.0237940024
 10
1.5659866969
 20
21.0400947226
 10
1.5681067837
 20
21.0567888919
 10
1.5696213721
 20
21.0738785372
 10
1.5705335652
 20
21.0913616317
 10
1.5708386719
 20
21.1091482694
 10
1.5705335652
 20
21.1272400138
 10
1.5696213721
 20
21.1456353013
 10
1.5681067837
 20
21.1642395351
 10
1.5659866969
 20
21.1830537913
 10
1.5632642146
 20
21.2020769937
 10
1.5599533371
 20
21.2212113163
 10
1.5560510334
 20
21.2404573315
 10
1.5515603345
 20
21.2598144669
 10
1.5465043335
 20
21.2791831792
 10
1.5408801183
 20
21.2985635282
 10
1.534690601
 20
21.317955454
 10
1.5279676107
 20
21.3372592347
 10
1.5207217571
 20
21.3564416294
 10
1.5129424306
 20
21.3755358789
 10
1.504629631
 20
21.3945419831
  0
LINE
  5
2F1
100
AcDbEntity
  8
0
100
AcDbLine
 62
250
  6
CONTINUOUS
 10
0.2626911267
 20
16.6855079388
 11
0.7909582985
 21
17.3284600945
  0
LINE
  5
2F2
100
AcDbEntity
  8
0
100
AcDbLine
 62
7
  6
CONTINUOUS
 10
0.2626911267
 20
16.5959774724
 11
0.8063188709
 21
17.2576249279
  0
LWPOLYLINE
  5
2F3
100
AcDbEntity
  8
0
100
AcDbPolyline
 62
7
  6
CONTINUOUS
 90
41
 70
0
 10
-0.627369056
 20
16.1213533307
 10
-0.6331077393
 20
16.1146405582
 10
-0.6390334589
 20
16.1079993265
 10
-0.6451449405
 20
16.1014380701
 10
-0.6514435169
 20
16.0949661573
 10
-0.6579245721
 20
16.0885912317
 10
-0.6645775997
 20
16.0823192485
 10
-0.6714004844
 20
16.0761589306
 10
-0.6783906867
 20
16.0701188375
 10
-0.6855368033
 20
16.0642048068
 10
-0.6928359877
 20
16.0584256397
 10
-0.7002850054
 20
16.0527899525
 10
-0.7078716139
 20
16.047303435
 10
-0.7155922093
 20
16.0419749015
 10
-0.7234428448
 20
16.0368129559
 10
-0.7314105047
 20
16.0318231075
 10
-0.7394908291
 20
16.0270141005
 10
-0.7476791159
 20
16.0223944726
 10
-0.75596157
 20
16.0179695659
 10
-0.7643330481
 20
16.0137479801
 10
-0.7727880712
 20
16.0097381045
 10
-0.7813120579
 20
16.0059451106
 10
-0.789899058
 20
16.0023773626
 10
-0.7985427874
 20
15.9990430115
 10
-0.8072278557
 20
15.9959470418
 10
-0.8159474781
 20
15.9930974763
 10
-0.8246945423
 20
15.9905021169
 10
-0.8334528241
 20
15.9881657186
 10
-0.8422146755
 20
15.9860958353
 10
-0.8509721424
 20
15.984299784
 10
-0.8597081651
 20
15.9827820062
 10
-0.8684142037
 20
15.981549434
 10
-0.8770814687
 20
15.9806087333
 10
-0.8856921186
 20
15.9799638975
 10
-0.8942366725
 20
15.9796210555
 10
-0.9027055674
 20
15.9795860238
 10
-0.9110804129
 20
15.9798621662
 10
-0.9193508162
 20
15.9804546051
 10
-0.9275064721
 20
15.9813681059
 10
-0.9355286928
 20
15.9826052157
 10
-0.9412368892
 20
15.9837029328
  0
LINE
  5
2F4
100
AcDbEntity
  8
0
100
AcDbLine
 62
250
  6
CONTINUOUS
 10
9.2710562493
 20
17.2121692141
 11
2.3234143852
 21
13.6775370502
  0
LINE
  5
2F5
100
AcDbEntity
  8
0
100
AcDbLine
 62
250
  6
CONTINUOUS
 10
9.685206725
 20
15.7805356394
 11
2.7678042181
 21
12.2612878329
  0
LINE
  5
2F6
100
AcDbEntity
  8
0
100
AcDbLine
 62
7
  6
CONTINUOUS
 10
10.9824250462
 20
17.9060647198
 11
11.477399793
 21
18.1535520932
  0
LINE
  5
2F7
100
AcDbEntity
  8
RACCORDO
100
AcDbLine
 62
7
  6
CONTINUOUS
 10
17.2736201473
 20
19.8376948227
 11
16.9169934227
 21
19.6605481083
  0
LINE
  5
2F8
100
AcDbEntity
  8
DRAFT
100
AcDbLine
 62
7
  6
CONTINUOUS
 10
1.6710424031
 20
12.4430140032
 11
2.7224463338
 21
12.9572417416
  0
LINE
  5
2F9
100
AcDbEntity
  8
0
100
AcDbLine
 62
7
  6
CONTINUOUS
 10
16.5115110188
 20
20.1500086676
 11
12.2410559865
 21
18.0625169099
  0
LINE
  5
2FA
100
AcDbEntity
  8
0
100
AcDbLine
 62
7
  6
CONTINUOUS
 10
15.8558145903
 20
20.0142271455
 11
11.5640118475
 21
17.923282335
  0
LINE
  5
2FB
100
AcDbEntity
  8
DRAFT
100
AcDbLine
 62
7
  6
CONTINUOUS
 10
1.6710424031
 20
13.9931107235
 11
2.0227893745
 21
14.1639714939
  0
LWPOLYLINE
  5
2FC
100
AcDbEntity
  8
RACCORDO
100
AcDbPolyline
 62
7
  6
CONTINUOUS
 90
11
 70
0
 10
17.2736201473
 20
19.8376948227
 10
17.3341566459
 20
19.8661695236
 10
17.3907288879
 20
19.8897878579
 10
17.4433368734
 20
19.9085498258
 10
17.4923158753
 20
19.9225235056
 10
17.5373306207
 20
19.931640819
 10
17.5773752906
 20
19.9356975303
 10
17.6123390854
 20
19.9345796815
 10
17.6423328048
 20
19.9284012307
 10
17.666683029
 20
19.9172998172
 10
17.6859662597
 20
19.9003192845
  0
LINE
  5
2FD
100
AcDbEntity
  8
DRAFT
100
AcDbLine
 62
7
  6
CONTINUOUS
 10
1.6710424031
 20
14.3163991636
 11
1.6954185813
 21
14.3276568905
  0
LWPOLYLINE
  5
2FE
100
AcDbEntity
  8
0
100
AcDbPolyline
 62
7
  6
CONTINUOUS
 90
3
 70
0
 10
11.5640118475
 20
17.923282335
 10
11.4138054841
 20
17.8579927526
 10
11.2968380699
 20
17.8184322416
  0
LINE
  5
2FF
100
AcDbEntity
  8
0
100
AcDbLine
 62
7
  6
CONTINUOUS
 10
0.9701064493
 20
12.0791953942
 11
2.7224463338
 21
12.5890332933
  0
LWPOLYLINE
  5
300
100
AcDbEntity
  8
RACCORDO
100
AcDbPolyline
 62
7
  6
CONTINUOUS
 90
13
 70
0
 10
-5.8233809787
 20
-9.572789555
 10
-5.8335432096
 20
-9.5708543012
 10
-5.8433382073
 20
-9.5687439792
 10
-5.8527416854
 20
-9.5664330993
 10
-5.8617526505
 20
-9.5638669409
 10
-5.8703254305
 20
-9.561047823
 10
-5.8783690158
 20
-9.5580346968
 10
-5.8858610155
 20
-9.5547971106
 10
-5.8927818318
 20
-9.5513108927
 10
-5.8990417897
 20
-9.5476410054
 10
-5.9046217895
 20
-9.5437521277
 10
-5.9095001108
 20
-9.5396196545
 10
-5.9135616762
 20
-9.5353303366
  0
LINE
  5
301
100
AcDbEntity
  8
RACCORDO
100
AcDbLine
 62
7
  6
CONTINUOUS
 10
-7.4570542395
 20
-7.6805451296
 11
-5.9135615283
 21
-9.5353305141
  0
LINE
  5
302
100
AcDbEntity
  8
RACCORDO
100
AcDbLine
 62
250
  6
CONTINUOUS
 10
-7.5227071949
 20
-7.5302903119
 11
-5.8233810431
 21
-9.5727868925
  0
LWPOLYLINE
  5
303
100
AcDbEntity
  8
RACCORDO
100
AcDbPolyline
 62
7
  6
CONTINUOUS
 90
15
 70
0
 10
-11.9355630802
 20
-0.0081363126
 10
-11.9428471535
 20
0.0049514506
 10
-11.9497533363
 20
0.0183542188
 10
-11.9562671302
 20
0.0320506025
 10
-11.9624032834
 20
0.0460304106
 10
-11.9681218144
 20
0.0602530693
 10
-11.9733281096
 20
0.0746476073
 10
-11.9780157464
 20
0.0891750646
 10
-11.9821759999
 20
0.103807359
 10
-11.9857109734
 20
0.1184856332
 10
-11.9886211395
 20
0.1331619401
 10
-11.9908988327
 20
0.1477998338
 10
-11.9924298545
 20
0.1623512107
 10
-11.9932241497
 20
0.1767600284
 10
-11.9933504173
 20
0.185800033
  0
LWPOLYLINE
  5
304
100
AcDbEntity
  8
RACCORDO
100
AcDbPolyline
 62
7
  6
CONTINUOUS
 90
20
 70
0
 10
-8.5698706998
 20
-14.1054140143
 10
-8.5727383353
 20
-14.0912417046
 10
-8.5752361163
 20
-14.0767526724
 10
-8.5773291293
 20
-14.0619650486
 10
-8.5789685196
 20
-14.0468780473
 10
-8.5801333221
 20
-14.0315357922
 10
-8.5808300938
 20
-14.0160272173
 10
-8.5810216994
 20
-14.0003865778
 10
-8.5806775443
 20
-13.9846373106
 10
-8.5798101297
 20
-13.9688554798
 10
-8.5783806335
 20
-13.9530826368
 10
-8.5763575408
 20
-13.9373502244
 10
-8.5737519363
 20
-13.9217243274
 10
-8.5705182432
 20
-13.9062512048
 10
-8.5666218493
 20
-13.8909795106
 10
-8.5620678642
 20
-13.8759900077
 10
-8.556800207
 20
-13.861338818
 10
-8.5507801319
 20
-13.8471005192
 10
-8.5440067937
 20
-13.8334056399
 10
-8.538973953
 20
-13.8245051526
  0
LINE
  5
305
100
AcDbEntity
  8
0
100
AcDbLine
 62
7
  6
CONTINUOUS
 10
-8.3852240376
 20
-11.6919517049
 11
-8.3852240376
 21
-11.0233307099
  0
LINE
  5
306
100
AcDbEntity
  8
0
100
AcDbLine
 62
250
  6
CONTINUOUS
 10
-8.1165242303
 20
19.6237631841
 11
-8.1165242303
 21
20.8573775357
  0
LINE
  5
307
100
AcDbEntity
  8
0
100
AcDbLine
 62
250
  6
CONTINUOUS
 10
-7.8336815179
 20
19.6328404777
 11
-7.8336815179
 21
20.8573775357
  0
LINE
  5
308
100
AcDbEntity
  8
0
100
AcDbLine
 62
7
  6
CONTINUOUS
 10
-6.9144427023
 20
21.3134700716
 11
-6.9144427023
 21
20.1015412861
  0
LINE
  5
309
100
AcDbEntity
  8
0
100
AcDbLine
 62
7
  6
CONTINUOUS
 10
-6.4780465992
 20
20.0795600764
 11
-6.4780465992
 21
18.8486044025
  0
LINE
  5
30A
100
AcDbEntity
  8
0
100
AcDbLine
 62
250
  6
CONTINUOUS
 10
-6.4194679555
 20
20.0088493983
 11
-6.4194679555
 21
18.7752350467
  0
LWPOLYLINE
  5
30B
100
AcDbEntity
  8
0
100
AcDbPolyline
 62
250
  6
CONTINUOUS
 90
31
 70
0
 10
-8.1165242303
 20
20.8573775357
 10
-8.1163317701
 20
20.8665069494
 10
-8.1157549115
 20
20.8758039958
 10
-8.114795222
 20
20.8852433713
 10
-8.1134553097
 20
20.8947993941
 10
-8.1117388198
 20
20.9044460455
 10
-8.1096504288
 20
20.9141570394
 10
-8.1071958239
 20
20.9239059364
 10
-8.1043816855
 20
20.9336662088
 10
-8.1012156768
 20
20.9434112835
 10
-8.0977064165
 20
20.9531146366
 10
-8.093863458
 20
20.9627498571
 10
-8.0896972664
 20
20.9722907118
 10
-8.0852191803
 20
20.9817112397
 10
-8.0804413933
 20
20.9909857945
 10
-8.075376927
 20
21.0000891073
 10
-8.0700395914
 20
21.00899637
 10
-8.0644438984
 20
21.0176833789
 10
-8.05860503
 20
21.0261265666
 10
-8.0525387941
 20
21.0343030571
 10
-8.0462617749
 20
21.04219048
 10
-8.0397912579
 20
21.0497671355
 10
-8.0331450009
 20
21.0570122905
 10
-8.0263409797
 20
21.0639064083
 10
-8.0193975259
 20
21.0704309355
 10
-8.0123320668
 20
21.076569341
 10
-8.0051652547
 20
21.0823035299
 10
-7.9979208994
 20
21.0876148809
 10
-7.99062027
 20
21.09248879
 10
-7.9832818599
 20
21.0969138917
 10
-7.9759256255
 20
21.1008789877
  0
LWPOLYLINE
  5
30C
100
AcDbEntity
  8
0
100
AcDbPolyline
 62
250
  6
CONTINUOUS
 90
31
 70
0
 10
-6.4194679555
 20
20.0088493983
 10
-6.4192764388
 20
20.0179561841
 10
-6.4187019551
 20
20.0272353515
 10
-6.4177453845
 20
20.0366620125
 10
-6.4164083493
 20
20.0462126941
 10
-6.4146939667
 20
20.0558597659
 10
-6.4126075822
 20
20.0655713556
 10
-6.4101554185
 20
20.0753190133
 10
-6.4073437571
 20
20.0850782093
 10
-6.4041801562
 20
20.0948226584
 10
-6.4006731241
 20
20.1045260299
 10
-6.3968322363
 20
20.1141617187
 10
-6.392668053
 20
20.1237031987
 10
-6.3881919724
 20
20.1331243778
 10
-6.3834161271
 20
20.1423997424
 10
-6.378353473
 20
20.1515041276
 10
-6.3730177635
 20
20.1604127853
 10
-6.3674235356
 20
20.1691014293
 10
-6.3615860293
 20
20.1775463825
 10
-6.3555211355
 20
20.1857246521
 10
-6.3492453561
 20
20.1936139825
 10
-6.3427757768
 20
20.2011928914
 10
-6.336130006
 20
20.2084407489
 10
-6.3293261314
 20
20.2153378261
 10
-6.3223826766
 20
20.2218653437
 10
-6.3153185347
 20
20.2280055386
 10
-6.3081529385
 20
20.233741692
 10
-6.3009054134
 20
20.2390581742
 10
-6.2935956943
 20
20.2439405128
 10
-6.2862436697
 20
20.2483754275
 10
-6.2788693507
 20
20.2523508503
  0
LWPOLYLINE
  5
30D
100
AcDbEntity
  8
0
100
AcDbPolyline
 62
250
  6
CONTINUOUS
 90
16
 70
0
 10
-4.716437352
 20
12.0234829252
 10
-4.7981156161
 20
11.3121828235
 10
-4.8749287051
 20
10.6024011312
 10
-4.9468708912
 20
9.8941917655
 10
-5.0139368883
 20
9.1876085884
 10
-5.0761216183
 20
8.4827052005
 10
-5.1334202096
 20
7.7795349371
 10
-5.1858283732
 20
7.0781511433
 10
-5.2333422153
 20
6.3786071421
 10
-5.2759580042
 20
5.6809560281
 10
-5.3136725413
 20
4.9852508147
 10
-5.3464830377
 20
4.2915442857
 10
-5.3743869237
 20
3.5998889656
 10
-5.3973820765
 20
2.9103373166
 10
-5.4154668227
 20
2.2229417342
 10
-5.4286398136
 20
1.537754399
  0
LWPOLYLINE
  5
30E
100
AcDbEntity
  8
0
100
AcDbPolyline
 62
250
  6
CONTINUOUS
 90
30
 70
0
 10
-1.3385896641
 20
16.2698568536
 10
-1.3430061515
 20
16.258974793
 10
-1.3478097538
 20
16.2483151958
 10
-1.352989898
 20
16.2379022469
 10
-1.3585355746
 20
16.2277588595
 10
-1.3644341387
 20
16.2179088928
 10
-1.3706710803
 20
16.2083768717
 10
-1.3772317769
 20
16.1991850426
 10
-1.3841019121
 20
16.1903533668
 10
-1.3912661271
 20
16.1819016111
 10
-1.3987083704
 20
16.17384877
 10
-1.4064117655
 20
16.1662131608
 10
-1.4143587767
 20
16.1590121853
 10
-1.4225314037
 20
16.1522621467
 10
-1.4309112568
 20
16.1459782265
 10
-1.4394794389
 20
16.1401745972
 10
-1.4482166233
 20
16.1348643552
 10
-1.4571030761
 20
16.1300594992
 10
-1.4661187192
 20
16.1257708873
 10
-1.4752431946
 20
16.1220082029
 10
-1.4844559122
 20
16.1187799362
 10
-1.4937360764
 20
16.1160933742
 10
-1.5030627391
 20
16.1139545814
 10
-1.5124148469
 20
16.1123683858
 10
-1.5217712889
 20
16.111338368
 10
-1.5311109556
 20
16.1108668529
 10
-1.5404127536
 20
16.1109549064
 10
-1.5496556532
 20
16.1116023265
 10
-1.5588187697
 20
16.1128076423
 10
-1.5654331576
 20
16.1140356928
  0
LINE
  5
30F
100
AcDbEntity
  8
0
100
AcDbLine
 62
7
  6
CONTINUOUS
 10
8.8046702853
 20
19.0299728907
 11
8.5356154257
 21
18.7360285381
  0
LWPOLYLINE
  5
310
100
AcDbEntity
  8
RACCORDO
100
AcDbPolyline
 62
7
  6
CONTINUOUS
 90
4
 70
0
 10
-13.891297824
 20
0.9697310593
 10
-13.8752513512
 20
0.9811032263
 10
-13.8665527413
 20
0.9871934081
 10
-13.8573577525
 20
0.9935076451
  0
LWPOLYLINE
  5
311
100
AcDbEntity
  8
RACCORDO
100
AcDbPolyline
 62
7
  6
CONTINUOUS
 90
3
 70
0
 10
-13.8573577525
 20
0.9935076451
 10
-13.8376003516
 20
1.0067837283
 10
-13.8271043586
 20
1.0137193707
  0
LWPOLYLINE
  5
312
100
AcDbEntity
  8
RACCORDO
100
AcDbPolyline
 62
7
  6
CONTINUOUS
 90
3
 70
0
 10
-13.8271043586
 20
1.0137193707
 10
-13.8049188308
 20
1.028089562
 10
-13.7932976524
 20
1.0355001965
  0
LWPOLYLINE
  5
313
100
AcDbEntity
  8
RACCORDO
100
AcDbPolyline
 62
7
  6
CONTINUOUS
 90
3
 70
0
 10
-13.7932976524
 20
1.0355001965
 10
-13.7690539008
 20
1.0506632338
 10
-13.7564948107
 20
1.0583953589
  0
LWPOLYLINE
  5
314
100
AcDbEntity
  8
RACCORDO
100
AcDbPolyline
 62
7
  6
CONTINUOUS
 90
3
 70
0
 10
-13.7564948107
 20
1.0583953589
 10
-13.7305927308
 20
1.0740229164
 10
-13.7173215456
 20
1.0818929107
  0
LWPOLYLINE
  5
315
100
AcDbEntity
  8
RACCORDO
100
AcDbPolyline
 62
7
  6
CONTINUOUS
 90
3
 70
0
 10
-13.7173215456
 20
1.0818929107
 10
-13.690299619
 20
1.0975506306
 10
-13.6766238067
 20
1.1053256795
  0
LWPOLYLINE
  5
316
100
AcDbEntity
  8
RACCORDO
100
AcDbPolyline
 62
7
  6
CONTINUOUS
 90
5
 70
0
 10
-13.6766238067
 20
1.1053256795
 10
-13.6493935229
 20
1.120309353
 10
-13.6362390051
 20
1.1274356214
 10
-13.6234033869
 20
1.1341370677
 10
-13.6109493617
 20
1.1402920577
  0
LINE
  5
317
100
AcDbEntity
  8
RACCORDO
100
AcDbLine
 62
250
  6
CONTINUOUS
 10
18.3675878196
 20
18.5171590271
 11
9.685206725
 21
13.9853624275
  0
LINE
  5
318
100
AcDbEntity
  8
RACCORDO
100
AcDbLine
 62
250
  6
CONTINUOUS
 10
18.7292664553
 20
17.5945593593
 11
9.685206725
 21
12.8739834382
  0
LINE
  5
319
100
AcDbEntity
  8
RACCORDO
100
AcDbLine
 62
7
  6
CONTINUOUS
 10
-12.2530989003
 20
1.8244526655
 11
-13.6097640459
 21
1.1408892857
  0
LINE
  5
31A
100
AcDbEntity
  8
DRAFT
100
AcDbLine
 62
7
  6
CONTINUOUS
 10
-12.245067124
 20
1.8204367773
 11
-11.9786542659
 21
1.9531160857
  0
LINE
  5
31B
100
AcDbEntity
  8
RACCORDO
100
AcDbLine
 62
250
  6
CONTINUOUS
 10
-15.4512352287
 20
-9.4883788428
 11
-16.5835765762
 21
-9.719730376
  0
LINE
  5
31C
100
AcDbEntity
  8
RACCORDO
100
AcDbLine
 62
250
  6
CONTINUOUS
 10
-16.5835765762
 20
-9.719730376
 11
-17.1217488484
 21
-9.8293875665
  0
LINE
  5
31D
100
AcDbEntity
  8
RACCORDO
100
AcDbLine
 62
250
  6
CONTINUOUS
 10
-15.5816495641
 20
-9.2709328678
 11
-16.614539126
 21
-9.4808849206
  0
LINE
  5
31E
100
AcDbEntity
  8
RACCORDO
100
AcDbLine
 62
250
  6
CONTINUOUS
 10
-16.614539126
 20
-9.4808849206
 11
-16.9332325665
 21
-9.5453250309
  0
LWPOLYLINE
  5
31F
100
AcDbEntity
  8
RACCORDO
100
AcDbPolyline
 62
7
  6
CONTINUOUS
 90
13
 70
0
 10
-7.5226988819
 20
-7.5302761758
 10
-7.5196580479
 20
-7.5441933675
 10
-7.5162209875
 20
-7.5579858778
 10
-7.5123625386
 20
-7.571627897
 10
-7.508034136
 20
-7.5851208449
 10
-7.5032356241
 20
-7.5984099142
 10
-7.4980149434
 20
-7.6113838794
 10
-7.4923487639
 20
-7.6240118894
 10
-7.4862166941
 20
-7.6362690794
 10
-7.4796688142
 20
-7.6480501364
 10
-7.4726816772
 20
-7.65932381
 10
-7.4652367089
 20
-7.6700604925
 10
-7.4570553336
 20
-7.6805438135
  0
LWPOLYLINE
  5
320
100
AcDbEntity
  8
0
100
AcDbPolyline
 62
250
  6
CONTINUOUS
 90
43
 70
0
 10
-4.0195077701
 20
-24.655021729
 10
-4.0175685542
 20
-24.6680150099
 10
-4.0152587812
 20
-24.6807199575
 10
-4.0125784512
 20
-24.693136572
 10
-4.0095238108
 20
-24.7052783597
 10
-4.0060986134
 20
-24.7171318142
 10
-4.0023141187
 20
-24.7286564158
 10
-3.998169301
 20
-24.7398502194
 10
-3.9936651861
 20
-24.7507151701
 10
-3.9888161105
 20
-24.7612165838
 10
-3.9836209863
 20
-24.7713532495
 10
-3.9780809015
 20
-24.7811263781
 10
-3.9722134569
 20
-24.7905049187
 10
-3.9660176108
 20
-24.7994876285
 10
-3.9594944049
 20
-24.8080757502
 10
-3.952664565
 20
-24.8162419604
 10
-3.945527104
 20
-24.8239849248
 10
-3.9380830089
 20
-24.8313059777
 10
-3.9303559671
 20
-24.8381817988
 10
-3.922345086
 20
-24.8446109618
 10
-3.914051258
 20
-24.850594893
 10
-3.9055008486
 20
-24.8561145511
 10
-3.8966930358
 20
-24.8611684614
 10
-3.8876286415
 20
-24.8657580987
 10
-3.8783364967
 20
-24.869868846
 10
-3.8688158559
 20
-24.8734991793
 10
-3.8590674646
 20
-24.8766506225
 10
-3.8491223901
 20
-24.8793131308
 10
-3.838980028
 20
-24.8814851363
 10
-3.8286409827
 20
-24.8831682068
 10
-3.8181381348
 20
-24.8843570009
 10
-3.8074709719
 20
-24.8850499502
 10
-3.7966400064
 20
-24.8852486232
 10
-3.7856796556
 20
-24.8849523835
 10
-3.7745894578
 20
-24.8841596402
 10
-3.7633698748
 20
-24.8828719842
 10
-3.7520567089
 20
-24.8810935518
 10
-3.7406490228
 20
-24.8788225048
 10
-3.7291477538
 20
-24.8760606814
 10
-3.7175915167
 20
-24.8728177323
 10
-3.705993183
 20
-24.8690968746
 10
-3.6943398812
 20
-24.8648948913
 10
-3.6826316113
 20
-24.8602117823
  0
LWPOLYLINE
  5
321
100
AcDbEntity
  8
0
100
AcDbPolyline
 62
250
  6
CONTINUOUS
 90
24
 70
0
 10
-4.716437352
 20
-24.7145574344
 10
-4.7125970759
 20
-24.7405046686
 10
-4.7080120005
 20
-24.765918958
 10
-4.7026869682
 20
-24.7907733463
 10
-4.6966275692
 20
-24.8150413915
 10
-4.6898402355
 20
-24.8386974538
 10
-4.6823321992
 20
-24.8617166929
 10
-4.67411126
 20
-24.8840748682
 10
-4.6651861337
 20
-24.9057480644
 10
-4.6555665392
 20
-24.9267129772
 10
-4.6452626345
 20
-24.946947315
 10
-4.6342852492
 20
-24.9664297231
 10
-4.6226462017
 20
-24.9851394814
 10
-4.6103577134
 20
-25.0030567928
 10
-4.5974327448
 20
-25.0201626581
 10
-4.5838852377
 20
-25.0364388083
 10
-4.5697294137
 20
-25.0518680408
 10
-4.5549802039
 20
-25.0664339972
 10
-4.5396535772
 20
-25.0801210307
 10
-4.5237656723
 20
-25.0929146679
 10
-4.5073332126
 20
-25.1048014029
 10
-4.4903739325
 20
-25.1157684707
 10
-4.4729056692
 20
-25.1258043054
 10
-4.4625073701
 20
-25.1312145859
  0
LWPOLYLINE
  5
322
100
AcDbEntity
  8
0
100
AcDbPolyline
 62
250
  6
CONTINUOUS
 90
40
 70
0
 10
-3.6819463079
 20
12.4847594221
 10
-3.6829823854
 20
12.5019425579
 10
-3.6845795163
 20
12.5193891898
 10
-3.6867351077
 20
12.5370710538
 10
-3.6894454557
 20
12.5549596165
 10
-3.6927063696
 20
12.5730257869
 10
-3.6965131792
 20
12.5912399637
 10
-3.7008596688
 20
12.6095726636
 10
-3.7057388373
 20
12.6279941627
 10
-3.7111435276
 20
12.6464742111
 10
-3.7170649693
 20
12.6649828764
 10
-3.7234935861
 20
12.683490163
 10
-3.730419762
 20
12.7019656545
 10
-3.7378325649
 20
12.7203792596
 10
-3.7457197173
 20
12.7387012935
 10
-3.7540684113
 20
12.7569020962
 10
-3.762865354
 20
12.7749520526
 10
-3.7720961041
 20
12.7928220237
 10
-3.7817450492
 20
12.8104834269
 10
-3.7917964856
 20
12.8279076906
 10
-3.8022342624
 20
12.8450665095
 10
-3.8130411235
 20
12.8619322731
 10
-3.8241994699
 20
12.8784777091
 10
-3.8356913883
 20
12.8946759188
 10
-3.8474982991
 20
12.9105006284
 10
-3.8596011346
 20
12.9259261654
 10
-3.8719803089
 20
12.9409275276
 10
-3.8846157485
 20
12.9554804151
 10
-3.8974870726
 20
12.9695611993
 10
-3.9105734307
 20
12.9831470683
 10
-3.9238534749
 20
12.9962160921
 10
-3.9373057471
 20
13.0087470657
 10
-3.9509084975
 20
13.0207196636
 10
-3.9646395243
 20
13.0321145792
 10
-3.9784766381
 20
13.0429133205
 10
-3.9923974733
 20
13.0530983637
 10
-4.0063793076
 20
13.0626533009
 10
-4.0203994705
 20
13.0715626623
 10
-4.0344353792
 20
13.079811941
 10
-4.0484643513
 20
13.0873877405
  0
LWPOLYLINE
  5
323
100
AcDbEntity
  8
0
100
AcDbPolyline
 62
250
  6
CONTINUOUS
 90
16
 70
0
 10
-5.4286398136
 20
-14.9167282729
 10
-5.4154668227
 20
-15.5891922278
 10
-5.3973820765
 20
-16.25912017
 10
-5.3743869237
 20
-16.9264612675
 10
-5.3464830377
 20
-17.591164883
 10
-5.3136725413
 20
-18.2531805921
 10
-5.2759580041
 20
-18.9124581855
 10
-5.2333422153
 20
-19.5689477064
 10
-5.1858283732
 20
-20.2225993018
 10
-5.1334202095
 20
-20.8733632396
 10
-5.0761216182
 20
-21.5211901285
 10
-5.0139368883
 20
-22.1660308749
 10
-4.9468708912
 20
-22.807836532
 10
-4.8749287051
 20
-23.4465584166
 10
-4.7981156161
 20
-24.0821481139
 10
-4.716437352
 20
-24.7145574344
  0
LWPOLYLINE
  5
324
100
AcDbEntity
  8
0
100
AcDbPolyline
 62
250
  6
CONTINUOUS
 90
16
 70
0
 10
-4.72782106
 20
-14.9115911974
 10
-4.7147172363
 20
-15.5804017164
 10
-4.6967317468
 20
-16.2465904734
 10
-4.6738645914
 20
-16.9101574684
 10
-4.6461132925
 20
-17.57115287
 10
-4.6134803276
 20
-18.2295265097
 10
-4.5759731296
 20
-18.8851278815
 10
-4.5335905901
 20
-19.5379561678
 10
-4.4863338174
 20
-20.1880121862
 10
-4.4342135691
 20
-20.8351478834
 10
-4.3772287213
 20
-21.4793627041
 10
-4.3153803979
 20
-22.1206572036
 10
-4.2486827282
 20
-22.7588849946
 10
-4.1771404218
 20
-23.3939972812
 10
-4.1007487691
 20
-24.0260428594
 10
-4.0195077701
 20
-24.655021729
  0
LWPOLYLINE
  5
325
100
AcDbEntity
  8
0
100
AcDbPolyline
 62
250
  6
CONTINUOUS
 90
21
 70
0
 10
-3.3696496942
 20
17.1096386126
 10
-3.3694813983
 20
17.1002776622
 10
-3.3689768311
 20
17.0911028312
 10
-3.3681369532
 20
17.082131589
 10
-3.3669633675
 20
17.0733810403
 10
-3.3654583066
 20
17.0648678223
 10
-3.3636246202
 20
17.0566080794
 10
-3.3614657761
 20
17.0486174918
 10
-3.3589858887
 20
17.0409113382
 10
-3.356189709
 20
17.0335043892
 10
-3.3530825865
 20
17.0264107898
 10
-3.3496704244
 20
17.0196439936
 10
-3.3459596964
 20
17.0132168365
 10
-3.3419574356
 20
17.0071415166
 10
-3.3376712865
 20
17.0014296528
 10
-3.333109477
 20
16.9960921999
 10
-3.3282807475
 20
16.9911393498
 10
-3.3231942617
 20
16.9865804694
 10
-3.3178596467
 20
16.9824241762
 10
-3.3122863765
 20
16.9786779592
 10
-3.3079015669
 20
16.9761619183
  0
LINE
  5
326
100
AcDbEntity
  8
0
100
AcDbLine
 62
7
  6
CONTINUOUS
 10
-5.5002291399
 20
19.0092851552
 11
-5.5002291399
 21
17.5631223895
  0
LINE
  5
327
100
AcDbEntity
  8
0
100
AcDbLine
 62
7
  6
CONTINUOUS
 10
-4.8346484382
 20
17.2303320386
 11
-4.8346484382
 21
18.6764948044
  0
LINE
  5
328
100
AcDbEntity
  8
0
100
AcDbLine
 62
250
  6
CONTINUOUS
 10
-4.0528117593
 20
23.2666337483
 11
-4.0528117593
 21
24.6505898512
  0
LINE
  5
329
100
AcDbEntity
  8
DRAFT
100
AcDbLine
 62
250
  6
CONTINUOUS
 10
-4.0153048994
 20
22.0543098409
 11
-4.0153048994
 21
23.2851199284
  0
LINE
  5
32A
100
AcDbEntity
  8
0
100
AcDbLine
 62
7
  6
CONTINUOUS
 10
-3.9201186218
 20
23.4251944889
 11
-3.9201186218
 21
24.6734586116
  0
LINE
  5
32B
100
AcDbEntity
  8
0
100
AcDbLine
 62
7
  6
CONTINUOUS
 10
-3.767817526
 20
17.8256564566
 11
-3.767817526
 21
19.2112971027
  0
LINE
  5
32C
100
AcDbEntity
  8
0
100
AcDbLine
 62
7
  6
CONTINUOUS
 10
-3.4428729989
 20
17.5380008944
 11
-3.4428729989
 21
17.1980269603
  0
LINE
  5
32D
100
AcDbEntity
  8
0
100
AcDbLine
 62
250
  6
CONTINUOUS
 10
-3.3696496942
 20
17.4496125468
 11
-3.3696496942
 21
17.1096386126
  0
LINE
  5
32E
100
AcDbEntity
  8
0
100
AcDbLine
 62
7
  6
CONTINUOUS
 10
-3.0493790732
 20
23.4101660786
 11
-3.0493790732
 21
22.8466034203
  0
LWPOLYLINE
  5
32F
100
AcDbEntity
  8
0
100
AcDbPolyline
 62
250
  6
CONTINUOUS
 90
13
 70
0
 10
-5.4286398136
 20
1.537754399
 10
-5.4484815675
 20
0.157023981
 10
-5.4647155164
 20
-1.2220056037
 10
-5.4773417139
 20
-2.5993206256
 10
-5.4863602001
 20
-3.9748981687
 10
-5.4917711961
 20
-5.3487337704
 10
-5.4935748668
 20
-6.7208413049
 10
-5.4917711974
 20
-8.0912070168
 10
-5.4863602023
 20
-9.4598171592
 10
-5.4773417166
 20
-10.8266854323
 10
-5.464715519
 20
-12.1918071495
 10
-5.4484815692
 20
-13.5551593573
 10
-5.4286398136
 20
-14.9167282729
  0
LWPOLYLINE
  5
330
100
AcDbEntity
  8
0
100
AcDbPolyline
 62
250
  6
CONTINUOUS
 90
13
 70
0
 10
-4.72782106
 20
1.5264369918
 10
-4.7476431617
 20
0.1470649042
 10
-4.7638611714
 20
-1.2305807767
 10
-4.7764750892
 20
-2.606500051
 10
-4.7854848252
 20
-3.980697472
 10
-4.7908904691
 20
-5.3531684864
 10
-4.792692291
 20
-6.7238994343
 10
-4.790890471
 20
-8.0928903996
 10
-4.7854848289
 20
-9.4601412983
 10
-4.7764750939
 20
-10.8256382186
 10
-4.7638611755
 20
-12.1893765233
 10
-4.7476431642
 20
-13.5513608495
 10
-4.72782106
 20
-14.9115911974
  0
LWPOLYLINE
  5
331
100
AcDbEntity
  8
0
100
AcDbPolyline
 62
250
  6
CONTINUOUS
 90
34
 70
0
 10
-3.3696496942
 20
17.4496125468
 10
-3.3694508914
 20
17.459977025
 10
-3.3688549291
 20
17.4705170098
 10
-3.3678631459
 20
17.4812087955
 10
-3.3664777699
 20
17.4920283413
 10
-3.3647019158
 20
17.5029513057
 10
-3.3625395806
 20
17.5139530997
 10
-3.35999563
 20
17.5250089718
 10
-3.3570757853
 20
17.5360940608
 10
-3.3537866153
 20
17.5471834306
 10
-3.3501355184
 20
17.5582521404
 10
-3.3461307078
 20
17.5692752928
 10
-3.3417811956
 20
17.5802280861
 10
-3.3370967669
 20
17.5910858838
 10
-3.3320879588
 20
17.6018242669
 10
-3.3267660403
 20
17.61241908
 10
-3.3211429799
 20
17.6228464998
 10
-3.3152314292
 20
17.6330830686
 10
-3.3090446974
 20
17.6431057455
 10
-3.3025967208
 20
17.6528919635
 10
-3.2959019876
 20
17.6624197432
 10
-3.2889755114
 20
17.6716677183
 10
-3.2818328009
 20
17.6806151687
 10
-3.2744899834
 20
17.6892418795
 10
-3.2669637368
 20
17.6975282699
 10
-3.2592711025
 20
17.7054556184
 10
-3.2514292899
 20
17.7130062312
 10
-3.243455791
 20
17.7201632805
 10
-3.2353673135
 20
17.7269116535
 10
-3.2271832422
 20
17.7332350634
 10
-3.2189255714
 20
17.7391168394
 10
-3.2106141508
 20
17.7445435894
 10
-3.2022665184
 20
17.7495046034
 10
-3.1939014382
 20
17.7539893617
  0
LWPOLYLINE
  5
332
100
AcDbEntity
  8
0
100
AcDbPolyline
 62
250
  6
CONTINUOUS
 90
16
 70
0
 10
-4.0195077701
 20
11.9538777164
 10
-4.1007486804
 20
11.2464461897
 10
-4.1771402697
 20
10.5406306978
 10
-4.248682538
 20
9.8364312406
 10
-4.3153802034
 20
9.1337944027
 10
-4.3772285478
 20
8.4327735995
 10
-4.4342134169
 20
7.7335290773
 10
-4.4863336789
 20
7.0360614376
 10
-4.5335904657
 20
6.3403700789
 10
-4.5759730191
 20
5.6466134432
 10
-4.6134802294
 20
4.9547918522
 10
-4.6461132063
 20
4.2649049841
 10
-4.6738645206
 20
3.5771103163
 10
-4.6967316962
 20
2.8914603412
 10
-4.7147172093
 20
2.2079025664
 10
-4.72782106
 20
1.5264369918
  0
LINE
  5
333
100
AcDbEntity
  8
0
100
AcDbLine
 62
250
  6
CONTINUOUS
 10
7.9937211001
 20
21.6606138885
 11
8.1960918155
 21
21.9887216463
  0
LINE
  5
334
100
AcDbEntity
  8
DRAFT
100
AcDbLine
 62
7
  6
CONTINUOUS
 10
8.554850204
 20
21.8128298803
 11
8.4984564106
 21
21.7213974757
  0
LINE
  5
335
100
AcDbEntity
  8
DRAFT
100
AcDbLine
 62
250
  6
CONTINUOUS
 10
8.6752331058
 20
22.0080091281
 11
8.554850204
 21
21.8128298803
  0
LWPOLYLINE
  5
336
100
AcDbEntity
  8
0
100
AcDbPolyline
 62
7
  6
CONTINUOUS
 90
7
 70
0
 10
7.5564209653
 20
21.4081248292
 10
7.6110913394
 20
21.4905637862
 10
7.705083352
 20
21.6095525346
 10
7.8111978073
 20
21.7194432971
 10
7.9288478427
 20
21.8196283265
 10
8.0573827983
 20
21.9095535524
 10
8.1960918155
 20
21.9887216463
  0
LINE
  5
337
100
AcDbEntity
  8
0
100
AcDbLine
 62
7
  6
CONTINUOUS
 10
10.2650187109
 20
18.7261510289
 11
10.4033226341
 21
18.8772490512
  0
LINE
  5
338
100
AcDbEntity
  8
0
100
AcDbLine
 62
7
  6
CONTINUOUS
 10
10.2956418746
 20
19.5980322775
 11
9.8719795786
 21
19.1483331638
  0
LWPOLYLINE
  5
339
100
AcDbEntity
  8
0
100
AcDbPolyline
 62
250
  6
CONTINUOUS
 90
37
 70
0
 10
-4.72782106
 20
1.5264369918
 10
-4.7436559393
 20
1.5194696207
 10
-4.7601078969
 20
1.5128499831
 10
-4.7771463073
 20
1.5065904012
 10
-4.7947394534
 20
1.5007025276
 10
-4.8128545855
 20
1.4951973223
 10
-4.8314579822
 20
1.4900850334
 10
-4.8505150131
 20
1.4853751775
 10
-4.8699902036
 20
1.4810765219
 10
-4.8898473005
 20
1.4771970687
 10
-4.9100493396
 20
1.4737440393
 10
-4.9305587149
 20
1.4707238618
 10
-4.951337248
 20
1.4681421581
 10
-4.9723462595
 20
1.4660037341
 10
-4.9935466411
 20
1.4643125705
 10
-5.0148989283
 20
1.4630718154
 10
-5.0363633735
 20
1.4622837785
 10
-5.0579000207
 20
1.4619499266
 10
-5.0794687792
 20
1.4620708814
 10
-5.1010294988
 20
1.4626464175
 10
-5.122542044
 20
1.4636754637
 10
-5.1439663692
 20
1.4651561044
 10
-5.1652625928
 20
1.4670855833
 10
-5.1863910719
 20
1.4694603087
 10
-5.2073124757
 20
1.4722758601
 10
-5.2279878589
 20
1.4755269963
 10
-5.2483787341
 20
1.4792076653
 10
-5.2684471437
 20
1.4833110155
 10
-5.2881557302
 20
1.4878294085
 10
-5.307467806
 20
1.4927544333
 10
-5.3263474216
 20
1.4980769219
 10
-5.3447594324
 20
1.5037869665
 10
-5.3626695646
 20
1.5098739379
 10
-5.3800444781
 20
1.5163265051
 10
-5.3968518297
 20
1.5231326565
 10
-5.4130603322
 20
1.5302797226
 10
-5.4286398135
 20
1.5377543991
  0
LWPOLYLINE
  5
33A
100
AcDbEntity
  8
RACCORDO
100
AcDbPolyline
 62
250
  6
CONTINUOUS
 90
19
 70
0
 10
-17.5016030527
 20
-8.8802466534
 10
-17.4905677939
 20
-8.8778246442
 10
-17.4785504244
 20
-8.8748634649
 10
-17.4656414804
 20
-8.8713854243
 10
-17.4519382156
 20
-8.8674167254
 10
-17.4375438676
 20
-8.8629872675
 10
-17.4225668805
 20
-8.8581304213
 10
-17.4071200881
 20
-8.8528827773
 10
-17.3913198634
 20
-8.8472838702
 10
-17.3752852422
 20
-8.8413758811
 10
-17.3591370262
 20
-8.8352033197
 10
-17.3429968729
 20
-8.8288126887
 10
-17.326986379
 20
-8.822252134
 10
-17.3112261644
 20
-8.8155710814
 10
-17.2958349634
 20
-8.8088198647
 10
-17.2809287304
 20
-8.8020493463
 10
-17.266619766
 20
-8.7953105338
 10
-17.253015871
 20
-8.7886541963
 10
-17.2402195346
 20
-8.7821304811
  0
LINE
  5
33B
100
AcDbEntity
  8
RACCORDO
100
AcDbLine
 62
250
  6
CONTINUOUS
 10
-11.935563079
 20
-0.0081363132
 11
-13.8912978252
 21
0.9697310599
  0
LINE
  5
33C
100
AcDbEntity
  8
RACCORDO
100
AcDbLine
 62
250
  6
CONTINUOUS
 10
-11.9923188619
 20
0.3309768078
 11
-13.6109493617
 21
1.1402920577
  0
LINE
  5
33D
100
AcDbEntity
  8
DRAFT
100
AcDbLine
 62
7
  6
CONTINUOUS
 10
-11.9812494149
 20
1.6885279228
 11
-12.2530989003
 21
1.8244526655
  0
LWPOLYLINE
  5
33E
100
AcDbEntity
  8
0
100
AcDbPolyline
 62
7
  6
CONTINUOUS
 90
5
 70
0
 10
-3.9201186218
 20
24.6734565444
 10
-3.9203645589
 20
24.67574634
 10
-3.9213343199
 20
24.6781466004
 10
-3.9230078265
 20
24.6800778993
 10
-3.9251335962
 20
24.6814640853
  0
LWPOLYLINE
  5
33F
100
AcDbEntity
  8
0
100
AcDbPolyline
 62
250
  6
CONTINUOUS
 90
20
 70
0
 10
-1.6911116237
 20
-25.3692084961
 10
-1.6909128759
 20
-25.379372783
 10
-1.6903170791
 20
-25.3893154668
 10
-1.6893255731
 20
-25.3990141908
 10
-1.6879405875
 20
-25.4084471464
 10
-1.6861652363
 20
-25.4175931231
 10
-1.6840035118
 20
-25.4264315555
 10
-1.6814602745
 20
-25.4349425695
 10
-1.6785412433
 20
-25.4431070276
 10
-1.6752529818
 20
-25.4509065714
 10
-1.6716028838
 20
-25.458323663
 10
-1.6675991569
 20
-25.4653416245
 10
-1.6632508038
 20
-25.4719446755
 10
-1.6585676021
 20
-25.4781179686
 10
-1.6535600823
 20
-25.4838476225
 10
-1.6482395042
 20
-25.4891207539
 10
-1.6426178316
 20
-25.4939255055
 10
-1.6367077051
 20
-25.4982510736
 10
-1.6305224142
 20
-25.5020877318
 10
-1.6261383273
 20
-25.5044269462
  0
LWPOLYLINE
  5
340
100
AcDbEntity
  8
0
100
AcDbPolyline
 62
250
  6
CONTINUOUS
 90
22
 70
0
 10
-1.6911116237
 20
16.2703695774
 10
-1.6909437915
 20
16.261021408
 10
-1.6904403848
 20
16.2518557314
 10
-1.6896020178
 20
16.2428901619
 10
-1.6884297912
 20
16.2341409826
 10
-1.6869256726
 20
16.2256261083
 10
-1.6850928695
 20
16.2173647746
 10
-1.6829351446
 20
16.2093736355
 10
-1.6804564105
 20
16.2016669212
 10
-1.6776613531
 20
16.1942592221
 10
-1.6745552562
 20
16.1871645941
 10
-1.671144046
 20
16.1803966207
 10
-1.6674342616
 20
16.1739682876
 10
-1.6634329983
 20
16.1678918736
 10
-1.6591478525
 20
16.1621788995
 10
-1.6545869524
 20
16.1568402037
 10
-1.6497589464
 20
16.1518859253
 10
-1.6446730532
 20
16.1473255391
 10
-1.6393390231
 20
16.1431677839
 10
-1.6337670586
 20
16.1394205913
 10
-1.6279677383
 20
16.136091055
 10
-1.6261383273
 20
16.1351511273
  0
LWPOLYLINE
  5
341
100
AcDbEntity
  8
0
100
AcDbPolyline
 62
7
  6
CONTINUOUS
 90
27
 70
0
 10
-0.196928281
 20
23.9550650723
 10
-0.1973594201
 20
23.9850158276
 10
-0.1986408947
 20
24.0144362965
 10
-0.2007727048
 20
24.0433264789
 10
-0.2037601404
 20
24.0717234871
 10
-0.2075979114
 20
24.0995902088
 10
-0.2122701484
 20
24.1268153078
 10
-0.2177778393
 20
24.1533878618
 10
-0.2241199961
 20
24.1793187932
 10
-0.2312777855
 20
24.204529533
 10
-0.2392578836
 20
24.2290285605
 10
-0.2480536142
 20
24.2528073965
 10
-0.2576261149
 20
24.2757620346
 10
-0.2679724159
 20
24.2978771339
 10
-0.279095487
 20
24.3191680352
 10
-0.2909653758
 20
24.339576755
 10
-0.3035927962
 20
24.3591127092
 10
-0.3169670343
 20
24.3777664818
 10
-0.3310259957
 20
24.395451841
 10
-0.3457620138
 20
24.4121533979
 10
-0.3611827553
 20
24.4278865415
 10
-0.3772491258
 20
24.4426112068
 10
-0.3939754407
 20
24.4563340537
 10
-0.4113473846
 20
24.4690484223
 10
-0.4292829173
 20
24.4806942682
 10
-0.4477708402
 20
24.4912595777
 10
-0.4568212185
 20
24.4959393692
  0
LINE
  5
342
100
AcDbEntity
  8
0
100
AcDbLine
 62
7
  6
CONTINUOUS
 10
-2.7398800446
 20
16.692021986
 11
-2.7398800446
 21
16.2380478843
  0
LINE
  5
343
100
AcDbEntity
  8
0
100
AcDbLine
 62
250
  6
CONTINUOUS
 10
-2.6666567399
 20
16.6554103336
 11
-2.6666567399
 21
16.1463361895
  0
LINE
  5
344
100
AcDbEntity
  8
DRAFT
100
AcDbLine
 62
250
  6
CONTINUOUS
 10
-2.6010913371
 20
22.1935075076
 11
-2.6010913371
 21
22.7171938977
  0
LINE
  5
345
100
AcDbEntity
  8
0
100
AcDbLine
 62
250
  6
CONTINUOUS
 10
-1.6911116237
 20
-25.3692084961
 11
-1.6911116237
 21
-25.0292345619
  0
LINE
  5
346
100
AcDbEntity
  8
0
100
AcDbLine
 62
250
  6
CONTINUOUS
 10
-1.6911116237
 20
16.2703695774
 11
-1.6911116237
 21
16.6103435116
  0
LINE
  5
347
100
AcDbEntity
  8
0
100
AcDbLine
 62
250
  6
CONTINUOUS
 10
-1.3385896641
 20
-25.3697212199
 11
-1.3385896641
 21
-25.0297472858
  0
LINE
  5
348
100
AcDbEntity
  8
0
100
AcDbLine
 62
250
  6
CONTINUOUS
 10
-1.3385896641
 20
16.2698568536
 11
-1.3385896641
 21
16.6098307877
  0
LINE
  5
349
100
AcDbEntity
  8
0
100
AcDbLine
 62
250
  6
CONTINUOUS
 10
-0.9798910156
 20
-24.0527380848
 11
-0.9798910156
 21
-23.942344726
  0
LINE
  5
34A
100
AcDbEntity
  8
0
100
AcDbLine
 62
250
  6
CONTINUOUS
 10
-0.9798910156
 20
15.3029533273
 11
-0.9798910156
 21
15.9917739503
  0
LINE
  5
34B
100
AcDbEntity
  8
0
100
AcDbLine
 62
250
  6
CONTINUOUS
 10
-0.627369056
 20
-24.1782508087
 11
-0.627369056
 21
-23.7943703263
  0
LINE
  5
34C
100
AcDbEntity
  8
0
100
AcDbLine
 62
250
  6
CONTINUOUS
 10
-0.627369056
 20
15.313721209
 11
-0.627369056
 21
16.1213533307
  0
LINE
  5
34D
100
AcDbEntity
  8
0
100
AcDbLine
 62
7
  6
CONTINUOUS
 10
-0.196928281
 20
23.9550650723
 11
-0.196928281
 21
23.4934059529
  0
LINE
  5
34E
100
AcDbEntity
  8
0
100
AcDbLine
 62
7
  6
CONTINUOUS
 10
0.2626911267
 20
-23.4207592146
 11
0.2626911267
 21
-24.5896866203
  0
LINE
  5
34F
100
AcDbEntity
  8
0
100
AcDbLine
 62
7
  6
CONTINUOUS
 10
0.2626911267
 20
15.8104021302
 11
0.2626911267
 21
17.4125527912
  0
LWPOLYLINE
  5
350
100
AcDbEntity
  8
0
100
AcDbPolyline
 62
250
  6
CONTINUOUS
 90
25
 70
0
 10
-1.6911116237
 20
-25.0292345619
 10
-1.6909433279
 20
-25.0197053157
 10
-1.6904387607
 20
-25.0100259174
 10
-1.6895988828
 20
-25.0002147974
 10
-1.6884252971
 20
-24.9902906629
 10
-1.6869202362
 20
-24.980272384
 10
-1.6850865498
 20
-24.9701789547
 10
-1.6829277057
 20
-24.9600295231
 10
-1.6804478183
 20
-24.9498434821
 10
-1.6776516386
 20
-24.9396403534
 10
-1.6745445161
 20
-24.9294396314
 10
-1.6711323539
 20
-24.9192606731
 10
-1.667421626
 20
-24.9091227881
 10
-1.6634193652
 20
-24.8990452074
 10
-1.6591332161
 20
-24.8890471944
 10
-1.6545714066
 20
-24.879147932
 10
-1.649742677
 20
-24.8693663524
 10
-1.6446561913
 20
-24.8597209862
 10
-1.6393215763
 20
-24.850230078
 10
-1.6337483061
 20
-24.8409105909
 10
-1.6279476201
 20
-24.8317814221
 10
-1.621932695
 20
-24.8228630235
 10
-1.6157159301
 20
-24.8141731372
 10
-1.6093086676
 20
-24.805726996
 10
-1.6027232761
 20
-24.7975403881
  0
LWPOLYLINE
  5
351
100
AcDbEntity
  8
0
100
AcDbPolyline
 62
250
  6
CONTINUOUS
 90
34
 70
0
 10
-1.6911116237
 20
16.6103435116
 10
-1.6909128759
 20
16.6207065464
 10
-1.6903170791
 20
16.631245027
 10
-1.6893255731
 20
16.6419352569
 10
-1.6879405875
 20
16.6527531982
 10
-1.6861652363
 20
16.663674526
 10
-1.6840035118
 20
16.674674683
 10
-1.6814602745
 20
16.6857289342
 10
-1.6785412433
 20
16.6968124236
 10
-1.6752529818
 20
16.7079002289
 10
-1.6716028838
 20
16.7189674185
 10
-1.6675991569
 20
16.7299891069
 10
-1.6632508038
 20
16.740940511
 10
-1.6585676021
 20
16.7517970057
 10
-1.6535600823
 20
16.7625341795
 10
-1.6482395042
 20
16.7731278889
 10
-1.6426178316
 20
16.7835543132
 10
-1.6367077051
 20
16.7937900077
 10
-1.6305224142
 20
16.8038119569
 10
-1.6240758669
 20
16.8135976255
 10
-1.6173825588
 20
16.8231250097
 10
-1.6104575403
 20
16.8323726865
 10
-1.6033163829
 20
16.8413198618
 10
-1.5959751439
 20
16.8499464172
 10
-1.5884503307
 20
16.8582329552
 10
-1.5807588634
 20
16.8661608429
 10
-1.5729180369
 20
16.8737122539
 10
-1.5649454818
 20
16.8808702082
 10
-1.5568591251
 20
16.8876186107
 10
-1.5486771494
 20
16.893942287
 10
-1.5404179527
 20
16.8998270178
 10
-1.5321001064
 20
16.905259571
 10
-1.5237423137
 20
16.910227731
 10
-1.5153633678
 20
16.9147203265
  0
LWPOLYLINE
  5
352
100
AcDbEntity
  8
0
100
AcDbPolyline
 62
250
  6
CONTINUOUS
 90
20
 70
0
 10
-1.3385896641
 20
-25.3697212199
 10
-1.338837994
 20
-25.3799476378
 10
-1.3394839744
 20
-25.3899494607
 10
-1.3405261431
 20
-25.3997040249
 10
-1.3419621411
 20
-25.4091892324
 10
-1.3437887158
 20
-25.4183835841
 10
-1.3460017257
 20
-25.4272662306
 10
-1.3485961546
 20
-25.4358170414
 10
-1.3515661244
 20
-25.4440166462
 10
-1.3549049038
 20
-25.4518464639
 10
-1.3586049274
 20
-25.4592887552
 10
-1.3626578102
 20
-25.4663266565
 10
-1.3670543648
 20
-25.472944217
 10
-1.3717846269
 20
-25.4791264434
 10
-1.3768378776
 20
-25.4848593307
 10
-1.3822026639
 20
-25.4901298895
 10
-1.3878668315
 20
-25.4949261827
 10
-1.393817542
 20
-25.4992373425
 10
-1.4000412992
 20
-25.5030535968
 10
-1.404848354
 20
-25.5055704321
  0
LWPOLYLINE
  5
353
100
AcDbEntity
  8
0
100
AcDbPolyline
 62
250
  6
CONTINUOUS
 90
24
 70
0
 10
-3.6826316113
 20
-24.8602117823
 10
-3.6836703656
 20
-24.877833467
 10
-3.6852701513
 20
-24.8951352486
 10
-3.6874283766
 20
-24.9120890963
 10
-3.6901415448
 20
-24.9286675426
 10
-3.6934052604
 20
-24.9448437287
 10
-3.6972142357
 20
-24.9605914472
 10
-3.7015622998
 20
-24.9758851849
 10
-3.7064424082
 20
-24.9907001642
 10
-3.7118466546
 20
-25.005012383
 10
-3.7177662835
 20
-25.0187986538
 10
-3.7241917043
 20
-25.0320366414
 10
-3.7311125073
 20
-25.0447048985
 10
-3.7385174798
 20
-25.056782901
 10
-3.7463946248
 20
-25.0682510813
 10
-3.7547311806
 20
-25.0790908595
 10
-3.7635136408
 20
-25.0892846739
 10
-3.772727777
 20
-25.0988160093
 10
-3.782358661
 20
-25.1076694237
 10
-3.7923906897
 20
-25.1158305737
 10
-3.80280761
 20
-25.1232862372
 10
-3.8135925454
 20
-25.1300243351
 10
-3.8247280229
 20
-25.136033951
 10
-3.8364388567
 20
-25.1414074807
  0
LWPOLYLINE
  5
354
100
AcDbEntity
  8
RACCORDO
100
AcDbPolyline
 62
7
  6
CONTINUOUS
 90
11
 70
0
 10
11.7959158317
 20
20.6716539748
 10
11.8006619766
 20
20.6797611892
 10
11.8046067735
 20
20.6874039127
 10
11.8077502225
 20
20.6945821454
 10
11.8101089571
 20
20.7013414172
 10
11.8116663438
 20
20.7076361982
 10
11.8123724816
 20
20.7133298988
 10
11.8122010983
 20
20.7184034438
 10
11.8111784661
 20
20.7228759084
 10
11.8093335006
 20
20.7266679291
 10
11.8069384745
 20
20.7295128313
  0
LINE
  5
355
100
AcDbEntity
  8
RACCORDO
100
AcDbLine
 62
250
  6
CONTINUOUS
 10
-8.2204533372
 20
-13.5208215111
 11
-8.5699903713
 21
-14.1052668487
  0
LINE
  5
356
100
AcDbEntity
  8
RACCORDO
100
AcDbLine
 62
7
  6
CONTINUOUS
 10
-8.2503187906
 20
-13.3435390779
 11
-8.5389661712
 21
-13.8244921198
  0
LWPOLYLINE
  5
357
100
AcDbEntity
  8
RACCORDO
100
AcDbPolyline
 62
250
  6
CONTINUOUS
 90
7
 70
0
 10
-10.2836236601
 20
-12.0721846335
 10
-9.8533346871
 20
-11.3590160438
 10
-9.4112619733
 20
-10.6283986921
 10
-8.9572862226
 20
-9.8802755493
 10
-8.491285432
 20
-9.1145888528
 10
-8.0131348933
 20
-8.3312801448
 10
-7.5227071949
 20
-7.5302903119
  0
LWPOLYLINE
  5
358
100
AcDbEntity
  8
RACCORDO
100
AcDbPolyline
 62
250
  6
CONTINUOUS
 90
7
 70
0
 10
-9.9539864959
 20
-12.0340008975
 10
-9.5439498129
 20
-11.3549269485
 10
-9.1230981543
 20
-10.6600361906
 10
-8.6914315202
 20
-9.9493286238
 10
-8.2489499104
 20
-9.2228042481
 10
-7.7956533251
 20
-8.4804630635
 10
-7.3700446636
 20
-7.7852021909
  0
LINE
  5
359
100
AcDbEntity
  8
RACCORDO
100
AcDbLine
 62
250
  6
CONTINUOUS
 10
-7.6921236658
 20
-12.6457839777
 11
-8.2204533372
 21
-13.5208215111
  0
LINE
  5
35A
100
AcDbEntity
  8
RACCORDO
100
AcDbLine
 62
7
  6
CONTINUOUS
 10
-7.72838613
 20
-12.4795423629
 11
-8.2503187905
 21
-13.3435390723
  0
LINE
  5
35B
100
AcDbEntity
  8
RACCORDO
100
AcDbLine
 62
250
  6
CONTINUOUS
 10
-7.1613060863
 20
-11.7694275699
 11
-7.6921236658
 21
-12.6457839777
  0
LINE
  5
35C
100
AcDbEntity
  8
RACCORDO
100
AcDbLine
 62
7
  6
CONTINUOUS
 10
-7.1917305479
 20
-11.5940036433
 11
-7.72838613
 21
-12.4795423629
  0
LINE
  5
35D
100
AcDbEntity
  8
RACCORDO
100
AcDbLine
 62
250
  6
CONTINUOUS
 10
-6.6280008825
 20
-10.8917576238
 11
-7.1613060863
 21
-11.7694275699
  0
LINE
  5
35E
100
AcDbEntity
  8
RACCORDO
100
AcDbLine
 62
7
  6
CONTINUOUS
 10
-6.6525385845
 20
-10.7071288817
 11
-7.1917305479
 21
-11.5940036433
  0
LWPOLYLINE
  5
35F
100
AcDbEntity
  8
RACCORDO
100
AcDbPolyline
 62
250
  6
CONTINUOUS
 90
3
 70
0
 10
-5.8233810431
 20
-9.5727868925
 10
-6.0922093224
 20
-10.0127708294
 10
-6.6280008825
 20
-10.8917576238
  0
LINE
  5
360
100
AcDbEntity
  8
RACCORDO
100
AcDbLine
 62
7
  6
CONTINUOUS
 10
-5.9273538106
 20
-9.5187722968
 11
-6.6525385845
 21
-10.7071288817
  0
LINE
  5
361
100
AcDbEntity
  8
0
100
AcDbLine
 62
7
  6
CONTINUOUS
 10
9.5299360736
 20
20.504348755
 11
9.1840897448
 21
19.9436210663
  0
LINE
  5
362
100
AcDbEntity
  8
RACCORDO
100
AcDbLine
 62
7
  6
CONTINUOUS
 10
12.3990198943
 20
25.0025323473
 11
12.3108933726
 21
24.8596510249
  0
LINE
  5
363
100
AcDbEntity
  8
0
100
AcDbLine
 62
7
  6
CONTINUOUS
 10
9.2320186966
 20
19.8429475651
 11
8.7723992889
 21
19.097757269
  0
LINE
  5
364
100
AcDbEntity
  8
0
100
AcDbLine
 62
7
  6
CONTINUOUS
 10
8.8046702853
 20
19.0299728907
 11
8.5948341962
 21
18.6897613706
  0
LINE
  5
365
100
AcDbEntity
  8
0
100
AcDbLine
 62
7
  6
CONTINUOUS
 10
9.9332424385
 20
20.1935594361
 11
9.4736230307
 21
19.4483691399
  0
LINE
  5
366
100
AcDbEntity
  8
0
100
AcDbLine
 62
7
  6
CONTINUOUS
 10
12.4235088247
 20
24.1573867103
 11
12.2087472668
 21
23.8091894274
  0
LINE
  5
367
100
AcDbEntity
  8
0
100
AcDbLine
 62
7
  6
CONTINUOUS
 10
9.5396702853
 20
19.3974728907
 11
9.327538251
 21
19.0535389079
  0
LINE
  5
368
100
AcDbEntity
  8
0
100
AcDbLine
 62
7
  6
CONTINUOUS
 10
9.8348564669
 20
19.129771608
 11
10.0469885013
 21
19.4737055908
  0
LINE
  5
369
100
AcDbEntity
  8
DRAFT
100
AcDbLine
 62
7
  6
CONTINUOUS
 10
-8.6322373757
 20
-11.3937802294
 11
-6.8168007133
 21
-8.4503758363
  0
LINE
  5
36A
100
AcDbEntity
  8
0
100
AcDbLine
 62
7
  6
CONTINUOUS
 10
10.6680893613
 20
19.3065207324
 11
10.2955953284
 21
18.7025885788
  0
LINE
  5
36B
100
AcDbEntity
  8
RACCORDO
100
AcDbLine
 62
7
  6
CONTINUOUS
 10
11.7959158317
 20
20.6716539748
 11
11.7405004148
 21
20.581807832
  0
LINE
  5
36C
100
AcDbEntity
  8
0
100
AcDbLine
 62
7
  6
CONTINUOUS
 10
10.5664030445
 20
18.4082476992
 11
10.8651467312
 21
18.8926069159
  0
LWPOLYLINE
  5
36D
100
AcDbEntity
  8
RACCORDO
100
AcDbPolyline
 62
250
  6
CONTINUOUS
 90
19
 70
0
 10
-9.6783805196
 20
-12.7918579199
 10
-9.671887839
 20
-12.7816936917
 10
-9.6643697664
 20
-12.7710443361
 10
-9.6558834463
 20
-12.7599907983
 10
-9.6464933829
 20
-12.7486170957
 10
-9.6362709494
 20
-12.7370096792
 10
-9.6252938462
 20
-12.7252567762
 10
-9.6136455095
 20
-12.71344772
 10
-9.6014144779
 20
-12.7016722704
 10
-9.5886937187
 20
-12.6900199323
 10
-9.5755799219
 20
-12.6785792743
 10
-9.5621727646
 20
-12.6674372564
 10
-9.5485741541
 20
-12.6566785684
 10
-9.5348874527
 20
-12.6463849866
 10
-9.5212166923
 20
-12.636634752
 10
-9.5076657837
 20
-12.6275019757
 10
-9.4943377266
 20
-12.6190560753
 10
-9.4813338269
 20
-12.6113612478
 10
-9.4687529266
 20
-12.6044759812
  0
LWPOLYLINE
  5
36E
100
AcDbEntity
  8
RACCORDO
100
AcDbPolyline
 62
250
  6
CONTINUOUS
 90
16
 70
0
 10
-13.837981239
 20
5.7424251204
 10
-13.8226049239
 20
5.7354707861
 10
-13.8058783918
 20
5.7293131852
 10
-13.7879808564
 20
5.7240182925
 10
-13.7691040783
 20
5.7196428392
 10
-13.7494503099
 20
5.7162337056
 10
-13.7292301284
 20
5.7138274183
 10
-13.7086601799
 20
5.7124497591
 10
-13.6879608581
 20
5.7121154887
 10
-13.6673539426
 20
5.7128281886
 10
-13.6470602232
 20
5.7145802227
 10
-13.6272971339
 20
5.7173528192
 10
-13.6082764233
 20
5.7211162715
 10
-13.590201886
 20
5.7258302567
 10
-13.5732671789
 20
5.7314442674
 10
-13.5576537465
 20
5.7378981533
  0
LINE
  5
36F
100
AcDbEntity
  8
RACCORDO
100
AcDbLine
 62
250
  6
CONTINUOUS
 10
-20.2934165762
 20
8.9701427803
 11
-13.8379812479
 21
5.7424251161
  0
LINE
  5
370
100
AcDbEntity
  8
RACCORDO
100
AcDbLine
 62
250
  6
CONTINUOUS
 10
-11.8840751419
 20
4.7654720631
 11
-5.4286398136
 21
1.537754399
  0
LWPOLYLINE
  5
371
100
AcDbEntity
  8
RACCORDO
100
AcDbPolyline
 62
250
  6
CONTINUOUS
 90
9
 70
0
 10
-11.8840751416
 20
4.7654720633
 10
-11.8979366775
 20
4.7731366546
 10
-11.9101347316
 20
4.7814413471
 10
-11.9205386097
 20
4.7902971615
 10
-11.929036841
 20
4.7996092136
 10
-11.9355383725
 20
4.8092777306
 10
-11.9399735444
 20
4.8191991208
 10
-11.9422948368
 20
4.8292670829
 10
-11.9426564386
 20
4.8359039344
  0
LINE
  5
372
100
AcDbEntity
  8
0
100
AcDbLine
 62
250
  6
CONTINUOUS
 10
0.7909582985
 20
17.6759916113
 11
0.7909582985
 21
17.3284600945
  0
LINE
  5
373
100
AcDbEntity
  8
0
100
AcDbLine
 62
250
  6
CONTINUOUS
 10
0.7909582985
 20
-23.9711440449
 11
0.7909582985
 21
-24.3186755616
  0
LINE
  5
374
100
AcDbEntity
  8
0
100
AcDbLine
 62
7
  6
CONTINUOUS
 10
0.8631561555
 20
17.7638642434
 11
0.8631561555
 21
17.4163327267
  0
LINE
  5
375
100
AcDbEntity
  8
0
100
AcDbLine
 62
7
  6
CONTINUOUS
 10
0.8631561555
 20
-23.8832714127
 11
0.8631561555
 21
-24.2308029294
  0
LINE
  5
376
100
AcDbEntity
  8
0
100
AcDbLine
 62
7
  6
CONTINUOUS
 10
0.9701064493
 20
15.0236964229
 11
0.9701064493
 21
12.0791953942
  0
LINE
  5
377
100
AcDbEntity
  8
0
100
AcDbLine
 62
7
  6
CONTINUOUS
 10
0.9701064493
 20
-22.9082455745
 11
0.9701064493
 21
-19.9637445458
  0
LINE
  5
378
100
AcDbEntity
  8
0
100
AcDbLine
 62
250
  6
CONTINUOUS
 10
1.5394931401
 20
20.4723317267
 11
1.5394931401
 21
20.946733102
  0
LINE
  5
379
100
AcDbEntity
  8
0
100
AcDbLine
 62
250
  6
CONTINUOUS
 10
1.5394931401
 20
21.3029089686
 11
1.5394931401
 21
21.8560796916
  0
LINE
  5
37A
100
AcDbEntity
  8
0
100
AcDbLine
 62
7
  6
CONTINUOUS
 10
1.6703279913
 20
20.6299711824
 11
1.6703279913
 21
21.8782353051
  0
LINE
  5
37B
100
AcDbEntity
  8
DRAFT
100
AcDbLine
 62
7
  6
CONTINUOUS
 10
1.6710424031
 20
15.3752968387
 11
1.6710424031
 21
12.4430140032
  0
LINE
  5
37C
100
AcDbEntity
  8
DRAFT
100
AcDbLine
 62
7
  6
CONTINUOUS
 10
1.6710424031
 20
-19.6142855463
 11
1.6710424031
 21
-22.5465683818
  0
LINE
  5
37D
100
AcDbEntity
  8
DRAFT
100
AcDbLine
 62
7
  6
CONTINUOUS
 10
2.7224463338
 20
12.9572417416
 11
2.7224463338
 21
12.5890332933
  0
LINE
  5
37E
100
AcDbEntity
  8
DRAFT
100
AcDbLine
 62
7
  6
CONTINUOUS
 10
2.7224463338
 20
-18.7445954088
 11
2.7224463338
 21
-19.0585968718
  0
LINE
  5
37F
100
AcDbEntity
  8
0
100
AcDbLine
 62
7
  6
CONTINUOUS
 10
2.7678042181
 20
12.5663543511
 11
2.7678042181
 21
-18.7130673656
  0
LWPOLYLINE
  5
380
100
AcDbEntity
  8
0
100
AcDbPolyline
 62
250
  6
CONTINUOUS
 90
19
 70
0
 10
0.7909582985
 20
-24.3186755616
 10
0.7908055166
 20
-24.3288542055
 10
0.7902502072
 20
-24.3388106929
 10
0.7892936272
 20
-24.3485224628
 10
0.7879379414
 20
-24.3579675141
 10
0.7861862205
 20
-24.3671244389
 10
0.7840424364
 20
-24.3759724725
 10
0.7815114483
 20
-24.3844915629
 10
0.7785989906
 20
-24.3926624117
 10
0.7753116642
 20
-24.4004665029
 10
0.771656918
 20
-24.4078861555
 10
0.7676430344
 20
-24.4149045572
 10
0.7632791126
 20
-24.4215058013
 10
0.7585750427
 20
-24.4276749316
 10
0.7535414844
 20
-24.4333979726
 10
0.7481898461
 20
-24.4386619575
 10
0.7425322524
 20
-24.4434549637
 10
0.7365815268
 20
-24.4477661311
 10
0.730564627
 20
-24.4514548237
  0
LWPOLYLINE
  5
381
100
AcDbEntity
  8
0
100
AcDbPolyline
 62
7
  6
CONTINUOUS
 90
23
 70
0
 10
0.9691807782
 20
-22.9075698914
 10
0.9688987254
 20
-22.9248054808
 10
0.9680444004
 20
-22.9417588175
 10
0.9666174694
 20
-22.9584003307
 10
0.9646176461
 20
-22.9747145092
 10
0.9620463615
 20
-22.9906578445
 10
0.9589116507
 20
-23.0061625808
 10
0.9552247938
 20
-23.0211903792
 10
0.9509918236
 20
-23.0357323859
 10
0.9462182942
 20
-23.0497694774
 10
0.9409189383
 20
-23.0632682767
 10
0.9351005306
 20
-23.0762201583
 10
0.9287534974
 20
-23.0886397172
 10
0.9218736009
 20
-23.1005232973
 10
0.9144808865
 20
-23.1118252876
 10
0.9066029826
 20
-23.1224984977
 10
0.8982570337
 20
-23.1325228006
 10
0.8894556664
 20
-23.1418863874
 10
0.880226084
 20
-23.1505637427
 10
0.8706034554
 20
-23.158531183
 10
0.8605904299
 20
-23.1657953989
 10
0.8501636381
 20
-23.1723730888
 10
0.8419482998
 20
-23.1769161082
  0
LWPOLYLINE
  5
382
100
AcDbEntity
  8
0
100
AcDbPolyline
 62
7
  6
CONTINUOUS
 90
20
 70
0
 10
0.2626911267
 20
-24.5896866203
 10
0.2624907479
 20
-24.5998882114
 10
0.2618905789
 20
-24.6098663763
 10
0.2608918752
 20
-24.6195985636
 10
0.2594967169
 20
-24.6290628197
 10
0.257708256
 20
-24.6382377076
 10
0.2555307101
 20
-24.6471023549
 10
0.2529689515
 20
-24.6556367103
 10
0.2500286906
 20
-24.6638214862
 10
0.2467167163
 20
-24.6716380719
 10
0.2430404924
 20
-24.6790687792
 10
0.2390082735
 20
-24.6860968108
 10
0.2346292817
 20
-24.6927061975
 10
0.2299134205
 20
-24.6988819743
 10
0.2248713209
 20
-24.7046101765
 10
0.2195144505
 20
-24.7098778023
 10
0.2138549511
 20
-24.714672915
 10
0.2079056131
 20
-24.7189846671
 10
0.2016799165
 20
-24.7228032893
 10
0.198586025
 20
-24.7244643924
  0
LWPOLYLINE
  5
383
100
AcDbEntity
  8
0
100
AcDbPolyline
 62
250
  6
CONTINUOUS
 90
18
 70
0
 10
0.8631561555
 20
-23.8832714127
 10
0.8631021411
 20
-23.8858696953
 10
0.8625747657
 20
-23.8917913431
 10
0.8614865305
 20
-23.8976938332
 10
0.8598398822
 20
-23.9035638927
 10
0.8576385234
 20
-23.9093883218
 10
0.8548874046
 20
-23.9151540224
 10
0.8515927116
 20
-23.9208480301
 10
0.8477618511
 20
-23.9264575435
 10
0.8434034324
 20
-23.9319699534
 10
0.8385272586
 20
-23.9373728588
 10
0.8331443072
 20
-23.9426540977
 10
0.8272666938
 20
-23.9478017881
 10
0.8209076307
 20
-23.9528043627
 10
0.8140814071
 20
-23.9576505819
 10
0.8068033681
 20
-23.9623295512
 10
0.7990898836
 20
-23.966830746
 10
0.7909582985
 20
-23.9711440449
  0
LWPOLYLINE
  5
384
100
AcDbEntity
  8
0
100
AcDbPolyline
 62
250
  6
CONTINUOUS
 90
18
 70
0
 10
0.8631561554
 20
-24.2308061379
 10
0.8631025939
 20
-24.2333902976
 10
0.8625761665
 20
-24.2393126017
 10
0.8614887542
 20
-24.2452157744
 10
0.8598427996
 20
-24.2510865412
 10
0.8576420023
 20
-24.2569116957
 10
0.8548913095
 20
-24.2626781366
 10
0.8515969056
 20
-24.2683728931
 10
0.8477662012
 20
-24.273983152
 10
0.8434078115
 20
-24.2794962937
 10
0.8385315379
 20
-24.2848999187
 10
0.8331483485
 20
-24.2901818715
 10
0.8272703473
 20
-24.2953302742
 10
0.8209107571
 20
-24.3003335441
 10
0.8140838943
 20
-24.3051804189
 10
0.8068051202
 20
-24.309859995
 10
0.7990908041
 20
-24.3143617507
 10
0.7909582985
 20
-24.3186755616
  0
LWPOLYLINE
  5
385
100
AcDbEntity
  8
0
100
AcDbPolyline
 62
250
  6
CONTINUOUS
 90
18
 70
0
 10
0.8631561514
 20
17.7638417582
 10
0.8631025939
 20
17.7612768753
 10
0.8625761665
 20
17.7553545712
 10
0.8614887542
 20
17.7494513984
 10
0.8598427996
 20
17.7435806316
 10
0.8576420023
 20
17.7377554772
 10
0.8548913095
 20
17.7319890363
 10
0.8515969056
 20
17.7262942798
 10
0.8477662012
 20
17.7206840209
 10
0.8434078115
 20
17.7151708792
 10
0.8385315379
 20
17.7097672541
 10
0.8331483485
 20
17.7044853014
 10
0.8272703473
 20
17.6993368987
 10
0.8209107571
 20
17.6943336288
 10
0.8140838943
 20
17.6894867539
 10
0.8068051202
 20
17.6848071779
 10
0.7990908041
 20
17.6803054222
 10
0.7909582985
 20
17.6759916113
  0
LWPOLYLINE
  5
386
100
AcDbEntity
  8
0
100
AcDbPolyline
 62
250
  6
CONTINUOUS
 90
18
 70
0
 10
0.8631561554
 20
17.416330277
 10
0.8631017326
 20
17.4137246393
 10
0.8625733795
 20
17.4078026573
 10
0.8614841075
 20
17.4018998802
 10
0.8598363695
 20
17.3960295742
 10
0.8576338693
 20
17.3902049281
 10
0.8548815377
 20
17.3844389985
 10
0.8515855787
 20
17.378744796
 10
0.8477534873
 20
17.3731352386
 10
0.8433939753
 20
17.3676230091
 10
0.8385168296
 20
17.3622204208
 10
0.8331329343
 20
17.3569395099
 10
0.8272538993
 20
17.3517917395
 10
0.8208933624
 20
17.3467891201
 10
0.8140672027
 20
17.3419439656
 10
0.8067916303
 20
17.337267401
 10
0.7990827967
 20
17.3327694511
 10
0.7909582985
 20
17.3284600945
  0
LINE
  5
387
100
AcDbEntity
  8
DRAFT
100
AcDbLine
 62
7
  6
CONTINUOUS
 10
-6.4216732889
 20
-8.9251524139
 11
-8.4395665953
 21
-11.0813991735
  0
LINE
  5
388
100
AcDbEntity
  8
RACCORDO
100
AcDbLine
 62
7
  6
CONTINUOUS
 10
-15.7230698354
 20
-8.9128104101
 11
-16.9346515424
 21
-9.5460666857
  0
LINE
  5
389
100
AcDbEntity
  8
RACCORDO
100
AcDbLine
 62
250
  6
CONTINUOUS
 10
-20.0090593838
 20
-2.4799477076
 11
-18.3206982953
 21
-2.1312947492
  0
LINE
  5
38A
100
AcDbEntity
  8
RACCORDO
100
AcDbLine
 62
7
  6
CONTINUOUS
 10
-19.7080055552
 20
-2.5793414505
 11
-18.3049821699
 21
-2.2899956045
  0
LINE
  5
38B
100
AcDbEntity
  8
RACCORDO
100
AcDbLine
 62
7
  6
CONTINUOUS
 10
-13.6138870252
 20
7.7537818116
 11
-11.8911794959
 21
6.892428047
  0
LINE
  5
38C
100
AcDbEntity
  8
RACCORDO
100
AcDbLine
 62
250
  6
CONTINUOUS
 10
-13.7791431048
 20
7.9268313301
 11
-11.8272519631
 21
6.9508857592
  0
LWPOLYLINE
  5
38D
100
AcDbEntity
  8
RACCORDO
100
AcDbPolyline
 62
7
  6
CONTINUOUS
 90
17
 70
0
 10
-13.6138937344
 20
7.7537851665
 10
-13.6241343992
 20
7.7592164187
 10
-13.6368579168
 20
7.7668250257
 10
-13.6493552145
 20
7.775208533
 10
-13.6615511208
 20
7.7842792694
 10
-13.6734418206
 20
7.7939818231
 10
-13.6850356149
 20
7.8042608769
 10
-13.6962668908
 20
7.815049873
 10
-13.7071402302
 20
7.826306954
 10
-13.7176612037
 20
7.8379816088
 10
-13.727760615
 20
7.850005406
 10
-13.7374476845
 20
7.8623421098
 10
-13.7467302677
 20
7.8749457899
 10
-13.7555364871
 20
7.8877380023
 10
-13.7638509218
 20
7.9006676239
 10
-13.7717149393
 20
7.9137106174
 10
-13.7791433686
 20
7.926831462
  0
LWPOLYLINE
  5
38E
100
AcDbEntity
  8
0
100
AcDbPolyline
 62
250
  6
CONTINUOUS
 90
16
 70
0
 10
-11.5126996942
 20
23.4802890908
 10
-11.5087269804
 20
23.4735942157
 10
-11.5051645218
 20
23.4671127738
 10
-11.5020203585
 20
23.4608593934
 10
-11.4993015868
 20
23.4548481881
 10
-11.4970143428
 20
23.4490927247
 10
-11.4951637886
 20
23.443605993
 10
-11.4937541009
 20
23.4384003762
 10
-11.4927884612
 20
23.4334876231
 10
-11.4922690489
 20
23.4288788215
 10
-11.4921970363
 20
23.4245843732
 10
-11.4925725859
 20
23.4206139705
 10
-11.4933948501
 20
23.4169765744
 10
-11.4946619732
 20
23.4136803942
 10
-11.4963710953
 20
23.4107328692
 10
-11.4973391218
 20
23.4094539243
  0
LWPOLYLINE
  5
38F
100
AcDbEntity
  8
0
100
AcDbPolyline
 62
7
  6
CONTINUOUS
 90
5
 70
0
 10
1.6703279913
 20
21.878233429
 10
1.6701275702
 20
21.8803133398
 10
1.6692202293
 20
21.8827415864
 10
1.6676122183
 20
21.8847036677
 10
1.6653131012
 20
21.8862418091
  0
LINE
  5
390
100
AcDbEntity
  8
RACCORDO
100
AcDbLine
 62
7
  6
CONTINUOUS
 10
-9.9539864959
 20
-12.0340008975
 11
-9.9502234772
 21
-12.0321519327
  0
LINE
  5
391
100
AcDbEntity
  8
RACCORDO
100
AcDbLine
 62
7
  6
CONTINUOUS
 10
-8.6322373757
 20
-11.3937802294
 11
-9.9502234772
 21
-12.0321519327
  0
LWPOLYLINE
  5
392
100
AcDbEntity
  8
0
100
AcDbPolyline
 62
7
  6
CONTINUOUS
 90
8
 70
0
 10
7.3264841798
 20
20.543386645
 10
7.3257982049
 20
20.6254678213
 10
7.3386650591
 20
20.7837326856
 10
7.3656808209
 20
20.9374667349
 10
7.4066960805
 20
21.085819748
 10
7.4614840043
 20
21.2279712631
 10
7.5297415894
 20
21.3631351156
 10
7.5564209653
 20
21.4081248292
  0
LINE
  5
393
100
AcDbEntity
  8
0
100
AcDbLine
 62
250
  6
CONTINUOUS
 10
8.1960918155
 20
21.9887216463
 11
8.1933950176
 21
22.7472031737
  0
LINE
  5
394
100
AcDbEntity
  8
0
100
AcDbLine
 62
250
  6
CONTINUOUS
 10
7.2747637277
 20
20.0962058938
 11
7.2747637277
 21
19.4967794558
  0
LINE
  5
395
100
AcDbEntity
  8
0
100
AcDbLine
 62
250
  6
CONTINUOUS
 10
7.2747637277
 20
-17.0276721542
 11
7.2747637277
 21
-17.3025088603
  0
LINE
  5
396
100
AcDbEntity
  8
0
100
AcDbLine
 62
7
  6
CONTINUOUS
 10
7.4150938275
 20
20.3966310205
 11
7.4150938275
 21
19.6704440484
  0
LINE
  5
397
100
AcDbEntity
  8
0
100
AcDbLine
 62
7
  6
CONTINUOUS
 10
7.4150938275
 20
-16.9539553536
 11
7.4150938275
 21
-17.2556048018
  0
LINE
  5
398
100
AcDbEntity
  8
RACCORDO
100
AcDbLine
 62
7
  6
CONTINUOUS
 10
9.685206725
 20
12.8739834382
 11
9.685206725
 21
15.7805356394
  0
LWPOLYLINE
  5
399
100
AcDbEntity
  8
0
100
AcDbPolyline
 62
7
  6
CONTINUOUS
 90
21
 70
0
 10
7.4150915421
 20
19.6704440484
 10
7.415060532
 20
19.6676418441
 10
7.414443277
 20
19.6576952513
 10
7.413031048
 20
19.6477689549
 10
7.4108276062
 20
19.6378628588
 10
7.407843409
 20
19.6280239768
 10
7.404074745
 20
19.6182526283
 10
7.3995253256
 20
19.6085484939
 10
7.394216742
 20
19.5989576288
 10
7.3881453856
 20
19.5894805715
 10
7.3813148651
 20
19.5801167835
 10
7.3737575976
 20
19.5709107048
 10
7.3654701286
 20
19.5618630851
 10
7.3564559128
 20
19.5529731747
 10
7.3467577309
 20
19.5442831646
 10
7.3363723319
 20
19.535794005
 10
7.325302967
 20
19.5275047458
 10
7.3136021706
 20
19.5194547272
 10
7.3012874544
 20
19.5116570628
 10
7.2883413067
 20
19.504098639
 10
7.2747637277
 20
19.4967794558
  0
LINE
  5
39A
100
AcDbEntity
  8
0
100
AcDbLine
 62
7
  6
CONTINUOUS
 10
8.8769250153
 20
20.4476280848
 11
8.9176830118
 21
21.2434035777
  0
LWPOLYLINE
  5
39B
100
AcDbEntity
  8
0
100
AcDbPolyline
 62
250
  6
CONTINUOUS
 90
25
 70
0
 10
0.7909582985
 20
-23.9711440449
 10
0.7949310832
 20
-23.9600284331
 10
0.7984935972
 20
-23.9487395788
 10
0.8016377998
 20
-23.9373029611
 10
0.8043565931
 20
-23.9257443993
 10
0.8066438425
 20
-23.9140899749
 10
0.8084943883
 20
-23.9023659727
 10
0.8099040532
 20
-23.8905988387
 10
0.8108696507
 20
-23.8788151467
 10
0.8113889984
 20
-23.867041519
 10
0.8114609249
 20
-23.8553045395
 10
0.8110852694
 20
-23.8436306886
 10
0.81026288
 20
-23.83204631
 10
0.8089956128
 20
-23.8205775486
 10
0.8072863283
 20
-23.8092502911
 10
0.8051388847
 20
-23.7980901035
 10
0.8025581289
 20
-23.7871221751
 10
0.7995498861
 20
-23.7763712603
 10
0.7961209454
 20
-23.7658616231
 10
0.792279047
 20
-23.7556169857
 10
0.7880328615
 20
-23.745660469
 10
0.7833919695
 20
-23.7360145391
 10
0.7783668387
 20
-23.7267009567
 10
0.7729688157
 20
-23.7177407557
 10
0.7672101017
 20
-23.7091541863
  0
LWPOLYLINE
  5
39C
100
AcDbEntity
  8
RACCORDO
100
AcDbPolyline
 62
7
  6
CONTINUOUS
 90
25
 70
0
 10
-9.9537938209
 20
-12.033905409
 10
-9.9668221206
 20
-12.039708838
 10
-9.9804911916
 20
-12.0452576307
 10
-9.9946933369
 20
-12.0504442414
 10
-10.0093809622
 20
-12.0550715333
 10
-10.0244250531
 20
-12.0591398221
 10
-10.0396158629
 20
-12.0628552056
 10
-10.0548669924
 20
-12.0661659546
 10
-10.0701584779
 20
-12.0689836446
 10
-10.0853929998
 20
-12.0714813481
 10
-10.1005284214
 20
-12.0736309854
 10
-10.1155423512
 20
-12.0753646195
 10
-10.13037008
 20
-12.0768098532
 10
-10.1449880571
 20
-12.0779444895
 10
-10.1593784467
 20
-12.078721256
 10
-10.173483801
 20
-12.0792370111
 10
-10.1872928858
 20
-12.0794724807
 10
-10.2007897668
 20
-12.079394101
 10
-10.2139085844
 20
-12.0790805087
 10
-10.2266445278
 20
-12.0785153998
 10
-10.2389873707
 20
-12.0776744329
 10
-10.2508642364
 20
-12.0766266378
 10
-10.2622501871
 20
-12.0753853499
 10
-10.2731684812
 20
-12.073908311
 10
-10.2836213088
 20
-12.072183899
  0
LINE
  5
39D
100
AcDbEntity
  8
0
100
AcDbLine
 62
250
  6
CONTINUOUS
 10
-19.6055172114
 20
19.4680228549
 11
-4.716437352
 21
12.0234829252
  0
LINE
  5
39E
100
AcDbEntity
  8
0
100
AcDbLine
 62
250
  6
CONTINUOUS
 10
-18.9491028445
 20
20.5377069871
 11
-4.0484643513
 21
13.0873877405
  0
LWPOLYLINE
  5
39F
100
AcDbEntity
  8
0
100
AcDbPolyline
 62
250
  6
CONTINUOUS
 90
16
 70
0
 10
0.7909582985
 20
17.3284600945
 10
0.7949310122
 20
17.3217652193
 10
0.7984934709
 20
17.3152837775
 10
0.8016376341
 20
17.3090303971
 10
0.8043564058
 20
17.3030191917
 10
0.8066436498
 20
17.2972637283
 10
0.808494204
 20
17.2917769966
 10
0.8099038917
 20
17.2865713799
 10
0.8108695315
 20
17.2816586268
 10
0.8113889438
 20
17.2770498252
 10
0.8114609564
 20
17.2727553769
 10
0.8110854068
 20
17.2687849742
 10
0.8102631425
 20
17.265147578
 10
0.8089960195
 20
17.2618513978
 10
0.8072868974
 20
17.2589038729
 10
0.8063188709
 20
17.2576249279
  0
LINE
  5
3A0
100
AcDbEntity
  8
DRAFT
100
AcDbLine
 62
7
  6
CONTINUOUS
 10
2.0227893745
 20
14.1639714939
 11
2.7224463338
 21
12.9572417416
  0
LINE
  5
3A1
100
AcDbEntity
  8
RACCORDO
100
AcDbLine
 62
7
  6
CONTINUOUS
 10
1.6710424031
 20
14.8027122807
 11
2.3234143852
 21
13.6775370502
  0
LINE
  5
3A2
100
AcDbEntity
  8
0
100
AcDbLine
 62
7
  6
CONTINUOUS
 10
12.4235001285
 20
24.8033476469
 11
12.4235088247
 21
24.1573867103
  0
LWPOLYLINE
  5
3A3
100
AcDbEntity
  8
0
100
AcDbPolyline
 62
250
  6
CONTINUOUS
 90
37
 70
0
 10
-4.72782106
 20
-14.9115911974
 10
-4.7436559394
 20
-14.9192684426
 10
-4.7601078969
 20
-14.9265966329
 10
-4.7771463073
 20
-14.9335621269
 10
-4.7947394534
 20
-14.9401519583
 10
-4.8128545855
 20
-14.9463538602
 10
-4.8314579822
 20
-14.9521562876
 10
-4.8505150131
 20
-14.9575484393
 10
-4.8699902036
 20
-14.9625202778
 10
-4.8898473004
 20
-14.967062548
 10
-4.9100493396
 20
-14.9711667943
 10
-4.9305587148
 20
-14.9748253769
 10
-4.9513372478
 20
-14.9780314851
 10
-4.9723462593
 20
-14.9807791509
 10
-4.9935466409
 20
-14.9830632593
 10
-5.014898928
 20
-14.9848795586
 10
-5.0363633732
 20
-14.9862246676
 10
-5.0579000203
 20
-14.9870960825
 10
-5.0794687788
 20
-14.9874921811
 10
-5.1010294983
 20
-14.9874122261
 10
-5.1225420435
 20
-14.9868563662
 10
-5.1439663686
 20
-14.9858256364
 10
-5.1652625921
 20
-14.9843219551
 10
-5.1863910711
 20
-14.9823481217
 10
-5.2073124748
 20
-14.9799078103
 10
-5.2279878579
 20
-14.9770055636
 10
-5.2483787331
 20
-14.9736467841
 10
-5.2684471426
 20
-14.9698377243
 10
-5.2881557291
 20
-14.9655854747
 10
-5.3074678048
 20
-14.960897951
 10
-5.3263474203
 20
-14.9557838788
 10
-5.3447594311
 20
-14.9502527782
 10
-5.3626695632
 20
-14.9443149453
 10
-5.3800444767
 20
-14.9379814334
 10
-5.3968518282
 20
-14.9312640323
 10
-5.4130603307
 20
-14.9241752466
 10
-5.4286398119
 20
-14.916728272
  0
LWPOLYLINE
  5
3A4
100
AcDbEntity
  8
0
100
AcDbPolyline
 62
250
  6
CONTINUOUS
 90
37
 70
0
 10
-4.0195077701
 20
11.9538777164
 10
-4.0351739113
 20
11.9494229758
 10
-4.0514575974
 20
11.9453113761
 10
-4.0683285087
 20
11.941550573
 10
-4.0857552323
 20
11.9381475689
 10
-4.1037053201
 20
11.9351087002
 10
-4.1221453498
 20
11.9324396251
 10
-4.1410409866
 20
11.9301453133
 10
-4.1603570476
 20
11.9282300367
 10
-4.1800575669
 20
11.9266973616
 10
-4.2001058629
 20
11.9255501417
 10
-4.2204646062
 20
11.924790513
 10
-4.2410958898
 20
11.9244198901
 10
-4.2619612987
 20
11.924438963
 10
-4.2830219824
 20
11.9248476961
 10
-4.3042387267
 20
11.9256453284
 10
-4.3255720267
 20
11.9268303749
 10
-4.3469821605
 20
11.9284006288
 10
-4.3684292632
 20
11.9303531666
 10
-4.3898734011
 20
11.9326843526
 10
-4.411274646
 20
11.9353898462
 10
-4.4325931494
 20
11.9384646099
 10
-4.4537892171
 20
11.9419029187
 10
-4.4748233828
 20
11.9456983704
 10
-4.4956564815
 20
11.9498438982
 10
-4.5162497228
 20
11.9543317831
 10
-4.5365647628
 20
11.959153669
 10
-4.5565637755
 20
11.9643005775
 10
-4.5762095236
 20
11.9697629254
 10
-4.5954654274
 20
11.9755305419
 10
-4.614295633
 20
11.981592688
 10
-4.6326650792
 20
11.9879380761
 10
-4.6505395628
 20
11.9945548914
 10
-4.6678858021
 20
12.0014308136
 10
-4.6846714991
 20
12.0085530399
 10
-4.7008653994
 20
12.0159083091
 10
-4.7164373504
 20
12.0234829258
  0
LINE
  5
3A5
100
AcDbEntity
  8
0
100
AcDbLine
 62
7
  6
CONTINUOUS
 10
2.7678042181
 20
12.5663543511
 11
1.005153247
 21
12.0893921522
  0
LINE
  5
3A6
100
AcDbEntity
  8
0
100
AcDbLine
 62
7
  6
CONTINUOUS
 10
2.7678042181
 20
12.5663543511
 11
2.7224463338
 21
12.5890332933
  0
LWPOLYLINE
  5
3A7
100
AcDbEntity
  8
RACCORDO
100
AcDbPolyline
 62
7
  6
CONTINUOUS
 90
31
 70
0
 10
19.0099266549
 20
-0.4836570559
 10
19.1185899487
 20
-0.5764571268
 10
19.2638432741
 20
-0.7154609286
 10
19.4037036963
 20
-0.8645778497
 10
19.5373266287
 20
-1.0226738895
 10
19.6643771239
 20
-1.1891384383
 10
19.7842276595
 20
-1.3629847984
 10
19.8963006104
 20
-1.5432026848
 10
20.0001541206
 20
-1.7289254068
 10
20.0953862374
 20
-1.9193288056
 10
20.1815515852
 20
-2.1134612198
 10
20.2582343809
 20
-2.3103512029
 10
20.3250959922
 20
-2.5091511831
 10
20.3817977611
 20
-2.7089696043
 10
20.427989977
 20
-2.908764661
 10
20.4633756244
 20
-3.107506549
 10
20.487749925
 20
-3.3046138068
 10
20.5008290967
 20
-3.4987767073
 10
20.5024603228
 20
-3.6880216386
 10
20.4927232779
 20
-3.8711621511
 10
20.4717068019
 20
-4.047841741
 10
20.4394672011
 20
-4.2175156124
 10
20.3959115286
 20
-4.3800332605
 10
20.3412382202
 20
-4.5340749328
 10
20.2762487281
 20
-4.6776178303
 10
20.201884877
 20
-4.8094837907
 10
20.1183130932
 20
-4.9301252592
 10
20.025342539
 20
-5.0399642873
 10
19.9232477769
 20
-5.1385014124
 10
19.8127139221
 20
-5.2249274014
 10
19.7739459752
 20
-5.251044283
  0
LWPOLYLINE
  5
3A8
100
AcDbEntity
  8
RACCORDO
100
AcDbPolyline
 62
250
  6
CONTINUOUS
 90
30
 70
0
 10
19.0099266549
 20
-0.5855944121
 10
19.0505942933
 20
-0.6217575503
 10
19.1902509496
 20
-0.7598729795
 10
19.3255530599
 20
-0.9079776124
 10
19.4558131344
 20
-1.065331174
 10
19.5803289138
 20
-1.2310980815
 10
19.6984325568
 20
-1.4043956535
 10
19.8095074391
 20
-1.5843223648
 10
19.9129736077
 20
-1.7699422466
 10
20.0082783117
 20
-1.9602635605
 10
20.0949219095
 20
-2.1542823791
 10
20.1724608364
 20
-2.3509986698
 10
20.2404960038
 20
-2.5493963819
 10
20.2986737108
 20
-2.7484418813
 10
20.3466918998
 20
-2.9470991496
 10
20.3843029311
 20
-3.1443438524
 10
20.4113106709
 20
-3.3391537254
 10
20.4275725142
 20
-3.5305089524
 10
20.4330029021
 20
-3.7174078331
 10
20.4275735245
 20
-3.8988771158
 10
20.4113126278
 20
-4.0739715949
 10
20.384305781
 20
-4.2417747867
 10
20.3466955962
 20
-4.4014094943
 10
20.2986782195
 20
-4.552049576
 10
20.240501434
 20
-4.6929180581
 10
20.172467516
 20
-4.823280802
 10
20.0949301224
 20
-4.9424582603
 10
20.0082880352
 20
-5.0498339725
 10
19.9129848339
 20
-5.1448513648
 10
19.8095200552
 20
-5.2270061748
  0
LWPOLYLINE
  5
3A9
100
AcDbEntity
  8
RACCORDO
100
AcDbPolyline
 62
250
  6
CONTINUOUS
 90
58
 70
0
 10
7.5667827137
 20
19.8232552067
 10
7.5595300065
 20
19.8684956732
 10
7.5486582474
 20
19.9752189558
 10
7.5441912883
 20
20.0807891175
 10
7.5461398798
 20
20.1849183216
 10
7.5544974347
 20
20.2873319322
 10
7.5692420865
 20
20.3877640951
 10
7.5903344013
 20
20.4859428521
 10
7.6177186742
 20
20.581606564
 10
7.6513276746
 20
20.6745121262
 10
7.6910810504
 20
20.7644216112
 10
7.7368708143
 20
20.8510774119
 10
7.7885610131
 20
20.9342204647
 10
7.8460170867
 20
21.0136365134
 10
7.909077653
 20
21.089104458
 10
7.9775280426
 20
21.1603805845
 10
8.0511283218
 20
21.2272447598
 10
8.1297089669
 20
21.2895705412
 10
8.2131480307
 20
21.347264874
 10
8.3011995831
 20
21.4001511924
 10
8.3936596877
 20
21.4481008282
 10
8.4904939288
 20
21.4910637302
 10
8.5917214031
 20
21.5289701748
 10
8.696865165
 20
21.561566137
 10
8.8050974934
 20
21.5885962145
 10
8.9164280572
 20
21.6100852215
 10
9.0302196099
 20
21.6259319026
 10
9.1445058441
 20
21.6360337523
 10
9.258715373
 20
21.6406375717
 10
9.3726195155
 20
21.6400211607
 10
9.484649679
 20
21.6345386725
 10
9.594137987
 20
21.6246517611
 10
9.7010759874
 20
21.6107736854
 10
9.804897244
 20
21.5933738889
 10
9.9052649926
 20
21.5729122268
 10
10.0020900598
 20
21.5497953461
 10
10.0952322793
 20
21.5244248723
 10
10.1844787622
 20
21.4972173834
 10
10.269829887
 20
21.4685183784
 10
10.3515075384
 20
21.4385690886
 10
10.4294239674
 20
21.4076957033
 10
10.5035996935
 20
21.3761740741
 10
10.5744371141
 20
21.3440883696
 10
10.6419370204
 20
21.3116682164
 10
10.7061114651
 20
21.2791306726
 10
10.7673788795
 20
21.2464638831
 10
10.825761087
 20
21.2138352652
 10
10.8812870859
 20
21.1814026631
 10
10.9343743145
 20
21.1490770883
 10
10.985050871
 20
21.116978153
 10
11.033350675
 20
21.0852177974
 10
11.0796815274
 20
21.0536446488
 10
11.1240703002
 20
21.0223414314
 10
11.1665472282
 20
20.9913859429
 10
11.2075029395
 20
20.9605780533
 10
11.247076124
 20
20.9298798786
 10
11.2851681342
 20
20.8994336442
 10
11.3218027629
 20
20.8692894208
  0
LINE
  5
3AA
100
AcDbEntity
  8
0
100
AcDbLine
 62
250
  6
CONTINUOUS
 10
-0.980405244
 20
-24.0524809706
 11
-1.6027232761
 21
-24.7975403881
  0
LINE
  5
3AB
100
AcDbEntity
  8
0
100
AcDbLine
 62
250
  6
CONTINUOUS
 10
-0.627369056
 20
-24.1782508087
 11
-1.3385896641
 21
-25.0297472858
  0
LINE
  5
3AC
100
AcDbEntity
  8
RACCORDO
100
AcDbLine
 62
250
  6
CONTINUOUS
 10
19.7739461006
 20
-5.2510442018
 11
19.7730120614
 21
-5.2516489896
  0
LINE
  5
3AD
100
AcDbEntity
  8
DRAFT
100
AcDbLine
 62
7
  6
CONTINUOUS
 10
19.0099266549
 20
-5.7452061879
 11
19.7730119358
 21
-5.2516490709
  0
LINE
  5
3AE
100
AcDbEntity
  8
0
100
AcDbLine
 62
7
  6
CONTINUOUS
 10
15.8558145903
 20
20.0142271455
 11
16.5115110188
 21
20.1500086676
  0
LINE
  5
3AF
100
AcDbEntity
  8
0
100
AcDbLine
 62
250
  6
CONTINUOUS
 10
11.5640118292
 20
17.923282326
 11
12.2410559835
 21
18.0625169085
  0
LINE
  5
3B0
100
AcDbEntity
  8
0
100
AcDbLine
 62
7
  6
CONTINUOUS
 10
-1.5654331576
 20
16.1140356928
 11
-0.9412375606
 21
15.983703073
  0
LINE
  5
3B1
100
AcDbEntity
  8
0
100
AcDbLine
 62
250
  6
CONTINUOUS
 10
-1.3385896641
 20
16.2698568536
 11
-0.627369056
 21
16.1213533307
  0
LWPOLYLINE
  5
3B2
100
AcDbEntity
  8
0
100
AcDbPolyline
 62
250
  6
CONTINUOUS
 90
16
 70
0
 10
-6.2788693507
 20
20.2523508503
 10
-6.2855984975
 20
20.2555201194
 10
-6.2923105421
 20
20.2582906702
 10
-6.2989902749
 20
20.2606562227
 10
-6.305622564
 20
20.2626114161
 10
-6.3121923758
 20
20.2641518161
 10
-6.3186848098
 20
20.2652739285
 10
-6.3250851507
 20
20.2659752108
 10
-6.3313788991
 20
20.2662540753
 10
-6.3375517919
 20
20.2661098908
 10
-6.3435898429
 20
20.2655429847
 10
-6.3494793688
 20
20.2645546426
 10
-6.3552070195
 20
20.2631471062
 10
-6.3607598155
 20
20.2613235677
 10
-6.3661251766
 20
20.2590881608
 10
-6.3684823564
 20
20.2579455377
  0
LWPOLYLINE
  5
3B3
100
AcDbEntity
  8
0
100
AcDbPolyline
 62
7
  6
CONTINUOUS
 90
17
 70
0
 10
-6.0659145649
 20
20.3603456221
 10
-6.0720833598
 20
20.3632651477
 10
-6.078240394
 20
20.3658494025
 10
-6.0843739516
 20
20.3680934654
 10
-6.0904723775
 20
20.3699930548
 10
-6.0965240599
 20
20.3715445568
 10
-6.1025174526
 20
20.3727450321
 10
-6.1084411716
 20
20.3735921836
 10
-6.1142839512
 20
20.3740843939
 10
-6.1200346256
 20
20.374220749
 10
-6.125682281
 20
20.3740009732
 10
-6.1312161862
 20
20.3734254757
 10
-6.1366257467
 20
20.3724953834
 10
-6.141900706
 20
20.3712124467
 10
-6.1470310507
 20
20.3695790946
 10
-6.1520069394
 20
20.3675984752
 10
-6.1549723323
 20
20.3662164247
  0
LWPOLYLINE
  5
3B4
100
AcDbEntity
  8
0
100
AcDbPolyline
 62
250
  6
CONTINUOUS
 90
34
 70
0
 10
-8.1165242303
 20
20.8573775357
 10
-8.1096339223
 20
20.8540926108
 10
-8.1024387581
 20
20.8509753539
 10
-8.0949550405
 20
20.8480328296
 10
-8.0871997211
 20
20.8452717045
 10
-8.0791903772
 20
20.8426982383
 10
-8.0709451735
 20
20.8403182679
 10
-8.062482799
 20
20.8381371873
 10
-8.0538224251
 20
20.8361599371
 10
-8.0449836789
 20
20.8343909979
 10
-8.0359865873
 20
20.8328343774
 10
-8.0268515399
 20
20.8314936027
 10
-8.0175992452
 20
20.8303717126
 10
-8.0082506716
 20
20.8294712484
 10
-7.9988270009
 20
20.828794249
 10
-7.989349588
 20
20.8283422476
 10
-7.9798399014
 20
20.8281162671
 10
-7.970319497
 20
20.8281168188
 10
-7.9608099695
 20
20.8283438996
 10
-7.9513328945
 20
20.8287969906
 10
-7.9419097174
 20
20.8294750627
 10
-7.9325617284
 20
20.8303765834
 10
-7.9233100257
 20
20.8314995229
 10
-7.9141756597
 20
20.8328413313
 10
-7.905179515
 20
20.834398935
 10
-7.8963420823
 20
20.8361687686
 10
-7.8876832569
 20
20.8381468294
 10
-7.8792224917
 20
20.840328667
 10
-7.8709776576
 20
20.842709734
 10
-7.8629688085
 20
20.8452843019
 10
-7.8552176059
 20
20.8480452215
 10
-7.8477423651
 20
20.8509855214
 10
-7.8405583949
 20
20.8540987161
 10
-7.8336815179
 20
20.8573775357
  0
LWPOLYLINE
  5
3B5
100
AcDbEntity
  8
0
100
AcDbPolyline
 62
250
  6
CONTINUOUS
 90
34
 70
0
 10
-1.6911116237
 20
16.2703695774
 10
-1.6825326319
 20
16.2662788294
 10
-1.6735754347
 20
16.2623960276
 10
-1.6642601732
 20
16.2587299028
 10
-1.6546077935
 20
16.2552886986
 10
-1.6446399996
 20
16.2520801528
 10
-1.6343792048
 20
16.24911148
 10
-1.6238484815
 20
16.2463893555
 10
-1.6130715086
 20
16.2439199003
 10
-1.6020725191
 20
16.2417086671
 10
-1.5908762449
 20
16.239760628
 10
-1.5795078618
 20
16.2380801633
 10
-1.5679929324
 20
16.2366710517
 10
-1.556357349
 20
16.2355364617
 10
-1.5446272749
 20
16.2346789445
 10
-1.5328290863
 20
16.2341004282
 10
-1.5209893121
 20
16.2338022138
 10
-1.509134575
 20
16.2337849717
 10
-1.4972915313
 20
16.2340487408
 10
-1.485486811
 20
16.2345929279
 10
-1.4737469578
 20
16.2354163094
 10
-1.4620983698
 20
16.2365170339
 10
-1.4505672396
 20
16.2378926262
 10
-1.4391794959
 20
16.2395399934
 10
-1.4279607449
 20
16.2414554311
 10
-1.4169362128
 20
16.2436346323
 10
-1.406130689
 20
16.2460726969
 10
-1.3955684707
 20
16.2487641429
 10
-1.3852733077
 20
16.2517029181
 10
-1.3752683496
 20
16.2548824147
 10
-1.3655760932
 20
16.2582954832
 10
-1.3562183323
 20
16.2619344491
 10
-1.3472161085
 20
16.2657911299
 10
-1.3385896641
 20
16.2698568536
  0
LWPOLYLINE
  5
3B6
100
AcDbEntity
  8
0
100
AcDbPolyline
 62
250
  6
CONTINUOUS
 90
34
 70
0
 10
-13.9947696164
 20
22.4221985738
 10
-13.986189996
 20
22.4181075399
 10
-13.9772321175
 20
22.4142244828
 10
-13.9679161263
 20
22.4105581349
 10
-13.9582629846
 20
22.4071167454
 10
-13.9482943906
 20
22.4039080493
 10
-13.9380327262
 20
22.4009392525
 10
-13.9275010409
 20
22.3982170281
 10
-13.9167230408
 20
22.395747508
 10
-13.9057230016
 20
22.3935362561
 10
-13.8945256749
 20
22.3915882475
 10
-13.8831562302
 20
22.3899078603
 10
-13.8716402372
 20
22.3884988738
 10
-13.860003595
 20
22.3873644567
 10
-13.8482724736
 20
22.3865071601
 10
-13.8364732551
 20
22.385928912
 10
-13.8246324667
 20
22.3856310128
 10
-13.8127767462
 20
22.3856141329
 10
-13.8009327823
 20
22.3858783094
 10
-13.7891272282
 20
22.3864229454
 10
-13.7773866161
 20
22.3872468144
 10
-13.7657373239
 20
22.3883480645
 10
-13.7542054646
 20
22.3897242303
 10
-13.7428170598
 20
22.3913722098
 10
-13.7315979449
 20
22.3932882555
 10
-13.720573486
 20
22.3954680115
 10
-13.7097683094
 20
22.3979065844
 10
-13.6992064876
 20
22.400598532
 10
-13.6889109467
 20
22.4035380495
 10
-13.678905708
 20
22.4067183179
 10
-13.669215399
 20
22.4101313978
 10
-13.6598622697
 20
22.413769184
 10
-13.65086637
 20
22.4176236008
 10
-13.6422476567
 20
22.4216858499
  0
LWPOLYLINE
  5
3B7
100
AcDbEntity
  8
0
100
AcDbPolyline
 62
250
  6
CONTINUOUS
 90
34
 70
0
 10
-1.6911116237
 20
16.6103435116
 10
-1.682546692
 20
16.606259157
 10
-1.6736009087
 20
16.6023804872
 10
-1.6642938797
 20
16.5987164692
 10
-1.6546446947
 20
16.5952751418
 10
-1.6446759076
 20
16.5920650542
 10
-1.6344139161
 20
16.5890949166
 10
-1.6238833546
 20
16.5863717881
 10
-1.6131064339
 20
16.5839013431
 10
-1.6021071965
 20
16.581689101
 10
-1.5909102263
 20
16.5797400278
 10
-1.5795408336
 20
16.5780585503
 10
-1.5680248159
 20
16.5766484902
 10
-1.5563881795
 20
16.5755130254
 10
-1.5446569956
 20
16.5746546935
 10
-1.5328575731
 20
16.5740754197
 10
-1.5210164174
 20
16.5737765095
 10
-1.5091601922
 20
16.57375864
 10
-1.4973155839
 20
16.5740218537
 10
-1.4855092384
 20
16.5745655599
 10
-1.4737677048
 20
16.5753885372
 10
-1.462117396
 20
16.5764889358
 10
-1.4505845141
 20
16.5778642822
 10
-1.4391950012
 20
16.5795114841
 10
-1.4279744834
 20
16.5814268364
 10
-1.4169482
 20
16.5836060312
 10
-1.4061409499
 20
16.586044168
 10
-1.3955770444
 20
16.5887357627
 10
-1.385280239
 20
16.5916747633
 10
-1.3752736992
 20
16.5948545584
 10
-1.3655799495
 20
16.5982679898
 10
-1.3562207974
 20
16.6019073768
 10
-1.3472172859
 20
16.6057645349
 10
-1.3385896641
 20
16.6098307877
  0
LWPOLYLINE
  5
3B8
100
AcDbEntity
  8
0
100
AcDbPolyline
 62
250
  6
CONTINUOUS
 90
34
 70
0
 10
-13.9947696164
 20
22.7621725079
 10
-13.9861894135
 20
22.7580812092
 10
-13.9772308902
 20
22.7541979099
 10
-13.9679141944
 20
22.7505313451
 10
-13.9582602736
 20
22.7470897607
 10
-13.9482908458
 20
22.743880901
 10
-13.9380283531
 20
22.7409119898
 10
-13.9274958842
 20
22.7381897059
 10
-13.9167171238
 20
22.7357201705
 10
-13.9057163194
 20
22.7335089382
 10
-13.8945182127
 20
22.7315609819
 10
-13.883147993
 20
22.7298806826
 10
-13.8716312435
 20
22.72847182
 10
-13.8599938701
 20
22.727337562
 10
-13.8482620463
 20
22.7264804582
 10
-13.8364621631
 20
22.7259024351
 10
-13.824620755
 20
22.7256047914
 10
-13.8127644613
 20
22.7255881953
 10
-13.8009199708
 20
22.7258526818
 10
-13.7891139561
 20
22.7263976511
 10
-13.7773729366
 20
22.7272218746
 10
-13.7657232425
 20
22.7283235037
 10
-13.7541909687
 20
22.7297000773
 10
-13.7428021641
 20
22.7313484924
 10
-13.7315826853
 20
22.7332649997
 10
-13.7205579029
 20
22.7354452428
 10
-13.7097524473
 20
22.7378843276
 10
-13.6991904094
 20
22.7405768076
 10
-13.6888940156
 20
22.7435170881
 10
-13.6788880348
 20
22.746698169
 10
-13.669199094
 20
22.7501113694
 10
-13.6598498738
 20
22.75374818
 10
-13.6508594971
 20
22.757600624
 10
-13.6422476567
 20
22.761659784
  0
LINE
  5
3B9
100
AcDbEntity
  8
0
100
AcDbLine
 62
7
  6
CONTINUOUS
 10
-14.9703147325
 20
22.2981651858
 11
-13.2835490083
 21
21.4547823237
  0
LINE
  5
3BA
100
AcDbEntity
  8
0
100
AcDbLine
 62
7
  6
CONTINUOUS
 10
-11.11555731
 20
20.3707864745
 11
-10.4499766082
 21
20.0379961236
  0
LINE
  5
3BB
100
AcDbEntity
  8
0
100
AcDbLine
 62
7
  6
CONTINUOUS
 10
-5.5002291399
 20
17.5631223895
 11
-4.8346484382
 21
17.2303320386
  0
LINE
  5
3BC
100
AcDbEntity
  8
0
100
AcDbLine
 62
7
  6
CONTINUOUS
 10
-2.6666567399
 20
16.1463361895
 11
-0.9798910156
 21
15.3029533273
  0
LINE
  5
3BD
100
AcDbEntity
  8
DRAFT
100
AcDbLine
 62
7
  6
CONTINUOUS
 10
1.6954185813
 20
14.3276568905
 11
2.0227893745
 21
14.1639714939
  0
LINE
  5
3BE
100
AcDbEntity
  8
0
100
AcDbLine
 62
7
  6
CONTINUOUS
 10
-15.6083343904
 20
23.1262491589
 11
-13.92979632
 21
22.2869801237
  0
LINE
  5
3BF
100
AcDbEntity
  8
0
100
AcDbLine
 62
7
  6
CONTINUOUS
 10
-3.3046763977
 20
16.9744201625
 11
-1.6261383273
 21
16.1351511273
  0
LINE
  5
3C0
100
AcDbEntity
  8
0
100
AcDbLine
 62
250
  6
CONTINUOUS
 10
-15.6733076868
 20
23.261467609
 11
-13.9947696164
 21
22.4221985738
  0
LINE
  5
3C1
100
AcDbEntity
  8
0
100
AcDbLine
 62
250
  6
CONTINUOUS
 10
-3.3696496942
 20
17.1096386126
 11
-1.6911116237
 21
16.2703695774
  0
LINE
  5
3C2
100
AcDbEntity
  8
0
100
AcDbLine
 62
7
  6
CONTINUOUS
 10
-5.5002291399
 20
18.3156156389
 11
-6.4194679555
 21
18.7752350467
  0
LINE
  5
3C3
100
AcDbEntity
  8
0
100
AcDbLine
 62
7
  6
CONTINUOUS
 10
-8.1165242303
 20
19.6237631841
 11
-9.7428698271
 21
20.4369359824
  0
LINE
  5
3C4
100
AcDbEntity
  8
0
100
AcDbLine
 62
250
  6
CONTINUOUS
 10
-1.6911116237
 20
16.6103435116
 11
-3.3696496942
 21
17.4496125468
  0
LINE
  5
3C5
100
AcDbEntity
  8
0
100
AcDbLine
 62
250
  6
CONTINUOUS
 10
-13.9947696164
 20
22.7621725079
 11
-15.6733076868
 21
23.6014415431
  0
LINE
  5
3C6
100
AcDbEntity
  8
0
100
AcDbLine
 62
7
  6
CONTINUOUS
 10
-7.6215494835
 20
19.7525224354
 11
-6.4780465992
 21
19.1807709932
  0
LINE
  5
3C7
100
AcDbEntity
  8
0
100
AcDbLine
 62
7
  6
CONTINUOUS
 10
0.6165575461
 20
15.6334689206
 11
0.2626911267
 21
15.8104021302
  0
LINE
  5
3C8
100
AcDbEntity
  8
0
100
AcDbLine
 62
7
  6
CONTINUOUS
 10
-3.4163170604
 20
17.6499062238
 11
-3.767817526
 21
17.8256564566
  0
LINE
  5
3C9
100
AcDbEntity
  8
0
100
AcDbLine
 62
7
  6
CONTINUOUS
 10
-11.11555731
 20
21.4995263486
 11
-12.0409668659
 21
21.9622311266
  0
LINE
  5
3CA
100
AcDbEntity
  8
0
100
AcDbLine
 62
250
  6
CONTINUOUS
 10
-1.5153633678
 20
16.9147203265
 11
-3.1939014382
 21
17.7539893617
  0
LINE
  5
3CB
100
AcDbEntity
  8
0
100
AcDbLine
 62
250
  6
CONTINUOUS
 10
-13.8190213604
 20
23.0665493229
 11
-15.4975594308
 21
23.9058183581
  0
LINE
  5
3CC
100
AcDbEntity
  8
0
100
AcDbLine
 62
7
  6
CONTINUOUS
 10
-11.11555731
 20
21.8169492403
 11
-10.4499766082
 21
21.4841588894
  0
LINE
  5
3CD
100
AcDbEntity
  8
0
100
AcDbLine
 62
7
  6
CONTINUOUS
 10
-5.5002291399
 20
19.0092851552
 11
-4.8346484382
 21
18.6764948044
  0
LINE
  5
3CE
100
AcDbEntity
  8
0
100
AcDbLine
 62
7
  6
CONTINUOUS
 10
1.3174934999
 20
15.9850693365
 11
0.2626911267
 21
16.512470523
  0
LINE
  5
3CF
100
AcDbEntity
  8
0
100
AcDbLine
 62
7
  6
CONTINUOUS
 10
-11.3379739116
 20
22.3128030422
 11
-12.0409668659
 21
22.6642995193
  0
LINE
  5
3D0
100
AcDbEntity
  8
0
100
AcDbLine
 62
7
  6
CONTINUOUS
 10
-6.4780465992
 20
19.8833432346
 11
-6.9144427023
 21
20.1015412861
  0
LINE
  5
3D1
100
AcDbEntity
  8
0
100
AcDbLine
 62
250
  6
CONTINUOUS
 10
-4.964104385
 20
19.2811676131
 11
-6.4194679555
 21
20.0088493983
  0
LINE
  5
3D2
100
AcDbEntity
  8
0
100
AcDbLine
 62
250
  6
CONTINUOUS
 10
-8.1165242303
 20
20.8573775357
 11
-9.7428698271
 21
21.6705503341
  0
LINE
  5
3D3
100
AcDbEntity
  8
0
100
AcDbLine
 62
7
  6
CONTINUOUS
 10
-6.9144427023
 20
20.5605182151
 11
-6.339099222
 21
20.2728464749
  0
LINE
  5
3D4
100
AcDbEntity
  8
0
100
AcDbLine
 62
250
  6
CONTINUOUS
 10
-4.652523754
 20
19.4391780519
 11
-6.2788693507
 21
20.2523508503
  0
LINE
  5
3D5
100
AcDbEntity
  8
0
100
AcDbLine
 62
250
  6
CONTINUOUS
 10
-7.9759256255
 20
21.1008789877
 11
-9.6022712223
 21
21.9140517861
  0
LINE
  5
3D6
100
AcDbEntity
  8
0
100
AcDbLine
 62
7
  6
CONTINUOUS
 10
-10.0610678786
 20
22.357922279
 11
-7.7629708397
 21
21.2088737595
  0
LINE
  5
3D7
100
AcDbEntity
  8
0
100
AcDbLine
 62
7
  6
CONTINUOUS
 10
-6.0659145649
 20
20.3603456221
 11
-3.767817526
 21
19.2112971027
  0
LINE
  5
3D8
100
AcDbEntity
  8
0
100
AcDbLine
 62
7
  6
CONTINUOUS
 10
0.0859174231
 20
17.71744233
 11
-1.611144835
 21
18.5659734591
  0
LINE
  5
3D9
100
AcDbEntity
  8
0
100
AcDbLine
 62
7
  6
CONTINUOUS
 10
-12.2177405696
 20
23.8692713264
 11
-13.9148028277
 21
24.7178024554
  0
LINE
  5
3DA
100
AcDbEntity
  8
0
100
AcDbLine
 62
7
  6
CONTINUOUS
 10
-3.732462187
 20
19.8956878259
 11
-5.3588077837
 21
20.7088606243
  0
LINE
  5
3DB
100
AcDbEntity
  8
0
100
AcDbLine
 62
7
  6
CONTINUOUS
 10
-7.0558640585
 20
21.5573887617
 11
-8.6822096553
 21
22.3705615601
  0
LINE
  5
3DC
100
AcDbEntity
  8
0
100
AcDbLine
 62
250
  6
CONTINUOUS
 10
-13.380352949
 20
24.978149922
 11
-11.6894733978
 21
24.1327101464
  0
LINE
  5
3DD
100
AcDbEntity
  8
0
100
AcDbLine
 62
250
  6
CONTINUOUS
 10
-1.0766949563
 20
18.8263209256
 11
0.6141845948
 21
17.9808811501
  0
LWPOLYLINE
  5
3DE
100
AcDbEntity
  8
0
100
AcDbPolyline
 62
250
  6
CONTINUOUS
 90
34
 70
0
 10
-11.6894733978
 20
24.1327101464
 10
-11.6810284804
 20
24.1282906229
 10
-11.6726013384
 20
24.1233888936
 10
-11.6642110548
 20
24.1180154235
 10
-11.6558754822
 20
24.1121809011
 10
-11.6476147879
 20
24.1058986922
 10
-11.639451285
 20
24.0991854411
 10
-11.6314046651
 20
24.0920574558
 10
-11.6234919319
 20
24.0845299146
 10
-11.6157308685
 20
24.0766197207
 10
-11.6081389671
 20
24.0683446617
 10
-11.6007335438
 20
24.0597235701
 10
-11.5935315405
 20
24.050776156
 10
-11.5865493378
 20
24.0415227827
 10
-11.5798026857
 20
24.0319843371
 10
-11.5733068271
 20
24.0221823685
 10
-11.5670764659
 20
24.012139055
 10
-11.5611257402
 20
24.0018771771
 10
-11.5554681465
 20
23.9914200033
 10
-11.5501165082
 20
23.9807912321
 10
-11.54508295
 20
23.9700149403
 10
-11.5403788801
 20
23.959115548
 10
-11.5360149582
 20
23.9481177493
 10
-11.5320010746
 20
23.9370464647
 10
-11.5283463284
 20
23.9259267885
 10
-11.525059002
 20
23.9147839179
 10
-11.5221465444
 20
23.9036430994
 10
-11.5196155562
 20
23.8925295801
 10
-11.5174717721
 20
23.8814685366
 10
-11.5157200513
 20
23.8704850371
 10
-11.5143643655
 20
23.8596039877
 10
-11.5134077854
 20
23.8488500491
 10
-11.5128524761
 20
23.8382475814
 10
-11.5126996942
 20
23.8278206076
  0
LWPOLYLINE
  5
3DF
100
AcDbEntity
  8
0
100
AcDbPolyline
 62
250
  6
CONTINUOUS
 90
34
 70
0
 10
0.6141845948
 20
17.9808811501
 10
0.6226295123
 20
17.9764616265
 10
0.6310566542
 20
17.9715598973
 10
0.6394469378
 20
17.9661864271
 10
0.6477825105
 20
17.9603519048
 10
0.6560432048
 20
17.9540696959
 10
0.6642067077
 20
17.9473564448
 10
0.6722533275
 20
17.9402284594
 10
0.6801660608
 20
17.9327009183
 10
0.6879271242
 20
17.9247907243
 10
0.6955190255
 20
17.9165156653
 10
0.7029244489
 20
17.9078945738
 10
0.7101264521
 20
17.8989471597
 10
0.7171086549
 20
17.8896937864
 10
0.7238553069
 20
17.8801553407
 10
0.7303511656
 20
17.8703533721
 10
0.7365815268
 20
17.8603100587
 10
0.7425322524
 20
17.8500481808
 10
0.7481898461
 20
17.839591007
 10
0.7535414844
 20
17.8289622358
 10
0.7585750427
 20
17.818185944
 10
0.7632791126
 20
17.8072865517
 10
0.7676430344
 20
17.796288753
 10
0.771656918
 20
17.7852174684
 10
0.7753116642
 20
17.7740977922
 10
0.7785989906
 20
17.7629549216
 10
0.7815114483
 20
17.7518141031
 10
0.7840424364
 20
17.7407005838
 10
0.7861862205
 20
17.7296395402
 10
0.7879379414
 20
17.7186560408
 10
0.7892936272
 20
17.7077749914
 10
0.7902502072
 20
17.6970210528
 10
0.7908055166
 20
17.6864185851
 10
0.7909582985
 20
17.6759916113
  0
LWPOLYLINE
  5
3E0
100
AcDbEntity
  8
0
100
AcDbPolyline
 62
250
  6
CONTINUOUS
 90
18
 70
0
 10
-15.6733076868
 20
23.261467609
 10
-15.6814870557
 20
23.2657559353
 10
-15.6892512927
 20
23.2702335893
 10
-15.696582856
 20
23.2748905454
 10
-15.7034653276
 20
23.2797164875
 10
-15.7098829575
 20
23.2847004914
 10
-15.7158208111
 20
23.2898310139
 10
-15.7212654094
 20
23.2950963881
 10
-15.7262046598
 20
23.300484897
 10
-15.7306274646
 20
23.305984436
 10
-15.7345238813
 20
23.3115826487
 10
-15.7378851369
 20
23.3172669381
 10
-15.740703662
 20
23.323024506
 10
-15.7429731177
 20
23.3288423988
 10
-15.7446884052
 20
23.3347075405
 10
-15.7458456689
 20
23.3406067455
 10
-15.7464423068
 20
23.3465267494
 10
-15.7465309857
 20
23.3498290965
  0
LWPOLYLINE
  5
3E1
100
AcDbEntity
  8
0
100
AcDbPolyline
 62
250
  6
CONTINUOUS
 90
18
 70
0
 10
-3.3696496942
 20
17.1096386126
 10
-3.3778317619
 20
17.1139284229
 10
-3.3855978762
 20
17.1184073621
 10
-3.3929305719
 20
17.1230653577
 10
-3.3998133508
 20
17.1278919285
 10
-3.4062307431
 20
17.1328762255
 10
-3.4121683367
 20
17.1380070578
 10
-3.4176127855
 20
17.1432729004
 10
-3.4225518256
 20
17.1486619004
 10
-3.4269743294
 20
17.15416192
 10
-3.4308703467
 20
17.1597605834
 10
-3.4342311211
 20
17.1654453058
 10
-3.4370490941
 20
17.1712033023
 10
-3.4393179284
 20
17.1770216233
 10
-3.4410325215
 20
17.182887184
 10
-3.4421890177
 20
17.1887867933
 10
-3.4427848162
 20
17.1947071875
 10
-3.4428729989
 20
17.1980269603
  0
LWPOLYLINE
  5
3E2
100
AcDbEntity
  8
0
100
AcDbPolyline
 62
250
  6
CONTINUOUS
 90
18
 70
0
 10
-15.6733076868
 20
23.6014415431
 10
-15.6814902842
 20
23.6057316445
 10
-15.6892568829
 20
23.6102109062
 10
-15.6965900123
 20
23.6148692541
 10
-15.7034731811
 20
23.6196962145
 10
-15.7098909006
 20
23.6246809284
 10
-15.715828723
 20
23.6298121747
 10
-15.7212732908
 20
23.6350784092
 10
-15.7262123617
 20
23.6404677894
 10
-15.7306348262
 20
23.6459681916
 10
-15.7345307389
 20
23.6515672449
 10
-15.7378913375
 20
23.6572523548
 10
-15.7407090625
 20
23.6630107296
 10
-15.7429775786
 20
23.6688294162
 10
-15.7446917863
 20
23.6746953282
 10
-15.7458478323
 20
23.6805952697
 10
-15.7464431197
 20
23.6865159738
 10
-15.746530989
 20
23.6898121072
  0
LWPOLYLINE
  5
3E3
100
AcDbEntity
  8
0
100
AcDbPolyline
 62
250
  6
CONTINUOUS
 90
18
 70
0
 10
-3.3696496942
 20
17.4496125468
 10
-3.3778322915
 20
17.4539026482
 10
-3.3855988902
 20
17.4583819099
 10
-3.3929320197
 20
17.4630402578
 10
-3.3998151885
 20
17.4678672182
 10
-3.406232908
 20
17.4728519321
 10
-3.4121707304
 20
17.4779831784
 10
-3.4176152981
 20
17.4832494129
 10
-3.422554369
 20
17.4886387931
 10
-3.4269768335
 20
17.4941391953
 10
-3.4308727462
 20
17.4997382486
 10
-3.4342333448
 20
17.5054233585
 10
-3.4370510699
 20
17.5111817332
 10
-3.4393195859
 20
17.5170004199
 10
-3.4410337936
 20
17.5228663318
 10
-3.4421898396
 20
17.5287662734
 10
-3.4427851271
 20
17.5346869775
 10
-3.4428729963
 20
17.5379831108
  0
LWPOLYLINE
  5
3E4
100
AcDbEntity
  8
0
100
AcDbPolyline
 62
250
  6
CONTINUOUS
 90
18
 70
0
 10
-6.4194679555
 20
20.0088493983
 10
-6.4260368721
 20
20.0122940391
 10
-6.4322705432
 20
20.015891059
 10
-6.4381548474
 20
20.0196323098
 10
-6.443676455
 20
20.0235093162
 10
-6.4488228576
 20
20.0275132956
 10
-6.4535823972
 20
20.0316351778
 10
-6.4579442916
 20
20.0358656252
 10
-6.46189866
 20
20.0401950546
 10
-6.4654365442
 20
20.0446136585
 10
-6.46854993
 20
20.0491114272
 10
-6.4712317645
 20
20.0536781719
 10
-6.4734759724
 20
20.0583035475
 10
-6.47527747
 20
20.0629770759
 10
-6.4766321762
 20
20.0676881702
 10
-6.4775370222
 20
20.0724261581
 10
-6.4779899582
 20
20.0771803067
 10
-6.4780465992
 20
20.0795600764
  0
LWPOLYLINE
  5
3E5
100
AcDbEntity
  8
0
100
AcDbPolyline
 62
7
  6
CONTINUOUS
 90
40
 70
0
 10
0.6158965122
 20
15.6337994375
 10
0.630048941
 20
15.6263766116
 10
0.6442031051
 20
15.6182551673
 10
0.6583365501
 20
15.6094447165
 10
0.6724394213
 20
15.5999473767
 10
0.6864759041
 20
15.589782738
 10
0.7003849059
 20
15.5789934533
 10
0.7141311733
 20
15.5676093524
 10
0.7277060246
 20
15.5556409273
 10
0.7410892003
 20
15.5431080209
 10
0.7542472692
 20
15.5300445852
 10
0.7671718927
 20
15.5164613958
 10
0.7798792314
 20
15.5023401865
 10
0.7923690471
 20
15.4876741271
 10
0.8045965773
 20
15.4725088631
 10
0.8165115895
 20
15.4569052961
 10
0.8280905944
 20
15.4408940877
 10
0.8393188904
 20
15.4244968693
 10
0.8501636381
 20
15.4077667485
 10
0.8605904299
 20
15.3907629592
 10
0.8706034553
 20
15.3734849592
 10
0.8802260839
 20
15.3558949565
 10
0.8894556663
 20
15.3379880991
 10
0.8982570337
 20
15.3198223413
 10
0.9066029825
 20
15.3014528129
 10
0.9144808865
 20
15.2829019014
 10
0.9218736009
 20
15.264206032
 10
0.9287534974
 20
15.2454435176
 10
0.9351005306
 20
15.2266777278
 10
0.9409189383
 20
15.207906134
 10
0.9462182942
 20
15.1891084809
 10
0.9509918235
 20
15.1702984123
 10
0.9552247938
 20
15.1515221231
 10
0.9589116507
 20
15.1328082278
 10
0.9620463615
 20
15.1141692812
 10
0.9646176461
 20
15.0956531622
 10
0.9666174694
 20
15.077340159
 10
0.9680444004
 20
15.0592749738
 10
0.9688987254
 20
15.041468134
 10
0.9691807782
 20
15.0239464109
  0
LWPOLYLINE
  5
3E6
100
AcDbEntity
  8
0
100
AcDbPolyline
 62
7
  6
CONTINUOUS
 90
37
 70
0
 10
-7.7629708397
 20
21.2088737595
 10
-7.7568020696
 20
21.2056245026
 10
-7.7506450324
 20
21.2020517217
 10
-7.744511453
 20
21.1981622161
 10
-7.738413028
 20
21.1939633801
 10
-7.7323613633
 20
21.1894632085
 10
-7.7263679521
 20
21.1846702818
 10
-7.7204442278
 20
21.1795937117
 10
-7.7146014774
 20
21.174243157
 10
-7.7088507791
 20
21.1686288257
 10
-7.7032031124
 20
21.1627613889
 10
-7.6976692474
 20
21.1566520064
 10
-7.6922596579
 20
21.1503123389
 10
-7.6869846816
 20
21.1437544345
 10
-7.6818543874
 20
21.1369907629
 10
-7.6768784652
 20
21.1300342382
 10
-7.6720664343
 20
21.1228980788
 10
-7.6674274899
 20
21.1155958512
 10
-7.6629703726
 20
21.1081415016
 10
-7.6587036198
 20
21.1005491931
 10
-7.6546353961
 20
21.0928333563
 10
-7.6507733429
 20
21.0850087311
 10
-7.64712487
 20
21.0770901826
 10
-7.6436969717
 20
21.0690927589
 10
-7.6404960593
 20
21.0610317412
 10
-7.6375282884
 20
21.0529224421
 10
-7.634799363
 20
21.04478027
 10
-7.6323143551
 20
21.0366207855
 10
-7.6300780604
 20
21.0284594871
 10
-7.6280947956
 20
21.0203118795
 10
-7.6263682061
 20
21.012193537
 10
-7.6249016462
 20
21.0041198784
 10
-7.6236979709
 20
20.9961062397
 10
-7.6227593374
 20
20.9881679419
 10
-7.6220875324
 20
20.9803200953
 10
-7.6216839692
 20
20.97257757
 10
-7.6215494835
 20
20.9649550694
  0
LWPOLYLINE
  5
3E7
100
AcDbEntity
  8
0
100
AcDbPolyline
 62
250
  6
CONTINUOUS
 90
34
 70
0
 10
-7.9759256255
 20
21.1008789877
 10
-7.9691955946
 20
21.0973187248
 10
-7.9624789455
 20
21.0933751004
 10
-7.9557908937
 20
21.0890570481
 10
-7.9491465897
 20
21.0843743495
 10
-7.9425610851
 20
21.0793376126
 10
-7.936049298
 20
21.0739582471
 10
-7.9296259799
 20
21.0682484391
 10
-7.9233056816
 20
21.0622211232
 10
-7.9171027206
 20
21.055889953
 10
-7.9110311486
 20
21.0492692708
 10
-7.9051047196
 20
21.0423740745
 10
-7.899336859
 20
21.035219984
 10
-7.8937406328
 20
21.0278232056
 10
-7.8883287182
 20
21.0202004953
 10
-7.883113375
 20
21.0123691211
 10
-7.8781064176
 20
21.0043468235
 10
-7.8733191884
 20
20.9961517757
 10
-7.8687625319
 20
20.987802542
 10
-7.8644467706
 20
20.9793180361
 10
-7.8603816809
 20
20.9707174782
 10
-7.8565764716
 20
20.9620203513
 10
-7.8530397627
 20
20.9532463572
 10
-7.849779566
 20
20.9444153718
 10
-7.8468032669
 20
20.9355474002
 10
-7.8441176077
 20
20.9266625311
 10
-7.8417286723
 20
20.9177808916
 10
-7.8396418723
 20
20.9089226016
 10
-7.8378619351
 20
20.9001077278
 10
-7.8363928927
 20
20.8913562388
 10
-7.8352380731
 20
20.8826879595
 10
-7.8344000922
 20
20.8741225264
 10
-7.8338808484
 20
20.865679343
 10
-7.8336815179
 20
20.8573775357
  0
LWPOLYLINE
  5
3E8
100
AcDbEntity
  8
0
100
AcDbPolyline
 62
7
  6
CONTINUOUS
 90
34
 70
0
 10
-12.2177405696
 20
23.8692713264
 10
-12.2093294942
 20
23.8648204119
 10
-12.2009372765
 20
23.8598892415
 10
-12.1925830288
 20
23.8544889319
 10
-12.1842858549
 20
23.8486316233
 10
-12.1760645565
 20
23.8423305784
 10
-12.1679375907
 20
23.8356001534
 10
-12.1599234253
 20
23.8284555626
 10
-12.152040306
 20
23.8209129432
 10
-12.1443059638
 20
23.8129894462
 10
-12.1367379562
 20
23.8047030001
 10
-12.1293534993
 20
23.7960723388
 10
-12.1221692367
 20
23.7871170591
 10
-12.1152014581
 20
23.7778574386
 10
-12.1084659989
 20
23.7683144266
 10
-12.1019780761
 20
23.7585096668
 10
-12.0957523795
 20
23.7484653729
 10
-12.0898030416
 20
23.7382042828
 10
-12.0841435422
 20
23.7277496458
 10
-12.0787866718
 20
23.7171251595
 10
-12.0737445721
 20
23.7063548872
 10
-12.069028711
 20
23.6954632099
 10
-12.0646497192
 20
23.6844748259
 10
-12.0606175002
 20
23.673414634
 10
-12.0569412763
 20
23.6623076496
 10
-12.053629302
 20
23.6511790688
 10
-12.0506890411
 20
23.6400541187
 10
-12.0481272825
 20
23.6289579388
 10
-12.0459497366
 20
23.6179157102
 10
-12.0441612757
 20
23.6069524741
 10
-12.0427661174
 20
23.5960929823
 10
-12.0417674138
 20
23.585361837
 10
-12.0411672448
 20
23.5747834348
 10
-12.0409668659
 20
23.5643817875
  0
LWPOLYLINE
  5
3E9
100
AcDbEntity
  8
0
100
AcDbPolyline
 62
7
  6
CONTINUOUS
 90
34
 70
0
 10
0.0859174231
 20
17.71744233
 10
0.0943284985
 20
17.7129914156
 10
0.1027207161
 20
17.7080602452
 10
0.1110749638
 20
17.7026599356
 10
0.1193721378
 20
17.696802627
 10
0.1275934362
 20
17.6905015821
 10
0.135720402
 20
17.6837711571
 10
0.1437345673
 20
17.6766265662
 10
0.1516176867
 20
17.6690839469
 10
0.1593520289
 20
17.6611604499
 10
0.1669200364
 20
17.6528740038
 10
0.1743044934
 20
17.6442433424
 10
0.1814887559
 20
17.6352880628
 10
0.1884565346
 20
17.6260284423
 10
0.1951919938
 20
17.6164854303
 10
0.2016799165
 20
17.6066806705
 10
0.2079056131
 20
17.5966363765
 10
0.2138549511
 20
17.5863752864
 10
0.2195144505
 20
17.5759206495
 10
0.2248713209
 20
17.5652961631
 10
0.2299134205
 20
17.5545258909
 10
0.2346292817
 20
17.5436342135
 10
0.2390082735
 20
17.5326458295
 10
0.2430404924
 20
17.5215856377
 10
0.2467167163
 20
17.5104786533
 10
0.2500286906
 20
17.4993500725
 10
0.2529689515
 20
17.4882251224
 10
0.2555307101
 20
17.4771289425
 10
0.257708256
 20
17.4660867139
 10
0.2594967169
 20
17.4551234777
 10
0.2608918752
 20
17.444263986
 10
0.2618905789
 20
17.4335328407
 10
0.2624907479
 20
17.4229544384
 10
0.2626911267
 20
17.4125527912
  0
LWPOLYLINE
  5
3EA
100
AcDbEntity
  8
0
100
AcDbPolyline
 62
250
  6
CONTINUOUS
 90
34
 70
0
 10
-13.8190213604
 20
23.0665493229
 10
-13.8106580776
 20
23.0620743517
 10
-13.8023114099
 20
23.057120255
 10
-13.7940002642
 20
23.0516982551
 10
-13.7857434674
 20
23.0458206338
 10
-13.7775597227
 20
23.0395007054
 10
-13.7694675684
 20
23.032752786
 10
-13.7614853348
 20
23.025592161
 10
-13.7536311035
 20
23.0180350509
 10
-13.7459226662
 20
23.0100985742
 10
-13.7383774842
 20
23.0018007088
 10
-13.731012649
 20
22.9931602513
 10
-13.7238448435
 20
22.9841967742
 10
-13.7168903046
 20
22.9749305818
 10
-13.7101647857
 20
22.9653826641
 10
-13.7036835218
 20
22.9555746493
 10
-13.6974611942
 20
22.9455287547
 10
-13.691511898
 20
22.9352677366
 10
-13.6858491096
 20
22.9248148384
 10
-13.6804856566
 20
22.9141937383
 10
-13.6754336883
 20
22.9034284954
 10
-13.6707046486
 20
22.8925434955
 10
-13.6663092499
 20
22.8815633956
 10
-13.6622574487
 20
22.8705130679
 10
-13.6585584232
 20
22.859417544
 10
-13.6552205525
 20
22.8483019577
 10
-13.6522513977
 20
22.8371914883
 10
-13.6496576847
 20
22.8261113035
 10
-13.6474452886
 20
22.8150865025
 10
-13.6456192211
 20
22.8041420588
 10
-13.6441836187
 20
22.793302764
 10
-13.6431417333
 20
22.7825931717
 10
-13.642495925
 20
22.7720375414
 10
-13.6422476567
 20
22.761659784
  0
LWPOLYLINE
  5
3EB
100
AcDbEntity
  8
0
100
AcDbPolyline
 62
250
  6
CONTINUOUS
 90
34
 70
0
 10
-1.5153633678
 20
16.9147203265
 10
-1.5070138323
 20
16.910253112
 10
-1.4986772508
 20
16.9053061026
 10
-1.4903724951
 20
16.8998898684
 10
-1.4821172289
 20
16.8940151928
 10
-1.4739314182
 20
16.8876955422
 10
-1.4658371706
 20
16.8809476634
 10
-1.4578540119
 20
16.8737879475
 10
-1.4499988127
 20
16.8662316393
 10
-1.4422892266
 20
16.8582957067
 10
-1.4347426296
 20
16.8499979955
 10
-1.4273762339
 20
16.8413573902
 10
-1.420206892
 20
16.8323936454
 10
-1.4132509104
 20
16.8231271615
 10
-1.40652398
 20
16.813578855
 10
-1.4000412992
 20
16.8037702975
 10
-1.393817542
 20
16.793723682
 10
-1.3878668315
 20
16.7834617966
 10
-1.3822026639
 20
16.7730079097
 10
-1.3768378776
 20
16.7623857125
 10
-1.3717846269
 20
16.751619267
 10
-1.3670543648
 20
16.7407329708
 10
-1.3626578102
 20
16.7297514884
 10
-1.3586049274
 20
16.7186997035
 10
-1.3549049038
 20
16.707602666
 10
-1.3515661244
 20
16.6964855219
 10
-1.3485961546
 20
16.6853734594
 10
-1.3460017257
 20
16.6742916604
 10
-1.3437887158
 20
16.6632652298
 10
-1.3419621411
 20
16.6523191573
 10
-1.3405261431
 20
16.641478264
 10
-1.3394839744
 20
16.6307671197
 10
-1.338837994
 20
16.6202099875
 10
-1.3385896641
 20
16.6098307877
  0
LINE
  5
3EC
100
AcDbEntity
  8
0
100
AcDbLine
 62
250
  6
CONTINUOUS
 10
-3.3079015669
 20
16.9761619183
 11
-3.3046763977
 21
16.9744201625
  0
LINE
  5
3ED
100
AcDbEntity
  8
0
100
AcDbLine
 62
7
  6
CONTINUOUS
 10
8.8046702853
 20
19.0299728907
 11
8.7723992889
 21
19.097757269
  0
LWPOLYLINE
  5
3EE
100
AcDbEntity
  8
RACCORDO
100
AcDbPolyline
 62
250
  6
CONTINUOUS
 90
61
 70
0
 10
7.7687090926
 20
19.5538885363
 10
7.7569086904
 20
19.5906593005
 10
7.7299978813
 20
19.6922707674
 10
7.7089195629
 20
19.7933116347
 10
7.6937186748
 20
19.8937777261
 10
7.6843502775
 20
19.9936732179
 10
7.6808856402
 20
20.0922164836
 10
7.6833702142
 20
20.1893924773
 10
7.6917585484
 20
20.2852162449
 10
7.7059855585
 20
20.3789512973
 10
7.7260937523
 20
20.4705810741
 10
7.752040622
 20
20.5601221357
 10
7.7836335605
 20
20.6468876746
 10
7.8209240177
 20
20.7308684078
 10
7.8638605436
 20
20.8120736182
 10
7.9120961814
 20
20.8898443468
 10
7.9656852184
 20
20.9641531944
 10
8.0245733672
 20
21.0350275603
 10
8.0882508087
 20
21.1018906836
 10
8.1567111106
 20
21.1646786371
 10
8.229960705
 20
21.2234553481
 10
8.3075090693
 20
21.2778358373
 10
8.3893455462
 20
21.327801025
 10
8.4754807929
 20
21.3733699909
 10
8.5654562586
 20
21.4142149961
 10
8.6595196896
 20
21.4503569188
 10
8.7574233396
 20
21.4817748806
 10
8.8579654177
 20
21.5080785079
 10
8.9615205909
 20
21.5291161904
 10
9.0677141923
 20
21.5450395382
 10
9.1742204303
 20
21.5559130082
 10
9.2809904852
 20
21.5614676299
 10
9.3880731767
 20
21.5619723738
 10
9.4932891722
 20
21.558298608
 10
9.5962910231
 20
21.5503363779
 10
9.6974261781
 20
21.5381956382
 10
9.7955576507
 20
21.5230776218
 10
9.8904563543
 20
21.5050112594
 10
9.9823513756
 20
21.4839676203
 10
10.0707929886
 20
21.4610611454
 10
10.1556329517
 20
21.4363692554
 10
10.2370195065
 20
21.4098145296
 10
10.3149476511
 20
21.3822791478
 10
10.3893071595
 20
21.353861152
 10
10.4602082577
 20
21.3244625001
 10
10.5279766221
 20
21.2946712464
 10
10.592586842
 20
21.2645594335
 10
10.6540643281
 20
21.2340550188
 10
10.7128109889
 20
21.2035299279
 10
10.7688180959
 20
21.1730413894
 10
10.8220943775
 20
21.1425321749
 10
10.8730679271
 20
21.112202524
 10
10.9217390551
 20
21.0820978417
 10
10.968107451
 20
21.0521727231
 10
11.0126002765
 20
21.022491194
 10
11.0552235419
 20
20.9930877022
 10
11.0959712369
 20
20.9639277999
 10
11.1352524921
 20
20.9349721695
 10
11.1732036844
 20
20.906207705
 10
11.2096884369
 20
20.8776475124
 10
11.2447067495
 20
20.8492915916
  0
LWPOLYLINE
  5
3EF
100
AcDbEntity
  8
RACCORDO
100
AcDbPolyline
 62
250
  6
CONTINUOUS
 90
13
 70
0
 10
18.7292664553
 20
17.5945593593
 10
18.726310952
 20
17.6714573491
 10
18.717877365
 20
17.7504064428
 10
18.7040338218
 20
17.8308017438
 10
18.6848920244
 20
17.912019328
 10
18.6606004966
 20
17.9934469262
 10
18.6313379939
 20
18.0744885858
 10
18.5972886556
 20
18.1546081127
 10
18.5587397853
 20
18.2331068959
 10
18.5161110879
 20
18.3091725897
 10
18.4698053183
 20
18.3821790936
 10
18.4201642207
 20
18.4516722545
 10
18.3675878196
 20
18.5171590271
  0
LINE
  5
3F0
100
AcDbEntity
  8
RACCORDO
100
AcDbLine
 62
250
  6
CONTINUOUS
 10
18.7292664553
 20
-9.9383081233
 11
18.7292664553
 21
17.5945593593
  0
LINE
  5
3F1
100
AcDbEntity
  8
RACCORDO
100
AcDbLine
 62
7
  6
CONTINUOUS
 10
19.0099266535
 20
-5.5228797933
 11
19.0099266549
 21
-9.5909789416
  0
LINE
  5
3F2
100
AcDbEntity
  8
RACCORDO
100
AcDbLine
 62
7
  6
CONTINUOUS
 10
19.0099266549
 20
17.9418885445
 11
19.0099262312
 21
-3.3462344065
  0
LWPOLYLINE
  5
3F3
100
AcDbEntity
  8
RACCORDO
100
AcDbPolyline
 62
250
  6
CONTINUOUS
 90
22
 70
0
 10
19.0099262312
 20
-3.3462344065
 10
19.009621524
 20
-3.4015997856
 10
19.0075841358
 20
-3.5062825983
 10
19.0036264946
 20
-3.6141346542
 10
18.9977723236
 20
-3.7251690188
 10
18.990320379
 20
-3.8388206841
 10
18.9812484188
 20
-3.9546959098
 10
18.9708977237
 20
-4.0731447938
 10
18.9607631989
 20
-4.1948044402
 10
18.951096364
 20
-4.3223035623
 10
18.9426511038
 20
-4.4531385872
 10
18.9384619959
 20
-4.5803989467
 10
18.9401822329
 20
-4.7026760381
 10
18.9464225194
 20
-4.8214283749
 10
18.9555639923
 20
-4.9340426418
 10
18.967055022
 20
-5.0385247168
 10
18.9796140838
 20
-5.1366015021
 10
18.9909275697
 20
-5.2313432612
 10
19.0001328005
 20
-5.3236757806
 10
19.0067026529
 20
-5.412694292
 10
19.0097642237
 20
-5.4988846068
 10
19.0099266535
 20
-5.5228797933
  0
LWPOLYLINE
  5
3F4
100
AcDbEntity
  8
RACCORDO
100
AcDbPolyline
 62
250
  6
CONTINUOUS
 90
10
 70
0
 10
18.7292664553
 20
-9.9383081233
 10
18.7265393266
 20
-10.0499154983
 10
18.7177178848
 20
-10.1580371591
 10
18.7028397222
 20
-10.2622112851
 10
18.681968606
 20
-10.3619916018
 10
18.6551943175
 20
-10.456953456
 10
18.622631335
 20
-10.5466948519
 10
18.5844196362
 20
-10.6308314141
 10
18.5407222106
 20
-10.7090033599
 10
18.4917229837
 20
-10.7808797191
  0
LWPOLYLINE
  5
3F5
100
AcDbEntity
  8
RACCORDO
100
AcDbPolyline
 62
250
  6
CONTINUOUS
 90
9
 70
0
 10
19.0099266262
 20
-9.5910988623
 10
19.0090001748
 20
-9.6124969682
 10
18.9991992778
 20
-9.6640194736
 10
18.9787989674
 20
-9.7147594338
 10
18.9480177982
 20
-9.7641731999
 10
18.9071855596
 20
-9.8117313218
 10
18.8567397334
 20
-9.8569242382
 10
18.7972207997
 20
-9.8992677345
 10
18.7292664553
 20
-9.9383081218
  0
LWPOLYLINE
  5
3F6
100
AcDbEntity
  8
RACCORDO
100
AcDbPolyline
 62
250
  6
CONTINUOUS
 90
10
 70
0
 10
19.0099266498
 20
17.9418377973
 10
19.0069480452
 20
17.9033257798
 10
18.9965823203
 20
17.8604781675
 10
18.9788651106
 20
17.8182375546
 10
18.9539293135
 20
17.7769196227
 10
18.9219605831
 20
17.736831166
 10
18.8831970896
 20
17.6982706326
 10
18.8379276459
 20
17.6615252271
 10
18.7864896662
 20
17.6268687477
 10
18.7292664553
 20
17.5945593593
  0
LWPOLYLINE
  5
3F7
100
AcDbEntity
  8
RACCORDO
100
AcDbPolyline
 62
250
  6
CONTINUOUS
 90
3
 70
0
 10
19.048573834
 20
-5.6174285276
 10
19.0225851544
 20
-5.6666192795
 10
19.0099266549
 20
-5.6851614633
  0
LINE
  5
3F8
100
AcDbEntity
  8
0
100
AcDbLine
 62
7
  6
CONTINUOUS
 10
1.005153247
 20
-19.9382774234
 11
0.9701064493
 21
-19.9637445458
  0
LINE
  5
3F9
100
AcDbEntity
  8
DRAFT
100
AcDbLine
 62
7
  6
CONTINUOUS
 10
2.7224463338
 20
-19.0585968718
 11
2.2702767479
 21
-19.3863044601
  0
LINE
  5
3FA
100
AcDbEntity
  8
RACCORDO
100
AcDbLine
 62
7
  6
CONTINUOUS
 10
2.3234143852
 20
-19.3798602318
 11
1.6710424031
 21
-19.8526634802
  0
LINE
  5
3FB
100
AcDbEntity
  8
RACCORDO
100
AcDbLine
 62
7
  6
CONTINUOUS
 10
7.9723810877
 20
-16.6612067991
 11
9.0555763572
 21
-15.8761665827
  0
LWPOLYLINE
  5
3FC
100
AcDbEntity
  8
RACCORDO
100
AcDbPolyline
 62
250
  6
CONTINUOUS
 90
3
 70
0
 10
18.2682241007
 20
-10.9974562052
 10
18.2520366673
 20
-11.0087934387
 10
18.1937538907
 20
-11.0437477738
  0
LINE
  5
3FD
100
AcDbEntity
  8
0
100
AcDbLine
 62
7
  6
CONTINUOUS
 10
2.7678042181
 20
-18.7130673656
 11
1.005153247
 21
-19.9382774234
  0
LWPOLYLINE
  5
3FE
100
AcDbEntity
  8
0
100
AcDbPolyline
 62
250
  6
CONTINUOUS
 90
37
 70
0
 10
-4.0195077701
 20
-24.655021729
 10
-4.0351739099
 20
-24.6650484897
 10
-4.0514575941
 20
-24.6747217347
 10
-4.0683285031
 20
-24.6840234526
 10
-4.085755224
 20
-24.6929363239
 10
-4.1037053088
 20
-24.7014437533
 10
-4.122145335
 20
-24.7095299002
 10
-4.141040968
 20
-24.7171797085
 10
-4.1603570249
 20
-24.7243789344
 10
-4.1800575397
 20
-24.7311141734
 10
-4.2001058309
 20
-24.7373728847
 10
-4.2204645693
 20
-24.7431434147
 10
-4.2410958475
 20
-24.7484150189
 10
-4.261961251
 20
-24.7531778818
 10
-4.2830219291
 20
-24.7574231352
 10
-4.3042386676
 20
-24.7611428744
 10
-4.3255719616
 20
-24.7643301735
 10
-4.3469820893
 20
-24.7669790979
 10
-4.3684291859
 20
-24.7690847152
 10
-4.3898733176
 20
-24.7706431051
 10
-4.4112745562
 20
-24.7716513658
 10
-4.4325930533
 20
-24.7721076198
 10
-4.4537891148
 20
-24.7720110179
 10
-4.4748232743
 20
-24.7713617397
 10
-4.4956563669
 20
-24.7701609942
 10
-4.5162496022
 20
-24.7684110172
 10
-4.5365646363
 20
-24.766115067
 10
-4.5565636433
 20
-24.7632774187
 10
-4.5762093859
 20
-24.7599033558
 10
-4.5954652843
 20
-24.7559991608
 10
-4.6142954848
 20
-24.751572103
 10
-4.6326649261
 20
-24.7466304256
 10
-4.6505394051
 20
-24.7411833296
 10
-4.6678856402
 20
-24.7352409576
 10
-4.6846713332
 20
-24.7288143738
 10
-4.7008652297
 20
-24.7219155444
 10
-4.7164371775
 20
-24.7145573148
  0
LINE
  5
3FF
100
AcDbEntity
  8
RACCORDO
100
AcDbLine
 62
250
  6
CONTINUOUS
 10
18.1489659607
 20
-11.0716824678
 11
18.1937538907
 21
-11.0437477738
  0
LINE
  5
400
100
AcDbEntity
  8
RACCORDO
100
AcDbLine
 62
250
  6
CONTINUOUS
 10
18.3896835734
 20
-10.9094290897
 11
18.3151159796
 21
-10.9557912223
  0
LINE
  5
401
100
AcDbEntity
  8
DRAFT
100
AcDbLine
 62
7
  6
CONTINUOUS
 10
1.6710424031
 20
-19.7031894526
 11
2.2702767479
 21
-19.3863044601
  0
LINE
  5
402
100
AcDbEntity
  8
RACCORDO
100
AcDbLine
 62
250
  6
CONTINUOUS
 10
18.1937538907
 20
-11.0437477738
 11
9.0555763572
 21
-15.8761665827
  0
LINE
  5
403
100
AcDbEntity
  8
RACCORDO
100
AcDbLine
 62
7
  6
CONTINUOUS
 10
18.1489659607
 20
-11.0716824678
 11
9.033884255
 21
-15.8918878226
  0
LINE
  5
404
100
AcDbEntity
  8
DRAFT
100
AcDbLine
 62
7
  6
CONTINUOUS
 10
1.6710424031
 20
-19.6142855463
 11
2.7224463338
 21
-19.0585968718
  0
LINE
  5
405
100
AcDbEntity
  8
RACCORDO
100
AcDbLine
 62
250
  6
CONTINUOUS
 10
2.7678042181
 20
-18.3464477191
 11
18.7292664553
 21
-9.9383081233
  0
LINE
  5
406
100
AcDbEntity
  8
RACCORDO
100
AcDbLine
 62
250
  6
CONTINUOUS
 10
2.3234143852
 20
-19.3798602318
 11
18.3151159796
 21
-10.9557912223
  0
LINE
  5
407
100
AcDbEntity
  8
DRAFT
100
AcDbLine
 62
7
  6
CONTINUOUS
 10
1.6710424031
 20
-19.9713628406
 11
7.9723810877
 21
-16.6612067991
  0
LINE
  5
408
100
AcDbEntity
  8
0
100
AcDbLine
 62
7
  6
CONTINUOUS
 10
6.3952561448
 20
-17.8600059487
 11
1.6710424031
 21
-20.2282541295
  0
LINE
  5
409
100
AcDbEntity
  8
0
100
AcDbLine
 62
7
  6
CONTINUOUS
 10
7.2747637277
 20
-17.3025088603
 11
1.6710424031
 21
-20.0819959485
  0
LINE
  5
40A
100
AcDbEntity
  8
0
100
AcDbLine
 62
7
  6
CONTINUOUS
 10
9.8348564669
 20
19.129771608
 11
9.327538251
 21
19.0535389079
  0
LINE
  5
40B
100
AcDbEntity
  8
0
100
AcDbLine
 62
7
  6
CONTINUOUS
 10
10.0469885013
 20
19.4737055908
 11
9.5396702853
 21
19.3974728907
  0
LWPOLYLINE
  5
40C
100
AcDbEntity
  8
0
100
AcDbPolyline
 62
7
  6
CONTINUOUS
 90
41
 70
0
 10
-13.2448958679
 20
22.135534948
 10
-13.2390777588
 20
22.1344150631
 10
-13.2310444705
 20
22.133179778
 10
-13.2228835317
 20
22.1322740037
 10
-13.2146070443
 20
22.1316843582
 10
-13.2062289165
 20
22.1314114333
 10
-13.1977627612
 20
22.1314550419
 10
-13.1892197399
 20
22.1318004407
 10
-13.1806130628
 20
22.1324474086
 10
-13.1719556099
 20
22.1333951989
 10
-13.1632575327
 20
22.1346281558
 10
-13.154531254
 20
22.1361453651
 10
-13.1457888551
 20
22.1379455982
 10
-13.1370394702
 20
22.1400126678
 10
-13.1282946624
 20
22.1423450867
 10
-13.1195657006
 20
22.1449412081
 10
-13.110860802
 20
22.1477845949
 10
-13.1021906523
 20
22.150873292
 10
-13.0935656964
 20
22.1542052874
 10
-13.0849933577
 20
22.1577640823
 10
-13.0764834501
 20
22.1615473389
 10
-13.0680455949
 20
22.1655527265
 10
-13.0596865411
 20
22.1697637989
 10
-13.0514152482
 20
22.1741779019
 10
-13.0432405205
 20
22.1787924282
 10
-13.0351685303
 20
22.1835910491
 10
-13.0272074052
 20
22.188570844
 10
-13.0193651396
 20
22.1937289674
 10
-13.0116473951
 20
22.1990492483
 10
-13.0040614881
 20
22.2045285373
 10
-12.9966146096
 20
22.2101637876
 10
-12.9893119429
 20
22.2159390193
 10
-12.9821600133
 20
22.2218508816
 10
-12.9751652098
 20
22.2278961641
 10
-12.968332232
 20
22.234059127
 10
-12.961666828
 20
22.2403362422
 10
-12.9551745875
 20
22.2467241729
 10
-12.9488596982
 20
22.2532074868
 10
-12.9427268495
 20
22.2597786913
 10
-12.9367811456
 20
22.2664381801
 10
-12.9310270486
 20
22.2731823271
  0
LINE
  5
40D
100
AcDbEntity
  8
0
100
AcDbLine
 62
7
  6
CONTINUOUS
 10
-13.8690911503
 20
22.2658646891
 11
-13.2448955532
 21
22.1355320693
  0
LINE
  5
40E
100
AcDbEntity
  8
0
100
AcDbLine
 62
250
  6
CONTINUOUS
 10
-13.6422476567
 20
22.4216858499
 11
-12.9310270486
 21
22.2731823271
  0
LWPOLYLINE
  5
40F
100
AcDbEntity
  8
RACCORDO
100
AcDbPolyline
 62
250
  6
CONTINUOUS
 90
7
 70
0
 10
-2.6535686213
 20
22.2197461497
 10
-2.6639298682
 20
22.2239952533
 10
-2.677929583
 20
22.2271759274
 10
-2.6927919026
 20
22.2278871098
 10
-2.7083198379
 20
22.2261193811
 10
-2.7243075714
 20
22.221896178
 10
-2.7405431958
 20
22.215273483
  0
LWPOLYLINE
  5
410
100
AcDbEntity
  8
0
100
AcDbPolyline
 62
250
  6
CONTINUOUS
 90
15
 70
0
 10
-0.9679996737
 20
18.83391881
 10
-0.974694407
 20
18.8367518565
 10
-0.9816208832
 20
18.8390733554
 10
-0.9887635936
 20
18.8408780953
 10
-0.9961064111
 20
18.8421619886
 10
-1.0036326578
 20
18.8429221323
 10
-1.011325292
 20
18.8431568466
 10
-1.0191671046
 20
18.8428656469
 10
-1.0271406036
 20
18.8420491972
 10
-1.035229081
 20
18.8407090928
 10
-1.0434131523
 20
18.8388484314
 10
-1.0516708231
 20
18.8364725365
 10
-1.0599822438
 20
18.8335878659
 10
-1.0683298761
 20
18.8302012475
 10
-1.0766949563
 20
18.8263209256
  0
LWPOLYLINE
  5
411
100
AcDbEntity
  8
0
100
AcDbPolyline
 62
250
  6
CONTINUOUS
 90
15
 70
0
 10
-13.2716404499
 20
24.9857397201
 10
-13.278333758
 20
24.9885737962
 10
-13.2852587764
 20
24.9908964545
 10
-13.2923999339
 20
24.9927024724
 10
-13.2997411729
 20
24.9939877888
 10
-13.3072659861
 20
24.9947495136
 10
-13.3149574534
 20
24.994985934
 10
-13.3227982799
 20
24.9946965184
 10
-13.330770835
 20
24.9938819177
 10
-13.3388571917
 20
24.9925439634
 10
-13.3470391673
 20
24.9906856641
 10
-13.355298364
 20
24.9883111982
 10
-13.3636162104
 20
24.9854259051
 10
-13.3719740031
 20
24.9820362724
 10
-13.380352949
 20
24.978149922
  0
LWPOLYLINE
  5
412
100
AcDbEntity
  8
RACCORDO
100
AcDbPolyline
 62
7
  6
CONTINUOUS
 90
39
 70
0
 10
-2.6534318175
 20
22.2196775242
 10
-2.6938564344
 20
22.2381159286
 10
-2.7319447339
 20
22.2526097571
 10
-2.77067874
 20
22.2649615094
 10
-2.8099703923
 20
22.2754047459
 10
-2.8495878051
 20
22.284104641
 10
-2.8893486716
 20
22.291222557
 10
-2.9291946211
 20
22.2969164149
 10
-2.9690583737
 20
22.3013125321
 10
-3.0088129847
 20
22.3045106136
 10
-3.048276397
 20
22.3065978392
 10
-3.0873596476
 20
22.3076600847
 10
-3.1260495723
 20
22.3077746507
 10
-3.1642649253
 20
22.3070077279
 10
-3.2019652954
 20
22.3054197916
 10
-3.2391292695
 20
22.3030640927
 10
-3.2756952913
 20
22.2999922839
 10
-3.311629051
 20
22.2962515925
 10
-3.3469249964
 20
22.2918836783
 10
-3.3815613463
 20
22.2869283445
 10
-3.4154967374
 20
22.2814281999
 10
-3.4487448409
 20
22.2754146751
 10
-3.4813585517
 20
22.268909247
 10
-3.5133251243
 20
22.2619415118
 10
-3.5446287768
 20
22.2545428963
 10
-3.5753046449
 20
22.2467306969
 10
-3.6053535375
 20
22.2385298479
 10
-3.6347350432
 20
22.2299769592
 10
-3.6634075632
 20
22.2211125981
 10
-3.691273292
 20
22.2119999358
 10
-3.7183751054
 20
22.2026599137
 10
-3.7448457105
 20
22.1930794752
 10
-3.7704787375
 20
22.1833687266
 10
-3.7953466572
 20
22.173542989
 10
-3.8198896949
 20
22.163460657
 10
-3.8438392521
 20
22.1532680375
 10
-3.8669934861
 20
22.1431040405
 10
-3.8896559509
 20
22.1328968315
 10
-3.9112994002
 20
22.1229638384
  0
LINE
  5
413
100
AcDbEntity
  8
0
100
AcDbLine
 62
250
  6
CONTINUOUS
 10
-0.9659199968
 20
18.8329108168
 11
-0.9679996737
 21
18.83391881
  0
LWPOLYLINE
  5
414
100
AcDbEntity
  8
0
100
AcDbPolyline
 62
250
  6
CONTINUOUS
 90
16
 70
0
 10
0.7249595544
 20
17.9874710412
 10
0.7228970939
 20
17.9884709482
 10
0.7162037858
 20
17.9913050243
 10
0.7092787674
 20
17.9936276826
 10
0.7021376099
 20
17.9954337005
 10
0.6947963709
 20
17.9967190169
 10
0.6872715577
 20
17.9974807417
 10
0.6795800904
 20
17.9977171621
 10
0.6717392639
 20
17.9974277466
 10
0.6637667088
 20
17.9966131458
 10
0.6556803521
 20
17.9952751915
 10
0.6474983765
 20
17.9934168922
 10
0.6392391798
 20
17.9910424263
 10
0.6309213334
 20
17.9881571332
 10
0.6225635407
 20
17.9847675005
 10
0.6141845948
 20
17.9808811501
  0
LWPOLYLINE
  5
415
100
AcDbEntity
  8
0
100
AcDbPolyline
 62
250
  6
CONTINUOUS
 90
16
 70
0
 10
-11.5786984383
 20
24.1393000375
 10
-11.5807608987
 20
24.1402999445
 10
-11.5874542068
 20
24.1431340206
 10
-11.5943792253
 20
24.1454566789
 10
-11.6015203827
 20
24.1472626968
 10
-11.6088616217
 20
24.1485480132
 10
-11.6163864349
 20
24.149309738
 10
-11.6240779022
 20
24.1495461584
 10
-11.6319187287
 20
24.1492567429
 10
-11.6398912838
 20
24.1484421421
 10
-11.6479776406
 20
24.1471041878
 10
-11.6561596162
 20
24.1452458885
 10
-11.6644188129
 20
24.1428714227
 10
-11.6727366592
 20
24.1399861295
 10
-11.6810944519
 20
24.1365964968
 10
-11.6894733978
 20
24.1327101464
  0
LINE
  5
416
100
AcDbEntity
  8
0
100
AcDbLine
 62
250
  6
CONTINUOUS
 10
-13.2695779894
 20
24.9847398131
 11
-13.2716404499
 21
24.9857397201
  0
LINE
  5
417
100
AcDbEntity
  8
0
100
AcDbLine
 62
7
  6
CONTINUOUS
 10
-13.2695779894
 20
24.9847398131
 11
-11.5786984383
 21
24.1393000375
  0
LINE
  5
418
100
AcDbEntity
  8
0
100
AcDbLine
 62
7
  6
CONTINUOUS
 10
-0.9659199968
 20
18.8329108168
 11
0.7249595544
 21
17.9874710412
  0
LINE
  5
419
100
AcDbEntity
  8
RACCORDO
100
AcDbLine
 62
7
  6
CONTINUOUS
 10
-1.524476301
 20
20.9839480807
 11
-3.7325160349
 21
22.0879679477
  0
LINE
  5
41A
100
AcDbEntity
  8
RACCORDO
100
AcDbLine
 62
250
  6
CONTINUOUS
 10
-2.7405431958
 20
22.215273483
 11
-0.8967112962
 21
21.2933575332
  0
LINE
  5
41B
100
AcDbEntity
  8
RACCORDO
100
AcDbLine
 62
7
  6
CONTINUOUS
 10
-2.6535686213
 20
22.2197461497
 11
-0.848407158
 21
21.3171654181
  0
LINE
  5
41C
100
AcDbEntity
  8
0
100
AcDbLine
 62
7
  6
CONTINUOUS
 10
-2.6010913371
 20
22.7171938977
 11
-0.3209625366
 21
21.5771294975
  0
LWPOLYLINE
  5
41D
100
AcDbEntity
  8
0
100
AcDbPolyline
 62
7
  6
CONTINUOUS
 90
7
 70
0
 10
10.1307787264
 20
18.8359349575
 10
10.1168613059
 20
18.8542805746
 10
10.1025816809
 20
18.8724450894
 10
10.0879398513
 20
18.890428502
 10
10.0729358173
 20
18.9082308124
 10
10.0575695788
 20
18.9258520205
 10
10.0418411357
 20
18.9432921263
  0
LINE
  5
41E
100
AcDbEntity
  8
0
100
AcDbLine
 62
7
  6
CONTINUOUS
 10
9.2710562493
 20
17.2121692141
 11
7.9723810877
 21
19.4520525387
  0
LINE
  5
41F
100
AcDbEntity
  8
0
100
AcDbLine
 62
7
  6
CONTINUOUS
 10
9.0349613268
 20
20.2568613816
 11
9.2320186966
 21
19.8429475651
  0
LINE
  5
420
100
AcDbEntity
  8
0
100
AcDbLine
 62
7
  6
CONTINUOUS
 10
10.8651467312
 20
18.8926069159
 11
10.6680893613
 21
19.3065207324
  0
LWPOLYLINE
  5
421
100
AcDbEntity
  8
RACCORDO
100
AcDbPolyline
 62
250
  6
CONTINUOUS
 90
36
 70
0
 10
19.0099266549
 20
-2.502526399
 10
19.0138645569
 20
-2.5176825631
 10
19.0286815926
 20
-2.5815049501
 10
19.0423783789
 20
-2.6481616648
 10
19.0548118223
 20
-2.7181013145
 10
19.0658712444
 20
-2.7913499425
 10
19.075454767
 20
-2.8679045839
 10
19.0833968323
 20
-2.9481749075
 10
19.0895200028
 20
-3.0322216887
 10
19.0937183962
 20
-3.1199798847
 10
19.095896027
 20
-3.2116658729
 10
19.0957534471
 20
-3.3075810471
 10
19.0932226034
 20
-3.4073654057
 10
19.0885537949
 20
-3.5102199822
 10
19.0812768419
 20
-3.616004091
 10
19.0715126726
 20
-3.7247083613
 10
19.0603974209
 20
-3.8356867923
 10
19.046868544
 20
-3.9484152859
 10
19.0316008734
 20
-4.0631539138
 10
19.0181038421
 20
-4.1802996324
 10
19.0051943135
 20
-4.3018020839
 10
18.9930235561
 20
-4.4250224452
 10
18.9871142184
 20
-4.5433171935
 10
18.9902586713
 20
-4.6545340628
 10
18.9991910502
 20
-4.7598958856
 10
19.0109139292
 20
-4.8580176688
 10
19.026325571
 20
-4.9469274097
 10
19.0448427583
 20
-5.0281929617
 10
19.0614086317
 20
-5.1059375557
 10
19.075143789
 20
-5.1807866292
 10
19.086858302
 20
-5.2515902027
 10
19.093876234
 20
-5.319793125
 10
19.0957551554
 20
-5.3858478971
 10
19.0928867827
 20
-5.4488086738
 10
19.0840416828
 20
-5.5083065814
 10
19.069091995
 20
-5.5645445739
  0
LINE
  5
422
100
AcDbEntity
  8
RACCORDO
100
AcDbLine
 62
250
  6
CONTINUOUS
 10
19.069091995
 20
-5.5645445739
 11
19.048573834
 21
-5.6174285276
  0
LWPOLYLINE
  5
423
100
AcDbEntity
  8
RACCORDO
100
AcDbPolyline
 62
250
  6
CONTINUOUS
 90
3
 70
0
 10
18.4917229837
 20
-10.7808797191
 10
18.4376303365
 20
-10.8461527981
 10
18.3786770638
 20
-10.9045404609
  0
LINE
  5
424
100
AcDbEntity
  8
RACCORDO
100
AcDbLine
 62
250
  6
CONTINUOUS
 10
18.3786770638
 20
-10.9045404609
 11
18.3151159796
 21
-10.9557912223
  0
LWPOLYLINE
  5
425
100
AcDbEntity
  8
RACCORDO
100
AcDbPolyline
 62
7
  6
CONTINUOUS
 90
13
 70
0
 10
18.3907490213
 20
-10.9086352004
 10
18.4040777511
 20
-10.8988308143
 10
18.5015080118
 20
-10.8191746719
 10
18.5925477189
 20
-10.7298968763
 10
18.6761640389
 20
-10.6316195491
 10
18.7516515006
 20
-10.5248394424
 10
18.8186200307
 20
-10.4097079031
 10
18.8764645712
 20
-10.2866327684
 10
18.9245068573
 20
-10.1563231227
 10
18.9623450071
 20
-10.0190446282
 10
18.9895131038
 20
-9.8750465441
 10
19.0054801655
 20
-9.724875083
 10
19.0099199777
 20
-9.5910988573
  0
LINE
  5
426
100
AcDbEntity
  8
RACCORDO
100
AcDbLine
 62
250
  6
CONTINUOUS
 10
18.3151159796
 20
-10.9557912223
 11
18.1937538907
 21
-11.0437477738
  0
LINE
  5
427
100
AcDbEntity
  8
RACCORDO
100
AcDbLine
 62
7
  6
CONTINUOUS
 10
18.3907585557
 20
-10.9086482398
 11
18.2683214848
 21
-10.997385641
  0
LINE
  5
428
100
AcDbEntity
  8
RACCORDO
100
AcDbLine
 62
250
  6
CONTINUOUS
 10
18.2683214848
 20
-10.997385641
 11
18.2682241007
 21
-10.9974562052
  0
LINE
  5
429
100
AcDbEntity
  8
0
100
AcDbLine
 62
250
  6
CONTINUOUS
 10
0.730564627
 20
-24.4514548237
 11
0.7272702609
 21
-24.4532393719
  0
LINE
  5
42A
100
AcDbEntity
  8
0
100
AcDbLine
 62
250
  6
CONTINUOUS
 10
0.9701064493
 20
-22.9082455745
 11
1.6710424031
 21
-22.5465683818
  0
LINE
  5
42B
100
AcDbEntity
  8
0
100
AcDbLine
 62
7
  6
CONTINUOUS
 10
0.842296394
 20
-23.177589832
 11
1.5432270014
 21
-22.815915398
  0
LINE
  5
42C
100
AcDbEntity
  8
0
100
AcDbLine
 62
250
  6
CONTINUOUS
 10
0.2626911267
 20
-24.5896866203
 11
0.7909582985
 21
-24.3186755616
  0
LINE
  5
42D
100
AcDbEntity
  8
0
100
AcDbLine
 62
7
  6
CONTINUOUS
 10
0.198586027
 20
-24.7244643913
 11
0.7272702609
 21
-24.4532393719
  0
LWPOLYLINE
  5
42E
100
AcDbEntity
  8
0
100
AcDbPolyline
 62
7
  6
CONTINUOUS
 90
3
 70
0
 10
0.8419482998
 20
-23.1769161082
 10
0.8393188904
 20
-23.1782591569
 10
0.8279150328
 20
-23.1835011775
  0
LINE
  5
42F
100
AcDbEntity
  8
0
100
AcDbLine
 62
7
  6
CONTINUOUS
 10
0.198586025
 20
-24.7244643924
 11
0.196849614
 21
-24.7253326122
  0
LINE
  5
430
100
AcDbEntity
  8
0
100
AcDbLine
 62
250
  6
CONTINUOUS
 10
-1.3385896641
 20
-25.3697212199
 11
0.2626911267
 21
-24.5896866203
  0
LINE
  5
431
100
AcDbEntity
  8
0
100
AcDbLine
 62
7
  6
CONTINUOUS
 10
-1.4048512567
 20
-25.5055718461
 11
0.1968496132
 21
-24.7253326127
  0
LINE
  5
432
100
AcDbEntity
  8
0
100
AcDbLine
 62
250
  6
CONTINUOUS
 10
-3.6826316113
 20
-24.8602117823
 11
0.9691972129
 21
-22.9075629928
  0
LINE
  5
433
100
AcDbEntity
  8
0
100
AcDbLine
 62
7
  6
CONTINUOUS
 10
-3.8364388567
 20
-25.1414074807
 11
0.8279150328
 21
-23.1835011775
  0
LWPOLYLINE
  5
434
100
AcDbEntity
  8
RACCORDO
100
AcDbPolyline
 62
7
  6
CONTINUOUS
 90
4
 70
0
 10
-3.8676196704
 20
22.1233238251
 10
-3.8445312588
 20
22.1220660736
 10
-3.8196283369
 20
22.1182462002
 10
-3.7928789382
 20
22.1115663213
  0
LWPOLYLINE
  5
435
100
AcDbEntity
  8
0
100
AcDbPolyline
 62
7
  6
CONTINUOUS
 90
19
 70
0
 10
-3.0493790732
 20
22.8466034203
 10
-3.0213581568
 20
22.8426288396
 10
-2.9936263276
 20
22.838256979
 10
-2.9661835854
 20
22.8334878385
 10
-2.9390072486
 20
22.8283167283
 10
-2.9121199989
 20
22.8227483383
 10
-2.8855898809
 20
22.8167967378
 10
-2.8594177919
 20
22.8104609609
 10
-2.8336028346
 20
22.8037419735
 10
-2.8082103623
 20
22.7966567435
 10
-2.7832413512
 20
22.7892043114
 10
-2.7586948252
 20
22.7813856366
 10
-2.7346332092
 20
22.7732205649
 10
-2.7110580574
 20
22.7647083632
 10
-2.6879678157
 20
22.7558497646
 10
-2.6654202465
 20
22.7466668142
 10
-2.6434346042
 20
22.7371668604
 10
-2.6219916343
 20
22.7273425549
 10
-2.6010913371
 20
22.7171938977
  0
LWPOLYLINE
  5
436
100
AcDbEntity
  8
RACCORDO
100
AcDbPolyline
 62
7
  6
CONTINUOUS
 90
10
 70
0
 10
11.3218027629
 20
20.8692894208
 10
11.3162986584
 20
20.8702871823
 10
11.3099715518
 20
20.8704675246
 10
11.3028214432
 20
20.8698304475
 10
11.2947726781
 20
20.8683597939
 10
11.2859009109
 20
20.8660717209
 10
11.2764331055
 20
20.8630147007
 10
11.2664449165
 20
20.8592048906
 10
11.2558606893
 20
20.8546261333
 10
11.2446804239
 20
20.8492784288
  0
LWPOLYLINE
  5
437
100
AcDbEntity
  8
RACCORDO
100
AcDbPolyline
 62
7
  6
CONTINUOUS
 90
6
 70
0
 10
15.1620351782
 20
20.2442555628
 10
15.2092041802
 20
20.2355964
 10
15.3637205687
 20
20.1932372593
 10
15.5186897963
 20
20.1369608823
 10
15.6733929977
 20
20.0671189054
 10
15.811412707
 20
19.9925947702
  0
LINE
  5
438
100
AcDbEntity
  8
RACCORDO
100
AcDbLine
 62
7
  6
CONTINUOUS
 10
12.0566496858
 20
19.9822507171
 11
12.1553619775
 21
19.9550603937
  0
LINE
  5
439
100
AcDbEntity
  8
RACCORDO
100
AcDbLine
 62
7
  6
CONTINUOUS
 10
12.1553619775
 20
19.9550603937
 11
12.2581941767
 21
19.9261993568
  0
LINE
  5
43A
100
AcDbEntity
  8
RACCORDO
100
AcDbLine
 62
7
  6
CONTINUOUS
 10
12.2581941767
 20
19.9261993568
 11
12.4202985472
 21
19.8798067081
  0
LINE
  5
43B
100
AcDbEntity
  8
RACCORDO
100
AcDbLine
 62
7
  6
CONTINUOUS
 10
12.4202985472
 20
19.8798067081
 11
12.5337404432
 21
19.8468432598
  0
LWPOLYLINE
  5
43C
100
AcDbEntity
  8
RACCORDO
100
AcDbPolyline
 62
7
  6
CONTINUOUS
 90
3
 70
0
 10
-3.7928789382
 20
22.1115663213
 10
-3.7643462244
 20
22.1018146233
 10
-3.734109371
 20
22.0887646157
  0
LWPOLYLINE
  5
43D
100
AcDbEntity
  8
0
100
AcDbPolyline
 62
7
  6
CONTINUOUS
 90
19
 70
0
 10
-3.9251335962
 20
24.6814640853
 10
-3.9283284759
 20
24.6826343688
 10
-3.9319059128
 20
24.6832810521
 10
-3.9360546475
 20
24.6835499309
 10
-3.9407406833
 20
24.6834488725
 10
-3.9459331656
 20
24.6829852309
 10
-3.9516149021
 20
24.6821962821
 10
-3.9577510344
 20
24.6810934718
 10
-3.9643199122
 20
24.6796762637
 10
-3.9713374873
 20
24.6779654913
 10
-3.9787929462
 20
24.675970774
 10
-3.9866606852
 20
24.6736941594
 10
-3.9949473053
 20
24.6711476518
 10
-4.0036423724
 20
24.6683376206
 10
-4.0127263854
 20
24.6652692532
 10
-4.0221979015
 20
24.661954143
 10
-4.0320477981
 20
24.6584000826
 10
-4.042257268
 20
24.654610316
 10
-4.0528117593
 20
24.6505898512
  0
LWPOLYLINE
  5
43E
100
AcDbEntity
  8
0
100
AcDbPolyline
 62
7
  6
CONTINUOUS
 90
19
 70
0
 10
1.6653131012
 20
21.8862418091
 10
1.6624297417
 20
21.8873273038
 10
1.6589239504
 20
21.8880103365
 10
1.6548483415
 20
21.888316669
 10
1.6502363307
 20
21.8882539191
 10
1.6451186451
 20
21.8878297135
 10
1.6395136084
 20
21.8870812876
 10
1.6334561712
 20
21.8860196595
 10
1.626968005
 20
21.8846446223
 10
1.6200348104
 20
21.882977948
 10
1.6126685226
 20
21.8810292719
 10
1.6048942575
 20
21.8788002983
 10
1.59670471
 20
21.8763033724
 10
1.5881101285
 20
21.8735448452
 10
1.5791302371
 20
21.8705296724
 10
1.5697661314
 20
21.8672695171
 10
1.5600267475
 20
21.8637721228
 10
1.5499309294
 20
21.8600405505
 10
1.5394931401
 20
21.8560796916
  0
LWPOLYLINE
  5
43F
100
AcDbEntity
  8
0
100
AcDbPolyline
 62
7
  6
CONTINUOUS
 90
21
 70
0
 10
-0.4568212185
 20
24.4959393692
 10
-0.4668223518
 20
24.5007563643
 10
-0.4863890073
 20
24.509160624
 10
-0.5064864569
 20
24.516474033
 10
-0.5270990504
 20
24.5226949151
 10
-0.5481313928
 20
24.5277942369
 10
-0.5695714847
 20
24.5317647907
 10
-0.5914313256
 20
24.5346137843
 10
-0.6136515191
 20
24.5363338079
 10
-0.6362457862
 20
24.5369217362
 10
-0.6592004059
 20
24.5363806944
 10
-0.6824148198
 20
24.5347126481
 10
-0.705879418
 20
24.5319141568
 10
-0.7296038104
 20
24.5279886609
 10
-0.7535162678
 20
24.5229484473
 10
-0.7776253106
 20
24.5167881066
 10
-0.8019224184
 20
24.5095130482
 10
-0.8263103007
 20
24.5011517877
 10
-0.8507565275
 20
24.4917138301
 10
-0.8752935289
 20
24.4811896703
 10
-0.8999213049
 20
24.4695793083
  0
LINE
  5
440
100
AcDbEntity
  8
0
100
AcDbLine
 62
7
  6
CONTINUOUS
 10
-1.945412204
 20
23.3985868548
 11
0.6955127365
 21
22.0781243846
  0
LINE
  5
441
100
AcDbEntity
  8
0
100
AcDbLine
 62
7
  6
CONTINUOUS
 10
1.6703279913
 20
21.5907167572
 11
1.7375440314
 21
21.5571087371
  0
LINE
  5
442
100
AcDbEntity
  8
0
100
AcDbLine
 62
250
  6
CONTINUOUS
 10
1.5066745431
 20
21.8416062366
 11
0.8657887694
 21
22.1620491234
  0
LINE
  5
443
100
AcDbEntity
  8
0
100
AcDbLine
 62
250
  6
CONTINUOUS
 10
-4.0839586989
 20
24.6369228576
 11
-4.7248444726
 21
24.9573657445
  0
LINE
  5
444
100
AcDbEntity
  8
0
100
AcDbLine
 62
7
  6
CONTINUOUS
 10
1.6653130925
 20
21.8862417036
 11
1.1500634292
 21
22.1438665353
  0
LINE
  5
445
100
AcDbEntity
  8
0
100
AcDbLine
 62
7
  6
CONTINUOUS
 10
-3.9251335205
 20
24.6814650102
 11
-4.4403831839
 21
24.9390898418
  0
LINE
  5
446
100
AcDbEntity
  8
0
100
AcDbLine
 62
7
  6
CONTINUOUS
 10
2.7135595502
 20
22.0381620373
 11
-0.196928281
 21
23.4934059529
  0
LINE
  5
447
100
AcDbEntity
  8
DRAFT
100
AcDbLine
 62
7
  6
CONTINUOUS
 10
7.4150938275
 20
19.7306961688
 11
7.9723810877
 21
19.4520525387
  0
LINE
  5
448
100
AcDbEntity
  8
0
100
AcDbLine
 62
250
  6
CONTINUOUS
 10
-3.9524580676
 20
25.9958476896
 11
-0.8999213049
 21
24.4695793083
  0
LINE
  5
449
100
AcDbEntity
  8
0
100
AcDbLine
 62
250
  6
CONTINUOUS
 10
3.3427193822
 20
22.3482589647
 11
6.3952561448
 21
20.8219905834
  0
LINE
  5
44A
100
AcDbEntity
  8
0
100
AcDbLine
 62
7
  6
CONTINUOUS
 10
-3.6687304866
 20
26.1018933827
 11
-0.4568214667
 21
24.4959388727
  0
LINE
  5
44B
100
AcDbEntity
  8
0
100
AcDbLine
 62
7
  6
CONTINUOUS
 10
3.7858192204
 20
22.3746185292
 11
6.9977282403
 21
20.7686640192
  0
LINE
  5
44C
100
AcDbEntity
  8
0
100
AcDbLine
 62
7
  6
CONTINUOUS
 10
9.327538251
 20
19.0535389079
 11
8.9327612875
 21
19.3577554397
  0
LINE
  5
44D
100
AcDbEntity
  8
0
100
AcDbLine
 62
7
  6
CONTINUOUS
 10
9.9668656195
 20
18.9559088614
 11
10.3701719843
 21
18.6451195425
  0
LINE
  5
44E
100
AcDbEntity
  8
0
100
AcDbLine
 62
7
  6
CONTINUOUS
 10
9.5396702853
 20
19.3974728907
 11
9.4736230307
 21
19.4483691399
  0
LINE
  5
44F
100
AcDbEntity
  8
0
100
AcDbLine
 62
7
  6
CONTINUOUS
 10
9.9332424385
 20
20.1935594361
 11
9.5299360736
 21
20.504348755
  0
LINE
  5
450
100
AcDbEntity
  8
0
100
AcDbLine
 62
7
  6
CONTINUOUS
 10
9.8719795786
 20
19.1483331638
 11
10.0418411357
 21
18.9432921263
  0
LINE
  5
451
100
AcDbEntity
  8
0
100
AcDbLine
 62
7
  6
CONTINUOUS
 10
10.1307787264
 20
18.8359349575
 11
10.145298938
 21
18.8184075117
  0
LINE
  5
452
100
AcDbEntity
  8
0
100
AcDbLine
 62
7
  6
CONTINUOUS
 10
10.9824250462
 20
17.9060647198
 11
10.3701719843
 21
18.6451195425
  0
LINE
  5
453
100
AcDbEntity
  8
0
100
AcDbLine
 62
7
  6
CONTINUOUS
 10
9.0349613268
 20
20.2568613816
 11
8.422708265
 21
20.9959162043
  0
LINE
  5
454
100
AcDbEntity
  8
DRAFT
100
AcDbLine
 62
7
  6
CONTINUOUS
 10
8.4984564106
 20
21.7213974757
 11
8.4612066032
 21
21.7663619708
  0
LINE
  5
455
100
AcDbEntity
  8
0
100
AcDbLine
 62
7
  6
CONTINUOUS
 10
11.477399793
 20
18.1535520932
 11
10.8651467312
 21
18.8926069159
  0
LINE
  5
456
100
AcDbEntity
  8
0
100
AcDbLine
 62
7
  6
CONTINUOUS
 10
9.5299360736
 20
20.504348755
 11
8.9176830118
 21
21.2434035777
  0
LINE
  5
457
100
AcDbEntity
  8
0
100
AcDbLine
 62
7
  6
CONTINUOUS
 10
10.6122023489
 20
19.2159099822
 11
10.2956418746
 21
19.5980322775
  0
LINE
  5
458
100
AcDbEntity
  8
0
100
AcDbLine
 62
7
  6
CONTINUOUS
 10
9.6005942886
 20
21.9349964959
 11
9.619609059
 21
21.9120436375
  0
LINE
  5
459
100
AcDbEntity
  8
RACCORDO
100
AcDbLine
 62
250
  6
CONTINUOUS
 10
12.6189026085
 20
19.7029659848
 11
12.5337404432
 21
19.8468432598
  0
LWPOLYLINE
  5
45A
100
AcDbEntity
  8
RACCORDO
100
AcDbPolyline
 62
7
  6
CONTINUOUS
 90
3
 70
0
 10
12.6986712525
 20
19.5678383992
 10
12.6254140522
 20
19.7032540303
 10
12.5444143496
 20
19.8392646761
  0
LWPOLYLINE
  5
45B
100
AcDbEntity
  8
RACCORDO
100
AcDbPolyline
 62
250
  6
CONTINUOUS
 90
31
 70
0
 10
12.0566496858
 20
19.9822507171
 10
12.0767828814
 20
19.9438763183
 10
12.0966656996
 20
19.9043488425
 10
12.1162298094
 20
19.8636722147
 10
12.1353496929
 20
19.8219749757
 10
12.1540124333
 20
19.7791434861
 10
12.1722907837
 20
19.7348190051
 10
12.1900812234
 20
19.6890126904
 10
12.2072761351
 20
19.6417394404
 10
12.2238845007
 20
19.5926475321
 10
12.2397614471
 20
19.5417591951
 10
12.2547554836
 20
19.4891041071
 10
12.2687984437
 20
19.4343497685
 10
12.2816936972
 20
19.3775410641
 10
12.2932364498
 20
19.3187316173
 10
12.3032678472
 20
19.2576196825
 10
12.311528825
 20
19.1942872751
 10
12.3177505137
 20
19.1288278638
 10
12.3216682142
 20
19.0609882403
 10
12.3229502229
 20
18.9908647639
 10
12.3212503882
 20
18.9186575734
 10
12.3161947251
 20
18.8443155401
 10
12.3073802168
 20
18.7679893039
 10
12.2944073416
 20
18.6899927654
 10
12.2768598438
 20
18.6105724094
 10
12.2542919907
 20
18.5299469826
 10
12.2263046928
 20
18.4485595806
 10
12.1925890966
 20
18.367026659
 10
12.1526678446
 20
18.2855282762
 10
12.1062762045
 20
18.2047229271
 10
12.0892159115
 20
18.1791591256
  0
LWPOLYLINE
  5
45C
100
AcDbEntity
  8
RACCORDO
100
AcDbPolyline
 62
250
  6
CONTINUOUS
 90
34
 70
0
 10
11.9795562427
 20
19.962254173
 10
11.9982622608
 20
19.9257636201
 10
12.0166005996
 20
19.8881535976
 10
12.0345712591
 20
19.8494241054
 10
12.0522153388
 20
19.809676879
 10
12.0694917392
 20
19.768810183
 10
12.086277162
 20
19.7265188112
 10
12.1026141423
 20
19.6827931707
 10
12.118460145
 20
19.6376428543
 10
12.133564267
 20
19.5907914345
 10
12.1479798673
 20
19.5422202583
 10
12.1616535869
 20
19.4919479787
 10
12.1741744459
 20
19.4397541269
 10
12.1856058685
 20
19.3856090286
 10
12.1958844306
 20
19.3295423582
 10
12.20440888
 20
19.2714226705
 10
12.2112532718
 20
19.2112030203
 10
12.216343551
 20
19.1489303528
 10
12.2188562998
 20
19.0846140578
 10
12.218860599
 20
19.0181325957
 10
12.216287368
 20
18.9496075062
 10
12.2101059466
 20
18.8794127978
 10
12.2003475823
 20
18.8074184945
 10
12.1869810278
 20
18.7337545725
 10
12.1688818808
 20
18.659184969
 10
12.1459858255
 20
18.5835244072
 10
12.1183571778
 20
18.5069581639
 10
12.0850644831
 20
18.4308060067
 10
12.0458336916
 20
18.3548727431
 10
12.000938853
 20
18.2793535656
 10
11.9502706614
 20
18.2061538183
 10
11.8935109426
 20
18.1353630996
 10
11.8309778708
 20
18.0668918111
 10
11.8021057771
 20
18.0392805055
  0
LWPOLYLINE
  5
45D
100
AcDbEntity
  8
RACCORDO
100
AcDbPolyline
 62
250
  6
CONTINUOUS
 90
3
 70
0
 10
12.7068743066
 20
19.5361380996
 10
12.6967089669
 20
19.5573934495
 10
12.6189026085
 20
19.7029659848
  0
LINE
  5
45E
100
AcDbEntity
  8
0
100
AcDbLine
 62
7
  6
CONTINUOUS
 10
-0.196928281
 20
23.4934059529
 11
-1.945412204
 21
23.3985868548
  0
LINE
  5
45F
100
AcDbEntity
  8
RACCORDO
100
AcDbLine
 62
7
  6
CONTINUOUS
 10
11.4207050882
 20
20.8420459081
 11
11.3218027629
 21
20.8692894208
  0
LWPOLYLINE
  5
460
100
AcDbEntity
  8
RACCORDO
100
AcDbPolyline
 62
250
  6
CONTINUOUS
 90
6
 70
0
 10
15.1934082768
 20
20.2063848827
 10
15.2670698936
 20
20.185933307
 10
15.4166046006
 20
20.130922155
 10
15.5668941547
 20
20.0622815175
 10
15.7171850401
 20
19.9803567687
 10
15.7472148998
 20
19.96131792
  0
LINE
  5
461
100
AcDbEntity
  8
RACCORDO
100
AcDbLine
 62
7
  6
CONTINUOUS
 10
11.523621364
 20
20.8131605512
 11
11.4207050882
 21
20.8420459081
  0
LINE
  5
462
100
AcDbEntity
  8
RACCORDO
100
AcDbLine
 62
7
  6
CONTINUOUS
 10
11.6856470101
 20
20.7667891243
 11
11.523621364
 21
20.8131605512
  0
LINE
  5
463
100
AcDbEntity
  8
RACCORDO
100
AcDbLine
 62
7
  6
CONTINUOUS
 10
11.7988935203
 20
20.7338819635
 11
11.6856470101
 21
20.7667891243
  0
LWPOLYLINE
  5
464
100
AcDbEntity
  8
RACCORDO
100
AcDbPolyline
 62
7
  6
CONTINUOUS
 90
5
 70
0
 10
12.5337404432
 20
19.8468432598
 10
12.5380427698
 20
19.8451190257
 10
12.5415227632
 20
19.8427143475
 10
12.5441804234
 20
19.8396292254
 10
12.5444130279
 20
19.8392636054
  0
LWPOLYLINE
  5
465
100
AcDbEntity
  8
RACCORDO
100
AcDbPolyline
 62
7
  6
CONTINUOUS
 90
3
 70
0
 10
11.8069384745
 20
20.7295128313
 10
11.803195847
 20
20.7321577294
 10
11.7988935203
 20
20.7338819635
  0
LWPOLYLINE
  5
466
100
AcDbEntity
  8
RACCORDO
100
AcDbPolyline
 62
250
  6
CONTINUOUS
 90
16
 70
0
 10
11.7988935203
 20
20.7338819635
 10
11.6656061427
 20
20.8536966169
 10
11.5272857679
 20
20.9690121317
 10
11.3842694273
 20
21.0795475314
 10
11.2369055333
 20
21.1850335285
 10
11.0855532105
 20
21.2852130509
 10
10.9305814351
 20
21.37984189
 10
10.7723680642
 20
21.468689366
 10
10.611298377
 20
21.5515391646
 10
10.4477642969
 20
21.6281896827
 10
10.2821641817
 20
21.6984541537
 10
10.1149016102
 20
21.7621612878
 10
9.9463838484
 20
21.8191559035
 10
9.7770209176
 20
21.8692992116
 10
9.6072260652
 20
21.9124687468
 10
9.4872189386
 20
21.9379739742
  0
LWPOLYLINE
  5
467
100
AcDbEntity
  8
RACCORDO
100
AcDbPolyline
 62
7
  6
CONTINUOUS
 90
17
 70
0
 10
11.806932922
 20
20.7295081367
 10
11.6831322051
 20
20.8412773063
 10
11.5488162833
 20
20.9541935308
 10
11.4100840067
 20
21.0625818584
 10
11.2672380884
 20
21.1662113919
 10
11.1205890115
 20
21.2648603773
 10
10.9704548058
 20
21.3583164013
 10
10.8171465513
 20
21.4463845243
 10
10.6610080002
 20
21.5288642146
 10
10.5024173104
 20
21.6055546523
 10
10.3417346754
 20
21.676282747
 10
10.1792893108
 20
21.7409029347
 10
10.0154190468
 20
21.799276641
 10
9.8504516644
 20
21.8512790631
 10
9.684764248
 20
21.8967816043
 10
9.5187695683
 20
21.9356644064
 10
9.5043015016
 20
21.9384696003
  0
LWPOLYLINE
  5
468
100
AcDbEntity
  8
0
100
AcDbPolyline
 62
7
  6
CONTINUOUS
 90
8
 70
0
 10
11.7405004148
 20
20.581807832
 10
11.8353267984
 20
20.4903752972
 10
11.9269379292
 20
20.3970656568
 10
12.0153338073
 20
20.3018789109
 10
12.1006196708
 20
20.2046880256
 10
12.1826902817
 20
20.1056200347
 10
12.2612299252
 20
20.0050560394
 10
12.3353248029
 20
19.9042234097
  0
LINE
  5
469
100
AcDbEntity
  8
DRAFT
100
AcDbLine
 62
7
  6
CONTINUOUS
 10
12.2087472668
 20
23.8091894274
 11
15.4972967485
 21
19.8395590478
  0
LINE
  5
46A
100
AcDbEntity
  8
0
100
AcDbLine
 62
7
  6
CONTINUOUS
 10
16.5115110188
 20
20.1500086676
 11
16.9169934227
 21
19.6605481083
  0
LINE
  5
46B
100
AcDbEntity
  8
RACCORDO
100
AcDbLine
 62
250
  6
CONTINUOUS
 10
17.2736201473
 20
19.8376948227
 11
18.3675878196
 21
18.5171590271
  0
LINE
  5
46C
100
AcDbEntity
  8
RACCORDO
100
AcDbLine
 62
7
  6
CONTINUOUS
 10
12.2645084606
 20
23.8995961854
 11
12.2970146769
 21
23.8907693285
  0
LINE
  5
46D
100
AcDbEntity
  8
RACCORDO
100
AcDbLine
 62
250
  6
CONTINUOUS
 10
12.244742117
 20
23.8675486103
 11
12.2770072884
 21
23.8571829915
  0
LWPOLYLINE
  5
46E
100
AcDbEntity
  8
RACCORDO
100
AcDbPolyline
 62
7
  6
CONTINUOUS
 90
21
 70
0
 10
12.2970146769
 20
23.8907693285
 10
12.4521366581
 20
23.8348601217
 10
12.6079546648
 20
23.7648823053
 10
12.7643128148
 20
23.6806691613
 10
12.920057477
 20
23.5825762074
 10
13.0730305575
 20
23.4719365958
 10
13.2222117414
 20
23.3496951766
 10
13.3673560604
 20
23.2162328008
 10
13.5075012366
 20
23.0725842644
 10
13.6420002445
 20
22.9196013716
 10
13.7703241717
 20
22.7580541734
 10
13.8917249986
 20
22.5890628017
 10
14.0055661709
 20
22.4137448366
 10
14.111521851
 20
22.2328210611
 10
14.2093226483
 20
22.0468732389
 10
14.2985238544
 20
21.8567917104
 10
14.3786928288
 20
21.6635177656
 10
14.449540363
 20
21.4676842394
 10
14.5106969
 20
21.2701136553
 10
14.5617552155
 20
21.0718411628
 10
14.5898333858
 20
20.9349642265
  0
LWPOLYLINE
  5
46F
100
AcDbEntity
  8
RACCORDO
100
AcDbPolyline
 62
250
  6
CONTINUOUS
 90
20
 70
0
 10
12.2770072884
 20
23.8571829915
 10
12.427101783
 20
23.7955285825
 10
12.5775635745
 20
23.7203987732
 10
12.7275871486
 20
23.6322067999
 10
12.8764146994
 20
23.531409193
 10
13.0233167347
 20
23.4185021748
 10
13.1675227045
 20
23.2940748982
 10
13.3082874951
 20
23.1587671157
 10
13.4449339428
 20
23.0132166848
 10
13.5767796758
 20
22.8581215571
 10
13.70308958
 20
22.6943165972
 10
13.8231451723
 20
22.5227193012
 10
13.9363276073
 20
22.3442076443
 10
14.0420323524
 20
22.1597277828
 10
14.13963956
 20
21.9703758693
 10
14.2286206024
 20
21.7772269699
 10
14.3085691105
 20
21.5812182661
 10
14.3791198626
 20
21.3832724183
 10
14.4399182817
 20
21.184385569
 10
14.4651638842
 20
21.0854536274
  0
LWPOLYLINE
  5
470
100
AcDbEntity
  8
RACCORDO
100
AcDbPolyline
 62
250
  6
CONTINUOUS
 90
9
 70
0
 10
4.5644118226
 20
29.0909638207
 10
4.5031933085
 20
29.1186680459
 10
4.4423466645
 20
29.1395266912
 10
4.3823348217
 20
29.1533810607
 10
4.3236143598
 20
29.1601257481
 10
4.2666320334
 20
29.1597094389
 10
4.2118213732
 20
29.1521353003
 10
4.1595993876
 20
29.1374609576
 10
4.1255270722
 20
29.1233667557
  0
LINE
  5
471
100
AcDbEntity
  8
RACCORDO
100
AcDbLine
 62
250
  6
CONTINUOUS
 10
4.9991808018
 20
29.1133790809
 11
4.9992847032
 21
29.1133271504
  0
LINE
  5
472
100
AcDbEntity
  8
0
100
AcDbLine
 62
7
  6
CONTINUOUS
 10
12.4235001285
 20
24.8033476469
 11
11.7502332008
 21
25.1399811108
  0
LINE
  5
473
100
AcDbEntity
  8
RACCORDO
100
AcDbLine
 62
250
  6
CONTINUOUS
 10
12.1124399403
 20
25.3169497619
 11
4.5644118226
 21
29.0909638207
  0
LINE
  5
474
100
AcDbEntity
  8
RACCORDO
100
AcDbLine
 62
7
  6
CONTINUOUS
 10
12.4553544746
 20
25.3852922647
 11
4.9992847032
 21
29.1133271504
  0
LWPOLYLINE
  5
475
100
AcDbEntity
  8
RACCORDO
100
AcDbPolyline
 62
250
  6
CONTINUOUS
 90
11
 70
0
 10
18.7800028073
 20
18.5798405173
 10
18.7606507013
 20
18.5967640216
 10
18.7362961719
 20
18.6079438033
 10
18.7064543792
 20
18.614091958
 10
18.6713507592
 20
18.6151620402
 10
18.6312504975
 20
18.6111459661
 10
18.5864565264
 20
18.6020740746
 10
18.537307236
 20
18.5880148981
 10
18.4841739182
 20
18.5690746448
 10
18.4274579616
 20
18.5453963964
 10
18.3675878196
 20
18.5171590271
  0
LINE
  5
476
100
AcDbEntity
  8
RACCORDO
100
AcDbLine
 62
7
  6
CONTINUOUS
 10
17.686035135
 20
19.9003763129
 11
18.7800028073
 21
18.5798405173
  0
ARC
  5
477
100
AcDbEntity
  8
RACCORDO
100
AcDbCircle
 62
7
  6
CONTINUOUS
 10
18.0099266549
 20
17.9418885445
 40
1.0
100
AcDbArc
 50
359.9970924022
 51
39.6392722378
  0
ARC
  5
478
100
AcDbEntity
  8
RACCORDO
100
AcDbCircle
 62
7
  6
CONTINUOUS
 10
17.6814893282
 20
-10.1876770391
 40
1.0
100
AcDbArc
 50
297.8650714973
 51
305.9256386936
  0
ARC
  5
479
100
AcDbEntity
  8
RACCORDO
100
AcDbCircle
 62
7
  6
CONTINUOUS
 10
4.5520711077
 20
28.2188999594
 40
1.0
100
AcDbArc
 50
63.4416040875
 51
115.2616240239
  0
ARC
  5
47A
100
AcDbEntity
  8
0
100
AcDbCircle
 62
7
  6
CONTINUOUS
 10
0.6131561555
 20
-23.8832714127
 40
0.25
100
AcDbArc
 50
0.0061558906
 51
63.4349488229
  0
ARC
  5
47B
100
AcDbEntity
  8
0
100
AcDbCircle
 62
7
  6
CONTINUOUS
 10
0.6131561555
 20
17.4163327267
 40
0.25
100
AcDbArc
 50
320.5925343592
 51
359.9994385633
  0
ARC
  5
47C
100
AcDbEntity
  8
0
100
AcDbCircle
 62
7
  6
CONTINUOUS
 10
-1.5143349285
 20
16.3587579251
 40
0.25
100
AcDbArc
 50
243.4351426688
 51
258.2058954458
  0
ARC
  5
47D
100
AcDbEntity
  8
0
100
AcDbCircle
 62
7
  6
CONTINUOUS
 10
-3.1928729989
 20
17.1980269603
 40
0.25
100
AcDbArc
 50
179.991316884
 51
243.45246235
  0
ARC
  5
47E
100
AcDbEntity
  8
0
100
AcDbCircle
 62
7
  6
CONTINUOUS
 10
-11.6905018372
 20
23.568161723
 40
0.25
100
AcDbArc
 50
320.5925343592
 51
359.9994385633
  0
ARC
  5
47F
100
AcDbEntity
  8
0
100
AcDbCircle
 62
7
  6
CONTINUOUS
 10
-13.8179929211
 20
22.5105869214
 40
0.25
100
AcDbArc
 50
243.4327454176
 51
258.2060367178
  0
ARC
  5
480
100
AcDbEntity
  8
0
100
AcDbCircle
 62
7
  6
CONTINUOUS
 10
-15.4965309915
 20
23.3498559566
 40
0.25
100
AcDbArc
 50
180.0061558906
 51
243.4349488229
  0
ARC
  5
481
100
AcDbEntity
  8
0
100
AcDbCircle
 62
7
  6
CONTINUOUS
 10
-15.4965309915
 20
23.6898298907
 40
0.25
100
AcDbArc
 50
117.1586821941
 51
180.004075699
  0
ARC
  5
482
100
AcDbEntity
  8
0
100
AcDbCircle
 62
7
  6
CONTINUOUS
 10
-1.0777233957
 20
18.609304019
 40
0.25
100
AcDbArc
 50
63.4345818082
 51
115.9721801256
  0
ARC
  5
483
100
AcDbEntity
  8
0
100
AcDbCircle
 62
7
  6
CONTINUOUS
 10
-3.1928729989
 20
17.5380008944
 40
0.25
100
AcDbArc
 50
117.1586821941
 51
180.004075699
  0
ARC
  5
484
100
AcDbEntity
  8
0
100
AcDbCircle
 62
7
  6
CONTINUOUS
 10
0.6131561555
 20
17.7638642434
 40
0.25
100
AcDbArc
 50
359.9948467639
 51
63.4349488229
  0
ARC
  5
485
100
AcDbEntity
  8
0
100
AcDbCircle
 62
7
  6
CONTINUOUS
 10
0.6131561555
 20
-24.2308029294
 40
0.25
100
AcDbArc
 50
297.1506634065
 51
359.9992646749
  0
ARC
  5
486
100
AcDbEntity
  8
0
100
AcDbCircle
 62
7
  6
CONTINUOUS
 10
-13.3813813883
 20
24.7611330153
 40
0.25
100
AcDbArc
 50
63.4349488229
 51
115.9729201
  0
ARC
  5
487
100
AcDbEntity
  8
0
100
AcDbCircle
 62
7
  6
CONTINUOUS
 10
-11.6905018372
 20
23.9156932398
 40
0.25
100
AcDbArc
 50
359.9948467639
 51
63.4349488229
  0
ARC
  5
488
100
AcDbEntity
  8
0
100
AcDbCircle
 62
7
  6
CONTINUOUS
 10
-1.5143349285
 20
-25.2808201484
 40
0.25
100
AcDbArc
 50
243.4349488229
 51
295.9729201
  0
ARC
  5
489
100
AcDbEntity
  8
0
100
AcDbCircle
 62
7
  6
CONTINUOUS
 10
-6.2780465992
 20
20.0795600764
 40
0.2
100
AcDbArc
 50
116.8835591171
 51
180.0
  0
ELLIPSE
  5
48A
100
AcDbEntity
  8
0
100
AcDbEllipse
 62
7
  6
CONTINUOUS
 10
8.4679965796
 20
17.1718442557
 30
0.0
 11
1.5665774194
 21
1.7779781672
 31
0.0
 40
0.4593369217
 41
-0.1359031814
 42
-0.0089756569
  0
ELLIPSE
  5
48B
100
AcDbEntity
  8
0
100
AcDbEllipse
 62
7
  6
CONTINUOUS
 10
-4.7269133179
 20
24.5233379145
 30
0.0
 11
0.2257019663
 21
0.4461636818
 31
0.0
 40
0.6159267166
 41
0.5882567743
 42
0.6817883054
  0
ELLIPSE
  5
48C
100
AcDbEntity
  8
0
100
AcDbEllipse
 62
7
  6
CONTINUOUS
 10
-7.0558640585
 20
21.3841807497
 30
0.0
 11
-0.0894407211
 21
0.1788887077
 31
0.0
 40
0.6123703628
 41
-2.2554972904
 42
-0.6847009636
  0
ELLIPSE
  5
48D
100
AcDbEntity
  8
0
100
AcDbEllipse
 62
7
  6
CONTINUOUS
 10
-5.3588077837
 20
20.5356526123
 30
0.0
 11
-0.0894407211
 21
0.1788887077
 31
0.0
 40
0.6123703628
 41
-0.6847009636
 42
-0.0034907027
  0
ELLIPSE
  5
48E
100
AcDbEntity
  8
0
100
AcDbEllipse
 62
7
  6
CONTINUOUS
 10
-4.6636666396
 20
25.4813274704
 30
0.0
 11
0.9987332359
 21
0.6172510855
 31
0.0
 40
0.0815198604
 41
0.0503394781
 42
0.729240919
  0
ELLIPSE
  5
48F
100
AcDbEntity
  8
0
100
AcDbEllipse
 62
7
  6
CONTINUOUS
 10
7.0982372023
 20
-17.3495994868
 30
0.0
 11
0.9987332359
 21
0.6172510855
 31
0.0
 40
0.0815198604
 41
-2.4007162062
 42
-1.3024530976
  0
ELLIPSE
  5
490
100
AcDbEntity
  8
0
100
AcDbEllipse
 62
7
  6
CONTINUOUS
 10
1.3174755497
 20
-22.3697629713
 30
0.0
 11
-0.2236315662
 21
0.4472293059
 31
0.0
 40
0.6123445654
 41
-3.1338271445
 42
-2.2555748796
  0
ELLIPSE
  5
491
100
AcDbEntity
  8
0
100
AcDbEllipse
 62
7
  6
CONTINUOUS
 10
1.3174755497
 20
15.5520582816
 30
0.0
 11
-0.223611546
 21
0.4472115081
 31
0.0
 40
0.6124054886
 41
-2.2555017776
 42
-0.6847562194
  0
ELLIPSE
  5
492
100
AcDbEntity
  8
0
100
AcDbEllipse
 62
7
  6
CONTINUOUS
 10
-6.2780465992
 20
18.8550230184
 30
0.0
 11
0.199943508
 21
0.008945986
 31
0.0
 40
0.5313301283
 41
3.1178240563
 42
3.9032222197
  0
ELLIPSE
  5
493
100
AcDbEntity
  8
0
100
AcDbEllipse
 62
7
  6
CONTINUOUS
 10
-7.9751028741
 20
19.7035511558
 30
0.0
 11
0.199943508
 21
0.008945986
 31
0.0
 40
0.5313301283
 41
-2.3799630874
 42
-0.8091667606
  0
ELLIPSE
  5
494
100
AcDbEntity
  8
0
100
AcDbEllipse
 62
7
  6
CONTINUOUS
 10
7.0982372023
 20
19.6003755495
 30
0.0
 11
-0.7417913999
 21
1.2002436976
 31
0.0
 40
0.5587454355
 41
5.1287649542
 42
6.2270280628
  0
ELLIPSE
  5
495
100
AcDbEntity
  8
0
100
AcDbEllipse
 62
7
  6
CONTINUOUS
 10
50.6075835605
 20
45.9810741043
 30
0.0
 11
60.4168605605
 21
30.5632322457
 31
0.0
 40
0.005706723
 41
2.5167363259
 42
2.6876789752
  0
ELLIPSE
  5
496
100
AcDbEntity
  8
0
100
AcDbEllipse
 62
7
  6
CONTINUOUS
 10
1.504629631
 20
21.40756644
 30
0.0
 11
0.221538876
 21
0.4482453432
 31
0.0
 40
0.6088015717
 41
0.5825560023
 42
0.6760875334
  0
ELLIPSE
  5
497
100
AcDbEntity
  8
0
100
AcDbEllipse
 62
7
  6
CONTINUOUS
 10
50.6075835605
 20
45.9810741043
 30
0.0
 11
60.4168605605
 21
30.5632322457
 31
0.0
 40
0.005706723
 41
-2.6934527084
 42
-2.5225100591
  0
ELLIPSE
  5
498
100
AcDbEntity
  8
0
100
AcDbEllipse
 62
7
  6
CONTINUOUS
 10
-0.8031143204
 20
15.402688292
 30
0.0
 11
0.249929385
 21
0.0111824824
 31
0.0
 40
0.5313301283
 41
-2.3799630874
 42
-0.8149845248
  0
ELLIPSE
  5
499
100
AcDbEntity
  8
0
100
AcDbEllipse
 62
7
  6
CONTINUOUS
 10
6.9150938275
 20
-17.5617910197
 30
0.0
 11
0.499366618
 21
0.3086255427
 31
0.0
 40
0.0815198604
 41
6.11376698
 42
7.0007906979
  0
ELLIPSE
  5
49A
100
AcDbEntity
  8
0
100
AcDbEllipse
 62
7
  6
CONTINUOUS
 10
6.9150938275
 20
20.7028172384
 30
0.0
 11
-0.3708957
 21
0.6001218488
 31
0.0
 40
0.5587454355
 41
-3.1744788413
 42
-2.2874551234
  0
ELLIPSE
  5
49B
100
AcDbEntity
  8
0
100
AcDbEllipse
 62
7
  6
CONTINUOUS
 10
-2.4898800446
 20
16.2460711542
 30
0.0
 11
0.249929385
 21
0.0111824824
 31
0.0
 40
0.5313301283
 41
3.1178240551
 42
3.9032222197
  0
ELLIPSE
  5
49C
100
AcDbEntity
  8
0
100
AcDbEllipse
 62
7
  6
CONTINUOUS
 10
-14.7935380372
 20
22.3979001505
 30
0.0
 11
0.249929385
 21
0.0111824824
 31
0.0
 40
0.5313301283
 41
3.1178240551
 42
3.9032222197
  0
ELLIPSE
  5
49D
100
AcDbEntity
  8
0
100
AcDbEllipse
 62
7
  6
CONTINUOUS
 10
-13.106772313
 20
21.5545172884
 30
0.0
 11
0.249929385
 21
0.0111824824
 31
0.0
 40
0.5313301283
 41
-2.3799630874
 42
-0.8149845248
  0
ELLIPSE
  5
49E
100
AcDbEntity
  8
0
100
AcDbEllipse
 62
7
  6
CONTINUOUS
 10
8.2707777382
 20
16.4875315773
 30
0.0
 11
-0.894612936
 21
1.7887945813
 31
0.0
 40
0.6124635976
 41
-2.2555607096
 42
-1.470288718
  0
ELLIPSE
  5
49F
100
AcDbEntity
  8
0
100
AcDbEllipse
 62
7
  6
CONTINUOUS
 10
10.229376226
 20
20.5121444226
 30
0.0
 11
2.8072689689
 21
-1.7452486865
 31
0.0
 40
0.735634705
 41
-2.2904063004
 42
-2.0844734703
  0
ELLIPSE
  5
4A0
100
AcDbEntity
  8
DRAFT
100
AcDbEllipse
 62
7
  6
CONTINUOUS
 10
9.6946009432
 20
19.6362987952
 30
0.0
 11
2.335460794
 21
-1.4519527261
 31
0.0
 40
0.7356319767
 41
2.7236315065
 42
3.0534417194
  0
ELLIPSE
  5
4A1
100
AcDbEntity
  8
DRAFT
100
AcDbEllipse
 62
7
  6
CONTINUOUS
 10
10.1876216223
 20
19.6823946941
 30
0.0
 11
2.3425905227
 21
-1.4563852685
 31
0.0
 40
0.7356319767
 41
0.1225540232
 42
2.7149048602
  0
ELLIPSE
  5
4A2
100
AcDbEntity
  8
RACCORDO
100
AcDbEllipse
 62
7
  6
CONTINUOUS
 10
11.6919131131
 20
24.6489789567
 30
0.0
 11
0.7906817197
 21
0.7158929559
 31
0.0
 40
0.2845239558
 41
5.5074570422
 42
7.0608000765
  0
ELLIPSE
  5
4A3
100
AcDbEntity
  8
RACCORDO
100
AcDbEllipse
 62
7
  6
CONTINUOUS
 10
1.3231358741
 20
12.9528994135
 30
0.0
 11
-0.894612936
 21
1.7887945813
 31
0.0
 40
0.6124635976
 41
-1.6289919397
 42
-1.470288718
  0
ELLIPSE
  5
4A4
100
AcDbEntity
  8
RACCORDO
100
AcDbEllipse
 62
7
  6
CONTINUOUS
 10
1.3231358741
 20
-17.654944084
 30
0.0
 11
-0.894811907
 21
1.788971565
 31
0.0
 40
0.6123121697
 41
-3.0410143285
 42
-2.8823111069
  0
ELLIPSE
  5
4A5
100
AcDbEntity
  8
0
100
AcDbEllipse
 62
7
  6
CONTINUOUS
 10
10.229376226
 20
20.5121444226
 30
0.0
 11
2.8072689689
 21
-1.7452486865
 31
0.0
 40
0.735634705
 41
-3.0539180183
 42
-2.4818798268
  0
ELLIPSE
  5
4A6
100
AcDbEntity
  8
0
100
AcDbEllipse
 62
7
  6
CONTINUOUS
 10
10.229376226
 20
20.5121444226
 30
0.0
 11
2.8072689689
 21
-1.7452486865
 31
0.0
 40
0.735634705
 41
4.4409044707
 42
5.8511225255
  0
ELLIPSE
  5
4A7
100
AcDbEntity
  8
DRAFT
100
AcDbEllipse
 62
7
  6
CONTINUOUS
 10
10.3643983176
 20
19.9690063465
 30
0.0
 11
2.3425905227
 21
-1.4563852685
 31
0.0
 40
0.7356319767
 41
6.2543604285
 42
8.9980901674
  0
ELLIPSE
  5
4A8
100
AcDbEntity
  8
0
100
AcDbEllipse
 62
7
  6
CONTINUOUS
 10
12.0792393944
 20
20.7850184984
 30
0.0
 11
4.9998954516
 21
-0.7143478698
 31
0.0
 40
0.4777652804
 41
2.526268096
 42
2.89079222
  0
ENDSEC
  0
SECTION
  2
OBJECTS
  0
DICTIONARY
  5
C
100
AcDbDictionary
280
0
281
1
  3
ACAD_GROUP
350
D
  3
ACAD_MLINESTYLE
350
17
  3
ACAD_LAYOUT
350
1A
  3
ACAD_PLOTSETTINGS
350
19
  3
ACAD_PLOTSTYLENAME
350
E
  0
DICTIONARY
  5
D
102
{ACAD_REACTORS
330
C
102
}
100
AcDbDictionary
280
0
281
1
  0
ACDBDICTIONARYWDFLT
  5
E
102
{ACAD_REACTORS
330
C
102
}
100
AcDbDictionary
281
1
  3
Normal
350
F
100
AcDbDictionaryWithDefault
340
F
  0
DICTIONARY
  5
17
102
{ACAD_REACTORS
330
C
102
}
100
AcDbDictionary
280
0
281
1
  3
Standard
350
18
  0
DICTIONARY
  5
19
102
{ACAD_REACTORS
330
C
102
}
100
AcDbDictionary
281
1
  0
DICTIONARY
  5
1A
102
{ACAD_REACTORS
330
C
102
}
100
AcDbDictionary
281
1
  3
Model
350
4A9
  3
Layout1
350
4AA
  0
ACDBPLACEHOLDER
  5
F
102
{ACAD_REACTORS
330
E
102
}
  0
MLINESTYLE
  5
18
102
{ACAD_REACTORS
330
17
102
}
100
AcDbMlineStyle
  2
STANDARD
 70
0
  3

 62
256
 51
90.0
 52
90.0
 71
2
 49
0.5
 62
256
  6
BYLAYER
 49
-0.5
 62
256
  6
BYLAYER
  0
LAYOUT
  5
4A9
102
{ACAD_REACTORS
330
1A
102
}
100
AcDbPlotSettings
  1

  2
none_device
  4
ANSI_C_(22.00_x_17.00_Inches)
  6

 40
0.0
 41
0.0
 42
0.0
 43
0.0
 44
558.8
 45
431.8
 46
0.0
 47
0.0
 48
0.0
 49
0.0
140
0.0
141
0.0
142
1.0
143
1.0
 70
1024
 72
1
 73
0
 74
0
  7

 75
0
147
1.0
148
0.0
149
0.0
100
AcDbLayout
  1
Model
 70
0
 71
0
 10
0.0
 20
0.0
 11
558.8
 21
431.8
 12
0.0
 22
0.0
 32
0.0
 14
0.0
 24
0.0
 34
0.0
 15
0.0
 25
0.0
 35
0.0
146
0.0
 13
0.0
 23
0.0
 33
0.0
 16
1.0
 26
0.0
 36
0.0
 17
0.0
 27
1.0
 37
0.0
 76
0
330
218
345
0
346
0
  0
LAYOUT
  5
4AA
102
{ACAD_REACTORS
330
1A
102
}
100
AcDbPlotSettings
  1

  2
none_device
  4
ANSI_C_(22.00_x_17.00_Inches)
  6

 40
0.0
 41
0.0
 42
0.0
 43
0.0
 44
558.8
 45
431.8
 46
0.0
 47
0.0
 48
0.0
 49
0.0
140
0.0
141
0.0
142
1.0
143
1.0
 70
0
 72
1
 73
0
 74
0
  7

 75
0
147
1.0
148
0.0
149
0.0
100
AcDbLayout
  1
Layout1
 70
0
 71
1
 10
0.0
 20
0.0
 11
558.8
 21
431.8
 12
0.0
 22
0.0
 32
0.0
 14
0.0
 24
0.0
 34
0.0
 15
0.0
 25
0.0
 35
0.0
146
0.0
 13
0.0
 23
0.0
 33
0.0
 16
1.0
 26
0.0
 36
0.0
 17
0.0
 27
1.0
 37
0.0
 76
0
330
219
345
0
346
0
  0
ENDSEC
  0
EOF
