  0
SECTION
  2
HEADER
  9
$ACADVER
  1
AC1015
  9
$DWGCODEPAGE
  3
ANSI_1252
  9
$EXTMAX
 10
297.0
 20
210.0
 30
0.0
  9
$EXTMIN
 10
0.0
 20
0.0
 30
0.0
  9
$LIMMIN
 10
0.0
 20
0.0
  9
$LIMMAX
 10
297.0
 20
210.0
  9
$VIEWCTR
 10
148.5
 20
105.0
  9
$VIEWSIZE
 40
210.0
  9
$CLAYER
  8
0
  9
$LTSCALE
 40
16.335
  9
$CELTYPE
  6
BYLAYER
  9
$DIMSCALE
 40
1.0
  9
$DIMASZ
 40
3.0
  9
$DIMEXO
 40
0.5
  9
$DIMDLI
 40
11.286
  9
$DIMEXE
 40
1.5
  9
$DIMCEN
 40
2.673
  9
$DIMLFAC
 40
1.0
  9
$DIMBLK
  1
_FILLED
  9
$DIMTXT
 40
3.0
  9
$DIMTOL
 70
1
  9
$DIMLIM
 70
0
  9
$DIMTFAC
 40
1.0
  9
$DIMTP
 40
0.01
  9
$DIMTM
 40
0.01
  9
$DIMGAP
 40
0.625
  9
$DIMDSEP
 70
44
  9
$PDMODE
 70
3
  9
$PDSIZE
 40
3.0
  9
$HANDSEED
  5
4AD
  9
$TILEMODE
 70
1
  9
$MEASUREMENT
 70
1
  9
$INSUNITS
 70
4
  0
ENDSEC
  0
SECTION
  2
CLASSES
  0
CLASS
  1
ACDBDICTIONARYWDFLT
  2
AcDbDictionaryWithDefault
  3
AutoCAD 2000
 90
0
280
0
281
0
  0
CLASS
  1
ACDBPLACEHOLDER
  2
AcDbPlaceHolder
  3
AutoCAD 2000
 90
0
280
0
281
0
  0
CLASS
  1
LAYOUT
  2
AcDbLayout
  3
AutoCAD 2000
 90
0
280
0
281
0
  0
ENDSEC
  0
SECTION
  2
TABLES
  0
TABLE
  2
VPORT
  5
8
100
AcDbSymbolTable
 70
2
  0
VPORT
  5
1F4
100
AcDbSymbolTableRecord
100
AcDbViewportTableRecord
  2
*ACTIVE
 70
0
 10
0.0
 20
0.0
 11
1.0
 21
1.0
 12
148.5
 22
105.0
 13
0.0
 23
0.0
 14
1.0
 24
1.0
 15
0.0
 25
0.0
 16
0.0
 26
0.0
 36
1.0
 17
0.0
 27
0.0
 37
0.0
 40
210.0
 41
1.4142857143
 42
50.0
 43
0.0
 44
0.0
 50
0.0
 51
0.0
 71
0
 72
100
 73
1
 74
1
 75
0
 76
0
 77
0
 78
0
  0
ENDTAB
  0
TABLE
  2
LTYPE
  5
5
100
AcDbSymbolTable
 70
6
  0
LTYPE
  5
14
100
AcDbSymbolTableRecord
100
AcDbLinetypeTableRecord
  2
BYBLOCK
 70
0
  3

 72
65
 73
0
 40
0.0
  0
LTYPE
  5
15
100
AcDbSymbolTableRecord
100
AcDbLinetypeTableRecord
  2
BYLAYER
 70
0
  3

 72
65
 73
0
 40
0.0
  0
LTYPE
  5
16
100
AcDbSymbolTableRecord
100
AcDbLinetypeTableRecord
  2
CONTINUOUS
 70
64
  3
Solid line
 72
65
 73
0
 40
0.0
  0
LTYPE
  5
1F5
100
AcDbSymbolTableRecord
100
AcDbLinetypeTableRecord
  2
CENTER
 70
64
  3
____ _ ____ _ ____ _ ____ _ ____ _ ____ _ ____
 72
65
 73
4
 40
0.6
 49
0.375
 74
0
 49
-0.075
 74
0
 49
0.075
 74
0
 49
-0.075
 74
0
  0
LTYPE
  5
1F6
100
AcDbSymbolTableRecord
100
AcDbLinetypeTableRecord
  2
HIDDEN
 70
64
  3
- - - - - - - - - - - - - - - - - - - -
 72
65
 73
2
 40
0.2
 49
0.1
 74
0
 49
-0.1
 74
0
  0
LTYPE
  5
1F7
100
AcDbSymbolTableRecord
100
AcDbLinetypeTableRecord
  2
PHANTOM
 70
64
  3
_____ _ _ _____ _ _ _____ _ _ _____
 72
65
 73
6
 40
0.8
 49
0.45
 74
0
 49
-0.05
 74
0
 49
0.1
 74
0
 49
-0.05
 74
0
 49
0.1
 74
0
 49
-0.05
 74
0
  0
LTYPE
  5
1F8
100
AcDbSymbolTableRecord
100
AcDbLinetypeTableRecord
  2
DOT
 70
64
  3
. . . . . . . . . . . . . . . . . . . .
 72
65
 73
2
 40
0.2
 49
0.1
 74
0
 49
-0.1
 74
0
  0
LTYPE
  5
1F9
100
AcDbSymbolTableRecord
100
AcDbLinetypeTableRecord
  2
DASHED
 70
64
  3
- - - - - - - - - - - - - - - - - - - -
 72
65
 73
2
 40
0.2
 49
0.1
 74
0
 49
-0.1
 74
0
  0
ENDTAB
  0
TABLE
  2
LAYER
  5
2
100
AcDbSymbolTable
 70
36
  0
LAYER
  5
10
100
AcDbSymbolTableRecord
100
AcDbLayerTableRecord
  2
0
 70
0
 62
7
  6
CONTINUOUS
370
-3
390
F
  0
LAYER
  5
1FA
100
AcDbSymbolTableRecord
100
AcDbLayerTableRecord
  2
DEFAULT_1
 70
0
 62
7
  6
CENTER
370
-3
390
F
  0
LAYER
  5
1FB
100
AcDbSymbolTableRecord
100
AcDbLayerTableRecord
  2
DEFAULT_2
 70
0
 62
7
  6
HIDDEN
370
-3
390
F
  0
LAYER
  5
1FC
100
AcDbSymbolTableRecord
100
AcDbLayerTableRecord
  2
DEFAULT_3
 70
0
 62
7
  6
PHANTOM
370
-3
390
F
  0
LAYER
  5
1FD
100
AcDbSymbolTableRecord
100
AcDbLayerTableRecord
  2
ASSI
 70
0
 62
7
  6
CONTINUOUS
370
-3
390
F
  0
LAYER
  5
1FE
100
AcDbSymbolTableRecord
100
AcDbLayerTableRecord
  2
COORDINATE
 70
0
 62
7
  6
CONTINUOUS
370
-3
390
F
  0
LAYER
  5
1FF
100
AcDbSymbolTableRecord
100
AcDbLayerTableRecord
  2
COORD_ORIGINE
 70
0
 62
7
  6
CONTINUOUS
370
-3
390
F
  0
LAYER
  5
200
100
AcDbSymbolTableRecord
100
AcDbLayerTableRecord
  2
COSMETICHE
 70
0
 62
7
  6
CONTINUOUS
370
-3
390
F
  0
LAYER
  5
201
100
AcDbSymbolTableRecord
100
AcDbLayerTableRecord
  2
COSMETICI
 70
0
 62
7
  6
CONTINUOUS
370
-3
390
F
  0
LAYER
  5
202
100
AcDbSymbolTableRecord
100
AcDbLayerTableRecord
  2
CURVE
 70
0
 62
7
  6
CONTINUOUS
370
-3
390
F
  0
LAYER
  5
203
100
AcDbSymbolTableRecord
100
AcDbLayerTableRecord
  2
DRAFT
 70
0
 62
7
  6
CONTINUOUS
370
-3
390
F
  0
LAYER
  5
204
100
AcDbSymbolTableRecord
100
AcDbLayerTableRecord
  2
IMPORTED
 70
0
 62
7
  6
CONTINUOUS
370
-3
390
F
  0
LAYER
  5
205
100
AcDbSymbolTableRecord
100
AcDbLayerTableRecord
  2
INCISIONI
 70
0
 62
7
  6
CONTINUOUS
370
-3
390
F
  0
LAYER
  5
206
100
AcDbSymbolTableRecord
100
AcDbLayerTableRecord
  2
NOTE
 70
0
 62
7
  6
CONTINUOUS
370
-3
390
F
  0
LAYER
  5
207
100
AcDbSymbolTableRecord
100
AcDbLayerTableRecord
  2
PIANI
 70
0
 62
7
  6
CONTINUOUS
370
-3
390
F
  0
LAYER
  5
208
100
AcDbSymbolTableRecord
100
AcDbLayerTableRecord
  2
PIANI_ORIGINE
 70
0
 62
7
  6
CONTINUOUS
370
-3
390
F
  0
LAYER
  5
209
100
AcDbSymbolTableRecord
100
AcDbLayerTableRecord
  2
PIANI_RIFERIMENTO
 70
0
 62
7
  6
CONTINUOUS
370
-3
390
F
  0
LAYER
  5
20A
100
AcDbSymbolTableRecord
100
AcDbLayerTableRecord
  2
PIANI_SFORMO
 70
0
 62
7
  6
CONTINUOUS
370
-3
390
F
  0
LAYER
  5
20B
100
AcDbSymbolTableRecord
100
AcDbLayerTableRecord
  2
PUNTI
 70
0
 62
7
  6
CONTINUOUS
370
-3
390
F
  0
LAYER
  5
20C
100
AcDbSymbolTableRecord
100
AcDbLayerTableRecord
  2
RACCORDO
 70
0
 62
7
  6
CONTINUOUS
370
-3
390
F
  0
LAYER
  5
20D
100
AcDbSymbolTableRecord
100
AcDbLayerTableRecord
  2
SIMBOLI
 70
0
 62
7
  6
CONTINUOUS
370
-3
390
F
  0
LAYER
  5
20E
100
AcDbSymbolTableRecord
100
AcDbLayerTableRecord
  2
SMUSSO
 70
0
 62
7
  6
CONTINUOUS
370
-3
390
F
  0
LAYER
  5
20F
100
AcDbSymbolTableRecord
100
AcDbLayerTableRecord
  2
SNAPLINE
 70
0
 62
7
  6
CONTINUOUS
370
-3
390
F
  0
LAYER
  5
210
100
AcDbSymbolTableRecord
100
AcDbLayerTableRecord
  2
SUPERFICI
 70
0
 62
7
  6
CONTINUOUS
370
-3
390
F
  0
LAYER
  5
211
100
AcDbSymbolTableRecord
100
AcDbLayerTableRecord
  2
TRASH
 70
0
 62
7
  6
CONTINUOUS
370
-3
390
F
  0
LAYER
  5
212
100
AcDbSymbolTableRecord
100
AcDbLayerTableRecord
  2
XSEC_DATUMS
 70
0
 62
7
  6
CONTINUOUS
370
-3
390
F
  0
ENDTAB
  0
TABLE
  2
STYLE
  5
3
100
AcDbSymbolTable
 70
1
  0
STYLE
  5
11
100
AcDbSymbolTableRecord
100
AcDbTextStyleTableRecord
  2
STANDARD
 70
0
 40
0.0
 41
0.8
 50
0.0
 71
0
 42
0.2
  3
txt
  4

  0
STYLE
  5
213
100
AcDbSymbolTableRecord
100
AcDbTextStyleTableRecord
  2
TEXTSTYLE_1
 70
0
 40
0.0
 41
0.8
 50
0.0
 71
0
 42
0.2
  3
gdt
  4

  0
ENDTAB
  0
TABLE
  2
VIEW
  5
6
100
AcDbSymbolTable
 70
0
  0
ENDTAB
  0
TABLE
  2
UCS
  5
7
100
AcDbSymbolTable
 70
0
  0
ENDTAB
  0
TABLE
  2
APPID
  5
9
100
AcDbSymbolTable
 70
1
  0
APPID
  5
214
100
AcDbSymbolTableRecord
100
AcDbRegAppTableRecord
  2
ACAD
 70
0
  0
ENDTAB
  0
TABLE
  2
BLOCK_RECORD
  5
1
100
AcDbSymbolTable
 70
0
  0
BLOCK_RECORD
  5
215
100
AcDbSymbolTableRecord
100
AcDbBlockTableRecord
  2
*Model_Space
  0
BLOCK_RECORD
  5
216
100
AcDbSymbolTableRecord
100
AcDbBlockTableRecord
  2
*Paper_Space
  0
ENDTAB
  0
TABLE
  2
DIMSTYLE
  5
A
100
AcDbSymbolTable
 70
1
100
AcDbDimStyleTable
 71
0
  0
DIMSTYLE
105
217
100
AcDbSymbolTableRecord
100
AcDbDimStyleTableRecord
  2
STANDARD
 70
0
  3

  4

 40
1.0
 41
3.0
 42
0.5
 43
0.38
 44
1.5
 45
0.0
 46
0.0
 47
0.01
 48
0.01
140
3.0
141
0.09
142
0.0
143
25.4
144
1.0
145
0.0
146
1.0
147
0.625
 71
1.0
 72
0.0
 73
0
 74
0
 75
0
 76
0
 77
1
 78
8
170
0
171
2
172
0
173
0
174
0
175
0
176
0
177
0
178
0
270
2
271
2
272
2
273
2
274
2
275
0
280
0
281
0
282
0
283
1
284
8
285
0
286
0
287
3
288
0
340
11
278
44
  0
ENDTAB
  0
ENDSEC
  0
SECTION
  2
BLOCKS
  0
BLOCK
  5
20
100
AcDbEntity
  8
0
100
AcDbBlockBegin
  2
*Model_Space
 70
0
 10
0.0
 20
0.0
 30
0.0
  3
*Model_Space
  1

  0
ENDBLK
  5
21
100
AcDbEntity
  8
0
100
AcDbBlockEnd
  0
BLOCK
  5
1C
100
AcDbEntity
  8
0
100
AcDbBlockBegin
  2
*Paper_Space
 70
0
 10
0.0
 20
0.0
 30
0.0
  3
*Paper_Space
  1

  0
ENDBLK
  5
1D
100
AcDbEntity
  8
0
100
AcDbBlockEnd
  0
ENDSEC
  0
SECTION
  2
ENTITIES
  0
LINE
  5
218
100
AcDbEntity
  8
0
100
AcDbLine
 62
253
  6
CONTINUOUS
 10
144.5319395469
 20
80.4808832025
 11
144.104504188
 21
80.4817679164
  0
LINE
  5
219
100
AcDbEntity
  8
0
100
AcDbLine
 62
253
  6
CONTINUOUS
 10
144.3980178276
 20
80.7985283415
 11
144.3155343695
 21
80.7986990674
  0
LWPOLYLINE
  5
21A
100
AcDbEntity
  8
0
100
AcDbPolyline
 62
7
  6
CONTINUOUS
 90
22
 70
0
 10
143.3807353738
 20
80.0137185189
 10
143.3760380852
 20
80.0137935906
 10
143.3711267471
 20
80.0139607894
 10
143.3660018243
 20
80.0142169874
 10
143.3606617342
 20
80.0145548047
 10
143.3551097834
 20
80.0149748762
 10
143.3493540998
 20
80.0154858776
 10
143.3433960826
 20
80.0160838567
 10
143.3372375408
 20
80.0167651051
 10
143.3308874902
 20
80.0175384692
 10
143.3243481237
 20
80.0183995579
 10
143.317622016
 20
80.0193441903
 10
143.310719027
 20
80.0203813336
 10
143.3036421782
 20
80.0215061626
 10
143.2963948381
 20
80.02271403
 10
143.2889876573
 20
80.0240139743
 10
143.2814244964
 20
80.0254007464
 10
143.2737095686
 20
80.026869235
 10
143.2658543306
 20
80.0284284826
 10
143.25786352
 20
80.0300728268
 10
143.2497422282
 20
80.0317966951
 10
143.2461838756
 20
80.0325793897
  0
LWPOLYLINE
  5
21B
100
AcDbEntity
  8
0
100
AcDbPolyline
 62
7
  6
CONTINUOUS
 90
14
 70
0
 10
142.5052708612
 20
78.6022159151
 10
142.52495495
 20
78.5952500531
 10
142.5453119325
 20
78.5899161274
 10
142.5661868867
 20
78.5862947018
 10
142.5874428034
 20
78.5844471886
 10
142.6088775476
 20
78.5844229216
 10
142.6302406743
 20
78.5862355016
 10
142.651371582
 20
78.5898721818
 10
142.6721117668
 20
78.5953057064
 10
142.6922547097
 20
78.6024738602
 10
142.7117035625
 20
78.611332838
 10
142.7303175126
 20
78.6218160447
 10
142.7478885034
 20
78.6337904394
 10
142.7547305763
 20
78.6390790214
  0
LWPOLYLINE
  5
21C
100
AcDbEntity
  8
0
100
AcDbPolyline
 62
253
  6
CONTINUOUS
 90
34
 70
0
 10
142.4550488242
 20
78.716743486
 10
142.4649021168
 20
78.7129823599
 10
142.4750590414
 20
78.709491534
 10
142.4854971758
 20
78.7062791858
 10
142.4961949285
 20
78.7033524958
 10
142.5071271191
 20
78.7007188756
 10
142.5182647258
 20
78.6983855363
 10
142.529581037
 20
78.696357999
 10
142.5410522086
 20
78.6946404622
 10
142.5526526465
 20
78.6932367665
 10
142.5643564156
 20
78.6921500735
 10
142.5761370527
 20
78.6913828635
 10
142.587967825
 20
78.6909368844
 10
142.5998220175
 20
78.6908131362
 10
142.6116730739
 20
78.691011889
 10
142.6234944163
 20
78.6915326974
 10
142.6352594887
 20
78.6923743961
 10
142.6469417972
 20
78.6935350944
 10
142.6585150461
 20
78.6950121825
 10
142.6699531995
 20
78.6968023389
 10
142.6812305358
 20
78.6989015396
 10
142.6923216859
 20
78.7013050641
 10
142.7032017045
 20
78.7040075083
 10
142.7138461179
 20
78.7070027947
 10
142.724230976
 20
78.7102841853
 10
142.734332919
 20
78.7138442997
 10
142.7441292266
 20
78.7176751314
 10
142.7535978616
 20
78.7217680637
 10
142.7627175312
 20
78.7261138933
 10
142.771467718
 20
78.7307028438
 10
142.7798287255
 20
78.7355245851
 10
142.7877817452
 20
78.740568268
 10
142.7953088962
 20
78.7458225504
 10
142.8023932503
 20
78.7512756134
  0
LWPOLYLINE
  5
21D
100
AcDbEntity
  8
0
100
AcDbPolyline
 62
253
  6
CONTINUOUS
 90
34
 70
0
 10
142.4550488242
 20
79.0383164351
 10
142.464918902
 20
79.0345492262
 10
142.4750892618
 20
79.0310546485
 10
142.4855370314
 20
79.0278405609
 10
142.4962387022
 20
79.0249141948
 10
142.5071702193
 20
79.0222821274
 10
142.5183070384
 20
79.0199502703
 10
142.5296241423
 20
79.0179238663
 10
142.5410960556
 20
79.0162074819
 10
142.5526969393
 20
79.0148049847
 10
142.5644006897
 20
79.0137195299
 10
142.5761809994
 20
79.0129535569
 10
142.5880113744
 20
79.0125087882
 10
142.5998652088
 20
79.0123862242
 10
142.6117158441
 20
79.0125861403
 10
142.6235366293
 20
79.0131080871
 10
142.6353009889
 20
79.0139508914
 10
142.6469824567
 20
79.0151126574
 10
142.6585547366
 20
79.016590769
 10
142.6699917878
 20
79.0183818971
 10
142.6812679069
 20
79.0204820134
 10
142.69235776
 20
79.0228863986
 10
142.703236487
 20
79.0255896666
 10
142.7138795392
 20
79.0285857211
 10
142.7242627748
 20
79.0318677554
 10
142.7343627261
 20
79.035428322
 10
142.7441568403
 20
79.0392594399
 10
142.7536233007
 20
79.0433525633
 10
142.7627415455
 20
79.0476988509
 10
142.7714902865
 20
79.0522882066
 10
142.7798480278
 20
79.057109208
 10
142.787795672
 20
79.0621504826
 10
142.795316279
 20
79.0674009099
 10
142.8023932503
 20
79.0728485626
  0
LWPOLYLINE
  5
21E
100
AcDbEntity
  8
0
100
AcDbPolyline
 62
7
  6
CONTINUOUS
 90
19
 70
0
 10
140.3552535055
 20
78.3310451213
 10
140.3616648908
 20
78.3285098174
 10
140.3984514707
 20
78.31552522
 10
140.4359093198
 20
78.3049098766
 10
140.4737771036
 20
78.2967041683
 10
140.5120074437
 20
78.2908801271
 10
140.5507851518
 20
78.2874099258
 10
140.5899870854
 20
78.2863340803
 10
140.6294585377
 20
78.2876810611
 10
140.6693623551
 20
78.291502667
 10
140.7095924165
 20
78.2978623281
 10
140.7499855527
 20
78.3068028509
 10
140.7906476099
 20
78.3184331983
 10
140.8314893839
 20
78.3328377091
 10
140.8723526546
 20
78.3500678025
 10
140.9132914756
 20
78.3702680911
 10
140.9542784466
 20
78.3935740293
 10
140.9951587838
 20
78.4200536729
 10
141.008382618
 20
78.4293413947
  0
LINE
  5
21F
100
AcDbEntity
  8
0
100
AcDbLine
 62
7
  6
CONTINUOUS
 10
140.3554093171
 20
78.3309822641
 11
123.1022092975
 21
85.2602563562
  0
LINE
  5
220
100
AcDbEntity
  8
0
100
AcDbLine
 62
253
  6
CONTINUOUS
 10
140.1585056097
 20
78.6731699533
 11
122.9101627443
 21
85.6004933029
  0
LINE
  5
221
100
AcDbEntity
  8
0
100
AcDbLine
 62
7
  6
CONTINUOUS
 10
141.7007075322
 20
78.9253466865
 11
142.5052708612
 21
78.6022159151
  0
LINE
  5
222
100
AcDbEntity
  8
0
100
AcDbLine
 62
253
  6
CONTINUOUS
 10
141.785101492
 20
78.9858094381
 11
142.4550488242
 21
78.716743486
  0
LINE
  5
223
100
AcDbEntity
  8
0
100
AcDbLine
 62
253
  6
CONTINUOUS
 10
142.4550488242
 20
79.0383164351
 11
142.0727191286
 21
79.1918686603
  0
LWPOLYLINE
  5
224
100
AcDbEntity
  8
0
100
AcDbPolyline
 62
253
  6
CONTINUOUS
 90
23
 70
0
 10
123.1022139413
 20
85.2602544912
 10
123.0896838806
 20
85.2657549916
 10
123.076216092
 20
85.2727708191
 10
123.0631669711
 20
85.2807607225
 10
123.0505500126
 20
85.289716362
 10
123.0383787513
 20
85.2996281771
 10
123.0266663087
 20
85.3104855573
 10
123.0154248381
 20
85.3222770644
 10
123.0046664181
 20
85.3349900975
 10
122.9944026176
 20
85.3486110964
 10
122.9846440444
 20
85.3631257171
 10
122.9754011754
 20
85.3785184844
 10
122.9666839603
 20
85.394773
 10
122.9585013926
 20
85.4118721535
 10
122.9508622217
 20
85.4297978335
 10
122.9437747224
 20
85.448530887
 10
122.937246291
 20
85.4680513174
 10
122.9312839561
 20
85.4883381886
 10
122.9258940859
 20
85.5093700505
 10
122.9210821824
 20
85.5311249301
 10
122.9168533416
 20
85.5535798535
 10
122.9132122196
 20
85.5767108343
 10
122.9101627443
 20
85.6004933029
  0
LWPOLYLINE
  5
225
100
AcDbEntity
  8
0
100
AcDbPolyline
 62
7
  6
CONTINUOUS
 90
19
 70
0
 10
123.1161381495
 20
121.4590332747
 10
123.097117915
 20
121.440948654
 10
123.0561154336
 20
121.3985977368
 10
123.0173554409
 20
121.3539824944
 10
122.9805658827
 20
121.3070523318
 10
122.9457628869
 20
121.2580306463
 10
122.9132733868
 20
121.2076335174
 10
122.8831391862
 20
121.1562491571
 10
122.8551425188
 20
121.1037801355
 10
122.8292776502
 20
121.0504177665
 10
122.8055864594
 20
120.9964381075
 10
122.7839894289
 20
120.9418077763
 10
122.7643848198
 20
120.8862932685
 10
122.7468294858
 20
120.829954751
 10
122.73141473
 20
120.7728984026
 10
122.7181740771
 20
120.7148747908
 10
122.7072464121
 20
120.6557903774
 10
122.6988608764
 20
120.5958099773
 10
122.6959572566
 20
120.5683057274
  0
LINE
  5
226
100
AcDbEntity
  8
0
100
AcDbLine
 62
7
  6
CONTINUOUS
 10
123.1159068695
 20
121.4588194547
 11
126.3644260566
 21
124.4705917506
  0
LINE
  5
227
100
AcDbEntity
  8
0
100
AcDbLine
 62
253
  6
CONTINUOUS
 10
123.4221972028
 20
121.4714683168
 11
126.5685226434
 21
124.3886219601
  0
LWPOLYLINE
  5
228
100
AcDbEntity
  8
0
100
AcDbPolyline
 62
7
  6
CONTINUOUS
 90
12
 70
0
 10
126.2401389548
 20
125.2386490622
 10
126.2254961095
 20
125.2253617084
 10
126.2117214579
 20
125.210696384
 10
126.1989855856
 20
125.1947184396
 10
126.187450741
 20
125.177514931
 10
126.177276791
 20
125.1592111723
 10
126.1686040511
 20
125.139954673
 10
126.1615235046
 20
125.119824802
 10
126.1561631647
 20
125.099060287
 10
126.1526165378
 20
125.078028349
 10
126.1508787139
 20
125.0568514114
 10
126.1506849861
 20
125.0469801422
  0
LWPOLYLINE
  5
229
100
AcDbEntity
  8
0
100
AcDbPolyline
 62
253
  6
CONTINUOUS
 90
24
 70
0
 10
123.1161379963
 20
121.4590334169
 10
123.1254005729
 20
121.4671055721
 10
123.1357505752
 20
121.4750824064
 10
123.1466186868
 20
121.482438409
 10
123.1579872533
 20
121.4891616183
 10
123.1698379771
 20
121.4952412539
 10
123.1821516917
 20
121.5006674958
 10
123.1949083895
 20
121.5054314991
 10
123.2080873873
 20
121.5095255311
 10
123.2216673119
 20
121.5129429388
 10
123.2356261551
 20
121.5156781789
 10
123.2499413065
 20
121.5177268244
 10
123.2645895415
 20
121.5190855268
 10
123.2795471281
 20
121.5197520843
 10
123.2947898846
 20
121.5197254645
 10
123.3102930958
 20
121.5190056919
 10
123.3260316294
 20
121.5175939184
 10
123.3419800447
 20
121.5154924842
 10
123.3581124836
 20
121.5127047756
 10
123.3744027916
 20
121.5092352921
 10
123.3908246358
 20
121.5050897094
 10
123.4073514177
 20
121.5002747498
 10
123.4239563157
 20
121.4947981712
 10
123.4406124077
 20
121.4886688278
  0
LINE
  5
22A
100
AcDbEntity
  8
0
100
AcDbLine
 62
7
  6
CONTINUOUS
 10
126.2401389548
 20
125.2386490622
 11
127.5211242771
 21
126.3118053255
  0
LINE
  5
22B
100
AcDbEntity
  8
0
100
AcDbLine
 62
253
  6
CONTINUOUS
 10
126.3998507517
 20
125.2511126372
 11
127.6805022344
 21
126.3239892235
  0
LINE
  5
22C
100
AcDbEntity
  8
0
100
AcDbLine
 62
253
  6
CONTINUOUS
 10
129.646474072
 20
125.5344106117
 11
130.0739094309
 21
125.885335797
  0
LINE
  5
22D
100
AcDbEntity
  8
0
100
AcDbLine
 62
7
  6
CONTINUOUS
 10
127.5211264667
 20
126.3118071598
 11
127.5230494467
 21
126.3133823468
  0
LINE
  5
22E
100
AcDbEntity
  8
0
100
AcDbLine
 62
253
  6
CONTINUOUS
 10
128.3443631342
 20
124.4701526264
 11
129.646474072
 21
125.5344106117
  0
LINE
  5
22F
100
AcDbEntity
  8
0
100
AcDbLine
 62
7
  6
CONTINUOUS
 10
127.5230509146
 20
126.3133835223
 11
127.9579906071
 21
126.6617059725
  0
LINE
  5
230
100
AcDbEntity
  8
0
100
AcDbLine
 62
253
  6
CONTINUOUS
 10
127.6805022344
 20
126.3239892235
 11
128.1150999868
 21
126.6720378301
  0
LWPOLYLINE
  5
231
100
AcDbEntity
  8
0
100
AcDbPolyline
 62
253
  6
CONTINUOUS
 90
20
 70
0
 10
126.2401389548
 20
125.2386490622
 10
126.2447448714
 20
125.2423069435
 10
126.251298475
 20
125.2468837149
 10
126.2581904725
 20
125.2510077308
 10
126.2654052519
 20
125.2546696495
 10
126.2729264703
 20
125.2578611758
 10
126.2807370903
 20
125.2605750802
 10
126.2888194191
 20
125.2628052152
 10
126.2971551486
 20
125.264546529
 10
126.3057253962
 20
125.265795077
 10
126.3145107486
 20
125.2665480312
 10
126.323491305
 20
125.2668036858
 10
126.3326467223
 20
125.2665614618
 10
126.3419562615
 20
125.2658219078
 10
126.3513988344
 20
125.2645866991
 10
126.3609530515
 20
125.2628586337
 10
126.3705972703
 20
125.2606416261
 10
126.3803096445
 20
125.2579406983
 10
126.3900681733
 20
125.2547619685
 10
126.3998507517
 20
125.2511126372
  0
LWPOLYLINE
  5
232
100
AcDbEntity
  8
0
100
AcDbPolyline
 62
7
  6
CONTINUOUS
 90
4
 70
0
 10
127.5230494467
 20
126.3133823468
 10
127.5257359656
 20
126.3154680479
 10
127.5322922707
 20
126.320047081
 10
127.5391843165
 20
126.3241711258
  0
LWPOLYLINE
  5
233
100
AcDbEntity
  8
0
100
AcDbPolyline
 62
253
  6
CONTINUOUS
 90
19
 70
0
 10
127.9608167709
 20
126.6638901065
 10
127.9672530725
 20
126.6683841302
 10
127.9741467111
 20
126.6725076239
 10
127.9813578063
 20
126.6761644888
 10
127.9888699946
 20
126.6793464362
 10
127.9966662716
 20
126.6820462725
 10
128.004729023
 20
126.6842578988
 10
128.0130400612
 20
126.6859763134
 10
128.0215804831
 20
126.6871975957
 10
128.0303307502
 20
126.6879189642
 10
128.0392709048
 20
126.6881388126
 10
128.0483807976
 20
126.6878566837
 10
128.0576399551
 20
126.6870732254
 10
128.0670288102
 20
126.6857899836
 10
128.0765247146
 20
126.684009946
 10
128.0861020218
 20
126.6817382265
 10
128.0957375671
 20
126.6789810287
 10
128.105410855
 20
126.6757449211
 10
128.1150999868
 20
126.6720378301
  0
LINE
  5
234
100
AcDbEntity
  8
RACCORDO
100
AcDbLine
 62
253
  6
CONTINUOUS
 10
142.1016617748
 20
133.8281792699
 11
142.1571894149
 21
133.8662726409
  0
LINE
  5
235
100
AcDbEntity
  8
RACCORDO
100
AcDbLine
 62
253
  6
CONTINUOUS
 10
142.2422544064
 20
133.9123067311
 11
142.2979122365
 21
133.9504780295
  0
LINE
  5
236
100
AcDbEntity
  8
RACCORDO
100
AcDbLine
 62
253
  6
CONTINUOUS
 10
142.1016617748
 20
133.8281792699
 11
142.0286323128
 21
133.7795652299
  0
LWPOLYLINE
  5
237
100
AcDbEntity
  8
RACCORDO
100
AcDbPolyline
 62
7
  6
CONTINUOUS
 90
3
 70
0
 10
142.1571942
 20
133.8662646057
 10
142.1201027944
 20
133.8432962885
 10
142.0771430633
 20
133.8147104112
  0
LINE
  5
238
100
AcDbEntity
  8
RACCORDO
100
AcDbLine
 62
7
  6
CONTINUOUS
 10
142.2979122365
 20
133.9504780295
 11
142.1573196046
 21
133.8663505681
  0
LINE
  5
239
100
AcDbEntity
  8
RACCORDO
100
AcDbLine
 62
253
  6
CONTINUOUS
 10
142.2422544064
 20
133.9123067311
 11
142.1016617748
 21
133.8281792699
  0
LWPOLYLINE
  5
23A
100
AcDbEntity
  8
RACCORDO
100
AcDbPolyline
 62
7
  6
CONTINUOUS
 90
13
 70
0
 10
142.2979122365
 20
133.9504780295
 10
142.369213272
 20
133.9893015011
 10
142.443742586
 20
134.0223385713
 10
142.5207845471
 20
134.0492162923
 10
142.5991939256
 20
134.0695998178
 10
142.6786868657
 20
134.0835281086
 10
142.7599098315
 20
134.0910457911
 10
142.8425183061
 20
134.0918866461
 10
142.9255280396
 20
134.0858356437
 10
143.0086339916
 20
134.0727246528
 10
143.0910494217
 20
134.0524689336
 10
143.1720715616
 20
134.0250580759
 10
143.184203278
 20
134.0202753395
  0
LINE
  5
23B
100
AcDbEntity
  8
RACCORDO
100
AcDbLine
 62
253
  6
CONTINUOUS
 10
142.2952606838
 20
133.9396769185
 11
142.2422544064
 21
133.9123067311
  0
LWPOLYLINE
  5
23C
100
AcDbEntity
  8
0
100
AcDbPolyline
 62
7
  6
CONTINUOUS
 90
17
 70
0
 10
127.5391843165
 20
126.3241711258
 10
127.5463964872
 20
126.3278308382
 10
127.5539124694
 20
126.3310179478
 10
127.5617152313
 20
126.3337252305
 10
127.569787057
 20
126.3359465239
 10
127.5781097031
 20
126.3376768311
 10
127.5866643289
 20
126.3389122435
 10
127.5954314797
 20
126.339649906
 10
127.6043913539
 20
126.3398881965
 10
127.6135236855
 20
126.3396266016
 10
127.6228076781
 20
126.3388656309
 10
127.6322223749
 20
126.3376070704
 10
127.6417464977
 20
126.3358538116
 10
127.651358332
 20
126.3336097182
 10
127.6610361094
 20
126.3308798802
 10
127.6707580562
 20
126.3276706022
 10
127.6805022344
 20
126.3239892235
  0
LWPOLYLINE
  5
23D
100
AcDbEntity
  8
0
100
AcDbPolyline
 62
253
  6
CONTINUOUS
 90
6
 70
0
 10
144.4194928452
 20
80.7944350812
 10
144.4184927297
 20
80.7948254974
 10
144.4136135759
 20
80.7964212632
 10
144.4085682552
 20
80.7975716438
 10
144.4033663717
 20
80.7982744492
 10
144.3980178276
 20
80.7985283415
  0
LINE
  5
23E
100
AcDbEntity
  8
0
100
AcDbLine
 62
253
  6
CONTINUOUS
 10
142.5267458787
 20
79.2743988439
 11
142.309627919
 21
79.3615983113
  0
LINE
  5
23F
100
AcDbEntity
  8
0
100
AcDbLine
 62
253
  6
CONTINUOUS
 10
144.3450109406
 20
80.8198171024
 11
144.3980178276
 21
80.7985283415
  0
LINE
  5
240
100
AcDbEntity
  8
0
100
AcDbLine
 62
7
  6
CONTINUOUS
 10
144.3490640348
 20
80.8227208792
 11
144.4194928452
 21
80.7944350812
  0
LWPOLYLINE
  5
241
100
AcDbEntity
  8
0
100
AcDbPolyline
 62
253
  6
CONTINUOUS
 90
16
 70
0
 10
122.9101627443
 20
85.6004933029
 10
122.8466537728
 20
86.1819895321
 10
122.7869273738
 20
86.7674879247
 10
122.7309881933
 20
87.3569439967
 10
122.6788406777
 20
87.9503129058
 10
122.6304887878
 20
88.5475496364
 10
122.5859359997
 20
89.1486090045
 10
122.5451857552
 20
89.7534454089
 10
122.5082412502
 20
90.3620128635
 10
122.4751051482
 20
90.9742651803
 10
122.4457800062
 20
91.5901558314
 10
122.4202681238
 20
92.2096380839
 10
122.398571335
 20
92.8326650332
 10
122.3806912779
 20
93.4591894224
 10
122.3666293937
 20
94.0891636438
 10
122.3563867761
 20
94.7225398749
  0
LINE
  5
242
100
AcDbEntity
  8
0
100
AcDbLine
 62
7
  6
CONTINUOUS
 10
129.8512586174
 20
123.7319452285
 11
129.1274898032
 21
123.0926244106
  0
LINE
  5
243
100
AcDbEntity
  8
0
100
AcDbLine
 62
253
  6
CONTINUOUS
 10
129.8512586174
 20
125.2473799761
 11
130.2786939763
 21
125.5983051614
  0
LINE
  5
244
100
AcDbEntity
  8
0
100
AcDbLine
 62
7
  6
CONTINUOUS
 10
136.3958914209
 20
129.10510033
 11
130.4200693665
 21
124.1989398592
  0
LINE
  5
245
100
AcDbEntity
  8
0
100
AcDbLine
 62
253
  6
CONTINUOUS
 10
128.5491476796
 20
124.1831219908
 11
129.8512586174
 21
125.2473799761
  0
LINE
  5
246
100
AcDbEntity
  8
0
100
AcDbLine
 62
7
  6
CONTINUOUS
 10
136.0774355975
 20
128.9782273986
 11
130.2757365582
 21
124.2569071689
  0
LINE
  5
247
100
AcDbEntity
  8
RACCORDO
100
AcDbLine
 62
253
  6
CONTINUOUS
 10
142.2422544064
 20
133.9123067311
 11
134.6986536539
 21
128.0131966748
  0
LINE
  5
248
100
AcDbEntity
  8
RACCORDO
100
AcDbLine
 62
253
  6
CONTINUOUS
 10
142.8213941526
 20
133.91959869
 11
136.7884836372
 21
129.2018512565
  0
LINE
  5
249
100
AcDbEntity
  8
RACCORDO
100
AcDbLine
 62
7
  6
CONTINUOUS
 10
129.9683714648
 20
124.3803519198
 11
142.0101932609
 21
133.765575526
  0
LINE
  5
24A
100
AcDbEntity
  8
RACCORDO
100
AcDbLine
 62
253
  6
CONTINUOUS
 10
129.9757257801
 20
124.3773982609
 11
142.1016617748
 21
133.8281792699
  0
LINE
  5
24B
100
AcDbEntity
  8
DRAFT
100
AcDbLine
 62
7
  6
CONTINUOUS
 10
130.1975087443
 20
124.2883252226
 11
132.8238379182
 21
126.3305070604
  0
LINE
  5
24C
100
AcDbEntity
  8
RACCORDO
100
AcDbLine
 62
7
  6
CONTINUOUS
 10
142.0352545778
 20
133.7846425771
 11
142.0100085376
 21
133.7654018401
  0
LWPOLYLINE
  5
24D
100
AcDbEntity
  8
RACCORDO
100
AcDbPolyline
 62
253
  6
CONTINUOUS
 90
9
 70
0
 10
142.8213941526
 20
133.91959869
 10
142.8707902313
 20
133.9557809297
 10
142.9197527152
 20
133.9855407573
 10
142.9679166732
 20
134.0086530925
 10
143.0149250172
 20
134.0249428034
 10
143.060424378
 20
134.0342835666
 10
143.1040685411
 20
134.0366022092
 10
143.145530525
 20
134.0318810187
 10
143.1840718943
 20
134.0203281549
  0
LINE
  5
24E
100
AcDbEntity
  8
RACCORDO
100
AcDbLine
 62
7
  6
CONTINUOUS
 10
142.0771430633
 20
133.8147104112
 11
142.0352545778
 21
133.7846425771
  0
LWPOLYLINE
  5
24F
100
AcDbEntity
  8
0
100
AcDbPolyline
 62
7
  6
CONTINUOUS
 90
20
 70
0
 10
136.511131972
 20
127.6163458867
 10
136.5200671825
 20
127.6219095883
 10
136.5294301874
 20
127.6269242798
 10
136.5392139328
 20
127.6313808027
 10
136.5494054228
 20
127.6352717959
 10
136.5600013224
 20
127.6385867438
 10
136.5710098517
 20
127.641310942
 10
136.5824169692
 20
127.6434352969
 10
136.5942198377
 20
127.6449496235
 10
136.6064472681
 20
127.6458345754
 10
136.6190803444
 20
127.6460830834
 10
136.6321221659
 20
127.6456789687
 10
136.6456416269
 20
127.6445825032
 10
136.6596496477
 20
127.6427789458
 10
136.6741239511
 20
127.6402487856
 10
136.6890884972
 20
127.636938283
 10
136.7045390819
 20
127.6328263866
 10
136.7204609753
 20
127.6278949037
 10
136.736862098
 20
127.6220907509
 10
136.7468656749
 20
127.6182023958
  0
LINE
  5
250
100
AcDbEntity
  8
RACCORDO
100
AcDbLine
 62
7
  6
CONTINUOUS
 10
135.4275028351
 20
128.4493235933
 11
134.6986536539
 21
128.0131966748
  0
LINE
  5
251
100
AcDbEntity
  8
0
100
AcDbLine
 62
7
  6
CONTINUOUS
 10
140.50236026
 20
126.8961736421
 11
139.0840607835
 21
126.4716075664
  0
LINE
  5
252
100
AcDbEntity
  8
0
100
AcDbLine
 62
253
  6
CONTINUOUS
 10
144.4076900193
 20
80.7943568022
 11
144.3980178276
 21
80.7985283415
  0
LINE
  5
253
100
AcDbEntity
  8
0
100
AcDbLine
 62
7
  6
CONTINUOUS
 10
144.4194928452
 20
80.7944350812
 11
144.4384941485
 21
80.7858673041
  0
LWPOLYLINE
  5
254
100
AcDbEntity
  8
0
100
AcDbPolyline
 62
7
  6
CONTINUOUS
 90
15
 70
0
 10
144.4384941485
 20
80.7858673041
 10
144.4566506876
 20
80.7757862657
 10
144.4738228623
 20
80.7642952173
 10
144.4898022347
 20
80.7515855907
 10
144.5045803011
 20
80.7377272503
 10
144.5182856499
 20
80.7226005021
 10
144.5308315405
 20
80.7062351725
 10
144.5420353326
 20
80.6888074288
 10
144.5518241865
 20
80.6703728087
 10
144.5600858169
 20
80.6510681852
 10
144.5667232313
 20
80.63105101
 10
144.5716767553
 20
80.6104088557
 10
144.5748759497
 20
80.5892847687
 10
144.5762615508
 20
80.5678871118
 10
144.5763207674
 20
80.5624764489
  0
LWPOLYLINE
  5
255
100
AcDbEntity
  8
0
100
AcDbPolyline
 62
253
  6
CONTINUOUS
 90
22
 70
0
 10
122.6969242746
 20
85.8375658844
 10
122.6980888444
 20
85.8288656205
 10
122.7007443881
 20
85.8146689916
 10
122.7043178806
 20
85.8006198237
 10
122.7088026682
 20
85.7867442758
 10
122.7141904003
 20
85.7730681838
 10
122.7204710451
 20
85.759617012
 10
122.7276329084
 20
85.7464158061
 10
122.735662655
 20
85.7334891462
 10
122.7445453338
 20
85.7208611013
 10
122.7542644055
 20
85.7085551844
 10
122.7648017736
 20
85.6965943087
 10
122.7761378179
 20
85.6850007449
 10
122.7882514311
 20
85.6737960798
 10
122.8011200579
 20
85.6630011762
 10
122.8147197377
 20
85.6526361336
 10
122.829025148
 20
85.6427202516
 10
122.8440096529
 20
85.633271993
 10
122.8596453517
 20
85.6243089503
 10
122.8759031313
 20
85.6158478123
 10
122.8927527202
 20
85.6079043333
 10
122.9101627452
 20
85.6004933039
  0
LWPOLYLINE
  5
256
100
AcDbEntity
  8
0
100
AcDbPolyline
 62
7
  6
CONTINUOUS
 90
18
 70
0
 10
122.6969244047
 20
85.8375658992
 10
122.6999493141
 20
85.8135885549
 10
122.7091262948
 20
85.7597545307
 10
122.7211408107
 20
85.7086803248
 10
122.735785089
 20
85.6604040318
 10
122.7529060101
 20
85.6147812358
 10
122.7724187429
 20
85.5716027907
 10
122.7941285595
 20
85.5309586001
 10
122.8178811572
 20
85.4928320978
 10
122.8436806139
 20
85.4570070795
 10
122.8713251383
 20
85.4236097076
 10
122.9006747497
 20
85.3926592038
 10
122.9318929253
 20
85.3639115616
 10
122.9648281582
 20
85.3374947978
 10
122.9993360034
 20
85.313506445
 10
123.035674605
 20
85.291804989
 10
123.0738555845
 20
85.2724934893
 10
123.1024265365
 20
85.2601694675
  0
LINE
  5
257
100
AcDbEntity
  8
0
100
AcDbLine
 62
7
  6
CONTINUOUS
 10
122.6968977611
 20
85.837799737
 11
122.6969242746
 21
85.8375658844
  0
LWPOLYLINE
  5
258
100
AcDbEntity
  8
0
100
AcDbPolyline
 62
253
  6
CONTINUOUS
 90
23
 70
0
 10
122.1431662484
 20
94.9586434365
 10
122.1438775228
 20
94.9451091657
 10
122.1455040458
 20
94.9325087823
 10
122.1480568893
 20
94.9199692584
 10
122.1515313011
 20
94.9075139366
 10
122.1559208135
 20
94.8951660025
 10
122.1612172555
 20
94.8829484417
 10
122.1674107677
 20
94.8708839974
 10
122.1744898209
 20
94.8589951275
 10
122.1824412373
 20
94.8473039633
 10
122.1912502153
 20
94.8358322678
 10
122.2009003571
 20
94.8246013958
 10
122.2113736988
 20
94.8136322535
 10
122.2226507443
 20
94.8029452601
 10
122.2347105012
 20
94.7925603094
 10
122.2475305204
 20
94.7824967331
 10
122.2610869371
 20
94.7727732645
 10
122.2753545163
 20
94.763408004
 10
122.2903066985
 20
94.7544183849
 10
122.3059156504
 20
94.7458211417
 10
122.3221523158
 20
94.7376322779
 10
122.33898647
 20
94.7298670374
 10
122.3563867762
 20
94.722539875
  0
LWPOLYLINE
  5
259
100
AcDbEntity
  8
0
100
AcDbPolyline
 62
7
  6
CONTINUOUS
 90
10
 70
0
 10
122.1431662477
 20
94.9586435893
 10
122.1618301822
 20
93.9277217385
 10
122.1916046944
 20
92.8773921165
 10
122.232112368
 20
91.8367754757
 10
122.2833482572
 20
90.8060903567
 10
122.3453056288
 20
89.7855492614
 10
122.4179759757
 20
88.7753626931
 10
122.5013490366
 20
87.7757389707
 10
122.5954122461
 20
86.7868891472
 10
122.6968977611
 20
85.837799737
  0
LWPOLYLINE
  5
25A
100
AcDbEntity
  8
0
100
AcDbPolyline
 62
253
  6
CONTINUOUS
 90
13
 70
0
 10
122.3563867761
 20
94.7225398749
 10
122.3409617342
 20
96.0063601764
 10
122.3283414164
 20
97.2926044036
 10
122.3185257791
 20
98.5812595091
 10
122.3115147867
 20
99.8723037755
 10
122.3073082626
 20
101.1657327263
 10
122.3059060823
 20
102.461559285
 10
122.3073082636
 20
103.7597704493
 10
122.3115147884
 20
105.0603532076
 10
122.3185257812
 20
106.3633207183
 10
122.3283414184
 20
107.6686688041
 10
122.3409617356
 20
108.9763757954
 10
122.3563867761
 20
110.2864287164
  0
LWPOLYLINE
  5
25B
100
AcDbEntity
  8
0
100
AcDbPolyline
 62
253
  6
CONTINUOUS
 90
24
 70
0
 10
122.1431643905
 20
110.5199434008
 10
122.1431803488
 20
110.514913609
 10
122.1438775237
 20
110.5028202146
 10
122.1455040468
 20
110.490746752
 10
122.1480568903
 20
110.4787156958
 10
122.1515313021
 20
110.466749442
 10
122.1559208145
 20
110.4548702659
 10
122.1612172565
 20
110.4431002805
 10
122.1674107688
 20
110.4314613957
 10
122.1744898219
 20
110.4199752774
 10
122.1824412383
 20
110.408663307
 10
122.1912502164
 20
110.3975465418
 10
122.2009003582
 20
110.3866456758
 10
122.2113736999
 20
110.3759810009
 10
122.2226507453
 20
110.3655723695
 10
122.2347105023
 20
110.3554391573
 10
122.2475305214
 20
110.3456002274
 10
122.2610869382
 20
110.3360738948
 10
122.2753545173
 20
110.3268778931
 10
122.2903066995
 20
110.3180293404
 10
122.3059156514
 20
110.3095447086
 10
122.3221523167
 20
110.3014397917
 10
122.3389864709
 20
110.293729677
 10
122.356386777
 20
110.2864287171
  0
LWPOLYLINE
  5
25C
100
AcDbEntity
  8
0
100
AcDbPolyline
 62
7
  6
CONTINUOUS
 90
10
 70
0
 10
122.1431643912
 20
110.5199435178
 10
122.1234526519
 20
108.7967444534
 10
122.1083848746
 20
107.0481953017
 10
122.0983407214
 20
105.3038282698
 10
122.093320441
 20
103.5636756747
 10
122.0933241864
 20
101.8277676808
 10
122.0983520389
 20
100.0961338263
 10
122.1084040083
 20
98.3688041512
 10
122.1234800077
 20
96.6458107014
 10
122.1431662484
 20
94.9586434365
  0
LWPOLYLINE
  5
25D
100
AcDbEntity
  8
0
100
AcDbPolyline
 62
253
  6
CONTINUOUS
 90
16
 70
0
 10
122.3563867761
 20
110.2864287164
 10
122.3666293937
 20
110.9372213155
 10
122.3806912779
 20
111.591105899
 10
122.398571335
 20
112.2480328524
 10
122.4202681238
 20
112.9079523271
 10
122.4457800061
 20
113.5708142621
 10
122.4751051482
 20
114.2365683888
 10
122.5082412502
 20
114.9051642602
 10
122.5451857552
 20
115.5765511054
 10
122.5859359996
 20
116.2506778511
 10
122.6304887878
 20
116.9274933286
 10
122.6788406777
 20
117.6069462447
 10
122.7309881933
 20
118.2889850375
 10
122.7869273739
 20
118.9735579749
 10
122.8466537728
 20
119.6606131578
 10
122.9101627443
 20
120.3500984903
  0
LWPOLYLINE
  5
25E
100
AcDbEntity
  8
0
100
AcDbPolyline
 62
253
  6
CONTINUOUS
 90
25
 70
0
 10
122.6959572566
 20
120.5683057274
 10
122.6956708807
 20
120.5645270199
 10
122.6955498002
 20
120.5544495593
 10
122.6963563405
 20
120.5443104119
 10
122.6980889999
 20
120.5341284564
 10
122.7007445521
 20
120.5239226512
 10
122.7043180526
 20
120.5137119993
 10
122.7088028476
 20
120.5035155124
 10
122.7141905864
 20
120.4933521761
 10
122.7204712373
 20
120.4832409141
 10
122.7276331058
 20
120.4732005532
 10
122.7356628568
 20
120.4632497882
 10
122.7445455391
 20
120.4534071471
 10
122.7542646134
 20
120.4436909564
 10
122.7648019832
 20
120.4341193074
 10
122.7761380282
 20
120.4247100221
 10
122.7882516412
 20
120.4154806202
 10
122.8011202669
 20
120.4064482865
 10
122.8147199444
 20
120.3976298388
 10
122.8290253518
 20
120.3890416968
 10
122.8440098528
 20
120.3806998513
 10
122.8596455468
 20
120.3726198344
 10
122.8759033209
 20
120.3648166907
 10
122.8927529036
 20
120.3573049495
 10
122.9101629217
 20
120.3500985974
  0
LWPOLYLINE
  5
25F
100
AcDbEntity
  8
0
100
AcDbPolyline
 62
7
  6
CONTINUOUS
 90
10
 70
0
 10
122.6959702755
 20
120.5684454952
 10
122.5945016921
 20
119.4468200285
 10
122.500675008
 20
118.3006099587
 10
122.4174883617
 20
117.161451057
 10
122.3449611977
 20
116.0295813631
 10
122.2831107965
 20
114.9052352251
 10
122.2319526538
 20
113.7886478774
 10
122.191500207
 20
112.6800504725
 10
122.1617650081
 20
111.5796753721
 10
122.1431643905
 20
110.5199434008
  0
LWPOLYLINE
  5
260
100
AcDbEntity
  8
0
100
AcDbPolyline
 62
253
  6
CONTINUOUS
 90
42
 70
0
 10
122.9101627443
 20
120.3500984903
 10
122.9132121617
 20
120.3789706475
 10
122.9168532375
 20
120.4081787946
 10
122.9210820584
 20
120.437691935
 10
122.9258940076
 20
120.467478785
 10
122.9312839839
 20
120.497507706
 10
122.9372464053
 20
120.527746737
 10
122.9437748349
 20
120.5581637922
 10
122.9508622791
 20
120.5887266119
 10
122.9585014099
 20
120.6194026962
 10
122.9666839981
 20
120.6501595361
 10
122.975401265
 20
120.680964488
 10
122.9846441823
 20
120.7117847249
 10
122.9944027868
 20
120.7425875604
 10
123.0046666108
 20
120.7733403422
 10
123.0154250389
 20
120.8040103255
 10
123.0266664895
 20
120.834565017
 10
123.0383788917
 20
120.8649720088
 10
123.0505501178
 20
120.8951988712
 10
123.0631670606
 20
120.9252135704
 10
123.0762161743
 20
120.9549842971
 10
123.0896839543
 20
120.9844792992
 10
123.1035559037
 20
121.013667333
 10
123.1178171225
 20
121.0425174662
 10
123.1324528499
 20
121.0709989054
 10
123.1474473361
 20
121.0990814897
 10
123.1627844703
 20
121.1267354653
 10
123.1784483708
 20
121.1539312875
 10
123.194422179
 20
121.1806401581
 10
123.2106887324
 20
121.2068337955
 10
123.227231194
 20
121.2324842082
 10
123.244031767
 20
121.25756425
 10
123.2610723929
 20
121.2820473658
 10
123.278335425
 20
121.3059073607
 10
123.2958022911
 20
121.3291189898
 10
123.3134542156
 20
121.3516576905
 10
123.3312729175
 20
121.3734993265
 10
123.3492392186
 20
121.3946207963
 10
123.3673338137
 20
121.4149997644
 10
123.3855379935
 20
121.4346143909
 10
123.4038324311
 20
121.4534438428
 10
123.4221972028
 20
121.4714683168
  0
LWPOLYLINE
  5
261
100
AcDbEntity
  8
0
100
AcDbPolyline
 62
7
  6
CONTINUOUS
 90
7
 70
0
 10
130.2872489408
 20
125.2221905674
 10
130.2962317345
 20
125.2384469901
 10
130.3039822565
 20
125.2553240198
 10
130.3104617115
 20
125.2727394903
 10
130.3156440917
 20
125.29064572
 10
130.3194842573
 20
125.3089258281
 10
130.3219444587
 20
125.3273957637
  0
LINE
  5
262
100
AcDbEntity
  8
0
100
AcDbLine
 62
253
  6
CONTINUOUS
 10
129.8512586174
 20
124.5596862034
 11
130.2786939763
 21
125.2695836815
  0
LINE
  5
263
100
AcDbEntity
  8
0
100
AcDbLine
 62
7
  6
CONTINUOUS
 10
129.8512586174
 20
124.4980847474
 11
130.2872489408
 21
125.2221905674
  0
LINE
  5
264
100
AcDbEntity
  8
0
100
AcDbLine
 62
7
  6
CONTINUOUS
 10
132.1448843414
 20
124.1214167001
 11
131.2916682176
 21
123.4066276926
  0
LINE
  5
265
100
AcDbEntity
  8
0
100
AcDbLine
 62
7
  6
CONTINUOUS
 10
132.0627141289
 20
123.0969582718
 11
132.7503384698
 21
123.6659404358
  0
LINE
  5
266
100
AcDbEntity
  8
0
100
AcDbLine
 62
7
  6
CONTINUOUS
 10
137.2265705129
 20
127.2983337993
 11
133.4966552198
 21
124.2739568913
  0
LINE
  5
267
100
AcDbEntity
  8
0
100
AcDbLine
 62
7
  6
CONTINUOUS
 10
137.2518356512
 20
126.0081765971
 11
137.2822596997
 21
126.0328457337
  0
LINE
  5
268
100
AcDbEntity
  8
0
100
AcDbLine
 62
7
  6
CONTINUOUS
 10
136.4841325874
 20
127.596513608
 11
132.1448843414
 21
124.1214167001
  0
LWPOLYLINE
  5
269
100
AcDbEntity
  8
0
100
AcDbPolyline
 62
7
  6
CONTINUOUS
 90
6
 70
0
 10
137.2265705129
 20
127.2983337993
 10
137.2307996551
 20
127.3017179374
 10
137.235021483
 20
127.3050079337
 10
137.2392359966
 20
127.3082037881
 10
137.2434431958
 20
127.3113055006
 10
137.2476430807
 20
127.3143130714
  0
LWPOLYLINE
  5
26A
100
AcDbEntity
  8
0
100
AcDbPolyline
 62
7
  6
CONTINUOUS
 90
31
 70
0
 10
137.2793749768
 20
126.030945246
 10
137.3012192774
 20
126.0478514633
 10
137.3236618094
 20
126.064089022
 10
137.3467025729
 20
126.0796579222
 10
137.3702642329
 20
126.0945051006
 10
137.3944241243
 20
126.1086836204
 10
137.4194142521
 20
126.122352672
 10
137.445344492
 20
126.1355807836
 10
137.4721049682
 20
126.148299427
 10
137.4995980592
 20
126.1604622077
 10
137.5278264387
 20
126.1720670944
 10
137.556787433
 20
126.1831161183
 10
137.5863753995
 20
126.193568979
 10
137.6165926303
 20
126.2034234995
 10
137.6474368333
 20
126.2126818566
 10
137.6787954903
 20
126.2213102804
 10
137.7106704769
 20
126.2293064692
 10
137.7430599174
 20
126.2366727246
 10
137.7758456668
 20
126.2433821816
 10
137.8090291743
 20
126.2494324417
 10
137.8426089906
 20
126.2548259033
 10
137.8764626233
 20
126.2595428966
 10
137.9105910691
 20
126.2635809507
 10
137.9449933312
 20
126.2669425364
 10
137.9795439261
 20
126.2696153967
 10
138.0142433976
 20
126.2715970164
 10
138.0490912018
 20
126.2728899106
 10
138.0839602243
 20
126.2734893677
 10
138.1188080935
 20
126.273393817
 10
138.153677181
 20
126.2726048291
 10
138.1885674868
 20
126.271122404
  0
LWPOLYLINE
  5
26B
100
AcDbEntity
  8
RACCORDO
100
AcDbPolyline
 62
7
  6
CONTINUOUS
 90
5
 70
0
 10
137.3643307429
 20
124.870727198
 10
137.3789535113
 20
124.8799121903
 10
137.3950568004
 20
124.8881382939
 10
137.4128140084
 20
124.895275948
 10
137.4323412704
 20
124.9011732018
  0
LWPOLYLINE
  5
26C
100
AcDbEntity
  8
RACCORDO
100
AcDbPolyline
 62
253
  6
CONTINUOUS
 90
9
 70
0
 10
137.3873664911
 20
124.8884414304
 10
137.4176751868
 20
124.9065775197
 10
137.450906811
 20
124.9201124222
 10
137.4866974051
 20
124.9288978999
 10
137.5246549925
 20
124.932837735
 10
137.5643638319
 20
124.9318887553
 10
137.6053890159
 20
124.9260613406
 10
137.6472812331
 20
124.9154193093
 10
137.6895816656
 20
124.9000792012
  0
LINE
  5
26D
100
AcDbEntity
  8
RACCORDO
100
AcDbLine
 62
7
  6
CONTINUOUS
 10
127.3897178773
 20
93.9375501232
 11
126.9546491848
 21
94.2995552142
  0
LWPOLYLINE
  5
26E
100
AcDbEntity
  8
RACCORDO
100
AcDbPolyline
 62
7
  6
CONTINUOUS
 90
15
 70
0
 10
127.8452286059
 20
92.9918918718
 10
127.8461347309
 20
92.990051934
 10
127.852007704
 20
92.9790589721
 10
127.8586484526
 20
92.9681734086
 10
127.8660382226
 20
92.9574559677
 10
127.8740655358
 20
92.9468859627
 10
127.8827060174
 20
92.9364964712
 10
127.8919368118
 20
92.9263358565
 10
127.9016568451
 20
92.916400921
 10
127.911844555
 20
92.9067176611
 10
127.9224749166
 20
92.8973236911
 10
127.933444113
 20
92.8882294416
 10
127.9447013218
 20
92.8794540107
 10
127.9562484463
 20
92.8710250408
 10
127.9680608231
 20
92.862961782
  0
LINE
  5
26F
100
AcDbEntity
  8
RACCORDO
100
AcDbLine
 62
253
  6
CONTINUOUS
 10
126.0253595407
 20
92.5315486532
 11
125.8798081301
 21
92.8283967417
  0
LINE
  5
270
100
AcDbEntity
  8
RACCORDO
100
AcDbLine
 62
253
  6
CONTINUOUS
 10
126.1950516854
 20
92.8258789993
 11
126.0196861446
 21
93.1845398136
  0
LINE
  5
271
100
AcDbEntity
  8
RACCORDO
100
AcDbLine
 62
253
  6
CONTINUOUS
 10
125.8798081301
 20
92.8283967417
 11
125.734881393
 21
93.1257530026
  0
LINE
  5
272
100
AcDbEntity
  8
RACCORDO
100
AcDbLine
 62
253
  6
CONTINUOUS
 10
126.0196861446
 20
93.1845398136
 11
125.845131918
 21
93.5439688467
  0
LWPOLYLINE
  5
273
100
AcDbEntity
  8
RACCORDO
100
AcDbPolyline
 62
253
  6
CONTINUOUS
 90
10
 70
0
 10
125.845131918
 20
93.5439688467
 10
125.5317279537
 20
94.1921909493
 10
125.2188145298
 20
94.8408129714
 10
124.9063916465
 20
95.4898349128
 10
124.5944584626
 20
96.1392585417
 10
124.2830158192
 20
96.7890820901
 10
123.9720662397
 20
97.4393002538
 10
123.6616105653
 20
98.089911265
 10
123.3516479549
 20
98.7409168917
 10
123.0480532796
 20
99.3799511593
  0
LWPOLYLINE
  5
274
100
AcDbEntity
  8
RACCORDO
100
AcDbPolyline
 62
253
  6
CONTINUOUS
 90
10
 70
0
 10
125.734881393
 20
93.1257530026
 10
125.2678749711
 20
94.091304817
 10
124.9456904916
 20
94.7594207571
 10
124.6240262785
 20
95.4279619316
 10
124.3028822256
 20
96.096926565
 10
123.9822584493
 20
96.7663144927
 10
123.6621552972
 20
97.4361271677
 10
123.3425728951
 20
98.1063644332
 10
123.0235111395
 20
98.7770245161
 10
122.7049700396
 20
99.4481064497
  0
LINE
  5
275
100
AcDbEntity
  8
RACCORDO
100
AcDbLine
 62
253
  6
CONTINUOUS
 10
127.4439784609
 20
93.9508899453
 11
127.9680636065
 21
92.8629588648
  0
LWPOLYLINE
  5
276
100
AcDbEntity
  8
RACCORDO
100
AcDbPolyline
 62
253
  6
CONTINUOUS
 90
6
 70
0
 10
124.6627660162
 20
99.789839956
 10
125.2401129105
 20
98.5685485124
 10
125.807009947
 20
97.3740876081
 10
126.3633536824
 20
96.2063768506
 10
126.9090428699
 20
95.0653369876
 10
127.4439784609
 20
93.9508899453
  0
LWPOLYLINE
  5
277
100
AcDbEntity
  8
RACCORDO
100
AcDbPolyline
 62
7
  6
CONTINUOUS
 90
10
 70
0
 10
124.65368888
 20
99.678222504
 10
124.9487536612
 20
99.0538967414
 10
125.3175490516
 20
98.2753509546
 10
125.687003913
 20
97.4973928039
 10
126.0571175967
 20
96.7200235946
 10
126.427889484
 20
95.9432445691
 10
126.7993189328
 20
95.1670570191
 10
127.1714051869
 20
94.3914624763
 10
127.5441474519
 20
93.6164625517
 10
127.8452267226
 20
92.9918898559
  0
LINE
  5
278
100
AcDbEntity
  8
DRAFT
100
AcDbLine
 62
7
  6
CONTINUOUS
 10
127.2350031856
 20
93.7013713534
 11
124.4583798519
 21
99.6257785692
  0
LWPOLYLINE
  5
279
100
AcDbEntity
  8
RACCORDO
100
AcDbPolyline
 62
253
  6
CONTINUOUS
 90
19
 70
0
 10
127.2795241006
 20
92.7452969357
 10
127.2726618007
 20
92.7607525645
 10
127.2667234484
 20
92.7768285026
 10
127.2617541809
 20
92.7934025575
 10
127.2577917693
 20
92.8103487508
 10
127.2548663318
 20
92.8275382753
 10
127.2530001044
 20
92.8448404742
 10
127.2522072722
 20
92.8621238345
 10
127.2524938615
 20
92.8792569862
 10
127.253857694
 20
92.896109701
 10
127.2562884032
 20
92.9125538824
 10
127.2597675135
 20
92.928464539
 10
127.2642685802
 20
92.9437207346
 10
127.269757391
 20
92.9582065077
 10
127.2761922258
 20
92.9718117527
 10
127.2835241737
 20
92.9844330568
 10
127.2916975049
 20
92.9959744861
 10
127.3006500944
 20
93.0063483147
 10
127.3103138939
 20
93.0154756918
  0
LWPOLYLINE
  5
27A
100
AcDbEntity
  8
0
100
AcDbPolyline
 62
253
  6
CONTINUOUS
 90
27
 70
0
 10
128.5491476796
 20
123.8615490416
 10
128.5454841664
 20
123.8504415679
 10
128.5413686176
 20
123.83954633
 10
128.5368103219
 20
123.8288879177
 10
128.5318195671
 20
123.8184903866
 10
128.5264076169
 20
123.8083772031
 10
128.520586686
 20
123.7985711923
 10
128.5143699117
 20
123.7890944856
 10
128.5077713249
 20
123.7799684714
 10
128.5008058183
 20
123.7712137466
 10
128.4934891126
 20
123.7628500701
 10
128.4858377212
 20
123.7548963183
 10
128.4778689128
 20
123.7473704422
 10
128.4696006726
 20
123.7402894273
 10
128.4610516614
 20
123.7336692551
 10
128.452241174
 20
123.7275248668
 10
128.4431890949
 20
123.7218701301
 10
128.4339158544
 20
123.7167178074
 10
128.4244423814
 20
123.712079527
 10
128.4147900571
 20
123.7079657574
 10
128.4049806662
 20
123.704385783
 10
128.3950363479
 20
123.7013476837
 10
128.3849795459
 20
123.6988583163
 10
128.374832958
 20
123.6969232991
 10
128.3646194842
 20
123.6955469993
 10
128.3543621759
 20
123.6947325233
 10
128.3440841831
 20
123.6944817091
  0
LWPOLYLINE
  5
27B
100
AcDbEntity
  8
0
100
AcDbPolyline
 62
7
  6
CONTINUOUS
 90
14
 70
0
 10
137.2793749768
 20
126.030945246
 10
137.2877924657
 20
126.0414107667
 10
137.2955093869
 20
126.0517257452
 10
137.3025257403
 20
126.0618901816
 10
137.3088446909
 20
126.0718184362
 10
137.3144630739
 20
126.0815961487
 10
137.3193713944
 20
126.0914802379
 10
137.3235721198
 20
126.1015728284
 10
137.3270627827
 20
126.1117717956
 10
137.3298264868
 20
126.1220276844
 10
137.3318597013
 20
126.1323407647
 10
137.3331659571
 20
126.1427107666
 10
137.3337389498
 20
126.1530874253
 10
137.333767245
 20
126.155979514
  0
LINE
  5
27C
100
AcDbEntity
  8
0
100
AcDbLine
 62
7
  6
CONTINUOUS
 10
132.0627141289
 20
121.7290686224
 11
132.6362905653
 21
122.2418448723
  0
LINE
  5
27D
100
AcDbEntity
  8
0
100
AcDbLine
 62
7
  6
CONTINUOUS
 10
134.9709588942
 20
121.6757581764
 11
134.7988859633
 21
121.5219253014
  0
LINE
  5
27E
100
AcDbEntity
  8
DRAFT
100
AcDbLine
 62
7
  6
CONTINUOUS
 10
135.5445353305
 20
122.7051628404
 11
135.8465490892
 21
122.9563221038
  0
LINE
  5
27F
100
AcDbEntity
  8
0
100
AcDbLine
 62
253
  6
CONTINUOUS
 10
134.6343881717
 20
122.9092636007
 11
134.8071284853
 21
123.052199433
  0
LINE
  5
280
100
AcDbEntity
  8
0
100
AcDbLine
 62
253
  6
CONTINUOUS
 10
134.7988859633
 20
122.6801846666
 11
134.9709588942
 21
122.8225682659
  0
LINE
  5
281
100
AcDbEntity
  8
0
100
AcDbLine
 62
7
  6
CONTINUOUS
 10
138.1885674868
 20
125.7380624018
 11
139.0840607835
 21
126.4716075664
  0
LINE
  5
282
100
AcDbEntity
  8
0
100
AcDbLine
 62
7
  6
CONTINUOUS
 10
135.5445353305
 20
122.1413153775
 11
134.9709588942
 21
121.6757581764
  0
LINE
  5
283
100
AcDbEntity
  8
0
100
AcDbLine
 62
7
  6
CONTINUOUS
 10
139.9321207373
 20
127.6848709141
 11
138.1885674868
 21
126.271122404
  0
LINE
  5
284
100
AcDbEntity
  8
0
100
AcDbLine
 62
253
  6
CONTINUOUS
 10
134.8071284853
 20
123.052199433
 11
135.3807049217
 21
123.5172800562
  0
LINE
  5
285
100
AcDbEntity
  8
0
100
AcDbLine
 62
253
  6
CONTINUOUS
 10
134.9709588942
 20
122.8225682659
 11
135.5445353305
 21
123.2876488891
  0
LINE
  5
286
100
AcDbEntity
  8
RACCORDO
100
AcDbLine
 62
253
  6
CONTINUOUS
 10
137.7102114985
 20
124.9162273614
 11
137.7467790362
 21
124.9455408157
  0
LWPOLYLINE
  5
287
100
AcDbEntity
  8
RACCORDO
100
AcDbPolyline
 62
253
  6
CONTINUOUS
 90
62
 70
0
 10
137.7467790362
 20
124.9455408157
 10
137.7546182218
 20
124.951732736
 10
137.7626772716
 20
124.9580249961
 10
137.7709558087
 20
124.9644162574
 10
137.7795130585
 20
124.970887856
 10
137.7883484132
 20
124.9774401636
 10
137.7974624806
 20
124.9840728085
 10
137.8069163104
 20
124.9907660118
 10
137.8167110347
 20
124.9975215985
 10
137.8268455212
 20
125.0043377435
 10
137.8373774226
 20
125.0111891932
 10
137.8483105104
 20
125.0180792289
 10
137.859641013
 20
125.0250045692
 10
137.8714152684
 20
125.0319301157
 10
137.8836358644
 20
125.038857961
 10
137.8963002132
 20
125.0457860126
 10
137.9094468897
 20
125.0526728943
 10
137.9230782918
 20
125.0595205066
 10
137.9371920217
 20
125.0663269491
 10
137.951819461
 20
125.0730451436
 10
137.9669756397
 20
125.0796812312
 10
137.9826455278
 20
125.0862290708
 10
137.9988154172
 20
125.0926231614
 10
138.0155412144
 20
125.0988768413
 10
138.0327670127
 20
125.104976772
 10
138.0503113845
 20
125.1108174371
 10
138.0681854745
 20
125.1163879434
 10
138.086378138
 20
125.1216991841
 10
138.1046745122
 20
125.1266783211
 10
138.1230634286
 20
125.1313101241
 10
138.1415560558
 20
125.1356098236
 10
138.1599710378
 20
125.1395502729
 10
138.1782878422
 20
125.1431199243
 10
138.1965270014
 20
125.1463303255
 10
138.2145687565
 20
125.1491889729
 10
138.2323899674
 20
125.1516900699
 10
138.2500137743
 20
125.1538394131
 10
138.267389838
 20
125.1556618882
 10
138.2845199848
 20
125.1571571567
 10
138.3014023886
 20
125.1583255571
 10
138.3179812311
 20
125.1591929905
 10
138.334255031
 20
125.1597581639
 10
138.3502252696
 20
125.1600223703
 10
138.3658405733
 20
125.1600153903
 10
138.3810878843
 20
125.1597368755
 10
138.3959802604
 20
125.1591871742
 10
138.4105055004
 20
125.1583971121
 10
138.4246569022
 20
125.1573680549
 10
138.438441168
 20
125.156098637
 10
138.4518662031
 20
125.1546155868
 10
138.4649278744
 20
125.1529210293
 10
138.477630315
 20
125.1510128395
 10
138.4899938302
 20
125.1489113709
 10
138.5020171155
 20
125.1466189646
 10
138.5137014754
 20
125.1441332795
 10
138.5250711277
 20
125.1414676463
 10
138.5361265264
 20
125.1386241955
 10
138.5468672175
 20
125.1356007966
 10
138.5573160577
 20
125.1324043888
 10
138.567480666
 20
125.1290372851
 10
138.5773534234
 20
125.1254971725
 10
138.58693433
 20
125.1217840509
  0
LWPOLYLINE
  5
288
100
AcDbEntity
  8
RACCORDO
100
AcDbPolyline
 62
253
  6
CONTINUOUS
 90
3
 70
0
 10
137.6895816656
 20
124.9000792012
 10
137.6963630056
 20
124.9053404651
 10
137.7102114985
 20
124.9162273614
  0
LINE
  5
289
100
AcDbEntity
  8
RACCORDO
100
AcDbLine
 62
7
  6
CONTINUOUS
 10
137.3798922311
 20
124.8829073252
 11
137.380749097
 21
124.8835661976
  0
LINE
  5
28A
100
AcDbEntity
  8
RACCORDO
100
AcDbLine
 62
253
  6
CONTINUOUS
 10
137.6589732586
 20
124.8766595418
 11
137.6895816656
 21
124.9000792012
  0
LINE
  5
28B
100
AcDbEntity
  8
RACCORDO
100
AcDbLine
 62
253
  6
CONTINUOUS
 10
137.380749097
 20
124.8835661976
 11
137.3873664911
 21
124.8884414304
  0
LINE
  5
28C
100
AcDbEntity
  8
RACCORDO
100
AcDbLine
 62
7
  6
CONTINUOUS
 10
137.3566076579
 20
124.8650967882
 11
137.3643307429
 21
124.870727198
  0
LWPOLYLINE
  5
28D
100
AcDbEntity
  8
RACCORDO
100
AcDbPolyline
 62
7
  6
CONTINUOUS
 90
5
 70
0
 10
137.4835580749
 20
124.956374179
 10
137.4567208187
 20
124.9385300225
 10
137.431070044
 20
124.9207023821
 10
137.4060687789
 20
124.9026021973
 10
137.3798920411
 20
124.8829075882
  0
LINE
  5
28E
100
AcDbEntity
  8
0
100
AcDbLine
 62
7
  6
CONTINUOUS
 10
136.1660651496
 20
90.5979142946
 11
137.1945434486
 21
90.5252661049
  0
LINE
  5
28F
100
AcDbEntity
  8
RACCORDO
100
AcDbLine
 62
253
  6
CONTINUOUS
 10
122.3563867761
 20
94.7225398749
 11
125.5905797098
 21
93.4236150796
  0
LINE
  5
290
100
AcDbEntity
  8
RACCORDO
100
AcDbLine
 62
253
  6
CONTINUOUS
 10
127.2795241008
 20
92.7452969358
 11
134.6534382503
 21
89.7837667723
  0
LINE
  5
291
100
AcDbEntity
  8
RACCORDO
100
AcDbLine
 62
253
  6
CONTINUOUS
 10
136.3423826413
 20
89.1054486286
 11
139.5765755749
 21
87.8065238332
  0
LWPOLYLINE
  5
292
100
AcDbEntity
  8
RACCORDO
100
AcDbPolyline
 62
7
  6
CONTINUOUS
 90
21
 70
0
 10
122.7049699896
 20
99.4481039687
 10
122.7171803272
 20
99.4402342917
 10
122.729783537
 20
99.4325645326
 10
122.7427760273
 20
99.4251322826
 10
122.756177938
 20
99.4179821613
 10
122.7699561588
 20
99.4111473193
 10
122.7840247363
 20
99.4046499975
 10
122.7983679122
 20
99.398536147
 10
122.8129765371
 20
99.3928418797
 10
122.8277734251
 20
99.3875797611
 10
122.8427379363
 20
99.3828005564
 10
122.8578544227
 20
99.3785443102
 10
122.8730532948
 20
99.3748205366
 10
122.8883131782
 20
99.3716884312
 10
122.9036047046
 20
99.3691972461
 10
122.9188449301
 20
99.3673655264
 10
122.9340090604
 20
99.3662664109
 10
122.9490469944
 20
99.3659626691
 10
122.9638307386
 20
99.3664939563
 10
122.9783637339
 20
99.3679566104
 10
122.9853962125
 20
99.3690460582
  0
LINE
  5
293
100
AcDbEntity
  8
0
100
AcDbLine
 62
7
  6
CONTINUOUS
 10
126.7677099442
 20
95.2331112954
 11
126.5128304361
 21
95.4382541209
  0
LINE
  5
294
100
AcDbEntity
  8
RACCORDO
100
AcDbLine
 62
253
  6
CONTINUOUS
 10
135.9321948659
 20
88.552740201
 11
135.5054593994
 21
88.9625191382
  0
LINE
  5
295
100
AcDbEntity
  8
RACCORDO
100
AcDbLine
 62
253
  6
CONTINUOUS
 10
135.9812449804
 20
88.8981757079
 11
135.4152540361
 21
89.4416705594
  0
LINE
  5
296
100
AcDbEntity
  8
RACCORDO
100
AcDbLine
 62
253
  6
CONTINUOUS
 10
135.5054593994
 20
88.9625191382
 11
135.0792070697
 21
89.3728621161
  0
LINE
  5
297
100
AcDbEntity
  8
RACCORDO
100
AcDbLine
 62
253
  6
CONTINUOUS
 10
135.4152540361
 20
89.4416705594
 11
134.8480335001
 21
89.9881575641
  0
LINE
  5
298
100
AcDbEntity
  8
RACCORDO
100
AcDbLine
 62
253
  6
CONTINUOUS
 10
134.8480335001
 20
89.9881575641
 11
134.2920483731
 21
90.5248683384
  0
LINE
  5
299
100
AcDbEntity
  8
RACCORDO
100
AcDbLine
 62
253
  6
CONTINUOUS
 10
135.0792070697
 20
89.3728621161
 11
133.9545138755
 21
90.4586654693
  0
LINE
  5
29A
100
AcDbEntity
  8
DRAFT
100
AcDbLine
 62
7
  6
CONTINUOUS
 10
126.5424552989
 20
95.1790423243
 11
126.4636588089
 21
95.8684963099
  0
LWPOLYLINE
  5
29B
100
AcDbEntity
  8
0
100
AcDbPolyline
 62
253
  6
CONTINUOUS
 90
20
 70
0
 10
126.257290871
 20
124.607976925
 10
126.2574273504
 20
124.5991559948
 10
126.2578365289
 20
124.5905754505
 10
126.2585176275
 20
124.5822516257
 10
126.2594693497
 20
124.5742003653
 10
126.2606898839
 20
124.5664369953
 10
126.2621769068
 20
124.5589762937
 10
126.2639275876
 20
124.5518324623
 10
126.2659385939
 20
124.5450191
 10
126.2682060976
 20
124.5385491762
 10
126.2707257824
 20
124.5324350068
 10
126.2734928519
 20
124.5266882306
 10
126.2765020389
 20
124.5213197868
 10
126.2797476151
 20
124.5163398946
 10
126.2832234025
 20
124.5117580335
 10
126.2869227847
 20
124.5075829253
 10
126.2908387197
 20
124.5038225176
 10
126.2949637532
 20
124.5004839685
 10
126.2992900332
 20
124.4975736332
 10
126.3038093242
 20
124.4950970515
  0
LINE
  5
29C
100
AcDbEntity
  8
0
100
AcDbLine
 62
253
  6
CONTINUOUS
 10
126.1506849861
 20
125.0469801422
 11
126.1506849801
 21
125.0470114447
  0
LINE
  5
29D
100
AcDbEntity
  8
0
100
AcDbLine
 62
7
  6
CONTINUOUS
 10
126.1506849801
 20
125.0470114517
 11
126.1506849801
 21
124.7254385025
  0
LINE
  5
29E
100
AcDbEntity
  8
0
100
AcDbLine
 62
253
  6
CONTINUOUS
 10
126.257290871
 20
124.9295498741
 11
126.257290871
 21
124.607976925
  0
LINE
  5
29F
100
AcDbEntity
  8
0
100
AcDbLine
 62
7
  6
CONTINUOUS
 10
126.7194957293
 20
124.3279877652
 11
126.7194957293
 21
123.9542604518
  0
LINE
  5
2A0
100
AcDbEntity
  8
0
100
AcDbLine
 62
253
  6
CONTINUOUS
 10
126.8261016202
 20
124.285172436
 11
126.8261016202
 21
123.8322102626
  0
LWPOLYLINE
  5
2A1
100
AcDbEntity
  8
0
100
AcDbPolyline
 62
253
  6
CONTINUOUS
 90
34
 70
0
 10
126.257290871
 20
124.9295498741
 10
126.2574521318
 20
124.9393914539
 10
126.2579355523
 20
124.9494751072
 10
126.2587400467
 20
124.9597781548
 10
126.2598638078
 20
124.9702774308
 10
126.2613043088
 20
124.9809493141
 10
126.2630583077
 20
124.9917697814
 10
126.2651218576
 20
125.002714489
 10
126.2674903176
 20
125.0137588253
 10
126.2701583593
 20
125.0248779458
 10
126.2731199816
 20
125.0360468428
 10
126.276368522
 20
125.0472403933
 10
126.2798966705
 20
125.0584334119
 10
126.2836964897
 20
125.0696007216
 10
126.2877594323
 20
125.0807172068
 10
126.2920763575
 20
125.0917578614
 10
126.2966375568
 20
125.102697859
 10
126.3014327677
 20
125.1135125886
 10
126.3064511944
 20
125.1241777072
 10
126.3116815324
 20
125.1346692003
 10
126.3171120294
 20
125.1449635032
 10
126.3227305069
 20
125.1550375303
 10
126.3285243848
 20
125.164868713
 10
126.3344805815
 20
125.1744348415
 10
126.3405855686
 20
125.1837142008
 10
126.3468255225
 20
125.1926858186
 10
126.3531864839
 20
125.2013296629
 10
126.3596542639
 20
125.2096264664
 10
126.3662153099
 20
125.2175587345
 10
126.3728538977
 20
125.2251073491
 10
126.3795521864
 20
125.2322523292
 10
126.3862940749
 20
125.2389772059
 10
126.3930653368
 20
125.24526849
 10
126.3998507517
 20
125.2511126372
  0
LWPOLYLINE
  5
2A2
100
AcDbEntity
  8
0
100
AcDbPolyline
 62
253
  6
CONTINUOUS
 90
34
 70
0
 10
128.2018032535
 20
124.1485898633
 10
128.2019645143
 20
124.1584314431
 10
128.2024479348
 20
124.1685150964
 10
128.2032524293
 20
124.178818144
 10
128.2043761903
 20
124.1893174199
 10
128.2058166914
 20
124.1999893033
 10
128.2075706902
 20
124.2108097706
 10
128.2096342401
 20
124.2217544781
 10
128.2120027001
 20
124.2327988145
 10
128.2146707418
 20
124.243917935
 10
128.2176323641
 20
124.255086832
 10
128.2208809045
 20
124.2662803825
 10
128.224409053
 20
124.2774734011
 10
128.2282088722
 20
124.2886407107
 10
128.2322718148
 20
124.299757196
 10
128.23658874
 20
124.3107978506
 10
128.2411499393
 20
124.3217378481
 10
128.2459451502
 20
124.3325525777
 10
128.250963577
 20
124.3432176964
 10
128.2561939149
 20
124.3537091895
 10
128.2616244119
 20
124.3640034923
 10
128.2672428894
 20
124.3740775195
 10
128.2730367674
 20
124.3839087021
 10
128.2789929641
 20
124.3934748307
 10
128.2850979511
 20
124.40275419
 10
128.2913379051
 20
124.4117258078
 10
128.2976988664
 20
124.4203696521
 10
128.3041666465
 20
124.4286664556
 10
128.3107276924
 20
124.4365987237
 10
128.3173662802
 20
124.4441473382
 10
128.3240645689
 20
124.4512923183
 10
128.3308064574
 20
124.4580171951
 10
128.3375777193
 20
124.4643084791
 10
128.3443631342
 20
124.4701526264
  0
LWPOLYLINE
  5
2A3
100
AcDbEntity
  8
RACCORDO
100
AcDbPolyline
 62
7
  6
CONTINUOUS
 90
15
 70
0
 10
124.6627562657
 20
99.7898611703
 10
124.6597861842
 20
99.7793397472
 10
124.6570890435
 20
99.769047969
 10
124.6546995655
 20
99.7589992759
 10
124.6526695729
 20
99.7491726691
 10
124.651018336
 20
99.7396142947
 10
124.6497327233
 20
99.730437547
 10
124.6488526635
 20
99.7216525538
 10
124.6484104645
 20
99.7132694833
 10
124.6483852439
 20
99.7054025945
 10
124.648820273
 20
99.6980574432
 10
124.6497494382
 20
99.6912457536
 10
124.6511487474
 20
99.6850954106
 10
124.6530694931
 20
99.67960371
 10
124.6536894319
 20
99.678221335
  0
LINE
  5
2A4
100
AcDbEntity
  8
RACCORDO
100
AcDbLine
 62
7
  6
CONTINUOUS
 10
135.5743500946
 20
122.6105350817
 11
137.3225213494
 21
124.8313182013
  0
LINE
  5
2A5
100
AcDbEntity
  8
RACCORDO
100
AcDbLine
 62
253
  6
CONTINUOUS
 10
135.8010187773
 20
122.5194998286
 11
137.657127449
 21
124.8774008606
  0
LWPOLYLINE
  5
2A6
100
AcDbEntity
  8
RACCORDO
100
AcDbPolyline
 62
7
  6
CONTINUOUS
 90
5
 70
0
 10
137.322367558
 20
124.8311221761
 10
137.3285486648
 20
124.8386207179
 10
137.3391991077
 20
124.8499581463
 10
137.3510967893
 20
124.8606981397
 10
137.3566076579
 20
124.8650967882
  0
LINE
  5
2A7
100
AcDbEntity
  8
0
100
AcDbLine
 62
7
  6
CONTINUOUS
 10
136.6460118866
 20
122.2532267828
 11
136.4735183901
 21
122.110495182
  0
LINE
  5
2A8
100
AcDbEntity
  8
0
100
AcDbLine
 62
253
  6
CONTINUOUS
 10
136.7730933916
 20
122.2626236049
 11
136.600353078
 21
122.1196877727
  0
LINE
  5
2A9
100
AcDbEntity
  8
0
100
AcDbLine
 62
7
  6
CONTINUOUS
 10
138.4844027799
 20
121.3630109375
 11
137.796778439
 21
120.7940287734
  0
LINE
  5
2AA
100
AcDbEntity
  8
0
100
AcDbLine
 62
7
  6
CONTINUOUS
 10
136.6467052871
 20
122.2537947649
 11
136.646012497
 21
122.2532272879
  0
LINE
  5
2AB
100
AcDbEntity
  8
0
100
AcDbLine
 62
7
  6
CONTINUOUS
 10
137.2202830092
 20
122.718876431
 11
136.6467060412
 21
122.2537953767
  0
LINE
  5
2AC
100
AcDbEntity
  8
0
100
AcDbLine
 62
253
  6
CONTINUOUS
 10
137.346669828
 20
122.7277042282
 11
136.7730933916
 21
122.2626236049
  0
LINE
  5
2AD
100
AcDbEntity
  8
0
100
AcDbLine
 62
7
  6
CONTINUOUS
 10
142.9606348229
 20
124.9954043009
 11
139.2307195298
 21
121.971027393
  0
LWPOLYLINE
  5
2AE
100
AcDbEntity
  8
0
100
AcDbPolyline
 62
7
  6
CONTINUOUS
 90
7
 70
0
 10
142.9606348229
 20
124.9954043009
 10
142.9648639652
 20
124.998788439
 10
142.9690857931
 20
125.0020784353
 10
142.9733003066
 20
125.0052742897
 10
142.9775075058
 20
125.0083760023
 10
142.9817073907
 20
125.011383573
 10
142.9858999612
 20
125.0142970019
  0
LWPOLYLINE
  5
2AF
100
AcDbEntity
  8
0
100
AcDbPolyline
 62
7
  6
CONTINUOUS
 90
20
 70
0
 10
142.9858999612
 20
125.0142970019
 10
142.9948109392
 20
125.0199842797
 10
143.0041541242
 20
125.0251180474
 10
143.0139222509
 20
125.0296890733
 10
143.0241022828
 20
125.0336898505
 10
143.0346904991
 20
125.0371098781
 10
143.0456943548
 20
125.0399346561
 10
143.0570999694
 20
125.0421549491
 10
143.0689038638
 20
125.0437606755
 10
143.0811327343
 20
125.0447331999
 10
143.0937659909
 20
125.0450654919
 10
143.106807644
 20
125.0447416332
 10
143.1203284723
 20
125.0437229206
 10
143.1343390678
 20
125.0419950737
 10
143.1488172773
 20
125.0395381588
 10
143.1637900391
 20
125.0362978126
 10
143.1792538865
 20
125.0322528917
 10
143.1951935161
 20
125.0273849055
 10
143.2116180956
 20
125.0216395554
 10
143.2231288659
 20
125.0171887675
  0
LINE
  5
2B0
100
AcDbEntity
  8
0
100
AcDbLine
 62
7
  6
CONTINUOUS
 10
150.3581743091
 20
124.237403663
 11
149.9105623869
 21
124.0872409603
  0
LINE
  5
2B1
100
AcDbEntity
  8
0
100
AcDbLine
 62
7
  6
CONTINUOUS
 10
150.1124286959
 20
123.9104567536
 11
149.6648167736
 21
123.7602940508
  0
LWPOLYLINE
  5
2B2
100
AcDbEntity
  8
RACCORDO
100
AcDbPolyline
 62
7
  6
CONTINUOUS
 90
14
 70
0
 10
139.1384533136
 20
92.8480465815
 10
139.1266036138
 20
92.8498399581
 10
139.1150350498
 20
92.8518781283
 10
139.1037714289
 20
92.8541876794
 10
139.0928101476
 20
92.8568223653
 10
139.082200624
 20
92.8597821912
 10
139.0720448545
 20
92.8630139133
 10
139.0623669827
 20
92.8665474571
 10
139.0531873219
 20
92.8704071016
 10
139.044605049
 20
92.8745345811
 10
139.0366420281
 20
92.8789635901
 10
139.0293217437
 20
92.8837184569
 10
139.0227546459
 20
92.8887363875
 10
139.0180765446
 20
92.8929486596
  0
LINE
  5
2B3
100
AcDbEntity
  8
DRAFT
100
AcDbLine
 62
7
  6
CONTINUOUS
 10
136.7916212719
 20
89.9855118574
 11
135.3718054022
 21
91.3754729943
  0
LWPOLYLINE
  5
2B4
100
AcDbEntity
  8
RACCORDO
100
AcDbPolyline
 62
253
  6
CONTINUOUS
 90
18
 70
0
 10
136.3423826452
 20
89.1054486319
 10
136.3304183006
 20
89.1177821506
 10
136.3194081794
 20
89.1307540201
 10
136.3094352296
 20
89.144266513
 10
136.3005745853
 20
89.1582178287
 10
136.2928930011
 20
89.1725028609
 10
136.2864483483
 20
89.1870139889
 10
136.2812891799
 20
89.2016418888
 10
136.2774543638
 20
89.2162763567
 10
136.2749727909
 20
89.2308071397
 10
136.2738631568
 20
89.2451247655
 10
136.2741338214
 20
89.2591213681
 10
136.2757827455
 20
89.2726914998
 10
136.2787975064
 20
89.2857329259
 10
136.2831553916
 20
89.2981473949
 10
136.2888235696
 20
89.3098413785
 10
136.2957593375
 20
89.3207267767
 10
136.2967347617
 20
89.3220557292
  0
LWPOLYLINE
  5
2B5
100
AcDbEntity
  8
0
100
AcDbPolyline
 62
253
  6
CONTINUOUS
 90
9
 70
0
 10
144.4767410494
 20
80.7431675784
 10
144.4691057213
 20
80.7511679397
 10
144.4611481443
 20
80.7587423335
 10
144.4528862603
 20
80.7658736844
 10
144.4443384962
 20
80.7725460601
 10
144.4355243513
 20
80.7787442137
 10
144.4264643958
 20
80.7844537529
 10
144.417179359
 20
80.78966178
 10
144.4076900193
 20
80.7943568022
  0
LWPOLYLINE
  5
2B6
100
AcDbEntity
  8
0
100
AcDbPolyline
 62
253
  6
CONTINUOUS
 90
34
 70
0
 10
142.8023932503
 20
79.0728485626
 10
142.798729737
 20
79.078587389
 10
142.7946141882
 20
79.0845004301
 10
142.7900558925
 20
79.0905743404
 10
142.7850651377
 20
79.0967954116
 10
142.7796531876
 20
79.103149603
 10
142.7738322566
 20
79.1096225737
 10
142.7676154823
 20
79.1161997144
 10
142.7610168955
 20
79.1228661811
 10
142.7540513889
 20
79.1296069278
 10
142.7467346833
 20
79.136406741
 10
142.7390832919
 20
79.1432502741
 10
142.7311144835
 20
79.1501220816
 10
142.7228462432
 20
79.1570066542
 10
142.7142972321
 20
79.1638884538
 10
142.7054867446
 20
79.1707519486
 10
142.6964346656
 20
79.1775816481
 10
142.687161425
 20
79.1843621381
 10
142.677687952
 20
79.1910781154
 10
142.6680356277
 20
79.1977144225
 10
142.6582262368
 20
79.2042560816
 10
142.6482819185
 20
79.2106883285
 10
142.6382251166
 20
79.2169966461
 10
142.6280785286
 20
79.2231667969
 10
142.6178650548
 20
79.2291848551
 10
142.6076077465
 20
79.2350372385
 10
142.5973297537
 20
79.2407107384
 10
142.5870542733
 20
79.2461925503
 10
142.5768044964
 20
79.2514703018
 10
142.5666035562
 20
79.2565320815
 10
142.5564744756
 20
79.2613664652
 10
142.5464401153
 20
79.265962542
 10
142.5365231224
 20
79.2703099388
 10
142.5267458787
 20
79.2743988439
  0
LWPOLYLINE
  5
2B7
100
AcDbEntity
  8
0
100
AcDbPolyline
 62
253
  6
CONTINUOUS
 90
21
 70
0
 10
128.2018032535
 20
123.8270169141
 10
128.2019397684
 20
123.8181948552
 10
128.2023490529
 20
123.8096132466
 10
128.2030303278
 20
123.801288428
 10
128.2039822931
 20
123.7932362714
 10
128.2052031377
 20
123.7854720861
 10
128.20669055
 20
123.7780105968
 10
128.208441717
 20
123.7708659706
 10
128.2104533014
 20
123.7640518716
 10
128.2127214494
 20
123.7575813609
 10
128.2152418216
 20
123.7514667931
 10
128.2180096296
 20
123.7457197633
 10
128.2210196221
 20
123.7403511727
 10
128.2242660942
 20
123.7353712121
 10
128.2277428451
 20
123.7307894075
 10
128.2314432006
 20
123.7266145448
 10
128.2353600708
 20
123.7228545904
 10
128.2394860224
 20
123.7195166491
 10
128.2438132465
 20
123.7166070281
 10
128.2483340579
 20
123.7141309966
 10
128.2519993159
 20
123.712499783
  0
LINE
  5
2B8
100
AcDbEntity
  8
0
100
AcDbLine
 62
253
  6
CONTINUOUS
 10
128.2018032535
 20
123.8270169141
 11
128.2018032535
 21
124.1485898633
  0
LINE
  5
2B9
100
AcDbEntity
  8
0
100
AcDbLine
 62
253
  6
CONTINUOUS
 10
128.5491476796
 20
123.8615490416
 11
128.5491476796
 21
124.1831219908
  0
LINE
  5
2BA
100
AcDbEntity
  8
0
100
AcDbLine
 62
253
  6
CONTINUOUS
 10
128.7801453771
 20
123.0474222369
 11
128.7801453771
 21
123.6907048049
  0
LINE
  5
2BB
100
AcDbEntity
  8
0
100
AcDbLine
 62
253
  6
CONTINUOUS
 10
129.1274898032
 20
123.0926244106
 11
129.1274898032
 21
123.8565436913
  0
LINE
  5
2BC
100
AcDbEntity
  8
0
100
AcDbLine
 62
7
  6
CONTINUOUS
 10
129.8512586174
 20
123.7319452285
 11
129.8512586174
 21
125.2473799761
  0
LINE
  5
2BD
100
AcDbEntity
  8
0
100
AcDbLine
 62
253
  6
CONTINUOUS
 10
130.2786939763
 20
125.5983051614
 11
130.2786939763
 21
125.2695836815
  0
LINE
  5
2BE
100
AcDbEntity
  8
0
100
AcDbLine
 62
7
  6
CONTINUOUS
 10
130.3230752025
 20
125.6798678917
 11
130.3230752025
 21
125.3511464118
  0
LWPOLYLINE
  5
2BF
100
AcDbEntity
  8
RACCORDO
100
AcDbPolyline
 62
253
  6
CONTINUOUS
 90
7
 70
0
 10
129.7911583251
 20
102.7585430117
 10
129.7959657467
 20
103.5106951904
 10
129.8017545685
 20
104.2636176045
 10
129.8085248058
 20
105.0173077677
 10
129.8162764709
 20
105.7717631906
 10
129.8250095727
 20
106.5269813812
 10
129.8347241173
 20
107.282959845
  0
LWPOLYLINE
  5
2C0
100
AcDbEntity
  8
RACCORDO
100
AcDbPolyline
 62
253
  6
CONTINUOUS
 90
7
 70
0
 10
130.0686418496
 20
102.9483581547
 10
130.0734615137
 20
103.6728965973
 10
130.0791919953
 20
104.3981538801
 10
130.0858332942
 20
105.1241300029
 10
130.0933854106
 20
105.8508249659
 10
130.1018483443
 20
106.578238769
 10
130.1112220955
 20
107.3063714123
  0
LWPOLYLINE
  5
2C1
100
AcDbEntity
  8
RACCORDO
100
AcDbPolyline
 62
253
  6
CONTINUOUS
 90
7
 70
0
 10
130.1112220955
 20
107.3063714123
 10
130.1159544726
 20
107.6221914032
 10
130.1216355789
 20
107.9386777676
 10
130.1282654141
 20
108.2558305053
 10
130.1358439784
 20
108.5736496164
 10
130.1443712718
 20
108.8921351009
 10
130.1525794941
 20
109.1685875298
  0
LWPOLYLINE
  5
2C2
100
AcDbEntity
  8
RACCORDO
100
AcDbPolyline
 62
253
  6
CONTINUOUS
 90
7
 70
0
 10
129.8347241173
 20
107.282959845
 10
129.839923772
 20
107.6270654766
 10
129.8462488976
 20
107.9720226401
 10
129.853699363
 20
108.3178239942
 10
129.8622750135
 20
108.6644621793
 10
129.8719756714
 20
109.0119298178
 10
129.8828011353
 20
109.3602195141
  0
LWPOLYLINE
  5
2C3
100
AcDbEntity
  8
0
100
AcDbPolyline
 62
253
  6
CONTINUOUS
 90
14
 70
0
 10
130.3230751977
 20
125.6798398085
 10
130.3229142393
 20
125.6747230779
 10
130.3222079996
 20
125.6679346148
 10
130.3209414133
 20
125.6611729816
 10
130.3191173283
 20
125.6544533915
 10
130.3167398464
 20
125.6477909595
 10
130.3138143136
 20
125.6412006696
 10
130.3103473099
 20
125.6346973469
 10
130.3063466302
 20
125.6282956156
 10
130.301821274
 20
125.6220098779
 10
130.2967814285
 20
125.6158542831
 10
130.2912384351
 20
125.6098426792
 10
130.28520476
 20
125.6039885833
 10
130.2786939763
 20
125.5983051614
  0
LWPOLYLINE
  5
2C4
100
AcDbEntity
  8
0
100
AcDbPolyline
 62
253
  6
CONTINUOUS
 90
14
 70
0
 10
130.3230752025
 20
125.3511464086
 10
130.3229128397
 20
125.3459792866
 10
130.3222048085
 20
125.3391912379
 10
130.3209364984
 20
125.3324300757
 10
130.3191108038
 20
125.3257111399
 10
130.3167318998
 20
125.3190496267
 10
130.3138051481
 20
125.3124604212
 10
130.3103370874
 20
125.3059582052
 10
130.3063351701
 20
125.2995570852
 10
130.3018086555
 20
125.2932719882
 10
130.2967689051
 20
125.2871184068
 10
130.2912280187
 20
125.281110524
 10
130.2851984213
 20
125.2752612737
 10
130.2786939763
 20
125.2695836815
  0
LWPOLYLINE
  5
2C5
100
AcDbEntity
  8
0
100
AcDbPolyline
 62
7
  6
CONTINUOUS
 90
3
 70
0
 10
130.3219444587
 20
125.3273957637
 10
130.3230218814
 20
125.3459833199
 10
130.323075202
 20
125.351154687
  0
LINE
  5
2C6
100
AcDbEntity
  8
0
100
AcDbLine
 62
7
  6
CONTINUOUS
 10
139.4353375356
 20
119.882763067
 11
138.5678243503
 21
119.1164697032
  0
LWPOLYLINE
  5
2C7
100
AcDbEntity
  8
0
100
AcDbPolyline
 62
7
  6
CONTINUOUS
 90
16
 70
0
 10
143.7296271692
 20
123.4083824478
 10
143.7397209849
 20
123.4170421736
 10
143.7491656176
 20
123.4258980726
 10
143.7579610673
 20
123.434950145
 10
143.7661194299
 20
123.4442136503
 10
143.7736286095
 20
123.4536733288
 10
143.7804523179
 20
123.4632834019
 10
143.7865872646
 20
123.4730446386
 10
143.7920367402
 20
123.4829562698
 10
143.7967743289
 20
123.4929702098
 10
143.8007965657
 20
123.5030869479
 10
143.8041069157
 20
123.5133059947
 10
143.8066893584
 20
123.5235777965
 10
143.8085403585
 20
123.533902603
 10
143.8096634513
 20
123.5442801644
 10
143.8100535302
 20
123.5549615134
  0
LINE
  5
2C8
100
AcDbEntity
  8
0
100
AcDbLine
 62
7
  6
CONTINUOUS
 10
143.7030727484
 20
124.6972244922
 11
139.4353375356
 21
121.1934063378
  0
LINE
  5
2C9
100
AcDbEntity
  8
0
100
AcDbLine
 62
7
  6
CONTINUOUS
 10
139.4353375356
 20
119.882763067
 11
143.7296271692
 21
123.4083824478
  0
LINE
  5
2CA
100
AcDbEntity
  8
0
100
AcDbLine
 62
7
  6
CONTINUOUS
 10
139.4353375356
 20
121.1934063378
 11
138.5678243503
 21
120.4843593526
  0
LINE
  5
2CB
100
AcDbEntity
  8
RACCORDO
100
AcDbLine
 62
7
  6
CONTINUOUS
 10
151.5654520904
 20
130.407787892
 11
151.2729252342
 21
130.1703479134
  0
LINE
  5
2CC
100
AcDbEntity
  8
0
100
AcDbLine
 62
7
  6
CONTINUOUS
 10
143.7369525368
 20
124.810830011
 11
144.847033003
 21
125.7109313441
  0
LINE
  5
2CD
100
AcDbEntity
  8
0
100
AcDbLine
 62
7
  6
CONTINUOUS
 10
148.6327720514
 20
127.09615153
 11
152.0528752995
 21
129.8571023836
  0
LWPOLYLINE
  5
2CE
100
AcDbEntity
  8
0
100
AcDbPolyline
 62
7
  6
CONTINUOUS
 90
22
 70
0
 10
144.847033003
 20
125.7109313441
 10
144.8670100593
 20
125.7266301427
 10
144.8869134829
 20
125.7412841439
 10
144.9067432739
 20
125.7548933476
 10
144.9265257382
 20
125.7674729557
 10
144.9462345698
 20
125.7790077664
 10
144.9657908507
 20
125.7894521739
 10
144.9851876695
 20
125.7987994297
 10
145.0044319376
 20
125.8070562824
 10
145.0234654711
 20
125.8141973722
 10
145.0422960652
 20
125.8202212852
 10
145.0609159248
 20
125.8251294353
 10
145.0792434809
 20
125.8289007038
 10
145.0972676036
 20
125.8315295068
 10
145.1149994229
 20
125.8330214283
 10
145.1323907587
 20
125.833372101
 10
145.1494513447
 20
125.8325770056
 10
145.1661714473
 20
125.8306406615
 10
145.1824736859
 20
125.82757226
 10
145.1983453659
 20
125.8233703893
 10
145.213799182
 20
125.8180364611
 10
145.216388546
 20
125.817015426
  0
LINE
  5
2CF
100
AcDbEntity
  8
0
100
AcDbLine
 62
253
  6
CONTINUOUS
 10
142.2112361778
 20
120.9372812194
 11
142.2139247231
 21
120.9393685402
  0
LWPOLYLINE
  5
2D0
100
AcDbEntity
  8
0
100
AcDbPolyline
 62
7
  6
CONTINUOUS
 90
4
 70
0
 10
141.7762950173
 20
120.5889575937
 10
141.7789815362
 20
120.5910432948
 10
141.7855378414
 20
120.5956223279
 10
141.7924298872
 20
120.5997463728
  0
LINE
  5
2D1
100
AcDbEntity
  8
0
100
AcDbLine
 62
7
  6
CONTINUOUS
 10
148.0167982939
 20
126.2395259625
 11
146.6886066475
 21
125.2257386625
  0
LWPOLYLINE
  5
2D2
100
AcDbEntity
  8
0
100
AcDbPolyline
 62
7
  6
CONTINUOUS
 90
7
 70
0
 10
142.2112361778
 20
120.9372812194
 10
142.2287652031
 20
120.9501102339
 10
142.2475200583
 20
120.9614670019
 10
142.26734586
 20
120.9712016687
 10
142.2879862001
 20
120.9791594186
 10
142.3093209164
 20
120.9852786131
 10
142.3313935036
 20
120.9895224194
  0
LWPOLYLINE
  5
2D3
100
AcDbEntity
  8
0
100
AcDbPolyline
 62
253
  6
CONTINUOUS
 90
19
 70
0
 10
142.2139247231
 20
120.9393685402
 10
142.22048367
 20
120.9439496885
 10
142.2273756675
 20
120.9480737044
 10
142.2345851036
 20
120.9517312461
 10
142.2420956475
 20
120.9549140283
 10
142.2498902859
 20
120.9576148415
 10
142.2579513624
 20
120.9598275675
 10
142.2662606167
 20
120.9615471942
 10
142.2747992266
 20
120.9627698261
 10
142.2835478502
 20
120.9634926937
 10
142.2924866698
 20
120.9637141597
 10
142.3015954371
 20
120.9634337222
 10
142.3108535187
 20
120.9626520166
 10
142.3202399429
 20
120.9613708135
 10
142.3297334474
 20
120.9595930153
 10
142.3393125273
 20
120.957322649
 10
142.3489554837
 20
120.9545648575
 10
142.3586404733
 20
120.9513258879
 10
142.3683455574
 20
120.947613077
  0
LWPOLYLINE
  5
2D4
100
AcDbEntity
  8
0
100
AcDbPolyline
 62
7
  6
CONTINUOUS
 90
17
 70
0
 10
141.7924298872
 20
120.5997463728
 10
141.7996420579
 20
120.6034060852
 10
141.8071580401
 20
120.6065931947
 10
141.8149608019
 20
120.6093004774
 10
141.8230326276
 20
120.6115217709
 10
141.8313552737
 20
120.613252078
 10
141.8399098995
 20
120.6144874905
 10
141.8486770503
 20
120.6152251529
 10
141.8576369246
 20
120.6154634435
 10
141.8667692562
 20
120.6152018485
 10
141.8760532487
 20
120.6144408778
 10
141.8854679455
 20
120.6131823173
 10
141.8949920683
 20
120.6114290585
 10
141.9046039027
 20
120.6091849651
 10
141.91428168
 20
120.6064551271
 10
141.9240036268
 20
120.6032458491
 10
141.933747805
 20
120.5995644705
  0
LINE
  5
2D5
100
AcDbEntity
  8
RACCORDO
100
AcDbLine
 62
7
  6
CONTINUOUS
 10
137.242498419
 20
94.6240898534
 11
139.0180671211
 21
92.8929578386
  0
LINE
  5
2D6
100
AcDbEntity
  8
RACCORDO
100
AcDbLine
 62
253
  6
CONTINUOUS
 10
137.1717628458
 20
94.7659448087
 11
139.138453244
 21
92.8480490967
  0
LINE
  5
2D7
100
AcDbEntity
  8
DRAFT
100
AcDbLine
 62
7
  6
CONTINUOUS
 10
131.1771968949
 20
103.8504806753
 11
131.1771968949
 21
108.7570780822
  0
LINE
  5
2D8
100
AcDbEntity
  8
0
100
AcDbLine
 62
7
  6
CONTINUOUS
 10
131.2916682176
 20
123.4066276926
 11
131.2916682176
 21
122.0387380432
  0
LINE
  5
2D9
100
AcDbEntity
  8
0
100
AcDbLine
 62
7
  6
CONTINUOUS
 10
132.0627141289
 20
121.7290686224
 11
132.0627141289
 21
123.0969582718
  0
LINE
  5
2DA
100
AcDbEntity
  8
RACCORDO
100
AcDbLine
 62
7
  6
CONTINUOUS
 10
131.9776992643
 20
102.9297643447
 11
131.9722588701
 21
102.0775467284
  0
LINE
  5
2DB
100
AcDbEntity
  8
RACCORDO
100
AcDbLine
 62
7
  6
CONTINUOUS
 10
131.9857576175
 20
103.9479074248
 11
131.9776992643
 21
102.9297643447
  0
LINE
  5
2DC
100
AcDbEntity
  8
RACCORDO
100
AcDbLine
 62
7
  6
CONTINUOUS
 10
131.9955209787
 20
104.967465467
 11
131.9857576175
 21
103.9479074248
  0
LINE
  5
2DD
100
AcDbEntity
  8
RACCORDO
100
AcDbLine
 62
7
  6
CONTINUOUS
 10
132.0069892802
 20
105.9884326052
 11
131.9955209787
 21
104.967465467
  0
LWPOLYLINE
  5
2DE
100
AcDbEntity
  8
RACCORDO
100
AcDbPolyline
 62
253
  6
CONTINUOUS
 90
7
 70
0
 10
132.0982382338
 20
106.3738815461
 10
132.0889960597
 20
105.6177133677
 10
132.0806876067
 20
104.8623246284
 10
132.073312869
 20
104.107717823
 10
132.0668718374
 20
103.3538954435
 10
132.0613644998
 20
102.600859979
 10
132.0567908406
 20
101.848613916
  0
LWPOLYLINE
  5
2DF
100
AcDbEntity
  8
0
100
AcDbPolyline
 62
7
  6
CONTINUOUS
 90
31
 70
0
 10
132.6362905653
 20
123.4086902253
 10
132.6364501446
 20
123.4174018022
 10
132.6369174454
 20
123.4262960823
 10
132.6376924676
 20
123.4353730655
 10
132.638778982
 20
123.4446583668
 10
132.6401732178
 20
123.4541263712
 10
132.641863863
 20
123.4637002343
 10
132.6438533492
 20
123.4733808915
 10
132.6461392448
 20
123.4831674074
 10
132.6487029425
 20
123.4929801309
 10
132.6515466651
 20
123.5028191493
 10
132.6546681897
 20
123.5126843752
 10
132.6580422412
 20
123.522495895
 10
132.6616709223
 20
123.5322534099
 10
132.6655521303
 20
123.5419572187
 10
132.6696542818
 20
123.5515283042
 10
132.6739791918
 20
123.5609655761
 10
132.6785250452
 20
123.5702701248
 10
132.6832548136
 20
123.5793662039
 10
132.6881699245
 20
123.5882519918
 10
132.6932689503
 20
123.5969293102
 10
132.6985105799
 20
123.6053278785
 10
132.7038960399
 20
123.6134455371
 10
132.7094241038
 20
123.6212844455
 10
132.7150497808
 20
123.6287808015
 10
132.720773825
 20
123.6359317558
 10
132.7265954823
 20
123.6427401576
 10
132.7324675006
 20
123.649150752
 10
132.7383741293
 20
123.6551451207
 10
132.7443311191
 20
123.660741682
 10
132.7503384698
 20
123.6659404358
  0
LWPOLYLINE
  5
2E0
100
AcDbEntity
  8
RACCORDO
100
AcDbPolyline
 62
7
  6
CONTINUOUS
 90
8
 70
0
 10
132.0456870974
 20
108.0989031394
 10
132.039443419
 20
107.8603781861
 10
132.0337040995
 20
107.6222573051
 10
132.0284691882
 20
107.3845428586
 10
132.0237387239
 20
107.1472364701
 10
132.019512767
 20
106.9103405099
 10
132.0157913923
 20
106.6738580893
 10
132.0069892802
 20
105.9884326052
  0
LINE
  5
2E1
100
AcDbEntity
  8
RACCORDO
100
AcDbLine
 62
7
  6
CONTINUOUS
 10
132.0544283192
 20
108.4052506899
 11
132.0456870974
 21
108.0989031394
  0
LWPOLYLINE
  5
2E2
100
AcDbEntity
  8
RACCORDO
100
AcDbPolyline
 62
253
  6
CONTINUOUS
 90
7
 70
0
 10
132.1439810045
 20
108.4520787016
 10
132.1336812745
 20
108.1035778586
 10
132.1244516734
 20
107.7559210331
 10
132.1162924026
 20
107.4091156205
 10
132.1092036399
 20
107.0631689985
 10
132.1031855399
 20
106.7180885265
 10
132.0982382338
 20
106.3738815461
  0
LWPOLYLINE
  5
2E3
100
AcDbEntity
  8
RACCORDO
100
AcDbPolyline
 62
7
  6
CONTINUOUS
 90
25
 70
0
 10
126.0252256984
 20
92.5315198704
 10
126.0283579014
 20
92.5423066561
 10
126.0318922988
 20
92.5534251209
 10
126.0358157954
 20
92.5648805026
 10
126.0400949345
 20
92.5767106079
 10
126.0447290111
 20
92.588884431
 10
126.0497502493
 20
92.6013023631
 10
126.0551277782
 20
92.6139622379
 10
126.0608416566
 20
92.6268647145
 10
126.066937486
 20
92.6399143197
 10
126.0733730452
 20
92.6531071306
 10
126.0801229401
 20
92.6664387598
 10
126.0872546774
 20
92.6798155763
 10
126.0947114941
 20
92.6932380879
 10
126.1024597033
 20
92.706690317
 10
126.1105934771
 20
92.720057622
 10
126.1190329108
 20
92.7333451963
 10
126.1277298558
 20
92.7465200872
 10
126.1368076538
 20
92.7594124941
 10
126.1461967169
 20
92.7720574734
 10
126.1557712338
 20
92.784368234
 10
126.1655513055
 20
92.7959857841
 10
126.175463547
 20
92.8067581553
 10
126.1853388378
 20
92.8167405067
 10
126.1950446919
 20
92.8258731626
  0
LWPOLYLINE
  5
2E4
100
AcDbEntity
  8
0
100
AcDbPolyline
 62
7
  6
CONTINUOUS
 90
31
 70
0
 10
143.7014181543
 20
123.7966953657
 10
143.7110481663
 20
123.8068737046
 10
143.7200601732
 20
123.817635922
 10
143.7284541753
 20
123.828982018
 10
143.7362424633
 20
123.8409334802
 10
143.7434127463
 20
123.8534688209
 10
143.7499281517
 20
123.8665235776
 10
143.7557853061
 20
123.8801004258
 10
143.7609875829
 20
123.89419669
 10
143.7655082297
 20
123.9087398805
 10
143.7693437354
 20
123.9237322995
 10
143.7724976111
 20
123.939171645
 10
143.7749536383
 20
123.9549785205
 10
143.7767082222
 20
123.9711548195
 10
143.7777649577
 20
123.9876986485
 10
143.7781184104
 20
124.0045249317
 10
143.7777649577
 20
124.0216351241
 10
143.7767082222
 20
124.0390277707
 10
143.7749536383
 20
124.0566134306
 10
143.7724976111
 20
124.0743930979
 10
143.7693437354
 20
124.0923657786
 10
143.7655082297
 20
124.1104390487
 10
143.7609875829
 20
124.1286134266
 10
143.7557853061
 20
124.146888394
 10
143.7499281517
 20
124.1651699727
 10
143.7434127463
 20
124.1834581968
 10
143.7362424633
 20
124.2017530321
 10
143.7284541753
 20
124.2199603984
 10
143.7200601732
 20
124.2380489353
 10
143.7110481663
 20
124.2560500031
 10
143.7014181543
 20
124.2739636018
  0
LWPOLYLINE
  5
2E5
100
AcDbEntity
  8
0
100
AcDbPolyline
 62
7
  6
CONTINUOUS
 90
12
 70
0
 10
140.4933845254
 20
119.5142243091
 10
140.4787416802
 20
119.5009369553
 10
140.4649670286
 20
119.486271631
 10
140.4522311562
 20
119.4702936865
 10
140.4406963117
 20
119.453090178
 10
140.4305223617
 20
119.4347864192
 10
140.4218496217
 20
119.4155299199
 10
140.4147690753
 20
119.3954000489
 10
140.4094087353
 20
119.374635534
 10
140.4058621084
 20
119.353603596
 10
140.4041242846
 20
119.3324266584
 10
140.4039305567
 20
119.3225553892
  0
LINE
  5
2E6
100
AcDbEntity
  8
0
100
AcDbLine
 62
7
  6
CONTINUOUS
 10
148.6349560323
 20
126.3792409686
 11
152.0528853737
 21
129.2461039514
  0
LINE
  5
2E7
100
AcDbEntity
  8
0
100
AcDbLine
 62
7
  6
CONTINUOUS
 10
140.4933845254
 20
119.5142243091
 11
141.7743698477
 21
120.5873805724
  0
LINE
  5
2E8
100
AcDbEntity
  8
0
100
AcDbLine
 62
253
  6
CONTINUOUS
 10
140.6530963223
 20
119.5266878842
 11
141.933747805
 21
120.5995644705
  0
LINE
  5
2E9
100
AcDbEntity
  8
DRAFT
100
AcDbLine
 62
7
  6
CONTINUOUS
 10
148.4005184768
 20
126.0673386188
 11
151.8040935732
 21
128.9151043084
  0
LINE
  5
2EA
100
AcDbEntity
  8
0
100
AcDbLine
 62
253
  6
CONTINUOUS
 10
143.8997196426
 20
119.8099858587
 11
144.3271550015
 21
120.160911044
  0
LINE
  5
2EB
100
AcDbEntity
  8
0
100
AcDbLine
 62
7
  6
CONTINUOUS
 10
141.7743720373
 20
120.5873824067
 11
141.7762950173
 21
120.5889575937
  0
LINE
  5
2EC
100
AcDbEntity
  8
0
100
AcDbLine
 62
7
  6
CONTINUOUS
 10
148.8301939834
 20
125.4775303606
 11
149.2316974889
 21
125.8064227779
  0
LINE
  5
2ED
100
AcDbEntity
  8
0
100
AcDbLine
 62
253
  6
CONTINUOUS
 10
142.5976087049
 20
118.7457278733
 11
143.8997196426
 21
119.8099858587
  0
LINE
  5
2EE
100
AcDbEntity
  8
DRAFT
100
AcDbLine
 62
7
  6
CONTINUOUS
 10
148.2519227453
 20
125.8853490793
 11
148.8113716709
 21
126.3422440843
  0
LINE
  5
2EF
100
AcDbEntity
  8
0
100
AcDbLine
 62
7
  6
CONTINUOUS
 10
141.7762964852
 20
120.5889587693
 11
142.2112361778
 21
120.9372812194
  0
LINE
  5
2F0
100
AcDbEntity
  8
0
100
AcDbLine
 62
253
  6
CONTINUOUS
 10
141.933747805
 20
120.5995644705
 11
142.3683455574
 21
120.947613077
  0
LINE
  5
2F1
100
AcDbEntity
  8
0
100
AcDbLine
 62
7
  6
CONTINUOUS
 10
148.3832623193
 20
124.2907019283
 11
143.6470228194
 21
120.4976736643
  0
LWPOLYLINE
  5
2F2
100
AcDbEntity
  8
0
100
AcDbPolyline
 62
253
  6
CONTINUOUS
 90
20
 70
0
 10
140.4933845254
 20
119.5142243091
 10
140.497990442
 20
119.5178821905
 10
140.5045440456
 20
119.5224589618
 10
140.5114360431
 20
119.5265829777
 10
140.5186508226
 20
119.5302448964
 10
140.5261720409
 20
119.5334364227
 10
140.5339826609
 20
119.5361503271
 10
140.5420649898
 20
119.5383804621
 10
140.5504007192
 20
119.5401217759
 10
140.5589709668
 20
119.541370324
 10
140.5677563193
 20
119.5421232781
 10
140.5767368756
 20
119.5423789327
 10
140.5858922929
 20
119.5421367087
 10
140.5952018321
 20
119.5413971547
 10
140.604644405
 20
119.540161946
 10
140.6141986221
 20
119.5384338806
 10
140.6238428409
 20
119.536216873
 10
140.6335552151
 20
119.5335159452
 10
140.643313744
 20
119.5303372154
 10
140.6530963223
 20
119.5266878842
  0
LWPOLYLINE
  5
2F3
100
AcDbEntity
  8
0
100
AcDbPolyline
 62
7
  6
CONTINUOUS
 90
4
 70
0
 10
152.278839567
 20
122.3918778345
 10
152.1356864938
 20
122.3250820967
 10
151.9840376704
 20
122.2702081729
 10
151.8522355165
 20
122.234922712
  0
LWPOLYLINE
  5
2F4
100
AcDbEntity
  8
RACCORDO
100
AcDbPolyline
 62
253
  6
CONTINUOUS
 90
19
 70
0
 10
125.5905797098
 20
93.4236150796
 10
125.603219068
 20
93.4260671969
 10
125.61662729
 20
93.4292321096
 10
125.6307033611
 20
93.4330859739
 10
125.6453412349
 20
93.4375997555
 10
125.6604306325
 20
93.4427394484
 10
125.6758578734
 20
93.4484663313
 10
125.6915067318
 20
93.454737259
 10
125.7072593122
 20
93.4615049874
 10
125.7229969379
 20
93.4687185299
 10
125.7386010446
 20
93.4763235411
 10
125.7539540741
 20
93.4842627262
 10
125.7689403597
 20
93.4924762731
 10
125.7834469976
 20
93.5009023025
 10
125.7973646978
 20
93.5094773344
 10
125.810588607
 20
93.5181367661
 10
125.8230190988
 20
93.5268153592
 10
125.8345625245
 20
93.5354477309
 10
125.845131918
 20
93.5439688467
  0
LINE
  5
2F5
100
AcDbEntity
  8
DRAFT
100
AcDbLine
 62
7
  6
CONTINUOUS
 10
127.4824004707
 20
93.7448459155
 11
127.2350031856
 21
93.7013713534
  0
LINE
  5
2F6
100
AcDbEntity
  8
RACCORDO
100
AcDbLine
 62
253
  6
CONTINUOUS
 10
127.9680636065
 20
92.8629588648
 11
126.6517130655
 21
92.6378638412
  0
LINE
  5
2F7
100
AcDbEntity
  8
RACCORDO
100
AcDbLine
 62
253
  6
CONTINUOUS
 10
127.7940686824
 20
93.0980144491
 11
126.752734169
 21
92.9207338089
  0
LINE
  5
2F8
100
AcDbEntity
  8
RACCORDO
100
AcDbLine
 62
253
  6
CONTINUOUS
 10
126.6517130655
 20
92.6378638412
 11
126.0253595407
 21
92.5315486532
  0
LINE
  5
2F9
100
AcDbEntity
  8
RACCORDO
100
AcDbLine
 62
253
  6
CONTINUOUS
 10
126.752734169
 20
92.9207338089
 11
126.1962058298
 21
92.826850626
  0
LWPOLYLINE
  5
2FA
100
AcDbEntity
  8
RACCORDO
100
AcDbPolyline
 62
7
  6
CONTINUOUS
 90
18
 70
0
 10
132.0567908393
 20
101.8486139165
 10
132.0482624603
 20
101.8609850959
 10
132.0400297243
 20
101.8737323693
 10
132.0321043918
 20
101.8868382819
 10
132.0244647675
 20
101.9002955213
 10
132.0171530149
 20
101.9140682155
 10
132.0102750773
 20
101.9280918993
 10
132.0038360462
 20
101.9423310142
 10
131.997843117
 20
101.9567606064
 10
131.9924052505
 20
101.9713281106
 10
131.9875212998
 20
101.9859884881
 10
131.9831982465
 20
102.00070833
 10
131.9795605645
 20
102.0154471521
 10
131.9765974734
 20
102.0301514775
 10
131.9743197308
 20
102.0447722188
 10
131.9728899435
 20
102.0592647052
 10
131.9722839985
 20
102.0735612109
 10
131.972254943
 20
102.07754615
  0
LWPOLYLINE
  5
2FB
100
AcDbEntity
  8
RACCORDO
100
AcDbPolyline
 62
7
  6
CONTINUOUS
 90
23
 70
0
 10
135.9323326595
 20
88.5526023642
 10
135.9290441016
 20
88.5659678721
 10
135.9260375371
 20
88.5797133347
 10
135.923348589
 20
88.5938244232
 10
135.9210297733
 20
88.608304416
 10
135.919101219
 20
88.6231139396
 10
135.9175509875
 20
88.6381711222
 10
135.9164199561
 20
88.6534449816
 10
135.9157408341
 20
88.6689150312
 10
135.9154936524
 20
88.6845121327
 10
135.915722899
 20
88.7001975386
 10
135.9164631231
 20
88.7159427871
 10
135.9176918442
 20
88.731690388
 10
135.9194625603
 20
88.7473965658
 10
135.9218142377
 20
88.7630161638
 10
135.924725396
 20
88.7784809889
 10
135.9282636361
 20
88.7937369931
 10
135.9324744188
 20
88.8087136278
 10
135.9373368022
 20
88.8232990403
 10
135.9429495303
 20
88.8374606809
 10
135.9493580213
 20
88.8510429889
 10
135.9564705338
 20
88.8637318909
 10
135.9644396029
 20
88.8755597963
  0
LINE
  5
2FC
100
AcDbEntity
  8
0
100
AcDbLine
 62
7
  6
CONTINUOUS
 10
132.6362905653
 20
123.4086902253
 11
132.6362905653
 21
122.2418448723
  0
LINE
  5
2FD
100
AcDbEntity
  8
0
100
AcDbLine
 62
253
  6
CONTINUOUS
 10
134.5203402671
 20
121.4851680371
 11
134.5203402671
 21
122.6520133902
  0
LINE
  5
2FE
100
AcDbEntity
  8
0
100
AcDbLine
 62
253
  6
CONTINUOUS
 10
134.7988859633
 20
121.5219253014
 11
134.7988859633
 21
122.6801846666
  0
LWPOLYLINE
  5
2FF
100
AcDbEntity
  8
0
100
AcDbPolyline
 62
253
  6
CONTINUOUS
 90
31
 70
0
 10
134.5203402671
 20
122.6520133902
 10
134.5204963831
 20
122.6606855381
 10
134.5209643075
 20
122.6695898678
 10
134.5217427688
 20
122.6787021449
 10
134.5228296515
 20
122.6879975781
 10
134.5242219987
 20
122.6974508588
 10
134.5259160171
 20
122.707036228
 10
134.5279070934
 20
122.716727588
 10
134.5301898086
 20
122.7264985676
 10
134.5327579469
 20
122.7363225641
 10
134.535604517
 20
122.7461728386
 10
134.5387217696
 20
122.7560225798
 10
134.5421012158
 20
122.76584497
 10
134.5457336582
 20
122.7756132818
 10
134.5496092059
 20
122.7853009216
 10
134.5537172962
 20
122.7948814942
 10
134.5580467271
 20
122.8043288892
 10
134.5625857271
 20
122.8136174336
 10
134.5673219811
 20
122.8227219278
 10
134.5722426664
 20
122.8316177063
 10
134.5773343307
 20
122.8402804333
 10
134.5825829525
 20
122.8486862728
 10
134.5879741274
 20
122.8568122129
 10
134.5934932744
 20
122.8646363314
 10
134.5991255235
 20
122.8721375681
 10
134.6048567383
 20
122.879296949
 10
134.6106701665
 20
122.886093403
 10
134.6165464947
 20
122.8925047566
 10
134.6224684702
 20
122.8985131226
 10
134.6284210917
 20
122.9041042087
 10
134.6343881717
 20
122.9092636007
  0
LWPOLYLINE
  5
300
100
AcDbEntity
  8
0
100
AcDbPolyline
 62
7
  6
CONTINUOUS
 90
19
 70
0
 10
137.3337674609
 20
127.3819012408
 10
137.333708549
 20
127.381490913
 10
137.3331051941
 20
127.380200649
 10
137.3318728006
 20
127.3785312887
 10
137.3300410507
 20
127.3764956699
 10
137.327638842
 20
127.37410461
 10
137.3246875074
 20
127.3713927493
 10
137.3212164637
 20
127.3683769864
 10
137.3172481555
 20
127.3650583757
 10
137.3127797967
 20
127.3614481929
 10
137.307822368
 20
127.3575564385
 10
137.3023967008
 20
127.3533899198
 10
137.2965012679
 20
127.3489567008
 10
137.2901454399
 20
127.3442643249
 10
137.283345313
 20
127.3393212864
 10
137.2761035043
 20
127.3341380617
 10
137.268428032
 20
127.3287234416
 10
137.2603345505
 20
127.3230838853
 10
137.2476430807
 20
127.3143130714
  0
LWPOLYLINE
  5
301
100
AcDbEntity
  8
0
100
AcDbPolyline
 62
7
  6
CONTINUOUS
 90
25
 70
0
 10
139.4353375356
 20
120.3185970512
 10
139.4417993914
 20
120.3300157839
 10
139.4477157371
 20
120.3418448845
 10
139.4530865725
 20
120.3540843529
 10
139.457917867
 20
120.3667526022
 10
139.4622036513
 20
120.3798312193
 10
139.4659260176
 20
120.393264965
 10
139.4690826073
 20
120.4070553172
 10
139.4716757791
 20
120.4212007981
 10
139.4736947012
 20
120.4356417345
 10
139.4751369714
 20
120.450379358
 10
139.476004992
 20
120.4654124371
 10
139.4762951378
 20
120.4806776038
 10
139.476004992
 20
120.4961758286
 10
139.4751369714
 20
120.511906141
 10
139.4736947012
 20
120.527802261
 10
139.4716757791
 20
120.5438648867
 10
139.4690826073
 20
120.56009332
 10
139.4659260176
 20
120.5764191874
 10
139.4622036513
 20
120.5928429056
 10
139.457917867
 20
120.6093640579
 10
139.4530865725
 20
120.6259130207
 10
139.4477157371
 20
120.6424665863
 10
139.4417993914
 20
120.6590479625
 10
139.4353375356
 20
120.6756571492
  0
LWPOLYLINE
  5
302
100
AcDbEntity
  8
0
100
AcDbPolyline
 62
7
  6
CONTINUOUS
 90
4
 70
0
 10
148.4012434675
 20
126.1330456123
 10
148.4253948659
 20
126.1642956268
 10
148.5244373752
 20
126.2767346369
 10
148.6349560323
 20
126.3792409686
  0
LWPOLYLINE
  5
303
100
AcDbEntity
  8
0
100
AcDbPolyline
 62
253
  6
CONTINUOUS
 90
43
 70
0
 10
140.70234529
 20
114.5559677456
 10
140.683464399
 20
114.5389542647
 10
140.664636326
 20
114.5211158629
 10
140.6458808208
 20
114.5024715861
 10
140.6272173109
 20
114.4830414369
 10
140.6086656194
 20
114.4628460491
 10
140.5902459446
 20
114.4419066644
 10
140.5719776153
 20
114.4202456089
 10
140.5538797861
 20
114.3978859936
 10
140.535972156
 20
114.3748513852
 10
140.518273517
 20
114.3511663398
 10
140.5008024251
 20
114.3268561089
 10
140.4835778958
 20
114.3019463375
 10
140.4666180086
 20
114.2764635724
 10
140.4499405394
 20
114.250434968
 10
140.4335636321
 20
114.2238879911
 10
140.4175044738
 20
114.1968509133
 10
140.4017798985
 20
114.1693525428
 10
140.3864070201
 20
114.1414219293
 10
140.371401978
 20
114.1130888152
 10
140.3567804936
 20
114.0843833728
 10
140.3425584753
 20
114.0553359346
 10
140.3287508563
 20
114.0259774195
 10
140.3153721004
 20
113.9963390846
 10
140.3024367606
 20
113.9664522607
 10
140.2899584191
 20
113.9363487428
 10
140.2779501468
 20
113.9060605791
 10
140.266425012
 20
113.8756198216
 10
140.2553951242
 20
113.8450588626
 10
140.2448720263
 20
113.8144102111
 10
140.2348671574
 20
113.7837062809
 10
140.2253910264
 20
113.7529797079
 10
140.2164535554
 20
113.722263195
 10
140.2080644723
 20
113.691589288
 10
140.2002325997
 20
113.6609906132
 10
140.1929661231
 20
113.630499697
 10
140.1862729391
 20
113.6001488109
 10
140.180160087
 20
113.5699701961
 10
140.1746339582
 20
113.5399959572
 10
140.1697005658
 20
113.5102578814
 10
140.1653651549
 20
113.48078755
 10
140.1616321984
 20
113.4516163043
 10
140.1585056097
 20
113.4227751407
  0
LINE
  5
304
100
AcDbEntity
  8
0
100
AcDbLine
 62
7
  6
CONTINUOUS
 10
144.104504188
 20
118.0075204755
 11
143.3807353738
 21
117.3681996575
  0
LINE
  5
305
100
AcDbEntity
  8
0
100
AcDbLine
 62
7
  6
CONTINUOUS
 10
149.278631041
 20
123.6763296945
 11
144.5626488848
 21
119.5454699785
  0
LINE
  5
306
100
AcDbEntity
  8
DRAFT
100
AcDbLine
 62
7
  6
CONTINUOUS
 10
144.6021895827
 20
118.5030806519
 11
149.9661451477
 21
123.1362618774
  0
LINE
  5
307
100
AcDbEntity
  8
0
100
AcDbLine
 62
253
  6
CONTINUOUS
 10
144.5136770616
 20
117.8431874248
 11
140.702345441
 21
114.555967685
  0
LINE
  5
308
100
AcDbEntity
  8
0
100
AcDbLine
 62
7
  6
CONTINUOUS
 10
149.278631041
 20
123.1093470287
 11
144.104504188
 21
118.7094659784
  0
LINE
  5
309
100
AcDbEntity
  8
0
100
AcDbLine
 62
253
  6
CONTINUOUS
 10
145.0808706449
 20
118.3108315457
 11
144.5144428401
 21
117.8428798709
  0
LINE
  5
30A
100
AcDbEntity
  8
0
100
AcDbLine
 62
253
  6
CONTINUOUS
 10
144.104504188
 20
119.5229552231
 11
144.5319395469
 21
119.8738804083
  0
LINE
  5
30B
100
AcDbEntity
  8
RACCORDO
100
AcDbLine
 62
7
  6
CONTINUOUS
 10
151.4361704012
 20
125.7115751459
 11
150.3723635676
 21
124.8401556035
  0
LINE
  5
30C
100
AcDbEntity
  8
RACCORDO
100
AcDbLine
 62
7
  6
CONTINUOUS
 10
149.8035592149
 20
124.3742183552
 11
149.3562856907
 21
124.0078333334
  0
LINE
  5
30D
100
AcDbEntity
  8
0
100
AcDbLine
 62
7
  6
CONTINUOUS
 10
151.678714035
 20
125.6380268355
 11
149.8399147388
 21
124.131770633
  0
LINE
  5
30E
100
AcDbEntity
  8
0
100
AcDbLine
 62
7
  6
CONTINUOUS
 10
150.5598718738
 20
124.4026246355
 11
150.3581743091
 21
124.237403663
  0
LINE
  5
30F
100
AcDbEntity
  8
0
100
AcDbLine
 62
7
  6
CONTINUOUS
 10
150.1425414633
 20
123.9351236886
 11
150.1124286959
 21
123.9104567536
  0
LINE
  5
310
100
AcDbEntity
  8
0
100
AcDbLine
 62
7
  6
CONTINUOUS
 10
151.0564564098
 20
123.9164818751
 11
150.8547588451
 21
123.7512609027
  0
LINE
  5
311
100
AcDbEntity
  8
RACCORDO
100
AcDbLine
 62
7
  6
CONTINUOUS
 10
152.287460262
 20
124.8781892646
 11
151.2236513435
 21
124.0067680142
  0
LINE
  5
312
100
AcDbEntity
  8
RACCORDO
100
AcDbLine
 62
7
  6
CONTINUOUS
 10
150.6548469908
 20
123.5408307659
 11
150.0380041446
 21
123.0355426874
  0
LINE
  5
313
100
AcDbEntity
  8
0
100
AcDbLine
 62
253
  6
CONTINUOUS
 10
142.8023932503
 20
118.4586972377
 11
144.104504188
 21
119.5229552231
  0
LWPOLYLINE
  5
314
100
AcDbEntity
  8
RACCORDO
100
AcDbPolyline
 62
7
  6
CONTINUOUS
 90
10
 70
0
 10
152.2874368228
 20
124.8781700643
 10
152.2964307171
 20
124.8854093786
 10
152.304795273
 20
124.8918844207
 10
152.3125304905
 20
124.8975951908
 10
152.3196910259
 20
124.9025750144
 10
152.3262222229
 20
124.906790566
 10
152.3319601126
 20
124.9101418687
 10
152.3368500387
 20
124.912595597
 10
152.3409466574
 20
124.9141850764
 10
152.3442499687
 20
124.914910307
  0
LWPOLYLINE
  5
315
100
AcDbEntity
  8
0
100
AcDbPolyline
 62
7
  6
CONTINUOUS
 90
3
 70
0
 10
152.5365430085
 20
122.5596932159
 10
152.4127051853
 20
122.4702259747
 10
152.278839567
 20
122.3918778345
  0
LWPOLYLINE
  5
316
100
AcDbEntity
  8
RACCORDO
100
AcDbPolyline
 62
7
  6
CONTINUOUS
 90
3
 70
0
 10
132.1102015996
 20
108.4319821826
 10
132.1181935693
 20
108.4366576978
 10
132.1439813102
 20
108.4520785788
  0
LWPOLYLINE
  5
317
100
AcDbEntity
  8
0
100
AcDbPolyline
 62
253
  6
CONTINUOUS
 90
37
 70
0
 10
140.8465958162
 20
113.4254261915
 10
140.8336823664
 20
113.4183209962
 10
140.8200397803
 20
113.4115429016
 10
140.80569346
 20
113.4051045285
 10
140.7906701179
 20
113.3990178648
 10
140.7749977269
 20
113.3932942436
 10
140.7587054685
 20
113.3879443222
 10
140.7418236782
 20
113.3829780619
 10
140.7243837894
 20
113.3784047098
 10
140.7064182744
 20
113.3742327811
 10
140.6879605845
 20
113.370470044
 10
140.6690450873
 20
113.3671235045
 10
140.6497070027
 20
113.3641993938
 10
140.6299823375
 20
113.3617031564
 10
140.6099078185
 20
113.3596394402
 10
140.5895208236
 20
113.3580120878
 10
140.5688593126
 20
113.3568241294
 10
140.5479617567
 20
113.3560777767
 10
140.5268670664
 20
113.3557744195
 10
140.5056145191
 20
113.3559146227
 10
140.4842436864
 20
113.3564981252
 10
140.46279436
 20
113.3575238405
 10
140.4413064779
 20
113.3589898588
 10
140.4198200497
 20
113.3608934504
 10
140.3983750823
 20
113.3632310709
 10
140.3770115056
 20
113.3659983677
 10
140.3557690978
 20
113.3691901882
 10
140.3346874114
 20
113.3728005894
 10
140.3138056999
 20
113.3768228488
 10
140.2931628443
 20
113.3812494771
 10
140.2727972808
 20
113.3860722321
 10
140.2527469294
 20
113.3912821339
 10
140.2330491231
 20
113.396869482
 10
140.2137405386
 20
113.4028238729
 10
140.1948571278
 20
113.4091342197
 10
140.1764340509
 20
113.4157887727
 10
140.1585056111
 20
113.4227751415
  0
LINE
  5
318
100
AcDbEntity
  8
RACCORDO
100
AcDbLine
 62
253
  6
CONTINUOUS
 10
132.0567908406
 20
101.848613916
 11
129.7911583251
 21
102.7585430117
  0
LINE
  5
319
100
AcDbEntity
  8
RACCORDO
100
AcDbLine
 62
253
  6
CONTINUOUS
 10
131.9728844612
 20
102.1823942206
 11
130.0676733072
 21
102.947569972
  0
LWPOLYLINE
  5
31A
100
AcDbEntity
  8
RACCORDO
100
AcDbPolyline
 62
7
  6
CONTINUOUS
 90
14
 70
0
 10
137.1717725009
 20
94.7659582304
 10
137.175210156
 20
94.7528626486
 10
137.1789636108
 20
94.7399638534
 10
137.1830573469
 20
94.7272889217
 10
137.1875434241
 20
94.714839107
 10
137.1924182465
 20
94.7026682503
 10
137.1976228281
 20
94.6908830152
 10
137.2031821161
 20
94.6795138627
 10
137.2091170826
 20
94.6685858716
 10
137.2153652162
 20
94.6582006501
 10
137.2219532167
 20
94.6483881824
 10
137.2289007937
 20
94.639177573
 10
137.2361431431
 20
94.6306779959
 10
137.2424909738
 20
94.6240971192
  0
LINE
  5
31B
100
AcDbEntity
  8
0
100
AcDbLine
 62
7
  6
CONTINUOUS
 10
135.5057023245
 20
91.2443915475
 11
135.5057023245
 21
91.553613244
  0
LINE
  5
31C
100
AcDbEntity
  8
0
100
AcDbLine
 62
7
  6
CONTINUOUS
 10
135.5445353305
 20
123.2876488891
 11
135.5445353305
 21
122.1413153775
  0
LINE
  5
31D
100
AcDbEntity
  8
0
100
AcDbLine
 62
7
  6
CONTINUOUS
 10
136.4010204607
 20
121.9564068242
 11
136.4010204607
 21
120.7932284897
  0
LINE
  5
31E
100
AcDbEntity
  8
0
100
AcDbLine
 62
253
  6
CONTINUOUS
 10
136.4863051734
 20
121.8624375622
 11
136.4863051734
 21
120.6955922091
  0
LWPOLYLINE
  5
31F
100
AcDbEntity
  8
0
100
AcDbPolyline
 62
253
  6
CONTINUOUS
 90
31
 70
0
 10
136.4863051734
 20
121.8624375622
 10
136.486460524
 20
121.8710881262
 10
136.486926522
 20
121.8799750898
 10
136.4877024534
 20
121.8890747431
 10
136.4887870023
 20
121.8983645732
 10
136.4901776401
 20
121.9078178479
 10
136.4918700309
 20
121.9174033964
 10
136.493859127
 20
121.9270931167
 10
136.496139833
 20
121.9368626037
 10
136.4987060182
 20
121.9466855474
 10
136.5015507809
 20
121.9565354125
 10
136.5046663538
 20
121.9663852
 10
136.5080441709
 20
121.976207797
 10
136.5116749866
 20
121.9859763407
 10
136.5155489592
 20
121.9956643746
 10
136.5196555796
 20
122.0052456145
 10
136.5239836914
 20
122.0146940176
 10
136.528521503
 20
122.0239838279
 10
136.5332566521
 20
122.0330897312
 10
136.5381762488
 20
122.0419869355
 10
136.5432669074
 20
122.0506512292
 10
136.5485147686
 20
122.0590590207
 10
136.5539055492
 20
122.0671874238
 10
136.5594245772
 20
122.0750143134
 10
136.5650568271
 20
122.0825183789
 10
136.5707869733
 20
122.0896792
 10
136.5765994154
 20
122.0964772793
 10
136.5824783147
 20
122.1028940935
 10
136.5884076634
 20
122.1089121737
 10
136.5943713286
 20
122.1145151492
 10
136.600353078
 20
122.1196877727
  0
LWPOLYLINE
  5
320
100
AcDbEntity
  8
0
100
AcDbPolyline
 62
7
  6
CONTINUOUS
 90
12
 70
0
 10
136.4010204607
 20
121.9564068242
 10
136.4016420585
 20
121.9721621405
 10
136.4035423505
 20
121.988067227
 10
136.4067639875
 20
122.0039927738
 10
136.4113530481
 20
122.0198597281
 10
136.4173067915
 20
122.0354592593
 10
136.424534439
 20
122.0504955277
 10
136.4329775514
 20
122.0648576387
 10
136.4425789438
 20
122.0784571652
 10
136.4531934153
 20
122.0911182366
 10
136.4647635354
 20
122.102810545
 10
136.473527827
 20
122.1105029895
  0
LWPOLYLINE
  5
321
100
AcDbEntity
  8
0
100
AcDbPolyline
 62
7
  6
CONTINUOUS
 90
38
 70
0
 10
143.3807353738
 20
118.1321189382
 10
143.3760380852
 20
118.124692782
 10
143.3711267471
 20
118.1173314696
 10
143.3660018243
 20
118.1100435248
 10
143.3606617342
 20
118.1028378185
 10
143.3551097834
 20
118.0957226966
 10
143.3493540998
 20
118.0887060131
 10
143.3433960826
 20
118.0817965915
 10
143.3372375408
 20
118.0750031472
 10
143.3308874902
 20
118.0683335098
 10
143.3243481237
 20
118.0617966107
 10
143.317622016
 20
118.0554012454
 10
143.310719027
 20
118.0491551779
 10
143.3036421782
 20
118.0430673835
 10
143.2963948381
 20
118.0371466682
 10
143.2889876573
 20
118.0314006867
 10
143.2814244964
 20
118.0258383734
 10
143.2737095686
 20
118.0204684932
 10
143.2658543306
 20
118.0152986001
 10
143.25786352
 20
118.0103375141
 10
143.2497422282
 20
118.005593877
 10
143.2415027398
 20
118.0010751315
 10
143.233150704
 20
117.9967898932
 10
143.224692133
 20
117.9927465911
 10
143.2161401827
 20
117.9889525321
 10
143.2075014536
 20
117.9854160233
 10
143.1987829194
 20
117.9821451691
 10
143.1899986617
 20
117.9791470869
 10
143.1811562754
 20
117.9764296498
 10
143.1722637287
 20
117.9740004998
 10
143.1633360734
 20
117.9718664628
 10
143.1543819429
 20
117.9700348281
 10
143.1454103162
 20
117.9685126053
 10
143.1364372178
 20
117.967306167
 10
143.127472388
 20
117.9664220412
 10
143.1185257763
 20
117.9658664005
 10
143.1096142087
 20
117.9656449385
 10
143.1062683219
 20
117.9656493246
  0
LINE
  5
322
100
AcDbEntity
  8
0
100
AcDbLine
 62
253
  6
CONTINUOUS
 10
148.4005184768
 20
126.0673386188
 11
148.6349560323
 21
126.3792409686
  0
LINE
  5
323
100
AcDbEntity
  8
RACCORDO
100
AcDbLine
 62
7
  6
CONTINUOUS
 10
151.6561526151
 20
130.2403204647
 11
151.5268923727
 21
130.068348985
  0
LINE
  5
324
100
AcDbEntity
  8
DRAFT
100
AcDbLine
 62
253
  6
CONTINUOUS
 10
148.9508299574
 20
126.5277833303
 11
148.8113716709
 21
126.3422440843
  0
LINE
  5
325
100
AcDbEntity
  8
DRAFT
100
AcDbLine
 62
7
  6
CONTINUOUS
 10
148.8113716709
 20
126.3422440843
 11
148.7460419464
 21
126.2553275724
  0
LINE
  5
326
100
AcDbEntity
  8
0
100
AcDbLine
 62
7
  6
CONTINUOUS
 10
152.0528853737
 20
129.2461039514
 11
151.8040935732
 21
128.9151043084
  0
LINE
  5
327
100
AcDbEntity
  8
0
100
AcDbLine
 62
7
  6
CONTINUOUS
 10
149.9409656794
 20
125.1120685017
 11
149.6107658818
 21
124.6727613584
  0
LINE
  5
328
100
AcDbEntity
  8
0
100
AcDbLine
 62
7
  6
CONTINUOUS
 10
150.5598718738
 20
124.4026246355
 11
150.1425414633
 21
123.9351236886
  0
LWPOLYLINE
  5
329
100
AcDbEntity
  8
0
100
AcDbPolyline
 62
253
  6
CONTINUOUS
 90
43
 70
0
 10
141.1224232745
 20
113.9911602563
 10
141.1128354134
 20
113.9826960479
 10
141.1032938344
 20
113.9738373175
 10
141.0937985374
 20
113.9645840652
 10
141.0843395208
 20
113.9549256082
 10
141.0749267863
 20
113.9448726292
 10
141.0655903382
 20
113.9344571765
 10
141.0563304187
 20
113.9236780889
 10
141.0471467857
 20
113.9125365276
 10
141.0380687173
 20
113.9010680247
 10
141.0290965502
 20
113.8892715379
 10
141.0202299476
 20
113.8771481095
 10
141.0114971767
 20
113.8647363991
 10
141.0028986661
 20
113.8520354899
 10
140.9944339872
 20
113.8390462987
 10
140.9861301223
 20
113.8258102355
 10
140.977987583
 20
113.8123265112
 10
140.9700058577
 20
113.7985959148
 10
140.962210394
 20
113.7846622237
 10
140.9546017867
 20
113.7705247915
 10
140.9471794411
 20
113.7561842646
 10
140.9399670201
 20
113.7416863586
 10
140.9329651935
 20
113.7270305724
 10
140.9261732915
 20
113.7122174072
 10
140.9196129684
 20
113.6972940819
 10
140.9132849611
 20
113.6822602418
 10
140.9071885327
 20
113.6671162417
 10
140.9013431267
 20
113.6519103645
 10
140.895749545
 20
113.6366424183
 10
140.8904069857
 20
113.6213125949
 10
140.885332486
 20
113.6059697533
 10
140.8805268978
 20
113.5906138435
 10
140.8759893692
 20
113.5752449154
 10
140.871734382
 20
113.5599119776
 10
140.867762835
 20
113.5446151281
 10
140.8640738293
 20
113.5293542689
 10
140.8606791509
 20
113.5141781153
 10
140.8575797544
 20
113.4990870261
 10
140.854774685
 20
113.4840806425
 10
140.8522728643
 20
113.4692066033
 10
140.8500772662
 20
113.4544807883
 10
140.8481849169
 20
113.4398873177
 10
140.8465958162
 20
113.4254261915
  0
LINE
  5
32A
100
AcDbEntity
  8
0
100
AcDbLine
 62
253
  6
CONTINUOUS
 10
144.9229547437
 20
117.2690657698
 11
141.1224232745
 21
113.9911602563
  0
LINE
  5
32B
100
AcDbEntity
  8
0
100
AcDbLine
 62
253
  6
CONTINUOUS
 10
151.4706030908
 20
121.0275797072
 11
145.8778222485
 21
116.3309169114
  0
LINE
  5
32C
100
AcDbEntity
  8
0
100
AcDbLine
 62
253
  6
CONTINUOUS
 10
145.4904414686
 20
117.7367765098
 11
144.9240136639
 21
117.2688248349
  0
LINE
  5
32D
100
AcDbEntity
  8
DRAFT
100
AcDbLine
 62
7
  6
CONTINUOUS
 10
131.1771968949
 20
103.8596371932
 11
131.9911368708
 21
104.528645667
  0
LINE
  5
32E
100
AcDbEntity
  8
0
100
AcDbLine
 62
7
  6
CONTINUOUS
 10
151.7955130695
 20
122.5745635915
 11
152.1970165749
 21
122.9034560088
  0
LINE
  5
32F
100
AcDbEntity
  8
RACCORDO
100
AcDbLine
 62
7
  6
CONTINUOUS
 10
157.5473091029
 20
125.2631987568
 11
157.2583892556
 21
125.0271457067
  0
LINE
  5
330
100
AcDbEntity
  8
RACCORDO
100
AcDbLine
 62
7
  6
CONTINUOUS
 10
131.1771968949
 20
103.8504806753
 11
130.0686418496
 21
102.9483581547
  0
LINE
  5
331
100
AcDbEntity
  8
DRAFT
100
AcDbLine
 62
7
  6
CONTINUOUS
 10
145.4904414686
 20
116.7571576705
 11
145.5295614218
 21
116.7887157521
  0
LINE
  5
332
100
AcDbEntity
  8
0
100
AcDbLine
 62
7
  6
CONTINUOUS
 10
156.7886557601
 20
125.4870020285
 11
153.3220595061
 21
122.6959581801
  0
LINE
  5
333
100
AcDbEntity
  8
0
100
AcDbLine
 62
7
  6
CONTINUOUS
 10
156.0290603438
 20
125.3535367533
 11
152.5365430085
 21
122.5596932159
  0
LWPOLYLINE
  5
334
100
AcDbEntity
  8
RACCORDO
100
AcDbPolyline
 62
7
  6
CONTINUOUS
 90
11
 70
0
 10
157.5473091029
 20
125.2631987568
 10
157.5958583639
 20
125.3020206157
 10
157.6403017686
 20
125.3359609568
 10
157.680639317
 20
125.3650197801
 10
157.7171121337
 20
125.3893420161
 10
157.7494790941
 20
125.4087827343
 10
157.7770168241
 20
125.4229071437
 10
157.7996173108
 20
125.4315958339
 10
157.817388567
 20
125.4349682153
 10
157.8299312579
 20
125.4329477268
 10
157.8339135536
 20
125.4301440243
  0
LINE
  5
335
100
AcDbEntity
  8
0
100
AcDbLine
 62
7
  6
CONTINUOUS
 10
144.9240136639
 20
114.4836940218
 11
146.3400831758
 21
115.30439091
  0
LINE
  5
336
100
AcDbEntity
  8
0
100
AcDbLine
 62
7
  6
CONTINUOUS
 10
146.3926282859
 20
115.2832876092
 11
144.9523350541
 21
114.5001079596
  0
LINE
  5
337
100
AcDbEntity
  8
DRAFT
100
AcDbLine
 62
7
  6
CONTINUOUS
 10
131.9822525076
 20
103.5271521917
 11
131.1771968949
 21
103.8504806753
  0
LWPOLYLINE
  5
338
100
AcDbEntity
  8
0
100
AcDbPolyline
 62
253
  6
CONTINUOUS
 90
23
 70
0
 10
140.1585056097
 20
78.6731699533
 10
140.1616322537
 20
78.6493564921
 10
140.1653652537
 20
78.626188611
 10
140.1697006817
 20
78.6036908798
 10
140.1746340245
 20
78.5818872274
 10
140.1801600434
 20
78.5608006852
 10
140.1862728078
 20
78.540453398
 10
140.1929659981
 20
78.5208667968
 10
140.2002325371
 20
78.5020618368
 10
140.2080644554
 20
78.4840587451
 10
140.2164535194
 20
78.4668766581
 10
140.2253909383
 20
78.4505337037
 10
140.234867021
 20
78.4350472725
 10
140.2448718602
 20
78.4204337458
 10
140.2553949368
 20
78.4067086158
 10
140.2664248179
 20
78.3938865578
 10
140.2779499734
 20
78.3819811165
 10
140.289958286
 20
78.3710049083
 10
140.3024366612
 20
78.3609697493
 10
140.3153720134
 20
78.3518862357
 10
140.3287507718
 20
78.3437639423
 10
140.3425583941
 20
78.33661163
 10
140.3552562732
 20
78.3310437909
  0
LWPOLYLINE
  5
339
100
AcDbEntity
  8
0
100
AcDbPolyline
 62
253
  6
CONTINUOUS
 90
16
 70
0
 10
139.5765755749
 20
87.8065238332
 10
139.5873390468
 20
87.1729384153
 10
139.6021158211
 20
86.5426770779
 10
139.6209048041
 20
85.9157876436
 10
139.643704653
 20
85.2923176805
 10
139.6705136311
 20
84.6723144851
 10
139.7013296098
 20
84.0558250804
 10
139.7361503334
 20
83.4428961815
 10
139.7749732009
 20
82.8335743343
 10
139.817795121
 20
82.2279058982
 10
139.8646129418
 20
81.6259368419
 10
139.9154231778
 20
81.0277127841
 10
139.9702217934
 20
80.4332791335
 10
140.0290046416
 20
79.8426809805
 10
140.0917674624
 20
79.2559630923
 10
140.1585056097
 20
78.6731699533
  0
LINE
  5
33A
100
AcDbEntity
  8
0
100
AcDbLine
 62
253
  6
CONTINUOUS
 10
137.2518356512
 20
126.0081765971
 11
137.2518356512
 21
127.3172265002
  0
LINE
  5
33B
100
AcDbEntity
  8
DRAFT
100
AcDbLine
 62
253
  6
CONTINUOUS
 10
137.2822596997
 20
124.7801719582
 11
137.2822596997
 21
126.0328457337
  0
LINE
  5
33C
100
AcDbEntity
  8
0
100
AcDbLine
 62
7
  6
CONTINUOUS
 10
137.3337674991
 20
126.1559854963
 11
137.3337674991
 21
127.3816032357
  0
LINE
  5
33D
100
AcDbEntity
  8
0
100
AcDbLine
 62
7
  6
CONTINUOUS
 10
137.796778439
 20
120.7940287734
 11
137.796778439
 21
119.426139124
  0
LINE
  5
33E
100
AcDbEntity
  8
0
100
AcDbLine
 62
7
  6
CONTINUOUS
 10
138.1885674868
 20
126.271122404
 11
138.1885674868
 21
125.7380624018
  0
LINE
  5
33F
100
AcDbEntity
  8
0
100
AcDbLine
 62
7
  6
CONTINUOUS
 10
138.5678243503
 20
119.1164697032
 11
138.5678243503
 21
120.4843593526
  0
LINE
  5
340
100
AcDbEntity
  8
DRAFT
100
AcDbLine
 62
253
  6
CONTINUOUS
 10
138.6749881804
 20
125.141929924
 11
138.6749881804
 21
125.6365149073
  0
LWPOLYLINE
  5
341
100
AcDbEntity
  8
0
100
AcDbPolyline
 62
253
  6
CONTINUOUS
 90
27
 70
0
 10
142.8023932503
 20
118.1371242885
 10
142.7987331411
 20
118.1260264438
 10
142.7946208137
 20
118.1151380421
 10
142.7900652388
 20
118.1044837757
 10
142.785076011
 20
118.0940870746
 10
142.779664425
 20
118.0839723794
 10
142.7738437597
 20
118.0741648673
 10
142.7676276732
 20
118.0646874305
 10
142.7610297406
 20
118.0555606527
 10
142.7540647096
 20
118.0468049608
 10
142.7467481788
 20
118.0384400304
 10
142.7390967336
 20
118.030484887
 10
142.731127789
 20
118.0229576597
 10
142.7228593958
 20
118.0158753906
 10
142.7143101601
 20
118.0092540088
 10
142.7054993606
 20
118.0031084479
 10
142.6964468709
 20
117.9974525755
 10
142.6871731362
 20
117.992299171
 10
142.6776991095
 20
117.9876598801
 10
142.668046184
 20
117.9835451778
 10
142.6582361424
 20
117.9799643489
 10
142.6482911285
 20
117.9769254761
 10
142.6382335913
 20
117.9744354193
 10
142.6280862338
 20
117.9724997993
 10
142.6178719621
 20
117.9711229856
 10
142.6076138212
 20
117.9703080854
 10
142.5973349786
 20
117.9700569402
  0
LWPOLYLINE
  5
342
100
AcDbEntity
  8
0
100
AcDbPolyline
 62
7
  6
CONTINUOUS
 90
7
 70
0
 10
144.5404945114
 20
119.4977658143
 10
144.5494773051
 20
119.5140222371
 10
144.5572278271
 20
119.5308992667
 10
144.5637072821
 20
119.5483147372
 10
144.5688896623
 20
119.5662209669
 10
144.5727298279
 20
119.584501075
 10
144.5751900294
 20
119.6029710106
  0
LINE
  5
343
100
AcDbEntity
  8
0
100
AcDbLine
 62
253
  6
CONTINUOUS
 10
144.104504188
 20
118.8352614503
 11
144.5319395469
 21
119.5451589284
  0
LINE
  5
344
100
AcDbEntity
  8
0
100
AcDbLine
 62
7
  6
CONTINUOUS
 10
144.104504188
 20
118.7736599943
 11
144.5404945114
 21
119.4977658143
  0
LWPOLYLINE
  5
345
100
AcDbEntity
  8
RACCORDO
100
AcDbPolyline
 62
7
  6
CONTINUOUS
 90
4
 70
0
 10
151.7429103534
 20
125.7234354319
 10
151.7485362179
 20
125.731072693
 10
151.7534922959
 20
125.7381275885
 10
151.7577785875
 20
125.7446001185
  0
LINE
  5
346
100
AcDbEntity
  8
0
100
AcDbLine
 62
7
  6
CONTINUOUS
 10
149.8035592149
 20
124.3742183552
 11
149.3641122547
 21
123.7895656992
  0
LINE
  5
347
100
AcDbEntity
  8
0
100
AcDbLine
 62
7
  6
CONTINUOUS
 10
150.3723635676
 20
124.8401556035
 11
149.8399147388
 21
124.131770633
  0
LINE
  5
348
100
AcDbEntity
  8
0
100
AcDbLine
 62
7
  6
CONTINUOUS
 10
149.9105623869
 20
124.0872409603
 11
149.6648167736
 21
123.7602940508
  0
LINE
  5
349
100
AcDbEntity
  8
0
100
AcDbLine
 62
7
  6
CONTINUOUS
 10
150.1124286959
 20
123.9104567536
 11
150.3581743091
 21
124.237403663
  0
LINE
  5
34A
100
AcDbEntity
  8
RACCORDO
100
AcDbLine
 62
7
  6
CONTINUOUS
 10
151.7429103534
 20
125.7234354319
 11
151.678714035
 21
125.6380268355
  0
LINE
  5
34B
100
AcDbEntity
  8
0
100
AcDbLine
 62
7
  6
CONTINUOUS
 10
150.8547588451
 20
123.7512609027
 11
150.683172211
 21
123.5229771952
  0
LINE
  5
34C
100
AcDbEntity
  8
0
100
AcDbLine
 62
7
  6
CONTINUOUS
 10
151.2236513435
 20
124.0067680142
 11
150.8031669688
 21
123.4473437179
  0
LINE
  5
34D
100
AcDbEntity
  8
0
100
AcDbLine
 62
7
  6
CONTINUOUS
 10
151.1751333774
 20
123.1818984442
 11
151.4877483844
 21
123.597810285
  0
LWPOLYLINE
  5
34E
100
AcDbEntity
  8
RACCORDO
100
AcDbPolyline
 62
253
  6
CONTINUOUS
 90
3
 70
0
 10
152.4665279466
 20
122.5446935692
 10
152.3990738278
 20
122.4738218667
 10
152.3637083138
 20
122.4415493526
  0
LINE
  5
34F
100
AcDbEntity
  8
RACCORDO
100
AcDbLine
 62
253
  6
CONTINUOUS
 10
158.8146224408
 20
124.0225334526
 11
151.9503781655
 21
118.1516616586
  0
LINE
  5
350
100
AcDbEntity
  8
0
100
AcDbLine
 62
253
  6
CONTINUOUS
 10
151.9503781655
 20
119.6766117287
 11
146.3926282859
 21
115.0093669672
  0
LINE
  5
351
100
AcDbEntity
  8
DRAFT
100
AcDbLine
 62
7
  6
CONTINUOUS
 10
145.4904414686
 20
114.9632025838
 11
146.3400831758
 21
115.652670189
  0
LWPOLYLINE
  5
352
100
AcDbEntity
  8
RACCORDO
100
AcDbPolyline
 62
7
  6
CONTINUOUS
 90
3
 70
0
 10
130.0227180096
 20
102.9132155805
 10
130.0347812203
 20
102.922209825
 10
130.0676733072
 20
102.947569972
  0
LWPOLYLINE
  5
353
100
AcDbEntity
  8
RACCORDO
100
AcDbPolyline
 62
7
  6
CONTINUOUS
 90
3
 70
0
 10
129.9848754838
 20
102.8858707999
 10
129.9975796048
 20
102.8949765697
 10
130.0227180096
 20
102.9132155805
  0
LWPOLYLINE
  5
354
100
AcDbEntity
  8
RACCORDO
100
AcDbPolyline
 62
7
  6
CONTINUOUS
 90
3
 70
0
 10
129.9465859717
 20
102.8591558106
 10
129.9592953332
 20
102.8679696961
 10
129.9848754838
 20
102.8858707999
  0
LWPOLYLINE
  5
355
100
AcDbEntity
  8
RACCORDO
100
AcDbPolyline
 62
7
  6
CONTINUOUS
 90
3
 70
0
 10
129.9090746668
 20
102.8337231196
 10
129.9214199015
 20
102.8420428421
 10
129.9465859717
 20
102.8591558106
  0
LWPOLYLINE
  5
356
100
AcDbEntity
  8
RACCORDO
100
AcDbPolyline
 62
7
  6
CONTINUOUS
 90
3
 70
0
 10
129.8732228629
 20
102.8100559988
 10
129.8849331189
 20
102.8177364305
 10
129.9090746668
 20
102.8337231196
  0
LWPOLYLINE
  5
357
100
AcDbEntity
  8
RACCORDO
100
AcDbPolyline
 62
7
  6
CONTINUOUS
 90
3
 70
0
 10
129.8397648511
 20
102.7885563901
 10
129.8505978421
 20
102.7954669657
 10
129.8732228629
 20
102.8100559988
  0
LWPOLYLINE
  5
358
100
AcDbEntity
  8
RACCORDO
100
AcDbPolyline
 62
7
  6
CONTINUOUS
 90
5
 70
0
 10
129.7911583264
 20
102.7585430112
 10
129.8001075929
 20
102.7638947741
 10
129.8094251294
 20
102.7695934625
 10
129.8191226963
 20
102.7756216213
 10
129.8397648511
 20
102.7885563901
  0
LINE
  5
359
100
AcDbEntity
  8
RACCORDO
100
AcDbLine
 62
253
  6
CONTINUOUS
 10
122.7049700396
 20
99.4481064497
 11
124.6627660162
 21
99.789839956
  0
LINE
  5
35A
100
AcDbEntity
  8
RACCORDO
100
AcDbLine
 62
7
  6
CONTINUOUS
 10
122.9853970802
 20
99.3690462093
 11
124.6616989449
 21
99.6612740566
  0
LWPOLYLINE
  5
35B
100
AcDbEntity
  8
RACCORDO
100
AcDbPolyline
 62
253
  6
CONTINUOUS
 90
16
 70
0
 10
129.8347241245
 20
107.2829598507
 10
129.8522738691
 20
107.2766391865
 10
129.8708644575
 20
107.2713595305
 10
129.8902967035
 20
107.2671774506
 10
129.9103624032
 20
107.2641377553
 10
129.9308465659
 20
107.2622730128
 10
129.951529717
 20
107.2616032026
 10
129.9721902501
 20
107.2621355014
 10
129.9926068009
 20
107.2638642059
 10
130.0125606195
 20
107.2667707943
 10
130.0318379136
 20
107.2708241242
 10
130.0502321396
 20
107.275980767
 10
130.0675462153
 20
107.2821854726
 10
130.0835946316
 20
107.2893717616
 10
130.0982054401
 20
107.2974626377
 10
130.1112220955
 20
107.3063714123
  0
LINE
  5
35C
100
AcDbEntity
  8
RACCORDO
100
AcDbLine
 62
253
  6
CONTINUOUS
 10
122.3563867761
 20
110.2864287164
 11
129.8347241173
 21
107.282959845
  0
LINE
  5
35D
100
AcDbEntity
  8
RACCORDO
100
AcDbLine
 62
253
  6
CONTINUOUS
 10
132.0982382338
 20
106.3738815461
 11
139.5765755749
 21
103.3704126747
  0
LWPOLYLINE
  5
35E
100
AcDbEntity
  8
RACCORDO
100
AcDbPolyline
 62
253
  6
CONTINUOUS
 90
11
 70
0
 10
132.098238234
 20
106.3738815463
 10
132.0819172167
 20
106.3811641438
 10
132.0669999464
 20
106.3893419994
 10
132.053646252
 20
106.3983274928
 10
132.0419992096
 20
106.4080243503
 10
132.0321836098
 20
106.4183286762
 10
132.0243046202
 20
106.4291300664
 10
132.0184466591
 20
106.4403127911
 10
132.0146724909
 20
106.4517570347
 10
132.0130225532
 20
106.4633401794
 10
132.01294928
 20
106.4672874661
  0
LWPOLYLINE
  5
35F
100
AcDbEntity
  8
0
100
AcDbPolyline
 62
253
  6
CONTINUOUS
 90
43
 70
0
 10
140.8465958162
 20
78.797972206
 10
140.8481803838
 20
78.7860474751
 10
140.8500677401
 20
78.7744652738
 10
140.8522578851
 20
78.7632256021
 10
140.8547538856
 20
78.7523163916
 10
140.8575526749
 20
78.7417497106
 10
140.8606450524
 20
78.7315617648
 10
140.8640318561
 20
78.7217545871
 10
140.867712248
 20
78.7123261446
 10
140.8716745132
 20
78.7033065434
 10
140.875919541
 20
78.6946971341
 10
140.8804464421
 20
78.6864965661
 10
140.8852408347
 20
78.6787308945
 10
140.8903035699
 20
78.6714014907
 10
140.8956337966
 20
78.6645069833
 10
140.9012145794
 20
78.6580693127
 10
140.9070467248
 20
78.6520899268
 10
140.9131294263
 20
78.6465673777
 10
140.9194433286
 20
78.6415192613
 10
140.9259891611
 20
78.636947095
 10
140.9327661943
 20
78.6328493616
 10
140.9397528848
 20
78.6292391051
 10
140.9469499042
 20
78.6261178754
 10
140.9543565808
 20
78.6234841227
 10
140.9619493564
 20
78.6213462419
 10
140.9697288401
 20
78.619705815
 10
140.9776944228
 20
78.6185612599
 10
140.9858207188
 20
78.6179162258
 10
140.9941082219
 20
78.6177723096
 10
141.0025564384
 20
78.6181279144
 10
141.0111385009
 20
78.6189818987
 10
141.019854828
 20
78.6203358425
 10
141.0287050012
 20
78.6221881659
 10
141.0376608974
 20
78.6245329874
 10
141.0467228938
 20
78.6273718989
 10
141.0558906131
 20
78.6307033085
 10
141.0651348007
 20
78.6345165598
 10
141.0744562225
 20
78.6388135679
 10
141.0838541125
 20
78.6435924176
 10
141.0932969179
 20
78.6488367066
 10
141.1027741211
 20
78.6545409674
 10
141.1122962398
 20
78.6607106675
 10
141.1218632738
 20
78.6673458068
  0
LWPOLYLINE
  5
360
100
AcDbEntity
  8
0
100
AcDbPolyline
 62
253
  6
CONTINUOUS
 90
40
 70
0
 10
141.1224232473
 20
113.9911609846
 10
141.1214788758
 20
114.0072706805
 10
141.1198806675
 20
114.0236273588
 10
141.1176312165
 20
114.0402045223
 10
141.1147343406
 20
114.0569754607
 10
141.1111945696
 20
114.0739128617
 10
141.1070171378
 20
114.0909888553
 10
141.1022088528
 20
114.1081758096
 10
141.0967774717
 20
114.1254458504
 10
141.0907311828
 20
114.1427704743
 10
141.0840797936
 20
114.1601216231
 10
141.0768340663
 20
114.1774711736
 10
141.0690050866
 20
114.1947904582
 10
141.0606053024
 20
114.2120512127
 10
141.0516485411
 20
114.2292256628
 10
141.0421493372
 20
114.2462860122
 10
141.0321228901
 20
114.2632044565
 10
141.0215855984
 20
114.2799537203
 10
141.0105550694
 20
114.296507141
 10
140.9990492315
 20
114.3128379539
 10
140.9870866164
 20
114.3289196039
 10
140.9746868872
 20
114.3447262806
 10
140.9618702061
 20
114.3602324423
 10
140.9486572036
 20
114.375412848
 10
140.935069256
 20
114.3902428665
 10
140.921128328
 20
114.404698427
 10
140.9068569871
 20
114.4187560953
 10
140.8922783701
 20
114.4323931032
 10
140.877416023
 20
114.4455872913
 10
140.8622940221
 20
114.4583172837
 10
140.8469369863
 20
114.4705625606
 10
140.8313697492
 20
114.4823032423
 10
140.8156174951
 20
114.4935202765
 10
140.7997058783
 20
114.504195607
 10
140.7836606311
 20
114.5143118985
 10
140.7675077063
 20
114.5238527245
 10
140.7512734109
 20
114.532802748
 10
140.7349840616
 20
114.541147482
 10
140.7186659415
 20
114.5488733135
 10
140.702345441
 20
114.555967685
  0
LWPOLYLINE
  5
361
100
AcDbEntity
  8
0
100
AcDbPolyline
 62
253
  6
CONTINUOUS
 90
16
 70
0
 10
140.2678205204
 20
87.8806166402
 10
140.278527886
 20
87.2504736701
 10
140.2932241471
 20
86.6237301257
 10
140.3119093036
 20
86.000386007
 10
140.3345853799
 20
85.3803943275
 10
140.3612503517
 20
84.7638020738
 10
140.3918981454
 20
84.1507502056
 10
140.4265296668
 20
83.5412397049
 10
140.4651440102
 20
82.9352695897
 10
140.5077323854
 20
82.3329778735
 10
140.5542957107
 20
81.7343652932
 10
140.6048330678
 20
81.139431112
 10
140.6593329115
 20
80.5483111325
 10
140.7177913932
 20
79.961050622
 10
140.7802123615
 20
79.3776043132
 10
140.8465958162
 20
78.797972206
  0
LWPOLYLINE
  5
362
100
AcDbEntity
  8
0
100
AcDbPolyline
 62
253
  6
CONTINUOUS
 90
21
 70
0
 10
140.5105364416
 20
118.8835521719
 10
140.5106729564
 20
118.874730113
 10
140.511082241
 20
118.8661485043
 10
140.5117635159
 20
118.8578236857
 10
140.5127154812
 20
118.8497715292
 10
140.5139363258
 20
118.8420073439
 10
140.5154237381
 20
118.8345458545
 10
140.5171749051
 20
118.8274012284
 10
140.5191864895
 20
118.8205871294
 10
140.5214546375
 20
118.8141166186
 10
140.5239750097
 20
118.8080020509
 10
140.5267428176
 20
118.8022550211
 10
140.5297528102
 20
118.7968864305
 10
140.5329992823
 20
118.7919064699
 10
140.5364760332
 20
118.7873246652
 10
140.5401763887
 20
118.7831498025
 10
140.5440932589
 20
118.7793898481
 10
140.5482192105
 20
118.7760519068
 10
140.5525464345
 20
118.7731422859
 10
140.557067246
 20
118.7706662544
 10
140.5607595462
 20
118.7690241723
  0
LWPOLYLINE
  5
363
100
AcDbEntity
  8
0
100
AcDbPolyline
 62
7
  6
CONTINUOUS
 90
26
 70
0
 10
140.50236026
 20
127.3328456033
 10
140.5020105374
 20
127.361092709
 10
140.500971057
 20
127.3886753691
 10
140.4992418188
 20
127.4155935836
 10
140.4968185319
 20
127.4418814426
 10
140.4937054872
 20
127.4675048561
 10
140.4899155574
 20
127.4923615531
 10
140.4854479412
 20
127.5164410132
 10
140.4803034399
 20
127.5397537569
 10
140.4744973306
 20
127.5622290749
 10
140.4680241976
 20
127.5838737088
 10
140.4608894565
 20
127.604680917
 10
140.4531246308
 20
127.6245597656
 10
140.4447321297
 20
127.6434963127
 10
140.4357095441
 20
127.6615045003
 10
140.4260811701
 20
127.6785352195
 10
140.4158383171
 20
127.6945953248
 10
140.4049896759
 20
127.7096779617
 10
140.3935856147
 20
127.7237134585
 10
140.3816323525
 20
127.7366887274
 10
140.3691236704
 20
127.7486168562
 10
140.3560912801
 20
127.7594674359
 10
140.3425235696
 20
127.7692440243
 10
140.328432151
 20
127.7779430636
 10
140.3138835719
 20
127.785523472
 10
140.3014762803
 20
127.790954996
  0
LINE
  5
364
100
AcDbEntity
  8
0
100
AcDbLine
 62
253
  6
CONTINUOUS
 10
140.4039305567
 20
119.3225553892
 11
140.4039305507
 21
119.3225866917
  0
LINE
  5
365
100
AcDbEntity
  8
0
100
AcDbLine
 62
7
  6
CONTINUOUS
 10
139.4353375356
 20
119.882763067
 11
139.4353375356
 21
121.1934063378
  0
LINE
  5
366
100
AcDbEntity
  8
0
100
AcDbLine
 62
7
  6
CONTINUOUS
 10
140.4039305507
 20
119.3225866986
 11
140.4039305507
 21
119.0010137495
  0
LINE
  5
367
100
AcDbEntity
  8
0
100
AcDbLine
 62
7
  6
CONTINUOUS
 10
140.50236026
 20
127.3328456033
 11
140.50236026
 21
126.8961736421
  0
LINE
  5
368
100
AcDbEntity
  8
0
100
AcDbLine
 62
253
  6
CONTINUOUS
 10
140.5105364416
 20
119.205125121
 11
140.5105364416
 21
118.8835521719
  0
LINE
  5
369
100
AcDbEntity
  8
0
100
AcDbLine
 62
7
  6
CONTINUOUS
 10
140.9727412999
 20
118.6035630121
 11
140.9727412999
 21
118.2298356988
  0
LINE
  5
36A
100
AcDbEntity
  8
0
100
AcDbLine
 62
253
  6
CONTINUOUS
 10
141.0793471908
 20
118.5607476829
 11
141.0793471908
 21
118.1077855095
  0
LWPOLYLINE
  5
36B
100
AcDbEntity
  8
0
100
AcDbPolyline
 62
253
  6
CONTINUOUS
 90
13
 70
0
 10
139.5765755749
 20
103.3704126747
 10
139.5603626446
 20
102.0606761881
 10
139.5470976933
 20
100.7532280963
 10
139.5367806775
 20
99.4480813755
 10
139.5294115653
 20
98.1452576936
 10
139.5249901768
 20
96.8447612294
 10
139.5235163767
 20
95.5465788288
 10
139.5249901758
 20
94.2507235064
 10
139.5294115635
 20
92.9572082616
 10
139.5367806753
 20
91.6660201663
 10
139.5470976912
 20
90.3771636958
 10
139.5603626432
 20
89.090660569
 10
139.5765755749
 20
87.8065238332
  0
LWPOLYLINE
  5
36C
100
AcDbEntity
  8
0
100
AcDbPolyline
 62
253
  6
CONTINUOUS
 90
13
 70
0
 10
140.2678205204
 20
103.4289415929
 10
140.2516235311
 20
102.1204936813
 10
140.2383715089
 20
100.8143576427
 10
140.2280644539
 20
99.510533477
 10
140.2207024396
 20
98.2090168943
 10
140.2162853925
 20
96.9098121845
 10
140.2148130921
 20
95.6129322175
 10
140.216285391
 20
94.3183768797
 10
140.2207024366
 20
93.0261462847
 10
140.2280644502
 20
91.7362536422
 10
140.2383715056
 20
90.4487033556
 10
140.251623529
 20
89.1634910216
 10
140.2678205204
 20
87.8806166402
  0
LWPOLYLINE
  5
36D
100
AcDbEntity
  8
0
100
AcDbPolyline
 62
253
  6
CONTINUOUS
 90
34
 70
0
 10
140.5105364416
 20
119.205125121
 10
140.5106977024
 20
119.2149667008
 10
140.5111811229
 20
119.2250503541
 10
140.5119856173
 20
119.2353534018
 10
140.5131093784
 20
119.2458526777
 10
140.5145498794
 20
119.2565245611
 10
140.5163038783
 20
119.2673450284
 10
140.5183674282
 20
119.2782897359
 10
140.5207358882
 20
119.2893340722
 10
140.5234039299
 20
119.3004531927
 10
140.5263655522
 20
119.3116220897
 10
140.5296140926
 20
119.3228156402
 10
140.5331422411
 20
119.3340086588
 10
140.5369420603
 20
119.3451759685
 10
140.5410050029
 20
119.3562924537
 10
140.5453219281
 20
119.3673331083
 10
140.5498831274
 20
119.3782731059
 10
140.5546783383
 20
119.3890878355
 10
140.559696765
 20
119.3997529542
 10
140.564927103
 20
119.4102444472
 10
140.5703576
 20
119.4205387501
 10
140.5759760775
 20
119.4306127773
 10
140.5817699555
 20
119.4404439599
 10
140.5877261522
 20
119.4500100885
 10
140.5938311392
 20
119.4592894477
 10
140.6000710931
 20
119.4682610656
 10
140.6064320545
 20
119.4769049099
 10
140.6128998346
 20
119.4852017134
 10
140.6194608805
 20
119.4931339814
 10
140.6260994683
 20
119.500682596
 10
140.632797757
 20
119.5078275761
 10
140.6395396455
 20
119.5145524529
 10
140.6463109074
 20
119.5208437369
 10
140.6530963223
 20
119.5266878842
  0
LWPOLYLINE
  5
36E
100
AcDbEntity
  8
0
100
AcDbPolyline
 62
253
  6
CONTINUOUS
 90
16
 70
0
 10
140.1585056097
 20
113.4227751407
 10
140.0917674624
 20
112.7345867181
 10
140.0290046416
 20
112.0487510306
 10
139.9702217934
 20
111.3653201743
 10
139.9154231777
 20
110.684346123
 10
139.8646129418
 20
110.0058805341
 10
139.817795121
 20
109.3299747448
 10
139.7749732008
 20
108.6566800308
 10
139.7361503334
 20
107.9860475782
 10
139.7013296098
 20
107.3181282889
 10
139.6705136311
 20
106.6529729158
 10
139.643704653
 20
105.9906319237
 10
139.6209048041
 20
105.3311554628
 10
139.6021158212
 20
104.6745935545
 10
139.5873390468
 20
104.020996087
 10
139.5765755749
 20
103.3704126747
  0
LWPOLYLINE
  5
36F
100
AcDbEntity
  8
0
100
AcDbPolyline
 62
253
  6
CONTINUOUS
 90
16
 70
0
 10
140.8465958162
 20
113.4254261915
 10
140.780212434
 20
112.7409807222
 10
140.7177915175
 20
112.0589772931
 10
140.6593330668
 20
111.3794159044
 10
140.6048332268
 20
110.702245143
 10
140.5542958525
 20
110.0275164218
 10
140.5077325097
 20
109.3553839802
 10
140.4651441234
 20
108.6858486004
 10
140.4265297684
 20
108.0189095
 10
140.3918982357
 20
107.3547185722
 10
140.3612504319
 20
106.6932763301
 10
140.3345854503
 20
106.0345822605
 10
140.3119093614
 20
105.3787867166
 10
140.2932241884
 20
104.7259398163
 10
140.2785279081
 20
104.0759914417
 10
140.2678205204
 20
103.4289415929
  0
LINE
  5
370
100
AcDbEntity
  8
0
100
AcDbLine
 62
7
  6
CONTINUOUS
 10
135.6461205405
 20
91.1069259315
 11
135.9550848944
 21
92.1242766354
  0
LINE
  5
371
100
AcDbEntity
  8
0
100
AcDbLine
 62
7
  6
CONTINUOUS
 10
150.7199866937
 20
123.499772787
 11
150.8547588451
 21
123.7512609027
  0
LWPOLYLINE
  5
372
100
AcDbEntity
  8
RACCORDO
100
AcDbPolyline
 62
7
  6
CONTINUOUS
 90
9
 70
0
 10
151.7577785875
 20
125.7446001185
 10
151.7614201108
 20
125.7505304328
 10
151.7643918476
 20
125.7558783816
 10
151.7666187433
 20
125.760523515
 10
151.7680776475
 20
125.7644437322
 10
151.7687917107
 20
125.767661134
 10
151.7687553296
 20
125.7701215732
 10
151.7679666364
 20
125.7718070008
 10
151.7675644806
 20
125.772179829
  0
LINE
  5
373
100
AcDbEntity
  8
RACCORDO
100
AcDbLine
 62
253
  6
CONTINUOUS
 10
152.5287534889
 20
122.6201639316
 11
152.4665279466
 21
122.5446935692
  0
LINE
  5
374
100
AcDbEntity
  8
RACCORDO
100
AcDbLine
 62
253
  6
CONTINUOUS
 10
159.2307540089
 20
123.1541578461
 11
151.9503781655
 21
116.9273757744
  0
LINE
  5
375
100
AcDbEntity
  8
RACCORDO
100
AcDbLine
 62
7
  6
CONTINUOUS
 10
130.0516727468
 20
109.2091139544
 11
132.0552147479
 21
108.4044463179
  0
LINE
  5
376
100
AcDbEntity
  8
RACCORDO
100
AcDbLine
 62
253
  6
CONTINUOUS
 10
129.8828011353
 20
109.3602195141
 11
132.1439810045
 21
108.4520787016
  0
LWPOLYLINE
  5
377
100
AcDbEntity
  8
RACCORDO
100
AcDbPolyline
 62
7
  6
CONTINUOUS
 90
17
 70
0
 10
130.0518363038
 20
109.2090483503
 10
130.0463357687
 20
109.2113556076
 10
130.0339002386
 20
109.2172350066
 10
130.0215286422
 20
109.2239539871
 10
130.0093215074
 20
109.2314230825
 10
129.9972847396
 20
109.2395891229
 10
129.9854087947
 20
109.2483996833
 10
129.9737780157
 20
109.2577879005
 10
129.9623894485
 20
109.2677129012
 10
129.9512378119
 20
109.2781262452
 10
129.9404080671
 20
109.2889611947
 10
129.9298926757
 20
109.3001817405
 10
129.919685325
 20
109.3117429025
 10
129.9098733284
 20
109.323568892
 10
129.9004788644
 20
109.3356091874
 10
129.8914587078
 20
109.3478382485
 10
129.8828008297
 20
109.3602196369
  0
LWPOLYLINE
  5
378
100
AcDbEntity
  8
0
100
AcDbPolyline
 62
253
  6
CONTINUOUS
 90
12
 70
0
 10
130.2786939763
 20
125.2695836815
 10
130.2818387194
 20
125.2640532049
 10
130.2845122956
 20
125.2587192925
 10
130.2867086707
 20
125.2535939827
 10
130.2884228877
 20
125.248688843
 10
130.2896510777
 20
125.2440149439
 10
130.2903904688
 20
125.2395828343
 10
130.2906393921
 20
125.235402517
 10
130.290397286
 20
125.2314834269
 10
130.2896646967
 20
125.227834409
 10
130.2884432777
 20
125.2244636991
 10
130.2872489408
 20
125.2221905674
  0
LWPOLYLINE
  5
379
100
AcDbEntity
  8
0
100
AcDbPolyline
 62
253
  6
CONTINUOUS
 90
20
 70
0
 10
142.4550488242
 20
78.716743486
 10
142.4552100404
 20
78.7071674032
 10
142.4556933267
 20
78.6978769743
 10
142.4564975962
 20
78.6888930893
 10
142.4576210406
 20
78.6802359494
 10
142.4590611337
 20
78.6719250207
 10
142.4608146373
 20
78.6639789909
 10
142.4628776085
 20
78.6564157273
 10
142.4652454086
 20
78.6492522365
 10
142.4679127135
 20
78.6425046262
 10
142.4708735254
 20
78.6361880687
 10
142.4741211868
 20
78.6303167675
 10
142.477648395
 20
78.6249039246
 10
142.4814472189
 20
78.6199617111
 10
142.4855091166
 20
78.61550124
 10
142.4898249544
 20
78.611532541
 10
142.494385028
 20
78.608064538
 10
142.4991790837
 20
78.6051050291
 10
142.5041963417
 20
78.6026606689
 10
142.5052708612
 20
78.6022159151
  0
LWPOLYLINE
  5
37A
100
AcDbEntity
  8
0
100
AcDbPolyline
 62
253
  6
CONTINUOUS
 90
21
 70
0
 10
142.4550488242
 20
118.102592161
 10
142.4551849629
 20
118.0937821026
 10
142.455593306
 20
118.0852089305
 10
142.4562733555
 20
118.0768891883
 10
142.4572242184
 20
118.0688380667
 10
142.4584442985
 20
118.0610721343
 10
142.4599309943
 20
118.053608971
 10
142.4616812536
 20
118.0464636089
 10
142.4636919025
 20
118.0396487587
 10
142.46595914
 20
118.0331773234
 10
142.4684786803
 20
118.0270615864
 10
142.4712457161
 20
118.0213132608
 10
142.4742549432
 20
118.0159433771
 10
142.4775006062
 20
118.0109621905
 10
142.4809765433
 20
118.0063791435
 10
142.4846761611
 20
118.0022029311
 10
142.4885924444
 20
117.9984414871
 10
142.4927179153
 20
117.995102008
 10
142.4970446649
 20
117.9921908922
 10
142.5015644173
 20
117.9897136877
 10
142.5052427548
 20
117.9880758874
  0
LINE
  5
37B
100
AcDbEntity
  8
0
100
AcDbLine
 62
253
  6
CONTINUOUS
 10
142.4550488242
 20
78.716743486
 11
142.4550488242
 21
79.0383164351
  0
LINE
  5
37C
100
AcDbEntity
  8
0
100
AcDbLine
 62
253
  6
CONTINUOUS
 10
142.4550488242
 20
118.102592161
 11
142.4550488242
 21
118.4241651102
  0
LINE
  5
37D
100
AcDbEntity
  8
0
100
AcDbLine
 62
253
  6
CONTINUOUS
 10
142.8023932503
 20
78.7512756134
 11
142.8023932503
 21
79.0728485626
  0
LINE
  5
37E
100
AcDbEntity
  8
0
100
AcDbLine
 62
253
  6
CONTINUOUS
 10
142.8023932503
 20
118.1371242885
 11
142.8023932503
 21
118.4586972377
  0
LINE
  5
37F
100
AcDbEntity
  8
0
100
AcDbLine
 62
253
  6
CONTINUOUS
 10
143.0333909477
 20
117.3229974838
 11
143.0333909477
 21
117.9662800519
  0
LINE
  5
380
100
AcDbEntity
  8
0
100
AcDbLine
 62
253
  6
CONTINUOUS
 10
143.3807353738
 20
80.0137185189
 11
143.3807353738
 21
80.1289767365
  0
LINE
  5
381
100
AcDbEntity
  8
0
100
AcDbLine
 62
253
  6
CONTINUOUS
 10
143.3807353738
 20
117.3681996575
 11
143.3807353738
 21
118.1321189382
  0
LINE
  5
382
100
AcDbEntity
  8
0
100
AcDbLine
 62
253
  6
CONTINUOUS
 10
143.7296271692
 20
123.4083824478
 11
143.7296271692
 21
123.8307820276
  0
LINE
  5
383
100
AcDbEntity
  8
0
100
AcDbLine
 62
253
  6
CONTINUOUS
 10
143.7296271692
 20
124.2172181872
 11
143.7296271692
 21
124.7172354783
  0
LINE
  5
384
100
AcDbEntity
  8
0
100
AcDbLine
 62
7
  6
CONTINUOUS
 10
143.8100535331
 20
123.5549623156
 11
143.8100535331
 21
124.7805477846
  0
LWPOLYLINE
  5
385
100
AcDbEntity
  8
0
100
AcDbPolyline
 62
253
  6
CONTINUOUS
 90
25
 70
0
 10
142.4550488242
 20
79.0383164351
 10
142.455185339
 20
79.0473621468
 10
142.4555946235
 20
79.056614288
 10
142.4562758985
 20
79.0660552421
 10
142.4572278638
 20
79.0756670073
 10
142.4584487083
 20
79.0854313073
 10
142.4599361206
 20
79.0953296302
 10
142.4616872876
 20
79.1053432004
 10
142.463698872
 20
79.1154528864
 10
142.46596702
 20
79.1256393133
 10
142.4684873922
 20
79.1358830171
 10
142.4712552002
 20
79.146164558
 10
142.4742651927
 20
79.1564644317
 10
142.4775116648
 20
79.1667631008
 10
142.4809884158
 20
79.1770408807
 10
142.4846887712
 20
79.1872780509
 10
142.4886056414
 20
79.1974550297
 10
142.4927315931
 20
79.2075525345
 10
142.4970588171
 20
79.2175514643
 10
142.5015796286
 20
79.2274339597
 10
142.5062849105
 20
79.2371799935
 10
142.5111639747
 20
79.2467676973
 10
142.516206763
 20
79.2561779144
 10
142.5214040754
 20
79.2653940641
 10
142.5267458787
 20
79.2743988439
  0
LWPOLYLINE
  5
386
100
AcDbEntity
  8
0
100
AcDbPolyline
 62
253
  6
CONTINUOUS
 90
34
 70
0
 10
142.4550488242
 20
118.4241651102
 10
142.4552100404
 20
118.4340053142
 10
142.4556933267
 20
118.444087513
 10
142.4564975962
 20
118.454389036
 10
142.4576210406
 20
118.4648867195
 10
142.4590611337
 20
118.4755569586
 10
142.4608146373
 20
118.4863757604
 10
142.4628776085
 20
118.4973187982
 10
142.4652454086
 20
118.5083614656
 10
142.4679127135
 20
118.5194789324
 10
142.4708735254
 20
118.5306462001
 10
142.4741211868
 20
118.5418381583
 10
142.477648395
 20
118.5530296409
 10
142.4814472189
 20
118.5641954832
 10
142.4855091166
 20
118.5753105778
 10
142.4898249544
 20
118.5863499316
 10
142.494385028
 20
118.5972887218
 10
142.4991790837
 20
118.6081023517
 10
142.5041963417
 20
118.6187665061
 10
142.5094255202
 20
118.6292572057
 10
142.5148548612
 20
118.6395508615
 10
142.5204721562
 20
118.6496243274
 10
142.5262647745
 20
118.6594549524
 10
142.5322196908
 20
118.6690206316
 10
142.5383235151
 20
118.678299856
 10
142.5445625224
 20
118.6872717603
 10
142.5509226839
 20
118.6959161707
 10
142.5573896983
 20
118.7042136495
 10
142.563949024
 20
118.7121455392
 10
142.5705859119
 20
118.7196940044
 10
142.5772854384
 20
118.7268420717
 10
142.5840325391
 20
118.7335736682
 10
142.5908120426
 20
118.7398736574
 10
142.5976087049
 20
118.7457278733
  0
LWPOLYLINE
  5
387
100
AcDbEntity
  8
0
100
AcDbPolyline
 62
253
  6
CONTINUOUS
 90
16
 70
0
 10
142.8023932503
 20
78.7512756134
 10
142.8021221628
 20
78.7415920079
 10
142.8013895678
 20
78.7321182374
 10
142.8001971236
 20
78.722875769
 10
142.7985475292
 20
78.7138855406
 10
142.7964445212
 20
78.7051679293
 10
142.7938928676
 20
78.6967427035
 10
142.7908983525
 20
78.688628957
 10
142.7874677603
 20
78.6808450701
 10
142.7836088662
 20
78.6734086818
 10
142.7793304143
 20
78.6663366401
 10
142.7746421002
 20
78.6596449696
 10
142.7695545521
 20
78.6533488364
 10
142.7640793002
 20
78.6474625057
 10
142.7582287515
 20
78.6419993121
 10
142.7547305763
 20
78.6390790214
  0
LWPOLYLINE
  5
388
100
AcDbEntity
  8
0
100
AcDbPolyline
 62
253
  6
CONTINUOUS
 90
19
 70
0
 10
141.1218632738
 20
78.6673458068
 10
141.1209167155
 20
78.6505339779
 10
141.1193163391
 20
78.6340224892
 10
141.1170647375
 20
78.6178380914
 10
141.1141655586
 20
78.602007005
 10
141.1106234993
 20
78.5865548783
 10
141.1064442983
 20
78.5715067457
 10
141.1016347262
 20
78.5568869867
 10
141.0962025752
 20
78.5427192872
 10
141.0901566461
 20
78.5290266005
 10
141.0835067339
 20
78.5158311104
 10
141.0762636122
 20
78.5031541952
 10
141.0684390158
 20
78.4910163928
 10
141.0600456215
 20
78.4794373681
 10
141.0510970276
 20
78.4684358804
 10
141.0416077318
 20
78.4580297534
 10
141.0315931079
 20
78.4482358462
 10
141.0210693807
 20
78.4390700262
 10
141.0100536001
 20
78.430547143
  0
LWPOLYLINE
  5
389
100
AcDbEntity
  8
0
100
AcDbPolyline
 62
7
  6
CONTINUOUS
 90
3
 70
0
 10
144.5751900294
 20
119.6029710106
 10
144.5762674521
 20
119.6215585668
 10
144.5763207727
 20
119.6267299339
  0
LWPOLYLINE
  5
38A
100
AcDbEntity
  8
0
100
AcDbPolyline
 62
7
  6
CONTINUOUS
 90
19
 70
0
 10
143.8100534867
 20
124.7808775476
 10
143.8100183204
 20
124.7805701315
 10
143.8094801791
 20
124.7793242143
 10
143.8083152056
 20
124.7776999962
 10
143.8065526365
 20
124.7757099546
 10
143.8042211092
 20
124.773365223
 10
143.8013424995
 20
124.7707008186
 10
143.7979462825
 20
124.7677332618
 10
143.7940549901
 20
124.7644638858
 10
143.7896670937
 20
124.7609052142
 10
143.7847944934
 20
124.7570674723
 10
143.779457839
 20
124.7529569359
 10
143.7736552871
 20
124.7485817218
 10
143.7673961368
 20
124.7439492783
 10
143.7606966793
 20
124.7390679159
 10
143.7535593441
 20
124.7339480607
 10
143.7459920429
 20
124.7285983975
 10
143.7380104697
 20
124.7230252146
 10
143.7296271692
 20
124.7172354783
  0
LINE
  5
38B
100
AcDbEntity
  8
RACCORDO
100
AcDbLine
 62
7
  6
CONTINUOUS
 10
127.2350031856
 20
93.7013713534
 11
126.1950516854
 21
92.8258789993
  0
LWPOLYLINE
  5
38C
100
AcDbEntity
  8
0
100
AcDbPolyline
 62
253
  6
CONTINUOUS
 90
37
 70
0
 10
140.2678205204
 20
103.4289415929
 10
140.2547692193
 20
103.4194279622
 10
140.2409892189
 20
103.4102458349
 10
140.2265061705
 20
103.4014123035
 10
140.2113470346
 20
103.3929438115
 10
140.1955400299
 20
103.3848561233
 10
140.1791145813
 20
103.3771642939
 10
140.1621012646
 20
103.3698826419
 10
140.1445317505
 20
103.363024722
 10
140.1264387444
 20
103.3566033003
 10
140.1078559268
 20
103.3506303303
 10
140.0888178896
 20
103.3451169307
 10
140.0693600721
 20
103.3400733648
 10
140.0495186952
 20
103.335509021
 10
140.0293306938
 20
103.3314323961
 10
140.0088336478
 20
103.3278510786
 10
139.9880657126
 20
103.3247717353
 10
139.9670655479
 20
103.3222000982
 10
139.9458722455
 20
103.3201409545
 10
139.9245252569
 20
103.3185981374
 10
139.9030643195
 20
103.3175745187
 10
139.881529383
 20
103.317072004
 10
139.8599605349
 20
103.3170915286
 10
139.8383979256
 20
103.3176330564
 10
139.8168816939
 20
103.3186955791
 10
139.7954518926
 20
103.3202771189
 10
139.7741484132
 20
103.3223747317
 10
139.7530109122
 20
103.3249845129
 10
139.7320787373
 20
103.3281016043
 10
139.7113908538
 20
103.3317202034
 10
139.6909857723
 20
103.3358335742
 10
139.6709014768
 20
103.3404340597
 10
139.6511753545
 20
103.345513096
 10
139.6318441256
 20
103.3510612284
 10
139.6129437752
 20
103.3570681291
 10
139.5945094866
 20
103.3635226163
 10
139.576575575
 20
103.3704126748
  0
LWPOLYLINE
  5
38D
100
AcDbEntity
  8
RACCORDO
100
AcDbPolyline
 62
7
  6
CONTINUOUS
 90
12
 70
0
 10
132.054897237
 20
108.4045739215
 10
132.0553556118
 20
108.4044879463
 10
132.0570280209
 20
108.4047012788
 10
132.0595620279
 20
108.405433833
 10
132.0627942978
 20
108.4067021154
 10
132.0667119859
 20
108.4084604867
 10
132.0713242981
 20
108.4106489913
 10
132.0765079649
 20
108.413284148
 10
132.0822549439
 20
108.416327127
 10
132.0885650423
 20
108.4197274445
 10
132.0953308743
 20
108.4234956138
 10
132.1102015996
 20
108.4319821826
  0
LINE
  5
38E
100
AcDbEntity
  8
0
100
AcDbLine
 62
7
  6
CONTINUOUS
 10
144.104504188
 20
79.7940741437
 11
144.104504188
 21
80.6475097468
  0
LINE
  5
38F
100
AcDbEntity
  8
0
100
AcDbLine
 62
7
  6
CONTINUOUS
 10
144.104504188
 20
118.0075204755
 11
144.104504188
 21
119.5229552231
  0
LINE
  5
390
100
AcDbEntity
  8
0
100
AcDbLine
 62
253
  6
CONTINUOUS
 10
144.5319395469
 20
119.8738804083
 11
144.5319395469
 21
119.5451589284
  0
LINE
  5
391
100
AcDbEntity
  8
0
100
AcDbLine
 62
253
  6
CONTINUOUS
 10
144.5319395469
 20
80.4808832025
 11
144.5319395469
 21
80.1521617225
  0
LINE
  5
392
100
AcDbEntity
  8
0
100
AcDbLine
 62
7
  6
CONTINUOUS
 10
144.5763207731
 20
119.9554431386
 11
144.5763207731
 21
119.6267216587
  0
LINE
  5
393
100
AcDbEntity
  8
0
100
AcDbLine
 62
7
  6
CONTINUOUS
 10
144.5763207731
 20
80.5624459328
 11
144.5763207731
 21
80.2337244528
  0
LINE
  5
394
100
AcDbEntity
  8
0
100
AcDbLine
 62
7
  6
CONTINUOUS
 10
144.9240136639
 20
117.2688248349
 11
144.9240136639
 21
114.4836940218
  0
LINE
  5
395
100
AcDbEntity
  8
0
100
AcDbLine
 62
7
  6
CONTINUOUS
 10
144.9240136639
 20
81.38993757
 11
144.9240136639
 21
84.1750683831
  0
LINE
  5
396
100
AcDbEntity
  8
DRAFT
100
AcDbLine
 62
7
  6
CONTINUOUS
 10
145.4904414686
 20
117.7367765098
 11
145.4904414686
 21
114.9632025838
  0
LINE
  5
397
100
AcDbEntity
  8
DRAFT
100
AcDbLine
 62
7
  6
CONTINUOUS
 10
145.4904414686
 20
84.6409945451
 11
145.4904414686
 21
81.8674206192
  0
LWPOLYLINE
  5
398
100
AcDbEntity
  8
0
100
AcDbPolyline
 62
7
  6
CONTINUOUS
 90
18
 70
0
 10
144.9229413147
 20
81.3905695768
 10
144.9226138603
 20
81.3742650686
 10
144.9216243052
 20
81.358222693
 10
144.9199718344
 20
81.3424706445
 10
144.9176553007
 20
81.3270240241
 10
144.9146763205
 20
81.3119240186
 10
144.9110449831
 20
81.2972343644
 10
144.9067740538
 20
81.2829915722
 10
144.9018701164
 20
81.269204277
 10
144.896340289
 20
81.2558902481
 10
144.8902013059
 20
81.2430813451
 10
144.8834607104
 20
81.2307859401
 10
144.8761080915
 20
81.2189897948
 10
144.8681382017
 20
81.2076965138
 10
144.8595738656
 20
81.1969496036
 10
144.8504476962
 20
81.1867935911
 10
144.8407794079
 20
81.1772477236
 10
144.8330831792
 20
81.1704126011
  0
LWPOLYLINE
  5
399
100
AcDbEntity
  8
0
100
AcDbPolyline
 62
253
  6
CONTINUOUS
 90
14
 70
0
 10
144.5319395469
 20
80.1521617225
 10
144.5317459641
 20
80.1425416051
 10
144.5310869178
 20
80.1331280822
 10
144.5299638996
 20
80.1239424842
 10
144.5283794513
 20
80.1150056204
 10
144.5263371617
 20
80.1063377467
 10
144.5238416613
 20
80.0979585189
 10
144.5208986067
 20
80.0898869264
 10
144.517514666
 20
80.0821412542
 10
144.5136975086
 20
80.0747390545
 10
144.5094557838
 20
80.067697098
 10
144.5047991044
 20
80.061031341
 10
144.4997380266
 20
80.054756891
 10
144.4942840207
 20
80.0488879641
  0
LWPOLYLINE
  5
39A
100
AcDbEntity
  8
0
100
AcDbPolyline
 62
7
  6
CONTINUOUS
 90
16
 70
0
 10
144.104504188
 20
79.7940741437
 10
144.104272114
 20
79.7844231428
 10
144.1035768328
 20
79.7749804427
 10
144.1024198344
 20
79.7657673648
 10
144.1008035916
 20
79.7568046569
 10
144.098731758
 20
79.7481126191
 10
144.0962091609
 20
79.7397110573
 10
144.093241465
 20
79.7316189643
 10
144.0898353174
 20
79.7238546106
 10
144.0859985376
 20
79.7164356755
 10
144.0817397849
 20
79.7093789405
 10
144.0770686472
 20
79.7027003437
 10
144.0719957772
 20
79.696415077
 10
144.066532653
 20
79.6905373687
 10
144.0606916079
 20
79.6850804996
 10
144.0590954113
 20
79.6837177531
  0
LINE
  5
39B
100
AcDbEntity
  8
0
100
AcDbLine
 62
253
  6
CONTINUOUS
 10
144.5763207731
 20
80.2337244621
 11
144.5761598099
 21
80.2285796391
  0
LWPOLYLINE
  5
39C
100
AcDbEntity
  8
0
100
AcDbPolyline
 62
253
  6
CONTINUOUS
 90
14
 70
0
 10
144.5763207683
 20
119.9554150555
 10
144.5761598099
 20
119.9502983249
 10
144.5754535702
 20
119.9435098618
 10
144.5741869839
 20
119.9367482285
 10
144.5723628989
 20
119.9300286384
 10
144.5699854171
 20
119.9233662064
 10
144.5670598842
 20
119.9167759165
 10
144.5635928805
 20
119.9102725939
 10
144.5595922009
 20
119.9038708625
 10
144.5550668446
 20
119.8975851248
 10
144.5500269991
 20
119.89142953
 10
144.5444840057
 20
119.8854179262
 10
144.5384503307
 20
119.8795638302
 10
144.5319395469
 20
119.8738804083
  0
LWPOLYLINE
  5
39D
100
AcDbEntity
  8
0
100
AcDbPolyline
 62
253
  6
CONTINUOUS
 90
14
 70
0
 10
144.5763207731
 20
119.6267216556
 10
144.5761584103
 20
119.6215545336
 10
144.5754503792
 20
119.6147664849
 10
144.574182069
 20
119.6080053226
 10
144.5723563745
 20
119.6012863869
 10
144.5699774704
 20
119.5946248736
 10
144.5670507187
 20
119.5880356681
 10
144.5635826581
 20
119.5815334522
 10
144.5595807407
 20
119.5751323321
 10
144.5550542262
 20
119.5688472351
 10
144.5500144757
 20
119.5626936538
 10
144.5444735894
 20
119.5566857709
 10
144.5384439919
 20
119.5508365206
 10
144.5319395469
 20
119.5451589284
  0
LWPOLYLINE
  5
39E
100
AcDbEntity
  8
0
100
AcDbPolyline
 62
253
  6
CONTINUOUS
 90
14
 70
0
 10
144.5763207731
 20
80.5624459334
 10
144.5761592119
 20
80.5572915733
 10
144.5754522955
 20
80.5505039042
 10
144.5741851644
 20
80.5437430879
 10
144.5723606669
 20
80.5370243246
 10
144.5699829022
 20
80.5303627164
 10
144.5670572178
 20
80.5237732495
 10
144.5635902005
 20
80.5172707569
 10
144.5595896554
 20
80.510869869
 10
144.5550645767
 20
80.5045849693
 10
144.550025133
 20
80.4984301787
 10
144.5444826528
 20
80.4924193336
 10
144.538449602
 20
80.4865659542
 10
144.5319395469
 20
80.4808832025
  0
LINE
  5
39F
100
AcDbEntity
  8
RACCORDO
100
AcDbLine
 62
253
  6
CONTINUOUS
 10
134.2889576485
 20
90.5224189863
 11
134.7682253937
 21
91.1656313141
  0
LWPOLYLINE
  5
3A0
100
AcDbEntity
  8
RACCORDO
100
AcDbPolyline
 62
253
  6
CONTINUOUS
 90
6
 70
0
 10
133.9545138755
 20
90.4586654693
 10
134.9736530442
 20
91.8264785197
 10
135.5030522934
 20
92.5357476371
 10
136.0458025391
 20
93.262028749
 10
136.6020049395
 20
94.0054010341
 10
137.1717628458
 20
94.7659448087
  0
LINE
  5
3A1
100
AcDbEntity
  8
RACCORDO
100
AcDbLine
 62
253
  6
CONTINUOUS
 10
134.7682253937
 20
91.1656313141
 11
135.7628094724
 21
92.4980010674
  0
LWPOLYLINE
  5
3A2
100
AcDbEntity
  8
RACCORDO
100
AcDbPolyline
 62
253
  6
CONTINUOUS
 90
3
 70
0
 10
135.7628094724
 20
92.4980010674
 10
136.8054583357
 20
93.8916309511
 10
137.3070802203
 20
94.5610701106
  0
LINE
  5
3A3
100
AcDbEntity
  8
DRAFT
100
AcDbLine
 62
7
  6
CONTINUOUS
 10
135.3718054022
 20
91.3754729943
 11
137.57196625
 21
94.3026291695
  0
LWPOLYLINE
  5
3A4
100
AcDbEntity
  8
RACCORDO
100
AcDbPolyline
 62
253
  6
CONTINUOUS
 90
19
 70
0
 10
134.6534382503
 20
89.7837667723
 10
134.6608435026
 20
89.7934922305
 10
134.6690642557
 20
89.8038815526
 10
134.678038024
 20
89.81485577
 10
134.6876965983
 20
89.8263314683
 10
134.6979665644
 20
89.8382214212
 10
134.7087698607
 20
89.8504352538
 10
134.7200243718
 20
89.8628801293
 10
134.731644553
 20
89.875461455
 10
134.7435420796
 20
89.8880836008
 10
134.7556265193
 20
89.9006506264
 10
134.7678060189
 20
89.9130670104
 10
134.7799880025
 20
89.9252383767
 10
134.7920798755
 20
89.9370722111
 10
134.8039897283
 20
89.9484785655
 10
134.8156270346
 20
89.9593707406
 10
134.8269033398
 20
89.9696659455
 10
134.8377329334
 20
89.979285927
 10
134.8480335001
 20
89.9881575641
  0
LINE
  5
3A5
100
AcDbEntity
  8
DRAFT
100
AcDbLine
 62
7
  6
CONTINUOUS
 10
146.3400831758
 20
115.652670189
 11
146.3400831758
 21
115.30439091
  0
LINE
  5
3A6
100
AcDbEntity
  8
DRAFT
100
AcDbLine
 62
7
  6
CONTINUOUS
 10
146.3400831758
 20
85.6424625947
 11
146.3400831758
 21
85.369679026
  0
LINE
  5
3A7
100
AcDbEntity
  8
0
100
AcDbLine
 62
7
  6
CONTINUOUS
 10
146.3926282859
 20
115.2832876092
 11
146.3926282859
 21
85.6968550041
  0
LWPOLYLINE
  5
3A8
100
AcDbEntity
  8
RACCORDO
100
AcDbPolyline
 62
253
  6
CONTINUOUS
 90
51
 70
0
 10
148.165672465
 20
124.8515586829
 10
148.1701033449
 20
124.9352360003
 10
148.1818834936
 20
125.0377458856
 10
148.1998822481
 20
125.1379451272
 10
148.2240534369
 20
125.2355474503
 10
148.2543256553
 20
125.3302611947
 10
148.2906196547
 20
125.4218421007
 10
148.3328330934
 20
125.5100350046
 10
148.3808195854
 20
125.5945535814
 10
148.4344048842
 20
125.6751328713
 10
148.4934599587
 20
125.7516163186
 10
148.5578924169
 20
125.8238890941
 10
148.6275136748
 20
125.8917313139
 10
148.7021637394
 20
125.9549793397
 10
148.7818213756
 20
126.0135757005
 10
148.8665182013
 20
126.0674495667
 10
148.9558705013
 20
126.1162676403
 10
149.0491746248
 20
126.1596468784
 10
149.1464343501
 20
126.1976147555
 10
149.247088547
 20
126.2299768579
 10
149.349363066
 20
126.256354473
 10
149.4526860896
 20
126.276928957
 10
149.5567923436
 20
126.2919615077
 10
149.660177841
 20
126.3016092919
 10
149.762138971
 20
126.306266744
 10
149.8625839438
 20
126.3063680985
 10
149.9609001666
 20
126.3023299625
 10
150.0566866605
 20
126.294590462
 10
150.1497792918
 20
126.2835657518
 10
150.2399683983
 20
126.2696596754
 10
150.3269748887
 20
126.2532818179
 10
150.4107288195
 20
126.2347962395
 10
150.4913836686
 20
126.2144876431
 10
150.5687929711
 20
126.1926876118
 10
150.6429193392
 20
126.1696895999
 10
150.7141129902
 20
126.1456376861
 10
150.782327931
 20
126.1207739074
 10
150.8475310053
 20
126.0953286097
 10
150.9101066028
 20
126.0693469109
 10
150.9700405861
 20
126.0430082021
 10
151.0273273149
 20
126.0164827755
 10
151.0823659645
 20
125.9897343473
 10
151.1351578512
 20
125.962892806
 10
151.185711166
 20
125.9360807586
 10
151.234428978
 20
125.9091948678
 10
151.2813189887
 20
125.8823259892
 10
151.3263929712
 20
125.8555602509
 10
151.3700482373
 20
125.8287405821
 10
151.4124191013
 20
125.8018461637
 10
151.4533865753
 20
125.7750132588
 10
151.4929621928
 20
125.7482978963
  0
LINE
  5
3A9
100
AcDbEntity
  8
0
100
AcDbLine
 62
7
  6
CONTINUOUS
 10
149.1890470098
 20
125.1262230036
 11
149.2316974889
 21
125.8064227779
  0
LWPOLYLINE
  5
3AA
100
AcDbEntity
  8
0
100
AcDbPolyline
 62
253
  6
CONTINUOUS
 90
13
 70
0
 10
144.5761598099
 20
80.2285796391
 10
144.5754535702
 20
80.221791176
 10
144.5741869839
 20
80.2150295427
 10
144.5723628989
 20
80.2083099526
 10
144.5699854171
 20
80.2016475206
 10
144.5670598842
 20
80.1950572307
 10
144.5635928805
 20
80.1885539081
 10
144.5595922009
 20
80.1821521767
 10
144.5550668446
 20
80.175866439
 10
144.5500269991
 20
80.1697108442
 10
144.5444840057
 20
80.1636992404
 10
144.5384503307
 20
80.1578451444
 10
144.5319395469
 20
80.1521617225
  0
LWPOLYLINE
  5
3AB
100
AcDbEntity
  8
0
100
AcDbPolyline
 62
7
  6
CONTINUOUS
 90
3
 70
0
 10
144.572944929
 20
80.1927790535
 10
144.5755930953
 20
80.2146637763
 10
144.5763207705
 20
80.2337450115
  0
LINE
  5
3AC
100
AcDbEntity
  8
RACCORDO
100
AcDbLine
 62
253
  6
CONTINUOUS
 10
136.3423826413
 20
89.1054486286
 11
135.9321948659
 21
88.552740201
  0
LINE
  5
3AD
100
AcDbEntity
  8
RACCORDO
100
AcDbLine
 62
7
  6
CONTINUOUS
 10
136.2967347626
 20
89.3220557303
 11
135.9644877069
 21
88.8756245496
  0
LINE
  5
3AE
100
AcDbEntity
  8
RACCORDO
100
AcDbLine
 62
253
  6
CONTINUOUS
 10
137.5800649865
 20
90.7645105638
 11
136.3423826413
 21
89.1054486286
  0
LINE
  5
3AF
100
AcDbEntity
  8
RACCORDO
100
AcDbLine
 62
7
  6
CONTINUOUS
 10
137.5335511577
 20
90.9790789692
 11
136.2967347608
 21
89.3220557299
  0
LWPOLYLINE
  5
3B0
100
AcDbEntity
  8
RACCORDO
100
AcDbPolyline
 62
253
  6
CONTINUOUS
 90
3
 70
0
 10
139.138453244
 20
92.8480490967
 10
138.8257728913
 20
92.430479901
 10
137.5800649865
 20
90.7645105638
  0
LINE
  5
3B1
100
AcDbEntity
  8
RACCORDO
100
AcDbLine
 62
7
  6
CONTINUOUS
 10
138.9877568575
 20
92.9224841523
 11
137.5335511577
 21
90.9790789692
  0
LINE
  5
3B2
100
AcDbEntity
  8
DRAFT
100
AcDbLine
 62
7
  6
CONTINUOUS
 10
137.7397104726
 20
94.1390073542
 11
135.8200520088
 21
91.9718329485
  0
LINE
  5
3B3
100
AcDbEntity
  8
0
100
AcDbLine
 62
253
  6
CONTINUOUS
 10
122.9101627443
 20
120.3500984903
 11
140.1585056097
 21
113.4227751407
  0
LWPOLYLINE
  5
3B4
100
AcDbEntity
  8
0
100
AcDbPolyline
 62
7
  6
CONTINUOUS
 90
9
 70
0
 10
148.0945756318
 20
125.0617253254
 10
148.0907590461
 20
125.1573397215
 10
148.0980199108
 20
125.3192871596
 10
148.1191152116
 20
125.4765970527
 10
148.1539282818
 20
125.6283994032
 10
148.2022665886
 20
125.7738546731
 10
148.2638627985
 20
125.9121584265
 10
148.3383762558
 20
126.0425457788
 10
148.4012434675
 20
126.1330456123
  0
LINE
  5
3B5
100
AcDbEntity
  8
0
100
AcDbLine
 62
253
  6
CONTINUOUS
 10
148.6349560323
 20
126.3792409686
 11
148.6327720514
 21
127.09615153
  0
LINE
  5
3B6
100
AcDbEntity
  8
0
100
AcDbLine
 62
253
  6
CONTINUOUS
 10
149.278631041
 20
123.6763296945
 11
149.278631041
 21
123.1093470287
  0
LINE
  5
3B7
100
AcDbEntity
  8
0
100
AcDbLine
 62
7
  6
CONTINUOUS
 10
149.3641122547
 20
123.9111239699
 11
149.3641122547
 21
123.2697169651
  0
LWPOLYLINE
  5
3B8
100
AcDbEntity
  8
0
100
AcDbPolyline
 62
7
  6
CONTINUOUS
 90
16
 70
0
 10
149.3641122142
 20
123.2697194409
 10
149.3637903434
 20
123.2594577561
 10
149.3626802504
 20
123.248041628
 10
149.3607831886
 20
123.2366778499
 10
149.3580954172
 20
123.2253666708
 10
149.354620677
 20
123.2141078417
 10
149.350375459
 20
123.2029547964
 10
149.3453561007
 20
123.1919080377
 10
149.3395662645
 20
123.1809670629
 10
149.3330334287
 20
123.1701837971
 10
149.3257540614
 20
123.15955899
 10
149.3177316945
 20
123.1490918919
 10
149.3090044016
 20
123.1388321791
 10
149.299584874
 20
123.1287964104
 10
149.2894604205
 20
123.1189680269
 10
149.278631041
 20
123.1093470287
  0
LINE
  5
3B9
100
AcDbEntity
  8
RACCORDO
100
AcDbLine
 62
7
  6
CONTINUOUS
 10
135.3718054022
 20
91.3754729943
 11
134.2889576485
 21
90.5224189863
  0
LWPOLYLINE
  5
3BA
100
AcDbEntity
  8
RACCORDO
100
AcDbPolyline
 62
7
  6
CONTINUOUS
 90
25
 70
0
 10
134.2891161432
 20
90.5225450416
 10
134.2781187377
 20
90.5147877717
 10
134.2662225536
 20
90.5073492708
 10
134.2535311358
 20
90.5003433219
 10
134.2400770731
 20
90.4939686932
 10
134.2260040371
 20
90.4882291391
 10
134.2115637119
 20
90.4829267205
 10
134.1968478095
 20
90.4781154645
 10
134.1818776053
 20
90.4738801435
 10
134.1667839268
 20
90.4700482244
 10
134.151614961
 20
90.4666469223
 10
134.136394544
 20
90.4637417825
 10
134.1212105262
 20
90.4612057828
 10
134.1060912717
 20
90.4590595272
 10
134.0910571058
 20
90.4573480444
 10
134.0761825015
 20
90.4559759659
 10
134.0614824762
 20
90.4549605481
 10
134.0469762641
 20
90.4543332503
 10
134.03274453
 20
90.4540178847
 10
134.018795666
 20
90.454028417
 10
134.0051438429
 20
90.4543867197
 10
133.9918769042
 20
90.4550262485
 10
133.9790276069
 20
90.4559325339
 10
133.9665734223
 20
90.4571430308
 10
133.9545166096
 20
90.4586661767
  0
LINE
  5
3BB
100
AcDbEntity
  8
0
100
AcDbLine
 62
253
  6
CONTINUOUS
 10
123.4406124077
 20
121.4886688278
 11
140.702345441
 21
114.555967685
  0
LWPOLYLINE
  5
3BC
100
AcDbEntity
  8
RACCORDO
100
AcDbPolyline
 62
253
  6
CONTINUOUS
 90
54
 70
0
 10
148.3139019534
 20
124.5729834262
 10
148.3075102323
 20
124.6281218049
 10
148.3014281907
 20
124.728837163
 10
148.3011432664
 20
124.8281441655
 10
148.3066132858
 20
124.9260544079
 10
148.3178021468
 20
125.0218177712
 10
148.3347587055
 20
125.1154315587
 10
148.3574341057
 20
125.206898467
 10
148.385645677
 20
125.2954764676
 10
148.4194485514
 20
125.3811441674
 10
148.4587875968
 20
125.4639229594
 10
148.5033147463
 20
125.5431349943
 10
148.5530371337
 20
125.6187120343
 10
148.6079476252
 20
125.6907223172
 10
148.667676753
 20
125.7586927059
 10
148.7322186699
 20
125.8226016311
 10
148.8015792232
 20
125.8824706621
 10
148.8754064864
 20
125.9378913704
 10
148.9539223749
 20
125.9889198615
 10
149.0369049734
 20
126.0355000298
 10
149.1233366088
 20
126.0770551294
 10
149.2135901512
 20
126.1134770111
 10
149.3072927306
 20
126.144873824
 10
149.4023080645
 20
126.1709932699
 10
149.4986463062
 20
126.1915452478
 10
149.5962973023
 20
126.2068198587
 10
149.6930943107
 20
126.2174351079
 10
149.7887425216
 20
126.2232273141
 10
149.8835367447
 20
126.2243601586
 10
149.976194667
 20
126.2219426898
 10
150.0665012739
 20
126.215973848
 10
150.1546715801
 20
126.2064546929
 10
150.2400683157
 20
126.1944974513
 10
150.3225404037
 20
126.1801632817
 10
150.4022389212
 20
126.1633910256
 10
150.4789798302
 20
126.1451094342
 10
150.5526425617
 20
126.1254066261
 10
150.6233476848
 20
126.1041944826
 10
150.6912728684
 20
126.0821373993
 10
150.756380259
 20
126.0593077799
 10
150.8187077101
 20
126.0356332207
 10
150.8785464509
 20
126.0115609058
 10
150.9358768706
 20
125.9871499278
 10
150.99071858
 20
125.9623411942
 10
151.0434216399
 20
125.9374046106
 10
151.0939770965
 20
125.9123880569
 10
151.1423939036
 20
125.8872436532
 10
151.1890489832
 20
125.8620976657
 10
151.2339408138
 20
125.8369872149
 10
151.2770709169
 20
125.8118751803
 10
151.3188207785
 20
125.7867764657
 10
151.3593175608
 20
125.7616960391
 10
151.3984341017
 20
125.7366289325
 10
151.4361704012
 20
125.7115751459
  0
LINE
  5
3BD
100
AcDbEntity
  8
RACCORDO
100
AcDbLine
 62
7
  6
CONTINUOUS
 10
151.9503781655
 20
116.9273757744
 11
151.9503781655
 21
119.6766117287
  0
LINE
  5
3BE
100
AcDbEntity
  8
0
100
AcDbLine
 62
7
  6
CONTINUOUS
 10
152.0528752995
 20
129.8571023836
 11
152.0528853737
 21
129.2461039514
  0
LWPOLYLINE
  5
3BF
100
AcDbEntity
  8
0
100
AcDbPolyline
 62
253
  6
CONTINUOUS
 90
25
 70
0
 10
144.5319395469
 20
80.4808832025
 10
144.5350843448
 20
80.4921992407
 10
144.537757958
 20
80.5036738276
 10
144.5399543519
 20
80.5152810646
 10
144.5416685684
 20
80.5269947474
 10
144.54289674
 20
80.5387884444
 10
144.5436360953
 20
80.5506355566
 10
144.5438849632
 20
80.5625093604
 10
144.5436427783
 20
80.5743830408
 10
144.5429100869
 20
80.5862297722
 10
144.5416885448
 20
80.5980228058
 10
144.5399809094
 20
80.6097355345
 10
144.5377910347
 20
80.6213415272
 10
144.5351238631
 20
80.6328145901
 10
144.531985415
 20
80.6441288267
 10
144.5283827742
 20
80.6552587006
 10
144.5243240722
 20
80.6661790908
 10
144.5198184697
 20
80.6768653501
 10
144.5148761355
 20
80.6872933606
 10
144.5095082256
 20
80.6974395843
 10
144.5037268547
 20
80.7072811224
 10
144.4975450675
 20
80.7167957681
 10
144.4909768075
 20
80.7259620571
 10
144.4840369061
 20
80.7347592877
 10
144.4767410494
 20
80.7431675784
  0
LWPOLYLINE
  5
3C0
100
AcDbEntity
  8
0
100
AcDbPolyline
 62
253
  6
CONTINUOUS
 90
34
 70
0
 10
142.4550488242
 20
118.102592161
 10
142.4649181838
 20
118.0988252124
 10
142.4750877839
 20
118.0953308553
 10
142.4855347574
 20
118.0921169471
 10
142.4962356135
 20
118.0891907144
 10
142.5071662905
 20
118.0865587371
 10
142.5183022099
 20
118.0842269334
 10
142.5296183318
 20
118.0822005466
 10
142.5410892111
 20
118.0804841331
 10
142.5526890545
 20
118.0790815525
 10
142.564391779
 20
118.0779959585
 10
142.57617107
 20
118.0772297921
 10
142.5880004411
 20
118.0767847762
 10
142.5998532929
 20
118.0766619114
 10
142.6117029733
 20
118.076861474
 10
142.6235228376
 20
118.0773830152
 10
142.6352863078
 20
118.0782253623
 10
142.6469669329
 20
118.0793866213
 10
142.6585384481
 20
118.080864181
 10
142.669974834
 20
118.0826547189
 10
142.681250375
 20
118.0847542089
 10
142.6923397172
 20
118.0871579301
 10
142.7032179254
 20
118.0898604776
 10
142.7138605391
 20
118.0928557745
 10
142.7242436275
 20
118.0961370857
 10
142.7343438436
 20
118.0996970328
 10
142.7441384762
 20
118.1035276111
 10
142.7536055013
 20
118.1076202072
 10
142.7627236317
 20
118.1119656186
 10
142.7714723645
 20
118.1165540744
 10
142.7798320275
 20
118.1213752569
 10
142.7877838233
 20
118.1264183256
 10
142.7953098719
 20
118.1316719405
 10
142.8023932503
 20
118.1371242885
  0
LINE
  5
3C1
100
AcDbEntity
  8
0
100
AcDbLine
 62
7
  6
CONTINUOUS
 10
146.3926282859
 20
115.2832876092
 11
146.3400831758
 21
115.30439091
  0
LINE
  5
3C2
100
AcDbEntity
  8
0
100
AcDbLine
 62
7
  6
CONTINUOUS
 10
126.8261016202
 20
123.8322102626
 11
128.7801453771
 21
123.0474222369
  0
LINE
  5
3C3
100
AcDbEntity
  8
0
100
AcDbLine
 62
7
  6
CONTINUOUS
 10
131.2916682176
 20
122.0387380432
 11
132.0627141289
 21
121.7290686224
  0
LINE
  5
3C4
100
AcDbEntity
  8
0
100
AcDbLine
 62
7
  6
CONTINUOUS
 10
137.796778439
 20
119.426139124
 11
138.5678243503
 21
119.1164697032
  0
LINE
  5
3C5
100
AcDbEntity
  8
0
100
AcDbLine
 62
7
  6
CONTINUOUS
 10
141.0793471908
 20
118.1077855095
 11
143.0333909477
 21
117.3229974838
  0
LINE
  5
3C6
100
AcDbEntity
  8
0
100
AcDbLine
 62
7
  6
CONTINUOUS
 10
126.307512908
 20
124.4934493541
 11
128.2520252906
 21
123.7124893433
  0
LINE
  5
3C7
100
AcDbEntity
  8
0
100
AcDbLine
 62
7
  6
CONTINUOUS
 10
140.5607584786
 20
118.7690246011
 11
142.5052708612
 21
117.9880645902
  0
LINE
  5
3C8
100
AcDbEntity
  8
DRAFT
100
AcDbLine
 62
7
  6
CONTINUOUS
 10
145.4904414686
 20
116.8044272072
 11
145.5295614218
 21
116.7887157521
  0
LINE
  5
3C9
100
AcDbEntity
  8
0
100
AcDbLine
 62
253
  6
CONTINUOUS
 10
126.257290871
 20
124.607976925
 11
128.2018032535
 21
123.8270169141
  0
LINE
  5
3CA
100
AcDbEntity
  8
0
100
AcDbLine
 62
253
  6
CONTINUOUS
 10
140.5105364416
 20
118.8835521719
 11
142.4550488242
 21
118.102592161
  0
LINE
  5
3CB
100
AcDbEntity
  8
0
100
AcDbLine
 62
253
  6
CONTINUOUS
 10
142.5052427548
 20
117.9880758874
 11
142.5052708786
 21
117.9880645832
  0
LWPOLYLINE
  5
3CC
100
AcDbEntity
  8
0
100
AcDbPolyline
 62
253
  6
CONTINUOUS
 90
22
 70
0
 10
126.257290871
 20
124.607976925
 10
126.247746445
 20
124.6120068854
 10
126.2385450913
 20
124.6162920813
 10
126.229707567
 20
124.6208229339
 10
126.2212536235
 20
124.6255894238
 10
126.2132025654
 20
124.6305807787
 10
126.2055731094
 20
124.6357854452
 10
126.1983825815
 20
124.6411915856
 10
126.19164696
 20
124.6467871672
 10
126.1853813776
 20
124.6525596206
 10
126.1795999174
 20
124.6584959766
 10
126.1743155939
 20
124.6645828779
 10
126.1695403061
 20
124.67080662
 10
126.1652847956
 20
124.6771532004
 10
126.1615586249
 20
124.6836083543
 10
126.1583701701
 20
124.6901575699
 10
126.1557266007
 20
124.6967861211
 10
126.1536338616
 20
124.7034791016
 10
126.1520966582
 20
124.7102214622
 10
126.1511184474
 20
124.716998042
 10
126.1507014291
 20
124.7237936022
 10
126.1506849845
 20
124.7254115397
  0
LWPOLYLINE
  5
3CD
100
AcDbEntity
  8
0
100
AcDbPolyline
 62
253
  6
CONTINUOUS
 90
22
 70
0
 10
140.5105364416
 20
118.8835521719
 10
140.5009888425
 20
118.8875835399
 10
140.4917851936
 20
118.8918700008
 10
140.4829461931
 20
118.8964019149
 10
140.4744917286
 20
118.9011690846
 10
140.4664408027
 20
118.9061607942
 10
140.4588114952
 20
118.9113658366
 10
140.4516209519
 20
118.916772521
 10
140.4448853668
 20
118.9223686785
 10
140.438619914
 20
118.9281417047
 10
140.4328386906
 20
118.9340786097
 10
140.4275546906
 20
118.9401660481
 10
140.4227797977
 20
118.9463903294
 10
140.4185247504
 20
118.9527374554
 10
140.4147991179
 20
118.9591931518
 10
140.4116112787
 20
118.9657429005
 10
140.4089684005
 20
118.9723719763
 10
140.4068764293
 20
118.979065466
 10
140.4053400727
 20
118.9858083015
 10
140.4043627833
 20
118.9925853086
 10
140.4039467526
 20
118.9993812559
 10
140.403930551
 20
119.0010065522
  0
LWPOLYLINE
  5
3CE
100
AcDbEntity
  8
0
100
AcDbPolyline
 62
253
  6
CONTINUOUS
 90
22
 70
0
 10
126.257290871
 20
124.9295498741
 10
126.2477426491
 20
124.9335815183
 10
126.2385384112
 20
124.9378682953
 10
126.2296988612
 20
124.9424005642
 10
126.2212438775
 20
124.9471681352
 10
126.2131924846
 20
124.9521602832
 10
126.2055628079
 20
124.9573657706
 10
126.1983720114
 20
124.9627728858
 10
126.1916362639
 20
124.9683694697
 10
126.185370717
 20
124.9741429321
 10
126.1795894611
 20
124.980080288
 10
126.1743054996
 20
124.9861681817
 10
126.1695307196
 20
124.992392915
 10
126.1652758587
 20
124.9987404857
 10
126.1615504838
 20
125.0051966174
 10
126.1583629726
 20
125.0117467864
 10
126.15572049
 20
125.0183762631
 10
126.1536289782
 20
125.0250701331
 10
126.1520931407
 20
125.0318133278
 10
126.1511164276
 20
125.0385906615
 10
126.1507010245
 20
125.0453869095
 10
126.1506849861
 20
125.0469801422
  0
LWPOLYLINE
  5
3CF
100
AcDbEntity
  8
0
100
AcDbPolyline
 62
7
  6
CONTINUOUS
 90
17
 70
0
 10
140.5607966696
 20
118.7690092792
 10
140.5477831505
 20
118.7746673554
 10
140.5310734676
 20
118.7832843011
 10
140.5150314975
 20
118.7931506864
 10
140.4997837848
 20
118.8041920776
 10
140.485407077
 20
118.8163523329
 10
140.4719407948
 20
118.8296085899
 10
140.4594676687
 20
118.8439017301
 10
140.4480848104
 20
118.8591422192
 10
140.4378577014
 20
118.8752658915
 10
140.4288614028
 20
118.8921841652
 10
140.421165015
 20
118.9097985913
 10
140.4148224528
 20
118.9280252743
 10
140.4098888944
 20
118.9467581512
 10
140.4064114136
 20
118.9658814919
 10
140.4044254775
 20
118.9852905677
 10
140.403930551
 20
119.0010065522
  0
LWPOLYLINE
  5
3D0
100
AcDbEntity
  8
0
100
AcDbPolyline
 62
7
  6
CONTINUOUS
 90
16
 70
0
 10
126.307512908
 20
124.4934493541
 10
126.2889067374
 20
124.5018191772
 10
126.2711087639
 20
124.5116395543
 10
126.2542498819
 20
124.5228138199
 10
126.2385272269
 20
124.5351627507
 10
126.223948476
 20
124.5486216262
 10
126.2103896623
 20
124.5633037066
 10
126.1979309063
 20
124.5791826136
 10
126.1867459166
 20
124.5960937069
 10
126.1769039246
 20
124.6139843003
 10
126.1685116872
 20
124.6327262515
 10
126.1616611035
 20
124.6521746974
 10
126.156408405
 20
124.6722505821
 10
126.1528221548
 20
124.6928191995
 10
126.1509612449
 20
124.7136888233
 10
126.1506849845
 20
124.7254115397
  0
LINE
  5
3D1
100
AcDbEntity
  8
DRAFT
100
AcDbLine
 62
7
  6
CONTINUOUS
 10
145.5295614218
 20
116.7887157521
 11
146.3400831758
 21
115.652670189
  0
LINE
  5
3D2
100
AcDbEntity
  8
RACCORDO
100
AcDbLine
 62
7
  6
CONTINUOUS
 10
145.4904414686
 20
116.8738785457
 11
145.8778222485
 21
116.3309169114
  0
LWPOLYLINE
  5
3D3
100
AcDbEntity
  8
0
100
AcDbPolyline
 62
253
  6
CONTINUOUS
 90
12
 70
0
 10
144.5319395469
 20
119.5451589284
 10
144.53508429
 20
119.5396284518
 10
144.5377578662
 20
119.5342945395
 10
144.5399542413
 20
119.5291692297
 10
144.5416684584
 20
119.5242640899
 10
144.5428966484
 20
119.5195901909
 10
144.5436360394
 20
119.5151580812
 10
144.5438849628
 20
119.5109777639
 10
144.5436428566
 20
119.5070586738
 10
144.5429102673
 20
119.503409656
 10
144.5416888483
 20
119.500038946
 10
144.5404945114
 20
119.4977658143
  0
LWPOLYLINE
  5
3D4
100
AcDbEntity
  8
0
100
AcDbPolyline
 62
253
  6
CONTINUOUS
 90
37
 70
0
 10
140.2678205204
 20
87.8806166402
 10
140.2547692193
 20
87.8704315572
 10
140.2409892188
 20
87.8605792275
 10
140.2265061704
 20
87.8510779911
 10
140.2113470345
 20
87.8419455347
 10
140.1955400298
 20
87.8331988583
 10
140.1791145811
 20
87.824854244
 10
140.1621012645
 20
87.8169272253
 10
140.1445317503
 20
87.8094325583
 10
140.1264387443
 20
87.8023841945
 10
140.1078559267
 20
87.7957952544
 10
140.0888178895
 20
87.7896780032
 10
140.0693600721
 20
87.7840438285
 10
140.0495186952
 20
87.778903218
 10
140.0293306938
 20
87.7742657412
 10
140.0088336479
 20
87.7701400308
 10
139.9880657127
 20
87.7665337666
 10
139.967065548
 20
87.7634536619
 10
139.9458722457
 20
87.7609054503
 10
139.9245252571
 20
87.7588938752
 10
139.9030643198
 20
87.7574226813
 10
139.8815293834
 20
87.7564946071
 10
139.8599605353
 20
87.7561113802
 10
139.838397926
 20
87.7562737141
 10
139.8168816945
 20
87.7569813066
 10
139.7954518932
 20
87.7582328404
 10
139.7741484138
 20
87.7600259859
 10
139.753010913
 20
87.7623574051
 10
139.7320787381
 20
87.765222758
 10
139.7113908547
 20
87.7686167108
 10
139.6909857732
 20
87.7725329456
 10
139.6709014778
 20
87.7769641723
 10
139.6511753556
 20
87.7819021422
 10
139.6318441267
 20
87.7873376633
 10
139.6129437764
 20
87.7932606172
 10
139.5945094878
 20
87.7996599784
 10
139.5765755763
 20
87.8065238344
  0
LINE
  5
3D5
100
AcDbEntity
  8
0
100
AcDbLine
 62
7
  6
CONTINUOUS
 10
152.1970165749
 20
122.9034560088
 11
151.61443704
 21
122.7518321016
  0
LINE
  5
3D6
100
AcDbEntity
  8
0
100
AcDbLine
 62
7
  6
CONTINUOUS
 10
142.5962793511
 20
117.970063101
 11
143.106291879
 21
117.9656491196
  0
LINE
  5
3D7
100
AcDbEntity
  8
0
100
AcDbLine
 62
253
  6
CONTINUOUS
 10
142.8023932503
 20
118.1371242885
 11
143.3807353738
 21
118.1321189382
  0
LWPOLYLINE
  5
3D8
100
AcDbEntity
  8
0
100
AcDbPolyline
 62
7
  6
CONTINUOUS
 90
6
 70
0
 10
142.5962858302
 20
117.970063045
 10
142.5816037177
 20
117.9706215033
 10
142.5595583362
 20
117.9730962765
 10
142.5377434506
 20
117.9775345172
 10
142.5163475969
 20
117.9839174405
 10
142.5052427548
 20
117.9880758874
  0
LWPOLYLINE
  5
3D9
100
AcDbEntity
  8
0
100
AcDbPolyline
 62
253
  6
CONTINUOUS
 90
20
 70
0
 10
136.600353078
 20
122.1196877727
 10
136.5925573343
 20
122.1226340269
 10
136.5847807559
 20
122.1252036171
 10
136.5770409648
 20
122.1273907186
 10
136.5693554942
 20
122.1291903749
 10
136.5617417651
 20
122.1305985045
 10
136.5542170454
 20
122.1316119133
 10
136.5467983903
 20
122.132228305
 10
136.5395026061
 20
122.1324462843
 10
136.5323462267
 20
122.1322653577
 10
136.5253454666
 20
122.131685936
 10
136.5185161908
 20
122.130709333
 10
136.5118738796
 20
122.1293377639
 10
136.5054335853
 20
122.1275743391
 10
136.4992098986
 20
122.1254230559
 10
136.4932169217
 20
122.1228887913
 10
136.487468229
 20
122.1199772874
 10
136.4819768502
 20
122.1166951451
 10
136.4767552389
 20
122.1130498124
 10
136.473527827
 20
122.1105029895
  0
LWPOLYLINE
  5
3DA
100
AcDbEntity
  8
0
100
AcDbPolyline
 62
7
  6
CONTINUOUS
 90
22
 70
0
 10
136.7730933916
 20
122.2626236049
 10
136.7659471189
 20
122.2653377604
 10
136.7588144655
 20
122.2677348843
 10
136.7517090056
 20
122.2698104111
 10
136.7446442481
 20
122.2715603764
 10
136.7376336438
 20
122.2729814517
 10
136.7306905593
 20
122.2740709503
 10
136.723828191
 20
122.2748267821
 10
136.7170595934
 20
122.275247502
 10
136.7103976864
 20
122.275332339
 10
136.7038551245
 20
122.2750811102
 10
136.6974443462
 20
122.2744942814
 10
136.6911776036
 20
122.2735730109
 10
136.6850667928
 20
122.2723190257
 10
136.6791235233
 20
122.2707346949
 10
136.6733591698
 20
122.268823086
 10
136.6677846662
 20
122.2665878065
 10
136.6624105946
 20
122.2640330882
 10
136.6572472574
 20
122.2611638551
 10
136.6523044394
 20
122.2579855337
 10
136.6475915143
 20
122.2545041459
 10
136.6467052871
 20
122.2537947649
  0
LWPOLYLINE
  5
3DB
100
AcDbEntity
  8
0
100
AcDbPolyline
 62
253
  6
CONTINUOUS
 90
34
 70
0
 10
128.2018032535
 20
123.8270169141
 10
128.2116733314
 20
123.8232497052
 10
128.2218436912
 20
123.8197551275
 10
128.2322914608
 20
123.8165410399
 10
128.2429931316
 20
123.8136146738
 10
128.2539246487
 20
123.8109826064
 10
128.2650614677
 20
123.8086507493
 10
128.2763785717
 20
123.8066243454
 10
128.287850485
 20
123.8049079609
 10
128.2994513686
 20
123.8035054637
 10
128.3111551191
 20
123.8024200089
 10
128.3229354287
 20
123.8016540359
 10
128.3347658038
 20
123.8012092672
 10
128.3466196381
 20
123.8010867032
 10
128.3584702734
 20
123.8012866193
 10
128.3702910587
 20
123.8018085661
 10
128.3820554183
 20
123.8026513704
 10
128.3937368861
 20
123.8038131364
 10
128.405309166
 20
123.805291248
 10
128.4167462171
 20
123.8070823761
 10
128.4280223362
 20
123.8091824924
 10
128.4391121894
 20
123.8115868776
 10
128.4499909164
 20
123.8142901456
 10
128.4606339686
 20
123.8172862001
 10
128.4710172041
 20
123.8205682344
 10
128.4811171555
 20
123.824128801
 10
128.4909112697
 20
123.8279599189
 10
128.5003777301
 20
123.8320530423
 10
128.5094959748
 20
123.8363993299
 10
128.5182447159
 20
123.8409886856
 10
128.5266024571
 20
123.845809687
 10
128.5345501014
 20
123.8508509616
 10
128.5420707083
 20
123.8561013889
 10
128.5491476796
 20
123.8615490416
  0
LWPOLYLINE
  5
3DC
100
AcDbEntity
  8
0
100
AcDbPolyline
 62
253
  6
CONTINUOUS
 90
34
 70
0
 10
142.4550488242
 20
118.4241651102
 10
142.4649021168
 20
118.4204039841
 10
142.4750590414
 20
118.4169131582
 10
142.4854971758
 20
118.4137008101
 10
142.4961949285
 20
118.41077412
 10
142.5071271191
 20
118.4081404999
 10
142.5182647258
 20
118.4058071606
 10
142.529581037
 20
118.4037796233
 10
142.5410522086
 20
118.4020620865
 10
142.5526526465
 20
118.4006583908
 10
142.5643564156
 20
118.3995716978
 10
142.5761370527
 20
118.3988044878
 10
142.587967825
 20
118.3983585087
 10
142.5998220175
 20
118.3982347605
 10
142.6116730739
 20
118.3984335133
 10
142.6234944163
 20
118.3989543216
 10
142.6352594887
 20
118.3997960203
 10
142.6469417972
 20
118.4009567187
 10
142.6585150461
 20
118.4024338067
 10
142.6699531995
 20
118.4042239632
 10
142.6812305358
 20
118.4063231639
 10
142.6923216859
 20
118.4087266884
 10
142.7032017045
 20
118.4114291325
 10
142.7138461179
 20
118.414424419
 10
142.724230976
 20
118.4177058096
 10
142.734332919
 20
118.4212659239
 10
142.7441292266
 20
118.4250967557
 10
142.7535978616
 20
118.429189688
 10
142.7627175312
 20
118.4335355175
 10
142.771467718
 20
118.438124468
 10
142.7798287255
 20
118.4429462093
 10
142.7877817452
 20
118.4479898923
 10
142.7953088962
 20
118.4532441746
 10
142.8023932503
 20
118.4586972377
  0
LWPOLYLINE
  5
3DD
100
AcDbEntity
  8
0
100
AcDbPolyline
 62
253
  6
CONTINUOUS
 90
34
 70
0
 10
128.2018032535
 20
124.1485898633
 10
128.211673997
 20
124.1448224132
 10
128.2218450759
 20
124.1413276261
 10
128.2322936147
 20
124.1381133637
 10
128.2429961205
 20
124.135186855
 10
128.2539285156
 20
124.1325546858
 10
128.26506619
 20
124.1302227819
 10
128.2763840863
 20
124.1281963888
 10
128.2878567538
 20
124.1264800628
 10
128.2994583842
 20
124.125077664
 10
128.3111628845
 20
124.1239923459
 10
128.3229439269
 20
124.1232265493
 10
128.334775004
 20
124.1227819961
 10
128.3466295032
 20
124.1226596846
 10
128.3584807633
 20
124.1228598885
 10
128.3703021249
 20
124.1233821558
 10
128.3820670061
 20
124.1242253104
 10
128.3937489398
 20
124.1253874542
 10
128.4053216307
 20
124.1268659684
 10
128.4167590196
 20
124.1286575188
 10
128.4280354168
 20
124.1307580762
 10
128.4391255341
 20
124.1331629296
 10
128.4500045278
 20
124.1358666995
 10
128.4606478223
 20
124.1388632861
 10
128.471031256
 20
124.1421458781
 10
128.4811313568
 20
124.1457070271
 10
128.4909255679
 20
124.1495387511
 10
128.5003920562
 20
124.1536324975
 10
128.509510876
 20
124.157979732
 10
128.5182600656
 20
124.1625700795
 10
128.5266164175
 20
124.1673910809
 10
128.5345605511
 20
124.1724308639
 10
128.542076404
 20
124.1776785124
 10
128.5491476796
 20
124.1831219908
  0
LWPOLYLINE
  5
3DE
100
AcDbEntity
  8
0
100
AcDbPolyline
 62
253
  6
CONTINUOUS
 90
34
 70
0
 10
134.5203402671
 20
122.6520133902
 10
134.5282667384
 20
122.6489886064
 10
134.5364352038
 20
122.6461836052
 10
134.5448271549
 20
122.6436047438
 10
134.5534235823
 20
122.6412578653
 10
134.5622050017
 20
122.6391482908
 10
134.5711514972
 20
122.6372808051
 10
134.5802427906
 20
122.6356596404
 10
134.5894582857
 20
122.634288469
 10
134.5987770977
 20
122.6331703976
 10
134.6081781119
 20
122.6323079593
 10
134.6176400235
 20
122.6317031079
 10
134.6271413834
 20
122.6313572138
 10
134.6366606591
 20
122.6312710594
 10
134.6461762825
 20
122.6314448386
 10
134.6556666907
 20
122.6318781564
 10
134.6651103859
 20
122.6325700301
 10
134.6744859624
 20
122.6335188905
 10
134.6837721545
 20
122.6347225831
 10
134.6929478946
 20
122.6361783727
 10
134.7019924204
 20
122.6378829609
 10
134.7108852976
 20
122.6398324958
 10
134.7196064534
 20
122.642022583
 10
134.7281360427
 20
122.644448245
 10
134.7364545656
 20
122.6471039295
 10
134.7445430811
 20
122.6499835675
 10
134.7523833862
 20
122.6530806557
 10
134.7599578692
 20
122.6563882287
 10
134.7672505098
 20
122.6598993694
 10
134.7742435484
 20
122.6636056086
 10
134.7809181355
 20
122.6674967123
 10
134.7872586552
 20
122.6715629804
 10
134.7932522836
 20
122.6757955615
 10
134.7988859633
 20
122.6801846666
  0
LINE
  5
3DF
100
AcDbEntity
  8
0
100
AcDbLine
 62
7
  6
CONTINUOUS
 10
137.796778439
 20
120.1692766018
 11
136.4863051734
 21
120.6955922091
  0
LINE
  5
3E0
100
AcDbEntity
  8
0
100
AcDbLine
 62
7
  6
CONTINUOUS
 10
134.5203402671
 20
121.4851680371
 11
132.6362905653
 21
122.2418448723
  0
LINE
  5
3E1
100
AcDbEntity
  8
0
100
AcDbLine
 62
253
  6
CONTINUOUS
 10
142.4550488242
 20
118.4241651102
 11
140.5105364416
 21
119.205125121
  0
LINE
  5
3E2
100
AcDbEntity
  8
0
100
AcDbLine
 62
253
  6
CONTINUOUS
 10
128.2018032535
 20
124.1485898633
 11
126.257290871
 21
124.9295498741
  0
LINE
  5
3E3
100
AcDbEntity
  8
0
100
AcDbLine
 62
7
  6
CONTINUOUS
 10
144.5144428401
 20
117.8428798709
 11
144.104504188
 21
118.0075204755
  0
LINE
  5
3E4
100
AcDbEntity
  8
0
100
AcDbLine
 62
7
  6
CONTINUOUS
 10
140.4546837673
 20
119.4733706397
 11
139.4353375356
 21
119.882763067
  0
LINE
  5
3E5
100
AcDbEntity
  8
0
100
AcDbLine
 62
7
  6
CONTINUOUS
 10
131.2916682176
 20
123.1534442598
 11
129.8512586174
 21
123.7319452285
  0
LINE
  5
3E6
100
AcDbEntity
  8
0
100
AcDbLine
 62
7
  6
CONTINUOUS
 10
134.9709588942
 20
121.6757581764
 11
136.4010204607
 21
121.1014132113
  0
LINE
  5
3E7
100
AcDbEntity
  8
0
100
AcDbLine
 62
253
  6
CONTINUOUS
 10
142.5976087049
 20
118.7457278733
 11
140.6530963223
 21
119.5266878842
  0
LINE
  5
3E8
100
AcDbEntity
  8
0
100
AcDbLine
 62
253
  6
CONTINUOUS
 10
128.3443631342
 20
124.4701526264
 11
126.3998507517
 21
125.2511126372
  0
LINE
  5
3E9
100
AcDbEntity
  8
0
100
AcDbLine
 62
7
  6
CONTINUOUS
 10
131.2916682176
 20
123.4066276926
 11
132.0627141289
 21
123.0969582718
  0
LINE
  5
3EA
100
AcDbEntity
  8
0
100
AcDbLine
 62
7
  6
CONTINUOUS
 10
137.796778439
 20
120.7940287734
 11
138.5678243503
 21
120.4843593526
  0
LINE
  5
3EB
100
AcDbEntity
  8
0
100
AcDbLine
 62
7
  6
CONTINUOUS
 10
145.0808706449
 20
118.3108315457
 11
144.104504188
 21
118.7029623265
  0
LINE
  5
3EC
100
AcDbEntity
  8
0
100
AcDbLine
 62
7
  6
CONTINUOUS
 10
130.4200693665
 20
124.1989398592
 11
129.8512586174
 21
124.4273870796
  0
LINE
  5
3ED
100
AcDbEntity
  8
0
100
AcDbLine
 62
7
  6
CONTINUOUS
 10
136.4010204607
 20
121.7973316403
 11
135.5445353305
 21
122.1413153775
  0
LINE
  5
3EE
100
AcDbEntity
  8
0
100
AcDbLine
 62
253
  6
CONTINUOUS
 10
138.2378333102
 20
121.1589843752
 11
136.4863051734
 21
121.8624375622
  0
LINE
  5
3EF
100
AcDbEntity
  8
0
100
AcDbLine
 62
253
  6
CONTINUOUS
 10
134.5203402671
 20
122.6520133902
 11
132.6362905653
 21
123.4086902253
  0
LINE
  5
3F0
100
AcDbEntity
  8
0
100
AcDbLine
 62
253
  6
CONTINUOUS
 10
138.4844027799
 20
121.3630109375
 11
136.600353078
 21
122.1196877727
  0
LINE
  5
3F1
100
AcDbEntity
  8
0
100
AcDbLine
 62
253
  6
CONTINUOUS
 10
134.6343881717
 20
122.9092636007
 11
132.7503384698
 21
123.6659404358
  0
LINE
  5
3F2
100
AcDbEntity
  8
0
100
AcDbLine
 62
7
  6
CONTINUOUS
 10
135.5445353305
 20
122.6225093631
 11
136.5865405423
 21
122.2040165786
  0
LINE
  5
3F3
100
AcDbEntity
  8
0
100
AcDbLine
 62
7
  6
CONTINUOUS
 10
132.1448843414
 20
124.1214167001
 11
134.8071284853
 21
123.052199433
  0
LINE
  5
3F4
100
AcDbEntity
  8
0
100
AcDbLine
 62
7
  6
CONTINUOUS
 10
136.7730933916
 20
122.2626236049
 11
139.4353375356
 21
121.1934063378
  0
LINE
  5
3F5
100
AcDbEntity
  8
0
100
AcDbLine
 62
7
  6
CONTINUOUS
 10
143.8997196426
 20
119.8099858587
 11
141.933747805
 21
120.5995644705
  0
LINE
  5
3F6
100
AcDbEntity
  8
0
100
AcDbLine
 62
7
  6
CONTINUOUS
 10
129.646474072
 20
125.5344106117
 11
127.6805022344
 21
126.3239892235
  0
LINE
  5
3F7
100
AcDbEntity
  8
0
100
AcDbLine
 62
7
  6
CONTINUOUS
 10
139.2307195298
 20
121.971027393
 11
137.346669828
 21
122.7277042282
  0
LINE
  5
3F8
100
AcDbEntity
  8
0
100
AcDbLine
 62
7
  6
CONTINUOUS
 10
135.3807049217
 20
123.5172800562
 11
133.4966552198
 21
124.2739568913
  0
LWPOLYLINE
  5
3F9
100
AcDbEntity
  8
0
100
AcDbPolyline
 62
253
  6
CONTINUOUS
 90
34
 70
0
 10
130.0739094309
 20
125.885335797
 10
130.0836759327
 20
125.8812290669
 10
130.0934226796
 20
125.8766656507
 10
130.1031276016
 20
125.8716552809
 10
130.1127700501
 20
125.8662079132
 10
130.122326697
 20
125.8603360167
 10
130.1317717294
 20
125.8540551446
 10
130.1410823639
 20
125.8473805558
 10
130.150238926
 20
125.8403264646
 10
130.159220837
 20
125.8329087106
 10
130.1680078531
 20
125.8251439739
 10
130.1765799326
 20
125.8170499252
 10
130.1849174644
 20
125.8086450695
 10
130.1930014854
 20
125.7999485354
 10
130.2008137598
 20
125.790979953
 10
130.2083366375
 20
125.7817595841
 10
130.2155530896
 20
125.772308291
 10
130.2224467404
 20
125.7626475111
 10
130.2290019549
 20
125.7527991499
 10
130.2352038751
 20
125.7427855263
 10
130.2410384501
 20
125.7326293235
 10
130.246492456
 20
125.7223535565
 10
130.2515535338
 20
125.7119815063
 10
130.2562102132
 20
125.7015366758
 10
130.2604519379
 20
125.691042739
 10
130.2642690954
 20
125.6805234754
 10
130.2676530361
 20
125.6700027184
 10
130.2705960907
 20
125.6595043101
 10
130.2730915911
 20
125.6490520335
 10
130.2751338807
 20
125.6386695772
 10
130.276718329
 20
125.6283804843
 10
130.2778413472
 20
125.618208074
 10
130.2785003934
 20
125.608175389
 10
130.2786939763
 20
125.5983051614
  0
LWPOLYLINE
  5
3FA
100
AcDbEntity
  8
0
100
AcDbPolyline
 62
7
  6
CONTINUOUS
 90
40
 70
0
 10
144.5136770616
 20
117.8431874248
 10
144.5300717692
 20
117.8362751222
 10
144.5464688015
 20
117.8287018608
 10
144.5628419751
 20
117.8204766499
 10
144.5791796476
 20
117.8116015368
 10
144.5954402435
 20
117.802094822
 10
144.6115531423
 20
117.7919962998
 10
144.6274776086
 20
117.7813338599
 10
144.643203488
 20
117.7701174112
 10
144.6587072736
 20
117.7583655867
 10
144.6739502705
 20
117.7461102263
 10
144.688922893
 20
117.7333614193
 10
144.7036438151
 20
117.720102037
 10
144.71811278
 20
117.7063256071
 10
144.732277881
 20
117.6920749879
 10
144.7460807876
 20
117.6774074727
 10
144.7594945536
 20
117.6623517428
 10
144.7725021613
 20
117.6469281386
 10
144.7850652029
 20
117.6311868347
 10
144.7971440614
 20
117.6151834663
 10
144.8087438419
 20
117.5989174192
 10
144.8198912215
 20
117.582353336
 10
144.8305832721
 20
117.565486532
 10
144.8407794078
 20
117.5483714724
 10
144.8504476962
 20
117.5310603161
 10
144.8595738656
 20
117.5135739536
 10
144.8681382017
 20
117.4959466291
 10
144.8761080915
 20
117.478252526
 10
144.8834607104
 20
117.4605512201
 10
144.8902013059
 20
117.4428401731
 10
144.896340289
 20
117.4251006593
 10
144.9018701164
 20
117.4073453705
 10
144.9067740538
 20
117.3896177123
 10
144.9110449831
 20
117.3719450697
 10
144.9146763205
 20
117.3543390573
 10
144.9176553007
 20
117.3368447159
 10
144.9199718344
 20
117.3195383402
 10
144.9216243052
 20
117.3024621797
 10
144.9226138603
 20
117.2856257627
 10
144.9229413147
 20
117.2690541874
  0
LWPOLYLINE
  5
3FB
100
AcDbEntity
  8
0
100
AcDbPolyline
 62
253
  6
CONTINUOUS
 90
22
 70
0
 10
140.5105364416
 20
119.205125121
 10
140.5009882197
 20
119.2091567653
 10
140.4917839819
 20
119.2134435422
 10
140.4829444319
 20
119.2179758111
 10
140.4744894481
 20
119.2227433821
 10
140.4664380552
 20
119.2277355301
 10
140.4588083785
 20
119.2329410175
 10
140.451617582
 20
119.2383481328
 10
140.4448818345
 20
119.2439447166
 10
140.4386162876
 20
119.249718179
 10
140.4328350318
 20
119.2556555349
 10
140.4275510702
 20
119.2617434286
 10
140.4227762902
 20
119.2679681619
 10
140.4185214293
 20
119.2743157327
 10
140.4147960545
 20
119.2807718643
 10
140.4116085432
 20
119.2873220333
 10
140.4089660606
 20
119.29395151
 10
140.4068745488
 20
119.30064538
 10
140.4053387113
 20
119.3073885747
 10
140.4043619983
 20
119.3141659084
 10
140.4039465951
 20
119.3209621564
 10
140.4039305567
 20
119.3225553892
  0
LWPOLYLINE
  5
3FC
100
AcDbEntity
  8
0
100
AcDbPolyline
 62
253
  6
CONTINUOUS
 90
22
 70
0
 10
136.4863051734
 20
121.8624375622
 10
136.4786397422
 20
121.8656747917
 10
136.4712515427
 20
121.8691175584
 10
136.4641573115
 20
121.8727580634
 10
136.4573731194
 20
121.8765880598
 10
136.4509143347
 20
121.8805988713
 10
136.4447955886
 20
121.8847814123
 10
136.4390307422
 20
121.8891262078
 10
136.4336328545
 20
121.8936234156
 10
136.4286141536
 20
121.8982628479
 10
136.4239860085
 20
121.9030339951
 10
136.4197589033
 20
121.9079260489
 10
136.4159424139
 20
121.9129279273
 10
136.4125451857
 20
121.9180282993
 10
136.4095749147
 20
121.9232156111
 10
136.4070383294
 20
121.9284781116
 10
136.404941176
 20
121.9338038796
 10
136.4032882053
 20
121.9391808506
 10
136.4020831617
 20
121.944596844
 10
136.4013287751
 20
121.9500395907
 10
136.4010267544
 20
121.9554967613
 10
136.4010204607
 20
121.9564068242
  0
LWPOLYLINE
  5
3FD
100
AcDbEntity
  8
0
100
AcDbPolyline
 62
7
  6
CONTINUOUS
 90
37
 70
0
 10
134.8071284853
 20
123.052199433
 10
134.8142747379
 20
123.049173388
 10
134.8214073937
 20
123.0458412422
 10
134.8285128714
 20
123.042209336
 10
134.8355776281
 20
123.0382845699
 10
134.842588218
 20
123.0340744175
 10
134.8495313176
 20
123.0295869115
 10
134.8563936902
 20
123.024830578
 10
134.8631622641
 20
123.0198144645
 10
134.8698241906
 20
123.0145481497
 10
134.8763667615
 20
123.0090416365
 10
134.8827775072
 20
123.0033053947
 10
134.8890442733
 20
122.9973503845
 10
134.8951550979
 20
122.991187915
 10
134.9010983264
 20
122.9848296987
 10
134.9068627071
 20
122.9782878901
 10
134.912437229
 20
122.9715749107
 10
134.917811252
 20
122.9647035152
 10
134.9229746196
 20
122.9576868447
 10
134.9279174599
 20
122.9505382201
 10
134.9326303296
 20
122.9432712206
 10
134.937104341
 20
122.9358997483
 10
134.9413309304
 20
122.928437796
 10
134.9453020127
 20
122.9208995348
 10
134.9490101211
 20
122.9132993902
 10
134.9524481466
 20
122.9056517873
 10
134.9556095005
 20
122.8979712465
 10
134.9584882648
 20
122.8902724698
 10
134.9610789067
 20
122.8825700678
 10
134.9633764466
 20
122.8748786619
 10
134.9653766164
 20
122.867212979
 10
134.967075554
 20
122.8595875655
 10
134.9684699743
 20
122.8520168933
 10
134.9695573318
 20
122.8445154623
 10
134.9703355568
 20
122.8370975512
 10
134.9708030591
 20
122.8297771895
 10
134.9709588942
 20
122.8225682659
  0
LWPOLYLINE
  5
3FE
100
AcDbEntity
  8
0
100
AcDbPolyline
 62
253
  6
CONTINUOUS
 90
34
 70
0
 10
134.6343881717
 20
122.9092636007
 10
134.6421842923
 20
122.9059478645
 10
134.6499642641
 20
122.9022697557
 10
134.6577104628
 20
122.8982376063
 10
134.6654053409
 20
122.8938605505
 10
134.673031467
 20
122.8891485037
 10
134.6805715654
 20
122.8841121402
 10
134.6880085554
 20
122.878762869
 10
134.6953255898
 20
122.8731128079
 10
134.7025060932
 20
122.8671747561
 10
134.7095337994
 20
122.8609621652
 10
134.7163927885
 20
122.8544891087
 10
134.7230675225
 20
122.8477702502
 10
134.7295428812
 20
122.84082081
 10
134.7358041956
 20
122.8336565309
 10
134.741837282
 20
122.8262936423
 10
134.7476284734
 20
122.8187488235
 10
134.753164651
 20
122.8110391659
 10
134.7584332734
 20
122.8031821343
 10
134.7634224057
 20
122.7951955275
 10
134.7681207457
 20
122.7870974378
 10
134.7725176503
 20
122.7789062098
 10
134.776603159
 20
122.7706403994
 10
134.7803680169
 20
122.7623187312
 10
134.7838036953
 20
122.7539600566
 10
134.7869024114
 20
122.7455833105
 10
134.7896571454
 20
122.7372074692
 10
134.7920616571
 20
122.7288515064
 10
134.7941104995
 20
122.7205343512
 10
134.7957990313
 20
122.7122748446
 10
134.7971234275
 20
122.704091697
 10
134.7980806877
 20
122.6960034459
 10
134.7986686436
 20
122.6880284137
 10
134.7988859633
 20
122.6801846666
  0
LWPOLYLINE
  5
3FF
100
AcDbEntity
  8
0
100
AcDbPolyline
 62
7
  6
CONTINUOUS
 90
34
 70
0
 10
129.646474072
 20
125.5344106117
 10
129.6562179882
 20
125.5302651323
 10
129.6659399906
 20
125.5256652819
 10
129.6756179743
 20
125.52062141
 10
129.6852298712
 20
125.5151448195
 10
129.6947539027
 20
125.5092479101
 10
129.7041686282
 20
125.5029441501
 10
129.7134526742
 20
125.496247778
 10
129.7225849356
 20
125.4891739006
 10
129.7315448266
 20
125.4817386283
 10
129.7403120206
 20
125.4739587777
 10
129.7488665987
 20
125.4658519233
 10
129.7571892493
 20
125.4574364897
 10
129.765261107
 20
125.448731529
 10
129.7730638448
 20
125.4397567258
 10
129.7805798191
 20
125.4305324437
 10
129.7877920099
 20
125.4210795825
 10
129.7946840557
 20
125.4114195357
 10
129.8012403407
 20
125.4015741908
 10
129.8074460373
 20
125.3915658697
 10
129.8132870824
 20
125.3814172392
 10
129.8187502065
 20
125.3711512642
 10
129.8238230765
 20
125.3607912341
 10
129.8284942143
 20
125.350360627
 10
129.8327529669
 20
125.3398830172
 10
129.8365897468
 20
125.329382187
 10
129.8399958944
 20
125.3188819477
 10
129.8429635903
 20
125.3084060023
 10
129.8454861874
 20
125.2979781417
 10
129.847558021
 20
125.2876220253
 10
129.8491742638
 20
125.2773610018
 10
129.8503312621
 20
125.2672183188
 10
129.8510265433
 20
125.2572170697
 10
129.8512586174
 20
125.2473799761
  0
LWPOLYLINE
  5
400
100
AcDbEntity
  8
0
100
AcDbPolyline
 62
7
  6
CONTINUOUS
 90
34
 70
0
 10
143.8997196426
 20
119.8099858587
 10
143.9094635589
 20
119.8058403793
 10
143.9191855612
 20
119.8012405289
 10
143.9288635449
 20
119.7961966569
 10
143.9384754419
 20
119.7907200665
 10
143.9479994733
 20
119.7848231571
 10
143.9574141989
 20
119.7785193971
 10
143.9666982448
 20
119.7718230249
 10
143.9758305062
 20
119.7647491475
 10
143.9847903972
 20
119.7573138753
 10
143.9935575912
 20
119.7495340246
 10
144.0021121694
 20
119.7414271702
 10
144.01043482
 20
119.7330117366
 10
144.0185066776
 20
119.724306776
 10
144.0263094154
 20
119.7153319728
 10
144.0338253897
 20
119.7061076906
 10
144.0410375806
 20
119.6966548294
 10
144.0479296264
 20
119.6869947826
 10
144.0544859113
 20
119.6771494377
 10
144.0606916079
 20
119.6671411167
 10
144.066532653
 20
119.6569924861
 10
144.0719957772
 20
119.6467265111
 10
144.0770686472
 20
119.6363664811
 10
144.0817397849
 20
119.6259358739
 10
144.0859985376
 20
119.6154582641
 10
144.0898353174
 20
119.604957434
 10
144.093241465
 20
119.5944571947
 10
144.0962091609
 20
119.5839812492
 10
144.098731758
 20
119.5735533886
 10
144.1008035916
 20
119.5631972722
 10
144.1024198344
 20
119.5529362487
 10
144.1035768328
 20
119.5427935657
 10
144.104272114
 20
119.5327923166
 10
144.104504188
 20
119.5229552231
  0
LWPOLYLINE
  5
401
100
AcDbEntity
  8
0
100
AcDbPolyline
 62
253
  6
CONTINUOUS
 90
34
 70
0
 10
128.3443631342
 20
124.4701526264
 10
128.3540682183
 20
124.4659752731
 10
128.3637532079
 20
124.4613450475
 10
128.3733961644
 20
124.4562724382
 10
128.3829752442
 20
124.4507689357
 10
128.3924687487
 20
124.4448470066
 10
128.4018551729
 20
124.4385200656
 10
128.4111132545
 20
124.4318024445
 10
128.4202220218
 20
124.4247093602
 10
128.4291608415
 20
124.4172568802
 10
128.437909465
 20
124.409461886
 10
128.4464480749
 20
124.4013420351
 10
128.4547573293
 20
124.3929157206
 10
128.4628184057
 20
124.3842020301
 10
128.4706130442
 20
124.375220702
 10
128.478123588
 20
124.3659920811
 10
128.4853330242
 20
124.3565370723
 10
128.4922250216
 20
124.3468770932
 10
128.4987839685
 20
124.337034026
 10
128.5049950074
 20
124.3270301673
 10
128.5108440687
 20
124.3168881781
 10
128.5163179032
 20
124.3066310323
 10
128.5214041113
 20
124.2962819646
 10
128.5260911717
 20
124.285864418
 10
128.530368467
 20
124.2754019906
 10
128.5342263083
 20
124.2649183821
 10
128.5376559567
 20
124.2544373403
 10
128.5406496433
 20
124.2439826069
 10
128.5432005866
 20
124.2335778645
 10
128.5453030083
 20
124.2232466819
 10
128.5469521459
 20
124.2130124618
 10
128.5481442637
 20
124.2028983867
 10
128.5488766613
 20
124.1929273676
 10
128.5491476796
 20
124.1831219908
  0
LWPOLYLINE
  5
402
100
AcDbEntity
  8
0
100
AcDbPolyline
 62
253
  6
CONTINUOUS
 90
34
 70
0
 10
142.5976087049
 20
118.7457278733
 10
142.6072978367
 20
118.7415577654
 10
142.6169711246
 20
118.7369341751
 10
142.6266066698
 20
118.7318669751
 10
142.636183977
 20
118.7263662468
 10
142.6456798814
 20
118.720444593
 10
142.6550687366
 20
118.7141177033
 10
142.664327894
 20
118.7074009469
 10
142.6734377868
 20
118.7003086265
 10
142.6823779415
 20
118.6928566677
 10
142.6911282085
 20
118.6850618279
 10
142.6996686304
 20
118.6769418468
 10
142.7079796686
 20
118.6685152888
 10
142.7160424201
 20
118.6598013318
 10
142.723838697
 20
118.6508196449
 10
142.7313508854
 20
118.6415905199
 10
142.7385619806
 20
118.6321348386
 10
142.7454556191
 20
118.6224740487
 10
142.7520161661
 20
118.6126300556
 10
142.7582287515
 20
118.6026251684
 10
142.7640793002
 20
118.5924820505
 10
142.7695545521
 20
118.5822236872
 10
142.7746421002
 20
118.5718733203
 10
142.7793304143
 20
118.5614544033
 10
142.7836088662
 20
118.5509905517
 10
142.7874677603
 20
118.5405054767
 10
142.7908983525
 20
118.5300229344
 10
142.7938928676
 20
118.5195666801
 10
142.7964445212
 20
118.5091604015
 10
142.7985475292
 20
118.4988276828
 10
142.8001971236
 20
118.4885919545
 10
142.8013895678
 20
118.4784764146
 10
142.8021221628
 20
118.4685039772
 10
142.8023932503
 20
118.4586972377
  0
LWPOLYLINE
  5
403
100
AcDbEntity
  8
0
100
AcDbPolyline
 62
7
  6
CONTINUOUS
 90
15
 70
0
 10
130.1662472745
 20
125.9118570401
 10
130.1862113754
 20
125.9028032738
 10
130.2053977018
 20
125.8919781039
 10
130.2236192229
 20
125.8794587179
 10
130.2406740776
 20
125.865368879
 10
130.2564292627
 20
125.8498128459
 10
130.2708046072
 20
125.8328485523
 10
130.283674722
 20
125.8145818155
 10
130.2948823535
 20
125.795200398
 10
130.3043174443
 20
125.7748785521
 10
130.3118973442
 20
125.7537866548
 10
130.3175575974
 20
125.7321015789
 10
130.3212541933
 20
125.7099874619
 10
130.3229585337
 20
125.687504545
 10
130.3230751977
 20
125.6798398085
  0
LWPOLYLINE
  5
404
100
AcDbEntity
  8
RACCORDO
100
AcDbPolyline
 62
7
  6
CONTINUOUS
 90
24
 70
0
 10
159.4017164364
 20
105.8673474575
 10
159.4072370472
 20
105.8619389244
 10
159.551483094
 20
105.7060998357
 10
159.688300963
 20
105.5430884603
 10
159.8169763217
 20
105.3737527959
 10
159.9368373206
 20
105.1989737007
 10
160.0472436221
 20
105.0196849926
 10
160.1476164134
 20
104.836832427
 10
160.2374418443
 20
104.651358505
 10
160.3162575882
 20
104.4642212209
 10
160.3836538982
 20
104.2763955488
 10
160.439280854
 20
104.0888591144
 10
160.4828515758
 20
103.9025789095
 10
160.5141388512
 20
103.7185203632
 10
160.5329774786
 20
103.5376469998
 10
160.539268342
 20
103.3609056464
 10
160.5329786453
 20
103.1892166601
 10
160.5141411106
 20
103.0234743047
 10
160.482854866
 20
102.8645461159
 10
160.4392851212
 20
102.7132629075
 10
160.383659103
 20
102.570407612
 10
160.3162638571
 20
102.4367170516
 10
160.2374495574
 20
102.3128879498
 10
160.1476258996
 20
102.1995657885
  0
LWPOLYLINE
  5
405
100
AcDbEntity
  8
RACCORDO
100
AcDbPolyline
 62
7
  6
CONTINUOUS
 90
25
 70
0
 10
159.4017164364
 20
105.9775043058
 10
159.4802085675
 20
105.9005902552
 10
159.6244911501
 20
105.7441267011
 10
159.7608831624
 20
105.5804330735
 10
159.8887659428
 20
105.4102728701
 10
160.0074663871
 20
105.2345410992
 10
160.1162836628
 20
105.0542893571
 10
160.2146789713
 20
104.8704366766
 10
160.3021937127
 20
104.6838382986
 10
160.3783628635
 20
104.4954555791
 10
160.4428660198
 20
104.3059722768
 10
160.4952716879
 20
104.1164747042
 10
160.535161532
 20
103.9284802435
 10
160.5624229992
 20
103.7426427002
 10
160.5769145024
 20
103.5599777376
 10
160.5786102514
 20
103.3824108062
 10
160.5678170333
 20
103.2114310915
 10
160.5448348219
 20
103.0468442798
 10
160.5096420594
 20
102.8880473047
 10
160.4621785799
 20
102.7354525404
 10
160.4026283879
 20
102.5901942704
 10
160.3311180668
 20
102.4529488534
 10
160.2478281577
 20
102.3244413341
 10
160.153156161
 20
102.2055983018
 10
160.1083648277
 20
102.1569472682
  0
LINE
  5
406
100
AcDbEntity
  8
0
100
AcDbLine
 62
253
  6
CONTINUOUS
 10
142.7933857134
 20
79.7081791261
 11
142.5267458787
 21
79.2743988439
  0
LINE
  5
407
100
AcDbEntity
  8
0
100
AcDbLine
 62
253
  6
CONTINUOUS
 10
143.3807353738
 20
80.0137185189
 11
142.8023932503
 21
79.0728485626
  0
LINE
  5
408
100
AcDbEntity
  8
0
100
AcDbLine
 62
253
  6
CONTINUOUS
 10
152.5365429936
 20
122.559693204
 11
153.3220595036
 21
122.6959581782
  0
LWPOLYLINE
  5
409
100
AcDbEntity
  8
0
100
AcDbPolyline
 62
7
  6
CONTINUOUS
 90
7
 70
0
 10
142.3313935036
 20
120.9895224194
 10
142.3540928139
 20
120.9917847941
 10
142.377079622
 20
120.9919619906
 10
142.4000731197
 20
120.9900155608
 10
142.4228892131
 20
120.9859345968
 10
142.4452406651
 20
120.9797544083
 10
142.4606614897
 20
120.9741431148
  0
LWPOLYLINE
  5
40A
100
AcDbEntity
  8
0
100
AcDbPolyline
 62
7
  6
CONTINUOUS
 90
3
 70
0
 10
128.2074378305
 20
126.6985590732
 10
128.1877537417
 20
126.7055249353
 10
128.1673967592
 20
126.710858861
  0
LWPOLYLINE
  5
40B
100
AcDbEntity
  8
0
100
AcDbPolyline
 62
253
  6
CONTINUOUS
 90
16
 70
0
 10
142.4606614897
 20
120.9741431148
 10
142.4565147767
 20
120.9756176326
 10
142.4510842797
 20
120.97701513
 10
142.4454658022
 20
120.9778843825
 10
142.4396719243
 20
120.9782234312
 10
142.4337157276
 20
120.9780314984
 10
142.4276107405
 20
120.9773090324
 10
142.4213707866
 20
120.9760577082
 10
142.4150098252
 20
120.9742803635
 10
142.4085420452
 20
120.9719809765
 10
142.4019809992
 20
120.9691642562
 10
142.3953424114
 20
120.9658368452
 10
142.3886441227
 20
120.9620079915
 10
142.3819022342
 20
120.9576876048
 10
142.3751309723
 20
120.9528855028
 10
142.3683455574
 20
120.947613077
  0
LWPOLYLINE
  5
40C
100
AcDbEntity
  8
0
100
AcDbPolyline
 62
253
  6
CONTINUOUS
 90
16
 70
0
 10
144.4194928452
 20
120.1874322871
 10
144.4153381861
 20
120.1889112483
 10
144.4099088452
 20
120.1903099926
 10
144.4042915501
 20
120.191180621
 10
144.3984989319
 20
120.1915211759
 10
144.3925440156
 20
120.1913308914
 10
144.3864401913
 20
120.1906101955
 10
144.380201184
 20
120.1893607086
 10
144.3738410225
 20
120.1875852403
 10
144.3673740081
 20
120.185287783
 10
144.3608146824
 20
120.1824735026
 10
144.3541777945
 20
120.1791487273
 10
144.347478268
 20
120.175320933
 10
144.3407311673
 20
120.1709987268
 10
144.3339516637
 20
120.1661918276
 10
144.3271550015
 20
120.160911044
  0
LWPOLYLINE
  5
40D
100
AcDbEntity
  8
0
100
AcDbPolyline
 62
253
  6
CONTINUOUS
 90
16
 70
0
 10
130.1662472745
 20
125.9118570401
 10
130.1620926155
 20
125.9133360014
 10
130.1566632745
 20
125.9147347457
 10
130.1510459795
 20
125.9156053741
 10
130.1452533612
 20
125.915945929
 10
130.1392984449
 20
125.9157556445
 10
130.1331946207
 20
125.9150349485
 10
130.1269556133
 20
125.9137854616
 10
130.1205954518
 20
125.9120099934
 10
130.1141284374
 20
125.9097125361
 10
130.1075691117
 20
125.9068982557
 10
130.1009322239
 20
125.9035734803
 10
130.0942326974
 20
125.899745686
 10
130.0874855967
 20
125.8954234799
 10
130.0807060931
 20
125.8906165806
 10
130.0739094309
 20
125.885335797
  0
LINE
  5
40E
100
AcDbEntity
  8
0
100
AcDbLine
 62
253
  6
CONTINUOUS
 10
128.1150999868
 20
126.6720378301
 11
130.0739094309
 21
125.885335797
  0
LINE
  5
40F
100
AcDbEntity
  8
0
100
AcDbLine
 62
253
  6
CONTINUOUS
 10
142.3683455574
 20
120.947613077
 11
144.3271550015
 21
120.160911044
  0
LINE
  5
410
100
AcDbEntity
  8
0
100
AcDbLine
 62
7
  6
CONTINUOUS
 10
128.2074378305
 20
126.6985590732
 11
130.1662472745
 21
125.9118570401
  0
LINE
  5
411
100
AcDbEntity
  8
0
100
AcDbLine
 62
7
  6
CONTINUOUS
 10
142.4606834011
 20
120.9741343201
 11
144.4194928452
 21
120.1874322871
  0
LINE
  5
412
100
AcDbEntity
  8
RACCORDO
100
AcDbLine
 62
7
  6
CONTINUOUS
 10
141.1065524704
 20
123.4920340065
 11
137.6589732586
 21
124.8766595418
  0
LWPOLYLINE
  5
413
100
AcDbEntity
  8
0
100
AcDbPolyline
 62
253
  6
CONTINUOUS
 90
34
 70
0
 10
144.3271550015
 20
120.160911044
 10
144.3369215033
 20
120.1568043139
 10
144.3466682502
 20
120.1522408977
 10
144.3563731723
 20
120.1472305278
 10
144.3660156208
 20
120.1417831601
 10
144.3755722677
 20
120.1359112636
 10
144.3850173
 20
120.1296303915
 10
144.3943279346
 20
120.1229558028
 10
144.4034844966
 20
120.1159017116
 10
144.4124664076
 20
120.1084839576
 10
144.4212534237
 20
120.1007192208
 10
144.4298255032
 20
120.0926251721
 10
144.4381630351
 20
120.0842203164
 10
144.446247056
 20
120.0755237824
 10
144.4540593304
 20
120.0665551999
 10
144.4615822081
 20
120.0573348311
 10
144.4687986602
 20
120.0478835379
 10
144.475692311
 20
120.038222758
 10
144.4822475255
 20
120.0283743968
 10
144.4884494457
 20
120.0183607732
 10
144.4942840207
 20
120.0082045705
 10
144.4997380266
 20
119.9979288034
 10
144.5047991044
 20
119.9875567533
 10
144.5094557838
 20
119.9771119227
 10
144.5136975086
 20
119.966617986
 10
144.517514666
 20
119.9560987223
 10
144.5208986067
 20
119.9455779654
 10
144.5238416613
 20
119.935079557
 10
144.5263371617
 20
119.9246272804
 10
144.5283794513
 20
119.9142448241
 10
144.5299638996
 20
119.9039557312
 10
144.5310869178
 20
119.8937833209
 10
144.5317459641
 20
119.8837506359
 10
144.5319395469
 20
119.8738804083
  0
LWPOLYLINE
  5
414
100
AcDbEntity
  8
0
100
AcDbPolyline
 62
7
  6
CONTINUOUS
 90
15
 70
0
 10
144.4194928452
 20
120.1874322871
 10
144.439456946
 20
120.1783785207
 10
144.4586432724
 20
120.1675533508
 10
144.4768647936
 20
120.1550339648
 10
144.4939196482
 20
120.140944126
 10
144.5096748334
 20
120.1253880929
 10
144.5240501778
 20
120.1084237992
 10
144.5369202926
 20
120.0901570625
 10
144.5481279242
 20
120.070775645
 10
144.557563015
 20
120.050453799
 10
144.5651429149
 20
120.0293619017
 10
144.5708031681
 20
120.0076768258
 10
144.5744997639
 20
119.9855627088
 10
144.5762041044
 20
119.963079792
 10
144.5763207683
 20
119.9554150555
  0
LWPOLYLINE
  5
415
100
AcDbEntity
  8
0
100
AcDbPolyline
 62
7
  6
CONTINUOUS
 90
3
 70
0
 10
137.3332222025
 20
127.3827080759
 10
137.333653823
 20
127.3823630707
 10
137.3337674609
 20
127.3819012408
  0
LWPOLYLINE
  5
416
100
AcDbEntity
  8
RACCORDO
100
AcDbPolyline
 62
253
  6
CONTINUOUS
 90
4
 70
0
 10
159.3894618061
 20
101.9014091645
 10
159.3991028419
 20
101.7196435041
 10
159.4015020288
 20
101.6357844553
 10
159.4017144039
 20
101.6068183197
  0
LINE
  5
417
100
AcDbEntity
  8
RACCORDO
100
AcDbLine
 62
253
  6
CONTINUOUS
 10
159.2307540089
 20
97.1114983756
 11
159.2307540089
 21
123.1541578461
  0
LINE
  5
418
100
AcDbEntity
  8
RACCORDO
100
AcDbLine
 62
7
  6
CONTINUOUS
 10
159.4017164364
 20
123.4748977189
 11
159.4017164364
 21
103.0127685194
  0
LINE
  5
419
100
AcDbEntity
  8
RACCORDO
100
AcDbLine
 62
7
  6
CONTINUOUS
 10
159.4017164364
 20
101.6083652732
 11
159.4017164364
 21
97.4322382457
  0
LWPOLYLINE
  5
41A
100
AcDbEntity
  8
RACCORDO
100
AcDbPolyline
 62
253
  6
CONTINUOUS
 90
4
 70
0
 10
159.4017160937
 20
103.0145015884
 10
159.401432905
 20
102.9525967429
 10
159.3995697695
 20
102.8383464506
 10
159.3961277699
 20
102.7217036007
  0
LINE
  5
41B
100
AcDbEntity
  8
RACCORDO
100
AcDbLine
 62
253
  6
CONTINUOUS
 10
159.450116459
 20
103.0851758734
 11
159.4482871288
 21
102.974270697
  0
LWPOLYLINE
  5
41C
100
AcDbEntity
  8
RACCORDO
100
AcDbPolyline
 62
253
  6
CONTINUOUS
 90
5
 70
0
 10
159.3828864905
 20
102.3517472072
 10
159.3806110862
 20
102.2299781634
 10
159.3815529761
 20
102.1148888206
 10
159.384879528
 20
102.0046777225
 10
159.3894618061
 20
101.9014091645
  0
LWPOLYLINE
  5
41D
100
AcDbEntity
  8
RACCORDO
100
AcDbPolyline
 62
253
  6
CONTINUOUS
 90
10
 70
0
 10
159.2307540089
 20
97.1114983756
 10
159.2274883362
 20
97.0059671162
 10
159.2171808693
 20
96.9036764958
 10
159.1998759062
 20
96.8050632315
 10
159.1756480279
 20
96.710549557
 10
159.1446015331
 20
96.6205376765
 10
159.1068689176
 20
96.5354087712
 10
159.0626121743
 20
96.455527574
 10
159.012020284
 20
96.3812355586
 10
158.9553064448
 20
96.3128471251
  0
LINE
  5
41E
100
AcDbEntity
  8
RACCORDO
100
AcDbLine
 62
253
  6
CONTINUOUS
 10
159.3961277699
 20
102.7217036007
 11
159.3828864905
 21
102.3517472072
  0
LWPOLYLINE
  5
41F
100
AcDbEntity
  8
RACCORDO
100
AcDbPolyline
 62
253
  6
CONTINUOUS
 90
3
 70
0
 10
159.4482871288
 20
102.974270697
 10
159.4438261029
 20
102.8616046336
 10
159.4372394377
 20
102.7470828191
  0
LWPOLYLINE
  5
420
100
AcDbEntity
  8
RACCORDO
100
AcDbPolyline
 62
253
  6
CONTINUOUS
 90
13
 70
0
 10
159.4372394377
 20
102.7470828191
 10
159.4248895194
 20
102.5114924493
 10
159.4179308926
 20
102.3910678531
 10
159.4144948522
 20
102.2773254242
 10
159.4166615046
 20
102.1729336564
 10
159.4218022218
 20
102.0760995497
 10
159.4276070137
 20
101.9874947854
 10
159.4348843239
 20
101.9091144234
 10
159.4431906748
 20
101.8393480968
 10
159.4485267772
 20
101.7732728965
 10
159.450157199
 20
101.7101405063
 10
159.4487370559
 20
101.6511948616
 10
159.442175302
 20
101.5945146858
  0
LWPOLYLINE
  5
421
100
AcDbEntity
  8
RACCORDO
100
AcDbPolyline
 62
253
  6
CONTINUOUS
 90
8
 70
0
 10
159.4017164362
 20
123.4748882383
 10
159.3988780778
 20
123.4317128565
 10
159.3886706787
 20
123.3825513362
 10
159.3711102
 20
123.334078301
 10
159.3463275438
 20
123.2866546374
 10
159.3145073901
 20
123.2406335732
 10
159.2758869379
 20
123.1963580319
 10
159.2307540089
 20
123.1541578461
  0
LINE
  5
422
100
AcDbEntity
  8
RACCORDO
100
AcDbLine
 62
253
  6
CONTINUOUS
 10
159.4126948589
 20
101.4874738682
 11
159.4017164364
 21
101.464035012
  0
LINE
  5
423
100
AcDbEntity
  8
0
100
AcDbLine
 62
7
  6
CONTINUOUS
 10
144.9523350541
 20
84.2059261816
 11
144.9240136639
 21
84.1750683831
  0
LINE
  5
424
100
AcDbEntity
  8
RACCORDO
100
AcDbLine
 62
7
  6
CONTINUOUS
 10
160.1083648952
 20
102.1569473383
 11
160.1076761602
 21
102.156231768
  0
LINE
  5
425
100
AcDbEntity
  8
DRAFT
100
AcDbLine
 62
7
  6
CONTINUOUS
 10
159.4017164364
 20
101.4233149521
 11
160.1076719075
 21
102.156227353
  0
LINE
  5
426
100
AcDbEntity
  8
0
100
AcDbLine
 62
7
  6
CONTINUOUS
 10
146.3926282859
 20
85.6968550041
 11
144.9523350541
 21
84.2059261816
  0
LWPOLYLINE
  5
427
100
AcDbEntity
  8
RACCORDO
100
AcDbPolyline
 62
7
  6
CONTINUOUS
 90
10
 70
0
 10
151.4929621928
 20
125.7482978963
 10
151.4896588815
 20
125.7475726656
 10
151.4855622628
 20
125.7459831862
 10
151.4806723367
 20
125.7435294579
 10
151.474934447
 20
125.7401781552
 10
151.46840325
 20
125.7359626036
 10
151.4612427146
 20
125.73098278
 10
151.4535074971
 20
125.72527201
 10
151.4451429412
 20
125.7187969678
 10
151.4361490469
 20
125.7115576536
  0
LINE
  5
428
100
AcDbEntity
  8
0
100
AcDbLine
 62
7
  6
CONTINUOUS
 10
156.0290603438
 20
125.3535367533
 11
156.7886557601
 21
125.4870020285
  0
LINE
  5
429
100
AcDbEntity
  8
RACCORDO
100
AcDbLine
 62
7
  6
CONTINUOUS
 10
152.3442499687
 20
124.914910307
 11
152.4006133474
 21
124.920647986
  0
LINE
  5
42A
100
AcDbEntity
  8
RACCORDO
100
AcDbLine
 62
7
  6
CONTINUOUS
 10
152.4006133474
 20
124.920647986
 11
152.4591631628
 21
124.9262061189
  0
LINE
  5
42B
100
AcDbEntity
  8
RACCORDO
100
AcDbLine
 62
7
  6
CONTINUOUS
 10
152.4591631628
 20
124.9262061189
 11
152.5199271424
 21
124.9316022061
  0
LWPOLYLINE
  5
42C
100
AcDbEntity
  8
RACCORDO
100
AcDbPolyline
 62
7
  6
CONTINUOUS
 90
3
 70
0
 10
152.5199271424
 20
124.9316022061
 10
152.5830161955
 20
124.936906249
 10
152.6154256929
 20
124.9395193789
  0
LWPOLYLINE
  5
42D
100
AcDbEntity
  8
0
100
AcDbPolyline
 62
7
  6
CONTINUOUS
 90
38
 70
0
 10
128.8530239294
 20
123.6900757851
 10
128.8565089176
 20
123.6900705617
 10
128.8654226968
 20
123.6902959342
 10
128.8743659679
 20
123.690859755
 10
128.8833279534
 20
123.6917468534
 10
128.8922957639
 20
123.6929556408
 10
128.9012569309
 20
123.6944840139
 10
128.9102018569
 20
123.6963159416
 10
128.9191186389
 20
123.6984491465
 10
128.9279957924
 20
123.7008810446
 10
128.9368248665
 20
123.7035951264
 10
128.9455949832
 20
123.7065885642
 10
128.9542956238
 20
123.7098583711
 10
128.9629193492
 20
123.7133878356
 10
128.9714562947
 20
123.7171736954
 10
128.9798968931
 20
123.7212126265
 10
128.9882345702
 20
123.7254878936
 10
128.9964604448
 20
123.7299958935
 10
129.0045658794
 20
123.7347330198
 10
129.0125450312
 20
123.7396826187
 10
129.0203899655
 20
123.7448408171
 10
129.0280929503
 20
123.7502037747
 10
129.0356487701
 20
123.7557549753
 10
129.0430503982
 20
123.7614903293
 10
129.0502909868
 20
123.7674058062
 10
129.0573658791
 20
123.7734850601
 10
129.0642689231
 20
123.7797238257
 10
129.0709941358
 20
123.7861179232
 10
129.0775373865
 20
123.792651206
 10
129.0838933672
 20
123.7993192625
 10
129.0900569466
 20
123.8061178057
 10
129.0960245235
 20
123.8130309356
 10
129.1017916105
 20
123.8200541216
 10
129.1073539135
 20
123.8271830098
 10
129.1127083847
 20
123.8344020163
 10
129.1178515804
 20
123.8417029652
 10
129.1227797649
 20
123.8490850372
 10
129.1274898032
 20
123.8565436913
  0
LINE
  5
42E
100
AcDbEntity
  8
0
100
AcDbLine
 62
7
  6
CONTINUOUS
 10
128.3430337805
 20
123.6944878541
 11
128.8530480054
 21
123.690073858
  0
LINE
  5
42F
100
AcDbEntity
  8
0
100
AcDbLine
 62
253
  6
CONTINUOUS
 10
128.5491476796
 20
123.8615490416
 11
129.1274898032
 21
123.8565436913
  0
LWPOLYLINE
  5
430
100
AcDbEntity
  8
0
100
AcDbPolyline
 62
7
  6
CONTINUOUS
 90
10
 70
0
 10
128.3430337805
 20
123.6944878541
 10
128.3321158778
 20
123.6948209839
 10
128.3211871068
 20
123.6956341522
 10
128.3102758346
 20
123.6969295332
 10
128.2994134495
 20
123.6987065787
 10
128.2886287866
 20
123.7009625871
 10
128.2779463242
 20
123.7036937376
 10
128.2673941035
 20
123.7068934559
 10
128.2570055301
 20
123.7105507358
 10
128.2519993159
 20
123.712499783
  0
LWPOLYLINE
  5
431
100
AcDbEntity
  8
0
100
AcDbPolyline
 62
7
  6
CONTINUOUS
 90
6
 70
0
 10
128.1673967592
 20
126.710858861
 10
128.1465218049
 20
126.7144802865
 10
128.1252658883
 20
126.7163277997
 10
128.1038311441
 20
126.7163520667
 10
128.0824680173
 20
126.7145394868
 10
128.0613371097
 20
126.7109028065
  0
LINE
  5
432
100
AcDbEntity
  8
RACCORDO
100
AcDbLine
 62
7
  6
CONTINUOUS
 10
138.5375525754
 20
125.1790256216
 11
138.487046265
 21
125.1885845381
  0
LINE
  5
433
100
AcDbEntity
  8
RACCORDO
100
AcDbLine
 62
7
  6
CONTINUOUS
 10
138.5878983227
 20
125.1663630071
 11
138.5375525754
 21
125.1790256216
  0
LWPOLYLINE
  5
434
100
AcDbEntity
  8
0
100
AcDbPolyline
 62
253
  6
CONTINUOUS
 90
15
 70
0
 10
128.2031928029
 20
126.7000613158
 10
128.1978538305
 20
126.7014367788
 10
128.1922365354
 20
126.7023074072
 10
128.1864439172
 20
126.702647962
 10
128.1804890009
 20
126.7024576775
 10
128.1743851766
 20
126.7017369816
 10
128.1681461693
 20
126.7004874947
 10
128.1617860077
 20
126.6987120265
 10
128.1553189933
 20
126.6964145692
 10
128.1487596676
 20
126.6936002888
 10
128.1421227798
 20
126.6902755134
 10
128.1354232533
 20
126.6864477191
 10
128.1286761526
 20
126.6821255129
 10
128.121896649
 20
126.6773186137
 10
128.1150999868
 20
126.6720378301
  0
LWPOLYLINE
  5
435
100
AcDbEntity
  8
RACCORDO
100
AcDbPolyline
 62
253
  6
CONTINUOUS
 90
7
 70
0
 10
138.6594699274
 20
125.1419299241
 10
138.6490799643
 20
125.144707154
 10
138.6377239625
 20
125.145034374
 10
138.6256682502
 20
125.1428605523
 10
138.6130726167
 20
125.1382145079
 10
138.600104013
 20
125.131157828
 10
138.58693433
 20
125.1217840509
  0
LWPOLYLINE
  5
436
100
AcDbEntity
  8
RACCORDO
100
AcDbPolyline
 62
7
  6
CONTINUOUS
 90
3
 70
0
 10
138.6597061522
 20
125.1418341906
 10
138.6377204352
 20
125.150243373
 10
138.5878983227
 20
125.1663630071
  0
LINE
  5
437
100
AcDbEntity
  8
RACCORDO
100
AcDbLine
 62
253
  6
CONTINUOUS
 10
138.58693433
 20
125.1217840509
 11
141.6161046258
 21
123.905200969
  0
LINE
  5
438
100
AcDbEntity
  8
RACCORDO
100
AcDbLine
 62
7
  6
CONTINUOUS
 10
138.6594699276
 20
125.141929924
 11
141.6567472581
 21
123.938155776
  0
LINE
  5
439
100
AcDbEntity
  8
0
100
AcDbLine
 62
7
  6
CONTINUOUS
 10
138.6749881804
 20
125.6365149073
 11
142.0698042168
 21
124.2730802527
  0
LINE
  5
43A
100
AcDbEntity
  8
0
100
AcDbLine
 62
7
  6
CONTINUOUS
 10
139.0840607835
 20
126.4716075664
 11
142.8940628342
 21
124.9414248484
  0
LINE
  5
43B
100
AcDbEntity
  8
0
100
AcDbLine
 62
253
  6
CONTINUOUS
 10
143.7030727484
 20
124.6972244922
 11
142.9606348229
 21
124.9954043009
  0
LINE
  5
43C
100
AcDbEntity
  8
0
100
AcDbLine
 62
253
  6
CONTINUOUS
 10
137.2265705129
 20
127.2983337993
 11
136.4841325874
 21
127.596513608
  0
LINE
  5
43D
100
AcDbEntity
  8
0
100
AcDbLine
 62
7
  6
CONTINUOUS
 10
143.8091810999
 20
124.7818213917
 11
143.2236981435
 21
125.0169645464
  0
LINE
  5
43E
100
AcDbEntity
  8
0
100
AcDbLine
 62
7
  6
CONTINUOUS
 10
137.3328590125
 20
127.3828583473
 11
136.7473760402
 21
127.6180015083
  0
LWPOLYLINE
  5
43F
100
AcDbEntity
  8
0
100
AcDbPolyline
 62
7
  6
CONTINUOUS
 90
3
 70
0
 10
143.8095070623
 20
124.7816863955
 10
143.8099008702
 20
124.7813993457
 10
143.8100534867
 20
124.7808775476
  0
LINE
  5
440
100
AcDbEntity
  8
0
100
AcDbLine
 62
7
  6
CONTINUOUS
 10
151.4706030908
 20
121.0275797072
 11
149.9661451477
 21
123.1362618774
  0
LINE
  5
441
100
AcDbEntity
  8
0
100
AcDbLine
 62
7
  6
CONTINUOUS
 10
149.539462174
 20
124.7831760844
 11
149.8035592149
 21
124.3742183552
  0
LINE
  5
442
100
AcDbEntity
  8
0
100
AcDbLine
 62
7
  6
CONTINUOUS
 10
151.4877483844
 20
123.597810285
 11
151.2236513435
 21
124.0067680142
  0
LWPOLYLINE
  5
443
100
AcDbEntity
  8
RACCORDO
100
AcDbPolyline
 62
7
  6
CONTINUOUS
 90
8
 70
0
 10
153.1792526294
 20
124.0280915141
 10
153.140253716
 20
124.1137256895
 10
153.0679440119
 20
124.2569299205
 10
152.989245316
 20
124.3986426539
 10
152.9043533306
 20
124.5385326579
 10
152.8134624813
 20
124.6763041626
 10
152.7167572992
 20
124.8116975436
 10
152.619352326
 20
124.9382919092
  0
LWPOLYLINE
  5
444
100
AcDbEntity
  8
RACCORDO
100
AcDbPolyline
 62
253
  6
CONTINUOUS
 90
7
 70
0
 10
153.1841729487
 20
124.0032630701
 10
153.1572958261
 20
124.0654126173
 10
153.0844211594
 20
124.2157352818
 10
153.0042943218
 20
124.3646821067
 10
152.9171106303
 20
124.5118899901
 10
152.8230825536
 20
124.6570001889
 10
152.7224391657
 20
124.799659186
  0
LWPOLYLINE
  5
445
100
AcDbEntity
  8
RACCORDO
100
AcDbPolyline
 62
253
  6
CONTINUOUS
 90
9
 70
0
 10
159.4017164364
 20
103.7821110641
 10
159.4027049121
 20
103.7764617013
 10
159.4156563266
 20
103.6892041641
 10
159.4268559066
 20
103.5979040443
 10
159.4360281637
 20
103.5022361606
 10
159.4430228523
 20
103.4025783093
 10
159.4479202299
 20
103.2997991457
 10
159.4502692962
 20
103.1939785388
 10
159.450116459
 20
103.0851758734
  0
LWPOLYLINE
  5
446
100
AcDbEntity
  8
RACCORDO
100
AcDbPolyline
 62
253
  6
CONTINUOUS
 90
13
 70
0
 10
159.2307540089
 20
123.1541578461
 10
159.2274186592
 20
123.2268242364
 10
159.217769272
 20
123.3013716845
 10
159.2018838272
 20
123.3772290558
 10
159.1798905259
 20
123.4538076888
 10
159.151960034
 20
123.5305303304
 10
159.1182978881
 20
123.6068354729
 10
159.0791158887
 20
123.6822181601
 10
159.0347446265
 20
123.7560209828
 10
158.9856672384
 20
123.8274804115
 10
158.9323474932
 20
123.8960088095
 10
158.8751789787
 20
123.9611804492
 10
158.8146224408
 20
124.0225334526
  0
LWPOLYLINE
  5
447
100
AcDbEntity
  8
RACCORDO
100
AcDbPolyline
 62
253
  6
CONTINUOUS
 90
7
 70
0
 10
159.4017161653
 20
97.4318158871
 10
159.3988579156
 20
97.3889004926
 10
159.3857056026
 20
97.3300107036
 10
159.3620104601
 20
97.2722161906
 10
159.3280263548
 20
97.2161361914
 10
159.2841173897
 20
97.1623715673
 10
159.2307540089
 20
97.1114983771
  0
LWPOLYLINE
  5
448
100
AcDbEntity
  8
RACCORDO
100
AcDbPolyline
 62
253
  6
CONTINUOUS
 90
3
 70
0
 10
159.442175302
 20
101.5945146858
 10
159.4300352602
 20
101.5396284161
 10
159.4126948589
 20
101.4874738682
  0
LWPOLYLINE
  5
449
100
AcDbEntity
  8
RACCORDO
100
AcDbPolyline
 62
253
  6
CONTINUOUS
 90
3
 70
0
 10
158.9553064448
 20
96.3128471251
 10
158.8927117673
 20
96.2506550661
 10
158.8771878808
 20
96.236977956
  0
LWPOLYLINE
  5
44A
100
AcDbEntity
  8
0
100
AcDbPolyline
 62
253
  6
CONTINUOUS
 90
37
 70
0
 10
140.8465958162
 20
78.797972206
 10
140.833682366
 20
78.7855965755
 10
140.8200397799
 20
78.7735578592
 10
140.8056934602
 20
78.7618784727
 10
140.790670119
 20
78.7505801628
 10
140.7749977293
 20
78.7396839663
 10
140.7587054726
 20
78.7292101718
 10
140.7418236844
 20
78.7191782809
 10
140.7243837981
 20
78.7096069727
 10
140.706418286
 20
78.7005140686
 10
140.6879605993
 20
78.6919164993
 10
140.6690451055
 20
78.6838302732
 10
140.6497070247
 20
78.6762704465
 10
140.6299823636
 20
78.6692510954
 10
140.6099078489
 20
78.6627852896
 10
140.5895208585
 20
78.6568850682
 10
140.5688593524
 20
78.6515614172
 10
140.5479618014
 20
78.6468242491
 10
140.5268671161
 20
78.6426823844
 10
140.5056145741
 20
78.6391435349
 10
140.4842437468
 20
78.63621429
 10
140.4627944258
 20
78.6339001037
 10
140.4413065492
 20
78.632205285
 10
140.4198201265
 20
78.6311329897
 10
140.3983751647
 20
78.6306852142
 10
140.3770115935
 20
78.6308627923
 10
140.3557691911
 20
78.6316653934
 10
140.3346875102
 20
78.633091523
 10
140.313805804
 20
78.6351385258
 10
140.2931629535
 20
78.6378025903
 10
140.2727973951
 20
78.6410787562
 10
140.2527470486
 20
78.6449609232
 10
140.233049247
 20
78.649441863
 10
140.213740667
 20
78.6545132322
 10
140.1948572604
 20
78.6601655881
 10
140.1764341875
 20
78.6663884062
 10
140.1585057513
 20
78.6731700998
  0
LWPOLYLINE
  5
44B
100
AcDbEntity
  8
RACCORDO
100
AcDbPolyline
 62
7
  6
CONTINUOUS
 90
12
 70
0
 10
158.8762986017
 20
96.2362322715
 10
158.9457949085
 20
96.2999926043
 10
159.0331226121
 20
96.3933859069
 10
159.1122507083
 20
96.4944677897
 10
159.1827003831
 20
96.6026905919
 10
159.2442440834
 20
96.7179836572
 10
159.296301593
 20
96.8397289529
 10
159.338346934
 20
96.9671159165
 10
159.3701016001
 20
97.1000591064
 10
159.3911155654
 20
97.2381727149
 10
159.4009607641
 20
97.3804783596
 10
159.401708123
 20
97.4318158893
  0
LINE
  5
44C
100
AcDbEntity
  8
RACCORDO
100
AcDbLine
 62
253
  6
CONTINUOUS
 10
146.3926282859
 20
86.0584920964
 11
159.2307540089
 21
97.1114983756
  0
LINE
  5
44D
100
AcDbEntity
  8
RACCORDO
100
AcDbLine
 62
7
  6
CONTINUOUS
 10
146.3400831758
 20
85.4431362366
 11
158.8772327818
 21
96.2370166135
  0
LINE
  5
44E
100
AcDbEntity
  8
DRAFT
100
AcDbLine
 62
7
  6
CONTINUOUS
 10
145.4904414686
 20
84.6409945451
 11
146.3400831758
 21
85.369679026
  0
LWPOLYLINE
  5
44F
100
AcDbEntity
  8
RACCORDO
100
AcDbPolyline
 62
7
  6
CONTINUOUS
 90
4
 70
0
 10
137.4323412704
 20
124.9011732018
 10
137.4536718543
 20
124.9056354883
 10
137.4768743712
 20
124.9084174781
 10
137.5019579281
 20
124.9093314449
  0
LINE
  5
450
100
AcDbEntity
  8
RACCORDO
100
AcDbLine
 62
7
  6
CONTINUOUS
 10
151.5494338165
 20
125.7540459606
 11
151.4929621928
 21
125.7482978963
  0
LINE
  5
451
100
AcDbEntity
  8
RACCORDO
100
AcDbLine
 62
7
  6
CONTINUOUS
 10
151.6080312789
 20
125.7596080727
 11
151.5494338165
 21
125.7540459606
  0
LINE
  5
452
100
AcDbEntity
  8
RACCORDO
100
AcDbLine
 62
7
  6
CONTINUOUS
 10
151.6687814564
 20
125.7650020524
 11
151.6080312789
 21
125.7596080727
  0
LWPOLYLINE
  5
453
100
AcDbEntity
  8
RACCORDO
100
AcDbPolyline
 62
7
  6
CONTINUOUS
 90
3
 70
0
 10
151.764137917
 20
125.7729069681
 10
151.7317918544
 20
125.7702991793
 10
151.6687814564
 20
125.7650020524
  0
LWPOLYLINE
  5
454
100
AcDbEntity
  8
RACCORDO
100
AcDbPolyline
 62
7
  6
CONTINUOUS
 90
6
 70
0
 10
137.5019579281
 20
124.9093314449
 10
137.5289665102
 20
124.9081804631
 10
137.5580204487
 20
124.9046499627
 10
137.5891407588
 20
124.8984669071
 10
137.6222160015
 20
124.8894507206
 10
137.657127449
 20
124.8774008606
  0
LWPOLYLINE
  5
455
100
AcDbEntity
  8
0
100
AcDbPolyline
 62
7
  6
CONTINUOUS
 90
19
 70
0
 10
138.1885674868
 20
125.7380624018
 10
138.2175430598
 20
125.7363631158
 10
138.2463719115
 20
125.7341862195
 10
138.2750540419
 20
125.731531713
 10
138.3036134168
 20
125.7283965572
 10
138.3320260703
 20
125.7247837911
 10
138.3602201053
 20
125.7207025321
 10
138.3881949737
 20
125.7161515994
 10
138.4159512237
 20
125.7111321739
 10
138.4434186018
 20
125.7056569151
 10
138.47059648
 20
125.699724642
 10
138.4974854864
 20
125.6933365356
 10
138.524017252
 20
125.6865087987
 10
138.5501905009
 20
125.6792404482
 10
138.576006509
 20
125.6715324672
 10
138.6014007351
 20
125.6634040074
 10
138.6263516655
 20
125.6548614528
 10
138.6508808139
 20
125.6458984194
 10
138.6749881804
 20
125.6365149073
  0
LWPOLYLINE
  5
456
100
AcDbEntity
  8
RACCORDO
100
AcDbPolyline
 62
7
  6
CONTINUOUS
 90
3
 70
0
 10
152.6154256929
 20
124.9395193789
 10
152.6177152747
 20
124.9393478765
 10
152.6193574208
 20
124.9382970948
  0
LWPOLYLINE
  5
457
100
AcDbEntity
  8
RACCORDO
100
AcDbPolyline
 62
7
  6
CONTINUOUS
 90
26
 70
0
 10
138.487046265
 20
125.1885845381
 10
138.4365330341
 20
125.1953974054
 10
138.3862001307
 20
125.1997589752
 10
138.3362730669
 20
125.2019190444
 10
138.2870044802
 20
125.202099521
 10
138.2384964492
 20
125.2004994546
 10
138.19076804
 20
125.1972820615
 10
138.1439885522
 20
125.1925981635
 10
138.0982152086
 20
125.186578642
 10
138.0534357548
 20
125.1793278158
 10
138.0097302773
 20
125.1709534845
 10
137.9671382161
 20
125.1615502047
 10
137.9256395272
 20
125.1511926076
 10
137.8852346836
 20
125.1399516519
 10
137.845959529
 20
125.1279039801
 10
137.8077893557
 20
125.1151056621
 10
137.7706503449
 20
125.1015874184
 10
137.734546081
 20
125.0874023943
 10
137.6994950549
 20
125.0726075507
 10
137.6654698526
 20
125.0572425682
 10
137.6325235674
 20
125.0413812365
 10
137.6006452799
 20
125.0250742854
 10
137.5697578482
 20
125.0083328201
 10
137.5400532841
 20
124.9913219914
 10
137.511447273
 20
124.9740626754
 10
137.4835580749
 20
124.956374179
  0
LWPOLYLINE
  5
458
100
AcDbEntity
  8
0
100
AcDbPolyline
 62
7
  6
CONTINUOUS
 90
22
 70
0
 10
140.3014762803
 20
127.790954996
 10
140.2988869162
 20
127.7919760311
 10
140.2834331002
 20
127.7973099593
 10
140.2675614202
 20
127.80151183
 10
140.2512591815
 20
127.8045802316
 10
140.2345390789
 20
127.8065165756
 10
140.217478493
 20
127.807311671
 10
140.2000871571
 20
127.8069609983
 10
140.1823553379
 20
127.8054690769
 10
140.1643312151
 20
127.8028402738
 10
140.1460036591
 20
127.7990690053
 10
140.1273837995
 20
127.7941608552
 10
140.1085532054
 20
127.7881369422
 10
140.0895196718
 20
127.7809958525
 10
140.0702754038
 20
127.7727389998
 10
140.050878585
 20
127.763391744
 10
140.0313223041
 20
127.7529473364
 10
140.0116134725
 20
127.7414125258
 10
139.9918310082
 20
127.7288329176
 10
139.9720012172
 20
127.7152237139
 10
139.9520977936
 20
127.7005697128
 10
139.9321207373
 20
127.6848709141
  0
LINE
  5
459
100
AcDbEntity
  8
0
100
AcDbLine
 62
7
  6
CONTINUOUS
 10
144.3854313701
 20
125.3366447425
 11
140.50236026
 21
126.8961736421
  0
LINE
  5
45A
100
AcDbEntity
  8
DRAFT
100
AcDbLine
 62
7
  6
CONTINUOUS
 10
149.3641122547
 20
123.3780518598
 11
149.9661451477
 21
123.1362618774
  0
LINE
  5
45B
100
AcDbEntity
  8
0
100
AcDbLine
 62
253
  6
CONTINUOUS
 10
136.3958914209
 20
129.10510033
 11
139.9321207373
 21
127.6848709141
  0
LINE
  5
45C
100
AcDbEntity
  8
0
100
AcDbLine
 62
253
  6
CONTINUOUS
 10
144.847033003
 20
125.7109313441
 11
148.3832623193
 21
124.2907019283
  0
LINE
  5
45D
100
AcDbEntity
  8
0
100
AcDbLine
 62
7
  6
CONTINUOUS
 10
136.5682569741
 20
129.2902992493
 11
140.301472112
 21
127.7909558865
  0
LINE
  5
45E
100
AcDbEntity
  8
0
100
AcDbLine
 62
7
  6
CONTINUOUS
 10
145.2163843777
 20
125.8170163165
 11
148.9495995156
 21
124.3176729538
  0
LINE
  5
45F
100
AcDbEntity
  8
0
100
AcDbLine
 62
7
  6
CONTINUOUS
 10
149.6648167736
 20
123.7602940508
 11
149.4458491475
 21
123.8983107715
  0
LINE
  5
460
100
AcDbEntity
  8
0
100
AcDbLine
 62
7
  6
CONTINUOUS
 10
150.6548469908
 20
123.5408307659
 11
151.0862448789
 21
123.2689178677
  0
LINE
  5
461
100
AcDbEntity
  8
0
100
AcDbLine
 62
7
  6
CONTINUOUS
 10
149.9105623869
 20
124.0872409603
 11
149.8399147388
 21
124.131770633
  0
LINE
  5
462
100
AcDbEntity
  8
0
100
AcDbLine
 62
7
  6
CONTINUOUS
 10
150.3723635676
 20
124.8401556035
 11
149.9409656794
 21
125.1120685017
  0
LINE
  5
463
100
AcDbEntity
  8
0
100
AcDbLine
 62
7
  6
CONTINUOUS
 10
150.1425414633
 20
123.9351236886
 11
150.3393185916
 21
123.7424842297
  0
LINE
  5
464
100
AcDbEntity
  8
0
100
AcDbLine
 62
7
  6
CONTINUOUS
 10
150.442348871
 20
123.6416203872
 11
150.5952069383
 21
123.491976495
  0
LINE
  5
465
100
AcDbEntity
  8
0
100
AcDbLine
 62
7
  6
CONTINUOUS
 10
151.7955130695
 20
122.5745635915
 11
151.0862448789
 21
123.2689178677
  0
LINE
  5
466
100
AcDbEntity
  8
0
100
AcDbLine
 62
7
  6
CONTINUOUS
 10
149.539462174
 20
124.7831760844
 11
148.8301939834
 21
125.4775303606
  0
LINE
  5
467
100
AcDbEntity
  8
0
100
AcDbLine
 62
7
  6
CONTINUOUS
 10
151.0564564098
 20
123.9164818751
 11
150.5598718738
 21
124.4026246355
  0
LINE
  5
468
100
AcDbEntity
  8
DRAFT
100
AcDbLine
 62
7
  6
CONTINUOUS
 10
148.7460419464
 20
126.2553275724
 11
148.7273510318
 21
126.2736254696
  0
LINE
  5
469
100
AcDbEntity
  8
0
100
AcDbLine
 62
7
  6
CONTINUOUS
 10
152.1970165749
 20
122.9034560088
 11
151.4877483844
 21
123.597810285
  0
LINE
  5
46A
100
AcDbEntity
  8
0
100
AcDbLine
 62
7
  6
CONTINUOUS
 10
149.9409656794
 20
125.1120685017
 11
149.2316974889
 21
125.8064227779
  0
LWPOLYLINE
  5
46B
100
AcDbEntity
  8
0
100
AcDbPolyline
 62
7
  6
CONTINUOUS
 90
7
 70
0
 10
150.442348871
 20
123.6416203872
 10
150.4259116719
 20
123.6590327063
 10
150.4091806671
 20
123.676204354
 10
150.3921558567
 20
123.6931353302
 10
150.3748372407
 20
123.7098256349
 10
150.357224819
 20
123.726275268
 10
150.3393185916
 20
123.7424842297
  0
LINE
  5
46C
100
AcDbEntity
  8
RACCORDO
100
AcDbLine
 62
253
  6
CONTINUOUS
 10
152.7224391657
 20
124.799659186
 11
152.6154256929
 21
124.9395193789
  0
LWPOLYLINE
  5
46D
100
AcDbEntity
  8
RACCORDO
100
AcDbPolyline
 62
253
  6
CONTINUOUS
 90
35
 70
0
 10
152.3442499687
 20
124.914910307
 10
152.370436112
 20
124.8772519939
 10
152.3966282742
 20
124.8383443601
 10
152.4227632791
 20
124.798182133
 10
152.4487003931
 20
124.7568834586
 10
152.4744509439
 20
124.7143268317
 10
152.5001543289
 20
124.6701443091
 10
152.5257137763
 20
124.6243333939
 10
152.5510280136
 20
124.5768949662
 10
152.5761767949
 20
124.5274596972
 10
152.6010233462
 20
124.4760310616
 10
152.6254233369
 20
124.4226194703
 10
152.6493821834
 20
124.3668652259
 10
152.6727112542
 20
124.3087885465
 10
152.6952126878
 20
124.2484177325
 10
152.7168028564
 20
124.1854130028
 10
152.7372285802
 20
124.1198250993
 10
152.7562253978
 20
124.0517154808
 10
152.7736031839
 20
123.9807809312
 10
152.7890395293
 20
123.9070773038
 10
152.8021777224
 20
123.8307678024
 10
152.8126867614
 20
123.7517470698
 10
152.8201680938
 20
123.67011833
 10
152.8241931437
 20
123.5861572949
 10
152.8243317742
 20
123.5000663451
 10
152.8201325825
 20
123.4120145789
 10
152.8111411037
 20
123.3224138838
 10
152.7969499788
 20
123.2318712183
 10
152.7770868062
 20
123.1405105657
 10
152.7511759519
 20
123.0489892501
 10
152.7191804121
 20
122.9586708367
 10
152.6808470178
 20
122.8698359159
 10
152.6360198655
 20
122.7829836561
 10
152.5852433625
 20
122.6996057846
 10
152.5287534889
 20
122.6201639316
  0
LWPOLYLINE
  5
46E
100
AcDbEntity
  8
RACCORDO
100
AcDbPolyline
 62
253
  6
CONTINUOUS
 90
45
 70
0
 10
152.287460262
 20
124.8781892646
 10
152.3119603105
 20
124.8423192292
 10
152.3363524583
 20
124.805219131
 10
152.3606367056
 20
124.76688897
 10
152.3848298739
 20
124.7274415901
 10
152.4089151416
 20
124.6867641474
 10
152.4328420437
 20
124.6445181098
 10
152.4566513612
 20
124.6006992267
 10
152.4803023131
 20
124.5553117487
 10
152.5036220917
 20
124.5080298959
 10
152.5266632022
 20
124.4588413622
 10
152.5493731395
 20
124.4077584536
 10
152.5714215806
 20
124.3544923081
 10
152.5928724611
 20
124.2990203935
 10
152.6136618454
 20
124.241365242
 10
152.6332676037
 20
124.1813055879
 10
152.6517668899
 20
124.1188021669
 10
152.6690825502
 20
124.0538942432
 10
152.6844609923
 20
123.9864783442
 10
152.697990005
 20
123.9164359299
 10
152.7095817997
 20
123.8438855402
 10
152.7182194181
 20
123.769079322
 10
152.7239578281
 20
123.6918846381
 10
152.7267420618
 20
123.6124341257
 10
152.7253902583
 20
123.5313778434
 10
152.7198813978
 20
123.448511734
 10
152.7102365
 20
123.3640398547
 10
152.6953367627
 20
123.2792244356
 10
152.6749717218
 20
123.1938220972
 10
152.6493518414
 20
123.1080762191
 10
152.6179897123
 20
123.0239791697
 10
152.5805766515
 20
122.9415815418
 10
152.537421342
 20
122.8608327427
 10
152.4889624235
 20
122.7835733621
 10
152.4351001799
 20
122.7101211263
 10
152.3759343274
 20
122.640158309
 10
152.3122026537
 20
122.5745723223
 10
152.2439805021
 20
122.5135607584
 10
152.1711925294
 20
122.4569260249
 10
152.094350494
 20
122.404962757
 10
152.013443198
 20
122.3576776909
 10
151.9284818393
 20
122.3150640902
 10
151.8400117705
 20
122.2773963812
 10
151.747955112
 20
122.2446826104
 10
151.7296824637
 20
122.2393732322
  0
LINE
  5
46F
100
AcDbEntity
  8
0
100
AcDbLine
 62
253
  6
CONTINUOUS
 10
144.4895158895
 20
80.0443376708
 11
144.4884494457
 21
80.0434378553
  0
LWPOLYLINE
  5
470
100
AcDbEntity
  8
0
100
AcDbPolyline
 62
7
  6
CONTINUOUS
 90
10
 70
0
 10
144.4868868917
 20
80.0421036797
 10
144.4895158895
 20
80.0443376708
 10
144.5051624529
 20
80.0590371506
 10
144.5195315437
 20
80.07507516
 10
144.532507908
 20
80.0923495426
 10
144.5439754811
 20
80.1107349083
 10
144.5538389256
 20
80.1301122418
 10
144.5620076213
 20
80.1503475403
 10
144.5683989003
 20
80.171289045
 10
144.572944929
 20
80.1927790535
  0
LINE
  5
471
100
AcDbEntity
  8
0
100
AcDbLine
 62
253
  6
CONTINUOUS
 10
144.9240136639
 20
81.38993757
 11
145.4904414686
 21
81.8674206192
  0
LINE
  5
472
100
AcDbEntity
  8
0
100
AcDbLine
 62
7
  6
CONTINUOUS
 10
144.8337363442
 20
81.1696827212
 11
145.4001582955
 21
81.6471608361
  0
LINE
  5
473
100
AcDbEntity
  8
0
100
AcDbLine
 62
253
  6
CONTINUOUS
 10
144.104504188
 20
79.7940741437
 11
144.5319395469
 21
80.1521617225
  0
LINE
  5
474
100
AcDbEntity
  8
0
100
AcDbLine
 62
7
  6
CONTINUOUS
 10
144.0590975999
 20
79.6837195866
 11
144.4868667984
 21
80.0420868423
  0
LWPOLYLINE
  5
475
100
AcDbEntity
  8
0
100
AcDbPolyline
 62
7
  6
CONTINUOUS
 90
3
 70
0
 10
144.8330831792
 20
81.1704126011
 10
144.8305832722
 20
81.1683234558
 10
144.8198912216
 20
81.1600449095
  0
LINE
  5
476
100
AcDbEntity
  8
0
100
AcDbLine
 62
7
  6
CONTINUOUS
 10
144.0590954113
 20
79.6837177531
 11
144.0571724265
 21
79.6821425622
  0
LINE
  5
477
100
AcDbEntity
  8
0
100
AcDbLine
 62
253
  6
CONTINUOUS
 10
142.8023932503
 20
78.7512756134
 11
144.104504188
 21
79.7940741437
  0
LINE
  5
478
100
AcDbEntity
  8
0
100
AcDbLine
 62
7
  6
CONTINUOUS
 10
142.7547180845
 20
78.6390690159
 11
144.0571709624
 21
79.6821413897
  0
LINE
  5
479
100
AcDbEntity
  8
0
100
AcDbLine
 62
253
  6
CONTINUOUS
 10
141.1218632738
 20
78.6673458068
 11
144.9229547437
 21
81.3905791978
  0
LINE
  5
47A
100
AcDbEntity
  8
0
100
AcDbLine
 62
7
  6
CONTINUOUS
 10
141.0085519226
 20
78.4294624694
 11
144.8198912216
 21
81.1600449095
  0
LWPOLYLINE
  5
47B
100
AcDbEntity
  8
RACCORDO
100
AcDbPolyline
 62
7
  6
CONTINUOUS
 90
3
 70
0
 10
151.7675644806
 20
125.772179829
 10
151.7664274988
 20
125.7727354657
 10
151.764137917
 20
125.7729069681
  0
LWPOLYLINE
  5
47C
100
AcDbEntity
  8
RACCORDO
100
AcDbPolyline
 62
253
  6
CONTINUOUS
 90
13
 70
0
 10
151.764137917
 20
125.7729069681
 10
151.6180872205
 20
125.8807897204
 10
151.4683573114
 20
125.9832393783
 10
151.3153130213
 20
126.0800063141
 10
151.1593271933
 20
126.1708547826
 10
151.0007799641
 20
126.255563383
 10
150.8400578474
 20
126.3339256234
 10
150.677552711
 20
126.4057504883
 10
150.513660276
 20
126.4708631193
 10
150.3487793363
 20
126.5291050716
 10
150.1833115406
 20
126.580334418
 10
150.0176601557
 20
126.6244262559
 10
149.921152266
 20
126.6459216456
  0
LWPOLYLINE
  5
47D
100
AcDbEntity
  8
RACCORDO
100
AcDbPolyline
 62
7
  6
CONTINUOUS
 90
13
 70
0
 10
151.7650010785
 20
125.7740715677
 10
151.6293616361
 20
125.8746028884
 10
151.4806232454
 20
125.9769927287
 10
151.3285757471
 20
126.0738100772
 10
151.1735596635
 20
126.1648367227
 10
151.0159253382
 20
126.2498635911
 10
150.8560314534
 20
126.3286924547
 10
150.6942298214
 20
126.4011431586
 10
150.5308878266
 20
126.4670425894
 10
150.3663914721
 20
126.5262263112
 10
150.2010860636
 20
126.5785594471
 10
150.0353613635
 20
126.6239059919
 10
149.9377911381
 20
126.6464173496
  0
LWPOLYLINE
  5
47E
100
AcDbEntity
  8
0
100
AcDbPolyline
 62
7
  6
CONTINUOUS
 90
9
 70
0
 10
151.678714035
 20
125.6380268355
 10
151.7838803462
 20
125.5547514929
 10
151.8864933976
 20
125.4690558179
 10
151.9865531892
 20
125.3809398107
 10
152.0841816348
 20
125.2902841208
 10
152.1792568207
 20
125.1972080986
 10
152.2714130053
 20
125.1020697949
 10
152.360528275
 20
125.0049885601
 10
152.4312823067
 20
124.9236068066
  0
LWPOLYLINE
  5
47F
100
AcDbEntity
  8
0
100
AcDbPolyline
 62
7
  6
CONTINUOUS
 90
7
 70
0
 10
128.0613371097
 20
126.7109028065
 10
128.0405969249
 20
126.7054692819
 10
128.0204539819
 20
126.6983011281
 10
128.0010051292
 20
126.6894421504
 10
127.9823911791
 20
126.6789589436
 10
127.9648201882
 20
126.6669845489
 10
127.9579781153
 20
126.6616959669
  0
LWPOLYLINE
  5
480
100
AcDbEntity
  8
RACCORDO
100
AcDbPolyline
 62
7
  6
CONTINUOUS
 90
8
 70
0
 10
154.9173723861
 20
125.8672889893
 10
155.0044851348
 20
125.8352160374
 10
155.1796045515
 20
125.7579594891
 10
155.3530506558
 20
125.6686836397
 10
155.524021512
 20
125.567867439
 10
155.6917697993
 20
125.4559991717
 10
155.8557419893
 20
125.3334475183
 10
155.9283686456
 20
125.2729883056
  0
LWPOLYLINE
  5
481
100
AcDbEntity
  8
RACCORDO
100
AcDbPolyline
 62
253
  6
CONTINUOUS
 90
7
 70
0
 10
155.0243266869
 20
125.7625836365
 10
155.0762010832
 20
125.7398391552
 10
155.2494997304
 20
125.6512782021
 10
155.4211575149
 20
125.5508877131
 10
155.5902018671
 20
125.4392045021
 10
155.755632041
 20
125.3168787325
 10
155.8678761542
 20
125.2245972627
  0
LWPOLYLINE
  5
482
100
AcDbEntity
  8
RACCORDO
100
AcDbPolyline
 62
7
  6
CONTINUOUS
 90
14
 70
0
 10
151.9223702559
 20
129.0724629499
 10
151.9799429089
 20
129.0384589279
 10
152.1495322995
 20
128.9250536063
 10
152.3151685874
 20
128.800787126
 10
152.4755269696
 20
128.6666889016
 10
152.6297252572
 20
128.5236022308
 10
152.7771897827
 20
128.3721488391
 10
152.917132944
 20
128.2132053028
 10
153.0488825562
 20
128.0476055425
 10
153.1718443972
 20
127.8761494701
 10
153.2854143486
 20
127.6997140222
 10
153.3890528381
 20
127.5191555208
 10
153.4822592799
 20
127.3353378724
 10
153.5314425878
 20
127.2240765834
  0
LWPOLYLINE
  5
483
100
AcDbEntity
  8
RACCORDO
100
AcDbPolyline
 62
253
  6
CONTINUOUS
 90
13
 70
0
 10
151.8810196201
 20
129.0174488954
 10
151.9554733806
 20
128.9712188396
 10
152.1225296301
 20
128.8546330296
 10
152.2855994231
 20
128.7277292056
 10
152.4438983035
 20
128.5911054993
 10
152.5966357849
 20
128.4454168422
 10
152.7429602588
 20
128.2914472756
 10
152.8820393679
 20
128.1300591356
 10
153.0131561738
 20
127.9620781446
 10
153.1356103856
 20
127.7883945908
 10
153.2486840101
 20
127.6100405017
 10
153.3517647126
 20
127.4280286676
 10
153.3793700249
 20
127.3729514882
  0
LWPOLYLINE
  5
484
100
AcDbEntity
  8
RACCORDO
100
AcDbPolyline
 62
253
  6
CONTINUOUS
 90
11
 70
0
 10
159.1012705059
 20
124.1894773882
 10
159.0972445959
 20
124.1922824225
 10
159.0847233518
 20
124.194363011
 10
159.0670424215
 20
124.1910084933
 10
159.0443353734
 20
124.1822442106
 10
159.0167737448
 20
124.1681363717
 10
158.9845657464
 20
124.1487915523
 10
158.9479546894
 20
124.1243558903
 10
158.9072171472
 20
124.0950139818
 10
158.8626608661
 20
124.0609874864
 10
158.8146224408
 20
124.0225334526
  0
LINE
  5
485
100
AcDbEntity
  8
DRAFT
100
AcDbLine
 62
7
  6
CONTINUOUS
 10
151.8040935732
 20
128.9151043084
 11
155.706078565
 21
125.0951670822
  0
LINE
  5
486
100
AcDbEntity
  8
0
100
AcDbLine
 62
7
  6
CONTINUOUS
 10
156.7886557601
 20
125.4870020285
 11
157.2583892556
 21
125.0271457067
  0
LINE
  5
487
100
AcDbEntity
  8
RACCORDO
100
AcDbLine
 62
253
  6
CONTINUOUS
 10
157.5473091029
 20
125.2631987568
 11
158.8146224408
 21
124.0225334526
  0
LWPOLYLINE
  5
488
100
AcDbEntity
  8
RACCORDO
100
AcDbPolyline
 62
253
  6
CONTINUOUS
 90
3
 70
0
 10
142.4126203266
 20
133.9749187946
 10
142.3521937091
 20
133.9606006701
 10
142.2952606838
 20
133.9396769185
  0
LWPOLYLINE
  5
489
100
AcDbEntity
  8
RACCORDO
100
AcDbPolyline
 62
253
  6
CONTINUOUS
 90
7
 70
0
 10
142.8213941526
 20
133.91959869
 10
142.7503368329
 20
133.9454067905
 10
142.6797439689
 20
133.9647248613
 10
142.6101526423
 20
133.9774059276
 10
142.5420923151
 20
133.9833535097
 10
142.4760808011
 20
133.9825223576
 10
142.4126203266
 20
133.9749187946
  0
LINE
  5
48A
100
AcDbEntity
  8
0
100
AcDbLine
 62
7
  6
CONTINUOUS
 10
152.0528752995
 20
129.8571023836
 11
151.2729252342
 21
130.1703479134
  0
LINE
  5
48B
100
AcDbEntity
  8
RACCORDO
100
AcDbLine
 62
253
  6
CONTINUOUS
 10
151.5654520904
 20
130.407787892
 11
142.8213941526
 21
133.91959869
  0
LINE
  5
48C
100
AcDbEntity
  8
RACCORDO
100
AcDbLine
 62
7
  6
CONTINUOUS
 10
151.812756472
 20
130.5548538994
 11
143.1840721518
 21
134.0203280515
  0
LINE
  5
48D
100
AcDbEntity
  8
RACCORDO
100
AcDbLine
 62
7
  6
CONTINUOUS
 10
157.8339571679
 20
125.4301426925
 11
159.1012705059
 21
124.1894773882
  0
LWPOLYLINE
  5
48E
100
AcDbEntity
  8
RACCORDO
100
AcDbPolyline
 62
7
  6
CONTINUOUS
 90
12
 70
0
 10
159.1012705059
 20
124.1894773882
 10
159.1548063992
 20
124.132815267
 10
159.2037767855
 20
124.0721407109
 10
159.2478793195
 20
124.0078220805
 10
159.2868445537
 20
123.9402451326
 10
159.3204287489
 20
123.8698251636
 10
159.3484200849
 20
123.797003605
 10
159.3706506903
 20
123.7222161598
 10
159.3869839375
 20
123.6459180428
 10
159.3973172534
 20
123.5685941072
 10
159.4015915475
 20
123.4907015755
 10
159.4017164362
 20
123.4748882383
  0
ELLIPSE
  5
48F
100
AcDbEntity
  8
0
100
AcDbEllipse
 62
7
  6
CONTINUOUS
 10
148.7967070373
 20
121.9062832389
 30
0.0
 11
1.5739044661
 21
1.8109942699
 31
0.0
 40
0.4731116979
 41
-0.0915468663
 42
0.0353806582
  0
ELLIPSE
  5
490
100
AcDbEntity
  8
0
100
AcDbEllipse
 62
7
  6
CONTINUOUS
 10
136.4819440947
 20
129.2191711551
 30
0.0
 11
0.4994192263
 21
0.3376144227
 31
0.0
 40
0.0713602449
 41
1.5780472444
 42
2.4650709623
  0
ELLIPSE
  5
491
100
AcDbEntity
  8
0
100
AcDbEllipse
 62
7
  6
CONTINUOUS
 10
136.4824502679
 20
127.185583365
 30
0.0
 11
0.1883400828
 21
0.4631755635
 31
0.0
 40
0.4737433309
 41
0.6099606066
 42
0.7034921378
  0
ELLIPSE
  5
492
100
AcDbEntity
  8
0
100
AcDbEllipse
 62
7
  6
CONTINUOUS
 10
135.3807049217
 20
123.3534468747
 30
0.0
 11
-0.1267351827
 21
0.1547214825
 31
0.0
 40
0.6710123071
 41
-2.4552603584
 42
-0.8844640316
  0
ELLIPSE
  5
493
100
AcDbEntity
  8
0
100
AcDbEllipse
 62
7
  6
CONTINUOUS
 10
137.346669828
 20
122.5638710467
 30
0.0
 11
-0.1267351827
 21
0.1547214825
 31
0.0
 40
0.6710123071
 41
-0.8844640316
 42
-0.0033022353
  0
ELLIPSE
  5
494
100
AcDbEntity
  8
0
100
AcDbEllipse
 62
7
  6
CONTINUOUS
 10
145.0808498505
 20
82.031942641
 30
0.0
 11
-0.3168659684
 21
0.3868115749
 31
0.0
 40
0.6709738783
 41
-3.1322179127
 42
-2.455321799
  0
ELLIPSE
  5
495
100
AcDbEntity
  8
0
100
AcDbEllipse
 62
7
  6
CONTINUOUS
 10
145.0808498505
 20
117.9012569437
 30
0.0
 11
0.3168596372
 21
-0.3867845887
 31
0.0
 40
0.6710406763
 41
0.6862952481
 42
2.2570408062
  0
ELLIPSE
  5
496
100
AcDbEntity
  8
0
100
AcDbEllipse
 62
7
  6
CONTINUOUS
 10
136.6010204607
 20
120.7981474591
 30
0.0
 11
0.1999434854
 21
0.0078174272
 31
0.0
 40
0.6081570881
 41
3.1178706602
 42
4.077750384
  0
ELLIPSE
  5
497
100
AcDbEntity
  8
0
100
AcDbEllipse
 62
7
  6
CONTINUOUS
 10
134.6350555544
 20
121.5877232871
 30
0.0
 11
0.1999434854
 21
0.0078174272
 31
0.0
 40
0.6081570881
 41
-2.2054349231
 42
-0.6346385963
  0
ELLIPSE
  5
498
100
AcDbEntity
  8
0
100
AcDbEllipse
 62
7
  6
CONTINUOUS
 10
149.1990635874
 20
123.1398459462
 30
0.0
 11
-0.790563069
 21
1.1694476588
 31
0.0
 40
0.5236494542
 41
5.227307595
 42
6.3255707036
  0
ELLIPSE
  5
499
100
AcDbEntity
  8
0
100
AcDbEllipse
 62
7
  6
CONTINUOUS
 10
183.4319557666
 20
156.9870468659
 30
0.0
 11
48.8847170757
 21
40.545697907
 31
0.0
 40
0.004963763
 41
2.5155061983
 42
2.6864488476
  0
ELLIPSE
  5
49A
100
AcDbEntity
  8
0
100
AcDbEllipse
 62
7
  6
CONTINUOUS
 10
143.7014181543
 20
124.2862831139
 30
0.0
 11
0.1843661585
 21
0.4647716379
 31
0.0
 40
0.4659358609
 41
0.6059363009
 42
0.699467832
  0
ELLIPSE
  5
49B
100
AcDbEntity
  8
0
100
AcDbEllipse
 62
7
  6
CONTINUOUS
 10
183.4319557666
 20
156.9870468659
 30
0.0
 11
48.8847170757
 21
40.545697907
 31
0.0
 40
0.004963763
 41
-2.694682836
 42
-2.5237401867
  0
ELLIPSE
  5
49C
100
AcDbEntity
  8
0
100
AcDbEllipse
 62
7
  6
CONTINUOUS
 10
143.1767850568
 20
117.4511915463
 30
0.0
 11
0.2499293568
 21
0.009771784
 31
0.0
 40
0.6081570881
 41
-2.2054349231
 42
-0.6404563605
  0
ELLIPSE
  5
49D
100
AcDbEntity
  8
0
100
AcDbEllipse
 62
7
  6
CONTINUOUS
 10
148.8641122547
 20
124.2462132726
 30
0.0
 11
-0.3952815345
 21
0.5847238294
 31
0.0
 40
0.5236494542
 41
-3.0759362005
 42
-2.1889124826
  0
ELLIPSE
  5
49E
100
AcDbEntity
  8
0
100
AcDbEllipse
 62
7
  6
CONTINUOUS
 10
141.2227412999
 20
118.235979572
 30
0.0
 11
0.2499293568
 21
0.009771784
 31
0.0
 40
0.6081570881
 41
3.1177965194
 42
4.077750384
  0
ELLIPSE
  5
49F
100
AcDbEntity
  8
0
100
AcDbEllipse
 62
7
  6
CONTINUOUS
 10
126.9694957293
 20
123.960404325
 30
0.0
 11
0.2499293568
 21
0.009771784
 31
0.0
 40
0.6081570881
 41
3.1177965194
 42
4.077750384
  0
ELLIPSE
  5
4A0
100
AcDbEntity
  8
0
100
AcDbEllipse
 62
7
  6
CONTINUOUS
 10
128.9235394862
 20
123.1756162994
 30
0.0
 11
0.2499293568
 21
0.009771784
 31
0.0
 40
0.6081570881
 41
-2.2054349231
 42
-0.6404563605
  0
ELLIPSE
  5
4A1
100
AcDbEntity
  8
0
100
AcDbEllipse
 62
7
  6
CONTINUOUS
 10
135.5734163257
 20
128.6122130695
 30
0.0
 11
0.9988384526
 21
0.6752288455
 31
0.0
 40
0.0713602449
 41
-0.6532506346
 42
0.445012474
  0
ELLIPSE
  5
4A2
100
AcDbEntity
  8
0
100
AcDbEllipse
 62
7
  6
CONTINUOUS
 10
150.3118245173
 20
120.3344850879
 30
0.0
 11
1.2677055941
 21
-1.5470103314
 31
0.0
 40
0.6710763966
 41
0.6861775039
 42
1.4714494955
  0
ELLIPSE
  5
4A3
100
AcDbEntity
  8
DRAFT
100
AcDbEllipse
 62
7
  6
CONTINUOUS
 10
150.3650195017
 20
124.1687640618
 30
0.0
 11
2.1958148695
 21
-1.6555678511
 31
0.0
 40
0.7277503422
 41
2.9742765348
 42
3.0435572203
  0
ELLIPSE
  5
4A4
100
AcDbEntity
  8
DRAFT
100
AcDbEllipse
 62
7
  6
CONTINUOUS
 10
150.7028654038
 20
124.3396506065
 30
0.0
 11
2.202518285
 21
-1.6606219927
 31
0.0
 40
0.7277503422
 41
0.1840081942
 42
2.9655498885
  0
ELLIPSE
  5
4A5
100
AcDbEntity
  8
0
100
AcDbEllipse
 62
7
  6
CONTINUOUS
 10
153.1411874455
 20
125.2663770557
 30
0.0
 11
5.1685947404
 21
-0.7774956466
 31
0.0
 40
0.5122661316
 41
2.702282366
 42
3.06680649
  0
ELLIPSE
  5
4A6
100
AcDbEntity
  8
0
100
AcDbEllipse
 62
7
  6
CONTINUOUS
 10
150.9872597531
 20
124.9998661327
 30
0.0
 11
2.6394045849
 21
-1.9900065696
 31
0.0
 40
0.7277541958
 41
-2.8032690146
 42
-2.1887103191
  0
ELLIPSE
  5
4A7
100
AcDbEntity
  8
RACCORDO
100
AcDbEllipse
 62
7
  6
CONTINUOUS
 10
144.7190436749
 20
115.6378222921
 30
0.0
 11
1.2677055941
 21
-1.5470103314
 31
0.0
 40
0.6710763966
 41
1.3127462738
 42
1.4714494955
  0
ELLIPSE
  5
4A8
100
AcDbEntity
  8
0
100
AcDbEllipse
 62
7
  6
CONTINUOUS
 10
150.9872597531
 20
124.9998661327
 30
0.0
 11
2.6394045849
 21
-1.9900065696
 31
0.0
 40
0.7277541958
 41
5.0024990787
 42
6.1017715293
  0
ELLIPSE
  5
4A9
100
AcDbEntity
  8
DRAFT
100
AcDbEllipse
 62
7
  6
CONTINUOUS
 10
150.9076534148
 20
124.6121063643
 30
0.0
 11
2.202518285
 21
-1.6606219927
 31
0.0
 40
0.7277503422
 41
0.0831761991
 42
2.9655498885
  0
ELLIPSE
  5
4AA
100
AcDbEntity
  8
RACCORDO
100
AcDbEllipse
 62
7
  6
CONTINUOUS
 10
151.0825761787
 20
129.7704741543
 30
0.0
 11
0.7374589533
 21
0.7802475842
 31
0.0
 40
0.1203261756
 41
5.4670315094
 42
7.0203745437
  0
ENDSEC
  0
SECTION
  2
OBJECTS
  0
DICTIONARY
  5
C
100
AcDbDictionary
280
0
281
1
  3
ACAD_GROUP
350
D
  3
ACAD_MLINESTYLE
350
17
  3
ACAD_LAYOUT
350
1A
  3
ACAD_PLOTSETTINGS
350
19
  3
ACAD_PLOTSTYLENAME
350
E
  0
DICTIONARY
  5
D
102
{ACAD_REACTORS
330
C
102
}
100
AcDbDictionary
280
0
281
1
  0
ACDBDICTIONARYWDFLT
  5
E
102
{ACAD_REACTORS
330
C
102
}
100
AcDbDictionary
281
1
  3
Normal
350
F
100
AcDbDictionaryWithDefault
340
F
  0
DICTIONARY
  5
17
102
{ACAD_REACTORS
330
C
102
}
100
AcDbDictionary
280
0
281
1
  3
Standard
350
18
  0
DICTIONARY
  5
19
102
{ACAD_REACTORS
330
C
102
}
100
AcDbDictionary
281
1
  0
DICTIONARY
  5
1A
102
{ACAD_REACTORS
330
C
102
}
100
AcDbDictionary
281
1
  3
Model
350
4AB
  3
Layout1
350
4AC
  0
ACDBPLACEHOLDER
  5
F
102
{ACAD_REACTORS
330
E
102
}
  0
MLINESTYLE
  5
18
102
{ACAD_REACTORS
330
17
102
}
100
AcDbMlineStyle
  2
STANDARD
 70
0
  3

 62
256
 51
90.0
 52
90.0
 71
2
 49
0.5
 62
256
  6
BYLAYER
 49
-0.5
 62
256
  6
BYLAYER
  0
LAYOUT
  5
4AB
102
{ACAD_REACTORS
330
1A
102
}
100
AcDbPlotSettings
  1

  2
none_device
  4
ISO_A4_(297.00_x_210.00_MM)
  6

 40
0.0
 41
0.0
 42
0.0
 43
0.0
 44
297.0
 45
210.0
 46
0.0
 47
0.0
 48
0.0
 49
0.0
140
0.0
141
0.0
142
1.0
143
1.0
 70
1024
 72
1
 73
0
 74
0
  7

 75
0
147
1.0
148
0.0
149
0.0
100
AcDbLayout
  1
Model
 70
0
 71
0
 10
0.0
 20
0.0
 11
297.0
 21
210.0
 12
0.0
 22
0.0
 32
0.0
 14
0.0
 24
0.0
 34
0.0
 15
0.0
 25
0.0
 35
0.0
146
0.0
 13
0.0
 23
0.0
 33
0.0
 16
1.0
 26
0.0
 36
0.0
 17
0.0
 27
1.0
 37
0.0
 76
0
330
215
345
0
346
0
  0
LAYOUT
  5
4AC
102
{ACAD_REACTORS
330
1A
102
}
100
AcDbPlotSettings
  1

  2
none_device
  4
ISO_A4_(297.00_x_210.00_MM)
  6

 40
0.0
 41
0.0
 42
0.0
 43
0.0
 44
297.0
 45
210.0
 46
0.0
 47
0.0
 48
0.0
 49
0.0
140
0.0
141
0.0
142
1.0
143
1.0
 70
0
 72
1
 73
0
 74
0
  7

 75
0
147
1.0
148
0.0
149
0.0
100
AcDbLayout
  1
Layout1
 70
0
 71
1
 10
0.0
 20
0.0
 11
297.0
 21
210.0
 12
0.0
 22
0.0
 32
0.0
 14
0.0
 24
0.0
 34
0.0
 15
0.0
 25
0.0
 35
0.0
146
0.0
 13
0.0
 23
0.0
 33
0.0
 16
1.0
 26
0.0
 36
0.0
 17
0.0
 27
1.0
 37
0.0
 76
0
330
216
345
0
346
0
  0
ENDSEC
  0
EOF
