  0
SECTION
  2
HEADER
  9
$ACADVER
  1
AC1021
  9
$DWGCODEPAGE
  3
ANSI_1252
  9
$EXTMAX
 10
297.0
 20
210.0
 30
0.0
  9
$EXTMIN
 10
0.0
 20
0.0
 30
0.0
  9
$LIMMIN
 10
0.0
 20
0.0
  9
$LIMMAX
 10
297.0
 20
210.0
  9
$VIEWCTR
 10
148.5
 20
105.0
  9
$VIEWSIZE
 40
210.0
  9
$CLAYER
  8
0
  9
$LTSCALE
 40
16.335
  9
$CELTYPE
  6
BYLAYER
  9
$DIMSCALE
 40
1.0
  9
$DIMASZ
 40
3.0
  9
$DIMEXO
 40
0.5
  9
$DIMDLI
 40
11.286
  9
$DIMEXE
 40
1.5
  9
$DIMCEN
 40
2.673
  9
$DIMLFAC
 40
1.0
  9
$DIMBLK
  1
_FILLED
  9
$DIMTXT
 40
3.0
  9
$DIMTOL
 70
1
  9
$DIMLIM
 70
0
  9
$DIMTFAC
 40
1.0
  9
$DIMTP
 40
0.01
  9
$DIMTM
 40
0.01
  9
$DIMGAP
 40
0.625
  9
$DIMDSEP
 70
44
  9
$PDMODE
 70
3
  9
$PDSIZE
 40
3.0
  9
$HANDSEED
  5
588
  9
$TILEMODE
 70
1
  9
$MEASUREMENT
 70
1
  9
$INSUNITS
 70
4
  0
ENDSEC
  0
SECTION
  2
CLASSES
  0
CLASS
  1
ACDBDICTIONARYWDFLT
  2
AcDbDictionaryWithDefault
  3
AutoCAD 2000
 90
0
 91
1
280
0
281
0
  0
CLASS
  1
ACDBPLACEHOLDER
  2
AcDbPlaceHolder
  3
AutoCAD 2000
 90
0
 91
1
280
0
281
0
  0
CLASS
  1
LAYOUT
  2
AcDbLayout
  3
AutoCAD 2000
 90
0
 91
0
280
0
281
0
  0
ENDSEC
  0
SECTION
  2
TABLES
  0
TABLE
  2
VPORT
  5
8
100
AcDbSymbolTable
 70
2
  0
VPORT
  5
1F4
100
AcDbSymbolTableRecord
100
AcDbViewportTableRecord
  2
*ACTIVE
 70
0
 10
0.0
 20
0.0
 11
1.0
 21
1.0
 12
148.5
 22
105.0
 13
0.0
 23
0.0
 14
1.0
 24
1.0
 15
0.0
 25
0.0
 16
0.0
 26
0.0
 36
1.0
 17
0.0
 27
0.0
 37
0.0
 40
210.0
 41
1.4142857143
 42
50.0
 43
0.0
 44
0.0
 50
0.0
 51
0.0
 71
0
 72
100
 73
1
 74
1
 75
0
 76
0
 77
0
 78
0
  0
ENDTAB
  0
TABLE
  2
LTYPE
  5
5
100
AcDbSymbolTable
 70
6
  0
LTYPE
  5
14
100
AcDbSymbolTableRecord
100
AcDbLinetypeTableRecord
  2
BYBLOCK
 70
0
  3

 72
65
 73
0
 40
0.0
  0
LTYPE
  5
15
100
AcDbSymbolTableRecord
100
AcDbLinetypeTableRecord
  2
BYLAYER
 70
0
  3

 72
65
 73
0
 40
0.0
  0
LTYPE
  5
16
100
AcDbSymbolTableRecord
100
AcDbLinetypeTableRecord
  2
CONTINUOUS
 70
64
  3
Solid line
 72
65
 73
0
 40
0.0
  0
LTYPE
  5
1F5
100
AcDbSymbolTableRecord
100
AcDbLinetypeTableRecord
  2
CENTER
 70
64
  3
____ _ ____ _ ____ _ ____ _ ____ _ ____ _ ____
 72
65
 73
4
 40
0.6
 49
0.375
 74
0
 49
-0.075
 74
0
 49
0.075
 74
0
 49
-0.075
 74
0
  0
LTYPE
  5
1F6
100
AcDbSymbolTableRecord
100
AcDbLinetypeTableRecord
  2
HIDDEN
 70
64
  3
- - - - - - - - - - - - - - - - - - - -
 72
65
 73
2
 40
0.2
 49
0.1
 74
0
 49
-0.1
 74
0
  0
LTYPE
  5
1F7
100
AcDbSymbolTableRecord
100
AcDbLinetypeTableRecord
  2
PHANTOM
 70
64
  3
_____ _ _ _____ _ _ _____ _ _ _____
 72
65
 73
6
 40
0.8
 49
0.45
 74
0
 49
-0.05
 74
0
 49
0.1
 74
0
 49
-0.05
 74
0
 49
0.1
 74
0
 49
-0.05
 74
0
  0
LTYPE
  5
1F8
100
AcDbSymbolTableRecord
100
AcDbLinetypeTableRecord
  2
DOT
 70
64
  3
. . . . . . . . . . . . . . . . . . . .
 72
65
 73
2
 40
0.2
 49
0.1
 74
0
 49
-0.1
 74
0
  0
LTYPE
  5
1F9
100
AcDbSymbolTableRecord
100
AcDbLinetypeTableRecord
  2
DASHED
 70
64
  3
- - - - - - - - - - - - - - - - - - - -
 72
65
 73
2
 40
0.2
 49
0.1
 74
0
 49
-0.1
 74
0
  0
ENDTAB
  0
TABLE
  2
LAYER
  5
2
100
AcDbSymbolTable
 70
36
  0
LAYER
  5
10
100
AcDbSymbolTableRecord
100
AcDbLayerTableRecord
  2
0
 70
0
 62
7
  6
CONTINUOUS
370
-3
390
F
  0
LAYER
  5
1FA
100
AcDbSymbolTableRecord
100
AcDbLayerTableRecord
  2
DEFAULT_1
 70
0
 62
7
  6
CENTER
370
-3
390
F
  0
LAYER
  5
1FB
100
AcDbSymbolTableRecord
100
AcDbLayerTableRecord
  2
DEFAULT_2
 70
0
 62
7
  6
HIDDEN
370
-3
390
F
  0
LAYER
  5
1FC
100
AcDbSymbolTableRecord
100
AcDbLayerTableRecord
  2
DEFAULT_3
 70
0
 62
7
  6
PHANTOM
370
-3
390
F
  0
LAYER
  5
1FD
100
AcDbSymbolTableRecord
100
AcDbLayerTableRecord
  2
ASSI
 70
0
 62
7
  6
CONTINUOUS
370
-3
390
F
  0
LAYER
  5
1FE
100
AcDbSymbolTableRecord
100
AcDbLayerTableRecord
  2
COORDINATE
 70
0
 62
7
  6
CONTINUOUS
370
-3
390
F
  0
LAYER
  5
1FF
100
AcDbSymbolTableRecord
100
AcDbLayerTableRecord
  2
COORD_ORIGINE
 70
0
 62
7
  6
CONTINUOUS
370
-3
390
F
  0
LAYER
  5
200
100
AcDbSymbolTableRecord
100
AcDbLayerTableRecord
  2
COPY_PUBLISH
 70
0
 62
7
  6
CONTINUOUS
370
-3
390
F
  0
LAYER
  5
201
100
AcDbSymbolTableRecord
100
AcDbLayerTableRecord
  2
COSMETICHE
 70
0
 62
7
  6
CONTINUOUS
370
-3
390
F
  0
LAYER
  5
202
100
AcDbSymbolTableRecord
100
AcDbLayerTableRecord
  2
COSMETICI
 70
0
 62
7
  6
CONTINUOUS
370
-3
390
F
  0
LAYER
  5
203
100
AcDbSymbolTableRecord
100
AcDbLayerTableRecord
  2
CURVE
 70
0
 62
7
  6
CONTINUOUS
370
-3
390
F
  0
LAYER
  5
204
100
AcDbSymbolTableRecord
100
AcDbLayerTableRecord
  2
DRAFT
 70
0
 62
7
  6
CONTINUOUS
370
-3
390
F
  0
LAYER
  5
205
100
AcDbSymbolTableRecord
100
AcDbLayerTableRecord
  2
IMPORT_IGES
 70
0
 62
7
  6
CONTINUOUS
370
-3
390
F
  0
LAYER
  5
206
100
AcDbSymbolTableRecord
100
AcDbLayerTableRecord
  2
NOTE
 70
0
 62
7
  6
CONTINUOUS
370
-3
390
F
  0
LAYER
  5
207
100
AcDbSymbolTableRecord
100
AcDbLayerTableRecord
  2
PIANI
 70
0
 62
7
  6
CONTINUOUS
370
-3
390
F
  0
LAYER
  5
208
100
AcDbSymbolTableRecord
100
AcDbLayerTableRecord
  2
PIANI_ORIGINE
 70
0
 62
7
  6
CONTINUOUS
370
-3
390
F
  0
LAYER
  5
209
100
AcDbSymbolTableRecord
100
AcDbLayerTableRecord
  2
PIANI_SFORMO
 70
0
 62
7
  6
CONTINUOUS
370
-3
390
F
  0
LAYER
  5
20A
100
AcDbSymbolTableRecord
100
AcDbLayerTableRecord
  2
PUNTI
 70
0
 62
7
  6
CONTINUOUS
370
-3
390
F
  0
LAYER
  5
20B
100
AcDbSymbolTableRecord
100
AcDbLayerTableRecord
  2
RACCORDO
 70
0
 62
7
  6
CONTINUOUS
370
-3
390
F
  0
LAYER
  5
20C
100
AcDbSymbolTableRecord
100
AcDbLayerTableRecord
  2
SCRITTE
 70
0
 62
7
  6
CONTINUOUS
370
-3
390
F
  0
LAYER
  5
20D
100
AcDbSymbolTableRecord
100
AcDbLayerTableRecord
  2
SIMBOLI
 70
0
 62
7
  6
CONTINUOUS
370
-3
390
F
  0
LAYER
  5
20E
100
AcDbSymbolTableRecord
100
AcDbLayerTableRecord
  2
SMUSSO
 70
0
 62
7
  6
CONTINUOUS
370
-3
390
F
  0
LAYER
  5
20F
100
AcDbSymbolTableRecord
100
AcDbLayerTableRecord
  2
SUPERFICI
 70
0
 62
7
  6
CONTINUOUS
370
-3
390
F
  0
LAYER
  5
210
100
AcDbSymbolTableRecord
100
AcDbLayerTableRecord
  2
TRASH
 70
0
 62
7
  6
CONTINUOUS
370
-3
390
F
  0
LAYER
  5
211
100
AcDbSymbolTableRecord
100
AcDbLayerTableRecord
  2
XSEC_DATUMS
 70
0
 62
7
  6
CONTINUOUS
370
-3
390
F
  0
ENDTAB
  0
TABLE
  2
STYLE
  5
3
100
AcDbSymbolTable
 70
1
  0
STYLE
  5
11
100
AcDbSymbolTableRecord
100
AcDbTextStyleTableRecord
  2
STANDARD
 70
0
 40
0.0
 41
0.8
 50
0.0
 71
0
 42
0.2
  3
txt
  4

  0
STYLE
  5
212
100
AcDbSymbolTableRecord
100
AcDbTextStyleTableRecord
  2
TEXTSTYLE_1
 70
0
 40
0.0
 41
0.8
 50
0.0
 71
0
 42
0.2
  3
gdt
  4

  0
ENDTAB
  0
TABLE
  2
VIEW
  5
6
100
AcDbSymbolTable
 70
0
  0
ENDTAB
  0
TABLE
  2
UCS
  5
7
100
AcDbSymbolTable
 70
0
  0
ENDTAB
  0
TABLE
  2
APPID
  5
9
100
AcDbSymbolTable
 70
1
  0
APPID
  5
213
100
AcDbSymbolTableRecord
100
AcDbRegAppTableRecord
  2
ACAD
 70
0
  0
ENDTAB
  0
TABLE
  2
BLOCK_RECORD
  5
1
100
AcDbSymbolTable
 70
0
  0
BLOCK_RECORD
  5
214
100
AcDbSymbolTableRecord
100
AcDbBlockTableRecord
  2
*Model_Space
  0
BLOCK_RECORD
  5
215
100
AcDbSymbolTableRecord
100
AcDbBlockTableRecord
  2
*Paper_Space
  0
ENDTAB
  0
TABLE
  2
DIMSTYLE
  5
A
100
AcDbSymbolTable
 70
1
100
AcDbDimStyleTable
 71
0
  0
DIMSTYLE
105
216
100
AcDbSymbolTableRecord
100
AcDbDimStyleTableRecord
  2
STANDARD
 70
0
  3

  4

 40
1.0
 41
3.0
 42
0.5
 43
0.38
 44
1.5
 45
0.0
 46
0.0
 47
0.01
 48
0.01
140
3.0
141
0.09
142
0.0
143
25.4
144
1.0
145
0.0
146
1.0
147
0.625
 71
1.0
 72
0.0
 73
0
 74
0
 75
0
 76
0
 77
1
 78
8
170
0
171
2
172
0
173
0
174
0
175
0
176
0
177
0
178
0
270
2
271
2
272
2
273
2
274
2
275
0
280
0
281
0
282
0
283
1
284
8
285
0
286
0
287
3
288
0
340
11
278
44
  0
ENDTAB
  0
ENDSEC
  0
SECTION
  2
BLOCKS
  0
BLOCK
  5
20
100
AcDbEntity
  8
0
100
AcDbBlockBegin
  2
*Model_Space
 70
0
 10
0.0
 20
0.0
 30
0.0
  3
*Model_Space
  1

  0
ENDBLK
  5
21
100
AcDbEntity
  8
0
100
AcDbBlockEnd
  0
BLOCK
  5
1C
100
AcDbEntity
  8
0
100
AcDbBlockBegin
  2
*Paper_Space
 70
0
 10
0.0
 20
0.0
 30
0.0
  3
*Paper_Space
  1

  0
ENDBLK
  5
1D
100
AcDbEntity
  8
0
100
AcDbBlockEnd
  0
ENDSEC
  0
SECTION
  2
ENTITIES
  0
LWPOLYLINE
  5
217
100
AcDbEntity
  8
COPY_PUBLISH
100
AcDbPolyline
 62
7
  6
CONTINUOUS
 90
14
 70
0
 10
119.5709127465
 20
135.5438026802
 10
119.499179139
 20
135.4975634332
 10
119.4343405811
 20
135.4475846415
 10
119.372484432
 20
135.3917161112
 10
119.3139565334
 20
135.3303349796
 10
119.2595672669
 20
135.2644477728
 10
119.2093599227
 20
135.1942971583
 10
119.1634804631
 20
135.1201242558
 10
119.122709521
 20
135.0432963435
 10
119.0871174601
 20
134.9641334838
 10
119.0568216182
 20
134.8828762446
 10
119.0323384523
 20
134.8009593105
 10
119.013766075
 20
134.7190182627
 10
119.0004969656
 20
134.6319459301
  0
LINE
  5
218
100
AcDbEntity
  8
COPY_PUBLISH
100
AcDbLine
 62
7
  6
CONTINUOUS
 10
119.570759381
 20
135.5437134761
 11
123.6025846281
 21
137.894636882
  0
LINE
  5
219
100
AcDbEntity
  8
COPY_PUBLISH
100
AcDbLine
 62
253
  6
CONTINUOUS
 10
119.8041134286
 20
135.534946083
 11
123.7097805588
 21
137.8123077516
  0
LWPOLYLINE
  5
21A
100
AcDbEntity
  8
COPY_PUBLISH
100
AcDbPolyline
 62
7
  6
CONTINUOUS
 90
12
 70
0
 10
123.1425739359
 20
138.9109539848
 10
123.1215331359
 20
138.8988747263
 10
123.1005547742
 20
138.8838564089
 10
123.0811973886
 20
138.8667181269
 10
123.063648056
 20
138.8475931017
 10
123.0481127379
 20
138.8266558307
 10
123.0347965196
 20
138.804126778
 10
123.0238694024
 20
138.7802305191
 10
123.0154794594
 20
138.7552066127
 10
123.0097576589
 20
138.7293369577
 10
123.0068016991
 20
138.7029373671
 10
123.0063762313
 20
138.6884044903
  0
LINE
  5
21B
100
AcDbEntity
  8
COPY_PUBLISH
100
AcDbLine
 62
7
  6
CONTINUOUS
 10
123.1424927553
 20
138.9109124935
 11
124.7264677302
 21
139.7214485785
  0
LINE
  5
21C
100
AcDbEntity
  8
COPY_PUBLISH
100
AcDbLine
 62
253
  6
CONTINUOUS
 10
123.2554506176
 20
138.9043984608
 11
124.8390311435
 21
139.7147327022
  0
LINE
  5
21D
100
AcDbEntity
  8
COPY_PUBLISH
100
AcDbLine
 62
253
  6
CONTINUOUS
 10
123.1424927657
 20
138.9109124989
 11
123.1425739359
 21
138.9109539848
  0
LINE
  5
21E
100
AcDbEntity
  8
COPY_PUBLISH
100
AcDbLine
 62
7
  6
CONTINUOUS
 10
124.7264696438
 20
139.7214495577
 11
124.7281193916
 21
139.7222733766
  0
LINE
  5
21F
100
AcDbEntity
  8
COPY_PUBLISH
100
AcDbLine
 62
7
  6
CONTINUOUS
 10
124.728122018
 20
139.7222746561
 11
125.2629683427
 21
139.982815244
  0
LINE
  5
220
100
AcDbEntity
  8
COPY_PUBLISH
100
AcDbLine
 62
253
  6
CONTINUOUS
 10
124.8390305751
 20
139.7147329864
 11
125.3734804538
 21
139.975080453
  0
LWPOLYLINE
  5
221
100
AcDbEntity
  8
COPY_PUBLISH
100
AcDbPolyline
 62
253
  6
CONTINUOUS
 90
16
 70
0
 10
123.1425739359
 20
138.9109539848
 10
123.1458207445
 20
138.9125335354
 10
123.152566447
 20
138.915344553
 10
123.1595473788
 20
138.917641277
 10
123.1667477925
 20
138.9194185132
 10
123.1741513111
 20
138.9206722064
 10
123.1817409969
 20
138.9213995014
 10
123.1894995393
 20
138.9215987807
 10
123.1974094514
 20
138.9212696351
 10
123.2054529558
 20
138.9204128188
 10
123.2136130562
 20
138.9190300271
 10
123.221870068
 20
138.9171244823
 10
123.2302016852
 20
138.914701654
 10
123.2385877493
 20
138.9117681487
 10
123.2470104176
 20
138.9083309466
 10
123.2554506176
 20
138.9043984608
  0
LWPOLYLINE
  5
222
100
AcDbEntity
  8
COPY_PUBLISH
100
AcDbPolyline
 62
7
  6
CONTINUOUS
 90
16
 70
0
 10
124.7281193916
 20
139.7222733766
 10
124.7297769063
 20
139.7230608301
 10
124.7365118943
 20
139.7258681258
 10
124.7434789728
 20
139.7281596676
 10
124.7506624085
 20
139.7299302892
 10
124.7580459434
 20
139.7311759876
 10
124.7656127658
 20
139.7318939006
 10
124.7733458035
 20
139.7320824366
 10
124.7812275748
 20
139.731741187
 10
124.7892401003
 20
139.7308708659
 10
124.7973653267
 20
139.7294734864
 10
124.8055848947
 20
139.7275522433
 10
124.8138799922
 20
139.7251114217
 10
124.8222318236
 20
139.7221565645
 10
124.8306216534
 20
139.7186944538
 10
124.8390305751
 20
139.7147329864
  0
LWPOLYLINE
  5
223
100
AcDbEntity
  8
COPY_PUBLISH
100
AcDbPolyline
 62
253
  6
CONTINUOUS
 90
16
 70
0
 10
125.2629683539
 20
139.9828152495
 10
125.2646410661
 20
139.9836096936
 10
125.2713679964
 20
139.9864113481
 10
125.278323978
 20
139.9886956291
 10
125.2854933199
 20
139.9904573707
 10
125.2928597156
 20
139.9916925527
 10
125.3004063126
 20
139.9923983625
 10
125.3081158987
 20
139.9925732318
 10
125.3159710979
 20
139.9922168067
 10
125.3239542566
 20
139.9913299028
 10
125.3320485042
 20
139.9899142786
 10
125.3402343149
 20
139.9879732349
 10
125.3484895811
 20
139.9855123379
 10
125.3567943368
 20
139.9825382884
 10
125.3651309183
 20
139.9790581559
 10
125.3734804538
 20
139.975080453
  0
LWPOLYLINE
  5
224
100
AcDbEntity
  8
COPY_PUBLISH
100
AcDbPolyline
 62
7
  6
CONTINUOUS
 90
3
 70
0
 10
125.3006077697
 20
139.9975179355
 10
125.2707215417
 20
139.9864291536
 10
125.2628042029
 20
139.9827350879
  0
LINE
  5
225
100
AcDbEntity
  8
COPY_PUBLISH
100
AcDbLine
 62
7
  6
CONTINUOUS
 10
126.7128665369
 20
136.9591616576
 11
125.8234245722
 21
136.4622810713
  0
LWPOLYLINE
  5
226
100
AcDbEntity
  8
COPY_PUBLISH
100
AcDbPolyline
 62
253
  6
CONTINUOUS
 90
19
 70
0
 10
119.5709126946
 20
135.5438027694
 10
119.5809293454
 20
135.5492082739
 10
119.5918691953
 20
135.554215607
 10
119.6031828839
 20
135.5585061398
 10
119.6148520817
 20
135.5620729212
 10
119.6268578832
 20
135.5649101726
 10
119.6391808375
 20
135.5670132973
 10
119.6518009801
 20
135.568378888
 10
119.6646978647
 20
135.5690047323
 10
119.677850597
 20
135.5688898162
 10
119.6912378679
 20
135.5680343259
 10
119.7048379886
 20
135.5664396475
 10
119.7186289251
 20
135.5641083644
 10
119.7325883345
 20
135.5610442536
 10
119.746693601
 20
135.5572522794
 10
119.7609218724
 20
135.5527385851
 10
119.7752500971
 20
135.5475104836
 10
119.7896550617
 20
135.5415764449
 10
119.8041134286
 20
135.534946083
  0
LINE
  5
227
100
AcDbEntity
  8
COPY_PUBLISH
100
AcDbLine
 62
253
  6
CONTINUOUS
 10
124.9358410826
 20
138.0642032283
 11
126.5360922648
 21
138.8662021416
  0
LINE
  5
228
100
AcDbEntity
  8
COPY_PUBLISH
100
AcDbLine
 62
253
  6
CONTINUOUS
 10
125.1126153547
 20
137.7593127091
 11
126.7128665369
 21
138.5613116224
  0
LINE
  5
229
100
AcDbEntity
  8
COPY_PUBLISH
100
AcDbLine
 62
253
  6
CONTINUOUS
 10
126.5360928332
 20
138.8662018574
 11
127.0643600049
 21
139.1296406774
  0
LINE
  5
22A
100
AcDbEntity
  8
COPY_PUBLISH
100
AcDbLine
 62
253
  6
CONTINUOUS
 10
126.7128665369
 20
138.5613123186
 11
127.2411337086
 21
138.8247511386
  0
LWPOLYLINE
  5
22B
100
AcDbEntity
  8
COPY_PUBLISH
100
AcDbPolyline
 62
7
  6
CONTINUOUS
 90
7
 70
0
 10
127.256494281
 20
138.4063844553
 10
127.2709750954
 20
138.4258652691
 10
127.2835157642
 20
138.4466907688
 10
127.2939864485
 20
138.4686644314
 10
127.3022846914
 20
138.4915980166
 10
127.3083138967
 20
138.5152559483
 10
127.3120041052
 20
138.5393635143
  0
LINE
  5
22C
100
AcDbEntity
  8
COPY_PUBLISH
100
AcDbLine
 62
253
  6
CONTINUOUS
 10
126.7128665369
 20
137.8342674661
 11
127.2411337086
 21
138.4772196218
  0
LINE
  5
22D
100
AcDbEntity
  8
COPY_PUBLISH
100
AcDbLine
 62
7
  6
CONTINUOUS
 10
126.7128665369
 20
137.7447369998
 11
127.256494281
 21
138.4063844553
  0
LWPOLYLINE
  5
22E
100
AcDbEntity
  8
COPY_PUBLISH
100
AcDbPolyline
 62
7
  6
CONTINUOUS
 90
36
 70
0
 10
125.8234245722
 20
137.269906592
 10
125.8167848932
 20
137.2621628538
 10
125.8098980355
 20
137.2545157426
 10
125.8027660436
 20
137.2469782488
 10
125.7953869986
 20
137.2395648413
 10
125.7877682197
 20
137.2322872629
 10
125.7799261544
 20
137.2251546009
 10
125.7718643618
 20
137.2181803256
 10
125.7635871273
 20
137.211377602
 10
125.7551124423
 20
137.204755289
 10
125.7464451786
 20
137.1983269516
 10
125.737590861
 20
137.1921058084
 10
125.7285689134
 20
137.186100436
 10
125.7193855515
 20
137.1803243473
 10
125.7100475967
 20
137.1747906858
 10
125.7005758429
 20
137.169507727
 10
125.6909778797
 20
137.1644887717
 10
125.6812618907
 20
137.1597467475
 10
125.6714500513
 20
137.1552896315
 10
125.6615513727
 20
137.1511303359
 10
125.6515754585
 20
137.1472813948
 10
125.6415459154
 20
137.1437504631
 10
125.6314732339
 20
137.1405498517
 10
125.6213684861
 20
137.1376914783
 10
125.6112567615
 20
137.135182588
 10
125.6011500971
 20
137.1330346289
 10
125.5910610526
 20
137.1312586173
 10
125.5810161822
 20
137.1298612002
 10
125.5710291461
 20
137.1288526403
 10
125.5611139492
 20
137.1282426958
 10
125.5512984
 20
137.1280371094
 10
125.5415978251
 20
137.1282445686
 10
125.5320275737
 20
137.1288731637
 10
125.5226162512
 20
137.1299273499
 10
125.5133901661
 20
137.1314120746
 10
125.5096167985
 20
137.1321562994
  0
LINE
  5
22F
100
AcDbEntity
  8
COPY_PUBLISH
100
AcDbLine
 62
7
  6
CONTINUOUS
 10
129.0109635757
 20
135.4338665135
 11
128.2976859672
 21
135.0380120683
  0
LINE
  5
230
100
AcDbEntity
  8
COPY_PUBLISH
100
AcDbLine
 62
7
  6
CONTINUOUS
 10
128.6927655242
 20
137.35485281
 11
127.6376590068
 21
136.8149440871
  0
LINE
  5
231
100
AcDbEntity
  8
COPY_PUBLISH
100
AcDbLine
 62
253
  6
CONTINUOUS
 10
130.990864358
 20
136.2058033931
 11
131.6777661434
 21
136.550364051
  0
LINE
  5
232
100
AcDbEntity
  8
COPY_PUBLISH
100
AcDbLine
 62
7
  6
CONTINUOUS
 10
128.2976859672
 20
136.4849306069
 11
129.1528721583
 21
136.910561871
  0
LINE
  5
233
100
AcDbEntity
  8
COPY_PUBLISH
100
AcDbLine
 62
253
  6
CONTINUOUS
 10
130.7761334183
 20
136.098931241
 11
130.99086364
 21
136.2058037521
  0
LINE
  5
234
100
AcDbEntity
  8
0
100
AcDbLine
 62
7
  6
CONTINUOUS
 10
130.032817899
 20
137.3728381732
 11
130.0469763388
 21
137.3798157955
  0
LINE
  5
235
100
AcDbEntity
  8
0
100
AcDbLine
 62
7
  6
CONTINUOUS
 10
129.4039861323
 20
137.7013108987
 11
128.6927655242
 21
137.35485281
  0
LWPOLYLINE
  5
236
100
AcDbEntity
  8
COPY_PUBLISH
100
AcDbPolyline
 62
253
  6
CONTINUOUS
 90
22
 70
0
 10
119.000500562
 20
134.631977838
 10
118.999997656
 20
134.6239889284
 10
119.0002837504
 20
134.6159230751
 10
119.0013583911
 20
134.607793075
 10
119.0032198733
 20
134.5996118267
 10
119.0058652436
 20
134.5913923104
 10
119.0092903049
 20
134.5831475668
 10
119.0134896232
 20
134.5748906768
 10
119.018456536
 20
134.5666347404
 10
119.024183163
 20
134.5583928561
 10
119.0306604184
 20
134.5501781003
 10
119.0378780259
 20
134.5420035061
 10
119.0458245341
 20
134.533882043
 10
119.0544873354
 20
134.5258265963
 10
119.0638526858
 20
134.5178499464
 10
119.0739057266
 20
134.5099647488
 10
119.084630508
 20
134.5021835138
 10
119.0960100144
 20
134.4945185868
 10
119.1080261916
 20
134.4869821287
 10
119.1206599752
 20
134.4795860966
 10
119.1338913208
 20
134.4723422247
 10
119.1476992362
 20
134.4652620059
  0
LWPOLYLINE
  5
237
100
AcDbEntity
  8
COPY_PUBLISH
100
AcDbPolyline
 62
7
  6
CONTINUOUS
 90
10
 70
0
 10
119.0005088138
 20
134.6320518763
 10
118.8771260105
 20
133.4979810336
 10
118.7594418626
 20
132.3011645516
 10
118.6551693391
 20
131.1091898519
 10
118.5643318536
 20
129.9223092582
 10
118.4869500442
 20
128.7407717929
 10
118.4230422623
 20
127.5648286543
 10
118.3726241464
 20
126.3947266396
 10
118.3357088671
 20
125.2307138927
 10
118.313346454
 20
124.1434614188
  0
LWPOLYLINE
  5
238
100
AcDbEntity
  8
COPY_PUBLISH
100
AcDbPolyline
 62
253
  6
CONTINUOUS
 90
43
 70
0
 10
119.1476990616
 20
134.4652619508
 10
119.1514727243
 20
134.4950161544
 10
119.155978489
 20
134.5249758639
 10
119.1612115134
 20
134.5551092806
 10
119.1671660837
 20
134.5853843104
 10
119.1738358915
 20
134.6157689435
 10
119.1812140743
 20
134.6462312922
 10
119.1892927907
 20
134.6767392952
 10
119.1980633667
 20
134.7072603425
 10
119.2075165781
 20
134.7377616583
 10
119.2176422315
 20
134.7682107752
 10
119.228429533
 20
134.7985755266
 10
119.2398672662
 20
134.8288236753
 10
119.2519431732
 20
134.8589231843
 10
119.2646443301
 20
134.8888421123
 10
119.2779575071
 20
134.9185486046
 10
119.2918684492
 20
134.9480112202
 10
119.3063622587
 20
134.9771986862
 10
119.3214237791
 20
135.0060797933
 10
119.3370368409
 20
135.0346239138
 10
119.3531847515
 20
135.062800834
 10
119.3698506811
 20
135.0905805066
 10
119.3870167642
 20
135.1179335145
 10
119.4046646258
 20
135.144830879
 10
119.422775871
 20
135.1712438902
 10
119.4413311106
 20
135.1971446168
 10
119.4603104587
 20
135.2225055959
 10
119.4796940598
 20
135.2472996428
 10
119.4994611084
 20
135.2715004908
 10
119.5195904637
 20
135.2950825602
 10
119.5400611489
 20
135.3180206458
 10
119.5608512121
 20
135.3402904713
 10
119.5819384014
 20
135.3618684931
 10
119.6033007803
 20
135.3827316629
 10
119.6249155479
 20
135.4028580056
 10
119.6467594688
 20
135.4222261424
 10
119.6688095447
 20
135.4408151094
 10
119.6910419616
 20
135.4586051364
 10
119.7134330815
 20
135.4755776078
 10
119.7359598795
 20
135.4917145506
 10
119.7585985475
 20
135.5069988817
 10
119.7813245127
 20
135.5214144687
 10
119.8041134286
 20
135.534946083
  0
LWPOLYLINE
  5
239
100
AcDbEntity
  8
COPY_PUBLISH
100
AcDbPolyline
 62
253
  6
CONTINUOUS
 90
30
 70
0
 10
125.1126153547
 20
137.4182044195
 10
125.1082003189
 20
137.4073190936
 10
125.1033977882
 20
137.3966562012
 10
125.0982183363
 20
137.3862399438
 10
125.0926729742
 20
137.3760932495
 10
125.0867743506
 20
137.3662399954
 10
125.0805369824
 20
137.3567047267
 10
125.0739754996
 20
137.3475097065
 10
125.0671042247
 20
137.3386749095
 10
125.0599385246
 20
137.3302201165
 10
125.0524944599
 20
137.3221643359
 10
125.0447889177
 20
137.3145258987
 10
125.0368394452
 20
137.3073222197
 10
125.028664055
 20
137.3005696143
 10
125.02028115
 20
137.2942832755
 10
125.0117096408
 20
137.2884773865
 10
125.0029688692
 20
137.2831650535
 10
124.9940785842
 20
137.2783582846
 10
124.9850588802
 20
137.2740679461
 10
124.9759301318
 20
137.2703037289
 10
124.9667129465
 20
137.2670741299
 10
124.9574281378
 20
137.2643864418
 10
124.948096672
 20
137.2622467339
 10
124.938739621
 20
137.260659838
 10
124.9293781148
 20
137.2596293377
 10
124.9200332822
 20
137.2591575598
 10
124.9107262362
 20
137.2592455711
 10
124.9014780261
 20
137.2598931697
 10
124.8923095564
 20
137.2610988837
 10
124.8857084756
 20
137.2623237675
  0
LWPOLYLINE
  5
23A
100
AcDbEntity
  8
COPY_PUBLISH
100
AcDbPolyline
 62
7
  6
CONTINUOUS
 90
12
 70
0
 10
132.3860987162
 20
135.2535328868
 10
132.3697696241
 20
135.2441278987
 10
132.3529868935
 20
135.2321133136
 10
132.3375008596
 20
135.2184026775
 10
132.3234612781
 20
135.2031026278
 10
132.311032941
 20
135.1863527953
 10
132.3003798917
 20
135.1683295265
 10
132.2916381316
 20
135.1492124814
 10
132.2849261207
 20
135.129193307
 10
132.2803486356
 20
135.1084975253
 10
132.2779838364
 20
135.0873777901
 10
132.2776434508
 20
135.0757512946
  0
LINE
  5
23B
100
AcDbEntity
  8
COPY_PUBLISH
100
AcDbLine
 62
7
  6
CONTINUOUS
 10
130.9170557482
 20
134.6300057453
 11
131.1322839193
 21
134.7494529664
  0
LINE
  5
23C
100
AcDbEntity
  8
COPY_PUBLISH
100
AcDbLine
 62
7
  6
CONTINUOUS
 10
132.5976729333
 20
135.3625513982
 11
132.3860350562
 21
135.2535001227
  0
LINE
  5
23D
100
AcDbEntity
  8
COPY_PUBLISH
100
AcDbLine
 62
253
  6
CONTINUOUS
 10
132.687917761
 20
135.3572766916
 11
132.4769029598
 21
135.2485464702
  0
LINE
  5
23E
100
AcDbEntity
  8
COPY_PUBLISH
100
AcDbLine
 62
253
  6
CONTINUOUS
 10
132.3860987162
 20
135.2535328868
 11
132.3860350652
 21
135.2535001273
  0
LINE
  5
23F
100
AcDbEntity
  8
COPY_PUBLISH
100
AcDbLine
 62
7
  6
CONTINUOUS
 10
131.1322839193
 20
134.7494529664
 11
131.8289698248
 21
135.0994222852
  0
LINE
  5
240
100
AcDbEntity
  8
COPY_PUBLISH
100
AcDbLine
 62
253
  6
CONTINUOUS
 10
131.1322839193
 20
135.961894394
 11
131.8204091204
 21
136.3070687364
  0
LINE
  5
241
100
AcDbEntity
  8
COPY_PUBLISH
100
AcDbLine
 62
7
  6
CONTINUOUS
 10
132.5993389883
 20
135.3633839354
 11
132.5976753748
 21
135.3625526562
  0
LINE
  5
242
100
AcDbEntity
  8
COPY_PUBLISH
100
AcDbLine
 62
253
  6
CONTINUOUS
 10
130.9170557482
 20
135.8547737281
 11
131.1322839193
 21
135.9618940716
  0
LINE
  5
243
100
AcDbEntity
  8
COPY_PUBLISH
100
AcDbLine
 62
7
  6
CONTINUOUS
 10
133.2986005149
 20
135.7020257473
 11
132.5993407005
 21
135.3633847651
  0
LINE
  5
244
100
AcDbEntity
  8
COPY_PUBLISH
100
AcDbLine
 62
253
  6
CONTINUOUS
 10
133.386913378
 20
135.6957904337
 11
132.687917043
 21
135.3572770506
  0
LWPOLYLINE
  5
245
100
AcDbEntity
  8
RACCORDO
100
AcDbPolyline
 62
253
  6
CONTINUOUS
 90
7
 70
0
 10
142.2015574549
 20
137.0886885961
 10
142.2260426737
 20
137.0958556303
 10
142.2520343216
 20
137.0989405551
 10
142.2792476278
 20
137.0979095318
 10
142.307384458
 20
137.0927738311
 10
142.3361365877
 20
137.0835896883
 10
142.3651890335
 20
137.0704576906
  0
LWPOLYLINE
  5
246
100
AcDbEntity
  8
COPY_PUBLISH
100
AcDbPolyline
 62
7
  6
CONTINUOUS
 90
9
 70
0
 10
119.0765657358
 20
97.6437401323
 10
119.1066130866
 20
97.587212855
 10
119.1406507237
 20
97.5344460822
 10
119.1783919711
 20
97.4856215593
 10
119.2196943808
 20
97.4407465591
 10
119.2641873609
 20
97.4000887712
 10
119.3114970668
 20
97.3638423018
 10
119.3614869894
 20
97.3320069351
 10
119.3978393683
 20
97.3124596804
  0
LWPOLYLINE
  5
247
100
AcDbEntity
  8
COPY_PUBLISH
100
AcDbPolyline
 62
7
  6
CONTINUOUS
 90
5
 70
0
 10
119.0014444353
 20
97.9023465138
 10
119.0129366674
 20
97.8338506767
 10
119.0295359073
 20
97.7671208512
 10
119.05081789
 20
97.7037217418
 10
119.0765657358
 20
97.6437401323
  0
LWPOLYLINE
  5
248
100
AcDbEntity
  8
COPY_PUBLISH
100
AcDbPolyline
 62
253
  6
CONTINUOUS
 90
19
 70
0
 10
119.0014442704
 20
97.9023464924
 10
119.0032197103
 20
97.8914642453
 10
119.0058650769
 20
97.8800317503
 10
119.0092901349
 20
97.868736589
 10
119.0134894502
 20
97.8575966818
 10
119.0184563604
 20
97.846629703
 10
119.0241829853
 20
97.8358530522
 10
119.030660239
 20
97.8252838273
 10
119.0378778451
 20
97.8149387971
 10
119.0458243524
 20
97.8048343746
 10
119.0544871532
 20
97.7949865911
 10
119.0638525035
 20
97.7854110707
 10
119.0739055445
 20
97.7761230056
 10
119.0846303265
 20
97.7671371319
 10
119.096009834
 20
97.7584677063
 10
119.1080260125
 20
97.7501284832
 10
119.1206597978
 20
97.7421326935
 10
119.1338911455
 20
97.734493023
 10
119.1476990633
 20
97.7272215923
  0
LINE
  5
249
100
AcDbEntity
  8
COPY_PUBLISH
100
AcDbLine
 62
7
  6
CONTINUOUS
 10
119.0014127732
 20
97.9025891707
 11
119.0014442704
 21
97.9023464924
  0
LWPOLYLINE
  5
24A
100
AcDbEntity
  8
COPY_PUBLISH
100
AcDbPolyline
 62
253
  6
CONTINUOUS
 90
21
 70
0
 10
118.3133482888
 20
107.6901887868
 10
118.3135391971
 20
107.6848515329
 10
118.3145074737
 20
107.6746830549
 10
118.3162669033
 20
107.6645513573
 10
118.3188146951
 20
107.6544725107
 10
118.3221468079
 20
107.6444625019
 10
118.3262579565
 20
107.6345372084
 10
118.3311416197
 20
107.6247123735
 10
118.3367900514
 20
107.6150035811
 10
118.343194292
 20
107.6054262308
 10
118.3503441835
 20
107.5959955141
 10
118.3582283848
 20
107.5867263896
 10
118.3668343903
 20
107.5776335599
 10
118.3761485494
 20
107.5687314475
 10
118.3861560882
 20
107.5600341729
 10
118.396841133
 20
107.5515555314
 10
118.4081867357
 20
107.5433089715
 10
118.4201749
 20
107.5353075737
 10
118.4327866108
 20
107.5275640296
 10
118.4460018636
 20
107.5200906218
 10
118.4597996969
 20
107.5128992043
  0
LWPOLYLINE
  5
24B
100
AcDbEntity
  8
COPY_PUBLISH
100
AcDbPolyline
 62
253
  6
CONTINUOUS
 90
21
 70
0
 10
118.313346454
 20
124.1434614188
 10
118.3135391986
 20
124.134646051
 10
118.3145074753
 20
124.1249263936
 10
118.3162669049
 20
124.1152241413
 10
118.3188146968
 20
124.1055546834
 10
118.3221468096
 20
124.0959333575
 10
118.3262579582
 20
124.0863754246
 10
118.3311416214
 20
124.0768960452
 10
118.3367900531
 20
124.0675102552
 10
118.3431942938
 20
124.0582329421
 10
118.3503441853
 20
124.0490788213
 10
118.3582283866
 20
124.0400624127
 10
118.3668343921
 20
124.031198018
 10
118.3761485511
 20
124.0224996976
 10
118.3861560899
 20
124.0139812484
 10
118.3968411347
 20
124.0056561823
 10
118.4081867374
 20
123.9975377042
 10
118.4201749017
 20
123.9896386913
 10
118.4327866124
 20
123.9819716729
 10
118.4460018652
 20
123.9745488101
 10
118.4597996985
 20
123.967381877
  0
LWPOLYLINE
  5
24C
100
AcDbEntity
  8
COPY_PUBLISH
100
AcDbPolyline
 62
7
  6
CONTINUOUS
 90
10
 70
0
 10
118.3133482874
 20
107.6901889455
 10
118.3358732561
 20
106.6199430638
 10
118.3728799982
 20
105.4935422317
 10
118.4234066244
 20
104.3748524154
 10
118.4874442095
 20
103.2641107056
 10
118.5649814066
 20
102.1615496004
 10
118.6560042862
 20
101.0674021047
 10
118.7604966438
 20
99.981897455
 10
118.8784394206
 20
98.9052664918
 10
119.0014127732
 20
97.9025891707
  0
LWPOLYLINE
  5
24D
100
AcDbEntity
  8
COPY_PUBLISH
100
AcDbPolyline
 62
253
  6
CONTINUOUS
 90
13
 70
0
 10
118.4597996968
 20
107.5128992043
 10
118.4406380637
 20
108.8741279288
 10
118.4249605746
 20
110.2372017944
 10
118.412767176
 20
111.6021070184
 10
118.4040578249
 20
112.9688206427
 10
118.3988323031
 20
114.3373379855
 10
118.3970904551
 20
115.7076727607
 10
118.3988323019
 20
117.0798112307
 10
118.4040578228
 20
118.4537396311
 10
118.4127671734
 20
119.8294718224
 10
118.4249605721
 20
121.2070033377
 10
118.440638062
 20
122.5863112654
 10
118.4597996968
 20
123.9673818762
  0
LWPOLYLINE
  5
24E
100
AcDbEntity
  8
COPY_PUBLISH
100
AcDbPolyline
 62
7
  6
CONTINUOUS
 90
10
 70
0
 10
118.3133464545
 20
124.1434615563
 10
118.2891607228
 20
122.35214097
 10
118.2702884708
 20
120.499420528
 10
118.2577100392
 20
118.6498681368
 10
118.2514256958
 20
116.8035183822
 10
118.2514355848
 20
114.9604035411
 10
118.2577397599
 20
113.1205552495
 10
118.2703381839
 20
111.2840056891
 10
118.2892306966
 20
109.4507892248
 10
118.3133482888
 20
107.6901887868
  0
LWPOLYLINE
  5
24F
100
AcDbEntity
  8
COPY_PUBLISH
100
AcDbPolyline
 62
253
  6
CONTINUOUS
 90
16
 70
0
 10
118.4597996968
 20
123.9673818762
 10
118.472523077
 20
124.6527940167
 10
118.4899907172
 20
125.340498152
 10
118.5122012689
 20
126.0304421017
 10
118.5391529736
 20
126.7225735126
 10
118.5708437936
 20
127.4168398799
 10
118.6072714137
 20
128.1131885519
 10
118.6484330068
 20
128.8115667638
 10
118.6943254127
 20
129.5119214832
 10
118.7449452686
 20
130.2141994308
 10
118.8002886429
 20
130.9183473025
 10
118.8603512844
 20
131.6243117345
 10
118.9251288042
 20
132.3320391501
 10
118.9946162852
 20
133.0414758683
 10
119.0688082802
 20
133.7525681076
 10
119.1476990616
 20
134.4652619508
  0
LWPOLYLINE
  5
250
100
AcDbEntity
  8
COPY_PUBLISH
100
AcDbPolyline
 62
7
  6
CONTINUOUS
 90
12
 70
0
 10
135.4462319285
 20
132.7591249884
 10
135.4251911286
 20
132.74704573
 10
135.4042127668
 20
132.7320274126
 10
135.3848553813
 20
132.7148891306
 10
135.3673060486
 20
132.6957641053
 10
135.3517707306
 20
132.6748268344
 10
135.3384545122
 20
132.6522977817
 10
135.327527395
 20
132.6284015228
 10
135.319137452
 20
132.6033776164
 10
135.3134156516
 20
132.5775079614
 10
135.3104596918
 20
132.5511083707
 10
135.310034224
 20
132.5365754939
  0
LINE
  5
251
100
AcDbEntity
  8
COPY_PUBLISH
100
AcDbLine
 62
7
  6
CONTINUOUS
 10
134.9860158768
 20
132.8225869876
 11
133.9198020506
 21
132.2269540266
  0
LWPOLYLINE
  5
252
100
AcDbEntity
  8
0
100
AcDbPolyline
 62
7
  6
CONTINUOUS
 90
9
 70
0
 10
140.2933265429
 20
135.4692622577
 10
140.3253447859
 20
135.4871486687
 10
140.3529392501
 20
135.5061514892
 10
140.3761099354
 20
135.5262707193
 10
140.3950131476
 20
135.5477502021
 10
140.4094925809
 20
135.5703460945
 10
140.4190793187
 20
135.5933268667
 10
140.4236131662
 20
135.6167057865
 10
140.4240577995
 20
135.6268880325
  0
LINE
  5
253
100
AcDbEntity
  8
COPY_PUBLISH
100
AcDbLine
 62
7
  6
CONTINUOUS
 10
134.1001642197
 20
134.4369158403
 11
133.2597750902
 21
134.0038860454
  0
LINE
  5
254
100
AcDbEntity
  8
COPY_PUBLISH
100
AcDbLine
 62
7
  6
CONTINUOUS
 10
135.446150748
 20
132.7590834972
 11
137.0300964851
 21
133.5696046209
  0
LINE
  5
255
100
AcDbEntity
  8
0
100
AcDbLine
 62
253
  6
CONTINUOUS
 10
135.5591086102
 20
132.7525694645
 11
137.1426891362
 21
133.5629037059
  0
LINE
  5
256
100
AcDbEntity
  8
COPY_PUBLISH
100
AcDbLine
 62
253
  6
CONTINUOUS
 10
135.4461507583
 20
132.7590835025
 11
135.4462319285
 21
132.7591249884
  0
LINE
  5
257
100
AcDbEntity
  8
COPY_PUBLISH
100
AcDbLine
 62
7
  6
CONTINUOUS
 10
133.9198020506
 20
133.6738725652
 11
134.9860158768
 21
134.2082276337
  0
LINE
  5
258
100
AcDbEntity
  8
COPY_PUBLISH
100
AcDbLine
 62
7
  6
CONTINUOUS
 10
134.9860158768
 20
134.2082276337
 11
140.2605079459
 21
136.8385367676
  0
LINE
  5
259
100
AcDbEntity
  8
COPY_PUBLISH
100
AcDbLine
 62
7
  6
CONTINUOUS
 10
134.9860158768
 20
132.8225869876
 11
140.2933265429
 21
135.4692622577
  0
LINE
  5
25A
100
AcDbEntity
  8
COPY_PUBLISH
100
AcDbLine
 62
7
  6
CONTINUOUS
 10
139.6440361211
 20
137.14677268
 11
135.0318616224
 21
134.8733163115
  0
LWPOLYLINE
  5
25B
100
AcDbEntity
  8
COPY_PUBLISH
100
AcDbPolyline
 62
253
  6
CONTINUOUS
 90
16
 70
0
 10
135.4462319285
 20
132.7591249884
 10
135.4494787371
 20
132.760704539
 10
135.4562244397
 20
132.7635155567
 10
135.4632053715
 20
132.7658122807
 10
135.4704057852
 20
132.7675895169
 10
135.4778093037
 20
132.76884321
 10
135.4853989896
 20
132.7695705051
 10
135.493157532
 20
132.7697697844
 10
135.501067444
 20
132.7694406388
 10
135.5091109484
 20
132.7685838225
 10
135.5172710488
 20
132.7672010308
 10
135.5255280606
 20
132.7652954859
 10
135.5338596779
 20
132.7628726577
 10
135.5422457419
 20
132.7599391524
 10
135.5506684102
 20
132.7565019503
 10
135.5591086102
 20
132.7525694645
  0
LINE
  5
25C
100
AcDbEntity
  8
RACCORDO
100
AcDbLine
 62
253
  6
CONTINUOUS
 10
140.4241613941
 20
136.145605605
 11
142.3651890358
 21
137.0704576918
  0
LINE
  5
25D
100
AcDbEntity
  8
RACCORDO
100
AcDbLine
 62
7
  6
CONTINUOUS
 10
140.4241613941
 20
136.2433688629
 11
142.1916729287
 21
137.0844237964
  0
LINE
  5
25E
100
AcDbEntity
  8
RACCORDO
100
AcDbLine
 62
7
  6
CONTINUOUS
 10
150.6928904071
 20
140.0721109645
 11
143.5730734054
 21
136.7144249905
  0
LINE
  5
25F
100
AcDbEntity
  8
RACCORDO
100
AcDbLine
 62
253
  6
CONTINUOUS
 10
151.1317751575
 20
140.0397080295
 11
143.8194509785
 21
136.591236204
  0
LWPOLYLINE
  5
260
100
AcDbEntity
  8
RACCORDO
100
AcDbPolyline
 62
253
  6
CONTINUOUS
 90
9
 70
0
 10
142.3651890358
 20
137.0704576918
 10
142.4183815005
 20
137.0937187421
 10
142.4712494797
 20
137.1120347192
 10
142.5235025206
 20
137.1253024583
 10
142.5748563623
 20
137.1334454213
 10
142.62502605
 20
137.1364183922
 10
142.673727496
 20
137.1342077163
 10
142.7206930301
 20
137.1268243767
 10
142.7656647391
 20
137.1143079079
  0
LWPOLYLINE
  5
261
100
AcDbEntity
  8
RACCORDO
100
AcDbPolyline
 62
253
  6
CONTINUOUS
 90
9
 70
0
 10
151.1317751575
 20
140.0397080295
 10
151.1926707941
 20
140.0656302416
 10
151.2530318937
 20
140.0848707751
 10
151.3124085682
 20
140.0972827659
 10
151.3703605981
 20
140.1027701984
 10
151.4264523489
 20
140.10128773
 10
151.4802570064
 20
140.0928444242
 10
151.5313714667
 20
140.0775031775
 10
151.5665441367
 20
140.0621232896
  0
LWPOLYLINE
  5
262
100
AcDbEntity
  8
RACCORDO
100
AcDbPolyline
 62
7
  6
CONTINUOUS
 90
5
 70
0
 10
150.6926822363
 20
140.0720127147
 10
150.7684800407
 20
140.1040348805
 10
150.855375973
 20
140.132149719
 10
150.9449093432
 20
140.1522968935
 10
151.0358100772
 20
140.1641413385
  0
LWPOLYLINE
  5
263
100
AcDbEntity
  8
RACCORDO
100
AcDbPolyline
 62
7
  6
CONTINUOUS
 90
3
 70
0
 10
142.3227859551
 20
137.134022692
 10
142.2550677161
 20
137.1115433305
 10
142.191819706
 20
137.0844811212
  0
LINE
  5
264
100
AcDbEntity
  8
COPY_PUBLISH
100
AcDbLine
 62
253
  6
CONTINUOUS
 10
155.454694278
 20
83.0708351978
 11
154.9264271062
 21
83.1793374749
  0
LINE
  5
265
100
AcDbEntity
  8
COPY_PUBLISH
100
AcDbLine
 62
253
  6
CONTINUOUS
 10
155.3652804826
 20
83.3904020038
 11
154.9264271062
 21
83.4805393305
  0
LWPOLYLINE
  5
266
100
AcDbEntity
  8
COPY_PUBLISH
100
AcDbPolyline
 62
7
  6
CONTINUOUS
 90
40
 70
0
 10
154.0363669235
 20
82.863728434
 10
154.0297263217
 20
82.8651393842
 10
154.0228387144
 20
82.86668546
 10
154.015706132
 20
82.8683606364
 10
154.0083266332
 20
82.8701527356
 10
154.0007075302
 20
82.8720609027
 10
153.9928652811
 20
82.8740956548
 10
153.9848034315
 20
82.876249381
 10
153.9765262555
 20
82.8785148263
 10
153.9680517638
 20
82.8809026459
 10
153.9593848168
 20
82.8834043525
 10
153.9505309299
 20
82.8860117598
 10
153.9415095531
 20
82.8887355773
 10
153.932326893
 20
82.8915664654
 10
153.922989763
 20
82.8944953211
 10
153.9135189884
 20
82.8975328014
 10
153.9039221515
 20
82.9006687474
 10
153.8942074286
 20
82.9038931497
 10
153.8843970306
 20
82.9072164591
 10
153.8744999621
 20
82.9106277418
 10
153.8645258197
 20
82.9141160934
 10
153.8544982463
 20
82.91769155
 10
153.8444277263
 20
82.9213424693
 10
153.8343253232
 20
82.9250570702
 10
153.8242161602
 20
82.9288447008
 10
153.8141122673
 20
82.9326931066
 10
153.8040261928
 20
82.9365896718
 10
153.793984517
 20
82.9405427211
 10
153.7840008909
 20
82.9445395182
 10
153.774089303
 20
82.9485667036
 10
153.7642775753
 20
82.9526312196
 10
153.7545810207
 20
82.9567200208
 10
153.745014965
 20
82.9608191584
 10
153.7356080099
 20
82.9649338418
 10
153.7263874775
 20
82.969044579
 10
153.717359257
 20
82.9731439852
 10
153.7085216364
 20
82.9772525627
 10
153.699887656
 20
82.9813648049
 10
153.6914837921
 20
82.9854523017
 10
153.6833307355
 20
82.989498272
  0
LWPOLYLINE
  5
267
100
AcDbEntity
  8
COPY_PUBLISH
100
AcDbPolyline
 62
7
  6
CONTINUOUS
 90
12
 70
0
 10
150.2015605313
 20
81.9105994089
 10
150.2171601391
 20
81.9030248674
 10
150.2719683846
 20
81.8800604623
 10
150.3294188004
 20
81.8616043436
 10
150.3891871022
 20
81.8479745851
 10
150.4508385422
 20
81.8394581005
 10
150.5138709462
 20
81.8362739005
 10
150.5779111665
 20
81.8385643575
 10
150.6424982614
 20
81.8464205929
 10
150.7070940747
 20
81.8598452767
 10
150.7713433418
 20
81.8788054451
 10
150.8276891304
 20
81.9001689859
  0
LINE
  5
268
100
AcDbEntity
  8
COPY_PUBLISH
100
AcDbLine
 62
253
  6
CONTINUOUS
 10
119.3974869772
 20
97.3126353524
 11
119.3870167642
 21
97.3180817103
  0
LWPOLYLINE
  5
269
100
AcDbEntity
  8
COPY_PUBLISH
100
AcDbPolyline
 62
253
  6
CONTINUOUS
 90
23
 70
0
 10
119.3870167642
 20
97.3180817103
 10
119.3698506811
 20
97.327966455
 10
119.3531847515
 20
97.3387868474
 10
119.3370368409
 20
97.3505313079
 10
119.3214237791
 20
97.3631875236
 10
119.3063622587
 20
97.3767420039
 10
119.2918684492
 20
97.3911802602
 10
119.2779575071
 20
97.4064870517
 10
119.2646443301
 20
97.4226460369
 10
119.2519431732
 20
97.4396399963
 10
119.2398672662
 20
97.4574510171
 10
119.228429533
 20
97.4760601182
 10
119.2176422315
 20
97.4954474844
 10
119.2075165781
 20
97.5155926965
 10
119.1980633667
 20
97.5364744179
 10
119.1892927907
 20
97.5580703388
 10
119.1812140743
 20
97.5803574027
 10
119.1738358915
 20
97.6033117151
 10
119.1671660837
 20
97.6269090144
 10
119.1612115134
 20
97.6511246453
 10
119.155978489
 20
97.6759330296
 10
119.1514727243
 20
97.7013076637
 10
119.1476990616
 20
97.7272215912
  0
LWPOLYLINE
  5
26A
100
AcDbEntity
  8
COPY_PUBLISH
100
AcDbPolyline
 62
253
  6
CONTINUOUS
 90
16
 70
0
 10
119.1476990616
 20
97.7272215912
 10
119.0688082803
 20
98.3582371702
 10
118.9946162852
 20
98.9925163206
 10
118.9251288042
 20
99.6300108527
 10
118.8603512844
 20
100.2706722713
 10
118.8002886429
 20
100.9144519735
 10
118.7449452686
 20
101.561301254
 10
118.6943254126
 20
102.211171038
 10
118.6484330068
 20
102.8640119153
 10
118.6072714137
 20
103.5197743384
 10
118.5708437935
 20
104.1784084731
 10
118.5391529736
 20
104.8398643439
 10
118.5122012688
 20
105.5040918686
 10
118.4899907172
 20
106.1710406654
 10
118.472523077
 20
106.8406600547
 10
118.4597996968
 20
107.5128992043
  0
LWPOLYLINE
  5
26B
100
AcDbEntity
  8
COPY_PUBLISH
100
AcDbPolyline
 62
253
  6
CONTINUOUS
 90
34
 70
0
 10
123.0795995186
 20
138.5999695282
 10
123.0797984143
 20
138.6103364495
 10
123.0803946537
 20
138.6208789384
 10
123.0813868952
 20
138.6315732715
 10
123.0827729059
 20
138.6423953841
 10
123.0845495671
 20
138.6533209236
 10
123.0867128807
 20
138.6643253049
 10
123.0892579788
 20
138.6753837655
 10
123.0921791344
 20
138.6864714211
 10
123.0954697739
 20
138.6975633216
 10
123.0991224928
 20
138.7086345076
 10
123.1031290715
 20
138.7196600662
 10
123.1074804942
 20
138.7306151871
 10
123.1121669691
 20
138.7414752185
 10
123.1171779505
 20
138.7522157228
 10
123.1225021624
 20
138.7628125312
 10
123.1281276241
 20
138.7732417981
 10
123.1340416768
 20
138.7834800553
 10
123.1402310126
 20
138.7935042639
 10
123.1466817037
 20
138.8032918672
 10
123.1533792347
 20
138.8128208406
 10
123.1603085344
 20
138.8220697414
 10
123.1674540101
 20
138.8310177575
 10
123.1747995828
 20
138.8396447536
 10
123.1823287231
 20
138.8479313167
 10
123.1900244886
 20
138.8558588001
 10
123.1978695619
 20
138.863409365
 10
123.2058462896
 20
138.8705660207
 10
123.2139367222
 20
138.8773126629
 10
123.2221226541
 20
138.8836341102
 10
123.230385665
 20
138.8895161375
 10
123.2387071611
 20
138.894945509
 10
123.2470684169
 20
138.8999100073
 10
123.2554506176
 20
138.9043984608
  0
LINE
  5
26C
100
AcDbEntity
  8
RACCORDO
100
AcDbLine
 62
7
  6
CONTINUOUS
 10
145.6585555875
 20
135.4237744159
 11
145.0937002272
 21
135.1404629366
  0
LINE
  5
26D
100
AcDbEntity
  8
0
100
AcDbLine
 62
253
  6
CONTINUOUS
 10
137.2394990753
 20
131.9123742319
 11
138.8397502574
 21
132.7143731452
  0
LINE
  5
26E
100
AcDbEntity
  8
0
100
AcDbLine
 62
253
  6
CONTINUOUS
 10
137.4162733474
 20
131.6074837128
 11
139.0165245295
 21
132.4094826261
  0
LINE
  5
26F
100
AcDbEntity
  8
DRAFT
100
AcDbLine
 62
7
  6
CONTINUOUS
 10
144.6219511309
 20
134.3473310635
 11
143.5200195037
 21
133.79636525
  0
LINE
  5
270
100
AcDbEntity
  8
DRAFT
100
AcDbLine
 62
7
  6
CONTINUOUS
 10
139.0026331827
 20
132.4999935179
 11
142.523657119
 21
134.234973268
  0
LINE
  5
271
100
AcDbEntity
  8
DRAFT
100
AcDbLine
 62
7
  6
CONTINUOUS
 10
145.0937002272
 20
135.1404629366
 11
143.514506213
 21
134.3621978536
  0
LWPOLYLINE
  5
272
100
AcDbEntity
  8
RACCORDO
100
AcDbPolyline
 62
253
  6
CONTINUOUS
 90
3
 70
0
 10
142.872306296
 20
133.054011962
 10
142.8806278328
 20
133.0579067875
 10
142.8976657123
 20
133.0659824407
  0
LINE
  5
273
100
AcDbEntity
  8
RACCORDO
100
AcDbLine
 62
253
  6
CONTINUOUS
 10
142.8348473
 20
133.0367121564
 11
142.872306296
 21
133.054011962
  0
LWPOLYLINE
  5
274
100
AcDbEntity
  8
RACCORDO
100
AcDbPolyline
 62
7
  6
CONTINUOUS
 90
6
 70
0
 10
142.6225661681
 20
133.0562398259
 10
142.6241329837
 20
133.056953068
 10
142.6406095633
 20
133.063300249
 10
142.6586730525
 20
133.0680978613
 10
142.6783751083
 20
133.071091026
 10
142.6997436645
 20
133.0720680339
  0
LWPOLYLINE
  5
275
100
AcDbEntity
  8
RACCORDO
100
AcDbPolyline
 62
7
  6
CONTINUOUS
 90
4
 70
0
 10
142.7235240828
 20
133.1020122462
 10
142.7003698488
 20
133.0918482492
 10
142.677707384
 20
133.0816410402
 10
142.6560639347
 20
133.0717080471
  0
LINE
  5
276
100
AcDbEntity
  8
RACCORDO
100
AcDbLine
 62
7
  6
CONTINUOUS
 10
142.74747364
 20
133.1122048657
 11
142.7235240828
 21
133.1020122462
  0
LINE
  5
277
100
AcDbEntity
  8
RACCORDO
100
AcDbLine
 62
253
  6
CONTINUOUS
 10
142.6565039874
 20
133.0719122346
 11
142.6670136575
 21
133.0763803906
  0
LWPOLYLINE
  5
278
100
AcDbEntity
  8
RACCORDO
100
AcDbPolyline
 62
7
  6
CONTINUOUS
 90
8
 70
0
 10
142.9326282917
 20
133.178721168
 10
142.9039557717
 20
133.1698568068
 10
142.8760900429
 20
133.1607441445
 10
142.8489882295
 20
133.1514041224
 10
142.8225176244
 20
133.1418236839
 10
142.7968845974
 20
133.1321129353
 10
142.7720166777
 20
133.1222871977
 10
142.74747364
 20
133.1122048657
  0
LWPOLYLINE
  5
279
100
AcDbEntity
  8
RACCORDO
100
AcDbPolyline
 62
253
  6
CONTINUOUS
 90
7
 70
0
 10
142.6670136575
 20
133.0763803906
 10
142.6978517104
 20
133.0854553197
 10
142.7305325949
 20
133.0894103709
 10
142.7646983533
 20
133.0882022114
 10
142.799974782
 20
133.0818440633
 10
142.8359755289
 20
133.0704055583
 10
142.872306296
 20
133.054011962
  0
LWPOLYLINE
  5
27A
100
AcDbEntity
  8
COPY_PUBLISH
100
AcDbPolyline
 62
253
  6
CONTINUOUS
 90
34
 70
0
 10
152.9726243557
 20
81.6727707466
 10
152.9812045586
 20
81.6686794479
 10
152.9901630819
 20
81.6647961486
 10
152.9994797777
 20
81.6611295838
 10
153.0091336986
 20
81.6576879994
 10
153.0191031263
 20
81.6544791397
 10
153.029365619
 20
81.6515102285
 10
153.0398980879
 20
81.6487879446
 10
153.0506768483
 20
81.6463184092
 10
153.0616776528
 20
81.6441071769
 10
153.0728757594
 20
81.6421592206
 10
153.0842459791
 20
81.6404789213
 10
153.0957627287
 20
81.6390700587
 10
153.107400102
 20
81.6379358007
 10
153.1191319259
 20
81.6370786969
 10
153.130931809
 20
81.6365006739
 10
153.1427732172
 20
81.6362030301
 10
153.1546295108
 20
81.636186434
 10
153.1664740013
 20
81.6364509205
 10
153.178280016
 20
81.6369958898
 10
153.1900210355
 20
81.6378201133
 10
153.2016707296
 20
81.6389217424
 10
153.2132030034
 20
81.640298316
 10
153.2245918081
 20
81.6419467311
 10
153.2358112868
 20
81.6438632384
 10
153.2468360693
 20
81.6460434815
 10
153.2576415248
 20
81.6484825663
 10
153.2682035627
 20
81.6511750463
 10
153.2784999566
 20
81.6541153268
 10
153.2885059373
 20
81.6572964077
 10
153.2981948781
 20
81.6607096081
 10
153.3075440983
 20
81.6643464187
 10
153.316534475
 20
81.6681988627
 10
153.3251463154
 20
81.6722580227
  0
LWPOLYLINE
  5
27B
100
AcDbEntity
  8
COPY_PUBLISH
100
AcDbPolyline
 62
253
  6
CONTINUOUS
 90
34
 70
0
 10
152.9726243557
 20
82.0127446807
 10
152.9812010085
 20
82.0086549963
 10
152.9901563163
 20
82.0047728778
 10
152.9994702287
 20
82.0011070961
 10
153.0091221127
 20
81.9976658603
 10
153.0190901206
 20
81.9944570454
 10
153.0293511655
 20
81.9914881186
 10
153.0398819139
 20
81.9887658194
 10
153.0506589318
 20
81.9862961942
 10
153.0616580098
 20
81.9840847918
 10
153.0728544353
 20
81.9821365835
 10
153.0842230139
 20
81.9804559557
 10
153.0957381498
 20
81.9790466931
 10
153.1073739355
 20
81.9779119653
 10
153.1191042188
 20
81.9770543215
 10
153.1309026289
 20
81.9764756897
 10
153.1427426367
 20
81.9761773707
 10
153.1545976163
 20
81.9761600356
 10
153.1664409118
 20
81.9764237232
 10
153.1782458921
 20
81.9769678409
 10
153.1899860111
 20
81.977791165
 10
153.2016348692
 20
81.9788918444
 10
153.2131662704
 20
81.9802674038
 10
153.2245542859
 20
81.9819147503
 10
153.2357733126
 20
81.9838301806
 10
153.2467981324
 20
81.9860093899
 10
153.2576039432
 20
81.9884474768
 10
153.2681664211
 20
81.9911389525
 10
153.2784618018
 20
81.9940777592
 10
153.288466951
 20
81.9972572908
 10
153.2981593895
 20
82.0006704026
 10
153.307517328
 20
82.0043094221
 10
153.3165197177
 20
82.0081661643
 10
153.3251463154
 20
82.0122319569
  0
LINE
  5
27C
100
AcDbEntity
  8
COPY_PUBLISH
100
AcDbLine
 62
7
  6
CONTINUOUS
 10
150.2021068336
 20
81.9103254241
 11
119.397482381
 21
97.3126376504
  0
LINE
  5
27D
100
AcDbEntity
  8
COPY_PUBLISH
100
AcDbLine
 62
253
  6
CONTINUOUS
 10
149.9479157572
 20
82.3271132434
 11
119.1476990616
 21
97.7272215912
  0
LINE
  5
27E
100
AcDbEntity
  8
COPY_PUBLISH
100
AcDbLine
 62
7
  6
CONTINUOUS
 10
151.6347891964
 20
82.2389565244
 11
153.0375976522
 21
81.5375522965
  0
LINE
  5
27F
100
AcDbEntity
  8
COPY_PUBLISH
100
AcDbLine
 62
253
  6
CONTINUOUS
 10
151.7464834112
 20
82.2858412189
 11
152.9726243557
 21
81.6727707466
  0
LINE
  5
280
100
AcDbEntity
  8
COPY_PUBLISH
100
AcDbLine
 62
253
  6
CONTINUOUS
 10
152.9726243557
 20
82.0127446807
 11
152.1161169708
 21
82.4409983732
  0
LINE
  5
281
100
AcDbEntity
  8
COPY_PUBLISH
100
AcDbLine
 62
253
  6
CONTINUOUS
 10
153.0610127034
 20
82.2444388545
 11
152.4160740609
 21
82.5669081758
  0
LINE
  5
282
100
AcDbEntity
  8
COPY_PUBLISH
100
AcDbLine
 62
253
  6
CONTINUOUS
 10
153.0374377942
 20
81.5376324161
 11
153.0375976634
 21
81.5375522909
  0
LINE
  5
283
100
AcDbEntity
  8
COPY_PUBLISH
100
AcDbLine
 62
7
  6
CONTINUOUS
 10
123.0083212105
 20
138.3161253955
 11
123.0063762199
 21
138.347276828
  0
LWPOLYLINE
  5
284
100
AcDbEntity
  8
COPY_PUBLISH
100
AcDbPolyline
 62
253
  6
CONTINUOUS
 90
20
 70
0
 10
123.0795995186
 20
138.2588612386
 10
123.0797678145
 20
138.2495002893
 10
123.0802723816
 20
138.2403254593
 10
123.0811122592
 20
138.231354218
 10
123.0822858447
 20
138.2226036702
 10
123.0837909053
 20
138.2140904531
 10
123.0856245913
 20
138.2058307109
 10
123.0877834349
 20
138.1978401236
 10
123.090263322
 20
138.1901339701
 10
123.0930595014
 20
138.1827270212
 10
123.0961666235
 20
138.1756334219
 10
123.0995787851
 20
138.1688666258
 10
123.1032895126
 20
138.1624394687
 10
123.1072917728
 20
138.1563641488
 10
123.1115779215
 20
138.1506522849
 10
123.1161397307
 20
138.1453148315
 10
123.1209684603
 20
138.1403619806
 10
123.1260549465
 20
138.1358030992
 10
123.131389562
 20
138.1316468052
 10
123.1369430934
 20
138.1279138558
  0
LINE
  5
285
100
AcDbEntity
  8
COPY_PUBLISH
100
AcDbLine
 62
7
  6
CONTINUOUS
 10
123.0063762139
 20
138.6883578759
 11
123.0063762139
 21
138.3472495863
  0
LINE
  5
286
100
AcDbEntity
  8
COPY_PUBLISH
100
AcDbLine
 62
253
  6
CONTINUOUS
 10
123.0795995186
 20
138.5999695282
 11
123.0795995186
 21
138.2588612386
  0
LINE
  5
287
100
AcDbEntity
  8
COPY_PUBLISH
100
AcDbLine
 62
7
  6
CONTINUOUS
 10
123.7097805588
 20
137.8410389167
 11
123.7097805588
 21
137.3870851934
  0
LINE
  5
288
100
AcDbEntity
  8
COPY_PUBLISH
100
AcDbLine
 62
253
  6
CONTINUOUS
 10
123.7830038635
 20
137.8044272643
 11
123.7830038635
 21
137.2953531201
  0
LINE
  5
289
100
AcDbEntity
  8
COPY_PUBLISH
100
AcDbLine
 62
253
  6
CONTINUOUS
 10
124.7599899837
 20
137.4186660061
 11
124.7599899837
 21
137.7597742957
  0
LINE
  5
28A
100
AcDbEntity
  8
COPY_PUBLISH
100
AcDbLine
 62
253
  6
CONTINUOUS
 10
125.1126153547
 20
137.4182044195
 11
125.1126153547
 21
137.7593127091
  0
LWPOLYLINE
  5
28B
100
AcDbEntity
  8
COPY_PUBLISH
100
AcDbPolyline
 62
253
  6
CONTINUOUS
 90
34
 70
0
 10
124.7599899837
 20
137.7597742957
 10
124.7601889343
 20
137.7701426607
 10
124.7607853393
 20
137.7806866541
 10
124.7617778582
 20
137.7913825434
 10
124.7631642595
 20
137.8022062609
 10
124.764941424
 20
137.8131334374
 10
124.7671053485
 20
137.8241394562
 10
124.7696511605
 20
137.8351995381
 10
124.77257313
 20
137.8462887936
 10
124.7758646785
 20
137.8573822588
 10
124.7795183969
 20
137.8684549653
 10
124.7835260598
 20
137.8794819879
 10
124.7878786422
 20
137.8904384979
 10
124.7925663447
 20
137.9012998322
 10
124.7975786149
 20
137.9120415456
 10
124.8029041678
 20
137.9226394572
 10
124.8085310176
 20
137.933069719
 10
124.814446495
 20
137.9433088495
 10
124.8206372718
 20
137.953333785
 10
124.8270893925
 20
137.9631219366
 10
124.8337883488
 20
137.9726513043
 10
124.8407191063
 20
137.9819005022
 10
124.8478661351
 20
137.9908487921
 10
124.8552132864
 20
137.9994759422
 10
124.8627438606
 20
138.0077623567
 10
124.870440794
 20
138.0156893006
 10
124.8782868546
 20
138.0232390672
 10
124.8862645275
 20
138.0303948176
 10
124.8943570826
 20
138.0371414296
 10
124.9025451119
 20
138.0434626093
 10
124.9108065964
 20
138.0493416811
 10
124.9191216635
 20
138.0547652505
 10
124.927472754
 20
138.0597226059
 10
124.9358410826
 20
138.0642032283
  0
LWPOLYLINE
  5
28C
100
AcDbEntity
  8
COPY_PUBLISH
100
AcDbPolyline
 62
253
  6
CONTINUOUS
 90
17
 70
0
 10
127.3132771427
 20
138.5624841666
 10
127.3127487897
 20
138.5565621846
 10
127.3116595177
 20
138.5506594076
 10
127.3100117796
 20
138.5447891015
 10
127.3078092795
 20
138.5389644554
 10
127.3050569478
 20
138.5331985258
 10
127.3017609889
 20
138.5275043234
 10
127.2979288974
 20
138.5218947659
 10
127.2935693854
 20
138.5163825365
 10
127.2886922397
 20
138.5109799482
 10
127.2833083444
 20
138.5056990373
 10
127.2774293094
 20
138.5005512668
 10
127.2710687726
 20
138.4955486475
 10
127.2642426129
 20
138.490703493
 10
127.2569670404
 20
138.4860269283
 10
127.2492582068
 20
138.4815289785
 10
127.2411337086
 20
138.4772196218
  0
LWPOLYLINE
  5
28D
100
AcDbEntity
  8
COPY_PUBLISH
100
AcDbPolyline
 62
7
  6
CONTINUOUS
 90
12
 70
0
 10
139.0531712322
 20
130.954286748
 10
139.0322837527
 20
130.9422759011
 10
139.0113186711
 20
130.9272559388
 10
138.9919739867
 20
130.9101181242
 10
138.9744366097
 20
130.8909956665
 10
138.9589122078
 20
130.8700629489
 10
138.945605534
 20
130.8475402081
 10
138.9346863465
 20
130.8236518324
 10
138.926302484
 20
130.798637148
 10
138.920584685
 20
130.7727776946
 10
138.9176304864
 20
130.7463888512
 10
138.9172050052
 20
130.73185555
  0
LINE
  5
28E
100
AcDbEntity
  8
COPY_PUBLISH
100
AcDbLine
 62
7
  6
CONTINUOUS
 10
138.9183108457
 20
130.7524662678
 11
138.1270825648
 21
130.310452075
  0
LINE
  5
28F
100
AcDbEntity
  8
COPY_PUBLISH
100
AcDbLine
 62
7
  6
CONTINUOUS
 10
139.0530908825
 20
130.9542455759
 11
140.6362531754
 21
131.7664377997
  0
LINE
  5
290
100
AcDbEntity
  8
0
100
AcDbLine
 62
253
  6
CONTINUOUS
 10
139.1661765487
 20
130.9477976007
 11
140.7489331518
 21
131.7597816981
  0
LINE
  5
291
100
AcDbEntity
  8
COPY_PUBLISH
100
AcDbLine
 62
253
  6
CONTINUOUS
 10
139.0530908928
 20
130.9542455811
 11
139.0531712322
 21
130.954286748
  0
LINE
  5
292
100
AcDbEntity
  8
0
100
AcDbLine
 62
253
  6
CONTINUOUS
 10
140.8447146191
 20
130.1085285655
 11
142.4459954099
 21
130.911250569
  0
LINE
  5
293
100
AcDbEntity
  8
0
100
AcDbLine
 62
253
  6
CONTINUOUS
 10
141.0214883227
 20
129.8036390267
 11
142.6227691136
 21
130.6063610302
  0
LWPOLYLINE
  5
294
100
AcDbEntity
  8
COPY_PUBLISH
100
AcDbPolyline
 62
253
  6
CONTINUOUS
 90
16
 70
0
 10
139.0531712322
 20
130.954286748
 10
139.0565058365
 20
130.9559111791
 10
139.0632524886
 20
130.9587226945
 10
139.0702346913
 20
130.9610200861
 10
139.0774366946
 20
130.9627981583
 10
139.0848421179
 20
130.9640528541
 10
139.0924340193
 20
130.9647813162
 10
139.1001950827
 20
130.9649819241
 10
139.1081078159
 20
130.964654266
 10
139.1161544358
 20
130.9637990927
 10
139.1243179387
 20
130.9624180962
 10
139.132578633
 20
130.9605144943
 10
139.1409142056
 20
130.9580937505
 10
139.1493044892
 20
130.9551624649
 10
139.1577316312
 20
130.9517276127
 10
139.1661765487
 20
130.9477976007
  0
LINE
  5
295
100
AcDbEntity
  8
RACCORDO
100
AcDbLine
 62
253
  6
CONTINUOUS
 10
142.8976657123
 20
133.0659824407
 11
142.9428299313
 21
133.0877902221
  0
LWPOLYLINE
  5
296
100
AcDbEntity
  8
RACCORDO
100
AcDbPolyline
 62
253
  6
CONTINUOUS
 90
61
 70
0
 10
142.9428299313
 20
133.0877902221
 10
142.962385261
 20
133.0970491168
 10
142.9725342779
 20
133.1017768568
 10
142.9829833086
 20
133.1065485693
 10
142.9937318678
 20
133.1113646255
 10
143.0047804407
 20
133.1162246541
 10
143.0161831913
 20
133.1211063551
 10
143.0279418016
 20
133.1260111874
 10
143.0400545896
 20
133.1309376922
 10
143.0525706733
 20
133.1358591925
 10
143.0654947906
 20
133.1407781581
 10
143.0788222036
 20
133.1456921193
 10
143.0925878162
 20
133.15056699
 10
143.1067948303
 20
133.1554043288
 10
143.1214400441
 20
133.160202577
 10
143.1365487566
 20
133.164922972
 10
143.1521239228
 20
133.1695669254
 10
143.1681625878
 20
133.1741330256
 10
143.1846811862
 20
133.1785782752
 10
143.2016964556
 20
133.1829065908
 10
143.2191916585
 20
133.1871140557
 10
143.2371330166
 20
133.191145923
 10
143.255579851
 20
133.1950086412
 10
143.2744728405
 20
133.1986957616
 10
143.293600243
 20
133.2021331918
 10
143.3129696959
 20
133.2053106394
 10
143.3325735617
 20
133.2082383967
 10
143.3521771866
 20
133.2108732485
 10
143.3717648361
 20
133.2132031711
 10
143.3913522447
 20
133.2152401882
 10
143.410751962
 20
133.2169771551
 10
143.4299401465
 20
133.2184060233
 10
143.4489406397
 20
133.2195348415
 10
143.4676375154
 20
133.2203806112
 10
143.4860061349
 20
133.2209404279
 10
143.5040711369
 20
133.2212171961
 10
143.5217905105
 20
133.2212366312
 10
143.5391659545
 20
133.2209982822
 10
143.5561957702
 20
133.2205026
 10
143.5728328509
 20
133.2197766521
 10
143.5890753344
 20
133.2188194648
 10
143.604925083
 20
133.2176320119
 10
143.6203405771
 20
133.2162442818
 10
143.6353088166
 20
133.2146571324
 10
143.6498428016
 20
133.2128697058
 10
143.6639400123
 20
133.2109094173
 10
143.6775942536
 20
133.2087780267
 10
143.6908117206
 20
133.206473774
 10
143.7036084793
 20
133.204018795
 10
143.7159811056
 20
133.2014152707
 10
143.7279330237
 20
133.1986610201
 10
143.739490572
 20
133.1957716352
 10
143.7506531863
 20
133.1927492312
 10
143.7614214308
 20
133.189591693
 10
143.771823337
 20
133.1863082662
 10
143.7818600114
 20
133.182900731
 10
143.7915303474
 20
133.1793673073
 10
143.800859057
 20
133.1757119009
 10
143.8098543774
 20
133.1719358138
 10
143.8185080715
 20
133.1680377441
 10
143.8268201391
 20
133.1640176917
  0
LINE
  5
297
100
AcDbEntity
  8
COPY_PUBLISH
100
AcDbLine
 62
7
  6
CONTINUOUS
 10
149.9720942045
 20
132.0136263919
 11
149.9829431774
 21
132.0173268107
  0
LWPOLYLINE
  5
298
100
AcDbEntity
  8
COPY_PUBLISH
100
AcDbPolyline
 62
253
  6
CONTINUOUS
 90
5
 70
0
 10
155.3885835799
 20
83.3823705113
 10
155.3844899015
 20
83.3842887873
 10
155.3782731366
 20
83.3867619087
 10
155.3718658741
 20
83.3888007874
 10
155.3652804826
 20
83.3904020038
  0
LINE
  5
299
100
AcDbEntity
  8
COPY_PUBLISH
100
AcDbLine
 62
253
  6
CONTINUOUS
 10
155.3886942551
 20
83.3823152671
 11
155.3885835799
 21
83.3823705113
  0
LINE
  5
29A
100
AcDbEntity
  8
COPY_PUBLISH
100
AcDbLine
 62
7
  6
CONTINUOUS
 10
153.6838449638
 20
82.9892411579
 11
153.564437921
 21
83.0489446793
  0
LINE
  5
29B
100
AcDbEntity
  8
COPY_PUBLISH
100
AcDbLine
 62
253
  6
CONTINUOUS
 10
154.9264271062
 20
83.609828692
 11
155.3652804826
 21
83.3904020038
  0
LINE
  5
29C
100
AcDbEntity
  8
COPY_PUBLISH
100
AcDbLine
 62
7
  6
CONTINUOUS
 10
154.9264271062
 20
83.6134488415
 11
155.3886955338
 21
83.3823146277
  0
LINE
  5
29D
100
AcDbEntity
  8
COPY_PUBLISH
100
AcDbLine
 62
253
  6
CONTINUOUS
 10
155.373613075
 20
83.3859351055
 11
155.3652804826
 21
83.3904020038
  0
LINE
  5
29E
100
AcDbEntity
  8
COPY_PUBLISH
100
AcDbLine
 62
7
  6
CONTINUOUS
 10
155.3885835799
 20
83.3823705113
 11
155.408838418
 21
83.371051209
  0
LWPOLYLINE
  5
29F
100
AcDbEntity
  8
COPY_PUBLISH
100
AcDbPolyline
 62
253
  6
CONTINUOUS
 90
3
 70
0
 10
123.007055315
 20
138.3380423971
 10
123.006462533
 20
138.3439650738
 10
123.0063762139
 20
138.3472495938
  0
LWPOLYLINE
  5
2A0
100
AcDbEntity
  8
COPY_PUBLISH
100
AcDbPolyline
 62
253
  6
CONTINUOUS
 90
22
 70
0
 10
124.7599899837
 20
137.4186660061
 10
124.7601578151
 20
137.4093178612
 10
124.7606612196
 20
137.4001522015
 10
124.7614995839
 20
137.3911866419
 10
124.7626718082
 20
137.3824374636
 10
124.7641759255
 20
137.3739225842
 10
124.7660087276
 20
137.3656612454
 10
124.7681664513
 20
137.3576701035
 10
124.7706451843
 20
137.3499633863
 10
124.7734402408
 20
137.3425556842
 10
124.7765463371
 20
137.3354610529
 10
124.779957547
 20
137.3286930762
 10
124.7836673313
 20
137.3222647399
 10
124.7876685946
 20
137.316188323
 10
124.7919537407
 20
137.310475346
 10
124.7965146412
 20
137.3051366476
 10
124.8013426479
 20
137.3001823666
 10
124.8064285419
 20
137.2956219781
 10
124.8117625731
 20
137.2914642207
 10
124.8173345391
 20
137.287717026
 10
124.8231338611
 20
137.284387488
 10
124.8249632894
 20
137.2834475514
  0
LINE
  5
2A1
100
AcDbEntity
  8
COPY_PUBLISH
100
AcDbLine
 62
253
  6
CONTINUOUS
 10
125.4707992012
 20
136.4514554513
 11
125.4707992012
 21
137.1402548896
  0
LINE
  5
2A2
100
AcDbEntity
  8
COPY_PUBLISH
100
AcDbLine
 62
253
  6
CONTINUOUS
 10
125.8234245722
 20
136.4622810713
 11
125.8234245722
 21
137.269906592
  0
LINE
  5
2A3
100
AcDbEntity
  8
COPY_PUBLISH
100
AcDbLine
 62
7
  6
CONTINUOUS
 10
126.7128665369
 20
136.9591616576
 11
126.7128665369
 21
138.5613123186
  0
LINE
  5
2A4
100
AcDbEntity
  8
COPY_PUBLISH
100
AcDbLine
 62
253
  6
CONTINUOUS
 10
127.2411337086
 20
138.8247511386
 11
127.2411337086
 21
138.4772196218
  0
LINE
  5
2A5
100
AcDbEntity
  8
COPY_PUBLISH
100
AcDbLine
 62
7
  6
CONTINUOUS
 10
127.3133315656
 20
138.9126237708
 11
127.3133315656
 21
138.565092254
  0
LINE
  5
2A6
100
AcDbEntity
  8
COPY_PUBLISH
100
AcDbLine
 62
7
  6
CONTINUOUS
 10
127.6376590068
 20
136.8149440871
 11
127.6376590068
 21
135.3680255485
  0
LINE
  5
2A7
100
AcDbEntity
  8
COPY_PUBLISH
100
AcDbLine
 62
253
  6
CONTINUOUS
 10
127.3133315656
 20
138.9126237884
 11
127.3133315271
 21
138.9125544062
  0
LINE
  5
2A8
100
AcDbEntity
  8
COPY_PUBLISH
100
AcDbLine
 62
253
  6
CONTINUOUS
 10
127.3133315656
 20
138.5650922465
 11
127.3132771427
 21
138.5624841666
  0
LWPOLYLINE
  5
2A9
100
AcDbEntity
  8
COPY_PUBLISH
100
AcDbPolyline
 62
253
  6
CONTINUOUS
 90
18
 70
0
 10
127.3133315271
 20
138.9125544062
 10
127.3132780041
 20
138.9100364026
 10
127.3127515767
 20
138.9041140985
 10
127.3116641644
 20
138.8982109258
 10
127.3100182097
 20
138.892340159
 10
127.3078174124
 20
138.8865150045
 10
127.3050667196
 20
138.8807485636
 10
127.3017723158
 20
138.8750538071
 10
127.2979416113
 20
138.8694435482
 10
127.2935832217
 20
138.8639304065
 10
127.288706948
 20
138.8585267815
 10
127.2833237586
 20
138.8532448287
 10
127.2774457574
 20
138.848096426
 10
127.2710861673
 20
138.8430931561
 10
127.2642593044
 20
138.8382462813
 10
127.2569805304
 20
138.8335667052
 10
127.2492662142
 20
138.8290649495
 10
127.2411337086
 20
138.8247511386
  0
LINE
  5
2AA
100
AcDbEntity
  8
COPY_PUBLISH
100
AcDbLine
 62
7
  6
CONTINUOUS
 10
127.3120041052
 20
138.5393635143
 11
127.3133315641
 21
138.5651060586
  0
LWPOLYLINE
  5
2AB
100
AcDbEntity
  8
COPY_PUBLISH
100
AcDbPolyline
 62
7
  6
CONTINUOUS
 90
25
 70
0
 10
134.9860158768
 20
133.2833601796
 10
134.991593867
 20
133.2953870483
 10
134.996700963
 20
133.3078515881
 10
135.0013371648
 20
133.3207537989
 10
135.0055076251
 20
133.3341131056
 10
135.0092071912
 20
133.3479100834
 10
135.0124204048
 20
133.3620864575
 10
135.0151452298
 20
133.3766438071
 10
135.0173837023
 20
133.3915805531
 10
135.0191264722
 20
133.4068336836
 10
135.0203714658
 20
133.4224045177
 10
135.0211207568
 20
133.4382917363
 10
135.0213712158
 20
133.4544283709
 10
135.0211207568
 20
133.4708154646
 10
135.0203714658
 20
133.4874519743
 10
135.0191264722
 20
133.5042678019
 10
135.0173837023
 20
133.5212637023
 10
135.0151452298
 20
133.5384389208
 10
135.0124204048
 20
133.5557210954
 10
135.0092071912
 20
133.5731106831
 10
135.0055076251
 20
133.590607227
 10
135.0013371648
 20
133.6081369941
 10
134.996700963
 20
133.6256754067
 10
134.991593867
 20
133.6432470424
 10
134.9860158768
 20
133.6608519014
  0
LWPOLYLINE
  5
2AC
100
AcDbEntity
  8
COPY_PUBLISH
100
AcDbPolyline
 62
7
  6
CONTINUOUS
 90
31
 70
0
 10
140.2584630338
 20
135.8868941276
 10
140.2667758334
 20
135.8975874323
 10
140.2745551599
 20
135.9089023552
 10
140.2818010135
 20
135.9208388963
 10
140.2885240038
 20
135.9334196867
 10
140.2947135211
 20
135.9466220952
 10
140.3003377363
 20
135.960378229
 10
140.3053937373
 20
135.9746909403
 10
140.3098844362
 20
135.9895573768
 10
140.3137867399
 20
136.0049010883
 10
140.3170976174
 20
136.0207245334
 10
140.3198200996
 20
136.0370252536
 10
140.3219401865
 20
136.0537194229
 10
140.3234547749
 20
136.0708090682
 10
140.324366968
 20
136.0882921627
 10
140.3246720747
 20
136.1060788004
 10
140.324366968
 20
136.1241705448
 10
140.3234547749
 20
136.1425658324
 10
140.3219401865
 20
136.1611700661
 10
140.3198200996
 20
136.1799843223
 10
140.3170976174
 20
136.1990075247
 10
140.3137867399
 20
136.2181418473
 10
140.3098844362
 20
136.2373878625
 10
140.3053937373
 20
136.2567449979
 10
140.3003377363
 20
136.2761137102
 10
140.2947135211
 20
136.2954940592
 10
140.2885240038
 20
136.3148859851
 10
140.2818010135
 20
136.3341897657
 10
140.2745551599
 20
136.3533721604
 10
140.2667758334
 20
136.3724664099
 10
140.2584630338
 20
136.3914725141
  0
LINE
  5
2AD
100
AcDbEntity
  8
RACCORDO
100
AcDbLine
 62
7
  6
CONTINUOUS
 10
140.9923985416
 20
131.6380490032
 11
142.5846187524
 21
133.031550645
  0
LINE
  5
2AE
100
AcDbEntity
  8
RACCORDO
100
AcDbLine
 62
253
  6
CONTINUOUS
 10
141.1463010964
 20
131.5610977258
 11
142.8332539639
 21
133.0375088244
  0
LWPOLYLINE
  5
2AF
100
AcDbEntity
  8
RACCORDO
100
AcDbPolyline
 62
7
  6
CONTINUOUS
 90
4
 70
0
 10
142.584584799
 20
133.0315209066
 10
142.5957002346
 20
133.0404246542
 10
142.6092019357
 20
133.0492705632
 10
142.6225661681
 20
133.0562398259
  0
LINE
  5
2B0
100
AcDbEntity
  8
COPY_PUBLISH
100
AcDbLine
 62
7
  6
CONTINUOUS
 10
142.6227691136
 20
129.0042103692
 11
141.7327089308
 21
128.507529448
  0
LWPOLYLINE
  5
2B1
100
AcDbEntity
  8
DRAFT
100
AcDbPolyline
 62
7
  6
CONTINUOUS
 90
19
 70
0
 10
147.5018064445
 20
131.7458986053
 10
147.5329456072
 20
131.7618916215
 10
147.5625444356
 20
131.7784795196
 10
147.5906029297
 20
131.7956622996
 10
147.6171842954
 20
131.8134708654
 10
147.6422253268
 20
131.8318743131
 10
147.6655364061
 20
131.8507799308
 10
147.6871003232
 20
131.8701973947
 10
147.7069342881
 20
131.8901170286
 10
147.7249003133
 20
131.9104170915
 10
147.7409733026
 20
131.9311018888
 10
147.7551783522
 20
131.9521671153
 10
147.7674527627
 20
131.9734781143
 10
147.7777713643
 20
131.9950314615
 10
147.786159327
 20
132.0168305813
 10
147.7926294615
 20
132.0387510906
 10
147.7971745538
 20
132.0607910217
 10
147.799801818
 20
132.0829523422
 10
147.800554061
 20
132.1021511459
  0
LINE
  5
2B2
100
AcDbEntity
  8
COPY_PUBLISH
100
AcDbLine
 62
7
  6
CONTINUOUS
 10
144.6026681009
 20
129.3999015216
 11
143.5481786695
 21
128.8589284829
  0
LINE
  5
2B3
100
AcDbEntity
  8
COPY_PUBLISH
100
AcDbLine
 62
7
  6
CONTINUOUS
 10
144.2075885438
 20
128.5292235458
 11
145.0626917426
 21
128.955417536
  0
LINE
  5
2B4
100
AcDbEntity
  8
DRAFT
100
AcDbLine
 62
7
  6
CONTINUOUS
 10
149.3442261554
 20
133.0151999725
 11
147.7651924889
 21
132.2368547156
  0
LINE
  5
2B5
100
AcDbEntity
  8
DRAFT
100
AcDbLine
 62
7
  6
CONTINUOUS
 10
147.5018064445
 20
131.7458986053
 11
142.9868126744
 21
129.52000361
  0
LINE
  5
2B6
100
AcDbEntity
  8
COPY_PUBLISH
100
AcDbLine
 62
7
  6
CONTINUOUS
 10
145.9427204757
 20
129.4178868848
 11
150.5553633316
 21
131.6911090747
  0
LINE
  5
2B7
100
AcDbEntity
  8
RACCORDO
100
AcDbLine
 62
7
  6
CONTINUOUS
 10
158.6798032752
 20
136.2656939706
 11
158.3175965357
 21
136.0887253195
  0
LINE
  5
2B8
100
AcDbEntity
  8
COPY_PUBLISH
100
AcDbLine
 62
7
  6
CONTINUOUS
 10
149.9388915068
 20
131.9993449871
 11
144.6026681009
 21
129.3999015216
  0
LINE
  5
2B9
100
AcDbEntity
  8
0
100
AcDbLine
 62
7
  6
CONTINUOUS
 10
154.7607583525
 20
133.6959473824
 11
158.9908634634
 21
135.7520918557
  0
LINE
  5
2BA
100
AcDbEntity
  8
RACCORDO
100
AcDbLine
 62
7
  6
CONTINUOUS
 10
149.9189691596
 20
133.2935676299
 11
149.3442261554
 21
133.0151999725
  0
LINE
  5
2BB
100
AcDbEntity
  8
0
100
AcDbLine
 62
7
  6
CONTINUOUS
 10
153.8878349115
 20
133.0186067256
 11
152.3665695488
 21
132.3176769188
  0
LINE
  5
2BC
100
AcDbEntity
  8
RACCORDO
100
AcDbLine
 62
253
  6
CONTINUOUS
 10
155.0366102508
 20
132.6255541675
 11
155.1417540127
 21
132.6581501297
  0
LWPOLYLINE
  5
2BD
100
AcDbEntity
  8
COPY_PUBLISH
100
AcDbPolyline
 62
7
  6
CONTINUOUS
 90
3
 70
0
 10
155.408838418
 20
83.371051209
 10
155.4311765018
 20
83.3554209238
 10
155.4518153762
 20
83.3373187469
  0
LINE
  5
2BE
100
AcDbEntity
  8
RACCORDO
100
AcDbLine
 62
253
  6
CONTINUOUS
 10
129.6422703996
 20
101.2709612745
 11
129.5104698176
 21
101.5993014093
  0
LINE
  5
2BF
100
AcDbEntity
  8
RACCORDO
100
AcDbLine
 62
253
  6
CONTINUOUS
 10
129.8309043511
 20
101.5548377579
 11
129.6954534167
 21
101.8930376219
  0
LINE
  5
2C0
100
AcDbEntity
  8
RACCORDO
100
AcDbLine
 62
253
  6
CONTINUOUS
 10
129.5104698176
 20
101.5993014093
 11
129.3749286545
 21
101.9393477869
  0
LINE
  5
2C1
100
AcDbEntity
  8
RACCORDO
100
AcDbLine
 62
253
  6
CONTINUOUS
 10
129.6954534167
 20
101.8930376219
 11
129.5801891242
 21
102.1827563388
  0
LWPOLYLINE
  5
2C2
100
AcDbEntity
  8
RACCORDO
100
AcDbPolyline
 62
253
  6
CONTINUOUS
 90
10
 70
0
 10
129.3749286545
 20
101.9393477869
 10
129.0294308211
 20
102.811678935
 10
128.7455285068
 20
103.5306502944
 10
128.4658263355
 20
104.2409206041
 10
128.192792443
 20
104.9361213035
 10
127.9239000547
 20
105.6225885659
 10
127.651682098
 20
106.3193914707
 10
127.3736890854
 20
107.0329060564
 10
127.0924345025
 20
107.756787142
 10
126.8079454502
 20
108.491047495
  0
LWPOLYLINE
  5
2C3
100
AcDbEntity
  8
RACCORDO
100
AcDbPolyline
 62
253
  6
CONTINUOUS
 90
10
 70
0
 10
129.5801891242
 20
102.1827563388
 10
129.2998032828
 20
102.8907388185
 10
129.0235513023
 20
103.590015625
 10
128.7514331825
 20
104.2805867584
 10
128.4857949491
 20
104.9564671084
 10
128.2242905766
 20
105.6236417853
 10
127.9598819881
 20
106.3000661197
 10
127.6902231583
 20
106.9917252219
 10
127.4176601126
 20
107.6926339817
 10
127.142192851
 20
108.402792399
  0
LINE
  5
2C4
100
AcDbEntity
  8
0
100
AcDbLine
 62
7
  6
CONTINUOUS
 10
130.0469763388
 20
137.3798157955
 11
130.0470765002
 21
137.3657088726
  0
LINE
  5
2C5
100
AcDbEntity
  8
COPY_PUBLISH
100
AcDbLine
 62
7
  6
CONTINUOUS
 10
128.2976859672
 20
135.0380120683
 11
128.2976859672
 21
136.4849306069
  0
LINE
  5
2C6
100
AcDbEntity
  8
COPY_PUBLISH
100
AcDbLine
 62
7
  6
CONTINUOUS
 10
129.0109635757
 20
136.6676325766
 11
129.0109635757
 21
135.4338665135
  0
LINE
  5
2C7
100
AcDbEntity
  8
DRAFT
100
AcDbLine
 62
7
  6
CONTINUOUS
 10
130.0499220408
 20
103.8659319484
 11
130.0536235508
 21
104.2512077161
  0
LWPOLYLINE
  5
2C8
100
AcDbEntity
  8
COPY_PUBLISH
100
AcDbPolyline
 62
253
  6
CONTINUOUS
 90
34
 70
0
 10
130.6354525391
 20
135.8553880949
 10
130.6356116557
 20
135.863681632
 10
130.6360886472
 20
135.872115623
 10
130.6368824404
 20
135.8806710895
 10
130.637991249
 20
135.8893287796
 10
130.6394125779
 20
135.8980692112
 10
130.6411432288
 20
135.9068727163
 10
130.6431793073
 20
135.9157194848
 10
130.6455162317
 20
135.9245896092
 10
130.6481487434
 20
135.9334631296
 10
130.6510709185
 20
135.9423200784
 10
130.6542761814
 20
135.9511405253
 10
130.6577573196
 20
135.959904622
 10
130.6615064995
 20
135.9685926472
 10
130.6655152846
 20
135.9771850506
 10
130.6697746541
 20
135.9856624973
 10
130.6742750235
 20
135.9940059109
 10
130.6790062657
 20
136.0021965166
 10
130.6839577343
 20
136.0102158835
 10
130.6891182872
 20
136.0180459661
 10
130.694476312
 20
136.0256691448
 10
130.7000197517
 20
136.0330682655
 10
130.7057361323
 20
136.0402266784
 10
130.7116125905
 20
136.0471282752
 10
130.7176359027
 20
136.0537575257
 10
130.7237925151
 20
136.0600995124
 10
130.7300685737
 20
136.0661399643
 10
130.7364499559
 20
136.0718652889
 10
130.742922302
 20
136.0772626027
 10
130.7494710475
 20
136.0823197605
 10
130.7560814562
 20
136.0870253824
 10
130.7627386531
 20
136.0913688796
 10
130.7694276577
 20
136.0953404781
 10
130.7761334183
 20
136.098931241
  0
LWPOLYLINE
  5
2C9
100
AcDbEntity
  8
COPY_PUBLISH
100
AcDbPolyline
 62
253
  6
CONTINUOUS
 90
30
 70
0
 10
137.4162733474
 20
131.2663754232
 10
137.4118542678
 20
131.2554806442
 10
137.4070481381
 20
131.2448110667
 10
137.4018658096
 20
131.2343907802
 10
137.3963189829
 20
131.2242433113
 10
137.3904201813
 20
131.2143915709
 10
137.3841827231
 20
131.204857802
 10
137.3776206911
 20
131.1956635296
 10
137.3707489009
 20
131.1868295125
 10
137.3635828675
 20
131.1783756959
 10
137.3561387702
 20
131.1703211665
 10
137.3484334162
 20
131.1626841099
 10
137.3404842023
 20
131.1554817687
 10
137.3323090762
 20
131.1487304043
 10
137.3239264954
 20
131.1424452597
 10
137.3153553861
 20
131.1366405253
 10
137.3066150998
 20
131.1313293071
 10
137.2977253702
 20
131.1265235965
 10
137.2887062683
 20
131.1222342438
 10
137.2795781573
 20
131.1184709333
 10
137.2703616464
 20
131.1152421619
 10
137.2610775445
 20
131.1125552193
 10
137.2517468129
 20
131.110416172
 10
137.2423905185
 20
131.1088298497
 10
137.2330297856
 20
131.1077998338
 10
137.2236857487
 20
131.1073284498
 10
137.2143795046
 20
131.1074167621
 10
137.2051320647
 20
131.1080645713
 10
137.1959643077
 20
131.1092704148
 10
137.1893659658
 20
131.110494876
  0
LWPOLYLINE
  5
2CA
100
AcDbEntity
  8
COPY_PUBLISH
100
AcDbPolyline
 62
7
  6
CONTINUOUS
 90
36
 70
0
 10
141.7327089308
 20
129.3151615697
 10
141.726068329
 20
129.3074228876
 10
141.7191807218
 20
129.2997806492
 10
141.7120481393
 20
129.2922478387
 10
141.7046686405
 20
129.2848389118
 10
141.6970495375
 20
129.2775656163
 10
141.6892072885
 20
129.2704370603
 10
141.6811454388
 20
129.2634667111
 10
141.6728682628
 20
129.2566677321
 10
141.6643937712
 20
129.2500490024
 10
141.6557268241
 20
129.2436240851
 10
141.6468729373
 20
129.2374061978
 10
141.6378515604
 20
129.2314039355
 10
141.6286689003
 20
129.2256308087
 10
141.6193317704
 20
129.2200999595
 10
141.6098609958
 20
129.214819679
 10
141.6002641588
 20
129.2098032638
 10
141.590549436
 20
129.2050636386
 10
141.5807390379
 20
129.2006087921
 10
141.5708419694
 20
129.1964516291
 10
141.560867827
 20
129.1926046784
 10
141.5508402536
 20
129.1890756003
 10
141.5407697336
 20
129.1858766949
 10
141.5306673306
 20
129.1830198704
 10
141.5205581676
 20
129.1805123703
 10
141.5104542747
 20
129.1783656269
 10
141.5003682001
 20
129.1765906425
 10
141.4903265243
 20
129.1751940536
 10
141.4803428983
 20
129.1741861026
 10
141.4704313103
 20
129.1735765283
 10
141.4606195827
 20
129.1733710541
 10
141.450923028
 20
129.1735783424
 10
141.4413569724
 20
129.1742064599
 10
141.4319500172
 20
129.175259835
 10
141.4227294848
 20
129.1767431965
 10
141.4189192344
 20
129.1774948754
  0
LINE
  5
2CB
100
AcDbEntity
  8
COPY_PUBLISH
100
AcDbLine
 62
7
  6
CONTINUOUS
 10
144.9208661524
 20
127.4789152251
 11
144.2075885438
 21
127.08306078
  0
LINE
  5
2CC
100
AcDbEntity
  8
0
100
AcDbLine
 62
7
  6
CONTINUOUS
 10
154.7634551504
 20
132.9374658551
 11
158.9908721596
 21
135.106130919
  0
LINE
  5
2CD
100
AcDbEntity
  8
RACCORDO
100
AcDbLine
 62
253
  6
CONTINUOUS
 10
150.6924897168
 20
130.3625605944
 11
147.4089304019
 21
128.6847819217
  0
LINE
  5
2CE
100
AcDbEntity
  8
RACCORDO
100
AcDbLine
 62
253
  6
CONTINUOUS
 10
153.4984261284
 20
131.1607256294
 11
147.7312729299
 21
128.2165176995
  0
LINE
  5
2CF
100
AcDbEntity
  8
DRAFT
100
AcDbLine
 62
7
  6
CONTINUOUS
 10
154.561084435
 20
132.6093580972
 11
158.7761106017
 21
134.7579336361
  0
LINE
  5
2D0
100
AcDbEntity
  8
RACCORDO
100
AcDbLine
 62
253
  6
CONTINUOUS
 10
153.2123357112
 20
131.6468843541
 11
150.6913148069
 21
130.3615821019
  0
LINE
  5
2D1
100
AcDbEntity
  8
COPY_PUBLISH
100
AcDbLine
 62
253
  6
CONTINUOUS
 10
146.9007669347
 20
128.2508521047
 11
147.5876687201
 21
128.5954127627
  0
LINE
  5
2D2
100
AcDbEntity
  8
COPY_PUBLISH
100
AcDbLine
 62
253
  6
CONTINUOUS
 10
147.042186496
 20
128.0069431056
 11
147.7303116971
 21
128.352117448
  0
LINE
  5
2D3
100
AcDbEntity
  8
0
100
AcDbLine
 62
7
  6
CONTINUOUS
 10
154.8675971127
 20
132.092500197
 11
155.3625718596
 21
132.3399875704
  0
LINE
  5
2D4
100
AcDbEntity
  8
COPY_PUBLISH
100
AcDbLine
 62
253
  6
CONTINUOUS
 10
146.6859537206
 20
128.143786547
 11
146.9007669347
 21
128.2508521047
  0
LINE
  5
2D5
100
AcDbEntity
  8
COPY_PUBLISH
100
AcDbLine
 62
253
  6
CONTINUOUS
 10
146.8269583249
 20
127.8996707283
 11
147.042186496
 21
128.0069431056
  0
LINE
  5
2D6
100
AcDbEntity
  8
DRAFT
100
AcDbLine
 62
7
  6
CONTINUOUS
 10
154.0858216264
 20
132.2472947878
 11
155.1222135389
 21
132.7615740891
  0
LINE
  5
2D7
100
AcDbEntity
  8
0
100
AcDbLine
 62
7
  6
CONTINUOUS
 10
147.3484513807
 20
128.7150214323
 11
150.6924897168
 21
130.3625605944
  0
LINE
  5
2D8
100
AcDbEntity
  8
0
100
AcDbLine
 62
7
  6
CONTINUOUS
 10
157.9222886408
 20
129.2501360859
 11
157.3655592638
 21
129.0771931452
  0
LINE
  5
2D9
100
AcDbEntity
  8
0
100
AcDbLine
 62
7
  6
CONTINUOUS
 10
138.4506732254
 20
98.6205113439
 11
138.8568370738
 21
98.5736475005
  0
LWPOLYLINE
  5
2DA
100
AcDbEntity
  8
RACCORDO
100
AcDbPolyline
 62
7
  6
CONTINUOUS
 90
19
 70
0
 10
136.5329224002
 20
98.8876021124
 10
136.5469753552
 20
98.8852953057
 10
136.5618777034
 20
98.8834671791
 10
136.5776420084
 20
98.8820922746
 10
136.5943413022
 20
98.8810581007
 10
136.6119055336
 20
98.8804041539
 10
136.6301205632
 20
98.8803215512
 10
136.6489478809
 20
98.8807304321
 10
136.6683719179
 20
98.8815896093
 10
136.6882065943
 20
98.8831360188
 10
136.7084073525
 20
98.8852446507
 10
136.7289107741
 20
98.8878644641
 10
136.7494999615
 20
98.8913203771
 10
136.7700448864
 20
98.8953670175
 10
136.7904779192
 20
98.8999880338
 10
136.8106543714
 20
98.905773985
 10
136.8303905677
 20
98.9127287159
 10
136.8494562926
 20
98.9203233627
 10
136.8675622065
 20
98.9282528454
  0
LINE
  5
2DB
100
AcDbEntity
  8
RACCORDO
100
AcDbLine
 62
253
  6
CONTINUOUS
 10
149.2357132956
 20
92.1249424049
 11
138.3779554008
 21
97.5538213523
  0
LINE
  5
2DC
100
AcDbEntity
  8
RACCORDO
100
AcDbLine
 62
253
  6
CONTINUOUS
 10
137.1296570489
 20
98.1779705282
 11
130.5658559435
 21
101.4598710809
  0
LINE
  5
2DD
100
AcDbEntity
  8
RACCORDO
100
AcDbLine
 62
253
  6
CONTINUOUS
 10
129.3175575917
 20
102.0840202569
 11
118.4597996968
 21
107.5128992043
  0
LINE
  5
2DE
100
AcDbEntity
  8
0
100
AcDbLine
 62
7
  6
CONTINUOUS
 10
130.1317756623
 20
104.0515972645
 11
130.052475605
 21
104.1317225046
  0
LINE
  5
2DF
100
AcDbEntity
  8
RACCORDO
100
AcDbLine
 62
7
  6
CONTINUOUS
 10
130.6678767634
 20
102.6876925304
 11
130.3876562428
 21
102.9806224139
  0
LINE
  5
2E0
100
AcDbEntity
  8
RACCORDO
100
AcDbLine
 62
253
  6
CONTINUOUS
 10
138.0784387288
 20
97.0528771099
 11
137.6697278004
 21
97.5365788328
  0
LINE
  5
2E1
100
AcDbEntity
  8
RACCORDO
100
AcDbLine
 62
253
  6
CONTINUOUS
 10
137.6697278004
 20
97.5365788328
 11
137.2425503711
 21
98.0436870865
  0
LINE
  5
2E2
100
AcDbEntity
  8
RACCORDO
100
AcDbLine
 62
253
  6
CONTINUOUS
 10
137.2425503711
 20
98.0436870865
 11
136.5329224002
 21
98.8876021124
  0
LWPOLYLINE
  5
2E3
100
AcDbEntity
  8
RACCORDO
100
AcDbPolyline
 62
7
  6
CONTINUOUS
 90
10
 70
0
 10
131.0609967664
 20
101.6915384748
 10
131.0642271951
 20
101.6839078318
 10
131.0712535067
 20
101.6698358508
 10
131.0795185224
 20
101.6559758598
 10
131.0889582351
 20
101.6423112619
 10
131.099489015
 20
101.628824883
 10
131.1109407922
 20
101.615755015
 10
131.1232073586
 20
101.6031671727
 10
131.1362404895
 20
101.5909514249
 10
131.1499610543
 20
101.5790827854
  0
LINE
  5
2E4
100
AcDbEntity
  8
RACCORDO
100
AcDbLine
 62
253
  6
CONTINUOUS
 10
130.8865746649
 20
102.2457979073
 11
131.1499610543
 21
101.5790827854
  0
LWPOLYLINE
  5
2E5
100
AcDbEntity
  8
RACCORDO
100
AcDbPolyline
 62
253
  6
CONTINUOUS
 90
6
 70
0
 10
129.6554236583
 20
105.3846821963
 10
129.8908125535
 20
104.781660281
 10
130.1311004665
 20
104.1675051689
 10
130.3770534021
 20
103.5403415705
 10
130.6289495913
 20
102.8995567229
 10
130.8865746649
 20
102.2457979073
  0
LINE
  5
2E6
100
AcDbEntity
  8
RACCORDO
100
AcDbLine
 62
253
  6
CONTINUOUS
 10
129.1997075295
 20
106.5560706323
 11
129.6554236583
 21
105.3846821963
  0
LINE
  5
2E7
100
AcDbEntity
  8
RACCORDO
100
AcDbLine
 62
253
  6
CONTINUOUS
 10
128.7585248521
 20
107.6950869388
 11
129.1997075295
 21
106.5560706323
  0
LWPOLYLINE
  5
2E8
100
AcDbEntity
  8
RACCORDO
100
AcDbPolyline
 62
7
  6
CONTINUOUS
 90
10
 70
0
 10
128.3289418513
 20
108.6910961813
 10
128.5726504161
 20
108.0591095235
 10
128.8897448897
 20
107.239086676
 10
129.2076594108
 20
106.4195001669
 10
129.5263934049
 20
105.6003514266
 10
129.8459462932
 20
104.7816418961
 10
130.166317494
 20
103.9633730248
 10
130.4875064277
 20
103.1455462556
 10
130.8095125161
 20
102.3281630284
 10
131.0610099
 20
101.6915052603
  0
LINE
  5
2E9
100
AcDbEntity
  8
RACCORDO
100
AcDbLine
 62
253
  6
CONTINUOUS
 10
128.3303122844
 20
108.8053548087
 11
128.7585248521
 21
107.6950869388
  0
LINE
  5
2EA
100
AcDbEntity
  8
DRAFT
100
AcDbLine
 62
7
  6
CONTINUOUS
 10
128.2348741031
 20
108.6237540319
 11
130.7519050309
 21
102.0258096555
  0
LWPOLYLINE
  5
2EB
100
AcDbEntity
  8
RACCORDO
100
AcDbPolyline
 62
7
  6
CONTINUOUS
 90
10
 70
0
 10
128.3289023723
 20
108.691105369
 10
128.3265347478
 20
108.6980760638
 10
128.3239251205
 20
108.7092681259
 10
128.3222261625
 20
108.7213149489
 10
128.3214523707
 20
108.7341265145
 10
128.3216512405
 20
108.7475721675
 10
128.3226488208
 20
108.7615200826
 10
128.3243922738
 20
108.7758603641
 10
128.3269481077
 20
108.7905030396
 10
128.3303122844
 20
108.8053548087
  0
LWPOLYLINE
  5
2EC
100
AcDbEntity
  8
RACCORDO
100
AcDbPolyline
 62
253
  6
CONTINUOUS
 90
13
 70
0
 10
130.5658559435
 20
101.4598710809
 10
130.5574976261
 20
101.4846662375
 10
130.5517268847
 20
101.5103114028
 10
130.548643431
 20
101.5363634583
 10
130.5483005434
 20
101.5623722551
 10
130.5507041466
 20
101.5878883918
 10
130.5558127093
 20
101.6124709792
 10
130.5635379613
 20
101.6356952593
 10
130.5737464195
 20
101.6571599436
 10
130.5862616936
 20
101.6764941475
 10
130.6008675343
 20
101.6933637988
 10
130.6173115699
 20
101.7074774096
 10
130.6353096668
 20
101.7185911132
  0
LINE
  5
2ED
100
AcDbEntity
  8
COPY_PUBLISH
100
AcDbLine
 62
7
  6
CONTINUOUS
 10
131.8289698248
 20
135.0994222852
 11
131.8204091204
 21
136.3070687364
  0
LINE
  5
2EE
100
AcDbEntity
  8
COPY_PUBLISH
100
AcDbLine
 62
253
  6
CONTINUOUS
 10
130.6354525391
 20
134.6216220317
 11
130.6354525391
 21
135.8553880949
  0
LINE
  5
2EF
100
AcDbEntity
  8
COPY_PUBLISH
100
AcDbLine
 62
253
  6
CONTINUOUS
 10
130.9170557482
 20
134.6300057453
 11
130.9170557482
 21
135.8547737281
  0
LINE
  5
2F0
100
AcDbEntity
  8
COPY_PUBLISH
100
AcDbLine
 62
7
  6
CONTINUOUS
 10
131.1322839193
 20
134.7494529664
 11
131.1322839193
 21
135.9618940716
  0
LINE
  5
2F1
100
AcDbEntity
  8
COPY_PUBLISH
100
AcDbLine
 62
7
  6
CONTINUOUS
 10
132.2776434369
 20
135.0757140023
 11
132.2776434369
 21
133.8446228218
  0
LINE
  5
2F2
100
AcDbEntity
  8
COPY_PUBLISH
100
AcDbLine
 62
253
  6
CONTINUOUS
 10
132.3362220806
 20
135.0050033242
 11
132.3362220806
 21
133.771237261
  0
LWPOLYLINE
  5
2F3
100
AcDbEntity
  8
COPY_PUBLISH
100
AcDbPolyline
 62
253
  6
CONTINUOUS
 90
34
 70
0
 10
132.3362220806
 20
135.0050033242
 10
132.3363811971
 20
135.0132968612
 10
132.3368581887
 20
135.0217308523
 10
132.3376519819
 20
135.0302863188
 10
132.3387607904
 20
135.0389440088
 10
132.3401821194
 20
135.0476844405
 10
132.3419127703
 20
135.0564879456
 10
132.3439488488
 20
135.065334714
 10
132.3462857732
 20
135.0742048385
 10
132.3489182848
 20
135.0830783589
 10
132.35184046
 20
135.0919353077
 10
132.3550457229
 20
135.1007557545
 10
132.358526861
 20
135.1095198512
 10
132.362276041
 20
135.1182078764
 10
132.3662848261
 20
135.1268002799
 10
132.3705441956
 20
135.1352777266
 10
132.375044565
 20
135.1436211401
 10
132.3797758072
 20
135.1518117458
 10
132.3847272758
 20
135.1598311128
 10
132.3898878287
 20
135.1676611954
 10
132.3952458535
 20
135.1752843741
 10
132.4007892932
 20
135.1826834948
 10
132.4065056738
 20
135.1898419076
 10
132.4123821319
 20
135.1967435045
 10
132.4184054442
 20
135.203372755
 10
132.4245620566
 20
135.2097147417
 10
132.4308381152
 20
135.2157551936
 10
132.4372194974
 20
135.2214805181
 10
132.4436918434
 20
135.2268778319
 10
132.450240589
 20
135.2319349897
 10
132.4568509977
 20
135.2366406116
 10
132.4635081946
 20
135.2409841088
 10
132.4701971992
 20
135.2449557074
 10
132.4769029598
 20
135.2485464702
  0
LINE
  5
2F4
100
AcDbEntity
  8
RACCORDO
100
AcDbLine
 62
253
  6
CONTINUOUS
 10
132.9840982883
 20
117.5963117218
 11
132.9932116614
 21
117.942157503
  0
LINE
  5
2F5
100
AcDbEntity
  8
RACCORDO
100
AcDbLine
 62
253
  6
CONTINUOUS
 10
132.9932116614
 20
117.942157503
 11
133.0036550359
 21
118.2916553911
  0
LWPOLYLINE
  5
2F6
100
AcDbEntity
  8
RACCORDO
100
AcDbPolyline
 62
253
  6
CONTINUOUS
 90
3
 70
0
 10
133.0036550359
 20
118.2916553911
 10
133.0157457247
 20
118.6528730095
 10
133.0224264609
 20
118.8373415207
  0
LWPOLYLINE
  5
2F7
100
AcDbEntity
  8
RACCORDO
100
AcDbPolyline
 62
253
  6
CONTINUOUS
 90
9
 70
0
 10
153.9128594695
 20
130.8556983244
 10
153.9400401319
 20
130.8713137912
 10
153.9638470541
 20
130.8882505004
 10
153.9840251214
 20
130.9063270183
 10
154.0003580879
 20
130.9253496898
 10
154.0126709072
 20
130.9451147272
 10
154.0208315995
 20
130.9654103947
 10
154.0247526541
 20
130.9860192612
 10
154.0251235493
 20
130.9946298548
  0
LINE
  5
2F8
100
AcDbEntity
  8
COPY_PUBLISH
100
AcDbLine
 62
7
  6
CONTINUOUS
 10
146.8269583249
 20
126.6750544569
 11
147.042186496
 21
126.794501678
  0
LINE
  5
2F9
100
AcDbEntity
  8
RACCORDO
100
AcDbLine
 62
7
  6
CONTINUOUS
 10
153.9128594695
 20
130.56206564
 11
147.737786517
 21
127.2976551859
  0
LINE
  5
2FA
100
AcDbEntity
  8
DRAFT
100
AcDbLine
 62
7
  6
CONTINUOUS
 10
148.0473060873
 20
126.990254154
 11
148.1875460136
 21
127.0639235855
  0
LINE
  5
2FB
100
AcDbEntity
  8
DRAFT
100
AcDbLine
 62
7
  6
CONTINUOUS
 10
149.3886954856
 20
127.6948993799
 11
154.5397444226
 21
130.4007967475
  0
LINE
  5
2FC
100
AcDbEntity
  8
COPY_PUBLISH
100
AcDbLine
 62
7
  6
CONTINUOUS
 10
148.5075237195
 20
127.4075738412
 11
148.2958366927
 21
127.2983450747
  0
LINE
  5
2FD
100
AcDbEntity
  8
COPY_PUBLISH
100
AcDbLine
 62
253
  6
CONTINUOUS
 10
148.5978196197
 20
127.4023257622
 11
148.3867232621
 21
127.2934017763
  0
LINE
  5
2FE
100
AcDbEntity
  8
COPY_PUBLISH
100
AcDbLine
 62
7
  6
CONTINUOUS
 10
150.0099852401
 20
126.4817707873
 11
149.1696776669
 21
126.0481789842
  0
LINE
  5
2FF
100
AcDbEntity
  8
COPY_PUBLISH
100
AcDbLine
 62
7
  6
CONTINUOUS
 10
147.042186496
 20
126.794501678
 11
147.7388724015
 21
127.1444709969
  0
LINE
  5
300
100
AcDbEntity
  8
COPY_PUBLISH
100
AcDbLine
 62
7
  6
CONTINUOUS
 10
149.8290875413
 20
125.718474047
 11
150.8959184535
 21
126.2532763453
  0
LINE
  5
301
100
AcDbEntity
  8
COPY_PUBLISH
100
AcDbLine
 62
7
  6
CONTINUOUS
 10
148.5092275074
 20
127.4084258391
 11
148.5075262047
 21
127.4075751235
  0
LINE
  5
302
100
AcDbEntity
  8
RACCORDO
100
AcDbLine
 62
7
  6
CONTINUOUS
 10
157.6895955973
 20
131.9458755842
 11
156.3781312863
 21
131.2901434287
  0
LINE
  5
303
100
AcDbEntity
  8
RACCORDO
100
AcDbLine
 62
7
  6
CONTINUOUS
 10
155.6769075444
 20
130.9395315578
 11
154.5531602308
 21
130.377657901
  0
LINE
  5
304
100
AcDbEntity
  8
0
100
AcDbLine
 62
7
  6
CONTINUOUS
 10
158.1853892626
 20
131.6783918246
 11
155.9185118785
 21
130.5449531326
  0
LINE
  5
305
100
AcDbEntity
  8
0
100
AcDbLine
 62
7
  6
CONTINUOUS
 10
155.2172881366
 20
130.1943412617
 11
154.7848185207
 21
129.9781064537
  0
LINE
  5
306
100
AcDbEntity
  8
0
100
AcDbLine
 62
7
  6
CONTINUOUS
 10
156.7405307223
 20
130.6946162701
 11
156.491877349
 21
130.5702895835
  0
LINE
  5
307
100
AcDbEntity
  8
0
100
AcDbLine
 62
7
  6
CONTINUOUS
 10
156.3168684264
 20
130.2449171565
 11
156.2797453147
 21
130.2263556007
  0
LINE
  5
308
100
AcDbEntity
  8
RACCORDO
100
AcDbLine
 62
7
  6
CONTINUOUS
 10
158.4244450904
 20
131.0588381657
 11
157.1129782091
 21
130.403104725
  0
LINE
  5
309
100
AcDbEntity
  8
RACCORDO
100
AcDbLine
 62
7
  6
CONTINUOUS
 10
156.4117544672
 20
130.0524928541
 11
155.3339580109
 21
129.5135946259
  0
LINE
  5
30A
100
AcDbEntity
  8
0
100
AcDbLine
 62
7
  6
CONTINUOUS
 10
150.8959184535
 20
126.2532763453
 11
151.5989114077
 21
126.603848261
  0
LINE
  5
30B
100
AcDbEntity
  8
0
100
AcDbLine
 62
7
  6
CONTINUOUS
 10
150.9559212013
 20
126.9253433642
 11
150.9417641991
 21
126.9183650231
  0
LINE
  5
30C
100
AcDbEntity
  8
COPY_PUBLISH
100
AcDbLine
 62
7
  6
CONTINUOUS
 10
149.2085030916
 20
127.7470744589
 11
148.5092292753
 21
127.4084266959
  0
LINE
  5
30D
100
AcDbEntity
  8
COPY_PUBLISH
100
AcDbLine
 62
253
  6
CONTINUOUS
 10
149.2968159547
 20
127.7408391453
 11
148.5978196197
 21
127.4023257622
  0
LWPOLYLINE
  5
30E
100
AcDbEntity
  8
RACCORDO
100
AcDbPolyline
 62
7
  6
CONTINUOUS
 90
10
 70
0
 10
158.4244161945
 20
131.0588237178
 10
158.4355964599
 20
131.0641714223
 10
158.4461806871
 20
131.0687501796
 10
158.4561688761
 20
131.0725599896
 10
158.4656366815
 20
131.0756170099
 10
158.4745084487
 20
131.0779050828
 10
158.4825572138
 20
131.0793757365
 10
158.4897073224
 20
131.0800128136
 10
158.496034429
 20
131.0798324713
 10
158.5015385335
 20
131.0788347098
  0
LWPOLYLINE
  5
30F
100
AcDbEntity
  8
0
100
AcDbPolyline
 62
7
  6
CONTINUOUS
 90
3
 70
0
 10
158.1313751824
 20
128.8720265437
 10
157.981168819
 20
128.8067369613
 10
157.8642014048
 20
128.7671764503
  0
LWPOLYLINE
  5
310
100
AcDbEntity
  8
COPY_PUBLISH
100
AcDbPolyline
 62
253
  6
CONTINUOUS
 90
14
 70
0
 10
153.4849099673
 20
125.8796241481
 10
153.4918645063
 20
125.8819096016
 10
153.4990323117
 20
125.8836726347
 10
153.5063971469
 20
125.8849092538
 10
153.513942329
 20
125.8856166577
 10
153.5216507663
 20
125.885793244
 10
153.5295049975
 20
125.8854386126
 10
153.5374872311
 20
125.8845535669
 10
153.5455793855
 20
125.8831401117
 10
153.5537631301
 20
125.8812014488
 10
153.562019927
 20
125.8787419697
 10
153.5703310726
 20
125.8757672456
 10
153.5786777403
 20
125.8722840151
 10
153.5870410231
 20
125.8683001683
  0
LINE
  5
311
100
AcDbEntity
  8
RACCORDO
100
AcDbLine
 62
253
  6
CONTINUOUS
 10
138.1519078959
 20
97.4045641529
 11
137.720649879
 21
97.9148521638
  0
LINE
  5
312
100
AcDbEntity
  8
RACCORDO
100
AcDbLine
 62
253
  6
CONTINUOUS
 10
137.720649879
 20
97.9148521638
 11
137.3405267434
 21
98.3659825748
  0
LINE
  5
313
100
AcDbEntity
  8
RACCORDO
100
AcDbLine
 62
253
  6
CONTINUOUS
 10
137.3405267434
 20
98.3659825748
 11
136.8675622065
 21
98.9282528454
  0
LINE
  5
314
100
AcDbEntity
  8
DRAFT
100
AcDbLine
 62
7
  6
CONTINUOUS
 10
137.8110944245
 20
99.3925512516
 11
138.7019011313
 21
98.317252435
  0
LWPOLYLINE
  5
315
100
AcDbEntity
  8
RACCORDO
100
AcDbPolyline
 62
253
  6
CONTINUOUS
 90
10
 70
0
 10
138.3779554008
 20
97.5538213523
 10
138.3629974221
 20
97.5736725905
 10
138.3507173361
 20
97.5944510501
 10
138.3413254653
 20
97.6158008557
 10
138.3349826656
 20
97.6373563463
 10
138.331797571
 20
97.6587483382
 10
138.331824733
 20
97.6796104477
 10
138.3350636864
 20
97.6995853669
 10
138.3414589573
 20
97.7183309824
 10
138.3480695688
 20
97.7310699958
  0
LWPOLYLINE
  5
316
100
AcDbEntity
  8
RACCORDO
100
AcDbPolyline
 62
7
  6
CONTINUOUS
 90
12
 70
0
 10
134.6198272158
 20
111.3148697975
 10
134.6198420645
 20
111.3115733514
 10
134.6206568143
 20
111.2923275194
 10
134.6227887848
 20
111.2728033828
 10
134.6262712297
 20
111.2531373055
 10
134.6308345855
 20
111.2334570074
 10
134.636460401
 20
111.2138338276
 10
134.6431460803
 20
111.1943858813
 10
134.6506511744
 20
111.1752928415
 10
134.658876757
 20
111.156659468
 10
134.6678644481
 20
111.1385155641
 10
134.6775787882
 20
111.1209148417
  0
LINE
  5
317
100
AcDbEntity
  8
COPY_PUBLISH
100
AcDbLine
 62
7
  6
CONTINUOUS
 10
133.2597750902
 20
134.0038860454
 11
133.2597750902
 21
132.5569675068
  0
LINE
  5
318
100
AcDbEntity
  8
COPY_PUBLISH
100
AcDbLine
 62
7
  6
CONTINUOUS
 10
133.9198020506
 20
132.2269540266
 11
133.9198020506
 21
133.6738725652
  0
LINE
  5
319
100
AcDbEntity
  8
DRAFT
100
AcDbLine
 62
7
  6
CONTINUOUS
 10
134.1834496801
 20
118.1665474375
 11
134.1834496801
 21
112.6697734873
  0
LINE
  5
31A
100
AcDbEntity
  8
COPY_PUBLISH
100
AcDbLine
 62
7
  6
CONTINUOUS
 10
134.9860158768
 20
132.8225869876
 11
134.9860158768
 21
134.2082276337
  0
LINE
  5
31B
100
AcDbEntity
  8
COPY_PUBLISH
100
AcDbLine
 62
7
  6
CONTINUOUS
 10
135.3100342066
 20
132.5365288795
 11
135.3100342066
 21
132.19542059
  0
LINE
  5
31C
100
AcDbEntity
  8
RACCORDO
100
AcDbLine
 62
253
  6
CONTINUOUS
 10
134.6834952437
 20
111.9266643962
 11
134.6775787882
 21
111.1209148417
  0
LWPOLYLINE
  5
31D
100
AcDbEntity
  8
RACCORDO
100
AcDbPolyline
 62
253
  6
CONTINUOUS
 90
8
 70
0
 10
132.9139422803
 20
112.0027330956
 10
132.9215091109
 20
112.9924421296
 10
132.9260639086
 20
113.49579191
 10
132.9311226048
 20
114.0019015453
 10
132.9367259025
 20
114.5136878723
 10
132.9429985221
 20
115.039903961
 10
132.950021558
 20
115.5834860153
 10
132.9578045818
 20
116.1415398722
  0
LINE
  5
31E
100
AcDbEntity
  8
RACCORDO
100
AcDbLine
 62
253
  6
CONTINUOUS
 10
133.196736182
 20
112.1744982212
 11
133.2042581754
 21
113.12498313
  0
LINE
  5
31F
100
AcDbEntity
  8
RACCORDO
100
AcDbLine
 62
253
  6
CONTINUOUS
 10
134.690405928
 20
112.7109660688
 11
134.6834952437
 21
111.9266643962
  0
LWPOLYLINE
  5
320
100
AcDbEntity
  8
RACCORDO
100
AcDbPolyline
 62
253
  6
CONTINUOUS
 90
5
 70
0
 10
133.2042581754
 20
113.12498313
 10
133.2137423004
 20
114.0970668135
 10
133.2192132355
 20
114.5908913603
 10
133.2253547991
 20
115.0983533254
 10
133.2322224052
 20
115.6219873936
  0
LINE
  5
321
100
AcDbEntity
  8
RACCORDO
100
AcDbLine
 62
253
  6
CONTINUOUS
 10
134.6982675158
 20
113.4786504097
 11
134.690405928
 21
112.7109660688
  0
LINE
  5
322
100
AcDbEntity
  8
RACCORDO
100
AcDbLine
 62
253
  6
CONTINUOUS
 10
134.7072086416
 20
114.24599485
 11
134.6982675158
 21
113.4786504097
  0
LWPOLYLINE
  5
323
100
AcDbEntity
  8
RACCORDO
100
AcDbPolyline
 62
7
  6
CONTINUOUS
 90
7
 70
0
 10
134.6560798765
 20
114.8947374257
 10
134.6491146708
 20
114.3557394841
 10
134.6426854643
 20
113.8170037934
 10
134.6367922669
 20
113.2785311553
 10
134.6314350876
 20
112.7403223455
 10
134.6266139349
 20
112.2023781589
 10
134.6198276578
 20
111.3148699043
  0
LINE
  5
324
100
AcDbEntity
  8
RACCORDO
100
AcDbLine
 62
253
  6
CONTINUOUS
 10
134.7174464805
 20
115.0290636186
 11
134.7072086416
 21
114.24599485
  0
LINE
  5
325
100
AcDbEntity
  8
RACCORDO
100
AcDbLine
 62
253
  6
CONTINUOUS
 10
133.2322224052
 20
115.6219873936
 11
133.2479695029
 21
116.7101677855
  0
LINE
  5
326
100
AcDbEntity
  8
RACCORDO
100
AcDbLine
 62
253
  6
CONTINUOUS
 10
134.7291211698
 20
115.8327211397
 11
134.7174464805
 21
115.0290636186
  0
LINE
  5
327
100
AcDbEntity
  8
RACCORDO
100
AcDbLine
 62
253
  6
CONTINUOUS
 10
132.9578045818
 20
116.1415398722
 11
132.9693611554
 21
116.8944421524
  0
LINE
  5
328
100
AcDbEntity
  8
RACCORDO
100
AcDbLine
 62
253
  6
CONTINUOUS
 10
133.2479695029
 20
116.7101677855
 11
133.2557985976
 21
117.1487210321
  0
LWPOLYLINE
  5
329
100
AcDbEntity
  8
COPY_PUBLISH
100
AcDbPolyline
 62
253
  6
CONTINUOUS
 90
34
 70
0
 10
135.3832575113
 20
132.4481405319
 10
135.3834564069
 20
132.4585074532
 10
135.3840526464
 20
132.469049942
 10
135.3850448878
 20
132.4797442752
 10
135.3864308986
 20
132.4905663877
 10
135.3882075597
 20
132.5014919273
 10
135.3903708734
 20
132.5124963086
 10
135.3929159715
 20
132.5235547692
 10
135.395837127
 20
132.5346424247
 10
135.3991277666
 20
132.5457343253
 10
135.4027804855
 20
132.5568055113
 10
135.4067870641
 20
132.5678310698
 10
135.4111384868
 20
132.5787861907
 10
135.4158249617
 20
132.5896462222
 10
135.4208359431
 20
132.6003867265
 10
135.426160155
 20
132.6109835349
 10
135.4317856167
 20
132.6214128018
 10
135.4376996695
 20
132.6316510589
 10
135.4438890052
 20
132.6416752676
 10
135.4503396964
 20
132.6514628709
 10
135.4570372274
 20
132.6609918442
 10
135.463966527
 20
132.6702407451
 10
135.4711120028
 20
132.6791887612
 10
135.4784575754
 20
132.6878157573
 10
135.4859867157
 20
132.6961023204
 10
135.4936824812
 20
132.7040298038
 10
135.5015275545
 20
132.7115803686
 10
135.5095042822
 20
132.7187370243
 10
135.5175947148
 20
132.7254836666
 10
135.5257806467
 20
132.7318051138
 10
135.5340436576
 20
132.7376871412
 10
135.5423651537
 20
132.7431165127
 10
135.5507264095
 20
132.7480810109
 10
135.5591086102
 20
132.7525694645
  0
LINE
  5
32A
100
AcDbEntity
  8
RACCORDO
100
AcDbLine
 62
253
  6
CONTINUOUS
 10
132.9693611554
 20
116.8944421524
 11
132.9761899783
 21
117.249738174
  0
LINE
  5
32B
100
AcDbEntity
  8
RACCORDO
100
AcDbLine
 62
253
  6
CONTINUOUS
 10
133.2557985976
 20
117.1487210321
 11
133.2652512736
 21
117.575702494
  0
LINE
  5
32C
100
AcDbEntity
  8
RACCORDO
100
AcDbLine
 62
253
  6
CONTINUOUS
 10
132.9761899783
 20
117.249738174
 11
132.9840982883
 21
117.5963117218
  0
LINE
  5
32D
100
AcDbEntity
  8
RACCORDO
100
AcDbLine
 62
253
  6
CONTINUOUS
 10
133.2652512736
 20
117.575702494
 11
133.2764573495
 21
117.9962803782
  0
LWPOLYLINE
  5
32E
100
AcDbEntity
  8
RACCORDO
100
AcDbPolyline
 62
7
  6
CONTINUOUS
 90
8
 70
0
 10
134.7107204662
 20
117.5934845492
 10
134.702930377
 20
117.3419010688
 10
134.6957776339
 20
117.0906110528
 10
134.6892623123
 20
116.8396169273
 10
134.6833844821
 20
116.5889210529
 10
134.6781442122
 20
116.3385259111
 10
134.6735415642
 20
116.0884343559
 10
134.6560798765
 20
114.8947374257
  0
LWPOLYLINE
  5
32F
100
AcDbEntity
  8
RACCORDO
100
AcDbPolyline
 62
253
  6
CONTINUOUS
 90
3
 70
0
 10
133.2764573495
 20
117.9962803782
 10
133.2899360992
 20
118.4311275121
 10
133.2960494466
 20
118.6102475542
  0
LINE
  5
330
100
AcDbEntity
  8
RACCORDO
100
AcDbLine
 62
7
  6
CONTINUOUS
 10
134.7210446127
 20
117.8995977644
 11
134.7107204662
 21
117.5934845492
  0
LWPOLYLINE
  5
331
100
AcDbEntity
  8
RACCORDO
100
AcDbPolyline
 62
253
  6
CONTINUOUS
 90
10
 70
0
 10
134.7841883914
 20
117.9564605555
 10
134.776252682
 20
117.7321849314
 10
134.7687533271
 20
117.5060295567
 10
134.7617049004
 20
117.27800279
 10
134.7551616347
 20
117.0495402275
 10
134.7490921231
 20
116.819220392
 10
134.7434129396
 20
116.5827801878
 10
134.7381411946
 20
116.3388208787
 10
134.7333609117
 20
116.0887926595
 10
134.7291211698
 20
115.8327211397
  0
LWPOLYLINE
  5
332
100
AcDbEntity
  8
RACCORDO
100
AcDbPolyline
 62
7
  6
CONTINUOUS
 90
12
 70
0
 10
134.7210293187
 20
117.8996068815
 10
134.7211590984
 20
117.9003913884
 10
134.7224198692
 20
117.9034720471
 10
134.7250217177
 20
117.9073044396
 10
134.7289932885
 20
117.911731607
 10
134.7340662133
 20
117.916805457
 10
134.7402201967
 20
117.922440831
 10
134.747448548
 20
117.9285112649
 10
134.7555112508
 20
117.9350318497
 10
134.764308732
 20
117.9419446135
 10
134.7738800659
 20
117.9491169934
 10
134.7841883914
 20
117.9564605555
  0
LWPOLYLINE
  5
333
100
AcDbEntity
  8
COPY_PUBLISH
100
AcDbPolyline
 62
253
  6
CONTINUOUS
 90
30
 70
0
 10
141.0214883227
 20
129.4636650926
 10
141.0170718353
 20
129.452783032
 10
141.012268233
 20
129.4421234348
 10
141.0070880888
 20
129.4317104859
 10
141.0015424122
 20
129.4215670984
 10
140.9956438481
 20
129.4117171318
 10
140.9894069065
 20
129.4021851107
 10
140.98284621
 20
129.3929932816
 10
140.9759760748
 20
129.3841616058
 10
140.9688118598
 20
129.3757098501
 10
140.9613696164
 20
129.3676570089
 10
140.9536662213
 20
129.3600213998
 10
140.9457192101
 20
129.3528204243
 10
140.9375465831
 20
129.3460703857
 10
140.9291667301
 20
129.3397864655
 10
140.9205985479
 20
129.3339828362
 10
140.9118613636
 20
129.3286725942
 10
140.9029749107
 20
129.3238677382
 10
140.8939592677
 20
129.3195791263
 10
140.8848347922
 20
129.3158164419
 10
140.8756220746
 20
129.3125881751
 10
140.8663419105
 20
129.3099016132
 10
140.8570152478
 20
129.3077628203
 10
140.84766314
 20
129.3061766247
 10
140.8383066979
 20
129.305146607
 10
140.8289670312
 20
129.3046750919
 10
140.8196652333
 20
129.3047631454
 10
140.8104223337
 20
129.3054105655
 10
140.8012592172
 20
129.3066158813
 10
140.7946453866
 20
129.3078438154
  0
LWPOLYLINE
  5
334
100
AcDbEntity
  8
COPY_PUBLISH
100
AcDbPolyline
 62
7
  6
CONTINUOUS
 90
12
 70
0
 10
151.3567488752
 20
124.8024165795
 10
151.3340884301
 20
124.7892469526
 10
151.3127060336
 20
124.7735939281
 10
151.2929456545
 20
124.7556087938
 10
151.2751654086
 20
124.7355515271
 10
151.2595953833
 20
124.7136438646
 10
151.2463770264
 20
124.6900076625
 10
151.2357138681
 20
124.6648617444
 10
151.2278417542
 20
124.6386374296
 10
151.2228868887
 20
124.6117269139
 10
151.2209004891
 20
124.5843085464
 10
151.2208630206
 20
124.5799094045
  0
LINE
  5
335
100
AcDbEntity
  8
COPY_PUBLISH
100
AcDbLine
 62
7
  6
CONTINUOUS
 10
150.8959184535
 20
124.8676356993
 11
149.8290875413
 21
124.2723112813
  0
LINE
  5
336
100
AcDbEntity
  8
COPY_PUBLISH
100
AcDbLine
 62
7
  6
CONTINUOUS
 10
151.3567488752
 20
124.8024165795
 11
152.9399205701
 21
125.6146136268
  0
LINE
  5
337
100
AcDbEntity
  8
COPY_PUBLISH
100
AcDbLine
 62
253
  6
CONTINUOUS
 10
151.4698345413
 20
124.7959686044
 11
153.0525911445
 21
125.6079527017
  0
LINE
  5
338
100
AcDbEntity
  8
0
100
AcDbLine
 62
253
  6
CONTINUOUS
 10
155.8384195842
 20
128.1609134228
 11
151.6164838689
 21
126.0129918596
  0
LINE
  5
339
100
AcDbEntity
  8
0
100
AcDbLine
 62
253
  6
CONTINUOUS
 10
156.2525700599
 20
126.7292798481
 11
154.1393002339
 21
125.6541479338
  0
LINE
  5
33A
100
AcDbEntity
  8
0
100
AcDbLine
 62
7
  6
CONTINUOUS
 10
157.4273138939
 20
129.0026487124
 11
157.9222886408
 21
129.2501360859
  0
LINE
  5
33B
100
AcDbEntity
  8
COPY_PUBLISH
100
AcDbLine
 62
7
  6
CONTINUOUS
 10
152.9399225398
 20
125.6146146374
 11
152.9416589573
 21
125.6154828604
  0
LINE
  5
33C
100
AcDbEntity
  8
0
100
AcDbLine
 62
7
  6
CONTINUOUS
 10
150.8959184535
 20
124.8676356993
 11
151.5989114077
 21
125.2182076149
  0
LINE
  5
33D
100
AcDbEntity
  8
RACCORDO
100
AcDbLine
 62
7
  6
CONTINUOUS
 10
163.8409834822
 20
130.7864390315
 11
163.4843567576
 21
130.609292317
  0
LINE
  5
33E
100
AcDbEntity
  8
0
100
AcDbLine
 62
7
  6
CONTINUOUS
 10
163.0788743537
 20
131.0987528764
 11
158.8084193214
 21
129.0112611187
  0
LWPOLYLINE
  5
33F
100
AcDbEntity
  8
COPY_PUBLISH
100
AcDbPolyline
 62
253
  6
CONTINUOUS
 90
16
 70
0
 10
151.3567488752
 20
124.8024165795
 10
151.3601465994
 20
124.8040742039
 10
151.3668918204
 20
124.8068867517
 10
151.3738725593
 20
124.8091853051
 10
151.3810730033
 20
124.8109646575
 10
151.3884768417
 20
124.8122207782
 10
151.3960673032
 20
124.8129508219
 10
151.4038271936
 20
124.8131531347
 10
151.4117389351
 20
124.8128272584
 10
151.4197846058
 20
124.8119739313
 10
151.4279459805
 20
124.8105950862
 10
151.4362045718
 20
124.8086938467
 10
151.4445416721
 20
124.8062745193
 10
151.4529383961
 20
124.8033425844
 10
151.4613757233
 20
124.7999046836
 10
151.4698345413
 20
124.7959686044
  0
LINE
  5
340
100
AcDbEntity
  8
0
100
AcDbLine
 62
7
  6
CONTINUOUS
 10
162.4231779252
 20
130.9629713542
 11
158.1313751824
 21
128.8720265437
  0
LINE
  5
341
100
AcDbEntity
  8
COPY_PUBLISH
100
AcDbLine
 62
7
  6
CONTINUOUS
 10
152.9416617212
 20
125.6154842068
 11
153.476528912
 21
125.8760349594
  0
LINE
  5
342
100
AcDbEntity
  8
COPY_PUBLISH
100
AcDbLine
 62
253
  6
CONTINUOUS
 10
153.0525911445
 20
125.6079527017
 11
153.5870410231
 21
125.8683001683
  0
LINE
  5
343
100
AcDbEntity
  8
COPY_PUBLISH
100
AcDbLine
 62
253
  6
CONTINUOUS
 10
153.476528912
 20
125.8760349594
 11
153.4781844485
 21
125.8768214514
  0
LWPOLYLINE
  5
344
100
AcDbEntity
  8
COPY_PUBLISH
100
AcDbPolyline
 62
7
  6
CONTINUOUS
 90
16
 70
0
 10
152.9416589573
 20
125.6154828604
 10
152.9433165835
 20
125.6162703679
 10
152.9500520723
 20
125.6190779058
 10
152.9570198116
 20
125.6213697674
 10
152.9642040686
 20
125.6231407872
 10
152.9715885843
 20
125.6243869623
 10
152.9791565386
 20
125.6251054275
 10
152.9868908601
 20
125.6252945926
 10
152.9947740661
 20
125.6249540493
 10
153.0027881655
 20
125.6240845077
 10
153.0109150959
 20
125.6226879846
 10
153.0191365069
 20
125.6207676748
 10
153.0274336037
 20
125.6183278481
 10
153.035787597
 20
125.6153740372
 10
153.0441797462
 20
125.6119130242
 10
153.0525911445
 20
125.6079527017
  0
LWPOLYLINE
  5
345
100
AcDbEntity
  8
RACCORDO
100
AcDbPolyline
 62
7
  6
CONTINUOUS
 90
11
 70
0
 10
163.8409834822
 20
130.7864390315
 10
163.9015199808
 20
130.8149137323
 10
163.9580922228
 20
130.8385320666
 10
164.0107002083
 20
130.8572940345
 10
164.0596792102
 20
130.8712677143
 10
164.1046939556
 20
130.8803850277
 10
164.1447386255
 20
130.8844417391
 10
164.1797024203
 20
130.8833238902
 10
164.2096961397
 20
130.8771454395
 10
164.2340463639
 20
130.8660440259
 10
164.2532931485
 20
130.8491077493
  0
LINE
  5
346
100
AcDbEntity
  8
COPY_PUBLISH
100
AcDbLine
 62
7
  6
CONTINUOUS
 10
153.476528912
 20
125.8760349594
 11
153.5047506044
 21
125.8877067334
  0
LWPOLYLINE
  5
347
100
AcDbEntity
  8
RACCORDO
100
AcDbPolyline
 62
7
  6
CONTINUOUS
 90
5
 70
0
 10
140.7272749513
 20
101.5192204414
 10
140.7386124404
 20
101.5154276782
 10
140.7507089647
 20
101.5121175556
 10
140.763564591
 20
101.5091497716
 10
140.7771187215
 20
101.5064608594
  0
LWPOLYLINE
  5
348
100
AcDbEntity
  8
RACCORDO
100
AcDbPolyline
 62
7
  6
CONTINUOUS
 90
6
 70
0
 10
140.6869344131
 20
101.5439193604
 10
140.6922444412
 20
101.5384971782
 10
140.6992475327
 20
101.533056539
 10
140.7074516265
 20
101.5280717955
 10
140.7168106975
 20
101.523487023
 10
140.7272749513
 20
101.5192204414
  0
LWPOLYLINE
  5
349
100
AcDbEntity
  8
COPY_PUBLISH
100
AcDbPolyline
 62
7
  6
CONTINUOUS
 90
8
 70
0
 10
155.4518153762
 20
83.3373187469
 10
155.4703558979
 20
83.3170483652
 10
155.486586273
 20
83.2948267796
 10
155.5003947982
 20
83.2707192559
 10
155.5115338595
 20
83.2449821384
 10
155.5197644103
 20
83.2179788023
 10
155.5249354902
 20
83.189924715
 10
155.5268921288
 20
83.1586800323
  0
LINE
  5
34A
100
AcDbEntity
  8
RACCORDO
100
AcDbLine
 62
7
  6
CONTINUOUS
 10
139.3102974386
 20
103.1979786088
 11
140.6869396697
 21
101.5439130502
  0
LINE
  5
34B
100
AcDbEntity
  8
RACCORDO
100
AcDbLine
 62
253
  6
CONTINUOUS
 10
139.2446476962
 20
103.3481871029
 11
140.7771187215
 21
101.5064608594
  0
LWPOLYLINE
  5
34C
100
AcDbEntity
  8
RACCORDO
100
AcDbPolyline
 62
7
  6
CONTINUOUS
 90
10
 70
0
 10
139.3102945081
 20
103.1979777416
 10
139.2999802419
 20
103.2113421409
 10
139.2903133872
 20
103.2261021615
 10
139.2813794899
 20
103.2417700138
 10
139.2732162829
 20
103.2582702983
 10
139.2659062579
 20
103.2754989773
 10
139.259375956
 20
103.2932043221
 10
139.2536213191
 20
103.311247519
 10
139.2487064882
 20
103.3296011941
 10
139.2446476962
 20
103.3481871029
  0
LWPOLYLINE
  5
34D
100
AcDbEntity
  8
COPY_PUBLISH
100
AcDbPolyline
 62
253
  6
CONTINUOUS
 90
3
 70
0
 10
135.3107133076
 20
132.1862134008
 10
135.3101205257
 20
132.1921360775
 10
135.3100342066
 20
132.1954205975
  0
LINE
  5
34E
100
AcDbEntity
  8
COPY_PUBLISH
100
AcDbLine
 62
7
  6
CONTINUOUS
 10
135.3119792031
 20
132.1642963992
 11
135.3100342125
 21
132.1954478317
  0
LWPOLYLINE
  5
34F
100
AcDbEntity
  8
COPY_PUBLISH
100
AcDbPolyline
 62
253
  6
CONTINUOUS
 90
20
 70
0
 10
135.3832575113
 20
132.1070322423
 10
135.3834258071
 20
132.097671293
 10
135.3839303742
 20
132.088496463
 10
135.3847702519
 20
132.0795252217
 10
135.3859438373
 20
132.0707746739
 10
135.3874488979
 20
132.0622614568
 10
135.3892825839
 20
132.0540017146
 10
135.3914414276
 20
132.0460111273
 10
135.3939213146
 20
132.0383049738
 10
135.396717494
 20
132.0308980249
 10
135.3998246161
 20
132.0238044256
 10
135.4032367777
 20
132.0170376295
 10
135.4069475053
 20
132.0106104724
 10
135.4109497655
 20
132.0045351525
 10
135.4152359141
 20
131.9988232885
 10
135.4197977233
 20
131.9934858352
 10
135.424626453
 20
131.9885329843
 10
135.4297129392
 20
131.9839741029
 10
135.4350475546
 20
131.9798178089
 10
135.440601086
 20
131.9760848594
  0
LWPOLYLINE
  5
350
100
AcDbEntity
  8
COPY_PUBLISH
100
AcDbPolyline
 62
253
  6
CONTINUOUS
 90
22
 70
0
 10
137.0636479764
 20
131.2668370098
 10
137.0638162722
 20
131.2574760604
 10
137.0643208393
 20
131.2483012304
 10
137.065160717
 20
131.2393299891
 10
137.0663343024
 20
131.2305794414
 10
137.067839363
 20
131.2220662242
 10
137.069673049
 20
131.213806482
 10
137.0718318927
 20
131.2058158947
 10
137.0743117797
 20
131.1981097412
 10
137.0771079591
 20
131.1907027924
 10
137.0802150812
 20
131.1836091931
 10
137.0836272428
 20
131.1768423969
 10
137.0873379703
 20
131.1704152399
 10
137.0913402306
 20
131.1643399199
 10
137.0956263792
 20
131.158628056
 10
137.1001881884
 20
131.1532906026
 10
137.1050169181
 20
131.1483377517
 10
137.1101034043
 20
131.1437788704
 10
137.1154380197
 20
131.1396225763
 10
137.1210112903
 20
131.1358763587
 10
137.1268119768
 20
131.1325478753
 10
137.1286134774
 20
131.1316224578
  0
LINE
  5
351
100
AcDbEntity
  8
COPY_PUBLISH
100
AcDbLine
 62
253
  6
CONTINUOUS
 10
135.3832575113
 20
132.4481405319
 11
135.3832575113
 21
132.1070322423
  0
LINE
  5
352
100
AcDbEntity
  8
COPY_PUBLISH
100
AcDbLine
 62
7
  6
CONTINUOUS
 10
136.0134385515
 20
131.6892099203
 11
136.0134385515
 21
131.235256197
  0
LINE
  5
353
100
AcDbEntity
  8
COPY_PUBLISH
100
AcDbLine
 62
253
  6
CONTINUOUS
 10
136.0866618562
 20
131.652598268
 11
136.0866618562
 21
131.1435241238
  0
LINE
  5
354
100
AcDbEntity
  8
COPY_PUBLISH
100
AcDbLine
 62
253
  6
CONTINUOUS
 10
137.0636479764
 20
131.2668370098
 11
137.0636479764
 21
131.6079452993
  0
LINE
  5
355
100
AcDbEntity
  8
COPY_PUBLISH
100
AcDbLine
 62
253
  6
CONTINUOUS
 10
137.4162733474
 20
131.2663754232
 11
137.4162733474
 21
131.6074837128
  0
LINE
  5
356
100
AcDbEntity
  8
COPY_PUBLISH
100
AcDbLine
 62
253
  6
CONTINUOUS
 10
137.7744571938
 20
130.299626455
 11
137.7744571938
 21
130.9884258933
  0
LWPOLYLINE
  5
357
100
AcDbEntity
  8
COPY_PUBLISH
100
AcDbPolyline
 62
253
  6
CONTINUOUS
 90
34
 70
0
 10
137.0636479764
 20
131.6079452993
 10
137.063846872
 20
131.6183122207
 10
137.0644431114
 20
131.6288547095
 10
137.0654353529
 20
131.6395490426
 10
137.0668213637
 20
131.6503711552
 10
137.0685980248
 20
131.6612966947
 10
137.0707613384
 20
131.6723010761
 10
137.0733064366
 20
131.6833595367
 10
137.0762275921
 20
131.6944471922
 10
137.0795182317
 20
131.7055390927
 10
137.0831709505
 20
131.7166102787
 10
137.0871775292
 20
131.7276358373
 10
137.0915289519
 20
131.7385909582
 10
137.0962154268
 20
131.7494509897
 10
137.1012264082
 20
131.760191494
 10
137.1065506201
 20
131.7707883023
 10
137.1121760818
 20
131.7812175693
 10
137.1180901346
 20
131.7914558264
 10
137.1242794703
 20
131.8014800351
 10
137.1307301615
 20
131.8112676383
 10
137.1374276924
 20
131.8207966117
 10
137.1443569921
 20
131.8300455126
 10
137.1515024678
 20
131.8389935287
 10
137.1588480405
 20
131.8476205247
 10
137.1663771808
 20
131.8559070878
 10
137.1740729463
 20
131.8638345712
 10
137.1819180196
 20
131.8713851361
 10
137.1898947473
 20
131.8785417918
 10
137.1979851799
 20
131.8852884341
 10
137.2061711118
 20
131.8916098813
 10
137.2144341227
 20
131.8974919087
 10
137.2227556188
 20
131.9029212802
 10
137.2311168746
 20
131.9078857784
 10
137.2394990753
 20
131.9123742319
  0
LWPOLYLINE
  5
358
100
AcDbEntity
  8
0
100
AcDbPolyline
 62
7
  6
CONTINUOUS
 90
6
 70
0
 10
150.6913148069
 20
130.3615821019
 10
150.7115486388
 20
130.3839548945
 10
150.7268517584
 20
130.4066095434
 10
150.7372241656
 20
130.4295460486
 10
150.7426537959
 20
130.4529721509
 10
150.7435425138
 20
130.4672707357
  0
LWPOLYLINE
  5
359
100
AcDbEntity
  8
RACCORDO
100
AcDbPolyline
 62
7
  6
CONTINUOUS
 90
4
 70
0
 10
132.9612872232
 20
112.0355711912
 10
132.9482261907
 20
112.0267370115
 10
132.9360338076
 20
112.0182571185
 10
132.9139422803
 20
112.0027330956
  0
LWPOLYLINE
  5
35A
100
AcDbEntity
  8
RACCORDO
100
AcDbPolyline
 62
7
  6
CONTINUOUS
 90
3
 70
0
 10
133.0048608656
 20
112.0640113236
 10
132.989694642
 20
112.0542476007
 10
132.9612872232
 20
112.0355711912
  0
LWPOLYLINE
  5
35B
100
AcDbEntity
  8
RACCORDO
100
AcDbPolyline
 62
7
  6
CONTINUOUS
 90
3
 70
0
 10
133.0538366612
 20
112.0945057387
 10
133.0370024725
 20
112.0841698033
 10
133.0048608656
 20
112.0640113236
  0
LWPOLYLINE
  5
35C
100
AcDbEntity
  8
RACCORDO
100
AcDbPolyline
 62
7
  6
CONTINUOUS
 90
3
 70
0
 10
133.1067873753
 20
112.1258971515
 10
133.0887973799
 20
112.1153978886
 10
133.0538366612
 20
112.0945057387
  0
LINE
  5
35D
100
AcDbEntity
  8
RACCORDO
100
AcDbLine
 62
253
  6
CONTINUOUS
 10
164.9349511545
 20
129.4659032358
 11
156.2525700599
 21
124.9341066362
  0
LINE
  5
35E
100
AcDbEntity
  8
RACCORDO
100
AcDbLine
 62
253
  6
CONTINUOUS
 10
165.2966297902
 20
128.543303568
 11
156.2525700599
 21
123.822727647
  0
LINE
  5
35F
100
AcDbEntity
  8
RACCORDO
100
AcDbLine
 62
7
  6
CONTINUOUS
 10
134.1834496801
 20
112.6697734873
 11
133.195540759
 21
112.1738981853
  0
LINE
  5
360
100
AcDbEntity
  8
COPY_PUBLISH
100
AcDbLine
 62
253
  6
CONTINUOUS
 10
155.980920938
 20
123.0272028498
 11
155.2799849842
 21
122.6756024339
  0
LINE
  5
361
100
AcDbEntity
  8
COPY_PUBLISH
100
AcDbLine
 62
253
  6
CONTINUOUS
 10
153.1483726117
 20
123.9566995692
 11
154.7496534025
 21
124.7594215727
  0
LINE
  5
362
100
AcDbEntity
  8
COPY_PUBLISH
100
AcDbLine
 62
253
  6
CONTINUOUS
 10
153.3251463154
 20
123.6518100304
 11
154.9264271062
 21
124.4545320339
  0
LINE
  5
363
100
AcDbEntity
  8
COPY_PUBLISH
100
AcDbLine
 62
253
  6
CONTINUOUS
 10
154.7496534025
 20
124.7594215727
 11
155.2779205743
 21
125.0228603927
  0
LINE
  5
364
100
AcDbEntity
  8
COPY_PUBLISH
100
AcDbLine
 62
253
  6
CONTINUOUS
 10
154.9264271062
 20
124.4545320339
 11
155.454694278
 21
124.7179708539
  0
LINE
  5
365
100
AcDbEntity
  8
DRAFT
100
AcDbLine
 62
7
  6
CONTINUOUS
 10
134.1834496801
 20
112.760556682
 11
134.633869299
 21
112.9848752976
  0
LWPOLYLINE
  5
366
100
AcDbEntity
  8
RACCORDO
100
AcDbPolyline
 62
7
  6
CONTINUOUS
 90
4
 70
0
 10
133.195540759
 20
112.1738981853
 10
133.1784722623
 20
112.1656105878
 10
133.1609654034
 20
112.1563333213
 10
133.1067873753
 20
112.1258971515
  0
LWPOLYLINE
  5
367
100
AcDbEntity
  8
COPY_PUBLISH
100
AcDbPolyline
 62
253
  6
CONTINUOUS
 90
40
 70
0
 10
150.6448453391
 20
118.9955483942
 10
150.6304065893
 20
118.9914242452
 10
150.615439688
 20
118.9875919589
 10
150.5999683811
 20
118.9840576154
 10
150.5840172148
 20
118.9808268221
 10
150.5676114966
 20
118.977904705
 10
150.5507772553
 20
118.9752959001
 10
150.5335411993
 20
118.9730045465
 10
150.5159306748
 20
118.9710342795
 10
150.497973622
 20
118.969388225
 10
150.4796985309
 20
118.9680689948
 10
150.461134396
 20
118.9670786818
 10
150.4423106705
 20
118.9664188571
 10
150.4232572194
 20
118.9660905677
 10
150.4040042723
 20
118.9660943344
 10
150.3845823751
 20
118.9664301513
 10
150.3650223419
 20
118.9670974855
 10
150.3453552059
 20
118.9680952782
 10
150.3256121702
 20
118.9694219464
 10
150.3058245585
 20
118.9710753853
 10
150.2860237649
 20
118.9730529716
 10
150.2662412048
 20
118.9753515677
 10
150.2465082643
 20
118.9779675268
 10
150.226856251
 20
118.9808966984
 10
150.2073163441
 20
118.9841344352
 10
150.1879195448
 20
118.9876756004
 10
150.1686966275
 20
118.9915145758
 10
150.1496780903
 20
118.9956452704
 10
150.1308941076
 20
119.0000611308
 10
150.1123744811
 20
119.0047551508
 10
150.0941485936
 20
119.0097198832
 10
150.0762453613
 20
119.014947451
 10
150.0586931891
 20
119.0204295604
 10
150.0415199245
 20
119.0261575137
 10
150.0247528139
 20
119.0321222231
 10
150.0084184595
 20
119.0383142253
 10
149.9925427766
 20
119.0447236962
 10
149.9771509532
 20
119.0513404669
 10
149.9622674092
 20
119.0581540393
 10
149.9479157583
 20
119.0651536034
  0
LWPOLYLINE
  5
368
100
AcDbEntity
  8
RACCORDO
100
AcDbPolyline
 62
253
  6
CONTINUOUS
 90
13
 70
0
 10
129.3175575917
 20
102.0840202569
 10
129.3345863392
 20
102.0878781319
 10
129.3537451384
 20
102.0929371489
 10
129.3747058539
 20
102.0991106614
 10
129.3971094888
 20
102.1062929347
 10
129.4205723329
 20
102.1143609572
 10
129.4446925351
 20
102.1231765467
 10
129.4690569853
 20
102.1325887174
 10
129.4932483904
 20
102.1424362659
 10
129.5168524209
 20
102.1525505318
 10
129.5394648074
 20
102.1627582868
 10
129.5606982646
 20
102.1728847013
 10
129.5801891242
 20
102.1827563388
  0
LINE
  5
369
100
AcDbEntity
  8
DRAFT
100
AcDbLine
 62
7
  6
CONTINUOUS
 10
130.7519050309
 20
102.0258096555
 11
130.9155612516
 21
102.0597039686
  0
LINE
  5
36A
100
AcDbEntity
  8
RACCORDO
100
AcDbLine
 62
253
  6
CONTINUOUS
 10
131.1499610543
 20
101.5790827854
 11
129.851617108
 21
101.3136562465
  0
LINE
  5
36B
100
AcDbEntity
  8
RACCORDO
100
AcDbLine
 62
253
  6
CONTINUOUS
 10
129.851617108
 20
101.3136562465
 11
129.6422703996
 21
101.2709612745
  0
LWPOLYLINE
  5
36C
100
AcDbEntity
  8
RACCORDO
100
AcDbPolyline
 62
253
  6
CONTINUOUS
 90
3
 70
0
 10
131.0193922864
 20
101.7968589486
 10
129.9226311915
 20
101.5738260022
 10
129.8322539507
 20
101.5555279023
  0
LWPOLYLINE
  5
36D
100
AcDbEntity
  8
COPY_PUBLISH
100
AcDbPolyline
 62
253
  6
CONTINUOUS
 90
34
 70
0
 10
153.3251463154
 20
82.0122319569
 10
153.3207257029
 20
82.01915087
 10
153.3159184063
 20
82.026254819
 10
153.3107352757
 20
82.0335277701
 10
153.3051880127
 20
82.0409533038
 10
153.299289135
 20
82.0485146646
 10
153.2930519456
 20
82.0561947992
 10
153.2864905118
 20
82.0639763839
 10
153.2796196493
 20
82.0718418459
 10
153.2724548806
 20
82.0797734154
 10
153.265012384
 20
82.0877531834
 10
153.2573089519
 20
82.0957631459
 10
153.2493619683
 20
82.1037852274
 10
153.2411893689
 20
82.1118013228
 10
153.2328096007
 20
82.1197933384
 10
153.2242415771
 20
82.127743236
 10
153.2155046369
 20
82.1356330722
 10
153.2066184993
 20
82.1434450396
 10
153.1976032196
 20
82.1511615073
 10
153.1884791472
 20
82.1587650577
 10
153.179266874
 20
82.1662385305
 10
153.1699871864
 20
82.1735650626
 10
153.1606610174
 20
82.180728126
 10
153.1513094281
 20
82.1877115438
 10
153.1419535542
 20
82.1944995333
 10
153.1326145293
 20
82.2010767631
 10
153.1233134146
 20
82.2074284027
 10
153.1140711797
 20
82.2135401326
 10
153.1049084533
 20
82.2193983038
 10
153.0958461522
 20
82.2249895357
 10
153.0869053845
 20
82.2303008274
 10
153.0781065129
 20
82.235320136
 10
153.0694691364
 20
82.2400363356
 10
153.0610127034
 20
82.2444388545
  0
LINE
  5
36E
100
AcDbEntity
  8
COPY_PUBLISH
100
AcDbLine
 62
7
  6
CONTINUOUS
 10
138.9191616327
 20
130.3606183143
 11
138.9172049942
 21
130.391862997
  0
LWPOLYLINE
  5
36F
100
AcDbEntity
  8
COPY_PUBLISH
100
AcDbPolyline
 62
253
  6
CONTINUOUS
 90
20
 70
0
 10
138.9904282927
 20
130.3034468516
 10
138.9905965886
 20
130.2940859012
 10
138.9911011558
 20
130.2849110702
 10
138.9919410336
 20
130.275939828
 10
138.9931146193
 20
130.2671892793
 10
138.9946196803
 20
130.2586760612
 10
138.9964533666
 20
130.2504163184
 10
138.9986122107
 20
130.2424257308
 10
139.0010920981
 20
130.2347195772
 10
139.0038882779
 20
130.2273126282
 10
139.0069954004
 20
130.2202190288
 10
139.0104075625
 20
130.2134522326
 10
139.0141182905
 20
130.2070250755
 10
139.0181205512
 20
130.2009497556
 10
139.0224067004
 20
130.1952378918
 10
139.0269685099
 20
130.1899004388
 10
139.0317972394
 20
130.1849475888
 10
139.0368837252
 20
130.1803887084
 10
139.0422183401
 20
130.1762324152
 10
139.0477768011
 20
130.1724961526
  0
LINE
  5
370
100
AcDbEntity
  8
0
100
AcDbLine
 62
7
  6
CONTINUOUS
 10
138.1114286192
 20
99.0300158085
 11
138.1114286192
 21
99.8794891914
  0
LINE
  5
371
100
AcDbEntity
  8
COPY_PUBLISH
100
AcDbLine
 62
253
  6
CONTINUOUS
 10
138.1270825648
 20
130.310452075
 11
138.1270825648
 21
131.1180775957
  0
LINE
  5
372
100
AcDbEntity
  8
COPY_PUBLISH
100
AcDbLine
 62
7
  6
CONTINUOUS
 10
138.917204988
 20
130.7318091334
 11
138.917204988
 21
130.3918351993
  0
LINE
  5
373
100
AcDbEntity
  8
COPY_PUBLISH
100
AcDbLine
 62
253
  6
CONTINUOUS
 10
138.9904282927
 20
130.6434207858
 11
138.9904282927
 21
130.3034468516
  0
LINE
  5
374
100
AcDbEntity
  8
0
100
AcDbLine
 62
7
  6
CONTINUOUS
 10
139.0165245295
 20
130.9309855592
 11
139.0165245295
 21
132.4094833222
  0
LINE
  5
375
100
AcDbEntity
  8
COPY_PUBLISH
100
AcDbLine
 62
7
  6
CONTINUOUS
 10
139.6201979423
 20
129.885830225
 11
139.6201979423
 21
129.431876483
  0
LINE
  5
376
100
AcDbEntity
  8
COPY_PUBLISH
100
AcDbLine
 62
253
  6
CONTINUOUS
 10
139.693421247
 20
129.8492185726
 11
139.693421247
 21
129.3401444284
  0
LINE
  5
377
100
AcDbEntity
  8
COPY_PUBLISH
100
AcDbLine
 62
253
  6
CONTINUOUS
 10
140.2933265429
 20
135.4692622577
 11
140.2933265429
 21
135.943663633
  0
LINE
  5
378
100
AcDbEntity
  8
COPY_PUBLISH
100
AcDbLine
 62
253
  6
CONTINUOUS
 10
140.2933265429
 20
136.2998394996
 11
140.2933265429
 21
136.8530102227
  0
LINE
  5
379
100
AcDbEntity
  8
COPY_PUBLISH
100
AcDbLine
 62
7
  6
CONTINUOUS
 10
140.4241613941
 20
135.6269217252
 11
140.4241613941
 21
136.8747709676
  0
LWPOLYLINE
  5
37A
100
AcDbEntity
  8
COPY_PUBLISH
100
AcDbPolyline
 62
253
  6
CONTINUOUS
 90
34
 70
0
 10
138.9904282927
 20
130.6434207858
 10
138.9906270406
 20
130.6537838206
 10
138.9912228373
 20
130.6643223012
 10
138.9922143433
 20
130.6750125311
 10
138.993599329
 20
130.6858304724
 10
138.9953746801
 20
130.6967518002
 10
138.9975364047
 20
130.7077519571
 10
139.0000796419
 20
130.7188062084
 10
139.0029986731
 20
130.7298896978
 10
139.0062869347
 20
130.7409775031
 10
139.0099370326
 20
130.7520446927
 10
139.0139407595
 20
130.7630663811
 10
139.0182891126
 20
130.7740177852
 10
139.0229723143
 20
130.7848742799
 10
139.0279798341
 20
130.7956114536
 10
139.0333004122
 20
130.806205163
 10
139.0389220848
 20
130.8166315873
 10
139.0448322113
 20
130.8268672819
 10
139.0510175022
 20
130.8368892311
 10
139.0574640495
 20
130.8466748997
 10
139.0641573576
 20
130.8562022839
 10
139.0710823761
 20
130.8654499607
 10
139.0782235336
 20
130.874397136
 10
139.0855647725
 20
130.8830236914
 10
139.0930895857
 20
130.8913102294
 10
139.100781053
 20
130.8992381171
 10
139.1086218795
 20
130.9067895281
 10
139.1165944346
 20
130.9139474824
 10
139.1246807914
 20
130.9206958849
 10
139.132862767
 20
130.9270195612
 10
139.1411219637
 20
130.932904292
 10
139.14943981
 20
130.9383368452
 10
139.1577976027
 20
130.9433050052
 10
139.1661765487
 20
130.9477976007
  0
LWPOLYLINE
  5
37B
100
AcDbEntity
  8
COPY_PUBLISH
100
AcDbPolyline
 62
253
  6
CONTINUOUS
 90
34
 70
0
 10
140.6689663631
 20
129.8041517506
 10
140.669165111
 20
129.8145147854
 10
140.6697609077
 20
129.825053266
 10
140.6707524137
 20
129.8357434959
 10
140.6721373994
 20
129.8465614372
 10
140.6739127505
 20
129.857482765
 10
140.6760744751
 20
129.8684829219
 10
140.6786177123
 20
129.8795371732
 10
140.6815367435
 20
129.8906206626
 10
140.6848250051
 20
129.9017084679
 10
140.688475103
 20
129.9127756575
 10
140.6924788299
 20
129.9237973459
 10
140.696827183
 20
129.9347487499
 10
140.7015103847
 20
129.9456052447
 10
140.7065179045
 20
129.9563424184
 10
140.7118384826
 20
129.9669361278
 10
140.7174601553
 20
129.9773625521
 10
140.7233702817
 20
129.9875982467
 10
140.7295555727
 20
129.9976201959
 10
140.7360021199
 20
130.0074058645
 10
140.742695428
 20
130.0169332487
 10
140.7496204465
 20
130.0261809255
 10
140.756761604
 20
130.0351281008
 10
140.764102843
 20
130.0437546562
 10
140.7716276561
 20
130.0520411942
 10
140.7793191234
 20
130.0599690819
 10
140.78715995
 20
130.0675204929
 10
140.795132505
 20
130.0746784472
 10
140.8032188618
 20
130.0814268497
 10
140.8114008374
 20
130.0877505259
 10
140.8196600341
 20
130.0936352568
 10
140.8279778804
 20
130.09906781
 10
140.8363356731
 20
130.10403597
 10
140.8447146191
 20
130.1085285655
  0
LWPOLYLINE
  5
37C
100
AcDbEntity
  8
0
100
AcDbPolyline
 62
7
  6
CONTINUOUS
 90
7
 70
0
 10
154.1237843002
 20
132.3568690379
 10
154.1784546743
 20
132.4393079949
 10
154.2724466869
 20
132.5582967433
 10
154.3785611422
 20
132.6681875059
 10
154.4962111776
 20
132.7683725352
 10
154.6247461332
 20
132.8582977612
 10
154.7634551504
 20
132.9374658551
  0
LINE
  5
37D
100
AcDbEntity
  8
0
100
AcDbLine
 62
7
  6
CONTINUOUS
 10
155.2495591331
 20
130.1265568834
 11
154.9557517874
 21
129.8055702633
  0
LINE
  5
37E
100
AcDbEntity
  8
0
100
AcDbLine
 62
7
  6
CONTINUOUS
 10
155.0374270987
 20
129.7826229005
 11
155.0141169445
 21
129.7571563908
  0
LINE
  5
37F
100
AcDbEntity
  8
0
100
AcDbLine
 62
7
  6
CONTINUOUS
 10
156.7099075587
 20
129.8227350216
 11
156.8482114818
 21
129.9738330438
  0
LINE
  5
380
100
AcDbEntity
  8
0
100
AcDbLine
 62
7
  6
CONTINUOUS
 10
156.7405307223
 20
130.6946162701
 11
156.3168684264
 21
130.2449171565
  0
LWPOLYLINE
  5
381
100
AcDbEntity
  8
COPY_PUBLISH
100
AcDbPolyline
 62
253
  6
CONTINUOUS
 90
43
 70
0
 10
150.6158887579
 20
120.1290584183
 10
150.5926978407
 20
120.1157278047
 10
150.5695718432
 20
120.1015122339
 10
150.5465351117
 20
120.0864269345
 10
150.5236118084
 20
120.0704882444
 10
150.5008261521
 20
120.0537130411
 10
150.4782024002
 20
120.0361186817
 10
150.4557641872
 20
120.0177237832
 10
150.4335353306
 20
119.9985481143
 10
150.4115400713
 20
119.9786120174
 10
150.3898016674
 20
119.9579368601
 10
150.3683428972
 20
119.9365446287
 10
150.3471868713
 20
119.9144577846
 10
150.3263558566
 20
119.8916998638
 10
150.3058717901
 20
119.86829515
 10
150.2857567787
 20
119.8442682834
 10
150.2660319852
 20
119.8196448327
 10
150.2467181931
 20
119.7944510755
 10
150.2278363221
 20
119.7687136647
 10
150.209406283
 20
119.7424600504
 10
150.19144744
 20
119.7157181767
 10
150.1739791768
 20
119.6885162588
 10
150.1570198966
 20
119.6608832614
 10
150.1405874369
 20
119.6328486158
 10
150.1246995321
 20
119.6044419169
 10
150.1093729053
 20
119.5756933629
 10
150.0946236955
 20
119.546633597
 10
150.0804678715
 20
119.5172934224
 10
150.0669203644
 20
119.4877040952
 10
150.0539953958
 20
119.457897073
 10
150.0417069076
 20
119.4279038547
 10
150.03006786
 20
119.3977563631
 10
150.0190904747
 20
119.3674866536
 10
150.00878657
 20
119.3371266624
 10
149.9991669756
 20
119.3067085381
 10
149.9902418492
 20
119.276264766
 10
149.98202091
 20
119.2458278743
 10
149.9745128737
 20
119.2154304524
 10
149.96772554
 20
119.1851045823
 10
149.9616661411
 20
119.1548819667
 10
149.9563411087
 20
119.1247945541
 10
149.9517560333
 20
119.0948745
 10
149.9479157572
 20
119.065153603
  0
LWPOLYLINE
  5
382
100
AcDbEntity
  8
COPY_PUBLISH
100
AcDbPolyline
 62
253
  6
CONTINUOUS
 90
43
 70
0
 10
150.9817214979
 20
119.5260559726
 10
150.970013228
 20
119.5194325367
 10
150.9583599262
 20
119.5123810573
 10
150.9467615925
 20
119.5049015344
 10
150.9352053554
 20
119.496984755
 10
150.9237040864
 20
119.488639932
 10
150.9122964003
 20
119.4798947046
 10
150.9009832344
 20
119.4707481397
 10
150.8897636514
 20
119.4612011703
 10
150.8786734537
 20
119.4512842341
 10
150.8677131029
 20
119.4409961861
 10
150.8568821373
 20
119.4303381713
 10
150.8462149745
 20
119.4193440625
 10
150.8357121265
 20
119.4080127861
 10
150.8253730812
 20
119.3963454156
 10
150.8152307192
 20
119.3843790449
 10
150.8052856447
 20
119.3721126898
 10
150.7955372533
 20
119.3595473345
 10
150.7860166125
 20
119.3467230253
 10
150.7767244677
 20
119.333638958
 10
150.7676600734
 20
119.320295937
 10
150.7588522606
 20
119.3067364207
 10
150.7503018512
 20
119.2929597281
 10
150.7420080233
 20
119.2789665404
 10
150.7339971421
 20
119.2648013594
 10
150.7262701003
 20
119.2504636207
 10
150.7188260052
 20
119.2359538888
 10
150.7116885442
 20
119.2213183585
 10
150.7048587043
 20
119.2065566485
 10
150.6983354984
 20
119.1916691401
 10
150.6921396523
 20
119.1767031713
 10
150.6862722077
 20
119.1616585054
 10
150.6807321229
 20
119.146535379
 10
150.6755369987
 20
119.1313818402
 10
150.6706879232
 20
119.1161977287
 10
150.6661838082
 20
119.1009832047
 10
150.6620389905
 20
119.0857867972
 10
150.6582544958
 20
119.0706075515
 10
150.6548292984
 20
119.0554464223
 10
150.651774658
 20
119.0403548027
 10
150.649094328
 20
119.0253498236
 10
150.646784555
 20
119.0104143541
 10
150.6448453391
 20
118.9955483942
  0
LINE
  5
383
100
AcDbEntity
  8
COPY_PUBLISH
100
AcDbLine
 62
7
  6
CONTINUOUS
 10
154.9264271062
 20
122.8523813729
 11
154.0363669235
 21
122.3557004516
  0
LINE
  5
384
100
AcDbEntity
  8
COPY_PUBLISH
100
AcDbLine
 62
253
  6
CONTINUOUS
 10
155.2802496215
 20
122.6754701153
 11
150.6158887579
 21
120.1290584183
  0
LINE
  5
385
100
AcDbEntity
  8
COPY_PUBLISH
100
AcDbLine
 62
253
  6
CONTINUOUS
 10
155.6335338874
 20
122.0656170887
 11
150.9817214979
 21
119.5260559726
  0
LINE
  5
386
100
AcDbEntity
  8
COPY_PUBLISH
100
AcDbLine
 62
253
  6
CONTINUOUS
 10
156.3344698412
 20
122.4174303521
 11
155.6335338874
 21
122.0658299362
  0
LINE
  5
387
100
AcDbEntity
  8
RACCORDO
100
AcDbLine
 62
253
  6
CONTINUOUS
 10
134.6775787882
 20
111.1209148417
 11
132.9139422803
 21
112.0027330956
  0
LINE
  5
388
100
AcDbEntity
  8
RACCORDO
100
AcDbLine
 62
253
  6
CONTINUOUS
 10
134.6208740923
 20
111.4612315187
 11
133.195540759
 21
112.1738981853
  0
LWPOLYLINE
  5
389
100
AcDbEntity
  8
COPY_PUBLISH
100
AcDbPolyline
 62
253
  6
CONTINUOUS
 90
3
 70
0
 10
138.9178889691
 20
130.3825950323
 10
138.9172931707
 20
130.3885154265
 10
138.917204988
 20
130.3918352068
  0
LWPOLYLINE
  5
38A
100
AcDbEntity
  8
COPY_PUBLISH
100
AcDbPolyline
 62
253
  6
CONTINUOUS
 90
22
 70
0
 10
140.6689663631
 20
129.4641778164
 10
140.6691341953
 20
129.454829647
 10
140.669637602
 20
129.4456639704
 10
140.6704759691
 20
129.4366984009
 10
140.6716481957
 20
129.4279492216
 10
140.6731523142
 20
129.4194343473
 10
140.6749851174
 20
129.4111730135
 10
140.6771428423
 20
129.4031818745
 10
140.6796215764
 20
129.3954751602
 10
140.6824166337
 20
129.3880674611
 10
140.6855227306
 20
129.3809728331
 10
140.6889339409
 20
129.3742048597
 10
140.6926437253
 20
129.3677765266
 10
140.6966449885
 20
129.3617001126
 10
140.7009301344
 20
129.3559871385
 10
140.7054910344
 20
129.3506484427
 10
140.7103190405
 20
129.3456941642
 10
140.7154049336
 20
129.3411337781
 10
140.7207389637
 20
129.3369760229
 10
140.7263109283
 20
129.3332288303
 10
140.7321102486
 20
129.329899294
 10
140.7339396688
 20
129.3289593617
  0
LINE
  5
38B
100
AcDbEntity
  8
DRAFT
100
AcDbLine
 62
253
  6
CONTINUOUS
 10
142.523657119
 20
134.234973268
 11
142.5413470261
 21
132.993679488
  0
LINE
  5
38C
100
AcDbEntity
  8
COPY_PUBLISH
100
AcDbLine
 62
253
  6
CONTINUOUS
 10
140.6689663631
 20
129.4641778164
 11
140.6689663631
 21
129.8041517506
  0
LINE
  5
38D
100
AcDbEntity
  8
COPY_PUBLISH
100
AcDbLine
 62
253
  6
CONTINUOUS
 10
141.0214883227
 20
129.4636650926
 11
141.0214883227
 21
129.8036390267
  0
LINE
  5
38E
100
AcDbEntity
  8
COPY_PUBLISH
100
AcDbLine
 62
253
  6
CONTINUOUS
 10
141.3801869712
 20
128.4967615663
 11
141.3801869712
 21
129.1855821893
  0
LINE
  5
38F
100
AcDbEntity
  8
COPY_PUBLISH
100
AcDbLine
 62
253
  6
CONTINUOUS
 10
141.7327089308
 20
128.507529448
 11
141.7327089308
 21
129.3151615697
  0
LINE
  5
390
100
AcDbEntity
  8
0
100
AcDbLine
 62
7
  6
CONTINUOUS
 10
142.6227691136
 20
129.0042103692
 11
142.6227691136
 21
130.6063610302
  0
LINE
  5
391
100
AcDbEntity
  8
0
100
AcDbLine
 62
7
  6
CONTINUOUS
 10
138.2081685753
 20
98.9132403516
 11
138.9836020287
 21
100.945899838
  0
LINE
  5
392
100
AcDbEntity
  8
0
100
AcDbLine
 62
253
  6
CONTINUOUS
 10
154.561084435
 20
132.6093580972
 11
154.7634551504
 21
132.9374658551
  0
LINE
  5
393
100
AcDbEntity
  8
DRAFT
100
AcDbLine
 62
253
  6
CONTINUOUS
 10
155.2425964407
 20
132.9567533368
 11
155.1222135389
 21
132.7615740891
  0
LINE
  5
394
100
AcDbEntity
  8
DRAFT
100
AcDbLine
 62
7
  6
CONTINUOUS
 10
155.1222135389
 20
132.7615740891
 11
155.0658197454
 21
132.6701416844
  0
LINE
  5
395
100
AcDbEntity
  8
DRAFT
100
AcDbLine
 62
7
  6
CONTINUOUS
 10
134.1834496801
 20
112.6697734873
 11
134.6288071292
 21
112.4470947627
  0
LWPOLYLINE
  5
396
100
AcDbEntity
  8
COPY_PUBLISH
100
AcDbPolyline
 62
7
  6
CONTINUOUS
 90
5
 70
0
 10
140.4241613231
 20
136.8752031886
 10
140.4239188231
 20
136.8774388508
 10
140.4229590308
 20
136.8798330472
 10
140.4213038276
 20
136.8817585624
 10
140.4191427216
 20
136.8831733776
  0
LINE
  5
397
100
AcDbEntity
  8
DRAFT
100
AcDbLine
 62
7
  6
CONTINUOUS
 10
143.5200195037
 20
133.79636525
 11
143.514506213
 21
134.3621978536
  0
LINE
  5
398
100
AcDbEntity
  8
DRAFT
100
AcDbLine
 62
7
  6
CONTINUOUS
 10
145.0991537969
 20
134.3723720283
 11
145.0937002272
 21
135.1404629366
  0
LINE
  5
399
100
AcDbEntity
  8
COPY_PUBLISH
100
AcDbLine
 62
7
  6
CONTINUOUS
 10
143.5481786695
 20
128.8589284829
 11
143.5481786695
 21
127.4127657172
  0
LINE
  5
39A
100
AcDbEntity
  8
DRAFT
100
AcDbLine
 62
253
  6
CONTINUOUS
 10
143.9662719978
 20
133.6659381064
 11
143.9662719978
 21
133.1422517163
  0
LINE
  5
39B
100
AcDbEntity
  8
COPY_PUBLISH
100
AcDbLine
 62
7
  6
CONTINUOUS
 10
144.2075885438
 20
127.08306078
 11
144.2075885438
 21
128.5292235458
  0
LINE
  5
39C
100
AcDbEntity
  8
COPY_PUBLISH
100
AcDbLine
 62
7
  6
CONTINUOUS
 10
144.9208661524
 20
128.7125295768
 11
144.9208661524
 21
127.4789152251
  0
LWPOLYLINE
  5
39D
100
AcDbEntity
  8
COPY_PUBLISH
100
AcDbPolyline
 62
7
  6
CONTINUOUS
 90
25
 70
0
 10
150.8959184535
 20
125.3284088912
 10
150.9014964437
 20
125.34043576
 10
150.9066035397
 20
125.3529002997
 10
150.9112397415
 20
125.3658025105
 10
150.9154102018
 20
125.3791618173
 10
150.9191097679
 20
125.392958795
 10
150.9223229815
 20
125.4071351692
 10
150.9250478065
 20
125.4216925188
 10
150.927286279
 20
125.4366292647
 10
150.9290290489
 20
125.4518823952
 10
150.9302740425
 20
125.4674532293
 10
150.9310233335
 20
125.483340448
 10
150.9312737925
 20
125.4994770826
 10
150.9310233335
 20
125.5158641763
 10
150.9302740425
 20
125.5325006859
 10
150.9290290489
 20
125.5493165136
 10
150.927286279
 20
125.566312414
 10
150.9250478065
 20
125.5834876325
 10
150.9223229815
 20
125.600769807
 10
150.9191097679
 20
125.6181593948
 10
150.9154102018
 20
125.6356559387
 10
150.9112397415
 20
125.6531857057
 10
150.9066035397
 20
125.6707241183
 10
150.9014964437
 20
125.6882957541
 10
150.8959184535
 20
125.705900613
  0
LWPOLYLINE
  5
39E
100
AcDbEntity
  8
0
100
AcDbPolyline
 62
7
  6
CONTINUOUS
 90
13
 70
0
 10
151.5989114077
 20
125.6739519536
 10
151.6108745673
 20
125.6994055455
 10
151.6206837407
 20
125.7266162686
 10
151.6283389281
 20
125.7555841229
 10
151.6338659596
 20
125.7865229061
 10
151.6372390051
 20
125.8192188204
 10
151.6383805737
 20
125.8530304732
 10
151.6372390051
 20
125.8879836946
 10
151.6338659596
 20
125.9240526544
 10
151.6283389281
 20
125.960518469
 10
151.6206837407
 20
125.9971415107
 10
151.6108745673
 20
126.0341614073
 10
151.5989114077
 20
126.0715781588
  0
LWPOLYLINE
  5
39F
100
AcDbEntity
  8
RACCORDO
100
AcDbPolyline
 62
7
  6
CONTINUOUS
 90
15
 70
0
 10
138.109564905
 20
97.3338010006
 10
138.1004387857
 20
97.3169280013
 10
138.0921418622
 20
97.2980683928
 10
138.085195556
 20
97.278461481
 10
138.0794431121
 20
97.2582176566
 10
138.0748993089
 20
97.2375578604
 10
138.0714880487
 20
97.2166002917
 10
138.0690985027
 20
97.1954554922
 10
138.0677610853
 20
97.1742969291
 10
138.0674051219
 20
97.1531832512
 10
138.0679382291
 20
97.1322195279
 10
138.0693833769
 20
97.1116339468
 10
138.0716915584
 20
97.0915408249
 10
138.0747389372
 20
97.0719402041
 10
138.0784387288
 20
97.0528771099
  0
LWPOLYLINE
  5
3A0
100
AcDbEntity
  8
RACCORDO
100
AcDbPolyline
 62
7
  6
CONTINUOUS
 90
5
 70
0
 10
158.2408046795
 20
131.7682379675
 10
158.2455508244
 20
131.7763451818
 10
158.2494956213
 20
131.7839879054
 10
158.2526390703
 20
131.7911661381
 10
158.2549978049
 20
131.7979254099
  0
LINE
  5
3A1
100
AcDbEntity
  8
RACCORDO
100
AcDbLine
 62
253
  6
CONTINUOUS
 10
136.5329224002
 20
98.8876021124
 11
136.9442465066
 21
99.5691193406
  0
LINE
  5
3A2
100
AcDbEntity
  8
RACCORDO
100
AcDbLine
 62
253
  6
CONTINUOUS
 10
136.8640505357
 20
98.9265248036
 11
137.3882822426
 21
99.7940186781
  0
LINE
  5
3A3
100
AcDbEntity
  8
RACCORDO
100
AcDbLine
 62
253
  6
CONTINUOUS
 10
136.9442465066
 20
99.5691193406
 11
137.3688615136
 21
100.2707807678
  0
LINE
  5
3A4
100
AcDbEntity
  8
RACCORDO
100
AcDbLine
 62
253
  6
CONTINUOUS
 10
137.3882822426
 20
99.7940186781
 11
137.936126985
 21
100.6973713909
  0
LINE
  5
3A5
100
AcDbEntity
  8
RACCORDO
100
AcDbLine
 62
253
  6
CONTINUOUS
 10
137.3688615136
 20
100.2707807678
 11
137.8079554665
 21
100.9943861233
  0
LINE
  5
3A6
100
AcDbEntity
  8
RACCORDO
100
AcDbLine
 62
253
  6
CONTINUOUS
 10
137.8079554665
 20
100.9943861233
 11
138.2653599428
 21
101.7460486556
  0
LINE
  5
3A7
100
AcDbEntity
  8
RACCORDO
100
AcDbLine
 62
253
  6
CONTINUOUS
 10
137.936126985
 20
100.6973713909
 11
138.5100037774
 21
101.6403869259
  0
LINE
  5
3A8
100
AcDbEntity
  8
RACCORDO
100
AcDbLine
 62
253
  6
CONTINUOUS
 10
138.2653599428
 20
101.7460486556
 11
138.7438980839
 21
102.5301552384
  0
LWPOLYLINE
  5
3A9
100
AcDbEntity
  8
RACCORDO
100
AcDbPolyline
 62
253
  6
CONTINUOUS
 90
3
 70
0
 10
138.5100037774
 20
101.6403869259
 10
139.119588678
 20
102.6382812202
 10
139.3978644133
 20
103.0926795805
  0
LINE
  5
3AA
100
AcDbEntity
  8
RACCORDO
100
AcDbLine
 62
253
  6
CONTINUOUS
 10
138.7438980839
 20
102.5301552384
 11
139.2446476962
 21
103.3481871029
  0
LINE
  5
3AB
100
AcDbEntity
  8
0
100
AcDbLine
 62
7
  6
CONTINUOUS
 10
155.9748249214
 20
131.6009327476
 11
155.6289785926
 21
131.040205059
  0
LINE
  5
3AC
100
AcDbEntity
  8
0
100
AcDbLine
 62
7
  6
CONTINUOUS
 10
155.6769075444
 20
130.9395315578
 11
155.2172881366
 21
130.1943412617
  0
LINE
  5
3AD
100
AcDbEntity
  8
0
100
AcDbLine
 62
7
  6
CONTINUOUS
 10
155.2495591331
 20
130.1265568834
 11
155.0374270987
 21
129.7826229005
  0
LINE
  5
3AE
100
AcDbEntity
  8
RACCORDO
100
AcDbLine
 62
7
  6
CONTINUOUS
 10
158.9663832292
 20
135.951276556
 11
158.8782567075
 21
135.8083952336
  0
LINE
  5
3AF
100
AcDbEntity
  8
0
100
AcDbLine
 62
7
  6
CONTINUOUS
 10
156.3781312863
 20
131.2901434287
 11
155.9185118785
 21
130.5449531326
  0
LINE
  5
3B0
100
AcDbEntity
  8
0
100
AcDbLine
 62
7
  6
CONTINUOUS
 10
155.9845591331
 20
130.4940568834
 11
155.7724270987
 21
130.1501229005
  0
LINE
  5
3B1
100
AcDbEntity
  8
0
100
AcDbLine
 62
7
  6
CONTINUOUS
 10
158.9908721596
 20
135.106130919
 11
158.7761106017
 21
134.7579336361
  0
LINE
  5
3B2
100
AcDbEntity
  8
0
100
AcDbLine
 62
7
  6
CONTINUOUS
 10
156.2797453147
 20
130.2263556007
 11
156.491877349
 21
130.5702895835
  0
LINE
  5
3B3
100
AcDbEntity
  8
DRAFT
100
AcDbLine
 62
7
  6
CONTINUOUS
 10
139.7971834366
 20
102.6126377711
 11
137.8110944245
 21
99.3925512516
  0
LINE
  5
3B4
100
AcDbEntity
  8
0
100
AcDbLine
 62
7
  6
CONTINUOUS
 10
157.1129782091
 20
130.403104725
 11
156.7404841761
 21
129.7991725715
  0
LINE
  5
3B5
100
AcDbEntity
  8
RACCORDO
100
AcDbLine
 62
7
  6
CONTINUOUS
 10
158.2408046795
 20
131.7682379675
 11
158.1853892626
 21
131.6783918246
  0
LINE
  5
3B6
100
AcDbEntity
  8
0
100
AcDbLine
 62
7
  6
CONTINUOUS
 10
157.0112918922
 20
129.5048316918
 11
157.3100355789
 21
129.9891909086
  0
LWPOLYLINE
  5
3B7
100
AcDbEntity
  8
RACCORDO
100
AcDbPolyline
 62
253
  6
CONTINUOUS
 90
13
 70
0
 10
137.1296570489
 20
98.1779705282
 10
137.139848074
 20
98.1934910136
 10
137.1523061643
 20
98.210021763
 10
137.1668160586
 20
98.2272771445
 10
137.1831270428
 20
98.2449590055
 10
137.2009572823
 20
98.2627618239
 10
137.2199986916
 20
98.2803779881
 10
137.2399222572
 20
98.2975031113
 10
137.2603837234
 20
98.3138412916
 10
137.2810295401
 20
98.3291102242
 10
137.3015029718
 20
98.3430460801
 10
137.3214502615
 20
98.3554080638
 10
137.3405267434
 20
98.3659825748
  0
LINE
  5
3B8
100
AcDbEntity
  8
COPY_PUBLISH
100
AcDbLine
 62
253
  6
CONTINUOUS
 10
155.4700911096
 20
124.29964843
 11
155.4700548502
 21
124.2996041704
  0
LINE
  5
3B9
100
AcDbEntity
  8
COPY_PUBLISH
100
AcDbLine
 62
253
  6
CONTINUOUS
 10
154.9264271062
 20
123.7274871814
 11
155.454694278
 21
124.3704393372
  0
LINE
  5
3BA
100
AcDbEntity
  8
COPY_PUBLISH
100
AcDbLine
 62
7
  6
CONTINUOUS
 10
154.9264271062
 20
123.6379567151
 11
155.4700548503
 21
124.2996041706
  0
LWPOLYLINE
  5
3BB
100
AcDbEntity
  8
RACCORDO
100
AcDbPolyline
 62
7
  6
CONTINUOUS
 90
19
 70
0
 10
129.8322539507
 20
101.5555279023
 10
129.8153172295
 20
101.5457020503
 10
129.7990791229
 20
101.5338524095
 10
129.7835651519
 20
101.5203873482
 10
129.7686739201
 20
101.5057486197
 10
129.7544058852
 20
101.4902432593
 10
129.7409475625
 20
101.473963704
 10
129.728282923
 20
101.4570939227
 10
129.7163228186
 20
101.4398766142
 10
129.7052226803
 20
101.4223740688
 10
129.6949485811
 20
101.4047157164
 10
129.6854228848
 20
101.3870618465
 10
129.6767788735
 20
101.3694750901
 10
129.6689652937
 20
101.3520328822
 10
129.6619209259
 20
101.3348667908
 10
129.6557774183
 20
101.318100167
 10
129.6505333872
 20
101.3018227289
 10
129.6460544003
 20
101.2860906371
 10
129.6422703996
 20
101.2709612745
  0
LINE
  5
3BC
100
AcDbEntity
  8
RACCORDO
100
AcDbLine
 62
7
  6
CONTINUOUS
 10
130.7519050309
 20
102.0258096555
 11
129.8322539507
 21
101.5555279023
  0
LWPOLYLINE
  5
3BD
100
AcDbEntity
  8
RACCORDO
100
AcDbPolyline
 62
7
  6
CONTINUOUS
 90
18
 70
0
 10
127.1088949895
 20
108.3921285837
 10
127.1056739836
 20
108.3914446444
 10
127.0859920289
 20
108.3884325423
 10
127.0658187867
 20
108.3875758765
 10
127.0453911291
 20
108.3886969186
 10
127.0248210445
 20
108.3911065392
 10
127.0042454079
 20
108.3947552463
 10
126.9838305524
 20
108.3997699267
 10
126.9636744634
 20
108.4057220177
 10
126.943865807
 20
108.4125931525
 10
126.9245020677
 20
108.4204406498
 10
126.9056787103
 20
108.4289524018
 10
126.887435131
 20
108.4381283887
 10
126.869850714
 20
108.4479860273
 10
126.8530713124
 20
108.4582389019
 10
126.8371642243
 20
108.4687893922
 10
126.8221177045
 20
108.4797283598
 10
126.8079454502
 20
108.491047495
  0
LINE
  5
3BE
100
AcDbEntity
  8
RACCORDO
100
AcDbLine
 62
253
  6
CONTINUOUS
 10
126.8079454502
 20
108.491047495
 11
128.3303122844
 21
108.8053548087
  0
LINE
  5
3BF
100
AcDbEntity
  8
RACCORDO
100
AcDbLine
 62
7
  6
CONTINUOUS
 10
127.1089901226
 20
108.3916465981
 11
128.3460640022
 21
108.6466949066
  0
LWPOLYLINE
  5
3C0
100
AcDbEntity
  8
RACCORDO
100
AcDbPolyline
 62
253
  6
CONTINUOUS
 90
13
 70
0
 10
132.9663918231
 20
116.7140858135
 10
132.9859452838
 20
116.7054737343
 10
133.0075604384
 20
116.6981479737
 10
133.030871537
 20
116.6922324909
 10
133.0554841326
 20
116.6878273816
 10
133.0809817556
 20
116.6850071847
 10
133.106932961
 20
116.6838196208
 10
133.1328986286
 20
116.6842847846
 10
133.1584393935
 20
116.686394805
 10
133.1831230806
 20
116.6901139785
 10
133.2065320174
 20
116.6953793728
 10
133.2282701015
 20
116.7021018924
 10
133.2479695029
 20
116.7101677855
  0
LINE
  5
3C1
100
AcDbEntity
  8
RACCORDO
100
AcDbLine
 62
253
  6
CONTINUOUS
 10
149.2357132956
 20
108.5794250768
 11
134.7291211698
 21
115.8327211397
  0
LINE
  5
3C2
100
AcDbEntity
  8
RACCORDO
100
AcDbLine
 62
253
  6
CONTINUOUS
 10
132.9663918227
 20
116.7140858133
 11
118.4597996968
 21
123.9673818762
  0
LINE
  5
3C3
100
AcDbEntity
  8
RACCORDO
100
AcDbLine
 62
7
  6
CONTINUOUS
 10
133.1874110956
 20
118.6645667297
 11
134.7228630803
 21
117.8968407374
  0
LINE
  5
3C4
100
AcDbEntity
  8
RACCORDO
100
AcDbLine
 62
253
  6
CONTINUOUS
 10
133.0224264609
 20
118.8373415207
 11
134.7841883914
 21
117.9564605555
  0
LWPOLYLINE
  5
3C5
100
AcDbEntity
  8
RACCORDO
100
AcDbPolyline
 62
7
  6
CONTINUOUS
 90
13
 70
0
 10
133.1875363034
 20
118.6645042188
 10
133.1743005496
 20
118.6716555421
 10
133.1573386122
 20
118.6823016315
 10
133.1409013091
 20
118.6942313272
 10
133.125004529
 20
118.707313034
 10
133.1096257323
 20
118.7214153852
 10
133.0949321482
 20
118.7363724896
 10
133.0809064968
 20
118.7520976809
 10
133.0675390721
 20
118.7684660028
 10
133.0550164086
 20
118.7852792707
 10
133.0433811171
 20
118.8024084209
 10
133.0325300883
 20
118.8197919821
 10
133.0224264609
 20
118.8373415207
  0
LWPOLYLINE
  5
3C6
100
AcDbEntity
  8
RACCORDO
100
AcDbPolyline
 62
253
  6
CONTINUOUS
 90
7
 70
0
 10
134.7291211698
 20
115.8327211397
 10
134.7119601511
 20
115.8424663003
 10
134.6974820717
 20
115.8531871567
 10
134.6859319151
 20
115.8647023015
 10
134.6775051214
 20
115.8768168869
 10
134.6723442802
 20
115.8893259221
 10
134.6705402841
 20
115.9031800786
  0
LWPOLYLINE
  5
3C7
100
AcDbEntity
  8
COPY_PUBLISH
100
AcDbPolyline
 62
253
  6
CONTINUOUS
 90
16
 70
0
 10
127.2411337086
 20
138.4772196218
 10
127.2451064224
 20
138.4705247467
 10
127.248668881
 20
138.4640433048
 10
127.2518130443
 20
138.4577899244
 10
127.254531816
 20
138.4517787191
 10
127.25681906
 20
138.4460232557
 10
127.2586696141
 20
138.440536524
 10
127.2600793019
 20
138.4353309072
 10
127.2610449416
 20
138.4304181541
 10
127.2615643539
 20
138.4258093525
 10
127.2616363665
 20
138.4215149042
 10
127.2612608169
 20
138.4175445015
 10
127.2604385527
 20
138.4139071054
 10
127.2591714296
 20
138.4106109252
 10
127.2574623075
 20
138.4076634002
 10
127.256494281
 20
138.4063844553
  0
LWPOLYLINE
  5
3C8
100
AcDbEntity
  8
COPY_PUBLISH
100
AcDbPolyline
 62
253
  6
CONTINUOUS
 90
14
 70
0
 10
155.456016655
 20
83.2863581895
 10
155.4517707251
 20
83.2963146175
 10
155.4471301047
 20
83.3059604752
 10
155.4421052671
 20
83.3152739924
 10
155.4367075533
 20
83.324234149
 10
155.4309491456
 20
83.3328207225
 10
155.4248430402
 20
83.3410143334
 10
155.4184030184
 20
83.3487964893
 10
155.4116436149
 20
83.3561496264
 10
155.4045800853
 20
83.363057149
 10
155.3972283715
 20
83.3695034672
 10
155.3896050659
 20
83.3754740322
 10
155.3817273739
 20
83.3809553686
 10
155.373613075
 20
83.3859351055
  0
LINE
  5
3C9
100
AcDbEntity
  8
RACCORDO
100
AcDbLine
 62
7
  6
CONTINUOUS
 10
146.3615841736
 20
134.9092423989
 11
146.3648808863
 21
134.4449272454
  0
LINE
  5
3CA
100
AcDbEntity
  8
COPY_PUBLISH
100
AcDbLine
 62
7
  6
CONTINUOUS
 10
147.7388724015
 20
127.1444709969
 11
147.7303116971
 21
128.352117448
  0
LWPOLYLINE
  5
3CB
100
AcDbEntity
  8
DRAFT
100
AcDbPolyline
 62
7
  6
CONTINUOUS
 90
8
 70
0
 10
147.800554061
 20
132.1021511459
 10
147.8005457071
 20
132.1051165728
 10
147.7994300973
 20
132.1272839015
 10
147.7964311125
 20
132.1494541402
 10
147.7915115769
 20
132.1715082453
 10
147.7846590984
 20
132.1934065357
 10
147.7758860691
 20
132.2151886924
 10
147.7651924889
 20
132.2368547156
  0
LINE
  5
3CC
100
AcDbEntity
  8
COPY_PUBLISH
100
AcDbLine
 62
253
  6
CONTINUOUS
 10
146.5453551158
 20
126.6666707434
 11
146.5453551158
 21
127.9002850951
  0
LINE
  5
3CD
100
AcDbEntity
  8
COPY_PUBLISH
100
AcDbLine
 62
253
  6
CONTINUOUS
 10
146.8269583249
 20
126.6750544569
 11
146.8269583249
 21
127.8996707283
  0
LINE
  5
3CE
100
AcDbEntity
  8
COPY_PUBLISH
100
AcDbLine
 62
7
  6
CONTINUOUS
 10
147.042186496
 20
126.794501678
 11
147.042186496
 21
128.0069431056
  0
LINE
  5
3CF
100
AcDbEntity
  8
DRAFT
100
AcDbLine
 62
253
  6
CONTINUOUS
 10
147.5018059038
 20
131.8981711535
 11
147.5018059038
 21
131.7458986053
  0
LINE
  5
3D0
100
AcDbEntity
  8
DRAFT
100
AcDbLine
 62
7
  6
CONTINUOUS
 10
147.7639781553
 20
131.9674454535
 11
147.7651924889
 21
132.2368547156
  0
LWPOLYLINE
  5
3D1
100
AcDbEntity
  8
COPY_PUBLISH
100
AcDbPolyline
 62
253
  6
CONTINUOUS
 90
34
 70
0
 10
146.5453551158
 20
127.9002850951
 10
146.5455135845
 20
127.9085615789
 10
146.5459889122
 20
127.9169816899
 10
146.5467804471
 20
127.9255267125
 10
146.5478870089
 20
127.9341788754
 10
146.5493064285
 20
127.9429176165
 10
146.5510350978
 20
127.9517195194
 10
146.5530687976
 20
127.9605634448
 10
146.5554031919
 20
127.9694308291
 10
146.558033077
 20
127.9783018779
 10
146.5609525889
 20
127.987156745
 10
146.564155146
 20
127.9959754085
 10
146.5676334903
 20
128.0047378657
 10
146.5713797638
 20
128.0134243363
 10
146.5753855666
 20
128.0220153582
 10
146.5796419152
 20
128.0304916633
 10
146.5841392521
 20
128.0388342092
 10
146.5888674532
 20
128.0470242068
 10
146.5938158762
 20
128.0550432172
 10
146.5989733888
 20
128.0628731984
 10
146.6043283951
 20
128.0704965438
 10
146.609868851
 20
128.0778961052
 10
146.6155822974
 20
128.0850552402
 10
146.621455883
 20
128.0919578435
 10
146.6274763926
 20
128.098588383
 10
146.6336302838
 20
128.1049319436
 10
146.6399037167
 20
128.1109742577
 10
146.6462825796
 20
128.1167017329
 10
146.6527525288
 20
128.1221014892
 10
146.6592990086
 20
128.1271613777
 10
146.6659072819
 20
128.1318700085
 10
146.672562481
 20
128.1362167896
 10
146.6792496409
 20
128.1401919489
 10
146.6859537206
 20
128.143786547
  0
LWPOLYLINE
  5
3D2
100
AcDbEntity
  8
COPY_PUBLISH
100
AcDbPolyline
 62
253
  6
CONTINUOUS
 90
34
 70
0
 10
148.2461246573
 20
127.0499003243
 10
148.246283126
 20
127.0581768082
 10
148.2467584536
 20
127.0665969192
 10
148.2475499886
 20
127.0751419417
 10
148.2486565504
 20
127.0837941047
 10
148.25007597
 20
127.0925328458
 10
148.2518046393
 20
127.1013347486
 10
148.253838339
 20
127.1101786741
 10
148.2561727334
 20
127.1190460583
 10
148.2588026185
 20
127.1279171071
 10
148.2617221304
 20
127.1367719743
 10
148.2649246875
 20
127.1455906377
 10
148.2684030318
 20
127.154353095
 10
148.2721493053
 20
127.1630395656
 10
148.2761551081
 20
127.1716305874
 10
148.2804114567
 20
127.1801068926
 10
148.2849087936
 20
127.1884494384
 10
148.2896369947
 20
127.196639436
 10
148.2945854177
 20
127.2046584465
 10
148.2997429303
 20
127.2124884277
 10
148.3050979366
 20
127.2201117731
 10
148.3106383925
 20
127.2275113344
 10
148.3163518389
 20
127.2346704694
 10
148.3222254245
 20
127.2415730727
 10
148.3282459341
 20
127.2482036123
 10
148.3343998253
 20
127.2545471728
 10
148.3406732582
 20
127.260589487
 10
148.3470521211
 20
127.2663169622
 10
148.3535220703
 20
127.2717167185
 10
148.36006855
 20
127.276776607
 10
148.3666768234
 20
127.2814852377
 10
148.3733320225
 20
127.2858320188
 10
148.3800191824
 20
127.2898071781
 10
148.3867232621
 20
127.2934017763
  0
LWPOLYLINE
  5
3D3
100
AcDbEntity
  8
COPY_PUBLISH
100
AcDbPolyline
 62
7
  6
CONTINUOUS
 90
10
 70
0
 10
148.1875460136
 20
127.1206110024
 10
148.1891836191
 20
127.1461489788
 10
148.1941374152
 20
127.1715325421
 10
148.2024017483
 20
127.196252268
 10
148.2138928471
 20
127.2198307998
 10
148.2284088904
 20
127.2417529557
 10
148.2456462405
 20
127.2615523179
 10
148.2654195441
 20
127.2789937938
 10
148.2873156372
 20
127.2936828689
 10
148.2958276536
 20
127.2983404099
  0
LWPOLYLINE
  5
3D4
100
AcDbEntity
  8
COPY_PUBLISH
100
AcDbPolyline
 62
253
  6
CONTINUOUS
 90
30
 70
0
 10
153.3251463154
 20
123.3118360963
 10
153.3207257899
 20
123.3009446015
 10
153.3159185946
 20
123.2902783326
 10
153.310735579
 20
123.2798613628
 10
153.3051884409
 20
123.2697172026
 10
153.2992896999
 20
123.2598687467
 10
153.2930526691
 20
123.2503382225
 10
153.286491425
 20
123.2411471398
 10
153.2796207761
 20
123.2323162424
 10
153.2724562289
 20
123.2238654611
 10
153.2650139535
 20
123.2158138687
 10
153.2573107466
 20
123.2081796374
 10
153.2493639939
 20
123.200979997
 10
153.2411916307
 20
123.1942311967
 10
153.2328121016
 20
123.1879484682
 10
153.2242443186
 20
123.1821459913
 10
153.2155076189
 20
123.1768368617
 10
153.2066217205
 20
123.1720330619
 10
153.1976066785
 20
123.1677454338
 10
153.1884828392
 20
123.1639836542
 10
153.1792707946
 20
123.1607562133
 10
153.1699913358
 20
123.1580703953
 10
153.1606654059
 20
123.1559322618
 10
153.151314053
 20
123.1543466386
 10
153.1419583826
 20
123.1533171042
 10
153.1326195099
 20
123.1528459823
 10
153.1233185121
 20
123.1529343361
 10
153.114076381
 20
123.1535819663
 10
153.1049139757
 20
123.1547874112
 10
153.0983028219
 20
123.1560149355
  0
LINE
  5
3D5
100
AcDbEntity
  8
RACCORDO
100
AcDbLine
 62
253
  6
CONTINUOUS
 10
138.3779554008
 20
97.5538213523
 11
138.0784387288
 21
97.0528771099
  0
LINE
  5
3D6
100
AcDbEntity
  8
RACCORDO
100
AcDbLine
 62
7
  6
CONTINUOUS
 10
138.3480695694
 20
97.7310699969
 11
138.1095459233
 21
97.3337692606
  0
LINE
  5
3D7
100
AcDbEntity
  8
RACCORDO
100
AcDbLine
 62
253
  6
CONTINUOUS
 10
138.9487921736
 20
98.4995276656
 11
138.3779554008
 21
97.5538213523
  0
LINE
  5
3D8
100
AcDbEntity
  8
RACCORDO
100
AcDbLine
 62
7
  6
CONTINUOUS
 10
138.8633632567
 20
98.5844473257
 11
138.3480695688
 21
97.7310699958
  0
LINE
  5
3D9
100
AcDbEntity
  8
RACCORDO
100
AcDbLine
 62
7
  6
CONTINUOUS
 10
139.4065687522
 20
99.4811255568
 11
138.8633632567
 21
98.5844473257
  0
LINE
  5
3DA
100
AcDbEntity
  8
RACCORDO
100
AcDbLine
 62
253
  6
CONTINUOUS
 10
139.4918188571
 20
99.3960866604
 11
138.9487921736
 21
98.4995276656
  0
LINE
  5
3DB
100
AcDbEntity
  8
RACCORDO
100
AcDbLine
 62
7
  6
CONTINUOUS
 10
139.952404238
 20
100.379165395
 11
139.4065687522
 21
99.4811255568
  0
LINE
  5
3DC
100
AcDbEntity
  8
RACCORDO
100
AcDbLine
 62
253
  6
CONTINUOUS
 10
140.01105617
 20
100.2506009794
 11
139.4918188571
 21
99.3960866604
  0
LWPOLYLINE
  5
3DD
100
AcDbEntity
  8
RACCORDO
100
AcDbPolyline
 62
253
  6
CONTINUOUS
 90
3
 70
0
 10
140.7771187215
 20
101.5064608594
 10
140.5240892955
 20
101.0922879814
 10
140.01105617
 20
100.2506009794
  0
LINE
  5
3DE
100
AcDbEntity
  8
RACCORDO
100
AcDbLine
 62
7
  6
CONTINUOUS
 10
140.6731509171
 20
101.5604661487
 11
139.952404238
 21
100.379165395
  0
LWPOLYLINE
  5
3DF
100
AcDbEntity
  8
COPY_PUBLISH
100
AcDbPolyline
 62
7
  6
CONTINUOUS
 90
3
 70
0
 10
155.4915819195
 20
124.3302170966
 10
155.4750061437
 20
124.3058297983
 10
155.4700911096
 20
124.29964843
  0
LINE
  5
3E0
100
AcDbEntity
  8
DRAFT
100
AcDbLine
 62
7
  6
CONTINUOUS
 10
138.3670096314
 20
100.2938678858
 11
140.1541477424
 21
102.1837243881
  0
LWPOLYLINE
  5
3E1
100
AcDbEntity
  8
COPY_PUBLISH
100
AcDbPolyline
 62
253
  6
CONTINUOUS
 90
40
 70
0
 10
149.9365320493
 20
108.5681076696
 10
149.9219375285
 20
108.561664066
 10
149.9068152338
 20
108.5555159319
 10
149.8911891517
 20
108.5496730194
 10
149.8750840678
 20
108.5441445962
 10
149.8585255276
 20
108.5389394316
 10
149.8415397957
 20
108.5340657816
 10
149.8241538145
 20
108.5295313767
 10
149.8063951609
 20
108.5253434093
 10
149.7882920033
 20
108.5215085223
 10
149.7698730564
 20
108.5180327983
 10
149.7511675357
 20
108.5149217505
 10
149.7322051115
 20
108.5121803136
 10
149.7130158613
 20
108.5098128359
 10
149.6936302225
 20
108.5078230726
 10
149.6740789442
 20
108.5062141799
 10
149.6543930379
 20
108.5049887097
 10
149.6346037289
 20
108.5041486059
 10
149.6147424064
 20
108.503695201
 10
149.5948405738
 20
108.5036292141
 10
149.5749297988
 20
108.5039507499
 10
149.5550416634
 20
108.5046592985
 10
149.5352077134
 20
108.5057537359
 10
149.515459409
 20
108.5072323262
 10
149.4958280742
 20
108.509092724
 10
149.4763448478
 20
108.5113319785
 10
149.4570406335
 20
108.5139465379
 10
149.437946051
 20
108.5169322549
 10
149.4190913876
 20
108.5202843938
 10
149.40050655
 20
108.5239976375
 10
149.382221017
 20
108.5280660961
 10
149.3642637925
 20
108.5324833164
 10
149.3466633596
 20
108.5372422918
 10
149.3294476359
 20
108.5423354739
 10
149.3126439282
 20
108.5477547841
 10
149.2962788901
 20
108.5534916262
 10
149.2803784795
 20
108.5595369008
 10
149.2649679169
 20
108.5658810191
 10
149.2500716463
 20
108.572513918
 10
149.2357132957
 20
108.5794250768
  0
LWPOLYLINE
  5
3E2
100
AcDbEntity
  8
COPY_PUBLISH
100
AcDbPolyline
 62
7
  6
CONTINUOUS
 90
7
 70
0
 10
123.081421344
 20
138.1686696505
 10
123.0628793827
 20
138.1889494637
 10
123.0466493896
 20
138.2111810038
 10
123.0328430427
 20
138.2352990554
 10
123.0217081369
 20
138.2610469831
 10
123.0134838561
 20
138.2880609659
 10
123.0083212105
 20
138.3161253955
  0
LWPOLYLINE
  5
3E3
100
AcDbEntity
  8
COPY_PUBLISH
100
AcDbPolyline
 62
253
  6
CONTINUOUS
 90
43
 70
0
 10
150.6448453391
 20
82.3866489488
 10
150.646784555
 20
82.3736556679
 10
150.649094328
 20
82.3609507202
 10
150.651774658
 20
82.3485341058
 10
150.6548292984
 20
82.3363923181
 10
150.6582544958
 20
82.3245388636
 10
150.6620389905
 20
82.313014262
 10
150.6661838082
 20
82.3018204584
 10
150.6706879232
 20
82.2909555076
 10
150.6755369987
 20
82.2804540939
 10
150.6807321229
 20
82.2703174283
 10
150.6862722077
 20
82.2605442997
 10
150.6921396523
 20
82.2511657591
 10
150.6983354984
 20
82.2421830493
 10
150.7048587043
 20
82.2335949276
 10
150.7116885442
 20
82.2254287173
 10
150.7188260052
 20
82.217685753
 10
150.7262701003
 20
82.2103647001
 10
150.7339971421
 20
82.203488879
 10
150.7420080233
 20
82.197059716
 10
150.7503018512
 20
82.1910757848
 10
150.7588522606
 20
82.1855561267
 10
150.7676600734
 20
82.1805022163
 10
150.7767244677
 20
82.1759125791
 10
150.7860166125
 20
82.1718018318
 10
150.7955372533
 20
82.1681714985
 10
150.8052856447
 20
82.1650200553
 10
150.8152307192
 20
82.162357547
 10
150.8253730812
 20
82.1601855415
 10
150.8357121265
 20
82.158502471
 10
150.8462149745
 20
82.1573136769
 10
150.8568821373
 20
82.1566207276
 10
150.8677131029
 20
82.1564220546
 10
150.8786734537
 20
82.1567182943
 10
150.8897636514
 20
82.1575110376
 10
150.9009832344
 20
82.1587986936
 10
150.9122964003
 20
82.160577126
 10
150.9237040864
 20
82.162848173
 10
150.9352053554
 20
82.1656099964
 10
150.9467615925
 20
82.1688529454
 10
150.9583599262
 20
82.1725738032
 10
150.970013228
 20
82.1767757865
 10
150.9817214979
 20
82.1814588955
  0
LWPOLYLINE
  5
3E4
100
AcDbEntity
  8
COPY_PUBLISH
100
AcDbPolyline
 62
253
  6
CONTINUOUS
 90
24
 70
0
 10
149.9479157572
 20
82.3271132434
 10
149.9517560333
 20
82.3011660092
 10
149.9563411087
 20
82.2757517198
 10
149.9616661411
 20
82.2508973315
 10
149.96772554
 20
82.2266292863
 10
149.9745128737
 20
82.2029732239
 10
149.98202091
 20
82.1799539849
 10
149.9902418492
 20
82.1575958096
 10
149.9991669756
 20
82.1359226134
 10
150.00878657
 20
82.1149577006
 10
150.0190904747
 20
82.0947233628
 10
150.03006786
 20
82.0752409547
 10
150.0417069076
 20
82.0565311964
 10
150.0539953958
 20
82.038613885
 10
150.0669203644
 20
82.0215080197
 10
150.0804678715
 20
82.0052318695
 10
150.0946236955
 20
81.989802637
 10
150.1093729053
 20
81.9752366806
 10
150.1246995321
 20
81.9615496471
 10
150.1405874369
 20
81.9487560099
 10
150.1570198966
 20
81.9368692749
 10
150.1739791768
 20
81.9259022071
 10
150.19144744
 20
81.9158663724
 10
150.2015595018
 20
81.9105996298
  0
LWPOLYLINE
  5
3E5
100
AcDbEntity
  8
COPY_PUBLISH
100
AcDbPolyline
 62
253
  6
CONTINUOUS
 90
16
 70
0
 10
149.2357132956
 20
92.1249424049
 10
149.2488862866
 20
91.4524784499
 10
149.2669710327
 20
90.7825505077
 10
149.2899661856
 20
90.1152094103
 10
149.3178700715
 20
89.4505057949
 10
149.350680568
 20
88.7884900859
 10
149.3883951051
 20
88.1292124927
 10
149.4310108939
 20
87.4727229717
 10
149.478524736
 20
86.8190713763
 10
149.5309328997
 20
86.1683074385
 10
149.588231491
 20
85.5204805495
 10
149.6504162209
 20
84.875639803
 10
149.717482218
 20
84.2338341458
 10
149.7894244042
 20
83.5951122611
 10
149.8662374931
 20
82.9595225638
 10
149.9479157572
 20
82.3271132434
  0
LWPOLYLINE
  5
3E6
100
AcDbEntity
  8
COPY_PUBLISH
100
AcDbPolyline
 62
253
  6
CONTINUOUS
 90
16
 70
0
 10
149.9365320493
 20
92.1300794804
 10
149.9496358999
 20
91.4612681473
 10
149.967621413
 20
90.7950787805
 10
149.9904885886
 20
90.1315113802
 10
150.018239903
 20
89.4705158452
 10
150.0508728798
 20
88.8121422766
 10
150.0883800901
 20
88.1565409774
 10
150.1307626435
 20
87.5037126978
 10
150.1780194303
 20
86.8536566877
 10
150.2301396923
 20
86.2065209999
 10
150.2871245615
 20
85.5623061262
 10
150.3489729058
 20
84.921011575
 10
150.4156705712
 20
84.2827839238
 10
150.4872128395
 20
83.647672032
 10
150.5636044288
 20
83.0156270404
 10
150.6448453391
 20
82.3866489488
  0
LINE
  5
3E7
100
AcDbEntity
  8
COPY_PUBLISH
100
AcDbLine
 62
7
  6
CONTINUOUS
 10
148.1875460136
 20
127.1206110024
 11
148.1875460136
 21
125.8896715335
  0
LINE
  5
3E8
100
AcDbEntity
  8
COPY_PUBLISH
100
AcDbLine
 62
253
  6
CONTINUOUS
 10
148.2461246573
 20
127.0499003243
 11
148.2461246573
 21
125.8162859727
  0
LINE
  5
3E9
100
AcDbEntity
  8
COPY_PUBLISH
100
AcDbLine
 62
7
  6
CONTINUOUS
 10
149.1696776669
 20
126.0481789842
 11
149.1696776669
 21
124.6020162184
  0
LINE
  5
3EA
100
AcDbEntity
  8
COPY_PUBLISH
100
AcDbLine
 62
7
  6
CONTINUOUS
 10
149.8290875413
 20
124.2723112813
 11
149.8290875413
 21
125.718474047
  0
LWPOLYLINE
  5
3EB
100
AcDbEntity
  8
COPY_PUBLISH
100
AcDbPolyline
 62
253
  6
CONTINUOUS
 90
13
 70
0
 10
149.2357132956
 20
108.5794250768
 10
149.21587154
 20
107.1986945264
 10
149.1996375903
 20
105.8196648286
 10
149.1870113926
 20
104.4423497128
 10
149.1779929069
 20
103.066772089
 10
149.1725819119
 20
101.6929364257
 10
149.1707782424
 20
100.320828867
 10
149.1725819131
 20
98.9504631805
 10
149.1779929091
 20
97.5818531006
 10
149.1870113953
 20
96.2149849087
 10
149.1996375928
 20
94.8498632853
 10
149.2158715418
 20
93.4865111897
 10
149.2357132956
 20
92.1249424049
  0
LWPOLYLINE
  5
3EC
100
AcDbEntity
  8
COPY_PUBLISH
100
AcDbPolyline
 62
253
  6
CONTINUOUS
 90
13
 70
0
 10
149.9365320493
 20
108.5681076696
 10
149.916709945
 20
107.1887353381
 10
149.9004919337
 20
105.8110894604
 10
149.8878780154
 20
104.4351700364
 10
149.8788682803
 20
103.060972516
 10
149.8734626382
 20
101.6885014494
 10
149.8716608182
 20
100.3177704868
 10
149.8734626401
 20
98.9487795381
 10
149.8788682841
 20
97.5815286934
 10
149.88787802
 20
96.2160318732
 10
149.9004919378
 20
94.8522937178
 10
149.9167099476
 20
93.4903095868
 10
149.9365320493
 20
92.1300794804
  0
LWPOLYLINE
  5
3ED
100
AcDbEntity
  8
COPY_PUBLISH
100
AcDbPolyline
 62
253
  6
CONTINUOUS
 90
16
 70
0
 10
149.9479157572
 20
119.065153603
 10
149.8662374931
 20
118.3538535012
 10
149.7894244042
 20
117.6440718089
 10
149.717482218
 20
116.9358624432
 10
149.6504162209
 20
116.2292792663
 10
149.588231491
 20
115.5243758785
 10
149.5309328997
 20
114.8212056153
 10
149.478524736
 20
114.1198218215
 10
149.4310108939
 20
113.4202778203
 10
149.3883951051
 20
112.7226267062
 10
149.350680568
 20
112.0269214927
 10
149.3178700715
 20
111.3332149636
 10
149.2899661856
 20
110.6415596434
 10
149.2669710327
 20
109.9520079943
 10
149.2488862866
 20
109.2646124119
 10
149.2357132956
 20
108.5794250768
  0
LWPOLYLINE
  5
3EE
100
AcDbEntity
  8
COPY_PUBLISH
100
AcDbPolyline
 62
253
  6
CONTINUOUS
 90
16
 70
0
 10
150.6448453391
 20
118.9955483942
 10
150.5636043401
 20
118.2881160038
 10
150.4872126874
 20
117.5822998641
 10
150.4156703811
 20
116.8780999753
 10
150.3489727113
 20
116.1754629934
 10
150.2871243879
 20
115.4744422622
 10
150.2301395401
 20
114.7751978137
 10
150.1780192918
 20
114.0777301777
 10
150.1307625191
 20
113.3820388244
 10
150.0883799796
 20
112.6882821955
 10
150.0508727816
 20
111.9964605436
 10
150.0182398168
 20
111.3065736161
 10
149.9904885178
 20
110.6187790965
 10
149.9676213624
 20
109.9331295462
 10
149.9496358729
 20
109.2495724039
 10
149.9365320493
 20
108.5681076696
  0
LWPOLYLINE
  5
3EF
100
AcDbEntity
  8
COPY_PUBLISH
100
AcDbPolyline
 62
253
  6
CONTINUOUS
 90
3
 70
0
 10
151.2215469618
 20
124.2307660359
 10
151.2209511633
 20
124.2366864302
 10
151.2208629806
 20
124.2400062105
  0
LINE
  5
3F0
100
AcDbEntity
  8
COPY_PUBLISH
100
AcDbLine
 62
7
  6
CONTINUOUS
 10
151.2228196254
 20
124.2087893179
 11
151.2208629868
 21
124.2400340007
  0
LWPOLYLINE
  5
3F1
100
AcDbEntity
  8
COPY_PUBLISH
100
AcDbPolyline
 62
253
  6
CONTINUOUS
 90
40
 70
0
 10
150.9817214979
 20
119.5260559726
 10
150.9806827439
 20
119.5432375974
 10
150.9790829587
 20
119.5606827398
 10
150.9769247341
 20
119.5783631367
 10
150.9742115668
 20
119.5962501437
 10
150.9709478523
 20
119.6143147819
 10
150.9671388783
 20
119.6325277844
 10
150.9627908156
 20
119.6508596441
 10
150.9579107087
 20
119.6692806611
 10
150.9525064638
 20
119.6877609912
 10
150.9465868365
 20
119.7062706942
 10
150.9401614172
 20
119.7247797822
 10
150.9332406159
 20
119.7432582683
 10
150.925835645
 20
119.7616762151
 10
150.9179585014
 20
119.7800037834
 10
150.9096219471
 20
119.7982112804
 10
150.9008394882
 20
119.8162692078
 10
150.8916253532
 20
119.8341483096
 10
150.8819944703
 20
119.8518196195
 10
150.8719624425
 20
119.869254508
 10
150.8615455228
 20
119.8864247283
 10
150.850760588
 20
119.9033024629
 10
150.8396251108
 20
119.9198603675
 10
150.8281571321
 20
119.9360716166
 10
150.8163752313
 20
119.951909946
 10
150.8042984964
 20
119.9673496955
 10
150.7919464933
 20
119.9823658511
 10
150.7793392337
 20
119.9969340848
 10
150.7664971427
 20
120.0110307941
 10
150.7534410261
 20
120.0246331409
 10
150.7401920364
 20
120.0377190876
 10
150.7267716385
 20
120.0502674334
 10
150.713201575
 20
120.0622578485
 10
150.6995038311
 20
120.073670907
 10
150.6857005987
 20
120.0844881184
 10
150.6718142407
 20
120.0946919575
 10
150.6578672547
 20
120.1042658927
 10
150.6438822365
 20
120.1131944133
 10
150.6298818435
 20
120.1214630539
 10
150.6158887579
 20
120.1290584183
  0
LWPOLYLINE
  5
3F2
100
AcDbEntity
  8
COPY_PUBLISH
100
AcDbPolyline
 62
7
  6
CONTINUOUS
 90
6
 70
0
 10
150.7436173292
 20
131.7154605267
 10
150.7435989648
 20
131.71608827
 10
150.7431257073
 20
131.7185826983
 10
150.742031508
 20
131.7206755895
 10
150.740342712
 20
131.7223703248
 10
150.7385632266
 20
131.7234592113
  0
LWPOLYLINE
  5
3F3
100
AcDbEntity
  8
COPY_PUBLISH
100
AcDbPolyline
 62
253
  6
CONTINUOUS
 90
20
 70
0
 10
152.9726243557
 20
81.6727707466
 10
152.9728231585
 20
81.6626050711
 10
152.9734191208
 20
81.6526610486
 10
152.974410904
 20
81.6429610461
 10
152.97579628
 20
81.6335268763
 10
152.9775721341
 20
81.6243797661
 10
152.9797344692
 20
81.6155403072
 10
152.9822784199
 20
81.6070283857
 10
152.9851982646
 20
81.5988631414
 10
152.9884874346
 20
81.5910629416
 10
152.9921385315
 20
81.5836453288
 10
152.9961433421
 20
81.5766269869
 10
153.0004928543
 20
81.5700237059
 10
153.005177283
 20
81.5638503369
 10
153.0101860911
 20
81.5581207618
 10
153.0155080096
 20
81.5528478672
 10
153.02113107
 20
81.5480435078
 10
153.0270426207
 20
81.5437184898
 10
153.0332293525
 20
81.5398825446
 10
153.0374377942
 20
81.5376324161
  0
LWPOLYLINE
  5
3F4
100
AcDbEntity
  8
COPY_PUBLISH
100
AcDbPolyline
 62
253
  6
CONTINUOUS
 90
20
 70
0
 10
151.2940862853
 20
124.1516178553
 10
151.2942545812
 20
124.1422569049
 10
151.2947591484
 20
124.1330820739
 10
151.2955990262
 20
124.1241108317
 10
151.296772612
 20
124.1153602829
 10
151.2982776729
 20
124.1068470649
 10
151.3001113593
 20
124.0985873221
 10
151.3022702033
 20
124.0905967344
 10
151.3047500907
 20
124.0828905808
 10
151.3075462705
 20
124.0754836319
 10
151.310653393
 20
124.0683900325
 10
151.3140655551
 20
124.0616232363
 10
151.3177762831
 20
124.0551960792
 10
151.3217785438
 20
124.0491207593
 10
151.326064693
 20
124.0434088955
 10
151.3306265025
 20
124.0380714425
 10
151.335455232
 20
124.0331185924
 10
151.3405417178
 20
124.028559712
 10
151.3458763328
 20
124.0244034189
 10
151.3514347938
 20
124.0206671563
  0
LINE
  5
3F5
100
AcDbEntity
  8
COPY_PUBLISH
100
AcDbLine
 62
253
  6
CONTINUOUS
 10
151.2208630206
 20
124.5799094045
 11
151.2208629806
 21
124.5799801557
  0
LINE
  5
3F6
100
AcDbEntity
  8
COPY_PUBLISH
100
AcDbLine
 62
7
  6
CONTINUOUS
 10
150.7436173577
 20
131.7151065538
 11
150.7436173577
 21
130.4671934476
  0
LINE
  5
3F7
100
AcDbEntity
  8
COPY_PUBLISH
100
AcDbLine
 62
7
  6
CONTINUOUS
 10
150.8959184535
 20
124.8676356993
 11
150.8959184535
 21
126.2532763453
  0
LINE
  5
3F8
100
AcDbEntity
  8
COPY_PUBLISH
100
AcDbLine
 62
7
  6
CONTINUOUS
 10
151.2208629806
 20
124.5799801371
 11
151.2208629806
 21
124.240006203
  0
LINE
  5
3F9
100
AcDbEntity
  8
COPY_PUBLISH
100
AcDbLine
 62
253
  6
CONTINUOUS
 10
151.2940862853
 20
124.4915917894
 11
151.2940862853
 21
124.1516178553
  0
LINE
  5
3FA
100
AcDbEntity
  8
0
100
AcDbLine
 62
7
  6
CONTINUOUS
 10
151.5989114077
 20
125.2182076149
 11
151.5989114077
 21
125.6739519536
  0
LINE
  5
3FB
100
AcDbEntity
  8
0
100
AcDbLine
 62
7
  6
CONTINUOUS
 10
151.5989114077
 20
126.0715781588
 11
151.5989114077
 21
126.603848261
  0
LINE
  5
3FC
100
AcDbEntity
  8
COPY_PUBLISH
100
AcDbLine
 62
7
  6
CONTINUOUS
 10
151.9238559349
 20
123.7340012286
 11
151.9238559349
 21
123.2800474867
  0
LINE
  5
3FD
100
AcDbEntity
  8
COPY_PUBLISH
100
AcDbLine
 62
253
  6
CONTINUOUS
 10
151.9970792396
 20
123.6973895763
 11
151.9970792396
 21
123.1883154321
  0
LINE
  5
3FE
100
AcDbEntity
  8
COPY_PUBLISH
100
AcDbLine
 62
253
  6
CONTINUOUS
 10
152.9726243557
 20
81.6727707466
 11
152.9726243557
 21
82.0127446807
  0
LINE
  5
3FF
100
AcDbEntity
  8
COPY_PUBLISH
100
AcDbLine
 62
253
  6
CONTINUOUS
 10
152.9726243557
 20
123.3123488201
 11
152.9726243557
 21
123.6523227542
  0
LWPOLYLINE
  5
400
100
AcDbEntity
  8
COPY_PUBLISH
100
AcDbPolyline
 62
253
  6
CONTINUOUS
 90
34
 70
0
 10
151.2940862853
 20
124.4915917894
 10
151.2942850881
 20
124.5019562677
 10
151.2948810504
 20
124.5124962525
 10
151.2958728336
 20
124.5231880381
 10
151.2972582096
 20
124.534007584
 10
151.2990340637
 20
124.5449305483
 10
151.3011963988
 20
124.5559323423
 10
151.3037403494
 20
124.5669882145
 10
151.3066601942
 20
124.5780733035
 10
151.3099493642
 20
124.5891626732
 10
151.3136004611
 20
124.6002313831
 10
151.3176052717
 20
124.6112545355
 10
151.3219547839
 20
124.6222073287
 10
151.3266392126
 20
124.6330651264
 10
151.3316480206
 20
124.6438035095
 10
151.3369699392
 20
124.6543983227
 10
151.3425929996
 20
124.6648257424
 10
151.3485045503
 20
124.6750623112
 10
151.354691282
 20
124.6850849881
 10
151.3611392586
 20
124.6948712061
 10
151.3678339919
 20
124.7043989859
 10
151.3747604681
 20
124.7136469609
 10
151.3819031786
 20
124.7225944113
 10
151.389245996
 20
124.7312211221
 10
151.3967722427
 20
124.7395075125
 10
151.4044648769
 20
124.747434861
 10
151.4123066895
 20
124.7549854739
 10
151.4202801885
 20
124.7621425232
 10
151.428368666
 20
124.7688908962
 10
151.4365527373
 20
124.7752143061
 10
151.4448104081
 20
124.781096082
 10
151.4531218287
 20
124.7865228321
 10
151.4614694611
 20
124.7914838461
 10
151.4698345413
 20
124.7959686044
  0
LWPOLYLINE
  5
401
100
AcDbEntity
  8
COPY_PUBLISH
100
AcDbPolyline
 62
253
  6
CONTINUOUS
 90
34
 70
0
 10
152.9726243557
 20
123.6523227542
 10
152.9728231585
 20
123.6626872324
 10
152.9734191208
 20
123.6732272173
 10
152.974410904
 20
123.6839190029
 10
152.97579628
 20
123.6947385488
 10
152.9775721341
 20
123.7056615131
 10
152.9797344692
 20
123.7166633071
 10
152.9822784199
 20
123.7277191793
 10
152.9851982646
 20
123.7388042683
 10
152.9884874346
 20
123.749893638
 10
152.9921385315
 20
123.7609623479
 10
152.9961433421
 20
123.7719855003
 10
153.0004928543
 20
123.7829382935
 10
153.005177283
 20
123.7937960912
 10
153.0101860911
 20
123.8045344743
 10
153.0155080096
 20
123.8151292875
 10
153.02113107
 20
123.8255567072
 10
153.0270426207
 20
123.835793276
 10
153.0332293525
 20
123.8458159529
 10
153.0396773291
 20
123.8556021709
 10
153.0463720623
 20
123.8651299507
 10
153.0532985385
 20
123.8743779257
 10
153.060441249
 20
123.8833253761
 10
153.0677840665
 20
123.8919520869
 10
153.0753103131
 20
123.9002384773
 10
153.0830029474
 20
123.9081658258
 10
153.09084476
 20
123.9157164387
 10
153.0988182589
 20
123.9228734879
 10
153.1069067364
 20
123.929621861
 10
153.1150908077
 20
123.9359452709
 10
153.1233484785
 20
123.9418270468
 10
153.1316598991
 20
123.9472537969
 10
153.1400075315
 20
123.9522148109
 10
153.1483726117
 20
123.9566995692
  0
LWPOLYLINE
  5
402
100
AcDbEntity
  8
COPY_PUBLISH
100
AcDbPolyline
 62
253
  6
CONTINUOUS
 90
24
 70
0
 10
150.9817214979
 20
82.1814588955
 10
150.9806827436
 20
82.1638372108
 10
150.9790829579
 20
82.1465354291
 10
150.9769247326
 20
82.1295815815
 10
150.9742115644
 20
82.1130031352
 10
150.9709478488
 20
82.0968269491
 10
150.9671388735
 20
82.0810792306
 10
150.9627908095
 20
82.0657854929
 10
150.9579107011
 20
82.0509705136
 10
150.9525064547
 20
82.0366582948
 10
150.9465868258
 20
82.022872024
 10
150.9401614049
 20
82.0096340364
 10
150.9332406019
 20
81.9969657793
 10
150.9258356295
 20
81.9848877767
 10
150.9179584844
 20
81.9734195964
 10
150.9096219286
 20
81.9625798183
 10
150.9008394684
 20
81.9523860039
 10
150.8916253322
 20
81.9428546685
 10
150.8819944482
 20
81.9340012541
 10
150.8719624195
 20
81.9258401041
 10
150.8615454992
 20
81.9183844406
 10
150.8507605638
 20
81.9116463427
 10
150.8396250864
 20
81.9056367268
 10
150.8279142525
 20
81.9002631971
  0
LWPOLYLINE
  5
403
100
AcDbEntity
  8
RACCORDO
100
AcDbPolyline
 62
7
  6
CONTINUOUS
 90
7
 70
0
 10
158.2549978049
 20
131.7979254099
 10
158.2565551916
 20
131.8042201908
 10
158.2572613294
 20
131.8099138915
 10
158.2570899461
 20
131.8149874364
 10
158.2560673138
 20
131.8194599011
 10
158.2542223483
 20
131.8232519217
 10
158.2518273223
 20
131.826096824
  0
LINE
  5
404
100
AcDbEntity
  8
RACCORDO
100
AcDbLine
 62
7
  6
CONTINUOUS
 10
137.8110944245
 20
99.3925512516
 11
136.8675622065
 21
98.9282528454
  0
LWPOLYLINE
  5
405
100
AcDbEntity
  8
COPY_PUBLISH
100
AcDbPolyline
 62
7
  6
CONTINUOUS
 90
7
 70
0
 10
138.9922817467
 20
130.2132242823
 10
138.9737412251
 20
130.2334946641
 10
138.9575108499
 20
130.2557162496
 10
138.9437023248
 20
130.2798237733
 10
138.9325632634
 20
130.3055608908
 10
138.9243327126
 20
130.3325642269
 10
138.9191616327
 20
130.3606183143
  0
LWPOLYLINE
  5
406
100
AcDbEntity
  8
COPY_PUBLISH
100
AcDbPolyline
 62
7
  6
CONTINUOUS
 90
7
 70
0
 10
135.3850793367
 20
132.0168406541
 10
135.3665373754
 20
132.0371204674
 10
135.3503073823
 20
132.0593520075
 10
135.3365010354
 20
132.0834700591
 10
135.3253661295
 20
132.1092179867
 10
135.3171418488
 20
132.1362319695
 10
135.3119792031
 20
132.1642963992
  0
LWPOLYLINE
  5
407
100
AcDbEntity
  8
RACCORDO
100
AcDbPolyline
 62
7
  6
CONTINUOUS
 90
13
 70
0
 10
154.0251106955
 20
130.9946524896
 10
154.0215697944
 20
131.0796397792
 10
154.0119181791
 20
131.1561996285
 10
153.9962221009
 20
131.2296879708
 10
153.9745829285
 20
131.299814199
 10
153.9471870085
 20
131.3660404208
 10
153.9142595802
 20
131.4279925788
 10
153.8760433249
 20
131.4853560565
 10
153.8330036882
 20
131.5375643624
 10
153.7856176893
 20
131.5842435425
 10
153.7344346558
 20
131.6251110275
 10
153.6802943522
 20
131.6597998102
 10
153.6502913629
 20
131.6758156257
  0
LWPOLYLINE
  5
408
100
AcDbEntity
  8
RACCORDO
100
AcDbPolyline
 62
253
  6
CONTINUOUS
 90
16
 70
0
 10
153.4984261284
 20
131.1607256294
 10
153.4970190217
 20
131.1977808604
 10
153.4924752418
 20
131.2359521268
 10
153.4848445647
 20
131.2748212703
 10
153.474210583
 20
131.3139624874
 10
153.4606897898
 20
131.3529469942
 10
153.4444303025
 20
131.3913477233
 10
153.4256102406
 20
131.4287440027
 10
153.4044357739
 20
131.4647261639
 10
153.3811388644
 20
131.4989000297
 10
153.3559747248
 20
131.5308912324
 10
153.3292190231
 20
131.560349315
 10
153.3011648631
 20
131.5869515705
 10
153.2721195724
 20
131.6104065767
 10
153.242401336
 20
131.6304573887
 10
153.2123357112
 20
131.6468843541
  0
LWPOLYLINE
  5
409
100
AcDbEntity
  8
RACCORDO
100
AcDbPolyline
 62
253
  6
CONTINUOUS
 90
22
 70
0
 10
153.9128594695
 20
130.8556983244
 10
153.9116830093
 20
130.8939037127
 10
153.9082533665
 20
130.9303725732
 10
153.9025705409
 20
130.9651049059
 10
153.8945787419
 20
130.9982945692
 10
153.8843337602
 20
131.0297477047
 10
153.872002968
 20
131.058882737
 10
153.857552486
 20
131.085641888
 10
153.8410161935
 20
131.1100829359
 10
153.8226630999
 20
131.1317976401
 10
153.8024608644
 20
131.1507412317
 10
153.7804418279
 20
131.1669584797
 10
153.7569720224
 20
131.1801754504
 10
153.7320251594
 20
131.1903401137
 10
153.7056275275
 20
131.1975044996
 10
153.6782240244
 20
131.2015507641
 10
153.6497830746
 20
131.2024169031
 10
153.6203362536
 20
131.2001649206
 10
153.5904231861
 20
131.1948629852
 10
153.5602237468
 20
131.1865338196
 10
153.5295580609
 20
131.175154701
 10
153.4984261284
 20
131.1607256294
  0
LWPOLYLINE
  5
40A
100
AcDbEntity
  8
COPY_PUBLISH
100
AcDbPolyline
 62
253
  6
CONTINUOUS
 90
22
 70
0
 10
152.9726243557
 20
123.3123488201
 10
152.9727926516
 20
123.3029878697
 10
152.9732972188
 20
123.2938130387
 10
152.9741370967
 20
123.2848417965
 10
152.9753106824
 20
123.2760912477
 10
152.9768157433
 20
123.2675780297
 10
152.9786494297
 20
123.2593182869
 10
152.9808082737
 20
123.2513276992
 10
152.9832881612
 20
123.2436215456
 10
152.9860843409
 20
123.2362145967
 10
152.9891914634
 20
123.2291209973
 10
152.9926036255
 20
123.2223542011
 10
152.9963143535
 20
123.215927044
 10
153.0003166143
 20
123.2098517241
 10
153.0046027634
 20
123.2041398603
 10
153.0091645729
 20
123.1988024073
 10
153.0139933024
 20
123.1938495572
 10
153.0190797882
 20
123.1892906768
 10
153.0244144032
 20
123.1851343837
 10
153.0299876734
 20
123.1813881667
 10
153.0357883593
 20
123.1780596839
 10
153.0375898266
 20
123.1771342832
  0
LWPOLYLINE
  5
40B
100
AcDbEntity
  8
0
100
AcDbPolyline
 62
7
  6
CONTINUOUS
 90
8
 70
0
 10
153.8941310341
 20
131.4582059892
 10
153.8931615398
 20
131.57421203
 10
153.906028394
 20
131.7324768943
 10
153.9330441558
 20
131.8862109437
 10
153.9740594154
 20
132.0345639567
 10
154.0288473392
 20
132.1767154718
 10
154.0971049243
 20
132.3118793243
 10
154.1237843002
 20
132.3568690379
  0
LWPOLYLINE
  5
40C
100
AcDbEntity
  8
COPY_PUBLISH
100
AcDbPolyline
 62
7
  6
CONTINUOUS
 90
40
 70
0
 10
155.6335338874
 20
122.0656170887
 10
155.6334489852
 20
122.0832887123
 10
155.6327418998
 20
122.1011880599
 10
155.631415254
 20
122.119286995
 10
155.629465308
 20
122.1375496968
 10
155.6269039219
 20
122.1559545822
 10
155.6237576151
 20
122.1744946306
 10
155.6200358274
 20
122.19314432
 10
155.6157406317
 20
122.2118705485
 10
155.6108875006
 20
122.2306548282
 10
155.6054824489
 20
122.2494788694
 10
155.5995348113
 20
122.2683010285
 10
155.5930679661
 20
122.2870676334
 10
155.5861013019
 20
122.3057323688
 10
155.5786413197
 20
122.3242818951
 10
155.5706934602
 20
122.3427119664
 10
155.5622626296
 20
122.3610098756
 10
155.5533690493
 20
122.3791284363
 10
155.5440423912
 20
122.3970123193
 10
155.5343095827
 20
122.414615537
 10
155.5241783776
 20
122.4319286104
 10
155.5136506872
 20
122.4489513103
 10
155.5027323219
 20
122.4656718749
 10
155.4914507822
 20
122.4820456029
 10
155.4798410778
 20
122.4980236444
 10
155.4679337513
 20
122.5135671278
 10
155.4557386991
 20
122.5286662422
 10
155.4432608917
 20
122.5433166477
 10
155.4305080442
 20
122.5575069295
 10
155.4175124579
 20
122.5711990368
 10
155.4043165941
 20
122.5843503401
 10
155.3909521356
 20
122.5969318803
 10
155.3774319268
 20
122.6089345225
 10
155.3637711061
 20
122.6203481303
 10
155.3499837004
 20
122.6311606268
 10
155.3361002191
 20
122.6413483051
 10
155.3221607084
 20
122.6508860541
 10
155.3081936925
 20
122.6597582415
 10
155.2942158736
 20
122.6679564372
 10
155.2802496215
 20
122.6754701153
  0
LINE
  5
40D
100
AcDbEntity
  8
0
100
AcDbLine
 62
253
  6
CONTINUOUS
 10
154.7634551504
 20
132.9374658551
 11
154.7607583525
 21
133.6959473824
  0
LINE
  5
40E
100
AcDbEntity
  8
COPY_PUBLISH
100
AcDbLine
 62
253
  6
CONTINUOUS
 10
153.3251463154
 20
81.6722580227
 11
153.3251463154
 21
82.0122319569
  0
LINE
  5
40F
100
AcDbEntity
  8
COPY_PUBLISH
100
AcDbLine
 62
253
  6
CONTINUOUS
 10
153.3251463154
 20
123.3118360963
 11
153.3251463154
 21
123.6518100304
  0
LINE
  5
410
100
AcDbEntity
  8
COPY_PUBLISH
100
AcDbLine
 62
253
  6
CONTINUOUS
 10
153.6838449638
 20
82.9892411579
 11
153.6838449638
 21
83.0990669057
  0
LINE
  5
411
100
AcDbEntity
  8
COPY_PUBLISH
100
AcDbLine
 62
253
  6
CONTINUOUS
 10
153.6838449638
 20
122.34493257
 11
153.6838449638
 21
123.0337531929
  0
LINE
  5
412
100
AcDbEntity
  8
RACCORDO
100
AcDbLine
 62
253
  6
CONTINUOUS
 10
153.9128594695
 20
130.56206564
 11
153.9128594695
 21
130.8556983244
  0
LINE
  5
413
100
AcDbEntity
  8
RACCORDO
100
AcDbLine
 62
7
  6
CONTINUOUS
 10
154.0251235493
 20
130.7030563865
 11
154.0251235493
 21
130.9946299897
  0
LINE
  5
414
100
AcDbEntity
  8
COPY_PUBLISH
100
AcDbLine
 62
253
  6
CONTINUOUS
 10
154.0363669235
 20
82.863728434
 11
154.0363669235
 21
83.2470413055
  0
LINE
  5
415
100
AcDbEntity
  8
COPY_PUBLISH
100
AcDbLine
 62
253
  6
CONTINUOUS
 10
154.0363669235
 20
122.3557004516
 11
154.0363669235
 21
123.1633325734
  0
LINE
  5
416
100
AcDbEntity
  8
COPY_PUBLISH
100
AcDbLine
 62
7
  6
CONTINUOUS
 10
154.9264271062
 20
82.4522926224
 11
154.9264271062
 21
83.6206524172
  0
LINE
  5
417
100
AcDbEntity
  8
COPY_PUBLISH
100
AcDbLine
 62
7
  6
CONTINUOUS
 10
154.9264271062
 20
122.8523813729
 11
154.9264271062
 21
124.4545320339
  0
LINE
  5
418
100
AcDbEntity
  8
COPY_PUBLISH
100
AcDbLine
 62
253
  6
CONTINUOUS
 10
155.454694278
 20
124.7179708539
 11
155.454694278
 21
124.3704393372
  0
LINE
  5
419
100
AcDbEntity
  8
COPY_PUBLISH
100
AcDbLine
 62
253
  6
CONTINUOUS
 10
155.454694278
 20
83.0708351978
 11
155.454694278
 21
82.723303681
  0
LINE
  5
41A
100
AcDbEntity
  8
COPY_PUBLISH
100
AcDbLine
 62
7
  6
CONTINUOUS
 10
155.526892135
 20
124.8058434861
 11
155.526892135
 21
124.4583119693
  0
LINE
  5
41B
100
AcDbEntity
  8
COPY_PUBLISH
100
AcDbLine
 62
7
  6
CONTINUOUS
 10
155.526892135
 20
83.15870783
 11
155.526892135
 21
82.8111763132
  0
LINE
  5
41C
100
AcDbEntity
  8
COPY_PUBLISH
100
AcDbLine
 62
7
  6
CONTINUOUS
 10
155.6335338874
 20
84.1338879389
 11
155.6335338874
 21
122.0658299362
  0
LINE
  5
41D
100
AcDbEntity
  8
COPY_PUBLISH
100
AcDbLine
 62
253
  6
CONTINUOUS
 10
155.526892135
 20
82.8111763309
 11
155.5268921177
 21
82.8111298967
  0
LINE
  5
41E
100
AcDbEntity
  8
COPY_PUBLISH
100
AcDbLine
 62
253
  6
CONTINUOUS
 10
155.526892135
 20
124.8058435038
 11
155.5268920965
 21
124.8057741215
  0
LWPOLYLINE
  5
41F
100
AcDbEntity
  8
COPY_PUBLISH
100
AcDbPolyline
 62
253
  6
CONTINUOUS
 90
25
 70
0
 10
152.9726243557
 20
82.0127446807
 10
152.972792608
 20
82.0222726812
 10
152.9732970444
 20
82.0319507969
 10
152.9741367049
 20
82.0417606049
 10
152.975309991
 20
82.0516834316
 10
152.9768146693
 20
82.0617003885
 10
152.9786478756
 20
82.0717924076
 10
152.9808061202
 20
82.0819402783
 10
152.9832852949
 20
82.0921246835
 10
152.9860806804
 20
82.1023262366
 10
152.9891869555
 20
82.1125255183
 10
152.9925982073
 20
82.1227031138
 10
152.9963079421
 20
82.1328396494
 10
153.0003090984
 20
82.1429158296
 10
153.0045940597
 20
82.1529124739
 10
153.0091546693
 20
82.1628105531
 10
153.0139822459
 20
82.1725912256
 10
153.0190675999
 20
82.1822358734
 10
153.024401051
 20
82.1917261373
 10
153.0299724468
 20
82.2010439521
 10
153.0357711816
 20
82.2101715807
 10
153.0417862174
 20
82.2190916483
 10
153.0480061041
 20
82.2277871749
 10
153.0544190019
 20
82.2362416081
 10
153.0610127034
 20
82.2444388545
  0
LWPOLYLINE
  5
420
100
AcDbEntity
  8
RACCORDO
100
AcDbPolyline
 62
253
  6
CONTINUOUS
 90
20
 70
0
 10
153.9904114936
 20
131.2485184494
 10
153.9910287276
 20
131.2815023143
 10
153.9993862825
 20
131.3839159248
 10
154.0141309342
 20
131.4843480877
 10
154.035223249
 20
131.5825268448
 10
154.0626075219
 20
131.6781905567
 10
154.0962165223
 20
131.7710961189
 10
154.1359698982
 20
131.8610056039
 10
154.1817596621
 20
131.9476614046
 10
154.2334498609
 20
132.0308044573
 10
154.2909059345
 20
132.110220506
 10
154.3539665008
 20
132.1856884507
 10
154.4224168904
 20
132.2569645772
 10
154.4960171695
 20
132.3238287525
 10
154.5745978146
 20
132.3861545338
 10
154.6580368784
 20
132.4438488667
 10
154.7460884308
 20
132.496735185
 10
154.8385485354
 20
132.5446848209
 10
154.9353827766
 20
132.5876477229
 10
155.0366102508
 20
132.6255541675
  0
LWPOLYLINE
  5
421
100
AcDbEntity
  8
COPY_PUBLISH
100
AcDbPolyline
 62
7
  6
CONTINUOUS
 90
20
 70
0
 10
154.9264271062
 20
82.4522926224
 10
154.9262267273
 20
82.4420910312
 10
154.9256265584
 20
82.4321128664
 10
154.9246278547
 20
82.4223806791
 10
154.9232326964
 20
82.4129164229
 10
154.9214442355
 20
82.403741535
 10
154.9192666896
 20
82.3948768877
 10
154.916704931
 20
82.3863425324
 10
154.9137646701
 20
82.3781577565
 10
154.9104526958
 20
82.3703411707
 10
154.9067764719
 20
82.3629104634
 10
154.902744253
 20
82.3558824318
 10
154.8983652612
 20
82.3492730451
 10
154.8936494
 20
82.3430972684
 10
154.8886073004
 20
82.3373690661
 10
154.88325043
 20
82.3321014404
 10
154.8775909306
 20
82.3273063277
 10
154.8716415926
 20
82.3229945755
 10
154.865415896
 20
82.3191759533
 10
154.8623220032
 20
82.3175148496
  0
LINE
  5
422
100
AcDbEntity
  8
COPY_PUBLISH
100
AcDbLine
 62
253
  6
CONTINUOUS
 10
155.526892135
 20
124.4583119695
 11
155.5268381205
 21
124.4557136867
  0
LWPOLYLINE
  5
423
100
AcDbEntity
  8
COPY_PUBLISH
100
AcDbPolyline
 62
253
  6
CONTINUOUS
 90
18
 70
0
 10
155.5268920965
 20
124.8057741215
 10
155.5268385734
 20
124.803256118
 10
155.526312146
 20
124.7973338138
 10
155.5252247337
 20
124.7914306411
 10
155.523578779
 20
124.7855598743
 10
155.5213779818
 20
124.7797347198
 10
155.5186272889
 20
124.7739682789
 10
155.5153328851
 20
124.7682735225
 10
155.5115021806
 20
124.7626632636
 10
155.507143791
 20
124.7571501219
 10
155.5022675174
 20
124.7517464968
 10
155.4968843279
 20
124.7464645441
 10
155.4910063268
 20
124.7413161414
 10
155.4846467366
 20
124.7363128715
 10
155.4778198738
 20
124.7314659966
 10
155.4705410997
 20
124.7267864206
 10
155.4628267836
 20
124.7222846648
 10
155.454694278
 20
124.7179708539
  0
LWPOLYLINE
  5
424
100
AcDbEntity
  8
COPY_PUBLISH
100
AcDbPolyline
 62
253
  6
CONTINUOUS
 90
20
 70
0
 10
153.3251463154
 20
81.6722580227
 10
153.3248980471
 20
81.6620329985
 10
153.3242522388
 20
81.652032517
 10
153.3232103534
 20
81.6422792317
 10
153.321774751
 20
81.6327952359
 10
153.3199486835
 20
81.623602013
 10
153.3177362875
 20
81.6147203877
 10
153.3151425744
 20
81.6061704789
 10
153.3121734196
 20
81.597971654
 10
153.308835549
 20
81.5901424853
 10
153.3051365235
 20
81.5827007074
 10
153.3010847222
 20
81.5756631778
 10
153.2966893235
 20
81.569045838
 10
153.2919602838
 20
81.5628636778
 10
153.2869083156
 20
81.5571307011
 10
153.2815448625
 20
81.5518598945
 10
153.2758820742
 20
81.5470631974
 10
153.269932778
 20
81.5427514754
 10
153.2637104504
 20
81.5389344957
 10
153.2588847228
 20
81.5364073966
  0
LWPOLYLINE
  5
425
100
AcDbEntity
  8
COPY_PUBLISH
100
AcDbPolyline
 62
7
  6
CONTINUOUS
 90
6
 70
0
 10
155.5268920243
 20
124.4584295732
 10
155.5262986758
 20
124.4410970715
 10
155.5225900545
 20
124.4121326196
 10
155.5155110627
 20
124.383739817
 10
155.5051373882
 20
124.3563114667
 10
155.4915819195
 20
124.3302170966
  0
LINE
  5
426
100
AcDbEntity
  8
0
100
AcDbLine
 62
7
  6
CONTINUOUS
 10
155.3218138631
 20
131.5442120775
 11
155.3625718596
 21
132.3399875704
  0
LWPOLYLINE
  5
427
100
AcDbEntity
  8
COPY_PUBLISH
100
AcDbPolyline
 62
253
  6
CONTINUOUS
 90
17
 70
0
 10
155.5268381205
 20
124.4557136867
 10
155.5263107452
 20
124.449792039
 10
155.52522251
 20
124.4438895488
 10
155.5235758617
 20
124.4380194893
 10
155.5213745029
 20
124.4321950603
 10
155.5186233841
 20
124.4264293597
 10
155.5153286911
 20
124.4207353519
 10
155.5114978306
 20
124.4151258385
 10
155.5071394119
 20
124.4096134287
 10
155.5022632381
 20
124.4042105233
 10
155.4968802866
 20
124.3989292843
 10
155.4910026732
 20
124.393781594
 10
155.4846436102
 20
124.3887790194
 10
155.4778173865
 20
124.3839328001
 10
155.4705393476
 20
124.3792538309
 10
155.4628258631
 20
124.374752636
 10
155.454694278
 20
124.3704393372
  0
LWPOLYLINE
  5
428
100
AcDbEntity
  8
COPY_PUBLISH
100
AcDbPolyline
 62
7
  6
CONTINUOUS
 90
6
 70
0
 10
153.5047506044
 20
125.8877067334
 10
153.5346147808
 20
125.8959421768
 10
153.5656163264
 20
125.9004498579
 10
153.5973111646
 20
125.9010277563
 10
153.6289600419
 20
125.8975666583
 10
153.6597120866
 20
125.8901731595
  0
LINE
  5
429
100
AcDbEntity
  8
COPY_PUBLISH
100
AcDbLine
 62
253
  6
CONTINUOUS
 10
119.1476990616
 20
134.4652619508
 11
149.9479157572
 21
119.065153603
  0
LINE
  5
42A
100
AcDbEntity
  8
COPY_PUBLISH
100
AcDbLine
 62
253
  6
CONTINUOUS
 10
119.8041134286
 20
135.534946083
 11
150.6158887579
 21
120.1290584183
  0
LINE
  5
42B
100
AcDbEntity
  8
RACCORDO
100
AcDbLine
 62
7
  6
CONTINUOUS
 10
156.2525700599
 20
123.822727647
 11
156.2525700599
 21
126.7292798481
  0
LINE
  5
42C
100
AcDbEntity
  8
0
100
AcDbLine
 62
7
  6
CONTINUOUS
 10
156.3344698412
 20
84.4955651316
 11
156.3344698412
 21
122.4174303521
  0
LWPOLYLINE
  5
42D
100
AcDbEntity
  8
COPY_PUBLISH
100
AcDbPolyline
 62
7
  6
CONTINUOUS
 90
23
 70
0
 10
155.6335338874
 20
84.1341007864
 10
155.6334489852
 20
84.1169083137
 10
155.6327418998
 20
84.1000085932
 10
155.631415254
 20
84.0834294838
 10
155.629465308
 20
84.0671978153
 10
155.6269039219
 20
84.0513405979
 10
155.6237576151
 20
84.035885687
 10
155.6200358274
 20
84.0208599508
 10
155.6157406317
 20
84.0062880192
 10
155.6108875006
 20
83.9921944923
 10
155.6054824489
 20
83.9785969884
 10
155.5995348113
 20
83.9655266619
 10
155.5930679661
 20
83.9530254146
 10
155.5861013019
 20
83.9411235793
 10
155.5786413197
 20
83.9298278805
 10
155.5706934602
 20
83.9191433398
 10
155.5622626296
 20
83.909080007
 10
155.5533690493
 20
83.8996659748
 10
155.5440423912
 20
83.8909312731
 10
155.5343095827
 20
83.882896594
 10
155.5241783776
 20
83.8755642143
 10
155.5136506872
 20
83.8689350906
 10
155.5048248069
 20
83.8640797869
  0
LWPOLYLINE
  5
42E
100
AcDbEntity
  8
COPY_PUBLISH
100
AcDbPolyline
 62
253
  6
CONTINUOUS
 90
18
 70
0
 10
155.454694278
 20
82.723303681
 10
155.4545414961
 20
82.7131250371
 10
155.4539861867
 20
82.7031685498
 10
155.4530296066
 20
82.6934567799
 10
155.4516739208
 20
82.6840117286
 10
155.4499222
 20
82.6748548038
 10
155.4477784159
 20
82.6660067702
 10
155.4452474278
 20
82.6574876798
 10
155.4423349701
 20
82.649316831
 10
155.4390476437
 20
82.6415127397
 10
155.4353928975
 20
82.6340930872
 10
155.4313790139
 20
82.6270746855
 10
155.427015092
 20
82.6204734413
 10
155.4223110222
 20
82.6143043111
 10
155.4172774639
 20
82.60858127
 10
155.4119258256
 20
82.6033172852
 10
155.4062682319
 20
82.5985242789
 10
155.4003175063
 20
82.5942131116
  0
LWPOLYLINE
  5
42F
100
AcDbEntity
  8
COPY_PUBLISH
100
AcDbPolyline
 62
253
  6
CONTINUOUS
 90
18
 70
0
 10
155.5268921288
 20
83.1586800323
 10
155.5268377121
 20
83.1560997425
 10
155.526309359
 20
83.1501777606
 10
155.525220087
 20
83.1442749835
 10
155.523572349
 20
83.1384046775
 10
155.5213698488
 20
83.1325800314
 10
155.5186175172
 20
83.1268141017
 10
155.5153215582
 20
83.1211198993
 10
155.5114894668
 20
83.1155103419
 10
155.5071299547
 20
83.1099981124
 10
155.502252809
 20
83.1045955241
 10
155.4968689138
 20
83.0993146132
 10
155.4909898787
 20
83.0941668428
 10
155.4846293419
 20
83.0891642234
 10
155.4778031822
 20
83.0843190689
 10
155.4705276098
 20
83.0796425043
 10
155.4628187762
 20
83.0751445544
 10
155.454694278
 20
83.0708351978
  0
LWPOLYLINE
  5
430
100
AcDbEntity
  8
COPY_PUBLISH
100
AcDbPolyline
 62
253
  6
CONTINUOUS
 90
18
 70
0
 10
155.5268921177
 20
82.8111298967
 10
155.5268385734
 20
82.8085889451
 10
155.526312146
 20
82.802666641
 10
155.5252247337
 20
82.7967634682
 10
155.523578779
 20
82.7908927014
 10
155.5213779818
 20
82.785067547
 10
155.5186272889
 20
82.7793011061
 10
155.5153328851
 20
82.7736063496
 10
155.5115021806
 20
82.7679960907
 10
155.507143791
 20
82.762482949
 10
155.5022675174
 20
82.7570793239
 10
155.4968843279
 20
82.7517973712
 10
155.4910063268
 20
82.7466489685
 10
155.4846467366
 20
82.7416456986
 10
155.4778198738
 20
82.7367988237
 10
155.4705410997
 20
82.7321192477
 10
155.4628267836
 20
82.727617492
 10
155.454694278
 20
82.723303681
  0
LINE
  5
431
100
AcDbEntity
  8
RACCORDO
100
AcDbLine
 62
253
  6
CONTINUOUS
 10
157.6147078567
 20
128.7723030431
 11
157.5813762504
 21
128.7630676767
  0
LINE
  5
432
100
AcDbEntity
  8
0
100
AcDbLine
 62
253
  6
CONTINUOUS
 10
158.1313751641
 20
128.8720265348
 11
158.8084193184
 21
129.0112611172
  0
LWPOLYLINE
  5
433
100
AcDbEntity
  8
COPY_PUBLISH
100
AcDbPolyline
 62
7
  6
CONTINUOUS
 90
36
 70
0
 10
153.7225465229
 20
123.0256752858
 10
153.7264701932
 20
123.0249029101
 10
153.7357264702
 20
123.0234147561
 10
153.7451435541
 20
123.0223638089
 10
153.7547112047
 20
123.0217467298
 10
153.7644113496
 20
123.0215420958
 10
153.7742230534
 20
123.0217502973
 10
153.7841259532
 20
123.0223705549
 10
153.7941037341
 20
123.0233794051
 10
153.8041367949
 20
123.0247758797
 10
153.8142061379
 20
123.0265583162
 10
153.824297259
 20
123.0287020605
 10
153.8343920518
 20
123.0312050417
 10
153.8444729506
 20
123.0340648468
 10
153.8545271198
 20
123.0372562707
 10
153.8645380112
 20
123.0407763699
 10
153.8744895119
 20
123.0446220864
 10
153.8843702123
 20
123.0487680786
 10
153.8941651159
 20
123.0532107151
 10
153.9038595625
 20
123.0579463821
 10
153.9134433254
 20
123.062949839
 10
153.9229029213
 20
123.068216903
 10
153.932225131
 20
123.073743486
 10
153.9414007204
 20
123.0795045732
 10
153.9504176705
 20
123.085495527
 10
153.9592641922
 20
123.0917118621
 10
153.9679319317
 20
123.098128867
 10
153.9764102902
 20
123.1047415175
 10
153.9846889014
 20
123.1115450072
 10
153.9927602612
 20
123.118515009
 10
154.0006151553
 20
123.1256461631
 10
154.0082446374
 20
123.1329334191
 10
154.015642093
 20
123.1403529567
 10
154.0228001259
 20
123.147893252
 10
154.0297107147
 20
123.1555549793
 10
154.0363669235
 20
123.1633325734
  0
LINE
  5
434
100
AcDbEntity
  8
COPY_PUBLISH
100
AcDbLine
 62
7
  6
CONTINUOUS
 10
153.0983028219
 20
123.1560149355
 11
153.7226834705
 21
123.0256436767
  0
LINE
  5
435
100
AcDbEntity
  8
COPY_PUBLISH
100
AcDbLine
 62
253
  6
CONTINUOUS
 10
153.3251463154
 20
123.3118360963
 11
154.0363669235
 21
123.1633325734
  0
LWPOLYLINE
  5
436
100
AcDbEntity
  8
COPY_PUBLISH
100
AcDbPolyline
 62
7
  6
CONTINUOUS
 90
10
 70
0
 10
153.0983028219
 20
123.1560149355
 10
153.0907369728
 20
123.1577175692
 10
153.0832070948
 20
123.1596596704
 10
153.0757241006
 20
123.1618403135
 10
153.0682710266
 20
123.1642674677
 10
153.0608885632
 20
123.1669305393
 10
153.0536685741
 20
123.1697928176
 10
153.0466422626
 20
123.1728322945
 10
153.0397866508
 20
123.1760491995
 10
153.0375898266
 20
123.1771342832
  0
LINE
  5
437
100
AcDbEntity
  8
COPY_PUBLISH
100
AcDbLine
 62
7
  6
CONTINUOUS
 10
153.6838449638
 20
122.34493257
 11
151.9970792396
 21
123.1883154321
  0
LINE
  5
438
100
AcDbEntity
  8
COPY_PUBLISH
100
AcDbLine
 62
7
  6
CONTINUOUS
 10
149.8290875413
 20
124.2723112813
 11
149.1696776669
 21
124.6020162184
  0
LINE
  5
439
100
AcDbEntity
  8
COPY_PUBLISH
100
AcDbLine
 62
7
  6
CONTINUOUS
 10
144.2075885438
 20
127.08306078
 11
143.5481786695
 21
127.4127657172
  0
LINE
  5
43A
100
AcDbEntity
  8
COPY_PUBLISH
100
AcDbLine
 62
7
  6
CONTINUOUS
 10
141.3801869712
 20
128.4967615663
 11
139.693421247
 21
129.3401444284
  0
LINE
  5
43B
100
AcDbEntity
  8
COPY_PUBLISH
100
AcDbLine
 62
7
  6
CONTINUOUS
 10
133.9198020506
 20
132.2269540266
 11
133.2597750902
 21
132.5569675068
  0
LINE
  5
43C
100
AcDbEntity
  8
COPY_PUBLISH
100
AcDbLine
 62
7
  6
CONTINUOUS
 10
128.2976859672
 20
135.0380120683
 11
127.6376590068
 21
135.3680255485
  0
LINE
  5
43D
100
AcDbEntity
  8
COPY_PUBLISH
100
AcDbLine
 62
7
  6
CONTINUOUS
 10
123.7830038635
 20
137.2953531201
 11
125.4707992012
 21
136.4514554513
  0
LINE
  5
43E
100
AcDbEntity
  8
COPY_PUBLISH
100
AcDbLine
 62
7
  6
CONTINUOUS
 10
136.0866618562
 20
131.1435241238
 11
137.7744571938
 21
130.299626455
  0
LWPOLYLINE
  5
43F
100
AcDbEntity
  8
COPY_PUBLISH
100
AcDbPolyline
 62
253
  6
CONTINUOUS
 90
16
 70
0
 10
123.0795995186
 20
138.2588612386
 10
123.0714144848
 20
138.2631526798
 10
123.0636457203
 20
138.2676333869
 10
123.0563107094
 20
138.2722932759
 10
123.0494259677
 20
138.2771218536
 10
123.043006981
 20
138.2821082583
 10
123.0370681757
 20
138.2872412861
 10
123.0316229104
 20
138.2925093987
 10
123.0266834601
 20
138.2979007291
 10
123.0222609616
 20
138.3034031252
 10
123.0183653725
 20
138.3090041965
 10
123.0150054549
 20
138.3146913437
 10
123.0121887706
 20
138.3204517667
 10
123.0099216591
 20
138.3262725011
 10
123.0082092226
 20
138.3321404467
 10
123.007055315
 20
138.3380423971
  0
LWPOLYLINE
  5
440
100
AcDbEntity
  8
COPY_PUBLISH
100
AcDbPolyline
 62
253
  6
CONTINUOUS
 90
16
 70
0
 10
135.3832575113
 20
132.1070322423
 10
135.3750724774
 20
132.1113236835
 10
135.3673037129
 20
132.1158043906
 10
135.359968702
 20
132.1204642796
 10
135.3530839603
 20
132.1252928573
 10
135.3466649737
 20
132.130279262
 10
135.3407261684
 20
132.1354122898
 10
135.3352809031
 20
132.1406804024
 10
135.3303414527
 20
132.1460717328
 10
135.3259189542
 20
132.1515741288
 10
135.3220233651
 20
132.1571752002
 10
135.3186634475
 20
132.1628623473
 10
135.3158467633
 20
132.1686227704
 10
135.3135796518
 20
132.1744435048
 10
135.3118672152
 20
132.1803114504
 10
135.3107133076
 20
132.1862134008
  0
LWPOLYLINE
  5
441
100
AcDbEntity
  8
COPY_PUBLISH
100
AcDbPolyline
 62
253
  6
CONTINUOUS
 90
18
 70
0
 10
123.0795995186
 20
138.5999695282
 10
123.0714278912
 20
138.6042535985
 10
123.0636679321
 20
138.6087282361
 10
123.0563375964
 20
138.6133836278
 10
123.0494529778
 20
138.6182102202
 10
123.043031197
 20
138.6231967223
 10
123.0370896993
 20
138.6283299147
 10
123.0316426181
 20
138.6335974638
 10
123.0267013102
 20
138.6389882531
 10
123.0222768232
 20
138.6444902476
 10
123.0183790963
 20
138.6500911409
 10
123.0150169893
 20
138.6557782631
 10
123.0121981495
 20
138.6615386997
 10
123.0099289346
 20
138.6673594324
 10
123.0082144198
 20
138.6732274105
 10
123.0070584534
 20
138.6791294647
 10
123.0064636425
 20
138.685052327
 10
123.0063762139
 20
138.6883578581
  0
LWPOLYLINE
  5
442
100
AcDbEntity
  8
COPY_PUBLISH
100
AcDbPolyline
 62
253
  6
CONTINUOUS
 90
16
 70
0
 10
138.9904282927
 20
130.3034468516
 10
138.982246225
 20
130.3077366618
 10
138.9744801107
 20
130.3122156011
 10
138.9671474149
 20
130.3168735967
 10
138.960264636
 20
130.3217001675
 10
138.9538472437
 20
130.3266844645
 10
138.9479096501
 20
130.3318152968
 10
138.9424652013
 20
130.3370811394
 10
138.9375261612
 20
130.3424701394
 10
138.9331036574
 20
130.347970159
 10
138.9292076401
 20
130.3535688224
 10
138.9258468658
 20
130.3592535447
 10
138.9230288928
 20
130.3650115412
 10
138.9207600585
 20
130.3708298623
 10
138.9190454653
 20
130.376695423
 10
138.9178889691
 20
130.3825950323
  0
LWPOLYLINE
  5
443
100
AcDbEntity
  8
COPY_PUBLISH
100
AcDbPolyline
 62
7
  6
CONTINUOUS
 90
4
 70
0
 10
123.1446843444
 20
138.1235871165
 10
123.1244059345
 20
138.1349211233
 10
123.1020633829
 20
138.1505588229
 10
123.081421344
 20
138.1686696505
  0
LWPOLYLINE
  5
444
100
AcDbEntity
  8
COPY_PUBLISH
100
AcDbPolyline
 62
7
  6
CONTINUOUS
 90
4
 70
0
 10
135.448342337
 20
131.9717581202
 10
135.4280639271
 20
131.983092127
 10
135.4057213755
 20
131.9987298265
 10
135.3850793367
 20
132.0168406541
  0
LWPOLYLINE
  5
445
100
AcDbEntity
  8
COPY_PUBLISH
100
AcDbPolyline
 62
7
  6
CONTINUOUS
 90
4
 70
0
 10
139.0555135431
 20
130.1681725179
 10
139.0352587049
 20
130.1794918202
 10
139.0129206212
 20
130.1951221054
 10
138.9922817467
 20
130.2132242823
  0
LWPOLYLINE
  5
446
100
AcDbEntity
  8
COPY_PUBLISH
100
AcDbPolyline
 62
253
  6
CONTINUOUS
 90
3
 70
0
 10
123.1369628326
 20
138.1279005875
 10
123.142763519
 20
138.1245721041
 10
123.1445740937
 20
138.1236421492
  0
LWPOLYLINE
  5
447
100
AcDbEntity
  8
COPY_PUBLISH
100
AcDbPolyline
 62
253
  6
CONTINUOUS
 90
3
 70
0
 10
135.4406208252
 20
131.9760715912
 10
135.4464215117
 20
131.9727431078
 10
135.4482320864
 20
131.9718131529
  0
LWPOLYLINE
  5
448
100
AcDbEntity
  8
COPY_PUBLISH
100
AcDbPolyline
 62
253
  6
CONTINUOUS
 90
3
 70
0
 10
139.0477916103
 20
130.1724861982
 10
139.0535922963
 20
130.1691577154
 10
139.0554028678
 20
130.1682277622
  0
LWPOLYLINE
  5
449
100
AcDbEntity
  8
RACCORDO
100
AcDbPolyline
 62
7
  6
CONTINUOUS
 90
31
 70
0
 10
165.5772899898
 20
110.4650871528
 10
165.6859532836
 20
110.3722870819
 10
165.831206609
 20
110.2332832802
 10
165.9710670312
 20
110.0841663591
 10
166.1046899636
 20
109.9260703192
 10
166.2317404588
 20
109.7596057704
 10
166.3515909944
 20
109.5857594104
 10
166.4636639453
 20
109.4055415239
 10
166.5675174555
 20
109.2198188019
 10
166.6627495723
 20
109.0294154031
 10
166.7489149201
 20
108.835282989
 10
166.8255977158
 20
108.6383930058
 10
166.8924593271
 20
108.4395930256
 10
166.949161096
 20
108.2397746044
 10
166.9953533119
 20
108.0399795477
 10
167.0307389593
 20
107.8412376597
 10
167.0551132599
 20
107.644130402
 10
167.0681924316
 20
107.4499675014
 10
167.0698236577
 20
107.2607225701
 10
167.0600866128
 20
107.0775820576
 10
167.0390701368
 20
106.9009024677
 10
167.006830536
 20
106.7312285963
 10
166.9632748635
 20
106.5687109482
 10
166.9086015551
 20
106.4146692759
 10
166.843612063
 20
106.2711263784
 10
166.7692482119
 20
106.1392604181
 10
166.6856764281
 20
106.0186189495
 10
166.5927058739
 20
105.9087799214
 10
166.4906111118
 20
105.8102427963
 10
166.380077257
 20
105.7238168073
 10
166.3413093101
 20
105.6976999257
  0
LWPOLYLINE
  5
44A
100
AcDbEntity
  8
RACCORDO
100
AcDbPolyline
 62
253
  6
CONTINUOUS
 90
30
 70
0
 10
165.5772899898
 20
110.3631497966
 10
165.6179576282
 20
110.3269866584
 10
165.7576142845
 20
110.1888712292
 10
165.8929163948
 20
110.0407665963
 10
166.0231764693
 20
109.8834130347
 10
166.1476922487
 20
109.7176461272
 10
166.2657958917
 20
109.5443485552
 10
166.376870774
 20
109.3644218439
 10
166.4803369426
 20
109.1788019621
 10
166.5756416466
 20
108.9884806482
 10
166.6622852444
 20
108.7944618296
 10
166.7398241713
 20
108.5977455389
 10
166.8078593387
 20
108.3993478268
 10
166.8660370457
 20
108.2003023274
 10
166.9140552347
 20
108.0016450591
 10
166.951666266
 20
107.8044003563
 10
166.9786740058
 20
107.6095904833
 10
166.9949358491
 20
107.4182352563
 10
167.000366237
 20
107.2313363756
 10
166.9949368594
 20
107.0498670929
 10
166.9786759627
 20
106.8747726139
 10
166.9516691159
 20
106.706969422
 10
166.914058931
 20
106.5473347144
 10
166.8660415544
 20
106.3966946327
 10
166.8078647689
 20
106.2558261506
 10
166.7398308509
 20
106.1254634067
 10
166.6622934573
 20
106.0062859484
 10
166.5756513701
 20
105.8989102362
 10
166.4803481688
 20
105.803892844
 10
166.3768833901
 20
105.7217380339
  0
LWPOLYLINE
  5
44B
100
AcDbEntity
  8
COPY_PUBLISH
100
AcDbPolyline
 62
7
  6
CONTINUOUS
 90
7
 70
0
 10
151.2959397393
 20
124.061395286
 10
151.2773992177
 20
124.0816656678
 10
151.2611688426
 20
124.1038872533
 10
151.2473603174
 20
124.127994777
 10
151.2362212561
 20
124.1537318945
 10
151.2279907053
 20
124.1807352306
 10
151.2228196254
 20
124.2087893179
  0
LINE
  5
44C
100
AcDbEntity
  8
0
100
AcDbLine
 62
7
  6
CONTINUOUS
 10
158.9908634634
 20
135.7520918557
 11
158.9908721596
 21
135.106130919
  0
LINE
  5
44D
100
AcDbEntity
  8
RACCORDO
100
AcDbLine
 62
253
  6
CONTINUOUS
 10
166.3413094355
 20
105.6977000069
 11
166.340372894
 21
105.6970936006
  0
LINE
  5
44E
100
AcDbEntity
  8
DRAFT
100
AcDbLine
 62
7
  6
CONTINUOUS
 10
165.5772899898
 20
105.2035380208
 11
166.340375397
 21
105.6970952195
  0
LWPOLYLINE
  5
44F
100
AcDbEntity
  8
RACCORDO
100
AcDbPolyline
 62
253
  6
CONTINUOUS
 90
35
 70
0
 10
155.1417540127
 20
132.6581501297
 10
155.2499863411
 20
132.6851802072
 10
155.3613169049
 20
132.7066692141
 10
155.4751084576
 20
132.7225158953
 10
155.5893946919
 20
132.7326177449
 10
155.7036042207
 20
132.7372215644
 10
155.8175083633
 20
132.7366051533
 10
155.9295385267
 20
132.7311226652
 10
156.0390268348
 20
132.7212357538
 10
156.1459648352
 20
132.7073576781
 10
156.2497860917
 20
132.6899578815
 10
156.3501538404
 20
132.6694962194
 10
156.4469789075
 20
132.6463793388
 10
156.540121127
 20
132.6210088649
 10
156.62936761
 20
132.593801376
 10
156.7147187347
 20
132.565102371
 10
156.7963963862
 20
132.5351530812
 10
156.8743128152
 20
132.504279696
 10
156.9484885412
 20
132.4727580667
 10
157.0193259618
 20
132.4406723623
 10
157.0868258682
 20
132.4082522091
 10
157.1510003129
 20
132.3757146653
 10
157.2122677273
 20
132.3430478757
 10
157.2706499348
 20
132.3104192579
 10
157.3261759337
 20
132.2779866557
 10
157.3792631623
 20
132.2456610809
 10
157.4299397188
 20
132.2135621456
 10
157.4782395228
 20
132.1818017901
 10
157.5245703751
 20
132.1502286415
 10
157.568959148
 20
132.1189254241
 10
157.6114360759
 20
132.0879699355
 10
157.6523917872
 20
132.0571620459
 10
157.6919649718
 20
132.0264638713
 10
157.730056982
 20
131.9960176369
 10
157.7666916107
 20
131.9658734135
  0
LINE
  5
450
100
AcDbEntity
  8
0
100
AcDbLine
 62
7
  6
CONTINUOUS
 10
162.4231779252
 20
130.9629713542
 11
163.0788743537
 21
131.0987528764
  0
LINE
  5
451
100
AcDbEntity
  8
0
100
AcDbLine
 62
7
  6
CONTINUOUS
 10
156.2797453147
 20
130.2263556007
 11
155.7724270987
 21
130.1501229005
  0
LINE
  5
452
100
AcDbEntity
  8
0
100
AcDbLine
 62
7
  6
CONTINUOUS
 10
156.491877349
 20
130.5702895835
 11
155.9845591331
 21
130.4940568834
  0
LINE
  5
453
100
AcDbEntity
  8
COPY_PUBLISH
100
AcDbLine
 62
7
  6
CONTINUOUS
 10
140.7946448292
 20
129.3078439318
 11
141.4190248374
 21
129.1774728068
  0
LINE
  5
454
100
AcDbEntity
  8
COPY_PUBLISH
100
AcDbLine
 62
253
  6
CONTINUOUS
 10
141.0214883227
 20
129.4636650926
 11
141.7327089308
 21
129.3151615697
  0
LWPOLYLINE
  5
455
100
AcDbEntity
  8
COPY_PUBLISH
100
AcDbPolyline
 62
7
  6
CONTINUOUS
 90
3
 70
0
 10
153.6597120866
 20
125.8901731595
 10
153.6894032316
 20
125.8789020555
 10
153.6979758407
 20
125.8748099398
  0
LWPOLYLINE
  5
456
100
AcDbEntity
  8
COPY_PUBLISH
100
AcDbPolyline
 62
7
  6
CONTINUOUS
 90
4
 70
0
 10
140.7339400105
 20
129.3289591908
 10
140.7544220537
 20
129.3198421341
 10
140.7788440985
 20
129.311683352
 10
140.7946453866
 20
129.3078438154
  0
LWPOLYLINE
  5
457
100
AcDbEntity
  8
COPY_PUBLISH
100
AcDbPolyline
 62
7
  6
CONTINUOUS
 90
4
 70
0
 10
124.8249635973
 20
137.2834473975
 10
124.845446201
 20
137.2743301172
 10
124.8698771185
 20
137.2661689314
 10
124.8857084756
 20
137.2623237675
  0
LWPOLYLINE
  5
458
100
AcDbEntity
  8
COPY_PUBLISH
100
AcDbPolyline
 62
253
  6
CONTINUOUS
 90
16
 70
0
 10
148.3867232621
 20
127.2934017763
 10
148.3799358874
 20
127.2965410288
 10
148.373165747
 20
127.2992816591
 10
148.3664281808
 20
127.3016174558
 10
148.3597384514
 20
127.3035431259
 10
148.3531117207
 20
127.3050543028
 10
148.3465630159
 20
127.3061475594
 10
148.3401071783
 20
127.3068204188
 10
148.3337588324
 20
127.3070713577
 10
148.3275323639
 20
127.3068998081
 10
148.3214418796
 20
127.3063061595
 10
148.3155011803
 20
127.3052917581
 10
148.3097237311
 20
127.3038589044
 10
148.3041226233
 20
127.3020108475
 10
148.2987105455
 20
127.2997517766
 10
148.2958366877
 20
127.2983450722
  0
LWPOLYLINE
  5
459
100
AcDbEntity
  8
COPY_PUBLISH
100
AcDbPolyline
 62
253
  6
CONTINUOUS
 90
16
 70
0
 10
132.4769029598
 20
135.2485464702
 10
132.4701282248
 20
135.2516801943
 10
132.4633673838
 20
135.2544178608
 10
132.4566357457
 20
135.2567527376
 10
132.4499475783
 20
135.2586792504
 10
132.443319124
 20
135.2601920907
 10
132.4367684585
 20
135.2612868603
 10
132.4303114377
 20
135.2619610055
 10
132.42396165
 20
135.2622132052
 10
132.4177333667
 20
135.2620428814
 10
132.4116406264
 20
135.261450386
 10
132.4056973241
 20
135.2604370381
 10
132.3999170532
 20
135.2590051447
 10
132.3943129596
 20
135.2571579721
 10
132.388897686
 20
135.2548996975
 10
132.3860987162
 20
135.2535328868
  0
LWPOLYLINE
  5
45A
100
AcDbEntity
  8
COPY_PUBLISH
100
AcDbPolyline
 62
7
  6
CONTINUOUS
 90
17
 70
0
 10
148.5978196197
 20
127.4023257622
 10
148.5916512222
 20
127.4052452844
 10
148.5854943722
 20
127.4078294836
 10
148.5793608852
 20
127.410073488
 10
148.5732626147
 20
127.4119731162
 10
148.5672111726
 20
127.4135247513
 10
148.5612179061
 20
127.4147253475
 10
148.5552942934
 20
127.4155726533
 10
148.549451701
 20
127.4160650992
 10
148.543701104
 20
127.4162016685
 10
148.5380535053
 20
127.4159821278
 10
148.5325197348
 20
127.4154069329
 10
148.527110207
 20
127.4144771135
 10
148.5218352614
 20
127.4131944591
 10
148.5167050058
 20
127.4115614429
 10
148.5117291155
 20
127.4095811242
 10
148.5092275074
 20
127.4084258391
  0
LWPOLYLINE
  5
45B
100
AcDbEntity
  8
COPY_PUBLISH
100
AcDbPolyline
 62
7
  6
CONTINUOUS
 90
17
 70
0
 10
132.687917761
 20
135.3572766916
 10
132.6817517578
 20
135.3601975625
 10
132.6755970443
 20
135.3627829363
 10
132.6694654367
 20
135.3650279468
 10
132.6633687725
 20
135.3669283996
 10
132.6573186802
 20
135.368480704
 10
132.6513265583
 20
135.3696818727
 10
132.6454038889
 20
135.3705296628
 10
132.6395620386
 20
135.3710224948
 10
132.6338120298
 20
135.371159375
 10
132.6281648754
 20
135.3709400742
 10
132.6226314009
 20
135.3703650455
 10
132.6172220483
 20
135.3694353319
 10
132.6119471644
 20
135.3681527258
 10
132.6068168566
 20
135.3665197001
 10
132.6018408178
 20
135.3645393222
 10
132.5993389883
 20
135.3633839354
  0
LWPOLYLINE
  5
45C
100
AcDbEntity
  8
COPY_PUBLISH
100
AcDbPolyline
 62
253
  6
CONTINUOUS
 90
34
 70
0
 10
152.9726243557
 20
123.3123488201
 10
152.9812039762
 20
123.3082577863
 10
152.9901618546
 20
123.3043747291
 10
152.9994778458
 20
123.3007083812
 10
153.0091309875
 20
123.2972669918
 10
153.0190995815
 20
123.2940582956
 10
153.029361246
 20
123.2910894988
 10
153.0398929313
 20
123.2883672744
 10
153.0506709313
 20
123.2858977544
 10
153.0616709705
 20
123.2836865025
 10
153.0728682973
 20
123.2817384938
 10
153.084237742
 20
123.2800581067
 10
153.0957537349
 20
123.2786491201
 10
153.1073903771
 20
123.277514703
 10
153.1191214985
 20
123.2766574064
 10
153.130920717
 20
123.2760791583
 10
153.1427615054
 20
123.2757812591
 10
153.1546172259
 20
123.2757643792
 10
153.1664611898
 20
123.2760285557
 10
153.1782667439
 20
123.2765731917
 10
153.190007356
 20
123.2773970607
 10
153.2016566482
 20
123.2784983108
 10
153.2131885075
 20
123.2798744767
 10
153.2245769124
 20
123.2815224561
 10
153.2357960272
 20
123.2834385018
 10
153.2468204861
 20
123.2856182579
 10
153.2576256627
 20
123.2880568307
 10
153.2681874845
 20
123.2907487783
 10
153.2784830254
 20
123.2936882959
 10
153.2884882641
 20
123.2968685643
 10
153.2981785732
 20
123.3002816441
 10
153.3075317024
 20
123.3039194304
 10
153.3165276022
 20
123.3077738472
 10
153.3251463154
 20
123.3118360963
  0
LWPOLYLINE
  5
45D
100
AcDbEntity
  8
COPY_PUBLISH
100
AcDbPolyline
 62
253
  6
CONTINUOUS
 90
34
 70
0
 10
140.6689663631
 20
129.4641778164
 10
140.677545355
 20
129.4600870684
 10
140.6865025521
 20
129.4562042666
 10
140.6958178136
 20
129.4525381418
 10
140.7054701934
 20
129.4490969376
 10
140.7154379873
 20
129.4458883917
 10
140.725698782
 20
129.442919719
 10
140.7362295053
 20
129.4401975945
 10
140.7470064782
 20
129.4377281393
 10
140.7580054678
 20
129.4355169061
 10
140.7692017419
 20
129.433568867
 10
140.780570125
 20
129.4318884023
 10
140.7920850544
 20
129.4304792907
 10
140.8037206378
 20
129.4293447007
 10
140.8154507119
 20
129.4284871834
 10
140.8272489006
 20
129.4279086672
 10
140.8390886748
 20
129.4276104527
 10
140.8509434119
 20
129.4275932107
 10
140.8627864556
 20
129.4278569798
 10
140.8745911759
 20
129.4284011669
 10
140.886331029
 20
129.4292245484
 10
140.8979796171
 20
129.4303252729
 10
140.9095107472
 20
129.4317008652
 10
140.9208984909
 20
129.4333482324
 10
140.9321172419
 20
129.4352636701
 10
140.9431417741
 20
129.4374428713
 10
140.9539472978
 20
129.4398809359
 10
140.9645095161
 20
129.4425723818
 10
140.9748046791
 20
129.4455111571
 10
140.9848096372
 20
129.4486906537
 10
140.9945018936
 20
129.4521037222
 10
141.0038596545
 20
129.4557426881
 10
141.0128618783
 20
129.4595993689
 10
141.0214883227
 20
129.4636650926
  0
LWPOLYLINE
  5
45E
100
AcDbEntity
  8
COPY_PUBLISH
100
AcDbPolyline
 62
253
  6
CONTINUOUS
 90
34
 70
0
 10
152.9726243557
 20
123.6523227542
 10
152.9812045586
 20
123.6482314555
 10
152.9901630819
 20
123.6443481562
 10
152.9994797777
 20
123.6406815915
 10
153.0091336986
 20
123.6372400071
 10
153.0191031263
 20
123.6340311473
 10
153.029365619
 20
123.6310622361
 10
153.0398980879
 20
123.6283399523
 10
153.0506768483
 20
123.6258704168
 10
153.0616776528
 20
123.6236591846
 10
153.0728757594
 20
123.6217112282
 10
153.0842459791
 20
123.6200309289
 10
153.0957627287
 20
123.6186220664
 10
153.107400102
 20
123.6174878083
 10
153.1191319259
 20
123.6166307045
 10
153.130931809
 20
123.6160526815
 10
153.1427732172
 20
123.6157550378
 10
153.1546295108
 20
123.6157384417
 10
153.1664740013
 20
123.6160029282
 10
153.178280016
 20
123.6165478974
 10
153.1900210355
 20
123.617372121
 10
153.2016707296
 20
123.6184737501
 10
153.2132030034
 20
123.6198503236
 10
153.2245918081
 20
123.6214987388
 10
153.2358112868
 20
123.6234152461
 10
153.2468360693
 20
123.6255954891
 10
153.2576415248
 20
123.6280345739
 10
153.2682035627
 20
123.6307270539
 10
153.2784999566
 20
123.6336673344
 10
153.2885059373
 20
123.6368484154
 10
153.2981948781
 20
123.6402616158
 10
153.3075440983
 20
123.6438984263
 10
153.316534475
 20
123.6477508704
 10
153.3251463154
 20
123.6518100304
  0
LWPOLYLINE
  5
45F
100
AcDbEntity
  8
COPY_PUBLISH
100
AcDbPolyline
 62
253
  6
CONTINUOUS
 90
34
 70
0
 10
137.0636479764
 20
131.2668370098
 10
137.0722308586
 20
131.2627444929
 10
137.0811922729
 20
131.2588601106
 10
137.0905120509
 20
131.2551926051
 10
137.1001692063
 20
131.2517502343
 10
137.1101420157
 20
131.248540741
 10
137.1204080713
 20
131.2455713383
 10
137.1309442964
 20
131.2428487057
 10
137.1417269573
 20
131.2403789805
 10
137.1527317494
 20
131.2381677313
 10
137.1639338921
 20
131.2362199367
 10
137.1753081864
 20
131.2345399779
 10
137.1868290325
 20
131.2331316358
 10
137.1984705013
 20
131.23199808
 10
137.2102063924
 20
131.2311418618
 10
137.2220102933
 20
131.2305649079
 10
137.2338556467
 20
131.230268517
 10
137.2457157845
 20
131.2302533564
 10
137.2575639884
 20
131.2305194596
 10
137.2693735756
 20
131.2310662247
 10
137.2811179851
 20
131.2318924196
 10
137.2927708111
 20
131.2329961857
 10
137.3043059131
 20
131.2343750502
 10
137.315697243
 20
131.2360259027
 10
137.326918939
 20
131.2379449864
 10
137.3379456105
 20
131.2401279351
 10
137.348752608
 20
131.2425698447
 10
137.3593158373
 20
131.2452652616
 10
137.3696123527
 20
131.2482083692
 10
137.379618112
 20
131.251392335
 10
137.3893084669
 20
131.254809204
 10
137.3986611505
 20
131.2584508557
 10
137.4076561004
 20
131.2623092
 10
137.4162733474
 20
131.2663754232
  0
LWPOLYLINE
  5
460
100
AcDbEntity
  8
COPY_PUBLISH
100
AcDbPolyline
 62
253
  6
CONTINUOUS
 90
34
 70
0
 10
140.6689663631
 20
129.8041517506
 10
140.6775312948
 20
129.800067396
 10
140.6864770781
 20
129.7961887262
 10
140.6957841071
 20
129.7925247082
 10
140.7054332921
 20
129.7890833808
 10
140.7154020793
 20
129.7858732932
 10
140.7256640707
 20
129.7829031556
 10
140.7361946322
 20
129.7801800271
 10
140.7469715529
 20
129.7777095821
 10
140.7579707904
 20
129.77549734
 10
140.7691677605
 20
129.7735482668
 10
140.7805371533
 20
129.7718667893
 10
140.792053171
 20
129.7704567292
 10
140.8036898073
 20
129.7693212643
 10
140.8154209912
 20
129.7684629325
 10
140.8272204137
 20
129.7678836587
 10
140.8390615695
 20
129.7675847485
 10
140.8509177946
 20
129.767566879
 10
140.8627624029
 20
129.7678300927
 10
140.8745687484
 20
129.7683737988
 10
140.886310282
 20
129.7691967762
 10
140.8979605909
 20
129.7702971748
 10
140.9094934727
 20
129.7716725212
 10
140.9208829857
 20
129.7733197231
 10
140.9321035034
 20
129.7752350754
 10
140.9431297868
 20
129.7774142702
 10
140.953937037
 20
129.779852407
 10
140.9645009425
 20
129.7825440017
 10
140.9747977478
 20
129.7854830023
 10
140.9848042877
 20
129.7886627974
 10
140.9944980374
 20
129.7920762288
 10
141.0038571895
 20
129.7957156158
 10
141.0128607009
 20
129.7995727739
 10
141.0214883227
 20
129.8036390267
  0
LWPOLYLINE
  5
461
100
AcDbEntity
  8
COPY_PUBLISH
100
AcDbPolyline
 62
253
  6
CONTINUOUS
 90
34
 70
0
 10
124.7599899837
 20
137.4186660061
 10
124.7685722364
 20
137.4145737754
 10
124.7775329682
 20
137.410689649
 10
124.7868520152
 20
137.4070223669
 10
124.7965084073
 20
137.4035801816
 10
124.8064804153
 20
137.4003708388
 10
124.8167455996
 20
137.3974015603
 10
124.827280861
 20
137.3946790277
 10
124.8380624926
 20
137.3922093674
 10
124.849066233
 20
137.3899981367
 10
124.8602673212
 20
137.3880503115
 10
124.8716405519
 20
137.3863702749
 10
124.8831603324
 20
137.3849618073
 10
124.8948007405
 20
137.3838280781
 10
124.9065355824
 20
137.3829716386
 10
124.9183384517
 20
137.3823944159
 10
124.930182789
 20
137.3820977089
 10
124.9420419418
 20
137.3820821853
 10
124.9538892239
 20
137.3823478799
 10
124.9656979761
 20
137.382894195
 10
124.9774416256
 20
137.3837199012
 10
124.9890937465
 20
137.3848231405
 10
125.0006281185
 20
137.3862014302
 10
125.0120187865
 20
137.3878516689
 10
125.0232401186
 20
137.3897701431
 10
125.0342668641
 20
137.3919525359
 10
125.04507421
 20
137.3943939362
 10
125.0556378372
 20
137.3970888503
 10
125.0659339748
 20
137.4000312141
 10
125.0759394541
 20
137.4032144064
 10
125.0856317601
 20
137.4066312642
 10
125.0949890829
 20
137.4102740989
 10
125.1039903662
 20
137.4141347131
 10
125.1126153547
 20
137.4182044195
  0
LWPOLYLINE
  5
462
100
AcDbEntity
  8
COPY_PUBLISH
100
AcDbPolyline
 62
253
  6
CONTINUOUS
 90
34
 70
0
 10
137.0636479764
 20
131.6079452993
 10
137.0722161169
 20
131.6038594856
 10
137.0811653922
 20
131.5999795061
 10
137.0904761756
 20
131.5963143382
 10
137.1001293604
 20
131.5928720289
 10
137.1101023645
 20
131.5896611385
 10
137.1203687494
 20
131.5866903897
 10
137.1309038476
 20
131.5839668491
 10
137.1416854262
 20
131.5814961951
 10
137.1526894151
 20
131.5792839516
 10
137.1638912018
 20
131.5773350882
 10
137.1752654461
 20
131.5756540347
 10
137.1867863194
 20
131.5742446148
 10
137.1984277847
 20
131.5731100073
 10
137.210163741
 20
131.5722527499
 10
137.2219678493
 20
131.5716747667
 10
137.233813574
 20
131.5713773613
 10
137.2456742211
 20
131.5713612078
 10
137.2575230742
 20
131.5716263451
 10
137.2693334582
 20
131.5721721775
 10
137.2810787951
 20
131.5729974781
 10
137.2927326438
 20
131.5741003904
 10
137.3042687744
 20
131.5754784335
 10
137.3156612186
 20
131.5771285066
 10
137.3268843243
 20
131.5790468953
 10
137.3379128278
 20
131.5812292819
 10
137.3487219066
 20
131.583670755
 10
137.3592872272
 20
131.5863658189
 10
137.3695850132
 20
131.5893084091
 10
137.3795920798
 20
131.5924919014
 10
137.3892858843
 20
131.5959091239
 10
137.3986446029
 20
131.5995523816
 10
137.4076471779
 20
131.6034134751
 10
137.4162733474
 20
131.6074837128
  0
LWPOLYLINE
  5
463
100
AcDbEntity
  8
COPY_PUBLISH
100
AcDbPolyline
 62
253
  6
CONTINUOUS
 90
34
 70
0
 10
124.7599899837
 20
137.7597742957
 10
124.7685734476
 20
137.7556815143
 10
124.7775355059
 20
137.7517968902
 10
124.7868559877
 20
137.7481291682
 10
124.7965139214
 20
137.7446866027
 10
124.8064875637
 20
137.7414769459
 10
124.8167544465
 20
137.7385074291
 10
124.8272914541
 20
137.7357847372
 10
124.8380748738
 20
137.7333149969
 10
124.8490804297
 20
137.7311037675
 10
124.8602833507
 20
137.7291560253
 10
124.8716584184
 20
137.7274761544
 10
124.8831800194
 20
137.7260679363
 10
124.8948222177
 20
137.7249345396
 10
124.9065588094
 20
137.724078514
 10
124.9183633731
 20
137.7235017851
 10
124.9302093441
 20
137.7232056494
 10
124.942070053
 20
137.7231907723
 10
124.9539187813
 20
137.723457185
 10
124.9657288271
 20
137.7240042828
 10
124.9774736421
 20
137.7248308316
 10
124.9891268682
 20
137.725934976
 10
125.0006623828
 20
137.7273142476
 10
125.0120541107
 20
137.7289655349
 10
125.02327617
 20
137.7308850794
 10
125.034303166
 20
137.7330685148
 10
125.0451104445
 20
137.7355109362
 10
125.0556738917
 20
137.7382068854
 10
125.0659712607
 20
137.741150756
 10
125.0759777626
 20
137.7443355344
 10
125.0856667522
 20
137.7477525241
 10
125.0950155333
 20
137.7513932007
 10
125.1040049691
 20
137.7552495733
 10
125.1126153547
 20
137.7593127091
  0
LWPOLYLINE
  5
464
100
AcDbEntity
  8
COPY_PUBLISH
100
AcDbPolyline
 62
253
  6
CONTINUOUS
 90
34
 70
0
 10
146.5453551158
 20
127.9002850951
 10
146.5522052669
 20
127.8970184274
 10
146.5593568879
 20
127.8939174857
 10
146.5667939576
 20
127.8909892169
 10
146.5744998152
 20
127.8882401807
 10
146.5824571979
 20
127.8856765358
 10
146.5906482794
 20
127.8833040253
 10
146.5990547097
 20
127.8811279641
 10
146.6076576566
 20
127.8791532272
 10
146.6164378475
 20
127.8773842382
 10
146.6253756128
 20
127.8758249603
 10
146.63445093
 20
127.8744788865
 10
146.6436434682
 20
127.8733490324
 10
146.652932634
 20
127.872437929
 10
146.6622976177
 20
127.8717476174
 10
146.6717174396
 20
127.8712796442
 10
146.6811709971
 20
127.8710350576
 10
146.6906371121
 20
127.8710144056
 10
146.7000945785
 20
127.8712177345
 10
146.7095222092
 20
127.8716445887
 10
146.7188988844
 20
127.872294012
 10
146.7282035981
 20
127.8731645496
 10
146.7374155057
 20
127.8742542512
 10
146.7465139704
 20
127.8755606757
 10
146.7554786096
 20
127.8770808964
 10
146.7642893405
 20
127.8788115077
 10
146.7729264251
 20
127.8807486325
 10
146.7813705142
 20
127.8828879313
 10
146.7896026914
 20
127.8852246116
 10
146.7976045146
 20
127.8877534387
 10
146.8053580579
 20
127.8904687474
 10
146.8128459517
 20
127.8933644549
 10
146.8200514213
 20
127.896434074
 10
146.8269583249
 20
127.8996707283
  0
LWPOLYLINE
  5
465
100
AcDbEntity
  8
COPY_PUBLISH
100
AcDbPolyline
 62
253
  6
CONTINUOUS
 90
34
 70
0
 10
130.6354525391
 20
135.8553880949
 10
130.6422909478
 20
135.8521267678
 10
130.6494330447
 20
135.8490292759
 10
130.6568632554
 20
135.8461027633
 10
130.6645664722
 20
135.843353618
 10
130.67252472
 20
135.8407886775
 10
130.6807168366
 20
135.8384149375
 10
130.6891231684
 20
135.8362380337
 10
130.6977261078
 20
135.834262468
 10
130.7065065278
 20
135.8324926386
 10
130.7154448707
 20
135.8309325042
 10
130.7245210112
 20
135.8295855932
 10
130.7337144414
 20
135.8284549541
 10
130.7430044806
 20
135.8275431254
 10
130.7523703886
 20
135.8268521381
 10
130.7617912384
 20
135.8263835367
 10
130.7712459472
 20
135.8261383731
 10
130.7807133025
 20
135.826117201
 10
130.7901720703
 20
135.8263200697
 10
130.7996010489
 20
135.8267465253
 10
130.8089791154
 20
135.8273956134
 10
130.8182852541
 20
135.8282658806
 10
130.8274986133
 20
135.829355378
 10
130.8365985444
 20
135.8306616651
 10
130.8455646476
 20
135.8321818143
 10
130.8543768291
 20
135.8339124193
 10
130.8630153435
 20
135.8358496028
 10
130.8714608304
 20
135.8379890237
 10
130.8796943692
 20
135.8403258895
 10
130.8876975042
 20
135.8428549628
 10
130.8954522856
 20
135.8455705709
 10
130.9029413324
 20
135.8484666255
 10
130.9101478691
 20
135.851536638
 10
130.9170557482
 20
135.8547737281
  0
LINE
  5
466
100
AcDbEntity
  8
COPY_PUBLISH
100
AcDbLine
 62
7
  6
CONTINUOUS
 10
123.1445728151
 20
138.1236427885
 11
124.8249632802
 21
137.283447556
  0
LINE
  5
467
100
AcDbEntity
  8
COPY_PUBLISH
100
AcDbLine
 62
7
  6
CONTINUOUS
 10
135.4482308077
 20
131.9718137922
 11
137.1286212728
 21
131.1316185597
  0
LINE
  5
468
100
AcDbEntity
  8
COPY_PUBLISH
100
AcDbLine
 62
7
  6
CONTINUOUS
 10
139.0554015891
 20
130.1682284015
 11
140.7339396595
 21
129.3289593663
  0
LINE
  5
469
100
AcDbEntity
  8
COPY_PUBLISH
100
AcDbLine
 62
7
  6
CONTINUOUS
 10
151.3590595817
 20
124.0163994052
 11
153.0375976522
 21
123.17713037
  0
LINE
  5
46A
100
AcDbEntity
  8
COPY_PUBLISH
100
AcDbLine
 62
253
  6
CONTINUOUS
 10
123.0795995186
 20
138.2588612386
 11
124.7599899837
 21
137.4186660061
  0
LINE
  5
46B
100
AcDbEntity
  8
COPY_PUBLISH
100
AcDbLine
 62
253
  6
CONTINUOUS
 10
135.3832575113
 20
132.1070322423
 11
137.0636479764
 21
131.2668370098
  0
LINE
  5
46C
100
AcDbEntity
  8
COPY_PUBLISH
100
AcDbLine
 62
253
  6
CONTINUOUS
 10
138.9904282927
 20
130.3034468516
 11
140.6689663631
 21
129.4641778164
  0
LINE
  5
46D
100
AcDbEntity
  8
COPY_PUBLISH
100
AcDbLine
 62
253
  6
CONTINUOUS
 10
151.2940862853
 20
124.1516178553
 11
152.9726243557
 21
123.3123488201
  0
LINE
  5
46E
100
AcDbEntity
  8
COPY_PUBLISH
100
AcDbLine
 62
7
  6
CONTINUOUS
 10
129.0109635757
 20
135.4338665135
 11
130.6354525391
 21
134.6216220317
  0
LINE
  5
46F
100
AcDbEntity
  8
COPY_PUBLISH
100
AcDbLine
 62
7
  6
CONTINUOUS
 10
132.3362220806
 20
133.771237261
 11
133.2597750902
 21
133.3094607562
  0
LINE
  5
470
100
AcDbEntity
  8
COPY_PUBLISH
100
AcDbLine
 62
7
  6
CONTINUOUS
 10
144.9208661524
 20
127.4789152251
 11
146.5453551158
 21
126.6666707434
  0
LINE
  5
471
100
AcDbEntity
  8
COPY_PUBLISH
100
AcDbLine
 62
7
  6
CONTINUOUS
 10
148.2461246573
 20
125.8162859727
 11
149.1696776669
 21
125.3545094678
  0
LINE
  5
472
100
AcDbEntity
  8
COPY_PUBLISH
100
AcDbLine
 62
253
  6
CONTINUOUS
 10
152.9726243557
 20
123.6523227542
 11
151.2940862853
 21
124.4915917894
  0
LINE
  5
473
100
AcDbEntity
  8
COPY_PUBLISH
100
AcDbLine
 62
253
  6
CONTINUOUS
 10
140.6689663631
 20
129.8041517506
 11
138.9904282927
 21
130.6434207858
  0
LINE
  5
474
100
AcDbEntity
  8
COPY_PUBLISH
100
AcDbLine
 62
253
  6
CONTINUOUS
 10
137.0636479764
 20
131.6079452993
 11
135.3832575113
 21
132.4481405319
  0
LINE
  5
475
100
AcDbEntity
  8
COPY_PUBLISH
100
AcDbLine
 62
253
  6
CONTINUOUS
 10
124.7599899837
 20
137.7597742957
 11
123.0795995186
 21
138.5999695282
  0
LINE
  5
476
100
AcDbEntity
  8
COPY_PUBLISH
100
AcDbLine
 62
7
  6
CONTINUOUS
 10
148.1875460136
 20
126.2218219192
 11
147.042186496
 21
126.794501678
  0
LINE
  5
477
100
AcDbEntity
  8
COPY_PUBLISH
100
AcDbLine
 62
7
  6
CONTINUOUS
 10
132.2776434369
 20
134.1767732076
 11
131.1322839193
 21
134.7494529664
  0
LINE
  5
478
100
AcDbEntity
  8
COPY_PUBLISH
100
AcDbLine
 62
7
  6
CONTINUOUS
 10
126.7128665369
 20
136.9591616576
 11
127.6376590068
 21
136.4967654226
  0
LINE
  5
479
100
AcDbEntity
  8
COPY_PUBLISH
100
AcDbLine
 62
7
  6
CONTINUOUS
 10
134.9860158768
 20
132.8225869876
 11
135.3362474472
 21
132.6474712024
  0
LINE
  5
47A
100
AcDbEntity
  8
COPY_PUBLISH
100
AcDbLine
 62
7
  6
CONTINUOUS
 10
142.6227691136
 20
129.0042103692
 11
143.5481786695
 21
128.5415055913
  0
LINE
  5
47B
100
AcDbEntity
  8
COPY_PUBLISH
100
AcDbLine
 62
7
  6
CONTINUOUS
 10
150.8959184535
 20
124.8676356993
 11
151.2474253695
 21
124.6918822412
  0
LINE
  5
47C
100
AcDbEntity
  8
COPY_PUBLISH
100
AcDbLine
 62
7
  6
CONTINUOUS
 10
154.9264271062
 20
122.8523813729
 11
155.2802496215
 21
122.6754701153
  0
LINE
  5
47D
100
AcDbEntity
  8
COPY_PUBLISH
100
AcDbLine
 62
253
  6
CONTINUOUS
 10
153.1483726117
 20
123.9566995692
 11
151.4698345413
 21
124.7959686044
  0
LINE
  5
47E
100
AcDbEntity
  8
COPY_PUBLISH
100
AcDbLine
 62
253
  6
CONTINUOUS
 10
140.8447146191
 20
130.1085285655
 11
139.1661765487
 21
130.9477976007
  0
LINE
  5
47F
100
AcDbEntity
  8
COPY_PUBLISH
100
AcDbLine
 62
253
  6
CONTINUOUS
 10
137.2394990753
 20
131.9123742319
 11
135.5591086102
 21
132.7525694645
  0
LINE
  5
480
100
AcDbEntity
  8
COPY_PUBLISH
100
AcDbLine
 62
253
  6
CONTINUOUS
 10
124.9358410826
 20
138.0642032283
 11
123.2554506176
 21
138.9043984608
  0
LINE
  5
481
100
AcDbEntity
  8
COPY_PUBLISH
100
AcDbLine
 62
7
  6
CONTINUOUS
 10
143.5481786695
 20
128.8589284829
 11
144.2075885438
 21
128.5292235458
  0
LINE
  5
482
100
AcDbEntity
  8
COPY_PUBLISH
100
AcDbLine
 62
7
  6
CONTINUOUS
 10
149.1696776669
 20
126.0481789842
 11
149.8290875413
 21
125.718474047
  0
LINE
  5
483
100
AcDbEntity
  8
COPY_PUBLISH
100
AcDbLine
 62
7
  6
CONTINUOUS
 10
133.9198020506
 20
133.6738725652
 11
133.2597750902
 21
134.0038860454
  0
LINE
  5
484
100
AcDbEntity
  8
COPY_PUBLISH
100
AcDbLine
 62
7
  6
CONTINUOUS
 10
128.2976859672
 20
136.4849306069
 11
127.6376590068
 21
136.8149440871
  0
LINE
  5
485
100
AcDbEntity
  8
DRAFT
100
AcDbLine
 62
7
  6
CONTINUOUS
 10
142.9868126744
 20
129.52000361
 11
142.6227691136
 21
129.7020253904
  0
LINE
  5
486
100
AcDbEntity
  8
DRAFT
100
AcDbLine
 62
7
  6
CONTINUOUS
 10
139.5788647994
 20
131.2239775476
 11
139.0165245295
 21
131.5051476825
  0
LINE
  5
487
100
AcDbEntity
  8
COPY_PUBLISH
100
AcDbLine
 62
7
  6
CONTINUOUS
 10
131.8289698248
 20
135.0994222852
 11
132.2776434369
 21
134.8750854792
  0
LINE
  5
488
100
AcDbEntity
  8
COPY_PUBLISH
100
AcDbLine
 62
7
  6
CONTINUOUS
 10
147.7388724015
 20
127.1444709969
 11
148.1875460136
 21
126.9201341908
  0
LINE
  5
489
100
AcDbEntity
  8
0
100
AcDbLine
 62
7
  6
CONTINUOUS
 10
155.980920938
 20
123.0272028498
 11
154.9264271062
 21
123.5544497657
  0
LINE
  5
48A
100
AcDbEntity
  8
0
100
AcDbLine
 62
7
  6
CONTINUOUS
 10
151.8867215009
 20
125.0743025684
 11
151.5989114077
 21
125.2182076149
  0
LINE
  5
48B
100
AcDbEntity
  8
0
100
AcDbLine
 62
7
  6
CONTINUOUS
 10
128.0171053583
 20
137.0091106396
 11
126.7128665369
 21
137.6612300504
  0
LINE
  5
48C
100
AcDbEntity
  8
COPY_PUBLISH
100
AcDbLine
 62
253
  6
CONTINUOUS
 10
149.701123732
 20
126.322400787
 11
148.2461246573
 21
127.0499003243
  0
LINE
  5
48D
100
AcDbEntity
  8
COPY_PUBLISH
100
AcDbLine
 62
253
  6
CONTINUOUS
 10
146.5453551158
 20
127.9002850951
 11
144.9208661524
 21
128.7125295768
  0
LINE
  5
48E
100
AcDbEntity
  8
COPY_PUBLISH
100
AcDbLine
 62
253
  6
CONTINUOUS
 10
133.7910024496
 20
134.2776131397
 11
132.3362220806
 21
135.0050033242
  0
LINE
  5
48F
100
AcDbEntity
  8
COPY_PUBLISH
100
AcDbLine
 62
253
  6
CONTINUOUS
 10
130.6354525391
 20
135.8553880949
 11
129.0109635757
 21
136.6676325766
  0
LINE
  5
490
100
AcDbEntity
  8
DRAFT
100
AcDbLine
 62
7
  6
CONTINUOUS
 10
139.0165245295
 20
131.8274604753
 11
139.8970353524
 21
131.3872050639
  0
LINE
  5
491
100
AcDbEntity
  8
DRAFT
100
AcDbLine
 62
7
  6
CONTINUOUS
 10
142.6227691136
 20
130.0243381833
 11
143.3113973395
 21
129.6800240704
  0
LINE
  5
492
100
AcDbEntity
  8
COPY_PUBLISH
100
AcDbLine
 62
253
  6
CONTINUOUS
 10
150.0099852401
 20
126.4817707873
 11
148.3867232621
 21
127.2934017763
  0
LINE
  5
493
100
AcDbEntity
  8
COPY_PUBLISH
100
AcDbLine
 62
253
  6
CONTINUOUS
 10
146.6859537206
 20
128.143786547
 11
145.0626917426
 21
128.955417536
  0
LINE
  5
494
100
AcDbEntity
  8
COPY_PUBLISH
100
AcDbLine
 62
253
  6
CONTINUOUS
 10
134.1001642197
 20
134.4369158403
 11
132.4769029598
 21
135.2485464702
  0
LINE
  5
495
100
AcDbEntity
  8
COPY_PUBLISH
100
AcDbLine
 62
253
  6
CONTINUOUS
 10
130.7761334183
 20
136.098931241
 11
129.1528721583
 21
136.910561871
  0
LINE
  5
496
100
AcDbEntity
  8
COPY_PUBLISH
100
AcDbLine
 62
7
  6
CONTINUOUS
 10
128.6927655242
 20
137.35485281
 11
130.990864358
 21
136.2058033931
  0
LINE
  5
497
100
AcDbEntity
  8
COPY_PUBLISH
100
AcDbLine
 62
7
  6
CONTINUOUS
 10
132.687917043
 20
135.3572770506
 11
134.9860158768
 21
134.2082276337
  0
LINE
  5
498
100
AcDbEntity
  8
COPY_PUBLISH
100
AcDbLine
 62
7
  6
CONTINUOUS
 10
144.6026681009
 20
129.3999015216
 11
146.9007669347
 21
128.2508521047
  0
LINE
  5
499
100
AcDbEntity
  8
COPY_PUBLISH
100
AcDbLine
 62
7
  6
CONTINUOUS
 10
148.5978196197
 20
127.4023257622
 11
150.8959184535
 21
126.2532763453
  0
LINE
  5
49A
100
AcDbEntity
  8
COPY_PUBLISH
100
AcDbLine
 62
7
  6
CONTINUOUS
 10
154.7496534025
 20
124.7594215727
 11
153.0525911445
 21
125.6079527017
  0
LINE
  5
49B
100
AcDbEntity
  8
0
100
AcDbLine
 62
7
  6
CONTINUOUS
 10
142.4459954099
 20
130.911250569
 11
140.7489331518
 21
131.7597816981
  0
LINE
  5
49C
100
AcDbEntity
  8
0
100
AcDbLine
 62
7
  6
CONTINUOUS
 10
138.8397502574
 20
132.7143731452
 11
137.1426891362
 21
133.5629037059
  0
LINE
  5
49D
100
AcDbEntity
  8
COPY_PUBLISH
100
AcDbLine
 62
7
  6
CONTINUOUS
 10
126.5360928332
 20
138.8662018574
 11
124.8390305751
 21
139.7147329864
  0
LINE
  5
49E
100
AcDbEntity
  8
COPY_PUBLISH
100
AcDbLine
 62
7
  6
CONTINUOUS
 10
130.032817899
 20
137.3728381732
 11
131.6777661434
 21
136.550364051
  0
LINE
  5
49F
100
AcDbEntity
  8
COPY_PUBLISH
100
AcDbLine
 62
7
  6
CONTINUOUS
 10
133.386913378
 20
135.6957904337
 11
135.0318616224
 21
134.8733163115
  0
LINE
  5
4A0
100
AcDbEntity
  8
COPY_PUBLISH
100
AcDbLine
 62
7
  6
CONTINUOUS
 10
145.9427204757
 20
129.4178868848
 11
147.5876687201
 21
128.5954127627
  0
LINE
  5
4A1
100
AcDbEntity
  8
COPY_PUBLISH
100
AcDbLine
 62
7
  6
CONTINUOUS
 10
149.2968159547
 20
127.7408391453
 11
150.9417641991
 21
126.9183650231
  0
LINE
  5
4A2
100
AcDbEntity
  8
0
100
AcDbLine
 62
7
  6
CONTINUOUS
 10
151.5989114077
 20
126.603848261
 11
150.9559212013
 21
126.9253433642
  0
LINE
  5
4A3
100
AcDbEntity
  8
0
100
AcDbLine
 62
7
  6
CONTINUOUS
 10
130.0469763388
 20
137.3798157955
 11
129.4039861323
 21
137.7013108987
  0
LWPOLYLINE
  5
4A4
100
AcDbEntity
  8
COPY_PUBLISH
100
AcDbPolyline
 62
253
  6
CONTINUOUS
 90
34
 70
0
 10
127.0643600049
 20
139.1296406774
 10
127.0728049224
 20
139.1252211539
 10
127.0812320644
 20
139.1203194246
 10
127.089622348
 20
139.1149459545
 10
127.0979579206
 20
139.1091114321
 10
127.1062186149
 20
139.1028292232
 10
127.1143821178
 20
139.0961159721
 10
127.1224287377
 20
139.0889879868
 10
127.1303414709
 20
139.0814604456
 10
127.1381025343
 20
139.0735502517
 10
127.1456944356
 20
139.0652751927
 10
127.153099859
 20
139.0566541011
 10
127.1603018623
 20
139.047706687
 10
127.167284065
 20
139.0384533138
 10
127.1740307171
 20
139.0289148681
 10
127.1805265757
 20
139.0191128995
 10
127.1867569369
 20
139.009069586
 10
127.1927076626
 20
138.9988077081
 10
127.1983652562
 20
138.9883505343
 10
127.2037168945
 20
138.9777217631
 10
127.2087504528
 20
138.9669454713
 10
127.2134545227
 20
138.956046079
 10
127.2178184446
 20
138.9450482803
 10
127.2218323282
 20
138.9339769957
 10
127.2254870744
 20
138.9228573196
 10
127.2287744008
 20
138.9117144489
 10
127.2316868584
 20
138.9005736304
 10
127.2342178465
 20
138.8894601111
 10
127.2363616307
 20
138.8783990676
 10
127.2381133515
 20
138.8674155681
 10
127.2394690373
 20
138.8565345187
 10
127.2404256174
 20
138.8457805801
 10
127.2409809267
 20
138.8351781124
 10
127.2411337086
 20
138.8247511386
  0
LWPOLYLINE
  5
4A5
100
AcDbEntity
  8
COPY_PUBLISH
100
AcDbPolyline
 62
253
  6
CONTINUOUS
 90
18
 70
0
 10
135.3832575113
 20
132.4481405319
 10
135.3750858838
 20
132.4524246021
 10
135.3673259247
 20
132.4568992398
 10
135.359995589
 20
132.4615546315
 10
135.3531109705
 20
132.4663812239
 10
135.3466891896
 20
132.471367726
 10
135.3407476919
 20
132.4765009184
 10
135.3353006107
 20
132.4817684675
 10
135.3303593029
 20
132.4871592568
 10
135.3259348158
 20
132.4926612512
 10
135.322037089
 20
132.4982621446
 10
135.3186749819
 20
132.5039492668
 10
135.3158561421
 20
132.5097097034
 10
135.3135869273
 20
132.515530436
 10
135.3118724124
 20
132.5213984142
 10
135.3107164461
 20
132.5273004684
 10
135.3101216351
 20
132.5332233307
 10
135.3100342066
 20
132.5365288618
  0
LWPOLYLINE
  5
4A6
100
AcDbEntity
  8
COPY_PUBLISH
100
AcDbPolyline
 62
253
  6
CONTINUOUS
 90
16
 70
0
 10
151.2940862853
 20
124.1516178553
 10
151.2859042176
 20
124.1559076655
 10
151.2781381033
 20
124.1603866048
 10
151.2708054076
 20
124.1650446004
 10
151.2639226286
 20
124.1698711712
 10
151.2575052364
 20
124.1748554682
 10
151.2515676428
 20
124.1799863004
 10
151.246123194
 20
124.1852521431
 10
151.2411841539
 20
124.1906411431
 10
151.23676165
 20
124.1961411627
 10
151.2328656327
 20
124.2017398261
 10
151.2295048584
 20
124.2074245484
 10
151.2266868854
 20
124.2131825449
 10
151.2244180511
 20
124.219000866
 10
151.2227034579
 20
124.2248664267
 10
151.2215469618
 20
124.2307660359
  0
LWPOLYLINE
  5
4A7
100
AcDbEntity
  8
COPY_PUBLISH
100
AcDbPolyline
 62
253
  6
CONTINUOUS
 90
18
 70
0
 10
138.9904282927
 20
130.6434207858
 10
138.9822595836
 20
130.6477032516
 10
138.974502244
 20
130.6521761433
 10
138.967174208
 20
130.6568296578
 10
138.9602915532
 20
130.6616542503
 10
138.953871378
 20
130.6666386438
 10
138.9479311028
 20
130.6717696396
 10
138.9424848457
 20
130.6770349203
 10
138.9375439558
 20
130.6824233807
 10
138.9331194716
 20
130.6879229994
 10
138.9292213252
 20
130.6935214845
 10
138.9258583701
 20
130.6992061808
 10
138.9230382499
 20
130.7049641897
 10
138.9207673203
 20
130.7107825079
 10
138.9190506565
 20
130.7166480998
 10
138.917892109
 20
130.7225478111
 10
138.9172942885
 20
130.728468389
 10
138.917204988
 20
130.7318091157
  0
LWPOLYLINE
  5
4A8
100
AcDbEntity
  8
COPY_PUBLISH
100
AcDbPolyline
 62
253
  6
CONTINUOUS
 90
18
 70
0
 10
151.2940862853
 20
124.4915917894
 10
151.2859036879
 20
124.4958818909
 10
151.2781370893
 20
124.5003611525
 10
151.2708039598
 20
124.5050195004
 10
151.263920791
 20
124.5098464609
 10
151.2575030715
 20
124.5148311747
 10
151.2515652491
 20
124.5199624211
 10
151.2461206814
 20
124.5252286555
 10
151.2411816104
 20
124.5306180357
 10
151.236759146
 20
124.536118438
 10
151.2328632333
 20
124.5417174913
 10
151.2295026347
 20
124.5474026011
 10
151.2266849096
 20
124.5531609759
 10
151.2244163935
 20
124.5589796626
 10
151.2227021859
 20
124.5648455745
 10
151.2215461398
 20
124.5707455161
 10
151.2209508524
 20
124.5766662201
 10
151.2208630206
 20
124.5799094045
  0
LWPOLYLINE
  5
4A9
100
AcDbEntity
  8
COPY_PUBLISH
100
AcDbPolyline
 62
253
  6
CONTINUOUS
 90
18
 70
0
 10
132.3362220806
 20
135.0050033242
 10
132.3296994265
 20
135.0084225285
 10
132.3235044425
 20
135.0119935769
 10
132.3176514174
 20
135.0157086823
 10
132.3121531269
 20
135.0195602907
 10
132.3070232458
 20
135.0235394146
 10
132.3022757658
 20
135.0276354729
 10
132.2979219582
 20
135.0318386388
 10
132.2939708267
 20
135.0361401085
 10
132.2904311681
 20
135.0405303185
 10
132.2873108991
 20
135.0449994899
 10
132.2846170772
 20
135.0495375602
 10
132.2823557989
 20
135.0541342753
 10
132.2805321415
 20
135.0587792949
 10
132.2791501671
 20
135.0634622489
 10
132.2782129641
 20
135.0681726738
 10
132.277722637
 20
135.0729000282
 10
132.2776434369
 20
135.0757139882
  0
LWPOLYLINE
  5
4AA
100
AcDbEntity
  8
COPY_PUBLISH
100
AcDbPolyline
 62
253
  6
CONTINUOUS
 90
18
 70
0
 10
148.2461246573
 20
127.0499003243
 10
148.239591322
 20
127.0533253999
 10
148.2333894387
 20
127.0569012104
 10
148.2275329009
 20
127.0606197452
 10
148.2220348287
 20
127.064472674
 10
148.2169075389
 20
127.0684513653
 10
148.2121625179
 20
127.0725469061
 10
148.2078103955
 20
127.0767501212
 10
148.2038609215
 20
127.0810515947
 10
148.2003229437
 20
127.0854416901
 10
148.1972043878
 20
127.0899105728
 10
148.1945122402
 20
127.0944482314
 10
148.1922525319
 20
127.0990445005
 10
148.1904303251
 20
127.1036890834
 10
148.189049702
 20
127.1083715753
 10
148.1881137555
 20
127.1130814862
 10
148.1876245824
 20
127.117808265
 10
148.1875460136
 20
127.1206110024
  0
LWPOLYLINE
  5
4AB
100
AcDbEntity
  8
COPY_PUBLISH
100
AcDbPolyline
 62
7
  6
CONTINUOUS
 90
37
 70
0
 10
130.99086364
 20
136.2058037521
 10
130.9970350287
 20
136.202555927
 10
131.0031941616
 20
136.1989843776
 10
131.0093294189
 20
136.1950959557
 10
131.0154292683
 20
136.1908981516
 10
131.0214821503
 20
136.186398969
 10
131.0274764982
 20
136.1816069028
 10
131.0334010053
 20
136.1765311046
 10
131.0392444621
 20
136.171181283
 10
131.0449956397
 20
136.16556757
 10
131.0506436592
 20
136.1597006823
 10
131.0561778456
 20
136.1535918231
 10
131.061587564
 20
136.147252574
 10
131.0668625669
 20
136.1406950245
 10
131.0719928795
 20
136.1339316887
 10
131.0769686533
 20
136.1269754045
 10
131.0817804494
 20
136.1198394285
 10
131.0864191624
 20
136.1125373702
 10
131.0908759042
 20
136.1050831068
 10
131.0951422073
 20
136.0974908352
 10
131.0992099907
 20
136.0897750269
 10
131.1030714824
 20
136.0819503617
 10
131.1067193313
 20
136.0740317338
 10
131.1101466193
 20
136.0660342287
 10
131.1133468252
 20
136.0579730781
 10
131.1163138409
 20
136.0498636181
 10
131.1190420291
 20
136.0417212899
 10
131.121526233
 20
136.0335616162
 10
131.1237616916
 20
136.0254001128
 10
131.1257441453
 20
136.0172523117
 10
131.1274698914
 20
136.0091337615
 10
131.1289355964
 20
136.0010598979
 10
131.1301384525
 20
135.9930460716
 10
131.1310762787
 20
135.9851075729
 10
131.1317472921
 20
135.9772595081
 10
131.1321501135
 20
135.969516771
 10
131.1322839193
 20
135.9618940716
  0
LWPOLYLINE
  5
4AC
100
AcDbEntity
  8
COPY_PUBLISH
100
AcDbPolyline
 62
7
  6
CONTINUOUS
 90
37
 70
0
 10
146.9007669347
 20
128.2508521047
 10
146.9069356467
 20
128.2476030722
 10
146.9130924315
 20
128.244030454
 10
146.9192256692
 20
128.240141096
 10
146.925323869
 20
128.2359424891
 10
146.9313754271
 20
128.231442624
 10
146.9373686482
 20
128.2266499765
 10
146.9432921968
 20
128.2215737016
 10
146.949134889
 20
128.2162235052
 10
146.9548854504
 20
128.2106094953
 10
146.9605329926
 20
128.2047423841
 10
146.9660668451
 20
128.1986333777
 10
146.9714763474
 20
128.1922940433
 10
146.976751245
 20
128.1857364673
 10
146.9818815635
 20
128.1789731641
 10
146.9868574389
 20
128.1720169625
 10
146.9916694263
 20
128.1648811162
 10
146.9963084184
 20
128.1575792335
 10
147.000765517
 20
128.1501251855
 10
147.0050322488
 20
128.1425331659
 10
147.0091005292
 20
128.1348176442
 10
147.0129625787
 20
128.1269932954
 10
147.0166110406
 20
128.1190750105
 10
147.0200389918
 20
128.1110778725
 10
147.023239905
 20
128.1030171085
 10
147.026207666
 20
128.0949080518
 10
147.0289366315
 20
128.0867661402
 10
147.0314216383
 20
128.0786068922
 10
147.0336579194
 20
128.0704458203
 10
147.0356412081
 20
128.0622984531
 10
147.0373677932
 20
128.0541803339
 10
147.0388343368
 20
128.0461068893
 10
147.0400380213
 20
128.0380934726
 10
147.0409766512
 20
128.0301553855
 10
147.041648436
 20
128.0223077356
 10
147.0420519938
 20
128.0145654071
 10
147.042186496
 20
128.0069431056
  0
LWPOLYLINE
  5
4AD
100
AcDbEntity
  8
COPY_PUBLISH
100
AcDbPolyline
 62
7
  6
CONTINUOUS
 90
34
 70
0
 10
126.5360928332
 20
138.8662018574
 10
126.5445062249
 20
138.861752168
 10
126.5529006529
 20
138.8568221499
 10
126.561257005
 20
138.8514229153
 10
126.5695561912
 20
138.8455665951
 10
126.5777793946
 20
138.8392664524
 10
126.5859081158
 20
138.8325368581
 10
126.5939238758
 20
138.8253930365
 10
126.6018084405
 20
138.8178511181
 10
126.6095440705
 20
138.8099282482
 10
126.6171132075
 20
138.8016423555
 10
126.6244986368
 20
138.793012175
 10
126.6316837097
 20
138.7840572991
 10
126.6386521358
 20
138.7747980051
 10
126.6453880807
 20
138.7652552429
 10
126.6518763257
 20
138.755450653
 10
126.6581021801
 20
138.7454064484
 10
126.6640515126
 20
138.7351453677
 10
126.6697108445
 20
138.7246906582
 10
126.6750673842
 20
138.7140660164
 10
126.680108991
 20
138.7032955065
 10
126.6848242014
 20
138.6924035088
 10
126.689202383
 20
138.6814147208
 10
126.6932336331
 20
138.6703540419
 10
126.6969087365
 20
138.6592464885
 10
126.7002194371
 20
138.6481172563
 10
126.7031582714
 20
138.636991573
 10
126.7057184602
 20
138.625894581
 10
126.7078942938
 20
138.6148514474
 10
126.7096808964
 20
138.6038872284
 10
126.7110740581
 20
138.5930267213
 10
126.7120706335
 20
138.5822945422
 10
126.7126685437
 20
138.5717150712
 10
126.7128665369
 20
138.5613123186
  0
LWPOLYLINE
  5
4AE
100
AcDbEntity
  8
COPY_PUBLISH
100
AcDbPolyline
 62
7
  6
CONTINUOUS
 90
34
 70
0
 10
154.7496534025
 20
124.7594215727
 10
154.758064478
 20
124.7549706583
 10
154.7664566956
 20
124.7500394879
 10
154.7748109433
 20
124.7446391783
 10
154.7831081173
 20
124.7387818696
 10
154.7913294156
 20
124.7324808248
 10
154.7994563814
 20
124.7257503997
 10
154.8074705468
 20
124.7186058089
 10
154.8153536662
 20
124.7110631895
 10
154.8230880084
 20
124.7031396926
 10
154.8306560159
 20
124.6948532464
 10
154.8380404729
 20
124.6862225851
 10
154.8452247354
 20
124.6772673054
 10
154.8521925141
 20
124.6680076849
 10
154.8589279733
 20
124.658464673
 10
154.865415896
 20
124.6486599132
 10
154.8716415926
 20
124.6386156192
 10
154.8775909306
 20
124.6283545291
 10
154.88325043
 20
124.6178998922
 10
154.8886073004
 20
124.6072754058
 10
154.8936494
 20
124.5965051335
 10
154.8983652612
 20
124.5856134562
 10
154.902744253
 20
124.5746250722
 10
154.9067764719
 20
124.5635648804
 10
154.9104526958
 20
124.5524578959
 10
154.9137646701
 20
124.5413293152
 10
154.916704931
 20
124.530204365
 10
154.9192666896
 20
124.5191081852
 10
154.9214442355
 20
124.5080659565
 10
154.9232326964
 20
124.4971027204
 10
154.9246278547
 20
124.4862432287
 10
154.9256265584
 20
124.4755120834
 10
154.9262267273
 20
124.4649336811
 10
154.9264271062
 20
124.4545320339
  0
LWPOLYLINE
  5
4AF
100
AcDbEntity
  8
COPY_PUBLISH
100
AcDbPolyline
 62
253
  6
CONTINUOUS
 90
34
 70
0
 10
137.2394990753
 20
131.9123742319
 10
137.2478534306
 20
131.9079094401
 10
137.2561945936
 20
131.9029647266
 10
137.2645036816
 20
131.8975506558
 10
137.2727630222
 20
131.8916780052
 10
137.280952638
 20
131.8853602362
 10
137.2890504078
 20
131.8786140928
 10
137.2970367964
 20
131.8714559626
 10
137.3048949272
 20
131.8639010868
 10
137.3126071394
 20
131.8559664302
 10
137.3201560508
 20
131.8476698365
 10
137.3275244441
 20
131.8390301874
 10
137.3346954621
 20
131.8300672354
 10
137.3416527947
 20
131.8208013792
 10
137.3483807474
 20
131.8112535339
 10
137.3548641198
 20
131.8014452703
 10
137.3610882362
 20
131.7913987809
 10
137.3670389724
 20
131.7811368536
 10
137.372702832
 20
131.7706827572
 10
137.3780669774
 20
131.7600601835
 10
137.3831192555
 20
131.7492931954
 10
137.3878482154
 20
131.7384061922
 10
137.392243141
 20
131.7274238401
 10
137.3962940717
 20
131.7163710249
 10
137.3999918245
 20
131.7052727993
 10
137.4033280192
 20
131.6941543119
 10
137.4062950964
 20
131.6830407544
 10
137.4088863313
 20
131.6719573123
 10
137.411095853
 20
131.6609290941
 10
137.412918653
 20
131.6499810941
 10
137.4143505986
 20
131.6391381381
 10
137.415388446
 20
131.6284248008
 10
137.4160298462
 20
131.6178653505
 10
137.4162733474
 20
131.6074837128
  0
LWPOLYLINE
  5
4B0
100
AcDbEntity
  8
COPY_PUBLISH
100
AcDbPolyline
 62
253
  6
CONTINUOUS
 90
34
 70
0
 10
124.9358410826
 20
138.0642032283
 10
124.9442092032
 20
138.0597306779
 10
124.9525604646
 20
138.0547788747
 10
124.9608759492
 20
138.0493590355
 10
124.9691368205
 20
138.0434834377
 10
124.9773243656
 20
138.037165391
 10
124.9854200377
 20
138.0304192071
 10
124.9934054981
 20
138.023260168
 10
125.0012626578
 20
138.0157044905
 10
125.0089737185
 20
138.00776929
 10
125.0165212128
 20
137.9994725418
 10
125.0238880437
 20
137.9908330399
 10
125.0310575236
 20
137.981870355
 10
125.0380134118
 20
137.9726047897
 10
125.0447399516
 20
137.9630573328
 10
125.0512219058
 20
137.9532496115
 10
125.0574445911
 20
137.9432038427
 10
125.0633939117
 20
137.9329427826
 10
125.0690563908
 20
137.9224896748
 10
125.0744192017
 20
137.9118681984
 10
125.0794701962
 20
137.9011024133
 10
125.0841979327
 20
137.8902167069
 10
125.0885917016
 20
137.8792357378
 10
125.09264155
 20
137.8681843806
 10
125.096338304
 20
137.8570876694
 10
125.0996735895
 20
137.8459707407
 10
125.1026398514
 20
137.8348587773
 10
125.1052303703
 20
137.8237769503
 10
125.1074392781
 20
137.8127503629
 10
125.1092615711
 20
137.8018039929
 10
125.1106931212
 20
137.7909626364
 10
125.1117306858
 20
137.7802508518
 10
125.1123719145
 20
137.769692904
 10
125.1126153547
 20
137.7593127091
  0
LWPOLYLINE
  5
4B1
100
AcDbEntity
  8
COPY_PUBLISH
100
AcDbPolyline
 62
253
  6
CONTINUOUS
 90
34
 70
0
 10
140.8447146191
 20
130.1085285655
 10
140.8530641545
 20
130.104061351
 10
140.861400736
 20
130.0991143415
 10
140.8697054917
 20
130.0936981074
 10
140.8779607579
 20
130.0878234318
 10
140.8861465687
 20
130.0815037812
 10
140.8942408163
 20
130.0747559024
 10
140.9022239749
 20
130.0675961865
 10
140.9100791742
 20
130.0600398783
 10
140.9177887602
 20
130.0521039457
 10
140.9253353572
 20
130.0438062345
 10
140.932701753
 20
130.0351656291
 10
140.9398710948
 20
130.0262018844
 10
140.9468270765
 20
130.0169354005
 10
140.9535540068
 20
130.007387094
 10
140.9600366876
 20
129.9975785365
 10
140.9662604448
 20
129.987531921
 10
140.9722111553
 20
129.9772700355
 10
140.9778753229
 20
129.9668161487
 10
140.9832401092
 20
129.9561939515
 10
140.98829336
 20
129.945427506
 10
140.993023622
 20
129.9345412097
 10
140.9974201766
 20
129.9235597274
 10
141.0014730595
 20
129.9125079424
 10
141.0051730831
 20
129.901410905
 10
141.0085118625
 20
129.8902937609
 10
141.0114818322
 20
129.8791816984
 10
141.0140762611
 20
129.8680998994
 10
141.016289271
 20
129.8570734688
 10
141.0181158457
 20
129.8461273963
 10
141.0195518438
 20
129.835286503
 10
141.0205940125
 20
129.8245753587
 10
141.0212399929
 20
129.8140182265
 10
141.0214883227
 20
129.8036390267
  0
LWPOLYLINE
  5
4B2
100
AcDbEntity
  8
COPY_PUBLISH
100
AcDbPolyline
 62
253
  6
CONTINUOUS
 90
34
 70
0
 10
153.1483726117
 20
123.9566995692
 10
153.1567358945
 20
123.952224598
 10
153.1650825623
 20
123.9472705014
 10
153.1733937079
 20
123.9418485014
 10
153.1816505048
 20
123.9359708802
 10
153.1898342494
 20
123.9296509518
 10
153.1979264038
 20
123.9229030323
 10
153.2059086373
 20
123.9157424073
 10
153.2137628686
 20
123.9081852972
 10
153.2214713059
 20
123.9002488205
 10
153.2290164879
 20
123.8919509551
 10
153.2363813232
 20
123.8833104976
 10
153.2435491286
 20
123.8743470205
 10
153.2505036675
 20
123.8650808281
 10
153.2572291864
 20
123.8555329104
 10
153.2637104504
 20
123.8457248956
 10
153.269932778
 20
123.8356790011
 10
153.2758820742
 20
123.8254179829
 10
153.2815448625
 20
123.8149650847
 10
153.2869083156
 20
123.8043439846
 10
153.2919602838
 20
123.7935787418
 10
153.2966893235
 20
123.7826937419
 10
153.3010847222
 20
123.7717136419
 10
153.3051365235
 20
123.7606633142
 10
153.308835549
 20
123.7495677903
 10
153.3121734196
 20
123.738452204
 10
153.3151425744
 20
123.7273417346
 10
153.3177362875
 20
123.7162615499
 10
153.3199486835
 20
123.7052367488
 10
153.321774751
 20
123.6942923051
 10
153.3232103534
 20
123.6834530104
 10
153.3242522388
 20
123.6727434181
 10
153.3248980471
 20
123.6621877878
 10
153.3251463154
 20
123.6518100304
  0
LWPOLYLINE
  5
4B3
100
AcDbEntity
  8
COPY_PUBLISH
100
AcDbPolyline
 62
253
  6
CONTINUOUS
 90
34
 70
0
 10
130.7761334183
 20
136.098931241
 10
130.782792592
 20
136.0953480107
 10
130.7894414254
 20
136.09138084
 10
130.796064868
 20
136.0870381764
 10
130.8026488864
 20
136.0823285964
 10
130.8091774964
 20
136.0772629044
 10
130.8156328971
 20
136.071854641
 10
130.8219994624
 20
136.0661169932
 10
130.8282637931
 20
136.0600621337
 10
130.8344118106
 20
136.0537036594
 10
130.840429657
 20
136.0470558708
 10
130.8463036085
 20
136.0401338959
 10
130.8520202305
 20
136.0329535561
 10
130.8575665218
 20
136.025531191
 10
130.86292997
 20
136.0178835555
 10
130.8680984567
 20
136.0100279276
 10
130.8730602834
 20
136.0019820802
 10
130.8778041896
 20
135.993764264
 10
130.8823194138
 20
135.9853931165
 10
130.886595721
 20
135.9768876109
 10
130.8906234241
 20
135.9682670124
 10
130.8943933956
 20
135.9595508541
 10
130.8978970928
 20
135.9507588826
 10
130.9011265746
 20
135.9419110211
 10
130.9040745199
 20
135.9330273251
 10
130.9067342479
 20
135.9241279253
 10
130.909099732
 20
135.9152329849
 10
130.9111656112
 20
135.9063626608
 10
130.9129272049
 20
135.8975370476
 10
130.91438052
 20
135.8887761475
 10
130.9155222613
 20
135.8800998276
 10
130.9163498427
 20
135.871527752
 10
130.9168613909
 20
135.8630793381
 10
130.9170557482
 20
135.8547737281
  0
LWPOLYLINE
  5
4B4
100
AcDbEntity
  8
COPY_PUBLISH
100
AcDbPolyline
 62
253
  6
CONTINUOUS
 90
34
 70
0
 10
146.6859537206
 20
128.143786547
 10
146.6926255072
 20
128.1401962189
 10
146.6992840497
 20
128.1362225077
 10
146.7059142609
 20
128.1318744158
 10
146.7125011216
 20
128.1271617908
 10
146.719029703
 20
128.1220953117
 10
146.7254852006
 20
128.1166864671
 10
146.7318529841
 20
128.1109475159
 10
146.7381186287
 20
128.1048914595
 10
146.7442679359
 20
128.0985320221
 10
146.7502869738
 20
128.0918836124
 10
146.7561621035
 20
128.0849612965
 10
146.7618800084
 20
128.0777807657
 10
146.7674277323
 20
128.070358293
 10
146.7727927074
 20
128.0627106956
 10
146.777962778
 20
128.0548553032
 10
146.7829262343
 20
128.0468099097
 10
146.7876718275
 20
128.0385927507
 10
146.7921887964
 20
128.030222464
 10
146.7964668975
 20
128.0217180409
 10
146.8004964537
 20
128.013098728
 10
146.8042683614
 20
128.0043839993
 10
146.8077741023
 20
127.9955935215
 10
146.8110056966
 20
127.986747288
 10
146.8139557636
 20
127.9778655211
 10
146.8166176025
 20
127.968968458
 10
146.8189852372
 20
127.960076144
 10
146.8210533536
 20
127.9512085659
 10
146.8228175156
 20
127.9423844507
 10
146.8242733813
 20
127.9336251721
 10
146.8254172097
 20
127.9249544355
 10
146.8262467297
 20
127.9163930147
 10
146.8267606807
 20
127.9079588195
 10
146.8269583249
 20
127.8996707283
  0
LWPOLYLINE
  5
4B5
100
AcDbEntity
  8
COPY_PUBLISH
100
AcDbPolyline
 62
7
  6
CONTINUOUS
 90
4
 70
0
 10
151.3591715357
 20
124.0163435216
 10
151.3389166976
 20
124.0276628239
 10
151.3165786138
 20
124.0432931091
 10
151.2959397393
 20
124.061395286
  0
LWPOLYLINE
  5
4B6
100
AcDbEntity
  8
COPY_PUBLISH
100
AcDbPolyline
 62
7
  6
CONTINUOUS
 90
12
 70
0
 10
127.1751349645
 20
139.1362305685
 10
127.1980489192
 20
139.1232208025
 10
127.2196914842
 20
139.1076916926
 10
127.239712733
 20
139.0897951109
 10
127.2577451261
 20
139.069796811
 10
127.2735588748
 20
139.0479177758
 10
127.2870173393
 20
139.0242690782
 10
127.2979102695
 20
138.9990692686
 10
127.3059919524
 20
138.9727563794
 10
127.3111308797
 20
138.9457221078
 10
127.3132704048
 20
138.9181517355
 10
127.3133315271
 20
138.9125544062
  0
LWPOLYLINE
  5
4B7
100
AcDbEntity
  8
COPY_PUBLISH
100
AcDbPolyline
 62
253
  6
CONTINUOUS
 90
3
 70
0
 10
151.351449603
 20
124.0206572019
 10
151.3572502889
 20
124.0173287191
 10
151.3590608604
 20
124.0163987659
  0
LWPOLYLINE
  5
4B8
100
AcDbEntity
  8
COPY_PUBLISH
100
AcDbPolyline
 62
253
  6
CONTINUOUS
 90
16
 70
0
 10
155.454694278
 20
124.3704393372
 10
155.4586670627
 20
124.3637443379
 10
155.4622295767
 20
124.3572627802
 10
155.4653737793
 20
124.3510092931
 10
155.4680925726
 20
124.3449979942
 10
155.4703798219
 20
124.3392424476
 10
155.4722303678
 20
124.3337556348
 10
155.4736400327
 20
124.3285499346
 10
155.4746056302
 20
124.323637105
 10
155.4751249778
 20
124.319028246
 10
155.4751969044
 20
124.3147337631
 10
155.4748212489
 20
124.3107633444
 10
155.4739988594
 20
124.3071259494
 10
155.4727315922
 20
124.3038297873
 10
155.4710223078
 20
124.3008822981
 10
155.4700911096
 20
124.29964843
  0
LWPOLYLINE
  5
4B9
100
AcDbEntity
  8
RACCORDO
100
AcDbPolyline
 62
253
  6
CONTINUOUS
 90
61
 70
0
 10
154.215753406
 20
130.6437559682
 10
154.2017975382
 20
130.6872432932
 10
154.1748867291
 20
130.7888547601
 10
154.1538084107
 20
130.8898956274
 10
154.1386075226
 20
130.9903617188
 10
154.1292391252
 20
131.0902572106
 10
154.125774488
 20
131.1888004763
 10
154.128259062
 20
131.28597647
 10
154.1366473961
 20
131.3818002375
 10
154.1508744063
 20
131.4755352899
 10
154.1709826
 20
131.5671650667
 10
154.1969294698
 20
131.6567061284
 10
154.2285224083
 20
131.7434716673
 10
154.2658128655
 20
131.8274524005
 10
154.3087493914
 20
131.9086576108
 10
154.3569850291
 20
131.9864283395
 10
154.4105740661
 20
132.0607371871
 10
154.469462215
 20
132.131611553
 10
154.5331396565
 20
132.1984746763
 10
154.6015999583
 20
132.2612626298
 10
154.6748495528
 20
132.3200393407
 10
154.7523979171
 20
132.37441983
 10
154.834234394
 20
132.4243850176
 10
154.9203696407
 20
132.4699539836
 10
155.0103451063
 20
132.5107989888
 10
155.1044085374
 20
132.5469409114
 10
155.2023121873
 20
132.5783588733
 10
155.3028542654
 20
132.6046625006
 10
155.4064094386
 20
132.625700183
 10
155.51260304
 20
132.6416235309
 10
155.619109278
 20
132.6524970009
 10
155.7258793329
 20
132.6580516226
 10
155.8329620244
 20
132.6585563664
 10
155.93817802
 20
132.6548826007
 10
156.0411798709
 20
132.6469203706
 10
156.1423150258
 20
132.6347796309
 10
156.2404464985
 20
132.6196616145
 10
156.3353452021
 20
132.6015952521
 10
156.4272402234
 20
132.5805516129
 10
156.5156818363
 20
132.5576451381
 10
156.6005217995
 20
132.532953248
 10
156.6819083543
 20
132.5063985223
 10
156.7598364989
 20
132.4788631405
 10
156.8341960072
 20
132.4504451446
 10
156.9050971054
 20
132.4210464928
 10
156.9728654698
 20
132.3912552391
 10
157.0374756898
 20
132.3611434262
 10
157.0989531759
 20
132.3306390114
 10
157.1576998366
 20
132.3001139205
 10
157.2137069437
 20
132.2696253821
 10
157.2669832253
 20
132.2391161675
 10
157.3179567749
 20
132.2087865167
 10
157.3666279029
 20
132.1786818344
 10
157.4129962988
 20
132.1487567158
 10
157.4574891243
 20
132.1190751867
 10
157.5001123897
 20
132.0896716949
 10
157.5408600847
 20
132.0605117926
 10
157.5801413399
 20
132.0315561621
 10
157.6180925322
 20
132.0027916977
 10
157.6545772846
 20
131.974231505
 10
157.6895955973
 20
131.9458755842
  0
LINE
  5
4BA
100
AcDbEntity
  8
RACCORDO
100
AcDbLine
 62
7
  6
CONTINUOUS
 10
164.7162435204
 20
99.8770163959
 11
164.7467897704
 21
99.8938540256
  0
LINE
  5
4BB
100
AcDbEntity
  8
RACCORDO
100
AcDbLine
 62
253
  6
CONTINUOUS
 10
164.7611172256
 20
99.9049964349
 11
156.3344698412
 21
95.4488464895
  0
LINE
  5
4BC
100
AcDbEntity
  8
RACCORDO
100
AcDbLine
 62
7
  6
CONTINUOUS
 10
164.7163292956
 20
99.8770617409
 11
156.3344698412
 21
95.4445963907
  0
LINE
  5
4BD
100
AcDbEntity
  8
RACCORDO
100
AcDbLine
 62
253
  6
CONTINUOUS
 10
156.3344698412
 20
96.2893716359
 11
165.2966297902
 21
101.0104360854
  0
LINE
  5
4BE
100
AcDbEntity
  8
RACCORDO
100
AcDbLine
 62
253
  6
CONTINUOUS
 10
156.3344698412
 20
95.4900537
 11
164.8824793145
 21
99.9929529864
  0
LWPOLYLINE
  5
4BF
100
AcDbEntity
  8
COPY_PUBLISH
100
AcDbPolyline
 62
253
  6
CONTINUOUS
 90
40
 70
0
 10
149.9365320493
 20
92.1300794804
 10
149.9219375285
 20
92.1229805783
 10
149.9068152337
 20
92.1161781851
 10
149.8911891516
 20
92.1096830908
 10
149.8750840678
 20
92.1035055974
 10
149.8585255276
 20
92.0976555037
 10
149.8415397957
 20
92.0921420888
 10
149.8241538144
 20
92.086974098
 10
149.8063951609
 20
92.0821597286
 10
149.7882920033
 20
92.077706617
 10
149.7698730564
 20
92.0736218266
 10
149.7511675358
 20
92.0699118366
 10
149.7322051115
 20
92.0665825316
 10
149.7130158614
 20
92.0636391925
 10
149.6936302226
 20
92.0610864879
 10
149.6740789443
 20
92.0589284669
 10
149.6543930381
 20
92.0571685524
 10
149.6346037291
 20
92.055809536
 10
149.6147424066
 20
92.0548535733
 10
149.5948405741
 20
92.0543021806
 10
149.5749297992
 20
92.0541562325
 10
149.5550416638
 20
92.0544159606
 10
149.5352077138
 20
92.0550809528
 10
149.5154594094
 20
92.0561501543
 10
149.4958280747
 20
92.0576218693
 10
149.4763448484
 20
92.0594937633
 10
149.4570406341
 20
92.0617628672
 10
149.4379460516
 20
92.0644255818
 10
149.4190913883
 20
92.0674776836
 10
149.4005065507
 20
92.0709143314
 10
149.3822210177
 20
92.0747300741
 10
149.3642637932
 20
92.0789188594
 10
149.3466633605
 20
92.083474043
 10
149.3294476367
 20
92.0883883996
 10
149.3126439291
 20
92.0936541344
 10
149.2962788911
 20
92.0992628948
 10
149.2803784804
 20
92.1052057845
 10
149.2649679179
 20
92.1114733771
 10
149.2500716474
 20
92.118055731
 10
149.2357132967
 20
92.1249424055
  0
LWPOLYLINE
  5
4C0
100
AcDbEntity
  8
COPY_PUBLISH
100
AcDbPolyline
 62
7
  6
CONTINUOUS
 90
5
 70
0
 10
149.9829431774
 20
132.0173268107
 10
149.9941683228
 20
132.0204475726
 10
150.0057606147
 20
132.0229812384
 10
150.0177059937
 20
132.0249239535
 10
150.029998421
 20
132.0262651381
  0
LINE
  5
4C1
100
AcDbEntity
  8
COPY_PUBLISH
100
AcDbLine
 62
7
  6
CONTINUOUS
 10
150.7141894729
 20
131.7245111514
 11
150.7087277318
 21
131.723590131
  0
LWPOLYLINE
  5
4C2
100
AcDbEntity
  8
COPY_PUBLISH
100
AcDbPolyline
 62
7
  6
CONTINUOUS
 90
36
 70
0
 10
137.8132471956
 20
130.9803358539
 10
137.817122431
 20
130.9795732002
 10
137.8263808695
 20
130.97808387
 10
137.8358014557
 20
130.9770316323
 10
137.8453728076
 20
130.9764135174
 10
137.8550768022
 20
130.9762081434
 10
137.8648924962
 20
130.9764159163
 10
137.874799515
 20
130.9770360579
 10
137.8847814802
 20
130.9780451191
 10
137.8948187761
 20
130.9794421423
 10
137.9048923897
 20
130.9812254626
 10
137.914987748
 20
130.9833704147
 10
137.9250867264
 20
130.9858749321
 10
137.9351717434
 20
130.9887365965
 10
137.9452298955
 20
130.9919301699
 10
137.9552446163
 20
130.9954527076
 10
137.9651997782
 20
130.9993011433
 10
137.9750839089
 20
131.0034500865
 10
137.9848819967
 20
131.007895899
 10
137.9945793695
 20
131.0126349569
 10
138.0041657456
 20
131.0176419595
 10
138.0136276313
 20
131.0229127128
 10
138.0229518005
 20
131.0284431167
 10
138.0321289731
 20
131.0342080906
 10
138.0411471261
 20
131.0402029822
 10
138.0499944695
 20
131.046423293
 10
138.0586626131
 20
131.0528442435
 10
138.0671409616
 20
131.0594607925
 10
138.0754191545
 20
131.06626812
 10
138.0834896622
 20
131.0732418328
 10
138.0913432819
 20
131.0803765528
 10
138.0989710806
 20
131.0876672164
 10
138.1063664282
 20
131.0950899413
 10
138.1135219383
 20
131.1026331719
 10
138.1204296213
 20
131.1102975832
 10
138.1270825648
 20
131.1180775957
  0
LINE
  5
4C3
100
AcDbEntity
  8
COPY_PUBLISH
100
AcDbLine
 62
7
  6
CONTINUOUS
 10
137.1893659658
 20
131.110494876
 11
137.8133824124
 21
130.9803048319
  0
LINE
  5
4C4
100
AcDbEntity
  8
COPY_PUBLISH
100
AcDbLine
 62
253
  6
CONTINUOUS
 10
137.4162733474
 20
131.2663754232
 11
138.1270825648
 21
131.1180775957
  0
LWPOLYLINE
  5
4C5
100
AcDbEntity
  8
COPY_PUBLISH
100
AcDbPolyline
 62
7
  6
CONTINUOUS
 90
10
 70
0
 10
137.1893659658
 20
131.110494876
 10
137.1817983189
 20
131.1121966552
 10
137.1742667198
 20
131.114137977
 10
137.1667820852
 20
131.1163179079
 10
137.1593274193
 20
131.1187444162
 10
137.1519434529
 20
131.1214068938
 10
137.1447221569
 20
131.1242685895
 10
137.1376947665
 20
131.1273074633
 10
137.1308382657
 20
131.1305237343
 10
137.1286134774
 20
131.1316224578
  0
LINE
  5
4C6
100
AcDbEntity
  8
COPY_PUBLISH
100
AcDbLine
 62
7
  6
CONTINUOUS
 10
125.4842554133
 20
139.9816703441
 11
125.4560617012
 21
139.9936669826
  0
LWPOLYLINE
  5
4C7
100
AcDbEntity
  8
COPY_PUBLISH
100
AcDbPolyline
 62
253
  6
CONTINUOUS
 90
16
 70
0
 10
153.6978159714
 20
125.874890065
 10
153.6957363058
 20
125.8758980527
 10
153.6890415725
 20
125.8787310992
 10
153.6821150963
 20
125.881052598
 10
153.6749723859
 20
125.882857338
 10
153.6676295684
 20
125.8841412313
 10
153.6601033217
 20
125.884901375
 10
153.6524106875
 20
125.8851360893
 10
153.6445688749
 20
125.8848448896
 10
153.6365953759
 20
125.8840284398
 10
153.6285068985
 20
125.8826883354
 10
153.6203228272
 20
125.880827674
 10
153.6120651564
 20
125.8784517792
 10
153.6037537357
 20
125.8755671085
 10
153.5954061033
 20
125.8721804902
 10
153.5870410231
 20
125.8683001683
  0
LWPOLYLINE
  5
4C8
100
AcDbEntity
  8
COPY_PUBLISH
100
AcDbPolyline
 62
253
  6
CONTINUOUS
 90
16
 70
0
 10
155.3886955338
 20
125.0294502838
 10
155.3866330734
 20
125.0304501908
 10
155.3799397653
 20
125.033284267
 10
155.3730147468
 20
125.0356069253
 10
155.3658735894
 20
125.0374129431
 10
155.3585323504
 20
125.0386982595
 10
155.3510075372
 20
125.0394599843
 10
155.3433160699
 20
125.0396964048
 10
155.3354752434
 20
125.0394069892
 10
155.3275026883
 20
125.0385923884
 10
155.3194163316
 20
125.0372544342
 10
155.311234356
 20
125.0353961348
 10
155.3029751593
 20
125.033021669
 10
155.2946573129
 20
125.0301363758
 10
155.2862995202
 20
125.0267467431
 10
155.2779205743
 20
125.0228603927
  0
LWPOLYLINE
  5
4C9
100
AcDbEntity
  8
COPY_PUBLISH
100
AcDbPolyline
 62
253
  6
CONTINUOUS
 90
16
 70
0
 10
127.1751349645
 20
139.1362305685
 10
127.1730725041
 20
139.1372304755
 10
127.166379196
 20
139.1400645516
 10
127.1594541775
 20
139.14238721
 10
127.15231302
 20
139.1441932278
 10
127.1449717811
 20
139.1454785442
 10
127.1374469679
 20
139.146240269
 10
127.1297555006
 20
139.1464766894
 10
127.121914674
 20
139.1461872739
 10
127.113942119
 20
139.1453726731
 10
127.1058557622
 20
139.1440347188
 10
127.0976737866
 20
139.1421764195
 10
127.0894145899
 20
139.1398019537
 10
127.0810967436
 20
139.1369166605
 10
127.0727389509
 20
139.1335270278
 10
127.0643600049
 20
139.1296406774
  0
LINE
  5
4CA
100
AcDbEntity
  8
COPY_PUBLISH
100
AcDbLine
 62
253
  6
CONTINUOUS
 10
125.4842554133
 20
139.9816703441
 11
125.4821929529
 21
139.9826702511
  0
LINE
  5
4CB
100
AcDbEntity
  8
COPY_PUBLISH
100
AcDbLine
 62
253
  6
CONTINUOUS
 10
125.3734804538
 20
139.975080453
 11
127.0643600049
 21
139.1296406774
  0
LINE
  5
4CC
100
AcDbEntity
  8
COPY_PUBLISH
100
AcDbLine
 62
253
  6
CONTINUOUS
 10
153.5870410231
 20
125.8683001683
 11
155.2779205743
 21
125.0228603927
  0
LINE
  5
4CD
100
AcDbEntity
  8
COPY_PUBLISH
100
AcDbLine
 62
7
  6
CONTINUOUS
 10
125.4842554133
 20
139.9816703441
 11
127.1751349645
 21
139.1362305685
  0
LINE
  5
4CE
100
AcDbEntity
  8
COPY_PUBLISH
100
AcDbLine
 62
7
  6
CONTINUOUS
 10
153.6978159827
 20
125.8748900594
 11
155.3886955338
 21
125.0294502838
  0
LINE
  5
4CF
100
AcDbEntity
  8
RACCORDO
100
AcDbLine
 62
7
  6
CONTINUOUS
 10
146.4517910286
 20
131.2282402921
 11
142.8348473
 21
133.0367121564
  0
LINE
  5
4D0
100
AcDbEntity
  8
RACCORDO
100
AcDbLine
 62
253
  6
CONTINUOUS
 10
143.8268201391
 20
133.1640176917
 11
147.0794763544
 21
131.537689584
  0
LINE
  5
4D1
100
AcDbEntity
  8
RACCORDO
100
AcDbLine
 62
7
  6
CONTINUOUS
 10
143.9137947138
 20
133.1684903583
 11
147.1277743616
 21
131.5615005344
  0
LWPOLYLINE
  5
4D2
100
AcDbEntity
  8
COPY_PUBLISH
100
AcDbPolyline
 62
253
  6
CONTINUOUS
 90
34
 70
0
 10
155.2779205743
 20
125.0228603927
 10
155.2863654917
 20
125.0184408692
 10
155.2947926337
 20
125.01353914
 10
155.3031829173
 20
125.0081656698
 10
155.31151849
 20
125.0023311474
 10
155.3197791842
 20
124.9960489386
 10
155.3279426872
 20
124.9893356875
 10
155.335989307
 20
124.9822077021
 10
155.3439020402
 20
124.974680161
 10
155.3516631037
 20
124.966769967
 10
155.359255005
 20
124.958494908
 10
155.3666604283
 20
124.9498738164
 10
155.3738624316
 20
124.9409264023
 10
155.3808446344
 20
124.9316730291
 10
155.3875912864
 20
124.9221345834
 10
155.3940871451
 20
124.9123326148
 10
155.4003175063
 20
124.9022893013
 10
155.4062682319
 20
124.8920274234
 10
155.4119258256
 20
124.8815702496
 10
155.4172774639
 20
124.8709414784
 10
155.4223110222
 20
124.8601651867
 10
155.427015092
 20
124.8492657943
 10
155.4313790139
 20
124.8382679956
 10
155.4353928975
 20
124.8271967111
 10
155.4390476437
 20
124.8160770349
 10
155.4423349701
 20
124.8049341643
 10
155.4452474278
 20
124.7937933457
 10
155.4477784159
 20
124.7826798264
 10
155.4499222
 20
124.7716187829
 10
155.4516739208
 20
124.7606352834
 10
155.4530296066
 20
124.749754234
 10
155.4539861867
 20
124.7390002954
 10
155.4545414961
 20
124.7283978277
 10
155.454694278
 20
124.7179708539
  0
LWPOLYLINE
  5
4D3
100
AcDbEntity
  8
COPY_PUBLISH
100
AcDbPolyline
 62
7
  6
CONTINUOUS
 90
12
 70
0
 10
155.3886955338
 20
125.0294502838
 10
155.4116094885
 20
125.0164405178
 10
155.4332520535
 20
125.0009114079
 10
155.4532733024
 20
124.9830148263
 10
155.4713056955
 20
124.9630165263
 10
155.4871194442
 20
124.9411374911
 10
155.5005779086
 20
124.9174887935
 10
155.5114708388
 20
124.892288984
 10
155.5195525217
 20
124.8659760947
 10
155.5246914491
 20
124.8389418232
 10
155.5268309742
 20
124.8113714508
 10
155.5268920965
 20
124.8057741215
  0
LWPOLYLINE
  5
4D4
100
AcDbEntity
  8
DRAFT
100
AcDbPolyline
 62
7
  6
CONTINUOUS
 90
3
 70
0
 10
147.5806775179
 20
131.8539306467
 10
147.5427239772
 20
131.8764515617
 10
147.5018059038
 20
131.8981711535
  0
LWPOLYLINE
  5
4D5
100
AcDbEntity
  8
DRAFT
100
AcDbPolyline
 62
7
  6
CONTINUOUS
 90
3
 70
0
 10
147.6279250522
 20
131.821364588
 10
147.6156665259
 20
131.8306084087
 10
147.5806775179
 20
131.8539306467
  0
LINE
  5
4D6
100
AcDbEntity
  8
0
100
AcDbLine
 62
7
  6
CONTINUOUS
 10
155.8384195842
 20
128.1609134228
 11
154.5397444226
 21
130.4007967475
  0
LINE
  5
4D7
100
AcDbEntity
  8
0
100
AcDbLine
 62
7
  6
CONTINUOUS
 10
155.2495591331
 20
130.1265568834
 11
155.2172881366
 21
130.1943412617
  0
LINE
  5
4D8
100
AcDbEntity
  8
0
100
AcDbLine
 62
7
  6
CONTINUOUS
 10
155.4798501746
 20
131.3534453742
 11
155.6769075444
 21
130.9395315578
  0
LINE
  5
4D9
100
AcDbEntity
  8
RACCORDO
100
AcDbLine
 62
253
  6
CONTINUOUS
 10
165.2966297902
 20
101.0104360854
 11
165.2966297902
 21
128.543303568
  0
LINE
  5
4DA
100
AcDbEntity
  8
RACCORDO
100
AcDbLine
 62
7
  6
CONTINUOUS
 10
165.5772899898
 20
128.8906327532
 11
165.5772899898
 21
107.6014538949
  0
LINE
  5
4DB
100
AcDbEntity
  8
RACCORDO
100
AcDbLine
 62
7
  6
CONTINUOUS
 10
165.5772899898
 20
105.4279974073
 11
165.5772899898
 21
101.3577652673
  0
LINE
  5
4DC
100
AcDbEntity
  8
RACCORDO
100
AcDbLine
 62
253
  6
CONTINUOUS
 10
165.5772899898
 20
128.8906331139
 11
165.5772899847
 21
128.8905820061
  0
LWPOLYLINE
  5
4DD
100
AcDbEntity
  8
RACCORDO
100
AcDbPolyline
 62
253
  6
CONTINUOUS
 90
22
 70
0
 10
165.5772895661
 20
107.6025098023
 10
165.5769848589
 20
107.5471444232
 10
165.5749474707
 20
107.4424616104
 10
165.5709898295
 20
107.3346095545
 10
165.5651356585
 20
107.2235751899
 10
165.5576837139
 20
107.1099235246
 10
165.5486117537
 20
106.9940482989
 10
165.5382610586
 20
106.8755994149
 10
165.5281265338
 20
106.7539397685
 10
165.5184596989
 20
106.6264406464
 10
165.5100144387
 20
106.4956056215
 10
165.5058253308
 20
106.368345262
 10
165.5075455678
 20
106.2460681706
 10
165.5137858543
 20
106.1273158338
 10
165.5229273272
 20
106.0147015669
 10
165.5344183568
 20
105.9102194919
 10
165.5469774187
 20
105.8121427066
 10
165.5582909046
 20
105.7174009475
 10
165.5674961354
 20
105.6250684281
 10
165.5740659878
 20
105.5360499167
 10
165.5771275586
 20
105.4498596019
 10
165.577289604
 20
105.4269540368
  0
LWPOLYLINE
  5
4DE
100
AcDbEntity
  8
RACCORDO
100
AcDbPolyline
 62
253
  6
CONTINUOUS
 90
10
 70
0
 10
165.2966297902
 20
101.0104360854
 10
165.2939026615
 20
100.8988287104
 10
165.2850812197
 20
100.7907070496
 10
165.2702030571
 20
100.6865329236
 10
165.2493319409
 20
100.5867526069
 10
165.2225576524
 20
100.4917907527
 10
165.1899946699
 20
100.4020493569
 10
165.1517829711
 20
100.3179127946
 10
165.1080855455
 20
100.2397408489
 10
165.0590863186
 20
100.1678644896
  0
LWPOLYLINE
  5
4DF
100
AcDbEntity
  8
RACCORDO
100
AcDbPolyline
 62
253
  6
CONTINUOUS
 90
10
 70
0
 10
165.5772899847
 20
128.8905820061
 10
165.5743113801
 20
128.8520699886
 10
165.5639456552
 20
128.8092223762
 10
165.5462284455
 20
128.7669817634
 10
165.5212926484
 20
128.7256638315
 10
165.489323918
 20
128.6855753747
 10
165.4505604245
 20
128.6470148413
 10
165.4052909808
 20
128.6102694358
 10
165.3538530011
 20
128.5756129564
 10
165.2966297902
 20
128.543303568
  0
LWPOLYLINE
  5
4E0
100
AcDbEntity
  8
COPY_PUBLISH
100
AcDbPolyline
 62
253
  6
CONTINUOUS
 90
20
 70
0
 10
155.454694278
 20
83.0708351978
 10
155.4586669917
 20
83.0819505984
 10
155.4622294503
 20
83.0932392356
 10
155.4653736136
 20
83.1046756316
 10
155.4680923853
 20
83.116233975
 10
155.4703796293
 20
83.1278881794
 10
155.4722301835
 20
83.139611942
 10
155.4736398712
 20
83.1513788028
 10
155.4746055109
 20
83.1631622048
 10
155.4751249233
 20
83.1749355536
 10
155.4751969359
 20
83.1866722773
 10
155.4748213863
 20
83.1983458869
 10
155.473999122
 20
83.2099300358
 10
155.4727319989
 20
83.2213985792
 10
155.4710228769
 20
83.2327256332
 10
155.4688756132
 20
83.2438856335
 10
155.4662950541
 20
83.2548533925
 10
155.4632870239
 20
83.2656041566
 10
155.4598583113
 20
83.2761136621
 10
155.456016655
 20
83.2863581895
  0
LWPOLYLINE
  5
4E1
100
AcDbEntity
  8
RACCORDO
100
AcDbPolyline
 62
253
  6
CONTINUOUS
 90
3
 70
0
 10
165.6159371689
 20
105.3313156811
 10
165.5899484893
 20
105.2821249292
 10
165.5772899898
 20
105.2635827455
  0
LINE
  5
4E2
100
AcDbEntity
  8
RACCORDO
100
AcDbLine
 62
253
  6
CONTINUOUS
 10
164.9460403987
 20
100.0442037479
 11
164.8824793145
 21
99.9929529864
  0
LWPOLYLINE
  5
4E3
100
AcDbEntity
  8
RACCORDO
100
AcDbPolyline
 62
7
  6
CONTINUOUS
 90
13
 70
0
 10
164.9581123562
 20
100.0401090083
 10
164.971441086
 20
100.0499133944
 10
165.0688713467
 20
100.1295695368
 10
165.1599110538
 20
100.2188473324
 10
165.2435273738
 20
100.3171246596
 10
165.3190148355
 20
100.4239047664
 10
165.3859833656
 20
100.5390363056
 10
165.4438279061
 20
100.6621114403
 10
165.4918701922
 20
100.792421086
 10
165.529708342
 20
100.9296995805
 10
165.5568764387
 20
101.0736976646
 10
165.5728435004
 20
101.2238691257
 10
165.5772833126
 20
101.3576453514
  0
LINE
  5
4E4
100
AcDbEntity
  8
RACCORDO
100
AcDbLine
 62
253
  6
CONTINUOUS
 10
164.8824793145
 20
99.9929529864
 11
164.7611172256
 21
99.9049964349
  0
LINE
  5
4E5
100
AcDbEntity
  8
RACCORDO
100
AcDbLine
 62
7
  6
CONTINUOUS
 10
164.9581218906
 20
100.0400959689
 11
164.8356848197
 21
99.9513585677
  0
LINE
  5
4E6
100
AcDbEntity
  8
RACCORDO
100
AcDbLine
 62
253
  6
CONTINUOUS
 10
164.8356740659
 20
99.9513507741
 11
164.8355874356
 21
99.9512880035
  0
LINE
  5
4E7
100
AcDbEntity
  8
RACCORDO
100
AcDbLine
 62
7
  6
CONTINUOUS
 10
164.8172973235
 20
99.9383456765
 11
164.8355874356
 21
99.9512880035
  0
LWPOLYLINE
  5
4E8
100
AcDbEntity
  8
RACCORDO
100
AcDbPolyline
 62
253
  6
CONTINUOUS
 90
3
 70
0
 10
164.8355874356
 20
99.9512880035
 10
164.8194000022
 20
99.93995077
 10
164.7611172256
 20
99.9049964349
  0
LINE
  5
4E9
100
AcDbEntity
  8
RACCORDO
100
AcDbLine
 62
7
  6
CONTINUOUS
 10
164.7467897704
 20
99.8938540256
 11
164.8172973235
 21
99.9383456765
  0
LINE
  5
4EA
100
AcDbEntity
  8
RACCORDO
100
AcDbLine
 62
253
  6
CONTINUOUS
 10
164.7163292956
 20
99.8770617409
 11
164.7611172256
 21
99.9049964349
  0
LINE
  5
4EB
100
AcDbEntity
  8
RACCORDO
100
AcDbLine
 62
253
  6
CONTINUOUS
 10
164.9570469083
 20
100.039315119
 11
164.8824793145
 21
99.9929529864
  0
LWPOLYLINE
  5
4EC
100
AcDbEntity
  8
COPY_PUBLISH
100
AcDbPolyline
 62
7
  6
CONTINUOUS
 90
14
 70
0
 10
150.029998421
 20
132.0262651381
 10
150.0426409749
 20
132.0269867478
 10
150.0556147959
 20
132.0270824747
 10
150.0689166287
 20
132.0265436243
 10
150.0825752596
 20
132.0253460402
 10
150.096569376
 20
132.0234863915
 10
150.110897981
 20
132.0209495744
 10
150.1256247534
 20
132.0176879667
 10
150.1407479779
 20
132.0136907216
 10
150.1562472885
 20
132.008941826
 10
150.1721614378
 20
132.0033791726
 10
150.1884871146
 20
131.9969830554
 10
150.2051983709
 20
131.9897402967
 10
150.2233276492
 20
131.9810809138
  0
LWPOLYLINE
  5
4ED
100
AcDbEntity
  8
RACCORDO
100
AcDbPolyline
 62
7
  6
CONTINUOUS
 90
4
 70
0
 10
142.6997436645
 20
133.0720680339
 10
142.7228320761
 20
133.0708102823
 10
142.747734998
 20
133.0669904089
 10
142.7744843967
 20
133.06031053
  0
LWPOLYLINE
  5
4EE
100
AcDbEntity
  8
RACCORDO
100
AcDbPolyline
 62
7
  6
CONTINUOUS
 90
23
 70
0
 10
143.7177755298
 20
133.2328488497
 10
143.6780146633
 20
133.2399667658
 10
143.6381687138
 20
133.2456606236
 10
143.5983049612
 20
133.2500567408
 10
143.5585503502
 20
133.2532548223
 10
143.5190869379
 20
133.2553420479
 10
143.4800036873
 20
133.2564042934
 10
143.4413137626
 20
133.2565188595
 10
143.4030984096
 20
133.2557519366
 10
143.3653980395
 20
133.2541640003
 10
143.3282340654
 20
133.2518083015
 10
143.2916680436
 20
133.2487364926
 10
143.2557342839
 20
133.2449958012
 10
143.2204383385
 20
133.240627887
 10
143.1858019886
 20
133.2356725533
 10
143.1518665975
 20
133.2301724086
 10
143.118618494
 20
133.2241588839
 10
143.0860047832
 20
133.2176534557
 10
143.0540382106
 20
133.2106857205
 10
143.0227345581
 20
133.2032871051
 10
142.99205869
 20
133.1954749056
 10
142.9620097974
 20
133.1872740566
 10
142.9326282917
 20
133.178721168
  0
LINE
  5
4EF
100
AcDbEntity
  8
COPY_PUBLISH
100
AcDbLine
 62
7
  6
CONTINUOUS
 10
124.8857079732
 20
137.2623238723
 11
125.5097238359
 21
137.13213395
  0
LINE
  5
4F0
100
AcDbEntity
  8
COPY_PUBLISH
100
AcDbLine
 62
253
  6
CONTINUOUS
 10
125.1126153547
 20
137.4182044195
 11
125.8234245722
 21
137.269906592
  0
LWPOLYLINE
  5
4F1
100
AcDbEntity
  8
RACCORDO
100
AcDbPolyline
 62
7
  6
CONTINUOUS
 90
3
 70
0
 10
143.7966845949
 20
133.2137057181
 10
143.7573929426
 20
133.2241489546
 10
143.7177755298
 20
133.2328488497
  0
LWPOLYLINE
  5
4F2
100
AcDbEntity
  8
COPY_PUBLISH
100
AcDbPolyline
 62
253
  6
CONTINUOUS
 90
14
 70
0
 10
125.4754996448
 20
139.9855043272
 10
125.4685746263
 20
139.9878269855
 10
125.4614334689
 20
139.9896330034
 10
125.4540922299
 20
139.9909183198
 10
125.4465674167
 20
139.9916800446
 10
125.4388759494
 20
139.991916465
 10
125.4310351229
 20
139.9916270495
 10
125.4230625678
 20
139.9908124487
 10
125.4149762111
 20
139.9894744944
 10
125.4067942355
 20
139.9876161951
 10
125.3985350388
 20
139.9852417292
 10
125.3902171924
 20
139.9823564361
 10
125.3818593997
 20
139.9789668034
 10
125.3734804538
 20
139.975080453
  0
LWPOLYLINE
  5
4F3
100
AcDbEntity
  8
RACCORDO
100
AcDbPolyline
 62
7
  6
CONTINUOUS
 90
3
 70
0
 10
142.7744843967
 20
133.06031053
 10
142.8030171105
 20
133.050558832
 10
142.8332539639
 20
133.0375088244
  0
LWPOLYLINE
  5
4F4
100
AcDbEntity
  8
RACCORDO
100
AcDbPolyline
 62
253
  6
CONTINUOUS
 90
7
 70
0
 10
143.9137947081
 20
133.1684903612
 10
143.9034334667
 20
133.1727394621
 10
143.8894337519
 20
133.1759201361
 10
143.8745714323
 20
133.1766313185
 10
143.859043497
 20
133.1748635898
 10
143.8430557635
 20
133.1706403867
 10
143.8268201391
 20
133.1640176917
  0
LWPOLYLINE
  5
4F5
100
AcDbEntity
  8
RACCORDO
100
AcDbPolyline
 62
7
  6
CONTINUOUS
 90
4
 70
0
 10
143.9139315174
 20
133.1684217329
 10
143.8735069005
 20
133.1868601373
 10
143.835418601
 20
133.2013539658
 10
143.7966845949
 20
133.2137057181
  0
LWPOLYLINE
  5
4F6
100
AcDbEntity
  8
COPY_PUBLISH
100
AcDbPolyline
 62
7
  6
CONTINUOUS
 90
8
 70
0
 10
150.7385632266
 20
131.7234592113
 10
150.7380848985
 20
131.723684115
 10
150.7352878799
 20
131.7246421879
 10
150.7319824851
 20
131.7252484423
 10
150.7281952603
 20
131.7255137845
 10
150.7239501937
 20
131.725472646
 10
150.719272363
 20
131.7251399925
 10
150.7141894729
 20
131.7245111514
  0
LWPOLYLINE
  5
4F7
100
AcDbEntity
  8
DRAFT
100
AcDbPolyline
 62
7
  6
CONTINUOUS
 90
10
 70
0
 10
143.9662719978
 20
133.6659381064
 10
143.9228328142
 20
133.6863971431
 10
143.8777909844
 20
133.7053739135
 10
143.8311465082
 20
133.7228684175
 10
143.7828106664
 20
133.738893344
 10
143.7328721783
 20
133.7534360042
 10
143.6815972022
 20
133.7664583316
 10
143.6290744574
 20
133.7779476372
 10
143.5752152246
 20
133.78791661
 10
143.5200195037
 20
133.79636525
  0
LINE
  5
4F8
100
AcDbEntity
  8
DRAFT
100
AcDbLine
 62
7
  6
CONTINUOUS
 10
147.5018059038
 20
131.8981711535
 11
143.9662719978
 21
133.6659381064
  0
LINE
  5
4F9
100
AcDbEntity
  8
DRAFT
100
AcDbLine
 62
7
  6
CONTINUOUS
 10
148.3078876966
 20
132.5043627807
 11
144.6219511309
 21
134.3473310635
  0
LINE
  5
4FA
100
AcDbEntity
  8
COPY_PUBLISH
100
AcDbLine
 62
253
  6
CONTINUOUS
 10
139.6440361211
 20
137.14677268
 11
140.2605079459
 21
136.8385367676
  0
LINE
  5
4FB
100
AcDbEntity
  8
COPY_PUBLISH
100
AcDbLine
 62
253
  6
CONTINUOUS
 10
149.9388915068
 20
131.9993449871
 11
150.5553633316
 21
131.6911090747
  0
LINE
  5
4FC
100
AcDbEntity
  8
COPY_PUBLISH
100
AcDbLine
 62
7
  6
CONTINUOUS
 10
139.904249339
 20
137.1406208128
 11
140.4191130773
 21
136.8831889437
  0
LINE
  5
4FD
100
AcDbEntity
  8
COPY_PUBLISH
100
AcDbLine
 62
7
  6
CONTINUOUS
 10
150.2233862136
 20
131.9810523755
 11
150.7382499519
 21
131.7236205063
  0
LINE
  5
4FE
100
AcDbEntity
  8
DRAFT
100
AcDbLine
 62
7
  6
CONTINUOUS
 10
149.2838536617
 20
132.9854408577
 11
146.3648808863
 21
134.4449272454
  0
LINE
  5
4FF
100
AcDbEntity
  8
DRAFT
100
AcDbLine
 62
7
  6
CONTINUOUS
 10
154.0164067948
 20
130.6624655614
 11
154.5397444226
 21
130.4007967475
  0
LINE
  5
500
100
AcDbEntity
  8
0
100
AcDbLine
 62
7
  6
CONTINUOUS
 10
156.3168684264
 20
130.2449171565
 11
156.4867299835
 21
130.039876119
  0
LINE
  5
501
100
AcDbEntity
  8
0
100
AcDbLine
 62
7
  6
CONTINUOUS
 10
156.5756675742
 20
129.9325189502
 11
156.5901877857
 21
129.9149915044
  0
LINE
  5
502
100
AcDbEntity
  8
0
100
AcDbLine
 62
7
  6
CONTINUOUS
 10
157.4273138939
 20
129.0026487124
 11
156.8150608321
 21
129.7417035352
  0
LINE
  5
503
100
AcDbEntity
  8
0
100
AcDbLine
 62
7
  6
CONTINUOUS
 10
155.4798501746
 20
131.3534453742
 11
154.8675971127
 21
132.092500197
  0
LWPOLYLINE
  5
504
100
AcDbEntity
  8
0
100
AcDbPolyline
 62
7
  6
CONTINUOUS
 90
7
 70
0
 10
156.5756675742
 20
129.9325189502
 10
156.5617501537
 20
129.9508645673
 10
156.5474705286
 20
129.9690290821
 10
156.5328286991
 20
129.9870124947
 10
156.517824665
 20
130.0048148051
 10
156.5024584265
 20
130.0224360132
 10
156.4867299835
 20
130.039876119
  0
LINE
  5
505
100
AcDbEntity
  8
0
100
AcDbLine
 62
7
  6
CONTINUOUS
 10
157.3100355789
 20
129.9891909086
 11
157.1129782091
 21
130.403104725
  0
LWPOLYLINE
  5
506
100
AcDbEntity
  8
RACCORDO
100
AcDbPolyline
 62
7
  6
CONTINUOUS
 90
6
 70
0
 10
159.3128711297
 20
130.2829684137
 10
159.2809382611
 20
130.3669363027
 10
159.2178943492
 20
130.5124972491
 10
159.1476360882
 20
130.656887945
 10
159.0703028999
 20
130.799838023
 10
158.9893031973
 20
130.9358486688
  0
LWPOLYLINE
  5
507
100
AcDbEntity
  8
RACCORDO
100
AcDbPolyline
 62
253
  6
CONTINUOUS
 90
5
 70
0
 10
159.3166707905
 20
130.2443547253
 10
159.2744031943
 20
130.3591686054
 10
159.2118587851
 20
130.5070643482
 10
159.1415978147
 20
130.6539774421
 10
159.0637914562
 20
130.7995499774
  0
LWPOLYLINE
  5
508
100
AcDbEntity
  8
RACCORDO
100
AcDbPolyline
 62
253
  6
CONTINUOUS
 90
36
 70
0
 10
165.5772899898
 20
108.4462178097
 10
165.5812278918
 20
108.4310616456
 10
165.5960449275
 20
108.3672392586
 10
165.6097417138
 20
108.3005825439
 10
165.6221751572
 20
108.2306428943
 10
165.6332345793
 20
108.1573942662
 10
165.6428181019
 20
108.0808396248
 10
165.6507601672
 20
108.0005693012
 10
165.6568833377
 20
107.91652252
 10
165.6610817311
 20
107.828764324
 10
165.6632593619
 20
107.7370783358
 10
165.663116782
 20
107.6411631616
 10
165.6605859382
 20
107.541378803
 10
165.6559171298
 20
107.4385242265
 10
165.6486401768
 20
107.3327401178
 10
165.6388760075
 20
107.2240358474
 10
165.6277607558
 20
107.1130574165
 10
165.6142318789
 20
107.0003289229
 10
165.5989642083
 20
106.885590295
 10
165.585467177
 20
106.7684445763
 10
165.5725576484
 20
106.6469421248
 10
165.560386891
 20
106.5237217635
 10
165.5544775533
 20
106.4054270153
 10
165.5576220062
 20
106.2942101459
 10
165.5665543851
 20
106.1888483231
 10
165.5782772641
 20
106.0907265399
 10
165.5936889059
 20
106.001816799
 10
165.6122060932
 20
105.9205512471
 10
165.6287719666
 20
105.8428066531
 10
165.6425071239
 20
105.7679575795
 10
165.6542216369
 20
105.697154006
 10
165.6612395689
 20
105.6289510837
 10
165.6631184903
 20
105.5628963116
 10
165.6602501176
 20
105.4999355349
 10
165.6514050177
 20
105.4404376273
 10
165.6364553299
 20
105.3841996348
  0
LWPOLYLINE
  5
509
100
AcDbEntity
  8
RACCORDO
100
AcDbPolyline
 62
253
  6
CONTINUOUS
 90
13
 70
0
 10
165.2966297902
 20
128.543303568
 10
165.2936742869
 20
128.6202015579
 10
165.2852406999
 20
128.6991506515
 10
165.2713971567
 20
128.7795459525
 10
165.2522553593
 20
128.8607635368
 10
165.2279638315
 20
128.9421911349
 10
165.1987013288
 20
129.0232327945
 10
165.1646519905
 20
129.1033523214
 10
165.1261031202
 20
129.1818511046
 10
165.0834744228
 20
129.2579167984
 10
165.0371686532
 20
129.3309233023
 10
164.9875275556
 20
129.4004164632
 10
164.9349511545
 20
129.4659032358
  0
LWPOLYLINE
  5
50A
100
AcDbEntity
  8
RACCORDO
100
AcDbPolyline
 62
253
  6
CONTINUOUS
 90
9
 70
0
 10
165.5772899611
 20
101.3576453465
 10
165.5763635097
 20
101.3362472405
 10
165.5665626127
 20
101.2847247351
 10
165.5461623023
 20
101.2339847749
 10
165.5153811331
 20
101.1845710088
 10
165.4745488945
 20
101.1370128869
 10
165.4241030683
 20
101.0918199706
 10
165.3645841346
 20
101.0494764742
 10
165.2966297902
 20
101.0104360869
  0
LINE
  5
50B
100
AcDbEntity
  8
RACCORDO
100
AcDbLine
 62
253
  6
CONTINUOUS
 10
165.6364553299
 20
105.3841996348
 11
165.6159371689
 21
105.3313156811
  0
LWPOLYLINE
  5
50C
100
AcDbEntity
  8
RACCORDO
100
AcDbPolyline
 62
253
  6
CONTINUOUS
 90
3
 70
0
 10
165.0590863186
 20
100.1678644896
 10
165.0049936714
 20
100.1025914107
 10
164.9460403987
 20
100.0442037479
  0
LINE
  5
50D
100
AcDbEntity
  8
DRAFT
100
AcDbLine
 62
7
  6
CONTINUOUS
 10
146.3648808863
 20
134.4449272454
 11
145.0991537969
 21
134.3723720283
  0
LINE
  5
50E
100
AcDbEntity
  8
DRAFT
100
AcDbLine
 62
7
  6
CONTINUOUS
 10
145.0991537969
 20
134.3723720283
 11
144.6219511309
 21
134.3473310635
  0
LWPOLYLINE
  5
50F
100
AcDbEntity
  8
DRAFT
100
AcDbPolyline
 62
7
  6
CONTINUOUS
 90
25
 70
0
 10
143.514506213
 20
134.3621978536
 10
143.4709351544
 20
134.3676626396
 10
143.4271131241
 20
134.3721745513
 10
143.3830401224
 20
134.3757335889
 10
143.3386350249
 20
134.3783340277
 10
143.2939789558
 20
134.3799815923
 10
143.2493152879
 20
134.3806934564
 10
143.204644467
 20
134.380481204
 10
143.1599660474
 20
134.3793332511
 10
143.1155220642
 20
134.377232019
 10
143.071309154
 20
134.3741737236
 10
143.0273306802
 20
134.370162149
 10
142.9838387685
 20
134.3651910691
 10
142.9408277101
 20
134.3592481724
 10
142.8983032138
 20
134.3523457704
 10
142.8565345323
 20
134.344514571
 10
142.8155305502
 20
134.3357424292
 10
142.7752823829
 20
134.32604149
 10
142.7360326296
 20
134.3154788964
 10
142.6978002635
 20
134.3040462743
 10
142.6605663115
 20
134.2917519977
 10
142.624516453
 20
134.2786883323
 10
142.5897125814
 20
134.2648860331
 10
142.5560928034
 20
134.250314345
 10
142.523657119
 20
134.234973268
  0
LWPOLYLINE
  5
510
100
AcDbEntity
  8
RACCORDO
100
AcDbPolyline
 62
7
  6
CONTINUOUS
 90
10
 70
0
 10
157.7666916107
 20
131.9658734135
 10
157.7611875061
 20
131.966871175
 10
157.7548603996
 20
131.9670515173
 10
157.747710291
 20
131.9664144402
 10
157.7396615258
 20
131.9649437865
 10
157.7307897587
 20
131.9626557135
 10
157.7213219533
 20
131.9595986933
 10
157.7113337643
 20
131.9557888833
 10
157.7007495371
 20
131.951210126
 10
157.6895692717
 20
131.9458624214
  0
LWPOLYLINE
  5
511
100
AcDbEntity
  8
RACCORDO
100
AcDbPolyline
 62
7
  6
CONTINUOUS
 90
6
 70
0
 10
161.7293985131
 20
131.1929997715
 10
161.7765675151
 20
131.1843406087
 10
161.9310839035
 20
131.1419814681
 10
162.0860531312
 20
131.085705091
 10
162.2407563326
 20
131.0158631141
 10
162.3787760419
 20
130.941338979
  0
LWPOLYLINE
  5
512
100
AcDbEntity
  8
COPY_PUBLISH
100
AcDbPolyline
 62
7
  6
CONTINUOUS
 90
9
 70
0
 10
139.7967750712
 20
137.1795664613
 10
139.8105005751
 20
137.1763556003
 10
139.8246060022
 20
137.1724731729
 10
139.8390833357
 20
137.167906075
 10
139.853918443
 20
137.1626521932
 10
139.8691048706
 20
137.1566872496
 10
139.8846441896
 20
137.1499640331
 10
139.9005334696
 20
137.1424598295
 10
139.9036358692
 20
137.14092289
  0
LINE
  5
513
100
AcDbEntity
  8
RACCORDO
100
AcDbLine
 62
7
  6
CONTINUOUS
 10
158.5015385335
 20
131.0788347098
 11
158.6002508252
 21
131.0516443864
  0
LINE
  5
514
100
AcDbEntity
  8
RACCORDO
100
AcDbLine
 62
7
  6
CONTINUOUS
 10
157.8655939359
 20
131.9386299007
 11
157.7666916107
 21
131.9658734135
  0
LWPOLYLINE
  5
515
100
AcDbEntity
  8
RACCORDO
100
AcDbPolyline
 62
253
  6
CONTINUOUS
 90
6
 70
0
 10
161.7607716117
 20
131.1551290914
 10
161.8344332285
 20
131.1346775158
 10
161.9839679355
 20
131.0796663638
 10
162.1342574896
 20
131.0110257262
 10
162.284548375
 20
130.9291009774
 10
162.3145782347
 20
130.9100621287
  0
LINE
  5
516
100
AcDbEntity
  8
RACCORDO
100
AcDbLine
 62
7
  6
CONTINUOUS
 10
158.6002508252
 20
131.0516443864
 11
158.7030830245
 21
131.0227833495
  0
LINE
  5
517
100
AcDbEntity
  8
RACCORDO
100
AcDbLine
 62
7
  6
CONTINUOUS
 10
157.9685102118
 20
131.9097445439
 11
157.8655939359
 21
131.9386299007
  0
LWPOLYLINE
  5
518
100
AcDbEntity
  8
COPY_PUBLISH
100
AcDbPolyline
 62
7
  6
CONTINUOUS
 90
6
 70
0
 10
125.4560617012
 20
139.9936669826
 10
125.4261779522
 20
140.0022217675
 10
125.3951119415
 20
140.0070344838
 10
125.363313848
 20
140.0078964189
 10
125.3315276816
 20
140.0046911893
 10
125.3006077697
 20
139.9975179355
  0
LINE
  5
519
100
AcDbEntity
  8
RACCORDO
100
AcDbLine
 62
7
  6
CONTINUOUS
 10
158.7030830245
 20
131.0227833495
 11
158.8651873949
 21
130.9763907007
  0
LINE
  5
51A
100
AcDbEntity
  8
RACCORDO
100
AcDbLine
 62
7
  6
CONTINUOUS
 10
158.1305358579
 20
131.8633731169
 11
157.9685102118
 21
131.9097445439
  0
LINE
  5
51B
100
AcDbEntity
  8
RACCORDO
100
AcDbLine
 62
7
  6
CONTINUOUS
 10
158.8651873949
 20
130.9763907007
 11
158.9786292909
 21
130.9434272525
  0
LINE
  5
51C
100
AcDbEntity
  8
RACCORDO
100
AcDbLine
 62
7
  6
CONTINUOUS
 10
158.2437823681
 20
131.8304659562
 11
158.1305358579
 21
131.8633731169
  0
LWPOLYLINE
  5
51D
100
AcDbEntity
  8
COPY_PUBLISH
100
AcDbPolyline
 62
7
  6
CONTINUOUS
 90
9
 70
0
 10
140.4191427216
 20
136.8831733776
 10
140.416044058
 20
136.8843174531
 10
140.4125094776
 20
136.8849718738
 10
140.4084126456
 20
136.8852535687
 10
140.4037892951
 20
136.8851708227
 10
140.3986694601
 20
136.8847299805
 10
140.393065635
 20
136.8839675259
 10
140.3870080834
 20
136.8828945232
 10
140.3805202615
 20
136.8815109488
  0
LWPOLYLINE
  5
51E
100
AcDbEntity
  8
RACCORDO
100
AcDbPolyline
 62
7
  6
CONTINUOUS
 90
5
 70
0
 10
158.9786292909
 20
130.9434272525
 10
158.9829316176
 20
130.9417030183
 10
158.986411611
 20
130.9392983402
 10
158.9890692712
 20
130.9362132181
 10
158.9893018756
 20
130.9358475981
  0
LWPOLYLINE
  5
51F
100
AcDbEntity
  8
RACCORDO
100
AcDbPolyline
 62
253
  6
CONTINUOUS
 90
3
 70
0
 10
142.7656647391
 20
137.1143079079
 10
142.8083874657
 20
137.09673056
 10
142.8129292535
 20
137.0944970665
  0
LWPOLYLINE
  5
520
100
AcDbEntity
  8
RACCORDO
100
AcDbPolyline
 62
253
  6
CONTINUOUS
 90
10
 70
0
 10
153.6502854441
 20
131.6758184771
 10
153.6045087473
 20
131.6948859037
 10
153.5604729408
 20
131.7069344214
 10
153.5144790379
 20
131.7138319454
 10
153.466785429
 20
131.7155387027
 10
153.4176593071
 20
131.712043949
 10
153.3673676854
 20
131.703369876
 10
153.3161898271
 20
131.6895645455
 10
153.2644156848
 20
131.6707016499
 10
153.2123357112
 20
131.6468843541
  0
LWPOLYLINE
  5
521
100
AcDbEntity
  8
RACCORDO
100
AcDbPolyline
 62
7
  6
CONTINUOUS
 90
7
 70
0
 10
142.8139036062
 20
137.094008274
 10
142.7777198721
 20
137.1107694061
 10
142.7187794072
 20
137.132473347
 10
142.6568187466
 20
137.148546832
 10
142.5924091303
 20
137.1585789883
 10
142.5262955568
 20
137.1622560872
 10
142.4589477543
 20
137.159425218
  0
LINE
  5
522
100
AcDbEntity
  8
RACCORDO
100
AcDbLine
 62
253
  6
CONTINUOUS
 10
153.2123357112
 20
131.6468843541
 11
149.9189691596
 21
133.2935676299
  0
LINE
  5
523
100
AcDbEntity
  8
RACCORDO
100
AcDbLine
 62
253
  6
CONTINUOUS
 10
145.6585555875
 20
135.4237744159
 11
142.3651890358
 21
137.0704576918
  0
LINE
  5
524
100
AcDbEntity
  8
RACCORDO
100
AcDbLine
 62
7
  6
CONTINUOUS
 10
153.650795271
 20
131.6755640577
 11
150.3644747104
 21
133.318724338
  0
LINE
  5
525
100
AcDbEntity
  8
RACCORDO
100
AcDbLine
 62
7
  6
CONTINUOUS
 10
146.0992497131
 20
135.4513368367
 11
142.8129250917
 21
137.0944991474
  0
LINE
  5
526
100
AcDbEntity
  8
0
100
AcDbLine
 62
7
  6
CONTINUOUS
 10
155.7724270987
 20
130.1501229005
 11
155.3776501353
 21
130.4543394324
  0
LINE
  5
527
100
AcDbEntity
  8
0
100
AcDbLine
 62
7
  6
CONTINUOUS
 10
156.4117544672
 20
130.0524928541
 11
156.8150608321
 21
129.7417035352
  0
LINE
  5
528
100
AcDbEntity
  8
0
100
AcDbLine
 62
7
  6
CONTINUOUS
 10
155.9845591331
 20
130.4940568834
 11
155.9185118785
 21
130.5449531326
  0
LINE
  5
529
100
AcDbEntity
  8
0
100
AcDbLine
 62
7
  6
CONTINUOUS
 10
156.3781312863
 20
131.2901434287
 11
155.9748249214
 21
131.6009327476
  0
LWPOLYLINE
  5
52A
100
AcDbEntity
  8
0
100
AcDbPolyline
 62
7
  6
CONTINUOUS
 90
8
 70
0
 10
158.1853892626
 20
131.6783918246
 10
158.2802156461
 20
131.5869592899
 10
158.3718267769
 20
131.4936496495
 10
158.460222655
 20
131.3984629035
 10
158.5455085186
 20
131.3012720183
 10
158.6275791294
 20
131.2022040274
 10
158.706118773
 20
131.1016400321
 10
158.7802136506
 20
131.0008074023
  0
LINE
  5
52B
100
AcDbEntity
  8
DRAFT
100
AcDbLine
 62
7
  6
CONTINUOUS
 10
155.0658197454
 20
132.6701416844
 11
155.0285699381
 21
132.7151061795
  0
LINE
  5
52C
100
AcDbEntity
  8
0
100
AcDbLine
 62
7
  6
CONTINUOUS
 10
157.9222886408
 20
129.2501360859
 11
157.3100355789
 21
129.9891909086
  0
LINE
  5
52D
100
AcDbEntity
  8
0
100
AcDbLine
 62
7
  6
CONTINUOUS
 10
155.9748249214
 20
131.6009327476
 11
155.3625718596
 21
132.3399875704
  0
LINE
  5
52E
100
AcDbEntity
  8
0
100
AcDbLine
 62
7
  6
CONTINUOUS
 10
157.0570911967
 20
130.3124939749
 11
156.7405307223
 21
130.6946162701
  0
LINE
  5
52F
100
AcDbEntity
  8
RACCORDO
100
AcDbLine
 62
253
  6
CONTINUOUS
 10
159.0637914562
 20
130.7995499774
 11
158.9786292909
 21
130.9434272525
  0
LWPOLYLINE
  5
530
100
AcDbEntity
  8
RACCORDO
100
AcDbPolyline
 62
253
  6
CONTINUOUS
 90
36
 70
0
 10
158.5015385335
 20
131.0788347098
 10
158.5216717292
 20
131.0404603109
 10
158.5415545474
 20
131.0009328352
 10
158.5611186572
 20
130.9602562074
 10
158.5802385407
 20
130.9185589683
 10
158.5989012811
 20
130.8757274788
 10
158.6171796315
 20
130.8314029978
 10
158.6349700711
 20
130.7855966831
 10
158.6521649829
 20
130.7383234331
 10
158.6687733484
 20
130.6892315248
 10
158.6846502948
 20
130.6383431877
 10
158.6996443314
 20
130.5856880998
 10
158.7136872915
 20
130.5309337611
 10
158.7265825449
 20
130.4741250568
 10
158.7381252976
 20
130.4153156099
 10
158.748156695
 20
130.3542036751
 10
158.7564176728
 20
130.2908712677
 10
158.7626393615
 20
130.2254118564
 10
158.766557062
 20
130.157572233
 10
158.7678390706
 20
130.0874487566
 10
158.766139236
 20
130.0152415661
 10
158.7610835729
 20
129.9408995328
 10
158.7522690645
 20
129.8645732965
 10
158.7392961893
 20
129.7865767581
 10
158.7217486916
 20
129.7071564021
 10
158.6991808385
 20
129.6265309753
 10
158.6711935406
 20
129.5451435732
 10
158.6374779444
 20
129.4636106517
 10
158.5975566924
 20
129.3821122689
 10
158.5511650523
 20
129.3013069198
 10
158.4985439022
 20
129.2224573579
 10
158.4394814322
 20
129.1458575847
 10
158.3739142919
 20
129.0719896654
 10
158.3027285758
 20
129.0021536842
 10
158.2262703528
 20
128.9367425755
 10
158.1547399292
 20
128.8834097314
  0
LWPOLYLINE
  5
531
100
AcDbEntity
  8
RACCORDO
100
AcDbPolyline
 62
253
  6
CONTINUOUS
 90
41
 70
0
 10
158.4244450904
 20
131.0588381657
 10
158.4431511085
 20
131.0223476128
 10
158.4614894474
 20
130.9847375903
 10
158.4794601069
 20
130.9460080981
 10
158.4971041866
 20
130.9062608717
 10
158.514380587
 20
130.8653941757
 10
158.5311660098
 20
130.8231028038
 10
158.54750299
 20
130.7793771633
 10
158.5633489927
 20
130.734226847
 10
158.5784531147
 20
130.6873754272
 10
158.592868715
 20
130.638804251
 10
158.6065424346
 20
130.5885319713
 10
158.6190632937
 20
130.5363381196
 10
158.6304947163
 20
130.4821930213
 10
158.6407732784
 20
130.4261263509
 10
158.6492977277
 20
130.3680066631
 10
158.6561421196
 20
130.307787013
 10
158.6612323987
 20
130.2455143455
 10
158.6637451475
 20
130.1811980505
 10
158.6637494468
 20
130.1147165884
 10
158.6611762157
 20
130.0461914988
 10
158.6549947943
 20
129.9759967905
 10
158.6452364301
 20
129.9040024872
 10
158.6318698755
 20
129.8303385652
 10
158.6137707285
 20
129.7557689616
 10
158.5908746733
 20
129.6801083999
 10
158.5632460256
 20
129.6035421566
 10
158.5299533308
 20
129.5273899993
 10
158.4907225394
 20
129.4514567358
 10
158.4458277008
 20
129.3759375582
 10
158.3951595092
 20
129.302737811
 10
158.3383997904
 20
129.2319470922
 10
158.2758667185
 20
129.1634758038
 10
158.2084055106
 20
129.0989604954
 10
158.1359753303
 20
129.0387080736
 10
158.058617014
 20
128.982411632
 10
157.9772982868
 20
128.9307870003
 10
157.8921399597
 20
128.8840059365
 10
157.8030212218
 20
128.8418966827
 10
157.7105473658
 20
128.8046597948
 10
157.6147078567
 20
128.7723030431
  0
LINE
  5
532
100
AcDbEntity
  8
COPY_PUBLISH
100
AcDbLine
 62
253
  6
CONTINUOUS
 10
153.6833307355
 20
82.989498272
 11
153.0610127034
 21
82.2444388545
  0
LINE
  5
533
100
AcDbEntity
  8
COPY_PUBLISH
100
AcDbLine
 62
253
  6
CONTINUOUS
 10
154.0363669235
 20
82.863728434
 11
153.3251463154
 21
82.0122319569
  0
LWPOLYLINE
  5
534
100
AcDbEntity
  8
COPY_PUBLISH
100
AcDbPolyline
 62
253
  6
CONTINUOUS
 90
40
 70
0
 10
150.6448453391
 20
82.3866489488
 10
150.6304065906
 20
82.3773811605
 10
150.615439691
 20
82.3684133955
 10
150.5999683861
 20
82.3597598817
 10
150.5840172222
 20
82.3514343486
 10
150.5676115068
 20
82.343450005
 10
150.5507772684
 20
82.3358195187
 10
150.5335412158
 20
82.3285549958
 10
150.515930695
 20
82.321667962
 10
150.4979736461
 20
82.315169344
 10
150.4796985592
 20
82.3090694522
 10
150.4611344287
 20
82.3033779646
 10
150.4423107079
 20
82.2981039109
 10
150.4232572617
 20
82.2932556589
 10
150.4040043196
 20
82.2888409005
 10
150.3845824276
 20
82.2848666401
 10
150.3650223998
 20
82.2813391831
 10
150.3453552692
 20
82.278264126
 10
150.3256122392
 20
82.2756463475
 10
150.3058246331
 20
82.273490001
 10
150.2860238453
 20
82.2717985075
 10
150.2662412909
 20
82.2705745509
 10
150.2465083562
 20
82.2698200729
 10
150.2268563487
 20
82.2695362706
 10
150.2073164476
 20
82.2697235943
 10
150.187919654
 20
82.2703817467
 10
150.1686967423
 20
82.2715096836
 10
150.1496782108
 20
82.2731056156
 10
150.1308942335
 20
82.2751670105
 10
150.1123746124
 20
82.2776905978
 10
150.09414873
 20
82.2806723738
 10
150.0762455028
 20
82.2841076076
 10
150.0586933354
 20
82.287990849
 10
150.0415200754
 20
82.2923159371
 10
150.0247529692
 20
82.2970760097
 10
150.008418619
 20
82.3022635148
 10
149.99254294
 20
82.307870222
 10
149.9771511202
 20
82.313887236
 10
149.9622675796
 20
82.3203050104
 10
149.9479159318
 20
82.327113363
  0
LWPOLYLINE
  5
535
100
AcDbEntity
  8
COPY_PUBLISH
100
AcDbPolyline
 62
7
  6
CONTINUOUS
 90
11
 70
0
 10
140.3805202615
 20
136.8815109488
 10
140.3735909832
 20
136.8798381784
 10
140.3662331227
 20
136.8778853773
 10
140.3584706752
 20
136.8756545351
 10
140.3502975217
 20
136.8731584744
 10
140.3417232268
 20
136.8704027352
 10
140.3327682308
 20
136.8673928349
 10
140.323437664
 20
136.8641427138
 10
140.3137423662
 20
136.8606605509
 10
140.3037003665
 20
136.8569482162
 10
140.2933265429
 20
136.8530102227
  0
LWPOLYLINE
  5
536
100
AcDbEntity
  8
RACCORDO
100
AcDbPolyline
 62
7
  6
CONTINUOUS
 90
3
 70
0
 10
142.4589477543
 20
137.159425218
 10
142.3908849554
 20
137.1500068808
 10
142.3227859551
 20
137.134022692
  0
LINE
  5
537
100
AcDbEntity
  8
RACCORDO
100
AcDbLine
 62
7
  6
CONTINUOUS
 10
158.8318717955
 20
134.8483403941
 11
158.8643780118
 21
134.8395135372
  0
LINE
  5
538
100
AcDbEntity
  8
RACCORDO
100
AcDbLine
 62
253
  6
CONTINUOUS
 10
158.8121054519
 20
134.8162928191
 11
158.8443706233
 21
134.8059272002
  0
LWPOLYLINE
  5
539
100
AcDbEntity
  8
RACCORDO
100
AcDbPolyline
 62
7
  6
CONTINUOUS
 90
21
 70
0
 10
158.8643780118
 20
134.8395135372
 10
159.019499993
 20
134.7836043304
 10
159.1753179997
 20
134.713626514
 10
159.3316761497
 20
134.6294133701
 10
159.4874208119
 20
134.5313204162
 10
159.6403938924
 20
134.4206808045
 10
159.7895750763
 20
134.2984393853
 10
159.9347193953
 20
134.1649770095
 10
160.0748645715
 20
134.0213284731
 10
160.2093635794
 20
133.8683455803
 10
160.3376875066
 20
133.7067983822
 10
160.4590883335
 20
133.5378070104
 10
160.5729295058
 20
133.3624890453
 10
160.6788851859
 20
133.1815652698
 10
160.7766859832
 20
132.9956174476
 10
160.8658871893
 20
132.8055359192
 10
160.9460561637
 20
132.6122619743
 10
161.0169036979
 20
132.4164284481
 10
161.0780602349
 20
132.218857864
 10
161.1291185504
 20
132.0205853715
 10
161.1571967207
 20
131.8837084352
  0
LWPOLYLINE
  5
53A
100
AcDbEntity
  8
RACCORDO
100
AcDbPolyline
 62
253
  6
CONTINUOUS
 90
20
 70
0
 10
158.8443706233
 20
134.8059272002
 10
158.9944651179
 20
134.7442727912
 10
159.1449269094
 20
134.669142982
 10
159.2949504835
 20
134.5809510086
 10
159.4437780343
 20
134.4801534017
 10
159.5906800696
 20
134.3672463836
 10
159.7348860394
 20
134.2428191069
 10
159.87565083
 20
134.1075113244
 10
160.0122972777
 20
133.9619608935
 10
160.1441430107
 20
133.8068657658
 10
160.2704529149
 20
133.6430608059
 10
160.3905085072
 20
133.4714635099
 10
160.5036909422
 20
133.2929518531
 10
160.6093956873
 20
133.1084719915
 10
160.7070028949
 20
132.9191200781
 10
160.7959839373
 20
132.7259711787
 10
160.8759324454
 20
132.5299624748
 10
160.9464831975
 20
132.332016627
 10
161.0072816166
 20
132.1331297777
 10
161.0325272191
 20
132.0341978361
  0
LWPOLYLINE
  5
53B
100
AcDbEntity
  8
RACCORDO
100
AcDbPolyline
 62
7
  6
CONTINUOUS
 90
3
 70
0
 10
158.2518273223
 20
131.826096824
 10
158.2480846948
 20
131.828741722
 10
158.2437823681
 20
131.8304659562
  0
LWPOLYLINE
  5
53C
100
AcDbEntity
  8
RACCORDO
100
AcDbPolyline
 62
253
  6
CONTINUOUS
 90
12
 70
0
 10
158.2437823681
 20
131.8304659562
 10
158.1104949905
 20
131.9502806096
 10
157.9721746157
 20
132.0655961244
 10
157.829158275
 20
132.1761315241
 10
157.6817943811
 20
132.2816175212
 10
157.5304420582
 20
132.3817970436
 10
157.3754702829
 20
132.4764258827
 10
157.217256912
 20
132.5652733587
 10
157.0561872247
 20
132.6481231573
 10
156.8926531447
 20
132.7247736753
 10
156.7270530295
 20
132.7950381463
 10
156.6372702772
 20
132.8292346901
  0
LWPOLYLINE
  5
53D
100
AcDbEntity
  8
RACCORDO
100
AcDbPolyline
 62
7
  6
CONTINUOUS
 90
12
 70
0
 10
158.2452169975
 20
131.8320550182
 10
158.1280210529
 20
131.937861299
 10
157.9937051311
 20
132.0507775235
 10
157.8549728544
 20
132.159165851
 10
157.7121269362
 20
132.2627953846
 10
157.5654778593
 20
132.36144437
 10
157.4153436535
 20
132.454900394
 10
157.2620353991
 20
132.542968517
 10
157.105896848
 20
132.6254482072
 10
156.9473061582
 20
132.702138645
 10
156.7866235232
 20
132.7728667397
 10
156.6519445431
 20
132.8264415585
  0
LINE
  5
53E
100
AcDbEntity
  8
DRAFT
100
AcDbLine
 62
7
  6
CONTINUOUS
 10
158.7761106017
 20
134.7579336361
 11
162.0646600834
 21
130.7883032565
  0
LWPOLYLINE
  5
53F
100
AcDbEntity
  8
COPY_PUBLISH
100
AcDbPolyline
 62
7
  6
CONTINUOUS
 90
9
 70
0
 10
155.4521231362
 20
82.6328673224
 10
155.4696605132
 20
82.6519897801
 10
155.4851849151
 20
82.6729224978
 10
155.498491589
 20
82.6954452385
 10
155.5094107764
 20
82.7193336142
 10
155.517794639
 20
82.7443482986
 10
155.523512438
 20
82.770207752
 10
155.5264666365
 20
82.7965965954
 10
155.5268921177
 20
82.8111298967
  0
LWPOLYLINE
  5
540
100
AcDbEntity
  8
COPY_PUBLISH
100
AcDbPolyline
 62
253
  6
CONTINUOUS
 90
3
 70
0
 10
155.4003175063
 20
82.5942131116
 10
155.3940871451
 20
82.5903935553
 10
155.3910062302
 20
82.5887398655
  0
LWPOLYLINE
  5
541
100
AcDbEntity
  8
COPY_PUBLISH
100
AcDbPolyline
 62
7
  6
CONTINUOUS
 90
4
 70
0
 10
155.3909258908
 20
82.5886986986
 10
155.4118133702
 20
82.6007095456
 10
155.4327784518
 20
82.6157295078
 10
155.4521231362
 20
82.6328673224
  0
LINE
  5
542
100
AcDbEntity
  8
COPY_PUBLISH
100
AcDbLine
 62
253
  6
CONTINUOUS
 10
155.6335338874
 20
84.1338879389
 11
156.3344698412
 21
84.4955651316
  0
LINE
  5
543
100
AcDbEntity
  8
COPY_PUBLISH
100
AcDbLine
 62
7
  6
CONTINUOUS
 10
155.50483474
 20
83.8640849171
 11
156.2066575884
 21
84.2262197401
  0
LINE
  5
544
100
AcDbEntity
  8
COPY_PUBLISH
100
AcDbLine
 62
253
  6
CONTINUOUS
 10
154.9264271062
 20
82.4522926224
 11
155.454694278
 21
82.723303681
  0
LWPOLYLINE
  5
545
100
AcDbEntity
  8
COPY_PUBLISH
100
AcDbPolyline
 62
7
  6
CONTINUOUS
 90
3
 70
0
 10
155.5048248069
 20
83.8640797869
 10
155.5027323219
 20
83.8630163959
 10
155.4912844185
 20
83.8577565732
  0
LINE
  5
546
100
AcDbEntity
  8
COPY_PUBLISH
100
AcDbLine
 62
253
  6
CONTINUOUS
 10
150.9817214979
 20
82.1814588955
 11
155.6335338874
 21
84.1341007864
  0
LINE
  5
547
100
AcDbEntity
  8
COPY_PUBLISH
100
AcDbLine
 62
7
  6
CONTINUOUS
 10
150.8279142525
 20
81.9002631971
 11
155.491266271
 21
83.8577489555
  0
LWPOLYLINE
  5
548
100
AcDbEntity
  8
RACCORDO
100
AcDbPolyline
 62
7
  6
CONTINUOUS
 90
7
 70
0
 10
151.0358100772
 20
140.1641413385
 10
151.1274234614
 20
140.1676122553
 10
151.2197181577
 20
140.1626030499
 10
151.3119223152
 20
140.1489434867
 10
151.402945607
 20
140.1266130925
 10
151.4922491391
 20
140.0955499834
 10
151.5665441367
 20
140.0621232896
  0
LWPOLYLINE
  5
549
100
AcDbEntity
  8
RACCORDO
100
AcDbPolyline
 62
253
  6
CONTINUOUS
 90
9
 70
0
 10
151.1317751575
 20
140.0397080295
 10
151.0705566434
 20
140.0674122546
 10
151.0097099994
 20
140.0882708999
 10
150.9496981566
 20
140.1021252694
 10
150.8909776947
 20
140.1088699568
 10
150.8339953683
 20
140.1084536476
 10
150.7791847081
 20
140.100879509
 10
150.7269627225
 20
140.0862051663
 10
150.6928904071
 20
140.0721109645
  0
LINE
  5
54A
100
AcDbEntity
  8
RACCORDO
100
AcDbLine
 62
253
  6
CONTINUOUS
 10
151.5665441367
 20
140.0621232896
 11
151.5666475015
 21
140.0620716274
  0
LINE
  5
54B
100
AcDbEntity
  8
0
100
AcDbLine
 62
7
  6
CONTINUOUS
 10
158.9908634634
 20
135.7520918557
 11
158.3175965357
 21
136.0887253195
  0
LINE
  5
54C
100
AcDbEntity
  8
RACCORDO
100
AcDbLine
 62
253
  6
CONTINUOUS
 10
158.6798032752
 20
136.2656939706
 11
151.1317751575
 21
140.0397080295
  0
LINE
  5
54D
100
AcDbEntity
  8
RACCORDO
100
AcDbLine
 62
7
  6
CONTINUOUS
 10
159.0205198469
 20
136.3351354547
 11
151.5666480381
 21
140.0620713591
  0
LWPOLYLINE
  5
54E
100
AcDbEntity
  8
RACCORDO
100
AcDbPolyline
 62
253
  6
CONTINUOUS
 90
11
 70
0
 10
165.3473661422
 20
129.528584726
 10
165.3280140362
 20
129.5455082303
 10
165.3036595068
 20
129.5566880121
 10
165.2738177141
 20
129.5628361668
 10
165.2387140941
 20
129.5639062489
 10
165.1986138324
 20
129.5598901748
 10
165.1538198613
 20
129.5508182833
 10
165.1046705709
 20
129.5367591068
 10
165.0515372531
 20
129.5178188535
 10
164.9948212965
 20
129.4941406051
 10
164.9349511545
 20
129.4659032358
  0
LINE
  5
54F
100
AcDbEntity
  8
0
100
AcDbLine
 62
7
  6
CONTINUOUS
 10
163.0788743537
 20
131.0987528764
 11
163.4843567576
 21
130.609292317
  0
LINE
  5
550
100
AcDbEntity
  8
RACCORDO
100
AcDbLine
 62
253
  6
CONTINUOUS
 10
163.8409834822
 20
130.7864390315
 11
164.9349511545
 21
129.4659032358
  0
LINE
  5
551
100
AcDbEntity
  8
RACCORDO
100
AcDbLine
 62
7
  6
CONTINUOUS
 10
164.2533984699
 20
130.8491205216
 11
165.3473661422
 21
129.528584726
  0
LWPOLYLINE
  5
552
100
AcDbEntity
  8
RACCORDO
100
AcDbPolyline
 62
7
  6
CONTINUOUS
 90
9
 70
0
 10
165.3473661422
 20
129.528584726
 10
165.4053282137
 20
129.4513042519
 10
165.4556332162
 20
129.3686631604
 10
165.4977647397
 20
129.2814347936
 10
165.5313125173
 20
129.1903676461
 10
165.5558943279
 20
129.0963839335
 10
165.5712309622
 20
129.000547918
 10
165.57720514
 20
128.9036590058
 10
165.5772899847
 20
128.8905820061
  0
LINE
  5
553
100
AcDbEntity
  8
COPY_PUBLISH
100
AcDbLine
 62
7
  6
CONTINUOUS
 10
154.8623239769
 20
82.3175158622
 11
155.3910062404
 21
82.5887398708
  0
LINE
  5
554
100
AcDbEntity
  8
COPY_PUBLISH
100
AcDbLine
 62
7
  6
CONTINUOUS
 10
154.8623220032
 20
82.3175148496
 11
154.8605855913
 21
82.3166466294
  0
LINE
  5
555
100
AcDbEntity
  8
COPY_PUBLISH
100
AcDbLine
 62
253
  6
CONTINUOUS
 10
153.3251463154
 20
81.6722580227
 11
154.9264271062
 21
82.4522926224
  0
LINE
  5
556
100
AcDbEntity
  8
COPY_PUBLISH
100
AcDbLine
 62
7
  6
CONTINUOUS
 10
153.2588847228
 20
81.5364073966
 11
154.8605828258
 21
82.3166452822
  0
LWPOLYLINE
  5
557
100
AcDbEntity
  8
COPY_PUBLISH
100
AcDbPolyline
 62
7
  6
CONTINUOUS
 90
9
 70
0
 10
153.2588847228
 20
81.5364073966
 10
153.2306630305
 20
81.5247356225
 10
153.2007988541
 20
81.5165001791
 10
153.1697973085
 20
81.511992498
 10
153.1381024702
 20
81.5114145996
 10
153.1064535929
 20
81.5148756976
 10
153.0757015483
 20
81.5222691964
 10
153.0460104032
 20
81.5335403004
 10
153.0374377942
 20
81.5376324161
  0
ELLIPSE
  5
558
100
AcDbEntity
  8
0
100
AcDbEllipse
 62
7
  6
CONTINUOUS
 10
154.9128854274
 20
128.2684282484
 30
0.0
 11
1.5665774194
 21
1.7779781672
 31
0.0
 40
0.4593369217
 41
-0.1359031814
 42
-0.0089756569
  0
ELLIPSE
  5
559
100
AcDbEntity
  8
0
100
AcDbEllipse
 62
7
  6
CONTINUOUS
 10
154.8381410731
 20
127.436275786
 30
0.0
 11
-0.894612936
 21
1.7887945813
 31
0.0
 40
0.6124635976
 41
-2.2555607096
 42
-1.470288718
  0
ELLIPSE
  5
55A
100
AcDbEntity
  8
0
100
AcDbEllipse
 62
7
  6
CONTINUOUS
 10
156.7967395609
 20
131.4608886313
 30
0.0
 11
2.8072689689
 21
-1.7452486865
 31
0.0
 40
0.735634705
 41
-2.2573338485
 42
-2.0844734703
  0
ELLIPSE
  5
55B
100
AcDbEntity
  8
DRAFT
100
AcDbEllipse
 62
7
  6
CONTINUOUS
 10
156.2619642781
 20
130.585043004
 30
0.0
 11
2.335460794
 21
-1.4519527261
 31
0.0
 40
0.7356319767
 41
2.7236315065
 42
3.0534417194
  0
ELLIPSE
  5
55C
100
AcDbEntity
  8
DRAFT
100
AcDbEllipse
 62
7
  6
CONTINUOUS
 10
156.7549849572
 20
130.6311389028
 30
0.0
 11
2.3425905227
 21
-1.4563852685
 31
0.0
 40
0.7356319767
 41
0.1225540232
 42
2.7149048602
  0
ELLIPSE
  5
55D
100
AcDbEntity
  8
RACCORDO
100
AcDbEllipse
 62
7
  6
CONTINUOUS
 10
158.259276448
 20
135.5977231654
 30
0.0
 11
0.7906817197
 21
0.7158929559
 31
0.0
 40
0.2845239558
 41
5.5074570422
 42
7.0608000765
  0
ELLIPSE
  5
55E
100
AcDbEntity
  8
0
100
AcDbEllipse
 62
7
  6
CONTINUOUS
 10
156.7967395609
 20
131.4608886313
 30
0.0
 11
2.8072689689
 21
-1.7452486865
 31
0.0
 40
0.735634705
 41
-3.0539180183
 42
-2.4832047677
  0
ELLIPSE
  5
55F
100
AcDbEntity
  8
0
100
AcDbEllipse
 62
7
  6
CONTINUOUS
 10
156.7967395609
 20
131.4608886313
 30
0.0
 11
2.8072689689
 21
-1.7452486865
 31
0.0
 40
0.735634705
 41
4.4409044707
 42
5.8511225255
  0
ELLIPSE
  5
560
100
AcDbEntity
  8
DRAFT
100
AcDbEllipse
 62
7
  6
CONTINUOUS
 10
156.9317616525
 20
130.9177505552
 30
0.0
 11
2.3425905227
 21
-1.4563852685
 31
0.0
 40
0.7356319767
 41
6.254357008
 42
8.9980901674
  0
ELLIPSE
  5
561
100
AcDbEntity
  8
0
100
AcDbEllipse
 62
7
  6
CONTINUOUS
 10
158.6466027293
 20
131.7337627071
 30
0.0
 11
4.9998954516
 21
-0.7143478698
 31
0.0
 40
0.4777652804
 41
2.526268096
 42
2.89079222
  0
ELLIPSE
  5
562
100
AcDbEntity
  8
COPY_PUBLISH
100
AcDbEllipse
 62
7
  6
CONTINUOUS
 10
149.9368226616
 20
131.5653171571
 30
0.0
 11
0.2257019663
 21
0.4461636818
 31
0.0
 40
0.6159267166
 41
0.5882567743
 42
0.6817883054
  0
ELLIPSE
  5
563
100
AcDbEntity
  8
0
100
AcDbEllipse
 62
7
  6
CONTINUOUS
 10
142.4459894266
 20
130.6947435457
 30
0.0
 11
-0.1118019539
 21
0.2236076158
 31
0.0
 40
0.6123927436
 41
-2.2554911602
 42
-0.6847286794
  0
ELLIPSE
  5
564
100
AcDbEntity
  8
0
100
AcDbEllipse
 62
7
  6
CONTINUOUS
 10
138.839745411
 20
132.4978662497
 30
0.0
 11
-0.1118022285
 21
0.2236074604
 31
0.0
 40
0.6123888851
 41
-2.2554925751
 42
-0.6847300943
  0
ELLIPSE
  5
565
100
AcDbEntity
  8
RACCORDO
100
AcDbEllipse
 62
7
  6
CONTINUOUS
 10
153.6251235493
 20
130.7009445541
 30
0.0
 11
0.3999973696
 21
0.0028706912
 31
0.0
 40
0.5053247124
 41
-0.7715714568
 42
-0.0036968812
  0
ELLIPSE
  5
566
100
AcDbEntity
  8
COPY_PUBLISH
100
AcDbEllipse
 62
7
  6
CONTINUOUS
 10
133.3881655782
 20
135.5231817762
 30
0.0
 11
-0.0909679979
 21
0.1781462259
 31
0.0
 40
0.6079022756
 41
-0.6898048156
 42
-0.0128207073
  0
ELLIPSE
  5
567
100
AcDbEntity
  8
COPY_PUBLISH
100
AcDbEllipse
 62
7
  6
CONTINUOUS
 10
149.2980681549
 20
127.5682304878
 30
0.0
 11
-0.0909679979
 21
0.1781462259
 31
0.0
 40
0.6079022756
 41
-0.6898048156
 42
-0.0128207073
  0
ELLIPSE
  5
568
100
AcDbEntity
  8
0
100
AcDbEllipse
 62
7
  6
CONTINUOUS
 10
137.1426939826
 20
133.3463919639
 30
0.0
 11
-0.1118076343
 21
0.2236122655
 31
0.0
 40
0.6123559867
 41
-0.6847083111
 42
0.0051595633
  0
ELLIPSE
  5
569
100
AcDbEntity
  8
COPY_PUBLISH
100
AcDbEllipse
 62
7
  6
CONTINUOUS
 10
155.9809029879
 20
84.6723705421
 30
0.0
 11
-0.2236315662
 21
0.4472293059
 31
0.0
 40
0.6123445654
 41
-3.1338150222
 42
-2.2555748796
  0
ELLIPSE
  5
56A
100
AcDbEntity
  8
COPY_PUBLISH
100
AcDbEllipse
 62
7
  6
CONTINUOUS
 10
155.9809029879
 20
122.5941917949
 30
0.0
 11
-0.223611546
 21
0.4472115081
 31
0.0
 40
0.6124054886
 41
-2.2555017776
 42
-0.6847562194
  0
ELLIPSE
  5
56B
100
AcDbEntity
  8
0
100
AcDbEllipse
 62
7
  6
CONTINUOUS
 10
140.7489391351
 20
131.5432686914
 30
0.0
 11
-0.1118086278
 21
0.2236135481
 31
0.0
 40
0.6123521284
 41
-0.6847097256
 42
0.005842349
  0
ELLIPSE
  5
56C
100
AcDbEntity
  8
COPY_PUBLISH
100
AcDbEllipse
 62
7
  6
CONTINUOUS
 10
147.5888850179
 20
128.4228220563
 30
0.0
 11
-0.090948378
 21
0.1781282571
 31
0.0
 40
0.6080538059
 41
-2.2606249166
 42
-0.6898793584
  0
ELLIPSE
  5
56D
100
AcDbEntity
  8
COPY_PUBLISH
100
AcDbEllipse
 62
7
  6
CONTINUOUS
 10
131.6789824412
 20
136.3777733447
 30
0.0
 11
-0.090948378
 21
0.1781282571
 31
0.0
 40
0.6080538059
 41
-2.2606249166
 42
-0.6898793584
  0
ELLIPSE
  5
56E
100
AcDbEntity
  8
COPY_PUBLISH
100
AcDbEllipse
 62
7
  6
CONTINUOUS
 10
139.638893881
 20
136.7142815474
 30
0.0
 11
0.2273952932
 21
0.4453119217
 31
0.0
 40
0.6079814556
 41
0.2357074224
 42
0.6840559135
  0
ELLIPSE
  5
56F
100
AcDbEntity
  8
RACCORDO
100
AcDbEllipse
 62
7
  6
CONTINUOUS
 10
149.9086487777
 20
132.4286033156
 30
0.0
 11
0.4611106279
 21
0.8874277709
 31
0.0
 40
0.6132606596
 41
0.0093968541
 42
0.6884439928
  0
ELLIPSE
  5
570
100
AcDbEntity
  8
COPY_PUBLISH
100
AcDbEllipse
 62
7
  6
CONTINUOUS
 10
123.9597805588
 20
137.3950880848
 30
0.0
 11
0.249929385
 21
0.0111824824
 31
0.0
 40
0.5313301283
 41
3.1178205092
 42
3.9032222197
  0
ELLIPSE
  5
571
100
AcDbEntity
  8
COPY_PUBLISH
100
AcDbEllipse
 62
7
  6
CONTINUOUS
 10
136.2634385515
 20
131.2432590885
 30
0.0
 11
0.249929385
 21
0.0111824824
 31
0.0
 40
0.5313301283
 41
3.1178205092
 42
3.9032222197
  0
ELLIPSE
  5
572
100
AcDbEntity
  8
COPY_PUBLISH
100
AcDbEllipse
 62
7
  6
CONTINUOUS
 10
137.9512338891
 20
130.3993614197
 30
0.0
 11
0.249929385
 21
0.0111824824
 31
0.0
 40
0.5313301283
 41
-2.3799630874
 42
-0.8144027484
  0
ELLIPSE
  5
573
100
AcDbEntity
  8
COPY_PUBLISH
100
AcDbEllipse
 62
7
  6
CONTINUOUS
 10
125.6475758965
 20
136.551190416
 30
0.0
 11
0.249929385
 21
0.0111824824
 31
0.0
 40
0.5313301283
 41
-2.3799630874
 42
-0.8144027484
  0
ELLIPSE
  5
574
100
AcDbEntity
  8
COPY_PUBLISH
100
AcDbEllipse
 62
7
  6
CONTINUOUS
 10
129.1536190974
 20
136.737726172
 30
0.0
 11
0.0907039967
 21
0.1782526758
 31
0.0
 40
0.6176975122
 41
0.6943133722
 42
2.2598737113
  0
ELLIPSE
  5
575
100
AcDbEntity
  8
RACCORDO
100
AcDbEllipse
 62
7
  6
CONTINUOUS
 10
145.6606484547
 20
134.5526034771
 30
0.0
 11
0.4333294968
 21
0.9013190487
 31
0.0
 40
0.6112995842
 41
5.3876326243
 42
6.9526111869
  0
ELLIPSE
  5
576
100
AcDbEntity
  8
COPY_PUBLISH
100
AcDbEllipse
 62
7
  6
CONTINUOUS
 10
139.8701979423
 20
129.4398793931
 30
0.0
 11
0.249929385
 21
0.0111824824
 31
0.0
 40
0.5313301283
 41
3.1178197826
 42
3.9032222197
  0
ELLIPSE
  5
577
100
AcDbEntity
  8
COPY_PUBLISH
100
AcDbEllipse
 62
7
  6
CONTINUOUS
 10
141.5569636665
 20
128.596496531
 30
0.0
 11
0.249929385
 21
0.0111824824
 31
0.0
 40
0.5313301283
 41
-2.3799630874
 42
-0.8149845248
  0
ELLIPSE
  5
578
100
AcDbEntity
  8
COPY_PUBLISH
100
AcDbEllipse
 62
7
  6
CONTINUOUS
 10
152.1738559349
 20
123.2880503968
 30
0.0
 11
0.249929385
 21
0.0111824824
 31
0.0
 40
0.5313301283
 41
3.1178197826
 42
3.9032222197
  0
ELLIPSE
  5
579
100
AcDbEntity
  8
COPY_PUBLISH
100
AcDbEllipse
 62
7
  6
CONTINUOUS
 10
153.8606216591
 20
122.4446675347
 30
0.0
 11
0.249929385
 21
0.0111824824
 31
0.0
 40
0.5313301283
 41
-2.3799630874
 42
-0.8149845248
  0
ELLIPSE
  5
57A
100
AcDbEntity
  8
COPY_PUBLISH
100
AcDbEllipse
 62
7
  6
CONTINUOUS
 10
145.0635216741
 20
128.7826231721
 30
0.0
 11
0.0907039967
 21
0.1782526758
 31
0.0
 40
0.6176975122
 41
0.6948951487
 42
2.2598737113
  0
ELLIPSE
  5
57B
100
AcDbEntity
  8
COPY_PUBLISH
100
AcDbEllipse
 62
7
  6
CONTINUOUS
 10
146.6867764721
 20
126.7464587152
 30
0.0
 11
0.199943508
 21
0.008945986
 31
0.0
 40
0.5313301283
 41
-2.3799630874
 42
-0.8178934069
  0
ELLIPSE
  5
57C
100
AcDbEntity
  8
COPY_PUBLISH
100
AcDbEllipse
 62
7
  6
CONTINUOUS
 10
148.3875460136
 20
125.8960739444
 30
0.0
 11
0.199943508
 21
0.008945986
 31
0.0
 40
0.5313301283
 41
3.1178161785
 42
3.9032222197
  0
ELLIPSE
  5
57D
100
AcDbEntity
  8
COPY_PUBLISH
100
AcDbEllipse
 62
7
  6
CONTINUOUS
 10
130.7768738954
 20
134.7014100035
 30
0.0
 11
0.199943508
 21
0.008945986
 31
0.0
 40
0.5313301283
 41
-2.3799630874
 42
-0.8178934069
  0
ELLIPSE
  5
57E
100
AcDbEntity
  8
COPY_PUBLISH
100
AcDbEllipse
 62
7
  6
CONTINUOUS
 10
132.4776434369
 20
133.8510252328
 30
0.0
 11
0.199943508
 21
0.008945986
 31
0.0
 40
0.5313301283
 41
3.1178161785
 42
3.9032222197
  0
ELLIPSE
  5
57F
100
AcDbEntity
  8
COPY_PUBLISH
100
AcDbEllipse
 62
7
  6
CONTINUOUS
 10
150.5563918144
 20
131.2555325807
 30
0.0
 11
0.2197467797
 21
0.4491356978
 31
0.0
 40
0.6167074461
 41
0.2252343201
 42
0.6735828111
  0
ELLIPSE
  5
580
100
AcDbEntity
  8
COPY_PUBLISH
100
AcDbEllipse
 62
7
  6
CONTINUOUS
 10
150.2905746478
 20
173.3868066467
 30
0.0
 11
-0.3192264997
 21
45.1189143812
 31
0.0
 40
0.0071249215
 41
-2.8357121276
 42
-2.7477165211
  0
ELLIPSE
  5
581
100
AcDbEntity
  8
COPY_PUBLISH
100
AcDbEllipse
 62
7
  6
CONTINUOUS
 10
189.3614169633
 20
160.9780046353
 30
0.0
 11
60.4168605605
 21
30.5632322457
 31
0.0
 40
0.005706723
 41
2.5167363259
 42
2.6876789752
  0
ELLIPSE
  5
582
100
AcDbEntity
  8
COPY_PUBLISH
100
AcDbEllipse
 62
7
  6
CONTINUOUS
 10
140.2584630338
 20
136.404496971
 30
0.0
 11
0.221538876
 21
0.4482453432
 31
0.0
 40
0.6088015717
 41
0.5825560023
 42
0.6760875334
  0
ELLIPSE
  5
583
100
AcDbEntity
  8
COPY_PUBLISH
100
AcDbEllipse
 62
7
  6
CONTINUOUS
 10
189.3614169633
 20
160.9780046353
 30
0.0
 11
60.4168605605
 21
30.5632322457
 31
0.0
 40
0.005706723
 41
-2.6934527084
 42
-2.5225100591
  0
ELLIPSE
  5
584
100
AcDbEntity
  8
0
100
AcDbEllipse
 62
7
  6
CONTINUOUS
 10
205.27131954
 20
153.0230533469
 30
0.0
 11
60.4168605605
 21
30.5632322457
 31
0.0
 40
0.005706723
 41
-2.6934527084
 42
-2.667453544
  0
ELLIPSE
  5
585
100
AcDbEntity
  8
0
100
AcDbEllipse
 62
7
  6
CONTINUOUS
 10
205.27131954
 20
153.0230533469
 30
0.0
 11
60.4168605605
 21
30.5632322457
 31
0.0
 40
0.005706723
 41
2.6616798108
 42
2.6876789752
  0
ENDSEC
  0
SECTION
  2
OBJECTS
  0
DICTIONARY
  5
C
100
AcDbDictionary
280
0
281
1
  3
ACAD_GROUP
350
D
  3
ACAD_MLINESTYLE
350
17
  3
ACAD_LAYOUT
350
1A
  3
ACAD_PLOTSETTINGS
350
19
  3
ACAD_PLOTSTYLENAME
350
E
  0
DICTIONARY
  5
D
102
{ACAD_REACTORS
330
C
102
}
100
AcDbDictionary
280
0
281
1
  0
ACDBDICTIONARYWDFLT
  5
E
102
{ACAD_REACTORS
330
C
102
}
100
AcDbDictionary
281
1
  3
Normal
350
F
100
AcDbDictionaryWithDefault
340
F
  0
DICTIONARY
  5
17
102
{ACAD_REACTORS
330
C
102
}
100
AcDbDictionary
280
0
281
1
  3
Standard
350
18
  0
DICTIONARY
  5
19
102
{ACAD_REACTORS
330
C
102
}
100
AcDbDictionary
281
1
  0
DICTIONARY
  5
1A
102
{ACAD_REACTORS
330
C
102
}
100
AcDbDictionary
281
1
  3
Model
350
586
  3
Layout1
350
587
  0
ACDBPLACEHOLDER
  5
F
102
{ACAD_REACTORS
330
E
102
}
  0
MLINESTYLE
  5
18
102
{ACAD_REACTORS
330
17
102
}
100
AcDbMlineStyle
  2
STANDARD
 70
0
  3

 62
256
 51
90.0
 52
90.0
 71
2
 49
0.5
 62
256
  6
BYLAYER
 49
-0.5
 62
256
  6
BYLAYER
  0
LAYOUT
  5
586
102
{ACAD_REACTORS
330
1A
102
}
100
AcDbPlotSettings
  1

  2
none_device
  4
ISO_A4_(297.00_x_210.00_MM)
  6

 40
0.0
 41
0.0
 42
0.0
 43
0.0
 44
297.0
 45
210.0
 46
0.0
 47
0.0
 48
0.0
 49
0.0
140
0.0
141
0.0
142
1.0
143
1.0
 70
1024
 72
1
 73
0
 74
0
  7

 75
0
147
1.0
148
0.0
149
0.0
100
AcDbLayout
  1
Model
 70
0
 71
0
 10
0.0
 20
0.0
 11
297.0
 21
210.0
 12
0.0
 22
0.0
 32
0.0
 14
0.0
 24
0.0
 34
0.0
 15
0.0
 25
0.0
 35
0.0
146
0.0
 13
0.0
 23
0.0
 33
0.0
 16
1.0
 26
0.0
 36
0.0
 17
0.0
 27
1.0
 37
0.0
 76
0
330
214
345
0
346
0
  0
LAYOUT
  5
587
102
{ACAD_REACTORS
330
1A
102
}
100
AcDbPlotSettings
  1

  2
none_device
  4
ISO_A4_(297.00_x_210.00_MM)
  6

 40
0.0
 41
0.0
 42
0.0
 43
0.0
 44
297.0
 45
210.0
 46
0.0
 47
0.0
 48
0.0
 49
0.0
140
0.0
141
0.0
142
1.0
143
1.0
 70
0
 72
1
 73
0
 74
0
  7

 75
0
147
1.0
148
0.0
149
0.0
100
AcDbLayout
  1
Layout1
 70
0
 71
1
 10
0.0
 20
0.0
 11
297.0
 21
210.0
 12
0.0
 22
0.0
 32
0.0
 14
0.0
 24
0.0
 34
0.0
 15
0.0
 25
0.0
 35
0.0
146
0.0
 13
0.0
 23
0.0
 33
0.0
 16
1.0
 26
0.0
 36
0.0
 17
0.0
 27
1.0
 37
0.0
 76
0
330
215
345
0
346
0
  0
ENDSEC
  0
EOF
