  0
SECTION
  2
HEADER
  9
$ACADVER
  1
AC1015
  9
$DWGCODEPAGE
  3
ANSI_1252
  9
$EXTMAX
 10
558.8
 20
431.8
 30
0.0
  9
$EXTMIN
 10
0.0
 20
0.0
 30
0.0
  9
$LIMMIN
 10
0.0
 20
0.0
  9
$LIMMAX
 10
558.8
 20
431.8
  9
$VIEWCTR
 10
279.4
 20
215.9
  9
$VIEWSIZE
 40
431.8
  9
$CLAYER
  8
0
  9
$LTSCALE
 40
30.734
  9
$CELTYPE
  6
BYLAYER
  9
$DIMSCALE
 40
1.0
  9
$DIMASZ
 40
3.0
  9
$DIMEXO
 40
3.4925
  9
$DIMDLI
 40
21.2344
  9
$DIMEXE
 40
10.0584
  9
$DIMCEN
 40
5.0292
  9
$DIMLFAC
 40
1.0
  9
$DIMBLK
  1
_FILLED
  9
$DIMTXT
 40
3.0
  9
$DIMTOL
 70
1
  9
$DIMLIM
 70
0
  9
$DIMTFAC
 40
1.0
  9
$DIMTP
 40
0.01
  9
$DIMTM
 40
0.01
  9
$PDMODE
 70
3
  9
$PDSIZE
 40
3.0
  9
$HANDSEED
  5
556
  9
$TILEMODE
 70
1
  9
$MEASUREMENT
 70
1
  9
$INSUNITS
 70
4
  0
ENDSEC
  0
SECTION
  2
CLASSES
  0
CLASS
  1
ACDBDICTIONARYWDFLT
  2
AcDbDictionaryWithDefault
  3
AutoCAD 2000
 90
0
280
0
281
0
  0
CLASS
  1
ACDBPLACEHOLDER
  2
AcDbPlaceHolder
  3
AutoCAD 2000
 90
0
280
0
281
0
  0
CLASS
  1
LAYOUT
  2
AcDbLayout
  3
AutoCAD 2000
 90
0
280
0
281
0
  0
ENDSEC
  0
SECTION
  2
TABLES
  0
TABLE
  2
VPORT
  5
8
100
AcDbSymbolTable
 70
2
  0
VPORT
  5
1F4
100
AcDbSymbolTableRecord
100
AcDbViewportTableRecord
  2
*ACTIVE
 70
0
 10
0.0
 20
0.0
 11
1.0
 21
1.0
 12
279.4
 22
215.9
 13
0.0
 23
0.0
 14
1.0
 24
1.0
 15
0.0
 25
0.0
 16
0.0
 26
0.0
 36
1.0
 17
0.0
 27
0.0
 37
0.0
 40
431.8
 41
1.2941176471
 42
50.0
 43
0.0
 44
0.0
 50
0.0
 51
0.0
 71
0
 72
100
 73
1
 74
1
 75
0
 76
0
 77
0
 78
0
  0
ENDTAB
  0
TABLE
  2
LTYPE
  5
5
100
AcDbSymbolTable
 70
6
  0
LTYPE
  5
14
100
AcDbSymbolTableRecord
100
AcDbLinetypeTableRecord
  2
BYBLOCK
 70
0
  3

 72
65
 73
0
 40
0.0
  0
LTYPE
  5
15
100
AcDbSymbolTableRecord
100
AcDbLinetypeTableRecord
  2
BYLAYER
 70
0
  3

 72
65
 73
0
 40
0.0
  0
LTYPE
  5
16
100
AcDbSymbolTableRecord
100
AcDbLinetypeTableRecord
  2
CONTINUOUS
 70
64
  3
Solid line
 72
65
 73
0
 40
0.0
  0
LTYPE
  5
1F5
100
AcDbSymbolTableRecord
100
AcDbLinetypeTableRecord
  2
CENTER
 70
64
  3
____ _ ____ _ ____ _ ____ _ ____ _ ____ _ ____
 72
65
 73
4
 40
0.6
 49
0.375
 74
0
 49
-0.075
 74
0
 49
0.075
 74
0
 49
-0.075
 74
0
  0
LTYPE
  5
1F6
100
AcDbSymbolTableRecord
100
AcDbLinetypeTableRecord
  2
HIDDEN
 70
64
  3
- - - - - - - - - - - - - - - - - - - -
 72
65
 73
2
 40
0.2
 49
0.1
 74
0
 49
-0.1
 74
0
  0
LTYPE
  5
1F7
100
AcDbSymbolTableRecord
100
AcDbLinetypeTableRecord
  2
PHANTOM
 70
64
  3
_____ _ _ _____ _ _ _____ _ _ _____
 72
65
 73
6
 40
0.8
 49
0.45
 74
0
 49
-0.05
 74
0
 49
0.1
 74
0
 49
-0.05
 74
0
 49
0.1
 74
0
 49
-0.05
 74
0
  0
LTYPE
  5
1F8
100
AcDbSymbolTableRecord
100
AcDbLinetypeTableRecord
  2
DOT
 70
64
  3
. . . . . . . . . . . . . . . . . . . .
 72
65
 73
2
 40
0.2
 49
0.1
 74
0
 49
-0.1
 74
0
  0
LTYPE
  5
1F9
100
AcDbSymbolTableRecord
100
AcDbLinetypeTableRecord
  2
DASHED
 70
64
  3
- - - - - - - - - - - - - - - - - - - -
 72
65
 73
2
 40
0.2
 49
0.1
 74
0
 49
-0.1
 74
0
  0
ENDTAB
  0
TABLE
  2
LAYER
  5
2
100
AcDbSymbolTable
 70
36
  0
LAYER
  5
10
100
AcDbSymbolTableRecord
100
AcDbLayerTableRecord
  2
0
 70
0
 62
7
  6
CONTINUOUS
370
-3
390
F
  0
LAYER
  5
1FA
100
AcDbSymbolTableRecord
100
AcDbLayerTableRecord
  2
DEFAULT_1
 70
0
 62
7
  6
CENTER
370
-3
390
F
  0
LAYER
  5
1FB
100
AcDbSymbolTableRecord
100
AcDbLayerTableRecord
  2
DEFAULT_2
 70
0
 62
7
  6
HIDDEN
370
-3
390
F
  0
LAYER
  5
1FC
100
AcDbSymbolTableRecord
100
AcDbLayerTableRecord
  2
DEFAULT_3
 70
0
 62
7
  6
PHANTOM
370
-3
390
F
  0
LAYER
  5
1FD
100
AcDbSymbolTableRecord
100
AcDbLayerTableRecord
  2
ASSI
 70
0
 62
7
  6
CONTINUOUS
370
-3
390
F
  0
LAYER
  5
1FE
100
AcDbSymbolTableRecord
100
AcDbLayerTableRecord
  2
COORDINATE
 70
0
 62
7
  6
CONTINUOUS
370
-3
390
F
  0
LAYER
  5
1FF
100
AcDbSymbolTableRecord
100
AcDbLayerTableRecord
  2
COORD_ORIGINE
 70
0
 62
7
  6
CONTINUOUS
370
-3
390
F
  0
LAYER
  5
200
100
AcDbSymbolTableRecord
100
AcDbLayerTableRecord
  2
COPY_PUBLISH
 70
0
 62
7
  6
CONTINUOUS
370
-3
390
F
  0
LAYER
  5
201
100
AcDbSymbolTableRecord
100
AcDbLayerTableRecord
  2
COSMETIC
 70
0
 62
7
  6
CONTINUOUS
370
-3
390
F
  0
LAYER
  5
202
100
AcDbSymbolTableRecord
100
AcDbLayerTableRecord
  2
CURVE
 70
0
 62
7
  6
CONTINUOUS
370
-3
390
F
  0
LAYER
  5
203
100
AcDbSymbolTableRecord
100
AcDbLayerTableRecord
  2
DRAFT
 70
0
 62
7
  6
CONTINUOUS
370
-3
390
F
  0
LAYER
  5
204
100
AcDbSymbolTableRecord
100
AcDbLayerTableRecord
  2
IMPORT_IGES
 70
0
 62
7
  6
CONTINUOUS
370
-3
390
F
  0
LAYER
  5
205
100
AcDbSymbolTableRecord
100
AcDbLayerTableRecord
  2
NOTE
 70
0
 62
7
  6
CONTINUOUS
370
-3
390
F
  0
LAYER
  5
206
100
AcDbSymbolTableRecord
100
AcDbLayerTableRecord
  2
PIANI
 70
0
 62
7
  6
CONTINUOUS
370
-3
390
F
  0
LAYER
  5
207
100
AcDbSymbolTableRecord
100
AcDbLayerTableRecord
  2
PIANI_ORIGINE
 70
0
 62
7
  6
CONTINUOUS
370
-3
390
F
  0
LAYER
  5
208
100
AcDbSymbolTableRecord
100
AcDbLayerTableRecord
  2
PIANI_RIFERIMENTO
 70
0
 62
7
  6
CONTINUOUS
370
-3
390
F
  0
LAYER
  5
209
100
AcDbSymbolTableRecord
100
AcDbLayerTableRecord
  2
PIANI_SFORMI
 70
0
 62
7
  6
CONTINUOUS
370
-3
390
F
  0
LAYER
  5
20A
100
AcDbSymbolTableRecord
100
AcDbLayerTableRecord
  2
PUNTI
 70
0
 62
7
  6
CONTINUOUS
370
-3
390
F
  0
LAYER
  5
20B
100
AcDbSymbolTableRecord
100
AcDbLayerTableRecord
  2
RACCORDO
 70
0
 62
7
  6
CONTINUOUS
370
-3
390
F
  0
LAYER
  5
20C
100
AcDbSymbolTableRecord
100
AcDbLayerTableRecord
  2
SKEL
 70
0
 62
7
  6
CONTINUOUS
370
-3
390
F
  0
LAYER
  5
20D
100
AcDbSymbolTableRecord
100
AcDbLayerTableRecord
  2
SMUSSO
 70
0
 62
7
  6
CONTINUOUS
370
-3
390
F
  0
LAYER
  5
20E
100
AcDbSymbolTableRecord
100
AcDbLayerTableRecord
  2
SUPERFICI
 70
0
 62
7
  6
CONTINUOUS
370
-3
390
F
  0
LAYER
  5
20F
100
AcDbSymbolTableRecord
100
AcDbLayerTableRecord
  2
TRASH
 70
0
 62
7
  6
CONTINUOUS
370
-3
390
F
  0
LAYER
  5
210
100
AcDbSymbolTableRecord
100
AcDbLayerTableRecord
  2
XSEC_DATUMS
 70
0
 62
7
  6
CONTINUOUS
370
-3
390
F
  0
ENDTAB
  0
TABLE
  2
STYLE
  5
3
100
AcDbSymbolTable
 70
1
  0
STYLE
  5
11
100
AcDbSymbolTableRecord
100
AcDbTextStyleTableRecord
  2
STANDARD
 70
0
 40
0.0
 41
0.8
 50
0.0
 71
0
 42
0.2
  3
txt
  4

  0
STYLE
  5
211
100
AcDbSymbolTableRecord
100
AcDbTextStyleTableRecord
  2
TEXTSTYLE_1
 70
0
 40
0.0
 41
0.8
 50
0.0
 71
0
 42
0.2
  3
gdt
  4

  0
ENDTAB
  0
TABLE
  2
VIEW
  5
6
100
AcDbSymbolTable
 70
0
  0
ENDTAB
  0
TABLE
  2
UCS
  5
7
100
AcDbSymbolTable
 70
0
  0
ENDTAB
  0
TABLE
  2
APPID
  5
9
100
AcDbSymbolTable
 70
1
  0
APPID
  5
212
100
AcDbSymbolTableRecord
100
AcDbRegAppTableRecord
  2
ACAD
 70
0
  0
ENDTAB
  0
TABLE
  2
BLOCK_RECORD
  5
1
100
AcDbSymbolTable
 70
0
  0
BLOCK_RECORD
  5
213
100
AcDbSymbolTableRecord
100
AcDbBlockTableRecord
  2
*Model_Space
  0
BLOCK_RECORD
  5
214
100
AcDbSymbolTableRecord
100
AcDbBlockTableRecord
  2
*Paper_Space
  0
ENDTAB
  0
TABLE
  2
DIMSTYLE
  5
A
100
AcDbSymbolTable
 70
1
100
AcDbDimStyleTable
 71
0
  0
DIMSTYLE
105
215
100
AcDbSymbolTableRecord
100
AcDbDimStyleTableRecord
  2
STANDARD
 70
0
  3

  4

 40
1.0
 41
3.0
 42
0.0625
 43
0.38
 44
0.18
 45
0.0
 46
0.0
 47
0.01
 48
0.01
140
3.0
141
0.09
142
0.0
143
25.4
144
1.0
145
0.0
146
1.0
147
0.09
 71
1.0
 72
0.0
 73
0
 74
0
 75
0
 76
0
 77
1
 78
8
170
0
171
2
172
0
173
0
174
0
175
0
176
0
177
0
178
0
270
2
271
2
272
2
273
2
274
2
275
0
280
0
281
0
282
0
283
1
284
8
285
0
286
0
287
3
288
0
340
11
  0
ENDTAB
  0
ENDSEC
  0
SECTION
  2
BLOCKS
  0
BLOCK
  5
20
100
AcDbEntity
  8
0
100
AcDbBlockBegin
  2
*Model_Space
 70
0
 10
0.0
 20
0.0
 30
0.0
  3
*Model_Space
  1

  0
ENDBLK
  5
21
100
AcDbEntity
  8
0
100
AcDbBlockEnd
  0
BLOCK
  5
1C
100
AcDbEntity
  8
0
100
AcDbBlockBegin
  2
*Paper_Space
 70
0
 10
0.0
 20
0.0
 30
0.0
  3
*Paper_Space
  1

  0
ENDBLK
  5
1D
100
AcDbEntity
  8
0
100
AcDbBlockEnd
  0
ENDSEC
  0
SECTION
  2
ENTITIES
  0
LWPOLYLINE
  5
216
100
AcDbEntity
  8
RACCORDO
100
AcDbPolyline
 62
7
  6
CONTINUOUS
 90
9
 70
0
 10
-15.5937098234
 20
20.0788885137
 10
-15.6518764918
 20
20.0378702813
 10
-15.7085998587
 20
19.9919291428
 10
-15.7635638999
 20
19.9413750617
 10
-15.8164124752
 20
19.8865952327
 10
-15.8668554779
 20
19.827944129
 10
-15.9146109391
 20
19.7657971641
 10
-15.9593442503
 20
19.7006402185
 10
-16.000787336
 20
19.6329274662
  0
LWPOLYLINE
  5
217
100
AcDbEntity
  8
0
100
AcDbPolyline
 62
7
  6
CONTINUOUS
 90
14
 70
0
 10
-16.5659701956
 20
20.5468841566
 10
-16.6294466918
 20
20.5064349147
 10
-16.6954069252
 20
20.4565809875
 10
-16.7582640646
 20
20.4007359121
 10
-16.8177186954
 20
20.3392623651
 10
-16.8730560411
 20
20.2730534795
 10
-16.9242279825
 20
20.2023215024
 10
-16.9710475889
 20
20.1273186858
 10
-17.0127391852
 20
20.049329073
 10
-17.0491920581
 20
19.9686464653
 10
-17.0802231201
 20
19.8855247428
 10
-17.105267179
 20
19.8013431839
 10
-17.1241517376
 20
19.7167041908
 10
-17.1364124267
 20
19.6349636366
  0
LINE
  5
218
100
AcDbEntity
  8
RACCORDO
100
AcDbLine
 62
7
  6
CONTINUOUS
 10
-15.529453079
 20
20.1174231263
 11
-15.5937098234
 21
20.0788885137
  0
LINE
  5
219
100
AcDbEntity
  8
0
100
AcDbLine
 62
7
  6
CONTINUOUS
 10
-16.5661442043
 20
20.5467829451
 11
-12.5343189572
 21
22.897706351
  0
LINE
  5
21A
100
AcDbEntity
  8
0
100
AcDbLine
 62
253
  6
CONTINUOUS
 10
-16.3327901567
 20
20.538015552
 11
-12.4266082198
 21
22.8156774
  0
LINE
  5
21B
100
AcDbEntity
  8
RACCORDO
100
AcDbLine
 62
253
  6
CONTINUOUS
 10
-15.7355379721
 20
20.2393894597
 11
-14.3086993004
 21
21.0183426302
  0
LINE
  5
21C
100
AcDbEntity
  8
RACCORDO
100
AcDbLine
 62
7
  6
CONTINUOUS
 10
-15.5294970149
 20
20.1173992023
 11
-14.1044022464
 21
20.8954003248
  0
LINE
  5
21D
100
AcDbEntity
  8
RACCORDO
100
AcDbLine
 62
253
  6
CONTINUOUS
 10
-15.4852803944
 20
20.1142606708
 11
-14.0584417227
 21
20.8932138414
  0
LINE
  5
21E
100
AcDbEntity
  8
0
100
AcDbLine
 62
7
  6
CONTINUOUS
 10
-12.9937152795
 20
23.9122663332
 11
-11.4105435846
 21
24.7244633805
  0
LINE
  5
21F
100
AcDbEntity
  8
0
100
AcDbLine
 62
253
  6
CONTINUOUS
 10
-12.8806296134
 20
23.9058183581
 11
-11.2978730102
 21
24.7178024554
  0
LINE
  5
220
100
AcDbEntity
  8
0
100
AcDbLine
 62
253
  6
CONTINUOUS
 10
-12.9937152693
 20
23.9122663385
 11
-12.9935426485
 21
23.9123546712
  0
LINE
  5
221
100
AcDbEntity
  8
0
100
AcDbLine
 62
253
  6
CONTINUOUS
 10
-11.202091543
 20
23.0665493229
 11
-9.6008107521
 21
23.8692713264
  0
LINE
  5
222
100
AcDbEntity
  8
0
100
AcDbLine
 62
253
  6
CONTINUOUS
 10
-11.0253178393
 20
22.761659784
 11
-9.4240370484
 21
23.5643817875
  0
LINE
  5
223
100
AcDbEntity
  8
0
100
AcDbLine
 62
7
  6
CONTINUOUS
 10
-11.4105416148
 20
24.7244643911
 11
-11.4088051974
 21
24.7253326141
  0
LINE
  5
224
100
AcDbEntity
  8
0
100
AcDbLine
 62
253
  6
CONTINUOUS
 10
-9.6008107521
 20
23.8692713264
 11
-9.0725435804
 21
24.1327101464
  0
LINE
  5
225
100
AcDbEntity
  8
0
100
AcDbLine
 62
253
  6
CONTINUOUS
 10
-9.4240370484
 20
23.5643817875
 11
-8.8957698767
 21
23.8278206076
  0
LINE
  5
226
100
AcDbEntity
  8
0
100
AcDbLine
 62
7
  6
CONTINUOUS
 10
-11.4088024335
 20
24.7253339605
 11
-10.8739352426
 21
24.985884713
  0
LINE
  5
227
100
AcDbEntity
  8
0
100
AcDbLine
 62
253
  6
CONTINUOUS
 10
-11.2978730102
 20
24.7178024554
 11
-10.7634231315
 21
24.978149922
  0
LWPOLYLINE
  5
228
100
AcDbEntity
  8
RACCORDO
100
AcDbPolyline
 62
7
  6
CONTINUOUS
 90
5
 70
0
 10
-16.0969598452
 20
19.4288056679
 10
-16.1215303675
 20
19.3592195767
 10
-16.1425533957
 20
19.2890964543
 10
-16.1598814796
 20
19.2188447069
 10
-16.1733983282
 20
19.1488387073
  0
LWPOLYLINE
  5
229
100
AcDbEntity
  8
RACCORDO
100
AcDbPolyline
 62
7
  6
CONTINUOUS
 90
3
 70
0
 10
-16.0379397855
 20
19.5646079242
 10
-16.0689982534
 20
19.4974748369
 10
-16.0969598452
 20
19.4288056679
  0
LINE
  5
22A
100
AcDbEntity
  8
RACCORDO
100
AcDbLine
 62
7
  6
CONTINUOUS
 10
-16.000787336
 20
19.6329274662
 11
-16.0379397862
 21
19.5646079222
  0
LINE
  5
22B
100
AcDbEntity
  8
0
100
AcDbLine
 62
253
  6
CONTINUOUS
 10
-9.4240370484
 20
22.8373369351
 11
-8.8957698767
 21
23.4802890908
  0
LINE
  5
22C
100
AcDbEntity
  8
0
100
AcDbLine
 62
7
  6
CONTINUOUS
 10
-9.4240370484
 20
22.7478064687
 11
-8.8804093043
 21
23.4094539243
  0
LINE
  5
22D
100
AcDbEntity
  8
0
100
AcDbLine
 62
7
  6
CONTINUOUS
 10
-9.4240370484
 20
21.9622311266
 11
-10.3140972312
 21
21.4655502053
  0
LINE
  5
22E
100
AcDbEntity
  8
0
100
AcDbLine
 62
7
  6
CONTINUOUS
 10
-7.4441380611
 20
22.357922279
 11
-8.4986274925
 21
21.8169492403
  0
LINE
  5
22F
100
AcDbEntity
  8
0
100
AcDbLine
 62
7
  6
CONTINUOUS
 10
-7.8392176182
 20
21.4872443031
 11
-6.9841144194
 21
21.9134382934
  0
LINE
  5
230
100
AcDbEntity
  8
0
100
AcDbLine
 62
7
  6
CONTINUOUS
 10
-1.4670288815
 20
24.6369228576
 11
-6.0652798378
 21
22.3705615601
  0
LINE
  5
231
100
AcDbEntity
  8
0
100
AcDbLine
 62
7
  6
CONTINUOUS
 10
1.0099017313
 20
24.4720985025
 11
-1.4358819419
 21
23.2666337483
  0
LINE
  5
232
100
AcDbEntity
  8
0
100
AcDbLine
 62
7
  6
CONTINUOUS
 10
-2.1079146552
 20
24.9573657445
 11
-7.4441380611
 21
22.357922279
  0
LINE
  5
233
100
AcDbEntity
  8
0
100
AcDbLine
 62
7
  6
CONTINUOUS
 10
-1.5997052788
 20
25.7769020076
 11
-8.7210440942
 21
22.3128030422
  0
LINE
  5
234
100
AcDbEntity
  8
0
100
AcDbLine
 62
253
  6
CONTINUOUS
 10
3.4078881159
 20
-23.9711440449
 11
2.8796209442
 21
-23.8626417678
  0
LINE
  5
235
100
AcDbEntity
  8
0
100
AcDbLine
 62
253
  6
CONTINUOUS
 10
3.3184743206
 20
-23.6515772389
 11
2.8796209442
 21
-23.5614399122
  0
LWPOLYLINE
  5
236
100
AcDbEntity
  8
0
100
AcDbPolyline
 62
7
  6
CONTINUOUS
 90
12
 70
0
 10
-1.8452879674
 20
-25.1313585777
 10
-1.8324405965
 20
-25.1376326706
 10
-1.7762360242
 20
-25.1614002486
 10
-1.717597212
 20
-25.1803172979
 10
-1.6570325917
 20
-25.1941116451
 10
-1.5948883666
 20
-25.2026219738
 10
-1.5312859507
 20
-25.2057156249
 10
-1.4666144435
 20
-25.2032320544
 10
-1.4013416303
 20
-25.1950644898
 10
-1.3356004704
 20
-25.1810894821
 10
-1.2696416649
 20
-25.1611743537
 10
-1.2191913488
 20
-25.1418413257
  0
LINE
  5
237
100
AcDbEntity
  8
0
100
AcDbLine
 62
7
  6
CONTINUOUS
 10
-1.8446993284
 20
-25.1316538185
 11
-16.7394212043
 21
-17.6842928806
  0
LINE
  5
238
100
AcDbEntity
  8
0
100
AcDbLine
 62
253
  6
CONTINUOUS
 10
-2.0988904048
 20
-24.7148659992
 11
-16.9892045237
 21
-17.2697089398
  0
LINE
  5
239
100
AcDbEntity
  8
0
100
AcDbLine
 62
7
  6
CONTINUOUS
 10
-0.4120169656
 20
-24.8030227183
 11
0.9907914901
 21
-25.5044269462
  0
LINE
  5
23A
100
AcDbEntity
  8
0
100
AcDbLine
 62
253
  6
CONTINUOUS
 10
-0.3003227509
 20
-24.7561380238
 11
0.9258181937
 21
-25.3692084961
  0
LINE
  5
23B
100
AcDbEntity
  8
0
100
AcDbLine
 62
253
  6
CONTINUOUS
 10
0.9258181937
 20
-25.0292345619
 11
0.0693108088
 21
-24.6009808695
  0
LINE
  5
23C
100
AcDbEntity
  8
0
100
AcDbLine
 62
253
  6
CONTINUOUS
 10
1.0142065414
 20
-24.7975403881
 11
0.3692678989
 21
-24.4750710669
  0
LINE
  5
23D
100
AcDbEntity
  8
0
100
AcDbLine
 62
253
  6
CONTINUOUS
 10
0.9906316321
 20
-25.5043468265
 11
0.9907915014
 21
-25.5044269518
  0
LWPOLYLINE
  5
23E
100
AcDbEntity
  8
0
100
AcDbPolyline
 62
7
  6
CONTINUOUS
 90
7
 70
0
 10
-17.0610188707
 20
-17.3517656754
 10
-17.0221856118
 20
-17.4232022511
 10
-16.9766782227
 20
-17.488881701
 10
-16.9251752729
 20
-17.5481174266
 10
-16.8683216246
 20
-17.6004899253
 10
-16.8060969668
 20
-17.6461122829
 10
-16.7383527957
 20
-17.684824663
  0
LWPOLYLINE
  5
23F
100
AcDbEntity
  8
0
100
AcDbPolyline
 62
7
  6
CONTINUOUS
 90
10
 70
0
 10
-17.1363947698
 20
19.63512136
 10
-17.2589609557
 20
18.5089208091
 10
-17.3769535319
 20
17.3097019129
 10
-17.481481293
 20
16.1153428789
 10
-17.5725206675
 20
14.9260976439
 10
-17.6500508949
 20
13.7422166729
 10
-17.7140535216
 20
12.5639525665
 10
-17.7645128238
 20
11.3915535399
 10
-17.8014155587
 20
10.2252693257
 10
-17.8235571316
 20
9.1465308651
  0
LINE
  5
240
100
AcDbEntity
  8
RACCORDO
100
AcDbLine
 62
7
  6
CONTINUOUS
 10
-16.1733983282
 20
19.1488387073
 11
-16.1825335499
 21
19.0836140447
  0
LINE
  5
241
100
AcDbEntity
  8
0
100
AcDbLine
 62
7
  6
CONTINUOUS
 10
-7.1259400096
 20
20.4369359824
 11
-7.8392176182
 21
20.0410815373
  0
LINE
  5
242
100
AcDbEntity
  8
0
100
AcDbLine
 62
7
  6
CONTINUOUS
 10
-5.2198478371
 20
19.6330752143
 11
-5.004619666
 21
19.7525224354
  0
LINE
  5
243
100
AcDbEntity
  8
DRAFT
100
AcDbLine
 62
7
  6
CONTINUOUS
 10
-8.8229962844
 20
19.1032336966
 11
-9.614390598
 21
18.671188279
  0
LINE
  5
244
100
AcDbEntity
  8
0
100
AcDbLine
 62
7
  6
CONTINUOUS
 10
-3.5392824426
 20
20.3655945985
 11
-3.7509694694
 21
20.2563658321
  0
LINE
  5
245
100
AcDbEntity
  8
0
100
AcDbLine
 62
253
  6
CONTINUOUS
 10
-3.4489865424
 20
20.3603465196
 11
-3.6600828999
 21
20.2514225336
  0
LINE
  5
246
100
AcDbEntity
  8
0
100
AcDbLine
 62
7
  6
CONTINUOUS
 10
-5.004619666
 20
19.7525224354
 11
-4.3036837122
 21
20.1046266998
  0
LINE
  5
247
100
AcDbEntity
  8
0
100
AcDbLine
 62
7
  6
CONTINUOUS
 10
1.6643828793
 20
24.2485728784
 11
-1.8958110054
 21
22.468475936
  0
LINE
  5
248
100
AcDbEntity
  8
0
100
AcDbLine
 62
7
  6
CONTINUOUS
 10
-3.5375786546
 20
20.3664465964
 11
-3.5392799573
 21
20.3655958809
  0
LINE
  5
249
100
AcDbEntity
  8
0
100
AcDbLine
 62
253
  6
CONTINUOUS
 10
-5.3608524414
 20
21.1018073044
 11
-4.4451032735
 21
21.5604732779
  0
LINE
  5
24A
100
AcDbEntity
  8
0
100
AcDbLine
 62
253
  6
CONTINUOUS
 10
-5.2198478371
 20
20.8576914856
 11
-4.3036837122
 21
21.3165642789
  0
LINE
  5
24B
100
AcDbEntity
  8
0
100
AcDbLine
 62
7
  6
CONTINUOUS
 10
3.4827185869
 20
22.1620491234
 11
-1.1155323695
 21
19.8956878259
  0
LINE
  5
24C
100
AcDbEntity
  8
0
100
AcDbLine
 62
7
  6
CONTINUOUS
 10
-2.8242972474
 20
20.7118780251
 11
-3.5375768867
 21
20.3664474532
  0
LINE
  5
24D
100
AcDbEntity
  8
0
100
AcDbLine
 62
253
  6
CONTINUOUS
 10
-2.7357089338
 20
20.7057761081
 11
-3.4489865424
 21
20.3603465196
  0
LINE
  5
24E
100
AcDbEntity
  8
SMUSSO
100
AcDbLine
 62
7
  6
CONTINUOUS
 10
-8.8229962844
 20
18.3915222847
 11
-8.943631723
 21
18.3358088415
  0
LINE
  5
24F
100
AcDbEntity
  8
0
100
AcDbLine
 62
7
  6
CONTINUOUS
 10
7.3119872471
 20
23.2320987872
 11
5.3806963141
 21
22.3904161609
  0
LINE
  5
250
100
AcDbEntity
  8
0
100
AcDbLine
 62
253
  6
CONTINUOUS
 10
3.3418880931
 20
-23.6596639756
 11
3.341777477
 21
-23.6596087608
  0
LINE
  5
251
100
AcDbEntity
  8
0
100
AcDbLine
 62
7
  6
CONTINUOUS
 10
1.6370388018
 20
-24.0527380848
 11
1.5176317589
 21
-23.9930345634
  0
LINE
  5
252
100
AcDbEntity
  8
0
100
AcDbLine
 62
253
  6
CONTINUOUS
 10
2.8796209442
 20
-23.4321505507
 11
3.3184743206
 21
-23.6515772389
  0
LINE
  5
253
100
AcDbEntity
  8
0
100
AcDbLine
 62
7
  6
CONTINUOUS
 10
2.8796209442
 20
-23.4285304011
 11
3.3418893718
 21
-23.6596646149
  0
LWPOLYLINE
  5
254
100
AcDbEntity
  8
0
100
AcDbPolyline
 62
7
  6
CONTINUOUS
 90
4
 70
0
 10
-17.1354183087
 20
-17.0948947482
 10
-17.1176792102
 20
-17.1910946895
 10
-17.0930090534
 20
-17.2743734662
 10
-17.0610188707
 20
-17.3517656754
  0
LINE
  5
255
100
AcDbEntity
  8
0
100
AcDbLine
 62
7
  6
CONTINUOUS
 10
-17.1354908077
 20
-17.0943413949
 11
-17.1354184737
 21
-17.0948947697
  0
LINE
  5
256
100
AcDbEntity
  8
RACCORDO
100
AcDbLine
 62
7
  6
CONTINUOUS
 10
-16.6211387998
 20
14.3114783829
 11
-16.6180095003
 21
14.258155815
  0
LWPOLYLINE
  5
257
100
AcDbEntity
  8
0
100
AcDbPolyline
 62
7
  6
CONTINUOUS
 90
10
 70
0
 10
-17.8235552983
 20
-7.3067415597
 10
-17.8012285204
 20
-8.3695704918
 10
-17.7642237773
 20
-9.4982499964
 10
-17.7136453802
 20
-10.6191889312
 10
-17.6495023027
 20
-11.732148688
 10
-17.5718059547
 20
-12.8368954208
 10
-17.4805703431
 20
-13.9331948251
 10
-17.3758117703
 20
-15.0208163486
 10
-17.2575494297
 20
-16.0995276756
 10
-17.1354908077
 20
-17.0943413949
  0
LWPOLYLINE
  5
258
100
AcDbEntity
  8
0
100
AcDbPolyline
 62
7
  6
CONTINUOUS
 90
10
 70
0
 10
-17.8235571308
 20
9.1465310256
 10
-17.8476530358
 20
7.3627706592
 10
-17.8665703688
 20
5.5077543294
 10
-17.8791783485
 20
3.6559137701
 10
-17.8854767057
 20
1.8072837077
 10
-17.8854652955
 20
-0.0381034639
 10
-17.8791440642
 20
-1.8802160005
 10
-17.8665130491
 20
-3.7190216037
 10
-17.8475724116
 20
-5.5544857678
 10
-17.8235552965
 20
-7.3067417447
  0
LINE
  5
259
100
AcDbEntity
  8
RACCORDO
100
AcDbLine
 62
7
  6
CONTINUOUS
 10
-16.6198080597
 20
14.3596813633
 11
-16.6211387998
 21
14.3114783829
  0
LWPOLYLINE
  5
25A
100
AcDbEntity
  8
RACCORDO
100
AcDbPolyline
 62
7
  6
CONTINUOUS
 90
10
 70
0
 10
-16.1825313943
 20
19.0836338084
 10
-16.2358784858
 20
18.6061660835
 10
-16.294100288
 20
18.0629479061
 10
-16.3495841198
 20
17.5206727184
 10
-16.4023270928
 20
16.9793676697
 10
-16.4523270299
 20
16.4390553256
 10
-16.499581972
 20
15.8997565056
 10
-16.5440898589
 20
15.3614937105
 10
-16.5858485138
 20
14.8242938079
 10
-16.6198087259
 20
14.3596738681
  0
LINE
  5
25B
100
AcDbEntity
  8
DRAFT
100
AcDbLine
 62
7
  6
CONTINUOUS
 10
-4.5803555973
 20
16.981913353
 11
-5.3445962024
 21
16.5362910812
  0
LINE
  5
25C
100
AcDbEntity
  8
0
100
AcDbLine
 62
7
  6
CONTINUOUS
 10
-1.1508877086
 20
17.8256564566
 11
-2.2177186207
 21
17.2303320386
  0
LINE
  5
25D
100
AcDbEntity
  8
0
100
AcDbLine
 62
7
  6
CONTINUOUS
 10
-2.0368209219
 20
19.4397915446
 11
-2.8771284951
 21
19.0061997415
  0
LINE
  5
25E
100
AcDbEntity
  8
0
100
AcDbLine
 62
7
  6
CONTINUOUS
 10
-0.6900572869
 20
17.7604373369
 11
0.8931144081
 21
18.5726343842
  0
LINE
  5
25F
100
AcDbEntity
  8
0
100
AcDbLine
 62
253
  6
CONTINUOUS
 10
-0.5769716207
 20
17.7539893617
 11
1.0057849824
 21
18.5659734591
  0
LINE
  5
260
100
AcDbEntity
  8
0
100
AcDbLine
 62
7
  6
CONTINUOUS
 10
-2.2177186207
 20
18.6764948044
 11
-1.1508877086
 21
19.2112971027
  0
LINE
  5
261
100
AcDbEntity
  8
0
100
AcDbLine
 62
7
  6
CONTINUOUS
 10
0.8931163778
 20
18.5726353947
 11
0.8948527952
 21
18.5735036178
  0
LINE
  5
262
100
AcDbEntity
  8
0
100
AcDbLine
 62
7
  6
CONTINUOUS
 10
-1.1508877086
 20
19.2112971027
 11
4.1236043606
 21
21.8416062366
  0
LINE
  5
263
100
AcDbEntity
  8
0
100
AcDbLine
 62
7
  6
CONTINUOUS
 10
-1.1508877086
 20
17.8256564566
 11
4.1564229576
 21
20.4723317267
  0
LINE
  5
264
100
AcDbEntity
  8
0
100
AcDbLine
 62
7
  6
CONTINUOUS
 10
5.9596491997
 20
21.9972247684
 11
4.2872578087
 21
21.172945459
  0
LINE
  5
265
100
AcDbEntity
  8
0
100
AcDbLine
 62
7
  6
CONTINUOUS
 10
0.8948555592
 20
18.5735049642
 11
1.42972275
 21
18.8340557167
  0
LINE
  5
266
100
AcDbEntity
  8
0
100
AcDbLine
 62
253
  6
CONTINUOUS
 10
1.0057849824
 20
18.5659734591
 11
1.5402348611
 21
18.8263209256
  0
LINE
  5
267
100
AcDbEntity
  8
0
100
AcDbLine
 62
253
  6
CONTINUOUS
 10
7.6116095094
 20
23.2200431375
 11
5.53311541
 21
22.314206613
  0
LINE
  5
268
100
AcDbEntity
  8
0
100
AcDbLine
 62
7
  6
CONTINUOUS
 10
8.2484298981
 20
21.1007439027
 11
10.3692307835
 21
22.0250628806
  0
LINE
  5
269
100
AcDbEntity
  8
0
100
AcDbLine
 62
7
  6
CONTINUOUS
 10
-13.129601174
 20
23.6898298907
 11
-13.129601174
 21
23.3498559566
  0
LINE
  5
26A
100
AcDbEntity
  8
0
100
AcDbLine
 62
253
  6
CONTINUOUS
 10
-13.0563778693
 20
23.6014415431
 11
-13.0563778693
 21
23.261467609
  0
LINE
  5
26B
100
AcDbEntity
  8
0
100
AcDbLine
 62
7
  6
CONTINUOUS
 10
-12.4266082198
 20
22.8438509823
 11
-12.4266082198
 21
22.3898972403
  0
LINE
  5
26C
100
AcDbEntity
  8
0
100
AcDbLine
 62
253
  6
CONTINUOUS
 10
-12.3533849151
 20
22.8072393299
 11
-12.3533849151
 21
22.2981651858
  0
LINE
  5
26D
100
AcDbEntity
  8
0
100
AcDbLine
 62
7
  6
CONTINUOUS
 10
-1.7983818249
 20
20.2371125536
 11
-0.7844431908
 21
21.5185733525
  0
LINE
  5
26E
100
AcDbEntity
  8
0
100
AcDbLine
 62
253
  6
CONTINUOUS
 10
-1.7146210908
 20
20.1952321866
 11
-0.6633247704
 21
21.523907293
  0
LWPOLYLINE
  5
26F
100
AcDbEntity
  8
RACCORDO
100
AcDbPolyline
 62
7
  6
CONTINUOUS
 90
15
 70
0
 10
-2.1213331277
 20
13.3892977047
 10
-2.1959667622
 20
13.3408528084
 10
-2.2654272318
 20
13.2864386595
 10
-2.3319110365
 20
13.2250937111
 10
-2.3949830626
 20
13.1574657341
 10
-2.4539667614
 20
13.0844976723
 10
-2.5083932538
 20
13.0070967806
 10
-2.5580442339
 20
12.9257906828
 10
-2.6026253068
 20
12.841203745
 10
-2.6418014181
 20
12.7540871442
 10
-2.6752520659
 20
12.6651159909
 10
-2.7027458261
 20
12.5748059463
 10
-2.723966123
 20
12.4837509241
 10
-2.7385834952
 20
12.3927494607
 10
-2.7399878666
 20
12.3809324512
  0
LINE
  5
270
100
AcDbEntity
  8
RACCORDO
100
AcDbLine
 62
253
  6
CONTINUOUS
 10
-0.9005450777
 20
14.3142655189
 11
-2.2784271664
 21
13.5108340568
  0
LINE
  5
271
100
AcDbEntity
  8
RACCORDO
100
AcDbLine
 62
253
  6
CONTINUOUS
 10
-0.8297590322
 20
14.1920718968
 11
-2.2027924755
 21
13.3914676392
  0
LINE
  5
272
100
AcDbEntity
  8
RACCORDO
100
AcDbLine
 62
7
  6
CONTINUOUS
 10
-0.7439213892
 20
14.192473267
 11
-2.121511204
 21
13.3892122275
  0
LINE
  5
273
100
AcDbEntity
  8
RACCORDO
100
AcDbLine
 62
253
  6
CONTINUOUS
 10
-0.6502875
 20
14.18913673
 11
-2.0281695887
 21
13.385705268
  0
LINE
  5
274
100
AcDbEntity
  8
0
100
AcDbLine
 62
7
  6
CONTINUOUS
 10
2.8796209442
 20
15.8104021302
 11
1.9895607615
 21
15.313721209
  0
LINE
  5
275
100
AcDbEntity
  8
0
100
AcDbLine
 62
253
  6
CONTINUOUS
 10
3.2334434594
 20
15.6334908726
 11
-1.4309174041
 21
13.0870791757
  0
LINE
  5
276
100
AcDbEntity
  8
0
100
AcDbLine
 62
7
  6
CONTINUOUS
 10
9.5443114519
 20
19.3963387984
 11
3.5011923182
 21
16.201684836
  0
LINE
  5
277
100
AcDbEntity
  8
0
100
AcDbLine
 62
7
  6
CONTINUOUS
 10
9.5443114519
 20
19.7964660587
 11
3.083918326
 21
16.4103218321
  0
LINE
  5
278
100
AcDbEntity
  8
0
100
AcDbLine
 62
253
  6
CONTINUOUS
 10
3.9341147759
 20
15.9852236071
 11
3.2331788222
 21
15.6336231913
  0
LINE
  5
279
100
AcDbEntity
  8
0
100
AcDbLine
 62
253
  6
CONTINUOUS
 10
1.1015664497
 20
16.9147203265
 11
2.7028472405
 21
17.71744233
  0
LINE
  5
27A
100
AcDbEntity
  8
0
100
AcDbLine
 62
253
  6
CONTINUOUS
 10
1.2783401534
 20
16.6098307877
 11
2.8796209442
 21
17.4125527912
  0
LINE
  5
27B
100
AcDbEntity
  8
0
100
AcDbLine
 62
7
  6
CONTINUOUS
 10
9.3496479921
 20
18.8928894867
 11
3.7342155044
 21
16.0851732429
  0
LINE
  5
27C
100
AcDbEntity
  8
ASSI
100
AcDbLine
 62
7
  6
CONTINUOUS
 10
4.2315350353
 20
15.6375174895
 11
9.2997780978
 21
18.1716390208
  0
LINE
  5
27D
100
AcDbEntity
  8
0
100
AcDbLine
 62
7
  6
CONTINUOUS
 10
8.5692562098
 20
20.6924212633
 11
3.2474002791
 21
18.0347155875
  0
LINE
  5
27E
100
AcDbEntity
  8
0
100
AcDbLine
 62
253
  6
CONTINUOUS
 10
2.7028472405
 20
17.71744233
 11
3.2311144123
 21
17.9808811501
  0
LINE
  5
27F
100
AcDbEntity
  8
0
100
AcDbLine
 62
253
  6
CONTINUOUS
 10
2.8796209442
 20
17.4125527912
 11
3.4078881159
 21
17.6759916113
  0
LINE
  5
280
100
AcDbEntity
  8
0
100
AcDbLine
 62
253
  6
CONTINUOUS
 10
9.3725683107
 20
18.8402974501
 11
13.1118430589
 21
20.4699238002
  0
LINE
  5
281
100
AcDbEntity
  8
0
100
AcDbLine
 62
253
  6
CONTINUOUS
 10
13.5866254206
 20
19.5570050615
 11
6.7157115719
 21
16.5625681691
  0
LINE
  5
282
100
AcDbEntity
  8
0
100
AcDbLine
 62
253
  6
CONTINUOUS
 10
-2.8110928664
 20
-14.9170368378
 11
-17.6771038885
 21
-7.4840313267
  0
LWPOLYLINE
  5
283
100
AcDbEntity
  8
RACCORDO
100
AcDbPolyline
 62
7
  6
CONTINUOUS
 90
9
 70
0
 10
-16.6180095003
 20
14.258155815
 10
-16.6102589756
 20
14.2045215049
 10
-16.5980521802
 20
14.1511186692
 10
-16.5815696413
 20
14.0985001273
 10
-16.5610220831
 20
14.0472473869
 10
-16.5366162114
 20
13.9978831065
 10
-16.5085981581
 20
13.9509748435
 10
-16.4772756234
 20
13.9071250235
 10
-16.4427567799
 20
13.8666554875
  0
LINE
  5
284
100
AcDbEntity
  8
0
100
AcDbLine
 62
253
  6
CONTINUOUS
 10
-11.3778397989
 20
22.4221985738
 11
-11.3778397989
 21
22.7621725079
  0
LINE
  5
285
100
AcDbEntity
  8
0
100
AcDbLine
 62
253
  6
CONTINUOUS
 10
-11.0253178393
 20
22.4216858499
 11
-11.0253178393
 21
22.761659784
  0
LINE
  5
286
100
AcDbEntity
  8
0
100
AcDbLine
 62
253
  6
CONTINUOUS
 10
-10.6666191908
 20
21.4547823237
 11
-10.6666191908
 21
22.1355107113
  0
LINE
  5
287
100
AcDbEntity
  8
0
100
AcDbLine
 62
253
  6
CONTINUOUS
 10
-10.3140972312
 20
21.4655502053
 11
-10.3140972312
 21
22.2731823271
  0
LINE
  5
288
100
AcDbEntity
  8
0
100
AcDbLine
 62
7
  6
CONTINUOUS
 10
-9.4240370484
 20
21.9622311266
 11
-9.4240370484
 21
23.5643817875
  0
LINE
  5
289
100
AcDbEntity
  8
0
100
AcDbLine
 62
253
  6
CONTINUOUS
 10
3.5867277254
 20
15.0236378461
 11
-1.0650846641
 21
12.4840767299
  0
LINE
  5
28A
100
AcDbEntity
  8
0
100
AcDbLine
 62
7
  6
CONTINUOUS
 10
4.2876636792
 20
12.4435461584
 11
5.549348396
 21
13.0990998467
  0
LINE
  5
28B
100
AcDbEntity
  8
0
100
AcDbLine
 62
253
  6
CONTINUOUS
 10
4.2876636792
 20
15.3754511094
 11
3.5867277254
 21
15.0238506935
  0
LINE
  5
28C
100
AcDbEntity
  8
0
100
AcDbLine
 62
253
  6
CONTINUOUS
 10
5.2150592369
 20
13.7783492262
 11
5.2153863807
 21
13.7785129977
  0
LINE
  5
28D
100
AcDbEntity
  8
0
100
AcDbLine
 62
253
  6
CONTINUOUS
 10
6.1061201364
 20
16.2577724511
 11
6.7157115719
 21
16.5625681691
  0
LINE
  5
28E
100
AcDbEntity
  8
0
100
AcDbLine
 62
253
  6
CONTINUOUS
 10
5.8724119227
 20
16.0936358714
 11
4.7801863255
 21
15.5475230729
  0
LINE
  5
28F
100
AcDbEntity
  8
0
100
AcDbLine
 62
7
  6
CONTINUOUS
 10
4.2876636792
 20
14.0029498268
 11
4.8595199315
 21
14.2888779529
  0
LINE
  5
290
100
AcDbEntity
  8
0
100
AcDbLine
 62
253
  6
CONTINUOUS
 10
5.4749523918
 20
14.3342465358
 11
6.5671779889
 21
14.8803593344
  0
LINE
  5
291
100
AcDbEntity
  8
0
100
AcDbLine
 62
253
  6
CONTINUOUS
 10
6.5671779889
 20
14.8653358098
 11
5.4749523918
 21
14.3192230112
  0
LINE
  5
292
100
AcDbEntity
  8
0
100
AcDbLine
 62
7
  6
CONTINUOUS
 10
6.3072848032
 20
14.3244620094
 11
5.2150592061
 21
13.7783492108
  0
LINE
  5
293
100
AcDbEntity
  8
0
100
AcDbLine
 62
7
  6
CONTINUOUS
 10
4.2876636792
 20
14.3384128067
 11
4.5281832115
 21
14.4545463129
  0
LINE
  5
294
100
AcDbEntity
  8
0
100
AcDbLine
 62
7
  6
CONTINUOUS
 10
5.549348396
 20
12.6503681118
 11
3.5867277254
 21
12.0793496649
  0
LINE
  5
295
100
AcDbEntity
  8
0
100
AcDbLine
 62
7
  6
CONTINUOUS
 10
9.5381949423
 20
-16.6156380597
 11
9.3496479921
 21
-16.5213645845
  0
LINE
  5
296
100
AcDbEntity
  8
0
100
AcDbLine
 62
7
  6
CONTINUOUS
 10
6.2148282538
 20
-13.225371867
 11
7.3697490047
 21
-13.8028322425
  0
LINE
  5
297
100
AcDbEntity
  8
0
100
AcDbLine
 62
7
  6
CONTINUOUS
 10
6.3719601452
 20
-14.8088551882
 11
6.2048361908
 21
-14.7092699017
  0
LINE
  5
298
100
AcDbEntity
  8
0
100
AcDbLine
 62
253
  6
CONTINUOUS
 10
-8.8957698767
 20
23.8278206076
 11
-8.8957698767
 21
23.4802890908
  0
LINE
  5
299
100
AcDbEntity
  8
0
100
AcDbLine
 62
7
  6
CONTINUOUS
 10
-8.8235720197
 20
23.9156932398
 11
-8.8235720197
 21
23.568161723
  0
LINE
  5
29A
100
AcDbEntity
  8
DRAFT
100
AcDbLine
 62
7
  6
CONTINUOUS
 10
-8.8229962844
 20
18.3915222847
 11
-8.8229962844
 21
19.1032336966
  0
LINE
  5
29B
100
AcDbEntity
  8
0
100
AcDbLine
 62
7
  6
CONTINUOUS
 10
-8.4986274925
 20
21.8169492403
 11
-8.4986274925
 21
20.3707864745
  0
LINE
  5
29C
100
AcDbEntity
  8
0
100
AcDbLine
 62
7
  6
CONTINUOUS
 10
-7.8392176182
 20
20.0410815373
 11
-7.8392176182
 21
21.4872443031
  0
LINE
  5
29D
100
AcDbEntity
  8
0
100
AcDbLine
 62
7
  6
CONTINUOUS
 10
-7.1259400096
 20
21.6705503341
 11
-7.1259400096
 21
20.4369359824
  0
LINE
  5
29E
100
AcDbEntity
  8
0
100
AcDbLine
 62
7
  6
CONTINUOUS
 10
-10.2422755918
 20
-2.268302059
 11
-9.6976680047
 21
-1.4872249343
  0
LINE
  5
29F
100
AcDbEntity
  8
0
100
AcDbLine
 62
253
  6
CONTINUOUS
 10
3.4232849484
 20
17.2576691884
 11
3.4232486882
 21
17.2576249277
  0
LINE
  5
2A0
100
AcDbEntity
  8
0
100
AcDbLine
 62
253
  6
CONTINUOUS
 10
2.8796209442
 20
16.6855079388
 11
3.4078881159
 21
17.3284600945
  0
LINE
  5
2A1
100
AcDbEntity
  8
0
100
AcDbLine
 62
7
  6
CONTINUOUS
 10
2.8796209442
 20
16.5959774724
 11
3.4232486883
 21
17.2576249279
  0
LINE
  5
2A2
100
AcDbEntity
  8
RACCORDO
100
AcDbLine
 62
7
  6
CONTINUOUS
 10
-3.2813466001
 20
7.4216068825
 11
-3.2819735615
 21
7.4212772417
  0
LINE
  5
2A3
100
AcDbEntity
  8
0
100
AcDbLine
 62
7
  6
CONTINUOUS
 10
-12.2922916321
 20
1.3135972025
 11
-9.1315748138
 21
2.8939556116
  0
LINE
  5
2A4
100
AcDbEntity
  8
RACCORDO
100
AcDbLine
 62
253
  6
CONTINUOUS
 10
-3.2480244466
 20
7.7153469738
 11
-3.1702976648
 21
7.752060408
  0
LINE
  5
2A5
100
AcDbEntity
  8
RACCORDO
100
AcDbLine
 62
7
  6
CONTINUOUS
 10
-3.4020035173
 20
7.4335385207
 11
-3.2026896879
 21
7.5276823278
  0
LINE
  5
2A6
100
AcDbEntity
  8
RACCORDO
100
AcDbLine
 62
7
  6
CONTINUOUS
 10
-13.1078335715
 20
3.7804976809
 11
-13.0991787929
 21
3.7843502506
  0
LWPOLYLINE
  5
2A7
100
AcDbEntity
  8
RACCORDO
100
AcDbPolyline
 62
7
  6
CONTINUOUS
 90
14
 70
0
 10
-13.1078032151
 20
3.7805044923
 10
-12.9792018599
 20
3.833789457
 10
-12.7658270527
 20
3.9046632332
 10
-12.5456244124
 20
3.957032518
 10
-12.318567324
 20
3.9911063221
 10
-12.0851234982
 20
4.006900656
 10
-11.8460837286
 20
4.0044519264
 10
-11.6019763879
 20
3.9838425644
 10
-11.3534690749
 20
3.9451829402
 10
-11.1014748144
 20
3.8886803248
 10
-10.8469529901
 20
3.8146485848
 10
-10.5907847814
 20
3.7234771719
 10
-10.3337593277
 20
3.6155898082
 10
-10.1346862472
 20
3.5208895132
  0
LINE
  5
2A8
100
AcDbEntity
  8
0
100
AcDbLine
 62
253
  6
CONTINUOUS
 10
-5.5014510462
 20
19.6246915007
 11
-5.5014510462
 21
20.8583058524
  0
LINE
  5
2A9
100
AcDbEntity
  8
0
100
AcDbLine
 62
253
  6
CONTINUOUS
 10
-5.2198478371
 20
19.6330752143
 11
-5.2198478371
 21
20.8576914856
  0
LINE
  5
2AA
100
AcDbEntity
  8
0
100
AcDbLine
 62
7
  6
CONTINUOUS
 10
-5.004619666
 20
19.7525224354
 11
-5.004619666
 21
20.964963863
  0
LINE
  5
2AB
100
AcDbEntity
  8
0
100
AcDbLine
 62
7
  6
CONTINUOUS
 10
-4.3036837122
 20
20.1046266998
 11
-4.3036837122
 21
21.3165642789
  0
LINE
  5
2AC
100
AcDbEntity
  8
0
100
AcDbLine
 62
7
  6
CONTINUOUS
 10
-3.8592601485
 20
20.0786317598
 11
-3.8592601485
 21
18.8476782811
  0
LINE
  5
2AD
100
AcDbEntity
  8
0
100
AcDbLine
 62
253
  6
CONTINUOUS
 10
-3.8006815047
 20
20.0079210817
 11
-3.8006815047
 21
18.77430673
  0
LINE
  5
2AE
100
AcDbEntity
  8
0
100
AcDbLine
 62
7
  6
CONTINUOUS
 10
-2.8771284951
 20
19.0061997415
 11
-2.8771284951
 21
17.5600369758
  0
LINE
  5
2AF
100
AcDbEntity
  8
RACCORDO
100
AcDbLine
 62
7
  6
CONTINUOUS
 10
-3.1776027748
 20
7.652147106
 11
-3.1775915936
 21
7.6523103689
  0
LWPOLYLINE
  5
2B0
100
AcDbEntity
  8
RACCORDO
100
AcDbPolyline
 62
7
  6
CONTINUOUS
 90
10
 70
0
 10
-3.1437824724
 20
8.1151276667
 10
-3.1781504116
 20
7.6450536195
 10
-3.1835775901
 20
7.6013245312
 10
-3.1921335268
 20
7.5611950611
 10
-3.2034216007
 20
7.5253587183
 10
-3.2169582554
 20
7.4942971588
 10
-3.2321223788
 20
7.4684306374
 10
-3.2478060648
 20
7.4483468726
 10
-3.2635410627
 20
7.4333987968
 10
-3.2813795261
 20
7.4215911863
  0
LWPOLYLINE
  5
2B1
100
AcDbEntity
  8
RACCORDO
100
AcDbPolyline
 62
7
  6
CONTINUOUS
 90
9
 70
0
 10
-2.7399924656
 20
12.3810032833
 10
-2.7917134375
 20
11.9183607884
 10
-2.8503287682
 20
11.3720681321
 10
-2.9061750295
 20
10.8267254562
 10
-2.9592492496
 20
10.2823603527
 10
-3.0095491816
 20
9.7389957494
 10
-3.057072801
 20
9.196652789
 10
-3.1018179799
 20
8.6553543277
 10
-3.1437824724
 20
8.1151276667
  0
LINE
  5
2B2
100
AcDbEntity
  8
0
100
AcDbLine
 62
7
  6
CONTINUOUS
 10
-8.6275777023
 20
-0.8454270207
 11
-9.4095494204
 21
-1.2364128797
  0
LINE
  5
2B3
100
AcDbEntity
  8
0
100
AcDbLine
 62
7
  6
CONTINUOUS
 10
-9.6792722493
 20
-3.394308744
 11
-8.7276459973
 21
-3.427268949
  0
LINE
  5
2B4
100
AcDbEntity
  8
RACCORDO
100
AcDbLine
 62
7
  6
CONTINUOUS
 10
-2.6549449524
 20
12.7191283173
 11
-2.6549449524
 21
12.8752160006
  0
LINE
  5
2B5
100
AcDbEntity
  8
0
100
AcDbLine
 62
7
  6
CONTINUOUS
 10
-2.2177186207
 20
17.2303320386
 11
-2.2177186207
 21
18.6764948044
  0
LINE
  5
2B6
100
AcDbEntity
  8
0
100
AcDbLine
 62
253
  6
CONTINUOUS
 10
-1.8958110054
 20
22.468475936
 11
-1.8958110054
 21
20.2858271439
  0
LINE
  5
2B7
100
AcDbEntity
  8
0
100
AcDbLine
 62
253
  6
CONTINUOUS
 10
-1.4358819419
 20
24.6505898512
 11
-1.4358819419
 21
23.2666337483
  0
LINE
  5
2B8
100
AcDbEntity
  8
0
100
AcDbLine
 62
7
  6
CONTINUOUS
 10
-1.3031888043
 20
24.6730610054
 11
-1.3031888043
 21
23.425196989
  0
LINE
  5
2B9
100
AcDbEntity
  8
0
100
AcDbLine
 62
7
  6
CONTINUOUS
 10
-1.1508877086
 20
17.8256564566
 11
-1.1508877086
 21
19.2112971027
  0
LINE
  5
2BA
100
AcDbEntity
  8
RACCORDO
100
AcDbLine
 62
7
  6
CONTINUOUS
 10
-0.8297590322
 20
14.142422059
 11
-0.8297590322
 21
14.1920718968
  0
LINE
  5
2BB
100
AcDbEntity
  8
0
100
AcDbLine
 62
7
  6
CONTINUOUS
 10
-0.8259431814
 20
17.5380008944
 11
-0.8259431814
 21
17.1980269603
  0
LINE
  5
2BC
100
AcDbEntity
  8
0
100
AcDbLine
 62
253
  6
CONTINUOUS
 10
-0.7527198767
 20
17.4496125468
 11
-0.7527198767
 21
17.1096386126
  0
LINE
  5
2BD
100
AcDbEntity
  8
0
100
AcDbLine
 62
253
  6
CONTINUOUS
 10
-0.3797970197
 20
22.4088907131
 11
-0.3797970197
 21
21.4897851967
  0
LINE
  5
2BE
100
AcDbEntity
  8
0
100
AcDbLine
 62
7
  6
CONTINUOUS
 10
-0.1229502271
 20
16.692021986
 11
-0.1229502271
 21
16.238068244
  0
LINE
  5
2BF
100
AcDbEntity
  8
0
100
AcDbLine
 62
253
  6
CONTINUOUS
 10
-0.0497269224
 20
16.6554103336
 11
-0.0497269224
 21
16.1463361895
  0
LINE
  5
2C0
100
AcDbEntity
  8
0
100
AcDbLine
 62
7
  6
CONTINUOUS
 10
-7.5721297327
 20
-2.9562635792
 11
-8.3541252031
 21
-3.3472613144
  0
LINE
  5
2C1
100
AcDbEntity
  8
0
100
AcDbLine
 62
7
  6
CONTINUOUS
 10
12.1255923644
 20
6.0201172409
 11
9.3692556905
 21
4.641948904
  0
LINE
  5
2C2
100
AcDbEntity
  8
0
100
AcDbLine
 62
253
  6
CONTINUOUS
 10
-2.8110928664
 20
1.5374458341
 11
-17.6771038885
 21
8.9704513452
  0
LWPOLYLINE
  5
2C3
100
AcDbEntity
  8
RACCORDO
100
AcDbPolyline
 62
7
  6
CONTINUOUS
 90
44
 70
0
 10
-10.1346209967
 20
3.5208570407
 10
-9.9100531353
 20
3.402431497
 10
-9.6217707366
 20
3.232383466
 10
-9.333953248
 20
3.0422227437
 10
-9.0476682791
 20
2.8324837394
 10
-8.7639847485
 20
2.6037943289
 10
-8.4839179768
 20
2.3568344906
 10
-8.2084816095
 20
2.0923769953
 10
-7.9386739292
 20
1.8112660772
 10
-7.6754123304
 20
1.5143655453
 10
-7.4196095089
 20
1.2026020577
 10
-7.172195697
 20
0.8770399101
 10
-6.934060704
 20
0.5387729489
 10
-6.7060203987
 20
0.1889341542
 10
-6.4888816858
 20
-0.1712924091
 10
-6.2834108295
 20
-0.5406368797
 10
-6.0903019161
 20
-0.9178327389
 10
-5.9102234807
 20
-1.301588478
 10
-5.7437819419
 20
-1.6905237809
 10
-5.591511227
 20
-2.0833253444
 10
-5.4539336789
 20
-2.4785985954
 10
-5.3315097041
 20
-2.8748010386
 10
-5.2245956134
 20
-3.2705669015
 10
-5.1335149663
 20
-3.6644944638
 10
-5.0585192785
 20
-4.0549769928
 10
-4.9997751638
 20
-4.4404703161
 10
-4.9573420227
 20
-4.8198275909
 10
-4.9311934452
 20
-5.1920408941
 10
-4.921306461
 20
-5.5555994356
 10
-4.9275965628
 20
-5.9094646717
 10
-4.9499614044
 20
-6.2532651368
 10
-4.9882992035
 20
-6.5858598356
 10
-5.0424424217
 20
-6.9058620892
 10
-5.1121922073
 20
-7.2124256756
 10
-5.197232745
 20
-7.504345825
 10
-5.2972155974
 20
-7.7804920861
 10
-5.4118007092
 20
-8.0401095499
 10
-5.5404488643
 20
-8.2821321511
 10
-5.6826746649
 20
-8.5057244281
 10
-5.8382056479
 20
-8.7105475786
 10
-6.0063740249
 20
-8.8957414078
 10
-6.1868302133
 20
-9.0608886944
 10
-6.3800711843
 20
-9.2062344795
 10
-6.5641608473
 20
-9.3192478847
  0
LWPOLYLINE
  5
2C4
100
AcDbEntity
  8
RACCORDO
100
AcDbPolyline
 62
7
  6
CONTINUOUS
 90
4
 70
0
 10
-16.4427567799
 20
13.8666554875
 10
-16.4054579707
 20
13.8302683455
 10
-16.3662361768
 20
13.7988628333
 10
-16.3256386778
 20
13.7728064344
  0
LINE
  5
2C5
100
AcDbEntity
  8
0
100
AcDbLine
 62
253
  6
CONTINUOUS
 10
0.9258181937
 20
-25.3692084961
 11
0.9258181937
 21
-25.0292345619
  0
LINE
  5
2C6
100
AcDbEntity
  8
0
100
AcDbLine
 62
253
  6
CONTINUOUS
 10
0.9258181937
 20
16.2703695774
 11
0.9258181937
 21
16.6103435116
  0
LINE
  5
2C7
100
AcDbEntity
  8
0
100
AcDbLine
 62
253
  6
CONTINUOUS
 10
1.2783401534
 20
-25.3697212199
 11
1.2783401534
 21
-25.0297472858
  0
LINE
  5
2C8
100
AcDbEntity
  8
0
100
AcDbLine
 62
253
  6
CONTINUOUS
 10
1.2783401534
 20
16.2698568536
 11
1.2783401534
 21
16.6098307877
  0
LINE
  5
2C9
100
AcDbEntity
  8
0
100
AcDbLine
 62
253
  6
CONTINUOUS
 10
1.6370388018
 20
-24.0527380848
 11
1.6370388018
 21
-23.9429123369
  0
LINE
  5
2CA
100
AcDbEntity
  8
0
100
AcDbLine
 62
253
  6
CONTINUOUS
 10
1.6370388018
 20
15.3029533273
 11
1.6370388018
 21
15.9836813942
  0
LINE
  5
2CB
100
AcDbEntity
  8
0
100
AcDbLine
 62
253
  6
CONTINUOUS
 10
1.9895607615
 20
-24.1782508087
 11
1.9895607615
 21
-23.7949379372
  0
LINE
  5
2CC
100
AcDbEntity
  8
0
100
AcDbLine
 62
253
  6
CONTINUOUS
 10
1.9895607615
 20
15.313721209
 11
1.9895607615
 21
16.1213533307
  0
LINE
  5
2CD
100
AcDbEntity
  8
0
100
AcDbLine
 62
7
  6
CONTINUOUS
 10
2.8796209442
 20
-23.4213268255
 11
2.8796209442
 21
-24.5896866203
  0
LINE
  5
2CE
100
AcDbEntity
  8
0
100
AcDbLine
 62
7
  6
CONTINUOUS
 10
2.8796209442
 20
15.8104021302
 11
2.8796209442
 21
17.4125527912
  0
LINE
  5
2CF
100
AcDbEntity
  8
0
100
AcDbLine
 62
253
  6
CONTINUOUS
 10
3.4078881159
 20
17.6759916113
 11
3.4078881159
 21
17.3284600945
  0
LINE
  5
2D0
100
AcDbEntity
  8
0
100
AcDbLine
 62
253
  6
CONTINUOUS
 10
3.4078881159
 20
-23.9711440449
 11
3.4078881159
 21
-24.3186755616
  0
LINE
  5
2D1
100
AcDbEntity
  8
0
100
AcDbLine
 62
7
  6
CONTINUOUS
 10
3.4800859729
 20
17.7638642434
 11
3.4800859729
 21
17.4163327267
  0
LINE
  5
2D2
100
AcDbEntity
  8
0
100
AcDbLine
 62
7
  6
CONTINUOUS
 10
3.4800859729
 20
-23.8832714127
 11
3.4800859729
 21
-24.2308029294
  0
LINE
  5
2D3
100
AcDbEntity
  8
0
100
AcDbLine
 62
253
  6
CONTINUOUS
 10
3.4800859729
 20
-24.2308029118
 11
3.480085828
 21
-24.2309375531
  0
LINE
  5
2D4
100
AcDbEntity
  8
0
100
AcDbLine
 62
7
  6
CONTINUOUS
 10
12.1255923636
 20
6.2833021321
 11
14.5435322359
 21
7.6474704626
  0
LINE
  5
2D5
100
AcDbEntity
  8
0
100
AcDbLine
 62
253
  6
CONTINUOUS
 10
15.507291658
 20
6.9184873717
 11
13.0752689693
 21
5.605302678
  0
LINE
  5
2D6
100
AcDbEntity
  8
0
100
AcDbLine
 62
253
  6
CONTINUOUS
 10
12.9305719833
 20
5.6447894239
 11
10.1470733171
 21
4.2530400907
  0
LINE
  5
2D7
100
AcDbEntity
  8
0
100
AcDbLine
 62
7
  6
CONTINUOUS
 10
-8.0437624749
 20
-7.183461112
 11
-4.9225015236
 21
-5.6228306364
  0
LINE
  5
2D8
100
AcDbEntity
  8
0
100
AcDbLine
 62
7
  6
CONTINUOUS
 10
8.8054325306
 20
-1.8943936919
 11
8.027614904
 21
-1.5054848786
  0
LINE
  5
2D9
100
AcDbEntity
  8
0
100
AcDbLine
 62
253
  6
CONTINUOUS
 10
8.6470733171
 20
-1.7982294259
 11
7.8692556905
 21
-1.4093206127
  0
LINE
  5
2DA
100
AcDbEntity
  8
0
100
AcDbLine
 62
253
  6
CONTINUOUS
 10
7.6370226435
 20
-1.2410109029
 11
8.41484027
 21
-1.6299197161
  0
LINE
  5
2DB
100
AcDbEntity
  8
0
100
AcDbLine
 62
253
  6
CONTINUOUS
 10
8.2077334889
 20
-1.121100671
 11
7.4299158623
 21
-0.7321918578
  0
LINE
  5
2DC
100
AcDbEntity
  8
0
100
AcDbLine
 62
253
  6
CONTINUOUS
 10
8.80494952
 20
-1.8941520416
 11
8.8054325306
 21
-1.8943936919
  0
LINE
  5
2DD
100
AcDbEntity
  8
0
100
AcDbLine
 62
7
  6
CONTINUOUS
 10
7.869255691
 20
-1.4093206129
 11
7.6370226441
 21
-1.2410109031
  0
LINE
  5
2DE
100
AcDbEntity
  8
0
100
AcDbLine
 62
7
  6
CONTINUOUS
 10
3.5867277254
 20
15.0238506935
 11
3.5867277254
 21
12.0793496649
  0
LINE
  5
2DF
100
AcDbEntity
  8
0
100
AcDbLine
 62
7
  6
CONTINUOUS
 10
3.5867277254
 20
-22.9080913038
 11
3.5867277254
 21
-19.9635902751
  0
LINE
  5
2E0
100
AcDbEntity
  8
0
100
AcDbLine
 62
253
  6
CONTINUOUS
 10
4.1564229576
 20
21.8560796916
 11
4.1564229576
 21
21.3029089686
  0
LINE
  5
2E1
100
AcDbEntity
  8
0
100
AcDbLine
 62
253
  6
CONTINUOUS
 10
4.1564229576
 20
20.946733102
 11
4.1564229576
 21
20.4723317267
  0
LINE
  5
2E2
100
AcDbEntity
  8
0
100
AcDbLine
 62
7
  6
CONTINUOUS
 10
4.2872578087
 20
21.8778665865
 11
4.2872578087
 21
20.6299733767
  0
LINE
  5
2E3
100
AcDbEntity
  8
0
100
AcDbLine
 62
7
  6
CONTINUOUS
 10
4.2876636792
 20
-22.5464141111
 11
4.2876636792
 21
-19.61450916
  0
LINE
  5
2E4
100
AcDbEntity
  8
0
100
AcDbLine
 62
7
  6
CONTINUOUS
 10
4.2876636792
 20
12.4435461584
 11
4.2876636792
 21
15.3754511094
  0
LINE
  5
2E5
100
AcDbEntity
  8
0
100
AcDbLine
 62
253
  6
CONTINUOUS
 10
5.4749523918
 20
14.3192230112
 11
5.4749523918
 21
14.3342465358
  0
LINE
  5
2E6
100
AcDbEntity
  8
0
100
AcDbLine
 62
7
  6
CONTINUOUS
 10
5.549348396
 20
13.0990998467
 11
5.549348396
 21
12.6503681118
  0
LINE
  5
2E7
100
AcDbEntity
  8
0
100
AcDbLine
 62
7
  6
CONTINUOUS
 10
5.549348396
 20
-18.5993822585
 11
5.549348396
 21
-18.9861631529
  0
LINE
  5
2E8
100
AcDbEntity
  8
0
100
AcDbLine
 62
7
  6
CONTINUOUS
 10
5.6011859781
 20
12.6244493208
 11
5.6011859781
 21
-18.5633502091
  0
LINE
  5
2E9
100
AcDbEntity
  8
0
100
AcDbLine
 62
253
  6
CONTINUOUS
 10
5.921935035
 20
14.1317871252
 11
5.921935035
 21
-14.7742449963
  0
LINE
  5
2EA
100
AcDbEntity
  8
0
100
AcDbLine
 62
7
  6
CONTINUOUS
 10
6.2148282538
 20
-14.7152239402
 11
6.2148282538
 21
14.2782337347
  0
LINE
  5
2EB
100
AcDbEntity
  8
0
100
AcDbLine
 62
253
  6
CONTINUOUS
 10
6.5671779889
 20
14.8803593344
 11
6.5671779889
 21
14.8653358098
  0
LINE
  5
2EC
100
AcDbEntity
  8
0
100
AcDbLine
 62
253
  6
CONTINUOUS
 10
6.5671779889
 20
-16.0214602162
 11
6.5671779889
 21
-16.0364837408
  0
LINE
  5
2ED
100
AcDbEntity
  8
0
100
AcDbLine
 62
7
  6
CONTINUOUS
 10
7.6370226439
 20
2.7304472427
 11
7.8692556909
 21
3.1309899996
  0
LINE
  5
2EE
100
AcDbEntity
  8
0
100
AcDbLine
 62
253
  6
CONTINUOUS
 10
8.6470733171
 20
2.7420811865
 11
8.41484027
 21
2.3415384296
  0
LINE
  5
2EF
100
AcDbEntity
  8
RACCORDO
100
AcDbLine
 62
7
  6
CONTINUOUS
 10
-6.5642476313
 20
-9.3192986996
 11
-6.5654006497
 21
-9.3199366697
  0
LWPOLYLINE
  5
2F0
100
AcDbEntity
  8
RACCORDO
100
AcDbPolyline
 62
7
  6
CONTINUOUS
 90
8
 70
0
 10
-3.6707175857
 20
7.4447218916
 10
-3.6447467785
 20
7.4329029706
 10
-3.6026180383
 20
7.4185380397
 10
-3.5603379301
 20
7.4099742312
 10
-3.5184377697
 20
7.4073064115
 10
-3.4777169879
 20
7.4104983817
 10
-3.4388321757
 20
7.4193150927
 10
-3.4006187066
 20
7.434200003
  0
LINE
  5
2F1
100
AcDbEntity
  8
RACCORDO
100
AcDbLine
 62
253
  6
CONTINUOUS
 10
-3.6566977371
 20
7.2009332119
 11
-16.4096479196
 21
13.5774083031
  0
LINE
  5
2F2
100
AcDbEntity
  8
RACCORDO
100
AcDbLine
 62
7
  6
CONTINUOUS
 10
-3.6707176006
 20
7.4447218613
 11
-16.3067986657
 21
13.7627622725
  0
LINE
  5
2F3
100
AcDbEntity
  8
RACCORDO
100
AcDbLine
 62
253
  6
CONTINUOUS
 10
-3.6965198052
 20
7.5065141701
 11
-16.3325201327
 21
13.8245143338
  0
LINE
  5
2F4
100
AcDbEntity
  8
0
100
AcDbLine
 62
253
  6
CONTINUOUS
 10
7.4299158623
 20
2.0145214166
 11
8.2077334889
 21
1.6256126033
  0
LINE
  5
2F5
100
AcDbEntity
  8
0
100
AcDbLine
 62
253
  6
CONTINUOUS
 10
8.41484027
 20
2.3415384296
 11
7.6370226435
 21
2.7304472429
  0
LINE
  5
2F6
100
AcDbEntity
  8
0
100
AcDbLine
 62
253
  6
CONTINUOUS
 10
7.8692556905
 20
3.1309899997
 11
8.6470733171
 21
2.7420811865
  0
LINE
  5
2F7
100
AcDbEntity
  8
RACCORDO
100
AcDbLine
 62
7
  6
CONTINUOUS
 10
-16.3256386778
 20
13.7728064344
 11
-16.3067470468
 21
13.7627365941
  0
LINE
  5
2F8
100
AcDbEntity
  8
0
100
AcDbLine
 62
253
  6
CONTINUOUS
 10
8.41484027
 20
-1.6299197161
 11
8.6470733171
 21
-1.7982294259
  0
LINE
  5
2F9
100
AcDbEntity
  8
0
100
AcDbLine
 62
7
  6
CONTINUOUS
 10
6.8600712077
 20
15.233912725
 11
6.8600712077
 21
15.2188892004
  0
LINE
  5
2FA
100
AcDbEntity
  8
0
100
AcDbLine
 62
7
  6
CONTINUOUS
 10
6.8600712077
 20
-15.6829303502
 11
6.8600712077
 21
-15.6679068256
  0
LINE
  5
2FB
100
AcDbEntity
  8
0
100
AcDbLine
 62
7
  6
CONTINUOUS
 10
7.3697490047
 20
-15.2267254869
 11
7.3697490047
 21
-13.8028322425
  0
LINE
  5
2FC
100
AcDbEntity
  8
0
100
AcDbLine
 62
7
  6
CONTINUOUS
 10
7.4299158629
 20
-0.7321918581
 11
7.4299158628
 21
2.0145214164
  0
LINE
  5
2FD
100
AcDbEntity
  8
ASSI
100
AcDbLine
 62
7
  6
CONTINUOUS
 10
9.3496479921
 20
19.29343128
 11
9.3496479921
 21
18.8928894867
  0
LINE
  5
2FE
100
AcDbEntity
  8
ASSI
100
AcDbLine
 62
7
  6
CONTINUOUS
 10
9.3496479921
 20
-15.5694876151
 11
9.3496479921
 21
-16.5213645845
  0
LINE
  5
2FF
100
AcDbEntity
  8
0
100
AcDbLine
 62
253
  6
CONTINUOUS
 10
9.5443114519
 20
-17.3624937132
 11
9.5443114519
 21
-16.9623664529
  0
LINE
  5
300
100
AcDbEntity
  8
0
100
AcDbLine
 62
253
  6
CONTINUOUS
 10
9.5443114519
 20
19.3963387984
 11
9.5443114519
 21
19.7964660587
  0
LINE
  5
301
100
AcDbEntity
  8
0
100
AcDbLine
 62
7
  6
CONTINUOUS
 10
9.6846415517
 20
-17.3121813201
 11
9.6846415517
 21
-16.7913032646
  0
LINE
  5
302
100
AcDbEntity
  8
0
100
AcDbLine
 62
7
  6
CONTINUOUS
 10
9.6846415517
 20
19.5726047953
 11
9.6846415517
 21
20.0934828508
  0
LWPOLYLINE
  5
303
100
AcDbEntity
  8
0
100
AcDbPolyline
 62
7
  6
CONTINUOUS
 90
17
 70
0
 10
16.5500149518
 20
0.5032168906
 10
16.6712261907
 20
0.567907315
 10
16.7986883468
 20
0.648480009
 10
16.92058962
 20
0.7390039416
 10
17.0368302649
 20
0.8394074737
 10
17.1469207606
 20
0.949356944
 10
17.250842445
 20
1.0688899068
 10
17.3481728525
 20
1.1977135875
 10
17.4381266772
 20
1.3348827267
 10
17.5205281915
 20
1.4800783802
 10
17.5953324831
 20
1.6333082466
 10
17.6623654306
 20
1.794563095
 10
17.7214710631
 20
1.9640942246
 10
17.7719891883
 20
2.1405803016
 10
17.8134720272
 20
2.3228478022
 10
17.8458617207
 20
2.5112114034
 10
17.8618791987
 20
2.6362096412
  0
LINE
  5
304
100
AcDbEntity
  8
0
100
AcDbLine
 62
253
  6
CONTINUOUS
 10
10.608430875
 20
-2.2284625522
 11
6.2148282538
 21
-4.4252638639
  0
LINE
  5
305
100
AcDbEntity
  8
0
100
AcDbLine
 62
7
  6
CONTINUOUS
 10
11.712321097
 20
-1.9085945979
 11
14.5502150582
 21
-0.4896476173
  0
LINE
  5
306
100
AcDbEntity
  8
0
100
AcDbLine
 62
7
  6
CONTINUOUS
 10
11.9779684577
 20
-1.851889183
 11
6.2148282538
 21
-4.7334592597
  0
LINE
  5
307
100
AcDbEntity
  8
0
100
AcDbLine
 62
7
  6
CONTINUOUS
 10
14.6704690474
 20
-0.4197707909
 11
16.5531481792
 21
0.5047513062
  0
LINE
  5
308
100
AcDbEntity
  8
0
100
AcDbLine
 62
253
  6
CONTINUOUS
 10
10.1470733171
 20
4.2530400907
 11
9.3692556905
 21
4.641948904
  0
LINE
  5
309
100
AcDbEntity
  8
0
100
AcDbLine
 62
7
  6
CONTINUOUS
 10
12.1255923644
 20
6.2833021317
 11
12.1255923644
 21
6.020117291
  0
LINE
  5
30A
100
AcDbEntity
  8
0
100
AcDbLine
 62
7
  6
CONTINUOUS
 10
5.6011859781
 20
12.6244493208
 11
3.5867277254
 21
12.0793496649
  0
LINE
  5
30B
100
AcDbEntity
  8
0
100
AcDbLine
 62
7
  6
CONTINUOUS
 10
12.9305719833
 20
5.6447894239
 11
12.1255923644
 21
6.0201172409
  0
LINE
  5
30C
100
AcDbEntity
  8
RACCORDO
100
AcDbLine
 62
253
  6
CONTINUOUS
 10
-16.9892045237
 20
19.4683314198
 11
-16.4069785629
 21
19.1772184394
  0
LINE
  5
30D
100
AcDbEntity
  8
RACCORDO
100
AcDbLine
 62
253
  6
CONTINUOUS
 10
-16.1530933457
 20
19.0502758308
 11
-2.9350015829
 21
12.4412299494
  0
LINE
  5
30E
100
AcDbEntity
  8
RACCORDO
100
AcDbLine
 62
253
  6
CONTINUOUS
 10
-2.6811163656
 20
12.3142873408
 11
-2.0988904048
 21
12.0231743604
  0
LINE
  5
30F
100
AcDbEntity
  8
RACCORDO
100
AcDbLine
 62
253
  6
CONTINUOUS
 10
-16.3327901567
 20
20.538015552
 11
-15.7355379721
 21
20.2393894597
  0
LINE
  5
310
100
AcDbEntity
  8
RACCORDO
100
AcDbLine
 62
253
  6
CONTINUOUS
 10
-15.4852803944
 20
20.1142606708
 11
-2.2784271664
 21
13.5108340568
  0
LINE
  5
311
100
AcDbEntity
  8
RACCORDO
100
AcDbLine
 62
253
  6
CONTINUOUS
 10
-2.0281695887
 20
13.385705268
 11
-1.4309174041
 21
13.0870791757
  0
LINE
  5
312
100
AcDbEntity
  8
RACCORDO
100
AcDbLine
 62
7
  6
CONTINUOUS
 10
-14.3086993004
 20
21.0183426302
 11
-0.6502875
 21
14.18913673
  0
LINE
  5
313
100
AcDbEntity
  8
0
100
AcDbLine
 62
7
  6
CONTINUOUS
 10
12.1255923644
 20
6.1158633816
 11
13.0752689693
 21
5.605302678
  0
LINE
  5
314
100
AcDbEntity
  8
0
100
AcDbLine
 62
7
  6
CONTINUOUS
 10
4.8595199315
 20
14.2888779529
 11
5.549348396
 21
13.0990998467
  0
LINE
  5
315
100
AcDbEntity
  8
0
100
AcDbLine
 62
7
  6
CONTINUOUS
 10
15.3144756168
 20
17.4569814961
 11
15.3135057743
 21
17.4814088073
  0
LINE
  5
316
100
AcDbEntity
  8
0
100
AcDbLine
 62
7
  6
CONTINUOUS
 10
15.3153267695
 20
17.4324388881
 11
15.3144756168
 21
17.4569814961
  0
LINE
  5
317
100
AcDbEntity
  8
0
100
AcDbLine
 62
7
  6
CONTINUOUS
 10
15.3162658746
 20
17.4009592636
 11
15.3153267695
 21
17.4324388881
  0
LINE
  5
318
100
AcDbEntity
  8
0
100
AcDbLine
 62
7
  6
CONTINUOUS
 10
15.3170367909
 20
17.3699701781
 11
15.3162658746
 21
17.4009592636
  0
LINE
  5
319
100
AcDbEntity
  8
0
100
AcDbLine
 62
7
  6
CONTINUOUS
 10
15.1787082275
 20
18.73837433
 11
15.1783127543
 21
18.7582545612
  0
LINE
  5
31A
100
AcDbEntity
  8
0
100
AcDbLine
 62
7
  6
CONTINUOUS
 10
15.3177252692
 20
17.3357821108
 11
15.3170367909
 21
17.3699701781
  0
LINE
  5
31B
100
AcDbEntity
  8
0
100
AcDbLine
 62
7
  6
CONTINUOUS
 10
15.3183213412
 20
17.2969614771
 11
15.3177252692
 21
17.3357821108
  0
LINE
  5
31C
100
AcDbEntity
  8
0
100
AcDbLine
 62
7
  6
CONTINUOUS
 10
14.9617663095
 20
16.3658273167
 11
14.9735567103
 21
15.4192040241
  0
LINE
  5
31D
100
AcDbEntity
  8
0
100
AcDbLine
 62
7
  6
CONTINUOUS
 10
15.3187720269
 20
17.2550128536
 11
15.3183213412
 21
17.2969614771
  0
LINE
  5
31E
100
AcDbEntity
  8
0
100
AcDbLine
 62
253
  6
CONTINUOUS
 10
14.9589201848
 20
18.4820643518
 11
14.9591409587
 21
18.4449880725
  0
LINE
  5
31F
100
AcDbEntity
  8
0
100
AcDbLine
 62
7
  6
CONTINUOUS
 10
15.3191226478
 20
17.1969342045
 11
15.3187720269
 21
17.2550128536
  0
LINE
  5
320
100
AcDbEntity
  8
0
100
AcDbLine
 62
7
  6
CONTINUOUS
 10
15.319225601
 20
17.1337309695
 11
15.3191226478
 21
17.1969342045
  0
LINE
  5
321
100
AcDbEntity
  8
0
100
AcDbLine
 62
253
  6
CONTINUOUS
 10
15.0994709903
 20
16.8882213244
 11
15.0993532256
 21
16.8278034943
  0
LINE
  5
322
100
AcDbEntity
  8
0
100
AcDbLine
 62
7
  6
CONTINUOUS
 10
15.3189643892
 20
17.0841854203
 11
15.319091333
 21
17.1333388297
  0
LINE
  5
323
100
AcDbEntity
  8
0
100
AcDbLine
 62
7
  6
CONTINUOUS
 10
15.3189643388
 20
17.0841659158
 11
15.3189020191
 21
17.0798795942
  0
LINE
  5
324
100
AcDbEntity
  8
0
100
AcDbLine
 62
7
  6
CONTINUOUS
 10
14.8871672392
 20
9.2824633627
 11
14.934607919
 21
9.8658124151
  0
LINE
  5
325
100
AcDbEntity
  8
0
100
AcDbLine
 62
7
  6
CONTINUOUS
 10
14.8467349283
 20
8.807087749
 11
14.8871672392
 21
9.2824633627
  0
LINE
  5
326
100
AcDbEntity
  8
0
100
AcDbLine
 62
7
  6
CONTINUOUS
 10
14.8023200897
 20
8.3051211581
 11
14.8467349283
 21
8.807087749
  0
LINE
  5
327
100
AcDbEntity
  8
0
100
AcDbLine
 62
7
  6
CONTINUOUS
 10
14.7687823686
 20
7.9383806003
 11
14.8023200897
 21
8.3051211581
  0
LINE
  5
328
100
AcDbEntity
  8
0
100
AcDbLine
 62
7
  6
CONTINUOUS
 10
6.2148282538
 20
-14.3802926179
 11
7.3697490047
 21
-13.8028322425
  0
LINE
  5
329
100
AcDbEntity
  8
0
100
AcDbLine
 62
7
  6
CONTINUOUS
 10
5.8600712077
 20
-14.8018814218
 11
5.6011859781
 21
-14.9313240366
  0
LINE
  5
32A
100
AcDbEntity
  8
0
100
AcDbLine
 62
7
  6
CONTINUOUS
 10
1.0514966598
 20
16.1140356928
 11
1.6757960821
 21
15.9836813942
  0
LINE
  5
32B
100
AcDbEntity
  8
0
100
AcDbLine
 62
253
  6
CONTINUOUS
 10
14.3113328542
 20
7.5164667736
 11
15.507291658
 21
6.9184873717
  0
LINE
  5
32C
100
AcDbEntity
  8
DRAFT
100
AcDbLine
 62
7
  6
CONTINUOUS
 10
-8.8229962844
 20
19.1032336966
 11
-4.5803555973
 21
16.981913353
  0
LINE
  5
32D
100
AcDbEntity
  8
0
100
AcDbLine
 62
7
  6
CONTINUOUS
 10
5.6011859781
 20
12.6244493208
 11
5.549348396
 21
12.6503681118
  0
LINE
  5
32E
100
AcDbEntity
  8
0
100
AcDbLine
 62
7
  6
CONTINUOUS
 10
1.6370388018
 20
15.3029533273
 11
-0.0497269224
 21
16.1463361895
  0
LINE
  5
32F
100
AcDbEntity
  8
0
100
AcDbLine
 62
7
  6
CONTINUOUS
 10
-2.2177186207
 20
17.2303320386
 11
-2.8771284951
 21
17.5600369758
  0
LINE
  5
330
100
AcDbEntity
  8
0
100
AcDbLine
 62
7
  6
CONTINUOUS
 10
-7.8392176182
 20
20.0410815373
 11
-8.4986274925
 21
20.3707864745
  0
LINE
  5
331
100
AcDbEntity
  8
0
100
AcDbLine
 62
7
  6
CONTINUOUS
 10
-10.6666191908
 20
21.4547823237
 11
-12.3533849151
 21
22.2981651858
  0
LINE
  5
332
100
AcDbEntity
  8
0
100
AcDbLine
 62
7
  6
CONTINUOUS
 10
-12.9914045729
 20
23.1262491589
 11
-11.3128665025
 21
22.2869801237
  0
LINE
  5
333
100
AcDbEntity
  8
0
100
AcDbLine
 62
7
  6
CONTINUOUS
 10
-0.6877465803
 20
16.9744201625
 11
0.9907914901
 21
16.1351511273
  0
LINE
  5
334
100
AcDbEntity
  8
0
100
AcDbLine
 62
7
  6
CONTINUOUS
 10
4.5281832115
 20
14.4545463129
 11
4.8595199315
 21
14.2888779529
  0
LINE
  5
335
100
AcDbEntity
  8
0
100
AcDbLine
 62
253
  6
CONTINUOUS
 10
-13.0563778693
 20
23.261467609
 11
-11.3778397989
 21
22.4221985738
  0
LINE
  5
336
100
AcDbEntity
  8
0
100
AcDbLine
 62
253
  6
CONTINUOUS
 10
-0.7527198767
 20
17.1096386126
 11
0.9258181937
 21
16.2703695774
  0
LINE
  5
337
100
AcDbEntity
  8
0
100
AcDbLine
 62
7
  6
CONTINUOUS
 10
-7.1259400096
 20
20.4369359824
 11
-5.5014510462
 21
19.6246915007
  0
LINE
  5
338
100
AcDbEntity
  8
0
100
AcDbLine
 62
7
  6
CONTINUOUS
 10
-3.8006815047
 20
18.77430673
 11
-2.8771284951
 21
18.3125302252
  0
LINE
  5
339
100
AcDbEntity
  8
0
100
AcDbLine
 62
253
  6
CONTINUOUS
 10
0.9258181937
 20
16.6103435116
 11
-0.7527198767
 21
17.4496125468
  0
LINE
  5
33A
100
AcDbEntity
  8
0
100
AcDbLine
 62
253
  6
CONTINUOUS
 10
-11.3778397989
 20
22.7621725079
 11
-13.0563778693
 21
23.6014415431
  0
LINE
  5
33B
100
AcDbEntity
  8
0
100
AcDbLine
 62
7
  6
CONTINUOUS
 10
-9.4240370484
 20
21.9622311266
 11
-8.4986274925
 21
21.4995263486
  0
LINE
  5
33C
100
AcDbEntity
  8
0
100
AcDbLine
 62
7
  6
CONTINUOUS
 10
-1.1508877086
 20
17.8256564566
 11
-0.7990721098
 21
17.6497486572
  0
LINE
  5
33D
100
AcDbEntity
  8
0
100
AcDbLine
 62
7
  6
CONTINUOUS
 10
2.8796209442
 20
15.8104021302
 11
3.2334434594
 21
15.6334908726
  0
LINE
  5
33E
100
AcDbEntity
  8
0
100
AcDbLine
 62
7
  6
CONTINUOUS
 10
-3.8592601485
 20
19.1798426766
 11
-5.004619666
 21
19.7525224354
  0
LINE
  5
33F
100
AcDbEntity
  8
0
100
AcDbLine
 62
253
  6
CONTINUOUS
 10
1.1015664497
 20
16.9147203265
 11
-0.5769716207
 21
17.7539893617
  0
LINE
  5
340
100
AcDbEntity
  8
0
100
AcDbLine
 62
253
  6
CONTINUOUS
 10
-11.202091543
 20
23.0665493229
 11
-12.8806296134
 21
23.9058183581
  0
LINE
  5
341
100
AcDbEntity
  8
0
100
AcDbLine
 62
7
  6
CONTINUOUS
 10
-8.4986274925
 20
21.8169492403
 11
-7.8392176182
 21
21.4872443031
  0
LINE
  5
342
100
AcDbEntity
  8
0
100
AcDbLine
 62
7
  6
CONTINUOUS
 10
-2.8771284951
 20
19.0061997415
 11
-2.2177186207
 21
18.6764948044
  0
LINE
  5
343
100
AcDbEntity
  8
0
100
AcDbLine
 62
7
  6
CONTINUOUS
 10
15.7430845755
 20
6.93835194
 11
14.4407863677
 21
7.5895026607
  0
LINE
  5
344
100
AcDbEntity
  8
0
100
AcDbLine
 62
7
  6
CONTINUOUS
 10
15.3023927144
 20
17.6401028552
 11
15.3012791511
 21
17.6503722278
  0
LINE
  5
345
100
AcDbEntity
  8
0
100
AcDbLine
 62
7
  6
CONTINUOUS
 10
15.2466805803
 20
18.0342022368
 11
15.2319785438
 21
18.1715162694
  0
LINE
  5
346
100
AcDbEntity
  8
0
100
AcDbLine
 62
7
  6
CONTINUOUS
 10
15.3034649842
 20
17.6296624943
 11
15.3023927144
 21
17.6401028552
  0
LINE
  5
347
100
AcDbEntity
  8
0
100
AcDbLine
 62
7
  6
CONTINUOUS
 10
15.2319785438
 20
18.1715162694
 11
15.2157303157
 21
18.3329882081
  0
LINE
  5
348
100
AcDbEntity
  8
0
100
AcDbLine
 62
7
  6
CONTINUOUS
 10
15.3044941386
 20
17.6190610776
 11
15.3034649842
 21
17.6296624943
  0
LINE
  5
349
100
AcDbEntity
  8
0
100
AcDbLine
 62
7
  6
CONTINUOUS
 10
15.2157303157
 20
18.3329882081
 11
15.1989580916
 21
18.507324865
  0
LINE
  5
34A
100
AcDbEntity
  8
0
100
AcDbLine
 62
7
  6
CONTINUOUS
 10
15.3054786787
 20
17.6083141745
 11
15.3044941386
 21
17.6190610776
  0
LINE
  5
34B
100
AcDbEntity
  8
0
100
AcDbLine
 62
253
  6
CONTINUOUS
 10
14.9824358356
 20
18.1735782408
 11
14.9591409587
 21
18.4449880725
  0
LINE
  5
34C
100
AcDbEntity
  8
0
100
AcDbLine
 62
7
  6
CONTINUOUS
 10
15.1991706522
 20
18.5050709184
 11
15.1791767356
 21
18.7384144738
  0
LINE
  5
34D
100
AcDbEntity
  8
0
100
AcDbLine
 62
7
  6
CONTINUOUS
 10
15.3064188633
 20
17.5974275773
 11
15.3054786787
 21
17.6083141745
  0
LINE
  5
34E
100
AcDbEntity
  8
0
100
AcDbLine
 62
7
  6
CONTINUOUS
 10
15.3073154099
 20
17.5863962065
 11
15.3064188633
 21
17.5974275773
  0
LINE
  5
34F
100
AcDbEntity
  8
0
100
AcDbLine
 62
7
  6
CONTINUOUS
 10
15.3081674968
 20
17.5752316146
 11
15.3073154099
 21
17.5863962065
  0
LINE
  5
350
100
AcDbEntity
  8
0
100
AcDbLine
 62
7
  6
CONTINUOUS
 10
15.3089754647
 20
17.5639402645
 11
15.3081674968
 21
17.5752316146
  0
LINE
  5
351
100
AcDbEntity
  8
0
100
AcDbLine
 62
7
  6
CONTINUOUS
 10
15.3101071889
 20
17.5467773553
 11
15.3089754647
 21
17.5639402645
  0
LINE
  5
352
100
AcDbEntity
  8
0
100
AcDbLine
 62
7
  6
CONTINUOUS
 10
15.3111489397
 20
17.5292918364
 11
15.3101071889
 21
17.5467773553
  0
LINE
  5
353
100
AcDbEntity
  8
0
100
AcDbLine
 62
7
  6
CONTINUOUS
 10
15.312102111
 20
17.5115300353
 11
15.3111489397
 21
17.5292918364
  0
LWPOLYLINE
  5
354
100
AcDbEntity
  8
0
100
AcDbPolyline
 62
7
  6
CONTINUOUS
 90
9
 70
0
 10
17.8824467893
 20
3.264751271
 10
17.8782984159
 20
3.3453752314
 10
17.8724600303
 20
3.4287596327
 10
17.8647506778
 20
3.5152387731
 10
17.8550199118
 20
3.6046115953
 10
17.8431760393
 20
3.696361787
 10
17.8291141419
 20
3.7902950171
 10
17.8126791189
 20
3.8865717167
 10
17.8077282582
 20
3.9134428772
  0
LINE
  5
355
100
AcDbEntity
  8
0
100
AcDbLine
 62
7
  6
CONTINUOUS
 10
15.3129712824
 20
17.4935223998
 11
15.312102111
 21
17.5115300353
  0
LINE
  5
356
100
AcDbEntity
  8
0
100
AcDbLine
 62
7
  6
CONTINUOUS
 10
15.3135057743
 20
17.4814088073
 11
15.3129712824
 21
17.4935223998
  0
LWPOLYLINE
  5
357
100
AcDbEntity
  8
0
100
AcDbPolyline
 62
7
  6
CONTINUOUS
 90
10
 70
0
 10
17.8619052348
 20
2.6364465464
 10
17.8638008618
 20
2.6538289706
 10
17.8723375392
 20
2.7438991796
 10
17.8787193411
 20
2.8328482712
 10
17.8830754365
 20
2.9204166816
 10
17.8855477533
 20
3.0067184121
 10
17.8862536792
 20
3.0915057682
 10
17.8853039365
 20
3.1746143316
 10
17.8828061442
 20
3.2560380512
 10
17.8824417437
 20
3.2648740674
  0
LINE
  5
358
100
AcDbEntity
  8
0
100
AcDbLine
 62
253
  6
CONTINUOUS
 10
1.6365245734
 20
-24.0524809706
 11
1.0142065414
 21
-24.7975403881
  0
LINE
  5
359
100
AcDbEntity
  8
0
100
AcDbLine
 62
253
  6
CONTINUOUS
 10
1.9895607615
 20
-24.1782508087
 11
1.2783401534
 21
-25.0297472858
  0
LINE
  5
35A
100
AcDbEntity
  8
0
100
AcDbLine
 62
7
  6
CONTINUOUS
 10
5.549348396
 20
-18.9861631529
 11
4.8595199315
 21
-19.4861127947
  0
LINE
  5
35B
100
AcDbEntity
  8
0
100
AcDbLine
 62
7
  6
CONTINUOUS
 10
3.5867277254
 20
-19.9635902751
 11
5.6011859781
 21
-18.5633502091
  0
LINE
  5
35C
100
AcDbEntity
  8
ASSI
100
AcDbLine
 62
7
  6
CONTINUOUS
 10
6.8436764964
 20
-15.489761741
 11
8.7631217832
 21
-14.5300390976
  0
LINE
  5
35D
100
AcDbEntity
  8
0
100
AcDbLine
 62
253
  6
CONTINUOUS
 10
5.6011859781
 20
-16.5044562216
 11
6.5671779889
 21
-16.0214602162
  0
LINE
  5
35E
100
AcDbEntity
  8
0
100
AcDbLine
 62
253
  6
CONTINUOUS
 10
6.5671779889
 20
-16.0364837408
 11
5.6011859781
 21
-16.5194797462
  0
LINE
  5
35F
100
AcDbEntity
  8
0
100
AcDbLine
 62
7
  6
CONTINUOUS
 10
6.3072848032
 20
-16.5773575412
 11
5.6011859781
 21
-16.9304069538
  0
LINE
  5
360
100
AcDbEntity
  8
ASSI
100
AcDbLine
 62
7
  6
CONTINUOUS
 10
9.3496479921
 20
-15.5694876151
 11
5.6011859781
 21
-17.4437186221
  0
LINE
  5
361
100
AcDbEntity
  8
ASSI
100
AcDbLine
 62
7
  6
CONTINUOUS
 10
9.3496479921
 20
-16.5213645845
 11
5.6011859781
 21
-18.3555313302
  0
LINE
  5
362
100
AcDbEntity
  8
0
100
AcDbLine
 62
253
  6
CONTINUOUS
 10
1.2783401534
 20
16.2698568536
 11
1.9895607615
 21
16.1213533307
  0
LINE
  5
363
100
AcDbEntity
  8
0
100
AcDbLine
 62
253
  6
CONTINUOUS
 10
4.4047981082
 20
15.7241490259
 11
4.7801863255
 21
15.5475230729
  0
LINE
  5
364
100
AcDbEntity
  8
0
100
AcDbLine
 62
253
  6
CONTINUOUS
 10
-8.9617686321
 20
24.1393000431
 11
-8.9619531124
 21
24.1393920299
  0
LINE
  5
365
100
AcDbEntity
  8
0
100
AcDbLine
 62
7
  6
CONTINUOUS
 10
-9.4240370484
 20
22.6642995193
 11
-8.7210440942
 21
22.3128030422
  0
LINE
  5
366
100
AcDbEntity
  8
0
100
AcDbLine
 62
7
  6
CONTINUOUS
 10
2.8796209442
 20
16.512470523
 11
3.9341147759
 21
15.9852236071
  0
LINE
  5
367
100
AcDbEntity
  8
0
100
AcDbLine
 62
7
  6
CONTINUOUS
 10
-4.3036837122
 20
20.1046266998
 11
-3.8592601485
 21
19.8824149179
  0
LINE
  5
368
100
AcDbEntity
  8
0
100
AcDbLine
 62
7
  6
CONTINUOUS
 10
-4.3036837122
 20
20.2100502382
 11
-3.8592601485
 21
19.9878384563
  0
LINE
  5
369
100
AcDbEntity
  8
0
100
AcDbLine
 62
253
  6
CONTINUOUS
 10
-2.34568243
 20
19.2804215443
 11
-3.8006815047
 21
20.0079210817
  0
LINE
  5
36A
100
AcDbEntity
  8
0
100
AcDbLine
 62
253
  6
CONTINUOUS
 10
-5.5014510462
 20
20.8583058524
 11
-7.1259400096
 21
21.6705503341
  0
LINE
  5
36B
100
AcDbEntity
  8
0
100
AcDbLine
 62
253
  6
CONTINUOUS
 10
-2.0368209219
 20
19.4397915446
 11
-3.6600828999
 21
20.2514225336
  0
LINE
  5
36C
100
AcDbEntity
  8
0
100
AcDbLine
 62
253
  6
CONTINUOUS
 10
-5.3608524414
 20
21.1018073044
 11
-6.9841144194
 21
21.9134382934
  0
LINE
  5
36D
100
AcDbEntity
  8
0
100
AcDbLine
 62
7
  6
CONTINUOUS
 10
-7.4441380611
 20
22.357922279
 11
-5.1460392273
 21
21.2088728621
  0
LINE
  5
36E
100
AcDbEntity
  8
0
100
AcDbLine
 62
7
  6
CONTINUOUS
 10
-3.4489865424
 20
20.3603465196
 11
-1.1508877086
 21
19.2112971027
  0
LINE
  5
36F
100
AcDbEntity
  8
0
100
AcDbLine
 62
7
  6
CONTINUOUS
 10
2.7028472405
 20
17.71744233
 11
1.0057849824
 21
18.5659734591
  0
LINE
  5
370
100
AcDbEntity
  8
0
100
AcDbLine
 62
7
  6
CONTINUOUS
 10
-9.6008107521
 20
23.8692713264
 11
-11.2978730102
 21
24.7178024554
  0
LINE
  5
371
100
AcDbEntity
  8
0
100
AcDbLine
 62
7
  6
CONTINUOUS
 10
-6.0652798378
 20
22.3705615601
 11
-4.4451032735
 21
21.5604732779
  0
LINE
  5
372
100
AcDbEntity
  8
0
100
AcDbLine
 62
7
  6
CONTINUOUS
 10
-2.7357089338
 20
20.7057761081
 11
-1.1155323695
 21
19.8956878259
  0
LINE
  5
373
100
AcDbEntity
  8
0
100
AcDbLine
 62
253
  6
CONTINUOUS
 10
-10.7634231315
 20
24.978149922
 11
-9.0725435804
 21
24.1327101464
  0
LINE
  5
374
100
AcDbEntity
  8
0
100
AcDbLine
 62
253
  6
CONTINUOUS
 10
1.5402348611
 20
18.8263209256
 11
3.2311144123
 21
17.9808811501
  0
LINE
  5
375
100
AcDbEntity
  8
0
100
AcDbLine
 62
7
  6
CONTINUOUS
 10
-10.652648172
 20
24.9847398131
 11
-8.9617686208
 21
24.1393000375
  0
LINE
  5
376
100
AcDbEntity
  8
0
100
AcDbLine
 62
7
  6
CONTINUOUS
 10
1.6510098207
 20
18.8329108168
 11
3.3418893718
 21
17.9874710412
  0
LINE
  5
377
100
AcDbEntity
  8
0
100
AcDbLine
 62
7
  6
CONTINUOUS
 10
-0.6633247704
 20
21.523907293
 11
0.7520984338
 21
20.8161956909
  0
LINE
  5
378
100
AcDbEntity
  8
0
100
AcDbLine
 62
7
  6
CONTINUOUS
 10
-0.4587053787
 20
21.5292393762
 11
0.8605127032
 21
20.8696303353
  0
LINE
  5
379
100
AcDbEntity
  8
0
100
AcDbLine
 62
253
  6
CONTINUOUS
 10
5.8724119227
 20
16.0936358714
 11
5.5469240171
 21
16.2952119804
  0
LINE
  5
37A
100
AcDbEntity
  8
0
100
AcDbLine
 62
7
  6
CONTINUOUS
 10
6.3865836702
 20
16.0840801361
 11
5.8228749582
 21
16.4331874509
  0
LWPOLYLINE
  5
37B
100
AcDbEntity
  8
0
100
AcDbPolyline
 62
7
  6
CONTINUOUS
 90
6
 70
0
 10
15.2821653541
 20
17.775135078
 10
15.2815901833
 20
17.7778469374
 10
15.280128229
 20
17.7849698226
 10
15.278467064
 20
17.7934805328
 10
15.2765327947
 20
17.8039739827
 10
15.27442691
 20
17.8161566877
  0
LINE
  5
37C
100
AcDbEntity
  8
0
100
AcDbLine
 62
7
  6
CONTINUOUS
 10
15.283023601
 20
17.7709336967
 11
15.2821653541
 21
17.775135078
  0
LWPOLYLINE
  5
37D
100
AcDbEntity
  8
0
100
AcDbPolyline
 62
7
  6
CONTINUOUS
 90
19
 70
0
 10
17.807730636
 20
3.9134303619
 10
17.7784955425
 20
4.0573005545
 10
17.724419356
 20
4.2790052596
 10
17.6601657833
 20
4.4975029957
 10
17.5858425504
 20
4.7128849225
 10
17.5012480805
 20
4.9254668647
 10
17.4063746566
 20
5.1346792947
 10
17.3016785338
 20
5.3391860616
 10
17.1886084251
 20
5.5360256525
 10
17.067484429
 20
5.7248506678
 10
16.9380548494
 20
5.906018764
 10
16.8001405277
 20
6.0793397601
 10
16.6552165256
 20
6.2427034831
 10
16.5051025867
 20
6.3941321033
 10
16.3497559608
 20
6.5337525151
 10
16.1897969966
 20
6.661067704
 10
16.025206733
 20
6.7760001638
 10
15.8566968445
 20
6.8779963084
 10
15.7437397115
 20
6.9378568362
  0
LINE
  5
37E
100
AcDbEntity
  8
0
100
AcDbLine
 62
7
  6
CONTINUOUS
 10
15.2844003919
 20
17.763842117
 11
15.2830286229
 21
17.7709121402
  0
LINE
  5
37F
100
AcDbEntity
  8
0
100
AcDbLine
 62
7
  6
CONTINUOUS
 10
15.2856908236
 20
17.7569842311
 11
15.2844003919
 21
17.763842117
  0
LINE
  5
380
100
AcDbEntity
  8
0
100
AcDbLine
 62
7
  6
CONTINUOUS
 10
15.287023198
 20
17.7496800518
 11
15.2856908236
 21
17.7569842311
  0
LINE
  5
381
100
AcDbEntity
  8
0
100
AcDbLine
 62
7
  6
CONTINUOUS
 10
15.2883793312
 20
17.7419946541
 11
15.287023198
 21
17.7496800518
  0
LINE
  5
382
100
AcDbEntity
  8
0
100
AcDbLine
 62
7
  6
CONTINUOUS
 10
15.2897474173
 20
17.7339617574
 11
15.2883793312
 21
17.7419946541
  0
LINE
  5
383
100
AcDbEntity
  8
0
100
AcDbLine
 62
7
  6
CONTINUOUS
 10
15.2911153138
 20
17.7256225561
 11
15.2897474173
 21
17.7339617574
  0
LWPOLYLINE
  5
384
100
AcDbEntity
  8
0
100
AcDbPolyline
 62
7
  6
CONTINUOUS
 90
5
 70
0
 10
15.27442691
 20
17.8161566877
 10
15.2723851886
 20
17.8287550154
 10
15.2704729604
 20
17.8412741046
 10
15.2686099677
 20
17.8541378801
 10
15.2668011131
 20
17.8672425714
  0
LINE
  5
385
100
AcDbEntity
  8
0
100
AcDbLine
 62
7
  6
CONTINUOUS
 10
15.2924745655
 20
17.7170036797
 11
15.2911153138
 21
17.7256225561
  0
LINE
  5
386
100
AcDbEntity
  8
0
100
AcDbLine
 62
7
  6
CONTINUOUS
 10
15.2938161633
 20
17.7081440818
 11
15.2924745655
 21
17.7170036797
  0
LINE
  5
387
100
AcDbEntity
  8
0
100
AcDbLine
 62
7
  6
CONTINUOUS
 10
15.2951377825
 20
17.6990405968
 11
15.2938161633
 21
17.7081440818
  0
LINE
  5
388
100
AcDbEntity
  8
0
100
AcDbLine
 62
7
  6
CONTINUOUS
 10
15.2964343869
 20
17.6897040991
 11
15.2951377825
 21
17.6990405968
  0
LINE
  5
389
100
AcDbEntity
  8
0
100
AcDbLine
 62
7
  6
CONTINUOUS
 10
15.2977009263
 20
17.6801499193
 11
15.2964343869
 21
17.6897040991
  0
LINE
  5
38A
100
AcDbEntity
  8
0
100
AcDbLine
 62
7
  6
CONTINUOUS
 10
15.2668011131
 20
17.8672425714
 11
15.2634253744
 21
17.8931470643
  0
LINE
  5
38B
100
AcDbEntity
  8
0
100
AcDbLine
 62
7
  6
CONTINUOUS
 10
15.2989324909
 20
17.6703992254
 11
15.2977009263
 21
17.6801499193
  0
LINE
  5
38C
100
AcDbEntity
  8
0
100
AcDbLine
 62
7
  6
CONTINUOUS
 10
15.2634253744
 20
17.8931470643
 11
15.2571226716
 21
17.9445085961
  0
LWPOLYLINE
  5
38D
100
AcDbEntity
  8
0
100
AcDbPolyline
 62
7
  6
CONTINUOUS
 90
3
 70
0
 10
15.2572325648
 20
17.9435998191
 10
15.2531294269
 20
17.9778811495
 10
15.2466805803
 20
18.0342022368
  0
LINE
  5
38E
100
AcDbEntity
  8
0
100
AcDbLine
 62
7
  6
CONTINUOUS
 10
15.3001260868
 20
17.660466561
 11
15.2989324909
 21
17.6703992254
  0
LINE
  5
38F
100
AcDbEntity
  8
0
100
AcDbLine
 62
7
  6
CONTINUOUS
 10
15.3012791511
 20
17.6503722278
 11
15.3001260868
 21
17.660466561
  0
LINE
  5
390
100
AcDbEntity
  8
0
100
AcDbLine
 62
253
  6
CONTINUOUS
 10
3.5867277254
 20
-22.9080913038
 11
4.2876636792
 21
-22.5464141111
  0
LINE
  5
391
100
AcDbEntity
  8
0
100
AcDbLine
 62
7
  6
CONTINUOUS
 10
3.458028578
 20
-23.1778943255
 11
4.1598533374
 21
-22.8157585164
  0
LINE
  5
392
100
AcDbEntity
  8
0
100
AcDbLine
 62
7
  6
CONTINUOUS
 10
8.5692562098
 20
-17.9946136572
 11
4.2876636792
 21
-20.1942339165
  0
LINE
  5
393
100
AcDbEntity
  8
0
100
AcDbLine
 62
7
  6
CONTINUOUS
 10
9.5443114519
 20
-17.3624937132
 11
4.2876636792
 21
-20.0506975335
  0
LINE
  5
394
100
AcDbEntity
  8
0
100
AcDbLine
 62
7
  6
CONTINUOUS
 10
9.5443114519
 20
-16.9623664529
 11
5.5498317222
 21
-18.9871166712
  0
LINE
  5
395
100
AcDbEntity
  8
0
100
AcDbLine
 62
7
  6
CONTINUOUS
 10
4.2876636792
 20
-19.7720409208
 11
4.8595199315
 21
-19.4861127947
  0
LINE
  5
396
100
AcDbEntity
  8
0
100
AcDbLine
 62
7
  6
CONTINUOUS
 10
4.2876636792
 20
-19.61450916
 11
5.549348396
 21
-18.9861631529
  0
LINE
  5
397
100
AcDbEntity
  8
0
100
AcDbLine
 62
7
  6
CONTINUOUS
 10
-11.2521613328
 20
22.2658646891
 11
-10.627863447
 21
22.1355107113
  0
LINE
  5
398
100
AcDbEntity
  8
0
100
AcDbLine
 62
253
  6
CONTINUOUS
 10
-11.0253178393
 20
22.4216858499
 11
-10.3140972312
 21
22.2731823271
  0
LINE
  5
399
100
AcDbEntity
  8
0
100
AcDbLine
 62
253
  6
CONTINUOUS
 10
-2.1079146552
 20
24.9573657445
 11
-1.4670288815
 21
24.6369228576
  0
LINE
  5
39A
100
AcDbEntity
  8
0
100
AcDbLine
 62
253
  6
CONTINUOUS
 10
3.4827185869
 20
22.1620491234
 11
4.1236043606
 21
21.8416062366
  0
LINE
  5
39B
100
AcDbEntity
  8
0
100
AcDbLine
 62
7
  6
CONTINUOUS
 10
-1.8234477646
 20
24.939087041
 11
-1.308249681
 21
24.6814879991
  0
LINE
  5
39C
100
AcDbEntity
  8
0
100
AcDbLine
 62
7
  6
CONTINUOUS
 10
3.767038836
 20
22.1438437406
 11
4.2822376469
 21
21.8862443352
  0
LINE
  5
39D
100
AcDbEntity
  8
0
100
AcDbLine
 62
253
  6
CONTINUOUS
 10
2.8796209442
 20
-24.5896866203
 11
3.4078881159
 21
-24.3186755616
  0
LINE
  5
39E
100
AcDbEntity
  8
0
100
AcDbLine
 62
7
  6
CONTINUOUS
 10
2.8155178149
 20
-24.7244633805
 11
3.3442000784
 21
-24.4532393719
  0
LINE
  5
39F
100
AcDbEntity
  8
0
100
AcDbLine
 62
7
  6
CONTINUOUS
 10
2.8155158411
 20
-24.724464393
 11
2.8137794293
 21
-24.7253326133
  0
LINE
  5
3A0
100
AcDbEntity
  8
0
100
AcDbLine
 62
253
  6
CONTINUOUS
 10
1.2783401534
 20
-25.3697212199
 11
2.8796209442
 21
-24.5896866203
  0
LINE
  5
3A1
100
AcDbEntity
  8
0
100
AcDbLine
 62
7
  6
CONTINUOUS
 10
1.2120785608
 20
-25.5055718461
 11
2.8137766638
 21
-24.7253339605
  0
LINE
  5
3A2
100
AcDbEntity
  8
0
100
AcDbLine
 62
253
  6
CONTINUOUS
 10
-1.0650846641
 20
-24.8605203472
 11
3.5867277254
 21
-22.9078784563
  0
LINE
  5
3A3
100
AcDbEntity
  8
0
100
AcDbLine
 62
7
  6
CONTINUOUS
 10
-1.2188919095
 20
-25.1417160456
 11
3.4444601089
 21
-23.1842302871
  0
LINE
  5
3A4
100
AcDbEntity
  8
0
100
AcDbLine
 62
7
  6
CONTINUOUS
 10
8.6949668601
 20
23.2799826265
 11
11.531630366
 21
22.0893486053
  0
LINE
  5
3A5
100
AcDbEntity
  8
0
100
AcDbLine
 62
253
  6
CONTINUOUS
 10
10.3693276756
 20
22.0250169973
 11
7.6116095094
 21
23.2200431375
  0
LINE
  5
3A6
100
AcDbEntity
  8
0
100
AcDbLine
 62
253
  6
CONTINUOUS
 10
-1.5997052788
 20
25.7769020076
 11
1.0099017313
 21
24.4720985025
  0
LINE
  5
3A7
100
AcDbEntity
  8
0
100
AcDbLine
 62
253
  6
CONTINUOUS
 10
5.9596491997
 20
21.9972247684
 11
8.5692562098
 21
20.6924212633
  0
LINE
  5
3A8
100
AcDbEntity
  8
0
100
AcDbLine
 62
7
  6
CONTINUOUS
 10
1.6643828793
 20
24.2485728784
 11
6.0763061826
 21
22.0426112267
  0
LINE
  5
3A9
100
AcDbEntity
  8
0
100
AcDbLine
 62
7
  6
CONTINUOUS
 10
-1.310706548
 20
25.8803121257
 11
1.4530015696
 21
24.4984580669
  0
LINE
  5
3AA
100
AcDbEntity
  8
0
100
AcDbLine
 62
7
  6
CONTINUOUS
 10
6.4027490379
 20
22.0235843328
 11
9.1664571554
 21
20.641730274
  0
LINE
  5
3AB
100
AcDbEntity
  8
0
100
AcDbLine
 62
253
  6
CONTINUOUS
 10
13.1118430589
 20
20.4699238002
 11
10.3692307835
 21
22.0250628806
  0
LINE
  5
3AC
100
AcDbEntity
  8
0
100
AcDbLine
 62
7
  6
CONTINUOUS
 10
14.3195094212
 20
20.4677112721
 11
11.6650026512
 21
22.0226625132
  0
ARC
  5
3AD
100
AcDbEntity
  8
RACCORDO
100
AcDbCircle
 62
253
  6
CONTINUOUS
 10
108.6997413504
 20
-0.3789054763
 40
112.1017957459
100
AcDbArc
 50
173.4985034357
 51
175.9269079423
  0
ARC
  5
3AE
100
AcDbEntity
  8
0
100
AcDbCircle
 62
253
  6
CONTINUOUS
 10
105.21653123
 20
-0.6628967885
 40
108.0626490599
100
AcDbArc
 50
173.2581855059
 51
175.5593378235
  0
ARC
  5
3AF
100
AcDbEntity
  8
0
100
AcDbCircle
 62
253
  6
CONTINUOUS
 10
105.8247788807
 20
-0.7195281357
 40
107.9730572982
100
AcDbArc
 50
173.2594979538
 51
175.059504404
  0
ARC
  5
3B0
100
AcDbEntity
  8
RACCORDO
100
AcDbCircle
 62
253
  6
CONTINUOUS
 10
104.1447899573
 20
-0.2199436614
 40
107.8257254717
100
AcDbArc
 50
173.2566251049
 51
175.7749554887
  0
ARC
  5
3B1
100
AcDbEntity
  8
RACCORDO
100
AcDbCircle
 62
253
  6
CONTINUOUS
 10
104.1629018687
 20
-0.2197800895
 40
107.7036365841
100
AcDbArc
 50
173.2564904467
 51
175.7748723638
  0
ARC
  5
3B2
100
AcDbEntity
  8
0
100
AcDbCircle
 62
7
  6
CONTINUOUS
 10
-8.1366528749
 20
-2.8878455459
 40
4.6884622942
100
AcDbArc
 50
233.0229402436
 51
238.0151441241
  0
ARC
  5
3B3
100
AcDbEntity
  8
0
100
AcDbCircle
 62
253
  6
CONTINUOUS
 10
-12.5051072263
 20
-3.3384117409
 40
4.6272648319
100
AcDbArc
 50
52.9087773497
 51
53.3701572849
  0
ARC
  5
3B4
100
AcDbEntity
  8
0
100
AcDbCircle
 62
7
  6
CONTINUOUS
 10
-8.3197415651
 20
-3.177703904
 40
4.3456270491
100
AcDbArc
 50
238.0383110092
 51
239.4748694514
  0
ARC
  5
3B5
100
AcDbEntity
  8
0
100
AcDbCircle
 62
253
  6
CONTINUOUS
 10
-12.3084003731
 20
-3.065219762
 40
4.2906657276
100
AcDbArc
 50
53.3015268351
 51
57.8830523642
  0
ARC
  5
3B6
100
AcDbEntity
  8
0
100
AcDbCircle
 62
253
  6
CONTINUOUS
 10
-12.1374826517
 20
-2.7953800878
 40
3.9712530043
100
AcDbArc
 50
57.9018263099
 51
59.4735673334
  0
ARC
  5
3B7
100
AcDbEntity
  8
0
100
AcDbCircle
 62
253
  6
CONTINUOUS
 10
-8.5772158445
 20
-3.402892394
 40
3.9367989099
100
AcDbArc
 50
239.4750063279
 51
241.0142577667
  0
ARC
  5
3B8
100
AcDbEntity
  8
0
100
AcDbCircle
 62
7
  6
CONTINUOUS
 10
-11.8756779734
 20
-2.5628378511
 40
3.5538908202
100
AcDbArc
 50
59.4734877879
 51
61.180011703
  0
ARC
  5
3B9
100
AcDbEntity
  8
0
100
AcDbCircle
 62
253
  6
CONTINUOUS
 10
11.1180494629
 20
-0.7215820368
 40
1.3274513829
100
AcDbArc
 50
296.5945980247
 51
307.2363323086
  0
ARC
  5
3BA
100
AcDbEntity
  8
0
100
AcDbCircle
 62
253
  6
CONTINUOUS
 10
9.3139539969
 20
-0.8782373019
 40
1.1362725683
100
AcDbArc
 50
234.0625261545
 51
243.3877235651
  0
ARC
  5
3BB
100
AcDbEntity
  8
0
100
AcDbCircle
 62
7
  6
CONTINUOUS
 10
8.5360729376
 20
-0.4893966324
 40
1.1361801663
100
AcDbArc
 50
234.0630993084
 51
243.4592695963
  0
ARC
  5
3BC
100
AcDbEntity
  8
0
100
AcDbCircle
 62
7
  6
CONTINUOUS
 10
5.8600276803
 20
-15.6679315578
 40
1.000046424
100
AcDbArc
 50
0.0014169875
 51
59.2088499834
  0
ARC
  5
3BD
100
AcDbEntity
  8
0
100
AcDbCircle
 62
7
  6
CONTINUOUS
 10
5.8600564759
 20
-15.682919263
 40
1.0000105291
100
AcDbArc
 50
296.535851164
 51
356.039029444
  0
ARC
  5
3BE
100
AcDbEntity
  8
0
100
AcDbCircle
 62
7
  6
CONTINUOUS
 10
5.8616700128
 20
-15.6828678634
 40
0.9984011968
100
AcDbArc
 50
356.0296904822
 51
359.9964140345
  0
ARC
  5
3BF
100
AcDbEntity
  8
0
100
AcDbCircle
 62
7
  6
CONTINUOUS
 10
-9.0685350538
 20
-1.9169696462
 40
0.7612150226
100
AcDbArc
 50
116.6145994237
 51
130.6551711367
  0
ARC
  5
3C0
100
AcDbEntity
  8
0
100
AcDbCircle
 62
7
  6
CONTINUOUS
 10
-8.6939619964
 20
-2.6661157612
 40
0.7612150226
100
AcDbArc
 50
282.4749312174
 51
296.5155029305
  0
ARC
  5
3C1
100
AcDbEntity
  8
0
100
AcDbCircle
 62
7
  6
CONTINUOUS
 10
-9.5447389493
 20
-2.6831580278
 40
0.7419383524
100
AcDbArc
 50
228.1969448076
 51
232.911405312
  0
ARC
  5
3C2
100
AcDbEntity
  8
0
100
AcDbCircle
 62
253
  6
CONTINUOUS
 10
6.1439167168
 20
-15.192352454
 40
0.4461708343
100
AcDbArc
 50
59.2625231458
 51
69.5985114083
  0
ARC
  5
3C3
100
AcDbEntity
  8
0
100
AcDbCircle
 62
253
  6
CONTINUOUS
 10
-16.5737498829
 20
-17.3530790724
 40
0.3703368695
100
AcDbArc
 50
237.2567123086
 51
243.4268331379
  0
ARC
  5
3C4
100
AcDbEntity
  8
0
100
AcDbCircle
 62
253
  6
CONTINUOUS
 10
11.8517232804
 20
-1.599355036
 40
0.2823214219
100
AcDbArc
 50
296.5610766542
 51
299.9372279627
  0
ARC
  5
3C5
100
AcDbEntity
  8
0
100
AcDbCircle
 62
253
  6
CONTINUOUS
 10
6.6100613579
 20
-15.6829904373
 40
0.2500059366
100
AcDbArc
 50
355.0091667459
 51
0.0137705527
  0
ARC
  5
3C6
100
AcDbEntity
  8
0
100
AcDbCircle
 62
7
  6
CONTINUOUS
 10
1.1026036775
 20
-25.2808608581
 40
0.2499595531
100
AcDbArc
 50
243.3880234853
 51
295.9744556518
  0
ARC
  5
3C7
100
AcDbEntity
  8
0
100
AcDbCircle
 62
7
  6
CONTINUOUS
 10
3.2302657044
 20
-24.2309209541
 40
0.2497815931
100
AcDbArc
 50
297.0898558432
 51
336.9512557702
  0
ARC
  5
3C8
100
AcDbEntity
  8
0
100
AcDbCircle
 62
7
  6
CONTINUOUS
 10
3.2303074166
 20
-23.8825758668
 40
0.2492782989
100
AcDbArc
 50
58.1038773996
 51
63.437709555
  0
ARC
  5
3C9
100
AcDbEntity
  8
0
100
AcDbCircle
 62
7
  6
CONTINUOUS
 10
3.3711448966
 20
-23.0095281195
 40
0.189462091
100
AcDbArc
 50
292.7717188963
 51
297.2921248775
  0
ARC
  5
3CA
100
AcDbEntity
  8
0
100
AcDbCircle
 62
253
  6
CONTINUOUS
 10
3.2466511182
 20
-23.795546163
 40
0.1608900976
100
AcDbArc
 50
60.1189448308
 51
63.4863134447
  0
ARC
  5
3CB
100
AcDbEntity
  8
0
100
AcDbCircle
 62
253
  6
CONTINUOUS
 10
-128.2409264785
 20
20.9954948915
 40
143.4068932667
100
AcDbArc
 50
354.7474177561
 51
355.4502928792
  0
ARC
  5
3CC
100
AcDbEntity
  8
0
100
AcDbCircle
 62
253
  6
CONTINUOUS
 10
-127.3981764492
 20
20.9294552526
 40
142.5618457347
100
AcDbArc
 50
355.4499372953
 51
356.2830814
  0
ARC
  5
3CD
100
AcDbEntity
  8
0
100
AcDbCircle
 62
7
  6
CONTINUOUS
 10
-123.8139251559
 20
20.8779017019
 40
139.1853325214
100
AcDbArc
 50
355.4621944986
 51
357.9055899459
  0
ARC
  5
3CE
100
AcDbEntity
  8
0
100
AcDbCircle
 62
253
  6
CONTINUOUS
 10
-121.3261706283
 20
20.5119980745
 40
136.4755529384
100
AcDbArc
 50
356.5320278902
 51
357.860149623
  0
ARC
  5
3CF
100
AcDbEntity
  8
0
100
AcDbCircle
 62
253
  6
CONTINUOUS
 10
-121.0392613537
 20
20.4943022216
 40
136.1880986178
100
AcDbArc
 50
356.2923405945
 51
356.5269773889
  0
ARC
  5
3D0
100
AcDbEntity
  8
0
100
AcDbCircle
 62
7
  6
CONTINUOUS
 10
-117.4893327901
 20
20.6073152704
 40
132.8550720619
100
AcDbArc
 50
358.1792701551
 51
358.4785588555
  0
ARC
  5
3D1
100
AcDbEntity
  8
0
100
AcDbCircle
 62
253
  6
CONTINUOUS
 10
-116.8308920894
 20
20.3506407973
 40
131.9772708141
100
AcDbArc
 50
358.2952874053
 51
358.4704359708
  0
ARC
  5
3D2
100
AcDbEntity
  8
RACCORDO
100
AcDbCircle
 62
253
  6
CONTINUOUS
 10
-14.7453606079
 20
18.8838609696
 40
1.417676814
100
AcDbArc
 50
167.4175202958
 51
169.9311582979
  0
ARC
  5
3D3
100
AcDbEntity
  8
RACCORDO
100
AcDbCircle
 62
253
  6
CONTINUOUS
 10
-14.8330220167
 20
18.8991290183
 40
1.3286962304
100
AcDbArc
 50
169.9185209
 51
173.4681372049
  0
ARC
  5
3D4
100
AcDbEntity
  8
RACCORDO
100
AcDbCircle
 62
253
  6
CONTINUOUS
 10
-15.0547682115
 20
19.3284213456
 40
0.8960380487
100
AcDbArc
 50
118.7155766627
 51
120.2077945428
  0
ARC
  5
3D5
100
AcDbEntity
  8
RACCORDO
100
AcDbCircle
 62
253
  6
CONTINUOUS
 10
94.1376219605
 20
6.458077446
 40
111.0072310388
100
AcDbArc
 50
173.4865851471
 51
175.9193965135
  0
ARC
  5
3D6
100
AcDbEntity
  8
RACCORDO
100
AcDbCircle
 62
253
  6
CONTINUOUS
 10
89.6150100501
 20
6.6178220184
 40
106.7632919497
100
AcDbArc
 50
173.2442084483
 51
175.7906951801
  0
ARC
  5
3D7
100
AcDbEntity
  8
0
100
AcDbCircle
 62
253
  6
CONTINUOUS
 10
99.0845194163
 20
-0.1482956256
 40
101.2086455462
100
AcDbArc
 50
175.0530685973
 51
179.0520393994
  0
ARC
  5
3D8
100
AcDbEntity
  8
0
100
AcDbCircle
 62
253
  6
CONTINUOUS
 10
98.2178888039
 20
-0.1133633373
 40
101.0424678453
100
AcDbArc
 50
175.5627416065
 51
179.0638727595
  0
ARC
  5
3D9
100
AcDbEntity
  8
0
100
AcDbCircle
 62
7
  6
CONTINUOUS
 10
-0.2871808326
 20
8.8619214654
 40
14.8505231573
100
AcDbArc
 50
355.0302349636
 51
355.2405826133
  0
ARC
  5
3DA
100
AcDbEntity
  8
0
100
AcDbCircle
 62
7
  6
CONTINUOUS
 10
6.2206478404
 20
8.2986961664
 40
8.3183685289
100
AcDbArc
 50
354.8847921618
 51
355.011874887
  0
ARC
  5
3DB
100
AcDbEntity
  8
0
100
AcDbCircle
 62
7
  6
CONTINUOUS
 10
10.7707648064
 20
1.8573223728
 40
4.4175182132
100
AcDbArc
 50
43.6092791783
 51
46.2553516136
  0
ARC
  5
3DC
100
AcDbEntity
  8
0
100
AcDbCircle
 62
253
  6
CONTINUOUS
 10
9.5398783328
 20
-0.0160706127
 40
1.9932864399
100
AcDbArc
 50
243.390583834
 51
247.3252288094
  0
ARC
  5
3DD
100
AcDbEntity
  8
0
100
AcDbCircle
 62
253
  6
CONTINUOUS
 10
9.4695488787
 20
-0.187425024
 40
1.8080647516
100
AcDbArc
 50
247.2883572343
 51
251.4877847336
  0
ARC
  5
3DE
100
AcDbEntity
  8
0
100
AcDbCircle
 62
253
  6
CONTINUOUS
 10
15.8387890912
 20
1.9589998656
 40
1.6202307412
100
AcDbArc
 50
296.1612369353
 51
299.564178593
  0
ARC
  5
3DF
100
AcDbEntity
  8
0
100
AcDbCircle
 62
7
  6
CONTINUOUS
 10
13.9215536272
 20
0.7682601418
 40
1.4062521177
100
AcDbArc
 50
296.5658382495
 51
299.7831543204
  0
ARC
  5
3E0
100
AcDbEntity
  8
RACCORDO
100
AcDbCircle
 62
253
  6
CONTINUOUS
 10
-1.6604088489
 20
12.2928247031
 40
1.1431450127
100
AcDbArc
 50
170.2020722698
 51
173.2438467961
  0
ARC
  5
3E1
100
AcDbEntity
  8
RACCORDO
100
AcDbCircle
 62
253
  6
CONTINUOUS
 10
-3.5649644381
 20
7.7695296841
 40
0.2940815792
100
AcDbArc
 50
243.4266522569
 51
245.6004315908
  0
ARC
  5
3E2
100
AcDbEntity
  8
RACCORDO
100
AcDbCircle
 62
253
  6
CONTINUOUS
 10
-3.3782663086
 20
7.6889297792
 40
0.293730238
100
AcDbArc
 50
250.9910125917
 51
258.2461223359
  0
ARC
  5
3E3
100
AcDbEntity
  8
RACCORDO
100
AcDbCircle
 62
253
  6
CONTINUOUS
 10
-3.5731844709
 20
7.7510496921
 40
0.2738564595
100
AcDbArc
 50
245.5694328281
 51
250.3865351722
  0
ARC
  5
3E4
100
AcDbEntity
  8
RACCORDO
100
AcDbCircle
 62
253
  6
CONTINUOUS
 10
-3.4005347794
 20
7.2225406682
 40
0.2380349535
100
AcDbArc
 50
128.2114084816
 51
132.8941535414
  0
ARC
  5
3E5
100
AcDbEntity
  8
RACCORDO
100
AcDbCircle
 62
253
  6
CONTINUOUS
 10
-3.5890223631
 20
7.6526671702
 40
0.1728871245
100
AcDbArc
 50
282.2593059171
 51
295.8655707955
  0
ARC
  5
3E6
100
AcDbEntity
  8
RACCORDO
100
AcDbCircle
 62
253
  6
CONTINUOUS
 10
-1.5663082866
 20
12.5902501879
 40
0.9198177248
100
AcDbArc
 50
120.1405322214
 51
124.7252297733
  0
ARC
  5
3E7
100
AcDbEntity
  8
0
100
AcDbCircle
 62
7
  6
CONTINUOUS
 10
-0.5737304173
 20
17.1986882319
 40
0.2522783115
100
AcDbArc
 50
187.2606536075
 51
205.8198203226
  0
ARC
  5
3E8
100
AcDbEntity
  8
0
100
AcDbCircle
 62
7
  6
CONTINUOUS
 10
-0.575924541
 20
17.5379934824
 40
0.2500151037
100
AcDbArc
 50
117.1617076756
 51
179.9944821188
  0
ARC
  5
3E9
100
AcDbEntity
  8
0
100
AcDbCircle
 62
7
  6
CONTINUOUS
 10
-0.5759763873
 20
17.1979924451
 40
0.2499537638
100
AcDbArc
 50
205.9004825926
 51
243.4668726473
  0
ARC
  5
3EA
100
AcDbEntity
  8
0
100
AcDbCircle
 62
7
  6
CONTINUOUS
 10
-0.5764014403
 20
17.1980220194
 40
0.2495447175
100
AcDbArc
 50
179.992571569
 51
187.186424096
  0
ARC
  5
3EB
100
AcDbEntity
  8
0
100
AcDbCircle
 62
253
  6
CONTINUOUS
 10
-0.6456699607
 20
17.0585523905
 40
0.0940674384
100
AcDbArc
 50
238.1057806843
 51
243.430096256
  0
ARC
  5
3EC
100
AcDbEntity
  8
0
100
AcDbCircle
 62
253
  6
CONTINUOUS
 10
-0.7631178633
 20
17.1980354406
 40
0.0628250606
100
AcDbArc
 50
180.0077271482
 51
185.9636475196
  0
ARC
  5
3ED
100
AcDbEntity
  8
RACCORDO
100
AcDbCircle
 62
253
  6
CONTINUOUS
 10
-14.5159962015
 20
18.8163231668
 40
1.6571829568
100
AcDbArc
 50
153.8250281888
 51
156.6537960561
  0
ARC
  5
3EE
100
AcDbEntity
  8
RACCORDO
100
AcDbCircle
 62
253
  6
CONTINUOUS
 10
-14.576937574
 20
18.8183239236
 40
1.6018049476
100
AcDbArc
 50
148.2037572803
 51
152.9276595602
  0
ARC
  5
3EF
100
AcDbEntity
  8
0
100
AcDbCircle
 62
7
  6
CONTINUOUS
 10
-1.3011055128
 20
24.3011104629
 40
0.3745671217
100
AcDbArc
 50
111.0890907649
 51
116.2937668027
  0
ARC
  5
3F0
100
AcDbEntity
  8
0
100
AcDbCircle
 62
7
  6
CONTINUOUS
 10
-12.87738841
 20
23.3505172282
 40
0.2522783115
100
AcDbArc
 50
187.2606536075
 51
205.8198203226
  0
ARC
  5
3F1
100
AcDbEntity
  8
0
100
AcDbCircle
 62
7
  6
CONTINUOUS
 10
-10.7642449769
 20
24.7604604845
 40
0.250691134
100
AcDbArc
 50
99.4431458383
 51
116.0150406506
  0
ARC
  5
3F2
100
AcDbEntity
  8
0
100
AcDbCircle
 62
7
  6
CONTINUOUS
 10
-9.0736031676
 20
23.5681835091
 40
0.2500529403
100
AcDbArc
 50
320.5991320924
 51
328.846228407
  0
ARC
  5
3F3
100
AcDbEntity
  8
0
100
AcDbCircle
 62
7
  6
CONTINUOUS
 10
-11.2010464457
 20
22.5105684673
 40
0.2499779475
100
AcDbArc
 50
243.429012003
 51
258.2010452234
  0
ARC
  5
3F4
100
AcDbEntity
  8
0
100
AcDbCircle
 62
7
  6
CONTINUOUS
 10
-12.87963438
 20
23.3498214414
 40
0.2499537638
100
AcDbArc
 50
205.9004825926
 51
243.4668726473
  0
ARC
  5
3F5
100
AcDbEntity
  8
0
100
AcDbCircle
 62
7
  6
CONTINUOUS
 10
-9.0733885708
 20
23.9158082878
 40
0.2497830961
100
AcDbArc
 50
0.0058274949
 51
63.5080919283
  0
ARC
  5
3F6
100
AcDbEntity
  8
0
100
AcDbCircle
 62
7
  6
CONTINUOUS
 10
-12.8797859055
 20
23.6899445112
 40
0.249782347
100
AcDbArc
 50
117.0884791557
 51
179.9954607701
  0
ARC
  5
3F7
100
AcDbEntity
  8
0
100
AcDbCircle
 62
7
  6
CONTINUOUS
 10
-12.8800594329
 20
23.3498510158
 40
0.2495447175
100
AcDbArc
 50
179.992571569
 51
187.1864240961
  0
ARC
  5
3F8
100
AcDbEntity
  8
0
100
AcDbCircle
 62
7
  6
CONTINUOUS
 10
-2.00361481
 20
24.7805013186
 40
0.2039400229
100
AcDbArc
 50
103.8753323296
 51
110.4028044808
  0
ARC
  5
3F9
100
AcDbEntity
  8
0
100
AcDbCircle
 62
7
  6
CONTINUOUS
 10
-3.6592337213
 20
20.0786158937
 40
0.2000264278
100
AcDbArc
 50
117.3009020161
 51
179.9954553107
  0
ARC
  5
3FA
100
AcDbEntity
  8
0
100
AcDbCircle
 62
253
  6
CONTINUOUS
 10
-3.5836545972
 20
20.1008393451
 40
0.168868535
100
AcDbArc
 50
116.9100126539
 51
119.7528174078
  0
ARC
  5
3FB
100
AcDbEntity
  8
0
100
AcDbCircle
 62
253
  6
CONTINUOUS
 10
-10.6947932393
 20
24.9004057814
 40
0.0942783586
100
AcDbArc
 50
63.4468793614
 51
70.0270077918
  0
ARC
  5
3FC
100
AcDbEntity
  8
0
100
AcDbCircle
 62
253
  6
CONTINUOUS
 10
-12.9493279534
 20
23.2103813868
 40
0.0940674384
100
AcDbArc
 50
238.1057806843
 51
243.4300962561
  0
ARC
  5
3FD
100
AcDbEntity
  8
0
100
AcDbCircle
 62
253
  6
CONTINUOUS
 10
-8.8865412881
 20
23.5681773177
 40
0.0629690123
100
AcDbArc
 50
352.5179519723
 51
359.9858103333
  0
ARC
  5
3FE
100
AcDbEntity
  8
0
100
AcDbCircle
 62
253
  6
CONTINUOUS
 10
-13.0667758559
 20
23.349864437
 40
0.0628250606
100
AcDbArc
 50
180.0077271482
 51
185.9636475196
  0
ARC
  5
3FF
100
AcDbEntity
  8
0
100
AcDbCircle
 62
253
  6
CONTINUOUS
 10
4.7710833747
 20
16.1284058728
 40
1.9404999533
100
AcDbArc
 50
274.2488057672
 51
275.631565798
  0
ARC
  5
400
100
AcDbEntity
  8
0
100
AcDbCircle
 62
253
  6
CONTINUOUS
 10
4.7713683712
 20
16.1102641829
 40
1.9373688709
100
AcDbArc
 50
274.4948053361
 51
275.6322273181
  0
ARC
  5
401
100
AcDbEntity
  8
0
100
AcDbCircle
 62
7
  6
CONTINUOUS
 10
4.7672471348
 20
14.6745227337
 40
1.0018236402
100
AcDbArc
 50
293.590364487
 51
296.5719171022
  0
ARC
  5
402
100
AcDbEntity
  8
0
100
AcDbCircle
 62
7
  6
CONTINUOUS
 10
5.8600276742
 20
15.2338884797
 40
1.0000463193
100
AcDbArc
 50
0.0013890944
 51
58.2284935085
  0
ARC
  5
403
100
AcDbEntity
  8
0
100
AcDbCircle
 62
7
  6
CONTINUOUS
 10
5.8600577622
 20
15.2188998923
 40
1.0000091764
100
AcDbArc
 50
296.535290227
 51
356.0327914646
  0
ARC
  5
404
100
AcDbEntity
  8
0
100
AcDbCircle
 62
7
  6
CONTINUOUS
 10
5.8616754216
 20
15.2189519933
 40
0.9983957881
100
AcDbArc
 50
356.0233858927
 51
359.9963964486
  0
ARC
  5
405
100
AcDbEntity
  8
0
100
AcDbCircle
 62
253
  6
CONTINUOUS
 10
14.8018910524
 20
17.549835398
 40
0.7260251539
100
AcDbArc
 50
294.1968501701
 51
294.8311231067
  0
ARC
  5
406
100
AcDbEntity
  8
0
100
AcDbCircle
 62
7
  6
CONTINUOUS
 10
3.2291386519
 20
17.4172184547
 40
0.2512674995
100
AcDbArc
 50
320.5866250479
 51
329.1149210375
  0
ARC
  5
407
100
AcDbEntity
  8
0
100
AcDbCircle
 62
7
  6
CONTINUOUS
 10
1.1029418307
 20
16.3597547244
 40
0.251046705
100
AcDbArc
 50
243.4638408005
 51
258.1750254622
  0
ARC
  5
408
100
AcDbEntity
  8
0
100
AcDbCircle
 62
7
  6
CONTINUOUS
 10
1.5389962356
 20
18.6086377559
 40
0.2506863999
100
AcDbArc
 50
63.3938371271
 51
80.0867799204
  0
ARC
  5
409
100
AcDbEntity
  8
0
100
AcDbCircle
 62
7
  6
CONTINUOUS
 10
3.230065022
 20
17.7638547486
 40
0.2500178625
100
AcDbArc
 50
0.0078515286
 51
63.4316275385
  0
ARC
  5
40A
100
AcDbEntity
  8
0
100
AcDbCircle
 62
253
  6
CONTINUOUS
 10
6.6100613579
 20
15.2188291133
 40
0.2500059366
100
AcDbArc
 50
355.0091667459
 51
0.0137705527
  0
ARC
  5
40B
100
AcDbEntity
  8
0
100
AcDbCircle
 62
7
  6
CONTINUOUS
 10
11.0959309628
 20
21.0514056543
 40
1.1256801078
100
AcDbArc
 50
59.6335412632
 51
67.2286859065
  0
ARC
  5
40C
100
AcDbEntity
  8
0
100
AcDbCircle
 62
7
  6
CONTINUOUS
 10
3.6486419555
 20
21.8262367288
 40
0.3745671217
100
AcDbArc
 50
111.0890907649
 51
116.2937668027
  0
ARC
  5
40D
100
AcDbEntity
  8
0
100
AcDbCircle
 62
7
  6
CONTINUOUS
 10
3.5864813844
 20
21.9864047754
 40
0.2027605655
100
AcDbArc
 50
104.4015275144
 51
110.9857654761
  0
ARC
  5
40E
100
AcDbEntity
  8
0
100
AcDbCircle
 62
7
  6
CONTINUOUS
 10
14.9839820897
 20
18.754316435
 40
0.1943682586
100
AcDbArc
 50
357.0672510898
 51
0.412609804
  0
ARC
  5
40F
100
AcDbEntity
  8
0
100
AcDbCircle
 62
253
  6
CONTINUOUS
 10
1.4708978034
 20
18.7494874446
 40
0.0940592749
100
AcDbArc
 50
109.4786603839
 51
115.9607725688
  0
ARC
  5
410
100
AcDbEntity
  8
0
100
AcDbCircle
 62
253
  6
CONTINUOUS
 10
520.3273594641
 20
-6.6897955018
 40
523.2031420078
100
AcDbArc
 50
179.0990007583
 51
180.9009992417
  0
ARC
  5
411
100
AcDbEntity
  8
0
100
AcDbCircle
 62
253
  6
CONTINUOUS
 10
520.4960377582
 20
-6.6928856677
 40
522.6709379715
100
AcDbArc
 50
179.098985241
 51
180.901014759
  0
ARC
  5
412
100
AcDbEntity
  8
0
100
AcDbCircle
 62
253
  6
CONTINUOUS
 10
519.8441644976
 20
0.7432100092
 40
537.5842273238
100
AcDbArc
 50
179.1231055813
 51
180.8768944187
  0
SPLINE
  5
413
100
AcDbEntity
  8
RACCORDO
100
AcDbSpline
 62
253
  6
CONTINUOUS
 70
0
 71
3
 72
10
 73
6
 74
4
 42
0.0000001
 43
0.0000001
 44
0.0000000001
 12
-0.0052294069
 22
-0.0464471338
 32
0.0
 13
0.0418651471
 23
-0.0207844266
 33
0.0
 40
0.0
 40
0.0
 40
0.0
 40
0.0
 40
0.1842709862
 40
0.5323257582
 40
1.0
 40
1.0
 40
1.0
 40
1.0
 10
-16.1825459477
 20
19.0836154537
 30
0.0
 10
-16.1828671571
 20
19.0807625007
 30
0.0
 10
-16.1813654238
 20
19.0722000725
 30
0.0
 10
-16.1705074376
 20
19.0601352975
 30
0.0
 10
-16.1596196704
 20
19.0535159704
 30
0.0
 10
-16.1530932534
 20
19.0502758567
 30
0.0
 11
-16.1825459477
 21
19.0836154537
 31
0.0
 11
-16.1813148157
 21
19.0750909618
 31
0.0
 11
-16.1714365839
 21
19.062165109
 31
0.0
 11
-16.1530932534
 21
19.0502758567
 31
0.0
  0
SPLINE
  5
414
100
AcDbEntity
  8
RACCORDO
100
AcDbSpline
 62
253
  6
CONTINUOUS
 70
0
 71
3
 72
13
 73
9
 74
7
 42
0.0000001
 43
0.0000001
 44
0.0000000001
 12
-0.0150781999
 22
-0.0357036258
 32
0.0
 13
0.034665268
 23
-0.017332634
 33
0.0
 40
0.0
 40
0.0
 40
0.0
 40
0.0
 40
0.0166541264
 40
0.0663295896
 40
0.1487405294
 40
0.2635279974
 40
0.5820721048
 40
1.0
 40
1.0
 40
1.0
 40
1.0
 10
-16.0380191883
 20
19.5644167618
 30
0.0
 10
-16.038102893
 20
19.5642185576
 30
0.0
 10
-16.0366634249
 20
19.5640883319
 30
0.0
 10
-16.0355333579
 20
19.5631098535
 30
0.0
 10
-16.0322763462
 20
19.561903482
 30
0.0
 10
-16.02648553
 20
19.5589414194
 30
0.0
 10
-16.0165104444
 20
19.5540413773
 30
0.0
 10
-16.0080660532
 20
19.5497441063
 30
0.0
 10
-16.0032368591
 20
19.5473295092
 30
0.0
 11
-16.0380191883
 21
19.5644167618
 31
0.0
 11
-16.0374390229
 21
19.5641338648
 31
0.0
 11
-16.0356775333
 21
19.5633568084
 31
0.0
 11
-16.0327711622
 21
19.5620321876
 31
0.0
 11
-16.0287584362
 21
19.5601112612
 31
0.0
 11
-16.0177097509
 21
19.5546026075
 31
0.0
 11
-16.0032368591
 21
19.5473295092
 31
0.0
  0
SPLINE
  5
415
100
AcDbEntity
  8
RACCORDO
100
AcDbSpline
 62
253
  6
CONTINUOUS
 70
0
 71
3
 72
9
 73
5
 74
3
 42
0.0000001
 43
0.0000001
 44
0.0000000001
 12
-0.0062494158
 22
0.1454499566
 32
0.0
 13
-0.1311556201
 23
0.0631897807
 33
0.0
 40
0.0
 40
0.0
 40
0.0
 40
0.0
 40
0.5077900231
 40
1.0
 40
1.0
 40
1.0
 40
1.0
 10
-2.2027924755
 20
13.3914676392
 30
0.0
 10
-2.2038502725
 20
13.4160869848
 30
0.0
 10
-2.2216917964
 20
13.4634223127
 30
0.0
 10
-2.2569084642
 20
13.5004665104
 30
0.0
 10
-2.2784271658
 20
13.5108340572
 30
0.0
 11
-2.2027924755
 21
13.3914676392
 31
0.0
 11
-2.2264499613
 21
13.4615062241
 31
0.0
 11
-2.2784271658
 21
13.5108340572
 31
0.0
  0
SPLINE
  5
416
100
AcDbEntity
  8
RACCORDO
100
AcDbSpline
 62
253
  6
CONTINUOUS
 70
0
 71
3
 72
9
 73
5
 74
3
 42
0.0000001
 43
0.0000001
 44
0.0000000001
 12
-0.6665713003
 22
-0.3873892836
 32
0.0
 13
-0.3400829272
 23
-0.6919041538
 33
0.0
 40
0.0
 40
0.0
 40
0.0
 40
0.0
 40
0.4721840235
 40
1.0
 40
1.0
 40
1.0
 40
1.0
 10
-2.2784271664
 20
13.5108340568
 30
0.0
 10
-2.3833419393
 20
13.4498610466
 30
0.0
 10
-2.5792201098
 20
13.2754701708
 30
0.0
 10
-2.7205284359
 20
13.0576251767
 30
0.0
 10
-2.78036217
 20
12.9358924878
 30
0.0
 11
-2.2784271664
 21
13.5108340568
 31
0.0
 11
-2.5561562547
 21
13.2754834433
 31
0.0
 11
-2.78036217
 21
12.9358924878
 31
0.0
  0
SPLINE
  5
417
100
AcDbEntity
  8
RACCORDO
100
AcDbSpline
 62
253
  6
CONTINUOUS
 70
0
 71
3
 72
11
 73
7
 74
5
 42
0.0000001
 43
0.0000001
 44
0.0000000001
 12
-0.1260722457
 22
0.0635153367
 32
0.0
 13
-0.1262645131
 23
0.0631322567
 33
0.0
 40
0.0
 40
0.0
 40
0.0
 40
0.0
 40
0.2087004354
 40
0.4720126513
 40
0.7506128111
 40
1.0
 40
1.0
 40
1.0
 40
1.0
 10
-2.6549447652
 20
12.8711415284
 30
0.0
 10
-2.6637152094
 20
12.8755600879
 30
0.0
 10
-2.6827801186
 20
12.8870051764
 30
0.0
 10
-2.7142026688
 20
12.9031596946
 30
0.0
 10
-2.7477220172
 20
12.919373945
 30
0.0
 10
-2.7698652512
 20
12.9306440327
 30
0.0
 10
-2.7803615018
 20
12.935892158
 30
0.0
 11
-2.6549447652
 21
12.8711415284
 31
0.0
 11
-2.6807101301
 21
12.8854294674
 31
0.0
 11
-2.713626308
 21
12.9026987484
 31
0.0
 11
-2.748897596
 21
12.9200981874
 31
0.0
 11
-2.7803615018
 21
12.935892158
 31
0.0
  0
SPLINE
  5
418
100
AcDbEntity
  8
RACCORDO
100
AcDbSpline
 62
253
  6
CONTINUOUS
 70
0
 71
3
 72
9
 73
5
 74
3
 42
0.0000001
 43
0.0000001
 44
0.0000000001
 12
-0.6016126432
 22
-0.3507906522
 32
0.0
 13
-0.3055022521
 23
-0.6258276345
 33
0.0
 40
0.0
 40
0.0
 40
0.0
 40
0.0
 40
0.4720621593
 40
1.0
 40
1.0
 40
1.0
 40
1.0
 10
-2.2027924755
 20
13.3914676392
 30
0.0
 10
-2.2974586633
 20
13.3362693083
 30
0.0
 10
-2.4740782907
 20
13.1783413065
 30
0.0
 10
-2.601182886
 20
12.9812102866
 30
0.0
 10
-2.6549449524
 20
12.87107759
 30
0.0
 11
-2.2027924755
 21
13.3914676392
 31
0.0
 11
-2.4531754861
 21
13.1784295355
 31
0.0
 11
-2.6549449524
 21
12.87107759
 31
0.0
  0
SPLINE
  5
419
100
AcDbEntity
  8
RACCORDO
100
AcDbSpline
 62
253
  6
CONTINUOUS
 70
0
 71
3
 72
9
 73
5
 74
3
 42
0.0000001
 43
0.0000001
 44
0.0000000001
 12
-0.0033134653
 22
-0.0467331148
 32
0.0
 13
0.0419393265
 23
-0.020881953
 33
0.0
 40
0.0
 40
0.0
 40
0.0
 40
0.0
 40
0.1963816574
 40
1.0
 40
1.0
 40
1.0
 40
1.0
 10
-16.6198211574
 20
14.3596747498
 30
0.0
 10
-16.6200380586
 20
14.3566155743
 30
0.0
 10
-16.6170011385
 20
14.3406636727
 30
0.0
 10
-16.6017084299
 20
14.3309006014
 30
0.0
 10
-16.5904740259
 20
14.3253068946
 30
0.0
 11
-16.6198211574
 21
14.3596747498
 31
0.0
 11
-16.6183726141
 21
14.3505889295
 31
0.0
 11
-16.5904740259
 21
14.3253068946
 31
0.0
  0
SPLINE
  5
41A
100
AcDbEntity
  8
RACCORDO
100
AcDbSpline
 62
253
  6
CONTINUOUS
 70
0
 71
3
 72
9
 73
5
 74
3
 42
0.0000001
 43
0.0000001
 44
0.0000000001
 12
-0.2365784912
 22
-0.4627744463
 32
0.0
 13
-0.0608679456
 23
-0.5161634081
 33
0.0
 40
0.0
 40
0.0
 40
0.0
 40
0.0
 40
0.2576098297
 40
1.0
 40
1.0
 40
1.0
 40
1.0
 10
-2.78036217
 20
12.9358924878
 30
0.0
 10
-2.8006771516
 20
12.8961540724
 30
0.0
 10
-2.8730468479
 20
12.7387508766
 30
0.0
 10
-2.9199389947
 20
12.5689614962
 30
0.0
 10
-2.9350015829
 20
12.4412299494
 30
0.0
 11
-2.78036217
 21
12.9358924878
 31
0.0
 11
-2.8362726797
 21
12.8142348692
 31
0.0
 11
-2.9350015829
 21
12.4412299494
 31
0.0
  0
SPLINE
  5
41B
100
AcDbEntity
  8
RACCORDO
100
AcDbSpline
 62
253
  6
CONTINUOUS
 70
0
 71
3
 72
9
 73
5
 74
3
 42
0.0000001
 43
0.0000001
 44
0.0000000001
 12
-0.1878882872
 22
-0.3650167835
 32
0.0
 13
-0.0697364524
 23
-0.404569015
 33
0.0
 40
0.0
 40
0.0
 40
0.0
 40
0.0
 40
0.2556649443
 40
1.0
 40
1.0
 40
1.0
 40
1.0
 10
-2.6549449524
 20
12.8752160006
 30
0.0
 10
-2.6709571019
 20
12.8441086688
 30
0.0
 10
-2.7288857427
 20
12.7201170377
 30
0.0
 10
-2.7695775814
 20
12.5877364013
 30
0.0
 10
-2.7868800101
 20
12.4873581012
 30
0.0
 11
-2.6549449524
 21
12.8752160006
 31
0.0
 11
-2.6994510713
 21
12.7801596982
 31
0.0
 11
-2.7868800101
 21
12.4873581012
 31
0.0
  0
SPLINE
  5
41C
100
AcDbEntity
  8
RACCORDO
100
AcDbSpline
 62
253
  6
CONTINUOUS
 70
0
 71
3
 72
9
 73
5
 74
3
 42
0.0000001
 43
0.0000001
 44
0.0000000001
 12
-0.1359594311
 22
-0.0409591064
 32
0.0
 13
-0.1268241205
 23
0.0638612383
 33
0.0
 40
0.0
 40
0.0
 40
0.0
 40
0.0
 40
0.4925739712
 40
1.0
 40
1.0
 40
1.0
 40
1.0
 10
-2.7956156665
 20
12.4273089076
 30
0.0
 10
-2.8179390254
 20
12.4205837777
 30
0.0
 10
-2.8664755338
 20
12.4198367936
 30
0.0
 10
-2.9135502942
 20
12.4304283319
 30
0.0
 10
-2.9350015808
 20
12.4412299501
 30
0.0
 11
-2.7956156665
 21
12.4273089076
 31
0.0
 11
-2.8654000042
 21
12.4225989435
 31
0.0
 11
-2.9350015808
 21
12.4412299501
 31
0.0
  0
SPLINE
  5
41D
100
AcDbEntity
  8
RACCORDO
100
AcDbSpline
 62
253
  6
CONTINUOUS
 70
0
 71
3
 72
9
 73
5
 74
3
 42
0.0000001
 43
0.0000001
 44
0.0000000001
 12
-0.0624644776
 22
0.0311957212
 32
0.0
 13
0.0047936275
 23
0.0696563358
 33
0.0
 40
0.0
 40
0.0
 40
0.0
 40
0.0
 40
0.4427299171
 40
1.0
 40
1.0
 40
1.0
 40
1.0
 10
-16.3068050495
 20
13.7627495011
 30
0.0
 10
-16.3160233472
 20
13.7673532608
 30
0.0
 10
-16.3317890287
 20
13.7875135034
 30
0.0
 10
-16.3334105811
 20
13.8115752031
 30
0.0
 10
-16.3325201327
 20
13.8245143338
 30
0.0
 11
-16.3068050495
 21
13.7627495011
 31
0.0
 11
-16.3272108373
 21
13.7859690696
 31
0.0
 11
-16.3325201327
 21
13.8245143338
 31
0.0
  0
SPLINE
  5
41E
100
AcDbEntity
  8
RACCORDO
100
AcDbSpline
 62
253
  6
CONTINUOUS
 70
0
 71
3
 72
9
 73
5
 74
3
 42
0.0000001
 43
0.0000001
 44
0.0000000001
 12
0.0398876359
 22
0.0216958485
 32
0.0
 13
0.0403041549
 23
-0.020911921
 33
0.0
 40
0.0
 40
0.0
 40
0.0
 40
0.0
 40
0.2248449923
 40
1.0
 40
1.0
 40
1.0
 40
1.0
 10
-15.5294592779
 20
20.117434495
 30
0.0
 10
-15.5264697662
 20
20.1190605626
 30
0.0
 10
-15.5119400338
 20
20.124194819
 30
0.0
 10
-15.4956943836
 20
20.1196639976
 30
0.0
 10
-15.4852803944
 20
20.1142606708
 30
0.0
 11
-15.5294592779
 21
20.117434495
 31
0.0
 11
-15.5198491424
 21
20.1208807657
 31
0.0
 11
-15.4852803944
 21
20.1142606708
 31
0.0
  0
SPLINE
  5
41F
100
AcDbEntity
  8
RACCORDO
100
AcDbSpline
 62
253
  6
CONTINUOUS
 70
0
 71
3
 72
9
 73
5
 74
3
 42
0.0000001
 43
0.0000001
 44
0.0000000001
 12
-0.062464479
 22
0.0311957201
 32
0.0
 13
0.0047936276
 23
0.0696563366
 33
0.0
 40
0.0
 40
0.0
 40
0.0
 40
0.0
 40
0.4427299156
 40
1.0
 40
1.0
 40
1.0
 40
1.0
 10
-3.6708047213
 20
7.444749337
 30
0.0
 10
-3.6800230191
 20
7.4493530965
 30
0.0
 10
-3.695788701
 20
7.4695133392
 30
0.0
 10
-3.6974102536
 20
7.4935750392
 30
0.0
 10
-3.6965198052
 20
7.5065141701
 30
0.0
 11
-3.6708047213
 21
7.444749337
 31
0.0
 11
-3.6912105095
 21
7.4679689054
 31
0.0
 11
-3.6965198052
 21
7.5065141701
 31
0.0
  0
SPLINE
  5
420
100
AcDbEntity
  8
RACCORDO
100
AcDbSpline
 62
253
  6
CONTINUOUS
 70
0
 71
3
 72
9
 73
5
 74
3
 42
0.0000001
 43
0.0000001
 44
0.0000000001
 12
-0.1334842527
 22
-0.049699292
 32
0.0
 13
-0.1272921481
 23
0.0639122398
 33
0.0
 40
0.0
 40
0.0
 40
0.0
 40
0.0
 40
0.495875163
 40
1.0
 40
1.0
 40
1.0
 40
1.0
 10
-3.2480245422
 20
7.7153470233
 30
0.0
 10
-3.270088384
 20
7.7071321418
 30
0.0
 10
-3.3188051807
 20
7.7037662399
 30
0.0
 10
-3.3665145859
 20
7.7132824467
 30
0.0
 10
-3.3879049637
 20
7.7240223626
 30
0.0
 11
-3.2480245422
 21
7.7153470233
 31
0.0
 11
-3.3181555733
 21
7.7069616173
 31
0.0
 11
-3.3879049637
 21
7.7240223626
 31
0.0
  0
SPLINE
  5
421
100
AcDbEntity
  8
RACCORDO
100
AcDbSpline
 62
253
  6
CONTINUOUS
 70
0
 71
3
 72
9
 73
5
 74
3
 42
0.0000001
 43
0.0000001
 44
0.0000000001
 12
-0.0144735166
 22
-0.1968233327
 32
0.0
 13
-0.1313778572
 23
-0.1472710616
 33
0.0
 40
0.0
 40
0.0
 40
0.0
 40
0.0
 40
0.2765896114
 40
1.0
 40
1.0
 40
1.0
 40
1.0
 10
-3.3879049653
 20
7.7240223619
 30
0.0
 10
-3.3892393734
 20
7.7058759322
 30
0.0
 10
-3.3979059658
 20
7.6408706957
 30
0.0
 10
-3.4247439032
 20
7.576388204
 30
0.0
 10
-3.4564239388
 20
7.540875732
 30
0.0
 11
-3.3879049653
 21
7.7240223619
 31
0.0
 11
-3.3954236931
 21
7.6699563769
 31
0.0
 11
-3.4564239388
 21
7.540875732
 31
0.0
  0
SPLINE
  5
422
100
AcDbEntity
  8
RACCORDO
100
AcDbSpline
 62
253
  6
CONTINUOUS
 70
0
 71
3
 72
9
 73
5
 74
3
 42
0.0000001
 43
0.0000001
 44
0.0000000001
 12
-0.0481060282
 22
-0.05392557
 32
0.0
 13
-0.0650029345
 23
-0.0315717526
 33
0.0
 40
0.0
 40
0.0
 40
0.0
 40
0.0
 40
0.2570990391
 40
1.0
 40
1.0
 40
1.0
 40
1.0
 10
-3.4564239388
 20
7.540875732
 30
0.0
 10
-3.46054661
 20
7.5362543279
 30
0.0
 10
-3.4773606937
 20
7.5189973825
 30
0.0
 10
-3.497501511
 20
7.5049180903
 30
0.0
 10
-3.5135984251
 20
7.4970998619
 30
0.0
 11
-3.4564239388
 21
7.540875732
 31
0.0
 11
-3.4694122764
 21
7.5275908824
 31
0.0
 11
-3.5135984251
 21
7.4970998619
 31
0.0
  0
SPLINE
  5
423
100
AcDbEntity
  8
RACCORDO
100
AcDbSpline
 62
253
  6
CONTINUOUS
 70
0
 71
3
 72
9
 73
5
 74
3
 42
0.0000001
 43
0.0000001
 44
0.0000000001
 12
-0.1114499941
 22
-0.0242005263
 32
0.0
 13
-0.1074575447
 23
0.0382052711
 33
0.0
 40
0.0
 40
0.0
 40
0.0
 40
0.0
 40
0.2392953982
 40
1.0
 40
1.0
 40
1.0
 40
1.0
 10
-3.5523121351
 20
7.4837224544
 30
0.0
 10
-3.5612019587
 20
7.4817920962
 30
0.0
 10
-3.5989851871
 20
7.476603307
 30
0.0
 10
-3.6378628601
 20
7.4833951277
 30
0.0
 10
-3.6651106763
 20
7.4930827695
 30
0.0
 11
-3.5523121351
 21
7.4837224544
 31
0.0
 11
-3.5793473345
 21
7.4799948266
 31
0.0
 11
-3.6651106763
 21
7.4930827695
 31
0.0
  0
SPLINE
  5
424
100
AcDbEntity
  8
RACCORDO
100
AcDbSpline
 62
253
  6
CONTINUOUS
 70
0
 71
3
 72
9
 73
5
 74
3
 42
0.0000001
 43
0.0000001
 44
0.0000000001
 12
-0.01137256
 22
-0.1876266281
 32
0.0
 13
-0.0928161031
 23
-0.1634572045
 33
0.0
 40
0.0
 40
0.0
 40
0.0
 40
0.0
 40
0.2694057826
 40
1.0
 40
1.0
 40
1.0
 40
1.0
 10
-3.2480244466
 20
7.7153469738
 30
0.0
 10
-3.2490457244
 20
7.6984977409
 30
0.0
 10
-3.2556621643
 20
7.6362547101
 30
0.0
 10
-3.2745632361
 20
7.5746066366
 30
0.0
 10
-3.2971668721
 20
7.5347996738
 30
0.0
 11
-3.2480244466
 21
7.7153469738
 31
0.0
 11
-3.2535023509
 21
7.6650036577
 31
0.0
 11
-3.2971668721
 21
7.5347996738
 31
0.0
  0
SPLINE
  5
425
100
AcDbEntity
  8
RACCORDO
100
AcDbSpline
 62
253
  6
CONTINUOUS
 70
0
 71
3
 72
9
 73
5
 74
3
 42
0.0000001
 43
0.0000001
 44
0.0000000001
 12
-0.0354462736
 22
-0.0624239609
 32
0.0
 13
-0.0506531758
 23
-0.0508669342
 33
0.0
 40
0.0
 40
0.0
 40
0.0
 40
0.0
 40
0.2581435411
 40
1.0
 40
1.0
 40
1.0
 40
1.0
 10
-3.2971668721
 20
7.5347996738
 30
0.0
 10
-3.3002169477
 20
7.5294282263
 30
0.0
 10
-3.3126525512
 20
7.5089839246
 30
0.0
 10
-3.3276944616
 20
7.4900831455
 30
0.0
 10
-3.3402202568
 20
7.477504491
 30
0.0
 11
-3.2971668721
 21
7.5347996738
 31
0.0
 11
-3.3068109684
 21
7.5189759548
 31
0.0
 11
-3.3402202568
 21
7.477504491
 31
0.0
  0
SPLINE
  5
426
100
AcDbEntity
  8
RACCORDO
100
AcDbSpline
 62
253
  6
CONTINUOUS
 70
0
 71
3
 72
9
 73
5
 74
3
 42
0.0000001
 43
0.0000001
 44
0.0000000001
 12
-0.0525827734
 22
-0.0528046747
 32
0.0
 13
-0.0671452184
 23
-0.0323233875
 33
0.0
 40
0.0
 40
0.0
 40
0.0
 40
0.0
 40
0.2553237135
 40
1.0
 40
1.0
 40
1.0
 40
1.0
 10
-3.3402202568
 20
7.477504491
 30
0.0
 10
-3.3446954664
 20
7.4730103957
 30
0.0
 10
-3.362904073
 20
7.4561050796
 30
0.0
 10
-3.3839530126
 20
7.4422217136
 30
0.0
 10
-3.4006201632
 20
7.4341982268
 30
0.0
 11
-3.3402202568
 21
7.477504491
 31
0.0
 11
-3.3541788064
 21
7.4645747411
 31
0.0
 11
-3.4006201632
 21
7.4341982268
 31
0.0
  0
SPLINE
  5
427
100
AcDbEntity
  8
RACCORDO
100
AcDbSpline
 62
253
  6
CONTINUOUS
 70
0
 71
3
 72
9
 73
5
 74
3
 42
0.0000001
 43
0.0000001
 44
0.0000000001
 12
0.2527482166
 22
0.4075960584
 32
0.0
 13
0.3765727905
 23
0.2970002378
 33
0.0
 40
0.0
 40
0.0
 40
0.0
 40
0.0
 40
0.2602401138
 40
1.0
 40
1.0
 40
1.0
 40
1.0
 10
-15.9383552438
 20
19.6623150482
 30
0.0
 10
-15.9164301689
 20
19.6976726631
 30
0.0
 10
-15.8269087516
 20
19.830092703
 30
0.0
 10
-15.7162098884
 20
19.9490092142
 30
0.0
 10
-15.6233520735
 20
20.0222455015
 30
0.0
 11
-15.9383552438
 21
19.6623150482
 31
0.0
 11
-15.8684018005
 21
19.7656801503
 31
0.0
 11
-15.6233520735
 21
20.0222455015
 31
0.0
  0
SPLINE
  5
428
100
AcDbEntity
  8
RACCORDO
100
AcDbSpline
 62
253
  6
CONTINUOUS
 70
0
 71
3
 72
9
 73
5
 74
3
 42
0.0000001
 43
0.0000001
 44
0.0000000001
 12
0.1120657333
 22
0.0883854337
 32
0.0
 13
0.1233509173
 23
0.0718001718
 33
0.0
 40
0.0
 40
0.0
 40
0.0
 40
0.0
 40
0.2564376068
 40
1.0
 40
1.0
 40
1.0
 40
1.0
 10
-15.6233520735
 20
20.0222455015
 30
0.0
 10
-15.613772784
 20
20.0298006179
 30
0.0
 10
-15.5759409783
 20
20.058649286
 30
0.0
 10
-15.536171606
 20
20.0849871595
 30
0.0
 10
-15.5055985716
 20
20.1027831287
 30
0.0
 11
-15.6233520735
 21
20.0222455015
 31
0.0
 11
-15.5942423737
 21
20.0444312743
 31
0.0
 11
-15.5055985716
 21
20.1027831287
 31
0.0
  0
SPLINE
  5
429
100
AcDbEntity
  8
RACCORDO
100
AcDbSpline
 62
253
  6
CONTINUOUS
 70
0
 71
3
 72
9
 73
5
 74
3
 42
0.0000001
 43
0.0000001
 44
0.0000000001
 12
0.0642420931
 22
0.2880667622
 32
0.0
 13
0.1169588382
 23
0.2709799553
 33
0.0
 40
0.0
 40
0.0
 40
0.0
 40
0.0
 40
0.2456887501
 40
1.0
 40
1.0
 40
1.0
 40
1.0
 10
-16.1289896756
 20
19.1926945039
 30
0.0
 10
-16.1237284891
 20
19.2162860915
 30
0.0
 10
-16.0999193745
 20
19.3117631895
 30
0.0
 10
-16.0669085903
 20
19.4049071941
 30
0.0
 10
-16.0375008012
 20
19.4730416037
 30
0.0
 11
-16.1289896756
 21
19.1926945039
 31
0.0
 11
-16.1114737859
 21
19.2630605568
 31
0.0
 11
-16.0375008012
 21
19.4730416037
 31
0.0
  0
SPLINE
  5
42A
100
AcDbEntity
  8
RACCORDO
100
AcDbSpline
 62
253
  6
CONTINUOUS
 70
0
 71
3
 72
9
 73
5
 74
3
 42
0.0000001
 43
0.0000001
 44
0.0000000001
 12
-0.4522436149
 22
0.2261183887
 32
0.0
 13
-0.0484943956
 23
0.503291274
 33
0.0
 40
0.0
 40
0.0
 40
0.0
 40
0.0
 40
0.4747665805
 40
1.0
 40
1.0
 40
1.0
 40
1.0
 10
-16.3325201327
 20
13.8245143338
 30
0.0
 10
-16.4040901842
 20
13.8602988185
 30
0.0
 10
-16.525131072
 20
13.9912992513
 30
0.0
 10
-16.5807450957
 20
14.1557184416
 30
0.0
 10
-16.5892353881
 20
14.2438335739
 30
0.0
 11
-16.3325201327
 21
13.8245143338
 31
0.0
 11
-16.5042750896
 21
13.992220772
 31
0.0
 11
-16.5892353881
 21
14.2438335739
 31
0.0
  0
SPLINE
  5
42B
100
AcDbEntity
  8
RACCORDO
100
AcDbSpline
 62
253
  6
CONTINUOUS
 70
0
 71
3
 72
9
 73
5
 74
3
 42
0.0000001
 43
0.0000001
 44
0.0000000001
 12
-0.0078200431
 22
0.0811590576
 32
0.0
 13
0.0057695418
 23
0.0813305483
 33
0.0
 40
0.0
 40
0.0
 40
0.0
 40
0.0
 40
0.2557397153
 40
1.0
 40
1.0
 40
1.0
 40
1.0
 10
-16.5892353881
 20
14.2438335739
 30
0.0
 10
-16.58990202
 20
14.2507521053
 30
0.0
 10
-16.5919799065
 20
14.2778517509
 30
0.0
 10
-16.5919053755
 20
14.3051298612
 30
0.0
 10
-16.5904740285
 20
14.3253068936
 30
0.0
 11
-16.5892353881
 21
14.2438335739
 31
0.0
 11
-16.5908240421
 21
14.2646246887
 31
0.0
 11
-16.5904740285
 21
14.3253068936
 31
0.0
  0
LINE
  5
42C
100
AcDbEntity
  8
RACCORDO
100
AcDbLine
 62
253
  6
CONTINUOUS
 10
-16.5904740285
 20
14.3253068936
 11
-16.5881979795
 21
14.3573268745
  0
SPLINE
  5
42D
100
AcDbEntity
  8
0
100
AcDbSpline
 62
7
  6
CONTINUOUS
 70
0
 71
3
 72
8
 73
4
 74
2
 42
0.0000001
 43
0.0000001
 44
0.0000000001
 12
-0.150904385
 22
-0.129609211
 32
0.0
 13
-0.1137741751
 23
-0.1631751148
 33
0.0
 40
0.0
 40
0.0
 40
0.0
 40
0.0
 40
1.0
 40
1.0
 40
1.0
 40
1.0
 10
-9.5644704711
 20
-1.3394781982
 30
0.0
 10
-9.6147719327
 20
-1.3826812686
 30
0.0
 10
-9.6597432796
 20
-1.4328332294
 30
0.0
 10
-9.6976680047
 20
-1.4872249343
 30
0.0
 11
-9.5644704711
 21
-1.3394781982
 31
0.0
 11
-9.6976680047
 21
-1.4872249343
 31
0.0
  0
SPLINE
  5
42E
100
AcDbEntity
  8
0
100
AcDbSpline
 62
7
  6
CONTINUOUS
 70
0
 71
3
 72
8
 73
4
 74
2
 42
0.0000001
 43
0.0000001
 44
0.0000000001
 12
0.1988045969
 22
-0.0068857288
 32
0.0
 13
0.1942299998
 23
0.0429579813
 33
0.0
 40
0.0
 40
0.0
 40
0.0
 40
0.0
 40
1.0
 40
1.0
 40
1.0
 40
1.0
 10
-8.7276459973
 20
-3.427268949
 30
0.0
 10
-8.6613777984
 20
-3.4295641919
 30
0.0
 10
-8.5942734215
 20
-3.4236782909
 30
0.0
 10
-8.5295300883
 20
-3.4093589638
 30
0.0
 11
-8.7276459973
 21
-3.427268949
 31
0.0
 11
-8.5295300883
 21
-3.4093589638
 31
0.0
  0
SPLINE
  5
42F
100
AcDbEntity
  8
0
100
AcDbSpline
 62
7
  6
CONTINUOUS
 70
0
 71
3
 72
11
 73
7
 74
5
 42
0.0000001
 43
0.0000001
 44
0.0000000001
 12
1.1364915184
 22
-0.6657527116
 32
0.0
 13
0.3629281483
 23
-1.2661448588
 33
0.0
 40
0.0
 40
0.0
 40
0.0
 40
0.0
 40
0.2476923833
 40
0.4957466864
 40
0.7459297356
 40
1.0
 40
1.0
 40
1.0
 40
1.0
 10
14.3195177165
 20
20.4676690519
 30
0.0
 10
14.4133511475
 20
20.4127017599
 30
0.0
 10
14.5898619959
 20
20.2820236902
 30
0.0
 10
14.8081410001
 20
20.035041649
 30
0.0
 10
14.9765926706
 20
19.7487963396
 30
0.0
 10
15.0540306701
 20
19.5401366101
 30
0.0
 10
15.084767087
 20
19.4329066905
 30
0.0
 11
14.3195177165
 21
20.4676690519
 31
0.0
 11
14.5818840821
 21
20.273764607
 31
0.0
 11
14.7990321473
 21
20.0296477761
 31
0.0
 11
14.9669907107
 21
19.7461407437
 31
0.0
 11
15.084767087
 21
19.4329066905
 31
0.0
  0
SPLINE
  5
430
100
AcDbEntity
  8
0
100
AcDbSpline
 62
7
  6
CONTINUOUS
 70
0
 71
3
 72
11
 73
7
 74
5
 42
0.0000001
 43
0.0000001
 44
0.0000000001
 12
1.7248220511
 22
0.9105500172
 32
0.0
 13
1.7089355969
 23
-0.9400274289
 33
0.0
 40
0.0
 40
0.0
 40
0.0
 40
0.0
 40
0.2165318309
 40
0.4488554219
 40
0.7083808677
 40
1.0
 40
1.0
 40
1.0
 40
1.0
 10
-12.0307310892
 20
0.7221999053
 30
0.0
 10
-11.9062381304
 20
0.7879209261
 30
0.0
 10
-11.6251760252
 20
0.8841902943
 30
0.0
 10
-11.1593780358
 20
0.900302102
 30
0.0
 10
-10.6576357252
 20
0.7901294126
 30
0.0
 10
-10.3286110972
 20
0.6422396004
 30
0.0
 10
-10.1624916586
 20
0.5508629394
 30
0.0
 11
-12.0307310892
 21
0.7221999053
 31
0.0
 11
-11.6317867957
 21
0.8607754987
 31
0.0
 11
-11.179145726
 21
0.8817560055
 31
0.0
 11
-10.683496041
 21
0.7790354445
 31
0.0
 11
-10.1624916586
 21
0.5508629394
 31
0.0
  0
SPLINE
  5
431
100
AcDbEntity
  8
0
100
AcDbSpline
 62
7
  6
CONTINUOUS
 70
0
 71
3
 72
11
 73
7
 74
5
 42
0.0000001
 43
0.0000001
 44
0.0000000001
 12
2.8664714875
 22
-2.7416244157
 32
0.0
 13
-0.000055109
 23
-3.9665051648
 33
0.0
 40
0.0
 40
0.0
 40
0.0
 40
0.0
 40
0.2508076324
 40
0.5097082721
 40
0.7635063744
 40
1.0
 40
1.0
 40
1.0
 40
1.0
 10
13.9107385013
 20
4.9570514553
 30
0.0
 10
14.1503828104
 20
4.7278446791
 30
0.0
 10
14.5876129877
 20
4.2081369545
 30
0.0
 10
15.0858159526
 20
3.3239590299
 30
0.0
 10
15.4081910071
 20
2.3814879151
 30
0.0
 10
15.4918769499
 20
1.7321338921
 30
0.0
 10
15.4918726056
 20
1.4194494963
 30
0.0
 11
13.9107385013
 21
4.9570514553
 31
0.0
 11
14.5553359898
 21
4.1993045661
 31
0.0
 11
15.0600923304
 21
3.3049848525
 31
0.0
 11
15.3815299634
 21
2.3509903081
 31
0.0
 11
15.4918726056
 21
1.4194494963
 31
0.0
  0
SPLINE
  5
432
100
AcDbEntity
  8
0
100
AcDbSpline
 62
7
  6
CONTINUOUS
 70
0
 71
3
 72
9
 73
5
 74
3
 42
0.0000001
 43
0.0000001
 44
0.0000000001
 12
-0.1068363999
 22
0.0534181999
 32
0.0
 13
-0.0953199882
 23
0.0719834722
 33
0.0
 40
0.0
 40
0.0
 40
0.0
 40
0.0
 40
0.2466073348
 40
1.0
 40
1.0
 40
1.0
 40
1.0
 10
-9.890923077
 20
-3.3382102142
 30
0.0
 10
-9.8997052903
 20
-3.3338191076
 30
0.0
 10
-9.9348723203
 20
-3.3151296735
 30
0.0
 10
-9.9682264922
 20
-3.2930824835
 30
0.0
 10
-9.9921642855
 20
-3.2750052102
 30
0.0
 11
-9.890923077
 21
-3.3382102142
 31
0.0
 11
-9.9169399361
 21
-3.324397002
 31
0.0
 11
-9.9921642855
 21
-3.2750052102
 31
0.0
  0
SPLINE
  5
433
100
AcDbEntity
  8
0
100
AcDbSpline
 62
7
  6
CONTINUOUS
 70
0
 71
3
 72
11
 73
7
 74
5
 42
0.0000001
 43
0.0000001
 44
0.0000000001
 12
-0.7936739057
 22
0.7090215154
 32
0.0
 13
0.6086966631
 23
0.8729937859
 33
0.0
 40
0.0
 40
0.0
 40
0.0
 40
0.0
 40
0.2566762517
 40
0.5173140939
 40
0.7654224453
 40
1.0
 40
1.0
 40
1.0
 40
1.0
 10
-10.0392944443
 20
-3.2362288923
 30
0.0
 10
-10.107200192
 20
-3.1755658973
 30
0.0
 10
-10.2230447338
 20
-3.0287094426
 30
0.0
 10
-10.3257458016
 20
-2.7736582063
 30
0.0
 10
-10.3479612183
 20
-2.506077157
 30
0.0
 10
-10.2898711168
 20
-2.3365636415
 30
0.0
 10
-10.2422755918
 20
-2.268302059
 30
0.0
 11
-10.0392944443
 21
-3.2362288923
 31
0.0
 11
-10.2107263154
 21
-3.0235511564
 31
0.0
 11
-10.3135013975
 21
-2.7659095747
 31
0.0
 11
-10.3292059824
 21
-2.5023274977
 31
0.0
 11
-10.2422755918
 21
-2.268302059
 31
0.0
  0
SPLINE
  5
434
100
AcDbEntity
  8
0
100
AcDbSpline
 62
7
  6
CONTINUOUS
 70
0
 71
3
 72
9
 73
5
 74
3
 42
0.0000001
 43
0.0000001
 44
0.0000000001
 12
-0.2197404916
 22
0.0076108574
 32
0.0
 13
-0.196659724
 23
0.098329862
 33
0.0
 40
0.0
 40
0.0
 40
0.0
 40
0.0
 40
0.7467352179
 40
1.0
 40
1.0
 40
1.0
 40
1.0
 10
-9.6792722493
 20
-3.394308744
 30
0.0
 10
-9.7339682373
 20
-3.3924143122
 30
0.0
 10
-9.8073401216
 20
-3.3762536833
 30
0.0
 10
-9.8743207496
 20
-3.3465113779
 30
0.0
 10
-9.890923077
 20
-3.3382102142
 30
0.0
 11
-9.6792722493
 21
-3.394308744
 31
0.0
 11
-9.8399831266
 21
-3.3607055648
 31
0.0
 11
-9.890923077
 21
-3.3382102142
 31
0.0
  0
SPLINE
  5
435
100
AcDbEntity
  8
0
100
AcDbSpline
 62
7
  6
CONTINUOUS
 70
0
 71
3
 72
11
 73
7
 74
5
 42
0.0000001
 43
0.0000001
 44
0.0000000001
 12
-0.0416911403
 22
-2.4225353307
 32
0.0
 13
-2.190494395
 23
-1.0354467079
 33
0.0
 40
0.0
 40
0.0
 40
0.0
 40
0.0
 40
0.2996348661
 40
0.5626163438
 40
0.7916884387
 40
1.0
 40
1.0
 40
1.0
 40
1.0
 10
-7.3396438768
 20
-4.5484000929
 30
0.0
 10
-7.3438079166
 20
-4.790358776
 30
0.0
 10
-7.3898984791
 20
-5.2457982562
 30
0.0
 10
-7.592793547
 20
-5.8587527814
 30
0.0
 10
-7.9149472529
 20
-6.3343485731
 30
0.0
 10
-8.2078422177
 20
-6.5474757927
 30
0.0
 10
-8.3599439868
 20
-6.6193742995
 30
0.0
 11
-7.3396438768
 21
-4.5484000929
 31
0.0
 11
-7.4207251094
 21
-5.2698416538
 31
0.0
 11
-7.6301141402
 21
-5.8716305016
 31
0.0
 11
-7.9496516333
 21
-6.3254367625
 31
0.0
 11
-8.3599439868
 21
-6.6193742995
 31
0.0
  0
SPLINE
  5
436
100
AcDbEntity
  8
0
100
AcDbSpline
 62
7
  6
CONTINUOUS
 70
0
 71
3
 72
11
 73
7
 74
5
 42
0.0000001
 43
0.0000001
 44
0.0000000001
 12
0.3323776847
 22
0.187499796
 32
0.0
 13
0.0348103711
 23
0.3800254424
 33
0.0
 40
0.0
 40
0.0
 40
0.0
 40
0.0
 40
0.2866488292
 40
0.5456399162
 40
0.7804537926
 40
1.0
 40
1.0
 40
1.0
 40
1.0
 10
14.5435613854
 20
7.6474869068
 30
0.0
 10
14.5753199435
 20
7.6654024391
 30
0.0
 10
14.6333159339
 20
7.7042868558
 30
0.0
 10
14.7040294367
 20
7.7750566272
 30
0.0
 10
14.751531826
 20
7.8535683852
 30
0.0
 10
14.7662357861
 20
7.9105695091
 30
0.0
 10
14.7687832811
 20
7.9383805573
 30
0.0
 11
14.5435613854
 21
7.6474869068
 31
0.0
 11
14.6338937928
 21
7.7091813714
 31
0.0
 11
14.7029579107
 21
7.7798818311
 31
0.0
 11
14.7483947992
 21
7.8571167462
 31
0.0
 11
14.7687832811
 21
7.9383805573
 31
0.0
  0
SPLINE
  5
437
100
AcDbEntity
  8
0
100
AcDbSpline
 62
7
  6
CONTINUOUS
 70
0
 71
3
 72
9
 73
5
 74
3
 42
0.0000001
 43
0.0000001
 44
0.0000000001
 12
0.3204798471
 22
-0.1889301616
 32
0.0
 13
0.3012774353
 23
-0.2182517934
 33
0.0
 40
0.0
 40
0.0
 40
0.0
 40
0.0
 40
0.244707435
 40
1.0
 40
1.0
 40
1.0
 40
1.0
 10
-10.0705253095
 20
0.4984631504
 30
0.0
 10
-10.0443840424
 20
0.4830522787
 30
0.0
 10
-9.9383499684
 20
0.4187369059
 30
0.0
 10
-9.8354768429
 20
0.3492413247
 30
0.0
 10
-9.7596259739
 20
0.2942933391
 30
0.0
 11
-10.0705253095
 21
0.4984631504
 31
0.0
 11
-9.9926786729
 21
0.451265179
 31
0.0
 11
-9.7596259739
 21
0.2942933391
 31
0.0
  0
SPLINE
  5
438
100
AcDbEntity
  8
0
100
AcDbSpline
 62
7
  6
CONTINUOUS
 70
0
 71
3
 72
11
 73
7
 74
5
 42
0.0000001
 43
0.0000001
 44
0.0000000001
 12
4.5291612496
 22
-3.2764598217
 32
0.0
 13
-0.0963288924
 23
-5.5892048927
 33
0.0
 40
0.0
 40
0.0
 40
0.0
 40
0.0
 40
0.2394889897
 40
0.4999993438
 40
0.760510116
 40
1.0
 40
1.0
 40
1.0
 40
1.0
 10
-9.7620095792
 20
0.2960426222
 30
0.0
 10
-9.400448162
 20
0.0344839381
 30
0.0
 10
-8.7283530378
 20
-0.628333419
 30
0.0
 10
-7.961292743
 20
-1.8315615174
 30
0.0
 10
-7.4589445802
 20
-3.1671477234
 30
0.0
 10
-7.3319469756
 20
-4.1025167112
 30
0.0
 10
-7.3396369073
 20
-4.5487027216
 30
0.0
 11
-9.7620095792
 21
0.2960426222
 31
0.0
 11
-8.7951041053
 21
-0.6298894692
 31
0.0
 11
-8.0066313846
 21
-1.8542299961
 31
0.0
 11
-7.5002404744
 21
-3.2196141945
 31
0.0
 11
-7.3396369073
 21
-4.5487027216
 31
0.0
  0
SPLINE
  5
439
100
AcDbEntity
  8
0
100
AcDbSpline
 62
7
  6
CONTINUOUS
 70
0
 71
3
 72
11
 73
7
 74
5
 42
0.0000001
 43
0.0000001
 44
0.0000000001
 12
-4.8760725034
 22
3.6570543776
 32
0.0
 13
0.0
 23
6.0950906293
 33
0.0
 40
0.0
 40
0.0
 40
0.0
 40
0.0
 40
0.2416341424
 40
0.500000517
 40
0.7583665796
 40
1.0
 40
1.0
 40
1.0
 40
1.0
 10
-10.9544231566
 20
-6.6351105217
 30
0.0
 10
-11.3471650224
 20
-6.3405541223
 30
0.0
 10
-12.0734906208
 20
-5.6128540383
 30
0.0
 10
-12.9043491288
 20
-4.3030901358
 30
0.0
 10
-13.4536435169
 20
-2.8525459709
 30
0.0
 10
-13.6000075689
 20
-1.8348675626
 30
0.0
 10
-13.6000075689
 20
-1.3439416971
 30
0.0
 11
-10.9544231566
 21
-6.6351105217
 31
0.0
 11
-12.0074892099
 21
-5.6054801521
 31
0.0
 11
-12.8563867758
 21
-4.2791082759
 31
0.0
 11
-13.4081439543
 21
-2.804168461
 31
0.0
 11
-13.6000075689
 21
-1.3439416971
 31
0.0
  0
SPLINE
  5
43A
100
AcDbEntity
  8
0
100
AcDbSpline
 62
7
  6
CONTINUOUS
 70
0
 71
3
 72
12
 73
8
 74
6
 42
0.0000001
 43
0.0000001
 44
0.0000000001
 12
-0.0003069274
 22
3.1128008524
 32
0.0
 13
2.7841737361
 23
1.392086868
 33
0.0
 40
0.0
 40
0.0
 40
0.0
 40
0.0
 40
0.2818596341
 40
0.5387862183
 40
0.7748811828
 40
0.8881610271
 40
1.0
 40
1.0
 40
1.0
 40
1.0
 10
-13.6000074824
 20
-1.3444774542
 30
0.0
 10
-13.6000363192
 20
-1.0520198177
 30
0.0
 10
-13.5515574279
 20
-0.4907638883
 30
0.0
 10
-13.3072498375
 20
0.2831379864
 30
0.0
 10
-12.9539020061
 20
0.8171615004
 30
0.0
 10
-12.5959909402
 20
1.1379946269
 30
0.0
 10
-12.3960846758
 20
1.2617006806
 30
0.0
 10
-12.2922916321
 20
1.3135972025
 30
0.0
 11
-13.6000074824
 21
-1.3444774542
 31
0.0
 11
-13.5160922928
 21
-0.4711267397
 31
0.0
 11
-13.2648649237
 21
0.2881511649
 31
0.0
 11
-12.8514979025
 21
0.895794259
 31
0.0
 11
-12.5884894638
 21
1.1306681217
 31
0.0
 11
-12.2922916321
 21
1.3135972025
 31
0.0
  0
SPLINE
  5
43B
100
AcDbEntity
  8
0
100
AcDbSpline
 62
7
  6
CONTINUOUS
 70
0
 71
3
 72
11
 73
7
 74
5
 42
0.0000001
 43
0.0000001
 44
0.0000000001
 12
-2.3239701299
 22
-1.1619850649
 32
0.0
 13
-2.2382839816
 23
1.3195193342
 33
0.0
 40
0.0
 40
0.0
 40
0.0
 40
0.0
 40
0.2297850017
 40
0.4685717109
 40
0.7237745569
 40
1.0
 40
1.0
 40
1.0
 40
1.0
 10
-8.0437624749
 20
-7.183461112
 30
0.0
 10
-8.2217669683
 20
-7.2724633588
 30
0.0
 10
-8.6157235049
 20
-7.3974465636
 30
0.0
 10
-9.2501167624
 20
-7.4046509427
 30
0.0
 10
-9.9035283315
 20
-7.2440579293
 30
0.0
 10
-10.3208657621
 20
-7.0425500794
 30
0.0
 10
-10.5269560903
 20
-6.9210551419
 30
0.0
 11
-8.0437624749
 21
-7.183461112
 31
0.0
 11
-8.6121833105
 21
-7.366110366
 31
0.0
 11
-9.2324778513
 21
-7.3792718654
 31
0.0
 11
-9.8779684292
 21
-7.2275240717
 31
0.0
 11
-10.5269560903
 21
-6.9210551419
 31
0.0
  0
SPLINE
  5
43C
100
AcDbEntity
  8
0
100
AcDbSpline
 62
7
  6
CONTINUOUS
 70
0
 71
3
 72
8
 73
4
 74
2
 42
0.0000001
 43
0.0000001
 44
0.0000000001
 12
0.0198594412
 22
0.025027011
 32
0.0
 13
0.0297253576
 23
0.0117111827
 33
0.0
 40
0.0
 40
0.0
 40
0.0
 40
0.0
 40
1.0
 40
1.0
 40
1.0
 40
1.0
 10
-0.7841406589
 20
21.5189481914
 30
0.0
 10
-0.7775208451
 20
21.5272905284
 30
0.0
 10
-0.7684478547
 20
21.5341579234
 30
0.0
 10
-0.7585394021
 20
21.538061651
 30
0.0
 11
-0.7841406589
 21
21.5189481914
 31
0.0
 11
-0.7585394021
 21
21.538061651
 31
0.0
  0
SPLINE
  5
43D
100
AcDbEntity
  8
0
100
AcDbSpline
 62
7
  6
CONTINUOUS
 70
0
 71
3
 72
8
 73
4
 74
2
 42
0.0000001
 43
0.0000001
 44
0.0000000001
 12
0.138670769
 22
0.0455183176
 32
0.0
 13
0.1456173968
 23
-0.0098525719
 33
0.0
 40
0.0
 40
0.0
 40
0.0
 40
0.0
 40
1.0
 40
1.0
 40
1.0
 40
1.0
 10
-0.7356406539
 20
21.5462756392
 30
0.0
 10
-0.6894170642
 20
21.5614484117
 30
0.0
 10
-0.6394381618
 20
21.5683044716
 30
0.0
 10
-0.5908990295
 20
21.565020281
 30
0.0
 11
-0.7356406539
 21
21.5462756392
 31
0.0
 11
-0.5908990295
 21
21.565020281
 31
0.0
  0
SPLINE
  5
43E
100
AcDbEntity
  8
0
100
AcDbSpline
 62
7
  6
CONTINUOUS
 70
0
 71
3
 72
8
 73
4
 74
2
 42
0.0000001
 43
0.0000001
 44
0.0000000001
 12
0.1366380766
 22
-0.009245025
 32
0.0
 13
0.1224922348
 23
-0.0612461174
 33
0.0
 40
0.0
 40
0.0
 40
0.0
 40
0.0
 40
1.0
 40
1.0
 40
1.0
 40
1.0
 10
-0.5908990295
 20
21.565020281
 30
0.0
 10
-0.545353004
 20
21.561938606
 30
0.0
 10
-0.4995361236
 20
21.5496547487
 30
0.0
 10
-0.4587053787
 20
21.5292393762
 30
0.0
 11
-0.5908990295
 21
21.565020281
 31
0.0
 11
-0.4587053787
 21
21.5292393762
 31
0.0
  0
SPLINE
  5
43F
100
AcDbEntity
  8
0
100
AcDbSpline
 62
7
  6
CONTINUOUS
 70
0
 71
3
 72
11
 73
7
 74
5
 42
0.0000001
 43
0.0000001
 44
0.0000000001
 12
-1.3096835216
 22
0.549707623
 32
0.0
 13
-1.302148246
 23
-0.5673264871
 33
0.0
 40
0.0
 40
0.0
 40
0.0
 40
0.0
 40
0.2470133767
 40
0.4948974233
 40
0.7451125631
 40
1.0
 40
1.0
 40
1.0
 40
1.0
 10
8.6949451928
 20
23.2799564079
 30
0.0
 10
8.5871087431
 20
23.3252181199
 30
0.0
 10
8.359682491
 20
23.3909633205
 30
0.0
 10
8.0048768731
 20
23.4114586564
 30
0.0
 10
7.6500680181
 20
23.3585978521
 30
0.0
 10
7.4226593805
 20
23.280314511
 30
0.0
 10
7.3120256376
 20
23.2321130462
 30
0.0
 11
8.6949451928
 21
23.2799564079
 31
0.0
 11
8.3580316811
 21
23.3778603799
 31
0.0
 11
8.0066006291
 21
23.3993410991
 31
0.0
 11
7.6548700154
 21
23.3484169119
 31
0.0
 11
7.3120256376
 21
23.2321130462
 31
0.0
  0
LINE
  5
440
100
AcDbEntity
  8
0
100
AcDbLine
 62
7
  6
CONTINUOUS
 10
15.2958385065
 20
16.2981891992
 11
15.2986647856
 21
16.3861930993
  0
SPLINE
  5
441
100
AcDbEntity
  8
0
100
AcDbSpline
 62
7
  6
CONTINUOUS
 70
0
 71
3
 72
11
 73
7
 74
5
 42
0.0000001
 43
0.0000001
 44
0.0000000001
 12
1.8718589683
 22
1.0713103864
 32
0.0
 13
0.0
 23
2.1567480013
 33
0.0
 40
0.0
 40
0.0
 40
0.0
 40
0.0
 40
0.2206179931
 40
0.4558618132
 40
0.7145980627
 40
1.0
 40
1.0
 40
1.0
 40
1.0
 10
14.6200654995
 20
-0.4522422886
 30
0.0
 10
14.7577207558
 20
-0.3734588395
 30
0.0
 10
15.0154457695
 20
-0.1597209915
 30
0.0
 10
15.2923298943
 20
0.2811967284
 30
0.0
 10
15.4585892117
 20
0.8216537324
 30
0.0
 10
15.4918726056
 20
1.214269477
 30
0.0
 10
15.4918726056
 20
1.4194494963
 30
0.0
 11
14.6200654995
 21
-0.4522422886
 31
0.0
 11
14.9881837174
 21
-0.1507606296
 31
0.0
 11
15.2637180344
 21
0.2752636333
 31
0.0
 11
15.434181472
 21
0.8066189358
 31
0.0
 11
15.4918726056
 21
1.4194494963
 31
0.0
  0
SPLINE
  5
442
100
AcDbEntity
  8
0
100
AcDbSpline
 62
7
  6
CONTINUOUS
 70
0
 71
3
 72
11
 73
7
 74
5
 42
0.0000001
 43
0.0000001
 44
0.0000000001
 12
-2.6900344753
 22
-1.3450172377
 32
0.0
 13
-2.6900344753
 23
1.3450172377
 33
0.0
 40
0.0
 40
0.0
 40
0.0
 40
0.0
 40
0.2501093473
 40
0.5001613133
 40
0.7501266378
 40
1.0
 40
1.0
 40
1.0
 40
1.0
 10
11.712321097
 20
-1.9085945979
 30
0.0
 10
11.4880535081
 20
-2.0207283923
 30
0.0
 10
11.0110683264
 20
-2.1924330995
 30
0.0
 10
10.2568697465
 20
-2.2750957767
 30
0.0
 10
9.5043562195
 20
-2.1814256149
 30
0.0
 10
9.0294885168
 20
-2.006421685
 30
0.0
 10
8.8054325306
 20
-1.8943936919
 30
0.0
 11
11.712321097
 21
-1.9085945979
 31
0.0
 11
11.0045393245
 21
-2.1632991646
 31
0.0
 11
10.2570240596
 21
-2.245705365
 31
0.0
 11
9.5109462082
 21
-2.1532617216
 31
0.0
 11
8.8054325306
 21
-1.8943936919
 31
0.0
  0
SPLINE
  5
443
100
AcDbEntity
  8
0
100
AcDbSpline
 62
7
  6
CONTINUOUS
 70
0
 71
3
 72
9
 73
5
 74
3
 42
0.0000001
 43
0.0000001
 44
0.0000000001
 12
-0.4590393547
 22
-0.3725566596
 32
0.0
 13
-0.5287895712
 23
-0.2643807543
 33
0.0
 40
0.0
 40
0.0
 40
0.0
 40
0.0
 40
0.2552365052
 40
1.0
 40
1.0
 40
1.0
 40
1.0
 10
12.4728644892
 20
-1.5296625579
 30
0.0
 10
12.4338099556
 20
-1.5613592445
 30
0.0
 10
12.2777685421
 20
-1.6817193363
 30
0.0
 10
12.1092359422
 20
-1.7862589337
 30
0.0
 10
11.9779615526
 20
-1.8518926452
 30
0.0
 11
12.4728644892
 21
-1.5296625579
 31
0.0
 11
12.3533412787
 21
-1.6217691861
 31
0.0
 11
11.9779615526
 21
-1.8518926452
 31
0.0
  0
SPLINE
  5
444
100
AcDbEntity
  8
0
100
AcDbSpline
 62
7
  6
CONTINUOUS
 70
0
 71
3
 72
9
 73
5
 74
3
 42
0.0000001
 43
0.0000001
 44
0.0000000001
 12
0.1902056901
 22
-0.6585925633
 32
0.0
 13
0.0047734279
 23
-0.6854922197
 33
0.0
 40
0.0
 40
0.0
 40
0.0
 40
0.0
 40
0.2451319774
 40
1.0
 40
1.0
 40
1.0
 40
1.0
 10
15.0845892936
 20
19.4335252342
 30
0.0
 10
15.1001311259
 20
19.3797112018
 30
0.0
 10
15.155039363
 20
19.1577513629
 30
0.0
 10
15.1771456433
 20
18.9282018199
 30
0.0
 10
15.178346746
 20
18.7557164345
 30
0.0
 11
15.0845892936
 21
19.4335252342
 31
0.0
 11
15.1250795961
 21
19.2704362304
 31
0.0
 11
15.178346746
 21
18.7557164345
 31
0.0
  0
SPLINE
  5
445
100
AcDbEntity
  8
0
100
AcDbSpline
 62
253
  6
CONTINUOUS
 70
0
 71
3
 72
11
 73
7
 74
5
 42
0.0000001
 43
0.0000001
 44
0.0000000001
 12
0.5626883357
 22
0.2818964347
 32
0.0
 13
0.0
 23
0.6293518595
 33
0.0
 40
0.0
 40
0.0
 40
0.0
 40
0.0
 40
0.2171652556
 40
0.4504048052
 40
0.710325989
 40
1.0
 40
1.0
 40
1.0
 40
1.0
 10
5.2153803054
 20
13.7785251392
 30
0.0
 10
5.2561124242
 20
13.7989311763
 30
0.0
 10
5.3331495084
 20
13.8576682449
 30
0.0
 10
5.415734983
 20
13.9844205058
 30
0.0
 10
5.4651331161
 20
14.1427245023
 30
0.0
 10
5.4749523918
 20
14.2584540521
 30
0.0
 10
5.4749523918
 20
14.3192230112
 30
0.0
 11
5.2153803054
 21
13.7785251392
 31
0.0
 11
5.3246647656
 21
13.8606014049
 31
0.0
 11
5.4067684868
 21
13.9822821675
 31
0.0
 11
5.4576951212
 21
14.1377347632
 31
0.0
 11
5.4749523918
 21
14.3192230112
 31
0.0
  0
SPLINE
  5
446
100
AcDbEntity
  8
0
100
AcDbSpline
 62
253
  6
CONTINUOUS
 70
0
 71
3
 72
11
 73
7
 74
5
 42
0.0000001
 43
0.0000001
 44
0.0000000001
 12
-0.0227098594
 22
-0.2039889627
 32
0.0
 13
-0.1957385551
 23
-0.0617547782
 33
0.0
 40
0.0
 40
0.0
 40
0.0
 40
0.0
 40
0.2041037853
 40
0.4348913907
 40
0.7022325031
 40
1.0
 40
1.0
 40
1.0
 40
1.0
 10
17.8618791987
 20
2.6362096412
 30
0.0
 10
17.8603341426
 20
2.6223313347
 30
0.0
 10
17.8491340245
 20
2.5934616563
 30
0.0
 10
17.8151299123
 20
2.5583923255
 30
0.0
 10
17.7679368062
 20
2.5304389164
 30
0.0
 10
17.7317048013
 20
2.5165477946
 30
0.0
 10
17.7122766081
 20
2.5104182726
 30
0.0
 11
17.8618791987
 21
2.6362096412
 31
0.0
 11
17.847649762
 21
2.596808189
 31
0.0
 11
17.8157373652
 21
2.5618022123
 31
0.0
 11
17.7691314082
 21
2.5328406559
 31
0.0
 11
17.7122766081
 21
2.5104182726
 31
0.0
  0
SPLINE
  5
447
100
AcDbEntity
  8
0
100
AcDbSpline
 62
253
  6
CONTINUOUS
 70
0
 71
3
 72
10
 73
6
 74
4
 42
0.0000001
 43
0.0000001
 44
0.0000000001
 12
-0.0004245262
 22
0.4707272614
 32
0.0
 13
-0.0885152999
 23
0.4623303759
 33
0.0
 40
0.0
 40
0.0
 40
0.0
 40
0.0
 40
0.5088517694
 40
0.759116933
 40
1.0
 40
1.0
 40
1.0
 40
1.0
 10
15.0995505846
 20
16.8882612292
 30
0.0
 10
15.0994785776
 20
16.9681046958
 30
0.0
 10
15.0985324895
 20
17.0872667202
 30
0.0
 10
15.092348443
 20
17.2439902883
 30
0.0
 10
15.0851415611
 20
17.320959123
 30
0.0
 10
15.0780342821
 20
17.3580816426
 30
0.0
 11
15.0995505846
 21
16.8882612292
 31
0.0
 11
15.0965259781
 21
17.1277726295
 31
0.0
 11
15.0912078191
 21
17.2454592122
 31
0.0
 11
15.0780342821
 21
17.3580816426
 31
0.0
  0
SPLINE
  5
448
100
AcDbEntity
  8
0
100
AcDbSpline
 62
7
  6
CONTINUOUS
 70
0
 71
3
 72
8
 73
4
 74
2
 42
0.0000001
 43
0.0000001
 44
0.0000000001
 12
0.0137328355
 22
0.0054104562
 32
0.0
 13
0.0145775115
 23
0.0023151598
 33
0.0
 40
0.0
 40
0.0
 40
0.0
 40
0.0
 40
1.0
 40
1.0
 40
1.0
 40
1.0
 10
-0.7585394021
 20
21.538061651
 30
0.0
 10
-0.7539617903
 20
21.5398651364
 30
0.0
 10
-0.7491457009
 20
21.5411265252
 30
0.0
 10
-0.7442865304
 20
21.5418982452
 30
0.0
 11
-0.7585394021
 21
21.538061651
 31
0.0
 11
-0.7442865304
 21
21.5418982452
 31
0.0
  0
SPLINE
  5
449
100
AcDbEntity
  8
0
100
AcDbSpline
 62
7
  6
CONTINUOUS
 70
0
 71
3
 72
9
 73
5
 74
3
 42
0.0000001
 43
0.0000001
 44
0.0000000001
 12
0.0827044568
 22
0.0131348919
 32
0.0
 13
0.074900214
 23
-0.037450107
 33
0.0
 40
0.0
 40
0.0
 40
0.0
 40
0.0
 40
0.213204134
 40
1.0
 40
1.0
 40
1.0
 40
1.0
 10
-0.7442865304
 20
21.5418982452
 30
0.0
 10
-0.7384088864
 20
21.5428317163
 30
0.0
 10
-0.7102867589
 20
21.543882134
 30
0.0
 10
-0.6829684966
 20
21.5337291561
 30
0.0
 10
-0.6633247704
 20
21.523907293
 30
0.0
 11
-0.7442865304
 21
21.5418982452
 31
0.0
 11
-0.7264539192
 21
21.5427703615
 31
0.0
 11
-0.6633247704
 21
21.523907293
 31
0.0
  0
SPLINE
  5
44A
100
AcDbEntity
  8
0
100
AcDbSpline
 62
253
  6
CONTINUOUS
 70
0
 71
3
 72
9
 73
5
 74
3
 42
0.0000001
 43
0.0000001
 44
0.0000000001
 12
-0.0848369529
 22
-0.1680762444
 32
0.0
 13
-0.1631529928
 23
-0.0939576152
 33
0.0
 40
0.0
 40
0.0
 40
0.0
 40
0.0
 40
0.5164063526
 40
1.0
 40
1.0
 40
1.0
 40
1.0
 10
12.1180997997
 20
-1.7063558848
 30
0.0
 10
12.1034963525
 20
-1.7352877649
 30
0.0
 10
12.0683526888
 20
-1.7883148309
 30
0.0
 10
12.0189159574
 20
-1.8288612968
 30
0.0
 10
11.9926160404
 20
-1.8440070654
 30
0.0
 11
12.1180997997
 21
-1.7063558848
 31
0.0
 11
12.0633879189
 21
-1.7867265218
 31
0.0
 11
11.9926160404
 21
-1.8440070654
 31
0.0
  0
SPLINE
  5
44B
100
AcDbEntity
  8
0
100
AcDbSpline
 62
253
  6
CONTINUOUS
 70
0
 71
3
 72
13
 73
9
 74
7
 42
0.0000001
 43
0.0000001
 44
0.0000000001
 12
-0.456489112
 22
1.5961313781
 32
0.0
 13
-1.5219490192
 23
-0.6630903925
 33
0.0
 40
0.0
 40
0.0
 40
0.0
 40
0.0
 40
0.2614621027
 40
0.380539325
 40
0.4959312683
 40
0.6119550336
 40
0.732802828
 40
1.0
 40
1.0
 40
1.0
 40
1.0
 10
14.8943697404
 20
18.9602524074
 30
0.0
 10
14.8545848727
 20
19.0993616962
 30
0.0
 10
14.7639603994
 20
19.2973564698
 30
0.0
 10
14.5710934386
 20
19.4957471998
 30
0.0
 10
14.4044424891
 20
19.5989977239
 30
0.0
 10
14.2163082831
 20
19.6573773545
 30
0.0
 10
13.9357518277
 20
19.674635544
 30
0.0
 10
13.7221789119
 20
19.6160636874
 30
0.0
 10
13.5866254206
 20
19.5570050615
 30
0.0
 11
14.8943697404
 21
18.9602524074
 31
0.0
 11
14.7029699427
 21
19.3498344743
 31
0.0
 11
14.5644245244
 21
19.4908444119
 31
0.0
 11
14.4013713564
 21
19.591397225
 31
0.0
 11
14.2176053335
 21
19.6491052824
 31
0.0
 11
14.0174409191
 21
19.6626556125
 31
0.0
 11
13.5866254206
 21
19.5570050615
 31
0.0
  0
SPLINE
  5
44C
100
AcDbEntity
  8
0
100
AcDbSpline
 62
253
  6
CONTINUOUS
 70
0
 71
3
 72
9
 73
5
 74
3
 42
0.0000001
 43
0.0000001
 44
0.0000000001
 12
-0.0026027866
 22
0.4833295762
 32
0.0
 13
-0.1341096763
 23
0.4643585344
 33
0.0
 40
0.0
 40
0.0
 40
0.0
 40
0.0
 40
0.263080438
 40
1.0
 40
1.0
 40
1.0
 40
1.0
 10
14.9589201848
 20
18.4820643518
 30
0.0
 10
14.9586919374
 20
18.524449204
 30
0.0
 10
14.9527055752
 20
18.6854236362
 30
0.0
 10
14.9273124217
 20
18.8461874449
 30
0.0
 10
14.8943697404
 20
18.9602524074
 30
0.0
 11
14.9589201848
 21
18.4820643518
 31
0.0
 11
14.9541989782
 21
18.6091330747
 31
0.0
 11
14.8943697404
 21
18.9602524074
 31
0.0
  0
SPLINE
  5
44D
100
AcDbEntity
  8
0
100
AcDbSpline
 62
253
  6
CONTINUOUS
 70
0
 71
3
 72
11
 73
7
 74
5
 42
0.0000001
 43
0.0000001
 44
0.0000000001
 12
0.3826132584
 22
0.2959513713
 32
0.0
 13
-0.0934761246
 23
0.4745970226
 33
0.0
 40
0.0
 40
0.0
 40
0.0
 40
0.0
 40
0.2883374076
 40
0.5479506633
 40
0.7818085742
 40
1.0
 40
1.0
 40
1.0
 40
1.0
 10
15.0780349834
 20
17.3580821839
 30
0.0
 10
15.1148088885
 20
17.386526801
 30
0.0
 10
15.1802510658
 20
17.4468798731
 30
0.0
 10
15.2527315039
 20
17.551534868
 30
0.0
 10
15.2905262407
 20
17.6617199665
 30
0.0
 10
15.2898174108
 20
17.736415715
 30
0.0
 10
15.2830188479
 20
17.770933382
 30
0.0
 11
15.0780349834
 21
17.3580821839
 31
0.0
 11
15.1796271705
 21
17.4536425026
 31
0.0
 11
15.2497104811
 21
17.5578459843
 31
0.0
 11
15.2847435132
 21
17.6654050271
 31
0.0
 11
15.2830188479
 21
17.770933382
 31
0.0
  0
SPLINE
  5
44E
100
AcDbEntity
  8
0
100
AcDbSpline
 62
7
  6
CONTINUOUS
 70
0
 71
3
 72
12
 73
8
 74
6
 42
0.0000001
 43
0.0000001
 44
0.0000000001
 12
-0.0121260661
 22
0.9735730631
 32
0.0
 13
0.9730553955
 23
-0.033981584
 33
0.0
 40
0.0
 40
0.0
 40
0.0
 40
0.0
 40
0.2621837391
 40
0.5411495285
 40
0.6741941009
 40
0.7965803693
 40
1.0
 40
1.0
 40
1.0
 40
1.0
 10
14.5434424592
 20
15.7085410328
 30
0.0
 10
14.5423827068
 20
15.7936260415
 30
0.0
 10
14.5778252062
 20
15.9698496265
 30
0.0
 10
14.6824855449
 20
16.1654626287
 30
0.0
 10
14.7986676312
 20
16.295708056
 30
0.0
 10
14.9156066241
 20
16.3875097575
 30
0.0
 10
15.0219882631
 20
16.4268246631
 30
0.0
 10
15.0879677862
 20
16.4245204894
 30
0.0
 11
14.5434424592
 21
15.7085410328
 31
0.0
 11
14.5881257871
 21
15.9598747476
 31
0.0
 11
14.7168809501
 21
16.1990329018
 31
0.0
 11
14.8035796345
 21
16.2952805105
 31
0.0
 11
14.8982498499
 21
16.3676472551
 31
0.0
 11
15.0879677862
 21
16.4245204894
 31
0.0
  0
SPLINE
  5
44F
100
AcDbEntity
  8
0
100
AcDbSpline
 62
253
  6
CONTINUOUS
 70
0
 71
3
 72
11
 73
7
 74
5
 42
0.0000001
 43
0.0000001
 44
0.0000000001
 12
0.3512064798
 22
0.2211324439
 32
0.0
 13
-0.0355429609
 23
0.4134999965
 33
0.0
 40
0.0
 40
0.0
 40
0.0
 40
0.0
 40
0.2947982123
 40
0.5559024806
 40
0.7870290305
 40
1.0
 40
1.0
 40
1.0
 40
1.0
 10
14.9824358356
 20
18.1735782408
 30
0.0
 10
15.0169475164
 20
18.1953080572
 30
0.0
 10
15.0790244074
 20
18.2415481363
 30
0.0
 10
15.1516774286
 20
18.3239740618
 30
0.0
 10
15.1949702486
 20
18.4130397671
 30
0.0
 10
15.2016861592
 20
18.4757312906
 30
0.0
 10
15.1991629529
 20
18.5050857889
 30
0.0
 11
14.9824358356
 21
18.1735782408
 31
0.0
 11
15.0797610345
 21
18.2477198281
 31
0.0
 11
15.1501619271
 21
18.3301008345
 31
0.0
 11
15.1905193498
 21
18.4171212141
 31
0.0
 11
15.1991629529
 21
18.5050857889
 31
0.0
  0
SPLINE
  5
450
100
AcDbEntity
  8
0
100
AcDbSpline
 62
253
  6
CONTINUOUS
 70
0
 71
3
 72
9
 73
5
 74
3
 42
0.0000001
 43
0.0000001
 44
0.0000000001
 12
0.0563007563
 22
0.0807026848
 32
0.0
 13
0.0709840114
 23
0.0681466699
 33
0.0
 40
0.0
 40
0.0
 40
0.0
 40
0.0
 40
0.2548768183
 40
1.0
 40
1.0
 40
1.0
 40
1.0
 10
-9.6976637969
 20
-1.4872303027
 30
0.0
 10
-9.6928805444
 20
-1.4803738882
 30
0.0
 10
-9.6734941269
 20
-1.453912987
 30
0.0
 10
-9.6515770288
 20
-1.4292866956
 30
0.0
 10
-9.6339464181
 20
-1.4123608078
 30
0.0
 11
-9.6976637969
 21
-1.4872303027
 31
0.0
 11
-9.682833849
 21
-1.4670045278
 31
0.0
 11
-9.6339464181
 21
-1.4123608078
 31
0.0
  0
SPLINE
  5
451
100
AcDbEntity
  8
0
100
AcDbSpline
 62
253
  6
CONTINUOUS
 70
0
 71
3
 72
9
 73
5
 74
3
 42
0.0000001
 43
0.0000001
 44
0.0000000001
 12
0.1327381603
 22
0.1274324093
 32
0.0
 13
0.1732512913
 23
0.0619873229
 33
0.0
 40
0.0
 40
0.0
 40
0.0
 40
0.0
 40
0.2538674096
 40
1.0
 40
1.0
 40
1.0
 40
1.0
 10
-9.6339464181
 20
-1.4123608078
 30
0.0
 10
-9.6227137871
 20
-1.4015771626
 30
0.0
 10
-9.5764061856
 20
-1.3612977741
 30
0.0
 10
-9.5214629165
 20
-1.3309713544
 30
0.0
 10
-9.4783734383
 20
-1.3155544338
 30
0.0
 11
-9.6339464181
 21
-1.4123608078
 31
0.0
 11
-9.5986452482
 21
-1.3817673701
 31
0.0
 11
-9.4783734383
 21
-1.3155544338
 31
0.0
  0
SPLINE
  5
452
100
AcDbEntity
  8
0
100
AcDbSpline
 62
253
  6
CONTINUOUS
 70
0
 71
3
 72
9
 73
5
 74
3
 42
0.0000001
 43
0.0000001
 44
0.0000000001
 12
0.4484909753
 22
0.1604649218
 32
0.0
 13
0.4260452051
 23
-0.2130226026
 33
0.0
 40
0.0
 40
0.0
 40
0.0
 40
0.0
 40
0.4654892956
 40
1.0
 40
1.0
 40
1.0
 40
1.0
 10
-9.4783734383
 20
-1.3155544338
 30
0.0
 10
-9.4087841889
 20
-1.2906561993
 30
0.0
 10
-9.24396669
 20
-1.2772732119
 30
0.0
 10
-9.0906601483
 20
-1.3303651074
 30
0.0
 10
-9.0147515741
 20
-1.3683193945
 30
0.0
 11
-9.4783734383
 21
-1.3155544338
 31
0.0
 11
-9.2578368235
 21
-1.2926007211
 31
0.0
 11
-9.0147515741
 21
-1.3683193945
 31
0.0
  0
SPLINE
  5
453
100
AcDbEntity
  8
0
100
AcDbSpline
 62
7
  6
CONTINUOUS
 70
0
 71
3
 72
9
 73
5
 74
3
 42
0.0000001
 43
0.0000001
 44
0.0000000001
 12
0.1965220123
 22
0.113252634
 32
0.0
 13
0.1284950953
 23
0.1869119336
 33
0.0
 40
0.0
 40
0.0
 40
0.0
 40
0.0
 40
0.2756663141
 40
1.0
 40
1.0
 40
1.0
 40
1.0
 10
14.9595333005
 20
18.4408674912
 30
0.0
 10
14.9775914668
 20
18.4512741366
 30
0.0
 10
15.0413709725
 20
18.4916461892
 30
0.0
 10
15.098908731
 20
18.5439871813
 30
0.0
 10
15.129933173
 20
18.5891160513
 30
0.0
 11
14.9595333005
 21
18.4408674912
 31
0.0
 11
15.012280867
 21
18.4744421091
 31
0.0
 11
15.129933173
 21
18.5891160513
 31
0.0
  0
SPLINE
  5
454
100
AcDbEntity
  8
0
100
AcDbSpline
 62
7
  6
CONTINUOUS
 70
0
 71
3
 72
9
 73
5
 74
3
 42
0.0000001
 43
0.0000001
 44
0.0000000001
 12
0.0426478679
 22
0.0620365736
 32
0.0
 13
0.0255151687
 23
0.0708262188
 33
0.0
 40
0.0
 40
0.0
 40
0.0
 40
0.0
 40
0.2596648675
 40
1.0
 40
1.0
 40
1.0
 40
1.0
 10
15.129933173
 20
18.5891160513
 30
0.0
 10
15.1336245573
 20
18.5944856241
 30
0.0
 10
15.1472494347
 20
18.6155582105
 30
0.0
 10
15.1583614143
 20
18.6383046605
 30
0.0
 10
15.1646580062
 20
18.6557830398
 30
0.0
 11
15.129933173
 21
18.5891160513
 31
0.0
 11
15.140530927
 21
18.6055421065
 31
0.0
 11
15.1646580062
 21
18.6557830398
 31
0.0
  0
SPLINE
  5
455
100
AcDbEntity
  8
0
100
AcDbSpline
 62
7
  6
CONTINUOUS
 70
0
 71
3
 72
9
 73
5
 74
3
 42
0.0000001
 43
0.0000001
 44
0.0000000001
 12
0.0285078835
 22
0.0791335391
 32
0.0
 13
-0.0016956664
 23
0.0840948342
 33
0.0
 40
0.0
 40
0.0
 40
0.0
 40
0.0
 40
0.2566156223
 40
1.0
 40
1.0
 40
1.0
 40
1.0
 10
15.1646580062
 20
18.6557830398
 30
0.0
 10
15.167096529
 20
18.6625520073
 30
0.0
 10
15.1755006432
 20
18.689306645
 30
0.0
 10
15.1791246588
 20
18.7176097683
 30
0.0
 10
15.1787044815
 20
18.7384480303
 30
0.0
 11
15.1646580062
 21
18.6557830398
 31
0.0
 11
15.171095006
 21
18.6763852935
 31
0.0
 11
15.1787044815
 21
18.7384480303
 31
0.0
  0
SPLINE
  5
456
100
AcDbEntity
  8
0
100
AcDbSpline
 62
253
  6
CONTINUOUS
 70
0
 71
3
 72
11
 73
7
 74
5
 42
0.0000001
 43
0.0000001
 44
0.0000000001
 12
0.5493394482
 22
-0.0189826292
 32
0.0
 13
0.0
 23
0.5496673263
 33
0.0
 40
0.0
 40
0.0
 40
0.0
 40
0.0
 40
0.227572886
 40
0.4530587096
 40
0.7058978672
 40
1.0
 40
1.0
 40
1.0
 40
1.0
 10
-9.6792721958
 20
-3.3943089433
 30
0.0
 10
-9.6376006079
 20
-3.3957489205
 30
0.0
 10
-9.5519754356
 20
-3.3810333803
 30
0.0
 10
-9.4484467101
 20
-3.2950688969
 30
0.0
 10
-9.3880205509
 20
-3.1633068478
 30
0.0
 10
-9.3767632023
 20
-3.0623320376
 30
0.0
 10
-9.3767632023
 20
-3.0084459266
 30
0.0
 11
-9.6792721958
 21
-3.3943089433
 31
0.0
 11
-9.5564198854
 21
-3.3707576637
 31
0.0
 11
-9.4597326025
 21
-3.2932126076
 31
0.0
 11
-9.397986362
 21
-3.1687050734
 31
0.0
 11
-9.3767632023
 21
-3.0084459266
 31
0.0
  0
SPLINE
  5
457
100
AcDbEntity
  8
0
100
AcDbSpline
 62
253
  6
CONTINUOUS
 70
0
 71
3
 72
11
 73
7
 74
5
 42
0.0000001
 43
0.0000001
 44
0.0000000001
 12
0.6646769248
 22
0.3321820551
 32
0.0
 13
-0.0
 23
0.7430614591
 33
0.0
 40
0.0
 40
0.0
 40
0.0
 40
0.0
 40
0.2171660977
 40
0.4503906164
 40
0.710307251
 40
1.0
 40
1.0
 40
1.0
 40
1.0
 10
-8.3541324028
 20
-3.3472469123
 30
0.0
 10
-8.3060173048
 20
-3.3232006854
 30
0.0
 10
-8.2150007651
 20
-3.2539285551
 30
0.0
 10
-8.1174188042
 20
-3.1043225727
 30
0.0
 10
-8.0590520335
 20
-2.9174269641
 30
0.0
 10
-8.0474512056
 20
-2.7807833224
 30
0.0
 10
-8.0474512056
 20
-2.7090301501
 30
0.0
 11
-8.3541324028
 21
-3.3472469123
 31
0.0
 11
-8.2250211275
 21
-3.2504490212
 31
0.0
 11
-8.1280150166
 21
-3.1068427649
 31
0.0
 11
-8.0678421459
 21
-2.9233217018
 31
0.0
 11
-8.0474512056
 21
-2.7090301501
 31
0.0
  0
SPLINE
  5
458
100
AcDbEntity
  8
0
100
AcDbSpline
 62
253
  6
CONTINUOUS
 70
0
 71
3
 72
15
 73
11
 74
9
 42
0.0000001
 43
0.0000001
 44
0.0000000001
 12
2.2429120988
 22
-1.1214560494
 32
0.0
 13
-0.0000972998
 23
2.5076519583
 33
0.0
 40
0.0
 40
0.0
 40
0.0
 40
0.0
 40
0.1349111792
 40
0.2571993516
 40
0.3703106221
 40
0.4800794971
 40
0.5933621391
 40
0.7159430721
 40
0.8512009536
 40
1.0
 40
1.0
 40
1.0
 40
1.0
 10
8.41484027
 20
-1.6299197161
 30
0.0
 10
8.5157049088
 20
-1.6803520355
 30
0.0
 10
8.7175867045
 20
-1.7594492355
 30
0.0
 10
9.0273968129
 20
-1.8031488773
 30
0.0
 10
9.3174520074
 20
-1.7610844421
 30
0.0
 10
9.5727681296
 20
-1.632056207
 30
0.0
 10
9.7790607038
 20
-1.4233818619
 30
0.0
 10
9.9284947482
 20
-1.1476365245
 30
0.0
 10
10.0181003382
 20
-0.8172867053
 30
0.0
 10
10.0361657473
 20
-0.5791635551
 30
0.0
 10
10.0361609213
 20
-0.4547848151
 30
0.0
 11
8.41484027
 21
-1.6299197161
 31
0.0
 11
8.7311533293
 21
-1.7499192834
 31
0.0
 11
9.0353099399
 21
-1.7889931375
 31
0.0
 11
9.3156208745
 21
-1.7456396143
 31
0.0
 11
9.5613133031
 21
-1.6215248562
 31
0.0
 11
9.7629448612
 21
-1.4214188001
 31
0.0
 11
9.9127665095
 21
-1.1530118689
 31
0.0
 11
10.0050203526
 21
-0.8266193266
 31
0.0
 11
10.0361609213
 21
-0.4547848151
 31
0.0
  0
SPLINE
  5
459
100
AcDbEntity
  8
0
100
AcDbSpline
 62
253
  6
CONTINUOUS
 70
0
 71
3
 72
11
 73
7
 74
5
 42
0.0000001
 43
0.0000001
 44
0.0000000001
 12
0.0
 22
-0.5685848591
 32
0.0
 13
0.4603880513
 23
-0.333663879
 33
0.0
 40
0.0
 40
0.0
 40
0.0
 40
0.0
 40
0.2861041071
 40
0.5463546174
 40
0.7821677679
 40
1.0
 40
1.0
 40
1.0
 40
1.0
 10
8.2077334889
 20
-1.121100671
 30
0.0
 10
8.2077334889
 20
-1.1753254922
 30
0.0
 10
8.2156477824
 20
-1.2791609343
 30
0.0
 10
8.2546815517
 20
-1.4232792923
 30
0.0
 10
8.3198522241
 20
-1.5434560513
 30
0.0
 10
8.3814111511
 20
-1.6056921336
 30
0.0
 10
8.41484027
 20
-1.6299197161
 30
0.0
 11
8.2077334889
 21
-1.121100671
 31
0.0
 11
8.2213288036
 21
-1.2832060333
 31
0.0
 11
8.261551498
 21
-1.4256089385
 31
0.0
 11
8.3269374055
 21
-1.54266479
 31
0.0
 11
8.41484027
 21
-1.6299197161
 31
0.0
  0
SPLINE
  5
45A
100
AcDbEntity
  8
0
100
AcDbSpline
 62
253
  6
CONTINUOUS
 70
0
 71
3
 72
9
 73
5
 74
3
 42
0.0000001
 43
0.0000001
 44
0.0000000001
 12
-0.0002352836
 22
-0.098284637
 32
0.0
 13
-0.0500164886
 23
-0.0846065961
 33
0.0
 40
0.0
 40
0.0
 40
0.0
 40
0.0
 40
0.2432386189
 40
1.0
 40
1.0
 40
1.0
 40
1.0
 10
15.3190906077
 20
17.1333010309
 30
0.0
 10
15.319071531
 20
17.1253321578
 30
0.0
 10
15.3166855862
 20
17.0925728212
 30
0.0
 10
15.3045807297
 20
17.0608841691
 30
0.0
 10
15.2919638807
 20
17.0395418343
 30
0.0
 11
15.3190906077
 21
17.1333010309
 31
0.0
 11
15.3173358035
 21
17.1094588333
 31
0.0
 11
15.2919638807
 21
17.0395418343
 31
0.0
  0
SPLINE
  5
45B
100
AcDbEntity
  8
0
100
AcDbSpline
 62
253
  6
CONTINUOUS
 70
0
 71
3
 72
9
 73
5
 74
3
 42
0.0000001
 43
0.0000001
 44
0.0000000001
 12
-0.0355587004
 22
-0.0601501763
 32
0.0
 13
-0.0496294665
 23
-0.0491872031
 33
0.0
 40
0.0
 40
0.0
 40
0.0
 40
0.0
 40
0.2383406447
 40
1.0
 40
1.0
 40
1.0
 40
1.0
 10
15.2919638807
 20
17.0395418343
 30
0.0
 10
15.2891388528
 20
17.0347630904
 30
0.0
 10
15.2765470286
 20
17.0151511269
 30
0.0
 10
15.2612247896
 20
16.9973605476
 30
0.0
 10
15.2486245404
 20
16.9848725831
 30
0.0
 11
15.2919638807
 21
17.0395418343
 31
0.0
 11
15.2829814611
 21
17.0255179003
 31
0.0
 11
15.2486245404
 21
16.9848725831
 31
0.0
  0
SPLINE
  5
45C
100
AcDbEntity
  8
0
100
AcDbSpline
 62
253
  6
CONTINUOUS
 70
0
 71
3
 72
9
 73
5
 74
3
 42
0.0000001
 43
0.0000001
 44
0.0000000001
 12
-0.1211938795
 22
-0.1201138837
 32
0.0
 13
-0.1549124066
 23
-0.0715363387
 33
0.0
 40
0.0
 40
0.0
 40
0.0
 40
0.0
 40
0.2265887071
 40
1.0
 40
1.0
 40
1.0
 40
1.0
 10
15.2486245404
 20
16.9848725831
 30
0.0
 10
15.2394708189
 20
16.9758004332
 30
0.0
 10
15.1967429099
 20
16.9381099973
 30
0.0
 10
15.1467187786
 20
16.9093739714
 30
0.0
 10
15.106781777
 20
16.890931634
 30
0.0
 11
15.2486245404
 21
16.9848725831
 31
0.0
 11
15.2197328897
 21
16.9591797202
 31
0.0
 11
15.106781777
 21
16.890931634
 31
0.0
  0
SPLINE
  5
45D
100
AcDbEntity
  8
0
100
AcDbSpline
 62
253
  6
CONTINUOUS
 70
0
 71
3
 72
15
 73
11
 74
9
 42
0.0000001
 43
0.0000001
 44
0.0000000001
 12
1.5511685756
 22
-0.7755842878
 32
0.0
 13
-0.0000831374
 23
1.7342591878
 33
0.0
 40
0.0
 40
0.0
 40
0.0
 40
0.0
 40
0.1349014321
 40
0.2572111482
 40
0.3703129814
 40
0.4800825727
 40
0.5933661601
 40
0.7159341853
 40
0.851213988
 40
1.0
 40
1.0
 40
1.0
 40
1.0
 10
8.2077334889
 20
-1.121100671
 30
0.0
 10
8.2774851096
 20
-1.1559764814
 30
0.0
 10
8.4171131714
 20
-1.2106674337
 30
0.0
 10
8.6313747745
 20
-1.2409158583
 30
0.0
 10
8.8319743435
 20
-1.2117908936
 30
0.0
 10
9.008553823
 20
-1.1225813903
 30
0.0
 10
9.1512081823
 20
-0.9782589173
 30
0.0
 10
9.2545902449
 20
-0.7875714945
 30
0.0
 10
9.3165437566
 20
-0.5591014277
 30
0.0
 10
9.3290605689
 20
-0.3944166817
 30
0.0
 10
9.3290564456
 20
-0.3084055122
 30
0.0
 11
8.2077334889
 21
-1.121100671
 31
0.0
 11
8.4264774872
 21
-1.2040799453
 31
0.0
 11
8.6368642672
 21
-1.2311154417
 31
0.0
 11
8.8307051997
 21
-1.2011206251
 31
0.0
 11
9.0006283009
 21
-1.1152925044
 31
0.0
 11
9.1400745782
 21
-0.9768999959
 31
0.0
 11
9.2436963779
 21
-0.791302893
 31
0.0
 11
9.3075092749
 21
-0.5655377954
 31
0.0
 11
9.3290564456
 21
-0.3084055122
 31
0.0
  0
SPLINE
  5
45E
100
AcDbEntity
  8
0
100
AcDbSpline
 62
253
  6
CONTINUOUS
 70
0
 71
3
 72
11
 73
7
 74
5
 42
0.0000001
 43
0.0000001
 44
0.0000000001
 12
-0.0000426302
 22
2.3283058976
 32
0.0
 13
-2.0825001042
 23
1.0412500521
 33
0.0
 40
0.0
 40
0.0
 40
0.0
 40
0.0
 40
0.2468028409
 40
0.5117842648
 40
0.7703142448
 40
1.0
 40
1.0
 40
1.0
 40
1.0
 10
9.3290564456
 20
-0.3084055122
 30
0.0
 10
9.3290529385
 20
-0.1168613422
 30
0.0
 10
9.2629637016
 20
0.2810197625
 30
0.0
 10
9.0235960053
 20
0.8343579145
 30
0.0
 10
8.6718257968
 20
1.3075482767
 30
0.0
 10
8.3671736919
 20
1.5458925018
 30
0.0
 10
8.2077334889
 20
1.6256126033
 30
0.0
 11
9.3290564456
 21
-0.3084055122
 31
0.0
 11
9.2436968479
 21
0.2598517013
 31
0.0
 11
9.0006283625
 21
0.8269095938
 31
0.0
 11
8.6368642715
 21
1.3064965935
 31
0.0
 11
8.2077334889
 21
1.6256126033
 31
0.0
  0
SPLINE
  5
45F
100
AcDbEntity
  8
0
100
AcDbSpline
 62
7
  6
CONTINUOUS
 70
0
 71
3
 72
9
 73
5
 74
3
 42
0.0000001
 43
0.0000001
 44
0.0000000001
 12
-0.0757283397
 22
0.0377434208
 32
0.0
 13
-0.0845613658
 23
0.0029534137
 33
0.0
 40
0.0
 40
0.0
 40
0.0
 40
0.0
 40
0.2268131008
 40
1.0
 40
1.0
 40
1.0
 40
1.0
 10
15.1701744967
 20
16.406177546
 30
0.0
 10
15.1644491036
 20
16.4090311134
 30
0.0
 10
15.1383106334
 20
16.4198385282
 30
0.0
 10
15.1097616986
 20
16.4237593091
 30
0.0
 10
15.0879677852
 20
16.4245204894
 30
0.0
 11
15.1701744967
 21
16.406177546
 31
0.0
 11
15.1524680042
 21
16.4135793627
 31
0.0
 11
15.0879677852
 21
16.4245204894
 31
0.0
  0
SPLINE
  5
460
100
AcDbEntity
  8
0
100
AcDbSpline
 62
7
  6
CONTINUOUS
 70
0
 71
3
 72
11
 73
7
 74
5
 42
0.0000001
 43
0.0000001
 44
0.0000000001
 12
-0.2855367059
 22
0.1622770539
 32
0.0
 13
-0.0040903275
 23
0.3284026825
 33
0.0
 40
0.0
 40
0.0
 40
0.0
 40
0.0
 40
0.2178982754
 40
0.4521865052
 40
0.712202926
 40
1.0
 40
1.0
 40
1.0
 40
1.0
 10
14.6767414903
 20
15.4233992967
 30
0.0
 10
14.6560021717
 20
15.4351859267
 30
0.0
 10
14.6170517201
 20
15.467478773
 30
0.0
 10
14.5751201226
 20
15.5344413369
 30
0.0
 10
14.5495274916
 20
15.6169301216
 30
0.0
 10
14.543834854
 20
15.6770365891
 30
0.0
 10
14.5434424592
 20
15.7085410328
 30
0.0
 11
14.6767414903
 21
15.4233992967
 31
0.0
 11
14.6213260445
 21
15.4686820109
 31
0.0
 11
14.5795391038
 21
15.533293693
 31
0.0
 11
14.5531925818
 21
15.6145245948
 31
0.0
 11
14.5434424592
 21
15.7085410328
 31
0.0
  0
SPLINE
  5
461
100
AcDbEntity
  8
0
100
AcDbSpline
 62
7
  6
CONTINUOUS
 70
0
 71
3
 72
9
 73
5
 74
3
 42
0.0000001
 43
0.0000001
 44
0.0000000001
 12
0.1603554164
 22
0.0832283902
 32
0.0
 13
0.123323286
 23
0.1320310252
 33
0.0
 40
0.0
 40
0.0
 40
0.0
 40
0.0
 40
0.2715433908
 40
1.0
 40
1.0
 40
1.0
 40
1.0
 10
14.9587160996
 20
18.481947753
 30
0.0
 10
14.9732305841
 20
18.4894811261
 30
0.0
 10
15.0256829705
 20
18.5189763821
 30
0.0
 10
15.0744246225
 20
18.5560139339
 30
0.0
 10
15.1043698435
 20
18.5880735582
 30
0.0
 11
14.9587160996
 21
18.481947753
 31
0.0
 11
15.0014431678
 21
18.5060557471
 31
0.0
 11
15.1043698435
 21
18.5880735582
 31
0.0
  0
SPLINE
  5
462
100
AcDbEntity
  8
0
100
AcDbSpline
 62
7
  6
CONTINUOUS
 70
0
 71
3
 72
9
 73
5
 74
3
 42
0.0000001
 43
0.0000001
 44
0.0000000001
 12
0.1198240822
 22
0.128284746
 32
0.0
 13
0.0089809811
 23
0.175311519
 33
0.0
 40
0.0
 40
0.0
 40
0.0
 40
0.0
 40
0.529259197
 40
1.0
 40
1.0
 40
1.0
 40
1.0
 10
15.1043698435
 20
18.5880735582
 30
0.0
 10
15.125509176
 20
18.6107055188
 30
0.0
 10
15.1606926136
 20
18.6587384459
 30
0.0
 10
15.1766864771
 20
18.7168617238
 30
0.0
 10
15.1780957152
 20
18.7443704856
 30
0.0
 11
15.1043698435
 21
18.5880735582
 31
0.0
 11
15.1573761986
 21
18.6643757173
 31
0.0
 11
15.1780957152
 21
18.7443704856
 31
0.0
  0
SPLINE
  5
463
100
AcDbEntity
  8
0
100
AcDbSpline
 62
253
  6
CONTINUOUS
 70
0
 71
3
 72
9
 73
5
 74
3
 42
0.0000001
 43
0.0000001
 44
0.0000000001
 12
-0.0710133991
 22
0.5838781893
 32
0.0
 13
-0.0555194876
 23
0.5855546339
 33
0.0
 40
0.0
 40
0.0
 40
0.0
 40
0.0
 40
0.2486375254
 40
1.0
 40
1.0
 40
1.0
 40
1.0
 10
15.0429806062
 20
17.5885329909
 30
0.0
 10
15.0370950743
 20
17.6369243336
 30
0.0
 10
15.0151498928
 20
17.8317589139
 30
0.0
 10
14.9963409366
 20
18.0269236571
 30
0.0
 10
14.9824358501
 20
18.17357825
 30
0.0
 11
15.0429806062
 21
17.5885329909
 31
0.0
 11
15.0263761664
 21
17.7338311203
 31
0.0
 11
14.9824358501
 21
18.17357825
 31
0.0
  0
SPLINE
  5
464
100
AcDbEntity
  8
0
100
AcDbSpline
 62
7
  6
CONTINUOUS
 70
0
 71
3
 72
11
 73
7
 74
5
 42
0.0000001
 43
0.0000001
 44
0.0000000001
 12
-0.0092252576
 22
-0.349998669
 32
0.0
 13
-0.3159527352
 23
-0.1508576906
 33
0.0
 40
0.0
 40
0.0
 40
0.0
 40
0.0
 40
0.2052626429
 40
0.4327547081
 40
0.6962724398
 40
1.0
 40
1.0
 40
1.0
 40
1.0
 10
15.3189016513
 20
17.0798788063
 30
0.0
 10
15.318270451
 20
17.0559315891
 30
0.0
 10
15.3062186776
 20
17.0053570131
 30
0.0
 10
15.2600226726
 20
16.9369902986
 30
0.0
 10
15.1891927285
 20
16.8759213164
 30
0.0
 10
15.1313024565
 20
16.8430565977
 30
0.0
 10
15.0993146054
 20
16.827783385
 30
0.0
 11
15.3189016513
 21
17.0798788063
 31
0.0
 11
15.3030895395
 21
17.0097732732
 31
0.0
 11
15.2600122771
 21
16.9427777208
 31
0.0
 11
15.191193331
 21
16.8813253556
 31
0.0
 11
15.0993146054
 21
16.827783385
 31
0.0
  0
SPLINE
  5
465
100
AcDbEntity
  8
0
100
AcDbSpline
 62
253
  6
CONTINUOUS
 70
0
 71
3
 72
11
 73
7
 74
5
 42
0.0000001
 43
0.0000001
 44
0.0000000001
 12
3.4422771316
 22
-1.7211385658
 32
0.0
 13
0.0000011851
 23
-3.8485828318
 33
0.0
 40
0.0
 40
0.0
 40
0.0
 40
0.0
 40
0.2296635349
 40
0.4881791341
 40
0.7531792203
 40
1.0
 40
1.0
 40
1.0
 40
1.0
 10
8.6470733171
 20
2.7420811865
 30
0.0
 10
8.9105951618
 20
2.6103202641
 30
0.0
 10
9.4141383974
 20
2.2163914137
 30
0.0
 10
9.9956346503
 20
1.4342826935
 30
0.0
 10
10.3913224562
 20
0.5196221747
 30
0.0
 10
10.5006269181
 20
-0.1380984977
 30
0.0
 10
10.5006270155
 20
-0.4547352361
 30
0.0
 11
8.6470733171
 21
2.7420811865
 31
0.0
 11
9.3563496096
 21
2.2146634483
 31
0.0
 11
9.9576417839
 21
1.4220027806
 31
0.0
 11
10.3594853265
 21
0.4846307418
 31
0.0
 11
10.5006270155
 21
-0.4547352361
 31
0.0
  0
SPLINE
  5
466
100
AcDbEntity
  8
0
100
AcDbSpline
 62
253
  6
CONTINUOUS
 70
0
 71
3
 72
10
 73
6
 74
4
 42
0.0000001
 43
0.0000001
 44
0.0000000001
 12
-1.9263425917
 22
-0.9631712959
 32
0.0
 13
-1.0802712756
 23
-1.8631985125
 33
0.0
 40
0.0
 40
0.0
 40
0.0
 40
0.0
 40
0.2261576162
 40
0.4712450507
 40
1.0
 40
1.0
 40
1.0
 40
1.0
 10
10.1470733171
 20
4.2530400907
 30
0.0
 10
10.0018543009
 20
4.1804305826
 30
0.0
 10
9.713961435
 20
3.9986698487
 30
0.0
 10
9.1739280152
 20
3.5228552126
 30
0.0
 10
8.8374729116
 20
3.0704729981
 30
0.0
 10
8.6470733171
 20
2.7420811865
 30
0.0
 11
10.1470733171
 21
4.2530400907
 31
0.0
 11
9.7332197743
 21
3.996190767
 31
0.0
 11
9.3352876313
 21
3.6493847442
 31
0.0
 11
8.6470733171
 21
2.7420811865
 31
0.0
  0
SPLINE
  5
467
100
AcDbEntity
  8
0
100
AcDbSpline
 62
253
  6
CONTINUOUS
 70
0
 71
3
 72
14
 73
10
 74
8
 42
0.0000001
 43
0.0000001
 44
0.0000000001
 12
0.0000337656
 22
5.1484603122
 32
0.0
 13
-4.6049228951
 23
2.3024614476
 33
0.0
 40
0.0
 40
0.0
 40
0.0
 40
0.0
 40
0.1198299487
 40
0.2469201687
 40
0.5113941968
 40
0.6430281403
 40
0.7699825949
 40
0.8896167471
 40
1.0
 40
1.0
 40
1.0
 40
1.0
 10
12.6219473603
 20
-0.0155360597
 30
0.0
 10
12.621948709
 20
0.1901105188
 30
0.0
 10
12.5869828014
 20
0.614375312
 30
0.0
 10
12.394892323
 20
1.4725623021
 30
0.0
 10
12.0346288368
 20
2.3066948071
 30
0.0
 10
11.5382519133
 20
3.0564793739
 30
0.0
 10
11.1135294808
 20
3.5500181279
 30
0.0
 10
10.6523529757
 20
3.9562812969
 30
0.0
 10
10.3165087733
 20
4.1683223626
 30
0.0
 10
10.1470733171
 20
4.2530400907
 30
0.0
 11
12.6219473603
 21
-0.0155360597
 31
0.0
 11
12.5744022921
 21
0.5995688936
 31
0.0
 11
12.4335871417
 21
1.2385558937
 31
0.0
 11
11.8971748057
 21
2.4900785893
 31
0.0
 11
11.5221543809
 21
3.0545725375
 31
0.0
 11
11.0942650689
 21
3.5486674705
 31
0.0
 11
10.6299376771
 21
3.9533548973
 31
0.0
 11
10.1470733171
 21
4.2530400907
 31
0.0
  0
SPLINE
  5
468
100
AcDbEntity
  8
0
100
AcDbSpline
 62
253
  6
CONTINUOUS
 70
0
 71
3
 72
11
 73
7
 74
5
 42
0.0000001
 43
0.0000001
 44
0.0000000001
 12
1.5610014398
 22
1.1855874503
 32
0.0
 13
0.0000003018
 23
1.9601895565
 33
0.0
 40
0.0
 40
0.0
 40
0.0
 40
0.0
 40
0.218105867
 40
0.4542069821
 40
0.714358547
 40
1.0
 40
1.0
 40
1.0
 40
1.0
 10
11.9212957208
 20
-1.7784276373
 30
0.0
 10
12.0347835783
 20
-1.692233111
 30
0.0
 10
12.2431595094
 20
-1.4737751778
 30
0.0
 10
12.4630905945
 20
-1.0568750662
 30
0.0
 10
12.5952690931
 20
-0.5597629568
 30
0.0
 10
12.6219473319
 20
-0.2021731908
 30
0.0
 10
12.6219473606
 20
-0.0155360598
 30
0.0
 11
11.9212957208
 21
-1.7784276373
 31
0.0
 11
12.2191001028
 21
-1.471681062
 31
0.0
 11
12.4400922321
 21
-1.0650497302
 31
0.0
 11
12.5760589434
 21
-0.5735638559
 31
0.0
 11
12.6219473606
 21
-0.0155360598
 31
0.0
  0
SPLINE
  5
469
100
AcDbEntity
  8
0
100
AcDbSpline
 62
253
  6
CONTINUOUS
 70
0
 71
3
 72
10
 73
6
 74
4
 42
0.0000001
 43
0.0000001
 44
0.0000000001
 12
2.1819944263
 22
-0.0001205906
 32
0.0
 13
1.9515591344
 23
0.9759695874
 33
0.0
 40
0.0
 40
0.0
 40
0.0
 40
0.0
 40
0.5287334213
 40
0.7747845324
 40
1.0
 40
1.0
 40
1.0
 40
1.0
 10
10.5006126719
 20
-0.4548251951
 30
0.0
 10
10.8851771313
 20
-0.4548464486
 30
0.0
 10
11.4515423459
 20
-0.4020747837
 30
0.0
 10
12.156107582
 20
-0.2171620424
 30
0.0
 10
12.4754402596
 20
-0.0887528956
 30
0.0
 10
12.6219473606
 20
-0.0154850799
 30
0.0
 11
10.5006126719
 21
-0.4548251951
 31
0.0
 11
11.6486451095
 21
-0.340676444
 31
0.0
 11
12.1673242356
 21
-0.2020603874
 31
0.0
 11
12.6219473606
 21
-0.0154850799
 31
0.0
  0
SPLINE
  5
46A
100
AcDbEntity
  8
0
100
AcDbSpline
 62
253
  6
CONTINUOUS
 70
0
 71
3
 72
15
 73
11
 74
9
 42
0.0000001
 43
0.0000001
 44
0.0000000001
 12
-0.0000008005
 22
-2.5990898214
 32
0.0
 13
-2.4648633854
 23
0.824449144
 33
0.0
 40
0.0
 40
0.0
 40
0.0
 40
0.0
 40
0.1506814136
 40
0.2888953046
 40
0.4150892489
 40
0.531666033
 40
0.6429663222
 40
0.7546561697
 40
0.8722757342
 40
1.0
 40
1.0
 40
1.0
 40
1.0
 10
10.5006270151
 20
-0.4547717701
 30
0.0
 10
10.5006269749
 20
-0.5853166128
 30
0.0
 10
10.4831203029
 20
-0.8361876597
 30
0.0
 10
10.3971237863
 20
-1.1874428347
 30
0.0
 10
10.2538596709
 20
-1.4878947183
 30
0.0
 10
10.0559377888
 20
-1.7270087876
 30
0.0
 10
9.8086552913
 20
-1.8941992911
 30
0.0
 10
9.5221647606
 20
-1.9810695327
 30
0.0
 10
9.2094379532
 20
-1.985418803
 30
0.0
 10
9.0004169289
 20
-1.9370339671
 30
0.0
 10
8.8954759735
 20
-1.9019332466
 30
0.0
 11
10.5006270151
 21
-0.4547717701
 31
0.0
 11
10.4708449703
 21
-0.8452722612
 31
0.0
 11
10.3824336169
 21
-1.1934530382
 31
0.0
 11
10.2382422073
 21
-1.4880474736
 31
0.0
 11
10.0428951496
 21
-1.7196605306
 31
0.0
 11
9.8026680625
 21
-1.8808236346
 31
0.0
 11
9.5252596003
 21
-1.9663453213
 31
0.0
 11
9.2196392532
 21
-1.9734884729
 31
0.0
 11
8.8954759735
 21
-1.9019332466
 31
0.0
  0
SPLINE
  5
46B
100
AcDbEntity
  8
0
100
AcDbSpline
 62
253
  6
CONTINUOUS
 70
0
 71
3
 72
11
 73
7
 74
5
 42
0.0000001
 43
0.0000001
 44
0.0000000001
 12
-1.9072846591
 22
-0.9016405446
 32
0.0
 13
-1.8173699088
 23
1.0713809113
 33
0.0
 40
0.0
 40
0.0
 40
0.0
 40
0.0
 40
0.22340448
 40
0.4595792378
 40
0.717074066
 40
1.0
 40
1.0
 40
1.0
 40
1.0
 10
-8.3599440894
 20
-6.61937409
 30
0.0
 10
-8.5019760686
 20
-6.6865176023
 30
0.0
 10
-8.8175691879
 20
-6.7793314195
 30
0.0
 10
-9.3276267178
 20
-6.777111279
 30
0.0
 10
-9.8611165371
 20
-6.6409854089
 30
0.0
 10
-10.2051257397
 20
-6.4737324246
 30
0.0
 10
-10.3765194326
 20
-6.3726919429
 30
0.0
 11
-8.3599440894
 21
-6.61937409
 31
0.0
 11
-8.8114717594
 21
-6.7544843133
 31
0.0
 11
-9.3097110855
 21
-6.7577220406
 31
0.0
 11
-9.837462678
 21
-6.628978126
 31
0.0
 11
-10.3765194326
 21
-6.3726919429
 31
0.0
  0
LINE
  5
46C
100
AcDbEntity
  8
0
100
AcDbLine
 62
253
  6
CONTINUOUS
 10
14.8987185786
 20
12.2442223998
 11
14.8994639279
 21
12.2565126502
  0
LINE
  5
46D
100
AcDbEntity
  8
0
100
AcDbLine
 62
253
  6
CONTINUOUS
 10
15.0542132158
 20
15.4161711185
 11
15.056480805
 21
15.4773816031
  0
SPLINE
  5
46E
100
AcDbEntity
  8
0
100
AcDbSpline
 62
253
  6
CONTINUOUS
 70
0
 71
3
 72
11
 73
7
 74
5
 42
0.0000001
 43
0.0000001
 44
0.0000000001
 12
-0.0399934716
 22
-0.458000548
 32
0.0
 13
-0.4112069841
 23
-0.2056034921
 33
0.0
 40
0.0
 40
0.0
 40
0.0
 40
0.0
 40
0.2069076826
 40
0.436486287
 40
0.6997996622
 40
1.0
 40
1.0
 40
1.0
 40
1.0
 10
6.8591194293
 20
-15.7047400439
 30
0.0
 10
6.8563611105
 20
-15.7363279879
 30
0.0
 10
6.8373787977
 20
-15.8021964626
 30
0.0
 10
6.7753636446
 20
-15.8913598696
 30
0.0
 10
6.6831193237
 20
-15.9718693997
 30
0.0
 10
6.6083261474
 20
-16.0159096615
 30
0.0
 10
6.5671779889
 20
-16.0364837408
 30
0.0
 11
6.8591194293
 21
-15.7047400439
 31
0.0
 11
6.8339384051
 21
-15.7964710353
 31
0.0
 11
6.7753920634
 21
-15.8842921416
 31
0.0
 11
6.6853897394
 21
-15.9652506359
 31
0.0
 11
6.5671779889
 21
-16.0364837408
 31
0.0
  0
SPLINE
  5
46F
100
AcDbEntity
  8
0
100
AcDbSpline
 62
253
  6
CONTINUOUS
 70
0
 71
3
 72
8
 73
4
 74
2
 42
0.0000001
 43
0.0000001
 44
0.0000000001
 12
0.0082775736
 22
-0.069503686
 32
0.0
 13
-0.0106571057
 23
-0.0691788023
 33
0.0
 40
0.0
 40
0.0
 40
0.0
 40
0.0
 40
1.0
 40
1.0
 40
1.0
 40
1.0
 10
15.2572325652
 20
17.9435998191
 30
0.0
 10
15.2599917564
 20
17.9204319238
 30
0.0
 10
15.2594723052
 20
17.8966768678
 30
0.0
 10
15.2559199367
 20
17.8736172671
 30
0.0
 11
15.2572325652
 21
17.9435998191
 31
0.0
 11
15.2559199367
 21
17.8736172671
 31
0.0
  0
SPLINE
  5
470
100
AcDbEntity
  8
0
100
AcDbSpline
 62
253
  6
CONTINUOUS
 70
0
 71
3
 72
9
 73
5
 74
3
 42
0.0000001
 43
0.0000001
 44
0.0000000001
 12
-0.0553058385
 22
-0.3590085141
 32
0.0
 13
-0.3014951886
 23
-0.2025993588
 33
0.0
 40
0.0
 40
0.0
 40
0.0
 40
0.0
 40
0.4704642222
 40
1.0
 40
1.0
 40
1.0
 40
1.0
 10
15.2559199367
 20
17.8736172671
 30
0.0
 10
15.2472467972
 20
17.8173170466
 30
0.0
 10
15.1898127868
 20
17.703822426
 30
0.0
 10
15.0961987104
 20
17.6242946023
 30
0.0
 10
15.042981214
 20
17.5885333993
 30
0.0
 11
15.2559199367
 21
17.8736172671
 31
0.0
 11
15.1851975309
 21
17.7180448246
 31
0.0
 11
15.042981214
 21
17.5885333993
 31
0.0
  0
SPLINE
  5
471
100
AcDbEntity
  8
0
100
AcDbSpline
 62
253
  6
CONTINUOUS
 70
0
 71
3
 72
11
 73
7
 74
5
 42
0.0000001
 43
0.0000001
 44
0.0000000001
 12
0.3068407863
 22
0.1540576749
 32
0.0
 13
0.0275742256
 23
0.3422348571
 33
0.0
 40
0.0
 40
0.0
 40
0.0
 40
0.0
 40
0.3043279947
 40
0.5692659121
 40
0.7974942989
 40
1.0
 40
1.0
 40
1.0
 40
1.0
 10
14.7145821502
 20
9.6201400303
 30
0.0
 10
14.7457088972
 20
9.6357680513
 30
0.0
 10
14.8022344902
 20
9.6687572076
 30
0.0
 10
14.8720736911
 20
9.7285161391
 30
0.0
 10
14.9189512046
 20
9.7941210371
 30
0.0
 10
14.9332315826
 20
9.8426850373
 30
0.0
 10
14.9350928952
 20
9.8657865405
 30
0.0
 11
14.7145821502
 21
9.6201400303
 31
0.0
 11
14.8042386167
 21
9.6738028931
 31
0.0
 11
14.8724150061
 21
9.7340239702
 31
0.0
 11
14.9165450075
 21
9.798777054
 31
0.0
 11
14.9350928952
 21
9.8657865405
 31
0.0
  0
LINE
  5
472
100
AcDbEntity
  8
0
100
AcDbLine
 62
253
  6
CONTINUOUS
 10
14.5435291266
 20
7.6474693583
 11
14.5603336613
 21
7.8297349036
  0
LINE
  5
473
100
AcDbEntity
  8
0
100
AcDbLine
 62
253
  6
CONTINUOUS
 10
14.5603336613
 20
7.8297349036
 11
14.5637729504
 21
7.8670960006
  0
SPLINE
  5
474
100
AcDbEntity
  8
0
100
AcDbSpline
 62
253
  6
CONTINUOUS
 70
0
 71
3
 72
9
 73
5
 74
3
 42
0.0000001
 43
0.0000001
 44
0.0000000001
 12
-0.1114441684
 22
0.0414842522
 32
0.0
 13
-0.1182326573
 23
0.0127194582
 33
0.0
 40
0.0
 40
0.0
 40
0.0
 40
0.0
 40
0.2465414921
 40
1.0
 40
1.0
 40
1.0
 40
1.0
 10
6.2994502628
 20
-14.7741686076
 30
0.0
 10
6.2902917256
 20
-14.7707594111
 30
0.0
 10
6.2527044644
 20
-14.7581283425
 30
0.0
 10
6.2135097659
 20
-14.7503896915
 30
0.0
 10
6.1838152987
 20
-14.7471951635
 30
0.0
 11
6.2994502628
 21
-14.7741686076
 31
0.0
 11
6.2716603823
 21
-14.7648286205
 31
0.0
 11
6.1838152987
 21
-14.7471951635
 31
0.0
  0
SPLINE
  5
475
100
AcDbEntity
  8
0
100
AcDbSpline
 62
253
  6
CONTINUOUS
 70
0
 71
3
 72
9
 73
5
 74
3
 42
0.0000001
 43
0.0000001
 44
0.0000000001
 12
-0.3284849804
 22
0.0353383836
 32
0.0
 13
-0.3046537253
 23
-0.1278174143
 33
0.0
 40
0.0
 40
0.0
 40
0.0
 40
0.0
 40
0.2347110074
 40
1.0
 40
1.0
 40
1.0
 40
1.0
 10
6.1838152987
 20
-14.7471951635
 30
0.0
 10
6.1581156185
 20
-14.7444303943
 30
0.0
 10
6.0477150447
 20
-14.7408977731
 30
0.0
 10
5.9377872552
 20
-14.7692756684
 30
0.0
 10
5.8600712077
 20
-14.8018814218
 30
0.0
 11
6.1838152987
 21
-14.7471951635
 31
0.0
 11
6.106317204
 21
-14.7445300308
 31
0.0
 11
5.8600712077
 21
-14.8018814218
 31
0.0
  0
SPLINE
  5
476
100
AcDbEntity
  8
0
100
AcDbSpline
 62
253
  6
CONTINUOUS
 70
0
 71
3
 72
11
 73
7
 74
5
 42
0.0000001
 43
0.0000001
 44
0.0000000001
 12
-0.0399934716
 22
-0.458000548
 32
0.0
 13
-0.4112069841
 23
-0.2056034921
 33
0.0
 40
0.0
 40
0.0
 40
0.0
 40
0.0
 40
0.2069076826
 40
0.436486287
 40
0.6997996622
 40
1.0
 40
1.0
 40
1.0
 40
1.0
 10
6.8591194293
 20
15.1970795067
 30
0.0
 10
6.8563611105
 20
15.1654915627
 30
0.0
 10
6.8373787977
 20
15.099623088
 30
0.0
 10
6.7753636446
 20
15.010459681
 30
0.0
 10
6.6831193237
 20
14.9299501509
 30
0.0
 10
6.6083261474
 20
14.885909889
 30
0.0
 10
6.5671779889
 20
14.8653358098
 30
0.0
 11
6.8591194293
 21
15.1970795067
 31
0.0
 11
6.8339384051
 21
15.1053485153
 31
0.0
 11
6.7753920634
 21
15.0175274089
 31
0.0
 11
6.6853897394
 21
14.9365689147
 31
0.0
 11
6.5671779889
 21
14.8653358098
 31
0.0
  0
SPLINE
  5
477
100
AcDbEntity
  8
0
100
AcDbSpline
 62
253
  6
CONTINUOUS
 70
0
 71
3
 72
9
 73
5
 74
3
 42
0.0000001
 43
0.0000001
 44
0.0000000001
 12
-0.0479980493
 22
0.2281641306
 32
0.0
 13
-0.0281500977
 23
0.2314524902
 33
0.0
 40
0.0
 40
0.0
 40
0.0
 40
0.0
 40
0.2450364472
 40
1.0
 40
1.0
 40
1.0
 40
1.0
 10
15.0780343845
 20
17.3580817204
 30
0.0
 10
15.0741139607
 20
17.3767178964
 30
0.0
 10
15.0595348692
 20
17.4530806078
 30
0.0
 10
15.0500647055
 20
17.5302869262
 30
0.0
 10
15.0429806062
 20
17.5885329909
 30
0.0
 11
15.0780343845
 21
17.3580817204
 31
0.0
 11
15.0672758978
 21
17.414191844
 31
0.0
 11
15.0429806062
 21
17.5885329909
 31
0.0
  0
SPLINE
  5
478
100
AcDbEntity
  8
0
100
AcDbSpline
 62
7
  6
CONTINUOUS
 70
0
 71
3
 72
10
 73
6
 74
4
 42
0.0000001
 43
0.0000001
 44
0.0000000001
 12
1.0802737209
 22
1.8631965606
 32
0.0
 13
1.9263421782
 23
0.9631710896
 33
0.0
 40
0.0
 40
0.0
 40
0.0
 40
0.0
 40
0.5287489115
 40
0.7738447302
 40
1.0
 40
1.0
 40
1.0
 40
1.0
 10
7.8692556909
 20
3.1309899996
 30
0.0
 10
8.0596535423
 20
3.4593777174
 30
0.0
 10
8.3961112883
 20
3.9117594073
 30
0.0
 10
8.9361426373
 20
4.3875760522
 30
0.0
 10
9.2240384188
 20
4.5693402931
 30
0.0
 10
9.3692558972
 20
4.6419490323
 30
0.0
 11
7.8692556909
 21
3.1309899996
 31
0.0
 11
8.5574627393
 21
4.0382824406
 31
0.0
 11
8.9554072896
 21
4.3851015383
 31
0.0
 11
9.3692558972
 21
4.6419490323
 31
0.0
  0
SPLINE
  5
479
100
AcDbEntity
  8
0
100
AcDbSpline
 62
253
  6
CONTINUOUS
 70
0
 71
3
 72
11
 73
7
 74
5
 42
0.0000001
 43
0.0000001
 44
0.0000000001
 12
-0.4894971439
 22
0.244748572
 32
0.0
 13
-0.4895432137
 23
-0.2446564108
 33
0.0
 40
0.0
 40
0.0
 40
0.0
 40
0.0
 40
0.279076068
 40
0.5353716794
 40
0.7728995978
 40
1.0
 40
1.0
 40
1.0
 40
1.0
 10
-8.8818373117
 20
-1.2699269928
 30
0.0
 10
-8.9273729578
 20
-1.2471591698
 30
0.0
 10
-9.0185031775
 20
-1.2103587049
 30
0.0
 10
-9.158128114
 20
-1.1840606108
 30
0.0
 10
-9.2908438768
 20
-1.1907042047
 30
0.0
 10
-9.3724837337
 20
-1.2179067587
 30
0.0
 10
-9.4095422206
 20
-1.2364272818
 30
0.0
 11
-8.8818373117
 21
-1.2699269928
 31
0.0
 11
-9.0238984649
 21
-1.2138426971
 31
0.0
 11
-9.1619761492
 21
-1.1891738193
 31
0.0
 11
-9.2917457693
 21
-1.196790593
 31
0.0
 11
-9.4095422206
 21
-1.2364272818
 31
0.0
  0
SPLINE
  5
47A
100
AcDbEntity
  8
0
100
AcDbSpline
 62
253
  6
CONTINUOUS
 70
0
 71
3
 72
9
 73
5
 74
3
 42
0.0000001
 43
0.0000001
 44
0.0000000001
 12
0.0
 22
-0.5230945135
 32
0.0
 13
-0.3269846138
 23
-0.408300052
 33
0.0
 40
0.0
 40
0.0
 40
0.0
 40
0.0
 40
0.5381577358
 40
1.0
 40
1.0
 40
1.0
 40
1.0
 10
-8.2064405072
 20
-2.7624497617
 30
0.0
 10
-8.2064405072
 20
-2.856285548
 30
0.0
 10
-8.2258637225
 20
-3.0318595404
 30
0.0
 10
-8.3022924925
 20
-3.1943163102
 30
0.0
 10
-8.3526309306
 20
-3.2571730504
 30
0.0
 11
-8.2064405072
 21
-2.7624497617
 31
0.0
 11
-8.2438556067
 21
-3.0414596244
 31
0.0
 11
-8.3526309306
 21
-3.2571730504
 31
0.0
  0
SPLINE
  5
47B
100
AcDbEntity
  8
0
100
AcDbSpline
 62
253
  6
CONTINUOUS
 70
0
 71
3
 72
9
 73
5
 74
3
 42
0.0000001
 43
0.0000001
 44
0.0000000001
 12
-0.07859501
 22
-0.0981402345
 32
0.0
 13
-0.1018067501
 23
-0.07378392
 33
0.0
 40
0.0
 40
0.0
 40
0.0
 40
0.0
 40
0.2552987643
 40
1.0
 40
1.0
 40
1.0
 40
1.0
 10
-8.3526309306
 20
-3.2571730504
 30
0.0
 10
-8.3593193336
 20
-3.2655247439
 30
0.0
 10
-8.3865287801
 20
-3.2974090037
 30
0.0
 10
-8.4179174665
 20
-3.3257776059
 30
0.0
 10
-8.4431893374
 20
-3.3440932647
 30
0.0
 11
-8.3526309306
 21
-3.2571730504
 31
0.0
 11
-8.373484802
 21
-3.2815756265
 31
0.0
 11
-8.4431893374
 21
-3.3440932647
 31
0.0
  0
SPLINE
  5
47C
100
AcDbEntity
  8
0
100
AcDbSpline
 62
253
  6
CONTINUOUS
 70
0
 71
3
 72
9
 73
5
 74
3
 42
0.0000001
 43
0.0000001
 44
0.0000000001
 12
-0.2433970753
 22
-0.176400782
 32
0.0
 13
-0.3004190492
 23
0.0103810921
 33
0.0
 40
0.0
 40
0.0
 40
0.0
 40
0.0
 40
0.4908389038
 40
1.0
 40
1.0
 40
1.0
 40
1.0
 10
-8.4431893374
 20
-3.3440932647
 30
0.0
 10
-8.4830122552
 20
-3.3729547202
 30
0.0
 10
-8.5750827268
 20
-3.4180620632
 30
0.0
 10
-8.6766586743
 20
-3.4290311752
 30
0.0
 10
-8.7276459051
 20
-3.4272692924
 30
0.0
 11
-8.4431893374
 21
-3.3440932647
 31
0.0
 11
-8.5756858801
 21
-3.4090109186
 31
0.0
 11
-8.7276459051
 21
-3.4272692924
 31
0.0
  0
SPLINE
  5
47D
100
AcDbEntity
  8
0
100
AcDbSpline
 62
253
  6
CONTINUOUS
 70
0
 71
3
 72
11
 73
7
 74
5
 42
0.0000001
 43
0.0000001
 44
0.0000000001
 12
1.5011676572
 22
-0.7505838286
 32
0.0
 13
0.0
 23
-1.6783564635
 33
0.0
 40
0.0
 40
0.0
 40
0.0
 40
0.0
 40
0.2296940512
 40
0.4882147541
 40
0.7531875194
 40
1.0
 40
1.0
 40
1.0
 40
1.0
 10
-9.0147515741
 20
-1.3683193945
 30
0.0
 10
-8.8998151472
 20
-1.425787608
 30
0.0
 10
-8.6802097629
 20
-1.5975995626
 30
0.0
 10
-8.4266305572
 20
-1.9386873319
 30
0.0
 10
-8.2540920677
 20
-2.3375586209
 30
0.0
 10
-8.2064405072
 20
-2.6243699876
 30
0.0
 10
-8.2064405072
 20
-2.7624497617
 30
0.0
 11
-9.0147515741
 21
-1.3683193945
 31
0.0
 11
-8.7054027637
 21
-1.5983631156
 31
0.0
 11
-8.4431893374
 21
-1.9440574285
 31
0.0
 11
-8.2679792959
 21
-2.3528069984
 31
0.0
 11
-8.2064405072
 21
-2.7624497617
 31
0.0
  0
SPLINE
  5
47E
100
AcDbEntity
  8
0
100
AcDbSpline
 62
253
  6
CONTINUOUS
 70
0
 71
3
 72
11
 73
7
 74
5
 42
0.0000001
 43
0.0000001
 44
0.0000000001
 12
0.0
 22
1.7324980093
 32
0.0
 13
-1.5495933278
 23
0.7747966639
 33
0.0
 40
0.0
 40
0.0
 40
0.0
 40
0.0
 40
0.2468124806
 40
0.5117852459
 40
0.7703059488
 40
1.0
 40
1.0
 40
1.0
 40
1.0
 10
-8.0474512056
 20
-2.7090301501
 30
0.0
 10
-8.0474512056
 20
-2.5664961063
 30
0.0
 10
-8.0966399421
 20
-2.2704325867
 30
0.0
 10
-8.2747442936
 20
-1.8586942408
 30
0.0
 10
-8.536503627
 20
-1.506603434
 30
0.0
 10
-8.7631931887
 20
-1.3292490544
 30
0.0
 10
-8.8818373117
 20
-1.2699269928
 30
0.0
 11
-8.0474512056
 21
-2.7090301501
 31
0.0
 11
-8.1109751537
 21
-2.2861728565
 31
0.0
 11
-8.291837238
 21
-1.8642375695
 31
0.0
 11
-8.5625093205
 21
-1.5073916181
 31
0.0
 11
-8.8818373117
 21
-1.2699269928
 31
0.0
  0
SPLINE
  5
47F
100
AcDbEntity
  8
0
100
AcDbSpline
 62
253
  6
CONTINUOUS
 70
0
 71
3
 72
10
 73
6
 74
4
 42
0.0000001
 43
0.0000001
 44
0.0000000001
 12
-0.4520732371
 22
0.2798120124
 32
0.0
 13
-0.4905584902
 23
-0.2049813203
 33
0.0
 40
0.0
 40
0.0
 40
0.0
 40
0.0
 40
0.2292452842
 40
0.4683185341
 40
1.0
 40
1.0
 40
1.0
 40
1.0
 10
6.3865813593
 20
16.0840764037
 30
0.0
 10
6.35203614
 20
16.1054582651
 30
0.0
 10
6.2747116966
 20
16.139095796
 30
0.0
 10
6.0974285784
 20
16.1632595098
 30
0.0
 10
5.9593522084
 20
16.1299641277
 30
0.0
 10
5.8724119227
 20
16.0936358714
 30
0.0
 11
6.3865813593
 21
16.0840764037
 31
0.0
 11
6.2749684551
 21
16.1330413418
 31
0.0
 11
6.1491650523
 21
16.1511937085
 31
0.0
 11
5.8724119227
 21
16.0936358714
 31
0.0
  0
SPLINE
  5
480
100
AcDbEntity
  8
0
100
AcDbSpline
 62
7
  6
CONTINUOUS
 70
0
 71
3
 72
9
 73
5
 74
3
 42
0.0000001
 43
0.0000001
 44
0.0000000001
 12
0.006337224
 22
0.2995660211
 32
0.0
 13
-0.0842354788
 23
0.2875488576
 33
0.0
 40
0.0
 40
0.0
 40
0.0
 40
0.0
 40
0.2385370166
 40
1.0
 40
1.0
 40
1.0
 40
1.0
 10
6.7157115722
 20
16.5625681692
 30
0.0
 10
6.7162154597
 20
16.5863873641
 30
0.0
 10
6.7138617911
 20
16.6863198186
 30
0.0
 10
6.6951288041
 20
16.7855909106
 30
0.0
 10
6.6737480711
 20
16.8585768476
 30
0.0
 11
6.7157115722
 21
16.5625681692
 31
0.0
 11
6.7141606038
 21
16.6340249118
 31
0.0
 11
6.6737480711
 21
16.8585768476
 31
0.0
  0
SPLINE
  5
481
100
AcDbEntity
  8
0
100
AcDbSpline
 62
253
  6
CONTINUOUS
 70
0
 71
3
 72
9
 73
5
 74
3
 42
0.0000001
 43
0.0000001
 44
0.0000000001
 12
0.2808742153
 22
0.1224166988
 32
0.0
 13
0.2811504874
 23
-0.1217808541
 33
0.0
 40
0.0
 40
0.0
 40
0.0
 40
0.0
 40
0.4735253047
 40
1.0
 40
1.0
 40
1.0
 40
1.0
 10
7.3120207264
 20
23.2321029653
 30
0.0
 10
7.3563544092
 20
23.2514254335
 30
0.0
 10
7.4611950215
 20
23.2688463495
 30
0.0
 10
7.5622699705
 20
23.2414120876
 30
0.0
 10
7.6116095096
 20
23.2200405749
 30
0.0
 11
7.3120207264
 21
23.2321029653
 31
0.0
 11
7.4547994145
 21
23.2578662159
 31
0.0
 11
7.6116095096
 21
23.2200405749
 31
0.0
  0
SPLINE
  5
482
100
AcDbEntity
  8
0
100
AcDbSpline
 62
7
  6
CONTINUOUS
 70
0
 71
3
 72
11
 73
7
 74
5
 42
0.0000001
 43
0.0000001
 44
0.0000000001
 12
-1.0268659736
 22
0.430788948
 32
0.0
 13
-1.0208735334
 23
-0.4448034109
 33
0.0
 40
0.0
 40
0.0
 40
0.0
 40
0.0
 40
0.2296449673
 40
0.4692426087
 40
0.7248426501
 40
1.0
 40
1.0
 40
1.0
 40
1.0
 10
8.6949596807
 20
23.2799823395
 30
0.0
 10
8.616354813
 20
23.3129585108
 30
0.0
 10
8.4468397048
 20
23.3607292241
 30
0.0
 10
8.1760009039
 20
23.3726494427
 30
0.0
 10
7.8920783887
 20
23.3264581211
 30
0.0
 10
7.7052430224
 20
23.2608350341
 30
0.0
 10
7.6116094038
 20
23.2200380582
 30
0.0
 11
8.6949596807
 21
23.2799823395
 31
0.0
 11
8.4490416169
 21
23.3501227966
 31
0.0
 11
8.1825704465
 21
23.3635286841
 31
0.0
 11
7.9013228682
 21
23.3197924497
 31
0.0
 11
7.6116094038
 21
23.2200380582
 31
0.0
  0
SPLINE
  5
483
100
AcDbEntity
  8
0
100
AcDbSpline
 62
7
  6
CONTINUOUS
 70
0
 71
3
 72
9
 73
5
 74
3
 42
0.0000001
 43
0.0000001
 44
0.0000000001
 12
-0.0
 22
0.7514139425
 32
0.0
 13
0.3768986832
 23
0.6500540712
 33
0.0
 40
0.0
 40
0.0
 40
0.0
 40
0.0
 40
0.4822183793
 40
1.0
 40
1.0
 40
1.0
 40
1.0
 10
7.4299158628
 20
2.0145214164
 30
0.0
 10
7.4299158628
 20
2.1353032875
 30
0.0
 10
7.471543278
 20
2.3861047754
 30
0.0
 10
7.5719722402
 20
2.6182518925
 30
0.0
 10
7.6370226439
 20
2.7304472427
 30
0.0
 11
7.4299158628
 21
2.0145214164
 31
0.0
 11
7.4837362644
 21
2.3728476756
 31
0.0
 11
7.6370226439
 21
2.7304472427
 31
0.0
  0
SPLINE
  5
484
100
AcDbEntity
  8
0
100
AcDbSpline
 62
7
  6
CONTINUOUS
 70
0
 71
3
 72
11
 73
7
 74
5
 42
0.0000001
 43
0.0000001
 44
0.0000000001
 12
-0.4603867783
 22
0.3336629564
 32
0.0
 13
-0.0
 23
0.5685832869
 33
0.0
 40
0.0
 40
0.0
 40
0.0
 40
0.0
 40
0.2178329762
 40
0.4536473424
 40
0.7138971427
 40
1.0
 40
1.0
 40
1.0
 40
1.0
 10
7.6370226441
 20
-1.2410109031
 30
0.0
 10
7.6035935034
 20
-1.2167833049
 30
0.0
 10
7.5420360524
 20
-1.1545453089
 30
0.0
 10
7.4768670383
 20
-1.0343682394
 30
0.0
 10
7.4378315723
 20
-0.8902510767
 30
0.0
 10
7.4299158629
 20
-0.7864162924
 30
0.0
 10
7.4299158629
 20
-0.7321918581
 30
0.0
 11
7.6370226441
 21
-1.2410109031
 31
0.0
 11
7.5491210984
 21
-1.1537545339
 31
0.0
 11
7.4837362645
 21
-1.0366977157
 31
0.0
 11
7.4435125627
 21
-0.8942959396
 31
0.0
 11
7.4299158629
 21
-0.7321918581
 31
0.0
  0
SPLINE
  5
485
100
AcDbEntity
  8
0
100
AcDbSpline
 62
253
  6
CONTINUOUS
 70
0
 71
3
 72
17
 73
13
 74
11
 42
0.0000001
 43
0.0000001
 44
0.0000000001
 12
8.6748453509
 22
4.338159673
 32
0.0
 13
-8.3552826395
 23
4.9256292212
 33
0.0
 40
0.0
 40
0.0
 40
0.0
 40
0.0
 40
0.0448478551
 40
0.0912816869
 40
0.1406056074
 40
0.1936827929
 40
0.3120050353
 40
0.4453782304
 40
0.5883962238
 40
0.7335815009
 40
0.8730291544
 40
1.0
 40
1.0
 40
1.0
 40
1.0
 10
-8.0437634815
 20
-7.1834590989
 30
0.0
 10
-7.9140807457
 20
-7.1186067134
 30
0.0
 10
-7.6655018106
 20
-6.9532570351
 30
0.0
 10
-7.3545452907
 20
-6.6166110573
 30
0.0
 10
-7.1086799833
 20
-6.1991898242
 30
0.0
 10
-6.8650257275
 20
-5.5249188901
 30
0.0
 10
-6.7617288696
 20
-4.5307370867
 30
0.0
 10
-6.9298538408
 20
-3.2571688866
 30
0.0
 10
-7.3677436837
 20
-1.9580809295
 30
0.0
 10
-8.0396343834
 20
-0.7410085905
 30
0.0
 10
-8.8887579068
 20
0.2931736872
 30
0.0
 10
-9.5695461006
 20
0.8368452301
 30
0.0
 10
-9.9231718678
 20
1.0453156658
 30
0.0
 11
-8.0437634815
 21
-7.1834590989
 31
0.0
 11
-7.6810947405
 21
-6.9432875367
 31
0.0
 11
-7.373537355
 21
-6.6142914974
 31
0.0
 11
-7.1279005482
 21
-6.2037711777
 31
0.0
 11
-6.9496222432
 21
-5.720825084
 31
0.0
 11
-6.8093749164
 21
-4.5818074896
 31
0.0
 11
-6.9651822994
 21
-3.2976246959
 31
0.0
 11
-7.4032792858
 21
-1.9814768399
 31
0.0
 11
-8.0850728482
 21
-0.7493684309
 31
0.0
 11
-8.95043478
 21
0.2900789411
 31
0.0
 11
-9.9231718678
 21
1.0453156658
 31
0.0
  0
SPLINE
  5
486
100
AcDbEntity
  8
0
100
AcDbSpline
 62
7
  6
CONTINUOUS
 70
0
 71
3
 72
11
 73
7
 74
5
 42
0.0000001
 43
0.0000001
 44
0.0000000001
 12
1.1474686521
 22
0.4999599142
 32
0.0
 13
1.0799296957
 23
-0.6327685798
 33
0.0
 40
0.0
 40
0.0
 40
0.0
 40
0.0
 40
0.2769272632
 40
0.5317544394
 40
0.7698331198
 40
1.0
 40
1.0
 40
1.0
 40
1.0
 10
13.1118437279
 20
20.4699208443
 30
0.0
 10
13.2177655124
 20
20.5160716878
 30
0.0
 10
13.4291826693
 20
20.588141479
 30
0.0
 10
13.7505523934
 20
20.6279495609
 30
0.0
 10
14.0533139677
 20
20.5918208172
 30
0.0
 10
14.2366472228
 20
20.5162504884
 30
0.0
 10
14.3195019057
 20
20.4677030318
 30
0.0
 11
13.1118437279
 21
20.4699208443
 31
0.0
 11
13.4408348687
 21
20.5790480746
 31
0.0
 11
13.7577103079
 21
20.6154205803
 31
0.0
 11
14.0533362432
 21
20.5779374475
 31
0.0
 11
14.3195019057
 21
20.4677030318
 31
0.0
  0
SPLINE
  5
487
100
AcDbEntity
  8
0
100
AcDbSpline
 62
253
  6
CONTINUOUS
 70
0
 71
3
 72
11
 73
7
 74
5
 42
0.0000001
 43
0.0000001
 44
0.0000000001
 12
-0.0000616376
 22
3.3664257612
 32
0.0
 13
-3.0110227378
 23
1.5055113689
 33
0.0
 40
0.0
 40
0.0
 40
0.0
 40
0.0
 40
0.2467943128
 40
0.5117863827
 40
0.7703249069
 40
1.0
 40
1.0
 40
1.0
 40
1.0
 10
10.0361609226
 20
-0.4547815224
 30
0.0
 10
10.036155852
 20
-0.1778432783
 30
0.0
 10
9.9405792996
 20
0.3974392973
 30
0.0
 10
9.5944910335
 20
1.1975093262
 30
0.0
 10
9.085846258
 20
1.8816726054
 30
0.0
 10
8.6453592459
 20
2.2262789417
 30
0.0
 10
8.41484027
 20
2.3415384296
 30
0.0
 11
10.0361609226
 21
-0.4547815224
 31
0.0
 11
9.9127348016
 21
0.3668139452
 31
0.0
 11
9.5612742438
 21
1.1867379046
 31
0.0
 11
9.0352844249
 21
1.8801678837
 31
0.0
 11
8.41484027
 21
2.3415384296
 31
0.0
  0
SPLINE
  5
488
100
AcDbEntity
  8
0
100
AcDbSpline
 62
253
  6
CONTINUOUS
 70
0
 71
3
 72
9
 73
5
 74
3
 42
0.0000001
 43
0.0000001
 44
0.0000000001
 12
-0.3768989785
 22
-0.6500545802
 32
0.0
 13
0.0
 23
-0.7514145309
 33
0.0
 40
0.0
 40
0.0
 40
0.0
 40
0.0
 40
0.5177824482
 40
1.0
 40
1.0
 40
1.0
 40
1.0
 10
8.41484027
 20
2.3415384296
 30
0.0
 10
8.3497897114
 20
2.2293428123
 30
0.0
 10
8.2493564173
 20
1.9971969837
 30
0.0
 10
8.2077334889
 20
1.7463943618
 30
0.0
 10
8.2077334889
 20
1.6256126033
 30
0.0
 11
8.41484027
 21
2.3415384296
 31
0.0
 11
8.261551498
 21
1.98393888
 31
0.0
 11
8.2077334889
 21
1.6256126033
 31
0.0
  0
SPLINE
  5
489
100
AcDbEntity
  8
0
100
AcDbSpline
 62
7
  6
CONTINUOUS
 70
0
 71
3
 72
11
 73
7
 74
5
 42
0.0000001
 43
0.0000001
 44
0.0000000001
 12
1.09531025
 22
0.4772601397
 32
0.0
 13
1.1017070276
 23
-0.4623022929
 33
0.0
 40
0.0
 40
0.0
 40
0.0
 40
0.0
 40
0.2751660875
 40
0.5307984012
 40
0.7703548627
 40
1.0
 40
1.0
 40
1.0
 40
1.0
 10
10.3692787611
 20
22.0250330682
 30
0.0
 10
10.4697428398
 20
22.0688083367
 30
0.0
 10
10.6702164084
 20
22.1392359446
 30
0.0
 10
10.9748497707
 20
22.1887462637
 30
0.0
 10
11.265434792
 20
22.1759983543
 30
0.0
 10
11.447296058
 20
22.124735426
 30
0.0
 10
11.5316299452
 20
22.0893469348
 30
0.0
 11
10.3692787611
 21
22.0250330682
 31
0.0
 11
10.6801277272
 21
22.1320688912
 31
0.0
 11
10.9819265378
 21
22.1789771631
 31
0.0
 11
11.2677813468
 21
22.1646122366
 31
0.0
 11
11.5316299452
 21
22.0893469348
 31
0.0
  0
SPLINE
  5
48A
100
AcDbEntity
  8
0
100
AcDbSpline
 62
253
  6
CONTINUOUS
 70
0
 71
3
 72
10
 73
6
 74
4
 42
0.0000001
 43
0.0000001
 44
0.0000000001
 12
0.0080886341
 22
-0.2039622501
 32
0.0
 13
-0.194985165
 23
-0.0603888309
 33
0.0
 40
0.0
 40
0.0
 40
0.0
 40
0.0
 40
0.3783427037
 40
0.6655711639
 40
1.0
 40
1.0
 40
1.0
 40
1.0
 10
17.8824467972
 20
3.264751275
 30
0.0
 10
17.8834668891
 20
3.239028732
 30
0.0
 10
17.8433729128
 20
3.2005059323
 30
0.0
 10
17.784740365
 20
3.1714626981
 30
0.0
 10
17.7443316171
 20
3.1567008732
 30
0.0
 10
17.7225953965
 20
3.1499689511
 30
0.0
 11
17.8824467972
 21
3.264751275
 31
0.0
 11
17.8382298969
 21
3.2014340261
 31
0.0
 11
17.7866625997
 21
3.1735365566
 31
0.0
 11
17.7225953965
 21
3.1499689511
 31
0.0
  0
SPLINE
  5
48B
100
AcDbEntity
  8
0
100
AcDbSpline
 62
7
  6
CONTINUOUS
 70
0
 71
3
 72
9
 73
5
 74
3
 42
0.0000001
 43
0.0000001
 44
0.0000000001
 12
0.827639954
 22
-0.4449519199
 32
0.0
 13
0.6789236877
 23
-0.6496404626
 33
0.0
 40
0.0
 40
0.0
 40
0.0
 40
0.0
 40
0.2358101616
 40
1.0
 40
1.0
 40
1.0
 40
1.0
 10
13.0718687109
 20
5.6075216002
 30
0.0
 10
13.1369240146
 20
5.5725468721
 30
0.0
 10
13.4068220355
 20
5.4131500383
 30
0.0
 10
13.6522960621
 20
5.2141465236
 30
0.0
 10
13.8252382565
 20
5.0486636435
 30
0.0
 11
13.0718687109
 21
5.6075216002
 31
0.0
 11
13.2628552753
 21
5.4951696996
 31
0.0
 11
13.8252382565
 21
5.0486636435
 31
0.0
  0
SPLINE
  5
48C
100
AcDbEntity
  8
0
100
AcDbSpline
 62
7
  6
CONTINUOUS
 70
0
 71
3
 72
9
 73
5
 74
3
 42
0.0000001
 43
0.0000001
 44
0.0000000001
 12
-0.3279122242
 22
-0.7202758108
 32
0.0
 13
-0.6575787543
 23
-0.4403565058
 33
0.0
 40
0.0
 40
0.0
 40
0.0
 40
0.0
 40
0.519713891
 40
1.0
 40
1.0
 40
1.0
 40
1.0
 10
15.2467345621
 20
0.2403243924
 30
0.0
 10
15.1899277161
 20
0.1155452777
 30
0.0
 10
15.0536836901
 20
-0.1140042415
 30
0.0
 10
14.8576167312
 20
-0.2973296194
 30
0.0
 10
14.7523414174
 20
-0.367828657
 30
0.0
 11
15.2467345621
 21
0.2403243924
 31
0.0
 11
15.0321535649
 21
-0.1105696125
 31
0.0
 11
14.7523414174
 21
-0.367828657
 31
0.0
  0
SPLINE
  5
48D
100
AcDbEntity
  8
0
100
AcDbSpline
 62
253
  6
CONTINUOUS
 70
0
 71
3
 72
11
 73
7
 74
5
 42
0.0000001
 43
0.0000001
 44
0.0000000001
 12
-0.769604132
 22
3.7945869942
 32
0.0
 13
-3.4630831197
 23
1.7315415914
 33
0.0
 40
0.0
 40
0.0
 40
0.0
 40
0.0
 40
0.2650079064
 40
0.5276108409
 40
0.7755587037
 40
1.0
 40
1.0
 40
1.0
 40
1.0
 10
17.6348606113
 20
3.8190832916
 30
0.0
 10
17.5668768847
 20
4.1542818099
 30
0.0
 10
17.3633235312
 20
4.8095250748
 30
0.0
 10
16.8840912939
 20
5.6956146515
 30
0.0
 10
16.2677113788
 20
6.4257620101
 30
0.0
 10
15.7663778573
 20
6.7889441773
 30
0.0
 10
15.5072915692
 20
6.9184873237
 30
0.0
 11
17.6348606113
 21
3.8190832916
 31
0.0
 11
17.3314991202
 21
4.7992824088
 31
0.0
 11
16.8452252841
 21
5.6922180798
 31
0.0
 11
16.2190217884
 21
6.4198849986
 31
0.0
 11
15.5072915692
 21
6.9184873237
 31
0.0
  0
SPLINE
  5
48E
100
AcDbEntity
  8
0
100
AcDbSpline
 62
253
  6
CONTINUOUS
 70
0
 71
3
 72
9
 73
5
 74
3
 42
0.0000001
 43
0.0000001
 44
0.0000000001
 12
-0.0395704326
 22
0.6740018275
 32
0.0
 13
-0.1342017955
 23
0.6616903813
 33
0.0
 40
0.0
 40
0.0
 40
0.0
 40
0.0
 40
0.2466048529
 40
1.0
 40
1.0
 40
1.0
 40
1.0
 10
17.7225887779
 20
3.1499667925
 30
0.0
 10
17.7193360244
 20
3.205370833
 30
0.0
 10
17.7021602838
 20
3.4297920824
 30
0.0
 10
17.6685565927
 20
3.6529096521
 30
0.0
 10
17.6348542655
 20
3.8190810928
 30
0.0
 11
17.7225887779
 21
3.1499667925
 31
0.0
 11
17.7098657338
 21
3.3159782895
 31
0.0
 11
17.6348542655
 21
3.8190810928
 31
0.0
  0
SPLINE
  5
48F
100
AcDbEntity
  8
0
100
AcDbSpline
 62
253
  6
CONTINUOUS
 70
0
 71
3
 72
9
 73
5
 74
3
 42
0.0000001
 43
0.0000001
 44
0.0000000001
 12
0.0605175927
 22
0.6371158257
 32
0.0
 13
-0.0375080478
 23
0.6388834798
 33
0.0
 40
0.0
 40
0.0
 40
0.0
 40
0.0
 40
0.2444105015
 40
1.0
 40
1.0
 40
1.0
 40
1.0
 10
17.712286116
 20
2.5104214706
 30
0.0
 10
17.7172164944
 20
2.5623274035
 30
0.0
 10
17.7328795389
 20
2.7751086595
 30
0.0
 10
17.7320525155
 20
2.9890612621
 30
0.0
 10
17.7226056199
 20
3.1499724782
 30
0.0
 11
17.712286116
 21
2.5104214706
 31
0.0
 11
17.7238878607
 21
2.6664093226
 31
0.0
 11
17.7226056199
 21
3.1499724782
 31
0.0
  0
SPLINE
  5
490
100
AcDbEntity
  8
0
100
AcDbSpline
 62
253
  6
CONTINUOUS
 70
0
 71
3
 72
17
 73
13
 74
11
 42
0.0000001
 43
0.0000001
 44
0.0000000001
 12
-7.1907742681
 22
4.2391250406
 32
0.0
 13
7.3814916338
 23
3.8975629492
 33
0.0
 40
0.0
 40
0.0
 40
0.0
 40
0.0
 40
0.1267219977
 40
0.2658625301
 40
0.4107850196
 40
0.5536901545
 40
0.6871721728
 40
0.8058177112
 40
0.8590930878
 40
0.9085979043
 40
0.9551483869
 40
1.0
 40
1.0
 40
1.0
 40
1.0
 10
-10.3765194326
 20
-6.3726919429
 30
0.0
 10
-10.680262526
 20
-6.1936284784
 30
0.0
 10
-11.2652529569
 20
-5.727230997
 30
0.0
 10
-11.9960665665
 20
-4.8402487802
 30
0.0
 10
-12.5760044044
 20
-3.7959999934
 30
0.0
 10
-12.9566131723
 20
-2.6801353913
 30
0.0
 10
-13.1071103303
 20
-1.5840826571
 30
0.0
 10
-13.0249643071
 20
-0.7263572036
 30
0.0
 10
-12.821632593
 20
-0.1418272449
 30
0.0
 10
-12.6148481088
 20
0.2217008687
 30
0.0
 10
-12.3521497381
 20
0.516899144
 30
0.0
 10
-12.1410862657
 20
0.6639251442
 30
0.0
 10
-12.0307289968
 20
0.722195806
 30
0.0
 11
-10.3765194326
 21
-6.3726919429
 31
0.0
 11
-11.212481741
 21
-5.7245566649
 31
0.0
 11
-11.9571010463
 21
-4.8332077024
 31
0.0
 11
-12.5455526777
 21
-3.7762656282
 31
0.0
 11
-12.9265250132
 21
-2.6458658166
 31
0.0
 11
-13.0668317337
 21
-1.5405206944
 31
0.0
 11
-12.9542164146
 21
-0.5565743992
 31
0.0
 11
-12.8052889486
 21
-0.1375473927
 31
0.0
 11
-12.598520803
 21
0.2202336131
 31
0.0
 11
-12.3384363718
 21
0.5089261577
 31
0.0
 11
-12.0307289968
 21
0.722195806
 31
0.0
  0
SPLINE
  5
491
100
AcDbEntity
  8
0
100
AcDbSpline
 62
253
  6
CONTINUOUS
 70
0
 71
3
 72
17
 73
13
 74
11
 42
0.0000001
 43
0.0000001
 44
0.0000000001
 12
-0.9879368352
 22
0.4939684176
 32
0.0
 13
0.9879368352
 23
-0.4939684176
 33
0.0
 40
0.0
 40
0.0
 40
0.0
 40
0.0
 40
0.1092753266
 40
0.1576482481
 40
0.2045896998
 40
0.3044776326
 40
0.4254097648
 40
0.4943522139
 40
0.5674667355
 40
0.7196279593
 40
0.8680798856
 40
1.0
 40
1.0
 40
1.0
 40
1.0
 10
-9.9558963734
 20
-2.4547414916
 30
0.0
 10
-9.9918820802
 20
-2.4367486383
 30
0.0
 10
-10.05032545
 20
-2.4190161778
 30
0.0
 10
-10.1259343513
 20
-2.4300465886
 30
0.0
 10
-10.1913447893
 20
-2.4629781654
 30
0.0
 10
-10.2504869706
 20
-2.548994725
 30
0.0
 10
-10.2649051265
 20
-2.657153585
 30
0.0
 10
-10.257069467
 20
-2.7538175152
 30
0.0
 10
-10.2333240432
 20
-2.8598421943
 30
0.0
 10
-10.1781273126
 20
-2.9874828733
 30
0.0
 10
-10.0823466727
 20
-3.1163186726
 30
0.0
 10
-9.9993392868
 20
-3.1812703074
 30
0.0
 10
-9.9558963734
 20
-3.2029917641
 30
0.0
 11
-9.9558963734
 21
-2.4547414916
 31
0.0
 11
-10.0728155951
 21
-2.4247694983
 31
0.0
 11
-10.1256170665
 21
-2.432941828
 31
0.0
 11
-10.1718888902
 21
-2.456335012
 31
0.0
 11
-10.2381069676
 21
-2.5445850912
 31
0.0
 11
-10.2613646889
 21
-2.6761199442
 31
0.0
 11
-10.2554903081
 21
-2.7520431978
 31
0.0
 11
-10.2381141047
 21
-2.8309101134
 31
0.0
 11
-10.1718993976
 21
-2.9853862422
 31
0.0
 11
-10.0728204862
 21
-3.1160393201
 31
0.0
 11
-9.9558963734
 21
-3.2029917641
 31
0.0
  0
SPLINE
  5
492
100
AcDbEntity
  8
0
100
AcDbSpline
 62
253
  6
CONTINUOUS
 70
0
 71
3
 72
17
 73
13
 74
11
 42
0.0000001
 43
0.0000001
 44
0.0000000001
 12
0.9879368352
 22
-0.4939684176
 32
0.0
 13
-0.9879368352
 23
0.4939684176
 33
0.0
 40
0.0
 40
0.0
 40
0.0
 40
0.0
 40
0.1092753266
 40
0.1576482481
 40
0.2045896998
 40
0.3044776326
 40
0.4254097648
 40
0.4943522139
 40
0.5674667355
 40
0.7196279593
 40
0.8680798856
 40
1.0
 40
1.0
 40
1.0
 40
1.0
 10
-9.9558963734
 20
-3.2029917641
 30
0.0
 10
-9.9199106666
 20
-3.2209846175
 30
0.0
 10
-9.8614672968
 20
-3.238717078
 30
0.0
 10
-9.7858583955
 20
-3.2276866672
 30
0.0
 10
-9.7204479576
 20
-3.1947550904
 30
0.0
 10
-9.6613057762
 20
-3.1087385308
 30
0.0
 10
-9.6468876203
 20
-3.0005796708
 30
0.0
 10
-9.6547232798
 20
-2.9039157406
 30
0.0
 10
-9.6784687036
 20
-2.7978910615
 30
0.0
 10
-9.7336654343
 20
-2.6702503825
 30
0.0
 10
-9.8294460741
 20
-2.5414145832
 30
0.0
 10
-9.91245346
 20
-2.4764629483
 30
0.0
 10
-9.9558963734
 20
-2.4547414916
 30
0.0
 11
-9.9558963734
 21
-3.2029917641
 31
0.0
 11
-9.8389771517
 21
-3.2329637575
 31
0.0
 11
-9.7861756803
 21
-3.2247914278
 31
0.0
 11
-9.7399038566
 21
-3.2013982437
 31
0.0
 11
-9.6736857792
 21
-3.1131481645
 31
0.0
 11
-9.6504280579
 21
-2.9816133115
 31
0.0
 11
-9.6563024388
 21
-2.9056900579
 31
0.0
 11
-9.6736786421
 21
-2.8268231423
 31
0.0
 11
-9.7398933492
 21
-2.6723470136
 31
0.0
 11
-9.8389722606
 21
-2.5416939357
 31
0.0
 11
-9.9558963734
 21
-2.4547414916
 31
0.0
  0
SPLINE
  5
493
100
AcDbEntity
  8
0
100
AcDbSpline
 62
253
  6
CONTINUOUS
 70
0
 71
3
 72
11
 73
7
 74
5
 42
0.0000001
 43
0.0000001
 44
0.0000000001
 12
-0.3938273503
 22
0.1969136752
 32
0.0
 13
-0.2519282703
 23
-0.3611192655
 33
0.0
 40
0.0
 40
0.0
 40
0.0
 40
0.0
 40
0.2805759505
 40
0.5291510006
 40
0.7612720888
 40
1.0
 40
1.0
 40
1.0
 40
1.0
 10
-9.8459090866
 20
-2.1992889687
 30
0.0
 10
-9.8827419143
 20
-2.1808725549
 30
0.0
 10
-9.9567218622
 20
-2.1537738349
 30
0.0
 10
-10.070805392
 20
-2.1498425363
 30
0.0
 10
-10.1722313581
 20
-2.1888464731
 30
0.0
 10
-10.2222257131
 20
-2.2395687588
 30
0.0
 10
-10.2422731497
 20
-2.2683051748
 30
0.0
 11
-9.8459090866
 21
-2.1992889687
 31
0.0
 11
-9.9626910733
 21
-2.1589856058
 31
0.0
 11
-10.0721301146
 21
-2.1573903305
 31
0.0
 11
-10.1673173358
 21
-2.1946114992
 31
0.0
 11
-10.2422731497
 21
-2.2683051748
 31
0.0
  0
SPLINE
  5
494
100
AcDbEntity
  8
0
100
AcDbSpline
 62
253
  6
CONTINUOUS
 70
0
 71
3
 72
11
 73
7
 74
5
 42
0.0000001
 43
0.0000001
 44
0.0000000001
 12
0.0
 22
0.9741225371
 32
0.0
 13
-0.8712816846
 23
0.4356408423
 33
0.0
 40
0.0
 40
0.0
 40
0.0
 40
0.0
 40
0.2468124806
 40
0.5117852459
 40
0.7703059488
 40
1.0
 40
1.0
 40
1.0
 40
1.0
 10
-9.3767632023
 20
-3.0084459266
 30
0.0
 10
-9.3767632023
 20
-2.92830406
 30
0.0
 10
-9.4044202942
 20
-2.7618379831
 30
0.0
 10
-9.5045620906
 20
-2.5303320304
 30
0.0
 10
-9.6517401332
 20
-2.3323637856
 30
0.0
 10
-9.77919968
 20
-2.232643672
 30
0.0
 10
-9.8459090866
 20
-2.1992889687
 30
0.0
 11
-9.3767632023
 21
-3.0084459266
 31
0.0
 11
-9.4124804782
 21
-2.7706881817
 31
0.0
 11
-9.5141728504
 21
-2.5334488487
 31
0.0
 11
-9.6663622176
 21
-2.3328069537
 31
0.0
 11
-9.8459090866
 21
-2.1992889687
 31
0.0
  0
SPLINE
  5
495
100
AcDbEntity
  8
0
100
AcDbSpline
 62
253
  6
CONTINUOUS
 70
0
 71
3
 72
12
 73
8
 74
6
 42
0.0000001
 43
0.0000001
 44
0.0000000001
 12
0.0371512744
 22
-0.1989052501
 32
0.0
 13
-0.1927067455
 23
-0.0617059636
 33
0.0
 40
0.0
 40
0.0
 40
0.0
 40
0.0
 40
0.1138761075
 40
0.208083968
 40
0.3276439102
 40
0.6332283582
 40
1.0
 40
1.0
 40
1.0
 40
1.0
 10
17.8077306044
 20
3.9134303523
 30
0.0
 10
17.8091408185
 20
3.9058801671
 30
0.0
 10
17.798239584
 20
3.8925616366
 30
0.0
 10
17.7811184989
 20
3.8801256953
 30
0.0
 10
17.7504024342
 20
3.8623142562
 30
0.0
 10
17.7013278902
 20
3.841571157
 30
0.0
 10
17.6584185521
 20
3.8266267006
 30
0.0
 10
17.6348587623
 20
3.8190827014
 30
0.0
 11
17.8077306044
 21
3.9134303523
 31
0.0
 11
17.7972175094
 21
3.8929261859
 31
0.0
 11
17.7821573084
 21
3.8812399118
 31
0.0
 11
17.7613094567
 21
3.8689664677
 31
0.0
 11
17.7048626826
 21
3.8437247733
 31
0.0
 11
17.6348587623
 21
3.8190827014
 31
0.0
  0
SPLINE
  5
496
100
AcDbEntity
  8
0
100
AcDbSpline
 62
253
  6
CONTINUOUS
 70
0
 71
3
 72
11
 73
7
 74
5
 42
0.0000001
 43
0.0000001
 44
0.0000000001
 12
2.0155422006
 22
1.1430760735
 32
0.0
 13
0.2191078542
 23
2.3067347096
 33
0.0
 40
0.0
 40
0.0
 40
0.0
 40
0.0
 40
0.2225672148
 40
0.4614745117
 40
0.7203761654
 40
1.0
 40
1.0
 40
1.0
 40
1.0
 10
16.6382079586
 20
0.5497173783
 30
0.0
 10
16.7877391632
 20
0.634521131
 30
0.0
 10
17.0708653524
 20
0.8612074205
 30
0.0
 10
17.3947767335
 20
1.3208346984
 30
0.0
 10
17.6178845982
 20
1.8833081979
 30
0.0
 10
17.6918535212
 20
2.2954120505
 30
0.0
 10
17.712276114
 20
2.5104180521
 30
0.0
 11
16.6382079586
 21
0.5497173783
 31
0.0
 11
17.0432485625
 21
0.8689405415
 31
0.0
 11
17.3671363147
 21
1.3178764017
 31
0.0
 11
17.5933138841
 21
1.8735115008
 31
0.0
 11
17.712276114
 21
2.5104180521
 31
0.0
  0
SPLINE
  5
497
100
AcDbEntity
  8
0
100
AcDbSpline
 62
253
  6
CONTINUOUS
 70
0
 71
3
 72
11
 73
7
 74
5
 42
0.0000001
 43
0.0000001
 44
0.0000000001
 12
0.0449538548
 22
1.070879554
 32
0.0
 13
-0.9323638178
 23
0.5286790894
 33
0.0
 40
0.0
 40
0.0
 40
0.0
 40
0.0
 40
0.2480106244
 40
0.5114990321
 40
0.7687094239
 40
1.0
 40
1.0
 40
1.0
 40
1.0
 10
13.5866450437
 20
19.5570136135
 30
0.0
 10
13.5903613882
 20
19.6455434491
 30
0.0
 10
13.5687712483
 20
19.8297561055
 30
0.0
 10
13.4709081001
 20
20.0889173871
 30
0.0
 10
13.3189866972
 20
20.3134347675
 30
0.0
 10
13.1837253804
 20
20.4291643032
 30
0.0
 10
13.1118430589
 20
20.4699238002
 30
0.0
 11
13.5866450437
 21
19.5570136135
 31
0.0
 11
13.5591911723
 21
19.8214155274
 31
0.0
 11
13.4601465592
 21
20.0858908267
 31
0.0
 11
13.3036113866
 21
20.3128233509
 31
0.0
 11
13.1118430589
 21
20.4699238002
 31
0.0
  0
SPLINE
  5
498
100
AcDbEntity
  8
0
100
AcDbSpline
 62
253
  6
CONTINUOUS
 70
0
 71
3
 72
10
 73
6
 74
4
 42
0.0000001
 43
0.0000001
 44
0.0000000001
 12
-0.2189239636
 22
0.1086156751
 32
0.0
 13
-0.2150415295
 23
-0.1161129075
 33
0.0
 40
0.0
 40
0.0
 40
0.0
 40
0.0
 40
0.2405903169
 40
0.4861752103
 40
1.0
 40
1.0
 40
1.0
 40
1.0
 10
15.74256319
 20
6.9384442426
 30
0.0
 10
15.7250061948
 20
6.9471548691
 30
0.0
 10
15.6865454996
 20
6.959300346
 30
0.0
 10
15.6042217803
 20
6.960524277
 30
0.0
 10
15.5441228815
 20
6.9383746015
 30
0.0
 10
15.5072916586
 20
6.9184873714
 30
0.0
 11
15.74256319
 21
6.9384442426
 31
0.0
 11
15.6865578376
 21
6.9563469903
 31
0.0
 11
15.6265572175
 21
6.95778234
 31
0.0
 11
15.5072916586
 21
6.9184873714
 31
0.0
  0
SPLINE
  5
499
100
AcDbEntity
  8
0
100
AcDbSpline
 62
253
  6
CONTINUOUS
 70
0
 71
3
 72
22
 73
18
 74
16
 42
0.0000001
 43
0.0000001
 44
0.0000000001
 12
8.5195283144
 22
-6.4411134061
 32
0.0
 13
-9.2005955319
 23
5.4239604045
 33
0.0
 40
0.0
 40
0.0
 40
0.0
 40
0.0
 40
0.0688538445
 40
0.1417165822
 40
0.2934906189
 40
0.3693777778
 40
0.4429877429
 40
0.5128711377
 40
0.5779049517
 40
0.6374616157
 40
0.6916080569
 40
0.7413059226
 40
0.788482899
 40
0.835740084
 40
0.8856583006
 40
0.940109943
 40
1.0
 40
1.0
 40
1.0
 40
1.0
 10
-9.7144695324
 20
0.3526478748
 30
0.0
 10
-9.5189354398
 20
0.2048160678
 30
0.0
 10
-9.1399835903
 20
-0.1314822902
 30
0.0
 10
-8.4556822915
 20
-0.9237187025
 30
0.0
 10
-7.9073049246
 20
-1.856065298
 30
0.0
 10
-7.526362689
 20
-2.8604879442
 30
0.0
 10
-7.3375726302
 20
-3.6205364288
 30
0.0
 10
-7.2525371483
 20
-4.3603160812
 30
0.0
 10
-7.2744280398
 20
-5.0551836083
 30
0.0
 10
-7.4034656058
 20
-5.6820953124
 30
0.0
 10
-7.6375485879
 20
-6.2201692527
 30
0.0
 10
-7.9725616201
 20
-6.6493657202
 30
0.0
 10
-8.3993462299
 20
-6.9488084661
 30
0.0
 10
-8.8985738363
 20
-7.1015865775
 30
0.0
 10
-9.4451170084
 20
-7.1031670516
 30
0.0
 10
-10.0168896753
 20
-6.9592330398
 30
0.0
 10
-10.3855917286
 20
-6.7803581237
 30
0.0
 10
-10.5692664589
 20
-6.672077691
 30
0.0
 11
-9.7144695324
 21
0.3526478748
 31
0.0
 11
-9.1621583095
 21
-0.1328855781
 31
0.0
 11
-8.6516503632
 21
-0.7202342283
 31
0.0
 11
-7.8255226895
 21
-2.1149253748
 31
0.0
 11
-7.5390417571
 21
-2.8731098447
 31
0.0
 11
-7.3514626195
 21
-3.6365858967
 31
0.0
 11
-7.2693951941
 21
-4.378440879
 31
0.0
 11
-7.2957307099
 21
-5.072526637
 31
0.0
 11
-7.429539639
 21
-5.6943804069
 31
0.0
 11
-7.6661055262
 21
-6.2220849945
 31
0.0
 11
-7.997090586
 21
-6.637041148
 31
0.0
 11
-8.4108299858
 21
-6.9246211084
 31
0.0
 11
-8.8927291751
 21
-7.0746868034
 31
0.0
 11
-9.425824721
 21
-7.0819503036
 31
0.0
 11
-9.9913119994
 21
-6.9461546343
 31
0.0
 11
-10.5692664589
 21
-6.672077691
 31
0.0
  0
SPLINE
  5
49A
100
AcDbEntity
  8
0
100
AcDbSpline
 62
253
  6
CONTINUOUS
 70
0
 71
3
 72
23
 73
19
 74
17
 42
0.0000001
 43
0.0000001
 44
0.0000000001
 12
-9.6227098948
 22
5.6728064256
 32
0.0
 13
9.6227098948
 23
-5.6728064256
 33
0.0
 40
0.0
 40
0.0
 40
0.0
 40
0.0
 40
0.0653543678
 40
0.1356589762
 40
0.2096430691
 40
0.2856818424
 40
0.36198162
 40
0.4367210889
 40
0.5082131054
 40
0.5750660779
 40
0.6363715706
 40
0.6919274583
 40
0.7424831233
 40
0.789889794
 40
0.8368775736
 40
0.886310558
 40
0.9403314697
 40
1.0
 40
1.0
 40
1.0
 40
1.0
 10
-10.5692664589
 20
-6.672077691
 30
0.0
 10
-10.7788951661
 20
-6.5484967985
 30
0.0
 10
-11.1906802579
 20
-6.2512655134
 30
0.0
 10
-11.7497931866
 20
-5.7031964531
 30
0.0
 10
-12.2560299053
 20
-5.0547601706
 30
0.0
 10
-12.6903656021
 20
-4.3302546486
 30
0.0
 10
-13.0367127379
 20
-3.5567180978
 30
0.0
 10
-13.2820766889
 20
-2.7630553501
 30
0.0
 10
-13.4172540552
 20
-1.9787723874
 30
0.0
 10
-13.4369822709
 20
-1.2326748602
 30
0.0
 10
-13.3397309749
 20
-0.5516760454
 30
0.0
 10
-13.1269090057
 20
0.0398275363
 30
0.0
 10
-12.8020433358
 20
0.5189687833
 30
0.0
 10
-12.3731926288
 20
0.861592678
 30
0.0
 10
-11.8602895032
 20
1.0459455674
 30
0.0
 10
-11.2925030671
 20
1.0643755045
 30
0.0
 10
-10.6960083862
 20
0.9231376834
 30
0.0
 10
-10.3117320242
 20
0.7382664268
 30
0.0
 10
-10.1203410387
 20
0.6254370861
 30
0.0
 11
-10.5692664589
 21
-6.672077691
 31
0.0
 11
-11.1640529647
 21
-6.2487847676
 31
0.0
 11
-11.7273287195
 21
-5.7015537231
 31
0.0
 11
-12.237497175
 21
-5.0513885151
 31
0.0
 11
-12.6749158396
 21
-4.3232992067
 31
0.0
 11
-13.0228027373
 21
-3.5452342321
 31
0.0
 11
-13.2677714985
 21
-2.7471147469
 31
0.0
 11
-13.4004105315
 21
-1.9596142153
 31
0.0
 11
-13.4156238401
 21
-1.2129964203
 31
0.0
 11
-13.3128289109
 21
-0.5359502151
 31
0.0
 11
-13.0959763101
 21
0.0455088215
 31
0.0
 11
-12.7733992251
 21
0.5090378748
 31
0.0
 11
-12.3574898106
 21
0.8368226667
 31
0.0
 11
-11.8642458787
 21
1.016266575
 31
0.0
 11
-11.3125915308
 21
1.0404683793
 31
0.0
 11
-10.723762135
 21
0.9085125277
 31
0.0
 11
-10.1203410387
 21
0.6254370861
 31
0.0
  0
SPLINE
  5
49B
100
AcDbEntity
  8
0
100
AcDbSpline
 62
253
  6
CONTINUOUS
 70
0
 71
3
 72
23
 73
19
 74
17
 42
0.0000001
 43
0.0000001
 44
0.0000000001
 12
-9.6013514091
 22
5.6602151123
 32
0.0
 13
9.0384561165
 23
-6.5215255139
 33
0.0
 40
0.0
 40
0.0
 40
0.0
 40
0.0
 40
0.0598181122
 40
0.114157184
 40
0.1639526474
 40
0.2111292969
 40
0.2583248601
 40
0.3081682615
 40
0.3625743301
 40
0.4224634878
 40
0.4878492395
 40
0.5580477404
 40
0.6318819256
 40
0.7078544432
 40
0.7842942166
 40
0.8594964657
 40
0.9318482147
 40
1.0
 40
1.0
 40
1.0
 40
1.0
 10
-10.1128356781
 20
0.7474406013
 30
0.0
 10
-10.3042805836
 20
0.8603017289
 30
0.0
 10
-10.6885962957
 20
1.0464329079
 30
0.0
 10
-11.2846997417
 20
1.194675271
 30
0.0
 10
-11.8540253561
 20
1.1896261928
 30
0.0
 10
-12.3729438586
 20
1.0252734214
 30
0.0
 10
-12.8146474594
 20
0.7068796321
 30
0.0
 10
-13.1589734572
 20
0.2528972732
 30
0.0
 10
-13.3966658103
 20
-0.3143978209
 30
0.0
 10
-13.5235960779
 20
-0.9737221331
 30
0.0
 10
-13.5377266681
 20
-1.7027784014
 30
0.0
 10
-13.4395238326
 20
-2.4770127019
 30
0.0
 10
-13.2327119697
 20
-3.2699232011
 30
0.0
 10
-12.9245770765
 20
-4.0540127946
 30
0.0
 10
-12.5259428482
 20
-4.8019047452
 30
0.0
 10
-12.0506515975
 20
-5.4874553527
 30
0.0
 10
-11.5154676702
 20
-6.0866707151
 30
0.0
 10
-11.1165559011
 20
-6.4268022068
 30
0.0
 10
-10.9112269275
 20
-6.574953409
 30
0.0
 11
-10.1128356781
 21
0.7474406013
 31
0.0
 11
-10.7154821602
 21
1.0326007162
 31
0.0
 11
-11.3048145696
 21
1.1721993634
 31
0.0
 11
-11.8597057791
 21
1.1612418313
 31
0.0
 11
-12.360220601
 21
1.0001135734
 31
0.0
 11
-12.7884225382
 21
0.694593959
 31
0.0
 11
-13.1289276803
 21
0.2556475795
 31
0.0
 11
-13.3695170954
 21
-0.3009692083
 31
0.0
 11
-13.501557541
 21
-0.9552786738
 31
0.0
 11
-13.5203127871
 21
-1.6837995085
 31
0.0
 11
-13.4251108283
 21
-2.4603889786
 31
0.0
 11
-13.2193686439
 21
-3.2571797761
 31
0.0
 11
-12.9104664509
 21
-4.0455821708
 31
0.0
 11
-12.5094979953
 21
-4.7972934694
 31
0.0
 11
-12.0308363542
 21
-5.4853462668
 31
0.0
 11
-11.4917063078
 21
-6.0850324113
 31
0.0
 11
-10.9112269275
 21
-6.574953409
 31
0.0
  0
SPLINE
  5
49C
100
AcDbEntity
  8
0
100
AcDbSpline
 62
253
  6
CONTINUOUS
 70
0
 71
3
 72
9
 73
5
 74
3
 42
0.0000001
 43
0.0000001
 44
0.0000000001
 12
0.3243174802
 22
-0.2340050883
 32
0.0
 13
0.344515264
 23
-0.2030995868
 33
0.0
 40
0.0
 40
0.0
 40
0.0
 40
0.0
 40
0.2545699029
 40
1.0
 40
1.0
 40
1.0
 40
1.0
 10
-10.9112269275
 20
-6.574953409
 30
0.0
 10
-10.8837064377
 20
-6.5948102932
 30
0.0
 10
-10.7747524159
 20
-6.671626073
 30
0.0
 10
-10.662375835
 20
-6.7436156913
 30
0.0
 10
-10.5767718195
 20
-6.7940812062
 30
0.0
 11
-10.9112269275
 21
-6.574953409
 31
0.0
 11
-10.8280118064
 21
-6.633607501
 31
0.0
 11
-10.5767718195
 21
-6.7940812062
 31
0.0
  0
SPLINE
  5
49D
100
AcDbEntity
  8
0
100
AcDbSpline
 62
253
  6
CONTINUOUS
 70
0
 71
3
 72
23
 73
19
 74
17
 42
0.0000001
 43
0.0000001
 44
0.0000000001
 12
10.0062584347
 22
-5.5422217999
 32
0.0
 13
-9.8537667995
 23
5.8090197281
 33
0.0
 40
0.0
 40
0.0
 40
0.0
 40
0.0
 40
0.0588460362
 40
0.1121625912
 40
0.1611513404
 40
0.2080328112
 40
0.2556521347
 40
0.3066256752
 40
0.362667255
 40
0.4244214846
 40
0.4916264146
 40
0.5633505515
 40
0.6382056269
 40
0.7145256119
 40
0.7905206784
 40
0.8644330932
 40
0.9346738424
 40
1.0
 40
1.0
 40
1.0
 40
1.0
 10
-10.4849569464
 20
-6.846569142
 30
0.0
 10
-10.288680731
 20
-6.9552817369
 30
0.0
 10
-9.8952366444
 20
-7.1310773464
 30
0.0
 10
-9.2872379518
 20
-7.254219822
 30
0.0
 10
-8.7115719613
 20
-7.2143091778
 30
0.0
 10
-8.1951959855
 20
-7.0062525399
 30
0.0
 10
-7.7668598502
 20
-6.6397175588
 30
0.0
 10
-7.4450900409
 20
-6.1372173514
 30
0.0
 10
-7.2373242838
 20
-5.5227622688
 30
0.0
 10
-7.14699852
 20
-4.8193639519
 30
0.0
 10
-7.1753751826
 20
-4.0517716087
 30
0.0
 10
-7.3206907222
 20
-3.2472333869
 30
0.0
 10
-7.5774201169
 20
-2.4348065218
 30
0.0
 10
-7.9361104981
 20
-1.6441687084
 30
0.0
 10
-8.3835488221
 20
-0.9043399303
 30
0.0
 10
-8.9034583268
 20
-0.2424350715
 30
0.0
 10
-9.476655285
 20
0.3171769717
 30
0.0
 10
-9.8982661038
 20
0.6209469552
 30
0.0
 10
-10.1128356781
 20
0.7474406013
 30
0.0
 11
-10.4849569464
 21
-6.846569142
 31
0.0
 11
-9.8676575514
 21
-7.1149466489
 31
0.0
 11
-9.2685243851
 21
-7.2288610891
 31
0.0
 11
-8.7099489441
 21
-7.1841452729
 31
0.0
 11
-8.2130686026
 21
-6.9824457858
 31
0.0
 11
-7.796597804
 21
-6.631378702
 31
0.0
 11
-7.4762682486
 21
-6.1441882838
 31
0.0
 11
-7.2641618452
 21
-5.5392592416
 31
0.0
 11
-7.1682797029
 21
-4.8394153203
 31
0.0
 11
-7.1922369584
 21
-4.0710588193
 31
0.0
 11
-7.3351293861
 21
-3.2631751001
 31
0.0
 11
-7.5915661265
 21
-2.4462407876
 31
0.0
 11
-7.9518770441
 21
-1.6510720194
 31
0.0
 11
-8.4024543441
 21
-0.9076864646
 31
0.0
 11
-8.9263281329
 21
-0.2440985772
 31
0.0
 11
-9.5037029464
 21
0.314631154
 31
0.0
 11
-10.1128356781
 21
0.7474406013
 31
0.0
  0
SPLINE
  5
49E
100
AcDbEntity
  8
0
100
AcDbSpline
 62
253
  6
CONTINUOUS
 70
0
 71
3
 72
11
 73
7
 74
5
 42
0.0000001
 43
0.0000001
 44
0.0000000001
 12
-2.1367666856
 22
1.2596725784
 32
0.0
 13
-2.2184911449
 23
-1.109434051
 33
0.0
 40
0.0
 40
0.0
 40
0.0
 40
0.0
 40
0.2832924688
 40
0.5406752827
 40
0.7765540657
 40
1.0
 40
1.0
 40
1.0
 40
1.0
 10
-9.9231718678
 20
1.0453156658
 30
0.0
 10
-10.1249485043
 20
1.164267584
 30
0.0
 10
-10.5299728796
 20
1.3605147347
 30
0.0
 10
-11.1583316004
 20
1.517036642
 30
0.0
 10
-11.7580813892
 20
1.5125269674
 30
0.0
 10
-12.1270530166
 20
1.396228032
 30
0.0
 10
-12.2922906255
 20
1.3135951893
 30
0.0
 11
-9.9231718678
 21
1.0453156658
 31
0.0
 11
-10.5582961535
 21
1.3459607568
 31
0.0
 11
-11.1794452518
 21
1.4934561195
 31
0.0
 11
-11.7644248967
 21
1.4825409175
 31
0.0
 11
-12.2922906255
 21
1.3135951893
 31
0.0
  0
SPLINE
  5
49F
100
AcDbEntity
  8
0
100
AcDbSpline
 62
253
  6
CONTINUOUS
 70
0
 71
3
 72
11
 73
7
 74
5
 42
0.0000001
 43
0.0000001
 44
0.0000000001
 12
0.0
 22
1.4545437058
 32
0.0
 13
-1.2897673709
 23
0.6724563339
 33
0.0
 40
0.0
 40
0.0
 40
0.0
 40
0.0
 40
0.2462376906
 40
0.5106608074
 40
0.7692609467
 40
1.0
 40
1.0
 40
1.0
 40
1.0
 10
5.4749523918
 20
14.3342465358
 30
0.0
 10
5.4749523918
 20
14.4536343635
 30
0.0
 10
5.4342018723
 20
14.7016528236
 30
0.0
 10
5.2862600311
 20
15.0473918969
 30
0.0
 10
5.0682796119
 20
15.3445764706
 30
0.0
 10
4.8793862262
 20
15.4958024269
 30
0.0
 10
4.7801863255
 20
15.5475230729
 30
0.0
 11
5.4749523918
 21
14.3342465358
 31
0.0
 11
5.4222933926
 21
14.6885177742
 31
0.0
 11
5.2721898498
 21
15.042633023
 31
0.0
 11
5.0469898475
 21
15.3439139121
 31
0.0
 11
4.7801863255
 21
15.5475230729
 31
0.0
  0
SPLINE
  5
4A0
100
AcDbEntity
  8
0
100
AcDbSpline
 62
253
  6
CONTINUOUS
 70
0
 71
3
 72
9
 73
5
 74
3
 42
0.0000001
 43
0.0000001
 44
0.0000000001
 12
0.3349172906
 22
0.1674586453
 32
0.0
 13
0.1458431501
 23
0.3448793485
 33
0.0
 40
0.0
 40
0.0
 40
0.0
 40
0.0
 40
0.5527456887
 40
1.0
 40
1.0
 40
1.0
 40
1.0
 10
6.5671779889
 20
14.8803593344
 30
0.0
 10
6.6288860184
 20
14.9112133491
 30
0.0
 10
6.7358252707
 20
14.9781059417
 30
0.0
 10
6.8166663499
 20
15.0790160102
 30
0.0
 10
6.8384093424
 20
15.1304322687
 30
0.0
 11
6.5671779889
 21
14.8803593344
 31
0.0
 11
6.7391327224
 21
14.9955558179
 31
0.0
 11
6.8384093424
 21
15.1304322687
 31
0.0
  0
SPLINE
  5
4A1
100
AcDbEntity
  8
0
100
AcDbSpline
 62
253
  6
CONTINUOUS
 70
0
 71
3
 72
9
 73
5
 74
3
 42
0.0000001
 43
0.0000001
 44
0.0000000001
 12
0.0413320654
 22
0.0977390833
 32
0.0
 13
-0.0000305151
 23
0.1061191175
 33
0.0
 40
0.0
 40
0.0
 40
0.0
 40
0.0
 40
0.2573553203
 40
1.0
 40
1.0
 40
1.0
 40
1.0
 10
6.8384093424
 20
15.1304322687
 30
0.0
 10
6.8419550181
 20
15.1388168264
 30
0.0
 10
6.85426566
 20
15.1719881915
 30
0.0
 10
6.8600748412
 20
15.2076431254
 30
0.0
 10
6.8600672872
 20
15.2339127247
 30
0.0
 11
6.8384093424
 21
15.1304322687
 31
0.0
 11
6.8478608333
 21
15.1560549721
 31
0.0
 11
6.8600672872
 21
15.2339127247
 31
0.0
  0
SPLINE
  5
4A2
100
AcDbEntity
  8
0
100
AcDbSpline
 62
253
  6
CONTINUOUS
 70
0
 71
3
 72
11
 73
7
 74
5
 42
0.0000001
 43
0.0000001
 44
0.0000000001
 12
1.2897673707
 22
-0.6724563338
 32
0.0
 13
0.0
 23
-1.4545437056
 33
0.0
 40
0.0
 40
0.0
 40
0.0
 40
0.0
 40
0.2307390622
 40
0.4893392163
 40
0.7537623377
 40
1.0
 40
1.0
 40
1.0
 40
1.0
 10
5.8724119227
 20
16.0936358714
 30
0.0
 10
5.9716118272
 20
16.0419152235
 30
0.0
 10
6.1605052209
 20
15.8906892581
 30
0.0
 10
6.3784856443
 20
15.59350467
 30
0.0
 10
6.5264274746
 20
15.2477655966
 30
0.0
 10
6.5671779889
 20
14.9997471483
 30
0.0
 10
6.5671779889
 20
14.8803593344
 30
0.0
 11
5.8724119227
 21
16.0936358714
 31
0.0
 11
6.1392154536
 21
15.8900267012
 31
0.0
 11
6.3644154642
 21
15.5887457915
 31
0.0
 11
6.5145190006
 21
15.2346305327
 31
0.0
 11
6.5671779889
 21
14.8803593344
 31
0.0
  0
SPLINE
  5
4A3
100
AcDbEntity
  8
0
100
AcDbSpline
 62
253
  6
CONTINUOUS
 70
0
 71
3
 72
9
 73
5
 74
3
 42
0.0000001
 43
0.0000001
 44
0.0000000001
 12
-0.6484251368
 22
-0.3608294197
 32
0.0
 13
-0.3462958852
 23
-0.6563019032
 33
0.0
 40
0.0
 40
0.0
 40
0.0
 40
0.0
 40
0.4664871712
 40
1.0
 40
1.0
 40
1.0
 40
1.0
 10
4.7801863255
 20
15.5475230729
 30
0.0
 10
4.6793589896
 20
15.4914156411
 30
0.0
 10
4.4887569239
 20
15.3257981318
 30
0.0
 10
4.3488119754
 20
15.119170233
 30
0.0
 10
4.287227543
 20
15.0024550713
 30
0.0
 11
4.7801863255
 21
15.5475230729
 31
0.0
 11
4.5125556622
 21
15.3279744719
 31
0.0
 11
4.287227543
 21
15.0024550713
 31
0.0
  0
SPLINE
  5
4A4
100
AcDbEntity
  8
0
100
AcDbSpline
 62
253
  6
CONTINUOUS
 70
0
 71
3
 72
9
 73
5
 74
3
 42
0.0000001
 43
0.0000001
 44
0.0000000001
 12
0.5309411797
 22
0.0523750763
 32
0.0
 13
0.4771931977
 23
0.2385965988
 33
0.0
 40
0.0
 40
0.0
 40
0.0
 40
0.0
 40
0.5275194996
 40
1.0
 40
1.0
 40
1.0
 40
1.0
 10
4.9615069301
 20
14.1972717661
 30
0.0
 10
5.0548675385
 20
14.2064813908
 30
0.0
 10
5.2308549576
 20
14.2367379844
 30
0.0
 10
5.3997975648
 20
14.2966691223
 30
0.0
 10
5.4749523918
 20
14.3342465358
 30
0.0
 11
4.9615069301
 21
14.1972717661
 31
0.0
 11
5.2385807211
 21
14.2466610149
 31
0.0
 11
5.4749523918
 21
14.3342465358
 31
0.0
  0
SPLINE
  5
4A5
100
AcDbEntity
  8
0
100
AcDbSpline
 62
253
  6
CONTINUOUS
 70
0
 71
3
 72
11
 73
7
 74
5
 42
0.0000001
 43
0.0000001
 44
0.0000000001
 12
0.0
 22
-0.6297129261
 32
0.0
 13
-0.5632852912
 23
-0.2815103017
 33
0.0
 40
0.0
 40
0.0
 40
0.0
 40
0.0
 40
0.2896927165
 40
0.5496093268
 40
0.7828338758
 40
1.0
 40
1.0
 40
1.0
 40
1.0
 10
6.5671779889
 20
14.8653358098
 30
0.0
 10
6.5671779889
 20
14.8045280604
 30
0.0
 10
6.5573467925
 20
14.688728407
 30
0.0
 10
6.5078834487
 20
14.5303423475
 30
0.0
 10
6.4251869207
 20
14.4035576272
 30
0.0
 10
6.3480542828
 20
14.3448524272
 30
0.0
 10
6.3072787883
 20
14.3244742602
 30
0.0
 11
6.5671779889
 21
14.8653358098
 31
0.0
 11
6.5498975467
 21
14.6837328699
 31
0.0
 11
6.49890362
 21
14.5282065987
 31
0.0
 11
6.4166950878
 21
14.4065063832
 31
0.0
 11
6.3072787883
 21
14.3244742602
 31
0.0
  0
SPLINE
  5
4A6
100
AcDbEntity
  8
0
100
AcDbSpline
 62
253
  6
CONTINUOUS
 70
0
 71
3
 72
11
 73
7
 74
5
 42
0.0000001
 43
0.0000001
 44
0.0000000001
 12
1.3132145202
 22
-0.6566072601
 32
0.0
 13
0.0
 23
-1.4682184681
 33
0.0
 40
0.0
 40
0.0
 40
0.0
 40
0.0
 40
0.2296940662
 40
0.4882147933
 40
0.753187566
 40
1.0
 40
1.0
 40
1.0
 40
1.0
 10
5.8600712077
 20
-14.8018814218
 30
0.0
 10
5.9606170687
 20
-14.8521543523
 30
0.0
 10
6.1527268563
 20
-15.0024546704
 30
0.0
 10
6.3745567791
 20
-15.3008366967
 30
0.0
 10
6.525492633
 20
-15.649767455
 30
0.0
 10
6.5671779889
 20
-15.9006686916
 30
0.0
 10
6.5671779889
 20
-16.0214602162
 30
0.0
 11
5.8600712077
 21
-14.8018814218
 31
0.0
 11
6.1306881312
 21
-15.0031226205
 31
0.0
 11
6.3600712369
 21
-15.3055344402
 31
0.0
 11
6.5133441595
 21
-15.6631066889
 31
0.0
 11
6.5671779889
 21
-16.0214602162
 31
0.0
  0
SPLINE
  5
4A7
100
AcDbEntity
  8
0
100
AcDbSpline
 62
253
  6
CONTINUOUS
 70
0
 71
3
 72
9
 73
5
 74
3
 42
0.0000001
 43
0.0000001
 44
0.0000000001
 12
0.3349172906
 22
0.1674586453
 32
0.0
 13
0.1458431501
 23
0.3448793485
 33
0.0
 40
0.0
 40
0.0
 40
0.0
 40
0.0
 40
0.5527456887
 40
1.0
 40
1.0
 40
1.0
 40
1.0
 10
6.5671779889
 20
-16.0214602162
 30
0.0
 10
6.6288860184
 20
-15.9906062014
 30
0.0
 10
6.7358252707
 20
-15.9237136089
 30
0.0
 10
6.8166663499
 20
-15.8228035404
 30
0.0
 10
6.8384093424
 20
-15.7713872819
 30
0.0
 11
6.5671779889
 21
-16.0214602162
 31
0.0
 11
6.7391327224
 21
-15.9062637327
 31
0.0
 11
6.8384093424
 21
-15.7713872819
 31
0.0
  0
SPLINE
  5
4A8
100
AcDbEntity
  8
0
100
AcDbSpline
 62
253
  6
CONTINUOUS
 70
0
 71
3
 72
9
 73
5
 74
3
 42
0.0000001
 43
0.0000001
 44
0.0000000001
 12
0.0413320654
 22
0.0977390833
 32
0.0
 13
-0.0000305151
 23
0.1061191175
 33
0.0
 40
0.0
 40
0.0
 40
0.0
 40
0.0
 40
0.2573553203
 40
1.0
 40
1.0
 40
1.0
 40
1.0
 10
6.8384093424
 20
-15.7713872819
 30
0.0
 10
6.8419550181
 20
-15.7630027242
 30
0.0
 10
6.85426566
 20
-15.729831359
 30
0.0
 10
6.8600748412
 20
-15.6941764252
 30
0.0
 10
6.8600672872
 20
-15.6679068259
 30
0.0
 11
6.8384093424
 21
-15.7713872819
 31
0.0
 11
6.8478608333
 21
-15.7457645785
 31
0.0
 11
6.8600672872
 21
-15.6679068259
 31
0.0
  0
SPLINE
  5
4A9
100
AcDbEntity
  8
0
100
AcDbSpline
 62
7
  6
CONTINUOUS
 70
0
 71
3
 72
11
 73
7
 74
5
 42
0.0000001
 43
0.0000001
 44
0.0000000001
 12
0.273857856
 22
0.1076963686
 32
0.0
 13
0.2528748326
 23
-0.1505023328
 33
0.0
 40
0.0
 40
0.0
 40
0.0
 40
0.0
 40
0.400047637
 40
0.6953199537
 40
0.8897221057
 40
1.0
 40
1.0
 40
1.0
 40
1.0
 10
5.921935035
 20
-14.7742449963
 30
0.0
 10
5.9584537644
 20
-14.7598837704
 30
0.0
 10
6.0223218397
 20
-14.7362285648
 30
0.0
 10
6.1066323371
 20
-14.7116488523
 30
0.0
 10
6.1639535311
 20
-14.701808328
 30
0.0
 10
6.1956188407
 20
-14.703784137
 30
0.0
 10
6.204914342
 20
-14.7093164972
 30
0.0
 11
5.921935035
 21
-14.7742449963
 31
0.0
 11
6.0326148139
 21
-14.7341357928
 31
0.0
 11
6.1163301522
 21
-14.7108606183
 31
0.0
 11
6.1730312978
 21
-14.703267392
 31
0.0
 11
6.204914342
 21
-14.7093164972
 31
0.0
  0
SPLINE
  5
4AA
100
AcDbEntity
  8
0
100
AcDbSpline
 62
253
  6
CONTINUOUS
 70
0
 71
3
 72
9
 73
5
 74
3
 42
0.0000001
 43
0.0000001
 44
0.0000000001
 12
-0.4771931977
 22
-0.2385965988
 32
0.0
 13
-0.5309411797
 23
-0.0523750763
 33
0.0
 40
0.0
 40
0.0
 40
0.0
 40
0.0
 40
0.4724805004
 40
1.0
 40
1.0
 40
1.0
 40
1.0
 10
5.4749523918
 20
14.3192230112
 30
0.0
 10
5.3997975648
 20
14.2816455977
 30
0.0
 10
5.2308549576
 20
14.2217144598
 30
0.0
 10
5.0548675385
 20
14.1914578661
 30
0.0
 10
4.9615069301
 20
14.1822482415
 30
0.0
 11
5.4749523918
 21
14.3192230112
 31
0.0
 11
5.2385807211
 21
14.2316374903
 31
0.0
 11
4.9615069301
 21
14.1822482415
 31
0.0
  0
SPLINE
  5
4AB
100
AcDbEntity
  8
0
100
AcDbSpline
 62
253
  6
CONTINUOUS
 70
0
 71
3
 72
11
 73
7
 74
5
 42
0.0000001
 43
0.0000001
 44
0.0000000001
 12
0.0
 22
-0.6297135059
 32
0.0
 13
-0.5632716328
 23
-0.2815389265
 33
0.0
 40
0.0
 40
0.0
 40
0.0
 40
0.0
 40
0.2896975229
 40
0.5496070963
 40
0.7828345072
 40
1.0
 40
1.0
 40
1.0
 40
1.0
 10
6.5671779889
 20
-16.0364837408
 30
0.0
 10
6.5671779889
 20
-16.0972925551
 30
0.0
 10
6.5573485844
 20
-16.213092375
 30
0.0
 10
6.5078822199
 20
-16.3714770523
 30
0.0
 10
6.4251893242
 20
-16.4982643271
 30
0.0
 10
6.3480530042
 20
-16.5569647836
 30
0.0
 10
6.307278617
 20
-16.5773449635
 30
0.0
 11
6.5671779889
 21
-16.0364837408
 31
0.0
 11
6.5498978959
 21
-16.218089923
 31
0.0
 11
6.4989043624
 21
-16.3736118183
 31
0.0
 11
6.4166956169
 21
-16.4953142278
 31
0.0
 11
6.307278617
 21
-16.5773449635
 31
0.0
  0
SPLINE
  5
4AC
100
AcDbEntity
  8
0
100
AcDbSpline
 62
253
  6
CONTINUOUS
 70
0
 71
3
 72
9
 73
5
 74
3
 42
0.0000001
 43
0.0000001
 44
0.0000000001
 12
0.1924249871
 22
0.0835375825
 32
0.0
 13
0.1875898896
 23
-0.0938932194
 33
0.0
 40
0.0
 40
0.0
 40
0.0
 40
0.0
 40
0.5320832567
 40
1.0
 40
1.0
 40
1.0
 40
1.0
 10
-0.6633247704
 20
21.523907293
 30
0.0
 10
-0.6291960658
 20
21.5387236093
 30
0.0
 10
-0.5599210104
 20
21.5577414882
 30
0.0
 10
-0.4879643718
 20
21.54388376
 30
0.0
 10
-0.4587055551
 20
21.5292390236
 30
0.0
 11
-0.6633247704
 21
21.523907293
 31
0.0
 11
-0.5547166816
 21
21.5496543008
 31
0.0
 11
-0.4587055551
 21
21.5292390236
 31
0.0
  0
SPLINE
  5
4AD
100
AcDbEntity
  8
ASSI
100
AcDbSpline
 62
7
  6
CONTINUOUS
 70
0
 71
3
 72
17
 73
13
 74
11
 42
0.0000001
 43
0.0000001
 44
0.0000000001
 12
1.3192734993
 22
0.6596569729
 32
0.0
 13
-1.1025168819
 23
-0.9798399935
 33
0.0
 40
0.0
 40
0.0
 40
0.0
 40
0.0
 40
0.0466313298
 40
0.0957793418
 40
0.2074842666
 40
0.3402002013
 40
0.4874247961
 40
0.5630224758
 40
0.6377154074
 40
0.7780165805
 40
0.8991899014
 40
1.0
 40
1.0
 40
1.0
 40
1.0
 10
8.7631634916
 20
-14.5300557651
 30
0.0
 10
8.7836699842
 20
-14.5198022045
 30
0.0
 10
8.8293400537
 20
-14.5052116038
 30
0.0
 10
8.9325562417
 20
-14.5037581229
 30
0.0
 10
9.0716034408
 20
-14.5575653547
 30
0.0
 10
9.2202994123
 20
-14.6831953062
 30
0.0
 10
9.3234177218
 20
-14.8265155741
 30
0.0
 10
9.3880339711
 20
-14.9580319915
 30
0.0
 10
9.4361833729
 20
-15.0928070407
 30
0.0
 10
9.4644085112
 20
-15.2575648083
 30
0.0
 10
9.4447405378
 20
-15.4375843898
 30
0.0
 10
9.3866962706
 20
-15.536561693
 30
0.0
 10
9.3496479921
 20
-15.5694876151
 30
0.0
 11
8.7631634916
 21
-14.5300557651
 31
0.0
 11
8.8286086079
 21
-14.5088944219
 31
0.0
 11
8.9010786404
 21
-14.5070539609
 31
0.0
 11
9.0568541886
 21
-14.5607332593
 31
0.0
 11
9.2091511571
 21
-14.6837216019
 31
0.0
 11
9.3371056851
 21
-14.8591769908
 31
0.0
 11
9.3862724123
 21
-14.9592588459
 31
0.0
 11
9.4231915205
 21
-15.0630610262
 31
0.0
 11
9.4556067062
 21
-15.2674510122
 31
0.0
 11
9.429930477
 21
-15.4443279402
 31
0.0
 11
9.3496479921
 21
-15.5694876151
 31
0.0
  0
SPLINE
  5
4AE
100
AcDbEntity
  8
0
100
AcDbSpline
 62
7
  6
CONTINUOUS
 70
0
 71
3
 72
10
 73
6
 74
4
 42
0.0000001
 43
0.0000001
 44
0.0000000001
 12
-0.4097670378
 22
0.204901097
 32
0.0
 13
-0.4109386076
 23
-0.2025412194
 33
0.0
 40
0.0
 40
0.0
 40
0.0
 40
0.0
 40
0.2280119268
 40
0.4662977105
 40
1.0
 40
1.0
 40
1.0
 40
1.0
 10
6.4028602265
 20
22.0235222062
 30
0.0
 10
6.3717163026
 20
22.0390955041
 30
0.0
 10
6.3031507308
 20
22.0620317685
 30
0.0
 10
6.1492571913
 20
22.0703371402
 30
0.0
 10
6.0327554916
 20
22.0332570059
 30
0.0
 10
5.9596491997
 20
21.9972247684
 30
0.0
 11
6.4028602265
 21
22.0235222062
 31
0.0
 11
6.3038975716
 21
22.0569682433
 31
0.0
 11
6.1949392305
 21
22.0637399537
 31
0.0
 11
5.9596491997
 21
21.9972247684
 31
0.0
  0
SPLINE
  5
4AF
100
AcDbEntity
  8
0
100
AcDbSpline
 62
7
  6
CONTINUOUS
 70
0
 71
3
 72
8
 73
4
 74
2
 42
0.0000001
 43
0.0000001
 44
0.0000000001
 12
0.0
 22
-0.1342672156
 32
0.0
 13
-0.0694512804
 23
-0.1149095507
 33
0.0
 40
0.0
 40
0.0
 40
0.0
 40
0.0
 40
1.0
 40
1.0
 40
1.0
 40
1.0
 10
-8.8235720197
 20
23.568161723
 30
0.0
 10
-8.8235720197
 20
23.5234059845
 30
0.0
 10
-8.8364619491
 20
23.4771251296
 30
0.0
 10
-8.8596123759
 20
23.438821946
 30
0.0
 11
-8.8235720197
 21
23.568161723
 31
0.0
 11
-8.8596123759
 21
23.438821946
 31
0.0
  0
SPLINE
  5
4B0
100
AcDbEntity
  8
0
100
AcDbSpline
 62
7
  6
CONTINUOUS
 70
0
 71
3
 72
8
 73
4
 74
2
 42
0.0000001
 43
0.0000001
 44
0.0000000001
 12
0.0000236151
 22
-0.1329788828
 32
0.0
 13
-0.0682164737
 23
-0.1141485722
 33
0.0
 40
0.0
 40
0.0
 40
0.0
 40
0.0
 40
1.0
 40
1.0
 40
1.0
 40
1.0
 10
3.4800615442
 20
17.4164503896
 30
0.0
 10
3.480069416
 20
17.3721240953
 30
0.0
 10
3.4675148963
 20
17.3262879047
 30
0.0
 10
3.4447760717
 20
17.2882383806
 30
0.0
 11
3.4800615442
 21
17.4164503896
 31
0.0
 11
3.4447760717
 21
17.2882383806
 31
0.0
  0
SPLINE
  5
4B1
100
AcDbEntity
  8
0
100
AcDbSpline
 62
7
  6
CONTINUOUS
 70
0
 71
3
 72
9
 73
5
 74
3
 42
0.0000001
 43
0.0000001
 44
0.0000000001
 12
0.0731088139
 22
0.0188262067
 32
0.0
 13
0.0753626971
 23
-0.0044484404
 33
0.0
 40
0.0
 40
0.0
 40
0.0
 40
0.0
 40
0.2438086273
 40
1.0
 40
1.0
 40
1.0
 40
1.0
 10
3.5360516465
 20
22.1827939005
 30
0.0
 10
3.5419931663
 20
22.1843238977
 30
0.0
 10
3.5666353232
 20
22.1895330908
 30
0.0
 10
3.5920789623
 20
22.1905500453
 30
0.0
 10
3.6110751694
 20
22.1894287546
 30
0.0
 11
3.5360516465
 21
22.1827939005
 31
0.0
 11
3.5540567494
 21
22.1866147924
 31
0.0
 11
3.6110751694
 21
22.1894287546
 31
0.0
  0
SPLINE
  5
4B2
100
AcDbEntity
  8
0
100
AcDbSpline
 62
7
  6
CONTINUOUS
 70
0
 71
3
 72
9
 73
5
 74
3
 42
0.0000001
 43
0.0000001
 44
0.0000000001
 12
0.1627865808
 22
-0.0096088174
 32
0.0
 13
0.1458594441
 23
-0.0729165469
 33
0.0
 40
0.0
 40
0.0
 40
0.0
 40
0.0
 40
0.2393514414
 40
1.0
 40
1.0
 40
1.0
 40
1.0
 10
3.6110751694
 20
22.1894287546
 30
0.0
 10
3.6240629036
 20
22.1886621265
 30
0.0
 10
3.6781149154
 20
22.1817763865
 30
0.0
 10
3.7299783529
 20
22.1623706543
 30
0.0
 10
3.7669609449
 20
22.1438826988
 30
0.0
 11
3.6110751694
 21
22.1894287546
 31
0.0
 11
3.649812376
 21
22.1846486436
 31
0.0
 11
3.7669609449
 21
22.1438826988
 31
0.0
  0
SPLINE
  5
4B3
100
AcDbEntity
  8
0
100
AcDbSpline
 62
7
  6
CONTINUOUS
 70
0
 71
3
 72
9
 73
5
 74
3
 42
0.0000001
 43
0.0000001
 44
0.0000000001
 12
0.0731655877
 22
0.018126731
 32
0.0
 13
0.0752173431
 23
-0.0049125248
 33
0.0
 40
0.0
 40
0.0
 40
0.0
 40
0.0
 40
0.2437936619
 40
1.0
 40
1.0
 40
1.0
 40
1.0
 10
-2.0525216864
 20
24.9784903344
 30
0.0
 10
-2.0465759176
 20
24.9799633951
 30
0.0
 10
-2.0219271344
 20
24.9849472299
 30
0.0
 10
-1.9965216905
 20
24.9857778073
 30
0.0
 10
-1.9775617466
 20
24.9845395132
 30
0.0
 11
-2.0525216864
 21
24.9784903344
 31
0.0
 11
-2.0345125109
 21
24.9821465995
 31
0.0
 11
-1.9775617466
 21
24.9845395132
 31
0.0
  0
SPLINE
  5
4B4
100
AcDbEntity
  8
0
100
AcDbSpline
 62
7
  6
CONTINUOUS
 70
0
 71
3
 72
9
 73
5
 74
3
 42
0.0000001
 43
0.0000001
 44
0.0000000001
 12
0.1609621264
 22
-0.010512608
 32
0.0
 13
0.1442767216
 23
-0.072135627
 33
0.0
 40
0.0
 40
0.0
 40
0.0
 40
0.0
 40
0.239504396
 40
1.0
 40
1.0
 40
1.0
 40
1.0
 10
-1.9775617466
 20
24.9845395132
 30
0.0
 10
-1.9647113677
 20
24.9837002413
 30
0.0
 10
-1.9112841996
 20
24.9766221568
 30
0.0
 10
-1.8600315173
 20
24.9573782227
 30
0.0
 10
-1.8234575798
 20
24.939091947
 30
0.0
 11
-1.9775617466
 21
24.9845395132
 31
0.0
 11
-1.939244018
 21
24.9796119148
 31
0.0
 11
-1.8234575798
 21
24.939091947
 31
0.0
  0
SPLINE
  5
4B5
100
AcDbEntity
  8
0
100
AcDbSpline
 62
7
  6
CONTINUOUS
 70
0
 71
3
 72
8
 73
4
 74
2
 42
0.0000001
 43
0.0000001
 44
0.0000000001
 12
0.1153222976
 22
-0.0717492779
 32
0.0
 13
0.0608136243
 23
-0.1214450259
 33
0.0
 40
0.0
 40
0.0
 40
0.0
 40
0.0
 40
1.0
 40
1.0
 40
1.0
 40
1.0
 10
3.3620213037
 20
-23.6709367346
 30
0.0
 10
3.4004620696
 20
-23.6948531606
 30
0.0
 10
3.4333137601
 20
-23.730770993
 30
0.0
 10
3.4535849682
 20
-23.7712526683
 30
0.0
 11
3.3620213037
 21
-23.6709367346
 31
0.0
 11
3.4535849682
 21
-23.7712526683
 31
0.0
  0
SPLINE
  5
4B6
100
AcDbEntity
  8
0
100
AcDbSpline
 62
7
  6
CONTINUOUS
 70
0
 71
3
 72
8
 73
4
 74
2
 42
0.0000001
 43
0.0000001
 44
0.0000000001
 12
0.0515531434
 22
-0.1029518122
 32
0.0
 13
-0.0000107711
 23
-0.115138187
 33
0.0
 40
0.0
 40
0.0
 40
0.0
 40
0.0
 40
1.0
 40
1.0
 40
1.0
 40
1.0
 10
3.4535849682
 20
-23.7712526683
 30
0.0
 10
3.4707693494
 20
-23.805569939
 30
0.0
 10
3.4800925375
 20
-23.8449194298
 30
0.0
 10
3.4800889472
 20
-23.8832988254
 30
0.0
 11
3.4535849682
 21
-23.7712526683
 31
0.0
 11
3.4800889472
 21
-23.8832988254
 31
0.0
  0
SPLINE
  5
4B7
100
AcDbEntity
  8
0
100
AcDbSpline
 62
7
  6
CONTINUOUS
 70
0
 71
3
 72
8
 73
4
 74
2
 42
0.0000001
 43
0.0000001
 44
0.0000000001
 12
-0.1381458247
 22
0.0690729123
 32
0.0
 13
-0.1523719721
 23
-0.0252610019
 33
0.0
 40
0.0
 40
0.0
 40
0.0
 40
0.0
 40
1.0
 40
1.0
 40
1.0
 40
1.0
 10
-10.652648172
 20
24.9847398131
 30
0.0
 10
-10.6986967802
 20
25.0077641172
 30
0.0
 10
-10.7545849234
 20
25.0161748097
 30
0.0
 10
-10.8053755808
 20
25.0077544758
 30
0.0
 11
-10.652648172
 21
24.9847398131
 31
0.0
 11
-10.8053755808
 21
25.0077544758
 31
0.0
  0
SPLINE
  5
4B8
100
AcDbEntity
  8
0
100
AcDbSpline
 62
7
  6
CONTINUOUS
 70
0
 71
3
 72
8
 73
4
 74
2
 42
0.0000001
 43
0.0000001
 44
0.0000000001
 12
0.0390701449
 22
0.0918237888
 32
0.0
 13
-0.0000121974
 23
0.0997902012
 33
0.0
 40
0.0
 40
0.0
 40
0.0
 40
0.0
 40
1.0
 40
1.0
 40
1.0
 40
1.0
 10
3.4601077592
 20
-24.3287139708
 30
0.0
 10
3.4731311408
 20
-24.2981060411
 30
0.0
 10
3.4800571164
 20
-24.2642007392
 30
0.0
 10
3.4800530506
 20
-24.2309373388
 30
0.0
 11
3.4601077592
 21
-24.3287139708
 31
0.0
 11
3.4800530506
 21
-24.2309373388
 31
0.0
  0
SPLINE
  5
4B9
100
AcDbEntity
  8
0
100
AcDbSpline
 62
7
  6
CONTINUOUS
 70
0
 71
3
 72
8
 73
4
 74
2
 42
0.0000001
 43
0.0000001
 44
0.0000000001
 12
0.1383959143
 22
0.0674170341
 32
0.0
 13
0.1516583847
 23
-0.0264238515
 33
0.0
 40
0.0
 40
0.0
 40
0.0
 40
0.0
 40
1.0
 40
1.0
 40
1.0
 40
1.0
 10
1.42972275
 20
18.8340557167
 30
0.0
 10
1.4758547215
 20
18.8565280614
 30
0.0
 10
1.5316007072
 20
18.8643892656
 30
0.0
 10
1.5821535022
 20
18.8555813151
 30
0.0
 11
1.42972275
 21
18.8340557167
 31
0.0
 11
1.5821535022
 21
18.8555813151
 31
0.0
  0
SPLINE
  5
4BA
100
AcDbEntity
  8
0
100
AcDbSpline
 62
7
  6
CONTINUOUS
 70
0
 71
3
 72
8
 73
4
 74
2
 42
0.0000001
 43
0.0000001
 44
0.0000000001
 12
-0.0000323133
 22
0.0094182003
 32
0.0
 13
-0.0084259837
 23
0.0042078902
 33
0.0
 40
0.0
 40
0.0
 40
0.0
 40
0.0
 40
1.0
 40
1.0
 40
1.0
 40
1.0
 10
-1.3031886149
 20
24.6734985436
 30
0.0
 10
-1.303199386
 20
24.6766379437
 30
0.0
 10
-1.3053999099
 20
24.6800648269
 30
0.0
 10
-1.3082085712
 20
24.681467457
 30
0.0
 11
-1.3031886149
 21
24.6734985436
 31
0.0
 11
-1.3082085712
 21
24.681467457
 31
0.0
  0
SPLINE
  5
4BB
100
AcDbEntity
  8
0
100
AcDbSpline
 62
7
  6
CONTINUOUS
 70
0
 71
3
 72
8
 73
4
 74
2
 42
0.0000001
 43
0.0000001
 44
0.0000000001
 12
-0.0000299363
 22
0.0094167224
 32
0.0
 13
-0.0084230265
 23
0.0042104848
 33
0.0
 40
0.0
 40
0.0
 40
0.0
 40
0.0
 40
1.0
 40
1.0
 40
1.0
 40
1.0
 10
4.2872579777
 20
21.8782721376
 30
0.0
 10
4.287247999
 20
21.8814110451
 30
0.0
 10
4.2850499914
 20
21.8848385043
 30
0.0
 10
4.2822423159
 20
21.8862419992
 30
0.0
 11
4.2872579777
 21
21.8782721376
 31
0.0
 11
4.2822423159
 21
21.8862419992
 31
0.0
  0
SPLINE
  5
4BC
100
AcDbEntity
  8
0
100
AcDbSpline
 62
7
  6
CONTINUOUS
 70
0
 71
3
 72
10
 73
6
 74
4
 42
0.0000001
 43
0.0000001
 44
0.0000000001
 12
0.3337797138
 22
0.4033469033
 32
0.0
 13
-0.2159583465
 23
0.4769272631
 33
0.0
 40
0.0
 40
0.0
 40
0.0
 40
0.0
 40
0.437339694
 40
0.7085619899
 40
1.0
 40
1.0
 40
1.0
 40
1.0
 10
4.1215594485
 20
20.8899635966
 30
0.0
 10
4.1702178211
 20
20.948763467
 30
0.0
 10
4.1981937783
 20
21.082294987
 30
0.0
 10
4.1747575505
 20
21.2542554905
 30
0.0
 10
4.1425389388
 20
21.3482104056
 30
0.0
 10
4.1215594485
 20
21.3945419831
 30
0.0
 11
4.1215594485
 21
20.8899635966
 31
0.0
 11
4.1877684894
 21
21.1091482694
 31
0.0
 11
4.1708090925
 21
21.2501284819
 31
0.0
 11
4.1215594485
 21
21.3945419831
 31
0.0
  0
SPLINE
  5
4BD
100
AcDbEntity
  8
0
100
AcDbSpline
 62
7
  6
CONTINUOUS
 70
0
 71
3
 72
9
 73
5
 74
3
 42
0.0000001
 43
0.0000001
 44
0.0000000001
 12
-0.1182252545
 22
0.3113737952
 32
0.0
 13
-0.2978953429
 23
0.1489604505
 33
0.0
 40
0.0
 40
0.0
 40
0.0
 40
0.0
 40
0.5230428892
 40
1.0
 40
1.0
 40
1.0
 40
1.0
 10
1.6643828793
 20
24.2485728784
 30
0.0
 10
1.6437705864
 20
24.3028601615
 30
0.0
 10
1.5894600222
 20
24.4024220153
 30
0.0
 10
1.5004738589
 20
24.4747133583
 30
0.0
 10
1.4531127582
 20
24.4983959403
 30
0.0
 11
1.6643828793
 21
24.2485728784
 31
0.0
 11
1.57747074
 21
24.3995499018
 31
0.0
 11
1.4531127582
 21
24.4983959403
 31
0.0
  0
SPLINE
  5
4BE
100
AcDbEntity
  8
ASSI
100
AcDbSpline
 62
7
  6
CONTINUOUS
 70
0
 71
3
 72
13
 73
9
 74
7
 42
0.0000001
 43
0.0000001
 44
0.0000000001
 12
0.3702776809
 22
-0.6993546197
 32
0.0
 13
-0.7078618098
 23
-0.3537429906
 33
0.0
 40
0.0
 40
0.0
 40
0.0
 40
0.0
 40
0.3004856771
 40
0.5748670654
 40
0.6963648446
 40
0.8061447838
 40
0.9059956213
 40
1.0
 40
1.0
 40
1.0
 40
1.0
 10
9.3496479921
 20
18.8928894867
 30
0.0
 10
9.3867357053
 20
18.8228408046
 30
0.0
 10
9.4419616695
 20
18.6798993522
 30
0.0
 10
9.4629969738
 20
18.4943769124
 30
0.0
 10
9.4428074983
 20
18.3617438044
 30
0.0
 10
9.4114204037
 20
18.2793628961
 30
0.0
 10
9.3640183694
 20
18.2134900458
 30
0.0
 10
9.3218548489
 20
18.1826984815
 30
0.0
 10
9.2996741457
 20
18.1716140181
 30
0.0
 11
9.3496479921
 21
18.8928894867
 31
0.0
 11
9.4341251124
 21
18.6706183387
 31
0.0
 11
9.4542775831
 21
18.4544294848
 31
0.0
 11
9.4388380264
 21
18.3595324922
 31
0.0
 11
9.4069535715
 21
18.2787231803
 31
0.0
 11
9.3599485524
 21
18.2152103047
 31
0.0
 11
9.2996741457
 21
18.1716140181
 31
0.0
  0
SPLINE
  5
4BF
100
AcDbEntity
  8
0
100
AcDbSpline
 62
253
  6
CONTINUOUS
 70
0
 71
3
 72
10
 73
6
 74
4
 42
0.0000001
 43
0.0000001
 44
0.0000000001
 12
0.0
 22
0.3644011838
 32
0.0
 13
0.3249987692
 23
0.1648151169
 33
0.0
 40
0.0
 40
0.0
 40
0.0
 40
0.0
 40
0.5093740238
 40
0.7690172703
 40
1.0
 40
1.0
 40
1.0
 40
1.0
 10
-0.7527198767
 20
17.4496125468
 30
0.0
 10
-0.7527198767
 20
17.5114847125
 30
0.0
 10
-0.722288932
 20
17.6056832867
 30
0.0
 10
-0.6498165144
 20
17.703554632
 30
0.0
 10
-0.601994655
 20
17.7412995465
 30
0.0
 10
-0.5769716207
 20
17.7539893617
 30
0.0
 11
-0.7527198767
 21
17.4496125468
 31
0.0
 11
-0.7013061094
 21
17.6279664326
 31
0.0
 11
-0.644304464
 21
17.7034825196
 31
0.0
 11
-0.5769716207
 21
17.7539893617
 31
0.0
  0
SPLINE
  5
4C0
100
AcDbEntity
  8
0
100
AcDbSpline
 62
253
  6
CONTINUOUS
 70
0
 71
3
 72
10
 73
6
 74
4
 42
0.0000001
 43
0.0000001
 44
0.0000000001
 12
0.0
 22
0.3644011838
 32
0.0
 13
0.3249987692
 23
0.1648151169
 33
0.0
 40
0.0
 40
0.0
 40
0.0
 40
0.0
 40
0.5093740238
 40
0.7690172703
 40
1.0
 40
1.0
 40
1.0
 40
1.0
 10
0.9258181937
 20
16.6103435116
 30
0.0
 10
0.9258181937
 20
16.6722156773
 30
0.0
 10
0.9562491385
 20
16.7664142515
 30
0.0
 10
1.0287215561
 20
16.8642855968
 30
0.0
 10
1.0765434154
 20
16.9020305113
 30
0.0
 10
1.1015664497
 20
16.9147203265
 30
0.0
 11
0.9258181937
 21
16.6103435116
 31
0.0
 11
0.977231961
 21
16.7886973974
 31
0.0
 11
1.0342336064
 21
16.8642134844
 31
0.0
 11
1.1015664497
 21
16.9147203265
 31
0.0
  0
SPLINE
  5
4C1
100
AcDbEntity
  8
0
100
AcDbSpline
 62
253
  6
CONTINUOUS
 70
0
 71
3
 72
11
 73
7
 74
5
 42
0.0000001
 43
0.0000001
 44
0.0000000001
 12
0.323933903
 22
-0.1619669515
 32
0.0
 13
0.3246816254
 23
0.1604627963
 33
0.0
 40
0.0
 40
0.0
 40
0.0
 40
0.0
 40
0.235171244
 40
0.4995791052
 40
0.7642134563
 40
1.0
 40
1.0
 40
1.0
 40
1.0
 10
0.9258181937
 20
-25.0292345619
 30
0.0
 10
0.9512115067
 20
-25.0419312184
 30
0.0
 10
1.0095556601
 20
-25.0600755146
 30
0.0
 10
1.1018907223
 20
-25.0688311645
 30
0.0
 10
1.1943250531
 20
-25.0603290845
 30
0.0
 10
1.2528216339
 20
-25.0423589418
 30
0.0
 10
1.2783401534
 20
-25.0297472858
 30
0.0
 11
0.9258181937
 21
-25.0292345619
 31
0.0
 11
1.0065881316
 21
-25.0562613266
 31
0.0
 11
1.1018676637
 21
-25.065845556
 31
0.0
 11
1.1972571015
 21
-25.0565386465
 31
0.0
 11
1.2783401534
 21
-25.0297472858
 31
0.0
  0
SPLINE
  5
4C2
100
AcDbEntity
  8
0
100
AcDbSpline
 62
253
  6
CONTINUOUS
 70
0
 71
3
 72
11
 73
7
 74
5
 42
0.0000001
 43
0.0000001
 44
0.0000000001
 12
0.3239339031
 22
-0.1619669516
 32
0.0
 13
0.3246816256
 23
0.1604627963
 33
0.0
 40
0.0
 40
0.0
 40
0.0
 40
0.0
 40
0.2351713294
 40
0.4995792494
 40
0.7642136314
 40
1.0
 40
1.0
 40
1.0
 40
1.0
 10
0.9258181937
 20
-25.3692084961
 30
0.0
 10
0.9512115159
 20
-25.3819051572
 30
0.0
 10
1.0095556879
 20
-25.400049455
 30
0.0
 10
1.1018907717
 20
-25.4088050992
 30
0.0
 10
1.1943250922
 20
-25.4003030117
 30
0.0
 10
1.2528216529
 20
-25.3823328666
 30
0.0
 10
1.2783401534
 20
-25.3697212199
 30
0.0
 11
0.9258181937
 21
-25.3692084961
 31
0.0
 11
1.0065881622
 21
-25.3962352667
 31
0.0
 11
1.1018677164
 21
-25.4058194901
 31
0.0
 11
1.1972571643
 21
-25.3965125687
 31
0.0
 11
1.2783401534
 21
-25.3697212199
 31
0.0
  0
SPLINE
  5
4C3
100
AcDbEntity
  8
0
100
AcDbSpline
 62
253
  6
CONTINUOUS
 70
0
 71
3
 72
10
 73
6
 74
4
 42
0.0000001
 43
0.0000001
 44
0.0000000001
 12
0.327916107
 22
-0.1620749065
 32
0.0
 13
-0.0017232536
 23
-0.3657790029
 33
0.0
 40
0.0
 40
0.0
 40
0.0
 40
0.0
 40
0.2309050423
 40
0.4904004652
 40
1.0
 40
1.0
 40
1.0
 40
1.0
 10
3.2311144123
 20
17.9808811501
 30
0.0
 10
3.2563535731
 20
17.9684065124
 30
0.0
 10
3.3046518107
 20
17.9308811491
 30
0.0
 10
3.3777572168
 20
17.8328754091
 30
0.0
 10
3.408180839
 20
17.7381252145
 30
0.0
 10
3.4078881159
 20
17.6759916113
 30
0.0
 11
3.2311144123
 21
17.9808811501
 31
0.0
 11
3.2990764549
 21
17.9307328978
 31
0.0
 11
3.3565359944
 21
17.8551814342
 31
0.0
 11
3.4078881159
 21
17.6759916113
 31
0.0
  0
SPLINE
  5
4C4
100
AcDbEntity
  8
0
100
AcDbSpline
 62
7
  6
CONTINUOUS
 70
0
 71
3
 72
10
 73
6
 74
4
 42
0.0000001
 43
0.0000001
 44
0.0000000001
 12
0.3269271029
 22
-0.1634635514
 32
0.0
 13
-0.0
 23
-0.3655156129
 33
0.0
 40
0.0
 40
0.0
 40
0.0
 40
0.0
 40
0.2306385419
 40
0.4902623596
 40
1.0
 40
1.0
 40
1.0
 40
1.0
 10
2.7028472405
 20
17.71744233
 30
0.0
 10
2.7279812373
 20
17.7048753316
 30
0.0
 10
2.7760711221
 20
17.6672103422
 30
0.0
 10
2.8489786477
 20
17.5691941145
 30
0.0
 10
2.8796209442
 20
17.4746584799
 30
0.0
 10
2.8796209442
 20
17.4125527912
 30
0.0
 11
2.7028472405
 21
17.71744233
 31
0.0
 11
2.7704956095
 21
17.6671380225
 31
0.0
 11
2.8278453566
 21
17.5915313867
 31
0.0
 11
2.8796209442
 21
17.4125527912
 31
0.0
  0
SPLINE
  5
4C5
100
AcDbEntity
  8
0
100
AcDbSpline
 62
253
  6
CONTINUOUS
 70
0
 71
3
 72
10
 73
6
 74
4
 42
0.0000001
 43
0.0000001
 44
0.0000000001
 12
0.3259151211
 22
-0.1648782993
 32
0.0
 13
0.0017491563
 23
-0.3652430152
 33
0.0
 40
0.0
 40
0.0
 40
0.0
 40
0.0
 40
0.2303738042
 40
0.4901250418
 40
1.0
 40
1.0
 40
1.0
 40
1.0
 10
1.1015664497
 20
16.9147203265
 30
0.0
 10
1.1265938851
 20
16.9020591129
 30
0.0
 10
1.1744724843
 20
16.8642528999
 30
0.0
 10
1.2471809028
 20
16.7662255928
 30
0.0
 10
1.2780428697
 20
16.6719068768
 30
0.0
 10
1.2783401534
 20
16.6098307877
 30
0.0
 11
1.1015664497
 21
16.9147203265
 31
0.0
 11
1.1688980104
 21
16.864256769
 31
0.0
 11
1.2261361203
 21
16.7885946034
 31
0.0
 11
1.2783401534
 21
16.6098307877
 31
0.0
  0
SPLINE
  5
4C6
100
AcDbEntity
  8
0
100
AcDbSpline
 62
253
  6
CONTINUOUS
 70
0
 71
3
 72
10
 73
6
 74
4
 42
0.0000001
 43
0.0000001
 44
0.0000000001
 12
-0.0259765839
 22
-0.2322112443
 32
0.0
 13
0.2092869956
 23
-0.1039028313
 33
0.0
 40
0.0
 40
0.0
 40
0.0
 40
0.0
 40
0.1843376404
 40
0.530870307
 40
1.0
 40
1.0
 40
1.0
 40
1.0
 10
-17.1364120709
 20
19.6349635962
 30
0.0
 10
-17.1380082249
 20
19.6206951719
 30
0.0
 10
-17.1304655685
 20
19.5780413141
 30
0.0
 10
-17.0765642944
 20
19.5174442562
 30
0.0
 10
-17.0219319305
 20
19.4845794426
 30
0.0
 10
-16.9892043491
 20
19.4683314749
 30
0.0
 11
-17.1364120709
 21
19.6349635962
 31
0.0
 11
-17.1302293388
 21
19.5923373768
 31
0.0
 11
-17.0812470575
 21
19.5278626362
 31
0.0
 11
-16.9892043491
 21
19.4683314749
 31
0.0
  0
SPLINE
  5
4C7
100
AcDbEntity
  8
0
100
AcDbSpline
 62
253
  6
CONTINUOUS
 70
0
 71
3
 72
9
 73
5
 74
3
 42
0.0000001
 43
0.0000001
 44
0.0000000001
 12
0.2079506899
 22
0.1209375616
 32
0.0
 13
0.2167191235
 23
-0.1044136234
 33
0.0
 40
0.0
 40
0.0
 40
0.0
 40
0.0
 40
0.4579301649
 40
1.0
 40
1.0
 40
1.0
 40
1.0
 10
-16.5659702469
 20
20.5468842448
 30
0.0
 10
-16.534227949
 20
20.565344564
 30
0.0
 10
-16.4506380687
 20
20.5822162206
 30
0.0
 10
-16.3719491232
 20
20.5568820439
 30
0.0
 10
-16.3327901567
 20
20.538015552
 30
0.0
 11
-16.5659702469
 21
20.5468842448
 31
0.0
 11
-16.4586990199
 21
20.5719460802
 31
0.0
 11
-16.3327901567
 21
20.538015552
 31
0.0
  0
SPLINE
  5
4C8
100
AcDbEntity
  8
0
100
AcDbSpline
 62
253
  6
CONTINUOUS
 70
0
 71
3
 72
9
 73
5
 74
3
 42
0.0000001
 43
0.0000001
 44
0.0000000001
 12
-0.000253196
 22
-0.1179202082
 32
0.0
 13
-0.1052238307
 23
-0.053227672
 33
0.0
 40
0.0
 40
0.0
 40
0.0
 40
0.0
 40
0.4326529399
 40
1.0
 40
1.0
 40
1.0
 40
1.0
 10
3.4800855707
 20
-24.230937553
 30
0.0
 10
3.4800490553
 20
-24.2479437279
 30
0.0
 10
3.4617478172
 20
-24.2867780168
 30
0.0
 10
3.4277875929
 20
-24.3086093739
 30
0.0
 10
3.4078881159
 20
-24.3186755616
 30
0.0
 11
3.4800855707
 21
-24.230937553
 31
0.0
 11
3.4612817032
 21
-24.278364512
 31
0.0
 11
3.4078881159
 21
-24.3186755616
 31
0.0
  0
SPLINE
  5
4C9
100
AcDbEntity
  8
0
100
AcDbSpline
 62
253
  6
CONTINUOUS
 70
0
 71
3
 72
9
 73
5
 74
3
 42
0.0000001
 43
0.0000001
 44
0.0000000001
 12
0.0
 22
-0.1557476744
 32
0.0
 13
0.1391746184
 23
-0.0699125432
 33
0.0
 40
0.0
 40
0.0
 40
0.0
 40
0.0
 40
0.5514783103
 40
1.0
 40
1.0
 40
1.0
 40
1.0
 10
0.9258181937
 20
-25.3692084961
 30
0.0
 10
0.9258181937
 20
-25.3978389842
 30
0.0
 10
0.9331753296
 20
-25.4510915215
 30
0.0
 10
0.9698240804
 20
-25.4938942763
 30
0.0
 10
0.990631692
 20
-25.5043467069
 30
0.0
 11
0.9258181937
 21
-25.3692084961
 31
0.0
 11
0.9428412053
 21
-25.4533961479
 31
0.0
 11
0.990631692
 21
-25.5043467069
 31
0.0
  0
SPLINE
  5
4CA
100
AcDbEntity
  8
0
100
AcDbSpline
 62
253
  6
CONTINUOUS
 70
0
 71
3
 72
9
 73
5
 74
3
 42
0.0000001
 43
0.0000001
 44
0.0000000001
 12
-0.1019364602
 22
0.0506833638
 32
0.0
 13
-0.1021121392
 23
-0.0503284841
 33
0.0
 40
0.0
 40
0.0
 40
0.0
 40
0.0
 40
0.4641918988
 40
1.0
 40
1.0
 40
1.0
 40
1.0
 10
-8.9619531789
 20
24.1393918966
 30
0.0
 10
-8.9777258719
 20
24.1472341655
 30
0.0
 10
-9.0171832486
 20
24.1538457258
 30
0.0
 10
-9.0543060766
 20
24.1416989496
 30
0.0
 10
-9.0725435804
 20
24.1327101464
 30
0.0
 11
-8.9619531789
 21
24.1393918966
 31
0.0
 11
-9.0138544263
 21
24.1493302949
 31
0.0
 11
-9.0725435804
 21
24.1327101464
 31
0.0
  0
SPLINE
  5
4CB
100
AcDbEntity
  8
0
100
AcDbSpline
 62
253
  6
CONTINUOUS
 70
0
 71
3
 72
9
 73
5
 74
3
 42
0.0000001
 43
0.0000001
 44
0.0000000001
 12
0.1035822819
 22
0.0528648087
 32
0.0
 13
0.104257088
 23
-0.051521226
 33
0.0
 40
0.0
 40
0.0
 40
0.0
 40
0.0
 40
0.4633404559
 40
1.0
 40
1.0
 40
1.0
 40
1.0
 10
-12.9935426066
 20
23.9123545894
 30
0.0
 10
-12.9775446527
 20
23.9205193909
 30
0.0
 10
-12.9372085571
 20
23.9274843327
 30
0.0
 10
-12.8992798005
 20
23.9150348106
 30
0.0
 10
-12.8806296134
 20
23.9058183581
 30
0.0
 11
-12.9935426066
 21
23.9123545894
 31
0.0
 11
-12.9406827809
 21
23.9228056874
 31
0.0
 11
-12.8806296134
 21
23.9058183581
 31
0.0
  0
SPLINE
  5
4CC
100
AcDbEntity
  8
0
100
AcDbSpline
 62
253
  6
CONTINUOUS
 70
0
 71
3
 72
10
 73
6
 74
4
 42
0.0000001
 43
0.0000001
 44
0.0000000001
 12
-0.3887795383
 22
0.2499733162
 32
0.0
 13
-0.0596516811
 23
0.4583425194
 33
0.0
 40
0.0
 40
0.0
 40
0.0
 40
0.0
 40
0.2243519861
 40
0.4623977946
 40
1.0
 40
1.0
 40
1.0
 40
1.0
 10
-16.7740561847
 20
-17.664570296
 30
0.0
 10
-16.8031306719
 20
-17.6458762927
 30
0.0
 10
-16.8578383605
 20
-17.5986553702
 30
0.0
 10
-16.9459405887
 20
-17.4707704972
 30
0.0
 10
-16.9785148986
 20
-17.3518442562
 30
0.0
 10
-16.9892045237
 20
-17.2697089398
 30
0.0
 11
-16.7740561847
 21
-17.664570296
 31
0.0
 11
-16.8529296374
 21
-17.5972494037
 31
0.0
 11
-16.9161806806
 21
-17.507220672
 31
0.0
 11
-16.9892045237
 21
-17.2697089398
 31
0.0
  0
SPLINE
  5
4CD
100
AcDbEntity
  8
0
100
AcDbSpline
 62
253
  6
CONTINUOUS
 70
0
 71
3
 72
9
 73
5
 74
3
 42
0.0000001
 43
0.0000001
 44
0.0000000001
 12
0.1036396474
 22
0.053164101
 32
0.0
 13
0.1044250911
 23
-0.0516042488
 33
0.0
 40
0.0
 40
0.0
 40
0.0
 40
0.0
 40
0.4633167549
 40
1.0
 40
1.0
 40
1.0
 40
1.0
 10
-0.690057248
 20
17.760437261
 30
0.0
 10
-0.6740512529
 20
17.7686478673
 30
0.0
 10
-0.6336506383
 20
17.7756853906
 30
0.0
 10
-0.5956526863
 20
17.7632210736
 30
0.0
 10
-0.5769716207
 20
17.7539893617
 30
0.0
 11
-0.690057248
 21
17.760437261
 31
0.0
 11
-0.637130451
 21
17.7709827601
 31
0.0
 11
-0.5769716207
 21
17.7539893617
 31
0.0
  0
SPLINE
  5
4CE
100
AcDbEntity
  8
0
100
AcDbSpline
 62
253
  6
CONTINUOUS
 70
0
 71
3
 72
9
 73
5
 74
3
 42
0.0000001
 43
0.0000001
 44
0.0000000001
 12
0.0975881115
 22
0.0345244798
 32
0.0
 13
0.0923710692
 23
-0.0467222087
 33
0.0
 40
0.0
 40
0.0
 40
0.0
 40
0.0
 40
0.4657827872
 40
1.0
 40
1.0
 40
1.0
 40
1.0
 10
1.4395331972
 20
18.8381633075
 30
0.0
 10
1.454684818
 20
18.8435236103
 30
0.0
 10
1.4905129506
 20
18.8463196223
 30
0.0
 10
1.5237861227
 20
18.8346408617
 30
0.0
 10
1.5402348611
 20
18.8263209256
 30
0.0
 11
1.4395331972
 21
18.8381633075
 31
0.0
 11
1.4875067651
 21
18.8429879247
 31
0.0
 11
1.5402348611
 21
18.8263209256
 31
0.0
  0
SPLINE
  5
4CF
100
AcDbEntity
  8
0
100
AcDbSpline
 62
7
  6
CONTINUOUS
 70
0
 71
3
 72
9
 73
5
 74
3
 42
0.0000001
 43
0.0000001
 44
0.0000000001
 12
0.1026923057
 22
0.0500197096
 32
0.0
 13
0.1021672394
 23
-0.0510836197
 33
0.0
 40
0.0
 40
0.0
 40
0.0
 40
0.0
 40
0.4638305674
 40
1.0
 40
1.0
 40
1.0
 40
1.0
 10
0.8948528664
 20
18.5735034721
 30
0.0
 10
0.9107301432
 20
18.5812370288
 30
0.0
 10
0.9503701708
 20
18.5875280051
 30
0.0
 10
0.9875253322
 20
18.5751032842
 30
0.0
 10
1.0057849824
 20
18.5659734591
 30
0.0
 11
0.8948528664
 21
18.5735034721
 31
0.0
 11
0.946968065
 21
18.5830464505
 31
0.0
 11
1.0057849824
 21
18.5659734591
 31
0.0
  0
SPLINE
  5
4D0
100
AcDbEntity
  8
0
100
AcDbSpline
 62
253
  6
CONTINUOUS
 70
0
 71
3
 72
9
 73
5
 74
3
 42
0.0000001
 43
0.0000001
 44
0.0000000001
 12
-0.10200315
 22
0.0509965498
 32
0.0
 13
-0.1022910174
 23
-0.0504166487
 33
0.0
 40
0.0
 40
0.0
 40
0.0
 40
0.0
 40
0.4641675224
 40
1.0
 40
1.0
 40
1.0
 40
1.0
 10
3.3418893085
 20
17.9874709145
 30
0.0
 10
3.3261071254
 20
17.9953612286
 30
0.0
 10
3.2865810067
 20
18.002048388
 30
0.0
 10
3.2493846954
 20
17.9898861093
 30
0.0
 10
3.2311144123
 20
17.9808811501
 30
0.0
 11
3.3418893085
 21
17.9874709145
 31
0.0
 11
3.2899156047
 21
17.9975080135
 31
0.0
 11
3.2311144123
 21
17.9808811501
 31
0.0
  0
SPLINE
  5
4D1
100
AcDbEntity
  8
0
100
AcDbSpline
 62
253
  6
CONTINUOUS
 70
0
 71
3
 72
9
 73
5
 74
3
 42
0.0000001
 43
0.0000001
 44
0.0000000001
 12
-0.102003147
 22
0.050996529
 32
0.0
 13
-0.1022910066
 23
-0.0504166433
 33
0.0
 40
0.0
 40
0.0
 40
0.0
 40
0.0
 40
0.464167748
 40
1.0
 40
1.0
 40
1.0
 40
1.0
 10
1.6510097465
 20
18.8329106964
 30
0.0
 10
1.6352275561
 20
18.8408010111
 30
0.0
 10
1.5957014388
 20
18.8474881602
 30
0.0
 10
1.5585051346
 20
18.8353258802
 30
0.0
 10
1.5402348611
 20
18.8263209256
 30
0.0
 11
1.6510097465
 21
18.8329106964
 31
0.0
 11
1.5990360206
 21
18.8429477874
 31
0.0
 11
1.5402348611
 21
18.8263209256
 31
0.0
  0
SPLINE
  5
4D2
100
AcDbEntity
  8
0
100
AcDbSpline
 62
253
  6
CONTINUOUS
 70
0
 71
3
 72
9
 73
5
 74
3
 42
0.0000001
 43
0.0000001
 44
0.0000000001
 12
-0.0972978999
 22
0.0353697585
 32
0.0
 13
-0.0928607827
 23
-0.0457687251
 33
0.0
 40
0.0
 40
0.0
 40
0.0
 40
0.0
 40
0.4658745477
 40
1.0
 40
1.0
 40
1.0
 40
1.0
 10
-10.6625899055
 20
24.989013649
 30
0.0
 10
-10.6776994439
 20
24.9945062724
 30
0.0
 10
-10.7134972693
 20
24.9976349639
 30
0.0
 10
-10.746890029
 20
24.986298669
 30
0.0
 10
-10.7634231315
 20
24.978149922
 30
0.0
 11
-10.6625899055
 21
24.989013649
 31
0.0
 11
-10.7105320421
 21
24.9942819603
 31
0.0
 11
-10.7634231315
 21
24.978149922
 31
0.0
  0
SPLINE
  5
4D3
100
AcDbEntity
  8
0
100
AcDbSpline
 62
253
  6
CONTINUOUS
 70
0
 71
3
 72
9
 73
5
 74
3
 42
0.0000001
 43
0.0000001
 44
0.0000000001
 12
0.1023513264
 22
0.0498536012
 32
0.0
 13
0.1015908034
 23
-0.0513856423
 33
0.0
 40
0.0
 40
0.0
 40
0.0
 40
0.0
 40
0.4641049814
 40
1.0
 40
1.0
 40
1.0
 40
1.0
 10
-10.8739351608
 20
24.9858845734
 30
0.0
 10
-10.8581012406
 20
24.9935970083
 30
0.0
 10
-10.8185735731
 20
24.9998591678
 30
0.0
 10
-10.7815704667
 20
24.9873290252
 30
0.0
 10
-10.7634231315
 20
24.978149922
 30
0.0
 11
-10.8739351608
 21
24.9858845734
 31
0.0
 11
-10.8219550397
 21
24.9953618687
 31
0.0
 11
-10.7634231315
 21
24.978149922
 31
0.0
  0
SPLINE
  5
4D4
100
AcDbEntity
  8
0
100
AcDbSpline
 62
7
  6
CONTINUOUS
 70
0
 71
3
 72
9
 73
5
 74
3
 42
0.0000001
 43
0.0000001
 44
0.0000000001
 12
0.1026923057
 22
0.0500197096
 32
0.0
 13
0.1021672394
 23
-0.0510836197
 33
0.0
 40
0.0
 40
0.0
 40
0.0
 40
0.0
 40
0.4638305674
 40
1.0
 40
1.0
 40
1.0
 40
1.0
 10
-11.4088051263
 20
24.7253324684
 30
0.0
 10
-11.3929278495
 20
24.7330660252
 30
0.0
 10
-11.3532878219
 20
24.7393570015
 30
0.0
 10
-11.3161326605
 20
24.7269322805
 30
0.0
 10
-11.2978730102
 20
24.7178024554
 30
0.0
 11
-11.4088051263
 21
24.7253324684
 31
0.0
 11
-11.3566899276
 21
24.7348754468
 31
0.0
 11
-11.2978730102
 21
24.7178024554
 31
0.0
  0
SPLINE
  5
4D5
100
AcDbEntity
  8
RACCORDO
100
AcDbSpline
 62
253
  6
CONTINUOUS
 70
0
 71
3
 72
11
 73
7
 74
5
 42
0.0000001
 43
0.0000001
 44
0.0000000001
 12
-3.0552184049
 22
-1.6893846074
 32
0.0
 13
-3.1226148619
 23
1.5612995477
 33
0.0
 40
0.0
 40
0.0
 40
0.0
 40
0.0
 40
0.2262791568
 40
0.4628718954
 40
0.7190608537
 40
1.0
 40
1.0
 40
1.0
 40
1.0
 10
-6.5653930769
 20
-9.3199269027
 30
0.0
 10
-6.7958371584
 20
-9.4473510776
 30
0.0
 10
-7.3092826661
 20
-9.6382994898
 30
0.0
 10
-8.1536750125
 20
-9.6968294676
 30
0.0
 10
-9.0472759016
 20
-9.5362906365
 30
0.0
 10
-9.6309647414
 20
-9.3012527253
 30
0.0
 10
-9.9233863259
 20
-9.1550426713
 30
0.0
 11
-6.5653930769
 21
-9.3199269027
 31
0.0
 11
-7.3050366732
 21
-9.5974154714
 31
0.0
 11
-8.1284641404
 21
-9.6624190703
 31
0.0
 11
-9.0103507022
 21
-9.5133104714
 31
0.0
 11
-9.9233863259
 21
-9.1550426713
 31
0.0
  0
SPLINE
  5
4D6
100
AcDbEntity
  8
0
100
AcDbSpline
 62
7
  6
CONTINUOUS
 70
0
 71
3
 72
9
 73
5
 74
3
 42
0.0000001
 43
0.0000001
 44
0.0000000001
 12
-0.041109797
 22
0.0205498792
 32
0.0
 13
-0.044551098
 23
-0.0112921481
 33
0.0
 40
0.0
 40
0.0
 40
0.0
 40
0.0
 40
0.3569528077
 40
1.0
 40
1.0
 40
1.0
 40
1.0
 10
4.2822423159
 20
21.8862419992
 30
0.0
 10
4.2773508967
 20
21.8886871116
 30
0.0
 10
4.2611066587
 20
21.8885001584
 30
0.0
 10
4.2464125001
 20
21.8853726727
 30
0.0
 10
4.2368630139
 20
21.8829522113
 30
0.0
 11
4.2822423159
 21
21.8862419992
 31
0.0
 11
4.2659515478
 21
21.8881789758
 31
0.0
 11
4.2368630139
 21
21.8829522113
 31
0.0
  0
SPLINE
  5
4D7
100
AcDbEntity
  8
0
100
AcDbSpline
 62
7
  6
CONTINUOUS
 70
0
 71
3
 72
9
 73
5
 74
3
 42
0.0000001
 43
0.0000001
 44
0.0000000001
 12
-0.0822375787
 22
-0.0208443554
 32
0.0
 13
-0.0792245521
 23
-0.0303476004
 33
0.0
 40
0.0
 40
0.0
 40
0.0
 40
0.0
 40
0.201117061
 40
1.0
 40
1.0
 40
1.0
 40
1.0
 10
4.2368630139
 20
21.8829522113
 30
0.0
 10
4.2313498872
 20
21.8815548261
 30
0.0
 10
4.204123545
 20
21.8738745785
 30
0.0
 10
4.1775200053
 20
21.864161085
 30
0.0
 10
4.1564229576
 20
21.8560796916
 30
0.0
 11
4.2368630139
 21
21.8829522113
 31
0.0
 11
4.2204237145
 21
21.8783833276
 31
0.0
 11
4.1564229576
 21
21.8560796916
 31
0.0
  0
SPLINE
  5
4D8
100
AcDbEntity
  8
0
100
AcDbSpline
 62
253
  6
CONTINUOUS
 70
0
 71
3
 72
9
 73
5
 74
3
 42
0.0000001
 43
0.0000001
 44
0.0000000001
 12
0.000732181
 22
-0.1546725058
 32
0.0
 13
-0.1376234498
 23
-0.070596786
 33
0.0
 40
0.0
 40
0.0
 40
0.0
 40
0.0
 40
0.55093116
 40
1.0
 40
1.0
 40
1.0
 40
1.0
 10
3.4078881159
 20
-24.3186755616
 30
0.0
 10
3.4080225764
 20
-24.347080196
 30
0.0
 10
3.4009396917
 20
-24.3999997918
 30
0.0
 10
3.3648008306
 20
-24.4426716964
 30
0.0
 10
3.3442000296
 20
-24.453239302
 30
0.0
 11
3.4078881159
 21
-24.3186755616
 31
0.0
 11
3.3913989932
 21
-24.4022798726
 31
0.0
 11
3.3442000296
 21
-24.453239302
 31
0.0
  0
SPLINE
  5
4D9
100
AcDbEntity
  8
0
100
AcDbSpline
 62
7
  6
CONTINUOUS
 70
0
 71
3
 72
9
 73
5
 74
3
 42
0.0000001
 43
0.0000001
 44
0.0000000001
 12
-0.0
 22
-0.1549937462
 32
0.0
 13
-0.1379077365
 23
-0.070742615
 33
0.0
 40
0.0
 40
0.0
 40
0.0
 40
0.0
 40
0.5513163479
 40
1.0
 40
1.0
 40
1.0
 40
1.0
 10
2.8796209442
 20
-24.5896866203
 30
0.0
 10
2.8796209442
 20
-24.618170149
 30
0.0
 10
2.8723212018
 20
-24.6711314055
 30
0.0
 10
2.8361414537
 20
-24.7138839643
 30
0.0
 10
2.8155158047
 20
-24.7244643159
 30
0.0
 11
2.8796209442
 21
-24.5896866203
 31
0.0
 11
2.86279394
 21
-24.6734640313
 31
0.0
 11
2.8155158047
 21
-24.7244643159
 31
0.0
  0
SPLINE
  5
4DA
100
AcDbEntity
  8
0
100
AcDbSpline
 62
7
  6
CONTINUOUS
 70
0
 71
3
 72
9
 73
5
 74
3
 42
0.0000001
 43
0.0000001
 44
0.0000000001
 12
-0.0419683928
 22
0.0209587858
 32
0.0
 13
-0.0454383027
 23
-0.0116609322
 33
0.0
 40
0.0
 40
0.0
 40
0.0
 40
0.0
 40
0.3558279706
 40
1.0
 40
1.0
 40
1.0
 40
1.0
 10
-1.3082085712
 20
24.681467457
 30
0.0
 10
-1.3131864138
 20
24.6839533644
 30
0.0
 10
-1.3297794803
 20
24.6836771913
 30
0.0
 10
-1.3447579839
 20
24.6804419319
 30
0.0
 10
-1.3545146785
 20
24.6779380498
 30
0.0
 11
-1.3082085712
 21
24.681467457
 31
0.0
 11
-1.3247905426
 21
24.6833821638
 31
0.0
 11
-1.3545146785
 21
24.6779380498
 31
0.0
  0
SPLINE
  5
4DB
100
AcDbEntity
  8
0
100
AcDbSpline
 62
7
  6
CONTINUOUS
 70
0
 71
3
 72
9
 73
5
 74
3
 42
0.0000001
 43
0.0000001
 44
0.0000000001
 12
-0.0831727347
 22
-0.021344803
 32
0.0
 13
-0.0801484293
 23
-0.0308145046
 33
0.0
 40
0.0
 40
0.0
 40
0.0
 40
0.0
 40
0.2014341975
 40
1.0
 40
1.0
 40
1.0
 40
1.0
 10
-1.3545146785
 20
24.6779380498
 30
0.0
 10
-1.3600992895
 20
24.6765048587
 30
0.0
 10
-1.3876359749
 20
24.6686613565
 30
0.0
 10
-1.4145473436
 20
24.6587923211
 30
0.0
 10
-1.4358819419
 20
24.6505898512
 30
0.0
 11
-1.3545146785
 21
24.6779380498
 31
0.0
 11
-1.3711675771
 21
24.6732627721
 31
0.0
 11
-1.4358819419
 21
24.6505898512
 31
0.0
  0
SPLINE
  5
4DC
100
AcDbEntity
  8
0
100
AcDbSpline
 62
253
  6
CONTINUOUS
 70
0
 71
3
 72
9
 73
5
 74
3
 42
0.0000001
 43
0.0000001
 44
0.0000000001
 12
-0.0007490217
 22
-0.1571443117
 32
0.0
 13
-0.1412780982
 23
-0.0688142043
 33
0.0
 40
0.0
 40
0.0
 40
0.0
 40
0.0
 40
0.5521018974
 40
1.0
 40
1.0
 40
1.0
 40
1.0
 10
1.2783401534
 20
-25.3697212199
 30
0.0
 10
1.2782023079
 20
-25.3986411108
 30
0.0
 10
1.2705417272
 20
-25.4523510699
 30
0.0
 10
1.2331712205
 20
-25.4952977832
 30
0.0
 10
1.2120784898
 20
-25.5055717004
 30
0.0
 11
1.2783401534
 21
-25.3697212199
 31
0.0
 11
1.2606873898
 21
-25.4546670365
 31
0.0
 11
1.2120784898
 21
-25.5055717004
 31
0.0
  0
SPLINE
  5
4DD
100
AcDbEntity
  8
0
100
AcDbSpline
 62
253
  6
CONTINUOUS
 70
0
 71
3
 72
9
 73
5
 74
3
 42
0.0000001
 43
0.0000001
 44
0.0000000001
 12
0.0
 22
0.2514083247
 32
0.0
 13
0.1603864367
 23
0.1936035553
 33
0.0
 40
0.0
 40
0.0
 40
0.0
 40
0.0
 40
0.4868891312
 40
1.0
 40
1.0
 40
1.0
 40
1.0
 10
0.9258181937
 20
-25.0292345619
 30
0.0
 10
0.9258181937
 20
-24.9884319017
 30
0.0
 10
0.9442973275
 20
-24.9045957415
 30
0.0
 10
0.9867745334
 20
-24.8306537509
 30
0.0
 10
1.0142065414
 20
-24.7975403881
 30
0.0
 11
0.9258181937
 21
-25.0292345619
 31
0.0
 11
0.9495017801
 21
-24.9091395933
 31
0.0
 11
1.0142065414
 21
-24.7975403881
 31
0.0
  0
SPLINE
  5
4DE
100
AcDbEntity
  8
0
100
AcDbSpline
 62
253
  6
CONTINUOUS
 70
0
 71
3
 72
11
 73
7
 74
5
 42
0.0000001
 43
0.0000001
 44
0.0000000001
 12
-0.1867733391
 22
0.3016213508
 32
0.0
 13
-0.3163609943
 23
0.1605473161
 33
0.0
 40
0.0
 40
0.0
 40
0.0
 40
0.0
 40
0.2188690821
 40
0.4829783205
 40
0.7560361716
 40
1.0
 40
1.0
 40
1.0
 40
1.0
 10
1.2783401534
 20
-25.0297472858
 30
0.0
 10
1.2647138503
 20
-25.0077420897
 30
0.0
 10
1.2286879252
 20
-24.9629697514
 30
0.0
 10
1.1645798342
 20
-24.9004911013
 30
0.0
 10
1.0919507044
 20
-24.8431661345
 30
0.0
 10
1.0399334211
 20
-24.8105963007
 30
0.0
 10
1.0142065414
 20
-24.7975403881
 30
0.0
 11
1.2783401534
 21
-25.0297472858
 31
0.0
 11
1.2310503873
 21
-24.9681614016
 31
0.0
 11
1.1642758418
 21
-24.902432109
 31
0.0
 11
1.0881452191
 21
-24.8425296615
 31
0.0
 11
1.0142065414
 21
-24.7975403881
 31
0.0
  0
SPLINE
  5
4DF
100
AcDbEntity
  8
0
100
AcDbSpline
 62
7
  6
CONTINUOUS
 70
0
 71
3
 72
9
 73
5
 74
3
 42
0.0000001
 43
0.0000001
 44
0.0000000001
 12
-0.3674009593
 22
0.0767202179
 32
0.0
 13
-0.3357016017
 23
0.1678508009
 33
0.0
 40
0.0
 40
0.0
 40
0.0
 40
0.0
 40
0.4660627437
 40
1.0
 40
1.0
 40
1.0
 40
1.0
 10
1.9895607615
 20
-24.1782508087
 30
0.0
 10
1.9324834618
 20
-24.1663319969
 30
0.0
 10
1.8128650454
 20
-24.1284577774
 30
0.0
 10
1.6962724375
 20
-24.0823549026
 30
0.0
 10
1.6365245734
 20
-24.0524809706
 30
0.0
 11
1.9895607615
 21
-24.1782508087
 31
0.0
 11
1.8216413365
 21
-24.1292410885
 31
0.0
 11
1.6365245734
 21
-24.0524809706
 31
0.0
  0
SPLINE
  5
4E0
100
AcDbEntity
  8
0
100
AcDbSpline
 62
253
  6
CONTINUOUS
 70
0
 71
3
 72
8
 73
4
 74
2
 42
0.0000001
 43
0.0000001
 44
0.0000000001
 12
0.0497490667
 22
0.131320529
 32
0.0
 13
-0.0126760618
 23
0.1398548119
 33
0.0
 40
0.0
 40
0.0
 40
0.0
 40
0.0
 40
1.0
 40
1.0
 40
1.0
 40
1.0
 10
3.4078881159
 20
-23.9711440449
 30
0.0
 10
3.4244711382
 20
-23.9273705352
 30
0.0
 10
3.4314183139
 20
-23.8786674775
 30
0.0
 10
3.42719296
 20
-23.8320492069
 30
0.0
 11
3.4078881159
 21
-23.9711440449
 31
0.0
 11
3.42719296
 21
-23.8320492069
 31
0.0
  0
SPLINE
  5
4E1
100
AcDbEntity
  8
0
100
AcDbSpline
 62
253
  6
CONTINUOUS
 70
0
 71
3
 72
8
 73
4
 74
2
 42
0.0000001
 43
0.0000001
 44
0.0000000001
 12
-0.0041143027
 22
0.0453930442
 32
0.0
 13
-0.0113590479
 23
0.0441410011
 33
0.0
 40
0.0
 40
0.0
 40
0.0
 40
0.0
 40
1.0
 40
1.0
 40
1.0
 40
1.0
 10
3.42719296
 20
-23.8320492069
 30
0.0
 10
3.4258215258
 20
-23.8169181921
 30
0.0
 10
3.423275086
 20
-23.8018395961
 30
0.0
 10
3.4194887367
 20
-23.7871259291
 30
0.0
 11
3.42719296
 21
-23.8320492069
 31
0.0
 11
3.4194887367
 21
-23.7871259291
 31
0.0
  0
SPLINE
  5
4E2
100
AcDbEntity
  8
0
100
AcDbSpline
 62
253
  6
CONTINUOUS
 70
0
 71
3
 72
8
 73
4
 74
2
 42
0.0000001
 43
0.0000001
 44
0.0000000001
 12
-0.0109484603
 22
0.0425454669
 32
0.0
 13
-0.0181384268
 23
0.0400122857
 33
0.0
 40
0.0
 40
0.0
 40
0.0
 40
0.0
 40
1.0
 40
1.0
 40
1.0
 40
1.0
 10
3.4194887367
 20
-23.7871259291
 30
0.0
 10
3.4158392499
 20
-23.7729441068
 30
0.0
 10
3.4110105449
 20
-23.75900218
 30
0.0
 10
3.4049644026
 20
-23.7456647514
 30
0.0
 11
3.4194887367
 21
-23.7871259291
 31
0.0
 11
3.4049644026
 21
-23.7456647514
 31
0.0
  0
SPLINE
  5
4E3
100
AcDbEntity
  8
0
100
AcDbSpline
 62
253
  6
CONTINUOUS
 70
0
 71
3
 72
9
 73
5
 74
3
 42
0.0000001
 43
0.0000001
 44
0.0000000001
 12
-0.0495342247
 22
0.1092695395
 32
0.0
 13
-0.1040303277
 23
0.0597592051
 33
0.0
 40
0.0
 40
0.0
 40
0.0
 40
0.0
 40
0.2644149057
 40
1.0
 40
1.0
 40
1.0
 40
1.0
 10
3.4049644026
 20
-23.7456647514
 30
0.0
 10
3.4005985401
 20
-23.7360339198
 30
0.0
 10
3.3817789119
 20
-23.7007647711
 30
0.0
 10
3.352314457
 20
-23.6706972095
 30
0.0
 10
3.3268067375
 20
-23.6560445494
 30
0.0
 11
3.4049644026
 21
-23.7456647514
 31
0.0
 11
3.389901924
 21
-23.7177462128
 31
0.0
 11
3.3268067375
 21
-23.6560445494
 31
0.0
  0
SPLINE
  5
4E4
100
AcDbEntity
  8
RACCORDO
100
AcDbSpline
 62
253
  6
CONTINUOUS
 70
0
 71
3
 72
9
 73
5
 74
3
 42
0.0000001
 43
0.0000001
 44
0.0000000001
 12
-0.0865841596
 22
0.0417156008
 32
0.0
 13
-0.0831828787
 23
-0.0481416321
 33
0.0
 40
0.0
 40
0.0
 40
0.0
 40
0.0
 40
0.5419355893
 40
1.0
 40
1.0
 40
1.0
 40
1.0
 10
-2.0281695887
 20
13.385705268
 30
0.0
 10
-2.0438106013
 20
13.3932409909
 30
0.0
 10
-2.0752456929
 20
13.4033625096
 30
0.0
 10
-2.1086387481
 20
13.3966597956
 30
0.0
 10
-2.1213397869
 20
13.3893091395
 30
0.0
 11
-2.0281695887
 21
13.385705268
 31
0.0
 11
-2.0784572336
 21
13.399270234
 31
0.0
 11
-2.1213397869
 21
13.3893091395
 31
0.0
  0
SPLINE
  5
4E5
100
AcDbEntity
  8
RACCORDO
100
AcDbSpline
 62
253
  6
CONTINUOUS
 70
0
 71
3
 72
9
 73
5
 74
3
 42
0.0000001
 43
0.0000001
 44
0.0000000001
 12
-0.0981763478
 22
-0.0679135313
 32
0.0
 13
-0.0900117716
 23
-0.0784137995
 33
0.0
 40
0.0
 40
0.0
 40
0.0
 40
0.0
 40
0.2445613567
 40
1.0
 40
1.0
 40
1.0
 40
1.0
 10
-2.0902746289
 20
13.3462421978
 30
0.0
 10
-2.0982780092
 20
13.340705856
 30
0.0
 10
-2.1306661573
 20
13.3175827269
 30
0.0
 10
-2.1617108088
 20
13.2925901201
 30
0.0
 10
-2.1843769324
 20
13.2728445154
 30
0.0
 11
-2.0902746289
 21
13.3462421978
 31
0.0
 11
-2.1140394332
 21
13.3292839944
 31
0.0
 11
-2.1843769324
 21
13.2728445154
 31
0.0
  0
SPLINE
  5
4E6
100
AcDbEntity
  8
RACCORDO
100
AcDbSpline
 62
253
  6
CONTINUOUS
 70
0
 71
3
 72
10
 73
6
 74
4
 42
0.0000001
 43
0.0000001
 44
0.0000000001
 12
-0.8285041915
 22
-0.7217518378
 32
0.0
 13
-0.1248394345
 23
-1.0916776202
 33
0.0
 40
0.0
 40
0.0
 40
0.0
 40
0.0
 40
0.2412866779
 40
0.4972613477
 40
1.0
 40
1.0
 40
1.0
 40
1.0
 10
-2.1843769324
 20
13.2728445154
 30
0.0
 10
-2.251012607
 20
13.2147948143
 30
0.0
 10
-2.3751463788
 20
13.0793869419
 30
0.0
 10
-2.5707144159
 20
12.768814129
 30
0.0
 10
-2.6601958293
 20
12.4972301859
 30
0.0
 10
-2.6811163656
 20
12.3142873408
 30
0.0
 11
-2.1843769324
 21
13.2728445154
 31
0.0
 11
-2.3651496097
 21
13.0789064646
 31
0.0
 11
-2.5157511141
 21
12.8413604994
 31
0.0
 11
-2.6811163656
 21
12.3142873408
 31
0.0
  0
SPLINE
  5
4E7
100
AcDbEntity
  8
RACCORDO
100
AcDbSpline
 62
253
  6
CONTINUOUS
 70
0
 71
3
 72
9
 73
5
 74
3
 42
0.0000001
 43
0.0000001
 44
0.0000000001
 12
-0.0816436075
 22
0.0405328633
 32
0.0
 13
0.0101762899
 23
0.090581647
 33
0.0
 40
0.0
 40
0.0
 40
0.0
 40
0.0
 40
0.3345172787
 40
1.0
 40
1.0
 40
1.0
 40
1.0
 10
-2.6811163627
 20
12.3142873417
 30
0.0
 10
-2.6902200952
 20
12.3188069894
 30
0.0
 10
-2.7156579767
 20
12.3329273222
 30
0.0
 10
-2.7422556333
 20
12.3608401179
 30
0.0
 10
-2.7399982516
 20
12.3809336249
 30
0.0
 11
-2.6811163627
 21
12.3142873417
 31
0.0
 11
-2.7073686979
 21
12.3297973816
 31
0.0
 11
-2.7399982516
 21
12.3809336249
 31
0.0
  0
SPLINE
  5
4E8
100
AcDbEntity
  8
0
100
AcDbSpline
 62
253
  6
CONTINUOUS
 70
0
 71
3
 72
10
 73
6
 74
4
 42
0.0000001
 43
0.0000001
 44
0.0000000001
 12
0.0394099582
 22
-0.0641576145
 32
0.0
 13
-0.0476287455
 23
-0.0583167807
 33
0.0
 40
0.0
 40
0.0
 40
0.0
 40
0.0
 40
0.3488607344
 40
0.6280151011
 40
1.0
 40
1.0
 40
1.0
 40
1.0
 10
3.4078881159
 20
17.3284600945
 30
0.0
 10
3.4124709783
 20
17.3209994037
 30
0.0
 10
3.4200786034
 20
17.3069682748
 30
0.0
 10
3.4289259077
 20
17.2840780692
 30
0.0
 10
3.4291905948
 20
17.26490024
 30
0.0
 10
3.4232848701
 20
17.2576692527
 30
0.0
 11
3.4078881159
 21
17.3284600945
 31
0.0
 11
3.420289999
 21
17.3053046608
 31
0.0
 11
3.4270944275
 21
17.2854175882
 31
0.0
 11
3.4232848701
 21
17.2576692527
 31
0.0
  0
SPLINE
  5
4E9
100
AcDbEntity
  8
RACCORDO
100
AcDbSpline
 62
253
  6
CONTINUOUS
 70
0
 71
3
 72
9
 73
5
 74
3
 42
0.0000001
 43
0.0000001
 44
0.0000000001
 12
-0.0116360349
 22
-0.1644158047
 32
0.0
 13
-0.0511230291
 23
-0.1566984047
 33
0.0
 40
0.0
 40
0.0
 40
0.0
 40
0.0
 40
0.2596887311
 40
1.0
 40
1.0
 40
1.0
 40
1.0
 10
-3.1189133337
 20
7.5835736651
 30
0.0
 10
-3.1199205828
 20
7.5693413546
 30
0.0
 10
-3.1253050167
 20
7.5146664517
 30
0.0
 10
-3.1368164402
 20
7.4604917336
 30
0.0
 10
-3.1494320918
 20
7.421823202
 30
0.0
 11
-3.1189133337
 21
7.5835736651
 31
0.0
 11
-3.1231303298
 21
7.5409781738
 31
0.0
 11
-3.1494320918
 21
7.421823202
 31
0.0
  0
SPLINE
  5
4EA
100
AcDbEntity
  8
RACCORDO
100
AcDbSpline
 62
253
  6
CONTINUOUS
 70
0
 71
3
 72
11
 73
7
 74
5
 42
0.0000001
 43
0.0000001
 44
0.0000000001
 12
-0.1977151431
 22
-0.6060213575
 32
0.0
 13
-0.5701549198
 23
0.2850903909
 33
0.0
 40
0.0
 40
0.0
 40
0.0
 40
0.0
 40
0.2670077382
 40
0.5042616355
 40
0.7388772654
 40
1.0
 40
1.0
 40
1.0
 40
1.0
 10
-3.1494320918
 20
7.421823202
 30
0.0
 10
-3.1670292495
 20
7.367885738
 30
0.0
 10
-3.215780778
 20
7.2692801267
 30
0.0
 10
-3.3431826613
 20
7.1670898948
 30
0.0
 10
-3.5037228931
 20
7.1428674057
 30
0.0
 10
-3.6070709332
 20
7.1761186844
 30
0.0
 10
-3.6566977371
 20
7.2009332119
 30
0.0
 11
-3.1494320918
 21
7.421823202
 31
0.0
 11
-3.2293665943
 21
7.2715545588
 31
0.0
 11
-3.3491957817
 21
7.1792813426
 31
0.0
 11
-3.4967461616
 21
7.1548602537
 31
0.0
 11
-3.6566977371
 21
7.2009332119
 31
0.0
  0
SPLINE
  5
4EB
100
AcDbEntity
  8
RACCORDO
100
AcDbSpline
 62
253
  6
CONTINUOUS
 70
0
 71
3
 72
9
 73
5
 74
3
 42
0.0000001
 43
0.0000001
 44
0.0000000001
 12
-0.0828444292
 22
0.0412391855
 32
0.0
 13
0.00617738
 23
0.0923347705
 33
0.0
 40
0.0
 40
0.0
 40
0.0
 40
0.0
 40
0.3237624106
 40
1.0
 40
1.0
 40
1.0
 40
1.0
 10
-3.1189035601
 20
7.5835774541
 30
0.0
 10
-3.1278441975
 20
7.5880280202
 30
0.0
 10
-3.1538830365
 20
7.6026533027
 30
0.0
 10
-3.1789941547
 20
7.6313336161
 30
0.0
 10
-3.1776016958
 20
7.6521470303
 30
0.0
 11
-3.1189035601
 21
7.5835774541
 31
0.0
 11
-3.1446077464
 21
7.5989715315
 31
0.0
 11
-3.1776016958
 21
7.6521470303
 31
0.0
  0
SPLINE
  5
4EC
100
AcDbEntity
  8
RACCORDO
100
AcDbSpline
 62
253
  6
CONTINUOUS
 70
0
 71
3
 72
9
 73
5
 74
3
 42
0.0000001
 43
0.0000001
 44
0.0000000001
 12
0.0145922904
 22
0.2205007387
 32
0.0
 13
0.1620109865
 23
0.1502862301
 33
0.0
 40
0.0
 40
0.0
 40
0.0
 40
0.0
 40
0.4975761521
 40
1.0
 40
1.0
 40
1.0
 40
1.0
 10
-3.6566977371
 20
7.2009332119
 30
0.0
 10
-3.6542774785
 20
7.2375051816
 30
0.0
 10
-3.6329859452
 20
7.3099791834
 30
0.0
 10
-3.589685074
 20
7.3717588875
 30
0.0
 10
-3.5625523462
 20
7.3969280162
 30
0.0
 11
-3.6566977371
 21
7.2009332119
 31
0.0
 11
-3.6276400436
 21
7.3069801356
 31
0.0
 11
-3.5625523462
 21
7.3969280162
 31
0.0
  0
SPLINE
  5
4ED
100
AcDbEntity
  8
RACCORDO
100
AcDbSpline
 62
253
  6
CONTINUOUS
 70
0
 71
3
 72
9
 73
5
 74
3
 42
0.0000001
 43
0.0000001
 44
0.0000000001
 12
0.0142417393
 22
0.2152036378
 32
0.0
 13
0.1549656525
 23
0.150003598
 33
0.0
 40
0.0
 40
0.0
 40
0.0
 40
0.0
 40
0.4963752776
 40
1.0
 40
1.0
 40
1.0
 40
1.0
 10
-16.4096479196
 20
13.5774083031
 30
0.0
 10
-16.4072915038
 20
13.6130155583
 30
0.0
 10
-16.3868894891
 20
13.6837803893
 30
0.0
 10
-16.3454437779
 20
13.7445002757
 30
0.0
 10
-16.3194289333
 20
13.7696821159
 30
0.0
 11
-16.4096479196
 21
13.5774083031
 31
0.0
 11
-16.3818524694
 21
13.6807924256
 31
0.0
 11
-16.3194289333
 21
13.7696821159
 31
0.0
  0
SPLINE
  5
4EE
100
AcDbEntity
  8
RACCORDO
100
AcDbSpline
 62
253
  6
CONTINUOUS
 70
0
 71
3
 72
11
 73
7
 74
5
 42
0.0000001
 43
0.0000001
 44
0.0000000001
 12
-0.9243239734
 22
0.4621413307
 32
0.0
 13
0.0759218949
 23
1.030623735
 33
0.0
 40
0.0
 40
0.0
 40
0.0
 40
0.0
 40
0.2273659836
 40
0.4833680312
 40
0.7483808642
 40
1.0
 40
1.0
 40
1.0
 40
1.0
 10
-16.4096479196
 20
13.5774083031
 30
0.0
 10
-16.4797011961
 20
13.6124333759
 30
0.0
 10
-16.6124638031
 20
13.7195846439
 30
0.0
 10
-16.7589817548
 20
13.9349652183
 30
0.0
 10
-16.8504276875
 20
14.1877102119
 30
0.0
 10
-16.8666632157
 20
14.3678231547
 30
0.0
 10
-16.8602954152
 20
14.4542647059
 30
0.0
 11
-16.4096479196
 21
13.5774083031
 31
0.0
 11
-16.5961623397
 21
13.7203080108
 31
0.0
 11
-16.747478688
 21
13.937318645
 31
0.0
 11
-16.8401954558
 21
14.1950153905
 31
0.0
 11
-16.8602954152
 21
14.4542647059
 31
0.0
  0
SPLINE
  5
4EF
100
AcDbEntity
  8
RACCORDO
100
AcDbSpline
 62
253
  6
CONTINUOUS
 70
0
 71
3
 72
9
 73
5
 74
3
 42
0.0000001
 43
0.0000001
 44
0.0000000001
 12
0.223453014
 22
-0.1121935776
 32
0.0
 13
0.2444225218
 23
0.0526904087
 33
0.0
 40
0.0
 40
0.0
 40
0.0
 40
0.0
 40
0.4886683816
 40
1.0
 40
1.0
 40
1.0
 40
1.0
 10
-16.8602954124
 20
14.454264707
 30
0.0
 10
-16.8238972715
 20
14.4359895556
 30
0.0
 10
-16.7409595906
 20
14.4165725912
 30
0.0
 10
-16.656350277
 20
14.418147866
 30
0.0
 10
-16.6146899558
 20
14.4271286233
 30
0.0
 11
-16.8602954124
 21
14.454264707
 31
0.0
 11
-16.7424400464
 21
14.4220255218
 31
0.0
 11
-16.6146899558
 21
14.4271286233
 31
0.0
  0
SPLINE
  5
4F0
100
AcDbEntity
  8
RACCORDO
100
AcDbSpline
 62
253
  6
CONTINUOUS
 70
0
 71
3
 72
9
 73
5
 74
3
 42
0.0000001
 43
0.0000001
 44
0.0000000001
 12
0.2121450178
 22
-0.1068242232
 32
0.0
 13
0.2358987696
 23
0.0277253266
 33
0.0
 40
0.0
 40
0.0
 40
0.0
 40
0.0
 40
0.4865724431
 40
1.0
 40
1.0
 40
1.0
 40
1.0
 10
-16.4069645394
 20
19.1772228572
 30
0.0
 10
-16.3725565662
 20
19.1598969495
 30
0.0
 10
-16.2948030332
 20
19.1390345798
 30
0.0
 10
-16.2148405776
 20
19.1354161197
 30
0.0
 10
-16.174468268
 20
19.1401611019
 30
0.0
 11
-16.4069645394
 21
19.1772228572
 31
0.0
 11
-16.2963681447
 21
19.143677384
 31
0.0
 11
-16.174468268
 21
19.1401611019
 31
0.0
  0
SPLINE
  5
4F1
100
AcDbEntity
  8
RACCORDO
100
AcDbSpline
 62
253
  6
CONTINUOUS
 70
0
 71
3
 72
11
 73
7
 74
5
 42
0.0000001
 43
0.0000001
 44
0.0000000001
 12
0.1516690641
 22
1.2876202155
 32
0.0
 13
1.1362048999
 23
0.6245060046
 33
0.0
 40
0.0
 40
0.0
 40
0.0
 40
0.0
 40
0.2518457007
 40
0.5144241374
 40
0.7692765595
 40
1.0
 40
1.0
 40
1.0
 40
1.0
 10
-16.4069785629
 20
19.1772184394
 30
0.0
 10
-16.3942461624
 20
19.2853123112
 30
0.0
 10
-16.339433513
 20
19.503183101
 30
0.0
 10
-16.1914027939
 20
19.8033967385
 30
0.0
 10
-15.9902246439
 20
20.0594698622
 30
0.0
 10
-15.8229210066
 20
20.1913600683
 30
0.0
 10
-15.7355379721
 20
20.2393894597
 30
0.0
 11
-16.4069785629
 21
19.1772184394
 31
0.0
 11
-16.3299888406
 21
19.4945355915
 31
0.0
 11
-16.1797263885
 21
19.800018356
 31
0.0
 11
-15.9736178935
 21
20.0582776007
 31
0.0
 11
-15.7355379721
 21
20.2393894597
 31
0.0
  0
SPLINE
  5
4F2
100
AcDbEntity
  8
RACCORDO
100
AcDbSpline
 62
253
  6
CONTINUOUS
 70
0
 71
3
 72
9
 73
5
 74
3
 42
0.0000001
 43
0.0000001
 44
0.0000000001
 12
0.1923812208
 22
-0.0998174985
 32
0.0
 13
0.069518805
 23
-0.2052832259
 33
0.0
 40
0.0
 40
0.0
 40
0.0
 40
0.0
 40
0.4726011316
 40
1.0
 40
1.0
 40
1.0
 40
1.0
 10
-15.7355379721
 20
20.2393894597
 30
0.0
 10
-15.7052314445
 20
20.2236648387
 30
0.0
 10
-15.6508921611
 20
20.1723763994
 30
0.0
 10
-15.6159664787
 20
20.1078125696
 30
0.0
 10
-15.603745099
 20
20.0717238559
 30
0.0
 11
-15.7355379721
 21
20.2393894597
 31
0.0
 11
-15.6582058942
 21
20.172221807
 31
0.0
 11
-15.603745099
 21
20.0717238559
 31
0.0
  0
SPLINE
  5
4F3
100
AcDbEntity
  8
0
100
AcDbSpline
 62
253
  6
CONTINUOUS
 70
0
 71
3
 72
10
 73
6
 74
4
 42
0.0000001
 43
0.0000001
 44
0.0000000001
 12
0.0394245837
 22
-0.0641814242
 32
0.0
 13
-0.047737085
 23
-0.0582642577
 33
0.0
 40
0.0
 40
0.0
 40
0.0
 40
0.0
 40
0.3489322052
 40
0.6280947357
 40
1.0
 40
1.0
 40
1.0
 40
1.0
 10
-8.8957698767
 20
23.4802890908
 30
0.0
 10
-8.8911843744
 20
23.4728241022
 30
0.0
 10
-8.8835738119
 20
23.4587852555
 30
0.0
 10
-8.8747244164
 20
23.4358869619
 30
0.0
 10
-8.8744749982
 20
23.4166970122
 30
0.0
 10
-8.8803928893
 20
23.4094740841
 30
0.0
 11
-8.8957698767
 21
23.4802890908
 31
0.0
 11
-8.8833618129
 21
23.4571198023
 31
0.0
 11
-8.8765585359
 21
23.4372234419
 31
0.0
 11
-8.8803928893
 21
23.4094740841
 31
0.0
  0
SPLINE
  5
4F4
100
AcDbEntity
  8
0
100
AcDbSpline
 62
253
  6
CONTINUOUS
 70
0
 71
3
 72
9
 73
5
 74
3
 42
0.0000001
 43
0.0000001
 44
0.0000000001
 12
-0.1010580751
 22
0.0505290375
 32
0.0
 13
-0.0117322579
 23
0.1123755859
 33
0.0
 40
0.0
 40
0.0
 40
0.0
 40
0.0
 40
0.5649858294
 40
1.0
 40
1.0
 40
1.0
 40
1.0
 10
-13.0563778693
 20
23.261467609
 30
0.0
 10
-13.0754099961
 20
23.2709836724
 30
0.0
 10
-13.1078375081
 20
23.2916251102
 30
0.0
 10
-13.1275596754
 20
23.3270420828
 30
0.0
 10
-13.1292609082
 20
23.3433370735
 30
0.0
 11
-13.0563778693
 21
23.261467609
 31
0.0
 11
-13.1079965054
 21
23.2990243956
 31
0.0
 11
-13.1292609082
 21
23.3433370735
 31
0.0
  0
SPLINE
  5
4F5
100
AcDbEntity
  8
0
100
AcDbSpline
 62
253
  6
CONTINUOUS
 70
0
 71
3
 72
9
 73
5
 74
3
 42
0.0000001
 43
0.0000001
 44
0.0000000001
 12
-0.1065870198
 22
0.0532935099
 32
0.0
 13
-0.0000006316
 23
0.1191679109
 33
0.0
 40
0.0
 40
0.0
 40
0.0
 40
0.0
 40
0.5679892429
 40
1.0
 40
1.0
 40
1.0
 40
1.0
 10
-13.0563778693
 20
23.6014415431
 30
0.0
 10
-13.0765579629
 20
23.6115315899
 30
0.0
 10
-13.110995868
 20
23.6334143686
 30
0.0
 10
-13.129600825
 20
23.6726692666
 30
0.0
 10
-13.129600916
 20
23.6898298731
 30
0.0
 11
-13.0563778693
 21
23.6014415431
 31
0.0
 11
-13.1105707866
 21
23.6419944061
 31
0.0
 11
-13.129600916
 21
23.6898298731
 31
0.0
  0
SPLINE
  5
4F6
100
AcDbEntity
  8
0
100
AcDbSpline
 62
253
  6
CONTINUOUS
 70
0
 71
3
 72
9
 73
5
 74
3
 42
0.0000001
 43
0.0000001
 44
0.0000000001
 12
0.0
 22
-0.1559145411
 32
0.0
 13
0.1394516199
 23
-0.0697322725
 33
0.0
 40
0.0
 40
0.0
 40
0.0
 40
0.0
 40
0.5515152678
 40
1.0
 40
1.0
 40
1.0
 40
1.0
 10
-11.3778397989
 20
22.4221985738
 30
0.0
 10
-11.3778397989
 20
22.3935354905
 30
0.0
 10
-11.3704700142
 20
22.340217829
 30
0.0
 10
-11.3337163032
 20
22.2974059336
 30
0.0
 10
-11.3128689957
 20
22.2869813138
 30
0.0
 11
-11.3778397989
 21
22.4221985738
 31
0.0
 11
-11.3607730192
 21
22.3379200111
 31
0.0
 11
-11.3128689957
 21
22.2869813138
 31
0.0
  0
SPLINE
  5
4F7
100
AcDbEntity
  8
0
100
AcDbSpline
 62
253
  6
CONTINUOUS
 70
0
 71
3
 72
9
 73
5
 74
3
 42
0.0000001
 43
0.0000001
 44
0.0000000001
 12
0.0
 22
-0.1475994598
 32
0.0
 13
0.1253188998
 23
-0.0779793171
 33
0.0
 40
0.0
 40
0.0
 40
0.0
 40
0.0
 40
0.5495031829
 40
1.0
 40
1.0
 40
1.0
 40
1.0
 10
-13.0563778693
 20
23.261467609
 30
0.0
 10
-13.0563778693
 20
23.2344321513
 30
0.0
 10
-13.0496379256
 20
23.1842703641
 30
0.0
 10
-13.0178473248
 20
23.1422255915
 30
0.0
 10
-12.9990287363
 20
23.1305157801
 30
0.0
 11
-13.0563778693
 21
23.261467609
 31
0.0
 11
-13.0414064885
 21
23.1817549908
 31
0.0
 11
-12.9990287363
 21
23.1305157801
 31
0.0
  0
SPLINE
  5
4F8
100
AcDbEntity
  8
0
100
AcDbSpline
 62
253
  6
CONTINUOUS
 70
0
 71
3
 72
11
 73
7
 74
5
 42
0.0000001
 43
0.0000001
 44
0.0000000001
 12
0.3239339031
 22
-0.1619669516
 32
0.0
 13
0.3246816256
 23
0.1604627963
 33
0.0
 40
0.0
 40
0.0
 40
0.0
 40
0.0
 40
0.2351711086
 40
0.4995790016
 40
0.7642134063
 40
1.0
 40
1.0
 40
1.0
 40
1.0
 10
-11.3778397989
 20
22.7621725079
 30
0.0
 10
-11.3524465006
 20
22.7494758587
 30
0.0
 10
-11.2941023619
 20
22.7313315604
 30
0.0
 10
-11.2017673056
 20
22.7225759049
 30
0.0
 10
-11.1093329581
 20
22.731077981
 30
0.0
 10
-11.0508363641
 20
22.7490481253
 30
0.0
 10
-11.0253178393
 20
22.761659784
 30
0.0
 11
-11.3778397989
 21
22.7621725079
 31
0.0
 11
-11.2970699096
 21
22.7351457526
 31
0.0
 11
-11.2017903668
 21
22.725561514
 31
0.0
 11
-11.1064009091
 21
22.7348684199
 31
0.0
 11
-11.0253178393
 21
22.761659784
 31
0.0
  0
SPLINE
  5
4F9
100
AcDbEntity
  8
0
100
AcDbSpline
 62
253
  6
CONTINUOUS
 70
0
 71
3
 72
11
 73
7
 74
5
 42
0.0000001
 43
0.0000001
 44
0.0000000001
 12
0.323933903
 22
-0.1619669515
 32
0.0
 13
0.3246816254
 23
0.1604627962
 33
0.0
 40
0.0
 40
0.0
 40
0.0
 40
0.0
 40
0.2351712695
 40
0.4995791233
 40
0.7642134642
 40
1.0
 40
1.0
 40
1.0
 40
1.0
 10
-11.3778397989
 20
22.4221985738
 30
0.0
 10
-11.3524464832
 20
22.4095019159
 30
0.0
 10
-11.2941023272
 20
22.3913576202
 30
0.0
 10
-11.2017672641
 20
22.3826019714
 30
0.0
 10
-11.1093329365
 20
22.391104052
 30
0.0
 10
-11.0508363578
 20
22.4090741943
 30
0.0
 10
-11.0253178393
 20
22.4216858499
 30
0.0
 11
-11.3778397989
 21
22.4221985738
 31
0.0
 11
-11.2970698519
 21
22.3951718073
 31
0.0
 11
-11.2017903224
 21
22.3855875797
 31
0.0
 11
-11.1064008883
 21
22.3948944898
 31
0.0
 11
-11.0253178393
 21
22.4216858499
 31
0.0
  0
SPLINE
  5
4FA
100
AcDbEntity
  8
0
100
AcDbSpline
 62
7
  6
CONTINUOUS
 70
0
 71
3
 72
9
 73
5
 74
3
 42
0.0000001
 43
0.0000001
 44
0.0000000001
 12
-0.2244834173
 22
-0.268762865
 32
0.0
 13
-0.3428031888
 23
0.071500042
 33
0.0
 40
0.0
 40
0.0
 40
0.0
 40
0.0
 40
0.259915966
 40
1.0
 40
1.0
 40
1.0
 40
1.0
 10
-10.3140972312
 20
22.2731823271
 30
0.0
 10
-10.3335461726
 20
22.2498970738
 30
0.0
 10
-10.416755572
 20
22.1696997086
 30
0.0
 10
-10.543358355
 20
22.1178851509
 30
0.0
 10
-10.6279260772
 20
22.1355238307
 30
0.0
 11
-10.3140972312
 21
22.2731823271
 31
0.0
 11
-10.3797325723
 21
22.2101253603
 31
0.0
 11
-10.6279260772
 21
22.1355238307
 31
0.0
  0
SPLINE
  5
4FB
100
AcDbEntity
  8
0
100
AcDbSpline
 62
253
  6
CONTINUOUS
 70
0
 71
3
 72
11
 73
7
 74
5
 42
0.0000001
 43
0.0000001
 44
0.0000000001
 12
-0.1066634485
 22
-0.2776809507
 32
0.0
 13
-0.2911830694
 23
0.06079656
 33
0.0
 40
0.0
 40
0.0
 40
0.0
 40
0.0
 40
0.2776557585
 40
0.5374732707
 40
0.7760958843
 40
1.0
 40
1.0
 40
1.0
 40
1.0
 10
-11.0253178393
 20
22.4216858499
 30
0.0
 10
-11.0351897462
 20
22.3959859449
 30
0.0
 10
-11.0609656183
 20
22.348428559
 30
0.0
 10
-11.1164748253
 20
22.2933470115
 30
0.0
 10
-11.1828659322
 20
22.2622728766
 30
0.0
 10
-11.2304289883
 20
22.2613271433
 30
0.0
 10
-11.2521613509
 20
22.2658646766
 30
0.0
 11
-11.0253178393
 21
22.4216858499
 31
0.0
 11
-11.0652013172
 21
22.349361821
 31
0.0
 11
-11.1207518266
 21
22.2956286629
 31
0.0
 11
-11.1855633631
 21
22.2666839065
 31
0.0
 11
-11.2521613509
 21
22.2658646766
 31
0.0
  0
SPLINE
  5
4FC
100
AcDbEntity
  8
0
100
AcDbSpline
 62
253
  6
CONTINUOUS
 70
0
 71
3
 72
9
 73
5
 74
3
 42
0.0000001
 43
0.0000001
 44
0.0000000001
 12
-0.1010580751
 22
0.0505290375
 32
0.0
 13
-0.0117322579
 23
0.1123755859
 33
0.0
 40
0.0
 40
0.0
 40
0.0
 40
0.0
 40
0.5649858294
 40
1.0
 40
1.0
 40
1.0
 40
1.0
 10
-0.7527198767
 20
17.1096386126
 30
0.0
 10
-0.7717520035
 20
17.119154676
 30
0.0
 10
-0.8041795155
 20
17.1397961139
 30
0.0
 10
-0.8239016828
 20
17.1752130865
 30
0.0
 10
-0.8256029156
 20
17.1915080772
 30
0.0
 11
-0.7527198767
 21
17.1096386126
 31
0.0
 11
-0.8043385128
 21
17.1471953993
 31
0.0
 11
-0.8256029156
 21
17.1915080772
 31
0.0
  0
SPLINE
  5
4FD
100
AcDbEntity
  8
0
100
AcDbSpline
 62
253
  6
CONTINUOUS
 70
0
 71
3
 72
9
 73
5
 74
3
 42
0.0000001
 43
0.0000001
 44
0.0000000001
 12
-0.1065870498
 22
0.0532935249
 32
0.0
 13
-0.0000005195
 23
0.1191679444
 33
0.0
 40
0.0
 40
0.0
 40
0.0
 40
0.0
 40
0.5679894431
 40
1.0
 40
1.0
 40
1.0
 40
1.0
 10
-0.7527198767
 20
17.4496125468
 30
0.0
 10
-0.772899983
 20
17.4597026
 30
0.0
 10
-0.8073378943
 20
17.4815853904
 30
0.0
 10
-0.8259428484
 20
17.5208403096
 30
0.0
 10
-0.8259429232
 20
17.538000913
 30
0.0
 11
-0.7527198767
 21
17.4496125468
 31
0.0
 11
-0.806912821
 21
17.4901654452
 31
0.0
 11
-0.8259429232
 21
17.538000913
 31
0.0
  0
SPLINE
  5
4FE
100
AcDbEntity
  8
RACCORDO
100
AcDbSpline
 62
253
  6
CONTINUOUS
 70
0
 71
3
 72
19
 73
15
 74
13
 42
0.0000001
 43
0.0000001
 44
0.0000000001
 12
-13.896503878
 22
6.9482902721
 32
0.0
 13
14.1831821542
 23
6.3426257747
 33
0.0
 40
0.0
 40
0.0
 40
0.0
 40
0.0
 40
0.1238558941
 40
0.1916044163
 40
0.262132809
 40
0.4073877544
 40
0.5512698722
 40
0.6856446184
 40
0.7474413424
 40
0.8050079961
 40
0.8583508906
 40
0.9079210015
 40
0.9546682954
 40
1.0
 40
1.0
 40
1.0
 40
1.0
 10
-9.9233863259
 20
-9.1550426713
 30
0.0
 10
-10.49710763
 20
-8.8681804367
 30
0.0
 10
-11.3169144094
 20
-8.2835322881
 30
0.0
 10
-12.2795936312
 20
-7.3251080578
 30
0.0
 10
-13.2084902847
 20
-6.1845070455
 30
0.0
 10
-14.1666387335
 20
-4.5728327385
 30
0.0
 10
-14.9224544827
 20
-2.5007753111
 30
0.0
 10
-15.1821200624
 20
-0.7416024992
 30
0.0
 10
-15.1223917169
 20
0.5747940577
 30
0.0
 10
-14.9532782072
 20
1.4567798864
 30
0.0
 10
-14.6617604935
 20
2.2398515073
 30
0.0
 10
-14.2526711897
 20
2.9049566477
 30
0.0
 10
-13.7344593298
 20
3.4334345358
 30
0.0
 10
-13.3221470134
 20
3.6846533334
 30
0.0
 10
-13.107831072
 20
3.7804940129
 30
0.0
 11
-9.9233863259
 21
-9.1550426713
 31
0.0
 11
-11.5084475844
 21
-8.0638985495
 31
0.0
 11
-12.2562293283
 21
-7.3231040664
 31
0.0
 11
-12.9495622462
 21
-6.4745568201
 31
0.0
 11
-14.1061270181
 21
-4.5366511978
 31
0.0
 11
-14.8634574487
 21
-2.4333789723
 31
0.0
 11
-15.1455883866
 21
-0.3647788959
 31
0.0
 11
-15.0975992112
 21
0.5941432038
 31
0.0
 11
-14.9241229495
 21
1.4715588434
 31
0.0
 11
-14.6295551673
 21
2.2462206424
 31
0.0
 11
-14.2213579094
 21
2.8993066591
 31
0.0
 11
-13.7098339132
 21
3.4149213028
 31
0.0
 11
-13.107831072
 21
3.7804940129
 31
0.0
  0
SPLINE
  5
4FF
100
AcDbEntity
  8
RACCORDO
100
AcDbSpline
 62
253
  6
CONTINUOUS
 70
0
 71
3
 72
23
 73
19
 74
17
 42
0.0000001
 43
0.0000001
 44
0.0000000001
 12
-18.0021058753
 22
9.0011584679
 32
0.0
 13
18.0021848266
 23
-9.0010005655
 33
0.0
 40
0.0
 40
0.0
 40
0.0
 40
0.0
 40
0.0631581729
 40
0.1316634298
 40
0.2043697893
 40
0.2797331166
 40
0.3559909205
 40
0.431321942
 40
0.5040003502
 40
0.5725497514
 40
0.6359152283
 40
0.6936505523
 40
0.7461359359
 40
0.7947701562
 40
0.8419180807
 40
0.8903848717
 40
0.9425889424
 40
1.0
 40
1.0
 40
1.0
 40
1.0
 10
-10.2645575181
 20
-9.7651588262
 30
0.0
 10
-10.6435508898
 20
-9.5756599186
 30
0.0
 10
-11.3955249455
 20
-9.1021855315
 30
0.0
 10
-12.4308731278
 20
-8.1966224006
 30
0.0
 10
-13.3871650482
 20
-7.0971021999
 30
0.0
 10
-14.2277883042
 20
-5.8442966676
 30
0.0
 10
-14.9206355248
 20
-4.4843500726
 30
0.0
 10
-15.4387064436
 20
-3.0676893797
 30
0.0
 10
-15.7616924428
 20
-1.6467764487
 30
0.0
 10
-15.8766847945
 20
-0.2738816904
 30
0.0
 10
-15.7781979897
 20
1.0011207388
 30
0.0
 10
-15.4672213176
 20
2.1323041764
 30
0.0
 10
-14.9496416813
 20
3.0772966956
 30
0.0
 10
-14.2373910444
 20
3.7934495085
 30
0.0
 10
-13.3586282791
 20
4.2381269451
 30
0.0
 10
-12.3622899183
 20
4.3861062004
 30
0.0
 10
-11.3001572734
 20
4.2400333025
 30
0.0
 10
-10.609065675
 20
3.9703665137
 30
0.0
 10
-10.2645575181
 20
3.7981141929
 30
0.0
 11
-10.2645575181
 21
-9.7651588262
 31
0.0
 11
-11.3454360764
 21
-9.0961193296
 31
0.0
 11
-12.3879707088
 21
-8.1937734148
 31
0.0
 11
-13.351577099
 21
-7.0924602429
 31
0.0
 11
-14.1984220275
 21
-5.8340273648
 31
0.0
 11
-14.8949705618
 21
-4.4663433281
 31
0.0
 11
-15.4134480397
 21
-3.0415596199
 31
0.0
 11
-15.7330898004
 21
-1.6141105198
 31
0.0
 11
-15.841078614
 21
-0.2386484407
 31
0.0
 11
-15.7330943304
 21
1.0321296378
 31
0.0
 11
-15.4134589915
 21
2.1493446485
 31
0.0
 11
-14.8949875664
 21
3.0697323137
 31
0.0
 11
-14.198440569
 21
3.7574766848
 31
0.0
 11
-13.3515910469
 21
4.1856660397
 31
0.0
 11
-12.387979389
 21
4.3374446085
 31
0.0
 11
-11.345439387
 21
4.2066542462
 31
0.0
 11
-10.2645575181
 21
3.7981141929
 31
0.0
  0
SPLINE
  5
500
100
AcDbEntity
  8
0
100
AcDbSpline
 62
253
  6
CONTINUOUS
 70
0
 71
3
 72
9
 73
5
 74
3
 42
0.0000001
 43
0.0000001
 44
0.0000000001
 12
0.0
 22
-0.1559087468
 32
0.0
 13
0.1394418723
 23
-0.0697388098
 33
0.0
 40
0.0
 40
0.0
 40
0.0
 40
0.0
 40
0.5515141538
 40
1.0
 40
1.0
 40
1.0
 40
1.0
 10
0.9258181937
 20
16.2703695774
 30
0.0
 10
0.9258181937
 20
16.2417076173
 30
0.0
 10
0.9331875383
 20
16.1883921958
 30
0.0
 10
0.969937627
 20
16.1455806762
 30
0.0
 10
0.990783529
 20
16.1351550532
 30
0.0
 11
0.9258181937
 21
16.2703695774
 31
0.0
 11
0.9428834675
 21
16.1860941475
 31
0.0
 11
0.990783529
 21
16.1351550532
 31
0.0
  0
SPLINE
  5
501
100
AcDbEntity
  8
0
100
AcDbSpline
 62
253
  6
CONTINUOUS
 70
0
 71
3
 72
9
 73
5
 74
3
 42
0.0000001
 43
0.0000001
 44
0.0000000001
 12
0.0
 22
-0.1475994598
 32
0.0
 13
0.1253188998
 23
-0.0779793171
 33
0.0
 40
0.0
 40
0.0
 40
0.0
 40
0.0
 40
0.5495031829
 40
1.0
 40
1.0
 40
1.0
 40
1.0
 10
-0.7527198767
 20
17.1096386126
 30
0.0
 10
-0.7527198767
 20
17.082603155
 30
0.0
 10
-0.745979933
 20
17.0324413678
 30
0.0
 10
-0.7141893321
 20
16.9903965951
 30
0.0
 10
-0.6953707436
 20
16.9786867837
 30
0.0
 11
-0.7527198767
 21
17.1096386126
 31
0.0
 11
-0.7377484958
 21
17.0299259945
 31
0.0
 11
-0.6953707436
 21
16.9786867837
 31
0.0
  0
SPLINE
  5
502
100
AcDbEntity
  8
RACCORDO
100
AcDbSpline
 62
253
  6
CONTINUOUS
 70
0
 71
3
 72
26
 73
22
 74
20
 42
0.0000001
 43
0.0000001
 44
0.0000000001
 12
17.9287087527
 22
-8.9644543561
 32
0.0
 13
-17.928787355
 23
8.9642971516
 33
0.0
 40
0.0
 40
0.0
 40
0.0
 40
0.0
 40
0.0633202724
 40
0.131906604
 40
0.2047165302
 40
0.2802751615
 40
0.356843877
 40
0.4325770847
 40
0.5056811728
 40
0.5745806292
 40
0.638109725
 40
0.6957282445
 40
0.7477800787
 40
0.7721967931
 40
0.7958722678
 40
0.8191583338
 40
0.8424398074
 40
0.866101628
 40
0.8904959822
 40
0.9424786148
 40
1.0
 40
1.0
 40
1.0
 40
1.0
 10
-10.2645575181
 20
3.7981141929
 30
0.0
 10
-9.8861406105
 20
3.6089036289
 30
0.0
 10
-9.1367869033
 20
3.1344281743
 30
0.0
 10
-8.1103596943
 20
2.2233103482
 30
0.0
 10
-7.168029288
 20
1.1160354626
 30
0.0
 10
-6.3442145283
 20
-0.1454770219
 30
0.0
 10
-5.6683872962
 20
-1.5137416441
 30
0.0
 10
-5.1649010692
 20
-2.9370460104
 30
0.0
 10
-4.8517949083
 20
-4.361910404
 30
0.0
 10
-4.7402922388
 20
-5.7354124561
 30
0.0
 10
-4.8353857565
 20
-7.0078487204
 30
0.0
 10
-5.1357358338
 20
-8.133494413
 30
0.0
 10
-5.5644385956
 20
-8.9328585464
 30
0.0
 10
-6.0013102781
 20
-9.4426641726
 30
0.0
 10
-6.3644805295
 20
-9.7548479998
 30
0.0
 10
-6.7664168365
 20
-10.0011455826
 30
0.0
 10
-7.2029224006
 20
-10.1788938099
 30
0.0
 10
-7.6693479805
 20
-10.2862998572
 30
0.0
 10
-8.3382266638
 20
-10.335846046
 30
0.0
 10
-9.2346301009
 20
-10.2071987347
 30
0.0
 10
-9.9207946233
 20
-9.9370384228
 30
0.0
 10
-10.2645575181
 20
-9.7651588262
 30
0.0
 11
-10.2645575181
 21
3.7981141929
 31
0.0
 11
-9.186978741
 21
3.1274250543
 31
0.0
 11
-8.1538416179
 21
2.2203808593
 31
0.0
 11
-7.2043012977
 21
1.1120353152
 31
0.0
 11
-6.3740506389
 21
-0.1546940035
 31
0.0
 11
-5.6940979725
 21
-1.5306754225
 31
0.0
 11
-5.189690465
 21
-2.9624940998
 31
0.0
 11
-4.8794500742
 21
-4.3946441489
 31
0.0
 11
-4.7747624497
 21
-5.7717569147
 31
0.0
 11
-4.8794450558
 21
-7.0408844957
 31
0.0
 11
-5.1896785633
 21
-8.1533990476
 31
0.0
 11
-5.6940795798
 21
-9.0667522131
 31
0.0
 11
-6.0135379837
 21
-9.4375484463
 31
0.0
 11
-6.3740305547
 21
-9.7461992495
 31
0.0
 11
-6.772187727
 21
-9.9898039905
 31
0.0
 11
-7.2042861708
 21
-10.1660918536
 31
0.0
 11
-7.6662817202
 21
-10.2734260176
 31
0.0
 11
-8.1538320748
 21
-10.3108377008
 31
0.0
 11
-9.1869750615
 21
-10.1753487349
 31
0.0
 11
-10.2645575181
 21
-9.7651588262
 31
0.0
  0
SPLINE
  5
503
100
AcDbEntity
  8
0
100
AcDbSpline
 62
253
  6
CONTINUOUS
 70
0
 71
3
 72
11
 73
7
 74
5
 42
0.0000001
 43
0.0000001
 44
0.0000000001
 12
-0.1066634432
 22
-0.2776809368
 32
0.0
 13
-0.2911830606
 23
0.0607965295
 33
0.0
 40
0.0
 40
0.0
 40
0.0
 40
0.0
 40
0.2776558679
 40
0.5374733441
 40
0.7760959182
 40
1.0
 40
1.0
 40
1.0
 40
1.0
 10
1.2783401534
 20
16.2698568536
 30
0.0
 10
1.2684682431
 20
16.2441569398
 30
0.0
 10
1.2426923661
 20
16.1965995502
 30
0.0
 10
1.1871831544
 20
16.1415180089
 30
0.0
 10
1.1207920608
 20
16.1104438821
 30
0.0
 10
1.0732290152
 20
16.1094981469
 30
0.0
 10
1.0514966566
 20
16.1140356772
 30
0.0
 11
1.2783401534
 21
16.2698568536
 31
0.0
 11
1.2384566579
 21
16.1975328019
 31
0.0
 11
1.1829061542
 21
16.1437996588
 31
0.0
 11
1.118094631
 21
16.1148549103
 31
0.0
 11
1.0514966566
 21
16.1140356772
 31
0.0
  0
SPLINE
  5
504
100
AcDbEntity
  8
0
100
AcDbSpline
 62
253
  6
CONTINUOUS
 70
0
 71
3
 72
11
 73
7
 74
5
 42
0.0000001
 43
0.0000001
 44
0.0000000001
 12
0.3239339031
 22
-0.1619669516
 32
0.0
 13
0.3246816256
 23
0.1604627963
 33
0.0
 40
0.0
 40
0.0
 40
0.0
 40
0.0
 40
0.2351713294
 40
0.4995792494
 40
0.7642136314
 40
1.0
 40
1.0
 40
1.0
 40
1.0
 10
0.9258181937
 20
16.6103435116
 30
0.0
 10
0.9512115159
 20
16.5976468505
 30
0.0
 10
1.0095556879
 20
16.5795025527
 30
0.0
 10
1.1018907717
 20
16.5707469084
 30
0.0
 10
1.1943250922
 20
16.5792489959
 30
0.0
 10
1.2528216529
 20
16.597219141
 30
0.0
 10
1.2783401534
 20
16.6098307877
 30
0.0
 11
0.9258181937
 21
16.6103435116
 31
0.0
 11
1.0065881622
 21
16.583316741
 31
0.0
 11
1.1018677164
 21
16.5737325175
 31
0.0
 11
1.1972571643
 21
16.5830394389
 31
0.0
 11
1.2783401534
 21
16.6098307877
 31
0.0
  0
SPLINE
  5
505
100
AcDbEntity
  8
0
100
AcDbSpline
 62
253
  6
CONTINUOUS
 70
0
 71
3
 72
11
 73
7
 74
5
 42
0.0000001
 43
0.0000001
 44
0.0000000001
 12
0.323933903
 22
-0.1619669515
 32
0.0
 13
0.3246816255
 23
0.1604627963
 33
0.0
 40
0.0
 40
0.0
 40
0.0
 40
0.0
 40
0.2351713009
 40
0.4995791941
 40
0.7642135602
 40
1.0
 40
1.0
 40
1.0
 40
1.0
 10
0.9258181937
 20
16.2703695774
 30
0.0
 10
0.9512115128
 20
16.2576729179
 30
0.0
 10
1.0095556778
 20
16.2395286209
 30
0.0
 10
1.1018907528
 20
16.2307729746
 30
0.0
 10
1.1943250767
 20
16.2392750591
 30
0.0
 10
1.2528216452
 20
16.2572452031
 30
0.0
 10
1.2783401534
 20
16.2698568536
 30
0.0
 11
0.9258181937
 21
16.2703695774
 31
0.0
 11
1.006588152
 21
16.2433428088
 31
0.0
 11
1.1018676961
 21
16.2337585834
 31
0.0
 11
1.1972571387
 21
16.2430655
 31
0.0
 11
1.2783401534
 21
16.2698568536
 31
0.0
  0
SPLINE
  5
506
100
AcDbEntity
  8
0
100
AcDbSpline
 62
7
  6
CONTINUOUS
 70
0
 71
3
 72
9
 73
5
 74
3
 42
0.0000001
 43
0.0000001
 44
0.0000000001
 12
0.1698226182
 22
0.3445330186
 32
0.0
 13
-0.1204268443
 23
0.3647466213
 33
0.0
 40
0.0
 40
0.0
 40
0.0
 40
0.0
 40
0.4547712433
 40
1.0
 40
1.0
 40
1.0
 40
1.0
 10
-1.1508877086
 20
18.2864296486
 30
0.0
 10
-1.1251442275
 20
18.3386575517
 30
0.0
 10
-1.1041534693
 20
18.4702949912
 30
0.0
 10
-1.1290009824
 20
18.5976312547
 30
0.0
 10
-1.1508877086
 20
18.6639213704
 30
0.0
 11
-1.1508877086
 21
18.2864296486
 31
0.0
 11
-1.1155323695
 21
18.4574978399
 31
0.0
 11
-1.1508877086
 21
18.6639213704
 31
0.0
  0
SPLINE
  5
507
100
AcDbEntity
  8
0
100
AcDbSpline
 62
253
  6
CONTINUOUS
 70
0
 71
3
 72
9
 73
5
 74
3
 42
0.0000001
 43
0.0000001
 44
0.0000000001
 12
0.0308232014
 22
-0.2328708843
 32
0.0
 13
0.209870215
 23
-0.1055149817
 33
0.0
 40
0.0
 40
0.0
 40
0.0
 40
0.0
 40
0.4570677147
 40
1.0
 40
1.0
 40
1.0
 40
1.0
 10
-17.1354181143
 20
-17.0948947229
 30
0.0
 10
-17.1307220176
 20
-17.1303739772
 30
0.0
 10
-17.0937192562
 20
-17.2049725079
 30
0.0
 10
-17.0271862939
 20
-17.2506131086
 30
0.0
 10
-16.989204522
 20
-17.2697089387
 30
0.0
 11
-17.1354181143
 21
-17.0948947229
 31
0.0
 11
-17.0907273017
 21
-17.19251751
 31
0.0
 11
-16.989204522
 21
-17.2697089387
 31
0.0
  0
SPLINE
  5
508
100
AcDbEntity
  8
0
100
AcDbSpline
 62
253
  6
CONTINUOUS
 70
0
 71
3
 72
9
 73
5
 74
3
 42
0.0000001
 43
0.0000001
 44
0.0000000001
 12
-0.0000519477
 22
-0.1180211257
 32
0.0
 13
-0.1053136499
 23
-0.0532731073
 33
0.0
 40
0.0
 40
0.0
 40
0.0
 40
0.0
 40
0.4326101145
 40
1.0
 40
1.0
 40
1.0
 40
1.0
 10
3.4800857088
 20
-23.8832992415
 30
0.0
 10
3.4800782177
 20
-23.9003182857
 30
0.0
 10
3.4617999914
 20
-23.9392165758
 30
0.0
 10
3.4278060825
 20
-23.9610685041
 30
0.0
 10
3.4078881159
 20
-23.9711440449
 30
0.0
 11
3.4800857088
 21
-23.8832992415
 31
0.0
 11
3.4613223128
 21
-23.9307836208
 31
0.0
 11
3.4078881159
 21
-23.9711440449
 31
0.0
  0
SPLINE
  5
509
100
AcDbEntity
  8
0
100
AcDbSpline
 62
253
  6
CONTINUOUS
 70
0
 71
3
 72
8
 73
4
 74
2
 42
0.0000001
 43
0.0000001
 44
0.0000000001
 12
-0.022060788
 22
0.0109938347
 32
0.0
 13
-0.0241361783
 23
0.0049987662
 33
0.0
 40
0.0
 40
0.0
 40
0.0
 40
0.0
 40
1.0
 40
1.0
 40
1.0
 40
1.0
 10
3.3417774995
 20
-23.6596087157
 30
0.0
 10
3.3344239035
 20
-23.6559441042
 30
0.0
 10
3.3265197134
 20
-23.6532434943
 30
0.0
 10
3.3184743206
 20
-23.6515772389
 30
0.0
 11
3.3417774995
 21
-23.6596087157
 31
0.0
 11
3.3184743206
 21
-23.6515772389
 31
0.0
  0
SPLINE
  5
50A
100
AcDbEntity
  8
0
100
AcDbSpline
 62
7
  6
CONTINUOUS
 70
0
 71
3
 72
11
 73
7
 74
5
 42
0.0000001
 43
0.0000001
 44
0.0000000001
 12
-0.0
 22
0.7308594011
 32
0.0
 13
-0.6537005211
 23
0.3268502606
 33
0.0
 40
0.0
 40
0.0
 40
0.0
 40
0.0
 40
0.5095240915
 40
0.7692759824
 40
0.8894805775
 40
1.0
 40
1.0
 40
1.0
 40
1.0
 10
3.5867277254
 20
15.0236378461
 30
0.0
 10
3.5867277254
 20
15.1477680035
 30
0.0
 10
3.5250309814
 20
15.336465447
 30
0.0
 10
3.3946076663
 20
15.5109906124
 30
0.0
 10
3.304844106
 20
15.590441307
 30
0.0
 10
3.2575256608
 20
15.6214497719
 30
0.0
 10
3.2334434594
 20
15.6334908726
 30
0.0
 11
3.5867277254
 21
15.0236378461
 31
0.0
 11
3.4825810501
 21
15.3811684516
 31
0.0
 11
3.3676850231
 21
15.5322939964
 31
0.0
 11
3.3016892282
 21
15.5902823109
 31
0.0
 11
3.2334434594
 21
15.6334908726
 31
0.0
  0
SPLINE
  5
50B
100
AcDbEntity
  8
0
100
AcDbSpline
 62
253
  6
CONTINUOUS
 70
0
 71
3
 72
10
 73
6
 74
4
 42
0.0000001
 43
0.0000001
 44
0.0000000001
 12
-0.567440376
 22
-0.309794039
 32
0.0
 13
-0.0758549991
 23
-0.6420334462
 33
0.0
 40
0.0
 40
0.0
 40
0.0
 40
0.0
 40
0.2316489281
 40
0.4873329625
 40
1.0
 40
1.0
 40
1.0
 40
1.0
 10
-1.0650846641
 20
12.4840767299
 30
0.0
 10
-1.1089003157
 20
12.4601555776
 30
0.0
 10
-1.1928884945
 20
12.394286938
 30
0.0
 10
-1.3269092175
 20
12.2245946721
 30
0.0
 10
-1.388998037
 20
12.0632856131
 30
0.0
 10
-1.4019608229
 20
11.9535691515
 30
0.0
 11
-1.0650846641
 21
12.4840767299
 31
0.0
 11
-1.1845265359
 21
12.3937333019
 31
0.0
 11
-1.2879406119
 21
12.264778106
 31
0.0
 11
-1.4019608229
 21
11.9535691515
 31
0.0
  0
SPLINE
  5
50C
100
AcDbEntity
  8
0
100
AcDbSpline
 62
253
  6
CONTINUOUS
 70
0
 71
3
 72
11
 73
7
 74
5
 42
0.0000001
 43
0.0000001
 44
0.0000000001
 12
-1.1329865746
 22
-0.6287953203
 32
0.0
 13
-0.1506659082
 23
-1.2869894783
 33
0.0
 40
0.0
 40
0.0
 40
0.0
 40
0.0
 40
0.2303844051
 40
0.4852076103
 40
0.7479515775
 40
1.0
 40
1.0
 40
1.0
 40
1.0
 10
-1.4309174041
 20
13.0870791757
 30
0.0
 10
-1.5179248834
 20
13.0387909637
 30
0.0
 10
-1.6844244175
 20
12.9063497365
 30
0.0
 10
-1.8845003489
 20
12.6497934932
 30
0.0
 10
-2.0317065741
 20
12.3492506777
 30
0.0
 10
-2.0862320367
 20
12.1313022496
 30
0.0
 10
-2.0988904048
 20
12.0231743604
 30
0.0
 11
-1.4309174041
 21
13.0870791757
 31
0.0
 11
-1.6677625592
 21
12.9053572773
 31
0.0
 11
-1.872818099
 21
12.6465511696
 31
0.0
 11
-2.0223061068
 21
12.340667223
 31
0.0
 11
-2.0988904048
 21
12.0231743604
 31
0.0
  0
SPLINE
  5
50D
100
AcDbEntity
  8
0
100
AcDbSpline
 62
253
  6
CONTINUOUS
 70
0
 71
3
 72
11
 73
7
 74
5
 42
0.0000001
 43
0.0000001
 44
0.0000000001
 12
-0.0324678924
 22
0.7302924718
 32
0.0
 13
-0.6488722199
 23
0.3366691262
 33
0.0
 40
0.0
 40
0.0
 40
0.0
 40
0.0
 40
0.2445556234
 40
0.510059094
 40
0.7700878926
 40
1.0
 40
1.0
 40
1.0
 40
1.0
 10
-1.0650846641
 20
12.4840767299
 30
0.0
 10
-1.0677313993
 20
12.5436091068
 30
0.0
 10
-1.0935227702
 20
12.6670114803
 30
0.0
 10
-1.1733667537
 20
12.8383479272
 30
0.0
 10
-1.2858836099
 20
12.9857522658
 30
0.0
 10
-1.3811895443
 20
13.0612777396
 30
0.0
 10
-1.4309174041
 20
13.0870791757
 30
0.0
 11
-1.0650846641
 21
12.4840767299
 31
0.0
 11
-1.0986917214
 21
12.6596630268
 31
0.0
 11
-1.1800052625
 21
12.8358951503
 31
0.0
 11
-1.2966601231
 21
12.9859745276
 31
0.0
 11
-1.4309174041
 21
13.0870791757
 31
0.0
  0
SPLINE
  5
50E
100
AcDbEntity
  8
0
100
AcDbSpline
 62
253
  6
CONTINUOUS
 70
0
 71
3
 72
11
 73
7
 74
5
 42
0.0000001
 43
0.0000001
 44
0.0000000001
 12
-0.6825879843
 22
-0.2056363113
 32
0.0
 13
-0.6367239155
 23
0.320617068
 33
0.0
 40
0.0
 40
0.0
 40
0.0
 40
0.0
 40
0.2284142287
 40
0.4927005503
 40
0.7608662696
 40
1.0
 40
1.0
 40
1.0
 40
1.0
 10
-1.4019608229
 20
11.9535691515
 30
0.0
 10
-1.4539317589
 20
11.9379123984
 30
0.0
 10
-1.570941942
 20
11.9208414979
 30
0.0
 10
-1.7522693289
 20
11.9254078266
 30
0.0
 10
-1.933431072
 20
11.9574483323
 30
0.0
 10
-2.0481363487
 20
11.9976175756
 30
0.0
 10
-2.0988904037
 20
12.0231743607
 30
0.0
 11
-1.4019608229
 21
11.9535691515
 31
0.0
 11
-1.5625106197
 21
11.9263887966
 31
0.0
 11
-1.7508823162
 21
11.9300446015
 31
0.0
 11
-1.9390168287
 21
11.9639920124
 31
0.0
 11
-2.0988904037
 21
12.0231743607
 31
0.0
  0
SPLINE
  5
50F
100
AcDbEntity
  8
0
100
AcDbSpline
 62
253
  6
CONTINUOUS
 70
0
 71
3
 72
11
 73
7
 74
5
 42
0.0000001
 43
0.0000001
 44
0.0000000001
 12
-0.6531473612
 22
-0.3004231948
 32
0.0
 13
-0.6429214765
 23
0.3217258872
 33
0.0
 40
0.0
 40
0.0
 40
0.0
 40
0.0
 40
0.2355498366
 40
0.5001440414
 40
0.7646609401
 40
1.0
 40
1.0
 40
1.0
 40
1.0
 10
-2.1102741128
 20
1.5261284269
 30
0.0
 10
-2.1615570308
 20
1.5025402155
 30
0.0
 10
-2.2783417394
 20
1.4696701519
 30
0.0
 10
-2.4619961128
 20
1.456013419
 30
0.0
 10
-2.6450634389
 20
1.4755823339
 30
0.0
 10
-2.7606580211
 20
1.5122076116
 30
0.0
 10
-2.8110928663
 20
1.5374458342
 30
0.0
 11
-2.1102741128
 21
1.5261284269
 31
0.0
 11
-2.2723003533
 21
1.4768885038
 31
0.0
 11
-2.461921832
 21
1.4617623165
 31
0.0
 11
-2.6509001965
 21
1.4830024506
 31
0.0
 11
-2.8110928663
 21
1.5374458342
 31
0.0
  0
SPLINE
  5
510
100
AcDbEntity
  8
0
100
AcDbSpline
 62
253
  6
CONTINUOUS
 70
0
 71
3
 72
9
 73
5
 74
3
 42
0.0000001
 43
0.0000001
 44
0.0000000001
 12
0.1554408835
 22
-9.7709735605
 32
0.0
 13
1.2916660774
 23
-9.6864691675
 33
0.0
 40
0.0
 40
0.0
 40
0.0
 40
0.0
 40
0.2553865594
 40
1.0
 40
1.0
 40
1.0
 40
1.0
 10
-2.1102741128
 20
-14.9118997623
 30
0.0
 10
-2.0970416086
 20
-15.7436915355
 30
0.0
 10
-2.0006624127
 20
-18.9997296805
 30
0.0
 10
-1.7225581302
 20
-22.2511052491
 30
0.0
 10
-1.4019608229
 20
-24.6553302938
 30
0.0
 11
-2.1102741128
 21
-14.9118997623
 31
0.0
 11
-2.035961179
 21
-17.4064841898
 31
0.0
 11
-1.4019608229
 21
-24.6553302938
 31
0.0
  0
SPLINE
  5
511
100
AcDbEntity
  8
0
100
AcDbSpline
 62
253
  6
CONTINUOUS
 70
0
 71
3
 72
9
 73
5
 74
3
 42
0.0000001
 43
0.0000001
 44
0.0000000001
 12
0.1562933995
 22
-9.8255209202
 32
0.0
 13
1.2987639151
 23
-9.7405595976
 33
0.0
 40
0.0
 40
0.0
 40
0.0
 40
0.0
 40
0.2553871945
 40
1.0
 40
1.0
 40
1.0
 40
1.0
 10
-2.8110928664
 20
-14.9170368378
 30
0.0
 10
-2.7977877555
 20
-15.7534742451
 30
0.0
 10
-2.700879521
 20
-19.027689682
 30
0.0
 10
-2.4212491524
 20
-22.2972175295
 30
0.0
 10
-2.0988904048
 20
-24.7148659992
 30
0.0
 11
-2.8110928664
 21
-14.9170368378
 31
0.0
 11
-2.7363718951
 21
-17.4255538973
 31
0.0
 11
-2.0988904048
 21
-24.7148659992
 31
0.0
  0
SPLINE
  5
512
100
AcDbEntity
  8
0
100
AcDbSpline
 62
253
  6
CONTINUOUS
 70
0
 71
3
 72
11
 73
7
 74
5
 42
0.0000001
 43
0.0000001
 44
0.0000000001
 12
-0.6429962505
 22
-0.3251801931
 32
0.0
 13
-0.64457886
 23
0.322031721
 33
0.0
 40
0.0
 40
0.0
 40
0.0
 40
0.0
 40
0.2376792375
 40
0.5023658428
 40
0.7657789404
 40
1.0
 40
1.0
 40
1.0
 40
1.0
 10
-2.1102741128
 20
-14.9118997623
 30
0.0
 10
-2.1612163989
 20
-14.9376626224
 30
0.0
 10
-2.2775888429
 20
-14.9749508839
 30
0.0
 10
-2.4615707949
 20
-14.9938248889
 30
0.0
 10
-2.6449808941
 20
-14.9778166494
 30
0.0
 10
-2.7607682174
 20
-14.9421790408
 30
0.0
 10
-2.8110928653
 20
-14.9170368372
 30
0.0
 11
-2.1102741128
 21
-14.9118997623
 31
0.0
 11
-2.2723003532
 21
-14.967371113
 31
0.0
 11
-2.4619218317
 21
-14.9878007462
 31
0.0
 11
-2.6509001958
 21
-14.9701462895
 31
0.0
 11
-2.8110928653
 21
-14.9170368372
 31
0.0
  0
SPLINE
  5
513
100
AcDbEntity
  8
0
100
AcDbSpline
 62
253
  6
CONTINUOUS
 70
0
 71
3
 72
11
 73
7
 74
5
 42
0.0000001
 43
0.0000001
 44
0.0000000001
 12
0.0616736493
 22
-0.4624455612
 32
0.0
 13
0.4301815966
 23
0.1805639224
 33
0.0
 40
0.0
 40
0.0
 40
0.0
 40
0.0
 40
0.2728376353
 40
0.5081714066
 40
0.7384356674
 40
1.0
 40
1.0
 40
1.0
 40
1.0
 10
-1.4019608229
 20
-24.6553302938
 30
0.0
 10
-1.3963518587
 20
-24.6973878116
 30
0.0
 10
-1.3745647801
 20
-24.7755827035
 30
0.0
 10
-1.2943995111
 20
-24.8653365621
 30
0.0
 10
-1.1793374938
 20
-24.8955124528
 30
0.0
 10
-1.1025913848
 20
-24.8762633745
 30
0.0
 10
-1.0650846641
 20
-24.8605203472
 30
0.0
 11
-1.4019608229
 21
-24.6553302938
 31
0.0
 11
-1.3633345174
 21
-24.7766178285
 31
0.0
 11
-1.2879406119
 21
-24.8564312104
 31
0.0
 11
-1.1845265359
 21
-24.885520594
 31
0.0
 11
-1.0650846641
 21
-24.8605203472
 31
0.0
  0
SPLINE
  5
514
100
AcDbEntity
  8
0
100
AcDbSpline
 62
253
  6
CONTINUOUS
 70
0
 71
3
 72
11
 73
7
 74
5
 42
0.0000001
 43
0.0000001
 44
0.0000000001
 12
0.0664194556
 22
-0.5020856651
 32
0.0
 13
0.4526020651
 23
-0.2272728093
 33
0.0
 40
0.0
 40
0.0
 40
0.0
 40
0.0
 40
0.2812866454
 40
0.5380103683
 40
0.7746850686
 40
1.0
 40
1.0
 40
1.0
 40
1.0
 10
-2.0988904048
 20
-24.7148659992
 30
0.0
 10
-2.0926627696
 20
-24.7619426634
 30
0.0
 10
-2.0733331093
 20
-24.8513134257
 30
0.0
 10
-2.0197495905
 20
-24.9718098053
 30
0.0
 10
-1.9439848261
 20
-25.0683630274
 30
0.0
 10
-1.8792815575
 20
-25.1142888246
 30
0.0
 10
-1.8452888898
 20
-25.1313581437
 30
0.0
 11
-2.0988904048
 21
-24.7148659992
 31
0.0
 11
-2.0675621777
 21
-24.8538390323
 31
0.0
 11
-2.0135207639
 21
-24.9720963441
 31
0.0
 11
-1.9385877607
 21
-25.0656535872
 31
0.0
 11
-1.8452888898
 21
-25.1313581437
 31
0.0
  0
SPLINE
  5
515
100
AcDbEntity
  8
0
100
AcDbSpline
 62
253
  6
CONTINUOUS
 70
0
 71
3
 72
11
 73
7
 74
5
 42
0.0000001
 43
0.0000001
 44
0.0000000001
 12
-0.6040142685
 22
-0.4013243693
 32
0.0
 13
-0.6493425433
 23
0.3228757461
 33
0.0
 40
0.0
 40
0.0
 40
0.0
 40
0.0
 40
0.2449979728
 40
0.5099789627
 40
0.7695318252
 40
1.0
 40
1.0
 40
1.0
 40
1.0
 10
-1.4019608229
 20
-24.6553302938
 30
0.0
 10
-1.4512882467
 20
-24.6881048461
 30
0.0
 10
-1.5651245024
 20
-24.7398237261
 30
0.0
 10
-1.7489712581
 20
-24.7761879525
 30
0.0
 10
-1.9328108426
 20
-24.7720957379
 30
0.0
 10
-2.0490059667
 20
-24.7396700743
 30
0.0
 10
-2.0988902303
 20
-24.7148658797
 30
0.0
 11
-1.4019608229
 21
-24.6553302938
 31
0.0
 11
-1.5625106074
 21
-24.7314227432
 31
0.0
 11
-1.7508822614
 21
-24.7693932821
 31
0.0
 11
-1.9390167111
 21
-24.7635859812
 31
0.0
 11
-2.0988902303
 21
-24.7148658797
 31
0.0
  0
SPLINE
  5
516
100
AcDbEntity
  8
0
100
AcDbSpline
 62
253
  6
CONTINUOUS
 70
0
 71
3
 72
11
 73
7
 74
5
 42
0.0000001
 43
0.0000001
 44
0.0000000001
 12
-0.014353954
 22
-0.3367214871
 32
0.0
 13
-0.3107574987
 23
-0.1304498866
 33
0.0
 40
0.0
 40
0.0
 40
0.0
 40
0.0
 40
0.2893508886
 40
0.5493554316
 40
0.7828042077
 40
1.0
 40
1.0
 40
1.0
 40
1.0
 10
-1.0650846641
 20
-24.8605203472
 30
0.0
 10
-1.0664691072
 20
-24.8929972344
 30
0.0
 10
-1.0745120331
 20
-24.954670964
 30
0.0
 10
-1.1051992422
 20
-25.0380377384
 30
0.0
 10
-1.1531636493
 20
-25.1034400237
 30
0.0
 10
-1.1963935836
 20
-25.1322714636
 30
0.0
 10
-1.2188919906
 20
-25.1417158524
 30
0.0
 11
-1.0650846641
 21
-24.8605203472
 31
0.0
 11
-1.0786848734
 21
-24.9570864813
 31
0.0
 11
-1.1101162548
 21
-25.0388840642
 31
0.0
 11
-1.1576994266
 21
-25.1015431837
 31
0.0
 11
-1.2188919906
 21
-25.1417158524
 31
0.0
  0
SPLINE
  5
517
100
AcDbEntity
  8
0
100
AcDbSpline
 62
7
  6
CONTINUOUS
 70
0
 71
3
 72
10
 73
6
 74
4
 42
0.0000001
 43
0.0000001
 44
0.0000000001
 12
-0.0
 22
-0.3126237934
 32
0.0
 13
-0.2778195936
 23
-0.1433523967
 33
0.0
 40
0.0
 40
0.0
 40
0.0
 40
0.0
 40
0.546116748
 40
0.7813398116
 40
1.0
 40
1.0
 40
1.0
 40
1.0
 10
3.5867277254
 20
-22.9078784563
 30
0.0
 10
3.5867277254
 20
-22.9647881528
 30
0.0
 10
3.5741474636
 20
-23.0491425004
 30
0.0
 10
3.5165078915
 20
-23.1376997757
 30
0.0
 10
3.4782678205
 20
-23.1674508533
 30
0.0
 10
3.458018459
 20
-23.1778993406
 30
0.0
 11
3.5867277254
 21
-22.9078784563
 31
0.0
 11
3.5532861591
 21
-23.0753003295
 31
0.0
 11
3.5123092048
 21
-23.1363616144
 31
0.0
 11
3.458018459
 21
-23.1778993406
 31
0.0
  0
SPLINE
  5
518
100
AcDbEntity
  8
0
100
AcDbSpline
 62
253
  6
CONTINUOUS
 70
0
 71
3
 72
11
 73
7
 74
5
 42
0.0000001
 43
0.0000001
 44
0.0000000001
 12
0.1476717368
 22
1.2849302395
 32
0.0
 13
1.1219421779
 23
0.6435047876
 33
0.0
 40
0.0
 40
0.0
 40
0.0
 40
0.0
 40
0.2527744961
 40
0.5160338698
 40
0.7707171907
 40
1.0
 40
1.0
 40
1.0
 40
1.0
 10
-16.9892045237
 20
19.4683314198
 30
0.0
 10
-16.9767619741
 20
19.5765972844
 30
0.0
 10
-16.923225642
 20
19.7948279274
 30
0.0
 10
-16.7787311781
 20
20.0964449103
 30
0.0
 10
-16.5823562679
 20
20.3545984282
 30
0.0
 10
-16.4185375082
 20
20.4888340235
 30
0.0
 10
-16.3327901567
 20
20.538015552
 30
0.0
 11
-16.9892045237
 21
19.4683314198
 31
0.0
 11
-16.9139454262
 21
19.7864868827
 31
0.0
 11
-16.7670441718
 21
20.093664206
 31
0.0
 11
-16.5655369496
 21
20.3542444726
 31
0.0
 11
-16.3327901567
 21
20.538015552
 31
0.0
  0
SPLINE
  5
519
100
AcDbEntity
  8
0
100
AcDbSpline
 62
253
  6
CONTINUOUS
 70
0
 71
3
 72
11
 73
7
 74
5
 42
0.0000001
 43
0.0000001
 44
0.0000000001
 12
0.003699576
 22
-0.2407923713
 32
0.0
 13
0.2153622107
 23
-0.1077672082
 33
0.0
 40
0.0
 40
0.0
 40
0.0
 40
0.0
 40
0.2089534255
 40
0.4379515861
 40
0.7000302264
 40
1.0
 40
1.0
 40
1.0
 40
1.0
 10
-17.8235552962
 20
-7.3067417447
 30
0.0
 10
-17.8232976165
 20
-7.3235132083
 30
0.0
 10
-17.8156457997
 20
-7.3588190895
 30
0.0
 10
-17.7850300647
 20
-7.4069595192
 30
0.0
 10
-17.7376342482
 20
-7.450038548
 30
0.0
 10
-17.6986379396
 20
-7.4732556917
 30
0.0
 10
-17.6771038884
 20
-7.4840313267
 30
0.0
 11
-17.8235552962
 21
-7.3067417447
 31
0.0
 11
-17.8133777268
 21
-7.3560220916
 31
0.0
 11
-17.7847489884
 21
-7.4031564111
 31
0.0
 11
-17.7387475743
 21
-7.4463680419
 31
0.0
 11
-17.6771038884
 21
-7.4840313267
 31
0.0
  0
SPLINE
  5
51A
100
AcDbEntity
  8
0
100
AcDbSpline
 62
253
  6
CONTINUOUS
 70
0
 71
3
 72
9
 73
5
 74
3
 42
0.0000001
 43
0.0000001
 44
0.0000000001
 12
0.159165979
 22
10.5215953686
 32
0.0
 13
1.1904631782
 23
10.4552427198
 33
0.0
 40
0.0
 40
0.0
 40
0.0
 40
0.0
 40
0.2454643075
 40
1.0
 40
1.0
 40
1.0
 40
1.0
 10
-17.6771038885
 20
8.9704513452
 30
0.0
 10
-17.6640806996
 20
9.8313433853
 30
0.0
 10
-17.5654759198
 20
13.3377600628
 30
0.0
 10
-17.2886201766
 20
16.8387134844
 30
0.0
 10
-16.9892045237
 20
19.4683314198
 30
0.0
 11
-17.6771038885
 21
8.9704513452
 31
0.0
 11
-17.6049326851
 21
11.5524144921
 31
0.0
 11
-16.9892045237
 21
19.4683314198
 31
0.0
  0
SPLINE
  5
51B
100
AcDbEntity
  8
0
100
AcDbSpline
 62
253
  6
CONTINUOUS
 70
0
 71
3
 72
9
 73
5
 74
3
 42
0.0000001
 43
0.0000001
 44
0.0000000001
 12
-1.2562084321
 22
9.7320610608
 32
0.0
 13
-0.1507877501
 23
9.8116428375
 33
0.0
 40
0.0
 40
0.0
 40
0.0
 40
0.0
 40
0.2444169947
 40
1.0
 40
1.0
 40
1.0
 40
1.0
 10
-16.9892045237
 20
-17.2697089398
 30
0.0
 10
-17.0915507536
 20
-16.4768152341
 30
0.0
 10
-17.4612137033
 20
-13.2265638752
 30
0.0
 10
-17.6391263347
 20
-9.9552015207
 30
0.0
 10
-17.6771038885
 20
-7.4840313267
 30
0.0
 11
-16.9892045237
 21
-17.2697089398
 31
0.0
 11
-17.2607994679
 21
-14.8867207317
 31
0.0
 11
-17.6771038885
 21
-7.4840313267
 31
0.0
  0
SPLINE
  5
51C
100
AcDbEntity
  8
0
100
AcDbSpline
 62
253
  6
CONTINUOUS
 70
0
 71
3
 72
9
 73
5
 74
3
 42
0.0000001
 43
0.0000001
 44
0.0000000001
 12
0.0
 22
0.1184491489
 32
0.0
 13
0.049113505
 23
0.1077871258
 33
0.0
 40
0.0
 40
0.0
 40
0.0
 40
0.0
 40
0.2355841474
 40
1.0
 40
1.0
 40
1.0
 40
1.0
 10
-3.8006815047
 20
20.0079210817
 30
0.0
 10
-3.8006815047
 20
20.0172226622
 30
0.0
 10
-3.7980872503
 20
20.056692378
 30
0.0
 10
-3.7863955089
 20
20.0953111929
 30
0.0
 10
-3.7738811283
 20
20.1227759222
 30
0.0
 11
-3.8006815047
 21
20.0079210817
 31
0.0
 11
-3.7989542647
 21
20.035772316
 31
0.0
 11
-3.7738811283
 21
20.1227759222
 31
0.0
  0
SPLINE
  5
51D
100
AcDbEntity
  8
0
100
AcDbSpline
 62
253
  6
CONTINUOUS
 70
0
 71
3
 72
9
 73
5
 74
3
 42
0.0000001
 43
0.0000001
 44
0.0000000001
 12
0.0685206928
 22
0.1503791785
 32
0.0
 13
0.1434965295
 23
0.0819617512
 33
0.0
 40
0.0
 40
0.0
 40
0.0
 40
0.0
 40
0.2675902388
 40
1.0
 40
1.0
 40
1.0
 40
1.0
 10
-3.7738811283
 20
20.1227759222
 30
0.0
 10
-3.7677693054
 20
20.1361892556
 30
0.0
 10
-3.741647771
 20
20.1845481732
 30
0.0
 10
-3.7024899135
 20
20.2274368241
 30
0.0
 10
-3.6674571605
 20
20.2474466864
 30
0.0
 11
-3.7738811283
 21
20.1227759222
 31
0.0
 11
-3.7528561103
 21
20.1616783083
 31
0.0
 11
-3.6674571605
 21
20.2474466864
 31
0.0
  0
SPLINE
  5
51E
100
AcDbEntity
  8
0
100
AcDbSpline
 62
7
  6
CONTINUOUS
 70
0
 71
3
 72
10
 73
6
 74
4
 42
0.0000001
 43
0.0000001
 44
0.0000000001
 12
0.3485939274
 22
-0.0728549115
 32
0.0
 13
0.2282947298
 23
0.2733259605
 33
0.0
 40
0.0
 40
0.0
 40
0.0
 40
0.0
 40
0.2331222463
 40
0.6152331566
 40
1.0
 40
1.0
 40
1.0
 40
1.0
 10
1.6757222834
 20
15.9836987524
 30
0.0
 10
1.7028106165
 20
15.9780373855
 30
0.0
 10
1.7777324634
 20
15.9794793708
 30
0.0
 10
1.8899044988
 20
16.0259240974
 30
0.0
 10
1.9602806806
 20
16.0862977417
 30
0.0
 10
1.9895607615
 20
16.1213533307
 30
0.0
 11
1.6757222834
 21
15.9836987524
 31
0.0
 11
1.7587403953
 21
15.98302578
 31
0.0
 11
1.8857221098
 21
16.0319470025
 31
0.0
 11
1.9895607615
 21
16.1213533307
 31
0.0
  0
SPLINE
  5
51F
100
AcDbEntity
  8
0
100
AcDbSpline
 62
253
  6
CONTINUOUS
 70
0
 71
3
 72
9
 73
5
 74
3
 42
0.0000001
 43
0.0000001
 44
0.0000000001
 12
0.2571544272
 22
-0.1285772136
 32
0.0
 13
0.2580411893
 23
0.1267881853
 33
0.0
 40
0.0
 40
0.0
 40
0.0
 40
0.0
 40
0.4993537997
 40
1.0
 40
1.0
 40
1.0
 40
1.0
 10
-5.5014510462
 20
20.8583058524
 30
0.0
 10
-5.4586473661
 20
20.8369040123
 30
0.0
 10
-5.3607729078
 20
20.8213160476
 30
0.0
 10
-5.2629102841
 20
20.8365328112
 30
0.0
 10
-5.2198478371
 20
20.8576914856
 30
0.0
 11
-5.5014510462
 21
20.8583058524
 31
0.0
 11
-5.3609023518
 21
20.8290174824
 31
0.0
 11
-5.2198478371
 21
20.8576914856
 31
0.0
  0
SPLINE
  5
520
100
AcDbEntity
  8
0
100
AcDbSpline
 62
253
  6
CONTINUOUS
 70
0
 71
3
 72
9
 73
5
 74
3
 42
0.0000001
 43
0.0000001
 44
0.0000000001
 12
-0.085269577
 22
0.0426347885
 32
0.0
 13
0.0000015909
 23
0.0953342853
 33
0.0
 40
0.0
 40
0.0
 40
0.0
 40
0.0
 40
0.5679866803
 40
1.0
 40
1.0
 40
1.0
 40
1.0
 10
-3.8006815047
 20
20.0079210817
 30
0.0
 10
-3.8168254994
 20
20.015993079
 30
0.0
 10
-3.8443751616
 20
20.0334996212
 30
0.0
 10
-3.8592603738
 20
20.0649031994
 30
0.0
 10
-3.8592601447
 20
20.0786317598
 30
0.0
 11
-3.8006815047
 21
20.0079210817
 31
0.0
 11
-3.8440355179
 21
20.0403633516
 31
0.0
 11
-3.8592601447
 21
20.0786317598
 31
0.0
  0
SPLINE
  5
521
100
AcDbEntity
  8
0
100
AcDbSpline
 62
253
  6
CONTINUOUS
 70
0
 71
3
 72
9
 73
5
 74
3
 42
0.0000001
 43
0.0000001
 44
0.0000000001
 12
0.0
 22
0.2901200233
 32
0.0
 13
0.2587495724
 23
0.1312184693
 33
0.0
 40
0.0
 40
0.0
 40
0.0
 40
0.0
 40
0.5118334828
 40
1.0
 40
1.0
 40
1.0
 40
1.0
 10
-5.5014510462
 20
20.8583058524
 30
0.0
 10
-5.5014510462
 20
20.9078035664
 30
0.0
 10
-5.4707779495
 20
21.0037677965
 30
0.0
 10
-5.4029567339
 20
21.08045515
 30
0.0
 10
-5.3608524414
 20
21.1018073044
 30
0.0
 11
-5.5014510462
 21
20.8583058524
 31
0.0
 11
-5.4603201871
 21
21.0009889475
 31
0.0
 11
-5.3608524414
 21
21.1018073044
 31
0.0
  0
SPLINE
  5
522
100
AcDbEntity
  8
0
100
AcDbSpline
 62
253
  6
CONTINUOUS
 70
0
 71
3
 72
9
 73
5
 74
3
 42
0.0000001
 43
0.0000001
 44
0.0000000001
 12
-0.0840102402
 22
0.0412731624
 32
0.0
 13
-0.0831822566
 23
-0.0429174392
 33
0.0
 40
0.0
 40
0.0
 40
0.0
 40
0.0
 40
0.5365169102
 40
1.0
 40
1.0
 40
1.0
 40
1.0
 10
-3.6600828999
 20
20.2514225336
 30
0.0
 10
-3.6751072048
 20
20.2588037835
 30
0.0
 10
-3.7056701065
 20
20.2687383751
 30
0.0
 10
-3.7381182561
 20
20.2629962769
 30
0.0
 10
-3.7509694459
 20
20.2563657745
 30
0.0
 11
-3.6600828999
 21
20.2514225336
 31
0.0
 11
-3.7084449013
 21
20.264951395
 31
0.0
 11
-3.7509694459
 21
20.2563657745
 31
0.0
  0
SPLINE
  5
523
100
AcDbEntity
  8
0
100
AcDbSpline
 62
7
  6
CONTINUOUS
 70
0
 71
3
 72
9
 73
5
 74
3
 42
0.0000001
 43
0.0000001
 44
0.0000000001
 12
-0.0815859525
 22
0.0407929763
 32
0.0
 13
-0.0820943577
 23
-0.0397599169
 33
0.0
 40
0.0
 40
0.0
 40
0.0
 40
0.0
 40
0.5361431045
 40
1.0
 40
1.0
 40
1.0
 40
1.0
 10
-3.4489865424
 20
20.3603465196
 30
0.0
 10
-3.4635671243
 20
20.3676368106
 30
0.0
 10
-3.4932301569
 20
20.3775630525
 30
0.0
 10
-3.5248852701
 20
20.3725942002
 30
0.0
 10
-3.5375786147
 20
20.366446563
 30
0.0
 11
-3.4489865424
 21
20.3603465196
 31
0.0
 11
-3.4959470075
 21
20.3739989966
 31
0.0
 11
-3.5375786147
 21
20.366446563
 31
0.0
  0
SPLINE
  5
524
100
AcDbEntity
  8
0
100
AcDbSpline
 62
253
  6
CONTINUOUS
 70
0
 71
3
 72
11
 73
7
 74
5
 42
0.0000001
 43
0.0000001
 44
0.0000000001
 12
-0.0036415575
 22
-0.2402884143
 32
0.0
 13
0.2149806228
 23
-0.1074016518
 33
0.0
 40
0.0
 40
0.0
 40
0.0
 40
0.0
 40
0.2040789258
 40
0.4309439381
 40
0.6947279988
 40
1.0
 40
1.0
 40
1.0
 40
1.0
 10
-17.8235570618
 20
9.1465308641
 30
0.0
 10
-17.8238047835
 20
9.1301849303
 30
0.0
 10
-17.8167962395
 20
9.0952839837
 30
0.0
 10
-17.7862851508
 20
9.0476657156
 30
0.0
 10
-17.7384418697
 20
9.0047089384
 30
0.0
 10
-17.6989797418
 20
8.9813802517
 30
0.0
 10
-17.6771038868
 20
8.970451346
 30
0.0
 11
-17.8235570618
 21
9.1465308641
 31
0.0
 11
-17.8144941409
 21
9.0983320909
 31
0.0
 11
-17.7862080091
 21
9.051724708
 31
0.0
 11
-17.7398063836
 21
9.0085347151
 31
0.0
 11
-17.6771038868
 21
8.970451346
 31
0.0
  0
SPLINE
  5
525
100
AcDbEntity
  8
0
100
AcDbSpline
 62
7
  6
CONTINUOUS
 70
0
 71
3
 72
9
 73
5
 74
3
 42
0.0000001
 43
0.0000001
 44
0.0000000001
 12
0.2602678715
 22
-0.1301339357
 32
0.0
 13
-0.0
 23
-0.2909883265
 33
0.0
 40
0.0
 40
0.0
 40
0.0
 40
0.0
 40
0.4877700803
 40
1.0
 40
1.0
 40
1.0
 40
1.0
 10
-5.1460392273
 20
21.2088728621
 30
0.0
 10
-5.1037222671
 20
21.187714382
 30
0.0
 10
-5.0354749987
 20
21.1108830595
 30
0.0
 10
-5.004619666
 20
21.014648172
 30
0.0
 10
-5.004619666
 20
20.964963863
 30
0.0
 11
-5.1460392273
 21
21.2088728621
 31
0.0
 11
-5.0460405922
 21
21.1081458519
 31
0.0
 11
-5.004619666
 21
20.964963863
 31
0.0
  0
SPLINE
  5
526
100
AcDbEntity
  8
0
100
AcDbSpline
 62
253
  6
CONTINUOUS
 70
0
 71
3
 72
9
 73
5
 74
3
 42
0.0000001
 43
0.0000001
 44
0.0000000001
 12
0.2591041842
 22
-0.1318493417
 32
0.0
 13
0.0013962149
 23
-0.2907185543
 33
0.0
 40
0.0
 40
0.0
 40
0.0
 40
0.0
 40
0.4874573283
 40
1.0
 40
1.0
 40
1.0
 40
1.0
 10
-5.3608524414
 20
21.1018073044
 30
0.0
 10
-5.3187516969
 20
21.0803836617
 30
0.0
 10
-5.2510753869
 20
21.0033171475
 30
0.0
 10
-5.220086377
 20
20.9073600404
 30
0.0
 10
-5.2198478371
 20
20.8576914856
 30
0.0
 11
-5.3608524414
 21
21.1018073044
 31
0.0
 11
-5.2614905102
 21
21.0007617059
 31
0.0
 11
-5.2198478371
 21
20.8576914856
 31
0.0
  0
SPLINE
  5
527
100
AcDbEntity
  8
0
100
AcDbSpline
 62
253
  6
CONTINUOUS
 70
0
 71
3
 72
9
 73
5
 74
3
 42
0.0000001
 43
0.0000001
 44
0.0000000001
 12
-0.0142858852
 22
-0.1088713936
 32
0.0
 13
-0.0979818656
 23
-0.0495643104
 33
0.0
 40
0.0
 40
0.0
 40
0.0
 40
0.0
 40
0.2100596497
 40
1.0
 40
1.0
 40
1.0
 40
1.0
 10
-8.8241084122
 20
23.5599777734
 30
0.0
 10
-8.8251087082
 20
23.5523546111
 30
0.0
 10
-8.8368335335
 20
23.5168249382
 30
0.0
 10
-8.8699699336
 20
23.4933400404
 30
0.0
 10
-8.8957698767
 20
23.4802890908
 30
0.0
 11
-8.8241084122
 21
23.5599777734
 31
0.0
 11
-8.8309793206
 21
23.5379593862
 31
0.0
 11
-8.8957698767
 21
23.4802890908
 31
0.0
  0
SPLINE
  5
528
100
AcDbEntity
  8
0
100
AcDbSpline
 62
253
  6
CONTINUOUS
 70
0
 71
3
 72
9
 73
5
 74
3
 42
0.0000001
 43
0.0000001
 44
0.0000000001
 12
0.0000005146
 22
-0.1180473463
 32
0.0
 13
-0.1053370371
 23
-0.0532849377
 33
0.0
 40
0.0
 40
0.0
 40
0.0
 40
0.0
 40
0.4325990482
 40
1.0
 40
1.0
 40
1.0
 40
1.0
 10
-8.8235722779
 20
23.9156932212
 30
0.0
 10
-8.8235722037
 20
23.8986708313
 30
0.0
 10
-8.8418444117
 20
23.8597558669
 30
0.0
 10
-8.8758470983
 20
23.8378985824
 30
0.0
 10
-8.8957698767
 20
23.8278206076
 30
0.0
 11
-8.8235722779
 21
23.9156932212
 31
0.0
 11
-8.8423251155
 21
23.8681938854
 31
0.0
 11
-8.8957698767
 21
23.8278206076
 31
0.0
  0
SPLINE
  5
529
100
AcDbEntity
  8
0
100
AcDbSpline
 62
7
  6
CONTINUOUS
 70
0
 71
3
 72
9
 73
5
 74
3
 42
0.0000001
 43
0.0000001
 44
0.0000000001
 12
1.9325514616
 22
-1.3294422425
 32
0.0
 13
2.135668132
 23
-0.9700997155
 33
0.0
 40
0.0
 40
0.0
 40
0.0
 40
0.0
 40
0.237772958
 40
1.0
 40
1.0
 40
1.0
 40
1.0
 10
-0.3797970197
 20
22.4088907131
 30
0.0
 10
-0.2266275271
 20
22.3035222416
 30
0.0
 10
0.4288944466
 20
21.8769053781
 30
0.0
 10
1.1246770235
 20
21.5137142731
 30
0.0
 10
1.6672983578
 20
21.2672355276
 30
0.0
 11
-0.3797970197
 21
22.4088907131
 31
0.0
 11
0.087379443
 21
22.1042321718
 31
0.0
 11
1.6672983578
 21
21.2672355276
 31
0.0
  0
SPLINE
  5
52A
100
AcDbEntity
  8
0
100
AcDbSpline
 62
7
  6
CONTINUOUS
 70
0
 71
3
 72
12
 73
8
 74
6
 42
0.0000001
 43
0.0000001
 44
0.0000000001
 12
-1.2943885184
 22
0.8904367148
 32
0.0
 13
-1.4052243037
 23
-0.7026121519
 33
0.0
 40
0.0
 40
0.0
 40
0.0
 40
0.0
 40
0.1052002041
 40
0.2239061388
 40
0.4879172731
 40
0.7587519867
 40
1.0
 40
1.0
 40
1.0
 40
1.0
 10
-0.3797970197
 20
22.4088907131
 30
0.0
 10
-0.4251869985
 20
22.4401154212
 30
0.0
 10
-0.5292721665
 20
22.4958457917
 30
0.0
 10
-0.7712790627
 20
22.579875396
 30
0.0
 10
-1.1137506492
 20
22.6278647845
 30
0.0
 10
-1.5214083597
 20
22.6016049363
 30
0.0
 10
-1.7828084815
 20
22.5249771979
 30
0.0
 10
-1.8958110054
 20
22.468475936
 30
0.0
 11
-0.3797970197
 21
22.4088907131
 31
0.0
 11
-0.5245330074
 21
22.4886941401
 31
0.0
 11
-0.7002392193
 21
22.5512133918
 31
0.0
 11
-1.1103382218
 21
22.6133848734
 31
0.0
 11
-1.5348287874
 21
22.5840159951
 31
0.0
 11
-1.8958110054
 21
22.468475936
 31
0.0
  0
SPLINE
  5
52B
100
AcDbEntity
  8
0
100
AcDbSpline
 62
253
  6
CONTINUOUS
 70
0
 71
3
 72
9
 73
5
 74
3
 42
0.0000001
 43
0.0000001
 44
0.0000000001
 12
0.0000005746
 22
-0.1180473637
 32
0.0
 13
-0.1053370526
 23
-0.0532849456
 33
0.0
 40
0.0
 40
0.0
 40
0.0
 40
0.0
 40
0.4325988482
 40
1.0
 40
1.0
 40
1.0
 40
1.0
 10
3.480085715
 20
17.4163327268
 30
0.0
 10
3.4800857978
 20
17.3993103423
 30
0.0
 10
3.4618135935
 20
17.3603953671
 30
0.0
 10
3.4278109043
 20
17.3385380743
 30
0.0
 10
3.4078881159
 20
17.3284600945
 30
0.0
 11
3.480085715
 21
17.4163327268
 31
0.0
 11
3.4613328981
 21
17.3688334002
 31
0.0
 11
3.4078881159
 21
17.3284600945
 31
0.0
  0
SPLINE
  5
52C
100
AcDbEntity
  8
0
100
AcDbSpline
 62
253
  6
CONTINUOUS
 70
0
 71
3
 72
9
 73
5
 74
3
 42
0.0000001
 43
0.0000001
 44
0.0000000001
 12
0.0000006257
 22
-0.1180473799
 32
0.0
 13
-0.1053370671
 23
-0.0532849529
 33
0.0
 40
0.0
 40
0.0
 40
0.0
 40
0.0
 40
0.432598841
 40
1.0
 40
1.0
 40
1.0
 40
1.0
 10
3.4800857149
 20
17.7638642611
 30
0.0
 10
3.4800858051
 20
17.7468418745
 30
0.0
 10
3.4618135998
 20
17.7079268892
 30
0.0
 10
3.4278109073
 20
17.6860695926
 30
0.0
 10
3.4078881159
 20
17.6759916113
 30
0.0
 11
3.4800857149
 21
17.7638642611
 31
0.0
 11
3.4613329044
 21
17.7163649252
 31
0.0
 11
3.4078881159
 21
17.6759916113
 31
0.0
  0
SPLINE
  5
52D
100
AcDbEntity
  8
0
100
AcDbSpline
 62
253
  6
CONTINUOUS
 70
0
 71
3
 72
10
 73
6
 74
4
 42
0.0000001
 43
0.0000001
 44
0.0000000001
 12
0.3279161076
 22
-0.1620749067
 32
0.0
 13
-0.0017232536
 23
-0.3657790035
 33
0.0
 40
0.0
 40
0.0
 40
0.0
 40
0.0
 40
0.2309052042
 40
0.4904005883
 40
1.0
 40
1.0
 40
1.0
 40
1.0
 10
-9.0725435804
 20
24.1327101464
 30
0.0
 10
-9.0473044018
 20
24.1202354999
 30
0.0
 10
-8.999006157
 20
24.0827101182
 30
0.0
 10
-8.9259007618
 20
23.9847043714
 30
0.0
 10
-8.8954771537
 20
23.8899541959
 30
0.0
 10
-8.8957698767
 20
23.8278206076
 30
0.0
 11
-9.0725435804
 21
24.1327101464
 31
0.0
 11
-9.004581496
 21
24.0825618507
 31
0.0
 11
-8.947121975
 21
24.0070103907
 31
0.0
 11
-8.8957698767
 21
23.8278206076
 31
0.0
  0
SPLINE
  5
52E
100
AcDbEntity
  8
0
100
AcDbSpline
 62
7
  6
CONTINUOUS
 70
0
 71
3
 72
10
 73
6
 74
4
 42
0.0000001
 43
0.0000001
 44
0.0000000001
 12
0.3269271029
 22
-0.1634635514
 32
0.0
 13
-0.0
 23
-0.3655156129
 33
0.0
 40
0.0
 40
0.0
 40
0.0
 40
0.0
 40
0.2306385419
 40
0.4902623596
 40
1.0
 40
1.0
 40
1.0
 40
1.0
 10
-9.6008107521
 20
23.8692713264
 30
0.0
 10
-9.5756767554
 20
23.856704328
 30
0.0
 10
-9.5275868705
 20
23.8190393385
 30
0.0
 10
-9.4546793449
 20
23.7210231108
 30
0.0
 10
-9.4240370484
 20
23.6264874762
 30
0.0
 10
-9.4240370484
 20
23.5643817875
 30
0.0
 11
-9.6008107521
 21
23.8692713264
 31
0.0
 11
-9.5331623832
 21
23.8189670188
 31
0.0
 11
-9.475812636
 21
23.743360383
 31
0.0
 11
-9.4240370484
 21
23.5643817875
 31
0.0
  0
SPLINE
  5
52F
100
AcDbEntity
  8
0
100
AcDbSpline
 62
253
  6
CONTINUOUS
 70
0
 71
3
 72
10
 73
6
 74
4
 42
0.0000001
 43
0.0000001
 44
0.0000000001
 12
0.3259151206
 22
-0.164878299
 32
0.0
 13
0.0017491563
 23
-0.3652430147
 33
0.0
 40
0.0
 40
0.0
 40
0.0
 40
0.0
 40
0.2303736422
 40
0.4901249184
 40
1.0
 40
1.0
 40
1.0
 40
1.0
 10
-11.202091543
 20
23.0665493229
 30
0.0
 10
-11.1770641252
 20
23.0538881181
 30
0.0
 10
-11.1291855331
 20
23.0160819234
 30
0.0
 10
-11.056477104
 20
22.918054623
 30
0.0
 10
-11.025615123
 20
22.823735888
 30
0.0
 10
-11.0253178393
 20
22.761659784
 30
0.0
 11
-11.202091543
 21
23.0665493229
 31
0.0
 11
-11.1347600237
 21
23.0160858089
 31
0.0
 11
-11.0775218956
 21
22.9404236396
 31
0.0
 11
-11.0253178393
 21
22.761659784
 31
0.0
  0
SPLINE
  5
530
100
AcDbEntity
  8
0
100
AcDbSpline
 62
253
  6
CONTINUOUS
 70
0
 71
3
 72
10
 73
6
 74
4
 42
0.0000001
 43
0.0000001
 44
0.0000000001
 12
0.0
 22
0.3644011844
 32
0.0
 13
0.3249987697
 23
0.1648151172
 33
0.0
 40
0.0
 40
0.0
 40
0.0
 40
0.0
 40
0.5093739007
 40
0.7690171083
 40
1.0
 40
1.0
 40
1.0
 40
1.0
 10
-13.0563778693
 20
23.6014415431
 30
0.0
 10
-13.0563778693
 20
23.663313694
 30
0.0
 10
-13.0259469386
 20
23.7575122492
 30
0.0
 10
-12.9534745317
 20
23.8553836012
 30
0.0
 10
-12.9056526652
 20
23.8931285339
 30
0.0
 10
-12.8806296134
 20
23.9058183581
 30
0.0
 11
-13.0563778693
 21
23.6014415431
 31
0.0
 11
-13.0049641251
 21
23.7797953892
 31
0.0
 11
-12.947962498
 21
23.8553114724
 31
0.0
 11
-12.8806296134
 21
23.9058183581
 31
0.0
  0
SPLINE
  5
531
100
AcDbEntity
  8
0
100
AcDbSpline
 62
253
  6
CONTINUOUS
 70
0
 71
3
 72
10
 73
6
 74
4
 42
0.0000001
 43
0.0000001
 44
0.0000000001
 12
0.0
 22
0.3644011844
 32
0.0
 13
0.3249987697
 23
0.1648151172
 33
0.0
 40
0.0
 40
0.0
 40
0.0
 40
0.0
 40
0.5093739007
 40
0.7690171083
 40
1.0
 40
1.0
 40
1.0
 40
1.0
 10
-11.3778397989
 20
22.7621725079
 30
0.0
 10
-11.3778397989
 20
22.8240446588
 30
0.0
 10
-11.3474088681
 20
22.918243214
 30
0.0
 10
-11.2749364613
 20
23.016114566
 30
0.0
 10
-11.2271145948
 20
23.0538594987
 30
0.0
 10
-11.202091543
 20
23.0665493229
 30
0.0
 11
-11.3778397989
 21
22.7621725079
 31
0.0
 11
-11.3264260547
 21
22.940526354
 31
0.0
 11
-11.2694244276
 21
23.0160424372
 31
0.0
 11
-11.202091543
 21
23.0665493229
 31
0.0
  0
SPLINE
  5
532
100
AcDbEntity
  8
0
100
AcDbSpline
 62
7
  6
CONTINUOUS
 70
0
 71
3
 72
10
 73
6
 74
4
 42
0.0000001
 43
0.0000001
 44
0.0000000001
 12
-0.4097670378
 22
0.204901097
 32
0.0
 13
-0.4109386076
 23
-0.2025412194
 33
0.0
 40
0.0
 40
0.0
 40
0.0
 40
0.0
 40
0.2280119268
 40
0.4662977105
 40
1.0
 40
1.0
 40
1.0
 40
1.0
 10
1.4531127582
 20
24.4983959403
 30
0.0
 10
1.4219688343
 20
24.5139692383
 30
0.0
 10
1.3534032625
 20
24.5369055026
 30
0.0
 10
1.199509723
 20
24.5452108743
 30
0.0
 10
1.0830080232
 20
24.50813074
 30
0.0
 10
1.0099017313
 20
24.4720985025
 30
0.0
 11
1.4531127582
 21
24.4983959403
 31
0.0
 11
1.3541501033
 21
24.5318419775
 31
0.0
 11
1.2451917622
 21
24.5386136878
 31
0.0
 11
1.0099017313
 21
24.4720985025
 31
0.0
  0
SPLINE
  5
533
100
AcDbEntity
  8
RACCORDO
100
AcDbSpline
 62
253
  6
CONTINUOUS
 70
0
 71
3
 72
9
 73
5
 74
3
 42
0.0000001
 43
0.0000001
 44
0.0000000001
 12
-0.1415752397
 22
-0.0741348083
 32
0.0
 13
-0.156503528
 23
0.0323444591
 33
0.0
 40
0.0
 40
0.0
 40
0.0
 40
0.0
 40
0.4905363123
 40
1.0
 40
1.0
 40
1.0
 40
1.0
 10
-3.2819739303
 20
7.4212794378
 30
0.0
 10
-3.3051231957
 20
7.4091574993
 30
0.0
 10
-3.357214547
 20
7.3927956361
 30
0.0
 10
-3.4115238896
 20
7.3958657926
 30
0.0
 10
-3.4381015111
 20
7.4013585684
 30
0.0
 11
-3.2819739303
 21
7.4212794378
 31
0.0
 11
-3.3567623005
 21
7.3977811699
 31
0.0
 11
-3.4381015111
 21
7.4013585684
 31
0.0
  0
ELLIPSE
  5
534
100
AcDbEntity
  8
RACCORDO
100
AcDbEllipse
 62
7
  6
CONTINUOUS
 10
-14.0585063188
 20
20.8065247504
 30
0.0
 11
-0.0446199607
 21
0.0895422007
 31
0.0
 40
0.6127700112
 41
-0.6836588249
 42
0.0239984985
  0
ELLIPSE
  5
535
100
AcDbEntity
  8
RACCORDO
100
AcDbEllipse
 62
7
  6
CONTINUOUS
 10
-0.9004804815
 20
14.2275118318
 30
0.0
 11
-0.0446923637
 21
0.0896061377
 31
0.0
 40
0.6116748051
 41
-2.2548620396
 42
-0.6831523243
  0
ELLIPSE
  5
536
100
AcDbEntity
  8
0
100
AcDbEllipse
 62
7
  6
CONTINUOUS
 10
12.9305719811
 20
2.6137001306
 30
0.0
 11
-1.656284165
 21
3.0843095121
 31
0.0
 40
0.633434323
 41
-1.0958939788
 42
-0.7031948971
  0
ELLIPSE
  5
537
100
AcDbEntity
  8
0
100
AcDbEllipse
 62
7
  6
CONTINUOUS
 10
14.9676615099
 20
15.8925156704
 30
0.0
 11
0.2324910688
 21
0.4985929535
 31
0.0
 40
0.5909678056
 41
3.8253192057
 42
6.9669118593
  0
ELLIPSE
  5
538
100
AcDbEntity
  8
0
100
AcDbEllipse
 62
7
  6
CONTINUOUS
 10
14.9676615099
 20
15.8925156704
 30
0.0
 11
0.2605279112
 21
0.4845461035
 31
0.0
 40
0.6331555215
 41
0.7186754531
 42
3.8602681067
  0
ELLIPSE
  5
539
100
AcDbEntity
  8
0
100
AcDbEllipse
 62
7
  6
CONTINUOUS
 10
5.8600712077
 20
-15.6679068256
 30
0.0
 11
0.4511806643
 21
0.8941510684
 31
0.0
 40
0.6128301338
 41
0.6015679319
 42
0.6888343945
  0
ELLIPSE
  5
53A
100
AcDbEntity
  8
0
100
AcDbEllipse
 62
7
  6
CONTINUOUS
 10
-2.7357017537
 20
20.5325645061
 30
0.0
 11
-0.0894526265
 21
0.1788917224
 31
0.0
 40
0.6123445654
 41
-0.6847277841
 42
-0.0078186591
  0
ELLIPSE
  5
53B
100
AcDbEntity
  8
0
100
AcDbEllipse
 62
7
  6
CONTINUOUS
 10
-2.1099835004
 20
24.5233379145
 30
0.0
 11
0.2257019663
 21
0.4461636818
 31
0.0
 40
0.6159267166
 41
0.5882567743
 42
0.6817883054
  0
ELLIPSE
  5
53C
100
AcDbEntity
  8
0
100
AcDbEllipse
 62
7
  6
CONTINUOUS
 10
3.9340968258
 20
-22.3696087006
 30
0.0
 11
-0.2236315662
 21
0.4472293059
 31
0.0
 40
0.6123445654
 41
-3.1337469158
 42
-2.2555748796
  0
ELLIPSE
  5
53D
100
AcDbEntity
  8
0
100
AcDbEllipse
 62
7
  6
CONTINUOUS
 10
3.9340968258
 20
15.5522125523
 30
0.0
 11
-0.223611546
 21
0.4472115081
 31
0.0
 40
0.6124054886
 41
-2.2555017776
 42
-0.6847562194
  0
ELLIPSE
  5
53E
100
AcDbEntity
  8
0
100
AcDbEllipse
 62
7
  6
CONTINUOUS
 10
9.1846415517
 20
19.5699374411
 30
0.0
 11
0.499996712
 21
0.0035883639
 31
0.0
 40
0.5053247124
 41
-0.7715714568
 42
-0.0036366941
  0
ELLIPSE
  5
53F
100
AcDbEntity
  8
0
100
AcDbEllipse
 62
7
  6
CONTINUOUS
 10
-4.4451104536
 20
21.387268856
 30
0.0
 11
-0.0894446184
 21
0.1788846033
 31
0.0
 40
0.6124054886
 41
-2.2555017776
 42
-0.6847562194
  0
ELLIPSE
  5
540
100
AcDbEntity
  8
0
100
AcDbEllipse
 62
7
  6
CONTINUOUS
 10
-2.3109646214
 20
25.2624071737
 30
0.0
 11
1.004787277
 21
0.6140102217
 31
0.0
 40
0.0864918533
 41
0.0541644768
 42
0.7329085821
  0
ELLIPSE
  5
541
100
AcDbEntity
  8
0
100
AcDbEllipse
 62
7
  6
CONTINUOUS
 10
9.2722880378
 20
-17.4842325806
 30
0.0
 11
0.9927147821
 21
0.620457446
 31
0.0
 40
0.0764819879
 41
-2.4043514965
 42
-1.2091443565
  0
ELLIPSE
  5
542
100
AcDbEntity
  8
0
100
AcDbEllipse
 62
7
  6
CONTINUOUS
 10
-1.7562315142
 20
23.4268085344
 30
0.0
 11
0.4530414621
 21
-0.0021419047
 31
0.0
 40
0.4964289597
 41
-0.7830511342
 42
0.0023167121
  0
ELLIPSE
  5
543
100
AcDbEntity
  8
0
100
AcDbEllipse
 62
7
  6
CONTINUOUS
 10
3.8342150988
 20
20.6315852279
 30
0.0
 11
0.4530414621
 21
-0.0021419047
 31
0.0
 40
0.4964289597
 41
-0.77723337
 42
0.0023153674
  0
ELLIPSE
  5
544
100
AcDbEntity
  8
RACCORDO
100
AcDbEllipse
 62
7
  6
CONTINUOUS
 10
-14.3088284927
 20
20.8449644483
 30
0.0
 11
-0.0892399214
 21
0.1790844013
 31
0.0
 40
0.6127700112
 41
-1.8201811373
 42
-0.6836588249
  0
ELLIPSE
  5
545
100
AcDbEntity
  8
0
100
AcDbEllipse
 62
7
  6
CONTINUOUS
 10
-12.1766082198
 20
22.3979001505
 30
0.0
 11
0.249929385
 21
0.0111824824
 31
0.0
 40
0.5313301283
 41
3.1178197826
 42
3.9032222197
  0
ELLIPSE
  5
546
100
AcDbEntity
  8
0
100
AcDbEllipse
 62
7
  6
CONTINUOUS
 10
-10.4898424955
 20
21.5545172884
 30
0.0
 11
0.249929385
 21
0.0111824824
 31
0.0
 40
0.5313301283
 41
-2.3799630874
 42
-0.8149845248
  0
ELLIPSE
  5
547
100
AcDbEntity
  8
0
100
AcDbEllipse
 62
7
  6
CONTINUOUS
 10
0.1270497729
 20
16.2460711542
 30
0.0
 11
0.249929385
 21
0.0111824824
 31
0.0
 40
0.5313301283
 41
3.1178197826
 42
3.9032222197
  0
ELLIPSE
  5
548
100
AcDbEntity
  8
0
100
AcDbEllipse
 62
7
  6
CONTINUOUS
 10
1.8138154971
 20
15.402688292
 30
0.0
 11
0.249929385
 21
0.0111824824
 31
0.0
 40
0.5313301283
 41
-2.3799630874
 42
-0.8149845248
  0
ELLIPSE
  5
549
100
AcDbEntity
  8
RACCORDO
100
AcDbEllipse
 62
7
  6
CONTINUOUS
 10
-0.6501583077
 20
14.0156293558
 30
0.0
 11
-0.0893847275
 21
0.1792122754
 31
0.0
 40
0.6116748051
 41
-0.6831523243
 42
0.0407937213
  0
ELLIPSE
  5
54A
100
AcDbEntity
  8
0
100
AcDbEllipse
 62
7
  6
CONTINUOUS
 10
9.1846415517
 20
20.4031706706
 30
0.0
 11
-0.3739417019
 21
0.598522373
 31
0.0
 40
0.554557473
 41
-3.1836090632
 42
-2.1562706881
  0
ELLIPSE
  5
54B
100
AcDbEntity
  8
0
100
AcDbEllipse
 62
7
  6
CONTINUOUS
 10
9.1846415517
 20
-17.6218691399
 30
0.0
 11
0.499443764
 21
0.3120915671
 31
0.0
 40
0.0755486457
 41
5.9766181181
 42
7.0039564932
  0
ELLIPSE
  5
54C
100
AcDbEntity
  8
0
100
AcDbEllipse
 62
7
  6
CONTINUOUS
 10
53.224513378
 20
45.9810741043
 30
0.0
 11
60.4168605605
 21
30.5632322457
 31
0.0
 40
0.005706723
 41
2.5167363259
 42
2.6876789752
  0
ELLIPSE
  5
54D
100
AcDbEntity
  8
0
100
AcDbEllipse
 62
7
  6
CONTINUOUS
 10
9.1846415517
 20
-16.7886359104
 30
0.0
 11
0.4999969381
 21
-0.0035375912
 31
0.0
 40
0.4946372042
 41
-0.7644452153
 42
0.7888978189
  0
ELLIPSE
  5
54E
100
AcDbEntity
  8
0
100
AcDbEllipse
 62
7
  6
CONTINUOUS
 10
4.1215594485
 20
21.40756644
 30
0.0
 11
0.221538876
 21
0.4482453432
 31
0.0
 40
0.6088015717
 41
0.5825560023
 42
0.6760875334
  0
ELLIPSE
  5
54F
100
AcDbEntity
  8
0
100
AcDbEllipse
 62
7
  6
CONTINUOUS
 10
-5.3600296899
 20
19.7044794725
 30
0.0
 11
0.199943508
 21
0.008945986
 31
0.0
 40
0.5313301283
 41
-2.3799630874
 42
-0.8178934069
  0
ELLIPSE
  5
550
100
AcDbEntity
  8
0
100
AcDbEllipse
 62
7
  6
CONTINUOUS
 10
-3.6592601485
 20
18.8540947018
 30
0.0
 11
0.199943508
 21
0.008945986
 31
0.0
 40
0.5313301283
 41
3.1178423524
 42
3.9032222197
  0
ELLIPSE
  5
551
100
AcDbEntity
  8
0
100
AcDbEllipse
 62
7
  6
CONTINUOUS
 10
-6.9832844879
 20
21.7406439295
 30
0.0
 11
0.0907039967
 21
0.1782526758
 31
0.0
 40
0.6176975122
 41
0.6948951487
 42
2.2598737113
  0
ELLIPSE
  5
552
100
AcDbEntity
  8
0
100
AcDbEllipse
 62
7
  6
CONTINUOUS
 10
53.224513378
 20
45.9810741043
 30
0.0
 11
60.4168605605
 21
30.5632322457
 31
0.0
 40
0.005706723
 41
-2.6934527084
 42
-2.5225100591
  0
ELLIPSE
  5
553
100
AcDbEntity
  8
0
100
AcDbEllipse
 62
7
  6
CONTINUOUS
 10
9.2722880378
 20
19.4707808441
 30
0.0
 11
-0.7356038977
 21
1.2035991204
 31
0.0
 40
0.5552491559
 41
5.0404636726
 42
6.2356708126
  0
ENDSEC
  0
SECTION
  2
OBJECTS
  0
DICTIONARY
  5
C
100
AcDbDictionary
280
0
281
1
  3
ACAD_GROUP
350
D
  3
ACAD_MLINESTYLE
350
17
  3
ACAD_LAYOUT
350
1A
  3
ACAD_PLOTSETTINGS
350
19
  3
ACAD_PLOTSTYLENAME
350
E
  0
DICTIONARY
  5
D
102
{ACAD_REACTORS
330
C
102
}
100
AcDbDictionary
280
0
281
1
  0
ACDBDICTIONARYWDFLT
  5
E
102
{ACAD_REACTORS
330
C
102
}
100
AcDbDictionary
281
1
  3
Normal
350
F
100
AcDbDictionaryWithDefault
340
F
  0
DICTIONARY
  5
17
102
{ACAD_REACTORS
330
C
102
}
100
AcDbDictionary
280
0
281
1
  3
Standard
350
18
  0
DICTIONARY
  5
19
102
{ACAD_REACTORS
330
C
102
}
100
AcDbDictionary
281
1
  0
DICTIONARY
  5
1A
102
{ACAD_REACTORS
330
C
102
}
100
AcDbDictionary
281
1
  3
Model
350
554
  3
Layout1
350
555
  0
ACDBPLACEHOLDER
  5
F
102
{ACAD_REACTORS
330
E
102
}
  0
MLINESTYLE
  5
18
102
{ACAD_REACTORS
330
17
102
}
100
AcDbMlineStyle
  2
STANDARD
 70
0
  3

 62
256
 51
90.0
 52
90.0
 71
2
 49
0.5
 62
256
  6
BYLAYER
 49
-0.5
 62
256
  6
BYLAYER
  0
LAYOUT
  5
554
102
{ACAD_REACTORS
330
1A
102
}
100
AcDbPlotSettings
  1

  2
none_device
  4
ANSI_C_(22.00_x_17.00_Inches)
  6

 40
0.0
 41
0.0
 42
0.0
 43
0.0
 44
558.8
 45
431.8
 46
0.0
 47
0.0
 48
0.0
 49
0.0
140
0.0
141
0.0
142
1.0
143
1.0
 70
1024
 72
1
 73
0
 74
0
  7

 75
0
147
1.0
148
0.0
149
0.0
100
AcDbLayout
  1
Model
 70
0
 71
0
 10
0.0
 20
0.0
 11
558.8
 21
431.8
 12
0.0
 22
0.0
 32
0.0
 14
0.0
 24
0.0
 34
0.0
 15
0.0
 25
0.0
 35
0.0
146
0.0
 13
0.0
 23
0.0
 33
0.0
 16
1.0
 26
0.0
 36
0.0
 17
0.0
 27
1.0
 37
0.0
 76
0
330
213
345
0
346
0
  0
LAYOUT
  5
555
102
{ACAD_REACTORS
330
1A
102
}
100
AcDbPlotSettings
  1

  2
none_device
  4
ANSI_C_(22.00_x_17.00_Inches)
  6

 40
0.0
 41
0.0
 42
0.0
 43
0.0
 44
558.8
 45
431.8
 46
0.0
 47
0.0
 48
0.0
 49
0.0
140
0.0
141
0.0
142
1.0
143
1.0
 70
0
 72
1
 73
0
 74
0
  7

 75
0
147
1.0
148
0.0
149
0.0
100
AcDbLayout
  1
Layout1
 70
0
 71
1
 10
0.0
 20
0.0
 11
558.8
 21
431.8
 12
0.0
 22
0.0
 32
0.0
 14
0.0
 24
0.0
 34
0.0
 15
0.0
 25
0.0
 35
0.0
146
0.0
 13
0.0
 23
0.0
 33
0.0
 16
1.0
 26
0.0
 36
0.0
 17
0.0
 27
1.0
 37
0.0
 76
0
330
214
345
0
346
0
  0
ENDSEC
  0
EOF
