  0
SECTION
  2
HEADER
  9
$ACADVER
  1
AC1021
  9
$DWGCODEPAGE
  3
ANSI_1252
  9
$EXTMAX
 10
297.0
 20
210.0
 30
0.0
  9
$EXTMIN
 10
0.0
 20
0.0
 30
0.0
  9
$LIMMIN
 10
0.0
 20
0.0
  9
$LIMMAX
 10
297.0
 20
210.0
  9
$VIEWCTR
 10
148.5
 20
105.0
  9
$VIEWSIZE
 40
210.0
  9
$CLAYER
  8
0
  9
$LTSCALE
 40
16.335
  9
$CELTYPE
  6
BYLAYER
  9
$DIMSCALE
 40
1.0
  9
$DIMASZ
 40
3.0
  9
$DIMEXO
 40
0.5
  9
$DIMDLI
 40
11.286
  9
$DIMEXE
 40
1.5
  9
$DIMCEN
 40
2.673
  9
$DIMLFAC
 40
1.0
  9
$DIMBLK
  1
_FILLED
  9
$DIMTXT
 40
3.0
  9
$DIMTOL
 70
1
  9
$DIMLIM
 70
0
  9
$DIMTFAC
 40
1.0
  9
$DIMTP
 40
0.01
  9
$DIMTM
 40
0.01
  9
$DIMGAP
 40
0.625
  9
$DIMDSEP
 70
44
  9
$PDMODE
 70
3
  9
$PDSIZE
 40
3.0
  9
$HANDSEED
  5
48D
  9
$TILEMODE
 70
1
  9
$MEASUREMENT
 70
1
  9
$INSUNITS
 70
4
  0
ENDSEC
  0
SECTION
  2
CLASSES
  0
CLASS
  1
ACDBDICTIONARYWDFLT
  2
AcDbDictionaryWithDefault
  3
AutoCAD 2000
 90
0
 91
1
280
0
281
0
  0
CLASS
  1
ACDBPLACEHOLDER
  2
AcDbPlaceHolder
  3
AutoCAD 2000
 90
0
 91
1
280
0
281
0
  0
CLASS
  1
LAYOUT
  2
AcDbLayout
  3
AutoCAD 2000
 90
0
 91
0
280
0
281
0
  0
ENDSEC
  0
SECTION
  2
TABLES
  0
TABLE
  2
VPORT
  5
8
100
AcDbSymbolTable
 70
2
  0
VPORT
  5
1F4
100
AcDbSymbolTableRecord
100
AcDbViewportTableRecord
  2
*ACTIVE
 70
0
 10
0.0
 20
0.0
 11
1.0
 21
1.0
 12
148.5
 22
105.0
 13
0.0
 23
0.0
 14
1.0
 24
1.0
 15
0.0
 25
0.0
 16
0.0
 26
0.0
 36
1.0
 17
0.0
 27
0.0
 37
0.0
 40
210.0
 41
1.4142857143
 42
50.0
 43
0.0
 44
0.0
 50
0.0
 51
0.0
 71
0
 72
100
 73
1
 74
1
 75
0
 76
0
 77
0
 78
0
  0
ENDTAB
  0
TABLE
  2
LTYPE
  5
5
100
AcDbSymbolTable
 70
6
  0
LTYPE
  5
14
100
AcDbSymbolTableRecord
100
AcDbLinetypeTableRecord
  2
BYBLOCK
 70
0
  3

 72
65
 73
0
 40
0.0
  0
LTYPE
  5
15
100
AcDbSymbolTableRecord
100
AcDbLinetypeTableRecord
  2
BYLAYER
 70
0
  3

 72
65
 73
0
 40
0.0
  0
LTYPE
  5
16
100
AcDbSymbolTableRecord
100
AcDbLinetypeTableRecord
  2
CONTINUOUS
 70
64
  3
Solid line
 72
65
 73
0
 40
0.0
  0
LTYPE
  5
1F5
100
AcDbSymbolTableRecord
100
AcDbLinetypeTableRecord
  2
CENTER
 70
64
  3
____ _ ____ _ ____ _ ____ _ ____ _ ____ _ ____
 72
65
 73
4
 40
0.6
 49
0.375
 74
0
 49
-0.075
 74
0
 49
0.075
 74
0
 49
-0.075
 74
0
  0
LTYPE
  5
1F6
100
AcDbSymbolTableRecord
100
AcDbLinetypeTableRecord
  2
HIDDEN
 70
64
  3
- - - - - - - - - - - - - - - - - - - -
 72
65
 73
2
 40
0.2
 49
0.1
 74
0
 49
-0.1
 74
0
  0
LTYPE
  5
1F7
100
AcDbSymbolTableRecord
100
AcDbLinetypeTableRecord
  2
PHANTOM
 70
64
  3
_____ _ _ _____ _ _ _____ _ _ _____
 72
65
 73
6
 40
0.8
 49
0.45
 74
0
 49
-0.05
 74
0
 49
0.1
 74
0
 49
-0.05
 74
0
 49
0.1
 74
0
 49
-0.05
 74
0
  0
LTYPE
  5
1F8
100
AcDbSymbolTableRecord
100
AcDbLinetypeTableRecord
  2
DOT
 70
64
  3
. . . . . . . . . . . . . . . . . . . .
 72
65
 73
2
 40
0.2
 49
0.1
 74
0
 49
-0.1
 74
0
  0
LTYPE
  5
1F9
100
AcDbSymbolTableRecord
100
AcDbLinetypeTableRecord
  2
DASHED
 70
64
  3
- - - - - - - - - - - - - - - - - - - -
 72
65
 73
2
 40
0.2
 49
0.1
 74
0
 49
-0.1
 74
0
  0
ENDTAB
  0
TABLE
  2
LAYER
  5
2
100
AcDbSymbolTable
 70
36
  0
LAYER
  5
10
100
AcDbSymbolTableRecord
100
AcDbLayerTableRecord
  2
0
 70
0
 62
7
  6
CONTINUOUS
370
-3
390
F
  0
LAYER
  5
1FA
100
AcDbSymbolTableRecord
100
AcDbLayerTableRecord
  2
DEFAULT_1
 70
0
 62
7
  6
CENTER
370
-3
390
F
  0
LAYER
  5
1FB
100
AcDbSymbolTableRecord
100
AcDbLayerTableRecord
  2
DEFAULT_2
 70
0
 62
7
  6
HIDDEN
370
-3
390
F
  0
LAYER
  5
1FC
100
AcDbSymbolTableRecord
100
AcDbLayerTableRecord
  2
DEFAULT_3
 70
0
 62
7
  6
PHANTOM
370
-3
390
F
  0
LAYER
  5
1FD
100
AcDbSymbolTableRecord
100
AcDbLayerTableRecord
  2
ASSI
 70
0
 62
7
  6
CONTINUOUS
370
-3
390
F
  0
LAYER
  5
1FE
100
AcDbSymbolTableRecord
100
AcDbLayerTableRecord
  2
COORDINATE
 70
0
 62
7
  6
CONTINUOUS
370
-3
390
F
  0
LAYER
  5
1FF
100
AcDbSymbolTableRecord
100
AcDbLayerTableRecord
  2
COORD_ORIGINE
 70
0
 62
7
  6
CONTINUOUS
370
-3
390
F
  0
LAYER
  5
200
100
AcDbSymbolTableRecord
100
AcDbLayerTableRecord
  2
COPY_PUBLISH
 70
0
 62
7
  6
CONTINUOUS
370
-3
390
F
  0
LAYER
  5
201
100
AcDbSymbolTableRecord
100
AcDbLayerTableRecord
  2
CORPO
 70
0
 62
7
  6
CONTINUOUS
370
-3
390
F
  0
LAYER
  5
202
100
AcDbSymbolTableRecord
100
AcDbLayerTableRecord
  2
COSMETICHE
 70
0
 62
7
  6
CONTINUOUS
370
-3
390
F
  0
LAYER
  5
203
100
AcDbSymbolTableRecord
100
AcDbLayerTableRecord
  2
COSMETICI
 70
0
 62
7
  6
CONTINUOUS
370
-3
390
F
  0
LAYER
  5
204
100
AcDbSymbolTableRecord
100
AcDbLayerTableRecord
  2
CURVE
 70
0
 62
7
  6
CONTINUOUS
370
-3
390
F
  0
LAYER
  5
205
100
AcDbSymbolTableRecord
100
AcDbLayerTableRecord
  2
DRAFT
 70
0
 62
7
  6
CONTINUOUS
370
-3
390
F
  0
LAYER
  5
206
100
AcDbSymbolTableRecord
100
AcDbLayerTableRecord
  2
IGES
 70
0
 62
7
  6
CONTINUOUS
370
-3
390
F
  0
LAYER
  5
207
100
AcDbSymbolTableRecord
100
AcDbLayerTableRecord
  2
IMPORT_IGES
 70
0
 62
7
  6
CONTINUOUS
370
-3
390
F
  0
LAYER
  5
208
100
AcDbSymbolTableRecord
100
AcDbLayerTableRecord
  2
INTF_1
 70
0
 62
7
  6
CONTINUOUS
370
-3
390
F
  0
LAYER
  5
209
100
AcDbSymbolTableRecord
100
AcDbLayerTableRecord
  2
NOTE
 70
0
 62
7
  6
CONTINUOUS
370
-3
390
F
  0
LAYER
  5
20A
100
AcDbSymbolTableRecord
100
AcDbLayerTableRecord
  2
PIANI
 70
0
 62
7
  6
CONTINUOUS
370
-3
390
F
  0
LAYER
  5
20B
100
AcDbSymbolTableRecord
100
AcDbLayerTableRecord
  2
PIANI_ORIGINE
 70
0
 62
7
  6
CONTINUOUS
370
-3
390
F
  0
LAYER
  5
20C
100
AcDbSymbolTableRecord
100
AcDbLayerTableRecord
  2
PUNTI
 70
0
 62
7
  6
CONTINUOUS
370
-3
390
F
  0
LAYER
  5
20D
100
AcDbSymbolTableRecord
100
AcDbLayerTableRecord
  2
RACCORDO
 70
0
 62
7
  6
CONTINUOUS
370
-3
390
F
  0
LAYER
  5
20E
100
AcDbSymbolTableRecord
100
AcDbLayerTableRecord
  2
RGB____0____0____0__
 70
0
 62
7
  6
CONTINUOUS
370
-3
390
F
  0
LAYER
  5
20F
100
AcDbSymbolTableRecord
100
AcDbLayerTableRecord
  2
SCRITTE
 70
0
 62
7
  6
CONTINUOUS
370
-3
390
F
  0
LAYER
  5
210
100
AcDbSymbolTableRecord
100
AcDbLayerTableRecord
  2
SIMBOLI
 70
0
 62
7
  6
CONTINUOUS
370
-3
390
F
  0
LAYER
  5
211
100
AcDbSymbolTableRecord
100
AcDbLayerTableRecord
  2
SMUSSO
 70
0
 62
7
  6
CONTINUOUS
370
-3
390
F
  0
LAYER
  5
212
100
AcDbSymbolTableRecord
100
AcDbLayerTableRecord
  2
SNAPLINE
 70
0
 62
7
  6
CONTINUOUS
370
-3
390
F
  0
LAYER
  5
213
100
AcDbSymbolTableRecord
100
AcDbLayerTableRecord
  2
SUPERFICI
 70
0
 62
7
  6
CONTINUOUS
370
-3
390
F
  0
LAYER
  5
214
100
AcDbSymbolTableRecord
100
AcDbLayerTableRecord
  2
TRASH
 70
0
 62
7
  6
CONTINUOUS
370
-3
390
F
  0
LAYER
  5
215
100
AcDbSymbolTableRecord
100
AcDbLayerTableRecord
  2
VARIANTE_COLORE
 70
0
 62
7
  6
CONTINUOUS
370
-3
390
F
  0
ENDTAB
  0
TABLE
  2
STYLE
  5
3
100
AcDbSymbolTable
 70
1
  0
STYLE
  5
11
100
AcDbSymbolTableRecord
100
AcDbTextStyleTableRecord
  2
STANDARD
 70
0
 40
0.0
 41
0.8
 50
0.0
 71
0
 42
0.2
  3
txt
  4

  0
STYLE
  5
216
100
AcDbSymbolTableRecord
100
AcDbTextStyleTableRecord
  2
TEXTSTYLE_1
 70
0
 40
0.0
 41
0.8
 50
0.0
 71
0
 42
0.2
  3
gdt
  4

  0
ENDTAB
  0
TABLE
  2
VIEW
  5
6
100
AcDbSymbolTable
 70
0
  0
ENDTAB
  0
TABLE
  2
UCS
  5
7
100
AcDbSymbolTable
 70
0
  0
ENDTAB
  0
TABLE
  2
APPID
  5
9
100
AcDbSymbolTable
 70
1
  0
APPID
  5
217
100
AcDbSymbolTableRecord
100
AcDbRegAppTableRecord
  2
ACAD
 70
0
  0
ENDTAB
  0
TABLE
  2
BLOCK_RECORD
  5
1
100
AcDbSymbolTable
 70
0
  0
BLOCK_RECORD
  5
218
100
AcDbSymbolTableRecord
100
AcDbBlockTableRecord
  2
*Model_Space
  0
BLOCK_RECORD
  5
219
100
AcDbSymbolTableRecord
100
AcDbBlockTableRecord
  2
*Paper_Space
  0
ENDTAB
  0
TABLE
  2
DIMSTYLE
  5
A
100
AcDbSymbolTable
 70
1
100
AcDbDimStyleTable
 71
0
  0
DIMSTYLE
105
21A
100
AcDbSymbolTableRecord
100
AcDbDimStyleTableRecord
  2
STANDARD
 70
0
  3

  4

 40
1.0
 41
3.0
 42
0.5
 43
0.38
 44
1.5
 45
0.0
 46
0.0
 47
0.01
 48
0.01
140
3.0
141
0.09
142
0.0
143
25.4
144
1.0
145
0.0
146
1.0
147
0.625
 71
1.0
 72
0.0
 73
0
 74
0
 75
0
 76
0
 77
1
 78
8
170
0
171
2
172
0
173
0
174
0
175
0
176
0
177
0
178
0
270
2
271
2
272
2
273
2
274
2
275
0
280
0
281
0
282
0
283
1
284
8
285
0
286
0
287
3
288
0
340
11
278
44
  0
ENDTAB
  0
ENDSEC
  0
SECTION
  2
BLOCKS
  0
BLOCK
  5
20
100
AcDbEntity
  8
0
100
AcDbBlockBegin
  2
*Model_Space
 70
0
 10
0.0
 20
0.0
 30
0.0
  3
*Model_Space
  1

  0
ENDBLK
  5
21
100
AcDbEntity
  8
0
100
AcDbBlockEnd
  0
BLOCK
  5
1C
100
AcDbEntity
  8
0
100
AcDbBlockBegin
  2
*Paper_Space
 70
0
 10
0.0
 20
0.0
 30
0.0
  3
*Paper_Space
  1

  0
ENDBLK
  5
1D
100
AcDbEntity
  8
0
100
AcDbBlockEnd
  0
ENDSEC
  0
SECTION
  2
ENTITIES
  0
LWPOLYLINE
  5
21B
100
AcDbEntity
  8
COPY_PUBLISH
100
AcDbPolyline
 62
7
  6
CONTINUOUS
 90
14
 70
0
 10
121.317055531
 20
133.8405485738
 10
121.245784991
 20
133.7946390474
 10
121.1813006046
 20
133.7450164301
 10
121.1199093038
 20
133.6897145776
 10
121.0618725572
 20
133.6290842229
 10
121.0078322063
 20
133.5639568857
 10
120.9578324803
 20
133.4945429728
 10
120.9120392252
 20
133.4210816839
 10
120.8711554671
 20
133.3447456411
 10
120.8352861708
 20
133.2658089043
 10
120.8046037977
 20
133.1845108754
 10
120.779634226
 20
133.1021101772
 10
120.7605491143
 20
133.0191612545
 10
120.7466211687
 20
132.9286470865
  0
LINE
  5
21C
100
AcDbEntity
  8
COPY_PUBLISH
100
AcDbLine
 62
7
  6
CONTINUOUS
 10
121.3168876599
 20
133.840450932
 11
125.348712907
 21
136.1913743379
  0
LINE
  5
21D
100
AcDbEntity
  8
COPY_PUBLISH
100
AcDbLine
 62
253
  6
CONTINUOUS
 10
121.5502417075
 20
133.8316835389
 11
125.4564236445
 21
136.1093453869
  0
LWPOLYLINE
  5
21E
100
AcDbEntity
  8
COPY_PUBLISH
100
AcDbPolyline
 62
7
  6
CONTINUOUS
 90
12
 70
0
 10
124.8893969287
 20
137.2059754893
 10
124.8685101299
 20
137.1939650779
 10
124.8475450054
 20
137.1789451872
 10
124.8282001908
 20
137.1618073616
 10
124.8106626938
 20
137.1426848732
 10
124.7951382061
 20
137.1217521391
 10
124.7818314547
 20
137.0992293707
 10
124.7709121983
 20
137.0753409555
 10
124.7625282771
 20
137.0503262199
 10
124.7568104317
 20
137.0244667065
 10
124.7538562004
 20
136.9980777979
 10
124.7534307074
 20
136.983544295
  0
LWPOLYLINE
  5
21F
100
AcDbEntity
  8
COPY_PUBLISH
100
AcDbPolyline
 62
253
  6
CONTINUOUS
 90
19
 70
0
 10
121.3170554791
 20
133.840548663
 10
121.3270576243
 20
133.8459457298
 10
121.3379974742
 20
133.8509530628
 10
121.3493111628
 20
133.8552435957
 10
121.3609803606
 20
133.8588103771
 10
121.3729861621
 20
133.8616476285
 10
121.3853091164
 20
133.8637507532
 10
121.397929259
 20
133.8651163439
 10
121.4108261436
 20
133.8657421882
 10
121.4239788759
 20
133.8656272721
 10
121.4373661468
 20
133.8647717818
 10
121.4509662675
 20
133.8631771033
 10
121.464757204
 20
133.8608458202
 10
121.4787166134
 20
133.8577817095
 10
121.4928218799
 20
133.8539897352
 10
121.5070501513
 20
133.849476041
 10
121.521378376
 20
133.8442479395
 10
121.5357833406
 20
133.8383139008
 10
121.5502417075
 20
133.8316835389
  0
LINE
  5
220
100
AcDbEntity
  8
COPY_PUBLISH
100
AcDbLine
 62
7
  6
CONTINUOUS
 10
124.8893165847
 20
137.2059343201
 11
126.4724882797
 21
138.0181313674
  0
LINE
  5
221
100
AcDbEntity
  8
COPY_PUBLISH
100
AcDbLine
 62
253
  6
CONTINUOUS
 10
125.0024022509
 20
137.1994863449
 11
126.585158854
 21
138.0114704423
  0
LINE
  5
222
100
AcDbEntity
  8
COPY_PUBLISH
100
AcDbLine
 62
253
  6
CONTINUOUS
 10
124.889316595
 20
137.2059343253
 11
124.8893969287
 21
137.2059754893
  0
LINE
  5
223
100
AcDbEntity
  8
COPY_PUBLISH
100
AcDbLine
 62
253
  6
CONTINUOUS
 10
126.6809403213
 20
136.3602173097
 11
128.2822211121
 21
137.1629393132
  0
LINE
  5
224
100
AcDbEntity
  8
COPY_PUBLISH
100
AcDbLine
 62
7
  6
CONTINUOUS
 10
126.4724902494
 20
138.0181323779
 11
126.4742266668
 21
138.019000601
  0
LINE
  5
225
100
AcDbEntity
  8
COPY_PUBLISH
100
AcDbLine
 62
253
  6
CONTINUOUS
 10
128.2822211121
 20
137.1629393132
 11
128.8104882838
 21
137.4263781333
  0
LINE
  5
226
100
AcDbEntity
  8
COPY_PUBLISH
100
AcDbLine
 62
7
  6
CONTINUOUS
 10
126.4742294308
 20
138.0190019474
 11
127.0090966216
 21
138.2795526999
  0
LWPOLYLINE
  5
227
100
AcDbEntity
  8
COPY_PUBLISH
100
AcDbPolyline
 62
253
  6
CONTINUOUS
 90
16
 70
0
 10
124.8893969287
 20
137.2059754893
 10
124.8927315387
 20
137.2075999233
 10
124.8994781908
 20
137.2104114387
 10
124.9064603935
 20
137.2127088303
 10
124.9136623968
 20
137.2144869026
 10
124.9210678201
 20
137.2157415984
 10
124.9286597215
 20
137.2164700604
 10
124.9364207849
 20
137.2166706683
 10
124.9443335181
 20
137.2163430102
 10
124.952380138
 20
137.2154878369
 10
124.9605436409
 20
137.2141068404
 10
124.9688043352
 20
137.2122032385
 10
124.9771399078
 20
137.2097824947
 10
124.9855301914
 20
137.2068512092
 10
124.9939573334
 20
137.2034163569
 10
125.0024022509
 20
137.1994863449
  0
LINE
  5
228
100
AcDbEntity
  8
COPY_PUBLISH
100
AcDbLine
 62
253
  6
CONTINUOUS
 10
126.585158854
 20
138.0114704423
 11
127.1196087327
 21
138.2718179088
  0
LWPOLYLINE
  5
229
100
AcDbEntity
  8
COPY_PUBLISH
100
AcDbPolyline
 62
7
  6
CONTINUOUS
 90
16
 70
0
 10
126.4742266668
 20
138.019000601
 10
126.475884293
 20
138.0197881084
 10
126.4826197819
 20
138.0225956464
 10
126.4895875211
 20
138.0248875079
 10
126.4967717782
 20
138.0266585278
 10
126.5041562938
 20
138.0279047028
 10
126.5117242482
 20
138.028623168
 10
126.5194585697
 20
138.0288123331
 10
126.5273417756
 20
138.0284717898
 10
126.5353558751
 20
138.0276022482
 10
126.5434828055
 20
138.0262057252
 10
126.5517042165
 20
138.0242854153
 10
126.5600013132
 20
138.0218455886
 10
126.5683553066
 20
138.0188917777
 10
126.5767474557
 20
138.0154307647
 10
126.585158854
 20
138.0114704423
  0
LWPOLYLINE
  5
22A
100
AcDbEntity
  8
COPY_PUBLISH
100
AcDbPolyline
 62
253
  6
CONTINUOUS
 90
16
 70
0
 10
127.0090966328
 20
138.2795527054
 10
127.010769345
 20
138.2803471494
 10
127.0174962753
 20
138.2831488039
 10
127.0244522569
 20
138.285433085
 10
127.0316215988
 20
138.2871948265
 10
127.0389879945
 20
138.2884300085
 10
127.0465345915
 20
138.2891358184
 10
127.0542441776
 20
138.2893106876
 10
127.0620993768
 20
138.2889542625
 10
127.0700825355
 20
138.2880673586
 10
127.0781767831
 20
138.2866517345
 10
127.0863625938
 20
138.2847106908
 10
127.09461786
 20
138.2822497938
 10
127.1029226157
 20
138.2792757443
 10
127.1112591972
 20
138.2757956118
 10
127.1196087327
 20
138.2718179088
  0
LWPOLYLINE
  5
22B
100
AcDbEntity
  8
COPY_PUBLISH
100
AcDbPolyline
 62
7
  6
CONTINUOUS
 90
3
 70
0
 10
127.0467360486
 20
138.2942553914
 10
127.0168498206
 20
138.2831666094
 10
127.0089324818
 20
138.2794725438
  0
LINE
  5
22C
100
AcDbEntity
  8
COPY_PUBLISH
100
AcDbLine
 62
253
  6
CONTINUOUS
 10
141.2909199802
 20
89.322523942
 11
140.7626528084
 21
89.4310262191
  0
LWPOLYLINE
  5
22D
100
AcDbEntity
  8
COPY_PUBLISH
100
AcDbPolyline
 62
7
  6
CONTINUOUS
 90
16
 70
0
 10
139.8725926257
 20
89.1154171782
 10
139.8668539424
 20
89.1166348675
 10
139.8609282228
 20
89.1179529419
 10
139.8548167412
 20
89.119367518
 10
139.8485181648
 20
89.1208707827
 10
139.8420371096
 20
89.1224622278
 10
139.835384082
 20
89.1241486773
 10
139.8285611973
 20
89.1259253472
 10
139.821570995
 20
89.1277876622
 10
139.8144248784
 20
89.129742535
 10
139.807125694
 20
89.1317846818
 10
139.7996766763
 20
89.1339090003
 10
139.7920900678
 20
89.1361224522
 10
139.7843694724
 20
89.1384192613
 10
139.7765188369
 20
89.1407938088
 10
139.768551177
 20
89.1432530668
  0
LWPOLYLINE
  5
22E
100
AcDbEntity
  8
COPY_PUBLISH
100
AcDbPolyline
 62
7
  6
CONTINUOUS
 90
3
 70
0
 10
139.768551177
 20
89.1432530668
 10
139.7522825658
 20
89.148400829
 10
139.7440001116
 20
89.1510901167
  0
LWPOLYLINE
  5
22F
100
AcDbEntity
  8
COPY_PUBLISH
100
AcDbPolyline
 62
7
  6
CONTINUOUS
 90
3
 70
0
 10
139.7440001116
 20
89.1510901167
 10
139.7271736105
 20
89.1566796479
 10
139.7186496238
 20
89.1595800331
  0
LWPOLYLINE
  5
230
100
AcDbEntity
  8
COPY_PUBLISH
100
AcDbPolyline
 62
253
  6
CONTINUOUS
 90
34
 70
0
 10
138.8088500579
 20
87.9244594908
 10
138.8174302608
 20
87.9203681921
 10
138.8263887841
 20
87.9164848928
 10
138.8357054799
 20
87.9128183281
 10
138.8453594008
 20
87.9093767437
 10
138.8553288285
 20
87.9061678839
 10
138.8655913212
 20
87.9031989727
 10
138.8761237901
 20
87.9004766888
 10
138.8869025506
 20
87.8980071534
 10
138.897903355
 20
87.8957959211
 10
138.9091014616
 20
87.8938479648
 10
138.9204716813
 20
87.8921676655
 10
138.9319884309
 20
87.8907588029
 10
138.9436258042
 20
87.8896245449
 10
138.9553576281
 20
87.8887674411
 10
138.9671575112
 20
87.8881894181
 10
138.9789989194
 20
87.8878917744
 10
138.990855213
 20
87.8878751782
 10
139.0026997035
 20
87.8881396647
 10
139.0145057182
 20
87.888684634
 10
139.0262467377
 20
87.8895088575
 10
139.0378964318
 20
87.8906104867
 10
139.0494287056
 20
87.8919870602
 10
139.0608175103
 20
87.8936354754
 10
139.072036989
 20
87.8955519827
 10
139.0830617715
 20
87.8977322257
 10
139.093867227
 20
87.9001713105
 10
139.1044292649
 20
87.9028637905
 10
139.1147256588
 20
87.905804071
 10
139.1247316395
 20
87.9089851519
 10
139.1344205803
 20
87.9123983524
 10
139.1437698005
 20
87.9160351629
 10
139.1527601772
 20
87.9198876069
 10
139.1613720176
 20
87.923946767
  0
LWPOLYLINE
  5
231
100
AcDbEntity
  8
COPY_PUBLISH
100
AcDbPolyline
 62
253
  6
CONTINUOUS
 90
34
 70
0
 10
138.8088500579
 20
88.2644334249
 10
138.8174267107
 20
88.2603437405
 10
138.8263820186
 20
88.256461622
 10
138.8356959309
 20
88.2527958403
 10
138.8453478149
 20
88.2493546045
 10
138.8553158228
 20
88.2461457896
 10
138.8655768677
 20
88.2431768628
 10
138.8761076161
 20
88.2404545636
 10
138.886884634
 20
88.2379849385
 10
138.897883712
 20
88.235773536
 10
138.9090801375
 20
88.2338253277
 10
138.9204487161
 20
88.2321446999
 10
138.931963852
 20
88.2307354373
 10
138.9435996377
 20
88.2296007095
 10
138.955329921
 20
88.2287430658
 10
138.9671283311
 20
88.2281644339
 10
138.9789683389
 20
88.2278661149
 10
138.9908233185
 20
88.2278487798
 10
139.002666614
 20
88.2281124675
 10
139.0144715943
 20
88.2286565851
 10
139.0262117133
 20
88.2294799092
 10
139.0378605714
 20
88.2305805886
 10
139.0493919726
 20
88.231956148
 10
139.0607799881
 20
88.2336034945
 10
139.0719990149
 20
88.2355189248
 10
139.0830238346
 20
88.2376981341
 10
139.0938296454
 20
88.240136221
 10
139.1043921233
 20
88.2428276968
 10
139.114687504
 20
88.2457665034
 10
139.1246926532
 20
88.248946035
 10
139.1343850917
 20
88.2523591468
 10
139.1437430302
 20
88.2559981663
 10
139.1527454199
 20
88.2598549085
 10
139.1613720176
 20
88.2639207011
  0
LWPOLYLINE
  5
232
100
AcDbEntity
  8
COPY_PUBLISH
100
AcDbPolyline
 62
7
  6
CONTINUOUS
 90
12
 70
0
 10
136.0378060205
 20
88.1622782209
 10
136.0540410659
 20
88.1544059042
 10
136.1092174024
 20
88.1313718618
 10
136.1667058983
 20
88.11300282
 10
136.2260191514
 20
88.0995527228
 10
136.2868401005
 20
88.0911679935
 10
136.3490806392
 20
88.0879708149
 10
136.4123753403
 20
88.0901166141
 10
136.4762839949
 20
88.0977116571
 10
136.5407034611
 20
88.1108812999
 10
136.6054009091
 20
88.1297616437
 10
136.6638499215
 20
88.1518305915
  0
LINE
  5
233
100
AcDbEntity
  8
COPY_PUBLISH
100
AcDbLine
 62
7
  6
CONTINUOUS
 10
136.0383325358
 20
88.1620141683
 11
121.1436106599
 21
95.6093751063
  0
LINE
  5
234
100
AcDbEntity
  8
COPY_PUBLISH
100
AcDbLine
 62
253
  6
CONTINUOUS
 10
135.7841414594
 20
88.5788019876
 11
120.8938273405
 21
96.0239590471
  0
LINE
  5
235
100
AcDbEntity
  8
COPY_PUBLISH
100
AcDbLine
 62
7
  6
CONTINUOUS
 10
137.4710148986
 20
88.4906452686
 11
138.8738233544
 21
87.7892410407
  0
LINE
  5
236
100
AcDbEntity
  8
COPY_PUBLISH
100
AcDbLine
 62
253
  6
CONTINUOUS
 10
137.5827091134
 20
88.5375299631
 11
138.8088500579
 21
87.9244594908
  0
LINE
  5
237
100
AcDbEntity
  8
COPY_PUBLISH
100
AcDbLine
 62
253
  6
CONTINUOUS
 10
138.8088500579
 20
88.2644334249
 11
137.952342673
 21
88.6926871174
  0
LINE
  5
238
100
AcDbEntity
  8
COPY_PUBLISH
100
AcDbLine
 62
253
  6
CONTINUOUS
 10
138.8736634964
 20
87.7893211604
 11
138.8738233656
 21
87.7892410351
  0
LINE
  5
239
100
AcDbEntity
  8
COPY_PUBLISH
100
AcDbLine
 62
253
  6
CONTINUOUS
 10
121.1436152561
 20
95.6093728082
 11
121.1331450431
 21
95.6148191662
  0
LWPOLYLINE
  5
23A
100
AcDbEntity
  8
COPY_PUBLISH
100
AcDbPolyline
 62
253
  6
CONTINUOUS
 90
23
 70
0
 10
121.1331450431
 20
95.6148191662
 10
121.11597896
 20
95.6247039109
 10
121.0993130304
 20
95.6355243033
 10
121.0831651198
 20
95.6472687638
 10
121.067552058
 20
95.6599249795
 10
121.0524905376
 20
95.6734794598
 10
121.0379967281
 20
95.6879177161
 10
121.024085786
 20
95.7032245076
 10
121.010772609
 20
95.7193834928
 10
120.9980714521
 20
95.7363774522
 10
120.9859955452
 20
95.7541884729
 10
120.9745578119
 20
95.7727975741
 10
120.9637705105
 20
95.7921849402
 10
120.9536448571
 20
95.8123301524
 10
120.9441916456
 20
95.8332118737
 10
120.9354210696
 20
95.8548077947
 10
120.9273423532
 20
95.8770948586
 10
120.9199641704
 20
95.9000491709
 10
120.9132943626
 20
95.9236464703
 10
120.9073397923
 20
95.9478621012
 10
120.9021067679
 20
95.9726704855
 10
120.8976010032
 20
95.9980451195
 10
120.8938273405
 20
96.0239590471
  0
LWPOLYLINE
  5
23B
100
AcDbEntity
  8
COPY_PUBLISH
100
AcDbPolyline
 62
7
  6
CONTINUOUS
 90
9
 70
0
 10
120.8221167167
 20
95.9416847853
 10
120.8517903672
 20
95.8855754834
 10
120.8853910416
 20
95.8331532707
 10
120.9226411921
 20
95.7845947762
 10
120.963515773
 20
95.7397932693
 10
121.0076798505
 20
95.6990439646
 10
121.0547972022
 20
95.6625687275
 10
121.1049029239
 20
95.6303188713
 10
121.1439949555
 20
95.6091835196
  0
LINE
  5
23C
100
AcDbEntity
  8
COPY_PUBLISH
100
AcDbLine
 62
253
  6
CONTINUOUS
 10
128.4589948158
 20
136.131004922
 11
128.9872619875
 21
136.7739570777
  0
LINE
  5
23D
100
AcDbEntity
  8
COPY_PUBLISH
100
AcDbLine
 62
7
  6
CONTINUOUS
 10
128.4589948158
 20
136.0414744556
 11
129.0026225599
 21
136.7031219111
  0
LWPOLYLINE
  5
23E
100
AcDbEntity
  8
COPY_PUBLISH
100
AcDbPolyline
 62
7
  6
CONTINUOUS
 90
41
 70
0
 10
127.568934633
 20
135.5668503139
 10
127.5631959498
 20
135.5601375414
 10
127.5572702301
 20
135.5534963097
 10
127.5511587485
 20
135.5469350533
 10
127.5448601722
 20
135.5404631405
 10
127.5383791169
 20
135.5340882149
 10
127.5317260893
 20
135.5278162317
 10
127.5249032047
 20
135.5216559138
 10
127.5179130024
 20
135.5156158207
 10
127.5107668857
 20
135.50970179
 10
127.5034677014
 20
135.5039226229
 10
127.4960186836
 20
135.4982869357
 10
127.4884320751
 20
135.4928004182
 10
127.4807114797
 20
135.4874718847
 10
127.4728608442
 20
135.4823099391
 10
127.4648931844
 20
135.4773200907
 10
127.45681286
 20
135.4725110837
 10
127.4486245731
 20
135.4678914558
 10
127.440342119
 20
135.4634665491
 10
127.431970641
 20
135.4592449633
 10
127.4235156179
 20
135.4552350877
 10
127.4149916311
 20
135.4514420938
 10
127.4064046311
 20
135.4478743459
 10
127.3977609016
 20
135.4445399948
 10
127.3890758334
 20
135.441444025
 10
127.380356211
 20
135.4385944595
 10
127.3716091467
 20
135.4359991001
 10
127.3628508649
 20
135.4336627018
 10
127.3540890136
 20
135.4315928185
 10
127.3453315466
 20
135.4297967672
 10
127.336595524
 20
135.4282789894
 10
127.3278894853
 20
135.4270464172
 10
127.3192222203
 20
135.4261057165
 10
127.3106115705
 20
135.4254608807
 10
127.3020670165
 20
135.4251180387
 10
127.2935981216
 20
135.425083007
 10
127.2852232762
 20
135.4253591494
 10
127.2769528728
 20
135.4259515883
 10
127.2687972169
 20
135.4268650891
 10
127.2607749962
 20
135.4281021989
 10
127.2551074606
 20
135.4291914308
  0
LWPOLYLINE
  5
23F
100
AcDbEntity
  8
RACCORDO
100
AcDbPolyline
 62
7
  6
CONTINUOUS
 90
9
 70
0
 10
129.5241849977
 20
135.1823273342
 10
129.5092754764
 20
135.1722164942
 10
129.496811134
 20
135.1602150173
 10
129.4867123189
 20
135.1465068503
 10
129.4788875465
 20
135.1311042634
 10
129.4731331156
 20
135.1143029329
 10
129.4692242554
 20
135.0966688429
 10
129.4670348868
 20
135.0783554585
 10
129.4664272735
 20
135.0607643969
  0
LINE
  5
240
100
AcDbEntity
  8
COPY_PUBLISH
100
AcDbLine
 62
7
  6
CONTINUOUS
 10
128.4589948158
 20
135.2558991135
 11
127.568934633
 21
134.7592181922
  0
LINE
  5
241
100
AcDbEntity
  8
RACCORDO
100
AcDbLine
 62
7
  6
CONTINUOUS
 10
130.4388938031
 20
135.6515902658
 11
129.5241849977
 21
135.1823273342
  0
LINE
  5
242
100
AcDbEntity
  8
COPY_PUBLISH
100
AcDbLine
 62
253
  6
CONTINUOUS
 10
126.857714025
 20
136.0553277709
 11
128.4589948158
 21
136.8580497744
  0
LINE
  5
243
100
AcDbEntity
  8
COPY_PUBLISH
100
AcDbLine
 62
253
  6
CONTINUOUS
 10
128.4589948158
 20
136.8580497744
 11
128.9872619875
 21
137.1214885945
  0
LINE
  5
244
100
AcDbEntity
  8
COPY_PUBLISH
100
AcDbLine
 62
7
  6
CONTINUOUS
 10
135.775117209
 20
138.2510337313
 11
130.4388938031
 21
135.6515902658
  0
LINE
  5
245
100
AcDbEntity
  8
COPY_PUBLISH
100
AcDbLine
 62
7
  6
CONTINUOUS
 10
136.6391864965
 20
139.2436742353
 11
129.1619877701
 21
135.6064710291
  0
LWPOLYLINE
  5
246
100
AcDbEntity
  8
RACCORDO
100
AcDbPolyline
 62
253
  6
CONTINUOUS
 90
11
 70
0
 10
147.4539080139
 20
142.4153983572
 10
147.5854478893
 20
142.4650627417
 10
147.7228455923
 20
142.5009756337
 10
147.8655097034
 20
142.5229811485
 10
148.0128160057
 20
142.5309826092
 10
148.1641264211
 20
142.5249503125
 10
148.3188035764
 20
142.5049139128
 10
148.476199581
 20
142.4709533081
 10
148.6356483821
 20
142.4232084975
 10
148.7964673605
 20
142.3618849975
 10
148.9579719076
 20
142.2872441848
  0
LINE
  5
247
100
AcDbEntity
  8
COPY_PUBLISH
100
AcDbLine
 62
7
  6
CONTINUOUS
 10
135.8083199067
 20
138.2653151361
 11
135.8191688796
 21
138.2690155549
  0
LINE
  5
248
100
AcDbEntity
  8
COPY_PUBLISH
100
AcDbLine
 62
253
  6
CONTINUOUS
 10
141.2015061848
 20
89.642090748
 11
140.7626528084
 21
89.7322280747
  0
LWPOLYLINE
  5
249
100
AcDbEntity
  8
COPY_PUBLISH
100
AcDbPolyline
 62
7
  6
CONTINUOUS
 90
3
 70
0
 10
139.7186496238
 20
89.1595800331
 10
139.7014188942
 20
89.1655702357
 10
139.692733826
 20
89.1686594548
  0
LWPOLYLINE
  5
24A
100
AcDbEntity
  8
COPY_PUBLISH
100
AcDbPolyline
 62
7
  6
CONTINUOUS
 90
3
 70
0
 10
139.692733826
 20
89.1686594548
 10
139.6752671394
 20
89.1750023725
 10
139.6665088576
 20
89.1782546108
  0
LWPOLYLINE
  5
24B
100
AcDbEntity
  8
COPY_PUBLISH
100
AcDbPolyline
 62
7
  6
CONTINUOUS
 90
17
 70
0
 10
139.6665088576
 20
89.1782546108
 10
139.6489895393
 20
89.1848949625
 10
139.6402535166
 20
89.1882806116
 10
139.6315474779
 20
89.1917035673
 10
139.622880213
 20
89.1951553049
 10
139.6142695631
 20
89.1986407329
 10
139.6057250091
 20
89.2021513987
 10
139.5972561143
 20
89.2056784244
 10
139.5888812688
 20
89.2092258458
 10
139.5806108655
 20
89.2127850815
 10
139.5724552095
 20
89.2163469809
 10
139.5644329889
 20
89.2199145326
 10
139.5565657748
 20
89.2234729767
 10
139.5488540021
 20
89.2270196878
 10
139.54128611
 20
89.2305734067
 10
139.5338675747
 20
89.2341316469
 10
139.5266196946
 20
89.2376733894
  0
LWPOLYLINE
  5
24C
100
AcDbEntity
  8
COPY_PUBLISH
100
AcDbPolyline
 62
253
  6
CONTINUOUS
 90
5
 70
0
 10
141.2248093059
 20
89.6340592437
 10
141.2207156037
 20
89.6359775315
 10
141.2144988388
 20
89.6384506529
 10
141.2080915763
 20
89.6404895316
 10
141.2015061848
 20
89.642090748
  0
LINE
  5
24D
100
AcDbEntity
  8
COPY_PUBLISH
100
AcDbLine
 62
253
  6
CONTINUOUS
 10
141.2249199573
 20
89.6340040113
 11
141.2248093059
 21
89.6340592437
  0
LINE
  5
24E
100
AcDbEntity
  8
COPY_PUBLISH
100
AcDbLine
 62
253
  6
CONTINUOUS
 10
138.8972384056
 20
88.4961275988
 11
138.2522997631
 21
88.81859692
  0
LINE
  5
24F
100
AcDbEntity
  8
COPY_PUBLISH
100
AcDbLine
 62
7
  6
CONTINUOUS
 10
139.5266196946
 20
89.2376733894
 11
139.4006636232
 21
89.3006334235
  0
LINE
  5
250
100
AcDbEntity
  8
COPY_PUBLISH
100
AcDbLine
 62
253
  6
CONTINUOUS
 10
140.7626528084
 20
89.8615174362
 11
141.2015061848
 21
89.642090748
  0
LINE
  5
251
100
AcDbEntity
  8
COPY_PUBLISH
100
AcDbLine
 62
7
  6
CONTINUOUS
 10
140.7626528084
 20
89.8651375857
 11
141.224921236
 21
89.6340033719
  0
LWPOLYLINE
  5
252
100
AcDbEntity
  8
COPY_PUBLISH
100
AcDbPolyline
 62
7
  6
CONTINUOUS
 90
5
 70
0
 10
120.7475748784
 20
96.1990673934
 10
120.7590452165
 20
96.1306833423
 10
120.7755681555
 20
96.0641878644
 10
120.7966705494
 20
96.0011824302
 10
120.8221167167
 20
95.9416847853
  0
LWPOLYLINE
  5
253
100
AcDbEntity
  8
COPY_PUBLISH
100
AcDbPolyline
 62
253
  6
CONTINUOUS
 90
18
 70
0
 10
120.7475747135
 20
96.199067372
 10
120.7486402263
 20
96.1920399221
 10
120.7512587329
 20
96.1796151599
 10
120.7547936409
 20
96.1673462713
 10
120.7592383683
 20
96.1552561004
 10
120.7645846393
 20
96.1433671588
 10
120.7708224994
 20
96.1317015833
 10
120.7779403337
 20
96.1202810946
 10
120.7859248892
 20
96.1091269574
 10
120.7947612989
 20
96.0982599404
 10
120.8044331098
 20
96.0877002774
 10
120.8149223131
 20
96.0774676302
 10
120.8262093785
 20
96.0675810516
 10
120.8382732898
 20
96.0580589502
 10
120.8510915845
 20
96.0489190557
 10
120.8646403952
 20
96.0401783862
 10
120.8788944947
 20
96.0318532167
 10
120.8938273422
 20
96.0239590482
  0
LWPOLYLINE
  5
254
100
AcDbEntity
  8
COPY_PUBLISH
100
AcDbPolyline
 62
253
  6
CONTINUOUS
 90
19
 70
0
 10
120.0594765677
 20
105.9869262426
 10
120.0601360403
 20
105.9756538313
 10
120.0617209462
 20
105.9646609655
 10
120.0642323168
 20
105.9537238475
 10
120.0676654769
 20
105.9428628368
 10
120.0720140358
 20
105.9320981513
 10
120.0772698986
 20
105.9214498294
 10
120.0834232815
 20
105.9109376931
 10
120.0904627299
 20
105.9005813107
 10
120.0983751399
 20
105.8903999607
 10
120.1071457825
 20
105.8804125957
 10
120.1167583311
 20
105.8706378073
 10
120.1271948918
 20
105.8610937913
 10
120.1384360371
 20
105.8517983138
 10
120.1504608413
 20
105.8427686786
 10
120.1632469204
 20
105.8340216942
 10
120.176770473
 20
105.8255736432
 10
120.1910063248
 20
105.8174402518
 10
120.2059279758
 20
105.8096366602
  0
LWPOLYLINE
  5
255
100
AcDbEntity
  8
COPY_PUBLISH
100
AcDbPolyline
 62
7
  6
CONTINUOUS
 90
10
 70
0
 10
120.0594765663
 20
105.9869264014
 10
120.082001535
 20
104.9166805197
 10
120.1190082771
 20
103.7902796876
 10
120.1695349033
 20
102.6715898713
 10
120.2335724884
 20
101.5608481614
 10
120.3111096855
 20
100.4582870563
 10
120.4021325651
 20
99.3641395605
 10
120.5066249227
 20
98.2786349109
 10
120.6245676995
 20
97.2020039477
 10
120.7475410521
 20
96.1993266266
  0
LWPOLYLINE
  5
256
100
AcDbEntity
  8
COPY_PUBLISH
100
AcDbPolyline
 62
253
  6
CONTINUOUS
 90
13
 70
0
 10
120.2059279757
 20
105.8096366601
 10
120.1867663426
 20
107.1708653846
 10
120.1710888535
 20
108.5339392503
 10
120.1588954549
 20
109.8988444742
 10
120.1501861038
 20
111.2655580986
 10
120.144960582
 20
112.6340754414
 10
120.143218734
 20
114.0044102166
 10
120.1449605808
 20
115.3765486866
 10
120.1501861017
 20
116.750477087
 10
120.1588954524
 20
118.1262092783
 10
120.171088851
 20
119.5037407936
 10
120.1867663409
 20
120.8830487213
 10
120.2059279757
 20
122.264119332
  0
LWPOLYLINE
  5
257
100
AcDbEntity
  8
COPY_PUBLISH
100
AcDbPolyline
 62
253
  6
CONTINUOUS
 90
20
 70
0
 10
120.0594747329
 20
122.4401988746
 10
120.0594805507
 20
122.4362450451
 10
120.0601360418
 20
122.4257124759
 10
120.0617209479
 20
122.4151927965
 10
120.0642323184
 20
122.4047055894
 10
120.0676654786
 20
122.3942703765
 10
120.0720140375
 20
122.3839065829
 10
120.0772699004
 20
122.3736335011
 10
120.0834232833
 20
122.3634702543
 10
120.0904627317
 20
122.3534357615
 10
120.0983751417
 20
122.3435487019
 10
120.1071457843
 20
122.3338274804
 10
120.1167583328
 20
122.324290193
 10
120.1271948936
 20
122.3149545935
 10
120.1384360388
 20
122.3058380601
 10
120.150460843
 20
122.2969575633
 10
120.1632469221
 20
122.2883296342
 10
120.1767704746
 20
122.2799703336
 10
120.1910063264
 20
122.2718952226
 10
120.2059279774
 20
122.2641193328
  0
LWPOLYLINE
  5
258
100
AcDbEntity
  8
COPY_PUBLISH
100
AcDbPolyline
 62
7
  6
CONTINUOUS
 90
10
 70
0
 10
120.0594747334
 20
122.4401990121
 10
120.0352890017
 20
120.6488784259
 10
120.0164167497
 20
118.7961579839
 10
120.0038383181
 20
116.9466055927
 10
119.9975539747
 20
115.1002558381
 10
119.9975638637
 20
113.2571409969
 10
120.0038680388
 20
111.4172927054
 10
120.0164664628
 20
109.580743145
 10
120.0353589755
 20
107.7475266807
 10
120.0594765677
 20
105.9869262426
  0
LWPOLYLINE
  5
259
100
AcDbEntity
  8
COPY_PUBLISH
100
AcDbPolyline
 62
253
  6
CONTINUOUS
 90
16
 70
0
 10
120.2059279757
 20
122.264119332
 10
120.2186513559
 20
122.9495314725
 10
120.2361189961
 20
123.6372356079
 10
120.2583295478
 20
124.3271795576
 10
120.2852812525
 20
125.0193109685
 10
120.3169720725
 20
125.7135773358
 10
120.3533996926
 20
126.4099260078
 10
120.3945612857
 20
127.1083042197
 10
120.4404536916
 20
127.8086589391
 10
120.4910735475
 20
128.5109368867
 10
120.5464169218
 20
129.2150847584
 10
120.6064795633
 20
129.9210491904
 10
120.6712570831
 20
130.628776606
 10
120.7407445641
 20
131.3382133242
 10
120.8149365591
 20
132.0493055635
 10
120.8938273405
 20
132.7619994067
  0
LWPOLYLINE
  5
25A
100
AcDbEntity
  8
COPY_PUBLISH
100
AcDbPolyline
 62
253
  6
CONTINUOUS
 90
21
 70
0
 10
120.7466211687
 20
132.9286470865
 10
120.7463234341
 20
132.9253967483
 10
120.7461703561
 20
132.9167022784
 10
120.7469431537
 20
132.9079250013
 10
120.748640388
 20
132.8990812598
 10
120.7512588988
 20
132.8901875207
 10
120.7547938104
 20
132.8812603438
 10
120.7592385411
 20
132.8723163512
 10
120.7645848149
 20
132.8633721963
 10
120.7708226772
 20
132.8544445328
 10
120.7779405134
 20
132.8455499837
 10
120.7859250702
 20
132.8367051102
 10
120.7947614808
 20
132.8279263814
 10
120.8044332921
 20
132.8192301427
 10
120.8149224954
 20
132.8106325864
 10
120.8262095603
 20
132.8021497207
 10
120.8382734707
 20
132.7937973405
 10
120.8510917639
 20
132.7855909975
 10
120.8646405729
 20
132.7775459718
 10
120.8788946702
 20
132.7696772427
 10
120.8938275151
 20
132.7619994617
  0
LWPOLYLINE
  5
25B
100
AcDbEntity
  8
COPY_PUBLISH
100
AcDbPolyline
 62
7
  6
CONTINUOUS
 90
10
 70
0
 10
120.7466370927
 20
132.9287893321
 10
120.6232542894
 20
131.7947184895
 10
120.5055701415
 20
130.5979020075
 10
120.401297618
 20
129.4059273077
 10
120.3104601325
 20
128.2190467141
 10
120.2330783231
 20
127.0375092488
 10
120.1691705412
 20
125.8615661101
 10
120.1187524253
 20
124.6914640955
 10
120.081837146
 20
123.5274513485
 10
120.0594747329
 20
122.4401988746
  0
LWPOLYLINE
  5
25C
100
AcDbEntity
  8
COPY_PUBLISH
100
AcDbPolyline
 62
253
  6
CONTINUOUS
 90
43
 70
0
 10
120.8938273405
 20
132.7619994067
 10
120.8976010032
 20
132.7917536103
 10
120.9021067679
 20
132.8217133198
 10
120.9073397923
 20
132.8518467364
 10
120.9132943626
 20
132.8821217663
 10
120.9199641704
 20
132.9125063994
 10
120.9273423532
 20
132.9429687481
 10
120.9354210696
 20
132.9734767511
 10
120.9441916456
 20
133.0039977984
 10
120.9536448571
 20
133.0344991142
 10
120.9637705105
 20
133.0649482311
 10
120.9745578119
 20
133.0953129825
 10
120.9859955452
 20
133.1255611312
 10
120.9980714521
 20
133.1556606402
 10
121.010772609
 20
133.1855795682
 10
121.024085786
 20
133.2152860605
 10
121.0379967281
 20
133.244748676
 10
121.0524905376
 20
133.2739361421
 10
121.067552058
 20
133.3028172492
 10
121.0831651198
 20
133.3313613697
 10
121.0993130304
 20
133.3595382899
 10
121.11597896
 20
133.3873179625
 10
121.1331450431
 20
133.4146709704
 10
121.1507929047
 20
133.4415683348
 10
121.1689041499
 20
133.4679813461
 10
121.1874593895
 20
133.4938820727
 10
121.2064387376
 20
133.5192430518
 10
121.2258223387
 20
133.5440370987
 10
121.2455893873
 20
133.5682379467
 10
121.2657187426
 20
133.5918200161
 10
121.2861894278
 20
133.6147581017
 10
121.306979491
 20
133.6370279271
 10
121.3280666803
 20
133.658605949
 10
121.3494290592
 20
133.6794691188
 10
121.3710438268
 20
133.6995954615
 10
121.3928877477
 20
133.7189635983
 10
121.4149378236
 20
133.7375525653
 10
121.4371702405
 20
133.7553425922
 10
121.4595613604
 20
133.7723150637
 10
121.4820881584
 20
133.7884520065
 10
121.5047268264
 20
133.8037363376
 10
121.5274527916
 20
133.8181519246
 10
121.5502417075
 20
133.8316835389
  0
LWPOLYLINE
  5
25D
100
AcDbEntity
  8
COPY_PUBLISH
100
AcDbPolyline
 62
253
  6
CONTINUOUS
 90
30
 70
0
 10
126.857714025
 20
135.7153538368
 10
126.8532975375
 20
135.7044717762
 10
126.8484939353
 20
135.693812179
 10
126.843313791
 20
135.6833992301
 10
126.8377681144
 20
135.6732558427
 10
126.8318695503
 20
135.663405876
 10
126.8256326087
 20
135.6538738549
 10
126.8190719122
 20
135.6446820258
 10
126.812201777
 20
135.63585035
 10
126.805037562
 20
135.6273985943
 10
126.7975953186
 20
135.6193457532
 10
126.7898919236
 20
135.611710144
 10
126.7819449123
 20
135.6045091686
 10
126.7737722853
 20
135.5977591299
 10
126.7653924323
 20
135.5914752097
 10
126.7568242501
 20
135.5856715804
 10
126.7480870658
 20
135.5803613384
 10
126.7392006129
 20
135.5755564824
 10
126.7301849699
 20
135.5712678705
 10
126.7210604944
 20
135.5675051861
 10
126.7118477768
 20
135.5642769194
 10
126.7025676127
 20
135.5615903574
 10
126.69324095
 20
135.5594515646
 10
126.6838888422
 20
135.557865369
 10
126.6745324001
 20
135.5568353512
 10
126.6651927334
 20
135.5563638361
 10
126.6558909355
 20
135.5564518897
 10
126.6466480359
 20
135.5570993097
 10
126.6374849194
 20
135.5583046255
 10
126.6308710888
 20
135.5595325596
  0
LINE
  5
25E
100
AcDbEntity
  8
COPY_PUBLISH
100
AcDbLine
 62
7
  6
CONTINUOUS
 10
129.0277389038
 20
136.7399516968
 11
129.0140853921
 21
136.7182038581
  0
LINE
  5
25F
100
AcDbEntity
  8
COPY_PUBLISH
100
AcDbLine
 62
7
  6
CONTINUOUS
 10
129.0140853921
 20
136.7182038581
 11
129.0026093574
 21
136.7031058593
  0
LWPOLYLINE
  5
260
100
AcDbEntity
  8
RACCORDO
100
AcDbPolyline
 62
253
  6
CONTINUOUS
 90
13
 70
0
 10
130.044220275
 20
134.9223096956
 10
130.0262454208
 20
134.911788331
 10
130.0084522571
 20
134.89853066
 10
129.9911433484
 20
134.8827010191
 10
129.9745870615
 20
134.8644706166
 10
129.9591274862
 20
134.8441394199
 10
129.9451481376
 20
134.8221745637
 10
129.9329144208
 20
134.7990044352
 10
129.9226058708
 20
134.7749820281
 10
129.9144034249
 20
134.7505311777
 10
129.9084462481
 20
134.726075635
 10
129.9048325573
 20
134.7020308605
 10
129.9036216702
 20
134.6788082436
  0
LINE
  5
261
100
AcDbEntity
  8
RACCORDO
100
AcDbLine
 62
7
  6
CONTINUOUS
 10
130.7570918546
 20
133.7306039693
 11
130.1852248793
 21
133.4132295257
  0
LINE
  5
262
100
AcDbEntity
  8
COPY_PUBLISH
100
AcDbLine
 62
253
  6
CONTINUOUS
 10
132.7369926369
 20
134.5025408489
 11
133.4238944223
 21
134.8471015069
  0
LINE
  5
263
100
AcDbEntity
  8
COPY_PUBLISH
100
AcDbLine
 62
253
  6
CONTINUOUS
 10
132.8784121982
 20
134.2586318499
 11
133.5665373993
 21
134.6038061922
  0
LINE
  5
264
100
AcDbEntity
  8
RACCORDO
100
AcDbLine
 62
253
  6
CONTINUOUS
 10
130.7574978836
 20
135.2778160609
 11
130.0442156575
 21
134.9223120043
  0
LINE
  5
265
100
AcDbEntity
  8
RACCORDO
100
AcDbLine
 62
253
  6
CONTINUOUS
 10
130.7570918546
 20
134.9632194368
 11
130.1852248793
 21
134.6781938768
  0
LINE
  5
266
100
AcDbEntity
  8
COPY_PUBLISH
100
AcDbLine
 62
253
  6
CONTINUOUS
 10
132.5221794228
 20
134.3954752912
 11
132.7369926369
 21
134.5025408489
  0
LINE
  5
267
100
AcDbEntity
  8
COPY_PUBLISH
100
AcDbLine
 62
253
  6
CONTINUOUS
 10
132.6631840271
 20
134.1513594725
 11
132.8784121982
 21
134.2586318499
  0
LINE
  5
268
100
AcDbEntity
  8
COPY_PUBLISH
100
AcDbLine
 62
7
  6
CONTINUOUS
 10
131.7789461779
 20
135.6695756291
 11
136.3915890338
 21
137.942797819
  0
LINE
  5
269
100
AcDbEntity
  8
0
100
AcDbLine
 62
7
  6
CONTINUOUS
 10
136.5280138704
 20
136.6145881635
 11
133.184475043
 21
134.9668111965
  0
LINE
  5
26A
100
AcDbEntity
  8
RACCORDO
100
AcDbLine
 62
253
  6
CONTINUOUS
 10
133.4083262434
 20
134.8548855963
 11
139.4559412692
 21
137.835296849
  0
LINE
  5
26B
100
AcDbEntity
  8
RACCORDO
100
AcDbLine
 62
253
  6
CONTINUOUS
 10
133.5657618968
 20
134.620375925
 11
139.5965344891
 21
137.5924868183
  0
LINE
  5
26C
100
AcDbEntity
  8
RACCORDO
100
AcDbLine
 62
253
  6
CONTINUOUS
 10
149.3248154532
 20
142.103822412
 11
140.1425737795
 21
137.6108430873
  0
LINE
  5
26D
100
AcDbEntity
  8
RACCORDO
100
AcDbLine
 62
7
  6
CONTINUOUS
 10
138.9583850399
 20
138.3319844471
 11
147.4136785895
 21
142.3968914465
  0
LINE
  5
26E
100
AcDbEntity
  8
RACCORDO
100
AcDbLine
 62
253
  6
CONTINUOUS
 10
139.8271775372
 20
137.8975881985
 11
148.9579719076
 21
142.2872441848
  0
LINE
  5
26F
100
AcDbEntity
  8
COPY_PUBLISH
100
AcDbLine
 62
253
  6
CONTINUOUS
 10
141.2098387772
 20
89.6376238497
 11
141.2015061848
 21
89.642090748
  0
LINE
  5
270
100
AcDbEntity
  8
COPY_PUBLISH
100
AcDbLine
 62
7
  6
CONTINUOUS
 10
141.2248093059
 20
89.6340592437
 11
141.2450624289
 21
89.6227410048
  0
LWPOLYLINE
  5
271
100
AcDbEntity
  8
COPY_PUBLISH
100
AcDbPolyline
 62
7
  6
CONTINUOUS
 90
3
 70
0
 10
141.2450624289
 20
89.6227410048
 10
141.2673994928
 20
89.6071117948
 10
141.2880379913
 20
89.5890105145
  0
LINE
  5
272
100
AcDbEntity
  8
COPY_PUBLISH
100
AcDbLine
 62
7
  6
CONTINUOUS
 10
120.7475410521
 20
96.1993266266
 11
120.7475747135
 21
96.199067372
  0
LWPOLYLINE
  5
273
100
AcDbEntity
  8
COPY_PUBLISH
100
AcDbPolyline
 62
253
  6
CONTINUOUS
 90
16
 70
0
 10
120.8938273405
 20
96.0239590471
 10
120.8149365592
 20
96.6549746261
 10
120.7407445642
 20
97.2892537764
 10
120.6712570831
 20
97.9267483086
 10
120.6064795633
 20
98.5674097271
 10
120.5464169218
 20
99.2111894294
 10
120.4910735475
 20
99.8580387099
 10
120.4404536915
 20
100.5079084939
 10
120.3945612857
 20
101.1607493712
 10
120.3533996926
 20
101.8165117942
 10
120.3169720725
 20
102.475145929
 10
120.2852812525
 20
103.1366017997
 10
120.2583295477
 20
103.8008293245
 10
120.2361189961
 20
104.4677781213
 10
120.2186513559
 20
105.1373975106
 10
120.2059279757
 20
105.8096366601
  0
LWPOLYLINE
  5
274
100
AcDbEntity
  8
0
100
AcDbPolyline
 62
7
  6
CONTINUOUS
 90
13
 70
0
 10
136.5287205318
 20
136.6149364234
 10
136.5367253146
 20
136.6230403663
 10
136.5440945959
 20
136.6313189389
 10
136.5508283756
 20
136.6397721412
 10
136.5569620345
 20
136.6484276974
 10
136.5624601919
 20
136.6572578833
 10
136.5672167054
 20
136.6661795268
 10
136.5712016524
 20
136.6751801887
 10
136.5744449557
 20
136.6842723082
 10
136.5769302408
 20
136.6934100298
 10
136.578653677
 20
136.7025935885
 10
136.5796190951
 20
136.7118227495
 10
136.5798428537
 20
136.7188667653
  0
LWPOLYLINE
  5
275
100
AcDbEntity
  8
RACCORDO
100
AcDbPolyline
 62
253
  6
CONTINUOUS
 90
7
 70
0
 10
140.1638654865
 20
137.1784071403
 10
140.181114006
 20
137.1882281773
 10
140.1956481551
 20
137.1990651571
 10
140.2072191821
 20
137.2107327004
 10
140.2156290218
 20
137.2230312127
 10
140.2207336789
 20
137.235750284
 10
140.2224444742
 20
137.2490236387
  0
LWPOLYLINE
  5
276
100
AcDbEntity
  8
RACCORDO
100
AcDbPolyline
 62
253
  6
CONTINUOUS
 90
9
 70
0
 10
150.025751642
 20
141.2347446876
 10
150.0607711872
 20
141.2541912574
 10
150.0915334682
 20
141.2753615724
 10
150.1177014426
 20
141.2980236884
 10
150.1389884039
 20
141.3219293164
 10
150.1551611222
 20
141.3468165426
 10
150.1660424
 20
141.3724126982
 10
150.1715130144
 20
141.3984373524
 10
150.1721982514
 20
141.4115213816
  0
LINE
  5
277
100
AcDbEntity
  8
COPY_PUBLISH
100
AcDbLine
 62
7
  6
CONTINUOUS
 10
132.6631840271
 20
132.9267432011
 11
132.8784121982
 21
133.0461904222
  0
LINE
  5
278
100
AcDbEntity
  8
COPY_PUBLISH
100
AcDbLine
 62
7
  6
CONTINUOUS
 10
134.3437494217
 20
133.6592625854
 11
134.1320623949
 21
133.550033819
  0
LINE
  5
279
100
AcDbEntity
  8
COPY_PUBLISH
100
AcDbLine
 62
253
  6
CONTINUOUS
 10
134.4340453219
 20
133.6540145065
 11
134.2229489643
 21
133.5450905205
  0
LINE
  5
27A
100
AcDbEntity
  8
COPY_PUBLISH
100
AcDbLine
 62
7
  6
CONTINUOUS
 10
132.8784121982
 20
133.0461904222
 11
133.5750981037
 21
133.3961597411
  0
LINE
  5
27B
100
AcDbEntity
  8
RACCORDO
100
AcDbLine
 62
7
  6
CONTINUOUS
 10
138.5545494776
 20
136.6922548417
 11
133.5694021408
 21
134.1996811733
  0
LINE
  5
27C
100
AcDbEntity
  8
RACCORDO
100
AcDbLine
 62
7
  6
CONTINUOUS
 10
136.4139730286
 20
135.3391239047
 11
133.5714000608
 21
133.9178374208
  0
LINE
  5
27D
100
AcDbEntity
  8
COPY_PUBLISH
100
AcDbLine
 62
7
  6
CONTINUOUS
 10
134.3454532096
 20
133.6601145833
 11
134.3437519069
 21
133.6592638678
  0
LINE
  5
27E
100
AcDbEntity
  8
RACCORDO
100
AcDbLine
 62
7
  6
CONTINUOUS
 10
136.4300800786
 20
134.2328191682
 11
135.5412695891
 21
133.7884139234
  0
LINE
  5
27F
100
AcDbEntity
  8
RACCORDO
100
AcDbLine
 62
253
  6
CONTINUOUS
 10
136.5195227977
 20
134.2271388107
 11
135.5916713061
 21
133.7632130649
  0
LINE
  5
280
100
AcDbEntity
  8
RACCORDO
100
AcDbLine
 62
7
  6
CONTINUOUS
 10
136.4405835282
 20
134.2379928035
 11
136.4298489248
 21
134.2327003618
  0
LINE
  5
281
100
AcDbEntity
  8
RACCORDO
100
AcDbLine
 62
253
  6
CONTINUOUS
 10
149.6752835476
 20
141.4925068545
 11
140.2251466566
 21
136.8684432352
  0
LINE
  5
282
100
AcDbEntity
  8
COPY_PUBLISH
100
AcDbLine
 62
7
  6
CONTINUOUS
 10
135.0447304146
 20
133.9987639881
 11
134.3454549775
 21
133.6601154401
  0
LINE
  5
283
100
AcDbEntity
  8
COPY_PUBLISH
100
AcDbLine
 62
253
  6
CONTINUOUS
 10
135.1330416569
 20
133.9925278896
 11
134.4340453219
 21
133.6540145065
  0
LINE
  5
284
100
AcDbEntity
  8
RACCORDO
100
AcDbLine
 62
7
  6
CONTINUOUS
 10
141.5404702677
 20
137.0302305526
 11
149.8929687862
 21
141.027920088
  0
LWPOLYLINE
  5
285
100
AcDbEntity
  8
RACCORDO
100
AcDbPolyline
 62
7
  6
CONTINUOUS
 90
7
 70
0
 10
149.8929687862
 20
141.027920088
 10
149.9159201954
 20
141.0381971369
 10
149.9385432312
 20
141.0471109314
 10
149.9608378938
 20
141.0546614715
 10
149.9828041832
 20
141.0608487571
 10
150.0044420992
 20
141.0656727883
 10
150.025751642
 20
141.0691335651
  0
LWPOLYLINE
  5
286
100
AcDbEntity
  8
RACCORDO
100
AcDbPolyline
 62
253
  6
CONTINUOUS
 90
6
 70
0
 10
137.6596202571
 20
134.2315021155
 10
137.6801167191
 20
134.2399215842
 10
137.7001803625
 20
134.244505737
 10
137.7193875089
 20
134.2451577717
 10
137.7373325663
 20
134.2418639197
 10
137.7490629768
 20
134.2371824726
  0
LWPOLYLINE
  5
287
100
AcDbEntity
  8
RACCORDO
100
AcDbPolyline
 62
7
  6
CONTINUOUS
 90
3
 70
0
 10
136.5902584773
 20
134.2979220171
 10
136.5135505781
 20
134.2701812184
 10
136.4405835282
 20
134.2379928035
  0
LWPOLYLINE
  5
288
100
AcDbEntity
  8
RACCORDO
100
AcDbPolyline
 62
253
  6
CONTINUOUS
 90
7
 70
0
 10
156.1874805975
 20
138.5892057184
 10
156.218693292
 20
138.5984597005
 10
156.2518135046
 20
138.6026222118
 10
156.2864783567
 20
138.6016476531
 10
156.322308049
 20
138.5955467098
 10
156.3589100245
 20
138.5843862327
 10
156.3958832642
 20
138.5682885057
  0
LINE
  5
289
100
AcDbEntity
  8
COPY_PUBLISH
100
AcDbLine
 62
7
  6
CONTINUOUS
 10
124.7534306902
 20
136.9834978776
 11
124.7534306902
 21
136.6435239435
  0
LINE
  5
28A
100
AcDbEntity
  8
COPY_PUBLISH
100
AcDbLine
 62
253
  6
CONTINUOUS
 10
124.8266539949
 20
136.89510953
 11
124.8266539949
 21
136.5551355959
  0
LWPOLYLINE
  5
28B
100
AcDbEntity
  8
COPY_PUBLISH
100
AcDbPolyline
 62
253
  6
CONTINUOUS
 90
34
 70
0
 10
124.8266539949
 20
136.89510953
 10
124.8268527428
 20
136.9054725648
 10
124.8274485395
 20
136.9160110454
 10
124.8284400455
 20
136.9267012753
 10
124.8298250312
 20
136.9375192166
 10
124.8316003823
 20
136.9484405445
 10
124.8337621069
 20
136.9594407014
 10
124.8363053441
 20
136.9704949526
 10
124.8392243753
 20
136.981578442
 10
124.8425126369
 20
136.9926662473
 10
124.8461627348
 20
137.0037334369
 10
124.8501664617
 20
137.0147551253
 10
124.8545148148
 20
137.0257065294
 10
124.8591980165
 20
137.0365630241
 10
124.8642055363
 20
137.0473001979
 10
124.8695261144
 20
137.0578939073
 10
124.875147787
 20
137.0683203316
 10
124.8810579135
 20
137.0785560262
 10
124.8872432044
 20
137.0885779753
 10
124.8936897517
 20
137.0983636439
 10
124.9003830598
 20
137.1078910281
 10
124.9073080783
 20
137.1171387049
 10
124.9144492358
 20
137.1260858802
 10
124.9217904747
 20
137.1347124356
 10
124.9293152879
 20
137.1429989736
 10
124.9370067552
 20
137.1509268613
 10
124.9448475817
 20
137.1584782723
 10
124.9528201368
 20
137.1656362266
 10
124.9609064936
 20
137.1723846291
 10
124.9690884692
 20
137.1787083054
 10
124.9773476659
 20
137.1845930362
 10
124.9856655122
 20
137.1900255894
 10
124.9940233049
 20
137.1949937494
 10
125.0024022509
 20
137.1994863449
  0
LWPOLYLINE
  5
28C
100
AcDbEntity
  8
RACCORDO
100
AcDbPolyline
 62
7
  6
CONTINUOUS
 90
3
 70
0
 10
135.5717785173
 20
131.9010281692
 10
135.558760391
 20
131.8921822173
 10
135.5247122593
 20
131.868262949
  0
LWPOLYLINE
  5
28D
100
AcDbEntity
  8
RACCORDO
100
AcDbPolyline
 62
7
  6
CONTINUOUS
 90
3
 70
0
 10
135.6153343502
 20
131.9296212528
 10
135.6001582574
 20
131.9197885915
 10
135.5717785173
 20
131.9010281692
  0
LWPOLYLINE
  5
28E
100
AcDbEntity
  8
RACCORDO
100
AcDbPolyline
 62
7
  6
CONTINUOUS
 90
4
 70
0
 10
135.6994681482
 20
131.9815468965
 10
135.6644146287
 20
131.9604104156
 10
135.6475386743
 20
131.9499637359
 10
135.6153343502
 20
131.9296212528
  0
LINE
  5
28F
100
AcDbEntity
  8
RACCORDO
100
AcDbLine
 62
7
  6
CONTINUOUS
 10
135.7174743841
 20
131.9921527037
 11
135.6994681482
 21
131.9815468965
  0
LINE
  5
290
100
AcDbEntity
  8
RACCORDO
100
AcDbLine
 62
7
  6
CONTINUOUS
 10
136.7321441557
 20
131.1193244435
 11
135.806729827
 21
130.6029148229
  0
LWPOLYLINE
  5
291
100
AcDbEntity
  8
0
100
AcDbPolyline
 62
7
  6
CONTINUOUS
 90
20
 70
0
 10
142.0394548218
 20
133.7659997136
 10
142.0522904874
 20
133.7726741575
 10
142.0645217087
 20
133.7795819136
 10
142.0761484859
 20
133.7867229819
 10
142.0871883673
 20
133.7941101767
 10
142.0976238045
 20
133.8017306837
 10
142.1074021523
 20
133.8095460596
 10
142.1165200864
 20
133.8175572855
 10
142.1249809312
 20
133.8257633803
 10
142.1327420144
 20
133.8341229576
 10
142.1397998041
 20
133.8426367978
 10
142.1461578322
 20
133.8513041205
 10
142.1517840226
 20
133.8600811975
 10
142.1566746737
 20
133.868968577
 10
142.1608334869
 20
133.8779657107
 10
142.164239491
 20
133.8870272254
 10
142.1668888841
 20
133.8961534526
 10
142.168785468
 20
133.9053440608
 10
142.1699196766
 20
133.9145526818
 10
142.1702877759
 20
133.9236338628
  0
LINE
  5
292
100
AcDbEntity
  8
RACCORDO
100
AcDbLine
 62
7
  6
CONTINUOUS
 10
135.1958079803
 20
132.3060158566
 11
135.8086256539
 21
132.6222247408
  0
LINE
  5
293
100
AcDbEntity
  8
RACCORDO
100
AcDbLine
 62
253
  6
CONTINUOUS
 10
135.2866991642
 20
132.301070251
 11
135.9876305036
 21
132.6627497509
  0
LINE
  5
294
100
AcDbEntity
  8
COPY_PUBLISH
100
AcDbLine
 62
7
  6
CONTINUOUS
 10
137.1929745774
 20
131.0541053238
 11
138.7761462723
 21
131.866302371
  0
LINE
  5
295
100
AcDbEntity
  8
RACCORDO
100
AcDbLine
 62
7
  6
CONTINUOUS
 10
135.806729827
 20
132.0410549195
 11
136.7321441557
 21
132.5049650896
  0
LINE
  5
296
100
AcDbEntity
  8
RACCORDO
100
AcDbLine
 62
7
  6
CONTINUOUS
 10
142.8113773528
 20
135.5329019637
 11
143.2021712035
 21
135.7282988891
  0
LINE
  5
297
100
AcDbEntity
  8
COPY_PUBLISH
100
AcDbLine
 62
7
  6
CONTINUOUS
 10
138.776148242
 20
131.8663033816
 11
138.7778846595
 21
131.8671716046
  0
LINE
  5
298
100
AcDbEntity
  8
COPY_PUBLISH
100
AcDbLine
 62
7
  6
CONTINUOUS
 10
136.7321441557
 20
132.5049650896
 11
142.0066362248
 21
135.1352742235
  0
LINE
  5
299
100
AcDbEntity
  8
COPY_PUBLISH
100
AcDbLine
 62
7
  6
CONTINUOUS
 10
136.7321441557
 20
131.1193244435
 11
142.0394548218
 21
133.7659997136
  0
LINE
  5
29A
100
AcDbEntity
  8
COPY_PUBLISH
100
AcDbLine
 62
7
  6
CONTINUOUS
 10
141.3901644
 20
135.4435101358
 11
136.7779899013
 21
133.1700537674
  0
LINE
  5
29B
100
AcDbEntity
  8
RACCORDO
100
AcDbLine
 62
7
  6
CONTINUOUS
 10
143.8975314825
 20
135.5756540996
 11
142.170289673
 21
134.7242533356
  0
LINE
  5
29C
100
AcDbEntity
  8
RACCORDO
100
AcDbLine
 62
253
  6
CONTINUOUS
 10
143.9867801715
 20
135.5698773978
 11
142.170289673
 21
134.6744837189
  0
LWPOLYLINE
  5
29D
100
AcDbEntity
  8
RACCORDO
100
AcDbPolyline
 62
7
  6
CONTINUOUS
 90
4
 70
0
 10
135.806729827
 20
132.0410549195
 10
135.789470011
 20
132.0325734559
 10
135.771811646
 20
132.0230776357
 10
135.7174743841
 20
131.9921527037
  0
LWPOLYLINE
  5
29E
100
AcDbEntity
  8
RACCORDO
100
AcDbPolyline
 62
7
  6
CONTINUOUS
 90
8
 70
0
 10
135.8078111451
 20
132.621804337
 10
135.8191075876
 20
132.6273494245
 10
135.8438345681
 20
132.6376587632
 10
135.870801126
 20
132.6465078633
 10
135.8989326727
 20
132.6534359713
 10
135.9277364457
 20
132.6583669194
 10
135.9573598403
 20
132.6614522308
 10
135.9876305036
 20
132.6627497509
  0
LWPOLYLINE
  5
29F
100
AcDbEntity
  8
COPY_PUBLISH
100
AcDbPolyline
 62
253
  6
CONTINUOUS
 90
16
 70
0
 10
137.1929745774
 20
131.0541053238
 10
137.1963723016
 20
131.0557629482
 10
137.2031175226
 20
131.0585754959
 10
137.2100982615
 20
131.0608740494
 10
137.2172987055
 20
131.0626534018
 10
137.2247025439
 20
131.0639095225
 10
137.2322930054
 20
131.0646395661
 10
137.2400528958
 20
131.0648418789
 10
137.2479646373
 20
131.0645160027
 10
137.256010308
 20
131.0636626755
 10
137.2641716827
 20
131.0622838305
 10
137.272430274
 20
131.0603825909
 10
137.2807673743
 20
131.0579632635
 10
137.2891640983
 20
131.0550313287
 10
137.2976014255
 20
131.0515934278
 10
137.3060602435
 20
131.0476573486
  0
LINE
  5
2A0
100
AcDbEntity
  8
COPY_PUBLISH
100
AcDbLine
 62
7
  6
CONTINUOUS
 10
138.7778874234
 20
131.867172951
 11
139.3127546142
 21
132.1277237036
  0
LINE
  5
2A1
100
AcDbEntity
  8
COPY_PUBLISH
100
AcDbLine
 62
253
  6
CONTINUOUS
 10
138.8888168467
 20
131.859641446
 11
139.4232667253
 21
132.1199889125
  0
LINE
  5
2A2
100
AcDbEntity
  8
COPY_PUBLISH
100
AcDbLine
 62
253
  6
CONTINUOUS
 10
139.3127546142
 20
132.1277237036
 11
139.3144101507
 21
132.1285101957
  0
LWPOLYLINE
  5
2A3
100
AcDbEntity
  8
COPY_PUBLISH
100
AcDbPolyline
 62
7
  6
CONTINUOUS
 90
16
 70
0
 10
138.7778846595
 20
131.8671716046
 10
138.7795422857
 20
131.8679591121
 10
138.7862777746
 20
131.87076665
 10
138.7932455138
 20
131.8730585116
 10
138.8004297708
 20
131.8748295314
 10
138.8078142865
 20
131.8760757065
 10
138.8153822408
 20
131.8767941717
 10
138.8231165623
 20
131.8769833368
 10
138.8309997683
 20
131.8766427935
 10
138.8390138678
 20
131.8757732519
 10
138.8471407981
 20
131.8743767289
 10
138.8553622092
 20
131.872456419
 10
138.8636593059
 20
131.8700165923
 10
138.8720132992
 20
131.8670627814
 10
138.8804054484
 20
131.8636017684
 10
138.8888168467
 20
131.859641446
  0
LINE
  5
2A4
100
AcDbEntity
  8
RACCORDO
100
AcDbLine
 62
7
  6
CONTINUOUS
 10
143.9563183949
 20
135.6017994296
 11
143.8975374497
 21
135.5756445526
  0
LINE
  5
2A5
100
AcDbEntity
  8
COPY_PUBLISH
100
AcDbLine
 62
7
  6
CONTINUOUS
 10
139.3127546142
 20
132.1277237036
 11
139.3409763066
 21
132.1393954776
  0
LWPOLYLINE
  5
2A6
100
AcDbEntity
  8
COPY_PUBLISH
100
AcDbPolyline
 62
253
  6
CONTINUOUS
 90
14
 70
0
 10
139.3211356695
 20
132.1313128924
 10
139.3280902085
 20
132.1335983458
 10
139.3352580139
 20
132.1353613789
 10
139.3426228491
 20
132.1365979981
 10
139.3501680312
 20
132.137305402
 10
139.3578764685
 20
132.1374819882
 10
139.3657306997
 20
132.1371273569
 10
139.3737129333
 20
132.1362423112
 10
139.3818050877
 20
132.1348288559
 10
139.3899888323
 20
132.132890193
 10
139.3982456292
 20
132.1304307139
 10
139.4065567748
 20
132.1274559899
 10
139.4149034425
 20
132.1239727593
 10
139.4232667253
 20
132.1199889125
  0
LWPOLYLINE
  5
2A7
100
AcDbEntity
  8
RACCORDO
100
AcDbPolyline
 62
7
  6
CONTINUOUS
 90
3
 70
0
 10
156.326363885
 20
138.6405903318
 10
156.2494564784
 20
138.6158758523
 10
156.173039614
 20
138.5828668507
  0
LINE
  5
2A8
100
AcDbEntity
  8
COPY_PUBLISH
100
AcDbLine
 62
253
  6
CONTINUOUS
 10
135.0719389978
 20
98.3766311491
 11
120.2059279757
 21
105.8096366601
  0
LWPOLYLINE
  5
2A9
100
AcDbEntity
  8
COPY_PUBLISH
100
AcDbPolyline
 62
7
  6
CONTINUOUS
 90
8
 70
0
 10
141.2880379913
 20
89.5890105145
 10
141.3065788183
 20
89.5687405083
 10
141.3228098791
 20
89.546518753
 10
141.3366190198
 20
89.5224109544
 10
141.3477585368
 20
89.4966736701
 10
141.3559894871
 20
89.4696701094
 10
141.3611609059
 20
89.4416157356
 10
141.363117831
 20
89.4103687639
  0
LWPOLYLINE
  5
2AA
100
AcDbEntity
  8
COPY_PUBLISH
100
AcDbPolyline
 62
253
  6
CONTINUOUS
 90
34
 70
0
 10
139.1613720176
 20
88.2639207011
 10
139.1569514052
 20
88.2708396142
 10
139.1521441085
 20
88.2779435633
 10
139.1469609779
 20
88.2852165143
 10
139.1414137149
 20
88.2926420481
 10
139.1355148372
 20
88.3002034088
 10
139.1292776478
 20
88.3078835434
 10
139.122716214
 20
88.3156651281
 10
139.1158453515
 20
88.3235305902
 10
139.1086805828
 20
88.3314621597
 10
139.1012380862
 20
88.3394419276
 10
139.0935346541
 20
88.3474518901
 10
139.0855876705
 20
88.3554739716
 10
139.0774150711
 20
88.363490067
 10
139.0690353029
 20
88.3714820826
 10
139.0604672794
 20
88.3794319802
 10
139.0517303391
 20
88.3873218164
 10
139.0428442015
 20
88.3951337838
 10
139.0338289218
 20
88.4028502515
 10
139.0247048494
 20
88.4104538019
 10
139.0154925762
 20
88.4179272748
 10
139.0062128886
 20
88.4252538068
 10
138.9968867196
 20
88.4324168702
 10
138.9875351303
 20
88.439400288
 10
138.9781792564
 20
88.4461882775
 10
138.9688402315
 20
88.4527655073
 10
138.9595391168
 20
88.4591171469
 10
138.9502968819
 20
88.4652288768
 10
138.9411341555
 20
88.4710870481
 10
138.9320718544
 20
88.4766782799
 10
138.9231310867
 20
88.4819895716
 10
138.9143322151
 20
88.4870088802
 10
138.9056948386
 20
88.4917250799
 10
138.8972384056
 20
88.4961275988
  0
LWPOLYLINE
  5
2AB
100
AcDbEntity
  8
COPY_PUBLISH
100
AcDbPolyline
 62
253
  6
CONTINUOUS
 90
3
 70
0
 10
124.7541146713
 20
136.6342837765
 10
124.7535188729
 20
136.6402041707
 10
124.7534306902
 20
136.643523951
  0
LINE
  5
2AC
100
AcDbEntity
  8
COPY_PUBLISH
100
AcDbLine
 62
7
  6
CONTINUOUS
 10
124.7553876214
 20
136.612304782
 11
124.7534306964
 21
136.6435517538
  0
LWPOLYLINE
  5
2AD
100
AcDbEntity
  8
COPY_PUBLISH
100
AcDbPolyline
 62
253
  6
CONTINUOUS
 90
20
 70
0
 10
124.8266539949
 20
136.5551355959
 10
124.8268222908
 20
136.5457746454
 10
124.827326858
 20
136.5365998144
 10
124.8281667358
 20
136.5276285722
 10
124.8293403216
 20
136.5188780235
 10
124.8308453825
 20
136.5103648055
 10
124.8326790689
 20
136.5021050626
 10
124.8348379129
 20
136.494114475
 10
124.8373178003
 20
136.4864083214
 10
124.8401139801
 20
136.4790013725
 10
124.8432211026
 20
136.471907773
 10
124.8466332647
 20
136.4651409768
 10
124.8503439927
 20
136.4587138198
 10
124.8543462534
 20
136.4526384998
 10
124.8586324026
 20
136.446926636
 10
124.8631942121
 20
136.4415891831
 10
124.8680229416
 20
136.436636333
 10
124.8731094274
 20
136.4320774526
 10
124.8784440424
 20
136.4279211594
 10
124.8840028697
 20
136.4241846505
  0
LWPOLYLINE
  5
2AE
100
AcDbEntity
  8
COPY_PUBLISH
100
AcDbPolyline
 62
253
  6
CONTINUOUS
 90
22
 70
0
 10
126.5051920653
 20
135.7158665606
 10
126.5053598975
 20
135.7065183913
 10
126.5058633042
 20
135.6973527146
 10
126.5067016713
 20
135.6883871451
 10
126.5078738979
 20
135.6796379658
 10
126.5093780164
 20
135.6711230915
 10
126.5112108196
 20
135.6628617578
 10
126.5133685445
 20
135.6548706187
 10
126.5158472786
 20
135.6471639044
 10
126.5186423359
 20
135.6397562053
 10
126.5217484329
 20
135.6326615773
 10
126.5251596431
 20
135.6258936039
 10
126.5288694275
 20
135.6194652708
 10
126.5328706907
 20
135.6133888568
 10
126.5371558366
 20
135.6076758827
 10
126.5417167367
 20
135.6023371869
 10
126.5465447427
 20
135.5973829085
 10
126.5516306358
 20
135.5928225223
 10
126.5569646659
 20
135.5886647671
 10
126.5625366305
 20
135.5849175745
 10
126.5683359508
 20
135.5815880382
 10
126.570165371
 20
135.5806481059
  0
LINE
  5
2AF
100
AcDbEntity
  8
COPY_PUBLISH
100
AcDbLine
 62
7
  6
CONTINUOUS
 10
125.4564236445
 20
136.1375189692
 11
125.4564236445
 21
135.6835652272
  0
LINE
  5
2B0
100
AcDbEntity
  8
COPY_PUBLISH
100
AcDbLine
 62
253
  6
CONTINUOUS
 10
125.5296469492
 20
136.1009073168
 11
125.5296469492
 21
135.5918331727
  0
LINE
  5
2B1
100
AcDbEntity
  8
COPY_PUBLISH
100
AcDbLine
 62
253
  6
CONTINUOUS
 10
126.5051920653
 20
135.7158665606
 11
126.5051920653
 21
136.0558404948
  0
LINE
  5
2B2
100
AcDbEntity
  8
COPY_PUBLISH
100
AcDbLine
 62
253
  6
CONTINUOUS
 10
126.857714025
 20
135.7153538368
 11
126.857714025
 21
136.0553277709
  0
LINE
  5
2B3
100
AcDbEntity
  8
COPY_PUBLISH
100
AcDbLine
 62
253
  6
CONTINUOUS
 10
127.2164126734
 20
134.7484503105
 11
127.2164126734
 21
135.4372709335
  0
LWPOLYLINE
  5
2B4
100
AcDbEntity
  8
COPY_PUBLISH
100
AcDbPolyline
 62
253
  6
CONTINUOUS
 90
34
 70
0
 10
126.5051920653
 20
136.0558404948
 10
126.5053908132
 20
136.0662035296
 10
126.50598661
 20
136.0767420102
 10
126.5069781159
 20
136.0874322401
 10
126.5083631016
 20
136.0982501814
 10
126.5101384527
 20
136.1091715093
 10
126.5123001773
 20
136.1201716662
 10
126.5148434145
 20
136.1312259174
 10
126.5177624457
 20
136.1423094068
 10
126.5210507073
 20
136.1533972121
 10
126.5247008053
 20
136.1644644017
 10
126.5287045321
 20
136.1754860901
 10
126.5330528852
 20
136.1864374942
 10
126.5377360869
 20
136.1972939889
 10
126.5427436067
 20
136.2080311627
 10
126.5480641848
 20
136.2186248721
 10
126.5536858575
 20
136.2290512964
 10
126.5595959839
 20
136.239286991
 10
126.5657812749
 20
136.2493089401
 10
126.5722278221
 20
136.2590946087
 10
126.5789211302
 20
136.2686219929
 10
126.5858461487
 20
136.2778696697
 10
126.5929873062
 20
136.286816845
 10
126.6003285452
 20
136.2954434004
 10
126.6078533583
 20
136.3037299384
 10
126.6155448256
 20
136.3116578261
 10
126.6233856522
 20
136.3192092371
 10
126.6313582072
 20
136.3263671914
 10
126.639444564
 20
136.3331155939
 10
126.6476265396
 20
136.3394392702
 10
126.6558857363
 20
136.345324001
 10
126.6642035827
 20
136.3507565542
 10
126.6725613754
 20
136.3557247142
 10
126.6809403213
 20
136.3602173097
  0
LWPOLYLINE
  5
2B5
100
AcDbEntity
  8
0
100
AcDbPolyline
 62
7
  6
CONTINUOUS
 90
35
 70
0
 10
125.2856352727
 20
113.2289691336
 10
125.2780215911
 20
113.0275458257
 10
125.2780215911
 20
112.8163207371
 10
125.2858333962
 20
112.6018441787
 10
125.3015055127
 20
112.3840959609
 10
125.3249894343
 20
112.1630962733
 10
125.3561396418
 20
111.9402145502
 10
125.395003738
 20
111.7154391053
 10
125.4415341202
 20
111.4887816249
 10
125.4954424607
 20
111.2616466019
 10
125.5567745721
 20
111.0340310711
 10
125.6254846418
 20
110.8059379978
 10
125.701146905
 20
110.5787807706
 10
125.7838045303
 20
110.3525652007
 10
125.873414349
 20
110.1272854768
 10
125.9694210899
 20
109.9043375549
 10
126.071864474
 20
109.6837359137
 10
126.1807047803
 20
109.4654660744
 10
126.2952675752
 20
109.2508805556
 10
126.4155883916
 20
109.0400022345
 10
126.5416316966
 20
108.8328082338
 10
126.6726164573
 20
108.6305824403
 10
126.8085733569
 20
108.4333557033
 10
126.9494717122
 20
108.2410971735
 10
127.0944384404
 20
108.0549981892
 10
127.2434988034
 20
107.8750969974
 10
127.3966275393
 20
107.701355351
 10
127.5528757792
 20
107.534849848
 10
127.7122628931
 20
107.37562542
 10
127.874769511
 20
107.2236371353
 10
128.0393886534
 20
107.0798267959
 10
128.2061334378
 20
106.9442451817
 10
128.3749907468
 20
106.8168415128
 10
128.5449142487
 20
106.6984052517
 10
128.5560104226
 20
106.6913039922
  0
LWPOLYLINE
  5
2B6
100
AcDbEntity
  8
COPY_PUBLISH
100
AcDbPolyline
 62
253
  6
CONTINUOUS
 90
17
 70
0
 10
129.0594057513
 20
136.8592295332
 10
129.0588782132
 20
136.8533080113
 10
129.0577898389
 20
136.8474056511
 10
129.0561430759
 20
136.8415357246
 10
129.0539416269
 20
136.8357114306
 10
129.0511904422
 20
136.8299458655
 10
129.0478957079
 20
136.8242519936
 10
129.0440648326
 20
136.8186426181
 10
129.0397064301
 20
136.8131303521
 10
129.0348303008
 20
136.8077275902
 10
129.029447409
 20
136.802446481
 10
129.0235698584
 20
136.7972988995
 10
129.0172108653
 20
136.7922964205
 10
129.0103847283
 20
136.7874502923
 10
129.0031067965
 20
136.7827714118
 10
128.9953934349
 20
136.7782702999
 10
128.9872619875
 20
136.7739570777
  0
LWPOLYLINE
  5
2B7
100
AcDbEntity
  8
COPY_PUBLISH
100
AcDbPolyline
 62
7
  6
CONTINUOUS
 90
12
 70
0
 10
137.1929745774
 20
131.0541053238
 10
137.1703141323
 20
131.0409356968
 10
137.1489317358
 20
131.0252826723
 10
137.1291713567
 20
131.0072975381
 10
137.1113911108
 20
130.9872402714
 10
137.0958210855
 20
130.9653326088
 10
137.0826027286
 20
130.9416964067
 10
137.0719395703
 20
130.9165504886
 10
137.0640674564
 20
130.8903261738
 10
137.0591125909
 20
130.8634156581
 10
137.0571261913
 20
130.8359972906
 10
137.0570887229
 20
130.8315981488
  0
LINE
  5
2B8
100
AcDbEntity
  8
COPY_PUBLISH
100
AcDbLine
 62
253
  6
CONTINUOUS
 10
137.3060602435
 20
131.0476573486
 11
138.8888168467
 21
131.859641446
  0
LINE
  5
2B9
100
AcDbEntity
  8
COPY_PUBLISH
100
AcDbLine
 62
253
  6
CONTINUOUS
 10
138.9845983139
 20
130.2083883134
 11
140.5858791047
 21
131.0111103169
  0
LINE
  5
2BA
100
AcDbEntity
  8
COPY_PUBLISH
100
AcDbLine
 62
253
  6
CONTINUOUS
 10
139.1613720176
 20
129.9034987746
 11
140.7626528084
 21
130.7062207781
  0
LINE
  5
2BB
100
AcDbEntity
  8
COPY_PUBLISH
100
AcDbLine
 62
7
  6
CONTINUOUS
 10
146.8035349442
 20
134.1615000115
 11
141.1304321433
 21
131.3283835744
  0
LINE
  5
2BC
100
AcDbEntity
  8
COPY_PUBLISH
100
AcDbLine
 62
253
  6
CONTINUOUS
 10
140.5858791047
 20
131.0111103169
 11
141.1141462765
 21
131.274549137
  0
LINE
  5
2BD
100
AcDbEntity
  8
COPY_PUBLISH
100
AcDbLine
 62
253
  6
CONTINUOUS
 10
140.7626528084
 20
130.7062207781
 11
141.2909199802
 21
130.9696595981
  0
LINE
  5
2BE
100
AcDbEntity
  8
RACCORDO
100
AcDbLine
 62
7
  6
CONTINUOUS
 10
147.2191288547
 20
134.2016125398
 11
156.173039614
 21
138.5828668507
  0
LINE
  5
2BF
100
AcDbEntity
  8
RACCORDO
100
AcDbLine
 62
253
  6
CONTINUOUS
 10
147.344082761
 20
134.1391355866
 11
156.3958832651
 21
138.5682885061
  0
LWPOLYLINE
  5
2C0
100
AcDbEntity
  8
RACCORDO
100
AcDbPolyline
 62
253
  6
CONTINUOUS
 90
10
 70
0
 10
156.3958832651
 20
138.5682885061
 10
156.4484030079
 20
138.5915931251
 10
156.5006029891
 20
138.6099658291
 10
156.5521944527
 20
138.6233036793
 10
156.6028933385
 20
138.6315317036
 10
156.6524174059
 20
138.6346025346
 10
156.700488174
 20
138.6324981928
 10
156.7468384455
 20
138.6252305388
 10
156.7912130932
 20
138.6128397463
 10
156.8369262848
 20
138.5936379644
  0
LINE
  5
2C1
100
AcDbEntity
  8
RACCORDO
100
AcDbLine
 62
253
  6
CONTINUOUS
 10
156.1730396181
 20
138.5828668527
 11
156.1874805975
 21
138.5892057184
  0
LWPOLYLINE
  5
2C2
100
AcDbEntity
  8
RACCORDO
100
AcDbPolyline
 62
253
  6
CONTINUOUS
 90
80
 70
0
 10
128.2946257856
 20
106.3958922447
 10
128.1693385574
 20
106.4612641501
 10
128.0462804035
 20
106.530810799
 10
127.9255938142
 20
106.6041742065
 10
127.8076066459
 20
106.6808646809
 10
127.6922269559
 20
106.7606637269
 10
127.5789544966
 20
106.8437031516
 10
127.4678634602
 20
106.9297438268
 10
127.3590612572
 20
107.0185170044
 10
127.2521057279
 20
107.1102445029
 10
127.1470769606
 20
107.2047410727
 10
127.0440544898
 20
107.3018166996
 10
126.9426168219
 20
107.4017954406
 10
126.8428248127
 20
107.5045672313
 10
126.7447836273
 20
107.6099720088
 10
126.648169138
 20
107.7183459394
 10
126.5529585771
 20
107.8297279903
 10
126.4593673658
 20
107.9438798316
 10
126.3674480029
 20
108.0607596862
 10
126.2772430405
 20
108.1803298603
 10
126.188898877
 20
108.3024139824
 10
126.1026173592
 20
108.4267533813
 10
126.0185141214
 20
108.5531725669
 10
125.9366336422
 20
108.6815961895
 10
125.8570607061
 20
108.8119045682
 10
125.7798785643
 20
108.9439549835
 10
125.705151654
 20
109.077630631
 10
125.6329355963
 20
109.2128500609
 10
125.5632932397
 20
109.3494971123
 10
125.4963008731
 20
109.4874232571
 10
125.4320330627
 20
109.6264978879
 10
125.3705512251
 20
109.7665892041
 10
125.3119171885
 20
109.9075564441
 10
125.2562013779
 20
110.0492537333
 10
125.2034578255
 20
110.1915430592
 10
125.1537374903
 20
110.3342844753
 10
125.1071002691
 20
110.4773279967
 10
125.0635928482
 20
110.6205267339
 10
125.0232536839
 20
110.7637473746
 10
124.9861253666
 20
110.9068600252
 10
124.9522466831
 20
111.0497122384
 10
124.9216461077
 20
111.1921769229
 10
124.8943496272
 20
111.3341621609
 10
124.8703851544
 20
111.4755394132
 10
124.8497803454
 20
111.6161587448
 10
124.8325600382
 20
111.7558960774
 10
124.818743754
 20
111.8946302055
 10
124.8083503502
 20
112.0322066968
 10
124.8013969577
 20
112.1684535751
 10
124.7978920204
 20
112.3032368299
 10
124.7978393834
 20
112.4364236141
 10
124.8012388496
 20
112.5678481726
 10
124.8080860284
 20
112.6973810984
 10
124.8183720922
 20
112.8248978103
 10
124.8320802063
 20
112.9502455175
 10
124.8491917317
 20
113.0732908631
 10
124.869687068
 20
113.1939299775
 10
124.8935418346
 20
113.3120586768
 10
124.9207288825
 20
113.4275566367
 10
124.9512202619
 20
113.5403210244
 10
124.9849896405
 20
113.6502747215
 10
125.022007999
 20
113.7573184293
 10
125.062237113
 20
113.8613392852
 10
125.1056358578
 20
113.962240857
 10
125.1521657733
 20
114.0599281203
 10
125.2017808264
 20
114.1543004826
 10
125.2544243323
 20
114.2452575442
 10
125.3100476501
 20
114.3327122873
 10
125.3685961363
 20
114.416576705
 10
125.4299983813
 20
114.4967557459
 10
125.4941934207
 20
114.5731705381
 10
125.5611199241
 20
114.6457491299
 10
125.6307005364
 20
114.7144142321
 10
125.7028587312
 20
114.7790931027
 10
125.7775319714
 20
114.8397324989
 10
125.8546620504
 20
114.8962871368
 10
125.9341849002
 20
114.9487053566
 10
126.0160165462
 20
114.9969273081
 10
126.1000673811
 20
115.0408981192
 10
126.1220466225
 20
115.0515204133
  0
LWPOLYLINE
  5
2C3
100
AcDbEntity
  8
RACCORDO
100
AcDbPolyline
 62
253
  6
CONTINUOUS
 90
93
 70
0
 10
127.5999093153
 20
105.1723835465
 10
127.4489953564
 20
105.2517021058
 10
127.3010501833
 20
105.3352356928
 10
127.1560741103
 20
105.4229844692
 10
127.0141727881
 20
105.5151451514
 10
126.8752417825
 20
105.6115216485
 10
126.7389664458
 20
105.7115249967
 10
126.6053524922
 20
105.8150495895
 10
126.4743961528
 20
105.922202033
 10
126.3457685473
 20
106.0327116783
 10
126.219466014
 20
106.1464903079
 10
126.0954947188
 20
106.2636274247
 10
125.9735405437
 20
106.3841189707
 10
125.8535605484
 20
106.5079266002
 10
125.7356007535
 20
106.6350902376
 10
125.6194806033
 20
106.7657232908
 10
125.5050473178
 20
106.8999672818
 10
125.3924574662
 20
107.037682627
 10
125.2819946118
 20
107.1785611236
 10
125.1736066133
 20
107.3226995613
 10
125.0673498891
 20
107.4700033333
 10
124.9636707142
 20
107.6198770744
 10
124.8626258368
 20
107.7722746497
 10
124.7641629117
 20
107.9272444345
 10
124.6685643065
 20
108.0843326908
 10
124.5758485385
 20
108.2435283699
 10
124.4860015854
 20
108.4048447997
 10
124.3992567199
 20
108.5678646592
 10
124.3156134819
 20
108.7326114204
 10
124.2350768274
 20
108.899063882
 10
124.1578877761
 20
109.0667375195
 10
124.0840565718
 20
109.2356419849
 10
124.0135772546
 20
109.4057697796
 10
123.9466660332
 20
109.5766103933
 10
123.8833362187
 20
109.748167773
 10
123.8235784036
 20
109.9204399227
 10
123.7675741095
 20
110.092907106
 10
123.7153389101
 20
110.2655621916
 10
123.6668606048
 20
110.4384139841
 10
123.6222783766
 20
110.6109663059
 10
123.5816058254
 20
110.7832039634
 10
123.5448321091
 20
110.9551435048
 10
123.5120590589
 20
111.1263360154
 10
123.4832937175
 20
111.2967937827
 10
123.4585311859
 20
111.4665055579
 10
123.4378546498
 20
111.6349867522
 10
123.4212758047
 20
111.8022542697
 10
123.4087843453
 20
111.9682918616
 10
123.4004296029
 20
112.1325647809
 10
123.3962281825
 20
112.2950659769
 10
123.3961639432
 20
112.4558026886
 10
123.4002361686
 20
112.6142611385
 10
123.4084605438
 20
112.7704297871
 10
123.4208209126
 20
112.9243198948
 10
123.437267874
 20
113.0754514235
 10
123.4578114366
 20
113.2237980563
 10
123.48244021
 20
113.3693853793
 10
123.5110718503
 20
113.5118107897
 10
123.5437115843
 20
113.6510573953
 10
123.5803520542
 20
113.7871409896
 10
123.6208913065
 20
113.9197076363
 10
123.6653394009
 20
114.0487584607
 10
123.7136835257
 20
114.1742909371
 10
123.7657867334
 20
114.2959453144
 10
123.8216602514
 20
114.4137146932
 10
123.8812894923
 20
114.5276042796
 10
123.9444981184
 20
114.6372721525
 10
124.0112971814
 20
114.7427060854
 10
124.0816717495
 20
114.8439163636
 10
124.1554058991
 20
114.940594535
 10
124.2325066008
 20
115.0327226305
 10
124.3129626103
 20
115.1203164935
 10
124.3965301649
 20
115.2031181394
 10
124.4832044797
 20
115.281105405
 10
124.5729858414
 20
115.354298227
 10
124.6656377089
 20
115.4225015833
 10
124.7611752002
 20
115.4857098233
 10
124.8595786946
 20
115.5439263779
 10
124.9605592519
 20
115.5969697061
 10
125.0641665449
 20
115.6448300331
 10
125.170346484
 20
115.6875149641
 10
125.2786542189
 20
115.7248688999
 10
125.3890261184
 20
115.7568484241
 10
125.5015215281
 20
115.7834948547
 10
125.6158799434
 20
115.8047796371
 10
125.7319445303
 20
115.8207187539
 10
125.8498683388
 20
115.8312943742
 10
125.9698557924
 20
115.8364272747
 10
126.091868199
 20
115.8362033959
 10
126.2159411739
 20
115.8305352973
 10
126.3423907171
 20
115.8190837403
 10
126.4712109251
 20
115.8019437664
 10
126.6024051874
 20
115.7790191106
  0
LWPOLYLINE
  5
2C4
100
AcDbEntity
  8
0
100
AcDbPolyline
 62
7
  6
CONTINUOUS
 90
16
 70
0
 10
127.999375408
 20
109.3216324661
 10
128.121401505
 20
109.1482854941
 10
128.2469402734
 20
108.9802576167
 10
128.3759917132
 20
108.8175488341
 10
128.5088457165
 20
108.6598270125
 10
128.6452123912
 20
108.5074242855
 10
128.7842220609
 20
108.361337054
 10
128.9258698409
 20
108.2216334856
 10
129.0701606159
 20
108.0882454125
 10
129.2162393646
 20
107.9619647323
 10
129.3641119506
 20
107.8428363935
 10
129.5137725102
 20
107.7308154475
 10
129.6643484313
 20
107.6265589464
 10
129.8155488432
 20
107.5302859076
 10
129.9676646166
 20
107.4417773136
 10
130.1206957516
 20
107.3610331646
  0
LWPOLYLINE
  5
2C5
100
AcDbEntity
  8
0
100
AcDbPolyline
 62
7
  6
CONTINUOUS
 90
40
 70
0
 10
128.6407543284
 20
111.8177698834
 10
128.6495228738
 20
111.7282364505
 10
128.6623994535
 20
111.6380942504
 10
128.6793840676
 20
111.5473432832
 10
128.7005717578
 20
111.4556382728
 10
128.7258674823
 20
111.3633244952
 10
128.7549861153
 20
111.2714377787
 10
128.7879715007
 20
111.1799802726
 10
128.8247797946
 20
111.0889498275
 10
128.8649943398
 20
110.9993758233
 10
128.908653492
 20
110.9112755965
 10
128.9557188954
 20
110.8246318106
 10
129.0056588256
 20
110.7404218366
 10
129.0585057617
 20
110.658673321
 10
129.1142272245
 20
110.5793586172
 10
129.172194052
 20
110.5033721572
 10
129.232431597
 20
110.4307516877
 10
129.2949145067
 20
110.3614594619
 10
129.3589375616
 20
110.2962766712
 10
129.4245181334
 20
110.2352498788
 10
129.4916388504
 20
110.1783325215
 10
129.5595423787
 20
110.1261661012
 10
129.6282375244
 20
110.0788044169
 10
129.6977154815
 20
110.0361936696
 10
129.7671924977
 20
109.9988139646
 10
129.8366685298
 20
109.9667245122
 10
129.9061436211
 20
109.9398661021
 10
129.9748341499
 20
109.9185412088
 10
130.0427311391
 20
109.9028124431
 10
130.1098435658
 20
109.8926171943
 10
130.17541474
 20
109.888070105
 10
130.2394269895
 20
109.8892348698
 10
130.3018979865
 20
109.8960477941
 10
130.362124057
 20
109.9084324364
 10
130.4200798895
 20
109.9264513636
 10
130.4757907956
 20
109.9500420088
 10
130.5286290357
 20
109.9789402307
 10
130.5785627596
 20
110.0132061639
 10
130.6256238175
 20
110.0527796736
 10
130.6389038011
 20
110.0654256786
  0
LINE
  5
2C6
100
AcDbEntity
  8
COPY_PUBLISH
100
AcDbLine
 62
253
  6
CONTINUOUS
 10
127.568934633
 20
134.7592181922
 11
127.568934633
 21
135.5668503139
  0
LINE
  5
2C7
100
AcDbEntity
  8
COPY_PUBLISH
100
AcDbLine
 62
7
  6
CONTINUOUS
 10
128.4589948158
 20
135.2558991135
 11
128.4589948158
 21
136.8580497744
  0
LINE
  5
2C8
100
AcDbEntity
  8
COPY_PUBLISH
100
AcDbLine
 62
253
  6
CONTINUOUS
 10
128.9872619875
 20
137.1214885945
 11
128.9872619875
 21
136.7739570777
  0
LINE
  5
2C9
100
AcDbEntity
  8
COPY_PUBLISH
100
AcDbLine
 62
7
  6
CONTINUOUS
 10
129.0594598445
 20
137.2093612266
 11
129.0594598445
 21
136.8618297099
  0
LINE
  5
2CA
100
AcDbEntity
  8
RACCORDO
100
AcDbLine
 62
7
  6
CONTINUOUS
 10
129.4664267121
 20
135.0603248456
 11
129.4664267121
 21
133.6675268521
  0
LINE
  5
2CB
100
AcDbEntity
  8
RACCORDO
100
AcDbLine
 62
253
  6
CONTINUOUS
 10
129.5250053559
 20
134.8681164008
 11
129.5250053559
 21
133.5941539693
  0
LINE
  5
2CC
100
AcDbEntity
  8
COPY_PUBLISH
100
AcDbLine
 62
253
  6
CONTINUOUS
 10
129.0594598445
 20
136.8618297099
 11
129.0594057513
 21
136.8592295332
  0
LWPOLYLINE
  5
2CD
100
AcDbEntity
  8
COPY_PUBLISH
100
AcDbPolyline
 62
253
  6
CONTINUOUS
 90
18
 70
0
 10
129.0594598445
 20
137.2093612081
 10
129.059405165
 20
137.2067469967
 10
129.058876192
 20
137.2008247515
 10
129.0577862535
 20
137.1949217441
 10
129.0561378064
 20
137.1890512344
 10
129.0539345481
 20
137.1832263873
 10
129.051181401
 20
137.1774602505
 10
129.0478845707
 20
137.1717658481
 10
129.0440515561
 20
137.1661561087
 10
129.0396910701
 20
137.1606437175
 10
129.0348129005
 20
137.1552409897
 10
129.0294279404
 20
137.1499599708
 10
129.0235473794
 20
137.1448117739
 10
129.0171852176
 20
137.1398087835
 10
129.0103588167
 20
137.1349643131
 10
129.0030851956
 20
137.130289703
 10
128.9953803076
 20
137.1257945146
 10
128.9872619875
 20
137.1214885945
  0
LWPOLYLINE
  5
2CE
100
AcDbEntity
  8
COPY_PUBLISH
100
AcDbPolyline
 62
7
  6
CONTINUOUS
 90
6
 70
0
 10
129.0594598445
 20
136.8618297099
 10
129.058192014
 20
136.836685186
 10
129.0543648675
 20
136.8116152639
 10
129.047975976
 20
136.7869294092
 10
129.0390715605
 20
136.7629436272
 10
129.0277389038
 20
136.7399516968
  0
LWPOLYLINE
  5
2CF
100
AcDbEntity
  8
0
100
AcDbPolyline
 62
7
  6
CONTINUOUS
 90
11
 70
0
 10
129.0680357883
 20
111.8639367746
 10
129.0777540305
 20
111.9215577674
 10
129.0909564993
 20
111.9757872699
 10
129.1076431945
 20
112.0266252822
 10
129.1279389639
 20
112.0743047467
 10
129.1517189597
 20
112.1185927209
 10
129.1786086388
 20
112.1587903772
 10
129.2086573523
 20
112.1948328799
 10
129.241815749
 20
112.2267850648
 10
129.2775612325
 20
112.2541426113
 10
129.3198896181
 20
112.2788359243
  0
LWPOLYLINE
  5
2D0
100
AcDbEntity
  8
COPY_PUBLISH
100
AcDbPolyline
 62
253
  6
CONTINUOUS
 90
43
 70
0
 10
136.4521144601
 20
126.3807471625
 10
136.4289235429
 20
126.3674165489
 10
136.4057975454
 20
126.3532009781
 10
136.3827608139
 20
126.3381156788
 10
136.3598375106
 20
126.3221769886
 10
136.3370518543
 20
126.3054017853
 10
136.3144281024
 20
126.2878074259
 10
136.2919898894
 20
126.2694125274
 10
136.2697610328
 20
126.2502368585
 10
136.2477657735
 20
126.2303007617
 10
136.2260273696
 20
126.2096256043
 10
136.2045685994
 20
126.188233373
 10
136.1834125735
 20
126.1661465289
 10
136.1625815588
 20
126.143388608
 10
136.1420974923
 20
126.1199838942
 10
136.1219824809
 20
126.0959570276
 10
136.1022576874
 20
126.0713335769
 10
136.0829438954
 20
126.0461398197
 10
136.0640620243
 20
126.0204024089
 10
136.0456319852
 20
125.9941487946
 10
136.0276731422
 20
125.9674069209
 10
136.010204879
 20
125.940205003
 10
135.9932455988
 20
125.9125720057
 10
135.9768131391
 20
125.88453736
 10
135.9609252343
 20
125.8561306611
 10
135.9455986075
 20
125.8273821072
 10
135.9308493977
 20
125.7983223412
 10
135.9166935737
 20
125.7689821666
 10
135.9031460666
 20
125.7393928394
 10
135.890221098
 20
125.7095858172
 10
135.8779326098
 20
125.6795925989
 10
135.8662935622
 20
125.6494451073
 10
135.8553161769
 20
125.6191753978
 10
135.8450122722
 20
125.5888154066
 10
135.8353926778
 20
125.5583972823
 10
135.8264675514
 20
125.5279535102
 10
135.8182466123
 20
125.4975166185
 10
135.8107385759
 20
125.4671191966
 10
135.8039512422
 20
125.4367933265
 10
135.7978918433
 20
125.406570711
 10
135.7925668109
 20
125.3764832983
 10
135.7879817355
 20
125.3465632442
 10
135.7841414594
 20
125.3168423473
  0
LWPOLYLINE
  5
2D1
100
AcDbEntity
  8
COPY_PUBLISH
100
AcDbPolyline
 62
253
  6
CONTINUOUS
 90
43
 70
0
 10
136.8179472001
 20
125.7777447168
 10
136.8062389302
 20
125.7711212809
 10
136.7945856284
 20
125.7640698016
 10
136.7829872948
 20
125.7565902786
 10
136.7714310576
 20
125.7486734992
 10
136.7599297886
 20
125.7403286763
 10
136.7485221025
 20
125.7315834488
 10
136.7372089366
 20
125.7224368839
 10
136.7259893536
 20
125.7128899145
 10
136.7148991559
 20
125.7029729783
 10
136.7039388051
 20
125.6926849303
 10
136.6931078395
 20
125.6820269155
 10
136.6824406767
 20
125.6710328068
 10
136.6719378287
 20
125.6597015303
 10
136.6615987835
 20
125.6480341598
 10
136.6514564214
 20
125.6360677892
 10
136.6415113469
 20
125.623801434
 10
136.6317629555
 20
125.6112360787
 10
136.6222423147
 20
125.5984117695
 10
136.6129501699
 20
125.5853277023
 10
136.6038857756
 20
125.5719846812
 10
136.5950779628
 20
125.5584251649
 10
136.5865275534
 20
125.5446484723
 10
136.5782337255
 20
125.5306552846
 10
136.5702228443
 20
125.5164901036
 10
136.5624958025
 20
125.502152365
 10
136.5550517074
 20
125.4876426331
 10
136.5479142464
 20
125.4730071027
 10
136.5410844065
 20
125.4582453927
 10
136.5345612006
 20
125.4433578843
 10
136.5283653546
 20
125.4283919155
 10
136.5224979099
 20
125.4133472496
 10
136.5169578251
 20
125.3982241232
 10
136.5117627009
 20
125.3830705845
 10
136.5069136254
 20
125.3678864729
 10
136.5024095104
 20
125.3526719489
 10
136.4982646927
 20
125.3374755414
 10
136.494480198
 20
125.3222962957
 10
136.4910550006
 20
125.3071351665
 10
136.4880003602
 20
125.2920435469
 10
136.4853200302
 20
125.2770385678
 10
136.4830102572
 20
125.2621030983
 10
136.4810710413
 20
125.2472371384
  0
LINE
  5
2D2
100
AcDbEntity
  8
COPY_PUBLISH
100
AcDbLine
 62
7
  6
CONTINUOUS
 10
140.7626528084
 20
129.1040701171
 11
139.8725926257
 21
128.6073891959
  0
LWPOLYLINE
  5
2D3
100
AcDbEntity
  8
RACCORDO
100
AcDbPolyline
 62
7
  6
CONTINUOUS
 90
3
 70
0
 10
147.1425409367
 20
131.5613927357
 10
147.1611768713
 20
131.5716476467
 10
147.2012741776
 20
131.5978306239
  0
LINE
  5
2D4
100
AcDbEntity
  8
COPY_PUBLISH
100
AcDbLine
 62
253
  6
CONTINUOUS
 10
141.1164753237
 20
128.9271588595
 11
136.4521144601
 21
126.3807471625
  0
LINE
  5
2D5
100
AcDbEntity
  8
COPY_PUBLISH
100
AcDbLine
 62
253
  6
CONTINUOUS
 10
141.4697595896
 20
128.3173058329
 11
136.8179472001
 21
125.7777447168
  0
LINE
  5
2D6
100
AcDbEntity
  8
RACCORDO
100
AcDbLine
 62
7
  6
CONTINUOUS
 10
147.7747254093
 20
132.5272378123
 11
141.720988334
 21
129.3269707471
  0
LINE
  5
2D7
100
AcDbEntity
  8
COPY_PUBLISH
100
AcDbLine
 62
7
  6
CONTINUOUS
 10
147.7747254093
 20
133.2722105611
 11
140.9669501902
 21
129.703989819
  0
LINE
  5
2D8
100
AcDbEntity
  8
RACCORDO
100
AcDbLine
 62
253
  6
CONTINUOUS
 10
142.0931569218
 20
128.9783699451
 11
147.1678591262
 21
131.6151140561
  0
LINE
  5
2D9
100
AcDbEntity
  8
RACCORDO
100
AcDbLine
 62
7
  6
CONTINUOUS
 10
142.1084018461
 20
128.945703023
 11
147.1426404218
 21
131.5614227999
  0
LINE
  5
2DA
100
AcDbEntity
  8
COPY_PUBLISH
100
AcDbLine
 62
253
  6
CONTINUOUS
 10
141.8171466402
 20
129.278891594
 11
141.1162106864
 21
128.9272911782
  0
LINE
  5
2DB
100
AcDbEntity
  8
COPY_PUBLISH
100
AcDbLine
 62
253
  6
CONTINUOUS
 10
142.1706955434
 20
128.6691190963
 11
141.4697595896
 21
128.3175186804
  0
LINE
  5
2DC
100
AcDbEntity
  8
RACCORDO
100
AcDbLine
 62
253
  6
CONTINUOUS
 10
142.1706955434
 20
128.6477456985
 11
159.2376005449
 21
137.1474298662
  0
LWPOLYLINE
  5
2DD
100
AcDbEntity
  8
DRAFT
100
AcDbPolyline
 62
7
  6
CONTINUOUS
 90
9
 70
0
 10
128.9088631263
 20
106.5167553441
 10
129.1093364479
 20
106.4379909479
 10
129.307902154
 20
106.3743319249
 10
129.5053347645
 20
106.3256584477
 10
129.7008597595
 20
106.2920903437
 10
129.8921535797
 20
106.273987094
 10
130.0788912526
 20
106.2714928659
 10
130.2613977506
 20
106.2844634922
 10
130.4383244314
 20
106.3128259523
  0
LINE
  5
2DE
100
AcDbEntity
  8
DRAFT
100
AcDbLine
 62
7
  6
CONTINUOUS
 10
128.7064821892
 20
106.6106251132
 11
128.9088631263
 21
106.5167553441
  0
LWPOLYLINE
  5
2DF
100
AcDbEntity
  8
0
100
AcDbPolyline
 62
7
  6
CONTINUOUS
 90
13
 70
0
 10
129.0600355798
 20
106.8307030787
 10
129.223827589
 20
106.7536540217
 10
129.386515645
 20
106.6865607324
 10
129.5480997477
 20
106.6294232108
 10
129.7089403906
 20
106.5821572555
 10
129.8686770802
 20
106.5448470679
 10
130.0262283367
 20
106.5177452526
 10
130.1815793303
 20
106.5009210807
 10
130.3347448908
 20
106.4943052811
 10
130.4846880274
 20
106.4979426453
 10
130.6313868736
 20
106.5119027484
 10
130.7748632958
 20
106.5361160154
 10
130.8809308918
 20
106.5622383256
  0
LWPOLYLINE
  5
2E0
100
AcDbEntity
  8
0
100
AcDbPolyline
 62
7
  6
CONTINUOUS
 90
9
 70
0
 10
130.1206957516
 20
107.3610331646
 10
130.2737268865
 20
107.2887461787
 10
130.42584266
 20
107.2251389992
 10
130.5770430719
 20
107.1702116261
 10
130.727618993
 20
107.1238922061
 10
130.8772795526
 20
107.0862525925
 10
131.0251521385
 20
107.0575083454
 10
131.1712308872
 20
107.0377102769
 10
131.1801943783
 20
107.0370329898
  0
LINE
  5
2E1
100
AcDbEntity
  8
RACCORDO
100
AcDbLine
 62
7
  6
CONTINUOUS
 10
147.644731824
 20
97.2624621258
 11
147.7686088998
 21
97.2005235881
  0
LINE
  5
2E2
100
AcDbEntity
  8
RACCORDO
100
AcDbLine
 62
7
  6
CONTINUOUS
 10
147.6269782736
 20
97.2723678627
 11
147.6447318242
 21
97.2624621259
  0
LWPOLYLINE
  5
2E3
100
AcDbEntity
  8
RACCORDO
100
AcDbPolyline
 62
253
  6
CONTINUOUS
 90
8
 70
0
 10
147.5872027821
 20
97.2218822018
 10
147.5685946513
 20
97.2325190783
 10
147.5503259993
 20
97.2459477205
 10
147.5327093779
 20
97.2619383805
 10
147.5160461829
 20
97.2802174779
 10
147.5006214983
 20
97.3004722807
 10
147.4866992187
 20
97.322356255
 10
147.4745175342
 20
97.345494994
  0
LWPOLYLINE
  5
2E4
100
AcDbEntity
  8
0
100
AcDbPolyline
 62
253
  6
CONTINUOUS
 90
12
 70
0
 10
129.7397087689
 20
108.8280769906
 10
129.8879566791
 20
108.6895639594
 10
130.0385874636
 20
108.5587718374
 10
130.1912441628
 20
108.4360105715
 10
130.3455650159
 20
108.3215710772
 10
130.5011843184
 20
108.2157245494
 10
130.657733289
 20
108.1187218197
 10
130.8148409431
 20
108.0307927619
 10
130.9721349723
 20
107.9521457473
 10
131.1292426264
 20
107.882967151
 10
131.285791597
 20
107.8234209101
 10
131.3998219019
 20
107.786949826
  0
LWPOLYLINE
  5
2E5
100
AcDbEntity
  8
0
100
AcDbPolyline
 62
253
  6
CONTINUOUS
 90
9
 70
0
 10
130.2642739709
 20
109.4499760205
 10
130.4187768574
 20
109.2959770863
 10
130.5764933119
 20
109.1508982411
 10
130.7369455897
 20
109.0151789485
 10
130.8996476589
 20
108.8892303208
 10
131.0641066726
 20
108.7734338736
 10
131.229824462
 20
108.6681403703
 10
131.3962990454
 20
108.5736687592
 10
131.4605426972
 20
108.5415469332
  0
LWPOLYLINE
  5
2E6
100
AcDbEntity
  8
0
100
AcDbPolyline
 62
7
  6
CONTINUOUS
 90
8
 70
0
 10
130.8935303936
 20
110.9511894719
 10
130.8847623165
 20
111.040722963
 10
130.8718852644
 20
111.1308674218
 10
130.8548992375
 20
111.2216228484
 10
130.8337084794
 20
111.3133366595
 10
130.8084087464
 20
111.4056614383
 10
130.7792873071
 20
111.497554935
 10
130.7594103985
 20
111.5526651518
  0
LWPOLYLINE
  5
2E7
100
AcDbEntity
  8
RACCORDO
100
AcDbPolyline
 62
253
  6
CONTINUOUS
 90
13
 70
0
 10
130.1852248793
 20
134.6781938768
 10
130.1839173655
 20
134.7013575027
 10
130.1802338265
 20
134.7253451307
 10
130.1742372849
 20
134.7497463522
 10
130.1660303363
 20
134.7741436825
 10
130.1557533949
 20
134.7981197036
 10
130.1435822907
 20
134.8212642055
 10
130.1297252612
 20
134.843181205
 10
130.1144193887
 20
134.8634957202
 10
130.0979265441
 20
134.8818601867
 10
130.0805289062
 20
134.8979604037
 10
130.0625241342
 20
134.9115209096
 10
130.044220275
 20
134.9223096956
  0
LWPOLYLINE
  5
2E8
100
AcDbEntity
  8
RACCORDO
100
AcDbPolyline
 62
7
  6
CONTINUOUS
 90
11
 70
0
 10
129.4664272735
 20
135.0607643969
 10
129.4672930179
 20
135.0400865641
 10
129.4695124872
 20
135.0205407418
 10
129.4729814779
 20
135.0007781091
 10
129.4776219132
 20
134.9810567636
 10
129.4833541458
 20
134.9614021843
 10
129.4900743789
 20
134.9418605718
 10
129.4976932221
 20
134.9227158018
 10
129.5061186839
 20
134.9040757951
 10
129.5152538554
 20
134.8858719473
 10
129.5250053559
 20
134.8681164008
  0
LINE
  5
2E9
100
AcDbEntity
  8
RACCORDO
100
AcDbLine
 62
7
  6
CONTINUOUS
 10
130.7567762905
 20
135.1141479707
 11
130.7569216859
 21
135.0688672273
  0
LINE
  5
2EA
100
AcDbEntity
  8
RACCORDO
100
AcDbLine
 62
253
  6
CONTINUOUS
 10
129.9036216702
 20
133.4048458121
 11
129.9036216702
 21
134.6788082436
  0
LINE
  5
2EB
100
AcDbEntity
  8
RACCORDO
100
AcDbLine
 62
253
  6
CONTINUOUS
 10
130.1852248793
 20
133.4132295257
 11
130.1852248793
 21
134.6781938768
  0
LWPOLYLINE
  5
2EC
100
AcDbEntity
  8
RACCORDO
100
AcDbPolyline
 62
7
  6
CONTINUOUS
 90
3
 70
0
 10
130.7569216859
 20
135.0688672273
 10
130.7568795975
 20
135.0460968041
 10
130.7570445176
 20
134.9822580428
  0
LINE
  5
2ED
100
AcDbEntity
  8
RACCORDO
100
AcDbLine
 62
7
  6
CONTINUOUS
 10
130.7570445176
 20
134.9822580428
 11
130.7570918546
 21
133.7306039693
  0
LWPOLYLINE
  5
2EE
100
AcDbEntity
  8
COPY_PUBLISH
100
AcDbPolyline
 62
253
  6
CONTINUOUS
 90
31
 70
0
 10
132.381580818
 20
134.1519738393
 10
132.3817723595
 20
134.1610812193
 10
132.3823469045
 20
134.1703608435
 10
132.3833035533
 20
134.1797878121
 10
132.3846406554
 20
134.1893385895
 10
132.3863550787
 20
134.1989855918
 10
132.3884414972
 20
134.2086971078
 10
132.3908937037
 20
134.2184447465
 10
132.3937054056
 20
134.2282039205
 10
132.3968690408
 20
134.237948334
 10
132.4003760973
 20
134.2476516498
 10
132.4042170008
 20
134.2572872702
 10
132.4083811945
 20
134.2668286798
 10
132.4128572821
 20
134.2762497907
 10
132.4176331296
 20
134.285525086
 10
132.4226957804
 20
134.2946294
 10
132.4280314809
 20
134.3035379844
 10
132.4336256943
 20
134.3122265543
 10
132.4394631816
 20
134.3206714343
 10
132.4455280522
 20
134.3288496323
 10
132.4518038043
 20
134.3367388928
 10
132.4582733527
 20
134.3443177348
 10
132.4649190895
 20
134.3515655285
 10
132.4717229273
 20
134.3584625454
 10
132.4786663427
 20
134.364990007
 10
132.4857304423
 20
134.3711301495
 10
132.4928959946
 20
134.3768662553
 10
132.5001434766
 20
134.3821826968
 10
132.507453155
 20
134.3870650018
 10
132.5148051406
 20
134.3914998894
 10
132.5221794228
 20
134.3954752912
  0
LWPOLYLINE
  5
2EF
100
AcDbEntity
  8
RACCORDO
100
AcDbPolyline
 62
7
  6
CONTINUOUS
 90
6
 70
0
 10
130.7574978836
 20
135.2778160609
 10
130.7570951852
 20
135.2615719336
 10
130.7570366772
 20
135.2437018719
 10
130.7571533449
 20
135.2243236615
 10
130.7571607327
 20
135.2033715073
 10
130.7567762905
 20
135.1141479707
  0
LWPOLYLINE
  5
2F0
100
AcDbEntity
  8
0
100
AcDbPolyline
 62
7
  6
CONTINUOUS
 90
11
 70
0
 10
130.4662489337
 20
110.9050225808
 10
130.4565306914
 20
110.8474015879
 10
130.4433282227
 20
110.7931720854
 10
130.4266415275
 20
110.7423340732
 10
130.4063457581
 20
110.6946546087
 10
130.3825657622
 20
110.6503666344
 10
130.3556760831
 20
110.6101689781
 10
130.3256273697
 20
110.5741264754
 10
130.292468973
 20
110.5421742906
 10
130.2567234894
 20
110.5148167441
 10
130.2143951038
 20
110.4901234311
  0
LWPOLYLINE
  5
2F1
100
AcDbEntity
  8
COPY_PUBLISH
100
AcDbPolyline
 62
7
  6
CONTINUOUS
 90
25
 70
0
 10
136.7321441557
 20
131.5800976355
 10
136.7377221459
 20
131.5921245042
 10
136.7428292419
 20
131.6045890439
 10
136.7474654437
 20
131.6174912547
 10
136.751635904
 20
131.6308505615
 10
136.7553354701
 20
131.6446475393
 10
136.7585486837
 20
131.6588239134
 10
136.7612735087
 20
131.673381263
 10
136.7635119812
 20
131.6883180089
 10
136.7652547511
 20
131.7035711395
 10
136.7664997447
 20
131.7191419735
 10
136.7672490357
 20
131.7350291922
 10
136.7674994947
 20
131.7511658268
 10
136.7672490357
 20
131.7675529205
 10
136.7664997447
 20
131.7841894301
 10
136.7652547511
 20
131.8010052578
 10
136.7635119812
 20
131.8180011582
 10
136.7612735087
 20
131.8351763767
 10
136.7585486837
 20
131.8524585513
 10
136.7553354701
 20
131.869848139
 10
136.751635904
 20
131.8873446829
 10
136.7474654437
 20
131.9048744499
 10
136.7428292419
 20
131.9224128625
 10
136.7377221459
 20
131.9399844983
 10
136.7321441557
 20
131.9575893572
  0
LWPOLYLINE
  5
2F2
100
AcDbEntity
  8
COPY_PUBLISH
100
AcDbPolyline
 62
7
  6
CONTINUOUS
 90
31
 70
0
 10
142.0045913127
 20
134.1836315834
 10
142.0129041123
 20
134.1943248881
 10
142.0206834388
 20
134.205639811
 10
142.0279292924
 20
134.2175763522
 10
142.0346522827
 20
134.2301571425
 10
142.0408418
 20
134.2433595511
 10
142.0464660152
 20
134.2571156849
 10
142.0515220162
 20
134.2714283962
 10
142.0560127151
 20
134.2862948327
 10
142.0599150188
 20
134.3016385442
 10
142.0632258963
 20
134.3174619893
 10
142.0659483785
 20
134.3337627094
 10
142.0680684654
 20
134.3504568788
 10
142.0695830538
 20
134.3675465241
 10
142.0704952469
 20
134.3850296186
 10
142.0708003536
 20
134.4028162563
 10
142.0704952469
 20
134.4209080007
 10
142.0695830538
 20
134.4393032882
 10
142.0680684654
 20
134.4579075219
 10
142.0659483785
 20
134.4767217782
 10
142.0632258963
 20
134.4957449806
 10
142.0599150188
 20
134.5148793032
 10
142.0560127151
 20
134.5341253184
 10
142.0515220162
 20
134.5534824538
 10
142.0464660152
 20
134.5728511661
 10
142.0408418
 20
134.592231515
 10
142.0346522827
 20
134.6116234409
 10
142.0279292924
 20
134.6309272216
 10
142.0206834388
 20
134.6501096163
 10
142.0129041123
 20
134.6692038658
 10
142.0045913127
 20
134.68820997
  0
LINE
  5
2F3
100
AcDbEntity
  8
COPY_PUBLISH
100
AcDbLine
 62
253
  6
CONTINUOUS
 10
141.3063168122
 20
130.5513371747
 11
141.3062805524
 21
130.5512929146
  0
LINE
  5
2F4
100
AcDbEntity
  8
COPY_PUBLISH
100
AcDbLine
 62
253
  6
CONTINUOUS
 10
140.7626528084
 20
129.9791759256
 11
141.2909199802
 21
130.6221280814
  0
LINE
  5
2F5
100
AcDbEntity
  8
COPY_PUBLISH
100
AcDbLine
 62
7
  6
CONTINUOUS
 10
140.7626528084
 20
129.8896454593
 11
141.3062805526
 21
130.5512929148
  0
LWPOLYLINE
  5
2F6
100
AcDbEntity
  8
DRAFT
100
AcDbPolyline
 62
7
  6
CONTINUOUS
 90
41
 70
0
 10
126.1863584847
 20
115.0264743496
 10
126.052818534
 20
114.9094615472
 10
125.9278047536
 20
114.7781327647
 10
125.8115219731
 20
114.6329013258
 10
125.7055286165
 20
114.4756913187
 10
125.6101407578
 20
114.306695229
 10
125.5250423232
 20
114.1257205712
 10
125.4508435154
 20
113.9341139762
 10
125.3875293756
 20
113.7314849057
 10
125.3351148628
 20
113.5182238981
 10
125.2942550569
 20
113.2968491996
 10
125.26512388
 20
113.0674436657
 10
125.2475474101
 20
112.829924441
 10
125.2416589614
 20
112.5865612057
 10
125.2475474101
 20
112.3373095217
 10
125.26512388
 20
112.082213827
 10
125.2942550569
 20
111.8236771162
 10
125.3351148628
 20
111.5614426119
 10
125.3875293756
 20
111.2957670915
 10
125.4508435154
 20
111.0298238812
 10
125.5250423232
 20
110.7640184785
 10
125.6101407578
 20
110.4979453859
 10
125.7055286165
 20
110.2335614376
 10
125.8115219731
 20
109.9703580739
 10
125.9278047536
 20
109.7088438545
 10
126.052818534
 20
109.4525012915
 10
126.1863584847
 20
109.2019485385
 10
126.3286294351
 20
108.956567442
 10
126.4786874501
 20
108.7179860541
 10
126.6369536337
 20
108.4857429562
 10
126.8030068818
 20
108.260299567
 10
126.974639947
 20
108.0446681944
 10
127.1515666278
 20
107.8393790535
 10
127.3340731258
 20
107.6439019293
 10
127.5208107987
 20
107.4596584844
 10
127.7121046188
 20
107.286467914
 10
127.9076296139
 20
107.124511023
 10
128.1050622244
 20
106.9757518897
 10
128.3036279305
 20
106.8408452066
 10
128.5041012521
 20
106.7191362811
 10
128.7064821892
 20
106.6106251132
  0
LINE
  5
2F7
100
AcDbEntity
  8
RACCORDO
100
AcDbLine
 62
7
  6
CONTINUOUS
 10
147.2012741776
 20
131.5978306239
 11
147.2400883544
 21
131.6288841222
  0
LWPOLYLINE
  5
2F8
100
AcDbEntity
  8
RACCORDO
100
AcDbPolyline
 62
253
  6
CONTINUOUS
 90
6
 70
0
 10
147.4457868107
 20
132.1029216606
 10
147.4568194243
 20
132.1096068697
 10
147.4653773005
 20
132.1171442669
 10
147.4712032863
 20
132.1253073635
 10
147.4741223184
 20
132.1338508696
 10
147.4744617657
 20
132.1379649281
  0
LWPOLYLINE
  5
2F9
100
AcDbEntity
  8
RACCORDO
100
AcDbPolyline
 62
253
  6
CONTINUOUS
 90
15
 70
0
 10
147.1678591262
 20
131.6151140561
 10
147.1974186157
 20
131.6324832896
 10
147.2260595061
 20
131.6529376953
 10
147.2537817972
 20
131.6764772733
 10
147.2808771961
 20
131.7034297905
 10
147.3070539958
 20
131.73346748
 10
147.3314370756
 20
131.7656070409
 10
147.3539559159
 20
131.7999096308
 10
147.3746810362
 20
131.8363140922
 10
147.3929488754
 20
131.8736536513
 10
147.4086804342
 20
131.9119865263
 10
147.4219547118
 20
131.9512544991
 10
147.4323451447
 20
131.9901161417
 10
147.4397095448
 20
132.0281243115
 10
147.4441901002
 20
132.0657261511
  0
LINE
  5
2FA
100
AcDbEntity
  8
COPY_PUBLISH
100
AcDbLine
 62
7
  6
CONTINUOUS
 10
142.1706955434
 20
127.2966178136
 11
142.5304197614
 21
127.4764799226
  0
LINE
  5
2FB
100
AcDbEntity
  8
COPY_PUBLISH
100
AcDbLine
 62
7
  6
CONTINUOUS
 10
142.1706955434
 20
127.6320807936
 11
142.195380263
 21
127.6439996719
  0
LINE
  5
2FC
100
AcDbEntity
  8
COPY_PUBLISH
100
AcDbLine
 62
7
  6
CONTINUOUS
 10
143.2220994741
 20
125.8828555508
 11
141.4697595896
 21
125.3730176518
  0
LWPOLYLINE
  5
2FD
100
AcDbEntity
  8
0
100
AcDbPolyline
 62
7
  6
CONTINUOUS
 90
21
 70
0
 10
130.5174080823
 20
112.0458903527
 10
130.4757907956
 20
112.1102689119
 10
130.4200798895
 20
112.1895704632
 10
130.362124057
 20
112.2655452229
 10
130.3018979865
 20
112.3381559358
 10
130.2394269895
 20
112.407439857
 10
130.17541474
 20
112.4726168714
 10
130.1098435658
 20
112.5336409562
 10
130.0427311391
 20
112.5905581341
 10
129.9748341499
 20
112.6427263576
 10
129.9061436211
 20
112.6900919932
 10
129.8366685298
 20
112.7327086744
 10
129.7671924977
 20
112.770095254
 10
129.6977154815
 20
112.8021925653
 10
129.6282375244
 20
112.829059775
 10
129.5595423787
 20
112.8503932364
 10
129.4916388504
 20
112.8661303445
 10
129.4245181334
 20
112.8763337042
 10
129.3589375616
 20
112.8808874835
 10
129.2949145067
 20
112.8797277478
 10
129.2347905612
 20
112.8732827754
  0
LWPOLYLINE
  5
2FE
100
AcDbEntity
  8
COPY_PUBLISH
100
AcDbPolyline
 62
253
  6
CONTINUOUS
 90
14
 70
0
 10
141.2922423572
 20
89.5380469337
 10
141.2879964273
 20
89.5480033618
 10
141.2833558069
 20
89.5576492195
 10
141.2783309693
 20
89.5669627366
 10
141.2729332555
 20
89.5759228932
 10
141.2671748478
 20
89.5845094667
 10
141.2610687424
 20
89.5927030776
 10
141.2546287206
 20
89.6004852336
 10
141.2478693171
 20
89.6078383706
 10
141.2408057875
 20
89.6147458932
 10
141.2334540737
 20
89.6211922115
 10
141.2258307681
 20
89.6271627764
 10
141.2179530761
 20
89.6326441128
 10
141.2098387772
 20
89.6376238497
  0
LWPOLYLINE
  5
2FF
100
AcDbEntity
  8
COPY_PUBLISH
100
AcDbPolyline
 62
253
  6
CONTINUOUS
 90
24
 70
0
 10
135.7841414594
 20
88.5788019876
 10
135.7879817355
 20
88.5528547534
 10
135.7925668109
 20
88.527440464
 10
135.7978918433
 20
88.5025860757
 10
135.8039512422
 20
88.4783180305
 10
135.8107385759
 20
88.4546619682
 10
135.8182466123
 20
88.4316427291
 10
135.8264675514
 20
88.4092845538
 10
135.8353926778
 20
88.3876113576
 10
135.8450122722
 20
88.3666464448
 10
135.8553161769
 20
88.346412107
 10
135.8662935622
 20
88.3269296989
 10
135.8779326098
 20
88.3082199406
 10
135.890221098
 20
88.2903026292
 10
135.9031460666
 20
88.273196764
 10
135.9166935737
 20
88.2569206137
 10
135.9308493977
 20
88.2414913812
 10
135.9455986075
 20
88.2269254249
 10
135.9609252343
 20
88.2132383914
 10
135.9768131391
 20
88.2004447542
 10
135.9932455988
 20
88.1885580191
 10
136.010204879
 20
88.1775909514
 10
136.0276731422
 20
88.1675551167
 10
136.0378049827
 20
88.162278446
  0
LINE
  5
300
100
AcDbEntity
  8
COPY_PUBLISH
100
AcDbLine
 62
7
  6
CONTINUOUS
 10
133.5750981037
 20
133.3961597411
 11
133.5665373993
 21
134.6038061922
  0
LINE
  5
301
100
AcDbEntity
  8
COPY_PUBLISH
100
AcDbLine
 62
253
  6
CONTINUOUS
 10
132.381580818
 20
132.9183594876
 11
132.381580818
 21
134.1519738393
  0
LINE
  5
302
100
AcDbEntity
  8
COPY_PUBLISH
100
AcDbLine
 62
253
  6
CONTINUOUS
 10
132.6631840271
 20
132.9267432011
 11
132.6631840271
 21
134.1513594725
  0
LINE
  5
303
100
AcDbEntity
  8
COPY_PUBLISH
100
AcDbLine
 62
7
  6
CONTINUOUS
 10
132.8784121982
 20
133.0461904222
 11
132.8784121982
 21
134.2586318499
  0
LINE
  5
304
100
AcDbEntity
  8
COPY_PUBLISH
100
AcDbLine
 62
7
  6
CONTINUOUS
 10
134.0237717158
 20
133.3722997467
 11
134.0237717158
 21
132.1413462679
  0
LINE
  5
305
100
AcDbEntity
  8
COPY_PUBLISH
100
AcDbLine
 62
253
  6
CONTINUOUS
 10
134.0823503595
 20
133.3015890685
 11
134.0823503595
 21
132.0679747169
  0
LWPOLYLINE
  5
306
100
AcDbEntity
  8
COPY_PUBLISH
100
AcDbPolyline
 62
253
  6
CONTINUOUS
 90
31
 70
0
 10
134.0823503595
 20
133.3015890685
 10
134.0825419009
 20
133.3106964486
 10
134.0831164459
 20
133.3199760727
 10
134.0840730947
 20
133.3294030414
 10
134.0854101969
 20
133.3389538187
 10
134.0871246202
 20
133.3486008211
 10
134.0892110387
 20
133.358312337
 10
134.0916632452
 20
133.3680599758
 10
134.094474947
 20
133.3778191497
 10
134.0976385823
 20
133.3875635633
 10
134.1011456388
 20
133.397266879
 10
134.1049865423
 20
133.4069024995
 10
134.1091507359
 20
133.416443909
 10
134.1136268235
 20
133.42586502
 10
134.1184026711
 20
133.4351403152
 10
134.1234653219
 20
133.4442446293
 10
134.1288010224
 20
133.4531532136
 10
134.1343952358
 20
133.4618417836
 10
134.1402327231
 20
133.4702866636
 10
134.1462975936
 20
133.4784648616
 10
134.1525733457
 20
133.4863541221
 10
134.1590428942
 20
133.493932964
 10
134.165688631
 20
133.5011807577
 10
134.1724924687
 20
133.5080777747
 10
134.1794358842
 20
133.5146052362
 10
134.1864999838
 20
133.5207453787
 10
134.193665536
 20
133.5264814845
 10
134.200913018
 20
133.531797926
 10
134.2082226964
 20
133.5366802311
 10
134.2155746821
 20
133.5411151187
 10
134.2229489643
 20
133.5450905205
  0
LWPOLYLINE
  5
307
100
AcDbEntity
  8
RACCORDO
100
AcDbPolyline
 62
253
  6
CONTINUOUS
 90
13
 70
0
 10
135.146095945
 20
132.0575711062
 10
135.1472439456
 20
132.0801696052
 10
135.1507014813
 20
132.1037161726
 10
135.1564594689
 20
132.1278356375
 10
135.1644889844
 20
132.152184544
 10
135.1746874623
 20
132.1762897606
 10
135.1868324884
 20
132.1995693607
 10
135.2006841792
 20
132.2215766471
 10
135.2160287257
 20
132.241983391
 10
135.2325955934
 20
132.2604311087
 10
135.2500967402
 20
132.2766030949
 10
135.2682335032
 20
132.2902271887
 10
135.2866945498
 20
132.3010725582
  0
LWPOLYLINE
  5
308
100
AcDbEntity
  8
COPY_PUBLISH
100
AcDbPolyline
 62
7
  6
CONTINUOUS
 90
10
 70
0
 10
134.0237717158
 20
133.3722997467
 10
134.0254093213
 20
133.397837723
 10
134.0303631174
 20
133.4232212863
 10
134.0386274505
 20
133.4479410122
 10
134.0501185493
 20
133.471519544
 10
134.0646345926
 20
133.4934417
 10
134.0818719427
 20
133.5132410621
 10
134.1016452463
 20
133.530682538
 10
134.1235413394
 20
133.5453716132
 10
134.1320533558
 20
133.5500291541
  0
LWPOLYLINE
  5
309
100
AcDbEntity
  8
RACCORDO
100
AcDbPolyline
 62
7
  6
CONTINUOUS
 90
10
 70
0
 10
135.0875173012
 20
132.1282817843
 10
135.0891549068
 20
132.1538197607
 10
135.0941087029
 20
132.1792033239
 10
135.102373036
 20
132.2039230499
 10
135.1138641347
 20
132.2275015817
 10
135.1283801781
 20
132.2494237376
 10
135.1456175282
 20
132.2692230998
 10
135.1653908317
 20
132.2866645757
 10
135.1872869249
 20
132.3013536508
 10
135.1957989413
 20
132.3060111918
  0
LWPOLYLINE
  5
30A
100
AcDbEntity
  8
COPY_PUBLISH
100
AcDbPolyline
 62
253
  6
CONTINUOUS
 90
30
 70
0
 10
139.1613720176
 20
129.5635248405
 10
139.1569514921
 20
129.5526333457
 10
139.1521442968
 20
129.5419670768
 10
139.1469612812
 20
129.531550107
 10
139.1414141431
 20
129.5214059468
 10
139.1355154021
 20
129.5115574909
 10
139.1292783713
 20
129.5020269667
 10
139.1227171272
 20
129.492835884
 10
139.1158464783
 20
129.4840049866
 10
139.1086819311
 20
129.4755542053
 10
139.1012396557
 20
129.467502613
 10
139.0935364488
 20
129.4598683816
 10
139.0855896961
 20
129.4526687412
 10
139.0774173329
 20
129.4459199409
 10
139.0690378038
 20
129.4396372125
 10
139.0604700208
 20
129.4338347355
 10
139.0517333211
 20
129.4285256059
 10
139.0428474227
 20
129.4237218061
 10
139.0338323807
 20
129.419434178
 10
139.0247085414
 20
129.4156723984
 10
139.0154964968
 20
129.4124449575
 10
139.006217038
 20
129.4097591395
 10
138.9968911081
 20
129.407621006
 10
138.9875397552
 20
129.4060353828
 10
138.9781840848
 20
129.4050058484
 10
138.9688452121
 20
129.4045347265
 10
138.9595442143
 20
129.4046230804
 10
138.9503020832
 20
129.4052707106
 10
138.9411396779
 20
129.4064761555
 10
138.9345285241
 20
129.4077036797
  0
LINE
  5
30B
100
AcDbEntity
  8
0
100
AcDbLine
 62
7
  6
CONTINUOUS
 10
129.7397087689
 20
108.8280769906
 11
129.6156354853
 21
108.563771617
  0
LINE
  5
30C
100
AcDbEntity
  8
0
100
AcDbLine
 62
7
  6
CONTINUOUS
 10
129.6156354853
 20
108.563771617
 11
129.4864587373
 21
108.2903271498
  0
LWPOLYLINE
  5
30D
100
AcDbEntity
  8
0
100
AcDbPolyline
 62
7
  6
CONTINUOUS
 90
3
 70
0
 10
129.4864587373
 20
108.2903271498
 10
129.3521458865
 20
108.0076586557
 10
129.2986705714
 20
107.8955569349
  0
LWPOLYLINE
  5
30E
100
AcDbEntity
  8
COPY_PUBLISH
100
AcDbPolyline
 62
7
  6
CONTINUOUS
 90
3
 70
0
 10
141.3278077486
 20
130.5819060536
 10
141.3112319466
 20
130.5575186734
 10
141.3063168122
 20
130.5513371747
  0
LWPOLYLINE
  5
30F
100
AcDbEntity
  8
RACCORDO
100
AcDbPolyline
 62
7
  6
CONTINUOUS
 90
10
 70
0
 10
147.2400883544
 20
131.6288841222
 10
147.2772074559
 20
131.6644093152
 10
147.3119261425
 20
131.7036400562
 10
147.3438420931
 20
131.745881085
 10
147.3728594787
 20
131.7908246719
 10
147.3987340625
 20
131.8380630664
 10
147.4212279352
 20
131.8870968418
 10
147.4400808309
 20
131.9374114353
 10
147.4550544867
 20
131.9885540999
 10
147.4659386135
 20
132.0400721547
  0
LINE
  5
310
100
AcDbEntity
  8
DRAFT
100
AcDbLine
 62
7
  6
CONTINUOUS
 10
126.3233305782
 20
115.1257441761
 11
126.1863584847
 21
115.0264743496
  0
LWPOLYLINE
  5
311
100
AcDbEntity
  8
0
100
AcDbPolyline
 62
7
  6
CONTINUOUS
 90
51
 70
0
 10
126.5837837028
 20
115.1745550864
 10
126.5779467912
 20
115.1703248147
 10
126.4682166826
 20
115.0773969886
 10
126.3643887946
 20
114.9752543356
 10
126.2664233465
 20
114.8639589631
 10
126.1749836026
 20
114.7442643845
 10
126.0901138446
 20
114.6161136052
 10
126.0117697908
 20
114.4795636198
 10
125.9404818611
 20
114.3355389251
 10
125.8762979365
 20
114.1839888
 10
125.819170136
 20
114.0249639655
 10
125.7694852373
 20
113.8595410821
 10
125.7272937457
 20
113.6876767346
 10
125.6925451558
 20
113.5094143381
 10
125.6654747293
 20
113.325960799
 10
125.6461345678
 20
113.1372808915
 10
125.6344725696
 20
112.9434098414
 10
125.630567691
 20
112.7456602315
 10
125.6344725696
 20
112.544005743
 10
125.6461345678
 20
112.3384726947
 10
125.6654747293
 20
112.1304526257
 10
125.6925451558
 20
111.91992866
 10
125.7272937457
 20
111.7069176737
 10
125.7694852373
 20
111.4928618345
 10
125.819170136
 20
111.2777540525
 10
125.8762979365
 20
111.0616014175
 10
125.9404818611
 20
110.8458673677
 10
126.0117697908
 20
110.6305547434
 10
126.0901138446
 20
110.4156607042
 10
126.1749836026
 20
110.2026401668
 10
126.2664233465
 20
109.9915058443
 10
126.3643887946
 20
109.7822450238
 10
126.4682166826
 20
109.5762744827
 10
126.5779467912
 20
109.3736165481
 10
126.6935393396
 20
109.174248893
 10
126.8142117211
 20
108.9795213145
 10
126.9399984059
 20
108.7894652988
 10
127.0708649237
 20
108.6040493598
 10
127.205925257
 20
108.4245288358
 10
127.3452078637
 20
108.2509437315
 10
127.488684286
 20
108.0832540422
 10
127.6353831322
 20
107.9225950929
 10
127.7853262687
 20
107.7690145921
 10
127.9384918292
 20
107.6224648312
 10
128.0938428229
 20
107.4839380095
 10
128.2513940794
 20
107.3534885683
 10
128.411130769
 20
107.2310620663
 10
128.5719714118
 20
107.1174873787
 10
128.7335555146
 20
107.0130407975
 10
128.8962435706
 20
106.9174460309
 10
129.0600355798
 20
106.8307030787
  0
LINE
  5
312
100
AcDbEntity
  8
COPY_PUBLISH
100
AcDbLine
 62
7
  6
CONTINUOUS
 10
142.1706955434
 20
125.7372141453
 11
143.2220994741
 21
126.2835088855
  0
LINE
  5
313
100
AcDbEntity
  8
RACCORDO
100
AcDbLine
 62
253
  6
CONTINUOUS
 10
143.2683830295
 20
123.6935611389
 11
161.7123800434
 21
132.8790666183
  0
LINE
  5
314
100
AcDbEntity
  8
0
100
AcDbLine
 62
7
  6
CONTINUOUS
 10
130.8935303936
 20
110.6913818508
 11
130.4662489337
 21
110.9050225808
  0
LINE
  5
315
100
AcDbEntity
  8
0
100
AcDbLine
 62
7
  6
CONTINUOUS
 10
129.0680357883
 20
111.6041291535
 11
128.6407543284
 21
111.8177698834
  0
LINE
  5
316
100
AcDbEntity
  8
0
100
AcDbLine
 62
7
  6
CONTINUOUS
 10
128.6407543284
 20
112.0775775045
 11
129.0680357883
 21
111.8639367746
  0
LINE
  5
317
100
AcDbEntity
  8
0
100
AcDbLine
 62
7
  6
CONTINUOUS
 10
130.4662489337
 20
111.1648302019
 11
130.8935303936
 21
110.9511894719
  0
LWPOLYLINE
  5
318
100
AcDbEntity
  8
RACCORDO
100
AcDbPolyline
 62
7
  6
CONTINUOUS
 90
4
 70
0
 10
147.5734194886
 20
97.3177596183
 10
147.5914173043
 20
97.2999364376
 10
147.609206767
 20
97.2848592999
 10
147.6269782736
 20
97.2723678627
  0
LWPOLYLINE
  5
319
100
AcDbEntity
  8
COPY_PUBLISH
100
AcDbPolyline
 62
253
  6
CONTINUOUS
 90
43
 70
0
 10
136.4810710413
 20
88.638337693
 10
136.4830102572
 20
88.6253444121
 10
136.4853200302
 20
88.6126394645
 10
136.4880003602
 20
88.60022285
 10
136.4910550006
 20
88.5880810623
 10
136.494480198
 20
88.5762276078
 10
136.4982646927
 20
88.5647030062
 10
136.5024095104
 20
88.5535092026
 10
136.5069136254
 20
88.5426442519
 10
136.5117627009
 20
88.5321428382
 10
136.5169578251
 20
88.5220061725
 10
136.5224979099
 20
88.5122330439
 10
136.5283653546
 20
88.5028545034
 10
136.5345612006
 20
88.4938717935
 10
136.5410844065
 20
88.4852836718
 10
136.5479142464
 20
88.4771174616
 10
136.5550517074
 20
88.4693744972
 10
136.5624958025
 20
88.4620534443
 10
136.5702228443
 20
88.4551776232
 10
136.5782337255
 20
88.4487484603
 10
136.5865275534
 20
88.442764529
 10
136.5950779628
 20
88.4372448709
 10
136.6038857756
 20
88.4321909606
 10
136.6129501699
 20
88.4276013233
 10
136.6222423147
 20
88.423490576
 10
136.6317629555
 20
88.4198602428
 10
136.6415113469
 20
88.4167087995
 10
136.6514564214
 20
88.4140462912
 10
136.6615987835
 20
88.4118742857
 10
136.6719378287
 20
88.4101912152
 10
136.6824406767
 20
88.4090024211
 10
136.6931078395
 20
88.4083094718
 10
136.7039388051
 20
88.4081107988
 10
136.7148991559
 20
88.4084070386
 10
136.7259893536
 20
88.4091997818
 10
136.7372089366
 20
88.4104874378
 10
136.7485221025
 20
88.4122658702
 10
136.7599297886
 20
88.4145369172
 10
136.7714310576
 20
88.4172987406
 10
136.7829872948
 20
88.4205416897
 10
136.7945856284
 20
88.4242625474
 10
136.8062389302
 20
88.4284645307
 10
136.8179472001
 20
88.4331476397
  0
LWPOLYLINE
  5
31A
100
AcDbEntity
  8
COPY_PUBLISH
100
AcDbPolyline
 62
253
  6
CONTINUOUS
 90
16
 70
0
 10
135.0719389978
 20
98.3766311491
 10
135.0851119888
 20
97.7041671941
 10
135.1031967349
 20
97.0342392519
 10
135.1261918878
 20
96.3668981545
 10
135.1540957737
 20
95.7021945391
 10
135.1869062702
 20
95.0401788302
 10
135.2246208073
 20
94.3809012369
 10
135.2672365961
 20
93.724411716
 10
135.3147504382
 20
93.0707601206
 10
135.3671586019
 20
92.4199961827
 10
135.4244571932
 20
91.7721692937
 10
135.4866419231
 20
91.1273285472
 10
135.5537079202
 20
90.48552289
 10
135.6256501064
 20
89.8468010053
 10
135.7024631953
 20
89.211211308
 10
135.7841414594
 20
88.5788019876
  0
LWPOLYLINE
  5
31B
100
AcDbEntity
  8
COPY_PUBLISH
100
AcDbPolyline
 62
253
  6
CONTINUOUS
 90
16
 70
0
 10
135.7727577515
 20
98.3817682246
 10
135.7858616021
 20
97.7129568915
 10
135.8038471152
 20
97.0467675248
 10
135.8267142908
 20
96.3832001244
 10
135.8544656052
 20
95.7222045894
 10
135.887098582
 20
95.0638310208
 10
135.9246057923
 20
94.4082297216
 10
135.9669883457
 20
93.755401442
 10
136.0142451325
 20
93.1053454319
 10
136.0663653945
 20
92.4582097441
 10
136.1233502637
 20
91.8139948705
 10
136.185198608
 20
91.1727003192
 10
136.2518962734
 20
90.534472668
 10
136.3234385417
 20
89.8993607762
 10
136.399830131
 20
89.2673157846
 10
136.4810710413
 20
88.638337693
  0
LINE
  5
31C
100
AcDbEntity
  8
RACCORDO
100
AcDbLine
 62
7
  6
CONTINUOUS
 10
135.0875173012
 20
132.1282817843
 11
135.0875173012
 21
130.8569830944
  0
LINE
  5
31D
100
AcDbEntity
  8
RACCORDO
100
AcDbLine
 62
253
  6
CONTINUOUS
 10
135.146095945
 20
132.0575711062
 11
135.146095945
 21
130.7836086747
  0
LINE
  5
31E
100
AcDbEntity
  8
RACCORDO
100
AcDbLine
 62
253
  6
CONTINUOUS
 10
135.5247122593
 20
130.5943005176
 11
135.5247122593
 21
131.868262949
  0
LINE
  5
31F
100
AcDbEntity
  8
RACCORDO
100
AcDbLine
 62
253
  6
CONTINUOUS
 10
135.806729827
 20
130.6029148229
 11
135.806729827
 21
132.0410549195
  0
LINE
  5
320
100
AcDbEntity
  8
RACCORDO
100
AcDbLine
 62
253
  6
CONTINUOUS
 10
136.4139730286
 20
135.3391239047
 11
136.4139730286
 21
134.2328191682
  0
LINE
  5
321
100
AcDbEntity
  8
COPY_PUBLISH
100
AcDbLine
 62
7
  6
CONTINUOUS
 10
136.5798430599
 20
137.9666309232
 11
136.5798430599
 21
136.718863335
  0
LWPOLYLINE
  5
322
100
AcDbEntity
  8
COPY_PUBLISH
100
AcDbPolyline
 62
253
  6
CONTINUOUS
 90
13
 70
0
 10
135.0719389978
 20
114.831113821
 10
135.0520972422
 20
113.4503832706
 10
135.0358632925
 20
112.0713535728
 10
135.0232370948
 20
110.694038457
 10
135.0142186091
 20
109.3184608333
 10
135.0088076141
 20
107.9446251699
 10
135.0070039446
 20
106.5725176112
 10
135.0088076153
 20
105.2021519247
 10
135.0142186113
 20
103.8335418448
 10
135.0232370975
 20
102.4666736529
 10
135.035863295
 20
101.1015520295
 10
135.052097244
 20
99.7381999339
 10
135.0719389978
 20
98.3766311491
  0
LWPOLYLINE
  5
323
100
AcDbEntity
  8
COPY_PUBLISH
100
AcDbPolyline
 62
253
  6
CONTINUOUS
 90
13
 70
0
 10
135.7727577515
 20
114.8197964138
 10
135.7529356472
 20
113.4404240823
 10
135.7367176359
 20
112.0627782046
 10
135.7241037176
 20
110.6868587806
 10
135.7150939825
 20
109.3126612603
 10
135.7096883404
 20
107.9401901937
 10
135.7078865204
 20
106.5694592311
 10
135.7096883423
 20
105.2004682824
 10
135.7150939863
 20
103.8332174376
 10
135.7241037222
 20
102.4677206175
 10
135.73671764
 20
101.103982462
 10
135.7529356498
 20
99.741998331
 10
135.7727577515
 20
98.3817682246
  0
LWPOLYLINE
  5
324
100
AcDbEntity
  8
COPY_PUBLISH
100
AcDbPolyline
 62
253
  6
CONTINUOUS
 90
16
 70
0
 10
135.7841414594
 20
125.3168423473
 10
135.7024631953
 20
124.6055422454
 10
135.6256501064
 20
123.8957605531
 10
135.5537079202
 20
123.1875511874
 10
135.4866419231
 20
122.4809680105
 10
135.4244571932
 20
121.7760646227
 10
135.3671586019
 20
121.0728943595
 10
135.3147504382
 20
120.3715105658
 10
135.2672365961
 20
119.6719665645
 10
135.2246208073
 20
118.9743154504
 10
135.1869062702
 20
118.2786102369
 10
135.1540957737
 20
117.5849037078
 10
135.1261918878
 20
116.8932483876
 10
135.1031967349
 20
116.2036967385
 10
135.0851119888
 20
115.5163011561
 10
135.0719389978
 20
114.831113821
  0
LWPOLYLINE
  5
325
100
AcDbEntity
  8
COPY_PUBLISH
100
AcDbPolyline
 62
253
  6
CONTINUOUS
 90
16
 70
0
 10
136.4810710413
 20
125.2472371384
 10
136.3998300423
 20
124.539804748
 10
136.3234383896
 20
123.8339886084
 10
136.2518960833
 20
123.1297887195
 10
136.1851984135
 20
122.4271517376
 10
136.1233500901
 20
121.7261310064
 10
136.0663652423
 20
121.0268865579
 10
136.014244994
 20
120.329418922
 10
135.9669882213
 20
119.6337275686
 10
135.9246056818
 20
118.9399709397
 10
135.8870984838
 20
118.2481492878
 10
135.854465519
 20
117.5582623603
 10
135.8267142201
 20
116.8704678408
 10
135.8038470646
 20
116.1848182905
 10
135.7858615751
 20
115.5012611481
 10
135.7727577515
 20
114.8197964138
  0
LINE
  5
326
100
AcDbEntity
  8
RACCORDO
100
AcDbLine
 62
7
  6
CONTINUOUS
 10
126.1220466225
 20
115.0515204133
 11
126.1256175386
 21
115.0532129956
  0
LWPOLYLINE
  5
327
100
AcDbEntity
  8
RACCORDO
100
AcDbPolyline
 62
7
  6
CONTINUOUS
 90
13
 70
0
 10
126.1220442802
 20
115.0515193006
 10
126.1544734602
 20
115.0664105523
 10
126.2921884642
 20
115.1179471599
 10
126.4352123173
 20
115.1537558819
 10
126.5824534322
 20
115.1744977944
 10
126.7338781395
 20
115.1810193522
 10
126.890777377
 20
115.1737944117
 10
127.0525726444
 20
115.1529668541
 10
127.2178032475
 20
115.1189025288
 10
127.3866575586
 20
115.0716987693
 10
127.5586470012
 20
115.0114927181
 10
127.7323120956
 20
114.9388414434
 10
127.8596046136
 20
114.8782603947
  0
LINE
  5
328
100
AcDbEntity
  8
DRAFT
100
AcDbLine
 62
7
  6
CONTINUOUS
 10
130.4383244314
 20
106.3128259523
 11
130.6099574966
 21
106.3568242596
  0
LWPOLYLINE
  5
329
100
AcDbEntity
  8
RACCORDO
100
AcDbPolyline
 62
7
  6
CONTINUOUS
 90
46
 70
0
 10
127.8598202398
 20
114.8781519636
 10
127.988031684
 20
114.8109694154
 10
128.1699444054
 20
114.7051842415
 10
128.3538971957
 20
114.585772382
 10
128.5391492922
 20
114.4528080575
 10
128.7247768928
 20
114.3065692906
 10
128.9097224722
 20
114.1475647713
 10
129.0931673892
 20
113.9762200792
 10
129.2743334494
 20
113.7930094675
 10
129.4523285131
 20
113.5986190337
 10
129.6264124209
 20
113.3936746966
 10
129.7958865508
 20
113.1788418712
 10
129.9600131102
 20
112.9549214931
 10
130.118148905
 20
112.7226915668
 10
130.2696941476
 20
112.4829507785
 10
130.4140585095
 20
112.2365759546
 10
130.5507113925
 20
111.9844439278
 10
130.679162238
 20
111.7274509701
 10
130.7989547995
 20
111.4665348226
 10
130.9096801569
 20
111.2026357477
 10
131.0109730777
 20
110.9367144907
 10
131.1025042979
 20
110.6697668042
 10
131.1839977183
 20
110.4027873951
 10
131.2552363162
 20
110.1367447863
 10
131.3160432559
 20
109.8726325464
 10
131.3662973168
 20
109.611442978
 10
131.4059317833
 20
109.3541429222
 10
131.434932783
 20
109.1017300422
 10
131.4533502966
 20
108.8551405786
 10
131.4612917835
 20
108.6153259094
 10
131.4589365606
 20
108.3833553747
 10
131.446542512
 20
108.1600927247
 10
131.4244398318
 20
107.9463739445
 10
131.3930752589
 20
107.7432590033
 10
131.3530765984
 20
107.5519311988
 10
131.3049495386
 20
107.3724601167
 10
131.2489892145
 20
107.2044268967
 10
131.1860686559
 20
107.0491121803
 10
131.1166028323
 20
106.906270631
 10
131.0398513066
 20
106.7739927669
 10
130.9564119449
 20
106.6534044603
 10
130.8665601336
 20
106.5448813011
 10
130.7682766805
 20
106.4466736529
 10
130.6604699934
 20
106.3592381021
 10
130.5433869138
 20
106.284280106
 10
130.5133717562
 20
106.2679960652
  0
LWPOLYLINE
  5
32A
100
AcDbEntity
  8
RACCORDO
100
AcDbPolyline
 62
253
  6
CONTINUOUS
 90
71
 70
0
 10
127.5999093153
 20
115.4293427632
 10
127.750756955
 20
115.3499814675
 10
127.8985244028
 20
115.2663491782
 10
128.0432119731
 20
115.178446048
 10
128.1847101773
 20
115.0860734294
 10
128.3231297206
 20
114.9894305608
 10
128.458801374
 20
114.8891145043
 10
128.5917232106
 20
114.7852327855
 10
128.7218991027
 20
114.6776788244
 10
128.8496685113
 20
114.5667285208
 10
128.9750391926
 20
114.4524721544
 10
129.0980058952
 20
114.3348206645
 10
129.2188885885
 20
114.2137809502
 10
129.3377343228
 20
114.0893933734
 10
129.454499129
 20
113.9616190743
 10
129.5693665688
 20
113.8303461789
 10
129.6824920739
 20
113.6954343667
 10
129.7937240029
 20
113.5570258096
 10
129.9027854027
 20
113.4154324204
 10
130.0097314108
 20
113.2705589949
 10
130.1145111678
 20
113.122502832
 10
130.216688598
 20
112.9718645383
 10
130.3162115176
 20
112.8186926644
 10
130.4131365141
 20
112.6629408227
 10
130.5071904021
 20
112.5050670843
 10
130.5983592075
 20
112.3450846531
 10
130.6866614003
 20
112.1829825415
 10
130.7718721763
 20
112.0191823962
 10
130.8539962881
 20
111.8536624992
 10
130.93303348
 20
111.6864467943
 10
131.0087510569
 20
111.5180252369
 10
131.0811426566
 20
111.348390637
 10
131.1502189248
 20
111.177552315
 10
131.2157721726
 20
111.0060247454
 10
131.2777926055
 20
110.8338070918
 10
131.3362939206
 20
110.6609021427
 10
131.3911030594
 20
110.4878295132
 10
131.4422085438
 20
110.3145957646
 10
131.489625231
 20
110.1411960382
 10
131.533218889
 20
109.9681324868
 10
131.5729789406
 20
109.7954173579
 10
131.6089187245
 20
109.623039809
 10
131.6409391791
 20
109.4514670102
 10
131.6690336522
 20
109.2806920329
 10
131.6932109121
 20
109.1107228971
 10
131.7133942787
 20
108.9420488253
 10
131.7295731644
 20
108.7746596064
 10
131.7417595092
 20
108.6085661675
 10
131.7499095791
 20
108.4442890182
 10
131.7540085662
 20
108.2818348599
 10
131.7540717321
 20
108.1211972616
 10
131.7500995438
 20
107.9628765838
 10
131.7420770092
 20
107.8068825141
 10
131.7300186645
 20
107.6532051805
 10
131.7139683693
 20
107.5023151532
 10
131.6939143743
 20
107.3542329094
 10
131.6698670835
 20
107.2089373391
 10
131.6419027466
 20
107.0668362084
 10
131.6100124216
 20
106.927943266
 10
131.5742029438
 20
106.7922437431
 10
131.5345734797
 20
106.6601022513
 10
131.4911115231
 20
106.5315202583
 10
131.4438268237
 20
106.4064949426
 10
131.392851231
 20
106.285384127
 10
131.3381708048
 20
106.1681942796
 10
131.2797961198
 20
106.0549172629
 10
131.2178951309
 20
105.9458886526
 10
131.152452535
 20
105.8411177517
 10
131.0834797562
 20
105.7405933188
 10
131.0111842323
 20
105.6446198032
 10
130.9355543459
 20
105.5532127978
  0
LWPOLYLINE
  5
32B
100
AcDbEntity
  8
RACCORDO
100
AcDbPolyline
 62
7
  6
CONTINUOUS
 90
4
 70
0
 10
147.5212501922
 20
97.385327252
 10
147.5379411795
 20
97.3606820533
 10
147.5554037169
 20
97.3381684994
 10
147.5734194886
 20
97.3177596183
  0
LWPOLYLINE
  5
32C
100
AcDbEntity
  8
COPY_PUBLISH
100
AcDbPolyline
 62
253
  6
CONTINUOUS
 90
3
 70
0
 10
137.057772664
 20
130.4824547802
 10
137.0571768655
 20
130.4883751744
 10
137.0570886828
 20
130.4916949547
  0
LINE
  5
32D
100
AcDbEntity
  8
COPY_PUBLISH
100
AcDbLine
 62
7
  6
CONTINUOUS
 10
137.0590456141
 20
130.4604757857
 11
137.057088689
 21
130.4917227574
  0
LWPOLYLINE
  5
32E
100
AcDbEntity
  8
COPY_PUBLISH
100
AcDbPolyline
 62
253
  6
CONTINUOUS
 90
40
 70
0
 10
136.8179472001
 20
125.7777447168
 10
136.816908446
 20
125.7949263425
 10
136.8153086607
 20
125.8123714858
 10
136.813150436
 20
125.8300518836
 10
136.8104372684
 20
125.8479388917
 10
136.8071735536
 20
125.8660035308
 10
136.8033645792
 20
125.8842165343
 10
136.7990165161
 20
125.9025483949
 10
136.7941364088
 20
125.9209694128
 10
136.7887321634
 20
125.9394497439
 10
136.7828125356
 20
125.9579594477
 10
136.7763871158
 20
125.9764685365
 10
136.7694663139
 20
125.9949470232
 10
136.7620613425
 20
126.0133649706
 10
136.7541841984
 20
126.0316925393
 10
136.7458476436
 20
126.0499000367
 10
136.7370651842
 20
126.0679579643
 10
136.7278510488
 20
126.0858370663
 10
136.7182201655
 20
126.1035083762
 10
136.7081881373
 20
126.1209432646
 10
136.6977712174
 20
126.1381134848
 10
136.6869862824
 20
126.154991219
 10
136.6758508051
 20
126.1715491232
 10
136.6643828263
 20
126.1877603718
 10
136.6526009255
 20
126.2035987006
 10
136.6405241908
 20
126.2190384495
 10
136.6281721879
 20
126.2340546044
 10
136.6155649285
 20
126.2486228373
 10
136.6027228379
 20
126.2627195458
 10
136.5896667217
 20
126.2763218918
 10
136.5764177325
 20
126.2894078376
 10
136.5629973351
 20
126.3019561826
 10
136.5494272723
 20
126.313946597
 10
136.535729529
 20
126.3253596547
 10
136.5219262973
 20
126.3361768654
 10
136.50803994
 20
126.3463807037
 10
136.4940929548
 20
126.3559546384
 10
136.4801079373
 20
126.3648831584
 10
136.466107545
 20
126.3731517985
 10
136.4521144601
 20
126.3807471625
  0
LWPOLYLINE
  5
32F
100
AcDbEntity
  8
COPY_PUBLISH
100
AcDbPolyline
 62
253
  6
CONTINUOUS
 90
20
 70
0
 10
138.8088500579
 20
87.9244594908
 10
138.8090488607
 20
87.9142938154
 10
138.809644823
 20
87.9043497928
 10
138.8106366062
 20
87.8946497904
 10
138.8120219822
 20
87.8852156205
 10
138.8137978363
 20
87.8760685103
 10
138.8159601715
 20
87.8672290514
 10
138.8185041221
 20
87.8587171299
 10
138.8214239668
 20
87.8505518856
 10
138.8247131368
 20
87.8427516859
 10
138.8283642337
 20
87.835334073
 10
138.8323690443
 20
87.8283157311
 10
138.8367185565
 20
87.8217124501
 10
138.8414029852
 20
87.8155390811
 10
138.8464117933
 20
87.8098095061
 10
138.8517337118
 20
87.8045366114
 10
138.8573567722
 20
87.7997322521
 10
138.8632683229
 20
87.795407234
 10
138.8694550547
 20
87.7915712888
 10
138.8736634964
 20
87.7893211604
  0
LWPOLYLINE
  5
330
100
AcDbEntity
  8
COPY_PUBLISH
100
AcDbPolyline
 62
253
  6
CONTINUOUS
 90
20
 70
0
 10
137.1303119875
 20
130.4033065995
 10
137.1304802834
 20
130.3939456491
 10
137.1309848506
 20
130.3847708181
 10
137.1318247285
 20
130.3757995759
 10
137.1329983142
 20
130.3670490272
 10
137.1345033751
 20
130.3585358091
 10
137.1363370615
 20
130.3502760663
 10
137.1384959055
 20
130.3422854787
 10
137.1409757929
 20
130.3345793251
 10
137.1437719727
 20
130.3271723761
 10
137.1468790952
 20
130.3200787767
 10
137.1502912573
 20
130.3133119805
 10
137.1540019853
 20
130.3068848234
 10
137.1580042461
 20
130.3008095035
 10
137.1622903952
 20
130.2950976397
 10
137.1668522047
 20
130.2897601867
 10
137.1716809342
 20
130.2848073367
 10
137.17676742
 20
130.2802484563
 10
137.182102035
 20
130.2760921631
 10
137.1876608624
 20
130.2723556542
  0
LWPOLYLINE
  5
331
100
AcDbEntity
  8
COPY_PUBLISH
100
AcDbPolyline
 62
7
  6
CONTINUOUS
 90
6
 70
0
 10
136.5798429891
 20
137.9671640561
 10
136.5798376713
 20
137.9674802084
 10
136.5793517976
 20
137.9702745653
 10
136.5780999055
 20
137.9725663396
 10
136.5761144762
 20
137.9743778009
 10
136.5748009972
 20
137.9751409945
  0
LINE
  5
332
100
AcDbEntity
  8
RACCORDO
100
AcDbLine
 62
7
  6
CONTINUOUS
 10
137.8732524673
 20
135.3165640421
 11
137.8825120787
 21
134.1704579217
  0
LINE
  5
333
100
AcDbEntity
  8
COPY_PUBLISH
100
AcDbLine
 62
253
  6
CONTINUOUS
 10
137.0570887229
 20
130.8315981488
 11
137.0570886828
 21
130.8316688999
  0
LINE
  5
334
100
AcDbEntity
  8
COPY_PUBLISH
100
AcDbLine
 62
7
  6
CONTINUOUS
 10
136.7321441557
 20
131.1193244435
 11
136.7321441557
 21
132.5049650896
  0
LINE
  5
335
100
AcDbEntity
  8
COPY_PUBLISH
100
AcDbLine
 62
7
  6
CONTINUOUS
 10
137.0570886828
 20
130.8316688813
 11
137.0570886828
 21
130.4916949472
  0
LINE
  5
336
100
AcDbEntity
  8
COPY_PUBLISH
100
AcDbLine
 62
253
  6
CONTINUOUS
 10
137.1303119875
 20
130.7432805337
 11
137.1303119875
 21
130.4033065995
  0
LINE
  5
337
100
AcDbEntity
  8
COPY_PUBLISH
100
AcDbLine
 62
7
  6
CONTINUOUS
 10
137.7600816371
 20
129.9856899729
 11
137.7600816371
 21
129.5317362309
  0
LINE
  5
338
100
AcDbEntity
  8
RACCORDO
100
AcDbLine
 62
253
  6
CONTINUOUS
 10
137.828132742
 20
135.3391239047
 11
137.828132742
 21
134.19764759
  0
LINE
  5
339
100
AcDbEntity
  8
COPY_PUBLISH
100
AcDbLine
 62
253
  6
CONTINUOUS
 10
137.8333049418
 20
129.9490783205
 11
137.8333049418
 21
129.4400041763
  0
LINE
  5
33A
100
AcDbEntity
  8
COPY_PUBLISH
100
AcDbLine
 62
253
  6
CONTINUOUS
 10
138.8088500579
 20
87.9244594908
 11
138.8088500579
 21
88.2644334249
  0
LINE
  5
33B
100
AcDbEntity
  8
COPY_PUBLISH
100
AcDbLine
 62
253
  6
CONTINUOUS
 10
138.8088500579
 20
129.5640375643
 11
138.8088500579
 21
129.9040114985
  0
LWPOLYLINE
  5
33C
100
AcDbEntity
  8
COPY_PUBLISH
100
AcDbPolyline
 62
253
  6
CONTINUOUS
 90
34
 70
0
 10
137.1303119875
 20
130.7432805337
 10
137.1305107903
 20
130.7536450119
 10
137.1311067526
 20
130.7641849967
 10
137.1320985358
 20
130.7748767823
 10
137.1334839118
 20
130.7856963282
 10
137.1352597659
 20
130.7966192925
 10
137.137422101
 20
130.8076210865
 10
137.1399660517
 20
130.8186769587
 10
137.1428858964
 20
130.8297620477
 10
137.1461750664
 20
130.8408514175
 10
137.1498261633
 20
130.8519201273
 10
137.1538309739
 20
130.8629432797
 10
137.1581804861
 20
130.8738960729
 10
137.1628649148
 20
130.8847538706
 10
137.1678737229
 20
130.8954922537
 10
137.1731956414
 20
130.9060870669
 10
137.1788187018
 20
130.9165144867
 10
137.1847302525
 20
130.9267510555
 10
137.1909169843
 20
130.9367737324
 10
137.1973649608
 20
130.9465599503
 10
137.2040596941
 20
130.9560877301
 10
137.2109861703
 20
130.9653357052
 10
137.2181288808
 20
130.9742831556
 10
137.2254716982
 20
130.9829098663
 10
137.2329979449
 20
130.9911962567
 10
137.2406905792
 20
130.9991236053
 10
137.2485323918
 20
131.0066742181
 10
137.2565058907
 20
131.0138312674
 10
137.2645943682
 20
131.0205796404
 10
137.2727784395
 20
131.0269030503
 10
137.2810361103
 20
131.0327848262
 10
137.2893475309
 20
131.0382115763
 10
137.2976951633
 20
131.0431725903
 10
137.3060602435
 20
131.0476573486
  0
LWPOLYLINE
  5
33D
100
AcDbEntity
  8
COPY_PUBLISH
100
AcDbPolyline
 62
253
  6
CONTINUOUS
 90
34
 70
0
 10
138.8088500579
 20
129.9040114985
 10
138.8090488607
 20
129.9143759767
 10
138.809644823
 20
129.9249159615
 10
138.8106366062
 20
129.9356077471
 10
138.8120219822
 20
129.946427293
 10
138.8137978363
 20
129.9573502573
 10
138.8159601715
 20
129.9683520513
 10
138.8185041221
 20
129.9794079235
 10
138.8214239668
 20
129.9904930125
 10
138.8247131368
 20
130.0015823822
 10
138.8283642337
 20
130.0126510921
 10
138.8323690443
 20
130.0236742445
 10
138.8367185565
 20
130.0346270377
 10
138.8414029852
 20
130.0454848354
 10
138.8464117933
 20
130.0562232185
 10
138.8517337118
 20
130.0668180317
 10
138.8573567722
 20
130.0772454515
 10
138.8632683229
 20
130.0874820203
 10
138.8694550547
 20
130.0975046971
 10
138.8759030313
 20
130.1072909151
 10
138.8825977645
 20
130.1168186949
 10
138.8895242407
 20
130.1260666699
 10
138.8966669512
 20
130.1350141203
 10
138.9040097687
 20
130.1436408311
 10
138.9115360153
 20
130.1519272215
 10
138.9192286496
 20
130.1598545701
 10
138.9270704622
 20
130.1674051829
 10
138.9350439611
 20
130.1745622322
 10
138.9431324386
 20
130.1813106052
 10
138.9513165099
 20
130.1876340151
 10
138.9595741807
 20
130.193515791
 10
138.9678856013
 20
130.1989425411
 10
138.9762332337
 20
130.2039035551
 10
138.9845983139
 20
130.2083883134
  0
LWPOLYLINE
  5
33E
100
AcDbEntity
  8
COPY_PUBLISH
100
AcDbPolyline
 62
253
  6
CONTINUOUS
 90
24
 70
0
 10
136.8179472001
 20
88.4331476397
 10
136.8169084458
 20
88.415525955
 10
136.8153086601
 20
88.3982241734
 10
136.8131504349
 20
88.3812703258
 10
136.8104372666
 20
88.3646918794
 10
136.807173551
 20
88.3485156933
 10
136.8033645757
 20
88.3327679748
 10
136.7990165117
 20
88.3174742371
 10
136.7941364033
 20
88.3026592579
 10
136.7887321569
 20
88.2883470391
 10
136.782812528
 20
88.2745607682
 10
136.7763871071
 20
88.2613227807
 10
136.7694663041
 20
88.2486545236
 10
136.7620613317
 20
88.236576521
 10
136.7541841866
 20
88.2251083407
 10
136.7458476308
 20
88.2142685625
 10
136.7370651706
 20
88.2040747481
 10
136.7278510345
 20
88.1945434127
 10
136.7182201504
 20
88.1856899983
 10
136.7081881217
 20
88.1775288483
 10
136.6977712014
 20
88.1700731848
 10
136.686986266
 20
88.1633350869
 10
136.6758507886
 20
88.157325471
 10
136.6641399547
 20
88.1519519413
  0
LWPOLYLINE
  5
33F
100
AcDbEntity
  8
0
100
AcDbPolyline
 62
7
  6
CONTINUOUS
 90
11
 70
0
 10
130.6389038011
 20
110.0654256786
 10
130.6692800201
 20
110.0972162141
 10
130.7094929214
 20
110.1465709509
 10
130.7463009674
 20
110.2007887183
 10
130.7792873071
 20
110.2592594742
 10
130.8084087464
 20
110.3220315316
 10
130.8337084794
 20
110.3890565775
 10
130.8548992375
 20
110.4595796305
 10
130.8718852644
 20
110.5333490301
 10
130.8847623165
 20
110.6106164369
 10
130.8935303936
 20
110.6913818508
  0
LINE
  5
340
100
AcDbEntity
  8
0
100
AcDbLine
 62
7
  6
CONTINUOUS
 10
130.6388451394
 20
110.0653381894
 11
131.1377201733
 21
110.5543965872
  0
LINE
  5
341
100
AcDbEntity
  8
0
100
AcDbLine
 62
7
  6
CONTINUOUS
 10
130.9784409732
 20
111.0221200458
 11
130.8935303936
 21
110.9511894719
  0
LINE
  5
342
100
AcDbEntity
  8
0
100
AcDbLine
 62
7
  6
CONTINUOUS
 10
130.8935303936
 20
110.6913818508
 11
131.0502124303
 21
110.8222742551
  0
LINE
  5
343
100
AcDbEntity
  8
0
100
AcDbLine
 62
7
  6
CONTINUOUS
 10
129.9310085776
 20
112.9798465008
 11
129.9386284868
 21
112.9840968622
  0
LINE
  5
344
100
AcDbEntity
  8
0
100
AcDbLine
 62
7
  6
CONTINUOUS
 10
129.5255658441
 20
112.0824709067
 11
129.8000514756
 21
112.2299446183
  0
LINE
  5
345
100
AcDbEntity
  8
0
100
AcDbLine
 62
7
  6
CONTINUOUS
 10
129.8026816807
 20
112.2312597208
 11
129.0680357883
 21
111.8639367746
  0
LINE
  5
346
100
AcDbEntity
  8
0
100
AcDbLine
 62
7
  6
CONTINUOUS
 10
130.0105075125
 20
112.0753650156
 11
129.0680357883
 21
111.6041291535
  0
LWPOLYLINE
  5
347
100
AcDbEntity
  8
0
100
AcDbPolyline
 62
7
  6
CONTINUOUS
 90
30
 70
0
 10
129.3198896181
 20
112.2788359243
 10
129.3568955918
 20
112.2949280707
 10
129.3997976075
 20
112.3081431004
 10
129.4446717352
 20
112.3164003392
 10
129.4914871556
 20
112.3197771971
 10
129.5395056164
 20
112.3182201614
 10
129.5887462188
 20
112.311650963
 10
129.6391898618
 20
112.300147871
 10
129.69004099
 20
112.2838921801
 10
129.7413060755
 20
112.2628084935
 10
129.7929786464
 20
112.2369722081
 10
129.8442437319
 20
112.2067908092
 10
129.8950948602
 20
112.1721953717
 10
129.9455385031
 20
112.1332548208
 10
129.9947791055
 20
112.0905834168
 10
130.0427975664
 20
112.0441219917
 10
130.0896129867
 20
111.9939297135
 10
130.1344871144
 20
111.940798347
 10
130.1773891301
 20
111.8846813016
 10
130.2183498532
 20
111.8256251679
 10
130.2567234894
 20
111.7645614828
 10
130.292468973
 20
111.7014584528
 10
130.3256273697
 20
111.6363478713
 10
130.3556760831
 20
111.5702566551
 10
130.3825657622
 20
111.5031693197
 10
130.4063457581
 20
111.4351013496
 10
130.4266415275
 20
111.3671261157
 10
130.4433282227
 20
111.2996014082
 10
130.4565306914
 20
111.232169437
 10
130.4662489337
 20
111.1648302019
  0
LINE
  5
348
100
AcDbEntity
  8
RACCORDO
100
AcDbLine
 62
253
  6
CONTINUOUS
 10
126.6024051874
 20
115.7790191106
 11
126.7363034557
 21
115.7496835816
  0
LWPOLYLINE
  5
349
100
AcDbEntity
  8
RACCORDO
100
AcDbPolyline
 62
253
  6
CONTINUOUS
 90
7
 70
0
 10
126.7363034557
 20
115.7496835816
 10
126.8729105457
 20
115.7140400865
 10
127.0122196805
 20
115.6719847651
 10
127.1545434076
 20
115.622581268
 10
127.2999854551
 20
115.5655172582
 10
127.4484408638
 20
115.5011044747
 10
127.5999093153
 20
115.4293427632
  0
LINE
  5
34A
100
AcDbEntity
  8
COPY_PUBLISH
100
AcDbLine
 62
253
  6
CONTINUOUS
 10
135.0719389978
 20
114.831113821
 11
120.2059279757
 21
122.264119332
  0
LWPOLYLINE
  5
34B
100
AcDbEntity
  8
RACCORDO
100
AcDbPolyline
 62
7
  6
CONTINUOUS
 90
4
 70
0
 10
147.4873195235
 20
97.4443607566
 10
147.4894441638
 20
97.4403697239
 10
147.5051124393
 20
97.4120771235
 10
147.5212501922
 20
97.385327252
  0
LWPOLYLINE
  5
34C
100
AcDbEntity
  8
RACCORDO
100
AcDbPolyline
 62
253
  6
CONTINUOUS
 90
7
 70
0
 10
135.0875173012
 20
132.1282817843
 10
135.0893245609
 20
132.1148687527
 10
135.0944835279
 20
132.1021190133
 10
135.1029088115
 20
132.0898119731
 10
135.1144578477
 20
132.078155879
 10
135.1289352159
 20
132.0673479632
 10
135.146095945
 20
132.0575711062
  0
LWPOLYLINE
  5
34D
100
AcDbEntity
  8
RACCORDO
100
AcDbPolyline
 62
253
  6
CONTINUOUS
 90
13
 70
0
 10
139.5965344891
 20
137.5924868183
 10
139.5952846511
 20
137.6156874294
 10
139.5916630673
 20
137.6396663353
 10
139.5857310184
 20
137.6640177898
 10
139.5775888803
 20
137.6883297429
 10
139.5673744258
 20
137.712190813
 10
139.5552604934
 20
137.7351972477
 10
139.5414520624
 20
137.7569597562
 10
139.5261827847
 20
137.7771100957
 10
139.5097110313
 20
137.7953073032
 10
139.49231552
 20
137.8112434643
 10
139.4742905996
 20
137.824648924
 10
139.4559412692
 20
137.835296849
  0
LWPOLYLINE
  5
34E
100
AcDbEntity
  8
RACCORDO
100
AcDbPolyline
 62
7
  6
CONTINUOUS
 90
12
 70
0
 10
140.2224332461
 20
137.249025368
 10
140.2190171019
 20
137.3254977126
 10
140.2096595884
 20
137.4006668623
 10
140.1945358415
 20
137.4718582106
 10
140.1738782774
 20
137.538724125
 10
140.1478568241
 20
137.6010932339
 10
140.1165480027
 20
137.6588736311
 10
140.0801368334
 20
137.7117490368
 10
140.0388917581
 20
137.759294359
 10
139.9931044469
 20
137.8011240143
 10
139.9431713213
 20
137.8368851824
 10
139.9002273725
 20
137.8610614623
  0
LWPOLYLINE
  5
34F
100
AcDbEntity
  8
RACCORDO
100
AcDbPolyline
 62
253
  6
CONTINUOUS
 90
22
 70
0
 10
140.1638654865
 20
137.1784071403
 10
140.1619028197
 20
137.2295471711
 10
140.1568844253
 20
137.2784009527
 10
140.1488103033
 20
137.3249684851
 10
140.1376031186
 20
137.3695126912
 10
140.1233402064
 20
137.4117706482
 10
140.1062535719
 20
137.4509535871
 10
140.0862936252
 20
137.4869842746
 10
140.0635099563
 20
137.519939944
 10
140.0382833401
 20
137.5492635265
 10
140.0105720445
 20
137.5748904585
 10
139.9804178016
 20
137.5968853036
 10
139.9483265827
 20
137.6148846848
 10
139.914268019
 20
137.6288194982
 10
139.8782724793
 20
137.6387588476
 10
139.8409370406
 20
137.6445466677
 10
139.8022179949
 20
137.6461047337
 10
139.7621590502
 20
137.6435112704
 10
139.7214884072
 20
137.6368448863
 10
139.6804487995
 20
137.6261317843
 10
139.6387974934
 20
137.6113457617
 10
139.5965344891
 20
137.5924868183
  0
LWPOLYLINE
  5
350
100
AcDbEntity
  8
COPY_PUBLISH
100
AcDbPolyline
 62
253
  6
CONTINUOUS
 90
22
 70
0
 10
138.8088500579
 20
129.5640375643
 10
138.8090183538
 20
129.5546766139
 10
138.809522921
 20
129.5455017829
 10
138.8103627989
 20
129.5365305407
 10
138.8115363846
 20
129.527779992
 10
138.8130414455
 20
129.5192667739
 10
138.8148751319
 20
129.5110070311
 10
138.817033976
 20
129.5030164435
 10
138.8195138634
 20
129.4953102899
 10
138.8223100431
 20
129.4879033409
 10
138.8254171656
 20
129.4808097415
 10
138.8288293277
 20
129.4740429453
 10
138.8325400557
 20
129.4676157882
 10
138.8365423165
 20
129.4615404683
 10
138.8408284656
 20
129.4558286045
 10
138.8453902751
 20
129.4504911515
 10
138.8502190046
 20
129.4455383014
 10
138.8553054904
 20
129.4409794211
 10
138.8606401054
 20
129.4368231279
 10
138.8662133756
 20
129.4330769109
 10
138.8720140615
 20
129.4297484281
 10
138.8738155458
 20
129.4288230189
  0
LINE
  5
351
100
AcDbEntity
  8
RACCORDO
100
AcDbLine
 62
253
  6
CONTINUOUS
 10
140.1667165896
 20
136.7768524829
 11
140.1638654865
 21
137.1784071403
  0
LINE
  5
352
100
AcDbEntity
  8
RACCORDO
100
AcDbLine
 62
7
  6
CONTINUOUS
 10
140.225610388
 20
136.8031304465
 11
140.2224444742
 21
137.2490236436
  0
LINE
  5
353
100
AcDbEntity
  8
COPY_PUBLISH
100
AcDbLine
 62
253
  6
CONTINUOUS
 10
139.1613720176
 20
87.923946767
 11
139.1613720176
 21
88.2639207011
  0
LINE
  5
354
100
AcDbEntity
  8
COPY_PUBLISH
100
AcDbLine
 62
253
  6
CONTINUOUS
 10
139.1613720176
 20
129.5635248405
 11
139.1613720176
 21
129.9034987746
  0
LINE
  5
355
100
AcDbEntity
  8
COPY_PUBLISH
100
AcDbLine
 62
253
  6
CONTINUOUS
 10
139.520070666
 20
89.2409299021
 11
139.520070666
 21
89.35075565
  0
LINE
  5
356
100
AcDbEntity
  8
COPY_PUBLISH
100
AcDbLine
 62
253
  6
CONTINUOUS
 10
139.520070666
 20
128.5966213142
 11
139.520070666
 21
129.2854419372
  0
LINE
  5
357
100
AcDbEntity
  8
COPY_PUBLISH
100
AcDbLine
 62
253
  6
CONTINUOUS
 10
139.8725926257
 20
89.1154171782
 11
139.8725926257
 21
89.4987300497
  0
LINE
  5
358
100
AcDbEntity
  8
COPY_PUBLISH
100
AcDbLine
 62
253
  6
CONTINUOUS
 10
139.8725926257
 20
128.6073891959
 11
139.8725926257
 21
129.4150213176
  0
LINE
  5
359
100
AcDbEntity
  8
COPY_PUBLISH
100
AcDbLine
 62
7
  6
CONTINUOUS
 10
140.7626528084
 20
88.7039813666
 11
140.7626528084
 21
89.8723411614
  0
LINE
  5
35A
100
AcDbEntity
  8
COPY_PUBLISH
100
AcDbLine
 62
7
  6
CONTINUOUS
 10
140.7626528084
 20
129.1040701171
 11
140.7626528084
 21
130.7062207781
  0
LINE
  5
35B
100
AcDbEntity
  8
COPY_PUBLISH
100
AcDbLine
 62
253
  6
CONTINUOUS
 10
141.2909199802
 20
130.9696595981
 11
141.2909199802
 21
130.6221280814
  0
LINE
  5
35C
100
AcDbEntity
  8
COPY_PUBLISH
100
AcDbLine
 62
253
  6
CONTINUOUS
 10
141.2909199802
 20
89.322523942
 11
141.2909199802
 21
88.9749924253
  0
LWPOLYLINE
  5
35D
100
AcDbEntity
  8
COPY_PUBLISH
100
AcDbPolyline
 62
253
  6
CONTINUOUS
 90
25
 70
0
 10
138.8088500579
 20
88.2644334249
 10
138.8090183102
 20
88.2739614255
 10
138.8095227466
 20
88.2836395411
 10
138.8103624071
 20
88.2934493491
 10
138.8115356932
 20
88.3033721758
 10
138.8130403715
 20
88.3133891327
 10
138.8148735778
 20
88.3234811519
 10
138.8170318224
 20
88.3336290225
 10
138.8195109971
 20
88.3438134277
 10
138.8223063826
 20
88.3540149808
 10
138.8254126577
 20
88.3642142625
 10
138.8288239095
 20
88.374391858
 10
138.8325336443
 20
88.3845283936
 10
138.8365348006
 20
88.3946045738
 10
138.8408197619
 20
88.4046012181
 10
138.8453803715
 20
88.4144992973
 10
138.8502079481
 20
88.4242799698
 10
138.8552933021
 20
88.4339246176
 10
138.8606267532
 20
88.4434148815
 10
138.866198149
 20
88.4527326963
 10
138.8719968838
 20
88.4618603249
 10
138.8780119196
 20
88.4707803925
 10
138.8842318063
 20
88.4794759191
 10
138.8906447041
 20
88.4879303524
 10
138.8972384056
 20
88.4961275988
  0
LWPOLYLINE
  5
35E
100
AcDbEntity
  8
COPY_PUBLISH
100
AcDbPolyline
 62
7
  6
CONTINUOUS
 90
20
 70
0
 10
140.7626528084
 20
88.7039813666
 10
140.7624524295
 20
88.6937797754
 10
140.7618522606
 20
88.6838016106
 10
140.7608535569
 20
88.6740694233
 10
140.7594583986
 20
88.6646051671
 10
140.7576699377
 20
88.6554302792
 10
140.7554923918
 20
88.6465656319
 10
140.7529306332
 20
88.6380312766
 10
140.7499903723
 20
88.6298465007
 10
140.746678398
 20
88.6220299149
 10
140.7430021741
 20
88.6145992076
 10
140.7389699552
 20
88.607571176
 10
140.7345909634
 20
88.6009617894
 10
140.7298751022
 20
88.5947860126
 10
140.7248330026
 20
88.5890578103
 10
140.7194761322
 20
88.5837901846
 10
140.7138166328
 20
88.5789950719
 10
140.7078672948
 20
88.5746833198
 10
140.7016415982
 20
88.5708646976
 10
140.6985477054
 20
88.5692035938
  0
LINE
  5
35F
100
AcDbEntity
  8
COPY_PUBLISH
100
AcDbLine
 62
253
  6
CONTINUOUS
 10
141.3631178372
 20
130.7100007137
 11
141.3630638227
 21
130.7074024309
  0
LWPOLYLINE
  5
360
100
AcDbEntity
  8
COPY_PUBLISH
100
AcDbPolyline
 62
253
  6
CONTINUOUS
 90
18
 70
0
 10
141.3631177987
 20
131.0574628658
 10
141.3630642756
 20
131.0549448622
 10
141.3625378482
 20
131.0490225581
 10
141.3614504359
 20
131.0431193853
 10
141.3598044812
 20
131.0372486185
 10
141.357603684
 20
131.0314234641
 10
141.3548529912
 20
131.0256570232
 10
141.3515585873
 20
131.0199622667
 10
141.3477278828
 20
131.0143520078
 10
141.3433694932
 20
131.0088388661
 10
141.3384932196
 20
131.003435241
 10
141.3331100301
 20
130.9981532883
 10
141.327232029
 20
130.9930048856
 10
141.3208724388
 20
130.9880016157
 10
141.314045576
 20
130.9831547408
 10
141.3067668019
 20
130.9784751648
 10
141.2990524858
 20
130.973973409
 10
141.2909199802
 20
130.9696595981
  0
LWPOLYLINE
  5
361
100
AcDbEntity
  8
COPY_PUBLISH
100
AcDbPolyline
 62
253
  6
CONTINUOUS
 90
20
 70
0
 10
139.1613720176
 20
87.923946767
 10
139.1611237493
 20
87.9137217427
 10
139.160477941
 20
87.9037212612
 10
139.1594360556
 20
87.8939679759
 10
139.1580004532
 20
87.8844839801
 10
139.1561743857
 20
87.8752907572
 10
139.1539619897
 20
87.866409132
 10
139.1513682766
 20
87.8578592231
 10
139.1483991218
 20
87.8496603983
 10
139.1450612512
 20
87.8418312295
 10
139.1413622257
 20
87.8343894517
 10
139.1373104244
 20
87.8273519221
 10
139.1329150257
 20
87.8207345823
 10
139.128185986
 20
87.814552422
 10
139.1231340178
 20
87.8088194453
 10
139.1177705647
 20
87.8035486387
 10
139.1121077764
 20
87.7987519416
 10
139.1061584802
 20
87.7944402197
 10
139.0999361526
 20
87.7906232399
 10
139.095110425
 20
87.7880961408
  0
LWPOLYLINE
  5
362
100
AcDbEntity
  8
COPY_PUBLISH
100
AcDbPolyline
 62
7
  6
CONTINUOUS
 90
6
 70
0
 10
141.3631177265
 20
130.7101183147
 10
141.3625244063
 20
130.6927862266
 10
141.3588158481
 20
130.66382185
 10
141.3517369043
 20
130.6354290074
 10
141.3413632363
 20
130.6080005374
 10
141.3278077486
 20
130.5819060536
  0
LWPOLYLINE
  5
363
100
AcDbEntity
  8
COPY_PUBLISH
100
AcDbPolyline
 62
253
  6
CONTINUOUS
 90
17
 70
0
 10
141.3630638227
 20
130.7074024309
 10
141.3625364474
 20
130.7014807832
 10
141.3614482122
 20
130.695578293
 10
141.3598015639
 20
130.6897082336
 10
141.3576002051
 20
130.6838838045
 10
141.3548490863
 20
130.6781181039
 10
141.3515543933
 20
130.6724240961
 10
141.3477235328
 20
130.6668145828
 10
141.3433651141
 20
130.6613021729
 10
141.3384889403
 20
130.6558992675
 10
141.3331059888
 20
130.6506180286
 10
141.3272283755
 20
130.6454703382
 10
141.3208693124
 20
130.6404677636
 10
141.3140430888
 20
130.6356215443
 10
141.3067650498
 20
130.6309425751
 10
141.2990515653
 20
130.6264413802
 10
141.2909199802
 20
130.6221280814
  0
LWPOLYLINE
  5
364
100
AcDbEntity
  8
RACCORDO
100
AcDbPolyline
 62
253
  6
CONTINUOUS
 90
30
 70
0
 10
130.9355543459
 20
105.5532127978
 10
130.856597441
 20
105.4663545617
 10
130.7745488799
 20
105.3842992777
 10
130.6894087407
 20
105.3070669008
 10
130.6011724458
 20
105.2346352036
 10
130.510067989
 20
105.1671948967
 10
130.4160757889
 20
105.1047493836
 10
130.3192109232
 20
105.0472929771
 10
130.2197530818
 20
104.9950026007
 10
130.1176482881
 20
104.9478858602
 10
130.0129461014
 20
104.9059329023
 10
129.9060812492
 20
104.8692943225
 10
129.7971117452
 20
104.8380107701
 10
129.6859752894
 20
104.8120394084
 10
129.572926019
 20
104.7914055418
 10
129.4581159152
 20
104.7760907609
 10
129.3413892119
 20
104.766111539
 10
129.2225385275
 20
104.7615455564
 10
129.1016006042
 20
104.7623058681
 10
128.9785356222
 20
104.7684778417
 10
128.8530214729
 20
104.7803976851
 10
128.7250631424
 20
104.7979698726
 10
128.5946531301
 20
104.8212886392
 10
128.4614506095
 20
104.8509748391
 10
128.3254506575
 20
104.8869254867
 10
128.1866562357
 20
104.9292425595
 10
128.0447383296
 20
104.9788543493
 10
127.8995868133
 20
105.0360700527
 10
127.7513105813
 20
105.1005798397
 10
127.5999093153
 20
105.1723835465
  0
LWPOLYLINE
  5
365
100
AcDbEntity
  8
0
100
AcDbPolyline
 62
7
  6
CONTINUOUS
 90
25
 70
0
 10
130.2642739709
 20
109.4499760205
 10
130.2398987879
 20
109.4371327263
 10
130.2155430373
 20
109.4229060933
 10
130.1912067192
 20
109.4072961216
 10
130.1668424268
 20
109.3902574002
 10
130.1424975669
 20
109.37183534
 10
130.1183143596
 20
109.3521661742
 10
130.094301437
 20
109.3312447928
 10
130.0704501671
 20
109.3090763057
 10
130.0468768737
 20
109.2858122764
 10
130.0235900078
 20
109.2614534438
 10
130.0005811184
 20
109.2359990689
 10
129.9779411764
 20
109.2095984987
 10
129.9556836812
 20
109.1822665288
 10
129.9337951334
 20
109.1539883635
 10
129.9123260053
 20
109.1248689636
 10
129.8912788356
 20
109.0949161986
 10
129.8706510855
 20
109.0641221989
 10
129.8504856118
 20
109.0325683173
 10
129.8307810524
 20
109.000258457
 10
129.8115387695
 20
108.9671887147
 10
129.7928057054
 20
108.9334287326
 10
129.7745975077
 20
108.899001725
 10
129.7568985288
 20
108.8638844777
 10
129.7397087689
 20
108.8280769906
  0
LINE
  5
366
100
AcDbEntity
  8
0
100
AcDbLine
 62
7
  6
CONTINUOUS
 10
130.7260565548
 20
111.0349263913
 11
130.4662489337
 21
110.9050225808
  0
LINE
  5
367
100
AcDbEntity
  8
0
100
AcDbLine
 62
7
  6
CONTINUOUS
 10
129.5800982699
 20
110.111993897
 11
127.999375408
 21
109.3216324661
  0
LINE
  5
368
100
AcDbEntity
  8
0
100
AcDbLine
 62
7
  6
CONTINUOUS
 10
128.2871585577
 20
108.9295501773
 11
130.2052854667
 21
109.8886136318
  0
LINE
  5
369
100
AcDbEntity
  8
0
100
AcDbLine
 62
7
  6
CONTINUOUS
 10
130.7222376153
 20
110.1470897061
 11
131.1898584971
 21
110.380900147
  0
LWPOLYLINE
  5
36A
100
AcDbEntity
  8
COPY_PUBLISH
100
AcDbPolyline
 62
253
  6
CONTINUOUS
 90
37
 70
0
 10
135.7727577515
 20
114.8197964138
 10
135.7569228721
 20
114.8128290427
 10
135.7404709145
 20
114.8062094051
 10
135.7234325041
 20
114.7999498233
 10
135.705839358
 20
114.7940619496
 10
135.687724226
 20
114.7885567443
 10
135.6691208293
 20
114.7834444554
 10
135.6500637983
 20
114.7787345995
 10
135.6305886078
 20
114.7744359439
 10
135.610731511
 20
114.7705564907
 10
135.5905294718
 20
114.7671034613
 10
135.5700200965
 20
114.7640832838
 10
135.5492415635
 20
114.7615015801
 10
135.5282325519
 20
114.7593631561
 10
135.5070321703
 20
114.7576719925
 10
135.4856798831
 20
114.7564312374
 10
135.4642154379
 20
114.7556432005
 10
135.4426787907
 20
114.7553093486
 10
135.4211100322
 20
114.7554303034
 10
135.3995493126
 20
114.7560058395
 10
135.3780367674
 20
114.7570348857
 10
135.3566124422
 20
114.7585155264
 10
135.3353162186
 20
114.7604450053
 10
135.3141877395
 20
114.7628197307
 10
135.2932663357
 20
114.7656352821
 10
135.2725909526
 20
114.7688864183
 10
135.2522000773
 20
114.7725670873
 10
135.2321316677
 20
114.7766704375
 10
135.2124230812
 20
114.7811888305
 10
135.1931110054
 20
114.7861138553
 10
135.1742313898
 20
114.7914363439
 10
135.155819379
 20
114.7971463885
 10
135.1379092468
 20
114.8032333599
 10
135.1205343333
 20
114.809685927
 10
135.1037269817
 20
114.8164920785
 10
135.0875184792
 20
114.8236391446
 10
135.0719389979
 20
114.831113821
  0
LWPOLYLINE
  5
36B
100
AcDbEntity
  8
0
100
AcDbPolyline
 62
7
  6
CONTINUOUS
 90
30
 70
0
 10
130.2143951038
 20
110.4901234311
 10
130.1773891301
 20
110.4740312846
 10
130.1344871144
 20
110.4608162549
 10
130.0896129867
 20
110.4525590162
 10
130.0427975664
 20
110.4491821583
 10
129.9947791055
 20
110.450739194
 10
129.9455385031
 20
110.4573083924
 10
129.8950948602
 20
110.4688114844
 10
129.8442437319
 20
110.4850671752
 10
129.7929786464
 20
110.5061508618
 10
129.7413060755
 20
110.5319871473
 10
129.69004099
 20
110.5621685462
 10
129.6391898618
 20
110.5967639836
 10
129.5887462188
 20
110.6357045345
 10
129.5395056164
 20
110.6783759385
 10
129.4914871556
 20
110.7248373637
 10
129.4446717352
 20
110.7750296419
 10
129.3997976075
 20
110.8281610084
 10
129.3568955918
 20
110.8842780538
 10
129.3159348687
 20
110.9433341874
 10
129.2775612325
 20
111.0043978726
 10
129.241815749
 20
111.0675009026
 10
129.2086573523
 20
111.1326114841
 10
129.1786086388
 20
111.1987027002
 10
129.1517189597
 20
111.2657900357
 10
129.1279389639
 20
111.3338580058
 10
129.1076431945
 20
111.4018332397
 10
129.0909564993
 20
111.4693579471
 10
129.0777540305
 20
111.5367899184
 10
129.0680357883
 20
111.6041291535
  0
LINE
  5
36C
100
AcDbEntity
  8
0
100
AcDbLine
 62
7
  6
CONTINUOUS
 10
128.9658191824
 20
111.9150450776
 11
128.6407543284
 21
111.8177698834
  0
LINE
  5
36D
100
AcDbEntity
  8
0
100
AcDbLine
 62
7
  6
CONTINUOUS
 10
129.5255658441
 20
112.0824709067
 11
129.474659034
 21
112.0672483975
  0
LWPOLYLINE
  5
36E
100
AcDbEntity
  8
0
100
AcDbPolyline
 62
7
  6
CONTINUOUS
 90
17
 70
0
 10
129.2347905612
 20
112.8732827754
 10
129.172194052
 20
112.8605355071
 10
129.1142272245
 20
112.8425158747
 10
129.0585057617
 20
112.8189226337
 10
129.0056588256
 20
112.7900210541
 10
128.9557188954
 20
112.7557510103
 10
128.908653492
 20
112.7161726279
 10
128.8649943398
 20
112.6717315532
 10
128.8247797946
 20
112.6223720943
 10
128.7879715007
 20
112.5681499431
 10
128.7549861153
 20
112.5096778224
 10
128.7258674823
 20
112.4469097389
 10
128.7005717578
 20
112.3798916858
 10
128.6793840676
 20
112.3093743656
 10
128.6623994535
 20
112.2356080124
 10
128.6495228738
 20
112.158342392
 10
128.6407543284
 20
112.0775775045
  0
LINE
  5
36F
100
AcDbEntity
  8
0
100
AcDbLine
 62
7
  6
CONTINUOUS
 10
129.2348508375
 20
112.8733267934
 11
129.9406612946
 21
112.9813234715
  0
LWPOLYLINE
  5
370
100
AcDbEntity
  8
RACCORDO
100
AcDbPolyline
 62
7
  6
CONTINUOUS
 90
5
 70
0
 10
147.4873605218
 20
97.4443845227
 10
147.4832229735
 20
97.4534026769
 10
147.4792244826
 20
97.4650101534
 10
147.4762734885
 20
97.4779220012
 10
147.4746681997
 20
97.4919424259
  0
LWPOLYLINE
  5
371
100
AcDbEntity
  8
RACCORDO
100
AcDbPolyline
 62
253
  6
CONTINUOUS
 90
4
 70
0
 10
147.4745175342
 20
97.345494994
 10
147.4642848546
 20
97.369492626
 10
147.4561762445
 20
97.3939385867
 10
147.4503304293
 20
97.4184146407
  0
LWPOLYLINE
  5
372
100
AcDbEntity
  8
COPY_PUBLISH
100
AcDbPolyline
 62
7
  6
CONTINUOUS
 90
40
 70
0
 10
141.4697595896
 20
128.3173058329
 10
141.4696746874
 20
128.3349774565
 10
141.468967602
 20
128.3528768041
 10
141.4676409562
 20
128.3709757392
 10
141.4656910102
 20
128.3892384411
 10
141.4631296241
 20
128.4076433264
 10
141.4599833173
 20
128.4261833748
 10
141.4562615296
 20
128.4448330643
 10
141.4519663339
 20
128.4635592928
 10
141.4471132028
 20
128.4823435724
 10
141.4417081512
 20
128.5011676136
 10
141.4357605135
 20
128.5199897727
 10
141.4292936683
 20
128.5387563776
 10
141.4223270041
 20
128.557421113
 10
141.4148670219
 20
128.5759706393
 10
141.4069191624
 20
128.5944007106
 10
141.3984883318
 20
128.6126986198
 10
141.3895947515
 20
128.6308171806
 10
141.3802680934
 20
128.6487010636
 10
141.3705352849
 20
128.6663042812
 10
141.3604040798
 20
128.6836173547
 10
141.3498763894
 20
128.7006400545
 10
141.3389580241
 20
128.7173606192
 10
141.3276764844
 20
128.7337343472
 10
141.31606678
 20
128.7497123886
 10
141.3041594535
 20
128.765255872
 10
141.2919644013
 20
128.7803549865
 10
141.2794865939
 20
128.795005392
 10
141.2667337464
 20
128.8091956737
 10
141.2537381601
 20
128.822887781
 10
141.2405422963
 20
128.8360390843
 10
141.2271778378
 20
128.8486206245
 10
141.213657629
 20
128.8606232667
 10
141.1999968083
 20
128.8720368745
 10
141.1862094026
 20
128.882849371
 10
141.1723259213
 20
128.8930370494
 10
141.1583864106
 20
128.9025747983
 10
141.1444193947
 20
128.9114469858
 10
141.1304415758
 20
128.9196451814
 10
141.1164753237
 20
128.9271588595
  0
LINE
  5
373
100
AcDbEntity
  8
COPY_PUBLISH
100
AcDbLine
 62
7
  6
CONTINUOUS
 10
141.3631178372
 20
131.0575322303
 11
141.3631178372
 21
130.7100007136
  0
LINE
  5
374
100
AcDbEntity
  8
COPY_PUBLISH
100
AcDbLine
 62
7
  6
CONTINUOUS
 10
141.3631178372
 20
89.4103965742
 11
141.3631178372
 21
89.0628650574
  0
LINE
  5
375
100
AcDbEntity
  8
COPY_PUBLISH
100
AcDbLine
 62
7
  6
CONTINUOUS
 10
141.4697595896
 20
128.3175186804
 11
141.4697595896
 21
125.3730176518
  0
LINE
  5
376
100
AcDbEntity
  8
COPY_PUBLISH
100
AcDbLine
 62
7
  6
CONTINUOUS
 10
141.4697595896
 20
90.3855766831
 11
141.4697595896
 21
93.3300777118
  0
LINE
  5
377
100
AcDbEntity
  8
RACCORDO
100
AcDbLine
 62
253
  6
CONTINUOUS
 10
141.5404702677
 20
137.0302305526
 11
141.5404702677
 21
136.6728004989
  0
LINE
  5
378
100
AcDbEntity
  8
COPY_PUBLISH
100
AcDbLine
 62
253
  6
CONTINUOUS
 10
142.0394548218
 20
135.1497476785
 11
142.0394548218
 21
134.5965769554
  0
LINE
  5
379
100
AcDbEntity
  8
COPY_PUBLISH
100
AcDbLine
 62
253
  6
CONTINUOUS
 10
142.0394548218
 20
134.2404010889
 11
142.0394548218
 21
133.7659997136
  0
LINE
  5
37A
100
AcDbEntity
  8
COPY_PUBLISH
100
AcDbLine
 62
7
  6
CONTINUOUS
 10
142.170289673
 20
135.1715079684
 11
142.170289673
 21
133.9236419062
  0
LINE
  5
37B
100
AcDbEntity
  8
COPY_PUBLISH
100
AcDbLine
 62
7
  6
CONTINUOUS
 10
142.1706955434
 20
90.7472538758
 11
142.1706955434
 21
93.6791588268
  0
LINE
  5
37C
100
AcDbEntity
  8
COPY_PUBLISH
100
AcDbLine
 62
7
  6
CONTINUOUS
 10
142.1706955434
 20
125.7372141453
 11
142.1706955434
 21
128.6691190963
  0
LINE
  5
37D
100
AcDbEntity
  8
0
100
AcDbLine
 62
7
  6
CONTINUOUS
 10
143.2021712035
 20
136.9578839094
 11
143.2021712035
 21
135.3375050384
  0
LINE
  5
37E
100
AcDbEntity
  8
COPY_PUBLISH
100
AcDbLine
 62
7
  6
CONTINUOUS
 10
143.2220994741
 20
126.2835088855
 11
143.2220994741
 21
125.8828555508
  0
LINE
  5
37F
100
AcDbEntity
  8
COPY_PUBLISH
100
AcDbLine
 62
7
  6
CONTINUOUS
 10
143.2220994741
 20
94.5481205837
 11
143.2220994741
 21
94.2027804995
  0
LINE
  5
380
100
AcDbEntity
  8
COPY_PUBLISH
100
AcDbLine
 62
7
  6
CONTINUOUS
 10
143.2683830295
 20
125.8597137731
 11
143.2683830295
 21
94.5802920564
  0
LINE
  5
381
100
AcDbEntity
  8
COPY_PUBLISH
100
AcDbLine
 62
253
  6
CONTINUOUS
 10
141.3631178372
 20
89.0628650751
 11
141.3631178199
 21
89.0628186401
  0
LINE
  5
382
100
AcDbEntity
  8
COPY_PUBLISH
100
AcDbLine
 62
253
  6
CONTINUOUS
 10
141.3631178372
 20
131.057532248
 11
141.3631177987
 21
131.0574628658
  0
LWPOLYLINE
  5
383
100
AcDbEntity
  8
COPY_PUBLISH
100
AcDbPolyline
 62
7
  6
CONTINUOUS
 90
23
 70
0
 10
141.4697595896
 20
90.3857895306
 10
141.4696746874
 20
90.3685970579
 10
141.468967602
 20
90.3516973374
 10
141.4676409562
 20
90.335118228
 10
141.4656910102
 20
90.3188865595
 10
141.4631296241
 20
90.3030293421
 10
141.4599833173
 20
90.2875744312
 10
141.4562615296
 20
90.272548695
 10
141.4519663339
 20
90.2579767634
 10
141.4471132028
 20
90.2438832365
 10
141.4417081512
 20
90.2302857326
 10
141.4357605135
 20
90.2172154062
 10
141.4292936683
 20
90.2047141588
 10
141.4223270041
 20
90.1928123235
 10
141.4148670219
 20
90.1815166248
 10
141.4069191624
 20
90.170832084
 10
141.3984883318
 20
90.1607687512
 10
141.3895947515
 20
90.151354719
 10
141.3802680934
 20
90.1426200173
 10
141.3705352849
 20
90.1345853382
 10
141.3604040798
 20
90.1272529585
 10
141.3498763894
 20
90.1206238348
 10
141.3410505091
 20
90.1157685311
  0
LWPOLYLINE
  5
384
100
AcDbEntity
  8
COPY_PUBLISH
100
AcDbPolyline
 62
253
  6
CONTINUOUS
 90
18
 70
0
 10
141.2909199802
 20
88.9749924253
 10
141.2907671983
 20
88.9648137813
 10
141.2902118889
 20
88.954857294
 10
141.2892553088
 20
88.9451455241
 10
141.287899623
 20
88.9357004728
 10
141.2861479022
 20
88.926543548
 10
141.2840041181
 20
88.9176955144
 10
141.28147313
 20
88.909176424
 10
141.2785606723
 20
88.9010055752
 10
141.2752733459
 20
88.893201484
 10
141.2716185997
 20
88.8857818314
 10
141.2676047161
 20
88.8787634297
 10
141.2632407942
 20
88.8721621855
 10
141.2585367244
 20
88.8659930553
 10
141.2535031661
 20
88.8602700142
 10
141.2481515278
 20
88.8550060294
 10
141.2424939341
 20
88.8502130231
 10
141.2365432085
 20
88.8459018558
  0
LWPOLYLINE
  5
385
100
AcDbEntity
  8
COPY_PUBLISH
100
AcDbPolyline
 62
253
  6
CONTINUOUS
 90
18
 70
0
 10
141.363117831
 20
89.4103687639
 10
141.3630634143
 20
89.4077884868
 10
141.3625350612
 20
89.4018665048
 10
141.3614457892
 20
89.3959637277
 10
141.3597980512
 20
89.3900934217
 10
141.357595551
 20
89.3842687756
 10
141.3548432194
 20
89.378502846
 10
141.3515472604
 20
89.3728086435
 10
141.347715169
 20
89.3671990861
 10
141.343355657
 20
89.3616868566
 10
141.3384785112
 20
89.3562842683
 10
141.333094616
 20
89.3510033574
 10
141.3272155809
 20
89.345855587
 10
141.3208550441
 20
89.3408529676
 10
141.3140288844
 20
89.3360078131
 10
141.306753312
 20
89.3313312485
 10
141.2990444784
 20
89.3268332986
 10
141.2909199802
 20
89.322523942
  0
LWPOLYLINE
  5
386
100
AcDbEntity
  8
COPY_PUBLISH
100
AcDbPolyline
 62
253
  6
CONTINUOUS
 90
18
 70
0
 10
141.3631178199
 20
89.0628186401
 10
141.3630642756
 20
89.0602776893
 10
141.3625378482
 20
89.0543553852
 10
141.3614504359
 20
89.0484522124
 10
141.3598044812
 20
89.0425814456
 10
141.357603684
 20
89.0367562912
 10
141.3548529912
 20
89.0309898503
 10
141.3515585873
 20
89.0252950938
 10
141.3477278828
 20
89.0196848349
 10
141.3433694932
 20
89.0141716932
 10
141.3384932196
 20
89.0087680682
 10
141.3331100301
 20
89.0034861154
 10
141.327232029
 20
88.9983377127
 10
141.3208724388
 20
88.9933344428
 10
141.314045576
 20
88.988487568
 10
141.3067668019
 20
88.9838079919
 10
141.2990524858
 20
88.9793062362
 10
141.2909199802
 20
88.9749924253
  0
LINE
  5
387
100
AcDbEntity
  8
RACCORDO
100
AcDbLine
 62
7
  6
CONTINUOUS
 10
129.4020653356
 20
108.1125758929
 11
129.1782752296
 21
107.9947835841
  0
LINE
  5
388
100
AcDbEntity
  8
RACCORDO
100
AcDbLine
 62
7
  6
CONTINUOUS
 10
127.8165850277
 20
107.2780555948
 11
127.7589099451
 21
107.2476982155
  0
LINE
  5
389
100
AcDbEntity
  8
0
100
AcDbLine
 62
7
  6
CONTINUOUS
 10
130.7610598895
 20
109.6971265688
 11
130.2642739709
 21
109.4499760205
  0
LINE
  5
38A
100
AcDbEntity
  8
RACCORDO
100
AcDbLine
 62
7
  6
CONTINUOUS
 10
127.057218895
 20
107.9488513215
 11
127.1462381873
 21
107.9924809914
  0
LINE
  5
38B
100
AcDbEntity
  8
RACCORDO
100
AcDbLine
 62
7
  6
CONTINUOUS
 10
128.5085547401
 20
108.6601724542
 11
131.2822108126
 21
110.0195822601
  0
LINE
  5
38C
100
AcDbEntity
  8
0
100
AcDbLine
 62
7
  6
CONTINUOUS
 10
131.3052322907
 20
109.9195894931
 11
130.7610598895
 21
109.6971265688
  0
LWPOLYLINE
  5
38D
100
AcDbEntity
  8
COPY_PUBLISH
100
AcDbPolyline
 62
7
  6
CONTINUOUS
 90
7
 70
0
 10
124.828510536
 20
136.4649100032
 10
124.8099697091
 20
136.4851800094
 10
124.7937386483
 20
136.5074017647
 10
124.7799295076
 20
136.5315095633
 10
124.7687899905
 20
136.5572468476
 10
124.7605590403
 20
136.5842504083
 10
124.7553876214
 20
136.612304782
  0
LWPOLYLINE
  5
38E
100
AcDbEntity
  8
COPY_PUBLISH
100
AcDbPolyline
 62
253
  6
CONTINUOUS
 90
15
 70
0
 10
128.9872619875
 20
136.7739570777
 10
128.9912314036
 20
136.7672679689
 10
128.9947920362
 20
136.7607904891
 10
128.9979355834
 20
136.7545393859
 10
129.000654861
 20
136.7485284756
 10
129.0029431982
 20
136.7427719596
 10
129.0047947766
 20
136.7372841985
 10
129.0062053203
 20
136.7320779895
 10
129.0071718133
 20
136.7271646278
 10
129.0076920804
 20
136.7225551131
 10
129.0077649184
 20
136.7182598127
 10
129.0073901259
 20
136.7142885049
 10
129.0065685432
 20
136.7106502436
 10
129.0053020357
 20
136.7073532647
 10
129.003593458
 20
136.7044049822
  0
LWPOLYLINE
  5
38F
100
AcDbEntity
  8
COPY_PUBLISH
100
AcDbPolyline
 62
7
  6
CONTINUOUS
 90
5
 70
0
 10
142.1702896017
 20
135.1719407364
 10
142.1700462434
 20
135.1741800705
 10
142.1690854478
 20
135.1765735947
 10
142.1674293178
 20
135.1784984544
 10
142.165270923
 20
135.1799108604
  0
LINE
  5
390
100
AcDbEntity
  8
RACCORDO
100
AcDbLine
 62
253
  6
CONTINUOUS
 10
144.3688973925
 20
136.9999974933
 11
144.3688973925
 21
136.6728004989
  0
LINE
  5
391
100
AcDbEntity
  8
RACCORDO
100
AcDbLine
 62
7
  6
CONTINUOUS
 10
147.4659386135
 20
132.0400721547
 11
147.4724702793
 21
132.0914572747
  0
LINE
  5
392
100
AcDbEntity
  8
RACCORDO
100
AcDbLine
 62
7
  6
CONTINUOUS
 10
130.5165798756
 20
106.2696850044
 11
130.5133908929
 21
106.2680055446
  0
LWPOLYLINE
  5
393
100
AcDbEntity
  8
RACCORDO
100
AcDbPolyline
 62
253
  6
CONTINUOUS
 90
23
 70
0
 10
130.5133908929
 20
106.2680055446
 10
130.4696944108
 20
106.2457988524
 10
130.3849702196
 20
106.206852648
 10
130.2981677965
 20
106.1722367351
 10
130.2094682806
 20
106.1420158863
 10
130.1190222086
 20
106.1162215534
 10
130.0268687096
 20
106.0948456362
 10
129.9330270202
 20
106.0778812029
 10
129.837709487
 20
106.0653540831
 10
129.7408949819
 20
106.0572491849
 10
129.6422314657
 20
106.0535605287
 10
129.54181724
 20
106.054347398
 10
129.4397176193
 20
106.0596639958
 10
129.3354996023
 20
106.0696171354
 10
129.2292435833
 20
106.0843211359
 10
129.1210276427
 20
106.1038862703
 10
129.0103940013
 20
106.1285443883
 10
128.8974492017
 20
106.1584615048
 10
128.7822683379
 20
106.1938075408
 10
128.6643385434
 20
106.2349625355
 10
128.5435642663
 20
106.282243287
 10
128.4202787402
 20
106.3358133587
 10
128.2946257856
 20
106.3958922447
  0
LINE
  5
394
100
AcDbEntity
  8
DRAFT
100
AcDbLine
 62
7
  6
CONTINUOUS
 10
130.6099574966
 20
106.3568242596
 11
130.6949933838
 21
106.3872379576
  0
LINE
  5
395
100
AcDbEntity
  8
RACCORDO
100
AcDbLine
 62
253
  6
CONTINUOUS
 10
147.4503304293
 20
97.4184146407
 11
147.4468457276
 21
97.442539239
  0
LINE
  5
396
100
AcDbEntity
  8
RACCORDO
100
AcDbLine
 62
253
  6
CONTINUOUS
 10
147.4468457276
 20
97.442539239
 11
147.4457868107
 21
97.4657886731
  0
LINE
  5
397
100
AcDbEntity
  8
RACCORDO
100
AcDbLine
 62
7
  6
CONTINUOUS
 10
147.4746681997
 20
97.4919424259
 11
147.4744577718
 21
97.4992526434
  0
LINE
  5
398
100
AcDbEntity
  8
RACCORDO
100
AcDbLine
 62
253
  6
CONTINUOUS
 10
147.4457868107
 20
97.4657886731
 11
147.4457868107
 21
97.7726419958
  0
LINE
  5
399
100
AcDbEntity
  8
RACCORDO
100
AcDbLine
 62
253
  6
CONTINUOUS
 10
147.4457868107
 20
132.1029216606
 11
147.4457868107
 21
132.3533466521
  0
LINE
  5
39A
100
AcDbEntity
  8
RACCORDO
100
AcDbLine
 62
7
  6
CONTINUOUS
 10
147.4744617658
 20
97.4992690128
 11
147.4744617658
 21
97.7875411004
  0
LINE
  5
39B
100
AcDbEntity
  8
RACCORDO
100
AcDbLine
 62
7
  6
CONTINUOUS
 10
147.4744617658
 20
132.1379671256
 11
147.4744617658
 21
132.3685054727
  0
LINE
  5
39C
100
AcDbEntity
  8
RACCORDO
100
AcDbLine
 62
253
  6
CONTINUOUS
 10
147.7747254093
 20
133.2722105611
 11
147.7747254093
 21
132.5272378123
  0
LINE
  5
39D
100
AcDbEntity
  8
RACCORDO
100
AcDbLine
 62
253
  6
CONTINUOUS
 10
147.7747254093
 20
96.8537951949
 11
147.7747254093
 21
96.1088224461
  0
LINE
  5
39E
100
AcDbEntity
  8
RACCORDO
100
AcDbLine
 62
253
  6
CONTINUOUS
 10
147.9044312984
 20
134.905033546
 11
147.9044312984
 21
135.2322305403
  0
LINE
  5
39F
100
AcDbEntity
  8
COPY_PUBLISH
100
AcDbLine
 62
7
  6
CONTINUOUS
 10
147.9150555092
 20
96.1591822168
 11
147.9150555092
 21
97.0248859469
  0
LINE
  5
3A0
100
AcDbEntity
  8
COPY_PUBLISH
100
AcDbLine
 62
7
  6
CONTINUOUS
 10
147.9150555092
 20
132.7034762456
 11
147.9150555092
 21
133.5691799757
  0
LINE
  5
3A1
100
AcDbEntity
  8
RACCORDO
100
AcDbLine
 62
7
  6
CONTINUOUS
 10
147.4724702793
 20
132.0914572747
 11
147.4744410512
 21
132.1379648817
  0
LINE
  5
3A2
100
AcDbEntity
  8
RACCORDO
100
AcDbLine
 62
253
  6
CONTINUOUS
 10
147.4441901002
 20
132.0657261511
 11
147.4457868107
 21
132.1029216606
  0
LWPOLYLINE
  5
3A3
100
AcDbEntity
  8
RACCORDO
100
AcDbPolyline
 62
253
  6
CONTINUOUS
 90
6
 70
0
 10
147.1678591262
 20
131.6151140561
 10
147.1668821711
 20
131.600665596
 10
147.1637684388
 20
131.5877198299
 10
147.158612235
 20
131.5766701995
 10
147.1515698991
 20
131.5678525951
 10
147.142640745
 20
131.5614229679
  0
LINE
  5
3A4
100
AcDbEntity
  8
COPY_PUBLISH
100
AcDbLine
 62
253
  6
CONTINUOUS
 10
120.8938273405
 20
132.7619994067
 11
135.7841414594
 21
125.3168423473
  0
LINE
  5
3A5
100
AcDbEntity
  8
RACCORDO
100
AcDbLine
 62
253
  6
CONTINUOUS
 10
150.025751642
 20
141.2347446876
 11
150.025751642
 21
141.0691335651
  0
LINE
  5
3A6
100
AcDbEntity
  8
RACCORDO
100
AcDbLine
 62
7
  6
CONTINUOUS
 10
150.1721982514
 20
141.0561651944
 11
150.1721982514
 21
141.4115213829
  0
LINE
  5
3A7
100
AcDbEntity
  8
RACCORDO
100
AcDbLine
 62
253
  6
CONTINUOUS
 10
147.474008743
 20
97.4946573345
 11
147.4744615854
 21
97.4991580464
  0
LWPOLYLINE
  5
3A8
100
AcDbEntity
  8
COPY_PUBLISH
100
AcDbPolyline
 62
253
  6
CONTINUOUS
 90
20
 70
0
 10
141.2909199802
 20
89.322523942
 10
141.2948926939
 20
89.3336393427
 10
141.2984551525
 20
89.3449279799
 10
141.3015993158
 20
89.3563643758
 10
141.3043180875
 20
89.3679227192
 10
141.3066053315
 20
89.3795769236
 10
141.3084558857
 20
89.3913006862
 10
141.3098655734
 20
89.403067547
 10
141.3108312132
 20
89.414850949
 10
141.3113506255
 20
89.4266242978
 10
141.3114226381
 20
89.4383610215
 10
141.3110470885
 20
89.4500346311
 10
141.3102248242
 20
89.46161878
 10
141.3089577012
 20
89.4730873234
 10
141.3072485791
 20
89.4844143775
 10
141.3051013154
 20
89.4955743777
 10
141.3025207563
 20
89.5065421367
 10
141.2995127261
 20
89.5172929008
 10
141.2960840135
 20
89.5278024063
 10
141.2922423572
 20
89.5380469337
  0
LINE
  5
3A9
100
AcDbEntity
  8
COPY_PUBLISH
100
AcDbLine
 62
253
  6
CONTINUOUS
 10
121.5502417075
 20
133.8316835389
 11
136.4521144601
 21
126.3807471625
  0
LWPOLYLINE
  5
3AA
100
AcDbEntity
  8
COPY_PUBLISH
100
AcDbPolyline
 62
7
  6
CONTINUOUS
 90
7
 70
0
 10
137.1321685287
 20
130.3130810069
 10
137.1136277017
 20
130.3333510131
 10
137.0973966409
 20
130.3555727684
 10
137.0835875002
 20
130.379680567
 10
137.0724479832
 20
130.4054178513
 10
137.0642170329
 20
130.432421412
 10
137.0590456141
 20
130.4604757857
  0
LWPOLYLINE
  5
3AB
100
AcDbEntity
  8
COPY_PUBLISH
100
AcDbPolyline
 62
253
  6
CONTINUOUS
 90
16
 70
0
 10
141.2909199802
 20
130.6221280814
 10
141.2948927649
 20
130.6154330821
 10
141.2984552789
 20
130.6089515244
 10
141.3015994815
 20
130.6026980373
 10
141.3043182748
 20
130.5966867384
 10
141.3066055242
 20
130.5909311919
 10
141.30845607
 20
130.5854443791
 10
141.3098657349
 20
130.5802386788
 10
141.3108313324
 20
130.5753258493
 10
141.31135068
 20
130.5707169903
 10
141.3114226066
 20
130.5664225073
 10
141.3110469511
 20
130.5624520886
 10
141.3102245617
 20
130.5588146936
 10
141.3089572944
 20
130.5555185316
 10
141.30724801
 20
130.5525710423
 10
141.3063168122
 20
130.5513371747
  0
LINE
  5
3AC
100
AcDbEntity
  8
COPY_PUBLISH
100
AcDbLine
 62
7
  6
CONTINUOUS
 10
142.5304197614
 20
127.4764799226
 11
143.2220994741
 21
126.2835088855
  0
LWPOLYLINE
  5
3AD
100
AcDbEntity
  8
RACCORDO
100
AcDbPolyline
 62
7
  6
CONTINUOUS
 90
13
 70
0
 10
150.1721982514
 20
141.4115213829
 10
150.1686629976
 20
141.4958863422
 10
150.1583189088
 20
141.5765057436
 10
150.141567648
 20
141.6530553708
 10
150.1188740314
 20
141.7251281349
 10
150.0906266232
 20
141.7926692681
 10
150.057087939
 20
141.8557598914
 10
150.0188123013
 20
141.9139098745
 10
149.9762092653
 20
141.9670078866
 10
149.9292055946
 20
142.0153926346
 10
149.8780378743
 20
142.0588511277
 10
149.8234027335
 20
142.0968590193
 10
149.7658584563
 20
142.1291718786
  0
LWPOLYLINE
  5
3AE
100
AcDbEntity
  8
RACCORDO
100
AcDbPolyline
 62
253
  6
CONTINUOUS
 90
16
 70
0
 10
149.6752835476
 20
141.4925068545
 10
149.6736692464
 20
141.5388969353
 10
149.6681990269
 20
141.586715559
 10
149.6589328219
 20
141.635438815
 10
149.645972154
 20
141.6845328809
 10
149.6294590229
 20
141.733459872
 10
149.60957435
 20
141.7816837339
 10
149.5865359959
 20
141.8286761158
 10
149.5605963735
 20
141.8739221594
 10
149.5320396829
 20
141.9169261397
 10
149.5011787972
 20
141.9572168958
 10
149.4683518345
 20
141.994352994
 10
149.4339184541
 20
142.0279275633
 10
149.3982559153
 20
142.0575727537
 10
149.3617549442
 20
142.0829637664
 10
149.3248154532
 20
142.103822412
  0
LWPOLYLINE
  5
3AF
100
AcDbEntity
  8
RACCORDO
100
AcDbPolyline
 62
253
  6
CONTINUOUS
 90
22
 70
0
 10
150.025751642
 20
141.2347446876
 10
150.0247425537
 20
141.2666261584
 10
150.0218315487
 20
141.297054117
 10
150.017018627
 20
141.3260285632
 10
150.0102574476
 20
141.353700034
 10
150.0015943514
 20
141.3799179924
 10
149.9911683613
 20
141.4042308283
 10
149.9789482574
 20
141.4266031164
 10
149.9649652596
 20
141.4470702819
 10
149.94945205
 20
141.4652869903
 10
149.9323824736
 20
141.4812129995
 10
149.9137826855
 20
141.4948885516
 10
149.8939638333
 20
141.506089038
 10
149.8729071968
 20
141.5147716228
 10
149.8506314963
 20
141.5209791421
 10
149.8275040402
 20
141.5246154947
 10
149.8035103578
 20
141.5256390197
 10
149.77866492
 20
141.5240913781
 10
149.7533784479
 20
141.5200014526
 10
149.7277878487
 20
141.5133788706
 10
149.7017562152
 20
141.5042140045
 10
149.6752835476
 20
141.4925068545
  0
LINE
  5
3B0
100
AcDbEntity
  8
RACCORDO
100
AcDbLine
 62
253
  6
CONTINUOUS
 10
147.4724696517
 20
97.4896700391
 11
147.474008743
 21
97.4946573345
  0
LWPOLYLINE
  5
3B1
100
AcDbEntity
  8
COPY_PUBLISH
100
AcDbPolyline
 62
253
  6
CONTINUOUS
 90
37
 70
0
 10
136.4810710413
 20
125.2472371384
 10
136.4654049002
 20
125.2427823978
 10
136.4491212141
 20
125.2386707981
 10
136.4322503027
 20
125.2349099949
 10
136.4148235792
 20
125.2315069909
 10
136.3968734913
 20
125.2284681221
 10
136.3784334616
 20
125.225799047
 10
136.3595378248
 20
125.2235047352
 10
136.3402217638
 20
125.2215894586
 10
136.3205212445
 20
125.2200567835
 10
136.3004729485
 20
125.2189095635
 10
136.2801142052
 20
125.2181499349
 10
136.2594829216
 20
125.217779312
 10
136.2386175127
 20
125.2177983848
 10
136.2175568289
 20
125.2182071179
 10
136.1963400846
 20
125.2190047503
 10
136.1750067846
 20
125.2201897967
 10
136.1535966508
 20
125.2217600506
 10
136.1321495481
 20
125.2237125884
 10
136.1107054101
 20
125.2260437744
 10
136.0893041653
 20
125.228749268
 10
136.0679856618
 20
125.2318240317
 10
136.0467895941
 20
125.2352623405
 10
136.0257554284
 20
125.2390577922
 10
136.0049223297
 20
125.24320332
 10
135.9843290883
 20
125.2476912049
 10
135.9640140483
 20
125.2525130908
 10
135.9440150356
 20
125.2576599993
 10
135.9243692874
 20
125.2631223472
 10
135.9051133837
 20
125.2688899637
 10
135.8862831781
 20
125.2749521098
 10
135.8679137318
 20
125.2812974979
 10
135.8500392482
 20
125.2879143132
 10
135.8326930088
 20
125.2947902354
 10
135.8159073118
 20
125.3019124617
 10
135.7997134116
 20
125.3092677309
 10
135.7841414605
 20
125.3168423476
  0
LINE
  5
3B2
100
AcDbEntity
  8
COPY_PUBLISH
100
AcDbLine
 62
7
  6
CONTINUOUS
 10
143.2683830295
 20
125.8597137731
 11
141.4697595896
 21
125.3730176518
  0
LINE
  5
3B3
100
AcDbEntity
  8
COPY_PUBLISH
100
AcDbLine
 62
7
  6
CONTINUOUS
 10
143.2683830295
 20
125.8597137731
 11
143.2220994741
 21
125.8828555508
  0
LINE
  5
3B4
100
AcDbEntity
  8
COPY_PUBLISH
100
AcDbLine
 62
7
  6
CONTINUOUS
 10
139.520070666
 20
128.5966213142
 11
137.8333049418
 21
129.4400041763
  0
LINE
  5
3B5
100
AcDbEntity
  8
RACCORDO
100
AcDbLine
 62
7
  6
CONTINUOUS
 10
135.5247122593
 20
130.5943005176
 11
135.146095945
 21
130.7836086747
  0
LINE
  5
3B6
100
AcDbEntity
  8
RACCORDO
100
AcDbLine
 62
7
  6
CONTINUOUS
 10
129.9036216702
 20
133.4048458121
 11
129.5250053559
 21
133.5941539693
  0
LINE
  5
3B7
100
AcDbEntity
  8
COPY_PUBLISH
100
AcDbLine
 62
7
  6
CONTINUOUS
 10
127.2164126734
 20
134.7484503105
 11
125.5296469492
 21
135.5918331727
  0
LINE
  5
3B8
100
AcDbEntity
  8
COPY_PUBLISH
100
AcDbLine
 62
7
  6
CONTINUOUS
 10
142.195380263
 20
127.6439996719
 11
142.5304197614
 21
127.4764799226
  0
LINE
  5
3B9
100
AcDbEntity
  8
COPY_PUBLISH
100
AcDbLine
 62
7
  6
CONTINUOUS
 10
124.8916272913
 20
136.4199171458
 11
126.5701653617
 21
135.5806481105
  0
LINE
  5
3BA
100
AcDbEntity
  8
COPY_PUBLISH
100
AcDbLine
 62
7
  6
CONTINUOUS
 10
137.195285284
 20
130.2680881494
 11
138.8738233544
 21
129.4288191142
  0
LWPOLYLINE
  5
3BB
100
AcDbEntity
  8
COPY_PUBLISH
100
AcDbPolyline
 62
253
  6
CONTINUOUS
 90
16
 70
0
 10
124.8266539949
 20
136.5551355959
 10
124.8184719272
 20
136.5594254061
 10
124.8107058129
 20
136.5639043453
 10
124.8033731171
 20
136.5685623409
 10
124.7964903382
 20
136.5733889117
 10
124.7900729459
 20
136.5783732087
 10
124.7841353523
 20
136.583504041
 10
124.7786909035
 20
136.5887698836
 10
124.7737518634
 20
136.5941588836
 10
124.7693293596
 20
136.5996589033
 10
124.7654333423
 20
136.6052575666
 10
124.762072568
 20
136.610942289
 10
124.759254595
 20
136.6167002855
 10
124.7569857607
 20
136.6225186065
 10
124.7552711675
 20
136.6283841672
 10
124.7541146713
 20
136.6342837765
  0
LWPOLYLINE
  5
3BC
100
AcDbEntity
  8
COPY_PUBLISH
100
AcDbPolyline
 62
253
  6
CONTINUOUS
 90
16
 70
0
 10
137.1303119875
 20
130.4033065995
 10
137.1221299198
 20
130.4075964097
 10
137.1143638055
 20
130.412075349
 10
137.1070311098
 20
130.4167333446
 10
137.1001483308
 20
130.4215599154
 10
137.0937309386
 20
130.4265442124
 10
137.087793345
 20
130.4316750447
 10
137.0823488962
 20
130.4369408873
 10
137.0774098561
 20
130.4423298873
 10
137.0729873523
 20
130.4478299069
 10
137.0690913349
 20
130.4534285703
 10
137.0657305606
 20
130.4591132926
 10
137.0629125876
 20
130.4648712891
 10
137.0606437533
 20
130.4706896102
 10
137.0589291601
 20
130.4765551709
 10
137.057772664
 20
130.4824547802
  0
LWPOLYLINE
  5
3BD
100
AcDbEntity
  8
COPY_PUBLISH
100
AcDbPolyline
 62
253
  6
CONTINUOUS
 90
18
 70
0
 10
124.8266539949
 20
136.89510953
 10
124.8184852858
 20
136.8993919958
 10
124.8107279462
 20
136.9038648875
 10
124.8033999102
 20
136.908518402
 10
124.7965172554
 20
136.9133429945
 10
124.7900970802
 20
136.9183273881
 10
124.784156805
 20
136.9234583838
 10
124.7787105479
 20
136.9287236646
 10
124.773769658
 20
136.9341121249
 10
124.7693451738
 20
136.9396117436
 10
124.7654470274
 20
136.9452102287
 10
124.7620840724
 20
136.9508949251
 10
124.7592639521
 20
136.9566529339
 10
124.7569930225
 20
136.9624712521
 10
124.7552763587
 20
136.968336844
 10
124.7541178112
 20
136.9742365553
 10
124.7535199907
 20
136.9801571332
 10
124.7534306902
 20
136.98349786
  0
LWPOLYLINE
  5
3BE
100
AcDbEntity
  8
COPY_PUBLISH
100
AcDbPolyline
 62
7
  6
CONTINUOUS
 90
4
 70
0
 10
124.8917392214
 20
136.419861274
 10
124.8714860985
 20
136.4311795129
 10
124.8491490346
 20
136.4468087229
 10
124.828510536
 20
136.4649100032
  0
LWPOLYLINE
  5
3BF
100
AcDbEntity
  8
COPY_PUBLISH
100
AcDbPolyline
 62
7
  6
CONTINUOUS
 90
4
 70
0
 10
137.195397214
 20
130.2680322777
 10
137.1751440911
 20
130.2793505165
 10
137.1528070272
 20
130.2949797266
 10
137.1321685287
 20
130.3130810069
  0
LWPOLYLINE
  5
3C0
100
AcDbEntity
  8
COPY_PUBLISH
100
AcDbPolyline
 62
253
  6
CONTINUOUS
 90
3
 70
0
 10
124.8840173125
 20
136.4241749424
 10
124.8898179985
 20
136.4208464596
 10
124.89162857
 20
136.4199165064
  0
LWPOLYLINE
  5
3C1
100
AcDbEntity
  8
COPY_PUBLISH
100
AcDbPolyline
 62
253
  6
CONTINUOUS
 90
3
 70
0
 10
137.1876753052
 20
130.2723459461
 10
137.1934759911
 20
130.2690174633
 10
137.1952865627
 20
130.2680875101
  0
LWPOLYLINE
  5
3C2
100
AcDbEntity
  8
COPY_PUBLISH
100
AcDbPolyline
 62
253
  6
CONTINUOUS
 90
37
 70
0
 10
135.7727577515
 20
98.3817682246
 10
135.7569228721
 20
98.3740909794
 10
135.7404709145
 20
98.3667627891
 10
135.7234325041
 20
98.3597972951
 10
135.705839358
 20
98.3532074636
 10
135.6877242259
 20
98.3470055617
 10
135.6691208293
 20
98.3412031343
 10
135.6500637983
 20
98.3358109826
 10
135.6305886078
 20
98.3308391441
 10
135.610731511
 20
98.3262968739
 10
135.5905294718
 20
98.3221926275
 10
135.5700200966
 20
98.3185340449
 10
135.5492415636
 20
98.3153279367
 10
135.5282325521
 20
98.3125802709
 10
135.5070321704
 20
98.3102961625
 10
135.4856798833
 20
98.3084798632
 10
135.4642154382
 20
98.3071347542
 10
135.442678791
 20
98.3062633393
 10
135.4211100325
 20
98.3058672406
 10
135.399549313
 20
98.3059471957
 10
135.3780367678
 20
98.3065030555
 10
135.3566124426
 20
98.3075337854
 10
135.3353162191
 20
98.3090374666
 10
135.31418774
 20
98.3110113
 10
135.2932663363
 20
98.3134516115
 10
135.2725909532
 20
98.3163538581
 10
135.252200078
 20
98.3197126376
 10
135.2321316685
 20
98.3235216974
 10
135.212423082
 20
98.327773947
 10
135.1931110062
 20
98.3324614707
 10
135.1742313907
 20
98.3375755429
 10
135.1558193798
 20
98.3431066435
 10
135.1379092478
 20
98.3490444764
 10
135.1205343342
 20
98.3553779883
 10
135.1037269827
 20
98.3620953894
 10
135.0875184802
 20
98.3691841751
 10
135.071938999
 20
98.3766311497
  0
LWPOLYLINE
  5
3C3
100
AcDbEntity
  8
COPY_PUBLISH
100
AcDbPolyline
 62
7
  6
CONTINUOUS
 90
41
 70
0
 10
139.5587540169
 20
129.2773676283
 10
139.5645419155
 20
129.2762540537
 10
139.5725752038
 20
129.2750187685
 10
139.5807361427
 20
129.2741129943
 10
139.5890126301
 20
129.2735233488
 10
139.5973907578
 20
129.2732504238
 10
139.6058569131
 20
129.2732940325
 10
139.6143999344
 20
129.2736394313
 10
139.6230066115
 20
129.2742863992
 10
139.6316640645
 20
129.2752341894
 10
139.6403621416
 20
129.2764671464
 10
139.6490884203
 20
129.2779843557
 10
139.6578308192
 20
129.2797845888
 10
139.6665802041
 20
129.2818516584
 10
139.6753250119
 20
129.2841840773
 10
139.6840539737
 20
129.2867801987
 10
139.6927588723
 20
129.2896235855
 10
139.7014290221
 20
129.2927122826
 10
139.710053978
 20
129.296044278
 10
139.7186263166
 20
129.2996030729
 10
139.7271362243
 20
129.3033863294
 10
139.7355740794
 20
129.307391717
 10
139.7439331332
 20
129.3116027894
 10
139.7522044262
 20
129.3160168925
 10
139.7603791539
 20
129.3206314187
 10
139.768451144
 20
129.3254300396
 10
139.7764122692
 20
129.3304098346
 10
139.7842545347
 20
129.3355679579
 10
139.7919722793
 20
129.3408882389
 10
139.7995581862
 20
129.3463675279
 10
139.8070050647
 20
129.3520027781
 10
139.8143077315
 20
129.3577780099
 10
139.821459661
 20
129.3636898721
 10
139.8284544645
 20
129.3697351547
 10
139.8352874424
 20
129.3758981175
 10
139.8419528464
 20
129.3821752327
 10
139.8484450869
 20
129.3885631634
 10
139.8547599762
 20
129.3950464774
 10
139.8608928249
 20
129.4016176818
 10
139.8668385287
 20
129.4082771706
 10
139.8725926257
 20
129.4150213176
  0
LINE
  5
3C4
100
AcDbEntity
  8
COPY_PUBLISH
100
AcDbLine
 62
7
  6
CONTINUOUS
 10
138.9345285241
 20
129.4077036797
 11
139.5588279463
 21
129.2773493811
  0
LINE
  5
3C5
100
AcDbEntity
  8
COPY_PUBLISH
100
AcDbLine
 62
253
  6
CONTINUOUS
 10
139.1613720176
 20
129.5635248405
 11
139.8725926257
 21
129.4150213176
  0
LWPOLYLINE
  5
3C6
100
AcDbEntity
  8
COPY_PUBLISH
100
AcDbPolyline
 62
7
  6
CONTINUOUS
 90
10
 70
0
 10
138.9345285241
 20
129.4077036797
 10
138.9269592808
 20
129.4094071328
 10
138.9194271685
 20
129.4113499601
 10
138.9119430618
 20
129.4135311368
 10
138.9044902373
 20
129.4159584391
 10
138.8971090287
 20
129.4186212661
 10
138.8898904063
 20
129.4214831661
 10
138.8828652913
 20
129.4245222441
 10
138.8760109743
 20
129.4277386163
 10
138.8738155458
 20
129.4288230189
  0
LWPOLYLINE
  5
3C7
100
AcDbEntity
  8
RACCORDO
100
AcDbPolyline
 62
253
  6
CONTINUOUS
 90
7
 70
0
 10
135.2866945498
 20
132.3010725582
 10
135.2680045638
 20
132.3087675609
 10
135.2496451919
 20
132.3133495252
 10
135.2319339082
 20
132.3147361833
 10
135.2151752112
 20
132.3128998769
 10
135.1996625946
 20
132.307868726
 10
135.1958081258
 20
132.3060159317
  0
LWPOLYLINE
  5
3C8
100
AcDbEntity
  8
RACCORDO
100
AcDbPolyline
 62
253
  6
CONTINUOUS
 90
13
 70
0
 10
129.9036216702
 20
134.6788082436
 10
129.9232607595
 20
134.6701950926
 10
129.9449859343
 20
134.6629328687
 10
129.9684283597
 20
134.6571471284
 10
129.9931930566
 20
134.6529378928
 10
130.0188541688
 20
134.6503799489
 10
130.0449611008
 20
134.6495189301
 10
130.0711218524
 20
134.6503726978
 10
130.0968321425
 20
134.6529297305
 10
130.1214859805
 20
134.6571115698
 10
130.1446366544
 20
134.6627993892
 10
130.1659869948
 20
134.669875095
 10
130.1852248793
 20
134.6781938768
  0
LWPOLYLINE
  5
3C9
100
AcDbEntity
  8
COPY_PUBLISH
100
AcDbPolyline
 62
7
  6
CONTINUOUS
 90
4
 70
0
 10
126.5701657128
 20
135.580647935
 10
126.5906470093
 20
135.5715311714
 10
126.6150691281
 20
135.563372283
 10
126.6308710888
 20
135.5595325596
  0
LWPOLYLINE
  5
3CA
100
AcDbEntity
  8
COPY_PUBLISH
100
AcDbPolyline
 62
253
  6
CONTINUOUS
 90
16
 70
0
 10
134.2229489643
 20
133.5450905205
 10
134.2161615896
 20
133.548229773
 10
134.2093914492
 20
133.5509704033
 10
134.202653883
 20
133.5533062
 10
134.1959641536
 20
133.5552318701
 10
134.1893374229
 20
133.5567430471
 10
134.1827887181
 20
133.5578363036
 10
134.1763328805
 20
133.558509163
 10
134.1699845346
 20
133.5587601019
 10
134.1637580661
 20
133.5585885523
 10
134.1576675818
 20
133.5579949038
 10
134.1517268825
 20
133.5569805023
 10
134.1459494333
 20
133.5555476486
 10
134.1403483255
 20
133.5536995918
 10
134.1349362477
 20
133.5514405208
 10
134.1320623899
 20
133.5500338164
  0
LWPOLYLINE
  5
3CB
100
AcDbEntity
  8
COPY_PUBLISH
100
AcDbPolyline
 62
7
  6
CONTINUOUS
 90
17
 70
0
 10
134.4340453219
 20
133.6540145065
 10
134.4278769245
 20
133.6569340287
 10
134.4217200744
 20
133.6595182278
 10
134.4155865874
 20
133.6617622322
 10
134.4094883169
 20
133.6636618604
 10
134.4034368748
 20
133.6652134955
 10
134.3974436083
 20
133.6664140918
 10
134.3915199957
 20
133.6672613975
 10
134.3856774033
 20
133.6677538434
 10
134.3799268062
 20
133.6678904127
 10
134.3742792075
 20
133.667670872
 10
134.368745437
 20
133.6670956771
 10
134.3633359092
 20
133.6661658578
 10
134.3580609636
 20
133.6648832033
 10
134.352930708
 20
133.6632501871
 10
134.3479548177
 20
133.6612698684
 10
134.3454532096
 20
133.6601145833
  0
LWPOLYLINE
  5
3CC
100
AcDbEntity
  8
COPY_PUBLISH
100
AcDbPolyline
 62
253
  6
CONTINUOUS
 90
31
 70
0
 10
132.381580818
 20
134.1519738393
 10
132.3891328243
 20
134.1483895022
 10
132.3970476923
 20
134.1450065468
 10
132.4053039685
 20
134.1418341427
 10
132.4138792736
 20
134.138880889
 10
132.4227503636
 20
134.1361547906
 10
132.4318931928
 20
134.1336632369
 10
132.4412829791
 20
134.1314129814
 10
132.4508942708
 20
134.1294101235
 10
132.4607010157
 20
134.1276600921
 10
132.4706766322
 20
134.1261676307
 10
132.4807940805
 20
134.1249367849
 10
132.4910259367
 20
134.1239708909
 10
132.5013444667
 20
134.1232725668
 10
132.5117217013
 20
134.1228437054
 10
132.5221295124
 20
134.1226854693
 10
132.5325396889
 20
134.1227982873
 10
132.5429240134
 20
134.1231818537
 10
132.5532543383
 20
134.1238351287
 10
132.5635026628
 20
134.1247563416
 10
132.5736412079
 20
134.1259429954
 10
132.5836424925
 20
134.1273918737
 10
132.5934794075
 20
134.129099049
 10
132.6031252892
 20
134.131059894
 10
132.6125539919
 20
134.1332690937
 10
132.6217399583
 20
134.1357206599
 10
132.6306582893
 20
134.1384079475
 10
132.6392848111
 20
134.1413236724
 10
132.6475961411
 20
134.1444599314
 10
132.6555697508
 20
134.1478082233
 10
132.6631840271
 20
134.1513594725
  0
LWPOLYLINE
  5
3CD
100
AcDbEntity
  8
COPY_PUBLISH
100
AcDbPolyline
 62
253
  6
CONTINUOUS
 90
34
 70
0
 10
138.8088500579
 20
129.5640375643
 10
138.8174296784
 20
129.5599465305
 10
138.8263875569
 20
129.5560634733
 10
138.835703548
 20
129.5523971254
 10
138.8453566897
 20
129.548955736
 10
138.8553252837
 20
129.5457470398
 10
138.8655869482
 20
129.542778243
 10
138.8761186335
 20
129.5400560186
 10
138.8868966335
 20
129.5375864986
 10
138.8978966727
 20
129.5353752467
 10
138.9090939995
 20
129.533427238
 10
138.9204634442
 20
129.5317468509
 10
138.9319794372
 20
129.5303378644
 10
138.9436160793
 20
129.5292034472
 10
138.9553472007
 20
129.5283461506
 10
138.9671464192
 20
129.5277679026
 10
138.9789872076
 20
129.5274700033
 10
138.9908429281
 20
129.5274531234
 10
139.002686892
 20
129.5277172999
 10
139.0144924461
 20
129.5282619359
 10
139.0262330582
 20
129.529085805
 10
139.0378823504
 20
129.5301870551
 10
139.0494142097
 20
129.5315632209
 10
139.0608026146
 20
129.5332112003
 10
139.0720217294
 20
129.5351272461
 10
139.0830461884
 20
129.5373070021
 10
139.0938513649
 20
129.5397455749
 10
139.1044131867
 20
129.5424375226
 10
139.1147087276
 20
129.5453770401
 10
139.1247139663
 20
129.5485573085
 10
139.1344042754
 20
129.5519703884
 10
139.1437574046
 20
129.5556081746
 10
139.1527533044
 20
129.5594625914
 10
139.1613720176
 20
129.5635248405
  0
LWPOLYLINE
  5
3CE
100
AcDbEntity
  8
COPY_PUBLISH
100
AcDbPolyline
 62
253
  6
CONTINUOUS
 90
34
 70
0
 10
126.5051920653
 20
135.7158665606
 10
126.5137710572
 20
135.7117758126
 10
126.5227282543
 20
135.7078930108
 10
126.5320435158
 20
135.704226886
 10
126.5416958956
 20
135.7007856818
 10
126.5516636895
 20
135.697577136
 10
126.5619244842
 20
135.6946084632
 10
126.5724552076
 20
135.6918863387
 10
126.5832321804
 20
135.6894168835
 10
126.59423117
 20
135.6872056503
 10
126.6054274441
 20
135.6852576112
 10
126.6167958272
 20
135.6835771465
 10
126.6283107566
 20
135.6821680349
 10
126.6399463401
 20
135.6810334449
 10
126.6516764141
 20
135.6801759277
 10
126.6634746028
 20
135.6795974114
 10
126.675314377
 20
135.679299197
 10
126.6871691141
 20
135.6792819549
 10
126.6990121578
 20
135.679545724
 10
126.7108168781
 20
135.6800899111
 10
126.7225567312
 20
135.6809132926
 10
126.7342053193
 20
135.6820140171
 10
126.7457364494
 20
135.6833896095
 10
126.7571241931
 20
135.6850369766
 10
126.7683429441
 20
135.6869524143
 10
126.7793674763
 20
135.6891316155
 10
126.790173
 20
135.6915696801
 10
126.8007352183
 20
135.6942611261
 10
126.8110303813
 20
135.6971999013
 10
126.8210353394
 20
135.7003793979
 10
126.8307275958
 20
135.7037924664
 10
126.8400853567
 20
135.7074314323
 10
126.8490875805
 20
135.7112881131
 10
126.857714025
 20
135.7153538368
  0
LWPOLYLINE
  5
3CF
100
AcDbEntity
  8
COPY_PUBLISH
100
AcDbPolyline
 62
253
  6
CONTINUOUS
 90
34
 70
0
 10
138.8088500579
 20
129.9040114985
 10
138.8174302608
 20
129.8999201998
 10
138.8263887841
 20
129.8960369004
 10
138.8357054799
 20
129.8923703357
 10
138.8453594008
 20
129.8889287513
 10
138.8553288285
 20
129.8857198915
 10
138.8655913212
 20
129.8827509803
 10
138.8761237901
 20
129.8800286965
 10
138.8869025506
 20
129.877559161
 10
138.897903355
 20
129.8753479288
 10
138.9091014616
 20
129.8733999724
 10
138.9204716813
 20
129.8717196731
 10
138.9319884309
 20
129.8703108106
 10
138.9436258042
 20
129.8691765526
 10
138.9553576281
 20
129.8683194487
 10
138.9671575112
 20
129.8677414257
 10
138.9789989194
 20
129.867443782
 10
138.990855213
 20
129.8674271859
 10
139.0026997035
 20
129.8676916724
 10
139.0145057182
 20
129.8682366416
 10
139.0262467377
 20
129.8690608652
 10
139.0378964318
 20
129.8701624943
 10
139.0494287056
 20
129.8715390679
 10
139.0608175103
 20
129.873187483
 10
139.072036989
 20
129.8751039903
 10
139.0830617715
 20
129.8772842333
 10
139.093867227
 20
129.8797233181
 10
139.1044292649
 20
129.8824157981
 10
139.1147256588
 20
129.8853560787
 10
139.1247316395
 20
129.8885371596
 10
139.1344205803
 20
129.89195036
 10
139.1437698005
 20
129.8955871706
 10
139.1527601772
 20
129.8994396146
 10
139.1613720176
 20
129.9034987746
  0
LWPOLYLINE
  5
3D0
100
AcDbEntity
  8
COPY_PUBLISH
100
AcDbPolyline
 62
253
  6
CONTINUOUS
 90
34
 70
0
 10
126.5051920653
 20
136.0558404948
 10
126.513756997
 20
136.0517561402
 10
126.5227027803
 20
136.0478774704
 10
126.5320098093
 20
136.0442134524
 10
126.5416589943
 20
136.040772125
 10
126.5516277815
 20
136.0375620374
 10
126.5618897729
 20
136.0345918998
 10
126.5724203344
 20
136.0318687713
 10
126.5831972551
 20
136.0293983263
 10
126.5941964926
 20
136.0271860842
 10
126.6053934627
 20
136.025237011
 10
126.6167628555
 20
136.0235555335
 10
126.6282788732
 20
136.0221454734
 10
126.6399155095
 20
136.0210100086
 10
126.6516466934
 20
136.0201516767
 10
126.6634461159
 20
136.0195724029
 10
126.6752872717
 20
136.0192734927
 10
126.6871434968
 20
136.0192556232
 10
126.6989881051
 20
136.0195188369
 10
126.7107944506
 20
136.0200625431
 10
126.7225359842
 20
136.0208855204
 10
126.7341862931
 20
136.021985919
 10
126.7457191749
 20
136.0233612654
 10
126.7571086879
 20
136.0250084674
 10
126.7683292056
 20
136.0269238196
 10
126.7793554891
 20
136.0291030144
 10
126.7901627392
 20
136.0315411512
 10
126.8007266447
 20
136.0342327459
 10
126.81102345
 20
136.0371717465
 10
126.8210299899
 20
136.0403515416
 10
126.8307237396
 20
136.043764973
 10
126.8400828917
 20
136.04740436
 10
126.8490864031
 20
136.0512615181
 10
126.857714025
 20
136.0553277709
  0
LINE
  5
3D1
100
AcDbEntity
  8
COPY_PUBLISH
100
AcDbLine
 62
253
  6
CONTINUOUS
 10
124.8266539949
 20
136.5551355959
 11
126.5051920653
 21
135.7158665606
  0
LINE
  5
3D2
100
AcDbEntity
  8
COPY_PUBLISH
100
AcDbLine
 62
253
  6
CONTINUOUS
 10
137.1303119875
 20
130.4033065995
 11
138.8088500579
 21
129.5640375643
  0
LINE
  5
3D3
100
AcDbEntity
  8
COPY_PUBLISH
100
AcDbLine
 62
7
  6
CONTINUOUS
 10
130.7570918546
 20
133.7306039693
 11
132.381580818
 21
132.9183594876
  0
LINE
  5
3D4
100
AcDbEntity
  8
COPY_PUBLISH
100
AcDbLine
 62
7
  6
CONTINUOUS
 10
134.0823503595
 20
132.0679747169
 11
135.0875173012
 21
131.565391246
  0
LINE
  5
3D5
100
AcDbEntity
  8
COPY_PUBLISH
100
AcDbLine
 62
253
  6
CONTINUOUS
 10
138.8088500579
 20
129.9040114985
 11
137.1303119875
 21
130.7432805337
  0
LINE
  5
3D6
100
AcDbEntity
  8
COPY_PUBLISH
100
AcDbLine
 62
253
  6
CONTINUOUS
 10
126.5051920653
 20
136.0558404948
 11
124.8266539949
 21
136.89510953
  0
LINE
  5
3D7
100
AcDbEntity
  8
COPY_PUBLISH
100
AcDbLine
 62
7
  6
CONTINUOUS
 10
134.0237717158
 20
132.4735106635
 11
132.8784121982
 21
133.0461904222
  0
LINE
  5
3D8
100
AcDbEntity
  8
COPY_PUBLISH
100
AcDbLine
 62
7
  6
CONTINUOUS
 10
128.4589948158
 20
135.2558991135
 11
129.4664267121
 21
134.7521831653
  0
LINE
  5
3D9
100
AcDbEntity
  8
COPY_PUBLISH
100
AcDbLine
 62
7
  6
CONTINUOUS
 10
136.7321441557
 20
131.1193244435
 11
137.0836510718
 21
130.9435709855
  0
LINE
  5
3DA
100
AcDbEntity
  8
COPY_PUBLISH
100
AcDbLine
 62
7
  6
CONTINUOUS
 10
140.7626528084
 20
129.1040701171
 11
141.1164753237
 21
128.9271588595
  0
LINE
  5
3DB
100
AcDbEntity
  8
RACCORDO
100
AcDbLine
 62
253
  6
CONTINUOUS
 10
135.5247122593
 20
131.868262949
 11
135.146095945
 21
132.0575711062
  0
LINE
  5
3DC
100
AcDbEntity
  8
RACCORDO
100
AcDbLine
 62
253
  6
CONTINUOUS
 10
129.9036216702
 20
134.6788082436
 11
129.5250053559
 21
134.8681164008
  0
LINE
  5
3DD
100
AcDbEntity
  8
COPY_PUBLISH
100
AcDbLine
 62
253
  6
CONTINUOUS
 10
138.9845983139
 20
130.2083883134
 11
137.3060602435
 21
131.0476573486
  0
LINE
  5
3DE
100
AcDbEntity
  8
COPY_PUBLISH
100
AcDbLine
 62
253
  6
CONTINUOUS
 10
126.6809403213
 20
136.3602173097
 11
125.0024022509
 21
137.1994863449
  0
LINE
  5
3DF
100
AcDbEntity
  8
RACCORDO
100
AcDbLine
 62
253
  6
CONTINUOUS
 10
135.806729827
 20
132.0410549195
 11
135.2866991642
 21
132.301070251
  0
LINE
  5
3E0
100
AcDbEntity
  8
RACCORDO
100
AcDbLine
 62
253
  6
CONTINUOUS
 10
130.0442156575
 20
134.9223120043
 11
129.5241849977
 21
135.1823273342
  0
LINE
  5
3E1
100
AcDbEntity
  8
COPY_PUBLISH
100
AcDbLine
 62
7
  6
CONTINUOUS
 10
133.5750981037
 20
133.3961597411
 11
134.0237717158
 21
133.1718229351
  0
LINE
  5
3E2
100
AcDbEntity
  8
COPY_PUBLISH
100
AcDbLine
 62
7
  6
CONTINUOUS
 10
128.4589948158
 20
135.9579675062
 11
129.1619877701
 21
135.6064710291
  0
LINE
  5
3E3
100
AcDbEntity
  8
COPY_PUBLISH
100
AcDbLine
 62
7
  6
CONTINUOUS
 10
140.7626528084
 20
129.8061385099
 11
141.8171466402
 21
129.278891594
  0
LINE
  5
3E4
100
AcDbEntity
  8
RACCORDO
100
AcDbLine
 62
253
  6
CONTINUOUS
 10
135.6277449396
 20
132.5288917785
 11
134.0823503595
 21
133.3015890685
  0
LINE
  5
3E5
100
AcDbEntity
  8
RACCORDO
100
AcDbLine
 62
253
  6
CONTINUOUS
 10
132.381580818
 20
134.1519738393
 11
130.7570918546
 21
134.964218321
  0
LINE
  5
3E6
100
AcDbEntity
  8
DRAFT
100
AcDbLine
 62
7
  6
CONTINUOUS
 10
133.5718026526
 20
133.8610443654
 11
134.1624570061
 21
133.5657171886
  0
LINE
  5
3E7
100
AcDbEntity
  8
RACCORDO
100
AcDbLine
 62
253
  6
CONTINUOUS
 10
130.7574978836
 20
135.2778160609
 11
132.5221794228
 21
134.3954752912
  0
LINE
  5
3E8
100
AcDbEntity
  8
RACCORDO
100
AcDbLine
 62
253
  6
CONTINUOUS
 10
134.2229489643
 20
133.5450905205
 11
135.9876305036
 21
132.6627497509
  0
LINE
  5
3E9
100
AcDbEntity
  8
COPY_PUBLISH
100
AcDbLine
 62
7
  6
CONTINUOUS
 10
130.4388938031
 20
135.6515902658
 11
132.7369926369
 21
134.5025408489
  0
LINE
  5
3EA
100
AcDbEntity
  8
COPY_PUBLISH
100
AcDbLine
 62
7
  6
CONTINUOUS
 10
134.4340453219
 20
133.6540145065
 11
136.7321441557
 21
132.5049650896
  0
LINE
  5
3EB
100
AcDbEntity
  8
COPY_PUBLISH
100
AcDbLine
 62
7
  6
CONTINUOUS
 10
140.5858791047
 20
131.0111103169
 11
138.8888168467
 21
131.859641446
  0
LINE
  5
3EC
100
AcDbEntity
  8
COPY_PUBLISH
100
AcDbLine
 62
7
  6
CONTINUOUS
 10
128.2822211121
 20
137.1629393132
 11
126.585158854
 21
138.0114704423
  0
LWPOLYLINE
  5
3ED
100
AcDbEntity
  8
COPY_PUBLISH
100
AcDbPolyline
 62
253
  6
CONTINUOUS
 90
34
 70
0
 10
128.8104882838
 20
137.4263781333
 10
128.8189471018
 20
137.4219509297
 10
128.827384429
 20
137.4170421627
 10
128.835781153
 20
137.411662952
 10
128.8441182534
 20
137.4058254825
 10
128.8523768447
 20
137.3995429774
 10
128.8605382193
 20
137.3928296681
 10
128.8685838901
 20
137.3857007617
 10
128.8764956316
 20
137.3781724067
 10
128.884255522
 20
137.3702616566
 10
128.8918459834
 20
137.3619864309
 10
128.8992498218
 20
137.353365475
 10
128.9064502658
 20
137.3444183171
 10
128.9134310048
 20
137.3351652248
 10
128.9201762257
 20
137.3256271581
 10
128.9266706493
 20
137.3158257231
 10
128.9328995641
 20
137.3057831222
 10
128.9388488604
 20
137.295522104
 10
128.9445050615
 20
137.2850659122
 10
128.9498553549
 20
137.2744382323
 10
128.9548876211
 20
137.2636631384
 10
128.9595904607
 20
137.2527650385
 10
128.9639532209
 20
137.2417686192
 10
128.967966019
 20
137.23069879
 10
128.9716197651
 20
137.2195806264
 10
128.9749061826
 20
137.2084393135
 10
128.9778178271
 20
137.197300089
 10
128.980348103
 20
137.1861881857
 10
128.9824912788
 20
137.1751287745
 10
128.9842424996
 20
137.1641469074
 10
128.9855977986
 20
137.153267461
 10
128.9865541056
 20
137.1425150795
 10
128.9871092544
 20
137.1319141194
 10
128.9872619875
 20
137.1214885945
  0
LWPOLYLINE
  5
3EE
100
AcDbEntity
  8
COPY_PUBLISH
100
AcDbPolyline
 62
253
  6
CONTINUOUS
 90
18
 70
0
 10
137.1303119875
 20
130.7432805337
 10
137.1221293902
 20
130.7475706351
 10
137.1143627915
 20
130.7520498968
 10
137.107029662
 20
130.7567082447
 10
137.1001464932
 20
130.7615352051
 10
137.0937287737
 20
130.7665199189
 10
137.0877909513
 20
130.7716511653
 10
137.0823463836
 20
130.7769173998
 10
137.0774073127
 20
130.78230678
 10
137.0729848482
 20
130.7878071822
 10
137.0690889355
 20
130.7934062355
 10
137.0657283369
 20
130.7990913454
 10
137.0629106118
 20
130.8048497201
 10
137.0606420957
 20
130.8106684068
 10
137.0589278881
 20
130.8165343187
 10
137.057771842
 20
130.8224342603
 10
137.0571765546
 20
130.8283549644
 10
137.0570887229
 20
130.8315981488
  0
LWPOLYLINE
  5
3EF
100
AcDbEntity
  8
COPY_PUBLISH
100
AcDbPolyline
 62
253
  6
CONTINUOUS
 90
16
 70
0
 10
134.0823503595
 20
133.3015890685
 10
134.0751816854
 20
133.3053650716
 10
134.0684157745
 20
133.3093225057
 10
134.0620709664
 20
133.3134506438
 10
134.0561644589
 20
133.3177382963
 10
134.0507122623
 20
133.3221738413
 10
134.0457291548
 20
133.3267452559
 10
134.0412286437
 20
133.3314401491
 10
134.0372229279
 20
133.3362457949
 10
134.0337228651
 20
133.3411491674
 10
134.0307379424
 20
133.3461369756
 10
134.0282762508
 20
133.3511956998
 10
134.0263444627
 20
133.3563116279
 10
134.0249478145
 20
133.3614708929
 10
134.0240900918
 20
133.3666595102
 10
134.0237717158
 20
133.3722997467
  0
LWPOLYLINE
  5
3F0
100
AcDbEntity
  8
COPY_PUBLISH
100
AcDbPolyline
 62
7
  6
CONTINUOUS
 90
37
 70
0
 10
132.7369926369
 20
134.5025408489
 10
132.7431613489
 20
134.4992918164
 10
132.7493181337
 20
134.4957191982
 10
132.7554513714
 20
134.4918298402
 10
132.7615495712
 20
134.4876312333
 10
132.7676011293
 20
134.4831313683
 10
132.7735943504
 20
134.4783387207
 10
132.779517899
 20
134.4732624458
 10
132.7853605912
 20
134.4679122495
 10
132.7911111526
 20
134.4622982395
 10
132.7967586948
 20
134.4564311284
 10
132.8022925473
 20
134.4503221219
 10
132.8077020496
 20
134.4439827876
 10
132.8129769472
 20
134.4374252116
 10
132.8181072657
 20
134.4306619083
 10
132.8230831411
 20
134.4237057068
 10
132.8278951285
 20
134.4165698604
 10
132.8325341206
 20
134.4092679778
 10
132.8369912192
 20
134.4018139298
 10
132.841257951
 20
134.3942219101
 10
132.8453262314
 20
134.3865063884
 10
132.8491882809
 20
134.3786820396
 10
132.8528367428
 20
134.3707637547
 10
132.856264694
 20
134.3627666167
 10
132.8594656072
 20
134.3547058528
 10
132.8624333682
 20
134.346596796
 10
132.8651623337
 20
134.3384548845
 10
132.8676473405
 20
134.3302956364
 10
132.8698836216
 20
134.3221345645
 10
132.8718669103
 20
134.3139871973
 10
132.8735934954
 20
134.3058690781
 10
132.875060039
 20
134.2977956335
 10
132.8762637235
 20
134.2897822168
 10
132.8772023534
 20
134.2818441297
 10
132.8778741382
 20
134.2739964798
 10
132.878277696
 20
134.2662541513
 10
132.8784121982
 20
134.2586318499
  0
LWPOLYLINE
  5
3F1
100
AcDbEntity
  8
COPY_PUBLISH
100
AcDbPolyline
 62
7
  6
CONTINUOUS
 90
34
 70
0
 10
128.2822211121
 20
137.1629393132
 10
128.2906321875
 20
137.1584883988
 10
128.2990244051
 20
137.1535572284
 10
128.3073786529
 20
137.1481569188
 10
128.3156758268
 20
137.1422996102
 10
128.3238971252
 20
137.1359985653
 10
128.332024091
 20
137.1292681403
 10
128.3400382564
 20
137.1221235494
 10
128.3479213757
 20
137.1145809301
 10
128.3556557179
 20
137.1066574331
 10
128.3632237255
 20
137.098370987
 10
128.3706081824
 20
137.0897403256
 10
128.377792445
 20
137.080785046
 10
128.3847602236
 20
137.0715254255
 10
128.3914956828
 20
137.0619824135
 10
128.3979836056
 20
137.0521776537
 10
128.4042093022
 20
137.0421333597
 10
128.4101586401
 20
137.0318722696
 10
128.4158181395
 20
137.0214176327
 10
128.4211750099
 20
137.0107931463
 10
128.4262171096
 20
137.0000228741
 10
128.4309329707
 20
136.9891311967
 10
128.4353119625
 20
136.9781428127
 10
128.4393441815
 20
136.9670826209
 10
128.4430204054
 20
136.9559756365
 10
128.4463323797
 20
136.9448470557
 10
128.4492726405
 20
136.9337221056
 10
128.4518343992
 20
136.9226259257
 10
128.4540119451
 20
136.9115836971
 10
128.455800406
 20
136.9006204609
 10
128.4571955643
 20
136.8897609692
 10
128.4581942679
 20
136.8790298239
 10
128.4587944369
 20
136.8684514216
 10
128.4589948158
 20
136.8580497744
  0
LWPOLYLINE
  5
3F2
100
AcDbEntity
  8
COPY_PUBLISH
100
AcDbPolyline
 62
7
  6
CONTINUOUS
 90
34
 70
0
 10
140.5858791047
 20
131.0111103169
 10
140.5942901802
 20
131.0066594025
 10
140.6026823978
 20
131.0017282321
 10
140.6110366455
 20
130.9963279225
 10
140.6193338195
 20
130.9904706138
 10
140.6275551179
 20
130.984169569
 10
140.6356820837
 20
130.9774391439
 10
140.643696249
 20
130.9702945531
 10
140.6515793684
 20
130.9627519338
 10
140.6593137106
 20
130.9548284368
 10
140.6668817181
 20
130.9465419907
 10
140.6742661751
 20
130.9379113293
 10
140.6814504376
 20
130.9289560497
 10
140.6884182163
 20
130.9196964292
 10
140.6951536755
 20
130.9101534172
 10
140.7016415982
 20
130.9003486574
 10
140.7078672948
 20
130.8903043634
 10
140.7138166328
 20
130.8800432733
 10
140.7194761322
 20
130.8695886364
 10
140.7248330026
 20
130.85896415
 10
140.7298751022
 20
130.8481938777
 10
140.7345909634
 20
130.8373022004
 10
140.7389699552
 20
130.8263138164
 10
140.7430021741
 20
130.8152536246
 10
140.746678398
 20
130.8041466402
 10
140.7499903723
 20
130.7930180594
 10
140.7529306332
 20
130.7818931093
 10
140.7554923918
 20
130.7707969294
 10
140.7576699377
 20
130.7597547008
 10
140.7594583986
 20
130.7487914646
 10
140.7608535569
 20
130.7379319729
 10
140.7618522606
 20
130.7272008276
 10
140.7624524295
 20
130.7166224253
 10
140.7626528084
 20
130.7062207781
  0
LWPOLYLINE
  5
3F3
100
AcDbEntity
  8
COPY_PUBLISH
100
AcDbPolyline
 62
253
  6
CONTINUOUS
 90
34
 70
0
 10
126.6809403213
 20
136.3602173097
 10
126.6892898568
 20
136.3557500952
 10
126.6976264382
 20
136.3508030858
 10
126.7059311939
 20
136.3453868516
 10
126.7141864601
 20
136.339512176
 10
126.7223722709
 20
136.3331925254
 10
126.7304665185
 20
136.3264446466
 10
126.7384496772
 20
136.3192849307
 10
126.7463048764
 20
136.3117286226
 10
126.7540144624
 20
136.3037926899
 10
126.7615610594
 20
136.2954949787
 10
126.7689274552
 20
136.2868543734
 10
126.776096797
 20
136.2778906286
 10
126.7830527787
 20
136.2686241448
 10
126.789779709
 20
136.2590758382
 10
126.7962623898
 20
136.2492672807
 10
126.802486147
 20
136.2392206652
 10
126.8084368576
 20
136.2289587798
 10
126.8141010251
 20
136.2185048929
 10
126.8194658115
 20
136.2078826957
 10
126.8245190622
 20
136.1971162502
 10
126.8292493242
 20
136.186229954
 10
126.8336458788
 20
136.1752484716
 10
126.8376987617
 20
136.1641966867
 10
126.8413987853
 20
136.1530996492
 10
126.8447375647
 20
136.1419825051
 10
126.8477075344
 20
136.1308704426
 10
126.8503019633
 20
136.1197886436
 10
126.8525149732
 20
136.108762213
 10
126.8543415479
 20
136.0978161405
 10
126.855777546
 20
136.0869752472
 10
126.8568197147
 20
136.0762641029
 10
126.8574656951
 20
136.0657069707
 10
126.857714025
 20
136.0553277709
  0
LWPOLYLINE
  5
3F4
100
AcDbEntity
  8
COPY_PUBLISH
100
AcDbPolyline
 62
253
  6
CONTINUOUS
 90
34
 70
0
 10
138.9845983139
 20
130.2083883134
 10
138.9929615967
 20
130.2039133422
 10
139.0013082645
 20
130.1989592456
 10
139.0096194101
 20
130.1935372456
 10
139.017876207
 20
130.1876596244
 10
139.0260599516
 20
130.181339696
 10
139.034152106
 20
130.1745917765
 10
139.0421343396
 20
130.1674311515
 10
139.0499885708
 20
130.1598740414
 10
139.0576970081
 20
130.1519375647
 10
139.0652421901
 20
130.1436396994
 10
139.0726070254
 20
130.1349992418
 10
139.0797748308
 20
130.1260357647
 10
139.0867293697
 20
130.1167695723
 10
139.0934548886
 20
130.1072216547
 10
139.0999361526
 20
130.0974136399
 10
139.1061584802
 20
130.0873677453
 10
139.1121077764
 20
130.0771067271
 10
139.1177705647
 20
130.0666538289
 10
139.1231340178
 20
130.0560327288
 10
139.128185986
 20
130.045267486
 10
139.1329150257
 20
130.0343824861
 10
139.1373104244
 20
130.0234023861
 10
139.1413622257
 20
130.0123520584
 10
139.1450612512
 20
130.0012565345
 10
139.1483991218
 20
129.9901409482
 10
139.1513682766
 20
129.9790304789
 10
139.1539619897
 20
129.9679502941
 10
139.1561743857
 20
129.956925493
 10
139.1580004532
 20
129.9459810493
 10
139.1594360556
 20
129.9351417546
 10
139.160477941
 20
129.9244321623
 10
139.1611237493
 20
129.913876532
 10
139.1613720176
 20
129.9034987746
  0
LWPOLYLINE
  5
3F5
100
AcDbEntity
  8
COPY_PUBLISH
100
AcDbPolyline
 62
253
  6
CONTINUOUS
 90
34
 70
0
 10
132.5221794228
 20
134.3954752912
 10
132.5288512094
 20
134.3918849631
 10
132.5355097519
 20
134.387911252
 10
132.5421399631
 20
134.38356316
 10
132.5487268238
 20
134.378850535
 10
132.5552554052
 20
134.3737840559
 10
132.5617109028
 20
134.3683752113
 10
132.5680786864
 20
134.3626362601
 10
132.5743443309
 20
134.3565802037
 10
132.5804936381
 20
134.3502207663
 10
132.586512676
 20
134.3435723567
 10
132.5923878057
 20
134.3366500407
 10
132.5981057106
 20
134.3294695099
 10
132.6036534345
 20
134.3220470372
 10
132.6090184096
 20
134.3143994398
 10
132.6141884802
 20
134.3065440474
 10
132.6191519365
 20
134.2984986539
 10
132.6238975297
 20
134.2902814949
 10
132.6284144986
 20
134.2819112082
 10
132.6326925997
 20
134.2734067852
 10
132.6367221559
 20
134.2647874722
 10
132.6404940636
 20
134.2560727435
 10
132.6439998045
 20
134.2472822657
 10
132.6472313988
 20
134.2384360323
 10
132.6501814658
 20
134.2295542653
 10
132.6528433047
 20
134.2206572023
 10
132.6552109394
 20
134.2117648883
 10
132.6572790558
 20
134.2028973102
 10
132.6590432178
 20
134.1940731949
 10
132.6604990835
 20
134.1853139163
 10
132.6616429119
 20
134.1766431797
 10
132.6624724319
 20
134.1680817589
 10
132.6629863829
 20
134.1596475637
 10
132.6631840271
 20
134.1513594725
  0
LWPOLYLINE
  5
3F6
100
AcDbEntity
  8
COPY_PUBLISH
100
AcDbPolyline
 62
7
  6
CONTINUOUS
 90
12
 70
0
 10
128.9211744681
 20
137.4330123533
 10
128.9435997309
 20
137.420326842
 10
128.9646972391
 20
137.405323847
 10
128.9841687119
 20
137.3881818396
 10
129.0018254988
 20
137.3690341895
 10
129.0174589717
 20
137.3480564423
 10
129.0308610683
 20
137.3254710786
 10
129.0418595962
 20
137.3015043514
 10
129.0503043638
 20
137.2763979144
 10
129.0560623304
 20
137.2504368944
 10
129.0590343432
 20
137.2239409944
 10
129.0594598258
 20
137.2094096445
  0
LWPOLYLINE
  5
3F7
100
AcDbEntity
  8
COPY_PUBLISH
100
AcDbPolyline
 62
7
  6
CONTINUOUS
 90
12
 70
0
 10
141.224921236
 20
131.2811390281
 10
141.2478351908
 20
131.268129262
 10
141.2694777557
 20
131.2526001521
 10
141.2894990046
 20
131.2347035705
 10
141.3075313977
 20
131.2147052706
 10
141.3233451464
 20
131.1928262353
 10
141.3368036108
 20
131.1691775377
 10
141.347696541
 20
131.1439777282
 10
141.3557782239
 20
131.1176648389
 10
141.3609171513
 20
131.0906305674
 10
141.3630566764
 20
131.063060195
 10
141.3631177987
 20
131.0574628658
  0
LWPOLYLINE
  5
3F8
100
AcDbEntity
  8
DRAFT
100
AcDbPolyline
 62
7
  6
CONTINUOUS
 90
8
 70
0
 10
137.8732524673
 20
135.3165640421
 10
138.0563967153
 20
135.1691565416
 10
138.2547075562
 20
135.0281245888
 10
138.46818499
 20
134.8934681837
 10
138.6976341826
 20
134.7647847433
 10
138.942249968
 20
134.6424768506
 10
139.1996168488
 20
134.5277522543
 10
139.3840594786
 20
134.4546507571
  0
LINE
  5
3F9
100
AcDbEntity
  8
COPY_PUBLISH
100
AcDbLine
 62
253
  6
CONTINUOUS
 10
139.5195564377
 20
89.2411870163
 11
138.8972384056
 21
88.4961275988
  0
LINE
  5
3FA
100
AcDbEntity
  8
COPY_PUBLISH
100
AcDbLine
 62
253
  6
CONTINUOUS
 10
139.8725926257
 20
89.1154171782
 11
139.1613720176
 21
88.2639207011
  0
LWPOLYLINE
  5
3FB
100
AcDbEntity
  8
COPY_PUBLISH
100
AcDbPolyline
 62
7
  6
CONTINUOUS
 90
3
 70
0
 10
139.4959377888
 20
132.1418619037
 10
139.5256289338
 20
132.1305907997
 10
139.5342015429
 20
132.126498684
  0
LWPOLYLINE
  5
3FC
100
AcDbEntity
  8
RACCORDO
100
AcDbPolyline
 62
253
  6
CONTINUOUS
 90
7
 70
0
 10
136.5195227977
 20
134.2271388107
 10
136.5010636066
 20
134.2348866128
 10
136.4829202574
 20
134.2395382609
 10
136.4654031877
 20
134.241014164
 10
136.4488121196
 20
134.2392890691
 10
136.4334309308
 20
134.2343924928
 10
136.4300800786
 20
134.2328191682
  0
LINE
  5
3FD
100
AcDbEntity
  8
COPY_PUBLISH
100
AcDbLine
 62
7
  6
CONTINUOUS
 10
127.2303836922
 20
138.2784078
 11
127.2021899801
 21
138.2904044385
  0
LINE
  5
3FE
100
AcDbEntity
  8
RACCORDO
100
AcDbLine
 62
7
  6
CONTINUOUS
 10
137.7493105539
 20
134.2370581337
 11
137.6749720477
 21
134.2706283708
  0
LWPOLYLINE
  5
3FF
100
AcDbEntity
  8
COPY_PUBLISH
100
AcDbPolyline
 62
253
  6
CONTINUOUS
 90
16
 70
0
 10
128.9211744681
 20
137.4330123533
 10
128.9191835665
 20
137.4339760177
 10
128.9124888332
 20
137.4368090641
 10
128.905562357
 20
137.439130563
 10
128.8984196466
 20
137.440935303
 10
128.8910768291
 20
137.4422191963
 10
128.8835505824
 20
137.44297934
 10
128.8758579482
 20
137.4432140543
 10
128.8680161356
 20
137.4429228545
 10
128.8600426366
 20
137.4421064048
 10
128.8519541592
 20
137.4407663004
 10
128.8437700879
 20
137.438905639
 10
128.8355124171
 20
137.4365297441
 10
128.8272009964
 20
137.4336450735
 10
128.818853364
 20
137.4302584551
 10
128.8104882838
 20
137.4263781333
  0
LWPOLYLINE
  5
400
100
AcDbEntity
  8
COPY_PUBLISH
100
AcDbPolyline
 62
253
  6
CONTINUOUS
 90
16
 70
0
 10
139.5340416737
 20
132.1265788093
 10
139.531962008
 20
132.1275867969
 10
139.5252672747
 20
132.1304198434
 10
139.5183407985
 20
132.1327413422
 10
139.5111980881
 20
132.1345460822
 10
139.5038552706
 20
132.1358299755
 10
139.4963290239
 20
132.1365901192
 10
139.4886363897
 20
132.1368248335
 10
139.4807945771
 20
132.1365336338
 10
139.4728210781
 20
132.1357171841
 10
139.4647326007
 20
132.1343770796
 10
139.4565485294
 20
132.1325164183
 10
139.4482908586
 20
132.1301405234
 10
139.4399794379
 20
132.1272558528
 10
139.4316318055
 20
132.1238692344
 10
139.4232667253
 20
132.1199889125
  0
LWPOLYLINE
  5
401
100
AcDbEntity
  8
COPY_PUBLISH
100
AcDbPolyline
 62
253
  6
CONTINUOUS
 90
16
 70
0
 10
141.224921236
 20
131.2811390281
 10
141.2228587756
 20
131.282138935
 10
141.2161654675
 20
131.2849730112
 10
141.209240449
 20
131.2872956695
 10
141.2020992916
 20
131.2891016873
 10
141.1947580526
 20
131.2903870037
 10
141.1872332394
 20
131.2911487286
 10
141.1795417721
 20
131.291385149
 10
141.1717009456
 20
131.2910957334
 10
141.1637283905
 20
131.2902811327
 10
141.1556420338
 20
131.2889431784
 10
141.1474600582
 20
131.2870848791
 10
141.1392008615
 20
131.2847104132
 10
141.1308830151
 20
131.2818251201
 10
141.1225252224
 20
131.2784354874
 10
141.1141462765
 20
131.274549137
  0
LINE
  5
402
100
AcDbEntity
  8
COPY_PUBLISH
100
AcDbLine
 62
253
  6
CONTINUOUS
 10
127.2303836922
 20
138.2784078
 11
127.2283212318
 21
138.2794077069
  0
LWPOLYLINE
  5
403
100
AcDbEntity
  8
RACCORDO
100
AcDbPolyline
 62
253
  6
CONTINUOUS
 90
31
 70
0
 10
137.6596202571
 20
134.2315021155
 10
137.6397853687
 20
134.2411809389
 10
137.6186025919
 20
134.250682185
 10
137.5960719266
 20
134.2600058537
 10
137.5722733486
 20
134.2691908803
 10
137.5471268822
 20
134.2781983295
 10
137.5203926001
 20
134.286911396
 10
137.4920600377
 20
134.2953551746
 10
137.4621396596
 20
134.3035045705
 10
137.4304229319
 20
134.3111674934
 10
137.3968812546
 20
134.3183719108
 10
137.3615432277
 20
134.3250898552
 10
137.3242861175
 20
134.3310453352
 10
137.2850664088
 20
134.3362668387
 10
137.2439276169
 20
134.3407258776
 10
137.2008775538
 20
134.3440609972
 10
137.1556805526
 20
134.3462816683
 10
137.1085722803
 20
134.34737842
 10
137.0602675487
 20
134.3469613839
 10
137.0105182355
 20
134.3449491539
 10
136.9595724631
 20
134.3414231361
 10
136.9088894109
 20
134.3362376809
 10
136.8584550975
 20
134.3292578975
 10
136.8082835043
 20
134.3206186766
 10
136.7598757547
 20
134.3105790404
 10
136.7133599796
 20
134.2990146528
 10
136.6686080481
 20
134.2860498498
 10
136.626736691
 20
134.2723166611
 10
136.5881181521
 20
134.2580257634
 10
136.5523801877
 20
134.2429664799
 10
136.5195227977
 20
134.2271388107
  0
LINE
  5
404
100
AcDbEntity
  8
COPY_PUBLISH
100
AcDbLine
 62
253
  6
CONTINUOUS
 10
128.9212632322
 20
137.43296803
 11
128.9211744681
 21
137.4330123533
  0
LINE
  5
405
100
AcDbEntity
  8
COPY_PUBLISH
100
AcDbLine
 62
7
  6
CONTINUOUS
 10
131.7789461779
 20
135.6695756291
 11
133.4238944223
 21
134.8471015069
  0
LINE
  5
406
100
AcDbEntity
  8
COPY_PUBLISH
100
AcDbLine
 62
7
  6
CONTINUOUS
 10
135.1330416569
 20
133.9925278896
 11
136.7779899013
 21
133.1700537674
  0
LINE
  5
407
100
AcDbEntity
  8
COPY_PUBLISH
100
AcDbLine
 62
253
  6
CONTINUOUS
 10
127.1196087327
 20
138.2718179088
 11
128.8104882838
 21
137.4263781333
  0
LINE
  5
408
100
AcDbEntity
  8
COPY_PUBLISH
100
AcDbLine
 62
253
  6
CONTINUOUS
 10
139.4232667253
 20
132.1199889125
 11
141.1141462765
 21
131.274549137
  0
LINE
  5
409
100
AcDbEntity
  8
COPY_PUBLISH
100
AcDbLine
 62
7
  6
CONTINUOUS
 10
127.2303836922
 20
138.2784078
 11
128.9212632434
 21
137.4329680244
  0
LINE
  5
40A
100
AcDbEntity
  8
COPY_PUBLISH
100
AcDbLine
 62
7
  6
CONTINUOUS
 10
139.5340416849
 20
132.1265788036
 11
141.224921236
 21
131.2811390281
  0
LINE
  5
40B
100
AcDbEntity
  8
RACCORDO
100
AcDbLine
 62
253
  6
CONTINUOUS
 10
138.2909575905
 20
133.9158334488
 11
137.6596202571
 21
134.2315021155
  0
LINE
  5
40C
100
AcDbEntity
  8
RACCORDO
100
AcDbLine
 62
7
  6
CONTINUOUS
 10
138.3417184377
 20
133.9408547422
 11
137.7490629765
 21
134.2371824728
  0
LWPOLYLINE
  5
40D
100
AcDbEntity
  8
COPY_PUBLISH
100
AcDbPolyline
 62
253
  6
CONTINUOUS
 90
34
 70
0
 10
141.1141462765
 20
131.274549137
 10
141.1225911939
 20
131.2701296134
 10
141.1310183359
 20
131.2652278842
 10
141.1394086195
 20
131.259854414
 10
141.1477441922
 20
131.2540198916
 10
141.1560048864
 20
131.2477376828
 10
141.1641683894
 20
131.2410244317
 10
141.1722150092
 20
131.2338964463
 10
141.1801277425
 20
131.2263689052
 10
141.1878888059
 20
131.2184587112
 10
141.1954807072
 20
131.2101836522
 10
141.2028861305
 20
131.2015625606
 10
141.2100881338
 20
131.1926151466
 10
141.2170703366
 20
131.1833617733
 10
141.2238169886
 20
131.1738233276
 10
141.2303128473
 20
131.164021359
 10
141.2365432085
 20
131.1539780456
 10
141.2424939341
 20
131.1437161677
 10
141.2481515278
 20
131.1332589939
 10
141.2535031661
 20
131.1226302227
 10
141.2585367244
 20
131.1118539309
 10
141.2632407942
 20
131.1009545386
 10
141.2676047161
 20
131.0899567398
 10
141.2716185997
 20
131.0788854553
 10
141.2752733459
 20
131.0677657791
 10
141.2785606723
 20
131.0566229085
 10
141.28147313
 20
131.04548209
 10
141.2840041181
 20
131.0343685706
 10
141.2861479022
 20
131.0233075271
 10
141.287899623
 20
131.0123240277
 10
141.2892553088
 20
131.0014429783
 10
141.2902118889
 20
130.9906890397
 10
141.2907671983
 20
130.980086572
 10
141.2909199802
 20
130.9696595981
  0
LWPOLYLINE
  5
40E
100
AcDbEntity
  8
COPY_PUBLISH
100
AcDbPolyline
 62
7
  6
CONTINUOUS
 90
9
 70
0
 10
141.2883483365
 20
88.8845555735
 10
141.3058858336
 20
88.9036780619
 10
141.3214103213
 20
88.924610796
 10
141.3347170727
 20
88.9471335644
 10
141.345636329
 20
88.9710219796
 10
141.3540202503
 20
88.9960367152
 10
141.3597380957
 20
89.0218962286
 10
141.3626923269
 20
89.0482851372
 10
141.3631178199
 20
89.0628186401
  0
LINE
  5
40F
100
AcDbEntity
  8
COPY_PUBLISH
100
AcDbLine
 62
7
  6
CONTINUOUS
 10
143.2220994741
 20
94.2027804995
 11
142.5304197614
 21
93.701489175
  0
LINE
  5
410
100
AcDbEntity
  8
COPY_PUBLISH
100
AcDbLine
 62
7
  6
CONTINUOUS
 10
141.4697595896
 20
93.3300777118
 11
143.2683830295
 21
94.5802920564
  0
LWPOLYLINE
  5
411
100
AcDbEntity
  8
RACCORDO
100
AcDbPolyline
 62
253
  6
CONTINUOUS
 90
7
 70
0
 10
147.4457868107
 20
97.4657886731
 10
147.4519256442
 20
97.4690016982
 10
147.4575005808
 20
97.4725530395
 10
147.4624257998
 20
97.4764233993
 10
147.4666015742
 20
97.4805682691
 10
147.4699677468
 20
97.4849751702
 10
147.4724696517
 20
97.4896700391
  0
LINE
  5
412
100
AcDbEntity
  8
RACCORDO
100
AcDbLine
 62
253
  6
CONTINUOUS
 10
143.2683830295
 20
97.0227005473
 11
161.7123800434
 21
106.6059427852
  0
LINE
  5
413
100
AcDbEntity
  8
RACCORDO
100
AcDbLine
 62
7
  6
CONTINUOUS
 10
143.2683830295
 20
95.6021215641
 11
160.8235854158
 21
104.7235585756
  0
LWPOLYLINE
  5
414
100
AcDbEntity
  8
COPY_PUBLISH
100
AcDbPolyline
 62
7
  6
CONTINUOUS
 90
6
 70
0
 10
139.3409763066
 20
132.1393954776
 10
139.370840483
 20
132.147630921
 10
139.4018420286
 20
132.1521386021
 10
139.4335368668
 20
132.1527165005
 10
139.4651857441
 20
132.1492554026
 10
139.4959377888
 20
132.1418619037
  0
LINE
  5
415
100
AcDbEntity
  8
COPY_PUBLISH
100
AcDbLine
 62
7
  6
CONTINUOUS
 10
126.6308705314
 20
135.559532676
 11
127.2551684173
 21
135.4291786982
  0
LINE
  5
416
100
AcDbEntity
  8
COPY_PUBLISH
100
AcDbLine
 62
253
  6
CONTINUOUS
 10
126.857714025
 20
135.7153538368
 11
127.568934633
 21
135.5668503139
  0
LWPOLYLINE
  5
417
100
AcDbEntity
  8
COPY_PUBLISH
100
AcDbPolyline
 62
7
  6
CONTINUOUS
 90
6
 70
0
 10
127.2021899801
 20
138.2904044385
 10
127.1723062311
 20
138.2989592234
 10
127.1412402204
 20
138.3037719397
 10
127.1094421269
 20
138.3046338748
 10
127.0776559605
 20
138.3014286452
 10
127.0467360486
 20
138.2942553914
  0
LWPOLYLINE
  5
418
100
AcDbEntity
  8
RACCORDO
100
AcDbPolyline
 62
7
  6
CONTINUOUS
 90
13
 70
0
 10
137.5999442571
 20
134.2982003248
 10
137.5216183359
 20
134.3214380478
 10
137.4404621511
 20
134.3404193291
 10
137.3568716791
 20
134.3551938493
 10
137.2714700066
 20
134.3657464314
 10
137.1848462547
 20
134.3720780223
 10
137.0974682308
 20
134.3741865038
 10
137.0099558067
 20
134.3720692342
 10
136.9229288336
 20
134.3657218644
 10
136.836855292
 20
134.3551431095
 10
136.7523463964
 20
134.3403223993
 10
136.6700143319
 20
134.3212716559
 10
136.5902584773
 20
134.2979220171
  0
LWPOLYLINE
  5
419
100
AcDbEntity
  8
COPY_PUBLISH
100
AcDbPolyline
 62
253
  6
CONTINUOUS
 90
14
 70
0
 10
127.2216279237
 20
138.2822417831
 10
127.2147029053
 20
138.2845644414
 10
127.2075617478
 20
138.2863704592
 10
127.2002205088
 20
138.2876557756
 10
127.1926956956
 20
138.2884175005
 10
127.1850042283
 20
138.2886539209
 10
127.1771634018
 20
138.2883645053
 10
127.1691908467
 20
138.2875499046
 10
127.16110449
 20
138.2862119503
 10
127.1529225144
 20
138.2843536509
 10
127.1446633177
 20
138.2819791851
 10
127.1363454713
 20
138.279093892
 10
127.1279876786
 20
138.2757042592
 10
127.1196087327
 20
138.2718179088
  0
LINE
  5
41A
100
AcDbEntity
  8
RACCORDO
100
AcDbLine
 62
7
  6
CONTINUOUS
 10
137.6749720477
 20
134.2706283708
 11
137.5999442571
 21
134.2982003248
  0
LINE
  5
41B
100
AcDbEntity
  8
RACCORDO
100
AcDbLine
 62
7
  6
CONTINUOUS
 10
137.8732524673
 20
135.3165640421
 11
137.828132742
 21
135.3391239047
  0
LINE
  5
41C
100
AcDbEntity
  8
COPY_PUBLISH
100
AcDbLine
 62
7
  6
CONTINUOUS
 10
138.5545494776
 20
136.6922548417
 11
141.2198970123
 21
135.3595810744
  0
LINE
  5
41D
100
AcDbEntity
  8
COPY_PUBLISH
100
AcDbLine
 62
7
  6
CONTINUOUS
 10
142.170289673
 20
134.884384744
 11
142.3315620747
 21
134.8037485432
  0
LINE
  5
41E
100
AcDbEntity
  8
COPY_PUBLISH
100
AcDbLine
 62
253
  6
CONTINUOUS
 10
135.775117209
 20
138.2510337313
 11
136.3915890338
 21
137.942797819
  0
LINE
  5
41F
100
AcDbEntity
  8
COPY_PUBLISH
100
AcDbLine
 62
253
  6
CONTINUOUS
 10
141.3901644
 20
135.4435101358
 11
142.0066362248
 21
135.1352742235
  0
LINE
  5
420
100
AcDbEntity
  8
COPY_PUBLISH
100
AcDbLine
 62
7
  6
CONTINUOUS
 10
136.0596119158
 20
138.2327411197
 11
136.5745826491
 21
137.9752557531
  0
LINE
  5
421
100
AcDbEntity
  8
COPY_PUBLISH
100
AcDbLine
 62
7
  6
CONTINUOUS
 10
141.6502700917
 20
135.4374120318
 11
142.1652405931
 21
135.1799267811
  0
LINE
  5
422
100
AcDbEntity
  8
RACCORDO
100
AcDbLine
 62
253
  6
CONTINUOUS
 10
161.7123800434
 20
132.8790666183
 11
161.7123800434
 21
106.6059427852
  0
LINE
  5
423
100
AcDbEntity
  8
RACCORDO
100
AcDbLine
 62
7
  6
CONTINUOUS
 10
161.9991295942
 20
133.2295212501
 11
161.9991295942
 21
106.9563974036
  0
LWPOLYLINE
  5
424
100
AcDbEntity
  8
RACCORDO
100
AcDbPolyline
 62
253
  6
CONTINUOUS
 90
13
 70
0
 10
161.7123800434
 20
106.6059427852
 10
161.7074603882
 20
106.4105102957
 10
161.6919429169
 20
106.221222198
 10
161.6658928944
 20
106.0388855639
 10
161.6294200157
 20
105.8642836806
 10
161.582681727
 20
105.6981535299
 10
161.5258779565
 20
105.5411865429
 10
161.4592441308
 20
105.3940458954
 10
161.3830643213
 20
105.2573722486
 10
161.2976727445
 20
105.1317622169
 10
161.2034378935
 20
105.0177559551
 10
161.1007593144
 20
104.9158364497
 10
160.9900765045
 20
104.8264389367
  0
LWPOLYLINE
  5
425
100
AcDbEntity
  8
RACCORDO
100
AcDbPolyline
 62
253
  6
CONTINUOUS
 90
9
 70
0
 10
161.9991295701
 20
133.2294113813
 10
161.9979918947
 20
133.2056774634
 10
161.9876234811
 20
133.1538908399
 10
161.9665448137
 20
133.1029236659
 10
161.9349842784
 20
133.0533281667
 10
161.8932838311
 20
133.0056417059
 10
161.8418952928
 20
132.9603809625
 10
161.7813754543
 20
132.918036333
 10
161.7123800434
 20
132.8790666183
  0
LWPOLYLINE
  5
426
100
AcDbEntity
  8
RACCORDO
100
AcDbPolyline
 62
253
  6
CONTINUOUS
 90
3
 70
0
 10
160.9900765045
 20
104.8264389367
 10
160.871864392
 20
104.749946702
 10
160.8234839785
 20
104.7235058702
  0
LWPOLYLINE
  5
427
100
AcDbEntity
  8
COPY_PUBLISH
100
AcDbPolyline
 62
253
  6
CONTINUOUS
 90
37
 70
0
 10
136.4810710413
 20
88.638337693
 10
136.4654049016
 20
88.6283109323
 10
136.4491212173
 20
88.6186376873
 10
136.4322503083
 20
88.6093359695
 10
136.4148235874
 20
88.6004230981
 10
136.3968735027
 20
88.5919156687
 10
136.3784334764
 20
88.5838295218
 10
136.3595378434
 20
88.5761797136
 10
136.3402217866
 20
88.5689804876
 10
136.3205212717
 20
88.5622452486
 10
136.3004729805
 20
88.5559865373
 10
136.2801142422
 20
88.5502160073
 10
136.2594829639
 20
88.5449444031
 10
136.2386175604
 20
88.5401815402
 10
136.2175568823
 20
88.5359362869
 10
136.1963401439
 20
88.5322165476
 10
136.1750068499
 20
88.5290292485
 10
136.1535967221
 20
88.5263803242
 10
136.1321496256
 20
88.5242747068
 10
136.1107054939
 20
88.5227163169
 10
136.0893042553
 20
88.5217080563
 10
136.0679857581
 20
88.5212518022
 10
136.0467896966
 20
88.5213484042
 10
136.0257555372
 20
88.5219976823
 10
136.0049224445
 20
88.5231984278
 10
135.9843292092
 20
88.5249484048
 10
135.9640141751
 20
88.527244355
 10
135.9440151681
 20
88.5300820033
 10
135.9243694255
 20
88.5334560662
 10
135.9051135271
 20
88.5373602612
 10
135.8862833267
 20
88.541787319
 10
135.8679138853
 20
88.5467289965
 10
135.8500394063
 20
88.5521760924
 10
135.8326931713
 20
88.5581184644
 10
135.8159074783
 20
88.5645450482
 10
135.7997135817
 20
88.5714438776
 10
135.784141634
 20
88.5788021072
  0
LWPOLYLINE
  5
428
100
AcDbEntity
  8
RACCORDO
100
AcDbPolyline
 62
7
  6
CONTINUOUS
 90
15
 70
0
 10
160.8211519635
 20
104.7223131562
 10
160.939614019
 20
104.7890203934
 10
161.0832268512
 20
104.8856593296
 10
161.2197294659
 20
104.9963116815
 10
161.3479238319
 20
105.1205377545
 10
161.4666007779
 20
105.2576370407
 10
161.574904282
 20
105.4070722356
 10
161.6721220567
 20
105.5682515605
 10
161.757590578
 20
105.7404303223
 10
161.830797428
 20
105.9230403082
 10
161.8913240674
 20
106.1155971745
 10
161.9388145271
 20
106.3176870187
 10
161.972866875
 20
106.5289586149
 10
161.9930797263
 20
106.748879773
 10
161.9991248347
 20
106.9563769659
  0
LWPOLYLINE
  5
429
100
AcDbEntity
  8
RACCORDO
100
AcDbPolyline
 62
253
  6
CONTINUOUS
 90
7
 70
0
 10
147.5872027821
 20
97.2218822018
 10
147.5986322351
 20
97.2279015949
 10
147.6093251764
 20
97.2342185591
 10
147.6192816059
 20
97.2408330943
 10
147.6285015237
 20
97.2477452004
 10
147.6369849298
 20
97.2549548776
 10
147.644731824
 20
97.2624621258
  0
LINE
  5
42A
100
AcDbEntity
  8
COPY_PUBLISH
100
AcDbLine
 62
7
  6
CONTINUOUS
 10
146.8035349442
 20
95.4795034794
 11
142.1706955434
 21
93.0994340704
  0
LINE
  5
42B
100
AcDbEntity
  8
COPY_PUBLISH
100
AcDbLine
 62
7
  6
CONTINUOUS
 10
147.7747254093
 20
96.1088224461
 11
142.1706955434
 21
93.2429704534
  0
LINE
  5
42C
100
AcDbEntity
  8
RACCORDO
100
AcDbLine
 62
7
  6
CONTINUOUS
 10
147.7747254093
 20
96.8537951949
 11
143.2220994741
 21
94.546127869
  0
LINE
  5
42D
100
AcDbEntity
  8
COPY_PUBLISH
100
AcDbLine
 62
7
  6
CONTINUOUS
 10
142.1706955434
 20
93.5216270661
 11
142.5304197614
 21
93.701489175
  0
LINE
  5
42E
100
AcDbEntity
  8
RACCORDO
100
AcDbLine
 62
253
  6
CONTINUOUS
 10
143.2683830295
 20
95.3853521336
 11
147.4457868107
 21
97.4657886731
  0
LINE
  5
42F
100
AcDbEntity
  8
RACCORDO
100
AcDbLine
 62
253
  6
CONTINUOUS
 10
143.2683830295
 20
95.0710174802
 11
147.5872027821
 21
97.2218822018
  0
LINE
  5
430
100
AcDbEntity
  8
COPY_PUBLISH
100
AcDbLine
 62
7
  6
CONTINUOUS
 10
142.1706955434
 20
93.6791588268
 11
143.2220994741
 21
94.2027804995
  0
LWPOLYLINE
  5
431
100
AcDbEntity
  8
RACCORDO
100
AcDbPolyline
 62
7
  6
CONTINUOUS
 90
3
 70
0
 10
144.0724878548
 20
135.637107937
 10
144.0145206736
 20
135.6222142362
 10
143.9563183949
 20
135.6017994296
  0
LWPOLYLINE
  5
432
100
AcDbEntity
  8
COPY_PUBLISH
100
AcDbPolyline
 62
7
  6
CONTINUOUS
 90
11
 70
0
 10
142.12663065
 20
135.1782442442
 10
142.1196994289
 20
135.1765705948
 10
142.1123403986
 20
135.1746170565
 10
142.1045774791
 20
135.1723855948
 10
142.0964046076
 20
135.1698892806
 10
142.0878314596
 20
135.1671336378
 10
142.0788785504
 20
135.1641241252
 10
142.069550982
 20
135.1608748689
 10
142.0598596204
 20
135.1573940866
 10
142.0498225898
 20
135.1536835328
 10
142.0394548218
 20
135.1497476785
  0
LWPOLYLINE
  5
433
100
AcDbEntity
  8
COPY_PUBLISH
100
AcDbPolyline
 62
7
  6
CONTINUOUS
 90
8
 70
0
 10
141.5429033501
 20
135.4763039172
 10
141.5581761941
 20
135.4727014651
 10
141.5739201723
 20
135.4682628066
 10
141.5901240715
 20
135.462969758
 10
141.6067703217
 20
135.45681775
 10
141.6238470344
 20
135.449774631
 10
141.6413482711
 20
135.4417799422
 10
141.649845133
 20
135.4376189385
  0
LWPOLYLINE
  5
434
100
AcDbEntity
  8
0
100
AcDbPolyline
 62
253
  6
CONTINUOUS
 90
4
 70
0
 10
145.9663241136
 20
134.8280149103
 10
145.9915726515
 20
134.821237105
 10
146.0985795421
 20
134.7825001403
 10
146.2073750236
 20
134.7332713774
  0
LWPOLYLINE
  5
435
100
AcDbEntity
  8
COPY_PUBLISH
100
AcDbPolyline
 62
7
  6
CONTINUOUS
 90
9
 70
0
 10
142.165270923
 20
135.1799108604
 10
142.1621674584
 20
135.1810561649
 10
142.1586315353
 20
135.1817100751
 10
142.1545331965
 20
135.1819911862
 10
142.1499081753
 20
135.1819077526
 10
142.1447864723
 20
135.1814661606
 10
142.139180651
 20
135.18070288
 10
142.1331208523
 20
135.1796288814
 10
142.12663065
 20
135.1782442442
  0
LWPOLYLINE
  5
436
100
AcDbEntity
  8
RACCORDO
100
AcDbPolyline
 62
253
  6
CONTINUOUS
 90
10
 70
0
 10
144.4242848444
 20
135.5989969288
 10
144.3822231198
 20
135.6162419142
 10
144.3379172563
 20
135.6284238764
 10
144.291611316
 20
135.6354762263
 10
144.243563095
 20
135.6373596136
 10
144.1940404001
 20
135.634063078
 10
144.1433165677
 20
135.6256056236
 10
144.0916729445
 20
135.6120342526
 10
144.0393973403
 20
135.5934237799
 10
143.9867801715
 20
135.5698773978
  0
LWPOLYLINE
  5
437
100
AcDbEntity
  8
RACCORDO
100
AcDbPolyline
 62
253
  6
CONTINUOUS
 90
7
 70
0
 10
143.9867801715
 20
135.5698773978
 10
143.9684150553
 20
135.5775866962
 10
143.9503467728
 20
135.5822278379
 10
143.9328810568
 20
135.5837222904
 10
143.9163134439
 20
135.5820447661
 10
143.900924274
 20
135.5772236503
 10
143.8975324971
 20
135.5756545997
  0
LWPOLYLINE
  5
438
100
AcDbEntity
  8
COPY_PUBLISH
100
AcDbPolyline
 62
7
  6
CONTINUOUS
 90
7
 70
0
 10
136.5748009972
 20
137.9751409945
 10
136.5734358374
 20
137.9757356172
 10
136.5701064778
 20
137.9766436224
 10
136.566162626
 20
137.9771199678
 10
136.5616391092
 20
137.9772106047
 10
136.5565714583
 20
137.9769358076
 10
136.5509974605
 20
137.9762900288
  0
LWPOLYLINE
  5
439
100
AcDbEntity
  8
RACCORDO
100
AcDbPolyline
 62
7
  6
CONTINUOUS
 90
8
 70
0
 10
144.4297657134
 20
135.5962919768
 10
144.3969099049
 20
135.6113370337
 10
144.3476766063
 20
135.6287865473
 10
144.2958823403
 20
135.64126562
 10
144.2419588529
 20
135.648484004
 10
144.1865252229
 20
135.6502323486
 10
144.1299485291
 20
135.6464489224
 10
144.0724878548
 20
135.637107937
  0
LWPOLYLINE
  5
43A
100
AcDbEntity
  8
RACCORDO
100
AcDbPolyline
 62
7
  6
CONTINUOUS
 90
34
 70
0
 10
144.3688973925
 20
136.6728004989
 10
144.2996980643
 20
136.7057635872
 10
144.2278066726
 20
136.7369103966
 10
144.1532232174
 20
136.766240927
 10
144.0757839836
 20
136.7938084489
 10
143.9956526863
 20
136.8195596919
 10
143.9133204707
 20
136.8433348448
 10
143.8287306458
 20
136.8651307237
 10
143.7419399024
 20
136.8849505125
 10
143.6536094587
 20
136.902643952
 10
143.5637876624
 20
136.9181869294
 10
143.4724261658
 20
136.9316035575
 10
143.3800411429
 20
136.9428159154
 10
143.28655142
 20
136.9518163664
 10
143.1920381709
 20
136.9586125471
 10
143.0972610917
 20
136.9631494467
 10
143.0022975274
 20
136.9654087279
 10
142.9070701328
 20
136.9654087279
 10
142.8121065685
 20
136.9631494467
 10
142.7173294893
 20
136.9586125471
 10
142.6228162402
 20
136.9518163664
 10
142.5293265173
 20
136.9428159154
 10
142.4369414944
 20
136.9316035575
 10
142.3455799978
 20
136.9181869294
 10
142.2557582015
 20
136.902643952
 10
142.1674277578
 20
136.8849505125
 10
142.0806370145
 20
136.8651307237
 10
141.9960471895
 20
136.8433348448
 10
141.9137149739
 20
136.8195596919
 10
141.8335836766
 20
136.7938084489
 10
141.7561444428
 20
136.766240927
 10
141.6815609876
 20
136.7369103966
 10
141.6096695959
 20
136.7057635872
 10
141.5404702677
 20
136.6728004989
  0
LINE
  5
43B
100
AcDbEntity
  8
RACCORDO
100
AcDbLine
 62
253
  6
CONTINUOUS
 10
144.4287675464
 20
135.5967931939
 11
144.4242848444
 21
135.5989969288
  0
LWPOLYLINE
  5
43C
100
AcDbEntity
  8
RACCORDO
100
AcDbPolyline
 62
253
  6
CONTINUOUS
 90
11
 70
0
 10
139.900153577
 20
137.8611001786
 10
139.8956203069
 20
137.863329198
 10
139.8531208948
 20
137.8807930329
 10
139.8084199262
 20
137.8931725562
 10
139.7617679498
 20
137.9003979274
 10
139.7134235405
 20
137.9024293879
 10
139.6636537215
 20
137.899256368
 10
139.6127359753
 20
137.8908958311
 10
139.5609530338
 20
137.8773941128
 10
139.5085913262
 20
137.8588267182
 10
139.4559412692
 20
137.835296849
  0
LINE
  5
43D
100
AcDbEntity
  8
RACCORDO
100
AcDbLine
 62
7
  6
CONTINUOUS
 10
140.2254489607
 20
136.8258661598
 11
143.3075280399
 21
135.2848266202
  0
LINE
  5
43E
100
AcDbEntity
  8
RACCORDO
100
AcDbLine
 62
253
  6
CONTINUOUS
 10
136.6391864965
 20
139.2436742353
 11
139.4559412692
 21
137.835296849
  0
LINE
  5
43F
100
AcDbEntity
  8
RACCORDO
100
AcDbLine
 62
253
  6
CONTINUOUS
 10
143.9867801715
 20
135.5698773978
 11
146.8035349442
 21
134.1615000115
  0
LINE
  5
440
100
AcDbEntity
  8
COPY_PUBLISH
100
AcDbLine
 62
7
  6
CONTINUOUS
 10
136.9281472674
 20
139.3471033334
 11
139.900156932
 21
137.8610985011
  0
LINE
  5
441
100
AcDbEntity
  8
COPY_PUBLISH
100
AcDbLine
 62
7
  6
CONTINUOUS
 10
144.428764179
 20
135.5967948776
 11
147.4007738497
 21
134.1107900423
  0
LINE
  5
442
100
AcDbEntity
  8
0
100
AcDbLine
 62
7
  6
CONTINUOUS
 10
143.4733765091
 20
136.9314639976
 11
148.0853626077
 21
134.6254709483
  0
LINE
  5
443
100
AcDbEntity
  8
RACCORDO
100
AcDbLine
 62
7
  6
CONTINUOUS
 10
144.3688973925
 20
136.6728004989
 11
147.9044312984
 21
134.905033546
  0
LINE
  5
444
100
AcDbEntity
  8
RACCORDO
100
AcDbLine
 62
7
  6
CONTINUOUS
 10
139.9002782795
 20
137.8610377987
 11
139.900153577
 21
137.8611001786
  0
LINE
  5
445
100
AcDbEntity
  8
RACCORDO
100
AcDbLine
 62
7
  6
CONTINUOUS
 10
144.4297893728
 20
135.5962803098
 11
144.4287675464
 21
135.5967931939
  0
LWPOLYLINE
  5
446
100
AcDbEntity
  8
0
100
AcDbPolyline
 62
253
  6
CONTINUOUS
 90
4
 70
0
 10
146.2073750236
 20
134.7332713774
 10
146.316170505
 20
134.6737046588
 10
146.4231773956
 20
134.6054347329
 10
146.4484259336
 20
134.5869640003
  0
LWPOLYLINE
  5
447
100
AcDbEntity
  8
RACCORDO
100
AcDbPolyline
 62
7
  6
CONTINUOUS
 90
7
 70
0
 10
148.225882279
 20
134.6942288835
 10
148.1979496843
 20
134.7184111929
 10
148.1464471984
 20
134.7584768415
 10
148.0913121546
 20
134.7971964584
 10
148.0326510937
 20
134.834488186
 10
147.970357475
 20
134.8704338819
 10
147.9044312984
 20
134.905033546
  0
LWPOLYLINE
  5
448
100
AcDbEntity
  8
RACCORDO
100
AcDbPolyline
 62
7
  6
CONTINUOUS
 90
22
 70
0
 10
161.9991218256
 20
133.2294113845
 10
161.9959147957
 20
133.3833763905
 10
161.9795185069
 20
133.6143837203
 10
161.9495644276
 20
133.8467394299
 10
161.9064176894
 20
134.0797010116
 10
161.8504705052
 20
134.3124401162
 10
161.7821546284
 20
134.5438203308
 10
161.701878132
 20
134.7730234363
 10
161.6100241034
 20
134.9991666887
 10
161.5071949874
 20
135.2208861009
 10
161.3938651494
 20
135.4373411919
 10
161.2704517956
 20
135.6476774945
 10
161.1376937397
 20
135.8506197673
 10
160.9960691757
 20
136.0453847028
 10
160.8460227879
 20
136.2311627587
 10
160.6883182779
 20
136.4068766255
 10
160.5234241982
 20
136.571774543
 10
160.3517271579
 20
136.7251615148
 10
160.1737284154
 20
136.8662429083
 10
159.9897657168
 20
136.9942763852
 10
159.8002603488
 20
137.1084953672
 10
159.6784736252
 20
137.172858354
  0
LWPOLYLINE
  5
449
100
AcDbEntity
  8
RACCORDO
100
AcDbPolyline
 62
253
  6
CONTINUOUS
 90
9
 70
0
 10
161.9991295934
 20
106.9563769643
 10
161.9979919622
 20
106.9325543228
 10
161.987623681
 20
106.880767647
 10
161.9665451131
 20
106.8298003928
 10
161.9349846297
 20
106.78020479
 10
161.8932841821
 20
106.7325182154
 10
161.8418955888
 20
106.6872573558
 10
161.7813756342
 20
106.6449126103
 10
161.7123800434
 20
106.6059427859
  0
LWPOLYLINE
  5
44A
100
AcDbEntity
  8
COPY_PUBLISH
100
AcDbPolyline
 62
253
  6
CONTINUOUS
 90
3
 70
0
 10
141.2365432085
 20
88.8459018558
 10
141.2303128473
 20
88.8420822995
 10
141.2272319324
 20
88.8404286097
  0
LWPOLYLINE
  5
44B
100
AcDbEntity
  8
COPY_PUBLISH
100
AcDbPolyline
 62
7
  6
CONTINUOUS
 90
4
 70
0
 10
141.2271515986
 20
88.8403874457
 10
141.2480383975
 20
88.8523978571
 10
141.2690035219
 20
88.8674177479
 10
141.2883483365
 20
88.8845555735
  0
LINE
  5
44C
100
AcDbEntity
  8
COPY_PUBLISH
100
AcDbLine
 62
253
  6
CONTINUOUS
 10
141.4697595896
 20
90.3855766831
 11
142.1706955434
 21
90.7472538758
  0
LINE
  5
44D
100
AcDbEntity
  8
COPY_PUBLISH
100
AcDbLine
 62
7
  6
CONTINUOUS
 10
141.3410604422
 20
90.1157736613
 11
142.0428852017
 21
90.4779094705
  0
LWPOLYLINE
  5
44E
100
AcDbEntity
  8
COPY_PUBLISH
100
AcDbPolyline
 62
7
  6
CONTINUOUS
 90
3
 70
0
 10
141.3410505091
 20
90.1157685311
 10
141.3389580241
 20
90.1147051401
 10
141.3275101207
 20
90.1094453174
  0
LINE
  5
44F
100
AcDbEntity
  8
COPY_PUBLISH
100
AcDbLine
 62
253
  6
CONTINUOUS
 10
136.8179472001
 20
88.4331476397
 11
141.4697595896
 21
90.3857895306
  0
LINE
  5
450
100
AcDbEntity
  8
COPY_PUBLISH
100
AcDbLine
 62
7
  6
CONTINUOUS
 10
136.6641399547
 20
88.1519519413
 11
141.3274919732
 21
90.1094376997
  0
LINE
  5
451
100
AcDbEntity
  8
COPY_PUBLISH
100
AcDbLine
 62
7
  6
CONTINUOUS
 10
136.5509974605
 20
137.9762900288
 11
136.544953434
 21
137.9752788752
  0
LWPOLYLINE
  5
452
100
AcDbEntity
  8
RACCORDO
100
AcDbPolyline
 62
7
  6
CONTINUOUS
 90
3
 70
0
 10
156.478889855
 20
138.6655691223
 10
156.4030858422
 20
138.6570952326
 10
156.326363885
 20
138.6405903318
  0
LINE
  5
453
100
AcDbEntity
  8
RACCORDO
100
AcDbLine
 62
7
  6
CONTINUOUS
 10
138.5545494776
 20
136.6922548417
 11
140.1667165896
 21
136.7768524829
  0
LINE
  5
454
100
AcDbEntity
  8
RACCORDO
100
AcDbLine
 62
7
  6
CONTINUOUS
 10
144.3688973925
 20
136.9999974933
 11
147.9044312984
 21
135.2322305403
  0
LINE
  5
455
100
AcDbEntity
  8
COPY_PUBLISH
100
AcDbLine
 62
253
  6
CONTINUOUS
 10
140.7626528084
 20
88.7039813666
 11
141.2909199802
 21
88.9749924253
  0
LINE
  5
456
100
AcDbEntity
  8
COPY_PUBLISH
100
AcDbLine
 62
7
  6
CONTINUOUS
 10
140.6985496791
 20
88.5692046064
 11
141.2272319426
 21
88.840428615
  0
LINE
  5
457
100
AcDbEntity
  8
COPY_PUBLISH
100
AcDbLine
 62
7
  6
CONTINUOUS
 10
140.6985477054
 20
88.5692035938
 11
140.6968112936
 21
88.5683353736
  0
LINE
  5
458
100
AcDbEntity
  8
COPY_PUBLISH
100
AcDbLine
 62
253
  6
CONTINUOUS
 10
139.1613720176
 20
87.923946767
 11
140.7626528084
 21
88.7039813666
  0
LINE
  5
459
100
AcDbEntity
  8
COPY_PUBLISH
100
AcDbLine
 62
7
  6
CONTINUOUS
 10
139.095110425
 20
87.7880961408
 11
140.696808528
 21
88.5683340264
  0
LWPOLYLINE
  5
45A
100
AcDbEntity
  8
COPY_PUBLISH
100
AcDbPolyline
 62
7
  6
CONTINUOUS
 90
9
 70
0
 10
139.095110425
 20
87.7880961408
 10
139.0668887327
 20
87.7764243667
 10
139.0370245563
 20
87.7681889233
 10
139.0060230107
 20
87.7636812422
 10
138.9743281724
 20
87.7631033439
 10
138.9426792951
 20
87.7665644418
 10
138.9119272505
 20
87.7739579406
 10
138.8822361054
 20
87.7852290446
 10
138.8736634964
 20
87.7893211604
  0
LWPOLYLINE
  5
45B
100
AcDbEntity
  8
COPY_PUBLISH
100
AcDbPolyline
 62
7
  6
CONTINUOUS
 90
5
 70
0
 10
135.8191688796
 20
138.2690155549
 10
135.830394025
 20
138.2721363168
 10
135.8419863169
 20
138.2746699826
 10
135.8539316959
 20
138.2766126977
 10
135.8662241232
 20
138.2779538823
  0
LWPOLYLINE
  5
45C
100
AcDbEntity
  8
RACCORDO
100
AcDbPolyline
 62
7
  6
CONTINUOUS
 90
7
 70
0
 10
150.025751642
 20
141.0691335651
 10
150.0536171035
 20
141.0724307988
 10
150.0789833365
 20
141.07441573
 10
150.1016905113
 20
141.0749304573
 10
150.1215801432
 20
141.0738391495
 10
150.1384498216
 20
141.0709726388
 10
150.1529229476
 20
141.0658028441
  0
LWPOLYLINE
  5
45D
100
AcDbEntity
  8
COPY_PUBLISH
100
AcDbPolyline
 62
7
  6
CONTINUOUS
 90
14
 70
0
 10
135.8662241232
 20
138.2779538823
 10
135.8788666771
 20
138.278675492
 10
135.8918404981
 20
138.2787712189
 10
135.9051423309
 20
138.2782323685
 10
135.9188009618
 20
138.2770347845
 10
135.9327950782
 20
138.2751751357
 10
135.9471236832
 20
138.2726383186
 10
135.9618504556
 20
138.2693767109
 10
135.9769736801
 20
138.2653794658
 10
135.9924729907
 20
138.2606305702
 10
136.0083871401
 20
138.2550679168
 10
136.0247128168
 20
138.2486717996
 10
136.0414240731
 20
138.241429041
 10
136.0595533514
 20
138.2327696581
  0
LWPOLYLINE
  5
45E
100
AcDbEntity
  8
RACCORDO
100
AcDbPolyline
 62
253
  6
CONTINUOUS
 90
8
 70
0
 10
159.6784759778
 20
137.1728630655
 10
159.6500472502
 20
137.1856144678
 10
159.5885407099
 20
137.2043751493
 10
159.5231648622
 20
137.2131024191
 10
159.4546280598
 20
137.2117017054
 10
159.3836728988
 20
137.200188178
 10
159.3110681704
 20
137.1786865778
 10
159.2376005443
 20
137.1474298665
  0
LINE
  5
45F
100
AcDbEntity
  8
RACCORDO
100
AcDbLine
 62
253
  6
CONTINUOUS
 10
155.4705490876
 20
138.2391299373
 11
149.8929687862
 21
141.027920088
  0
LINE
  5
460
100
AcDbEntity
  8
RACCORDO
100
AcDbLine
 62
7
  6
CONTINUOUS
 10
155.6402224268
 20
138.3221531066
 11
150.1527217305
 21
141.0659034548
  0
LINE
  5
461
100
AcDbEntity
  8
RACCORDO
100
AcDbLine
 62
253
  6
CONTINUOUS
 10
148.9579719076
 20
142.2872441848
 11
149.3248154532
 21
142.103822412
  0
LINE
  5
462
100
AcDbEntity
  8
RACCORDO
100
AcDbLine
 62
253
  6
CONTINUOUS
 10
156.3958832651
 20
138.5682885061
 11
159.2376005449
 21
137.1474298662
  0
LWPOLYLINE
  5
463
100
AcDbEntity
  8
RACCORDO
100
AcDbPolyline
 62
253
  6
CONTINUOUS
 90
10
 70
0
 10
149.7658584563
 20
142.1291718786
 10
149.7201452812
 20
142.1483736523
 10
149.6757706335
 20
142.1607644448
 10
149.629420362
 20
142.1680320987
 10
149.581349594
 20
142.1701364405
 10
149.5318255266
 20
142.1670656095
 10
149.4811266408
 20
142.1588375852
 10
149.4295351771
 20
142.145499735
 10
149.377335196
 20
142.127127031
 10
149.3248154532
 20
142.103822412
  0
LWPOLYLINE
  5
464
100
AcDbEntity
  8
RACCORDO
100
AcDbPolyline
 62
253
  6
CONTINUOUS
 90
8
 70
0
 10
149.3989047705
 20
142.3126486989
 10
149.3704178488
 20
142.325429093
 10
149.3089113413
 20
142.3441896291
 10
149.2435355746
 20
142.352916777
 10
149.1749988902
 20
142.3515159786
 10
149.1040438774
 20
142.3400024114
 10
149.0314393283
 20
142.3185008242
 10
148.9579719076
 20
142.2872441848
  0
LWPOLYLINE
  5
465
100
AcDbEntity
  8
RACCORDO
100
AcDbPolyline
 62
7
  6
CONTINUOUS
 90
15
 70
0
 10
149.3989009344
 20
142.3126410158
 10
149.3018030755
 20
142.3590005169
 10
149.1389013799
 20
142.4271730158
 10
148.9767982993
 20
142.4832592892
 10
148.816107975
 20
142.5273804165
 10
148.6570943901
 20
142.5598261428
 10
148.4997856042
 20
142.5808988548
 10
148.344634746
 20
142.5907778039
 10
148.1921303347
 20
142.5896642025
 10
148.0424996032
 20
142.5777997351
 10
147.8962975203
 20
142.5554496959
 10
147.7540541003
 20
142.522916136
 10
147.6160675584
 20
142.48046585
 10
147.4827986752
 20
142.4284498811
 10
147.4123320014
 20
142.3962271215
  0
LWPOLYLINE
  5
466
100
AcDbEntity
  8
RACCORDO
100
AcDbPolyline
 62
7
  6
CONTINUOUS
 90
7
 70
0
 10
156.8370555945
 20
138.5935732783
 10
156.8251753643
 20
138.5993743919
 10
156.7616266005
 20
138.6258376463
 10
156.6952547489
 20
138.6459656963
 10
156.6256893835
 20
138.6596134356
 10
156.5532463025
 20
138.6663022215
 10
156.478889855
 20
138.6655691223
  0
LINE
  5
467
100
AcDbEntity
  8
RACCORDO
100
AcDbLine
 62
7
  6
CONTINUOUS
 10
149.3989047705
 20
142.3126486989
 11
149.7658584563
 21
142.1291718786
  0
LINE
  5
468
100
AcDbEntity
  8
RACCORDO
100
AcDbLine
 62
7
  6
CONTINUOUS
 10
156.8369262681
 20
138.5936379727
 11
159.6786435591
 21
137.1727793272
  0
LWPOLYLINE
  5
469
100
AcDbEntity
  8
RACCORDO
100
AcDbPolyline
 62
253
  6
CONTINUOUS
 90
25
 70
0
 10
159.2376005449
 20
137.1474298662
 10
159.3998773204
 20
137.0601797499
 10
159.5614257364
 20
136.9603188971
 10
159.7215503586
 20
136.8482761726
 10
159.8795526421
 20
136.7245369553
 10
160.0347636334
 20
136.5896289165
 10
160.1865454477
 20
136.4441148341
 10
160.3342559941
 20
136.2886046479
 10
160.4772487171
 20
136.1237704766
 10
160.6149052058
 20
135.9503302165
 10
160.7466326367
 20
135.7690317567
 10
160.8718688628
 20
135.5806460912
 10
160.990080799
 20
135.3859778236
 10
161.1007632437
 20
135.1858610174
 10
161.2034413974
 20
134.9811519127
 10
161.2976759046
 20
134.7727230757
 10
161.3830672604
 20
134.561462023
 10
161.4592468757
 20
134.34827904
 10
161.5258804561
 20
134.1340994447
 10
161.5826840105
 20
133.9198558816
 10
161.6294219999
 20
133.70645225
 10
161.6658943235
 20
133.4947719569
 10
161.6919436722
 20
133.2857129997
 10
161.7074606072
 20
133.0801835395
 10
161.7123800434
 20
132.8790666183
  0
ELLIPSE
  5
46A
100
AcDbEntity
  8
COPY_PUBLISH
100
AcDbEllipse
 62
7
  6
CONTINUOUS
 10
135.7730483638
 20
137.8170059013
 30
0.0
 11
0.2257019663
 21
0.4461636818
 31
0.0
 40
0.6159267166
 41
0.5882567743
 42
0.6817883054
  0
ELLIPSE
  5
46B
100
AcDbEntity
  8
COPY_PUBLISH
100
AcDbEllipse
 62
7
  6
CONTINUOUS
 10
135.1342938571
 20
133.819919232
 30
0.0
 11
-0.0909679979
 21
0.1781462259
 31
0.0
 40
0.6079022756
 41
-0.6898048156
 42
-0.0128958448
  0
ELLIPSE
  5
46C
100
AcDbEntity
  8
COPY_PUBLISH
100
AcDbEllipse
 62
7
  6
CONTINUOUS
 10
147.5065667722
 20
95.989884556
 30
0.0
 11
0.9927147821
 21
0.620457446
 31
0.0
 40
0.0764819879
 41
-2.4043514965
 42
-1.2126728778
  0
ELLIPSE
  5
46D
100
AcDbEntity
  8
COPY_PUBLISH
100
AcDbEllipse
 62
7
  6
CONTINUOUS
 10
135.9279271539
 20
138.7291794014
 30
0.0
 11
1.004787277
 21
0.6140102217
 31
0.0
 40
0.0864918533
 41
0.0541943698
 42
0.7329085821
  0
ELLIPSE
  5
46E
100
AcDbEntity
  8
RACCORDO
100
AcDbEllipse
 62
7
  6
CONTINUOUS
 10
147.4150555092
 20
132.700836455
 30
0.0
 11
0.499996712
 21
0.0035883639
 31
0.0
 40
0.5053247124
 41
-0.7715714568
 42
-0.0036968812
  0
ELLIPSE
  5
46F
100
AcDbEntity
  8
COPY_PUBLISH
100
AcDbEllipse
 62
7
  6
CONTINUOUS
 10
141.8171286901
 20
90.9240592863
 30
0.0
 11
-0.2236315662
 21
0.4472293059
 31
0.0
 40
0.6123445654
 41
-3.1337469158
 42
-2.2555748796
  0
ELLIPSE
  5
470
100
AcDbEntity
  8
COPY_PUBLISH
100
AcDbEllipse
 62
7
  6
CONTINUOUS
 10
141.8171286901
 20
128.8458805391
 30
0.0
 11
-0.223611546
 21
0.4472115081
 31
0.0
 40
0.6124054886
 41
-2.2555017776
 42
-0.6847562194
  0
ELLIPSE
  5
471
100
AcDbEntity
  8
COPY_PUBLISH
100
AcDbEllipse
 62
7
  6
CONTINUOUS
 10
133.4251107201
 20
134.6745108005
 30
0.0
 11
-0.090948378
 21
0.1781282571
 31
0.0
 40
0.6080538059
 41
-2.2606249166
 42
-0.6898793584
  0
ELLIPSE
  5
472
100
AcDbEntity
  8
COPY_PUBLISH
100
AcDbEllipse
 62
7
  6
CONTINUOUS
 10
141.3850221599
 20
135.0110190033
 30
0.0
 11
0.2273952932
 21
0.4453119217
 31
0.0
 40
0.6079814556
 41
0.2357074224
 42
0.6840559135
  0
ELLIPSE
  5
473
100
AcDbEntity
  8
SMUSSO
100
AcDbEllipse
 62
7
  6
CONTINUOUS
 10
143.075032192
 20
117.5078390761
 30
0.0
 11
34.6255520829
 21
13.3067682249
 31
0.0
 40
0.1308076207
 41
-2.0738329155
 42
-2.0719142121
  0
ELLIPSE
  5
474
100
AcDbEntity
  8
RACCORDO
100
AcDbEllipse
 62
7
  6
CONTINUOUS
 10
140.0252898482
 20
136.8475658536
 30
0.0
 11
0.1999252616
 21
-0.0480423494
 31
0.0
 40
0.2621922033
 41
-0.724042745
 42
0.0653649959
  0
ELLIPSE
  5
475
100
AcDbEntity
  8
COPY_PUBLISH
100
AcDbEllipse
 62
7
  6
CONTINUOUS
 10
147.5065667722
 20
132.9398595923
 30
0.0
 11
-0.7356038977
 21
1.2035991204
 31
0.0
 40
0.5552491559
 41
5.0439921939
 42
6.2356708126
  0
ELLIPSE
  5
476
100
AcDbEntity
  8
RACCORDO
100
AcDbEllipse
 62
7
  6
CONTINUOUS
 10
129.6664267121
 20
133.6739419411
 30
0.0
 11
0.199943508
 21
0.008945986
 31
0.0
 40
0.5313301283
 41
3.1179062684
 42
3.9032222197
  0
ELLIPSE
  5
477
100
AcDbEntity
  8
RACCORDO
100
AcDbEllipse
 62
7
  6
CONTINUOUS
 10
130.0450430264
 20
133.4846337839
 30
0.0
 11
0.199943508
 21
0.008945986
 31
0.0
 40
0.5313301283
 41
-2.3799630874
 42
-0.8178934069
  0
ELLIPSE
  5
478
100
AcDbEntity
  8
COPY_PUBLISH
100
AcDbEllipse
 62
7
  6
CONTINUOUS
 10
125.7064236445
 20
135.6915681374
 30
0.0
 11
0.249929385
 21
0.0111824824
 31
0.0
 40
0.5313301283
 41
3.1178197826
 42
3.9032222197
  0
ELLIPSE
  5
479
100
AcDbEntity
  8
RACCORDO
100
AcDbEllipse
 62
7
  6
CONTINUOUS
 10
135.6661336156
 20
130.6740884893
 30
0.0
 11
0.199943508
 21
0.008945986
 31
0.0
 40
0.5313301283
 41
-2.3799630874
 42
-0.8149845248
  0
ELLIPSE
  5
47A
100
AcDbEntity
  8
COPY_PUBLISH
100
AcDbEllipse
 62
7
  6
CONTINUOUS
 10
127.3931893687
 20
134.8481852752
 30
0.0
 11
0.249929385
 21
0.0111824824
 31
0.0
 40
0.5313301283
 41
-2.3799630874
 42
-0.8149845248
  0
ELLIPSE
  5
47B
100
AcDbEntity
  8
RACCORDO
100
AcDbEllipse
 62
7
  6
CONTINUOUS
 10
135.2875173012
 20
130.8633966465
 30
0.0
 11
0.199943508
 21
0.008945986
 31
0.0
 40
0.5313301283
 41
3.1179408412
 42
3.9032222197
  0
ELLIPSE
  5
47C
100
AcDbEntity
  8
COPY_PUBLISH
100
AcDbEllipse
 62
7
  6
CONTINUOUS
 10
138.0100816371
 20
129.539739141
 30
0.0
 11
0.249929385
 21
0.0111824824
 31
0.0
 40
0.5313301283
 41
3.1178197826
 42
3.9032222197
  0
ELLIPSE
  5
47D
100
AcDbEntity
  8
COPY_PUBLISH
100
AcDbEllipse
 62
7
  6
CONTINUOUS
 10
139.6968473613
 20
128.6963562789
 30
0.0
 11
0.249929385
 21
0.0111824824
 31
0.0
 40
0.5313301283
 41
-2.3799630874
 42
-0.8149845248
  0
ELLIPSE
  5
47E
100
AcDbEntity
  8
COPY_PUBLISH
100
AcDbEllipse
 62
7
  6
CONTINUOUS
 10
191.1075452422
 20
159.2747420912
 30
0.0
 11
60.4168605605
 21
30.5632322457
 31
0.0
 40
0.005706723
 41
2.5167363259
 42
2.6876789752
  0
ELLIPSE
  5
47F
100
AcDbEntity
  8
COPY_PUBLISH
100
AcDbEllipse
 62
7
  6
CONTINUOUS
 10
142.0045913127
 20
134.7012344269
 30
0.0
 11
0.221538876
 21
0.4482453432
 31
0.0
 40
0.6088015717
 41
0.5825560023
 42
0.6760875334
  0
ELLIPSE
  5
480
100
AcDbEntity
  8
COPY_PUBLISH
100
AcDbEllipse
 62
7
  6
CONTINUOUS
 10
191.1075452422
 20
159.2747420912
 30
0.0
 11
60.4168605605
 21
30.5632322457
 31
0.0
 40
0.005706723
 41
-2.6934527084
 42
-2.5225100591
  0
ELLIPSE
  5
481
100
AcDbEntity
  8
COPY_PUBLISH
100
AcDbEllipse
 62
7
  6
CONTINUOUS
 10
147.4150555092
 20
133.878915173
 30
0.0
 11
-0.3739417019
 21
0.598522373
 31
0.0
 40
0.554557473
 41
-3.1836090632
 42
-2.1613513004
  0
ELLIPSE
  5
482
100
AcDbEntity
  8
COPY_PUBLISH
100
AcDbEllipse
 62
7
  6
CONTINUOUS
 10
147.4150555092
 20
95.8494470195
 30
0.0
 11
0.499443764
 21
0.3120915671
 31
0.0
 40
0.0755486457
 41
5.9816987304
 42
7.0039564932
  0
ELLIPSE
  5
483
100
AcDbEntity
  8
RACCORDO
100
AcDbEllipse
 62
7
  6
CONTINUOUS
 10
137.1210528853
 20
134.9855301264
 30
0.0
 11
1.0
 21
0.0
 31
0.0
 40
0.5000380777
 41
0.7854362396
 42
2.356156414
  0
ELLIPSE
  5
484
100
AcDbEntity
  8
COPY_PUBLISH
100
AcDbEllipse
 62
7
  6
CONTINUOUS
 10
132.5230021743
 20
132.9981474594
 30
0.0
 11
0.199943508
 21
0.008945986
 31
0.0
 40
0.5313301283
 41
-2.3799630874
 42
-0.8178934069
  0
ELLIPSE
  5
485
100
AcDbEntity
  8
COPY_PUBLISH
100
AcDbEllipse
 62
7
  6
CONTINUOUS
 10
134.2237717158
 20
132.1477626886
 30
0.0
 11
0.199943508
 21
0.008945986
 31
0.0
 40
0.5313301283
 41
3.1178423524
 42
3.9032222197
  0
ELLIPSE
  5
486
100
AcDbEntity
  8
COPY_PUBLISH
100
AcDbEllipse
 62
7
  6
CONTINUOUS
 10
136.3926175166
 20
137.5072213249
 30
0.0
 11
0.2197467797
 21
0.4491356978
 31
0.0
 40
0.6167074461
 41
0.2252343201
 42
0.6735828111
  0
ELLIPSE
  5
487
100
AcDbEntity
  8
0
100
AcDbEllipse
 62
7
  6
CONTINUOUS
 10
136.12680035
 20
179.6384953909
 30
0.0
 11
-0.3192264997
 21
45.1189143812
 31
0.0
 40
0.0071249215
 41
-2.8357121276
 42
-2.7477165211
  0
ELLIPSE
  5
488
100
AcDbEntity
  8
RACCORDO
100
AcDbEllipse
 62
7
  6
CONTINUOUS
 10
147.4150555092
 20
97.0275257374
 30
0.0
 11
0.4999969381
 21
-0.0035375912
 31
0.0
 40
0.4946372042
 41
-0.7644452153
 42
0.7888978189
  0
ELLIPSE
  5
489
100
AcDbEntity
  8
RACCORDO
100
AcDbEllipse
 62
7
  6
CONTINUOUS
 10
146.490217736
 20
134.5553568184
 30
0.0
 11
1.9999527313
 21
-0.0281056996
 31
0.0
 40
0.4892375088
 41
0.2705019126
 42
0.7922733988
  0
ELLIPSE
  5
48A
100
AcDbEntity
  8
RACCORDO
100
AcDbEllipse
 62
7
  6
CONTINUOUS
 10
142.9546838301
 20
136.3231237714
 30
0.0
 11
1.9999527313
 21
-0.0281056996
 31
0.0
 40
0.4892375088
 41
0.7922733988
 42
2.3630697256
  0
ENDSEC
  0
SECTION
  2
OBJECTS
  0
DICTIONARY
  5
C
100
AcDbDictionary
280
0
281
1
  3
ACAD_GROUP
350
D
  3
ACAD_MLINESTYLE
350
17
  3
ACAD_LAYOUT
350
1A
  3
ACAD_PLOTSETTINGS
350
19
  3
ACAD_PLOTSTYLENAME
350
E
  0
DICTIONARY
  5
D
102
{ACAD_REACTORS
330
C
102
}
100
AcDbDictionary
280
0
281
1
  0
ACDBDICTIONARYWDFLT
  5
E
102
{ACAD_REACTORS
330
C
102
}
100
AcDbDictionary
281
1
  3
Normal
350
F
100
AcDbDictionaryWithDefault
340
F
  0
DICTIONARY
  5
17
102
{ACAD_REACTORS
330
C
102
}
100
AcDbDictionary
280
0
281
1
  3
Standard
350
18
  0
DICTIONARY
  5
19
102
{ACAD_REACTORS
330
C
102
}
100
AcDbDictionary
281
1
  0
DICTIONARY
  5
1A
102
{ACAD_REACTORS
330
C
102
}
100
AcDbDictionary
281
1
  3
Model
350
48B
  3
Layout1
350
48C
  0
ACDBPLACEHOLDER
  5
F
102
{ACAD_REACTORS
330
E
102
}
  0
MLINESTYLE
  5
18
102
{ACAD_REACTORS
330
17
102
}
100
AcDbMlineStyle
  2
STANDARD
 70
0
  3

 62
256
 51
90.0
 52
90.0
 71
2
 49
0.5
 62
256
  6
BYLAYER
 49
-0.5
 62
256
  6
BYLAYER
  0
LAYOUT
  5
48B
102
{ACAD_REACTORS
330
1A
102
}
100
AcDbPlotSettings
  1

  2
none_device
  4
ISO_A4_(297.00_x_210.00_MM)
  6

 40
0.0
 41
0.0
 42
0.0
 43
0.0
 44
297.0
 45
210.0
 46
0.0
 47
0.0
 48
0.0
 49
0.0
140
0.0
141
0.0
142
1.0
143
1.0
 70
1024
 72
1
 73
0
 74
0
  7

 75
0
147
1.0
148
0.0
149
0.0
100
AcDbLayout
  1
Model
 70
0
 71
0
 10
0.0
 20
0.0
 11
297.0
 21
210.0
 12
0.0
 22
0.0
 32
0.0
 14
0.0
 24
0.0
 34
0.0
 15
0.0
 25
0.0
 35
0.0
146
0.0
 13
0.0
 23
0.0
 33
0.0
 16
1.0
 26
0.0
 36
0.0
 17
0.0
 27
1.0
 37
0.0
 76
0
330
218
345
0
346
0
  0
LAYOUT
  5
48C
102
{ACAD_REACTORS
330
1A
102
}
100
AcDbPlotSettings
  1

  2
none_device
  4
ISO_A4_(297.00_x_210.00_MM)
  6

 40
0.0
 41
0.0
 42
0.0
 43
0.0
 44
297.0
 45
210.0
 46
0.0
 47
0.0
 48
0.0
 49
0.0
140
0.0
141
0.0
142
1.0
143
1.0
 70
0
 72
1
 73
0
 74
0
  7

 75
0
147
1.0
148
0.0
149
0.0
100
AcDbLayout
  1
Layout1
 70
0
 71
1
 10
0.0
 20
0.0
 11
297.0
 21
210.0
 12
0.0
 22
0.0
 32
0.0
 14
0.0
 24
0.0
 34
0.0
 15
0.0
 25
0.0
 35
0.0
146
0.0
 13
0.0
 23
0.0
 33
0.0
 16
1.0
 26
0.0
 36
0.0
 17
0.0
 27
1.0
 37
0.0
 76
0
330
219
345
0
346
0
  0
ENDSEC
  0
EOF
