  0
SECTION
  2
HEADER
  9
$ACADVER
  1
AC1021
  9
$DWGCODEPAGE
  3
ANSI_1252
  9
$EXTMAX
 10
297.0
 20
210.0
 30
0.0
  9
$EXTMIN
 10
0.0
 20
0.0
 30
0.0
  9
$LIMMIN
 10
0.0
 20
0.0
  9
$LIMMAX
 10
297.0
 20
210.0
  9
$VIEWCTR
 10
148.5
 20
105.0
  9
$VIEWSIZE
 40
210.0
  9
$CLAYER
  8
0
  9
$LTSCALE
 40
16.335
  9
$CELTYPE
  6
BYLAYER
  9
$DIMSCALE
 40
1.0
  9
$DIMASZ
 40
3.0
  9
$DIMEXO
 40
0.5
  9
$DIMDLI
 40
11.286
  9
$DIMEXE
 40
1.5
  9
$DIMCEN
 40
2.673
  9
$DIMLFAC
 40
1.0
  9
$DIMBLK
  1
_FILLED
  9
$DIMTXT
 40
3.0
  9
$DIMTOL
 70
1
  9
$DIMLIM
 70
0
  9
$DIMTFAC
 40
1.0
  9
$DIMTP
 40
0.01
  9
$DIMTM
 40
0.01
  9
$DIMGAP
 40
0.625
  9
$DIMDSEP
 70
44
  9
$PDMODE
 70
3
  9
$PDSIZE
 40
3.0
  9
$HANDSEED
  5
473
  9
$TILEMODE
 70
1
  9
$MEASUREMENT
 70
1
  9
$INSUNITS
 70
4
  0
ENDSEC
  0
SECTION
  2
CLASSES
  0
CLASS
  1
ACDBDICTIONARYWDFLT
  2
AcDbDictionaryWithDefault
  3
AutoCAD 2000
 90
0
 91
1
280
0
281
0
  0
CLASS
  1
ACDBPLACEHOLDER
  2
AcDbPlaceHolder
  3
AutoCAD 2000
 90
0
 91
1
280
0
281
0
  0
CLASS
  1
LAYOUT
  2
AcDbLayout
  3
AutoCAD 2000
 90
0
 91
0
280
0
281
0
  0
ENDSEC
  0
SECTION
  2
TABLES
  0
TABLE
  2
VPORT
  5
8
100
AcDbSymbolTable
 70
2
  0
VPORT
  5
1F4
100
AcDbSymbolTableRecord
100
AcDbViewportTableRecord
  2
*ACTIVE
 70
0
 10
0.0
 20
0.0
 11
1.0
 21
1.0
 12
148.5
 22
105.0
 13
0.0
 23
0.0
 14
1.0
 24
1.0
 15
0.0
 25
0.0
 16
0.0
 26
0.0
 36
1.0
 17
0.0
 27
0.0
 37
0.0
 40
210.0
 41
1.4142857143
 42
50.0
 43
0.0
 44
0.0
 50
0.0
 51
0.0
 71
0
 72
100
 73
1
 74
1
 75
0
 76
0
 77
0
 78
0
  0
ENDTAB
  0
TABLE
  2
LTYPE
  5
5
100
AcDbSymbolTable
 70
6
  0
LTYPE
  5
14
100
AcDbSymbolTableRecord
100
AcDbLinetypeTableRecord
  2
BYBLOCK
 70
0
  3

 72
65
 73
0
 40
0.0
  0
LTYPE
  5
15
100
AcDbSymbolTableRecord
100
AcDbLinetypeTableRecord
  2
BYLAYER
 70
0
  3

 72
65
 73
0
 40
0.0
  0
LTYPE
  5
16
100
AcDbSymbolTableRecord
100
AcDbLinetypeTableRecord
  2
CONTINUOUS
 70
64
  3
Solid line
 72
65
 73
0
 40
0.0
  0
LTYPE
  5
1F5
100
AcDbSymbolTableRecord
100
AcDbLinetypeTableRecord
  2
CENTER
 70
64
  3
____ _ ____ _ ____ _ ____ _ ____ _ ____ _ ____
 72
65
 73
4
 40
0.6
 49
0.375
 74
0
 49
-0.075
 74
0
 49
0.075
 74
0
 49
-0.075
 74
0
  0
LTYPE
  5
1F6
100
AcDbSymbolTableRecord
100
AcDbLinetypeTableRecord
  2
HIDDEN
 70
64
  3
- - - - - - - - - - - - - - - - - - - -
 72
65
 73
2
 40
0.2
 49
0.1
 74
0
 49
-0.1
 74
0
  0
LTYPE
  5
1F7
100
AcDbSymbolTableRecord
100
AcDbLinetypeTableRecord
  2
PHANTOM
 70
64
  3
_____ _ _ _____ _ _ _____ _ _ _____
 72
65
 73
6
 40
0.8
 49
0.45
 74
0
 49
-0.05
 74
0
 49
0.1
 74
0
 49
-0.05
 74
0
 49
0.1
 74
0
 49
-0.05
 74
0
  0
LTYPE
  5
1F8
100
AcDbSymbolTableRecord
100
AcDbLinetypeTableRecord
  2
DOT
 70
64
  3
. . . . . . . . . . . . . . . . . . . .
 72
65
 73
2
 40
0.2
 49
0.1
 74
0
 49
-0.1
 74
0
  0
LTYPE
  5
1F9
100
AcDbSymbolTableRecord
100
AcDbLinetypeTableRecord
  2
DASHED
 70
64
  3
- - - - - - - - - - - - - - - - - - - -
 72
65
 73
2
 40
0.2
 49
0.1
 74
0
 49
-0.1
 74
0
  0
ENDTAB
  0
TABLE
  2
LAYER
  5
2
100
AcDbSymbolTable
 70
36
  0
LAYER
  5
10
100
AcDbSymbolTableRecord
100
AcDbLayerTableRecord
  2
0
 70
0
 62
7
  6
CONTINUOUS
370
-3
390
F
  0
LAYER
  5
1FA
100
AcDbSymbolTableRecord
100
AcDbLayerTableRecord
  2
DEFAULT_1
 70
0
 62
7
  6
CENTER
370
-3
390
F
  0
LAYER
  5
1FB
100
AcDbSymbolTableRecord
100
AcDbLayerTableRecord
  2
DEFAULT_2
 70
0
 62
7
  6
HIDDEN
370
-3
390
F
  0
LAYER
  5
1FC
100
AcDbSymbolTableRecord
100
AcDbLayerTableRecord
  2
DEFAULT_3
 70
0
 62
7
  6
PHANTOM
370
-3
390
F
  0
LAYER
  5
1FD
100
AcDbSymbolTableRecord
100
AcDbLayerTableRecord
  2
ASSI
 70
0
 62
7
  6
CONTINUOUS
370
-3
390
F
  0
LAYER
  5
1FE
100
AcDbSymbolTableRecord
100
AcDbLayerTableRecord
  2
COORDINATE
 70
0
 62
7
  6
CONTINUOUS
370
-3
390
F
  0
LAYER
  5
1FF
100
AcDbSymbolTableRecord
100
AcDbLayerTableRecord
  2
COORD_ORIGINE
 70
0
 62
7
  6
CONTINUOUS
370
-3
390
F
  0
LAYER
  5
200
100
AcDbSymbolTableRecord
100
AcDbLayerTableRecord
  2
COPY_PUBLISH
 70
0
 62
7
  6
CONTINUOUS
370
-3
390
F
  0
LAYER
  5
201
100
AcDbSymbolTableRecord
100
AcDbLayerTableRecord
  2
CORPO
 70
0
 62
7
  6
CONTINUOUS
370
-3
390
F
  0
LAYER
  5
202
100
AcDbSymbolTableRecord
100
AcDbLayerTableRecord
  2
COSMETICHE
 70
0
 62
7
  6
CONTINUOUS
370
-3
390
F
  0
LAYER
  5
203
100
AcDbSymbolTableRecord
100
AcDbLayerTableRecord
  2
COSMETICI
 70
0
 62
7
  6
CONTINUOUS
370
-3
390
F
  0
LAYER
  5
204
100
AcDbSymbolTableRecord
100
AcDbLayerTableRecord
  2
CURVE
 70
0
 62
7
  6
CONTINUOUS
370
-3
390
F
  0
LAYER
  5
205
100
AcDbSymbolTableRecord
100
AcDbLayerTableRecord
  2
DRAFT
 70
0
 62
7
  6
CONTINUOUS
370
-3
390
F
  0
LAYER
  5
206
100
AcDbSymbolTableRecord
100
AcDbLayerTableRecord
  2
IGES
 70
0
 62
7
  6
CONTINUOUS
370
-3
390
F
  0
LAYER
  5
207
100
AcDbSymbolTableRecord
100
AcDbLayerTableRecord
  2
IMPORT_IGES
 70
0
 62
7
  6
CONTINUOUS
370
-3
390
F
  0
LAYER
  5
208
100
AcDbSymbolTableRecord
100
AcDbLayerTableRecord
  2
INTF_1
 70
0
 62
7
  6
CONTINUOUS
370
-3
390
F
  0
LAYER
  5
209
100
AcDbSymbolTableRecord
100
AcDbLayerTableRecord
  2
NOTE
 70
0
 62
7
  6
CONTINUOUS
370
-3
390
F
  0
LAYER
  5
20A
100
AcDbSymbolTableRecord
100
AcDbLayerTableRecord
  2
PIANI
 70
0
 62
7
  6
CONTINUOUS
370
-3
390
F
  0
LAYER
  5
20B
100
AcDbSymbolTableRecord
100
AcDbLayerTableRecord
  2
PIANI_ORIGINE
 70
0
 62
7
  6
CONTINUOUS
370
-3
390
F
  0
LAYER
  5
20C
100
AcDbSymbolTableRecord
100
AcDbLayerTableRecord
  2
PUNTI
 70
0
 62
7
  6
CONTINUOUS
370
-3
390
F
  0
LAYER
  5
20D
100
AcDbSymbolTableRecord
100
AcDbLayerTableRecord
  2
RACCORDO
 70
0
 62
7
  6
CONTINUOUS
370
-3
390
F
  0
LAYER
  5
20E
100
AcDbSymbolTableRecord
100
AcDbLayerTableRecord
  2
RGB____0____0____0__
 70
0
 62
7
  6
CONTINUOUS
370
-3
390
F
  0
LAYER
  5
20F
100
AcDbSymbolTableRecord
100
AcDbLayerTableRecord
  2
SCRITTE
 70
0
 62
7
  6
CONTINUOUS
370
-3
390
F
  0
LAYER
  5
210
100
AcDbSymbolTableRecord
100
AcDbLayerTableRecord
  2
SIMBOLI
 70
0
 62
7
  6
CONTINUOUS
370
-3
390
F
  0
LAYER
  5
211
100
AcDbSymbolTableRecord
100
AcDbLayerTableRecord
  2
SMUSSO
 70
0
 62
7
  6
CONTINUOUS
370
-3
390
F
  0
LAYER
  5
212
100
AcDbSymbolTableRecord
100
AcDbLayerTableRecord
  2
SNAPLINE
 70
0
 62
7
  6
CONTINUOUS
370
-3
390
F
  0
LAYER
  5
213
100
AcDbSymbolTableRecord
100
AcDbLayerTableRecord
  2
SUPERFICI
 70
0
 62
7
  6
CONTINUOUS
370
-3
390
F
  0
LAYER
  5
214
100
AcDbSymbolTableRecord
100
AcDbLayerTableRecord
  2
TRASH
 70
0
 62
7
  6
CONTINUOUS
370
-3
390
F
  0
LAYER
  5
215
100
AcDbSymbolTableRecord
100
AcDbLayerTableRecord
  2
VARIANTE_COLORE
 70
0
 62
7
  6
CONTINUOUS
370
-3
390
F
  0
ENDTAB
  0
TABLE
  2
STYLE
  5
3
100
AcDbSymbolTable
 70
1
  0
STYLE
  5
11
100
AcDbSymbolTableRecord
100
AcDbTextStyleTableRecord
  2
STANDARD
 70
0
 40
0.0
 41
0.8
 50
0.0
 71
0
 42
0.2
  3
txt
  4

  0
STYLE
  5
216
100
AcDbSymbolTableRecord
100
AcDbTextStyleTableRecord
  2
TEXTSTYLE_1
 70
0
 40
0.0
 41
0.8
 50
0.0
 71
0
 42
0.2
  3
gdt
  4

  0
ENDTAB
  0
TABLE
  2
VIEW
  5
6
100
AcDbSymbolTable
 70
0
  0
ENDTAB
  0
TABLE
  2
UCS
  5
7
100
AcDbSymbolTable
 70
0
  0
ENDTAB
  0
TABLE
  2
APPID
  5
9
100
AcDbSymbolTable
 70
1
  0
APPID
  5
217
100
AcDbSymbolTableRecord
100
AcDbRegAppTableRecord
  2
ACAD
 70
0
  0
ENDTAB
  0
TABLE
  2
BLOCK_RECORD
  5
1
100
AcDbSymbolTable
 70
0
  0
BLOCK_RECORD
  5
218
100
AcDbSymbolTableRecord
100
AcDbBlockTableRecord
  2
*Model_Space
  0
BLOCK_RECORD
  5
219
100
AcDbSymbolTableRecord
100
AcDbBlockTableRecord
  2
*Paper_Space
  0
ENDTAB
  0
TABLE
  2
DIMSTYLE
  5
A
100
AcDbSymbolTable
 70
1
100
AcDbDimStyleTable
 71
0
  0
DIMSTYLE
105
21A
100
AcDbSymbolTableRecord
100
AcDbDimStyleTableRecord
  2
STANDARD
 70
0
  3

  4

 40
1.0
 41
3.0
 42
0.5
 43
0.38
 44
1.5
 45
0.0
 46
0.0
 47
0.01
 48
0.01
140
3.0
141
0.09
142
0.0
143
25.4
144
1.0
145
0.0
146
1.0
147
0.625
 71
1.0
 72
0.0
 73
0
 74
0
 75
0
 76
0
 77
1
 78
8
170
0
171
2
172
0
173
0
174
0
175
0
176
0
177
0
178
0
270
2
271
2
272
2
273
2
274
2
275
0
280
0
281
0
282
0
283
1
284
8
285
0
286
0
287
3
288
0
340
11
278
44
  0
ENDTAB
  0
ENDSEC
  0
SECTION
  2
BLOCKS
  0
BLOCK
  5
20
100
AcDbEntity
  8
0
100
AcDbBlockBegin
  2
*Model_Space
 70
0
 10
0.0
 20
0.0
 30
0.0
  3
*Model_Space
  1

  0
ENDBLK
  5
21
100
AcDbEntity
  8
0
100
AcDbBlockEnd
  0
BLOCK
  5
1C
100
AcDbEntity
  8
0
100
AcDbBlockBegin
  2
*Paper_Space
 70
0
 10
0.0
 20
0.0
 30
0.0
  3
*Paper_Space
  1

  0
ENDBLK
  5
1D
100
AcDbEntity
  8
0
100
AcDbBlockEnd
  0
ENDSEC
  0
SECTION
  2
ENTITIES
  0
LWPOLYLINE
  5
21B
100
AcDbEntity
  8
COPY_PUBLISH
100
AcDbPolyline
 62
7
  6
CONTINUOUS
 90
14
 70
0
 10
125.1543766029
 20
129.5027073621
 10
125.0831060629
 20
129.4567978357
 10
125.0186216765
 20
129.4071752184
 10
124.9572303757
 20
129.3518733659
 10
124.8991936291
 20
129.2912430112
 10
124.8451532782
 20
129.226115674
 10
124.7951535522
 20
129.1567017611
 10
124.7493602971
 20
129.0832404722
 10
124.708476539
 20
129.0069044293
 10
124.6726072427
 20
128.9279676926
 10
124.6419248696
 20
128.8466696637
 10
124.6169552979
 20
128.7642689655
 10
124.5978701862
 20
128.6813200428
 10
124.5839422406
 20
128.5908058748
  0
LINE
  5
21C
100
AcDbEntity
  8
COPY_PUBLISH
100
AcDbLine
 62
7
  6
CONTINUOUS
 10
125.1542087318
 20
129.5026097203
 11
129.1860339789
 21
131.8535331262
  0
LINE
  5
21D
100
AcDbEntity
  8
COPY_PUBLISH
100
AcDbLine
 62
253
  6
CONTINUOUS
 10
125.3875627794
 20
129.4938423271
 11
129.2937447164
 21
131.7715041752
  0
LWPOLYLINE
  5
21E
100
AcDbEntity
  8
COPY_PUBLISH
100
AcDbPolyline
 62
7
  6
CONTINUOUS
 90
12
 70
0
 10
128.7267180006
 20
132.8681342776
 10
128.7058312018
 20
132.8561238662
 10
128.6848660773
 20
132.8411039755
 10
128.6655212627
 20
132.8239661499
 10
128.6479837657
 20
132.8048436615
 10
128.632459278
 20
132.7839109274
 10
128.6191525266
 20
132.761388159
 10
128.6082332702
 20
132.7374997438
 10
128.599849349
 20
132.7124850081
 10
128.5941315036
 20
132.6866254948
 10
128.5911772724
 20
132.6602365862
 10
128.5907517793
 20
132.6457030832
  0
LWPOLYLINE
  5
21F
100
AcDbEntity
  8
COPY_PUBLISH
100
AcDbPolyline
 62
253
  6
CONTINUOUS
 90
19
 70
0
 10
125.154376551
 20
129.5027074513
 10
125.1643786962
 20
129.5081045181
 10
125.1753185461
 20
129.5131118511
 10
125.1866322347
 20
129.517402384
 10
125.1983014325
 20
129.5209691654
 10
125.210307234
 20
129.5238064168
 10
125.2226301883
 20
129.5259095415
 10
125.2352503309
 20
129.5272751322
 10
125.2481472155
 20
129.5279009765
 10
125.2612999478
 20
129.5277860604
 10
125.2746872187
 20
129.5269305701
 10
125.2882873394
 20
129.5253358916
 10
125.3020782759
 20
129.5230046085
 10
125.3160376853
 20
129.5199404977
 10
125.3301429518
 20
129.5161485235
 10
125.3443712232
 20
129.5116348293
 10
125.3586994479
 20
129.5064067278
 10
125.3731044125
 20
129.5004726891
 10
125.3875627794
 20
129.4938423271
  0
LINE
  5
220
100
AcDbEntity
  8
COPY_PUBLISH
100
AcDbLine
 62
7
  6
CONTINUOUS
 10
128.7266376566
 20
132.8680931084
 11
130.3098093516
 21
133.6802901557
  0
LINE
  5
221
100
AcDbEntity
  8
COPY_PUBLISH
100
AcDbLine
 62
253
  6
CONTINUOUS
 10
128.8397233228
 20
132.8616451332
 11
130.4224799259
 21
133.6736292306
  0
LINE
  5
222
100
AcDbEntity
  8
COPY_PUBLISH
100
AcDbLine
 62
253
  6
CONTINUOUS
 10
128.7266376669
 20
132.8680931136
 11
128.7267180006
 21
132.8681342776
  0
LINE
  5
223
100
AcDbEntity
  8
COPY_PUBLISH
100
AcDbLine
 62
253
  6
CONTINUOUS
 10
130.5182613932
 20
132.022376098
 11
132.119542184
 21
132.8250981015
  0
LINE
  5
224
100
AcDbEntity
  8
COPY_PUBLISH
100
AcDbLine
 62
7
  6
CONTINUOUS
 10
130.3098113213
 20
133.6802911662
 11
130.3115477387
 21
133.6811593892
  0
LINE
  5
225
100
AcDbEntity
  8
COPY_PUBLISH
100
AcDbLine
 62
253
  6
CONTINUOUS
 10
132.119542184
 20
132.8250981015
 11
132.6478093557
 21
133.0885369216
  0
LINE
  5
226
100
AcDbEntity
  8
COPY_PUBLISH
100
AcDbLine
 62
7
  6
CONTINUOUS
 10
130.3115505027
 20
133.6811607356
 11
130.8464176935
 21
133.9417114882
  0
LWPOLYLINE
  5
227
100
AcDbEntity
  8
COPY_PUBLISH
100
AcDbPolyline
 62
253
  6
CONTINUOUS
 90
16
 70
0
 10
128.7267180006
 20
132.8681342776
 10
128.7300526106
 20
132.8697587116
 10
128.7367992627
 20
132.872570227
 10
128.7437814654
 20
132.8748676186
 10
128.7509834687
 20
132.8766456908
 10
128.7583888921
 20
132.8779003866
 10
128.7659807934
 20
132.8786288487
 10
128.7737418568
 20
132.8788294566
 10
128.78165459
 20
132.8785017985
 10
128.7897012099
 20
132.8776466252
 10
128.7978647128
 20
132.8762656287
 10
128.8061254071
 20
132.8743620268
 10
128.8144609797
 20
132.871941283
 10
128.8228512633
 20
132.8690099974
 10
128.8312784053
 20
132.8655751452
 10
128.8397233228
 20
132.8616451332
  0
LINE
  5
228
100
AcDbEntity
  8
COPY_PUBLISH
100
AcDbLine
 62
253
  6
CONTINUOUS
 10
130.4224799259
 20
133.6736292306
 11
130.9569298046
 21
133.9339766971
  0
LWPOLYLINE
  5
229
100
AcDbEntity
  8
COPY_PUBLISH
100
AcDbPolyline
 62
7
  6
CONTINUOUS
 90
16
 70
0
 10
130.3115477387
 20
133.6811593892
 10
130.3132053649
 20
133.6819468967
 10
130.3199408538
 20
133.6847544346
 10
130.326908593
 20
133.6870462962
 10
130.3340928501
 20
133.688817316
 10
130.3414773657
 20
133.6900634911
 10
130.3490453201
 20
133.6907819563
 10
130.3567796416
 20
133.6909711214
 10
130.3646628475
 20
133.6906305781
 10
130.372676947
 20
133.6897610365
 10
130.3808038774
 20
133.6883645135
 10
130.3890252884
 20
133.6864442036
 10
130.3973223852
 20
133.6840043769
 10
130.4056763785
 20
133.681050566
 10
130.4140685276
 20
133.677589553
 10
130.4224799259
 20
133.6736292306
  0
LWPOLYLINE
  5
22A
100
AcDbEntity
  8
COPY_PUBLISH
100
AcDbPolyline
 62
253
  6
CONTINUOUS
 90
16
 70
0
 10
130.8464177047
 20
133.9417114936
 10
130.8480904169
 20
133.9425059377
 10
130.8548173472
 20
133.9453075922
 10
130.8617733288
 20
133.9475918733
 10
130.8689426707
 20
133.9493536148
 10
130.8763090664
 20
133.9505887968
 10
130.8838556634
 20
133.9512946067
 10
130.8915652495
 20
133.9514694759
 10
130.8994204487
 20
133.9511130508
 10
130.9074036074
 20
133.9502261469
 10
130.915497855
 20
133.9488105228
 10
130.9236836657
 20
133.9468694791
 10
130.9319389319
 20
133.9444085821
 10
130.9402436876
 20
133.9414345326
 10
130.9485802691
 20
133.9379544001
 10
130.9569298046
 20
133.9339766971
  0
LWPOLYLINE
  5
22B
100
AcDbEntity
  8
COPY_PUBLISH
100
AcDbPolyline
 62
7
  6
CONTINUOUS
 90
3
 70
0
 10
130.8840571205
 20
133.9564141796
 10
130.8541708925
 20
133.9453253977
 10
130.8462535537
 20
133.9416313321
  0
LINE
  5
22C
100
AcDbEntity
  8
COPY_PUBLISH
100
AcDbLine
 62
253
  6
CONTINUOUS
 10
145.1282410521
 20
84.9846827303
 11
144.5999738803
 21
85.0931850074
  0
LWPOLYLINE
  5
22D
100
AcDbEntity
  8
COPY_PUBLISH
100
AcDbPolyline
 62
7
  6
CONTINUOUS
 90
16
 70
0
 10
143.7099136976
 20
84.7775759665
 10
143.7041750143
 20
84.7787936558
 10
143.6982492947
 20
84.7801117302
 10
143.6921378131
 20
84.7815263062
 10
143.6858392367
 20
84.783029571
 10
143.6793581815
 20
84.7846210161
 10
143.6727051539
 20
84.7863074656
 10
143.6658822692
 20
84.7880841354
 10
143.6588920669
 20
84.7899464504
 10
143.6517459503
 20
84.7919013232
 10
143.6444467659
 20
84.7939434701
 10
143.6369977482
 20
84.7960677885
 10
143.6294111397
 20
84.7982812405
 10
143.6216905443
 20
84.8005780496
 10
143.6138399088
 20
84.8029525971
 10
143.6058722489
 20
84.8054118551
  0
LWPOLYLINE
  5
22E
100
AcDbEntity
  8
COPY_PUBLISH
100
AcDbPolyline
 62
7
  6
CONTINUOUS
 90
3
 70
0
 10
143.6058722489
 20
84.8054118551
 10
143.5896036377
 20
84.8105596173
 10
143.5813211836
 20
84.8132489049
  0
LWPOLYLINE
  5
22F
100
AcDbEntity
  8
COPY_PUBLISH
100
AcDbPolyline
 62
7
  6
CONTINUOUS
 90
3
 70
0
 10
143.5813211836
 20
84.8132489049
 10
143.5644946824
 20
84.8188384362
 10
143.5559706957
 20
84.8217388214
  0
LWPOLYLINE
  5
230
100
AcDbEntity
  8
COPY_PUBLISH
100
AcDbPolyline
 62
253
  6
CONTINUOUS
 90
34
 70
0
 10
142.6461711298
 20
83.5866182791
 10
142.6547513327
 20
83.5825269804
 10
142.6637098561
 20
83.5786436811
 10
142.6730265518
 20
83.5749771163
 10
142.6826804727
 20
83.5715355319
 10
142.6926499004
 20
83.5683266722
 10
142.7029123931
 20
83.565357761
 10
142.713444862
 20
83.5626354771
 10
142.7242236225
 20
83.5601659417
 10
142.7352244269
 20
83.5579547094
 10
142.7464225335
 20
83.5560067531
 10
142.7577927532
 20
83.5543264538
 10
142.7693095028
 20
83.5529175912
 10
142.7809468761
 20
83.5517833332
 10
142.7926787
 20
83.5509262294
 10
142.8044785831
 20
83.5503482064
 10
142.8163199913
 20
83.5500505627
 10
142.8281762849
 20
83.5500339665
 10
142.8400207754
 20
83.550298453
 10
142.8518267901
 20
83.5508434223
 10
142.8635678096
 20
83.5516676458
 10
142.8752175037
 20
83.5527692749
 10
142.8867497775
 20
83.5541458485
 10
142.8981385822
 20
83.5557942637
 10
142.9093580609
 20
83.5577107709
 10
142.9203828434
 20
83.559891014
 10
142.931188299
 20
83.5623300988
 10
142.9417503368
 20
83.5650225788
 10
142.9520467307
 20
83.5679628593
 10
142.9620527115
 20
83.5711439402
 10
142.9717416522
 20
83.5745571407
 10
142.9810908725
 20
83.5781939512
 10
142.9900812491
 20
83.5820463952
 10
142.9986930895
 20
83.5861055552
  0
LWPOLYLINE
  5
231
100
AcDbEntity
  8
COPY_PUBLISH
100
AcDbPolyline
 62
253
  6
CONTINUOUS
 90
34
 70
0
 10
142.6461711298
 20
83.9265922132
 10
142.6547477826
 20
83.9225025288
 10
142.6637030905
 20
83.9186204103
 10
142.6730170028
 20
83.9149546286
 10
142.6826688868
 20
83.9115133928
 10
142.6926368947
 20
83.9083045779
 10
142.7028979396
 20
83.9053356511
 10
142.713428688
 20
83.9026133519
 10
142.7242057059
 20
83.9001437268
 10
142.7352047839
 20
83.8979323243
 10
142.7464012094
 20
83.895984116
 10
142.757769788
 20
83.8943034882
 10
142.7692849239
 20
83.8928942256
 10
142.7809207096
 20
83.8917594978
 10
142.7926509929
 20
83.890901854
 10
142.804449403
 20
83.8903232222
 10
142.8162894108
 20
83.8900249032
 10
142.8281443904
 20
83.8900075681
 10
142.8399876859
 20
83.8902712557
 10
142.8517926662
 20
83.8908153734
 10
142.8635327852
 20
83.8916386975
 10
142.8751816433
 20
83.8927393769
 10
142.8867130445
 20
83.8941149363
 10
142.8981010601
 20
83.8957622828
 10
142.9093200868
 20
83.8976777131
 10
142.9203449065
 20
83.8998569224
 10
142.9311507173
 20
83.9022950093
 10
142.9417131952
 20
83.904986485
 10
142.9520085759
 20
83.9079252917
 10
142.9620137251
 20
83.9111048233
 10
142.9717061636
 20
83.9145179351
 10
142.9810641021
 20
83.9181569546
 10
142.9900664918
 20
83.9220136968
 10
142.9986930895
 20
83.9260794894
  0
LWPOLYLINE
  5
232
100
AcDbEntity
  8
COPY_PUBLISH
100
AcDbPolyline
 62
7
  6
CONTINUOUS
 90
12
 70
0
 10
139.8751270924
 20
83.8244370092
 10
139.8913621378
 20
83.8165646925
 10
139.9465384743
 20
83.79353065
 10
140.0040269703
 20
83.7751616083
 10
140.0633402233
 20
83.7617115111
 10
140.1241611724
 20
83.7533267818
 10
140.1864017111
 20
83.7501296032
 10
140.2496964122
 20
83.7522754023
 10
140.3136050668
 20
83.7598704454
 10
140.3780245331
 20
83.7730400882
 10
140.4427219811
 20
83.791920432
 10
140.5011709934
 20
83.8139893798
  0
LINE
  5
233
100
AcDbEntity
  8
COPY_PUBLISH
100
AcDbLine
 62
7
  6
CONTINUOUS
 10
139.8756536077
 20
83.8241729566
 11
124.9809317318
 21
91.2715338946
  0
LINE
  5
234
100
AcDbEntity
  8
COPY_PUBLISH
100
AcDbLine
 62
253
  6
CONTINUOUS
 10
139.6214625313
 20
84.2409607759
 11
124.7311484124
 21
91.6861178354
  0
LINE
  5
235
100
AcDbEntity
  8
COPY_PUBLISH
100
AcDbLine
 62
7
  6
CONTINUOUS
 10
141.3083359705
 20
84.1528040569
 11
142.7111444263
 21
83.451399829
  0
LINE
  5
236
100
AcDbEntity
  8
COPY_PUBLISH
100
AcDbLine
 62
253
  6
CONTINUOUS
 10
141.4200301853
 20
84.1996887514
 11
142.6461711298
 21
83.5866182791
  0
LINE
  5
237
100
AcDbEntity
  8
COPY_PUBLISH
100
AcDbLine
 62
253
  6
CONTINUOUS
 10
142.6461711298
 20
83.9265922132
 11
141.7896637449
 21
84.3548459057
  0
LINE
  5
238
100
AcDbEntity
  8
COPY_PUBLISH
100
AcDbLine
 62
253
  6
CONTINUOUS
 10
142.7109845683
 20
83.4514799486
 11
142.7111444375
 21
83.4513998234
  0
LINE
  5
239
100
AcDbEntity
  8
COPY_PUBLISH
100
AcDbLine
 62
253
  6
CONTINUOUS
 10
124.980936328
 20
91.2715315965
 11
124.9704661151
 21
91.2769779545
  0
LWPOLYLINE
  5
23A
100
AcDbEntity
  8
COPY_PUBLISH
100
AcDbPolyline
 62
253
  6
CONTINUOUS
 90
23
 70
0
 10
124.9704661151
 20
91.2769779545
 10
124.9533000319
 20
91.2868626991
 10
124.9366341023
 20
91.2976830916
 10
124.9204861917
 20
91.3094275521
 10
124.90487313
 20
91.3220837677
 10
124.8898116095
 20
91.3356382481
 10
124.8753178
 20
91.3500765043
 10
124.8614068579
 20
91.3653832959
 10
124.8480936809
 20
91.3815422811
 10
124.835392524
 20
91.3985362405
 10
124.8233166171
 20
91.4163472612
 10
124.8118788838
 20
91.4349563624
 10
124.8010915824
 20
91.4543437285
 10
124.790965929
 20
91.4744889407
 10
124.7815127175
 20
91.495370662
 10
124.7727421415
 20
91.516966583
 10
124.7646634251
 20
91.5392536469
 10
124.7572852423
 20
91.5622079592
 10
124.7506154345
 20
91.5858052586
 10
124.7446608642
 20
91.6100208895
 10
124.7394278398
 20
91.6348292738
 10
124.7349220751
 20
91.6602039078
 10
124.7311484124
 20
91.6861178354
  0
LWPOLYLINE
  5
23B
100
AcDbEntity
  8
COPY_PUBLISH
100
AcDbPolyline
 62
7
  6
CONTINUOUS
 90
9
 70
0
 10
124.6594377886
 20
91.6038435735
 10
124.6891114391
 20
91.5477342717
 10
124.7227121135
 20
91.4953120589
 10
124.7599622641
 20
91.4467535645
 10
124.8008368449
 20
91.4019520575
 10
124.8450009224
 20
91.3612027528
 10
124.8921182741
 20
91.3247275158
 10
124.9422239958
 20
91.2924776596
 10
124.9813160274
 20
91.2713423079
  0
LINE
  5
23C
100
AcDbEntity
  8
COPY_PUBLISH
100
AcDbLine
 62
253
  6
CONTINUOUS
 10
132.2963158877
 20
131.7931637102
 11
132.8245830594
 21
132.436115866
  0
LINE
  5
23D
100
AcDbEntity
  8
COPY_PUBLISH
100
AcDbLine
 62
7
  6
CONTINUOUS
 10
132.2963158877
 20
131.7036332439
 11
132.8399436318
 21
132.3652806994
  0
LWPOLYLINE
  5
23E
100
AcDbEntity
  8
COPY_PUBLISH
100
AcDbPolyline
 62
7
  6
CONTINUOUS
 90
41
 70
0
 10
131.406255705
 20
131.2290091022
 10
131.4005170217
 20
131.2222963297
 10
131.394591302
 20
131.215655098
 10
131.3884798204
 20
131.2090938416
 10
131.3821812441
 20
131.2026219288
 10
131.3757001888
 20
131.1962470032
 10
131.3690471612
 20
131.18997502
 10
131.3622242766
 20
131.1838147021
 10
131.3552340743
 20
131.177774609
 10
131.3480879576
 20
131.1718605783
 10
131.3407887733
 20
131.1660814111
 10
131.3333397555
 20
131.160445724
 10
131.325753147
 20
131.1549592065
 10
131.3180325516
 20
131.149630673
 10
131.3101819161
 20
131.1444687274
 10
131.3022142563
 20
131.1394788789
 10
131.2941339319
 20
131.134669872
 10
131.285945645
 20
131.1300502441
 10
131.2776631909
 20
131.1256253374
 10
131.2692917129
 20
131.1214037516
 10
131.2608366898
 20
131.117393876
 10
131.252312703
 20
131.1136008821
 10
131.243725703
 20
131.1100331341
 10
131.2350819735
 20
131.106698783
 10
131.2263969053
 20
131.1036028133
 10
131.2176772829
 20
131.1007532477
 10
131.2089302186
 20
131.0981578884
 10
131.2001719368
 20
131.0958214901
 10
131.1914100855
 20
131.0937516068
 10
131.1826526185
 20
131.0919555555
 10
131.1739165959
 20
131.0904377777
 10
131.1652105572
 20
131.0892052054
 10
131.1565432922
 20
131.0882645048
 10
131.1479326424
 20
131.0876196689
 10
131.1393880884
 20
131.087276827
 10
131.1309191935
 20
131.0872417953
 10
131.1225443481
 20
131.0875179377
 10
131.1142739447
 20
131.0881103765
 10
131.1061182888
 20
131.0890238774
 10
131.0980960681
 20
131.0902609871
 10
131.0924285325
 20
131.0913502191
  0
LWPOLYLINE
  5
23F
100
AcDbEntity
  8
RACCORDO
100
AcDbPolyline
 62
7
  6
CONTINUOUS
 90
9
 70
0
 10
133.3615060696
 20
130.8444861225
 10
133.3465965483
 20
130.8343752824
 10
133.3341322059
 20
130.8223738056
 10
133.3240333908
 20
130.8086656386
 10
133.3162086184
 20
130.7932630516
 10
133.3104541875
 20
130.7764617212
 10
133.3065453273
 20
130.7588276312
 10
133.3043559587
 20
130.7405142468
 10
133.3037483454
 20
130.7229231851
  0
LINE
  5
240
100
AcDbEntity
  8
COPY_PUBLISH
100
AcDbLine
 62
7
  6
CONTINUOUS
 10
132.2963158877
 20
130.9180579017
 11
131.406255705
 21
130.4213769805
  0
LINE
  5
241
100
AcDbEntity
  8
RACCORDO
100
AcDbLine
 62
7
  6
CONTINUOUS
 10
134.276214875
 20
131.3137490541
 11
133.3615060696
 21
130.8444861225
  0
LINE
  5
242
100
AcDbEntity
  8
COPY_PUBLISH
100
AcDbLine
 62
253
  6
CONTINUOUS
 10
130.6950350969
 20
131.7174865592
 11
132.2963158877
 21
132.5202085627
  0
LINE
  5
243
100
AcDbEntity
  8
COPY_PUBLISH
100
AcDbLine
 62
253
  6
CONTINUOUS
 10
132.2963158877
 20
132.5202085627
 11
132.8245830594
 21
132.7836473827
  0
LINE
  5
244
100
AcDbEntity
  8
COPY_PUBLISH
100
AcDbLine
 62
7
  6
CONTINUOUS
 10
139.612438281
 20
133.9131925196
 11
134.276214875
 21
131.3137490541
  0
LINE
  5
245
100
AcDbEntity
  8
COPY_PUBLISH
100
AcDbLine
 62
7
  6
CONTINUOUS
 10
140.4765075684
 20
134.9058330236
 11
132.999308842
 21
131.2686298174
  0
LWPOLYLINE
  5
246
100
AcDbEntity
  8
RACCORDO
100
AcDbPolyline
 62
253
  6
CONTINUOUS
 90
11
 70
0
 10
151.2912290858
 20
138.0775571455
 10
151.4227689612
 20
138.12722153
 10
151.5601666642
 20
138.163134422
 10
151.7028307753
 20
138.1851399367
 10
151.8501370776
 20
138.1931413975
 10
152.001447493
 20
138.1871091007
 10
152.1561246483
 20
138.1670727011
 10
152.3135206529
 20
138.1331120963
 10
152.472969454
 20
138.0853672858
 10
152.6337884325
 20
138.0240437858
 10
152.7952929795
 20
137.9494029731
  0
LINE
  5
247
100
AcDbEntity
  8
COPY_PUBLISH
100
AcDbLine
 62
7
  6
CONTINUOUS
 10
139.6456409786
 20
133.9274739244
 11
139.6564899516
 21
133.9311743432
  0
LINE
  5
248
100
AcDbEntity
  8
COPY_PUBLISH
100
AcDbLine
 62
253
  6
CONTINUOUS
 10
145.0388272567
 20
85.3042495363
 11
144.5999738803
 21
85.394386863
  0
LWPOLYLINE
  5
249
100
AcDbEntity
  8
COPY_PUBLISH
100
AcDbPolyline
 62
7
  6
CONTINUOUS
 90
3
 70
0
 10
143.5559706957
 20
84.8217388214
 10
143.5387399662
 20
84.8277290239
 10
143.5300548979
 20
84.830818243
  0
LWPOLYLINE
  5
24A
100
AcDbEntity
  8
COPY_PUBLISH
100
AcDbPolyline
 62
7
  6
CONTINUOUS
 90
3
 70
0
 10
143.5300548979
 20
84.830818243
 10
143.5125882113
 20
84.8371611608
 10
143.5038299295
 20
84.8404133991
  0
LWPOLYLINE
  5
24B
100
AcDbEntity
  8
COPY_PUBLISH
100
AcDbPolyline
 62
7
  6
CONTINUOUS
 90
17
 70
0
 10
143.5038299295
 20
84.8404133991
 10
143.4863106112
 20
84.8470537507
 10
143.4775745885
 20
84.8504393999
 10
143.4688685499
 20
84.8538623556
 10
143.4602012849
 20
84.8573140931
 10
143.451590635
 20
84.8607995211
 10
143.443046081
 20
84.864310187
 10
143.4345771862
 20
84.8678372127
 10
143.4262023407
 20
84.8713846341
 10
143.4179319374
 20
84.8749438698
 10
143.4097762814
 20
84.8785057692
 10
143.4017540608
 20
84.8820733209
 10
143.3938868467
 20
84.885631765
 10
143.386175074
 20
84.8891784761
 10
143.3786071819
 20
84.8927321949
 10
143.3711886466
 20
84.8962904352
 10
143.3639407665
 20
84.8998321776
  0
LWPOLYLINE
  5
24C
100
AcDbEntity
  8
COPY_PUBLISH
100
AcDbPolyline
 62
253
  6
CONTINUOUS
 90
5
 70
0
 10
145.0621303778
 20
85.2962180319
 10
145.0580366756
 20
85.2981363198
 10
145.0518199107
 20
85.3006094412
 10
145.0454126482
 20
85.3026483199
 10
145.0388272567
 20
85.3042495363
  0
LINE
  5
24D
100
AcDbEntity
  8
COPY_PUBLISH
100
AcDbLine
 62
253
  6
CONTINUOUS
 10
145.0622410292
 20
85.2961627996
 11
145.0621303778
 21
85.2962180319
  0
LINE
  5
24E
100
AcDbEntity
  8
COPY_PUBLISH
100
AcDbLine
 62
253
  6
CONTINUOUS
 10
142.7345594775
 20
84.158286387
 11
142.089620835
 21
84.4807557083
  0
LINE
  5
24F
100
AcDbEntity
  8
COPY_PUBLISH
100
AcDbLine
 62
7
  6
CONTINUOUS
 10
143.3639407665
 20
84.8998321776
 11
143.2379846951
 21
84.9627922118
  0
LINE
  5
250
100
AcDbEntity
  8
COPY_PUBLISH
100
AcDbLine
 62
253
  6
CONTINUOUS
 10
144.5999738803
 20
85.5236762245
 11
145.0388272567
 21
85.3042495363
  0
LINE
  5
251
100
AcDbEntity
  8
COPY_PUBLISH
100
AcDbLine
 62
7
  6
CONTINUOUS
 10
144.5999738803
 20
85.527296374
 11
145.0622423079
 21
85.2961621602
  0
LWPOLYLINE
  5
252
100
AcDbEntity
  8
COPY_PUBLISH
100
AcDbPolyline
 62
7
  6
CONTINUOUS
 90
5
 70
0
 10
124.5848959503
 20
91.8612261817
 10
124.5963662884
 20
91.7928421306
 10
124.6128892274
 20
91.7263466527
 10
124.6339916213
 20
91.6633412185
 10
124.6594377886
 20
91.6038435735
  0
LWPOLYLINE
  5
253
100
AcDbEntity
  8
COPY_PUBLISH
100
AcDbPolyline
 62
253
  6
CONTINUOUS
 90
18
 70
0
 10
124.5848957854
 20
91.8612261603
 10
124.5859612982
 20
91.8541987104
 10
124.5885798048
 20
91.8417739482
 10
124.5921147128
 20
91.8295050596
 10
124.5965594402
 20
91.8174148887
 10
124.6019057113
 20
91.8055259471
 10
124.6081435713
 20
91.7938603715
 10
124.6152614056
 20
91.7824398829
 10
124.6232459611
 20
91.7712857457
 10
124.6320823708
 20
91.7604187286
 10
124.6417541817
 20
91.7498590656
 10
124.652243385
 20
91.7396264185
 10
124.6635304504
 20
91.7297398399
 10
124.6755943618
 20
91.7202177385
 10
124.6884126564
 20
91.711077844
 10
124.7019614671
 20
91.7023371745
 10
124.7162155666
 20
91.694012005
 10
124.7311484141
 20
91.6861178365
  0
LWPOLYLINE
  5
254
100
AcDbEntity
  8
COPY_PUBLISH
100
AcDbPolyline
 62
253
  6
CONTINUOUS
 90
19
 70
0
 10
123.8967976396
 20
101.6490850309
 10
123.8974571122
 20
101.6378126196
 10
123.8990420182
 20
101.6268197538
 10
123.9015533887
 20
101.6158826358
 10
123.9049865488
 20
101.6050216251
 10
123.9093351077
 20
101.5942569396
 10
123.9145909705
 20
101.5836086177
 10
123.9207443534
 20
101.5730964814
 10
123.9277838018
 20
101.562740099
 10
123.9356962118
 20
101.552558749
 10
123.9444668544
 20
101.542571384
 10
123.954079403
 20
101.5327965956
 10
123.9645159637
 20
101.5232525796
 10
123.975757109
 20
101.5139571021
 10
123.9877819132
 20
101.5049274669
 10
124.0005679923
 20
101.4961804825
 10
124.0140915449
 20
101.4877324315
 10
124.0283273967
 20
101.4795990401
 10
124.0432490478
 20
101.4717954485
  0
LWPOLYLINE
  5
255
100
AcDbEntity
  8
COPY_PUBLISH
100
AcDbPolyline
 62
7
  6
CONTINUOUS
 90
10
 70
0
 10
123.8967976382
 20
101.6490851897
 10
123.9193226069
 20
100.5788393079
 10
123.956329349
 20
99.4524384758
 10
124.0068559752
 20
98.3337486596
 10
124.0708935603
 20
97.2230069497
 10
124.1484307574
 20
96.1204458446
 10
124.2394536371
 20
95.0262983488
 10
124.3439459946
 20
93.9407936991
 10
124.4618887714
 20
92.864162736
 10
124.584862124
 20
91.8614854149
  0
LWPOLYLINE
  5
256
100
AcDbEntity
  8
COPY_PUBLISH
100
AcDbPolyline
 62
253
  6
CONTINUOUS
 90
13
 70
0
 10
124.0432490476
 20
101.4717954484
 10
124.0240874145
 20
102.8330241729
 10
124.0084099254
 20
104.1960980386
 10
123.9962165268
 20
105.5610032625
 10
123.9875071757
 20
106.9277168869
 10
123.9822816539
 20
108.2962342297
 10
123.9805398059
 20
109.6665690048
 10
123.9822816527
 20
111.0387074749
 10
123.9875071736
 20
112.4126358753
 10
123.9962165243
 20
113.7883680666
 10
124.0084099229
 20
115.1658995819
 10
124.0240874128
 20
116.5452075096
 10
124.0432490476
 20
117.9262781203
  0
LWPOLYLINE
  5
257
100
AcDbEntity
  8
COPY_PUBLISH
100
AcDbPolyline
 62
253
  6
CONTINUOUS
 90
20
 70
0
 10
123.8967958048
 20
118.1023576629
 10
123.8968016226
 20
118.0984038334
 10
123.8974571138
 20
118.0878712642
 10
123.8990420198
 20
118.0773515848
 10
123.9015533903
 20
118.0668643777
 10
123.9049865505
 20
118.0564291647
 10
123.9093351094
 20
118.0460653712
 10
123.9145909723
 20
118.0357922894
 10
123.9207443552
 20
118.0256290426
 10
123.9277838036
 20
118.0155945498
 10
123.9356962136
 20
118.0057074902
 10
123.9444668562
 20
117.9959862687
 10
123.9540794047
 20
117.9864489813
 10
123.9645159655
 20
117.9771133818
 10
123.9757571107
 20
117.9679968484
 10
123.9877819149
 20
117.9591163516
 10
124.000567994
 20
117.9504884225
 10
124.0140915465
 20
117.9421291219
 10
124.0283273983
 20
117.9340540109
 10
124.0432490493
 20
117.9262781211
  0
LWPOLYLINE
  5
258
100
AcDbEntity
  8
COPY_PUBLISH
100
AcDbPolyline
 62
7
  6
CONTINUOUS
 90
10
 70
0
 10
123.8967958054
 20
118.1023578004
 10
123.8726100736
 20
116.3110372142
 10
123.8537378216
 20
114.4583167722
 10
123.84115939
 20
112.6087643809
 10
123.8348750466
 20
110.7624146263
 10
123.8348849356
 20
108.9192997852
 10
123.8411891107
 20
107.0794514937
 10
123.8537875347
 20
105.2429019333
 10
123.8726800474
 20
103.409685469
 10
123.8967976396
 20
101.6490850309
  0
LWPOLYLINE
  5
259
100
AcDbEntity
  8
COPY_PUBLISH
100
AcDbPolyline
 62
253
  6
CONTINUOUS
 90
16
 70
0
 10
124.0432490476
 20
117.9262781203
 10
124.0559724278
 20
118.6116902608
 10
124.073440068
 20
119.2993943962
 10
124.0956506197
 20
119.9893383459
 10
124.1226023244
 20
120.6814697568
 10
124.1542931444
 20
121.3757361241
 10
124.1907207645
 20
122.0720847961
 10
124.2318823576
 20
122.770463008
 10
124.2777747635
 20
123.4708177274
 10
124.3283946194
 20
124.173095675
 10
124.3837379937
 20
124.8772435467
 10
124.4438006352
 20
125.5832079787
 10
124.508578155
 20
126.2909353943
 10
124.578065636
 20
127.0003721125
 10
124.652257631
 20
127.7114643518
 10
124.7311484124
 20
128.424158195
  0
LWPOLYLINE
  5
25A
100
AcDbEntity
  8
COPY_PUBLISH
100
AcDbPolyline
 62
253
  6
CONTINUOUS
 90
21
 70
0
 10
124.5839422406
 20
128.5908058748
 10
124.583644506
 20
128.5875555366
 10
124.583491428
 20
128.5788610667
 10
124.5842642256
 20
128.5700837896
 10
124.5859614599
 20
128.561240048
 10
124.5885799707
 20
128.5523463089
 10
124.5921148823
 20
128.543419132
 10
124.596559613
 20
128.5344751395
 10
124.6019058868
 20
128.5255309846
 10
124.6081437491
 20
128.5166033211
 10
124.6152615853
 20
128.5077087719
 10
124.6232461421
 20
128.4988638985
 10
124.6320825527
 20
128.4900851697
 10
124.641754364
 20
128.481388931
 10
124.6522435673
 20
128.4727913747
 10
124.6635306322
 20
128.464308509
 10
124.6755945426
 20
128.4559561288
 10
124.6884128359
 20
128.4477497858
 10
124.7019616448
 20
128.4397047601
 10
124.7162157421
 20
128.431836031
 10
124.731148587
 20
128.42415825
  0
LWPOLYLINE
  5
25B
100
AcDbEntity
  8
COPY_PUBLISH
100
AcDbPolyline
 62
7
  6
CONTINUOUS
 90
10
 70
0
 10
124.5839581646
 20
128.5909481204
 10
124.4605753613
 20
127.4568772778
 10
124.3428912134
 20
126.2600607958
 10
124.2386186899
 20
125.068086096
 10
124.1477812044
 20
123.8812055024
 10
124.070399395
 20
122.6996680371
 10
124.0064916131
 20
121.5237248984
 10
123.9560734972
 20
120.3536228837
 10
123.9191582179
 20
119.1896101368
 10
123.8967958048
 20
118.1023576629
  0
LWPOLYLINE
  5
25C
100
AcDbEntity
  8
COPY_PUBLISH
100
AcDbPolyline
 62
253
  6
CONTINUOUS
 90
43
 70
0
 10
124.7311484124
 20
128.424158195
 10
124.7349220751
 20
128.4539123986
 10
124.7394278398
 20
128.4838721081
 10
124.7446608642
 20
128.5140055247
 10
124.7506154345
 20
128.5442805546
 10
124.7572852423
 20
128.5746651876
 10
124.7646634251
 20
128.6051275363
 10
124.7727421415
 20
128.6356355394
 10
124.7815127175
 20
128.6661565867
 10
124.790965929
 20
128.6966579025
 10
124.8010915824
 20
128.7271070194
 10
124.8118788838
 20
128.7574717708
 10
124.8233166171
 20
128.7877199195
 10
124.835392524
 20
128.8178194285
 10
124.8480936809
 20
128.8477383565
 10
124.8614068579
 20
128.8774448487
 10
124.8753178
 20
128.9069074643
 10
124.8898116095
 20
128.9360949304
 10
124.90487313
 20
128.9649760375
 10
124.9204861917
 20
128.993520158
 10
124.9366341023
 20
129.0216970782
 10
124.9533000319
 20
129.0494767508
 10
124.9704661151
 20
129.0768297587
 10
124.9881139767
 20
129.1037271231
 10
125.0062252218
 20
129.1301401344
 10
125.0247804614
 20
129.156040861
 10
125.0437598095
 20
129.1814018401
 10
125.0631434106
 20
129.206195887
 10
125.0829104592
 20
129.230396735
 10
125.1030398145
 20
129.2539788044
 10
125.1235104997
 20
129.27691689
 10
125.1443005629
 20
129.2991867154
 10
125.1653877522
 20
129.3207647373
 10
125.1867501311
 20
129.3416279071
 10
125.2083648987
 20
129.3617542498
 10
125.2302088196
 20
129.3811223866
 10
125.2522588955
 20
129.3997113536
 10
125.2744913124
 20
129.4175013805
 10
125.2968824323
 20
129.434473852
 10
125.3194092303
 20
129.4506107948
 10
125.3420478983
 20
129.4658951259
 10
125.3647738635
 20
129.4803107128
 10
125.3875627794
 20
129.4938423271
  0
LWPOLYLINE
  5
25D
100
AcDbEntity
  8
COPY_PUBLISH
100
AcDbPolyline
 62
253
  6
CONTINUOUS
 90
30
 70
0
 10
130.6950350969
 20
131.3775126251
 10
130.6906186094
 20
131.3666305645
 10
130.6858150072
 20
131.3559709673
 10
130.680634863
 20
131.3455580184
 10
130.6750891864
 20
131.3354146309
 10
130.6691906222
 20
131.3255646643
 10
130.6629536806
 20
131.3160326432
 10
130.6563929841
 20
131.3068408141
 10
130.6495228489
 20
131.2980091383
 10
130.6423586339
 20
131.2895573826
 10
130.6349163905
 20
131.2815045414
 10
130.6272129955
 20
131.2738689323
 10
130.6192659843
 20
131.2666679568
 10
130.6110933572
 20
131.2599179182
 10
130.6027135042
 20
131.253633998
 10
130.594145322
 20
131.2478303687
 10
130.5854081377
 20
131.2425201267
 10
130.5765216848
 20
131.2377152707
 10
130.5675060418
 20
131.2334266588
 10
130.5583815663
 20
131.2296639744
 10
130.5491688487
 20
131.2264357077
 10
130.5398886846
 20
131.2237491457
 10
130.5305620219
 20
131.2216103528
 10
130.5212099141
 20
131.2200241572
 10
130.511853472
 20
131.2189941395
 10
130.5025138053
 20
131.2185226244
 10
130.4932120074
 20
131.2186106779
 10
130.4839691078
 20
131.219258098
 10
130.4748059913
 20
131.2204634138
 10
130.4681921608
 20
131.2216913479
  0
LINE
  5
25E
100
AcDbEntity
  8
COPY_PUBLISH
100
AcDbLine
 62
7
  6
CONTINUOUS
 10
132.8650599757
 20
132.4021104851
 11
132.851406464
 21
132.3803626464
  0
LINE
  5
25F
100
AcDbEntity
  8
COPY_PUBLISH
100
AcDbLine
 62
7
  6
CONTINUOUS
 10
132.851406464
 20
132.3803626464
 11
132.8399304293
 21
132.3652646476
  0
LWPOLYLINE
  5
260
100
AcDbEntity
  8
RACCORDO
100
AcDbPolyline
 62
253
  6
CONTINUOUS
 90
13
 70
0
 10
133.8815413469
 20
130.5844684839
 10
133.8635664927
 20
130.5739471193
 10
133.845773329
 20
130.5606894483
 10
133.8284644203
 20
130.5448598074
 10
133.8119081334
 20
130.5266294049
 10
133.7964485581
 20
130.5062982082
 10
133.7824692095
 20
130.484333352
 10
133.7702354927
 20
130.4611632235
 10
133.7599269427
 20
130.4371408164
 10
133.7517244968
 20
130.412689966
 10
133.74576732
 20
130.3882344233
 10
133.7421536292
 20
130.3641896488
 10
133.7409427421
 20
130.3409670319
  0
LINE
  5
261
100
AcDbEntity
  8
RACCORDO
100
AcDbLine
 62
7
  6
CONTINUOUS
 10
134.5944129265
 20
129.3927627576
 11
134.0225459512
 21
129.0753883139
  0
LINE
  5
262
100
AcDbEntity
  8
COPY_PUBLISH
100
AcDbLine
 62
253
  6
CONTINUOUS
 10
136.5743137088
 20
130.1646996372
 11
137.2612154942
 21
130.5092602952
  0
LINE
  5
263
100
AcDbEntity
  8
COPY_PUBLISH
100
AcDbLine
 62
253
  6
CONTINUOUS
 10
136.7157332701
 20
129.9207906381
 11
137.4038584712
 21
130.2659649805
  0
LINE
  5
264
100
AcDbEntity
  8
RACCORDO
100
AcDbLine
 62
253
  6
CONTINUOUS
 10
134.5948189555
 20
130.9399748492
 11
133.8815367294
 21
130.5844707926
  0
LINE
  5
265
100
AcDbEntity
  8
RACCORDO
100
AcDbLine
 62
253
  6
CONTINUOUS
 10
134.5944129265
 20
130.6253782251
 11
134.0225459512
 21
130.3403526651
  0
LINE
  5
266
100
AcDbEntity
  8
COPY_PUBLISH
100
AcDbLine
 62
253
  6
CONTINUOUS
 10
136.3595004947
 20
130.0576340795
 11
136.5743137088
 21
130.1646996372
  0
LINE
  5
267
100
AcDbEntity
  8
COPY_PUBLISH
100
AcDbLine
 62
253
  6
CONTINUOUS
 10
136.500505099
 20
129.8135182608
 11
136.7157332701
 21
129.9207906381
  0
LINE
  5
268
100
AcDbEntity
  8
COPY_PUBLISH
100
AcDbLine
 62
7
  6
CONTINUOUS
 10
135.6162672498
 20
131.3317344174
 11
140.2289101057
 21
133.6049566072
  0
LINE
  5
269
100
AcDbEntity
  8
0
100
AcDbLine
 62
7
  6
CONTINUOUS
 10
140.3653349423
 20
132.2767469518
 11
137.0217961149
 21
130.6289699848
  0
LINE
  5
26A
100
AcDbEntity
  8
RACCORDO
100
AcDbLine
 62
253
  6
CONTINUOUS
 10
137.2456473153
 20
130.5170443846
 11
143.2932623411
 21
133.4974556373
  0
LINE
  5
26B
100
AcDbEntity
  8
RACCORDO
100
AcDbLine
 62
253
  6
CONTINUOUS
 10
137.4030829687
 20
130.2825347133
 11
143.433855561
 21
133.2546456066
  0
LINE
  5
26C
100
AcDbEntity
  8
RACCORDO
100
AcDbLine
 62
253
  6
CONTINUOUS
 10
153.1621365251
 20
137.7659812003
 11
143.9798948514
 21
133.2730018756
  0
LINE
  5
26D
100
AcDbEntity
  8
RACCORDO
100
AcDbLine
 62
7
  6
CONTINUOUS
 10
142.7957061118
 20
133.9941432354
 11
151.2509996614
 21
138.0590502348
  0
LINE
  5
26E
100
AcDbEntity
  8
RACCORDO
100
AcDbLine
 62
253
  6
CONTINUOUS
 10
143.6644986091
 20
133.5597469868
 11
152.7952929795
 21
137.9494029731
  0
LINE
  5
26F
100
AcDbEntity
  8
COPY_PUBLISH
100
AcDbLine
 62
253
  6
CONTINUOUS
 10
145.0471598491
 20
85.299782638
 11
145.0388272567
 21
85.3042495363
  0
LINE
  5
270
100
AcDbEntity
  8
COPY_PUBLISH
100
AcDbLine
 62
7
  6
CONTINUOUS
 10
145.0621303778
 20
85.2962180319
 11
145.0823835008
 21
85.2848997931
  0
LWPOLYLINE
  5
271
100
AcDbEntity
  8
COPY_PUBLISH
100
AcDbPolyline
 62
7
  6
CONTINUOUS
 90
3
 70
0
 10
145.0823835008
 20
85.2848997931
 10
145.1047205647
 20
85.2692705831
 10
145.1253590632
 20
85.2511693028
  0
LINE
  5
272
100
AcDbEntity
  8
COPY_PUBLISH
100
AcDbLine
 62
7
  6
CONTINUOUS
 10
124.584862124
 20
91.8614854149
 11
124.5848957854
 21
91.8612261603
  0
LWPOLYLINE
  5
273
100
AcDbEntity
  8
COPY_PUBLISH
100
AcDbPolyline
 62
253
  6
CONTINUOUS
 90
16
 70
0
 10
124.7311484124
 20
91.6861178354
 10
124.6522576311
 20
92.3171334144
 10
124.5780656361
 20
92.9514125647
 10
124.508578155
 20
93.5889070968
 10
124.4438006352
 20
94.2295685154
 10
124.3837379937
 20
94.8733482177
 10
124.3283946194
 20
95.5201974982
 10
124.2777747634
 20
96.1700672822
 10
124.2318823576
 20
96.8229081594
 10
124.1907207645
 20
97.4786705825
 10
124.1542931444
 20
98.1373047173
 10
124.1226023244
 20
98.798760588
 10
124.0956506196
 20
99.4629881128
 10
124.073440068
 20
100.1299369096
 10
124.0559724278
 20
100.7995562988
 10
124.0432490476
 20
101.4717954484
  0
LWPOLYLINE
  5
274
100
AcDbEntity
  8
0
100
AcDbPolyline
 62
7
  6
CONTINUOUS
 90
13
 70
0
 10
140.3660416037
 20
132.2770952117
 10
140.3740463865
 20
132.2851991546
 10
140.3814156678
 20
132.2934777272
 10
140.3881494475
 20
132.3019309295
 10
140.3942831064
 20
132.3105864857
 10
140.3997812638
 20
132.3194166716
 10
140.4045377773
 20
132.328338315
 10
140.4085227243
 20
132.337338977
 10
140.4117660276
 20
132.3464310964
 10
140.4142513127
 20
132.355568818
 10
140.415974749
 20
132.3647523768
 10
140.416940167
 20
132.3739815378
 10
140.4171639256
 20
132.3810255536
  0
LWPOLYLINE
  5
275
100
AcDbEntity
  8
RACCORDO
100
AcDbPolyline
 62
253
  6
CONTINUOUS
 90
7
 70
0
 10
144.0011865585
 20
132.8405659286
 10
144.0184350779
 20
132.8503869656
 10
144.0329692271
 20
132.8612239453
 10
144.044540254
 20
132.8728914887
 10
144.0529500937
 20
132.8851900009
 10
144.0580547508
 20
132.8979090723
 10
144.0597655461
 20
132.911182427
  0
LWPOLYLINE
  5
276
100
AcDbEntity
  8
RACCORDO
100
AcDbPolyline
 62
253
  6
CONTINUOUS
 90
9
 70
0
 10
153.8630727139
 20
136.8969034759
 10
153.8980922591
 20
136.9163500457
 10
153.9288545401
 20
136.9375203607
 10
153.9550225145
 20
136.9601824767
 10
153.9763094758
 20
136.9840881047
 10
153.9924821941
 20
137.0089753309
 10
154.0033634719
 20
137.0345714865
 10
154.0088340863
 20
137.0605961407
 10
154.0095193233
 20
137.0736801699
  0
LINE
  5
277
100
AcDbEntity
  8
COPY_PUBLISH
100
AcDbLine
 62
7
  6
CONTINUOUS
 10
136.500505099
 20
128.5889019894
 11
136.7157332701
 21
128.7083492105
  0
LINE
  5
278
100
AcDbEntity
  8
COPY_PUBLISH
100
AcDbLine
 62
7
  6
CONTINUOUS
 10
138.1810704936
 20
129.3214213737
 11
137.9693834668
 21
129.2121926072
  0
LINE
  5
279
100
AcDbEntity
  8
COPY_PUBLISH
100
AcDbLine
 62
253
  6
CONTINUOUS
 10
138.2713663938
 20
129.3161732948
 11
138.0602700362
 21
129.2072493088
  0
LINE
  5
27A
100
AcDbEntity
  8
COPY_PUBLISH
100
AcDbLine
 62
7
  6
CONTINUOUS
 10
136.7157332701
 20
128.7083492105
 11
137.4124191756
 21
129.0583185294
  0
LINE
  5
27B
100
AcDbEntity
  8
RACCORDO
100
AcDbLine
 62
7
  6
CONTINUOUS
 10
142.3918705495
 20
132.35441363
 11
137.4067232127
 21
129.8618399615
  0
LINE
  5
27C
100
AcDbEntity
  8
RACCORDO
100
AcDbLine
 62
7
  6
CONTINUOUS
 10
140.2512941005
 20
131.001282693
 11
137.4087211327
 21
129.5799962091
  0
LINE
  5
27D
100
AcDbEntity
  8
COPY_PUBLISH
100
AcDbLine
 62
7
  6
CONTINUOUS
 10
138.1827742815
 20
129.3222733716
 11
138.1810729788
 21
129.321422656
  0
LINE
  5
27E
100
AcDbEntity
  8
RACCORDO
100
AcDbLine
 62
7
  6
CONTINUOUS
 10
140.2674011505
 20
129.8949779565
 11
139.378590661
 21
129.4505727117
  0
LINE
  5
27F
100
AcDbEntity
  8
RACCORDO
100
AcDbLine
 62
253
  6
CONTINUOUS
 10
140.3568438696
 20
129.889297599
 11
139.428992378
 21
129.4253718532
  0
LINE
  5
280
100
AcDbEntity
  8
RACCORDO
100
AcDbLine
 62
7
  6
CONTINUOUS
 10
140.2779046001
 20
129.9001515918
 11
140.2671699967
 21
129.8948591501
  0
LINE
  5
281
100
AcDbEntity
  8
RACCORDO
100
AcDbLine
 62
253
  6
CONTINUOUS
 10
153.5126046195
 20
137.1546656428
 11
144.0624677285
 21
132.5306020235
  0
LINE
  5
282
100
AcDbEntity
  8
COPY_PUBLISH
100
AcDbLine
 62
7
  6
CONTINUOUS
 10
138.8820514865
 20
129.6609227764
 11
138.1827760494
 21
129.3222742284
  0
LINE
  5
283
100
AcDbEntity
  8
COPY_PUBLISH
100
AcDbLine
 62
253
  6
CONTINUOUS
 10
138.9703627288
 20
129.6546866778
 11
138.2713663938
 21
129.3161732948
  0
LINE
  5
284
100
AcDbEntity
  8
RACCORDO
100
AcDbLine
 62
7
  6
CONTINUOUS
 10
145.3777913396
 20
132.6923893409
 11
153.7302898581
 21
136.6900788763
  0
LWPOLYLINE
  5
285
100
AcDbEntity
  8
RACCORDO
100
AcDbPolyline
 62
7
  6
CONTINUOUS
 90
7
 70
0
 10
153.7302898581
 20
136.6900788763
 10
153.7532412673
 20
136.7003559252
 10
153.7758643031
 20
136.7092697197
 10
153.7981589657
 20
136.7168202598
 10
153.8201252551
 20
136.7230075454
 10
153.8417631711
 20
136.7278315766
 10
153.8630727139
 20
136.7312923534
  0
LWPOLYLINE
  5
286
100
AcDbEntity
  8
RACCORDO
100
AcDbPolyline
 62
253
  6
CONTINUOUS
 90
6
 70
0
 10
141.496941329
 20
129.8936609038
 10
141.517437791
 20
129.9020803725
 10
141.5375014344
 20
129.9066645253
 10
141.5567085808
 20
129.9073165599
 10
141.5746536382
 20
129.904022708
 10
141.5863840487
 20
129.8993412609
  0
LWPOLYLINE
  5
287
100
AcDbEntity
  8
RACCORDO
100
AcDbPolyline
 62
7
  6
CONTINUOUS
 90
3
 70
0
 10
140.4275795492
 20
129.9600808053
 10
140.35087165
 20
129.9323400067
 10
140.2779046001
 20
129.9001515918
  0
LWPOLYLINE
  5
288
100
AcDbEntity
  8
RACCORDO
100
AcDbPolyline
 62
253
  6
CONTINUOUS
 90
7
 70
0
 10
160.0248016694
 20
134.2513645067
 10
160.0560143639
 20
134.2606184888
 10
160.0891345766
 20
134.2647810001
 10
160.1237994286
 20
134.2638064414
 10
160.1596291209
 20
134.2577054981
 10
160.1962310964
 20
134.246545021
 10
160.2332043361
 20
134.2304472939
  0
LINE
  5
289
100
AcDbEntity
  8
COPY_PUBLISH
100
AcDbLine
 62
7
  6
CONTINUOUS
 10
128.5907517621
 20
132.6456566659
 11
128.5907517621
 21
132.3056827318
  0
LINE
  5
28A
100
AcDbEntity
  8
COPY_PUBLISH
100
AcDbLine
 62
253
  6
CONTINUOUS
 10
128.6639750668
 20
132.5572683183
 11
128.6639750668
 21
132.2172943841
  0
LWPOLYLINE
  5
28B
100
AcDbEntity
  8
COPY_PUBLISH
100
AcDbPolyline
 62
253
  6
CONTINUOUS
 90
34
 70
0
 10
128.6639750668
 20
132.5572683183
 10
128.6641738147
 20
132.5676313531
 10
128.6647696114
 20
132.5781698337
 10
128.6657611174
 20
132.5888600636
 10
128.6671461031
 20
132.5996780049
 10
128.6689214542
 20
132.6105993327
 10
128.6710831788
 20
132.6215994896
 10
128.673626416
 20
132.6326537409
 10
128.6765454472
 20
132.6437372303
 10
128.6798337088
 20
132.6548250356
 10
128.6834838067
 20
132.6658922252
 10
128.6874875336
 20
132.6769139136
 10
128.6918358867
 20
132.6878653177
 10
128.6965190884
 20
132.6987218124
 10
128.7015266082
 20
132.7094589862
 10
128.7068471863
 20
132.7200526956
 10
128.7124688589
 20
132.7304791199
 10
128.7183789854
 20
132.7407148144
 10
128.7245642764
 20
132.7507367636
 10
128.7310108236
 20
132.7605224322
 10
128.7377041317
 20
132.7700498164
 10
128.7446291502
 20
132.7792974932
 10
128.7517703077
 20
132.7882446685
 10
128.7591115466
 20
132.7968712239
 10
128.7666363598
 20
132.8051577619
 10
128.7743278271
 20
132.8130856496
 10
128.7821686537
 20
132.8206370606
 10
128.7901412087
 20
132.8277950149
 10
128.7982275655
 20
132.8345434174
 10
128.8064095411
 20
132.8408670937
 10
128.8146687378
 20
132.8467518245
 10
128.8229865841
 20
132.8521843777
 10
128.8313443768
 20
132.8571525377
 10
128.8397233228
 20
132.8616451332
  0
LWPOLYLINE
  5
28C
100
AcDbEntity
  8
RACCORDO
100
AcDbPolyline
 62
7
  6
CONTINUOUS
 90
3
 70
0
 10
139.4090995892
 20
127.5631869574
 10
139.3960814629
 20
127.5543410056
 10
139.3620333312
 20
127.5304217373
  0
LWPOLYLINE
  5
28D
100
AcDbEntity
  8
RACCORDO
100
AcDbPolyline
 62
7
  6
CONTINUOUS
 90
3
 70
0
 10
139.4526554221
 20
127.591780041
 10
139.4374793293
 20
127.5819473798
 10
139.4090995892
 20
127.5631869574
  0
LWPOLYLINE
  5
28E
100
AcDbEntity
  8
RACCORDO
100
AcDbPolyline
 62
7
  6
CONTINUOUS
 90
4
 70
0
 10
139.5367892201
 20
127.6437056848
 10
139.5017357006
 20
127.6225692039
 10
139.4848597462
 20
127.6121225242
 10
139.4526554221
 20
127.591780041
  0
LINE
  5
28F
100
AcDbEntity
  8
RACCORDO
100
AcDbLine
 62
7
  6
CONTINUOUS
 10
139.554795456
 20
127.654311492
 11
139.5367892201
 21
127.6437056848
  0
LINE
  5
290
100
AcDbEntity
  8
RACCORDO
100
AcDbLine
 62
7
  6
CONTINUOUS
 10
140.5694652276
 20
126.7814832318
 11
139.644050899
 21
126.2650736112
  0
LINE
  5
291
100
AcDbEntity
  8
ASSI
100
AcDbLine
 62
7
  6
CONTINUOUS
 10
147.6974418835
 20
131.2823826684
 11
147.8526650738
 21
131.3640313747
  0
LWPOLYLINE
  5
292
100
AcDbEntity
  8
0
100
AcDbPolyline
 62
7
  6
CONTINUOUS
 90
20
 70
0
 10
145.8767758937
 20
129.4281585019
 10
145.8896115593
 20
129.4348329458
 10
145.9018427806
 20
129.4417407019
 10
145.9134695578
 20
129.4488817702
 10
145.9245094392
 20
129.456268965
 10
145.9349448764
 20
129.463889472
 10
145.9447232243
 20
129.4717048479
 10
145.9538411583
 20
129.4797160738
 10
145.9623020031
 20
129.4879221686
 10
145.9700630863
 20
129.4962817458
 10
145.977120876
 20
129.5047955861
 10
145.9834789041
 20
129.5134629088
 10
145.9891050945
 20
129.5222399858
 10
145.9939957456
 20
129.5311273653
 10
145.9981545588
 20
129.540124499
 10
146.0015605629
 20
129.5491860137
 10
146.004209956
 20
129.5583122409
 10
146.0061065399
 20
129.567502849
 10
146.0072407485
 20
129.5767114701
 10
146.0076088478
 20
129.5857926511
  0
LINE
  5
293
100
AcDbEntity
  8
RACCORDO
100
AcDbLine
 62
7
  6
CONTINUOUS
 10
139.0331290522
 20
127.9681746449
 11
139.6459467258
 21
128.284383529
  0
LINE
  5
294
100
AcDbEntity
  8
RACCORDO
100
AcDbLine
 62
253
  6
CONTINUOUS
 10
139.1240202361
 20
127.9632290393
 11
139.8249515755
 21
128.3249085392
  0
LINE
  5
295
100
AcDbEntity
  8
COPY_PUBLISH
100
AcDbLine
 62
7
  6
CONTINUOUS
 10
141.0302956493
 20
126.716264112
 11
142.6134673442
 21
127.5284611593
  0
LINE
  5
296
100
AcDbEntity
  8
RACCORDO
100
AcDbLine
 62
7
  6
CONTINUOUS
 10
139.644050899
 20
127.7032137078
 11
140.5694652276
 21
128.1671238779
  0
LINE
  5
297
100
AcDbEntity
  8
RACCORDO
100
AcDbLine
 62
7
  6
CONTINUOUS
 10
146.6486984247
 20
131.195060752
 11
148.5673569798
 21
132.1543900295
  0
LINE
  5
298
100
AcDbEntity
  8
ASSI
100
AcDbLine
 62
7
  6
CONTINUOUS
 10
148.9486805846
 20
131.9120391301
 11
147.8526650738
 21
131.3640313747
  0
LINE
  5
299
100
AcDbEntity
  8
COPY_PUBLISH
100
AcDbLine
 62
7
  6
CONTINUOUS
 10
142.6134693139
 20
127.5284621699
 11
142.6152057314
 21
127.5293303929
  0
LINE
  5
29A
100
AcDbEntity
  8
COPY_PUBLISH
100
AcDbLine
 62
7
  6
CONTINUOUS
 10
140.5694652276
 20
128.1671238779
 11
145.8439572967
 21
130.7974330117
  0
LINE
  5
29B
100
AcDbEntity
  8
COPY_PUBLISH
100
AcDbLine
 62
7
  6
CONTINUOUS
 10
140.5694652276
 20
126.7814832318
 11
145.8767758937
 21
129.4281585019
  0
LINE
  5
29C
100
AcDbEntity
  8
COPY_PUBLISH
100
AcDbLine
 62
7
  6
CONTINUOUS
 10
145.2274854719
 20
131.1056689241
 11
140.6153109732
 21
128.8322125556
  0
LINE
  5
29D
100
AcDbEntity
  8
RACCORDO
100
AcDbLine
 62
7
  6
CONTINUOUS
 10
147.7348525544
 20
131.2378128879
 11
146.0076107449
 21
130.3864121239
  0
LINE
  5
29E
100
AcDbEntity
  8
RACCORDO
100
AcDbLine
 62
253
  6
CONTINUOUS
 10
147.8241012434
 20
131.2320361861
 11
146.0076107449
 21
130.3366425072
  0
LWPOLYLINE
  5
29F
100
AcDbEntity
  8
RACCORDO
100
AcDbPolyline
 62
7
  6
CONTINUOUS
 90
4
 70
0
 10
139.644050899
 20
127.7032137078
 10
139.6267910829
 20
127.6947322442
 10
139.6091327179
 20
127.6852364239
 10
139.554795456
 20
127.654311492
  0
LWPOLYLINE
  5
2A0
100
AcDbEntity
  8
RACCORDO
100
AcDbPolyline
 62
7
  6
CONTINUOUS
 90
8
 70
0
 10
139.645132217
 20
128.2839631253
 10
139.6564286595
 20
128.2895082128
 10
139.68115564
 20
128.2998175515
 10
139.7081221979
 20
128.3086666516
 10
139.7362537447
 20
128.3155947596
 10
139.7650575176
 20
128.3205257077
 10
139.7946809122
 20
128.3236110191
 10
139.8249515755
 20
128.3249085392
  0
LWPOLYLINE
  5
2A1
100
AcDbEntity
  8
COPY_PUBLISH
100
AcDbPolyline
 62
253
  6
CONTINUOUS
 90
16
 70
0
 10
141.0302956493
 20
126.716264112
 10
141.0336933735
 20
126.7179217364
 10
141.0404385945
 20
126.7207342842
 10
141.0474193334
 20
126.7230328376
 10
141.0546197774
 20
126.72481219
 10
141.0620236158
 20
126.7260683107
 10
141.0696140773
 20
126.7267983544
 10
141.0773739677
 20
126.7270006672
 10
141.0852857092
 20
126.726674791
 10
141.0933313799
 20
126.7258214638
 10
141.1014927546
 20
126.7244426187
 10
141.1097513459
 20
126.7225413792
 10
141.1180884462
 20
126.7201220518
 10
141.1264851702
 20
126.7171901169
 10
141.1349224974
 20
126.7137522161
 10
141.1433813154
 20
126.7098161369
  0
LINE
  5
2A2
100
AcDbEntity
  8
COPY_PUBLISH
100
AcDbLine
 62
7
  6
CONTINUOUS
 10
142.6152084953
 20
127.5293317393
 11
143.1500756861
 21
127.7898824919
  0
LINE
  5
2A3
100
AcDbEntity
  8
COPY_PUBLISH
100
AcDbLine
 62
253
  6
CONTINUOUS
 10
142.7261379186
 20
127.5218002342
 11
143.2605877972
 21
127.7821477008
  0
LINE
  5
2A4
100
AcDbEntity
  8
COPY_PUBLISH
100
AcDbLine
 62
253
  6
CONTINUOUS
 10
143.1500756861
 20
127.7898824919
 11
143.1517312226
 21
127.7906689839
  0
LWPOLYLINE
  5
2A5
100
AcDbEntity
  8
COPY_PUBLISH
100
AcDbPolyline
 62
7
  6
CONTINUOUS
 90
16
 70
0
 10
142.6152057314
 20
127.5293303929
 10
142.6168633576
 20
127.5301179004
 10
142.6235988465
 20
127.5329254383
 10
142.6305665857
 20
127.5352172999
 10
142.6377508427
 20
127.5369883197
 10
142.6451353584
 20
127.5382344948
 10
142.6527033127
 20
127.53895296
 10
142.6604376342
 20
127.5391421251
 10
142.6683208402
 20
127.5388015818
 10
142.6763349397
 20
127.5379320402
 10
142.68446187
 20
127.5365355171
 10
142.6926832811
 20
127.5346152073
 10
142.7009803778
 20
127.5321753806
 10
142.7093343711
 20
127.5292215697
 10
142.7177265203
 20
127.5257605567
 10
142.7261379186
 20
127.5218002342
  0
LINE
  5
2A6
100
AcDbEntity
  8
RACCORDO
100
AcDbLine
 62
7
  6
CONTINUOUS
 10
147.7936394668
 20
131.2639582179
 11
147.7348585216
 21
131.2378033409
  0
LINE
  5
2A7
100
AcDbEntity
  8
COPY_PUBLISH
100
AcDbLine
 62
7
  6
CONTINUOUS
 10
143.1500756861
 20
127.7898824919
 11
143.1782973785
 21
127.8015542659
  0
LWPOLYLINE
  5
2A8
100
AcDbEntity
  8
COPY_PUBLISH
100
AcDbPolyline
 62
253
  6
CONTINUOUS
 90
14
 70
0
 10
143.1584567414
 20
127.7934716806
 10
143.1654112804
 20
127.7957571341
 10
143.1725790858
 20
127.7975201672
 10
143.179943921
 20
127.7987567863
 10
143.1874891031
 20
127.7994641902
 10
143.1951975404
 20
127.7996407765
 10
143.2030517716
 20
127.7992861451
 10
143.2110340052
 20
127.7984010994
 10
143.2191261596
 20
127.7969876442
 10
143.2273099042
 20
127.7950489813
 10
143.2355667011
 20
127.7925895022
 10
143.2438778467
 20
127.7896147782
 10
143.2522245144
 20
127.7861315476
 10
143.2605877972
 20
127.7821477008
  0
LWPOLYLINE
  5
2A9
100
AcDbEntity
  8
RACCORDO
100
AcDbPolyline
 62
7
  6
CONTINUOUS
 90
3
 70
0
 10
160.1636849569
 20
134.3027491201
 10
160.0867775503
 20
134.2780346406
 10
160.0103606859
 20
134.245025639
  0
LINE
  5
2AA
100
AcDbEntity
  8
COPY_PUBLISH
100
AcDbLine
 62
253
  6
CONTINUOUS
 10
138.9092600697
 20
94.0387899374
 11
124.0432490476
 21
101.4717954484
  0
LWPOLYLINE
  5
2AB
100
AcDbEntity
  8
COPY_PUBLISH
100
AcDbPolyline
 62
7
  6
CONTINUOUS
 90
8
 70
0
 10
145.1253590632
 20
85.2511693028
 10
145.1438998902
 20
85.2308992965
 10
145.160130951
 20
85.2086775412
 10
145.1739400917
 20
85.1845697427
 10
145.1850796087
 20
85.1588324583
 10
145.193310559
 20
85.1318288977
 10
145.1984819778
 20
85.1037745239
 10
145.2004389029
 20
85.0725275522
  0
LWPOLYLINE
  5
2AC
100
AcDbEntity
  8
COPY_PUBLISH
100
AcDbPolyline
 62
253
  6
CONTINUOUS
 90
34
 70
0
 10
142.9986930895
 20
83.9260794894
 10
142.9942724771
 20
83.9329984025
 10
142.9894651804
 20
83.9401023515
 10
142.9842820498
 20
83.9473753026
 10
142.9787347869
 20
83.9548008363
 10
142.9728359091
 20
83.9623621971
 10
142.9665987197
 20
83.9700423317
 10
142.9600372859
 20
83.9778239164
 10
142.9531664234
 20
83.9856893784
 10
142.9460016547
 20
83.9936209479
 10
142.9385591581
 20
84.0016007159
 10
142.930855726
 20
84.0096106784
 10
142.9229087424
 20
84.0176327599
 10
142.914736143
 20
84.0256488553
 10
142.9063563748
 20
84.0336408709
 10
142.8977883513
 20
84.0415907685
 10
142.889051411
 20
84.0494806047
 10
142.8801652734
 20
84.0572925721
 10
142.8711499937
 20
84.0650090398
 10
142.8620259213
 20
84.0726125902
 10
142.8528136481
 20
84.080086063
 10
142.8435339605
 20
84.0874125951
 10
142.8342077915
 20
84.0945756585
 10
142.8248562022
 20
84.1015590763
 10
142.8155003283
 20
84.1083470658
 10
142.8061613034
 20
84.1149242956
 10
142.7968601887
 20
84.1212759352
 10
142.7876179538
 20
84.1273876651
 10
142.7784552274
 20
84.1332458363
 10
142.7693929263
 20
84.1388370682
 10
142.7604521586
 20
84.1441483599
 10
142.751653287
 20
84.1491676685
 10
142.7430159105
 20
84.1538838681
 10
142.7345594775
 20
84.158286387
  0
LWPOLYLINE
  5
2AD
100
AcDbEntity
  8
COPY_PUBLISH
100
AcDbPolyline
 62
253
  6
CONTINUOUS
 90
3
 70
0
 10
128.5914357432
 20
132.2964425648
 10
128.5908399448
 20
132.302362959
 10
128.5907517621
 20
132.3056827393
  0
LINE
  5
2AE
100
AcDbEntity
  8
COPY_PUBLISH
100
AcDbLine
 62
7
  6
CONTINUOUS
 10
128.5927086933
 20
132.2744635703
 11
128.5907517683
 21
132.305710542
  0
LWPOLYLINE
  5
2AF
100
AcDbEntity
  8
COPY_PUBLISH
100
AcDbPolyline
 62
253
  6
CONTINUOUS
 90
20
 70
0
 10
128.6639750668
 20
132.2172943841
 10
128.6641433627
 20
132.2079334337
 10
128.6646479299
 20
132.1987586027
 10
128.6654878077
 20
132.1897873605
 10
128.6666613935
 20
132.1810368118
 10
128.6681664544
 20
132.1725235937
 10
128.6700001408
 20
132.1642638509
 10
128.6721589848
 20
132.1562732633
 10
128.6746388722
 20
132.1485671097
 10
128.677435052
 20
132.1411601607
 10
128.6805421745
 20
132.1340665613
 10
128.6839543366
 20
132.1272997651
 10
128.6876650646
 20
132.120872608
 10
128.6916673253
 20
132.1147972881
 10
128.6959534745
 20
132.1090854243
 10
128.700515284
 20
132.1037479713
 10
128.7053440135
 20
132.0987951213
 10
128.7104304993
 20
132.0942362409
 10
128.7157651143
 20
132.0900799477
 10
128.7213239416
 20
132.0863434388
  0
LWPOLYLINE
  5
2B0
100
AcDbEntity
  8
COPY_PUBLISH
100
AcDbPolyline
 62
253
  6
CONTINUOUS
 90
22
 70
0
 10
130.3425131372
 20
131.3780253489
 10
130.3426809694
 20
131.3686771795
 10
130.3431843761
 20
131.3595115029
 10
130.3440227432
 20
131.3505459334
 10
130.3451949698
 20
131.3417967541
 10
130.3466990883
 20
131.3332818798
 10
130.3485318915
 20
131.325020546
 10
130.3506896164
 20
131.317029407
 10
130.3531683505
 20
131.3093226927
 10
130.3559634078
 20
131.3019149936
 10
130.3590695048
 20
131.2948203656
 10
130.362480715
 20
131.2880523922
 10
130.3661904994
 20
131.2816240591
 10
130.3701917626
 20
131.2755476451
 10
130.3744769085
 20
131.269834671
 10
130.3790378086
 20
131.2644959752
 10
130.3838658146
 20
131.2595416968
 10
130.3889517077
 20
131.2549813106
 10
130.3942857378
 20
131.2508235554
 10
130.3998577024
 20
131.2470763628
 10
130.4056570227
 20
131.2437468265
 10
130.4074864429
 20
131.2428068942
  0
LINE
  5
2B1
100
AcDbEntity
  8
COPY_PUBLISH
100
AcDbLine
 62
7
  6
CONTINUOUS
 10
129.2937447164
 20
131.7996777575
 11
129.2937447164
 21
131.3457240155
  0
LINE
  5
2B2
100
AcDbEntity
  8
COPY_PUBLISH
100
AcDbLine
 62
253
  6
CONTINUOUS
 10
129.3669680211
 20
131.7630661051
 11
129.3669680211
 21
131.2539919609
  0
LINE
  5
2B3
100
AcDbEntity
  8
COPY_PUBLISH
100
AcDbLine
 62
253
  6
CONTINUOUS
 10
130.3425131372
 20
131.3780253489
 11
130.3425131372
 21
131.7179992831
  0
LINE
  5
2B4
100
AcDbEntity
  8
COPY_PUBLISH
100
AcDbLine
 62
253
  6
CONTINUOUS
 10
130.6950350969
 20
131.3775126251
 11
130.6950350969
 21
131.7174865592
  0
LINE
  5
2B5
100
AcDbEntity
  8
COPY_PUBLISH
100
AcDbLine
 62
253
  6
CONTINUOUS
 10
131.0537337453
 20
130.4106090988
 11
131.0537337453
 21
131.0994297218
  0
LWPOLYLINE
  5
2B6
100
AcDbEntity
  8
COPY_PUBLISH
100
AcDbPolyline
 62
253
  6
CONTINUOUS
 90
34
 70
0
 10
130.3425131372
 20
131.7179992831
 10
130.3427118851
 20
131.7283623179
 10
130.3433076819
 20
131.7389007985
 10
130.3442991878
 20
131.7495910284
 10
130.3456841735
 20
131.7604089697
 10
130.3474595246
 20
131.7713302975
 10
130.3496212492
 20
131.7823304544
 10
130.3521644864
 20
131.7933847057
 10
130.3550835176
 20
131.8044681951
 10
130.3583717792
 20
131.8155560004
 10
130.3620218772
 20
131.82662319
 10
130.366025604
 20
131.8376448784
 10
130.3703739571
 20
131.8485962825
 10
130.3750571588
 20
131.8594527772
 10
130.3800646786
 20
131.8701899509
 10
130.3853852567
 20
131.8807836603
 10
130.3910069294
 20
131.8912100846
 10
130.3969170558
 20
131.9014457792
 10
130.4031023468
 20
131.9114677284
 10
130.409548894
 20
131.921253397
 10
130.4162422021
 20
131.9307807812
 10
130.4231672206
 20
131.940028458
 10
130.4303083781
 20
131.9489756333
 10
130.4376496171
 20
131.9576021887
 10
130.4451744303
 20
131.9658887267
 10
130.4528658975
 20
131.9738166144
 10
130.4607067241
 20
131.9813680254
 10
130.4686792791
 20
131.9885259797
 10
130.4767656359
 20
131.9952743822
 10
130.4849476115
 20
132.0015980584
 10
130.4932068082
 20
132.0074827893
 10
130.5015246546
 20
132.0129153425
 10
130.5098824473
 20
132.0178835025
 10
130.5182613932
 20
132.022376098
  0
LWPOLYLINE
  5
2B7
100
AcDbEntity
  8
COPY_PUBLISH
100
AcDbPolyline
 62
253
  6
CONTINUOUS
 90
17
 70
0
 10
132.8967268232
 20
132.5213883214
 10
132.8961992851
 20
132.5154667996
 10
132.8951109108
 20
132.5095644394
 10
132.8934641478
 20
132.5036945129
 10
132.8912626988
 20
132.4978702188
 10
132.8885115141
 20
132.4921046538
 10
132.8852167798
 20
132.4864107819
 10
132.8813859045
 20
132.4808014064
 10
132.877027502
 20
132.4752891403
 10
132.8721513727
 20
132.4698863785
 10
132.8667684809
 20
132.4646052693
 10
132.8608909303
 20
132.4594576878
 10
132.8545319372
 20
132.4544552088
 10
132.8477058002
 20
132.4496090806
 10
132.8404278684
 20
132.4449302001
 10
132.8327145068
 20
132.4404290882
 10
132.8245830594
 20
132.436115866
  0
LWPOLYLINE
  5
2B8
100
AcDbEntity
  8
ASSI
100
AcDbPolyline
 62
7
  6
CONTINUOUS
 90
5
 70
0
 10
147.2819659024
 20
131.01457371
 10
147.2853964185
 20
131.0173035276
 10
147.4139555802
 20
131.1091365345
 10
147.5512053856
 20
131.1974177217
 10
147.6974418835
 20
131.2823826684
  0
LWPOLYLINE
  5
2B9
100
AcDbEntity
  8
COPY_PUBLISH
100
AcDbPolyline
 62
7
  6
CONTINUOUS
 90
12
 70
0
 10
141.0302956493
 20
126.716264112
 10
141.0076352042
 20
126.7030944851
 10
140.9862528077
 20
126.6874414606
 10
140.9664924286
 20
126.6694563264
 10
140.9487121827
 20
126.6493990596
 10
140.9331421574
 20
126.6274913971
 10
140.9199238005
 20
126.603855195
 10
140.9092606422
 20
126.5787092769
 10
140.9013885283
 20
126.5524849621
 10
140.8964336628
 20
126.5255744464
 10
140.8944472632
 20
126.4981560789
 10
140.8944097948
 20
126.493756937
  0
LINE
  5
2BA
100
AcDbEntity
  8
COPY_PUBLISH
100
AcDbLine
 62
253
  6
CONTINUOUS
 10
141.1433813154
 20
126.7098161369
 11
142.7261379186
 21
127.5218002342
  0
LINE
  5
2BB
100
AcDbEntity
  8
COPY_PUBLISH
100
AcDbLine
 62
253
  6
CONTINUOUS
 10
142.8219193858
 20
125.8705471017
 11
144.4232001766
 21
126.6732691052
  0
LINE
  5
2BC
100
AcDbEntity
  8
COPY_PUBLISH
100
AcDbLine
 62
253
  6
CONTINUOUS
 10
142.9986930895
 20
125.5656575629
 11
144.5999738803
 21
126.3683795664
  0
LINE
  5
2BD
100
AcDbEntity
  8
0
100
AcDbLine
 62
7
  6
CONTINUOUS
 10
150.8753097695
 20
131.0004136347
 11
149.8292375414
 21
130.4773775206
  0
LINE
  5
2BE
100
AcDbEntity
  8
0
100
AcDbLine
 62
7
  6
CONTINUOUS
 10
151.2868144775
 20
130.7946612807
 11
150.2407422494
 21
130.2716251666
  0
LINE
  5
2BF
100
AcDbEntity
  8
COPY_PUBLISH
100
AcDbLine
 62
7
  6
CONTINUOUS
 10
150.6408560161
 20
129.8236587998
 11
144.9677532152
 21
126.9905423627
  0
LINE
  5
2C0
100
AcDbEntity
  8
COPY_PUBLISH
100
AcDbLine
 62
253
  6
CONTINUOUS
 10
144.4232001766
 20
126.6732691052
 11
144.9514673484
 21
126.9367079252
  0
LINE
  5
2C1
100
AcDbEntity
  8
COPY_PUBLISH
100
AcDbLine
 62
253
  6
CONTINUOUS
 10
144.5999738803
 20
126.3683795664
 11
145.1282410521
 21
126.6318183864
  0
LINE
  5
2C2
100
AcDbEntity
  8
RACCORDO
100
AcDbLine
 62
7
  6
CONTINUOUS
 10
151.0564499266
 20
129.8637713281
 11
160.0103606859
 21
134.245025639
  0
LINE
  5
2C3
100
AcDbEntity
  8
RACCORDO
100
AcDbLine
 62
253
  6
CONTINUOUS
 10
151.1814038329
 20
129.8012943749
 11
160.233204337
 21
134.2304472944
  0
LWPOLYLINE
  5
2C4
100
AcDbEntity
  8
RACCORDO
100
AcDbPolyline
 62
253
  6
CONTINUOUS
 90
10
 70
0
 10
160.233204337
 20
134.2304472944
 10
160.2857240798
 20
134.2537519134
 10
160.337924061
 20
134.2721246174
 10
160.3895155246
 20
134.2854624676
 10
160.4402144105
 20
134.2936904919
 10
160.4897384778
 20
134.2967613229
 10
160.5378092459
 20
134.294656981
 10
160.5841595174
 20
134.2873893271
 10
160.6285341651
 20
134.2749985346
 10
160.6742473567
 20
134.2557967526
  0
LINE
  5
2C5
100
AcDbEntity
  8
RACCORDO
100
AcDbLine
 62
253
  6
CONTINUOUS
 10
160.01036069
 20
134.245025641
 11
160.0248016694
 21
134.2513645067
  0
LWPOLYLINE
  5
2C6
100
AcDbEntity
  8
RACCORDO
100
AcDbPolyline
 62
253
  6
CONTINUOUS
 90
80
 70
0
 10
132.1319468575
 20
102.058051033
 10
132.0066596293
 20
102.1234229384
 10
131.8836014754
 20
102.1929695873
 10
131.7629148861
 20
102.2663329948
 10
131.6449277179
 20
102.3430234692
 10
131.5295480278
 20
102.4228225152
 10
131.4162755685
 20
102.5058619399
 10
131.3051845322
 20
102.5919026151
 10
131.1963823292
 20
102.6806757926
 10
131.0894267998
 20
102.7724032912
 10
130.9843980325
 20
102.866899861
 10
130.8813755617
 20
102.9639754879
 10
130.7799378938
 20
103.0639542288
 10
130.6801458846
 20
103.1667260196
 10
130.5821046992
 20
103.272130797
 10
130.4854902099
 20
103.3805047277
 10
130.390279649
 20
103.4918867786
 10
130.2966884377
 20
103.6060386199
 10
130.2047690748
 20
103.7229184745
 10
130.1145641124
 20
103.8424886486
 10
130.0262199489
 20
103.9645727706
 10
129.9399384311
 20
104.0889121696
 10
129.8558351934
 20
104.2153313552
 10
129.7739547141
 20
104.3437549778
 10
129.694381778
 20
104.4740633565
 10
129.6171996362
 20
104.6061137718
 10
129.5424727259
 20
104.7397894193
 10
129.4702566682
 20
104.8750088492
 10
129.4006143116
 20
105.0116559005
 10
129.333621945
 20
105.1495820454
 10
129.2693541346
 20
105.2886566762
 10
129.207872297
 20
105.4287479924
 10
129.1492382604
 20
105.5697152324
 10
129.0935224498
 20
105.7114125216
 10
129.0407788974
 20
105.8537018475
 10
128.9910585622
 20
105.9964432635
 10
128.944421341
 20
106.139486785
 10
128.9009139201
 20
106.2826855222
 10
128.8605747558
 20
106.4259061629
 10
128.8234464385
 20
106.5690188135
 10
128.789567755
 20
106.7118710267
 10
128.7589671796
 20
106.8543357112
 10
128.7316706991
 20
106.9963209492
 10
128.7077062263
 20
107.1376982015
 10
128.6871014173
 20
107.2783175331
 10
128.6698811101
 20
107.4180548656
 10
128.6560648259
 20
107.5567889938
 10
128.6456714221
 20
107.6943654851
 10
128.6387180296
 20
107.8306123633
 10
128.6352130923
 20
107.9653956182
 10
128.6351604553
 20
108.0985824024
 10
128.6385599215
 20
108.2300069609
 10
128.6454071003
 20
108.3595398867
 10
128.6556931641
 20
108.4870565986
 10
128.6694012782
 20
108.6124043058
 10
128.6865128036
 20
108.7354496514
 10
128.7070081399
 20
108.8560887657
 10
128.7308629065
 20
108.9742174651
 10
128.7580499544
 20
109.0897154249
 10
128.7885413338
 20
109.2024798127
 10
128.8223107124
 20
109.3124335098
 10
128.8593290709
 20
109.4194772176
 10
128.8995581849
 20
109.5234980734
 10
128.9429569297
 20
109.6243996453
 10
128.9894868452
 20
109.7220869086
 10
129.0391018983
 20
109.8164592709
 10
129.0917454042
 20
109.9074163325
 10
129.147368722
 20
109.9948710756
 10
129.2059172082
 20
110.0787354933
 10
129.2673194532
 20
110.1589145342
 10
129.3315144926
 20
110.2353293264
 10
129.398440996
 20
110.3079079182
 10
129.4680216083
 20
110.3765730203
 10
129.5401798031
 20
110.441251891
 10
129.6148530433
 20
110.5018912872
 10
129.6919831223
 20
110.5584459251
 10
129.7715059721
 20
110.6108641448
 10
129.8533376181
 20
110.6590860964
 10
129.937388453
 20
110.7030569075
 10
129.9593676944
 20
110.7136792015
  0
LWPOLYLINE
  5
2C7
100
AcDbEntity
  8
RACCORDO
100
AcDbPolyline
 62
253
  6
CONTINUOUS
 90
100
 70
0
 10
131.4372303872
 20
100.8345423347
 10
131.2863164283
 20
100.9138608941
 10
131.1383712552
 20
100.9973944811
 10
130.9933951822
 20
101.0851432575
 10
130.85149386
 20
101.1773039397
 10
130.7125628544
 20
101.2736804368
 10
130.5762875177
 20
101.373683785
 10
130.4426735642
 20
101.4772083777
 10
130.3117172247
 20
101.5843608213
 10
130.1830896192
 20
101.6948704666
 10
130.0567870859
 20
101.8086490961
 10
129.9328157907
 20
101.925786213
 10
129.8108616157
 20
102.046277759
 10
129.6908816203
 20
102.1700853885
 10
129.5729218254
 20
102.2972490259
 10
129.4568016752
 20
102.4278820791
 10
129.3423683897
 20
102.56212607
 10
129.2297785381
 20
102.6998414152
 10
129.1193156837
 20
102.8407199118
 10
129.0109276852
 20
102.9848583496
 10
128.904670961
 20
103.1321621215
 10
128.8009917861
 20
103.2820358627
 10
128.6999469087
 20
103.434433438
 10
128.6014839836
 20
103.5894032228
 10
128.5058853784
 20
103.7464914791
 10
128.4131696104
 20
103.9056871582
 10
128.3233226573
 20
104.0670035879
 10
128.2365777918
 20
104.2300234475
 10
128.1529345539
 20
104.3947702087
 10
128.0723978993
 20
104.5612226703
 10
127.9952088481
 20
104.7288963078
 10
127.9213776437
 20
104.8978007732
 10
127.8508983265
 20
105.0679285678
 10
127.7839871051
 20
105.2387691815
 10
127.7206572906
 20
105.4103265613
 10
127.6608994755
 20
105.582598711
 10
127.6048951814
 20
105.7550658942
 10
127.552659982
 20
105.9277209799
 10
127.5041816767
 20
106.1005727724
 10
127.4595994485
 20
106.2731250942
 10
127.4189268973
 20
106.4453627517
 10
127.382153181
 20
106.6173022931
 10
127.3493801308
 20
106.7884948037
 10
127.3206147894
 20
106.958952571
 10
127.2958522578
 20
107.1286643461
 10
127.2751757217
 20
107.2971455405
 10
127.2585968766
 20
107.464413058
 10
127.2461054172
 20
107.6304506499
 10
127.2377506748
 20
107.7947235692
 10
127.2335492544
 20
107.9572247651
 10
127.2334850151
 20
108.1179614769
 10
127.2375572405
 20
108.2764199268
 10
127.2457816157
 20
108.4325885754
 10
127.2581419845
 20
108.5864786831
 10
127.2745889459
 20
108.7376102118
 10
127.2951325085
 20
108.8859568445
 10
127.3197612819
 20
109.0315441676
 10
127.3483929222
 20
109.173969578
 10
127.3810326562
 20
109.3132161836
 10
127.4176731261
 20
109.4492997779
 10
127.4582123784
 20
109.5818664246
 10
127.5026604728
 20
109.7109172489
 10
127.5510045977
 20
109.8364497254
 10
127.6031078053
 20
109.9581041027
 10
127.6589813233
 20
110.0758734815
 10
127.7186105642
 20
110.1897630679
 10
127.7818191903
 20
110.2994309408
 10
127.8486182533
 20
110.4048648737
 10
127.9189928214
 20
110.5060751519
 10
127.992726971
 20
110.6027533233
 10
128.0698276727
 20
110.6948814188
 10
128.1502836822
 20
110.7824752818
 10
128.2338512368
 20
110.8652769277
 10
128.3205255517
 20
110.9432641933
 10
128.4103069133
 20
111.0164570153
 10
128.5029587808
 20
111.0846603715
 10
128.5984962721
 20
111.1478686116
 10
128.6968997665
 20
111.2060851662
 10
128.7978803238
 20
111.2591284944
 10
128.9014876168
 20
111.3069888214
 10
129.0076675559
 20
111.3496737524
 10
129.1159752908
 20
111.3870276882
 10
129.2263471903
 20
111.4190072124
 10
129.3388426
 20
111.445653643
 10
129.4532010153
 20
111.4669384254
 10
129.5692656022
 20
111.4828775422
 10
129.6871894107
 20
111.4934531625
 10
129.8071768643
 20
111.498586063
 10
129.9291892709
 20
111.4983621842
 10
130.0532622458
 20
111.4926940856
 10
130.179711789
 20
111.4812425286
 10
130.308531997
 20
111.4641025546
 10
130.4397262593
 20
111.4411778988
 10
130.5736245276
 20
111.4118423699
 10
130.7102316176
 20
111.3761988748
 10
130.8495407524
 20
111.3341435534
 10
130.9918644795
 20
111.2847400563
 10
131.137306527
 20
111.2276760464
 10
131.2857619357
 20
111.163263263
 10
131.4372303872
 20
111.0915015515
  0
LINE
  5
2C8
100
AcDbEntity
  8
COPY_PUBLISH
100
AcDbLine
 62
253
  6
CONTINUOUS
 10
131.406255705
 20
130.4213769805
 11
131.406255705
 21
131.2290091022
  0
LINE
  5
2C9
100
AcDbEntity
  8
COPY_PUBLISH
100
AcDbLine
 62
7
  6
CONTINUOUS
 10
132.2963158877
 20
130.9180579017
 11
132.2963158877
 21
132.5202085627
  0
LINE
  5
2CA
100
AcDbEntity
  8
RACCORDO
100
AcDbLine
 62
7
  6
CONTINUOUS
 10
132.3485126736
 20
103.3058217529
 11
132.3485126736
 21
102.9713960065
  0
LINE
  5
2CB
100
AcDbEntity
  8
RACCORDO
100
AcDbLine
 62
7
  6
CONTINUOUS
 10
132.473092583
 20
103.0096861061
 11
132.473092583
 21
103.3713946033
  0
LINE
  5
2CC
100
AcDbEntity
  8
COPY_PUBLISH
100
AcDbLine
 62
253
  6
CONTINUOUS
 10
132.8245830594
 20
132.7836473827
 11
132.8245830594
 21
132.436115866
  0
LINE
  5
2CD
100
AcDbEntity
  8
COPY_PUBLISH
100
AcDbLine
 62
7
  6
CONTINUOUS
 10
132.8967809164
 20
132.8715200149
 11
132.8967809164
 21
132.5239884982
  0
LINE
  5
2CE
100
AcDbEntity
  8
RACCORDO
100
AcDbLine
 62
7
  6
CONTINUOUS
 10
133.303747784
 20
130.7224836338
 11
133.303747784
 21
129.3296856404
  0
LINE
  5
2CF
100
AcDbEntity
  8
RACCORDO
100
AcDbLine
 62
253
  6
CONTINUOUS
 10
133.3623264278
 20
130.530275189
 11
133.3623264278
 21
129.2563127576
  0
LINE
  5
2D0
100
AcDbEntity
  8
COPY_PUBLISH
100
AcDbLine
 62
253
  6
CONTINUOUS
 10
132.8967809164
 20
132.5239884982
 11
132.8967268232
 21
132.5213883214
  0
LWPOLYLINE
  5
2D1
100
AcDbEntity
  8
COPY_PUBLISH
100
AcDbPolyline
 62
253
  6
CONTINUOUS
 90
18
 70
0
 10
132.8967809164
 20
132.8715199964
 10
132.8967262369
 20
132.868905785
 10
132.8961972639
 20
132.8629835398
 10
132.8951073254
 20
132.8570805324
 10
132.8934588783
 20
132.8512100227
 10
132.89125562
 20
132.8453851756
 10
132.8885024729
 20
132.8396190387
 10
132.8852056426
 20
132.8339246364
 10
132.881372628
 20
132.828314897
 10
132.877012142
 20
132.8228025058
 10
132.8721339724
 20
132.817399778
 10
132.8667490123
 20
132.8121187591
 10
132.8608684513
 20
132.8069705621
 10
132.8545062895
 20
132.8019675718
 10
132.8476798886
 20
132.7971231014
 10
132.8404062675
 20
132.7924484913
 10
132.8327013795
 20
132.7879533029
 10
132.8245830594
 20
132.7836473827
  0
LWPOLYLINE
  5
2D2
100
AcDbEntity
  8
COPY_PUBLISH
100
AcDbPolyline
 62
7
  6
CONTINUOUS
 90
6
 70
0
 10
132.8967809164
 20
132.5239884982
 10
132.8955130859
 20
132.4988439743
 10
132.8916859394
 20
132.4737740522
 10
132.8852970479
 20
132.4490881975
 10
132.8763926324
 20
132.4251024155
 10
132.8650599757
 20
132.4021104851
  0
LWPOLYLINE
  5
2D3
100
AcDbEntity
  8
0
100
AcDbPolyline
 62
7
  6
CONTINUOUS
 90
42
 70
0
 10
131.1725228353
 20
110.7482421887
 10
131.1415131191
 20
110.6281982535
 10
131.1026490229
 20
110.4422869048
 10
131.0714988154
 20
110.2505553892
 10
131.0480148938
 20
110.0530396232
 10
131.0323427773
 20
109.850963522
 10
131.0245309722
 20
109.6442987686
 10
131.0245309722
 20
109.43307368
 10
131.0323427773
 20
109.2185971216
 10
131.0480148938
 20
109.0008489038
 10
131.0714988154
 20
108.7798492162
 10
131.1026490229
 20
108.5569674931
 10
131.1415131191
 20
108.3321920482
 10
131.1880435013
 20
108.1055345678
 10
131.2419518418
 20
107.8783995448
 10
131.3032839532
 20
107.650784014
 10
131.3719940229
 20
107.4226909407
 10
131.4476562861
 20
107.1955337135
 10
131.5303139114
 20
106.9693181435
 10
131.6199237301
 20
106.7440384197
 10
131.715930471
 20
106.5210904977
 10
131.8183738551
 20
106.3004888566
 10
131.9272141615
 20
106.0822190173
 10
132.0417769563
 20
105.8676334984
 10
132.1620977728
 20
105.6567551773
 10
132.2881410777
 20
105.4495611767
 10
132.4191258384
 20
105.2473353832
 10
132.555082738
 20
105.0501086462
 10
132.6959810933
 20
104.8578501164
 10
132.8409478215
 20
104.6717511321
 10
132.9900081846
 20
104.4918499403
 10
133.1431369205
 20
104.3181082939
 10
133.2993851603
 20
104.1516027909
 10
133.4587722742
 20
103.9923783629
 10
133.6212788921
 20
103.8403900782
 10
133.7858980345
 20
103.6965797388
 10
133.9526428189
 20
103.5609981246
 10
134.121500128
 20
103.4335944557
 10
134.2914236298
 20
103.3151581946
 10
134.4620645473
 20
103.2059524952
 10
134.6337716577
 20
103.1057142036
 10
134.8065449609
 20
103.0144433197
  0
LWPOLYLINE
  5
2D4
100
AcDbEntity
  8
0
100
AcDbPolyline
 62
7
  6
CONTINUOUS
 90
41
 70
0
 10
131.5552566295
 20
110.6070145307
 10
131.5159946184
 20
110.476294025
 10
131.4738031268
 20
110.3044296775
 10
131.4390545369
 20
110.126167281
 10
131.4119841104
 20
109.9427137418
 10
131.3926439489
 20
109.7540338344
 10
131.3809819507
 20
109.5601627843
 10
131.3770770721
 20
109.3624131743
 10
131.3809819507
 20
109.1607586858
 10
131.3926439489
 20
108.9552256375
 10
131.4119841104
 20
108.7472055686
 10
131.4390545369
 20
108.5366816029
 10
131.4738031268
 20
108.3236706166
 10
131.5159946184
 20
108.1096147774
 10
131.5656795171
 20
107.8945069953
 10
131.6228073176
 20
107.6783543604
 10
131.6869912422
 20
107.4626203106
 10
131.7582791719
 20
107.2473076863
 10
131.8366232257
 20
107.032413647
 10
131.9214929837
 20
106.8193931097
 10
132.0129327276
 20
106.6082587872
 10
132.1108981757
 20
106.3989979666
 10
132.2147260637
 20
106.1930274256
 10
132.3244561723
 20
105.990369491
 10
132.4400487207
 20
105.7910018359
 10
132.5607211022
 20
105.5962742574
 10
132.686507787
 20
105.4062182417
 10
132.8173743048
 20
105.2208023026
 10
132.9524346381
 20
105.0412817787
 10
133.0917172448
 20
104.8676966743
 10
133.2351936671
 20
104.7000069851
 10
133.3818925133
 20
104.5393480358
 10
133.5318356499
 20
104.385767535
 10
133.6850012104
 20
104.2392177741
 10
133.840352204
 20
104.1006909524
 10
133.9979034605
 20
103.9702415112
 10
134.1576401501
 20
103.8478150091
 10
134.3184807929
 20
103.7342403216
 10
134.4800648957
 20
103.6297937404
 10
134.6427529517
 20
103.5341989738
 10
134.8065449609
 20
103.4474560216
  0
LWPOLYLINE
  5
2D5
100
AcDbEntity
  8
COPY_PUBLISH
100
AcDbPolyline
 62
253
  6
CONTINUOUS
 90
43
 70
0
 10
140.289435532
 20
122.0429059508
 10
140.2662446148
 20
122.0295753372
 10
140.2431186173
 20
122.0153597664
 10
140.2200818858
 20
122.000274467
 10
140.1971585825
 20
121.9843357769
 10
140.1743729262
 20
121.9675605736
 10
140.1517491743
 20
121.9499662142
 10
140.1293109613
 20
121.9315713157
 10
140.1070821047
 20
121.9123956468
 10
140.0850868454
 20
121.8924595499
 10
140.0633484415
 20
121.8717843926
 10
140.0418896713
 20
121.8503921612
 10
140.0207336454
 20
121.8283053171
 10
139.9999026307
 20
121.8055473963
 10
139.9794185642
 20
121.7821426825
 10
139.9593035528
 20
121.7581158159
 10
139.9395787593
 20
121.7334923652
 10
139.9202649673
 20
121.708298608
 10
139.9013830962
 20
121.6825611972
 10
139.8829530571
 20
121.6563075829
 10
139.8649942141
 20
121.6295657092
 10
139.8475259509
 20
121.6023637913
 10
139.8305666707
 20
121.5747307939
 10
139.814134211
 20
121.5466961483
 10
139.7982463062
 20
121.5182894494
 10
139.7829196794
 20
121.4895408954
 10
139.7681704696
 20
121.4604811295
 10
139.7540146456
 20
121.4311409549
 10
139.7404671385
 20
121.4015516277
 10
139.7275421699
 20
121.3717446055
 10
139.7152536817
 20
121.3417513872
 10
139.7036146341
 20
121.3116038956
 10
139.6926372488
 20
121.2813341861
 10
139.6823333441
 20
121.2509741949
 10
139.6727137497
 20
121.2205560706
 10
139.6637886233
 20
121.1901122985
 10
139.6555676842
 20
121.1596754068
 10
139.6480596478
 20
121.1292779849
 10
139.6412723141
 20
121.0989521148
 10
139.6352129152
 20
121.0687294992
 10
139.6298878828
 20
121.0386420866
 10
139.6253028074
 20
121.0087220325
 10
139.6214625313
 20
120.9790011355
  0
LWPOLYLINE
  5
2D6
100
AcDbEntity
  8
COPY_PUBLISH
100
AcDbPolyline
 62
253
  6
CONTINUOUS
 90
43
 70
0
 10
140.655268272
 20
121.4399035051
 10
140.6435600021
 20
121.4332800692
 10
140.6319067003
 20
121.4262285898
 10
140.6203083667
 20
121.4187490669
 10
140.6087521295
 20
121.4108322875
 10
140.5972508606
 20
121.4024874645
 10
140.5858431744
 20
121.3937422371
 10
140.5745300085
 20
121.3845956722
 10
140.5633104255
 20
121.3750487028
 10
140.5522202278
 20
121.3651317666
 10
140.541259877
 20
121.3548437186
 10
140.5304289114
 20
121.3441857038
 10
140.5197617486
 20
121.333191595
 10
140.5092589006
 20
121.3218603186
 10
140.4989198554
 20
121.3101929481
 10
140.4887774933
 20
121.2982265774
 10
140.4788324188
 20
121.2859602223
 10
140.4690840274
 20
121.273394867
 10
140.4595633866
 20
121.2605705578
 10
140.4502712418
 20
121.2474864906
 10
140.4412068475
 20
121.2341434695
 10
140.4323990347
 20
121.2205839532
 10
140.4238486253
 20
121.2068072606
 10
140.4155547974
 20
121.1928140729
 10
140.4075439162
 20
121.1786488919
 10
140.3998168744
 20
121.1643111533
 10
140.3923727794
 20
121.1498014214
 10
140.3852353183
 20
121.135165891
 10
140.3784054784
 20
121.120404181
 10
140.3718822725
 20
121.1055166726
 10
140.3656864265
 20
121.0905507038
 10
140.3598189819
 20
121.0755060379
 10
140.3542788971
 20
121.0603829115
 10
140.3490837728
 20
121.0452293727
 10
140.3442346973
 20
121.0300452612
 10
140.3397305823
 20
121.0148307372
 10
140.3355857646
 20
120.9996343297
 10
140.3318012699
 20
120.984455084
 10
140.3283760725
 20
120.9692939548
 10
140.3253214321
 20
120.9542023352
 10
140.3226411021
 20
120.9391973561
 10
140.3203313291
 20
120.9242618866
 10
140.3183921132
 20
120.9093959267
  0
LINE
  5
2D7
100
AcDbEntity
  8
COPY_PUBLISH
100
AcDbLine
 62
7
  6
CONTINUOUS
 10
144.5999738803
 20
124.7662289054
 11
143.7099136976
 21
124.2695479841
  0
LWPOLYLINE
  5
2D8
100
AcDbEntity
  8
RACCORDO
100
AcDbPolyline
 62
7
  6
CONTINUOUS
 90
3
 70
0
 10
150.9798620086
 20
127.223551524
 10
150.9984979432
 20
127.233806435
 10
151.0385952495
 20
127.2599894122
  0
LINE
  5
2D9
100
AcDbEntity
  8
COPY_PUBLISH
100
AcDbLine
 62
253
  6
CONTINUOUS
 10
144.9537963956
 20
124.5893176478
 11
140.289435532
 21
122.0429059508
  0
LINE
  5
2DA
100
AcDbEntity
  8
COPY_PUBLISH
100
AcDbLine
 62
253
  6
CONTINUOUS
 10
145.3070806615
 20
123.9794646212
 11
140.655268272
 21
121.4399035051
  0
LINE
  5
2DB
100
AcDbEntity
  8
RACCORDO
100
AcDbLine
 62
7
  6
CONTINUOUS
 10
151.6120464812
 20
128.1893966006
 11
145.5583094059
 21
124.9891295354
  0
LINE
  5
2DC
100
AcDbEntity
  8
COPY_PUBLISH
100
AcDbLine
 62
7
  6
CONTINUOUS
 10
151.6120464812
 20
128.9343693494
 11
144.8042712622
 21
125.3661486073
  0
LINE
  5
2DD
100
AcDbEntity
  8
RACCORDO
100
AcDbLine
 62
253
  6
CONTINUOUS
 10
145.9304779937
 20
124.6405287334
 11
151.0051801981
 21
127.2772728444
  0
LINE
  5
2DE
100
AcDbEntity
  8
RACCORDO
100
AcDbLine
 62
7
  6
CONTINUOUS
 10
145.945722918
 20
124.6078618113
 11
150.9799614937
 21
127.2235815882
  0
LINE
  5
2DF
100
AcDbEntity
  8
COPY_PUBLISH
100
AcDbLine
 62
253
  6
CONTINUOUS
 10
145.6544677121
 20
124.9410503823
 11
144.9535317583
 21
124.5894499664
  0
LINE
  5
2E0
100
AcDbEntity
  8
COPY_PUBLISH
100
AcDbLine
 62
253
  6
CONTINUOUS
 10
146.0080166153
 20
124.3312778846
 11
145.3070806615
 21
123.9796774687
  0
LINE
  5
2E1
100
AcDbEntity
  8
RACCORDO
100
AcDbLine
 62
253
  6
CONTINUOUS
 10
146.0080166153
 20
124.3099044868
 11
163.0749216168
 21
132.8095886545
  0
LWPOLYLINE
  5
2E2
100
AcDbEntity
  8
DRAFT
100
AcDbPolyline
 62
7
  6
CONTINUOUS
 90
10
 70
0
 10
132.5438032611
 20
102.2727839015
 10
132.7461841982
 20
102.1789141323
 10
132.9466575198
 20
102.1001497362
 10
133.1452232259
 20
102.0364907131
 10
133.3426558364
 20
101.987817236
 10
133.5381808314
 20
101.9542491319
 10
133.7294746516
 20
101.9361458822
 10
133.9162123245
 20
101.9336516542
 10
134.0987188225
 20
101.9466222805
 10
134.2756455033
 20
101.9749847406
  0
LINE
  5
2E3
100
AcDbEntity
  8
RACCORDO
100
AcDbLine
 62
7
  6
CONTINUOUS
 10
151.482052896
 20
92.9246209141
 11
151.6059299717
 21
92.8626823764
  0
LINE
  5
2E4
100
AcDbEntity
  8
RACCORDO
100
AcDbLine
 62
7
  6
CONTINUOUS
 10
151.4642993455
 20
92.934526651
 11
151.4820528961
 21
92.9246209142
  0
LWPOLYLINE
  5
2E5
100
AcDbEntity
  8
RACCORDO
100
AcDbPolyline
 62
253
  6
CONTINUOUS
 90
8
 70
0
 10
151.424523854
 20
92.88404099
 10
151.4059157232
 20
92.8946778666
 10
151.3876470712
 20
92.9081065088
 10
151.3700304498
 20
92.9240971687
 10
151.3533672548
 20
92.9423762662
 10
151.3379425702
 20
92.962631069
 10
151.3240202906
 20
92.9845150433
 10
151.3118386061
 20
93.0076537823
  0
LWPOLYLINE
  5
2E6
100
AcDbEntity
  8
0
100
AcDbPolyline
 62
7
  6
CONTINUOUS
 90
13
 70
0
 10
133.7458847891
 20
105.938385409
 10
133.8679108861
 20
105.765038437
 10
133.9934496545
 20
105.5970105596
 10
134.1225010943
 20
105.4343017769
 10
134.2553550976
 20
105.2765799554
 10
134.3917217723
 20
105.1241772284
 10
134.530731442
 20
104.9780899969
 10
134.672379222
 20
104.8383864285
 10
134.816669997
 20
104.7049983554
 10
134.9627487458
 20
104.5787176752
 10
135.1106213317
 20
104.4595893363
 10
135.2602818913
 20
104.3475683904
 10
135.2971370567
 20
104.3220504286
  0
LWPOLYLINE
  5
2E7
100
AcDbEntity
  8
RACCORDO
100
AcDbPolyline
 62
253
  6
CONTINUOUS
 90
13
 70
0
 10
134.0225459512
 20
130.3403526651
 10
134.0212384374
 20
130.363516291
 10
134.0175548984
 20
130.3875039189
 10
134.0115583568
 20
130.4119051405
 10
134.0033514082
 20
130.4363024708
 10
133.9930744668
 20
130.4602784919
 10
133.9809033626
 20
130.4834229938
 10
133.9670463331
 20
130.5053399933
 10
133.9517404607
 20
130.5256545085
 10
133.935247616
 20
130.544018975
 10
133.9178499781
 20
130.5601191919
 10
133.8998452061
 20
130.5736796979
 10
133.8815413469
 20
130.5844684839
  0
LWPOLYLINE
  5
2E8
100
AcDbEntity
  8
RACCORDO
100
AcDbPolyline
 62
7
  6
CONTINUOUS
 90
11
 70
0
 10
133.3037483454
 20
130.7229231851
 10
133.3046140898
 20
130.7022453524
 10
133.3068335591
 20
130.6826995301
 10
133.3103025499
 20
130.6629368973
 10
133.3149429851
 20
130.6432155519
 10
133.3206752177
 20
130.6235609725
 10
133.3273954508
 20
130.6040193601
 10
133.335014294
 20
130.58487459
 10
133.3434397558
 20
130.5662345834
 10
133.3525749273
 20
130.5480307356
 10
133.3623264278
 20
130.530275189
  0
LINE
  5
2E9
100
AcDbEntity
  8
RACCORDO
100
AcDbLine
 62
7
  6
CONTINUOUS
 10
134.5940973624
 20
130.776306759
 11
134.5942427578
 21
130.7310260156
  0
LINE
  5
2EA
100
AcDbEntity
  8
RACCORDO
100
AcDbLine
 62
253
  6
CONTINUOUS
 10
133.7409427421
 20
129.0670046004
 11
133.7409427421
 21
130.3409670319
  0
LINE
  5
2EB
100
AcDbEntity
  8
RACCORDO
100
AcDbLine
 62
253
  6
CONTINUOUS
 10
134.0225459512
 20
129.0753883139
 11
134.0225459512
 21
130.3403526651
  0
LWPOLYLINE
  5
2EC
100
AcDbEntity
  8
RACCORDO
100
AcDbPolyline
 62
7
  6
CONTINUOUS
 90
3
 70
0
 10
134.5942427578
 20
130.7310260156
 10
134.5942006694
 20
130.7082555924
 10
134.5943655895
 20
130.644416831
  0
LINE
  5
2ED
100
AcDbEntity
  8
RACCORDO
100
AcDbLine
 62
7
  6
CONTINUOUS
 10
134.5943655895
 20
130.644416831
 11
134.5944129265
 21
129.3927627576
  0
LWPOLYLINE
  5
2EE
100
AcDbEntity
  8
COPY_PUBLISH
100
AcDbPolyline
 62
253
  6
CONTINUOUS
 90
31
 70
0
 10
136.21890189
 20
129.8141326276
 10
136.2190934314
 20
129.8232400076
 10
136.2196679764
 20
129.8325196317
 10
136.2206246252
 20
129.8419466004
 10
136.2219617273
 20
129.8514973778
 10
136.2236761506
 20
129.8611443801
 10
136.2257625691
 20
129.870855896
 10
136.2282147756
 20
129.8806035348
 10
136.2310264775
 20
129.8903627088
 10
136.2341901127
 20
129.9001071223
 10
136.2376971692
 20
129.909810438
 10
136.2415380727
 20
129.9194460585
 10
136.2457022664
 20
129.9289874681
 10
136.250178354
 20
129.938408579
 10
136.2549542015
 20
129.9476838743
 10
136.2600168523
 20
129.9567881883
 10
136.2653525528
 20
129.9656967726
 10
136.2709467662
 20
129.9743853426
 10
136.2767842535
 20
129.9828302226
 10
136.2828491241
 20
129.9910084206
 10
136.2891248762
 20
129.9988976811
 10
136.2955944246
 20
130.0064765231
 10
136.3022401614
 20
130.0137243167
 10
136.3090439992
 20
130.0206213337
 10
136.3159874146
 20
130.0271487952
 10
136.3230515142
 20
130.0332889377
 10
136.3302170665
 20
130.0390250435
 10
136.3374645485
 20
130.044341485
 10
136.3447742269
 20
130.0492237901
 10
136.3521262125
 20
130.0536586777
 10
136.3595004947
 20
130.0576340795
  0
LWPOLYLINE
  5
2EF
100
AcDbEntity
  8
RACCORDO
100
AcDbPolyline
 62
7
  6
CONTINUOUS
 90
6
 70
0
 10
134.5948189555
 20
130.9399748492
 10
134.5944162572
 20
130.9237307219
 10
134.5943577491
 20
130.9058606602
 10
134.5944744169
 20
130.8864824498
 10
134.5944818046
 20
130.8655302956
 10
134.5940973624
 20
130.776306759
  0
LWPOLYLINE
  5
2F0
100
AcDbEntity
  8
COPY_PUBLISH
100
AcDbPolyline
 62
7
  6
CONTINUOUS
 90
25
 70
0
 10
140.5694652276
 20
127.2422564238
 10
140.5750432178
 20
127.2542832925
 10
140.5801503138
 20
127.2667478322
 10
140.5847865156
 20
127.279650043
 10
140.5889569759
 20
127.2930093498
 10
140.592656542
 20
127.3068063275
 10
140.5958697556
 20
127.3209827017
 10
140.5985945806
 20
127.3355400513
 10
140.6008330531
 20
127.3504767972
 10
140.602575823
 20
127.3657299277
 10
140.6038208166
 20
127.3813007618
 10
140.6045701076
 20
127.3971879805
 10
140.6048205666
 20
127.4133246151
 10
140.6045701076
 20
127.4297117088
 10
140.6038208166
 20
127.4463482184
 10
140.602575823
 20
127.4631640461
 10
140.6008330531
 20
127.4801599465
 10
140.5985945806
 20
127.497335165
 10
140.5958697556
 20
127.5146173395
 10
140.592656542
 20
127.5320069273
 10
140.5889569759
 20
127.5495034712
 10
140.5847865156
 20
127.5670332382
 10
140.5801503138
 20
127.5845716508
 10
140.5750432178
 20
127.6021432866
 10
140.5694652276
 20
127.6197481455
  0
LWPOLYLINE
  5
2F1
100
AcDbEntity
  8
COPY_PUBLISH
100
AcDbPolyline
 62
7
  6
CONTINUOUS
 90
31
 70
0
 10
145.8419123846
 20
129.8457903717
 10
145.8502251842
 20
129.8564836764
 10
145.8580045107
 20
129.8677985993
 10
145.8652503643
 20
129.8797351404
 10
145.8719733546
 20
129.8923159308
 10
145.8781628719
 20
129.9055183394
 10
145.8837870871
 20
129.9192744731
 10
145.8888430881
 20
129.9335871845
 10
145.893333787
 20
129.948453621
 10
145.8972360907
 20
129.9637973325
 10
145.9005469682
 20
129.9796207776
 10
145.9032694505
 20
129.9959214977
 10
145.9053895373
 20
130.0126156671
 10
145.9069041257
 20
130.0297053124
 10
145.9078163188
 20
130.0471884069
 10
145.9081214255
 20
130.0649750446
 10
145.9078163188
 20
130.083066789
 10
145.9069041257
 20
130.1014620765
 10
145.9053895373
 20
130.1200663102
 10
145.9032694505
 20
130.1388805665
 10
145.9005469682
 20
130.1579037689
 10
145.8972360907
 20
130.1770380914
 10
145.893333787
 20
130.1962841066
 10
145.8888430881
 20
130.215641242
 10
145.8837870871
 20
130.2350099544
 10
145.8781628719
 20
130.2543903033
 10
145.8719733546
 20
130.2737822292
 10
145.8652503643
 20
130.2930860099
 10
145.8580045107
 20
130.3122684046
 10
145.8502251842
 20
130.331362654
 10
145.8419123846
 20
130.3503687583
  0
LINE
  5
2F2
100
AcDbEntity
  8
COPY_PUBLISH
100
AcDbLine
 62
253
  6
CONTINUOUS
 10
145.1436378841
 20
126.2134959629
 11
145.1436016243
 21
126.2134517029
  0
LINE
  5
2F3
100
AcDbEntity
  8
COPY_PUBLISH
100
AcDbLine
 62
253
  6
CONTINUOUS
 10
144.5999738803
 20
125.6413347139
 11
145.1282410521
 21
126.2842868697
  0
LINE
  5
2F4
100
AcDbEntity
  8
COPY_PUBLISH
100
AcDbLine
 62
7
  6
CONTINUOUS
 10
144.5999738803
 20
125.5518042476
 11
145.1436016245
 21
126.2134517031
  0
LWPOLYLINE
  5
2F5
100
AcDbEntity
  8
DRAFT
100
AcDbPolyline
 62
7
  6
CONTINUOUS
 90
41
 70
0
 10
130.0236795566
 20
110.6886331379
 10
129.8901396059
 20
110.5716203355
 10
129.7651258255
 20
110.4402915529
 10
129.648843045
 20
110.2950601141
 10
129.5428496884
 20
110.137850107
 10
129.4474618297
 20
109.9688540173
 10
129.3623633951
 20
109.7878793594
 10
129.2881645873
 20
109.5962727644
 10
129.2248504475
 20
109.393643694
 10
129.1724359347
 20
109.1803826863
 10
129.1315761288
 20
108.9590079879
 10
129.1024449519
 20
108.729602454
 10
129.084868482
 20
108.4920832293
 10
129.0789800333
 20
108.248719994
 10
129.084868482
 20
107.9994683099
 10
129.1024449519
 20
107.7443726153
 10
129.1315761288
 20
107.4858359045
 10
129.1724359347
 20
107.2236014002
 10
129.2248504475
 20
106.9579258797
 10
129.2881645873
 20
106.6919826694
 10
129.3623633951
 20
106.4261772667
 10
129.4474618297
 20
106.1601041742
 10
129.5428496884
 20
105.8957202258
 10
129.648843045
 20
105.6325168622
 10
129.7651258255
 20
105.3710026428
 10
129.8901396059
 20
105.1146600798
 10
130.0236795566
 20
104.8641073268
 10
130.165950507
 20
104.6187262303
 10
130.316008522
 20
104.3801448424
 10
130.4742747056
 20
104.1479017445
 10
130.6403279537
 20
103.9224583553
 10
130.8119610189
 20
103.7068269827
 10
130.9888876997
 20
103.5015378418
 10
131.1713941977
 20
103.3060607175
 10
131.3581318706
 20
103.1218172727
 10
131.5494256907
 20
102.9486267023
 10
131.7449506858
 20
102.7866698113
 10
131.9423832963
 20
102.637910678
 10
132.1409490024
 20
102.5030039949
 10
132.341422324
 20
102.3812950694
 10
132.5438032611
 20
102.2727839015
  0
LINE
  5
2F6
100
AcDbEntity
  8
RACCORDO
100
AcDbLine
 62
7
  6
CONTINUOUS
 10
151.0385952495
 20
127.2599894122
 11
151.0774094263
 21
127.2910429105
  0
LWPOLYLINE
  5
2F7
100
AcDbEntity
  8
RACCORDO
100
AcDbPolyline
 62
253
  6
CONTINUOUS
 90
6
 70
0
 10
151.2831078826
 20
127.7650804489
 10
151.2941404962
 20
127.771765658
 10
151.3026983724
 20
127.7793030552
 10
151.3085243582
 20
127.7874661518
 10
151.3114433903
 20
127.7960096578
 10
151.3117828376
 20
127.8001237164
  0
LWPOLYLINE
  5
2F8
100
AcDbEntity
  8
RACCORDO
100
AcDbPolyline
 62
253
  6
CONTINUOUS
 90
15
 70
0
 10
151.0051801981
 20
127.2772728444
 10
151.0347396876
 20
127.2946420779
 10
151.063380578
 20
127.3150964836
 10
151.0911028691
 20
127.3386360616
 10
151.118198268
 20
127.3655885788
 10
151.1443750677
 20
127.3956262683
 10
151.1687581476
 20
127.4277658292
 10
151.1912769878
 20
127.4620684191
 10
151.2120021081
 20
127.4984728804
 10
151.2302699473
 20
127.5358124396
 10
151.2460015061
 20
127.5741453146
 10
151.2592757837
 20
127.6134132873
 10
151.2696662166
 20
127.65227493
 10
151.2770306167
 20
127.6902830998
 10
151.2815111721
 20
127.7278849394
  0
LINE
  5
2F9
100
AcDbEntity
  8
COPY_PUBLISH
100
AcDbLine
 62
7
  6
CONTINUOUS
 10
146.0080166153
 20
122.9587766019
 11
146.3677408333
 21
123.1386387109
  0
LINE
  5
2FA
100
AcDbEntity
  8
COPY_PUBLISH
100
AcDbLine
 62
7
  6
CONTINUOUS
 10
146.0080166153
 20
123.2942395818
 11
146.0327013349
 21
123.3061584601
  0
LINE
  5
2FB
100
AcDbEntity
  8
COPY_PUBLISH
100
AcDbLine
 62
7
  6
CONTINUOUS
 10
147.059420546
 20
121.5450143391
 11
145.3070806615
 21
121.0351764401
  0
LWPOLYLINE
  5
2FC
100
AcDbEntity
  8
0
100
AcDbPolyline
 62
7
  6
CONTINUOUS
 90
3
 70
0
 10
135.0926930856
 20
102.8857514477
 10
134.9793182641
 20
102.9329409004
 10
134.8065449609
 20
103.0144433197
  0
LWPOLYLINE
  5
2FD
100
AcDbEntity
  8
0
100
AcDbPolyline
 62
7
  6
CONTINUOUS
 90
4
 70
0
 10
134.8065449609
 20
103.4474560216
 10
134.9703369701
 20
103.3704069646
 10
135.1330250261
 20
103.3033136752
 10
135.2038173151
 20
103.278280916
  0
LWPOLYLINE
  5
2FE
100
AcDbEntity
  8
COPY_PUBLISH
100
AcDbPolyline
 62
253
  6
CONTINUOUS
 90
14
 70
0
 10
145.1295634291
 20
85.200205722
 10
145.1253174992
 20
85.21016215
 10
145.1206768788
 20
85.2198080077
 10
145.1156520412
 20
85.2291215249
 10
145.1102543274
 20
85.2380816815
 10
145.1044959197
 20
85.246668255
 10
145.0983898143
 20
85.2548618659
 10
145.0919497925
 20
85.2626440218
 10
145.085190389
 20
85.2699971589
 10
145.0781268594
 20
85.2769046815
 10
145.0707751456
 20
85.2833509997
 10
145.06315184
 20
85.2893215647
 10
145.055274148
 20
85.2948029011
 10
145.0471598491
 20
85.299782638
  0
LWPOLYLINE
  5
2FF
100
AcDbEntity
  8
COPY_PUBLISH
100
AcDbPolyline
 62
253
  6
CONTINUOUS
 90
24
 70
0
 10
139.6214625313
 20
84.2409607759
 10
139.6253028074
 20
84.2150135417
 10
139.6298878828
 20
84.1895992523
 10
139.6352129152
 20
84.164744864
 10
139.6412723141
 20
84.1404768188
 10
139.6480596478
 20
84.1168207565
 10
139.6555676842
 20
84.0938015174
 10
139.6637886233
 20
84.0714433421
 10
139.6727137497
 20
84.0497701459
 10
139.6823333441
 20
84.0288052331
 10
139.6926372488
 20
84.0085708953
 10
139.7036146341
 20
83.9890884872
 10
139.7152536817
 20
83.9703787289
 10
139.7275421699
 20
83.9524614175
 10
139.7404671385
 20
83.9353555522
 10
139.7540146456
 20
83.919079402
 10
139.7681704696
 20
83.9036501695
 10
139.7829196794
 20
83.8890842131
 10
139.7982463062
 20
83.8753971796
 10
139.814134211
 20
83.8626035424
 10
139.8305666707
 20
83.8507168074
 10
139.8475259509
 20
83.8397497396
 10
139.8649942141
 20
83.8297139049
 10
139.8751260546
 20
83.8244372343
  0
LINE
  5
300
100
AcDbEntity
  8
COPY_PUBLISH
100
AcDbLine
 62
7
  6
CONTINUOUS
 10
137.4124191756
 20
129.0583185294
 11
137.4038584712
 21
130.2659649805
  0
LINE
  5
301
100
AcDbEntity
  8
COPY_PUBLISH
100
AcDbLine
 62
253
  6
CONTINUOUS
 10
136.21890189
 20
128.5805182759
 11
136.21890189
 21
129.8141326276
  0
LINE
  5
302
100
AcDbEntity
  8
COPY_PUBLISH
100
AcDbLine
 62
253
  6
CONTINUOUS
 10
136.500505099
 20
128.5889019894
 11
136.500505099
 21
129.8135182608
  0
LINE
  5
303
100
AcDbEntity
  8
COPY_PUBLISH
100
AcDbLine
 62
7
  6
CONTINUOUS
 10
136.7157332701
 20
128.7083492105
 11
136.7157332701
 21
129.9207906381
  0
LINE
  5
304
100
AcDbEntity
  8
COPY_PUBLISH
100
AcDbLine
 62
7
  6
CONTINUOUS
 10
137.8610927877
 20
129.0344585349
 11
137.8610927877
 21
127.8035050562
  0
LINE
  5
305
100
AcDbEntity
  8
COPY_PUBLISH
100
AcDbLine
 62
253
  6
CONTINUOUS
 10
137.9196714314
 20
128.9637478568
 11
137.9196714314
 21
127.7301335052
  0
LWPOLYLINE
  5
306
100
AcDbEntity
  8
COPY_PUBLISH
100
AcDbPolyline
 62
253
  6
CONTINUOUS
 90
31
 70
0
 10
137.9196714314
 20
128.9637478568
 10
137.9198629728
 20
128.9728552369
 10
137.9204375179
 20
128.982134861
 10
137.9213941666
 20
128.9915618297
 10
137.9227312688
 20
129.001112607
 10
137.9244456921
 20
129.0107596094
 10
137.9265321106
 20
129.0204711253
 10
137.9289843171
 20
129.0302187641
 10
137.9317960189
 20
129.039977938
 10
137.9349596542
 20
129.0497223516
 10
137.9384667107
 20
129.0594256673
 10
137.9423076142
 20
129.0690612877
 10
137.9464718078
 20
129.0786026973
 10
137.9509478955
 20
129.0880238082
 10
137.955723743
 20
129.0972991035
 10
137.9607863938
 20
129.1064034175
 10
137.9661220943
 20
129.1153120019
 10
137.9717163077
 20
129.1240005719
 10
137.977553795
 20
129.1324454519
 10
137.9836186655
 20
129.1406236498
 10
137.9898944176
 20
129.1485129104
 10
137.9963639661
 20
129.1560917523
 10
138.0030097029
 20
129.163339546
 10
138.0098135406
 20
129.170236563
 10
138.0167569561
 20
129.1767640245
 10
138.0238210557
 20
129.182904167
 10
138.0309866079
 20
129.1886402728
 10
138.0382340899
 20
129.1939567143
 10
138.0455437684
 20
129.1988390194
 10
138.052895754
 20
129.203273907
 10
138.0602700362
 20
129.2072493088
  0
LWPOLYLINE
  5
307
100
AcDbEntity
  8
RACCORDO
100
AcDbPolyline
 62
253
  6
CONTINUOUS
 90
13
 70
0
 10
138.9834170169
 20
127.7197298945
 10
138.9845650175
 20
127.7423283935
 10
138.9880225532
 20
127.7658749609
 10
138.9937805408
 20
127.7899944258
 10
139.0018100563
 20
127.8143433322
 10
139.0120085342
 20
127.8384485489
 10
139.0241535603
 20
127.861728149
 10
139.0380052511
 20
127.8837354353
 10
139.0533497976
 20
127.9041421793
 10
139.0699166653
 20
127.922589897
 10
139.0874178121
 20
127.9387618832
 10
139.1055545751
 20
127.952385977
 10
139.1240156217
 20
127.9632313465
  0
LWPOLYLINE
  5
308
100
AcDbEntity
  8
COPY_PUBLISH
100
AcDbPolyline
 62
7
  6
CONTINUOUS
 90
10
 70
0
 10
137.8610927877
 20
129.0344585349
 10
137.8627303932
 20
129.0599965113
 10
137.8676841894
 20
129.0853800746
 10
137.8759485224
 20
129.1100998005
 10
137.8874396212
 20
129.1336783323
 10
137.9019556645
 20
129.1556004882
 10
137.9191930146
 20
129.1753998504
 10
137.9389663182
 20
129.1928413263
 10
137.9608624113
 20
129.2075304014
 10
137.9693744277
 20
129.2121879424
  0
LWPOLYLINE
  5
309
100
AcDbEntity
  8
RACCORDO
100
AcDbPolyline
 62
7
  6
CONTINUOUS
 90
10
 70
0
 10
138.9248383731
 20
127.7904405726
 10
138.9264759787
 20
127.815978549
 10
138.9314297748
 20
127.8413621122
 10
138.9396941079
 20
127.8660818382
 10
138.9511852067
 20
127.88966037
 10
138.96570125
 20
127.9115825259
 10
138.9829386001
 20
127.9313818881
 10
139.0027119036
 20
127.9488233639
 10
139.0246079968
 20
127.9635124391
 10
139.0331200132
 20
127.9681699801
  0
LWPOLYLINE
  5
30A
100
AcDbEntity
  8
COPY_PUBLISH
100
AcDbPolyline
 62
253
  6
CONTINUOUS
 90
30
 70
0
 10
142.9986930895
 20
125.2256836288
 10
142.994272564
 20
125.214792134
 10
142.9894653687
 20
125.2041258651
 10
142.9842823531
 20
125.1937088953
 10
142.978735215
 20
125.1835647351
 10
142.972836474
 20
125.1737162792
 10
142.9665994432
 20
125.164185755
 10
142.9600381991
 20
125.1549946723
 10
142.9531675502
 20
125.1461637749
 10
142.946003003
 20
125.1377129936
 10
142.9385607276
 20
125.1296614012
 10
142.9308575207
 20
125.1220271699
 10
142.922910768
 20
125.1148275295
 10
142.9147384048
 20
125.1080787292
 10
142.9063588757
 20
125.1017960008
 10
142.8977910928
 20
125.0959935238
 10
142.889054393
 20
125.0906843942
 10
142.8801684946
 20
125.0858805944
 10
142.8711534526
 20
125.0815929663
 10
142.8620296133
 20
125.0778311867
 10
142.8528175687
 20
125.0746037458
 10
142.8435381099
 20
125.0719179278
 10
142.83421218
 20
125.0697797943
 10
142.8248608271
 20
125.0681941711
 10
142.8155051567
 20
125.0671646367
 10
142.806166284
 20
125.0666935148
 10
142.7968652862
 20
125.0667818686
 10
142.7876231551
 20
125.0674294988
 10
142.7784607498
 20
125.0686349437
 10
142.771849596
 20
125.069862468
  0
LWPOLYLINE
  5
30B
100
AcDbEntity
  8
COPY_PUBLISH
100
AcDbPolyline
 62
7
  6
CONTINUOUS
 90
3
 70
0
 10
145.1651288205
 20
126.2440648419
 10
145.1485530186
 20
126.2196774617
 10
145.1436378841
 20
126.2134959629
  0
LWPOLYLINE
  5
30C
100
AcDbEntity
  8
RACCORDO
100
AcDbPolyline
 62
7
  6
CONTINUOUS
 90
10
 70
0
 10
151.0774094263
 20
127.2910429105
 10
151.1145285278
 20
127.3265681035
 10
151.1492472144
 20
127.3657988444
 10
151.181163165
 20
127.4080398733
 10
151.2101805506
 20
127.4529834602
 10
151.2360551344
 20
127.5002218547
 10
151.2585490071
 20
127.5492556301
 10
151.2774019028
 20
127.5995702236
 10
151.2923755586
 20
127.6507128881
 10
151.3032596854
 20
127.702230943
  0
LINE
  5
30D
100
AcDbEntity
  8
DRAFT
100
AcDbLine
 62
7
  6
CONTINUOUS
 10
130.1606516501
 20
110.7879029644
 11
130.0236795566
 21
110.6886331379
  0
LINE
  5
30E
100
AcDbEntity
  8
COPY_PUBLISH
100
AcDbLine
 62
7
  6
CONTINUOUS
 10
146.0080166153
 20
121.3993729336
 11
147.059420546
 21
121.9456676738
  0
LINE
  5
30F
100
AcDbEntity
  8
RACCORDO
100
AcDbLine
 62
253
  6
CONTINUOUS
 10
147.1057041014
 20
119.3557199271
 11
165.5497011153
 21
128.5412254065
  0
LWPOLYLINE
  5
310
100
AcDbEntity
  8
RACCORDO
100
AcDbPolyline
 62
7
  6
CONTINUOUS
 90
4
 70
0
 10
151.4107405605
 20
92.9799184065
 10
151.4287383762
 20
92.9620952259
 10
151.4465278389
 20
92.9470180882
 10
151.4642993455
 20
92.934526651
  0
LWPOLYLINE
  5
311
100
AcDbEntity
  8
COPY_PUBLISH
100
AcDbPolyline
 62
253
  6
CONTINUOUS
 90
43
 70
0
 10
140.3183921132
 20
84.3004964813
 10
140.3203313291
 20
84.2875032004
 10
140.3226411021
 20
84.2747982527
 10
140.3253214321
 20
84.2623816383
 10
140.3283760725
 20
84.2502398506
 10
140.3318012699
 20
84.2383863961
 10
140.3355857646
 20
84.2268617945
 10
140.3397305823
 20
84.2156679909
 10
140.3442346973
 20
84.2048030401
 10
140.3490837728
 20
84.1943016264
 10
140.3542788971
 20
84.1841649608
 10
140.3598189819
 20
84.1743918322
 10
140.3656864265
 20
84.1650132916
 10
140.3718822725
 20
84.1560305818
 10
140.3784054784
 20
84.1474424601
 10
140.3852353183
 20
84.1392762499
 10
140.3923727794
 20
84.1315332855
 10
140.3998168744
 20
84.1242122326
 10
140.4075439162
 20
84.1173364115
 10
140.4155547974
 20
84.1109072485
 10
140.4238486253
 20
84.1049233173
 10
140.4323990347
 20
84.0994036592
 10
140.4412068475
 20
84.0943497488
 10
140.4502712418
 20
84.0897601116
 10
140.4595633866
 20
84.0856493643
 10
140.4690840274
 20
84.082019031
 10
140.4788324188
 20
84.0788675878
 10
140.4887774933
 20
84.0762050795
 10
140.4989198554
 20
84.074033074
 10
140.5092589006
 20
84.0723500035
 10
140.5197617486
 20
84.0711612094
 10
140.5304289114
 20
84.0704682601
 10
140.541259877
 20
84.0702695871
 10
140.5522202278
 20
84.0705658268
 10
140.5633104255
 20
84.0713585701
 10
140.5745300085
 20
84.0726462261
 10
140.5858431744
 20
84.0744246585
 10
140.5972508606
 20
84.0766957055
 10
140.6087521295
 20
84.0794575289
 10
140.6203083667
 20
84.082700478
 10
140.6319067003
 20
84.0864213357
 10
140.6435600021
 20
84.090623319
 10
140.655268272
 20
84.095306428
  0
LWPOLYLINE
  5
312
100
AcDbEntity
  8
COPY_PUBLISH
100
AcDbPolyline
 62
253
  6
CONTINUOUS
 90
16
 70
0
 10
138.9092600697
 20
94.0387899374
 10
138.9224330607
 20
93.3663259824
 10
138.9405178068
 20
92.6963980402
 10
138.9635129597
 20
92.0290569428
 10
138.9914168456
 20
91.3643533274
 10
139.0242273421
 20
90.7023376184
 10
139.0619418792
 20
90.0430600252
 10
139.104557668
 20
89.3865705042
 10
139.1520715101
 20
88.7329189088
 10
139.2044796738
 20
88.082154971
 10
139.2617782651
 20
87.434328082
 10
139.323962995
 20
86.7894873355
 10
139.3910289921
 20
86.1476816783
 10
139.4629711783
 20
85.5089597936
 10
139.5397842672
 20
84.8733700963
 10
139.6214625313
 20
84.2409607759
  0
LWPOLYLINE
  5
313
100
AcDbEntity
  8
COPY_PUBLISH
100
AcDbPolyline
 62
253
  6
CONTINUOUS
 90
16
 70
0
 10
139.6100788234
 20
94.0439270129
 10
139.623182674
 20
93.3751156798
 10
139.6411681871
 20
92.7089263131
 10
139.6640353627
 20
92.0453589127
 10
139.6917866771
 20
91.3843633777
 10
139.7244196539
 20
90.7259898091
 10
139.7619268642
 20
90.0703885099
 10
139.8043094176
 20
89.4175602303
 10
139.8515662044
 20
88.7675042202
 10
139.9036864664
 20
88.1203685324
 10
139.9606713356
 20
87.4761536587
 10
140.02251968
 20
86.8348591075
 10
140.0892173453
 20
86.1966314563
 10
140.1607596136
 20
85.5615195645
 10
140.2371512029
 20
84.9294745729
 10
140.3183921132
 20
84.3004964813
  0
LINE
  5
314
100
AcDbEntity
  8
RACCORDO
100
AcDbLine
 62
7
  6
CONTINUOUS
 10
138.9248383731
 20
127.7904405726
 11
138.9248383731
 21
126.5191418827
  0
LINE
  5
315
100
AcDbEntity
  8
RACCORDO
100
AcDbLine
 62
253
  6
CONTINUOUS
 10
138.9834170169
 20
127.7197298945
 11
138.9834170169
 21
126.445767463
  0
LINE
  5
316
100
AcDbEntity
  8
RACCORDO
100
AcDbLine
 62
253
  6
CONTINUOUS
 10
139.3620333312
 20
126.2564593059
 11
139.3620333312
 21
127.5304217373
  0
LINE
  5
317
100
AcDbEntity
  8
RACCORDO
100
AcDbLine
 62
253
  6
CONTINUOUS
 10
139.644050899
 20
126.2650736112
 11
139.644050899
 21
127.7032137078
  0
LINE
  5
318
100
AcDbEntity
  8
RACCORDO
100
AcDbLine
 62
253
  6
CONTINUOUS
 10
140.2512941005
 20
131.001282693
 11
140.2512941005
 21
129.8949779565
  0
LINE
  5
319
100
AcDbEntity
  8
COPY_PUBLISH
100
AcDbLine
 62
7
  6
CONTINUOUS
 10
140.4171641318
 20
133.6287897114
 11
140.4171641318
 21
132.3810221233
  0
LWPOLYLINE
  5
31A
100
AcDbEntity
  8
COPY_PUBLISH
100
AcDbPolyline
 62
253
  6
CONTINUOUS
 90
13
 70
0
 10
138.9092600697
 20
110.4932726093
 10
138.8894183141
 20
109.1125420589
 10
138.8731843644
 20
107.7335123611
 10
138.8605581667
 20
106.3561972453
 10
138.851539681
 20
104.9806196215
 10
138.846128686
 20
103.6067839582
 10
138.8443250165
 20
102.2346763995
 10
138.8461286872
 20
100.864310713
 10
138.8515396832
 20
99.4957006331
 10
138.8605581694
 20
98.1288324412
 10
138.8731843669
 20
96.7637108178
 10
138.8894183159
 20
95.4003587222
 10
138.9092600697
 20
94.0387899374
  0
LWPOLYLINE
  5
31B
100
AcDbEntity
  8
COPY_PUBLISH
100
AcDbPolyline
 62
253
  6
CONTINUOUS
 90
13
 70
0
 10
139.6100788234
 20
110.4819552021
 10
139.5902567191
 20
109.1025828706
 10
139.5740387078
 20
107.7249369929
 10
139.5614247895
 20
106.3490175689
 10
139.5524150544
 20
104.9748200485
 10
139.5470094123
 20
103.602348982
 10
139.5452075923
 20
102.2316180193
 10
139.5470094142
 20
100.8626270706
 10
139.5524150582
 20
99.4953762259
 10
139.5614247941
 20
98.1298794057
 10
139.5740387119
 20
96.7661412503
 10
139.5902567217
 20
95.4041571193
 10
139.6100788234
 20
94.0439270129
  0
LWPOLYLINE
  5
31C
100
AcDbEntity
  8
COPY_PUBLISH
100
AcDbPolyline
 62
253
  6
CONTINUOUS
 90
16
 70
0
 10
139.6214625313
 20
120.9790011355
 10
139.5397842672
 20
120.2677010337
 10
139.4629711783
 20
119.5579193414
 10
139.3910289921
 20
118.8497099757
 10
139.323962995
 20
118.1431267988
 10
139.2617782651
 20
117.438223411
 10
139.2044796738
 20
116.7350531478
 10
139.1520715102
 20
116.033669354
 10
139.104557668
 20
115.3341253528
 10
139.0619418792
 20
114.6364742387
 10
139.0242273421
 20
113.9407690252
 10
138.9914168456
 20
113.2470624961
 10
138.9635129597
 20
112.5554071759
 10
138.9405178068
 20
111.8658555268
 10
138.9224330607
 20
111.1784599444
 10
138.9092600697
 20
110.4932726093
  0
LWPOLYLINE
  5
31D
100
AcDbEntity
  8
COPY_PUBLISH
100
AcDbPolyline
 62
253
  6
CONTINUOUS
 90
16
 70
0
 10
140.3183921132
 20
120.9093959267
 10
140.2371511142
 20
120.2019635363
 10
140.1607594615
 20
119.4961473966
 10
140.0892171552
 20
118.7919475078
 10
140.0225194854
 20
118.0893105259
 10
139.960671162
 20
117.3882897947
 10
139.9036863142
 20
116.6890453462
 10
139.8515660659
 20
115.9915777102
 10
139.8043092932
 20
115.2958863569
 10
139.7619267537
 20
114.602129728
 10
139.7244195557
 20
113.9103080761
 10
139.6917865909
 20
113.2204211486
 10
139.664035292
 20
112.5326266291
 10
139.6411681365
 20
111.8469770787
 10
139.623182647
 20
111.1634199364
 10
139.6100788234
 20
110.4819552021
  0
LWPOLYLINE
  5
31E
100
AcDbEntity
  8
0
100
AcDbPolyline
 62
7
  6
CONTINUOUS
 90
3
 70
0
 10
135.2513403246
 20
104.9459116733
 10
135.0986552676
 20
104.6244115986
 10
135.0451799525
 20
104.5123098778
  0
LWPOLYLINE
  5
31F
100
AcDbEntity
  8
0
100
AcDbPolyline
 62
253
  6
CONTINUOUS
 90
5
 70
0
 10
150.736032468
 20
131.0700522854
 10
150.7255849727
 20
131.054337513
 10
150.693278269
 20
130.9982061899
 10
150.66382081
 20
130.9388363392
 10
150.6399973803
 20
130.88275744
  0
LINE
  5
320
100
AcDbEntity
  8
RACCORDO
100
AcDbLine
 62
7
  6
CONTINUOUS
 10
129.9593676944
 20
110.7136792015
 11
129.9629386105
 21
110.7153717839
  0
LWPOLYLINE
  5
321
100
AcDbEntity
  8
RACCORDO
100
AcDbPolyline
 62
7
  6
CONTINUOUS
 90
13
 70
0
 10
129.9593653521
 20
110.7136780889
 10
129.9917945321
 20
110.7285693406
 10
130.1295095361
 20
110.7801059482
 10
130.2725333892
 20
110.8159146702
 10
130.4197745041
 20
110.8366565826
 10
130.5711992114
 20
110.8431781405
 10
130.7280984489
 20
110.8359532
 10
130.8898937163
 20
110.8151256424
 10
131.0551243194
 20
110.781061317
 10
131.2239786305
 20
110.7338575576
 10
131.3959680731
 20
110.6736515064
 10
131.5696331675
 20
110.6010002316
 10
131.6969256855
 20
110.540419183
  0
LINE
  5
322
100
AcDbEntity
  8
DRAFT
100
AcDbLine
 62
7
  6
CONTINUOUS
 10
134.2756455033
 20
101.9749847406
 11
134.4472785685
 21
102.0189830479
  0
LWPOLYLINE
  5
323
100
AcDbEntity
  8
RACCORDO
100
AcDbPolyline
 62
7
  6
CONTINUOUS
 90
46
 70
0
 10
131.6971413117
 20
110.5403107519
 10
131.8253527559
 20
110.4731282036
 10
132.0072654773
 20
110.3673430298
 10
132.1912182676
 20
110.2479311702
 10
132.3764703641
 20
110.1149668458
 10
132.5620979647
 20
109.9687280789
 10
132.7470435441
 20
109.8097235596
 10
132.9304884611
 20
109.6383788675
 10
133.1116545213
 20
109.4551682558
 10
133.289649585
 20
109.260777822
 10
133.4637334928
 20
109.0558334849
 10
133.6332076227
 20
108.8410006595
 10
133.7973341821
 20
108.6170802814
 10
133.9554699769
 20
108.3848503551
 10
134.1070152195
 20
108.1451095667
 10
134.2513795814
 20
107.8987347429
 10
134.3880324644
 20
107.6466027161
 10
134.5164833099
 20
107.3896097584
 10
134.6362758714
 20
107.1286936108
 10
134.7470012288
 20
106.8647945359
 10
134.8482941496
 20
106.598873279
 10
134.9398253698
 20
106.3319255924
 10
135.0213187902
 20
106.0649461834
 10
135.0925573881
 20
105.7989035746
 10
135.1533643278
 20
105.5347913346
 10
135.2036183887
 20
105.2736017662
 10
135.2432528552
 20
105.0163017105
 10
135.2722538549
 20
104.7638888305
 10
135.2906713685
 20
104.5172993669
 10
135.2986128554
 20
104.2774846977
 10
135.2962576325
 20
104.045514163
 10
135.2838635839
 20
103.822251513
 10
135.2617609037
 20
103.6085327328
 10
135.2303963308
 20
103.4054177916
 10
135.1903976703
 20
103.2140899871
 10
135.1422706105
 20
103.034618905
 10
135.0863102864
 20
102.8665856849
 10
135.0233897278
 20
102.7112709686
 10
134.9539239042
 20
102.5684294193
 10
134.8771723785
 20
102.4361515552
 10
134.7937330168
 20
102.3155632485
 10
134.7038812055
 20
102.2070400894
 10
134.6055977524
 20
102.1088324412
 10
134.4977910653
 20
102.0213968904
 10
134.3807079857
 20
101.9464388943
 10
134.3506928281
 20
101.9301548535
  0
LWPOLYLINE
  5
324
100
AcDbEntity
  8
RACCORDO
100
AcDbPolyline
 62
253
  6
CONTINUOUS
 90
71
 70
0
 10
131.4372303872
 20
111.0915015515
 10
131.5880780269
 20
111.0121402558
 10
131.7358454747
 20
110.9285079665
 10
131.880533045
 20
110.8406048363
 10
132.0220312492
 20
110.7482322177
 10
132.1604507926
 20
110.6515893491
 10
132.2961224459
 20
110.5512732926
 10
132.4290442825
 20
110.4473915738
 10
132.5592201746
 20
110.3398376127
 10
132.6869895832
 20
110.2288873091
 10
132.8123602645
 20
110.1146309427
 10
132.9353269671
 20
109.9969794528
 10
133.0562096604
 20
109.8759397385
 10
133.1750553947
 20
109.7515521617
 10
133.2918202009
 20
109.6237778625
 10
133.4066876407
 20
109.4925049672
 10
133.5198131459
 20
109.357593155
 10
133.6310450748
 20
109.2191845979
 10
133.7401064747
 20
109.0775912086
 10
133.8470524827
 20
108.9327177832
 10
133.9518322397
 20
108.7846616203
 10
134.0540096699
 20
108.6340233266
 10
134.1535325895
 20
108.4808514526
 10
134.250457586
 20
108.3250996109
 10
134.344511474
 20
108.1672258726
 10
134.4356802794
 20
108.0072434414
 10
134.5239824722
 20
107.8451413298
 10
134.6091932482
 20
107.6813411844
 10
134.69131736
 20
107.5158212875
 10
134.7703545519
 20
107.3486055825
 10
134.8460721288
 20
107.1801840251
 10
134.9184637285
 20
107.0105494253
 10
134.9875399967
 20
106.8397111033
 10
135.0530932445
 20
106.6681835337
 10
135.1151136774
 20
106.4959658801
 10
135.1736149925
 20
106.323060931
 10
135.2284241313
 20
106.1499883015
 10
135.2795296157
 20
105.9767545529
 10
135.3269463029
 20
105.8033548265
 10
135.3705399609
 20
105.6302912751
 10
135.4103000125
 20
105.4575761462
 10
135.4462397964
 20
105.2851985973
 10
135.478260251
 20
105.1136257985
 10
135.5063547241
 20
104.9428508212
 10
135.530531984
 20
104.7728816854
 10
135.5507153507
 20
104.6042076135
 10
135.5668942364
 20
104.4368183946
 10
135.5790805811
 20
104.2707249557
 10
135.587230651
 20
104.1064478065
 10
135.5913296381
 20
103.9439936482
 10
135.591392804
 20
103.7833560499
 10
135.5874206157
 20
103.625035372
 10
135.5793980811
 20
103.4690413024
 10
135.5673397364
 20
103.3153639688
 10
135.5512894412
 20
103.1644739415
 10
135.5312354462
 20
103.0163916977
 10
135.5071881554
 20
102.8710961274
 10
135.4792238185
 20
102.7289949967
 10
135.4473334935
 20
102.5901020543
 10
135.4115240157
 20
102.4544025313
 10
135.3718945516
 20
102.3222610396
 10
135.328432595
 20
102.1936790466
 10
135.2811478956
 20
102.0686537309
 10
135.2301723029
 20
101.9475429153
 10
135.1754918767
 20
101.8303530678
 10
135.1171171917
 20
101.7170760512
 10
135.0552162028
 20
101.6080474409
 10
134.9897736069
 20
101.5032765399
 10
134.9208008281
 20
101.4027521071
 10
134.8485053042
 20
101.3067785915
 10
134.7728754178
 20
101.2153715861
  0
LWPOLYLINE
  5
325
100
AcDbEntity
  8
RACCORDO
100
AcDbPolyline
 62
7
  6
CONTINUOUS
 90
4
 70
0
 10
151.3585712641
 20
93.0474860403
 10
151.3752622514
 20
93.0228408415
 10
151.3927247888
 20
93.0003272877
 10
151.4107405605
 20
92.9799184065
  0
LWPOLYLINE
  5
326
100
AcDbEntity
  8
COPY_PUBLISH
100
AcDbPolyline
 62
253
  6
CONTINUOUS
 90
3
 70
0
 10
140.8950937359
 20
126.1446135684
 10
140.8944979374
 20
126.1505339627
 10
140.8944097547
 20
126.153853743
  0
LINE
  5
327
100
AcDbEntity
  8
COPY_PUBLISH
100
AcDbLine
 62
7
  6
CONTINUOUS
 10
140.896366686
 20
126.122634574
 11
140.8944097609
 21
126.1538815457
  0
LWPOLYLINE
  5
328
100
AcDbEntity
  8
COPY_PUBLISH
100
AcDbPolyline
 62
253
  6
CONTINUOUS
 90
40
 70
0
 10
140.655268272
 20
121.4399035051
 10
140.6542295179
 20
121.4570851307
 10
140.6526297326
 20
121.4745302741
 10
140.6504715079
 20
121.4922106719
 10
140.6477583403
 20
121.5100976799
 10
140.6444946255
 20
121.5281623191
 10
140.6406856511
 20
121.5463753226
 10
140.636337588
 20
121.5647071832
 10
140.6314574807
 20
121.5831282011
 10
140.6260532353
 20
121.6016085322
 10
140.6201336075
 20
121.620118236
 10
140.6137081877
 20
121.6386273247
 10
140.6067873858
 20
121.6571058115
 10
140.5993824144
 20
121.6755237588
 10
140.5915052703
 20
121.6938513276
 10
140.5831687155
 20
121.712058825
 10
140.5743862561
 20
121.7301167526
 10
140.5651721208
 20
121.7479958545
 10
140.5555412374
 20
121.7656671645
 10
140.5455092093
 20
121.7831020529
 10
140.5350922893
 20
121.800272273
 10
140.5243073543
 20
121.8171500072
 10
140.513171877
 20
121.8337079115
 10
140.5017038982
 20
121.8499191601
 10
140.4899219974
 20
121.8657574889
 10
140.4778452627
 20
121.8811972378
 10
140.4654932598
 20
121.8962133927
 10
140.4528860004
 20
121.9107816255
 10
140.4400439098
 20
121.9248783341
 10
140.4269877937
 20
121.9384806801
 10
140.4137388044
 20
121.9515666259
 10
140.4003184071
 20
121.9641149709
 10
140.3867483442
 20
121.9761053853
 10
140.3730506009
 20
121.987518443
 10
140.3592473692
 20
121.9983356536
 10
140.3453610119
 20
122.008539492
 10
140.3314140267
 20
122.0181134267
 10
140.3174290092
 20
122.0270419467
 10
140.3034286169
 20
122.0353105868
 10
140.289435532
 20
122.0429059508
  0
LWPOLYLINE
  5
329
100
AcDbEntity
  8
COPY_PUBLISH
100
AcDbPolyline
 62
253
  6
CONTINUOUS
 90
20
 70
0
 10
142.6461711298
 20
83.5866182791
 10
142.6463699326
 20
83.5764526036
 10
142.6469658949
 20
83.5665085811
 10
142.6479576781
 20
83.5568085786
 10
142.6493430541
 20
83.5473744088
 10
142.6511189082
 20
83.5382272986
 10
142.6532812434
 20
83.5293878397
 10
142.655825194
 20
83.5208759182
 10
142.6587450387
 20
83.5127106739
 10
142.6620342087
 20
83.5049104741
 10
142.6656853056
 20
83.4974928613
 10
142.6696901162
 20
83.4904745194
 10
142.6740396284
 20
83.4838712384
 10
142.6787240571
 20
83.4776978694
 10
142.6837328652
 20
83.4719682943
 10
142.6890547837
 20
83.4666953997
 10
142.6946778441
 20
83.4618910404
 10
142.7005893948
 20
83.4575660223
 10
142.7067761266
 20
83.4537300771
 10
142.7109845683
 20
83.4514799486
  0
LWPOLYLINE
  5
32A
100
AcDbEntity
  8
COPY_PUBLISH
100
AcDbPolyline
 62
253
  6
CONTINUOUS
 90
20
 70
0
 10
140.9676330594
 20
126.0654653878
 10
140.9678013553
 20
126.0561044374
 10
140.9683059225
 20
126.0469296064
 10
140.9691458004
 20
126.0379583642
 10
140.9703193861
 20
126.0292078154
 10
140.971824447
 20
126.0206945974
 10
140.9736581334
 20
126.0124348546
 10
140.9758169774
 20
126.004444267
 10
140.9782968649
 20
125.9967381133
 10
140.9810930446
 20
125.9893311644
 10
140.9842001671
 20
125.982237565
 10
140.9876123292
 20
125.9754707688
 10
140.9913230572
 20
125.9690436117
 10
140.995325318
 20
125.9629682918
 10
140.9996114671
 20
125.957256428
 10
141.0041732766
 20
125.951918975
 10
141.0090020061
 20
125.9469661249
 10
141.0140884919
 20
125.9424072445
 10
141.0194231069
 20
125.9382509514
 10
141.0249819343
 20
125.9345144425
  0
LWPOLYLINE
  5
32B
100
AcDbEntity
  8
COPY_PUBLISH
100
AcDbPolyline
 62
7
  6
CONTINUOUS
 90
6
 70
0
 10
140.417164061
 20
133.6293228444
 10
140.4171587432
 20
133.6296389967
 10
140.4166728695
 20
133.6324333535
 10
140.4154209774
 20
133.6347251279
 10
140.4134355481
 20
133.6365365892
 10
140.4121220691
 20
133.6372997828
  0
LINE
  5
32C
100
AcDbEntity
  8
RACCORDO
100
AcDbLine
 62
7
  6
CONTINUOUS
 10
141.7105735392
 20
130.9787228304
 11
141.7198331506
 21
129.83261671
  0
LINE
  5
32D
100
AcDbEntity
  8
COPY_PUBLISH
100
AcDbLine
 62
253
  6
CONTINUOUS
 10
140.8944097948
 20
126.493756937
 11
140.8944097547
 21
126.4938276882
  0
LINE
  5
32E
100
AcDbEntity
  8
COPY_PUBLISH
100
AcDbLine
 62
7
  6
CONTINUOUS
 10
140.5694652276
 20
126.7814832318
 11
140.5694652276
 21
128.1671238779
  0
LINE
  5
32F
100
AcDbEntity
  8
COPY_PUBLISH
100
AcDbLine
 62
7
  6
CONTINUOUS
 10
140.8944097547
 20
126.4938276696
 11
140.8944097547
 21
126.1538537355
  0
LINE
  5
330
100
AcDbEntity
  8
COPY_PUBLISH
100
AcDbLine
 62
253
  6
CONTINUOUS
 10
140.9676330594
 20
126.4054393219
 11
140.9676330594
 21
126.0654653878
  0
LINE
  5
331
100
AcDbEntity
  8
COPY_PUBLISH
100
AcDbLine
 62
7
  6
CONTINUOUS
 10
141.597402709
 20
125.6478487611
 11
141.597402709
 21
125.1938950192
  0
LINE
  5
332
100
AcDbEntity
  8
RACCORDO
100
AcDbLine
 62
253
  6
CONTINUOUS
 10
141.6654538139
 20
131.001282693
 11
141.6654538139
 21
129.8598063783
  0
LINE
  5
333
100
AcDbEntity
  8
COPY_PUBLISH
100
AcDbLine
 62
253
  6
CONTINUOUS
 10
141.6706260137
 20
125.6112371088
 11
141.6706260137
 21
125.1021629646
  0
LINE
  5
334
100
AcDbEntity
  8
COPY_PUBLISH
100
AcDbLine
 62
253
  6
CONTINUOUS
 10
142.6461711298
 20
83.5866182791
 11
142.6461711298
 21
83.9265922132
  0
LINE
  5
335
100
AcDbEntity
  8
COPY_PUBLISH
100
AcDbLine
 62
253
  6
CONTINUOUS
 10
142.6461711298
 20
125.2261963526
 11
142.6461711298
 21
125.5661702867
  0
LWPOLYLINE
  5
336
100
AcDbEntity
  8
COPY_PUBLISH
100
AcDbPolyline
 62
253
  6
CONTINUOUS
 90
34
 70
0
 10
140.9676330594
 20
126.4054393219
 10
140.9678318622
 20
126.4158038002
 10
140.9684278245
 20
126.426343785
 10
140.9694196077
 20
126.4370355706
 10
140.9708049837
 20
126.4478551165
 10
140.9725808378
 20
126.4587780808
 10
140.9747431729
 20
126.4697798748
 10
140.9772871236
 20
126.480835747
 10
140.9802069683
 20
126.491920836
 10
140.9834961383
 20
126.5030102057
 10
140.9871472352
 20
126.5140789156
 10
140.9911520458
 20
126.525102068
 10
140.995501558
 20
126.5360548612
 10
141.0001859867
 20
126.5469126589
 10
141.0051947948
 20
126.557651042
 10
141.0105167133
 20
126.5682458552
 10
141.0161397737
 20
126.578673275
 10
141.0220513244
 20
126.5889098437
 10
141.0282380562
 20
126.5989325206
 10
141.0346860328
 20
126.6087187386
 10
141.041380766
 20
126.6182465184
 10
141.0483072422
 20
126.6274944934
 10
141.0554499527
 20
126.6364419438
 10
141.0627927701
 20
126.6450686546
 10
141.0703190168
 20
126.653355045
 10
141.0780116511
 20
126.6612823936
 10
141.0858534637
 20
126.6688330064
 10
141.0938269626
 20
126.6759900557
 10
141.1019154401
 20
126.6827384287
 10
141.1100995114
 20
126.6890618386
 10
141.1183571822
 20
126.6949436145
 10
141.1266686028
 20
126.7003703646
 10
141.1350162352
 20
126.7053313786
 10
141.1433813154
 20
126.7098161369
  0
LWPOLYLINE
  5
337
100
AcDbEntity
  8
COPY_PUBLISH
100
AcDbPolyline
 62
253
  6
CONTINUOUS
 90
34
 70
0
 10
142.6461711298
 20
125.5661702867
 10
142.6463699326
 20
125.5765347649
 10
142.6469658949
 20
125.5870747498
 10
142.6479576781
 20
125.5977665354
 10
142.6493430541
 20
125.6085860813
 10
142.6511189082
 20
125.6195090456
 10
142.6532812434
 20
125.6305108396
 10
142.655825194
 20
125.6415667118
 10
142.6587450387
 20
125.6526518008
 10
142.6620342087
 20
125.6637411705
 10
142.6656853056
 20
125.6748098804
 10
142.6696901162
 20
125.6858330328
 10
142.6740396284
 20
125.696785826
 10
142.6787240571
 20
125.7076436237
 10
142.6837328652
 20
125.7183820068
 10
142.6890547837
 20
125.72897682
 10
142.6946778441
 20
125.7394042397
 10
142.7005893948
 20
125.7496408085
 10
142.7067761266
 20
125.7596634854
 10
142.7132241032
 20
125.7694497034
 10
142.7199188364
 20
125.7789774832
 10
142.7268453126
 20
125.7882254582
 10
142.7339880231
 20
125.7971729086
 10
142.7413308406
 20
125.8057996194
 10
142.7488570872
 20
125.8140860098
 10
142.7565497215
 20
125.8220133583
 10
142.7643915341
 20
125.8295639712
 10
142.772365033
 20
125.8367210204
 10
142.7804535105
 20
125.8434693935
 10
142.7886375818
 20
125.8497928034
 10
142.7968952526
 20
125.8556745793
 10
142.8052066732
 20
125.8611013294
 10
142.8135543056
 20
125.8660623434
 10
142.8219193858
 20
125.8705471017
  0
LWPOLYLINE
  5
338
100
AcDbEntity
  8
COPY_PUBLISH
100
AcDbPolyline
 62
253
  6
CONTINUOUS
 90
24
 70
0
 10
140.655268272
 20
84.095306428
 10
140.6542295177
 20
84.0776847433
 10
140.652629732
 20
84.0603829616
 10
140.6504715068
 20
84.043429114
 10
140.6477583385
 20
84.0268506677
 10
140.6444946229
 20
84.0106744816
 10
140.6406856476
 20
83.9949267631
 10
140.6363375836
 20
83.9796330254
 10
140.6314574752
 20
83.9648180461
 10
140.6260532288
 20
83.9505058273
 10
140.6201335999
 20
83.9367195565
 10
140.613708179
 20
83.9234815689
 10
140.6067873761
 20
83.9108133118
 10
140.5993824036
 20
83.8987353092
 10
140.5915052585
 20
83.887267129
 10
140.5831687027
 20
83.8764273508
 10
140.5743862425
 20
83.8662335364
 10
140.5651721064
 20
83.856702201
 10
140.5555412224
 20
83.8478487866
 10
140.5455091936
 20
83.8396876366
 10
140.5350922733
 20
83.8322319731
 10
140.5243073379
 20
83.8254938752
 10
140.5131718605
 20
83.8194842593
 10
140.5014610266
 20
83.8141107296
  0
LINE
  5
339
100
AcDbEntity
  8
COPY_PUBLISH
100
AcDbLine
 62
253
  6
CONTINUOUS
 10
138.9092600697
 20
110.4932726093
 11
124.0432490476
 21
117.9262781203
  0
LWPOLYLINE
  5
33A
100
AcDbEntity
  8
RACCORDO
100
AcDbPolyline
 62
7
  6
CONTINUOUS
 90
4
 70
0
 10
151.3246405954
 20
93.1065195449
 10
151.3267652357
 20
93.1025285121
 10
151.3424335112
 20
93.0742359118
 10
151.3585712641
 20
93.0474860403
  0
LWPOLYLINE
  5
33B
100
AcDbEntity
  8
RACCORDO
100
AcDbPolyline
 62
253
  6
CONTINUOUS
 90
7
 70
0
 10
138.9248383731
 20
127.7904405726
 10
138.9266456328
 20
127.7770275409
 10
138.9318045998
 20
127.7642778016
 10
138.9402298834
 20
127.7519707614
 10
138.9517789196
 20
127.7403146672
 10
138.9662562878
 20
127.7295067515
 10
138.9834170169
 20
127.7197298945
  0
LWPOLYLINE
  5
33C
100
AcDbEntity
  8
RACCORDO
100
AcDbPolyline
 62
253
  6
CONTINUOUS
 90
13
 70
0
 10
143.433855561
 20
133.2546456066
 10
143.432605723
 20
133.2778462177
 10
143.4289841393
 20
133.3018251236
 10
143.4230520903
 20
133.3261765781
 10
143.4149099522
 20
133.3504885312
 10
143.4046954977
 20
133.3743496013
 10
143.3925815653
 20
133.397356036
 10
143.3787731343
 20
133.4191185444
 10
143.3635038566
 20
133.439268884
 10
143.3470321032
 20
133.4574660914
 10
143.3296365919
 20
133.4734022526
 10
143.3116116715
 20
133.4868077123
 10
143.2932623411
 20
133.4974556373
  0
LWPOLYLINE
  5
33D
100
AcDbEntity
  8
RACCORDO
100
AcDbPolyline
 62
7
  6
CONTINUOUS
 90
12
 70
0
 10
144.059754318
 20
132.9111841563
 10
144.0563381738
 20
132.9876565009
 10
144.0469806603
 20
133.0628256506
 10
144.0318569134
 20
133.1340169989
 10
144.0111993493
 20
133.2008829133
 10
143.985177896
 20
133.2632520222
 10
143.9538690746
 20
133.3210324194
 10
143.9174579053
 20
133.3739078251
 10
143.87621283
 20
133.4214531473
 10
143.8304255188
 20
133.4632828026
 10
143.7804923932
 20
133.4990439707
 10
143.7375484444
 20
133.5232202506
  0
LWPOLYLINE
  5
33E
100
AcDbEntity
  8
RACCORDO
100
AcDbPolyline
 62
253
  6
CONTINUOUS
 90
22
 70
0
 10
144.0011865585
 20
132.8405659286
 10
143.9992238916
 20
132.8917059594
 10
143.9942054972
 20
132.940559741
 10
143.9861313752
 20
132.9871272734
 10
143.9749241905
 20
133.0316714795
 10
143.9606612783
 20
133.0739294365
 10
143.9435746438
 20
133.1131123754
 10
143.9236146971
 20
133.1491430629
 10
143.9008310282
 20
133.1820987322
 10
143.875604412
 20
133.2114223148
 10
143.8478931164
 20
133.2370492468
 10
143.8177388735
 20
133.2590440919
 10
143.7856476546
 20
133.2770434731
 10
143.7515890909
 20
133.2909782865
 10
143.7155935512
 20
133.3009176359
 10
143.6782581125
 20
133.306705456
 10
143.6395390668
 20
133.308263522
 10
143.5994801221
 20
133.3056700586
 10
143.5588094791
 20
133.2990036746
 10
143.5177698714
 20
133.2882905726
 10
143.4761185653
 20
133.27350455
 10
143.433855561
 20
133.2546456066
  0
LWPOLYLINE
  5
33F
100
AcDbEntity
  8
COPY_PUBLISH
100
AcDbPolyline
 62
253
  6
CONTINUOUS
 90
22
 70
0
 10
142.6461711298
 20
125.2261963526
 10
142.6463394257
 20
125.2168354022
 10
142.6468439929
 20
125.2076605712
 10
142.6476838708
 20
125.198689329
 10
142.6488574565
 20
125.1899387802
 10
142.6503625174
 20
125.1814255622
 10
142.6521962038
 20
125.1731658194
 10
142.6543550479
 20
125.1651752317
 10
142.6568349353
 20
125.1574690781
 10
142.659631115
 20
125.1500621292
 10
142.6627382375
 20
125.1429685298
 10
142.6661503996
 20
125.1362017336
 10
142.6698611276
 20
125.1297745765
 10
142.6738633884
 20
125.1236992566
 10
142.6781495375
 20
125.1179873928
 10
142.682711347
 20
125.1126499398
 10
142.6875400766
 20
125.1076970897
 10
142.6926265623
 20
125.1031382093
 10
142.6979611773
 20
125.0989819162
 10
142.7035344475
 20
125.0952356992
 10
142.7093351334
 20
125.0919072164
 10
142.7111366178
 20
125.0909818072
  0
LINE
  5
340
100
AcDbEntity
  8
RACCORDO
100
AcDbLine
 62
253
  6
CONTINUOUS
 10
144.0040376615
 20
132.4390112712
 11
144.0011865585
 21
132.8405659286
  0
LINE
  5
341
100
AcDbEntity
  8
RACCORDO
100
AcDbLine
 62
7
  6
CONTINUOUS
 10
144.0629314599
 20
132.4652892348
 11
144.0597655461
 21
132.9111824319
  0
LINE
  5
342
100
AcDbEntity
  8
COPY_PUBLISH
100
AcDbLine
 62
253
  6
CONTINUOUS
 10
142.9986930895
 20
83.5861055552
 11
142.9986930895
 21
83.9260794894
  0
LINE
  5
343
100
AcDbEntity
  8
COPY_PUBLISH
100
AcDbLine
 62
253
  6
CONTINUOUS
 10
142.9986930895
 20
125.2256836288
 11
142.9986930895
 21
125.5656575629
  0
LINE
  5
344
100
AcDbEntity
  8
COPY_PUBLISH
100
AcDbLine
 62
253
  6
CONTINUOUS
 10
143.3573917379
 20
84.9030886904
 11
143.3573917379
 21
85.0129144383
  0
LINE
  5
345
100
AcDbEntity
  8
COPY_PUBLISH
100
AcDbLine
 62
253
  6
CONTINUOUS
 10
143.3573917379
 20
124.2587801025
 11
143.3573917379
 21
124.9476007254
  0
LINE
  5
346
100
AcDbEntity
  8
COPY_PUBLISH
100
AcDbLine
 62
253
  6
CONTINUOUS
 10
143.7099136976
 20
84.7775759665
 11
143.7099136976
 21
85.160888838
  0
LINE
  5
347
100
AcDbEntity
  8
COPY_PUBLISH
100
AcDbLine
 62
253
  6
CONTINUOUS
 10
143.7099136976
 20
124.2695479841
 11
143.7099136976
 21
125.0771801059
  0
LINE
  5
348
100
AcDbEntity
  8
COPY_PUBLISH
100
AcDbLine
 62
7
  6
CONTINUOUS
 10
144.5999738803
 20
84.3661401549
 11
144.5999738803
 21
85.5344999497
  0
LINE
  5
349
100
AcDbEntity
  8
COPY_PUBLISH
100
AcDbLine
 62
7
  6
CONTINUOUS
 10
144.5999738803
 20
124.7662289054
 11
144.5999738803
 21
126.3683795664
  0
LINE
  5
34A
100
AcDbEntity
  8
COPY_PUBLISH
100
AcDbLine
 62
253
  6
CONTINUOUS
 10
145.1282410521
 20
126.6318183864
 11
145.1282410521
 21
126.2842868697
  0
LINE
  5
34B
100
AcDbEntity
  8
COPY_PUBLISH
100
AcDbLine
 62
253
  6
CONTINUOUS
 10
145.1282410521
 20
84.9846827303
 11
145.1282410521
 21
84.6371512135
  0
LWPOLYLINE
  5
34C
100
AcDbEntity
  8
COPY_PUBLISH
100
AcDbPolyline
 62
253
  6
CONTINUOUS
 90
25
 70
0
 10
142.6461711298
 20
83.9265922132
 10
142.6463393821
 20
83.9361202137
 10
142.6468438185
 20
83.9457983294
 10
142.647683479
 20
83.9556081374
 10
142.6488567651
 20
83.9655309641
 10
142.6503614434
 20
83.975547921
 10
142.6521946497
 20
83.9856399401
 10
142.6543528943
 20
83.9957878108
 10
142.656832069
 20
84.005972216
 10
142.6596274545
 20
84.0161737691
 10
142.6627337296
 20
84.0263730508
 10
142.6661449814
 20
84.0365506463
 10
142.6698547162
 20
84.0466871819
 10
142.6738558725
 20
84.0567633621
 10
142.6781408338
 20
84.0667600064
 10
142.6827014434
 20
84.0766580856
 10
142.68752902
 20
84.0864387581
 10
142.692614374
 20
84.0960834059
 10
142.6979478251
 20
84.1055736698
 10
142.7035192209
 20
84.1148914846
 10
142.7093179557
 20
84.1240191132
 10
142.7153329915
 20
84.1329391808
 10
142.7215528782
 20
84.1416347074
 10
142.727965776
 20
84.1500891407
 10
142.7345594775
 20
84.158286387
  0
LWPOLYLINE
  5
34D
100
AcDbEntity
  8
COPY_PUBLISH
100
AcDbPolyline
 62
7
  6
CONTINUOUS
 90
20
 70
0
 10
144.5999738803
 20
84.3661401549
 10
144.5997735015
 20
84.3559385637
 10
144.5991733325
 20
84.3459603989
 10
144.5981746288
 20
84.3362282116
 10
144.5967794705
 20
84.3267639554
 10
144.5949910096
 20
84.3175890675
 10
144.5928134637
 20
84.3087244202
 10
144.5902517051
 20
84.3001900649
 10
144.5873114442
 20
84.292005289
 10
144.5839994699
 20
84.2841887032
 10
144.580323246
 20
84.2767579959
 10
144.5762910271
 20
84.2697299643
 10
144.5719120353
 20
84.2631205776
 10
144.5671961741
 20
84.2569448009
 10
144.5621540745
 20
84.2512165986
 10
144.5567972041
 20
84.2459489729
 10
144.5511377047
 20
84.2411538602
 10
144.5451883667
 20
84.236842108
 10
144.5389626701
 20
84.2330234858
 10
144.5358687773
 20
84.2313623821
  0
LINE
  5
34E
100
AcDbEntity
  8
COPY_PUBLISH
100
AcDbLine
 62
253
  6
CONTINUOUS
 10
145.2004389091
 20
126.372159502
 11
145.2003848947
 21
126.3695612192
  0
LWPOLYLINE
  5
34F
100
AcDbEntity
  8
COPY_PUBLISH
100
AcDbPolyline
 62
253
  6
CONTINUOUS
 90
18
 70
0
 10
145.2004388706
 20
126.719621654
 10
145.2003853475
 20
126.7171036505
 10
145.1998589201
 20
126.7111813463
 10
145.1987715078
 20
126.7052781736
 10
145.1971255532
 20
126.6994074068
 10
145.1949247559
 20
126.6935822523
 10
145.1921740631
 20
126.6878158114
 10
145.1888796592
 20
126.682121055
 10
145.1850489547
 20
126.6765107961
 10
145.1806905651
 20
126.6709976544
 10
145.1758142915
 20
126.6655940293
 10
145.170431102
 20
126.6603120766
 10
145.1645531009
 20
126.6551636739
 10
145.1581935107
 20
126.650160404
 10
145.1513666479
 20
126.6453135291
 10
145.1440878738
 20
126.6406339531
 10
145.1363735577
 20
126.6361321973
 10
145.1282410521
 20
126.6318183864
  0
LWPOLYLINE
  5
350
100
AcDbEntity
  8
COPY_PUBLISH
100
AcDbPolyline
 62
253
  6
CONTINUOUS
 90
20
 70
0
 10
142.9986930895
 20
83.5861055552
 10
142.9984448212
 20
83.575880531
 10
142.9977990129
 20
83.5658800495
 10
142.9967571275
 20
83.5561267642
 10
142.9953215251
 20
83.5466427684
 10
142.9934954576
 20
83.5374495455
 10
142.9912830616
 20
83.5285679202
 10
142.9886893485
 20
83.5200180114
 10
142.9857201937
 20
83.5118191865
 10
142.9823823231
 20
83.5039900178
 10
142.9786832976
 20
83.49654824
 10
142.9746314963
 20
83.4895107103
 10
142.9702360976
 20
83.4828933706
 10
142.9655070579
 20
83.4767112103
 10
142.9604550897
 20
83.4709782336
 10
142.9550916367
 20
83.465707427
 10
142.9494288483
 20
83.4609107299
 10
142.9434795521
 20
83.4565990079
 10
142.9372572245
 20
83.4527820282
 10
142.9324314969
 20
83.4502549291
  0
LWPOLYLINE
  5
351
100
AcDbEntity
  8
COPY_PUBLISH
100
AcDbPolyline
 62
7
  6
CONTINUOUS
 90
6
 70
0
 10
145.2004387984
 20
126.372277103
 10
145.1998454782
 20
126.3549450149
 10
145.19613692
 20
126.3259806382
 10
145.1890579762
 20
126.2975877956
 10
145.1786843082
 20
126.2701593257
 10
145.1651288205
 20
126.2440648419
  0
LWPOLYLINE
  5
352
100
AcDbEntity
  8
COPY_PUBLISH
100
AcDbPolyline
 62
253
  6
CONTINUOUS
 90
17
 70
0
 10
145.2003848947
 20
126.3695612192
 10
145.1998575193
 20
126.3636395715
 10
145.1987692841
 20
126.3577370813
 10
145.1971226358
 20
126.3518670218
 10
145.194921277
 20
126.3460425928
 10
145.1921701582
 20
126.3402768922
 10
145.1888754652
 20
126.3345828844
 10
145.1850446047
 20
126.328973371
 10
145.180686186
 20
126.3234609612
 10
145.1758100122
 20
126.3180580558
 10
145.1704270608
 20
126.3127768168
 10
145.1645494474
 20
126.3076291265
 10
145.1581903843
 20
126.3026265519
 10
145.1513641607
 20
126.2977803326
 10
145.1440861217
 20
126.2931013634
 10
145.1363726372
 20
126.2886001685
 10
145.1282410521
 20
126.2842868697
  0
LWPOLYLINE
  5
353
100
AcDbEntity
  8
0
100
AcDbPolyline
 62
253
  6
CONTINUOUS
 90
4
 70
0
 10
150.5983140812
 20
130.8619157905
 10
150.6110924605
 20
130.9002524586
 10
150.6540982395
 20
130.9996562913
 10
150.7022195379
 20
131.0869587504
  0
LWPOLYLINE
  5
354
100
AcDbEntity
  8
RACCORDO
100
AcDbPolyline
 62
253
  6
CONTINUOUS
 90
30
 70
0
 10
134.7728754178
 20
101.2153715861
 10
134.6939185129
 20
101.12851335
 10
134.6118699518
 20
101.046458066
 10
134.5267298126
 20
100.9692256891
 10
134.4384935177
 20
100.8967939919
 10
134.3473890609
 20
100.829353685
 10
134.2533968608
 20
100.7669081718
 10
134.1565319951
 20
100.7094517654
 10
134.0570741537
 20
100.6571613889
 10
133.95496936
 20
100.6100446485
 10
133.8502671733
 20
100.5680916906
 10
133.7434023211
 20
100.5314531108
 10
133.6344328171
 20
100.5001695583
 10
133.5232963613
 20
100.4741981966
 10
133.4102470909
 20
100.4535643301
 10
133.2954369871
 20
100.4382495492
 10
133.1787102838
 20
100.4282703273
 10
133.0598595994
 20
100.4237043447
 10
132.9389216761
 20
100.4244646564
 10
132.8158566941
 20
100.43063663
 10
132.6903425448
 20
100.4425564734
 10
132.5623842143
 20
100.4601286609
 10
132.431974202
 20
100.4834474275
 10
132.2987716814
 20
100.5131336274
 10
132.1627717294
 20
100.549084275
 10
132.0239773076
 20
100.5914013478
 10
131.8820594015
 20
100.6410131376
 10
131.7369078852
 20
100.698228841
 10
131.5886316532
 20
100.762738628
 10
131.4372303872
 20
100.8345423347
  0
LINE
  5
355
100
AcDbEntity
  8
0
100
AcDbLine
 62
7
  6
CONTINUOUS
 10
134.8802813527
 20
106.5055836907
 11
133.7458847891
 21
105.938385409
  0
LINE
  5
356
100
AcDbEntity
  8
0
100
AcDbLine
 62
7
  6
CONTINUOUS
 10
134.0336679388
 20
105.5463031201
 11
135.027179569
 21
106.0430589352
  0
LWPOLYLINE
  5
357
100
AcDbEntity
  8
COPY_PUBLISH
100
AcDbPolyline
 62
253
  6
CONTINUOUS
 90
37
 70
0
 10
139.6100788234
 20
110.4819552021
 10
139.594243944
 20
110.474987831
 10
139.5777919864
 20
110.4683681933
 10
139.560753576
 20
110.4621086115
 10
139.54316043
 20
110.4562207379
 10
139.5250452979
 20
110.4507155326
 10
139.5064419012
 20
110.4456032437
 10
139.4873848702
 20
110.4408933878
 10
139.4679096797
 20
110.4365947322
 10
139.4480525829
 20
110.4327152789
 10
139.4278505437
 20
110.4292622496
 10
139.4073411684
 20
110.4262420721
 10
139.3865626354
 20
110.4236603684
 10
139.3655536238
 20
110.4215219444
 10
139.3443532422
 20
110.4198307808
 10
139.3230009551
 20
110.4185900257
 10
139.3015365098
 20
110.4178019887
 10
139.2799998626
 20
110.4174681369
 10
139.2584311041
 20
110.4175890916
 10
139.2368703845
 20
110.4181646278
 10
139.2153578393
 20
110.419193674
 10
139.1939335141
 20
110.4206743146
 10
139.1726372905
 20
110.4226037936
 10
139.1515088114
 20
110.424978519
 10
139.1305874076
 20
110.4277940704
 10
139.1099120245
 20
110.4310452066
 10
139.0895211492
 20
110.4347258756
 10
139.0694527396
 20
110.4388292258
 10
139.0497441531
 20
110.4433476188
 10
139.0304320773
 20
110.4482726436
 10
139.0115524617
 20
110.4535951322
 10
138.9931404509
 20
110.4593051768
 10
138.9752303187
 20
110.4653921482
 10
138.9578554052
 20
110.4718447153
 10
138.9410480536
 20
110.4786508668
 10
138.9248395511
 20
110.4857979329
 10
138.9092600698
 20
110.4932726093
  0
LWPOLYLINE
  5
358
100
AcDbEntity
  8
RACCORDO
100
AcDbPolyline
 62
7
  6
CONTINUOUS
 90
5
 70
0
 10
151.3246815937
 20
93.106543311
 10
151.3205440454
 20
93.1155614652
 10
151.3165455545
 20
93.1271689417
 10
151.3135945604
 20
93.1400807895
 10
151.3119892716
 20
93.1541012142
  0
LWPOLYLINE
  5
359
100
AcDbEntity
  8
RACCORDO
100
AcDbPolyline
 62
253
  6
CONTINUOUS
 90
4
 70
0
 10
151.3118386061
 20
93.0076537823
 10
151.3016059265
 20
93.0316514143
 10
151.2934973164
 20
93.056097375
 10
151.2876515012
 20
93.080573429
  0
LWPOLYLINE
  5
35A
100
AcDbEntity
  8
COPY_PUBLISH
100
AcDbPolyline
 62
7
  6
CONTINUOUS
 90
40
 70
0
 10
145.3070806615
 20
123.9794646212
 10
145.3069957593
 20
123.9971362448
 10
145.3062886739
 20
124.0150355924
 10
145.3049620281
 20
124.0331345275
 10
145.3030120821
 20
124.0513972293
 10
145.300450696
 20
124.0698021147
 10
145.2973043892
 20
124.0883421631
 10
145.2935826015
 20
124.1069918525
 10
145.2892874058
 20
124.125718081
 10
145.2844342747
 20
124.1445023607
 10
145.2790292231
 20
124.1633264019
 10
145.2730815854
 20
124.182148561
 10
145.2666147402
 20
124.2009151659
 10
145.259648076
 20
124.2195799013
 10
145.2521880938
 20
124.2381294276
 10
145.2442402343
 20
124.2565594989
 10
145.2358094037
 20
124.2748574081
 10
145.2269158234
 20
124.2929759688
 10
145.2175891653
 20
124.3108598518
 10
145.2078563568
 20
124.3284630695
 10
145.1977251517
 20
124.345776143
 10
145.1871974613
 20
124.3627988428
 10
145.176279096
 20
124.3795194074
 10
145.1649975563
 20
124.3958931354
 10
145.1533878519
 20
124.4118711769
 10
145.1414805254
 20
124.4274146603
 10
145.1292854732
 20
124.4425137747
 10
145.1168076658
 20
124.4571641802
 10
145.1040548183
 20
124.471354462
 10
145.091059232
 20
124.4850465693
 10
145.0778633682
 20
124.4981978726
 10
145.0644989097
 20
124.5107794128
 10
145.0509787009
 20
124.522782055
 10
145.0373178802
 20
124.5341956628
 10
145.0235304745
 20
124.5450081593
 10
145.0096469932
 20
124.5551958376
 10
144.9957074826
 20
124.5647335866
 10
144.9817404666
 20
124.573605774
 10
144.9677626477
 20
124.5818039697
 10
144.9537963956
 20
124.5893176478
  0
LINE
  5
35B
100
AcDbEntity
  8
COPY_PUBLISH
100
AcDbLine
 62
7
  6
CONTINUOUS
 10
145.2004389091
 20
126.7196910186
 11
145.2004389091
 21
126.3721595019
  0
LINE
  5
35C
100
AcDbEntity
  8
COPY_PUBLISH
100
AcDbLine
 62
7
  6
CONTINUOUS
 10
145.2004389091
 20
85.0725553625
 11
145.2004389091
 21
84.7250238457
  0
LINE
  5
35D
100
AcDbEntity
  8
COPY_PUBLISH
100
AcDbLine
 62
7
  6
CONTINUOUS
 10
145.3070806615
 20
123.9796774687
 11
145.3070806615
 21
121.0351764401
  0
LINE
  5
35E
100
AcDbEntity
  8
COPY_PUBLISH
100
AcDbLine
 62
7
  6
CONTINUOUS
 10
145.3070806615
 20
86.0477354714
 11
145.3070806615
 21
88.9922365
  0
LINE
  5
35F
100
AcDbEntity
  8
RACCORDO
100
AcDbLine
 62
253
  6
CONTINUOUS
 10
145.3777913396
 20
132.6923893409
 11
145.3777913396
 21
132.3349592872
  0
LINE
  5
360
100
AcDbEntity
  8
COPY_PUBLISH
100
AcDbLine
 62
253
  6
CONTINUOUS
 10
145.8767758937
 20
130.8119064668
 11
145.8767758937
 21
130.2587357437
  0
LINE
  5
361
100
AcDbEntity
  8
COPY_PUBLISH
100
AcDbLine
 62
253
  6
CONTINUOUS
 10
145.8767758937
 20
129.9025598772
 11
145.8767758937
 21
129.4281585019
  0
LINE
  5
362
100
AcDbEntity
  8
COPY_PUBLISH
100
AcDbLine
 62
7
  6
CONTINUOUS
 10
146.0076107449
 20
130.8336667567
 11
146.0076107449
 21
129.5858006945
  0
LINE
  5
363
100
AcDbEntity
  8
COPY_PUBLISH
100
AcDbLine
 62
7
  6
CONTINUOUS
 10
146.0080166153
 20
86.4094126641
 11
146.0080166153
 21
89.3413176151
  0
LINE
  5
364
100
AcDbEntity
  8
COPY_PUBLISH
100
AcDbLine
 62
7
  6
CONTINUOUS
 10
146.0080166153
 20
121.3993729336
 11
146.0080166153
 21
124.3312778846
  0
LINE
  5
365
100
AcDbEntity
  8
COPY_PUBLISH
100
AcDbLine
 62
7
  6
CONTINUOUS
 10
147.059420546
 20
121.9456676738
 11
147.059420546
 21
121.5450143391
  0
LINE
  5
366
100
AcDbEntity
  8
COPY_PUBLISH
100
AcDbLine
 62
7
  6
CONTINUOUS
 10
147.059420546
 20
90.210279372
 11
147.059420546
 21
89.8649392878
  0
LINE
  5
367
100
AcDbEntity
  8
COPY_PUBLISH
100
AcDbLine
 62
7
  6
CONTINUOUS
 10
147.1057041014
 20
121.5218725614
 11
147.1057041014
 21
90.2424508447
  0
LINE
  5
368
100
AcDbEntity
  8
COPY_PUBLISH
100
AcDbLine
 62
253
  6
CONTINUOUS
 10
145.2004389091
 20
84.7250238634
 11
145.2004388918
 21
84.7249774284
  0
LINE
  5
369
100
AcDbEntity
  8
COPY_PUBLISH
100
AcDbLine
 62
253
  6
CONTINUOUS
 10
145.2004389091
 20
126.7196910363
 11
145.2004388706
 21
126.719621654
  0
LWPOLYLINE
  5
36A
100
AcDbEntity
  8
COPY_PUBLISH
100
AcDbPolyline
 62
7
  6
CONTINUOUS
 90
23
 70
0
 10
145.3070806615
 20
86.0479483189
 10
145.3069957593
 20
86.0307558462
 10
145.3062886739
 20
86.0138561257
 10
145.3049620281
 20
85.9972770163
 10
145.3030120821
 20
85.9810453478
 10
145.300450696
 20
85.9651881304
 10
145.2973043892
 20
85.9497332195
 10
145.2935826015
 20
85.9347074833
 10
145.2892874058
 20
85.9201355517
 10
145.2844342747
 20
85.9060420248
 10
145.2790292231
 20
85.8924445209
 10
145.2730815854
 20
85.8793741944
 10
145.2666147402
 20
85.8668729471
 10
145.259648076
 20
85.8549711118
 10
145.2521880938
 20
85.843675413
 10
145.2442402343
 20
85.8329908723
 10
145.2358094037
 20
85.8229275395
 10
145.2269158234
 20
85.8135135073
 10
145.2175891653
 20
85.8047788056
 10
145.2078563568
 20
85.7967441265
 10
145.1977251517
 20
85.7894117468
 10
145.1871974613
 20
85.7827826231
 10
145.178371581
 20
85.7779273194
  0
LWPOLYLINE
  5
36B
100
AcDbEntity
  8
COPY_PUBLISH
100
AcDbPolyline
 62
253
  6
CONTINUOUS
 90
18
 70
0
 10
145.1282410521
 20
84.6371512135
 10
145.1280882702
 20
84.6269725696
 10
145.1275329608
 20
84.6170160823
 10
145.1265763807
 20
84.6073043124
 10
145.1252206949
 20
84.5978592611
 10
145.1234689741
 20
84.5887023363
 10
145.12132519
 20
84.5798543027
 10
145.1187942019
 20
84.5713352123
 10
145.1158817442
 20
84.5631643635
 10
145.1125944178
 20
84.5553602722
 10
145.1089396716
 20
84.5479406197
 10
145.104925788
 20
84.540922218
 10
145.1005618662
 20
84.5343209738
 10
145.0958577963
 20
84.5281518436
 10
145.090824238
 20
84.5224288025
 10
145.0854725997
 20
84.5171648177
 10
145.079815006
 20
84.5123718114
 10
145.0738642804
 20
84.5080606441
  0
LWPOLYLINE
  5
36C
100
AcDbEntity
  8
COPY_PUBLISH
100
AcDbPolyline
 62
253
  6
CONTINUOUS
 90
18
 70
0
 10
145.2004389029
 20
85.0725275522
 10
145.2003844862
 20
85.069947275
 10
145.1998561331
 20
85.0640252931
 10
145.1987668611
 20
85.058122516
 10
145.1971191231
 20
85.05225221
 10
145.1949166229
 20
85.0464275639
 10
145.1921642913
 20
85.0406616342
 10
145.1888683323
 20
85.0349674318
 10
145.1850362409
 20
85.0293578744
 10
145.1806767289
 20
85.0238456449
 10
145.1757995831
 20
85.0184430566
 10
145.1704156879
 20
85.0131621457
 10
145.1645366529
 20
85.0080143753
 10
145.158176116
 20
85.0030117559
 10
145.1513499563
 20
84.9981666014
 10
145.1440743839
 20
84.9934900368
 10
145.1363655503
 20
84.9889920869
 10
145.1282410521
 20
84.9846827303
  0
LWPOLYLINE
  5
36D
100
AcDbEntity
  8
COPY_PUBLISH
100
AcDbPolyline
 62
253
  6
CONTINUOUS
 90
18
 70
0
 10
145.2004388918
 20
84.7249774284
 10
145.2003853475
 20
84.7224364776
 10
145.1998589201
 20
84.7165141735
 10
145.1987715078
 20
84.7106110007
 10
145.1971255532
 20
84.7047402339
 10
145.1949247559
 20
84.6989150795
 10
145.1921740631
 20
84.6931486386
 10
145.1888796592
 20
84.6874538821
 10
145.1850489547
 20
84.6818436232
 10
145.1806905651
 20
84.6763304815
 10
145.1758142915
 20
84.6709268564
 10
145.170431102
 20
84.6656449037
 10
145.1645531009
 20
84.660496501
 10
145.1581935107
 20
84.6554932311
 10
145.1513666479
 20
84.6506463562
 10
145.1440878738
 20
84.6459667802
 10
145.1363735577
 20
84.6414650245
 10
145.1282410521
 20
84.6371512135
  0
LINE
  5
36E
100
AcDbEntity
  8
RACCORDO
100
AcDbLine
 62
7
  6
CONTINUOUS
 10
135.1804595234
 20
104.7964218678
 11
134.8886114535
 21
104.6428071322
  0
LINE
  5
36F
100
AcDbEntity
  8
RACCORDO
100
AcDbLine
 62
7
  6
CONTINUOUS
 10
133.5286735628
 20
103.9270014749
 11
131.596231017
 21
102.9098570038
  0
LINE
  5
370
100
AcDbEntity
  8
RACCORDO
100
AcDbLine
 62
7
  6
CONTINUOUS
 10
130.8945399669
 20
103.6110101098
 11
132.9038687145
 21
104.5958118052
  0
LINE
  5
371
100
AcDbEntity
  8
RACCORDO
100
AcDbLine
 62
7
  6
CONTINUOUS
 10
134.2667904404
 20
105.2637998723
 11
135.1195318845
 21
105.6817410483
  0
LWPOLYLINE
  5
372
100
AcDbEntity
  8
COPY_PUBLISH
100
AcDbPolyline
 62
7
  6
CONTINUOUS
 90
7
 70
0
 10
128.6658316079
 20
132.1270687915
 10
128.647290781
 20
132.1473387977
 10
128.6310597202
 20
132.169560553
 10
128.6172505795
 20
132.1936683516
 10
128.6061110624
 20
132.2194056359
 10
128.5978801122
 20
132.2464091966
 10
128.5927086933
 20
132.2744635703
  0
LWPOLYLINE
  5
373
100
AcDbEntity
  8
COPY_PUBLISH
100
AcDbPolyline
 62
253
  6
CONTINUOUS
 90
15
 70
0
 10
132.8245830594
 20
132.436115866
 10
132.8285524755
 20
132.4294267571
 10
132.8321131081
 20
132.4229492774
 10
132.8352566553
 20
132.4166981742
 10
132.8379759329
 20
132.4106872638
 10
132.8402642701
 20
132.4049307479
 10
132.8421158485
 20
132.3994429868
 10
132.8435263922
 20
132.3942367778
 10
132.8444928852
 20
132.3893234161
 10
132.8450131523
 20
132.3847139014
 10
132.8450859903
 20
132.380418601
 10
132.8447111979
 20
132.3764472932
 10
132.8438896151
 20
132.3728090319
 10
132.8426231076
 20
132.369512053
 10
132.8409145299
 20
132.3665637704
  0
LWPOLYLINE
  5
374
100
AcDbEntity
  8
COPY_PUBLISH
100
AcDbPolyline
 62
7
  6
CONTINUOUS
 90
5
 70
0
 10
146.0076106736
 20
130.8340995247
 10
146.0073673153
 20
130.8363388588
 10
146.0064065197
 20
130.838732383
 10
146.0047503897
 20
130.8406572426
 10
146.0025919949
 20
130.8420696487
  0
LINE
  5
375
100
AcDbEntity
  8
ASSI
100
AcDbLine
 62
253
  6
CONTINUOUS
 10
147.8526650738
 20
131.284584565
 11
147.8526650738
 21
131.3640313747
  0
LINE
  5
376
100
AcDbEntity
  8
RACCORDO
100
AcDbLine
 62
253
  6
CONTINUOUS
 10
148.2062184644
 20
132.6621562815
 11
148.2062184644
 21
132.3349592872
  0
LINE
  5
377
100
AcDbEntity
  8
0
100
AcDbLine
 62
7
  6
CONTINUOUS
 10
148.9486805846
 20
131.9637282271
 11
148.9486805846
 21
130.917655999
  0
LINE
  5
378
100
AcDbEntity
  8
RACCORDO
100
AcDbLine
 62
7
  6
CONTINUOUS
 10
151.3032596854
 20
127.702230943
 11
151.3097913512
 21
127.753616063
  0
LINE
  5
379
100
AcDbEntity
  8
RACCORDO
100
AcDbLine
 62
7
  6
CONTINUOUS
 10
134.3539009475
 20
101.9318437927
 11
134.3507119648
 21
101.9301643328
  0
LWPOLYLINE
  5
37A
100
AcDbEntity
  8
RACCORDO
100
AcDbPolyline
 62
253
  6
CONTINUOUS
 90
23
 70
0
 10
134.3507119648
 20
101.9301643328
 10
134.3070154827
 20
101.9079576407
 10
134.2222912915
 20
101.8690114363
 10
134.1354888684
 20
101.8343955233
 10
134.0467893525
 20
101.8041746746
 10
133.9563432805
 20
101.7783803417
 10
133.8641897815
 20
101.7570044245
 10
133.7703480921
 20
101.7400399912
 10
133.6750305589
 20
101.7275128714
 10
133.5782160538
 20
101.7194079732
 10
133.4795525376
 20
101.715719317
 10
133.3791383119
 20
101.7165061863
 10
133.2770386912
 20
101.7218227841
 10
133.1728206742
 20
101.7317759237
 10
133.0665646552
 20
101.7464799241
 10
132.9583487146
 20
101.7660450586
 10
132.8477150733
 20
101.7907031766
 10
132.7347702736
 20
101.8206202931
 10
132.6195894098
 20
101.8559663291
 10
132.5016596153
 20
101.8971213238
 10
132.3808853382
 20
101.9444020752
 10
132.2575998121
 20
101.9979721469
 10
132.1319468575
 20
102.058051033
  0
LINE
  5
37B
100
AcDbEntity
  8
DRAFT
100
AcDbLine
 62
7
  6
CONTINUOUS
 10
134.4472785685
 20
102.0189830479
 11
134.5323144557
 21
102.0493967459
  0
LINE
  5
37C
100
AcDbEntity
  8
RACCORDO
100
AcDbLine
 62
253
  6
CONTINUOUS
 10
151.2876515012
 20
93.080573429
 11
151.2841667996
 21
93.1046980273
  0
LINE
  5
37D
100
AcDbEntity
  8
RACCORDO
100
AcDbLine
 62
253
  6
CONTINUOUS
 10
151.2841667996
 20
93.1046980273
 11
151.2831078826
 21
93.1279474614
  0
LINE
  5
37E
100
AcDbEntity
  8
RACCORDO
100
AcDbLine
 62
7
  6
CONTINUOUS
 10
151.3119892716
 20
93.1541012142
 11
151.3117788437
 21
93.1614114317
  0
LINE
  5
37F
100
AcDbEntity
  8
RACCORDO
100
AcDbLine
 62
253
  6
CONTINUOUS
 10
151.2831078826
 20
93.1279474614
 11
151.2831078826
 21
93.434800784
  0
LINE
  5
380
100
AcDbEntity
  8
RACCORDO
100
AcDbLine
 62
253
  6
CONTINUOUS
 10
151.2831078826
 20
127.7650804489
 11
151.2831078826
 21
128.0155054404
  0
LINE
  5
381
100
AcDbEntity
  8
RACCORDO
100
AcDbLine
 62
7
  6
CONTINUOUS
 10
151.3117828377
 20
93.1614278011
 11
151.3117828377
 21
93.4496998886
  0
LINE
  5
382
100
AcDbEntity
  8
RACCORDO
100
AcDbLine
 62
7
  6
CONTINUOUS
 10
151.3117828377
 20
127.8001259139
 11
151.3117828377
 21
128.030664261
  0
LINE
  5
383
100
AcDbEntity
  8
RACCORDO
100
AcDbLine
 62
253
  6
CONTINUOUS
 10
151.6120464812
 20
128.9343693494
 11
151.6120464812
 21
128.1893966006
  0
LINE
  5
384
100
AcDbEntity
  8
RACCORDO
100
AcDbLine
 62
253
  6
CONTINUOUS
 10
151.6120464812
 20
92.5159539832
 11
151.6120464812
 21
91.7709812344
  0
LINE
  5
385
100
AcDbEntity
  8
RACCORDO
100
AcDbLine
 62
253
  6
CONTINUOUS
 10
151.7417523703
 20
130.5671923343
 11
151.7417523703
 21
130.8943893286
  0
LINE
  5
386
100
AcDbEntity
  8
COPY_PUBLISH
100
AcDbLine
 62
7
  6
CONTINUOUS
 10
151.7523765811
 20
91.8213410051
 11
151.7523765811
 21
92.6870447352
  0
LINE
  5
387
100
AcDbEntity
  8
COPY_PUBLISH
100
AcDbLine
 62
7
  6
CONTINUOUS
 10
151.7523765811
 20
128.3656350338
 11
151.7523765811
 21
129.2313387639
  0
LINE
  5
388
100
AcDbEntity
  8
RACCORDO
100
AcDbLine
 62
7
  6
CONTINUOUS
 10
151.3097913512
 20
127.753616063
 11
151.3117621231
 21
127.8001236699
  0
LINE
  5
389
100
AcDbEntity
  8
RACCORDO
100
AcDbLine
 62
253
  6
CONTINUOUS
 10
151.2815111721
 20
127.7278849394
 11
151.2831078826
 21
127.7650804489
  0
LWPOLYLINE
  5
38A
100
AcDbEntity
  8
RACCORDO
100
AcDbPolyline
 62
253
  6
CONTINUOUS
 90
6
 70
0
 10
151.0051801981
 20
127.2772728444
 10
151.004203243
 20
127.2628243842
 10
151.0010895107
 20
127.2498786182
 10
150.9959333069
 20
127.2388289878
 10
150.988890971
 20
127.2300113834
 10
150.9799618169
 20
127.2235817562
  0
LINE
  5
38B
100
AcDbEntity
  8
COPY_PUBLISH
100
AcDbLine
 62
253
  6
CONTINUOUS
 10
124.7311484124
 20
128.424158195
 11
139.6214625313
 21
120.9790011355
  0
LINE
  5
38C
100
AcDbEntity
  8
RACCORDO
100
AcDbLine
 62
253
  6
CONTINUOUS
 10
153.8630727139
 20
136.8969034759
 11
153.8630727139
 21
136.7312923534
  0
LINE
  5
38D
100
AcDbEntity
  8
RACCORDO
100
AcDbLine
 62
7
  6
CONTINUOUS
 10
154.0095193233
 20
136.7183239826
 11
154.0095193233
 21
137.0736801712
  0
LINE
  5
38E
100
AcDbEntity
  8
RACCORDO
100
AcDbLine
 62
253
  6
CONTINUOUS
 10
151.3113298149
 20
93.1568161228
 11
151.3117826573
 21
93.1613168346
  0
LWPOLYLINE
  5
38F
100
AcDbEntity
  8
COPY_PUBLISH
100
AcDbPolyline
 62
253
  6
CONTINUOUS
 90
20
 70
0
 10
145.1282410521
 20
84.9846827303
 10
145.1322137658
 20
84.9957981309
 10
145.1357762245
 20
85.0070867681
 10
145.1389203877
 20
85.0185231641
 10
145.1416391594
 20
85.0300815075
 10
145.1439264034
 20
85.0417357119
 10
145.1457769576
 20
85.0534594745
 10
145.1471866453
 20
85.0652263353
 10
145.1481522851
 20
85.0770097373
 10
145.1486716974
 20
85.0887830861
 10
145.14874371
 20
85.1005198098
 10
145.1483681604
 20
85.1121934194
 10
145.1475458961
 20
85.1237775683
 10
145.1462787731
 20
85.1352461117
 10
145.144569651
 20
85.1465731658
 10
145.1424223873
 20
85.157733166
 10
145.1398418282
 20
85.168700925
 10
145.136833798
 20
85.1794516891
 10
145.1334050855
 20
85.1899611946
 10
145.1295634291
 20
85.200205722
  0
LINE
  5
390
100
AcDbEntity
  8
COPY_PUBLISH
100
AcDbLine
 62
253
  6
CONTINUOUS
 10
125.3875627794
 20
129.4938423271
 11
140.289435532
 21
122.0429059508
  0
LWPOLYLINE
  5
391
100
AcDbEntity
  8
COPY_PUBLISH
100
AcDbPolyline
 62
7
  6
CONTINUOUS
 90
7
 70
0
 10
140.9694896006
 20
125.9752397952
 10
140.9509487736
 20
125.9955098014
 10
140.9347177128
 20
126.0177315567
 10
140.9209085721
 20
126.0418393553
 10
140.9097690551
 20
126.0675766396
 10
140.9015381048
 20
126.0945802003
 10
140.896366686
 20
126.122634574
  0
LWPOLYLINE
  5
392
100
AcDbEntity
  8
COPY_PUBLISH
100
AcDbPolyline
 62
253
  6
CONTINUOUS
 90
16
 70
0
 10
145.1282410521
 20
126.2842868697
 10
145.1322138368
 20
126.2775918704
 10
145.1357763508
 20
126.2711103127
 10
145.1389205534
 20
126.2648568256
 10
145.1416393467
 20
126.2588455267
 10
145.1439265961
 20
126.2530899801
 10
145.1457771419
 20
126.2476031674
 10
145.1471868068
 20
126.2423974671
 10
145.1481524043
 20
126.2374846375
 10
145.148671752
 20
126.2328757785
 10
145.1487436785
 20
126.2285812956
 10
145.148368023
 20
126.2246108769
 10
145.1475456336
 20
126.2209734819
 10
145.1462783664
 20
126.2176773198
 10
145.1445690819
 20
126.2147298306
 10
145.1436378841
 20
126.2134959629
  0
LINE
  5
393
100
AcDbEntity
  8
COPY_PUBLISH
100
AcDbLine
 62
7
  6
CONTINUOUS
 10
146.3677408333
 20
123.1386387109
 11
147.059420546
 21
121.9456676738
  0
LWPOLYLINE
  5
394
100
AcDbEntity
  8
RACCORDO
100
AcDbPolyline
 62
7
  6
CONTINUOUS
 90
13
 70
0
 10
154.0095193233
 20
137.0736801712
 10
154.0059840695
 20
137.1580451305
 10
153.9956399807
 20
137.2386645319
 10
153.9788887199
 20
137.3152141591
 10
153.9561951033
 20
137.3872869232
 10
153.9279476951
 20
137.4548280564
 10
153.8944090109
 20
137.5179186797
 10
153.8561333732
 20
137.5760686627
 10
153.8135303372
 20
137.6291666749
 10
153.7665266665
 20
137.6775514229
 10
153.7153589462
 20
137.7210099159
 10
153.6607238054
 20
137.7590178076
 10
153.6031795282
 20
137.7913306669
  0
LWPOLYLINE
  5
395
100
AcDbEntity
  8
RACCORDO
100
AcDbPolyline
 62
253
  6
CONTINUOUS
 90
16
 70
0
 10
153.5126046195
 20
137.1546656428
 10
153.5109903183
 20
137.2010557235
 10
153.5055200988
 20
137.2488743473
 10
153.4962538938
 20
137.2975976033
 10
153.4832932259
 20
137.3466916692
 10
153.4667800949
 20
137.3956186603
 10
153.4468954219
 20
137.4438425222
 10
153.4238570678
 20
137.4908349041
 10
153.3979174454
 20
137.5360809477
 10
153.3693607548
 20
137.5790849279
 10
153.3384998691
 20
137.6193756841
 10
153.3056729064
 20
137.6565117823
 10
153.271239526
 20
137.6900863516
 10
153.2355769872
 20
137.719731542
 10
153.1990760161
 20
137.7451225547
 10
153.1621365251
 20
137.7659812003
  0
LWPOLYLINE
  5
396
100
AcDbEntity
  8
RACCORDO
100
AcDbPolyline
 62
253
  6
CONTINUOUS
 90
22
 70
0
 10
153.8630727139
 20
136.8969034759
 10
153.8620636256
 20
136.9287849467
 10
153.8591526206
 20
136.9592129053
 10
153.8543396989
 20
136.9881873515
 10
153.8475785195
 20
137.0158588222
 10
153.8389154233
 20
137.0420767807
 10
153.8284894332
 20
137.0663896166
 10
153.8162693293
 20
137.0887619046
 10
153.8022863315
 20
137.1092290702
 10
153.7867731219
 20
137.1274457785
 10
153.7697035455
 20
137.1433717878
 10
153.7511037574
 20
137.1570473398
 10
153.7312849052
 20
137.1682478263
 10
153.7102282687
 20
137.1769304111
 10
153.6879525682
 20
137.1831379303
 10
153.6648251121
 20
137.186774283
 10
153.6408314297
 20
137.187797808
 10
153.6159859919
 20
137.1862501664
 10
153.5906995198
 20
137.1821602409
 10
153.5651089206
 20
137.1755376588
 10
153.5390772871
 20
137.1663727928
 10
153.5126046195
 20
137.1546656428
  0
LINE
  5
397
100
AcDbEntity
  8
RACCORDO
100
AcDbLine
 62
253
  6
CONTINUOUS
 10
151.3097907236
 20
93.1518288274
 11
151.3113298149
 21
93.1568161228
  0
LWPOLYLINE
  5
398
100
AcDbEntity
  8
COPY_PUBLISH
100
AcDbPolyline
 62
253
  6
CONTINUOUS
 90
37
 70
0
 10
140.3183921132
 20
120.9093959267
 10
140.3027259721
 20
120.9049411861
 10
140.286442286
 20
120.9008295864
 10
140.2695713746
 20
120.8970687832
 10
140.2521446511
 20
120.8936657792
 10
140.2341945632
 20
120.8906269104
 10
140.2157545335
 20
120.8879578353
 10
140.1968588967
 20
120.8856635235
 10
140.1775428357
 20
120.8837482469
 10
140.1578423164
 20
120.8822155717
 10
140.1377940204
 20
120.8810683518
 10
140.1174352771
 20
120.8803087232
 10
140.0968039935
 20
120.8799381002
 10
140.0759385846
 20
120.8799571731
 10
140.0548779008
 20
120.8803659062
 10
140.0336611565
 20
120.8811635386
 10
140.0123278565
 20
120.882348585
 10
139.9909177227
 20
120.8839188389
 10
139.96947062
 20
120.8858713767
 10
139.948026482
 20
120.8882025626
 10
139.9266252372
 20
120.8909080563
 10
139.9053067337
 20
120.89398282
 10
139.884110666
 20
120.8974211288
 10
139.8630765003
 20
120.9012165805
 10
139.8422434016
 20
120.9053621083
 10
139.8216501603
 20
120.9098499932
 10
139.8013351203
 20
120.914671879
 10
139.7813361075
 20
120.9198187876
 10
139.7616903593
 20
120.9252811355
 10
139.7424344556
 20
120.931048752
 10
139.72360425
 20
120.9371108981
 10
139.7052348037
 20
120.9434562862
 10
139.6873603201
 20
120.9500731015
 10
139.6700140807
 20
120.9569490237
 10
139.6532283837
 20
120.96407125
 10
139.6370344835
 20
120.9714265192
 10
139.6214625324
 20
120.9790011359
  0
LINE
  5
399
100
AcDbEntity
  8
COPY_PUBLISH
100
AcDbLine
 62
7
  6
CONTINUOUS
 10
147.1057041014
 20
121.5218725614
 11
145.3070806615
 21
121.0351764401
  0
LINE
  5
39A
100
AcDbEntity
  8
COPY_PUBLISH
100
AcDbLine
 62
7
  6
CONTINUOUS
 10
147.1057041014
 20
121.5218725614
 11
147.059420546
 21
121.5450143391
  0
LINE
  5
39B
100
AcDbEntity
  8
COPY_PUBLISH
100
AcDbLine
 62
7
  6
CONTINUOUS
 10
143.3573917379
 20
124.2587801025
 11
141.6706260137
 21
125.1021629646
  0
LINE
  5
39C
100
AcDbEntity
  8
RACCORDO
100
AcDbLine
 62
7
  6
CONTINUOUS
 10
139.3620333312
 20
126.2564593059
 11
138.9834170169
 21
126.445767463
  0
LINE
  5
39D
100
AcDbEntity
  8
RACCORDO
100
AcDbLine
 62
7
  6
CONTINUOUS
 10
133.7409427421
 20
129.0670046004
 11
133.3623264278
 21
129.2563127576
  0
LINE
  5
39E
100
AcDbEntity
  8
COPY_PUBLISH
100
AcDbLine
 62
7
  6
CONTINUOUS
 10
131.0537337453
 20
130.4106090988
 11
129.3669680211
 21
131.2539919609
  0
LINE
  5
39F
100
AcDbEntity
  8
COPY_PUBLISH
100
AcDbLine
 62
7
  6
CONTINUOUS
 10
146.0327013349
 20
123.3061584601
 11
146.3677408333
 21
123.1386387109
  0
LINE
  5
3A0
100
AcDbEntity
  8
COPY_PUBLISH
100
AcDbLine
 62
7
  6
CONTINUOUS
 10
128.7289483632
 20
132.082075934
 11
130.4074864336
 21
131.2428068988
  0
LINE
  5
3A1
100
AcDbEntity
  8
COPY_PUBLISH
100
AcDbLine
 62
7
  6
CONTINUOUS
 10
141.0326063559
 20
125.9302469377
 11
142.7111444263
 21
125.0909779025
  0
LWPOLYLINE
  5
3A2
100
AcDbEntity
  8
COPY_PUBLISH
100
AcDbPolyline
 62
253
  6
CONTINUOUS
 90
16
 70
0
 10
128.6639750668
 20
132.2172943841
 10
128.6557929991
 20
132.2215841944
 10
128.6480268848
 20
132.2260631336
 10
128.640694189
 20
132.2307211292
 10
128.6338114101
 20
132.2355477
 10
128.6273940178
 20
132.240531997
 10
128.6214564242
 20
132.2456628293
 10
128.6160119754
 20
132.2509286719
 10
128.6110729353
 20
132.2563176719
 10
128.6066504315
 20
132.2618176915
 10
128.6027544142
 20
132.2674163549
 10
128.5993936399
 20
132.2731010772
 10
128.5965756669
 20
132.2788590737
 10
128.5943068326
 20
132.2846773948
 10
128.5925922394
 20
132.2905429555
 10
128.5914357432
 20
132.2964425648
  0
LWPOLYLINE
  5
3A3
100
AcDbEntity
  8
COPY_PUBLISH
100
AcDbPolyline
 62
253
  6
CONTINUOUS
 90
16
 70
0
 10
140.9676330594
 20
126.0654653878
 10
140.9594509917
 20
126.069755198
 10
140.9516848774
 20
126.0742341373
 10
140.9443521817
 20
126.0788921329
 10
140.9374694028
 20
126.0837187037
 10
140.9310520105
 20
126.0887030007
 10
140.9251144169
 20
126.0938338329
 10
140.9196699681
 20
126.0990996756
 10
140.914730928
 20
126.1044886756
 10
140.9103084242
 20
126.1099886952
 10
140.9064124068
 20
126.1155873586
 10
140.9030516325
 20
126.1212720809
 10
140.9002336595
 20
126.1270300774
 10
140.8979648252
 20
126.1328483985
 10
140.896250232
 20
126.1387139592
 10
140.8950937359
 20
126.1446135684
  0
LWPOLYLINE
  5
3A4
100
AcDbEntity
  8
COPY_PUBLISH
100
AcDbPolyline
 62
253
  6
CONTINUOUS
 90
18
 70
0
 10
128.6639750668
 20
132.5572683183
 10
128.6558063577
 20
132.5615507841
 10
128.6480490181
 20
132.5660236758
 10
128.6407209821
 20
132.5706771903
 10
128.6338383273
 20
132.5755017828
 10
128.6274181521
 20
132.5804861763
 10
128.6214778769
 20
132.5856171721
 10
128.6160316198
 20
132.5908824528
 10
128.6110907299
 20
132.5962709132
 10
128.6066662457
 20
132.6017705319
 10
128.6027680993
 20
132.607369017
 10
128.5994051443
 20
132.6130537133
 10
128.596585024
 20
132.6188117222
 10
128.5943140944
 20
132.6246300404
 10
128.5925974306
 20
132.6304956323
 10
128.5914388831
 20
132.6363953436
 10
128.5908410626
 20
132.6423159215
 10
128.5907517621
 20
132.6456566483
  0
LWPOLYLINE
  5
3A5
100
AcDbEntity
  8
COPY_PUBLISH
100
AcDbPolyline
 62
7
  6
CONTINUOUS
 90
4
 70
0
 10
128.7290602933
 20
132.0820200623
 10
128.7088071704
 20
132.0933383011
 10
128.6864701065
 20
132.1089675112
 10
128.6658316079
 20
132.1270687915
  0
LWPOLYLINE
  5
3A6
100
AcDbEntity
  8
COPY_PUBLISH
100
AcDbPolyline
 62
7
  6
CONTINUOUS
 90
4
 70
0
 10
141.032718286
 20
125.930191066
 10
141.012465163
 20
125.9415093048
 10
140.9901280991
 20
125.9571385148
 10
140.9694896006
 20
125.9752397952
  0
LWPOLYLINE
  5
3A7
100
AcDbEntity
  8
COPY_PUBLISH
100
AcDbPolyline
 62
253
  6
CONTINUOUS
 90
3
 70
0
 10
128.7213383844
 20
132.0863337307
 10
128.7271390704
 20
132.0830052479
 10
128.7289496419
 20
132.0820752947
  0
LWPOLYLINE
  5
3A8
100
AcDbEntity
  8
COPY_PUBLISH
100
AcDbPolyline
 62
253
  6
CONTINUOUS
 90
3
 70
0
 10
141.0249963771
 20
125.9345047344
 10
141.030797063
 20
125.9311762516
 10
141.0326076346
 20
125.9302462984
  0
LWPOLYLINE
  5
3A9
100
AcDbEntity
  8
COPY_PUBLISH
100
AcDbPolyline
 62
253
  6
CONTINUOUS
 90
37
 70
0
 10
139.6100788234
 20
94.0439270129
 10
139.594243944
 20
94.0362497677
 10
139.5777919864
 20
94.0289215774
 10
139.560753576
 20
94.0219560833
 10
139.5431604299
 20
94.0153662519
 10
139.5250452978
 20
94.00916435
 10
139.5064419012
 20
94.0033619226
 10
139.4873848702
 20
93.9979697709
 10
139.4679096797
 20
93.9929979324
 10
139.4480525829
 20
93.9884556622
 10
139.4278505438
 20
93.9843514158
 10
139.4073411685
 20
93.9806928332
 10
139.3865626355
 20
93.977486725
 10
139.365553624
 20
93.9747390592
 10
139.3443532423
 20
93.9724549508
 10
139.3230009553
 20
93.9706386515
 10
139.3015365101
 20
93.9692935424
 10
139.2799998629
 20
93.9684221275
 10
139.2584311044
 20
93.9680260289
 10
139.2368703849
 20
93.968105984
 10
139.2153578397
 20
93.9686618438
 10
139.1939335146
 20
93.9696925736
 10
139.172637291
 20
93.9711962549
 10
139.1515088119
 20
93.9731700883
 10
139.1305874082
 20
93.9756103997
 10
139.1099120251
 20
93.9785126464
 10
139.0895211499
 20
93.9818714259
 10
139.0694527404
 20
93.9856804857
 10
139.0497441539
 20
93.9899327353
 10
139.0304320781
 20
93.994620259
 10
139.0115524626
 20
93.9997343312
 10
138.9931404517
 20
94.0052654318
 10
138.9752303197
 20
94.0112032647
 10
138.9578554061
 20
94.0175367766
 10
138.9410480547
 20
94.0242541777
 10
138.9248395522
 20
94.0313429634
 10
138.9092600709
 20
94.038789938
  0
LWPOLYLINE
  5
3AA
100
AcDbEntity
  8
COPY_PUBLISH
100
AcDbPolyline
 62
7
  6
CONTINUOUS
 90
41
 70
0
 10
143.3960750888
 20
124.9395264166
 10
143.4018629874
 20
124.938412842
 10
143.4098962757
 20
124.9371775568
 10
143.4180572146
 20
124.9362717826
 10
143.426333702
 20
124.9356821371
 10
143.4347118297
 20
124.9354092121
 10
143.443177985
 20
124.9354528208
 10
143.4517210063
 20
124.9357982196
 10
143.4603276834
 20
124.9364451875
 10
143.4689851364
 20
124.9373929777
 10
143.4776832135
 20
124.9386259347
 10
143.4864094922
 20
124.9401431439
 10
143.4951518911
 20
124.9419433771
 10
143.503901276
 20
124.9440104467
 10
143.5126460838
 20
124.9463428656
 10
143.5213750456
 20
124.9489389869
 10
143.5300799442
 20
124.9517823738
 10
143.538750094
 20
124.9548710708
 10
143.5473750499
 20
124.9582030663
 10
143.5559473885
 20
124.9617618612
 10
143.5644572962
 20
124.9655451177
 10
143.5728951513
 20
124.9695505053
 10
143.5812542051
 20
124.9737615777
 10
143.5895254981
 20
124.9781756808
 10
143.5977002258
 20
124.982790207
 10
143.6057722159
 20
124.9875888279
 10
143.6137333411
 20
124.9925686228
 10
143.6215756066
 20
124.9977267462
 10
143.6292933512
 20
125.0030470271
 10
143.6368792581
 20
125.0085263162
 10
143.6443261366
 20
125.0141615664
 10
143.6516288034
 20
125.0199367982
 10
143.6587807329
 20
125.0258486604
 10
143.6657755364
 20
125.031893943
 10
143.6726085143
 20
125.0380569058
 10
143.6792739183
 20
125.044334021
 10
143.6857661588
 20
125.0507219517
 10
143.6920810481
 20
125.0572052657
 10
143.6982138968
 20
125.0637764701
 10
143.7041596006
 20
125.0704359589
 10
143.7099136976
 20
125.0771801059
  0
LINE
  5
3AB
100
AcDbEntity
  8
COPY_PUBLISH
100
AcDbLine
 62
7
  6
CONTINUOUS
 10
142.771849596
 20
125.069862468
 11
143.3961490182
 21
124.9395081694
  0
LINE
  5
3AC
100
AcDbEntity
  8
COPY_PUBLISH
100
AcDbLine
 62
253
  6
CONTINUOUS
 10
142.9986930895
 20
125.2256836288
 11
143.7099136976
 21
125.0771801059
  0
LWPOLYLINE
  5
3AD
100
AcDbEntity
  8
COPY_PUBLISH
100
AcDbPolyline
 62
7
  6
CONTINUOUS
 90
10
 70
0
 10
142.771849596
 20
125.069862468
 10
142.7642803527
 20
125.0715659211
 10
142.7567482404
 20
125.0735087484
 10
142.7492641337
 20
125.0756899251
 10
142.7418113092
 20
125.0781172274
 10
142.7344301006
 20
125.0807800544
 10
142.7272114782
 20
125.0836419544
 10
142.7201863632
 20
125.0866810324
 10
142.7133320462
 20
125.0898974046
 10
142.7111366178
 20
125.0909818072
  0
LWPOLYLINE
  5
3AE
100
AcDbEntity
  8
RACCORDO
100
AcDbPolyline
 62
253
  6
CONTINUOUS
 90
7
 70
0
 10
139.1240156217
 20
127.9632313465
 10
139.1053256357
 20
127.9709263492
 10
139.0869662638
 20
127.9755083134
 10
139.0692549801
 20
127.9768949716
 10
139.0524962831
 20
127.9750586652
 10
139.0369836665
 20
127.9700275142
 10
139.0331291977
 20
127.96817472
  0
LWPOLYLINE
  5
3AF
100
AcDbEntity
  8
RACCORDO
100
AcDbPolyline
 62
253
  6
CONTINUOUS
 90
13
 70
0
 10
133.7409427421
 20
130.3409670319
 10
133.7605818314
 20
130.3323538809
 10
133.7823070062
 20
130.325091657
 10
133.8057494316
 20
130.3193059166
 10
133.8305141285
 20
130.315096681
 10
133.8561752407
 20
130.3125387372
 10
133.8822821727
 20
130.3116777184
 10
133.9084429243
 20
130.3125314861
 10
133.9341532144
 20
130.3150885188
 10
133.9588070524
 20
130.3192703581
 10
133.9819577263
 20
130.3249581775
 10
134.0033080667
 20
130.3320338833
 10
134.0225459512
 20
130.3403526651
  0
LWPOLYLINE
  5
3B0
100
AcDbEntity
  8
COPY_PUBLISH
100
AcDbPolyline
 62
7
  6
CONTINUOUS
 90
4
 70
0
 10
130.4074867847
 20
131.2428067233
 10
130.4279680812
 20
131.2336899596
 10
130.4523902
 20
131.2255310713
 10
130.4681921608
 20
131.2216913479
  0
LWPOLYLINE
  5
3B1
100
AcDbEntity
  8
COPY_PUBLISH
100
AcDbPolyline
 62
253
  6
CONTINUOUS
 90
16
 70
0
 10
138.0602700362
 20
129.2072493088
 10
138.0534826615
 20
129.2103885613
 10
138.0467125211
 20
129.2131291916
 10
138.0399749549
 20
129.2154649883
 10
138.0332852255
 20
129.2173906584
 10
138.0266584948
 20
129.2189018354
 10
138.02010979
 20
129.2199950919
 10
138.0136539524
 20
129.2206679513
 10
138.0073056065
 20
129.2209188902
 10
138.0010791381
 20
129.2207473406
 10
137.9949886537
 20
129.220153692
 10
137.9890479544
 20
129.2191392906
 10
137.9832705052
 20
129.2177064369
 10
137.9776693974
 20
129.21585838
 10
137.9722573196
 20
129.2135993091
 10
137.9693834618
 20
129.2121926047
  0
LWPOLYLINE
  5
3B2
100
AcDbEntity
  8
COPY_PUBLISH
100
AcDbPolyline
 62
7
  6
CONTINUOUS
 90
17
 70
0
 10
138.2713663938
 20
129.3161732948
 10
138.2651979964
 20
129.3190928169
 10
138.2590411463
 20
129.3216770161
 10
138.2529076593
 20
129.3239210205
 10
138.2468093889
 20
129.3258206487
 10
138.2407579467
 20
129.3273722838
 10
138.2347646802
 20
129.32857288
 10
138.2288410676
 20
129.3294201858
 10
138.2229984752
 20
129.3299126317
 10
138.2172478781
 20
129.330049201
 10
138.2116002794
 20
129.3298296603
 10
138.2060665089
 20
129.3292544654
 10
138.2006569811
 20
129.328324646
 10
138.1953820355
 20
129.3270419916
 10
138.1902517799
 20
129.3254089754
 10
138.1852758896
 20
129.3234286567
 10
138.1827742815
 20
129.3222733716
  0
LWPOLYLINE
  5
3B3
100
AcDbEntity
  8
COPY_PUBLISH
100
AcDbPolyline
 62
253
  6
CONTINUOUS
 90
31
 70
0
 10
136.21890189
 20
129.8141326276
 10
136.2264538962
 20
129.8105482905
 10
136.2343687642
 20
129.8071653351
 10
136.2426250404
 20
129.803992931
 10
136.2512003455
 20
129.8010396773
 10
136.2600714355
 20
129.7983135789
 10
136.2692142647
 20
129.7958220252
 10
136.278604051
 20
129.7935717697
 10
136.2882153427
 20
129.7915689117
 10
136.2980220877
 20
129.7898188803
 10
136.3079977041
 20
129.788326419
 10
136.3181151524
 20
129.7870955732
 10
136.3283470087
 20
129.7861296792
 10
136.3386655386
 20
129.7854313551
 10
136.3490427732
 20
129.7850024937
 10
136.3594505843
 20
129.7848442576
 10
136.3698607608
 20
129.7849570756
 10
136.3802450853
 20
129.785340642
 10
136.3905754102
 20
129.785993917
 10
136.4008237347
 20
129.7869151299
 10
136.4109622798
 20
129.7881017837
 10
136.4209635644
 20
129.7895506619
 10
136.4308004794
 20
129.7912578373
 10
136.4404463611
 20
129.7932186823
 10
136.4498750638
 20
129.795427882
 10
136.4590610302
 20
129.7978794482
 10
136.4679793612
 20
129.8005667358
 10
136.4766058831
 20
129.8034824607
 10
136.484917213
 20
129.8066187197
 10
136.4928908227
 20
129.8099670116
 10
136.500505099
 20
129.8135182608
  0
LWPOLYLINE
  5
3B4
100
AcDbEntity
  8
COPY_PUBLISH
100
AcDbPolyline
 62
253
  6
CONTINUOUS
 90
34
 70
0
 10
142.6461711298
 20
125.2261963526
 10
142.6547507503
 20
125.2221053188
 10
142.6637086288
 20
125.2182222616
 10
142.6730246199
 20
125.2145559137
 10
142.6826777616
 20
125.2111145243
 10
142.6926463556
 20
125.2079058281
 10
142.7029080201
 20
125.2049370313
 10
142.7134397054
 20
125.2022148069
 10
142.7242177054
 20
125.1997452869
 10
142.7352177446
 20
125.197534035
 10
142.7464150714
 20
125.1955860263
 10
142.7577845161
 20
125.1939056392
 10
142.7693005091
 20
125.1924966526
 10
142.7809371512
 20
125.1913622355
 10
142.7926682726
 20
125.1905049389
 10
142.8044674911
 20
125.1899266908
 10
142.8163082795
 20
125.1896287916
 10
142.828164
 20
125.1896119117
 10
142.8400079639
 20
125.1898760882
 10
142.8518135181
 20
125.1904207242
 10
142.8635541301
 20
125.1912445932
 10
142.8752034223
 20
125.1923458433
 10
142.8867352816
 20
125.1937220092
 10
142.8981236865
 20
125.1953699886
 10
142.9093428013
 20
125.1972860343
 10
142.9203672603
 20
125.1994657904
 10
142.9311724369
 20
125.2019043632
 10
142.9417342586
 20
125.2045963109
 10
142.9520297995
 20
125.2075358284
 10
142.9620350383
 20
125.2107160968
 10
142.9717253473
 20
125.2141291766
 10
142.9810784765
 20
125.2177669629
 10
142.9900743763
 20
125.2216213797
 10
142.9986930895
 20
125.2256836288
  0
LWPOLYLINE
  5
3B5
100
AcDbEntity
  8
COPY_PUBLISH
100
AcDbPolyline
 62
253
  6
CONTINUOUS
 90
34
 70
0
 10
130.3425131372
 20
131.3780253489
 10
130.3510921291
 20
131.3739346009
 10
130.3600493262
 20
131.3700517991
 10
130.3693645877
 20
131.3663856743
 10
130.3790169675
 20
131.3629444701
 10
130.3889847614
 20
131.3597359242
 10
130.3992455561
 20
131.3567672515
 10
130.4097762795
 20
131.354045127
 10
130.4205532523
 20
131.3515756718
 10
130.4315522419
 20
131.3493644386
 10
130.442748516
 20
131.3474163995
 10
130.4541168991
 20
131.3457359348
 10
130.4656318285
 20
131.3443268232
 10
130.477267412
 20
131.3431922332
 10
130.488997486
 20
131.3423347159
 10
130.5007956747
 20
131.3417561997
 10
130.5126354489
 20
131.3414579852
 10
130.524490186
 20
131.3414407432
 10
130.5363332297
 20
131.3417045123
 10
130.54813795
 20
131.3422486994
 10
130.5598778031
 20
131.3430720809
 10
130.5715263912
 20
131.3441728054
 10
130.5830575213
 20
131.3455483977
 10
130.594445265
 20
131.3471957649
 10
130.6056640161
 20
131.3491112026
 10
130.6166885482
 20
131.3512904038
 10
130.6274940719
 20
131.3537284684
 10
130.6380562902
 20
131.3564199144
 10
130.6483514532
 20
131.3593586896
 10
130.6583564113
 20
131.3625381862
 10
130.6680486677
 20
131.3659512547
 10
130.6774064286
 20
131.3695902206
 10
130.6864086524
 20
131.3734469014
 10
130.6950350969
 20
131.3775126251
  0
LWPOLYLINE
  5
3B6
100
AcDbEntity
  8
COPY_PUBLISH
100
AcDbPolyline
 62
253
  6
CONTINUOUS
 90
34
 70
0
 10
142.6461711298
 20
125.5661702867
 10
142.6547513327
 20
125.562078988
 10
142.6637098561
 20
125.5581956887
 10
142.6730265518
 20
125.554529124
 10
142.6826804727
 20
125.5510875396
 10
142.6926499004
 20
125.5478786798
 10
142.7029123931
 20
125.5449097686
 10
142.713444862
 20
125.5421874848
 10
142.7242236225
 20
125.5397179493
 10
142.7352244269
 20
125.5375067171
 10
142.7464225335
 20
125.5355587607
 10
142.7577927532
 20
125.5338784614
 10
142.7693095028
 20
125.5324695989
 10
142.7809468761
 20
125.5313353408
 10
142.7926787
 20
125.530478237
 10
142.8044785831
 20
125.529900214
 10
142.8163199913
 20
125.5296025703
 10
142.8281762849
 20
125.5295859742
 10
142.8400207754
 20
125.5298504607
 10
142.8518267901
 20
125.5303954299
 10
142.8635678096
 20
125.5312196535
 10
142.8752175037
 20
125.5323212826
 10
142.8867497775
 20
125.5336978561
 10
142.8981385822
 20
125.5353462713
 10
142.9093580609
 20
125.5372627786
 10
142.9203828434
 20
125.5394430216
 10
142.931188299
 20
125.5418821064
 10
142.9417503368
 20
125.5445745864
 10
142.9520467307
 20
125.5475148669
 10
142.9620527115
 20
125.5506959479
 10
142.9717416522
 20
125.5541091483
 10
142.9810908725
 20
125.5577459588
 10
142.9900812491
 20
125.5615984029
 10
142.9986930895
 20
125.5656575629
  0
LWPOLYLINE
  5
3B7
100
AcDbEntity
  8
COPY_PUBLISH
100
AcDbPolyline
 62
253
  6
CONTINUOUS
 90
34
 70
0
 10
130.3425131372
 20
131.7179992831
 10
130.3510780689
 20
131.7139149285
 10
130.3600238522
 20
131.7100362587
 10
130.3693308812
 20
131.7063722407
 10
130.3789800662
 20
131.7029309133
 10
130.3889488534
 20
131.6997208257
 10
130.3992108448
 20
131.6967506881
 10
130.4097414063
 20
131.6940275596
 10
130.420518327
 20
131.6915571146
 10
130.4315175645
 20
131.6893448725
 10
130.4427145346
 20
131.6873957993
 10
130.4540839274
 20
131.6857143218
 10
130.4655999451
 20
131.6843042617
 10
130.4772365814
 20
131.6831687968
 10
130.4889677653
 20
131.682310465
 10
130.5007671878
 20
131.6817311912
 10
130.5126083436
 20
131.681432281
 10
130.5244645688
 20
131.6814144115
 10
130.536309177
 20
131.6816776252
 10
130.5481155225
 20
131.6822213313
 10
130.5598570561
 20
131.6830443087
 10
130.571507365
 20
131.6841447073
 10
130.5830402468
 20
131.6855200537
 10
130.5944297598
 20
131.6871672556
 10
130.6056502775
 20
131.6890826079
 10
130.616676561
 20
131.6912618027
 10
130.6274838111
 20
131.6936999395
 10
130.6380477166
 20
131.6963915342
 10
130.6483445219
 20
131.6993305348
 10
130.6583510618
 20
131.7025103299
 10
130.6680448115
 20
131.7059237613
 10
130.6774039636
 20
131.7095631483
 10
130.686407475
 20
131.7134203064
 10
130.6950350969
 20
131.7174865592
  0
LINE
  5
3B8
100
AcDbEntity
  8
COPY_PUBLISH
100
AcDbLine
 62
253
  6
CONTINUOUS
 10
128.6639750668
 20
132.2172943841
 11
130.3425131372
 21
131.3780253489
  0
LINE
  5
3B9
100
AcDbEntity
  8
COPY_PUBLISH
100
AcDbLine
 62
253
  6
CONTINUOUS
 10
140.9676330594
 20
126.0654653878
 11
142.6461711298
 21
125.2261963526
  0
LINE
  5
3BA
100
AcDbEntity
  8
COPY_PUBLISH
100
AcDbLine
 62
7
  6
CONTINUOUS
 10
134.5944129265
 20
129.3927627576
 11
136.21890189
 21
128.5805182759
  0
LINE
  5
3BB
100
AcDbEntity
  8
COPY_PUBLISH
100
AcDbLine
 62
7
  6
CONTINUOUS
 10
137.9196714314
 20
127.7301335052
 11
138.9248383731
 21
127.2275500343
  0
LINE
  5
3BC
100
AcDbEntity
  8
COPY_PUBLISH
100
AcDbLine
 62
253
  6
CONTINUOUS
 10
142.6461711298
 20
125.5661702867
 11
140.9676330594
 21
126.4054393219
  0
LINE
  5
3BD
100
AcDbEntity
  8
COPY_PUBLISH
100
AcDbLine
 62
253
  6
CONTINUOUS
 10
130.3425131372
 20
131.7179992831
 11
128.6639750668
 21
132.5572683183
  0
LINE
  5
3BE
100
AcDbEntity
  8
COPY_PUBLISH
100
AcDbLine
 62
7
  6
CONTINUOUS
 10
137.8610927877
 20
128.1356694517
 11
136.7157332701
 21
128.7083492105
  0
LINE
  5
3BF
100
AcDbEntity
  8
COPY_PUBLISH
100
AcDbLine
 62
7
  6
CONTINUOUS
 10
132.2963158877
 20
130.9180579017
 11
133.303747784
 21
130.4143419536
  0
LINE
  5
3C0
100
AcDbEntity
  8
COPY_PUBLISH
100
AcDbLine
 62
7
  6
CONTINUOUS
 10
140.5694652276
 20
126.7814832318
 11
140.9209721437
 21
126.6057297737
  0
LINE
  5
3C1
100
AcDbEntity
  8
COPY_PUBLISH
100
AcDbLine
 62
7
  6
CONTINUOUS
 10
144.5999738803
 20
124.7662289054
 11
144.9537963956
 21
124.5893176478
  0
LINE
  5
3C2
100
AcDbEntity
  8
RACCORDO
100
AcDbLine
 62
253
  6
CONTINUOUS
 10
139.3620333312
 20
127.5304217373
 11
138.9834170169
 21
127.7197298945
  0
LINE
  5
3C3
100
AcDbEntity
  8
RACCORDO
100
AcDbLine
 62
253
  6
CONTINUOUS
 10
133.7409427421
 20
130.3409670319
 11
133.3623264278
 21
130.530275189
  0
LINE
  5
3C4
100
AcDbEntity
  8
COPY_PUBLISH
100
AcDbLine
 62
253
  6
CONTINUOUS
 10
142.8219193858
 20
125.8705471017
 11
141.1433813154
 21
126.7098161369
  0
LINE
  5
3C5
100
AcDbEntity
  8
COPY_PUBLISH
100
AcDbLine
 62
253
  6
CONTINUOUS
 10
130.5182613932
 20
132.022376098
 11
128.8397233228
 21
132.8616451332
  0
LINE
  5
3C6
100
AcDbEntity
  8
RACCORDO
100
AcDbLine
 62
253
  6
CONTINUOUS
 10
139.644050899
 20
127.7032137078
 11
139.1240202361
 21
127.9632290393
  0
LINE
  5
3C7
100
AcDbEntity
  8
RACCORDO
100
AcDbLine
 62
253
  6
CONTINUOUS
 10
133.8815367294
 20
130.5844707926
 11
133.3615060696
 21
130.8444861225
  0
LINE
  5
3C8
100
AcDbEntity
  8
COPY_PUBLISH
100
AcDbLine
 62
7
  6
CONTINUOUS
 10
137.4124191756
 20
129.0583185294
 11
137.8610927877
 21
128.8339817234
  0
LINE
  5
3C9
100
AcDbEntity
  8
COPY_PUBLISH
100
AcDbLine
 62
7
  6
CONTINUOUS
 10
132.2963158877
 20
131.6201262945
 11
132.999308842
 21
131.2686298174
  0
LINE
  5
3CA
100
AcDbEntity
  8
COPY_PUBLISH
100
AcDbLine
 62
7
  6
CONTINUOUS
 10
144.5999738803
 20
125.4682972982
 11
145.6544677121
 21
124.9410503823
  0
LINE
  5
3CB
100
AcDbEntity
  8
RACCORDO
100
AcDbLine
 62
253
  6
CONTINUOUS
 10
139.4650660115
 20
128.1910505668
 11
137.9196714314
 21
128.9637478568
  0
LINE
  5
3CC
100
AcDbEntity
  8
RACCORDO
100
AcDbLine
 62
253
  6
CONTINUOUS
 10
136.21890189
 20
129.8141326276
 11
134.5944129265
 21
130.6263771093
  0
LINE
  5
3CD
100
AcDbEntity
  8
DRAFT
100
AcDbLine
 62
7
  6
CONTINUOUS
 10
137.4091237245
 20
129.5232031536
 11
137.999778078
 21
129.2278759769
  0
LINE
  5
3CE
100
AcDbEntity
  8
RACCORDO
100
AcDbLine
 62
253
  6
CONTINUOUS
 10
134.5948189555
 20
130.9399748492
 11
136.3595004947
 21
130.0576340795
  0
LINE
  5
3CF
100
AcDbEntity
  8
RACCORDO
100
AcDbLine
 62
253
  6
CONTINUOUS
 10
138.0602700362
 20
129.2072493088
 11
139.8249515755
 21
128.3249085392
  0
LINE
  5
3D0
100
AcDbEntity
  8
COPY_PUBLISH
100
AcDbLine
 62
7
  6
CONTINUOUS
 10
134.276214875
 20
131.3137490541
 11
136.5743137088
 21
130.1646996372
  0
LINE
  5
3D1
100
AcDbEntity
  8
COPY_PUBLISH
100
AcDbLine
 62
7
  6
CONTINUOUS
 10
138.2713663938
 20
129.3161732948
 11
140.5694652276
 21
128.1671238779
  0
LINE
  5
3D2
100
AcDbEntity
  8
COPY_PUBLISH
100
AcDbLine
 62
7
  6
CONTINUOUS
 10
144.4232001766
 20
126.6732691052
 11
142.7261379186
 21
127.5218002342
  0
LINE
  5
3D3
100
AcDbEntity
  8
COPY_PUBLISH
100
AcDbLine
 62
7
  6
CONTINUOUS
 10
132.119542184
 20
132.8250981015
 11
130.4224799259
 21
133.6736292306
  0
LWPOLYLINE
  5
3D4
100
AcDbEntity
  8
COPY_PUBLISH
100
AcDbPolyline
 62
253
  6
CONTINUOUS
 90
34
 70
0
 10
132.6478093557
 20
133.0885369216
 10
132.6562681737
 20
133.0841097179
 10
132.6647055009
 20
133.079200951
 10
132.6731022249
 20
133.0738217403
 10
132.6814393253
 20
133.0679842708
 10
132.6896979166
 20
133.0617017657
 10
132.6978592913
 20
133.0549884564
 10
132.705904962
 20
133.04785955
 10
132.7138167035
 20
133.040331195
 10
132.7215765939
 20
133.0324204448
 10
132.7291670553
 20
133.0241452192
 10
132.7365708937
 20
133.0155242632
 10
132.7437713377
 20
133.0065771054
 10
132.7507520767
 20
132.997324013
 10
132.7574972976
 20
132.9877859464
 10
132.7639917212
 20
132.9779845114
 10
132.770220636
 20
132.9679419104
 10
132.7761699323
 20
132.9576808923
 10
132.7818261334
 20
132.9472247005
 10
132.7871764268
 20
132.9365970206
 10
132.792208693
 20
132.9258219267
 10
132.7969115326
 20
132.9149238268
 10
132.8012742928
 20
132.9039274075
 10
132.8052870909
 20
132.8928575783
 10
132.808940837
 20
132.8817394146
 10
132.8122272545
 20
132.8705981018
 10
132.815138899
 20
132.8594588773
 10
132.817669175
 20
132.848346974
 10
132.8198123507
 20
132.8372875627
 10
132.8215635715
 20
132.8263056957
 10
132.8229188705
 20
132.8154262493
 10
132.8238751775
 20
132.8046738677
 10
132.8244303263
 20
132.7940729077
 10
132.8245830594
 20
132.7836473827
  0
LWPOLYLINE
  5
3D5
100
AcDbEntity
  8
COPY_PUBLISH
100
AcDbPolyline
 62
253
  6
CONTINUOUS
 90
18
 70
0
 10
140.9676330594
 20
126.4054393219
 10
140.9594504621
 20
126.4097294234
 10
140.9516838634
 20
126.414208685
 10
140.9443507339
 20
126.4188670329
 10
140.9374675651
 20
126.4236939934
 10
140.9310498456
 20
126.4286787072
 10
140.9251120232
 20
126.4338099536
 10
140.9196674555
 20
126.439076188
 10
140.9147283846
 20
126.4444655682
 10
140.9103059201
 20
126.4499659705
 10
140.9064100074
 20
126.4555650238
 10
140.9030494088
 20
126.4612501336
 10
140.9002316837
 20
126.4670085084
 10
140.8979631677
 20
126.4728271951
 10
140.89624896
 20
126.478693107
 10
140.8950929139
 20
126.4845930486
 10
140.8944976265
 20
126.4905137527
 10
140.8944097948
 20
126.493756937
  0
LWPOLYLINE
  5
3D6
100
AcDbEntity
  8
COPY_PUBLISH
100
AcDbPolyline
 62
253
  6
CONTINUOUS
 90
16
 70
0
 10
137.9196714314
 20
128.9637478568
 10
137.9125027573
 20
128.9675238599
 10
137.9057368464
 20
128.971481294
 10
137.8993920383
 20
128.975609432
 10
137.8934855309
 20
128.9798970846
 10
137.8880333342
 20
128.9843326296
 10
137.8830502267
 20
128.9889040442
 10
137.8785497156
 20
128.9935989374
 10
137.8745439998
 20
128.9984045832
 10
137.871043937
 20
129.0033079557
 10
137.8680590143
 20
129.0082957639
 10
137.8655973227
 20
129.0133544881
 10
137.8636655347
 20
129.0184704162
 10
137.8622688864
 20
129.0236296811
 10
137.8614111638
 20
129.0288182985
 10
137.8610927877
 20
129.0344585349
  0
LWPOLYLINE
  5
3D7
100
AcDbEntity
  8
COPY_PUBLISH
100
AcDbPolyline
 62
7
  6
CONTINUOUS
 90
37
 70
0
 10
136.5743137088
 20
130.1646996372
 10
136.5804824208
 20
130.1614506047
 10
136.5866392056
 20
130.1578779865
 10
136.5927724433
 20
130.1539886285
 10
136.5988706431
 20
130.1497900216
 10
136.6049222012
 20
130.1452901566
 10
136.6109154224
 20
130.140497509
 10
136.6168389709
 20
130.1354212341
 10
136.6226816631
 20
130.1300710377
 10
136.6284322245
 20
130.1244570278
 10
136.6340797667
 20
130.1185899166
 10
136.6396136192
 20
130.1124809102
 10
136.6450231215
 20
130.1061415758
 10
136.6502980191
 20
130.0995839999
 10
136.6554283376
 20
130.0928206966
 10
136.660404213
 20
130.085864495
 10
136.6652162004
 20
130.0787286487
 10
136.6698551926
 20
130.0714267661
 10
136.6743122911
 20
130.063972718
 10
136.6785790229
 20
130.0563806984
 10
136.6826473033
 20
130.0486651767
 10
136.6865093528
 20
130.0408408279
 10
136.6901578147
 20
130.032922543
 10
136.693585766
 20
130.024925405
 10
136.6967866791
 20
130.0168646411
 10
136.6997544401
 20
130.0087555843
 10
136.7024834056
 20
130.0006136728
 10
136.7049684124
 20
129.9924544247
 10
136.7072046935
 20
129.9842933528
 10
136.7091879822
 20
129.9761459856
 10
136.7109145673
 20
129.9680278664
 10
136.7123811109
 20
129.9599544218
 10
136.7135847954
 20
129.9519410051
 10
136.7145234253
 20
129.944002918
 10
136.7151952101
 20
129.9361552681
 10
136.7155987679
 20
129.9284129396
 10
136.7157332701
 20
129.9207906381
  0
LWPOLYLINE
  5
3D8
100
AcDbEntity
  8
COPY_PUBLISH
100
AcDbPolyline
 62
7
  6
CONTINUOUS
 90
34
 70
0
 10
132.119542184
 20
132.8250981015
 10
132.1279532594
 20
132.8206471871
 10
132.136345477
 20
132.8157160167
 10
132.1446997248
 20
132.8103157071
 10
132.1529968987
 20
132.8044583984
 10
132.1612181971
 20
132.7981573536
 10
132.1693451629
 20
132.7914269285
 10
132.1773593283
 20
132.7842823377
 10
132.1852424476
 20
132.7767397184
 10
132.1929767898
 20
132.7688162214
 10
132.2005447974
 20
132.7605297753
 10
132.2079292543
 20
132.7518991139
 10
132.2151135169
 20
132.7429438343
 10
132.2220812955
 20
132.7336842138
 10
132.2288167547
 20
132.7241412018
 10
132.2353046775
 20
132.714336442
 10
132.2415303741
 20
132.704292148
 10
132.247479712
 20
132.6940310579
 10
132.2531392114
 20
132.683576421
 10
132.2584960818
 20
132.6729519346
 10
132.2635381815
 20
132.6621816623
 10
132.2682540426
 20
132.651289985
 10
132.2726330344
 20
132.640301601
 10
132.2766652534
 20
132.6292414092
 10
132.2803414773
 20
132.6181344248
 10
132.2836534516
 20
132.607005844
 10
132.2865937124
 20
132.5958808939
 10
132.2891554711
 20
132.584784714
 10
132.291333017
 20
132.5737424854
 10
132.2931214779
 20
132.5627792492
 10
132.2945166362
 20
132.5519197575
 10
132.2955153398
 20
132.5411886122
 10
132.2961155088
 20
132.5306102099
 10
132.2963158877
 20
132.5202085627
  0
LWPOLYLINE
  5
3D9
100
AcDbEntity
  8
COPY_PUBLISH
100
AcDbPolyline
 62
7
  6
CONTINUOUS
 90
34
 70
0
 10
144.4232001766
 20
126.6732691052
 10
144.4316112521
 20
126.6688181908
 10
144.4400034697
 20
126.6638870204
 10
144.4483577174
 20
126.6584867108
 10
144.4566548914
 20
126.6526294021
 10
144.4648761898
 20
126.6463283573
 10
144.4730031556
 20
126.6395979322
 10
144.4810173209
 20
126.6324533414
 10
144.4889004403
 20
126.6249107221
 10
144.4966347825
 20
126.6169872251
 10
144.50420279
 20
126.6087007789
 10
144.511587247
 20
126.6000701176
 10
144.5187715095
 20
126.5911148379
 10
144.5257392882
 20
126.5818552174
 10
144.5324747474
 20
126.5723122055
 10
144.5389626701
 20
126.5625074457
 10
144.5451883667
 20
126.5524631517
 10
144.5511377047
 20
126.5422020616
 10
144.5567972041
 20
126.5317474247
 10
144.5621540745
 20
126.5211229383
 10
144.5671961741
 20
126.510352666
 10
144.5719120353
 20
126.4994609887
 10
144.5762910271
 20
126.4884726047
 10
144.580323246
 20
126.4774124129
 10
144.5839994699
 20
126.4663054285
 10
144.5873114442
 20
126.4551768477
 10
144.5902517051
 20
126.4440518975
 10
144.5928134637
 20
126.4329557177
 10
144.5949910096
 20
126.421913489
 10
144.5967794705
 20
126.4109502529
 10
144.5981746288
 20
126.4000907612
 10
144.5991733325
 20
126.3893596159
 10
144.5997735015
 20
126.3787812136
 10
144.5999738803
 20
126.3683795664
  0
LWPOLYLINE
  5
3DA
100
AcDbEntity
  8
COPY_PUBLISH
100
AcDbPolyline
 62
253
  6
CONTINUOUS
 90
34
 70
0
 10
130.5182613932
 20
132.022376098
 10
130.5266109287
 20
132.0179088835
 10
130.5349475101
 20
132.012961874
 10
130.5432522658
 20
132.0075456399
 10
130.551507532
 20
132.0016709643
 10
130.5596933428
 20
131.9953513137
 10
130.5677875904
 20
131.9886034349
 10
130.5757707491
 20
131.981443719
 10
130.5836259483
 20
131.9738874108
 10
130.5913355343
 20
131.9659514782
 10
130.5988821313
 20
131.957653767
 10
130.6062485271
 20
131.9490131616
 10
130.6134178689
 20
131.9400494169
 10
130.6203738506
 20
131.930782933
 10
130.6271007809
 20
131.9212346265
 10
130.6335834617
 20
131.911426069
 10
130.6398072189
 20
131.9013794535
 10
130.6457579295
 20
131.891117568
 10
130.651422097
 20
131.8806636812
 10
130.6567868834
 20
131.870041484
 10
130.6618401341
 20
131.8592750385
 10
130.6665703961
 20
131.8483887422
 10
130.6709669507
 20
131.8374072599
 10
130.6750198336
 20
131.8263554749
 10
130.6787198572
 20
131.8152584375
 10
130.6820586366
 20
131.8041412934
 10
130.6850286063
 20
131.7930292309
 10
130.6876230352
 20
131.7819474319
 10
130.6898360451
 20
131.7709210013
 10
130.6916626198
 20
131.7599749288
 10
130.6930986179
 20
131.7491340355
 10
130.6941407866
 20
131.7384228912
 10
130.694786767
 20
131.727865759
 10
130.6950350969
 20
131.7174865592
  0
LWPOLYLINE
  5
3DB
100
AcDbEntity
  8
COPY_PUBLISH
100
AcDbPolyline
 62
253
  6
CONTINUOUS
 90
34
 70
0
 10
142.8219193858
 20
125.8705471017
 10
142.8302826686
 20
125.8660721305
 10
142.8386293364
 20
125.8611180339
 10
142.846940482
 20
125.8556960339
 10
142.8551972789
 20
125.8498184127
 10
142.8633810235
 20
125.8434984843
 10
142.8714731779
 20
125.8367505648
 10
142.8794554115
 20
125.8295899398
 10
142.8873096427
 20
125.8220328297
 10
142.89501808
 20
125.814096353
 10
142.902563262
 20
125.8057984876
 10
142.9099280973
 20
125.7971580301
 10
142.9170959027
 20
125.788194553
 10
142.9240504416
 20
125.7789283606
 10
142.9307759605
 20
125.7693804429
 10
142.9372572245
 20
125.7595724281
 10
142.9434795521
 20
125.7495265336
 10
142.9494288483
 20
125.7392655154
 10
142.9550916367
 20
125.7288126172
 10
142.9604550897
 20
125.7181915171
 10
142.9655070579
 20
125.7074262743
 10
142.9702360976
 20
125.6965412744
 10
142.9746314963
 20
125.6855611744
 10
142.9786832976
 20
125.6745108467
 10
142.9823823231
 20
125.6634153228
 10
142.9857201937
 20
125.6522997365
 10
142.9886893485
 20
125.6411892671
 10
142.9912830616
 20
125.6301090824
 10
142.9934954576
 20
125.6190842813
 10
142.9953215251
 20
125.6081398376
 10
142.9967571275
 20
125.5973005429
 10
142.9977990129
 20
125.5865909506
 10
142.9984448212
 20
125.5760353203
 10
142.9986930895
 20
125.5656575629
  0
LWPOLYLINE
  5
3DC
100
AcDbEntity
  8
COPY_PUBLISH
100
AcDbPolyline
 62
253
  6
CONTINUOUS
 90
34
 70
0
 10
136.3595004947
 20
130.0576340795
 10
136.3661722813
 20
130.0540437514
 10
136.3728308238
 20
130.0500700402
 10
136.379461035
 20
130.0457219483
 10
136.3860478957
 20
130.0410093233
 10
136.3925764771
 20
130.0359428442
 10
136.3990319747
 20
130.0305339996
 10
136.4053997583
 20
130.0247950484
 10
136.4116654028
 20
130.018738992
 10
136.41781471
 20
130.0123795546
 10
136.4238337479
 20
130.005731145
 10
136.4297088776
 20
129.998808829
 10
136.4354267825
 20
129.9916282982
 10
136.4409745064
 20
129.9842058255
 10
136.4463394815
 20
129.9765582281
 10
136.4515095521
 20
129.9687028357
 10
136.4564730084
 20
129.9606574422
 10
136.4612186016
 20
129.9524402832
 10
136.4657355705
 20
129.9440699965
 10
136.4700136716
 20
129.9355655734
 10
136.4740432278
 20
129.9269462605
 10
136.4778151355
 20
129.9182315318
 10
136.4813208764
 20
129.909441054
 10
136.4845524707
 20
129.9005948205
 10
136.4875025377
 20
129.8917130536
 10
136.4901643766
 20
129.8828159905
 10
136.4925320113
 20
129.8739236765
 10
136.4946001277
 20
129.8650560984
 10
136.4963642897
 20
129.8562319832
 10
136.4978201554
 20
129.8474727046
 10
136.4989639838
 20
129.838801968
 10
136.4997935038
 20
129.8302405472
 10
136.5003074548
 20
129.821806352
 10
136.500505099
 20
129.8135182608
  0
LWPOLYLINE
  5
3DD
100
AcDbEntity
  8
COPY_PUBLISH
100
AcDbPolyline
 62
7
  6
CONTINUOUS
 90
12
 70
0
 10
132.75849554
 20
133.0951711416
 10
132.7809208028
 20
133.0824856303
 10
132.802018311
 20
133.0674826353
 10
132.8214897838
 20
133.0503406279
 10
132.8391465707
 20
133.0311929778
 10
132.8547800436
 20
133.0102152306
 10
132.8681821402
 20
132.9876298669
 10
132.8791806681
 20
132.9636631397
 10
132.8876254357
 20
132.9385567027
 10
132.8933834023
 20
132.9125956827
 10
132.8963554151
 20
132.8860997827
 10
132.8967808977
 20
132.8715684328
  0
LWPOLYLINE
  5
3DE
100
AcDbEntity
  8
COPY_PUBLISH
100
AcDbPolyline
 62
7
  6
CONTINUOUS
 90
12
 70
0
 10
145.0622423079
 20
126.9432978163
 10
145.0851562627
 20
126.9302880503
 10
145.1067988276
 20
126.9147589404
 10
145.1268200765
 20
126.8968623588
 10
145.1448524696
 20
126.8768640588
 10
145.1606662183
 20
126.8549850236
 10
145.1741246827
 20
126.831336326
 10
145.1850176129
 20
126.8061365165
 10
145.1930992958
 20
126.7798236272
 10
145.1982382232
 20
126.7527893557
 10
145.2003777483
 20
126.7252189833
 10
145.2004388706
 20
126.719621654
  0
LWPOLYLINE
  5
3DF
100
AcDbEntity
  8
DRAFT
100
AcDbPolyline
 62
7
  6
CONTINUOUS
 90
8
 70
0
 10
141.7105735392
 20
130.9787228304
 10
141.8937177872
 20
130.8313153299
 10
142.0920286281
 20
130.6902833771
 10
142.3055060619
 20
130.555626972
 10
142.5349552545
 20
130.4269435316
 10
142.7795710399
 20
130.3046356389
 10
143.0369379207
 20
130.1899110426
 10
143.2213805505
 20
130.1168095454
  0
LINE
  5
3E0
100
AcDbEntity
  8
COPY_PUBLISH
100
AcDbLine
 62
253
  6
CONTINUOUS
 10
143.3568775096
 20
84.9033458045
 11
142.7345594775
 21
84.158286387
  0
LINE
  5
3E1
100
AcDbEntity
  8
COPY_PUBLISH
100
AcDbLine
 62
253
  6
CONTINUOUS
 10
143.7099136976
 20
84.7775759665
 11
142.9986930895
 21
83.9260794894
  0
LWPOLYLINE
  5
3E2
100
AcDbEntity
  8
COPY_PUBLISH
100
AcDbPolyline
 62
7
  6
CONTINUOUS
 90
3
 70
0
 10
143.3332588607
 20
127.804020692
 10
143.3629500058
 20
127.792749588
 10
143.3715226148
 20
127.7886574723
  0
LWPOLYLINE
  5
3E3
100
AcDbEntity
  8
RACCORDO
100
AcDbPolyline
 62
253
  6
CONTINUOUS
 90
7
 70
0
 10
140.3568438696
 20
129.889297599
 10
140.3383846785
 20
129.8970454011
 10
140.3202413293
 20
129.9016970492
 10
140.3027242596
 20
129.9031729523
 10
140.2861331915
 20
129.9014478573
 10
140.2707520028
 20
129.8965512811
 10
140.2674011505
 20
129.8949779565
  0
LINE
  5
3E4
100
AcDbEntity
  8
COPY_PUBLISH
100
AcDbLine
 62
7
  6
CONTINUOUS
 10
131.0677047642
 20
133.9405665882
 11
131.039511052
 21
133.9525632268
  0
LINE
  5
3E5
100
AcDbEntity
  8
RACCORDO
100
AcDbLine
 62
7
  6
CONTINUOUS
 10
141.5866316258
 20
129.899216922
 11
141.5122931196
 21
129.9327871591
  0
LWPOLYLINE
  5
3E6
100
AcDbEntity
  8
COPY_PUBLISH
100
AcDbPolyline
 62
253
  6
CONTINUOUS
 90
16
 70
0
 10
132.75849554
 20
133.0951711416
 10
132.7565046384
 20
133.0961348059
 10
132.7498099051
 20
133.0989678524
 10
132.7428834289
 20
133.1012893513
 10
132.7357407185
 20
133.1030940912
 10
132.728397901
 20
133.1043779845
 10
132.7208716543
 20
133.1051381283
 10
132.7131790201
 20
133.1053728426
 10
132.7053372075
 20
133.1050816428
 10
132.6973637085
 20
133.1042651931
 10
132.6892752311
 20
133.1029250887
 10
132.6810911598
 20
133.1010644273
 10
132.672833489
 20
133.0986885324
 10
132.6645220683
 20
133.0958038618
 10
132.656174436
 20
133.0924172434
 10
132.6478093557
 20
133.0885369216
  0
LWPOLYLINE
  5
3E7
100
AcDbEntity
  8
COPY_PUBLISH
100
AcDbPolyline
 62
253
  6
CONTINUOUS
 90
16
 70
0
 10
143.3713627456
 20
127.7887375975
 10
143.3692830799
 20
127.7897455852
 10
143.3625883466
 20
127.7925786317
 10
143.3556618704
 20
127.7949001305
 10
143.34851916
 20
127.7967048705
 10
143.3411763425
 20
127.7979887638
 10
143.3336500958
 20
127.7987489075
 10
143.3259574616
 20
127.7989836218
 10
143.318115649
 20
127.7986924221
 10
143.31014215
 20
127.7978759723
 10
143.3020536726
 20
127.7965358679
 10
143.2938696013
 20
127.7946752065
 10
143.2856119305
 20
127.7922993117
 10
143.2773005098
 20
127.789414641
 10
143.2689528775
 20
127.7860280227
 10
143.2605877972
 20
127.7821477008
  0
LWPOLYLINE
  5
3E8
100
AcDbEntity
  8
COPY_PUBLISH
100
AcDbPolyline
 62
253
  6
CONTINUOUS
 90
16
 70
0
 10
145.0622423079
 20
126.9432978163
 10
145.0601798475
 20
126.9442977233
 10
145.0534865394
 20
126.9471317995
 10
145.0465615209
 20
126.9494544578
 10
145.0394203635
 20
126.9512604756
 10
145.0320791245
 20
126.952545792
 10
145.0245543113
 20
126.9533075168
 10
145.016862844
 20
126.9535439373
 10
145.0090220175
 20
126.9532545217
 10
145.0010494624
 20
126.9524399209
 10
144.9929631057
 20
126.9511019667
 10
144.9847811301
 20
126.9492436673
 10
144.9765219334
 20
126.9468692015
 10
144.968204087
 20
126.9439839083
 10
144.9598462943
 20
126.9405942756
 10
144.9514673484
 20
126.9367079252
  0
LINE
  5
3E9
100
AcDbEntity
  8
COPY_PUBLISH
100
AcDbLine
 62
253
  6
CONTINUOUS
 10
131.0677047642
 20
133.9405665882
 11
131.0656423037
 21
133.9415664952
  0
LWPOLYLINE
  5
3EA
100
AcDbEntity
  8
RACCORDO
100
AcDbPolyline
 62
253
  6
CONTINUOUS
 90
31
 70
0
 10
141.496941329
 20
129.8936609038
 10
141.4771064406
 20
129.9033397272
 10
141.4559236638
 20
129.9128409733
 10
141.4333929985
 20
129.922164642
 10
141.4095944205
 20
129.9313496686
 10
141.3844479541
 20
129.9403571178
 10
141.357713672
 20
129.9490701843
 10
141.3293811096
 20
129.9575139629
 10
141.2994607315
 20
129.9656633587
 10
141.2677440038
 20
129.9733262817
 10
141.2342023265
 20
129.980530699
 10
141.1988642996
 20
129.9872486435
 10
141.1616071894
 20
129.9932041235
 10
141.1223874807
 20
129.9984256269
 10
141.0812486888
 20
130.0028846659
 10
141.0381986257
 20
130.0062197854
 10
140.9930016245
 20
130.0084404566
 10
140.9458933522
 20
130.0095372083
 10
140.8975886206
 20
130.0091201722
 10
140.8478393074
 20
130.0071079422
 10
140.796893535
 20
130.0035819244
 10
140.7462104828
 20
129.9983964692
 10
140.6957761694
 20
129.9914166858
 10
140.6456045762
 20
129.9827774649
 10
140.5971968266
 20
129.9727378286
 10
140.5506810515
 20
129.9611734411
 10
140.50592912
 20
129.9482086381
 10
140.4640577629
 20
129.9344754494
 10
140.425439224
 20
129.9201845516
 10
140.3897012596
 20
129.9051252682
 10
140.3568438696
 20
129.889297599
  0
LINE
  5
3EB
100
AcDbEntity
  8
COPY_PUBLISH
100
AcDbLine
 62
253
  6
CONTINUOUS
 10
132.7585843041
 20
133.0951268183
 11
132.75849554
 21
133.0951711416
  0
LINE
  5
3EC
100
AcDbEntity
  8
COPY_PUBLISH
100
AcDbLine
 62
7
  6
CONTINUOUS
 10
135.6162672498
 20
131.3317344174
 11
137.2612154942
 21
130.5092602952
  0
LINE
  5
3ED
100
AcDbEntity
  8
COPY_PUBLISH
100
AcDbLine
 62
7
  6
CONTINUOUS
 10
138.9703627288
 20
129.6546866778
 11
140.6153109732
 21
128.8322125556
  0
LINE
  5
3EE
100
AcDbEntity
  8
COPY_PUBLISH
100
AcDbLine
 62
253
  6
CONTINUOUS
 10
130.9569298046
 20
133.9339766971
 11
132.6478093557
 21
133.0885369216
  0
LINE
  5
3EF
100
AcDbEntity
  8
COPY_PUBLISH
100
AcDbLine
 62
253
  6
CONTINUOUS
 10
143.2605877972
 20
127.7821477008
 11
144.9514673484
 21
126.9367079252
  0
LINE
  5
3F0
100
AcDbEntity
  8
COPY_PUBLISH
100
AcDbLine
 62
7
  6
CONTINUOUS
 10
131.0677047642
 20
133.9405665882
 11
132.7585843153
 21
133.0951268127
  0
LINE
  5
3F1
100
AcDbEntity
  8
COPY_PUBLISH
100
AcDbLine
 62
7
  6
CONTINUOUS
 10
143.3713627568
 20
127.7887375919
 11
145.0622423079
 21
126.9432978163
  0
LINE
  5
3F2
100
AcDbEntity
  8
RACCORDO
100
AcDbLine
 62
253
  6
CONTINUOUS
 10
142.1282786624
 20
129.5779922371
 11
141.496941329
 21
129.8936609038
  0
LINE
  5
3F3
100
AcDbEntity
  8
RACCORDO
100
AcDbLine
 62
7
  6
CONTINUOUS
 10
142.1790395096
 20
129.6030135305
 11
141.5863840484
 21
129.8993412611
  0
LWPOLYLINE
  5
3F4
100
AcDbEntity
  8
COPY_PUBLISH
100
AcDbPolyline
 62
253
  6
CONTINUOUS
 90
34
 70
0
 10
144.9514673484
 20
126.9367079252
 10
144.9599122658
 20
126.9322884017
 10
144.9683394078
 20
126.9273866725
 10
144.9767296914
 20
126.9220132023
 10
144.9850652641
 20
126.9161786799
 10
144.9933259584
 20
126.9098964711
 10
145.0014894613
 20
126.90318322
 10
145.0095360811
 20
126.8960552346
 10
145.0174488144
 20
126.8885276935
 10
145.0252098778
 20
126.8806174995
 10
145.0328017791
 20
126.8723424405
 10
145.0402072024
 20
126.8637213489
 10
145.0474092057
 20
126.8547739349
 10
145.0543914085
 20
126.8455205616
 10
145.0611380605
 20
126.8359821159
 10
145.0676339192
 20
126.8261801473
 10
145.0738642804
 20
126.8161368338
 10
145.079815006
 20
126.8058749559
 10
145.0854725997
 20
126.7954177821
 10
145.090824238
 20
126.7847890109
 10
145.0958577963
 20
126.7740127192
 10
145.1005618662
 20
126.7631133269
 10
145.104925788
 20
126.7521155281
 10
145.1089396716
 20
126.7410442436
 10
145.1125944178
 20
126.7299245674
 10
145.1158817442
 20
126.7187816968
 10
145.1187942019
 20
126.7076408783
 10
145.12132519
 20
126.6965273589
 10
145.1234689741
 20
126.6854663154
 10
145.1252206949
 20
126.6744828159
 10
145.1265763807
 20
126.6636017665
 10
145.1275329608
 20
126.652847828
 10
145.1280882702
 20
126.6422453602
 10
145.1282410521
 20
126.6318183864
  0
LWPOLYLINE
  5
3F5
100
AcDbEntity
  8
COPY_PUBLISH
100
AcDbPolyline
 62
7
  6
CONTINUOUS
 90
9
 70
0
 10
145.1256694085
 20
84.5467143617
 10
145.1432069055
 20
84.5658368502
 10
145.1587313932
 20
84.5867695842
 10
145.1720381446
 20
84.6092923527
 10
145.1829574009
 20
84.6331807679
 10
145.1913413222
 20
84.6581955035
 10
145.1970591676
 20
84.6840550169
 10
145.2000133988
 20
84.7104439255
 10
145.2004388918
 20
84.7249774284
  0
LINE
  5
3F6
100
AcDbEntity
  8
COPY_PUBLISH
100
AcDbLine
 62
7
  6
CONTINUOUS
 10
147.059420546
 20
89.8649392878
 11
146.3677408333
 21
89.3636479633
  0
LINE
  5
3F7
100
AcDbEntity
  8
COPY_PUBLISH
100
AcDbLine
 62
7
  6
CONTINUOUS
 10
145.3070806615
 20
88.9922365
 11
147.1057041014
 21
90.2424508447
  0
LWPOLYLINE
  5
3F8
100
AcDbEntity
  8
RACCORDO
100
AcDbPolyline
 62
253
  6
CONTINUOUS
 90
7
 70
0
 10
151.2831078826
 20
93.1279474614
 10
151.2892467162
 20
93.1311604865
 10
151.2948216527
 20
93.1347118277
 10
151.2997468717
 20
93.1385821876
 10
151.3039226461
 20
93.1427270574
 10
151.3072888187
 20
93.1471339585
 10
151.3097907236
 20
93.1518288274
  0
LINE
  5
3F9
100
AcDbEntity
  8
RACCORDO
100
AcDbLine
 62
253
  6
CONTINUOUS
 10
147.1057041014
 20
92.6848593356
 11
165.5497011153
 21
102.2681015734
  0
LINE
  5
3FA
100
AcDbEntity
  8
RACCORDO
100
AcDbLine
 62
7
  6
CONTINUOUS
 10
147.1057041014
 20
91.2642803524
 11
164.6609064877
 21
100.3857173639
  0
LWPOLYLINE
  5
3FB
100
AcDbEntity
  8
COPY_PUBLISH
100
AcDbPolyline
 62
7
  6
CONTINUOUS
 90
6
 70
0
 10
143.1782973785
 20
127.8015542659
 10
143.2081615549
 20
127.8097897093
 10
143.2391631005
 20
127.8142973904
 10
143.2708579388
 20
127.8148752888
 10
143.302506816
 20
127.8114141908
 10
143.3332588607
 20
127.804020692
  0
LINE
  5
3FC
100
AcDbEntity
  8
COPY_PUBLISH
100
AcDbLine
 62
7
  6
CONTINUOUS
 10
130.4681916033
 20
131.2216914643
 11
131.0924894892
 21
131.0913374865
  0
LINE
  5
3FD
100
AcDbEntity
  8
COPY_PUBLISH
100
AcDbLine
 62
253
  6
CONTINUOUS
 10
130.6950350969
 20
131.3775126251
 11
131.406255705
 21
131.2290091022
  0
LWPOLYLINE
  5
3FE
100
AcDbEntity
  8
COPY_PUBLISH
100
AcDbPolyline
 62
7
  6
CONTINUOUS
 90
6
 70
0
 10
131.039511052
 20
133.9525632268
 10
131.009627303
 20
133.9611180117
 10
130.9785612923
 20
133.965930728
 10
130.9467631988
 20
133.966792663
 10
130.9149770324
 20
133.9635874335
 10
130.8840571205
 20
133.9564141796
  0
LWPOLYLINE
  5
3FF
100
AcDbEntity
  8
RACCORDO
100
AcDbPolyline
 62
7
  6
CONTINUOUS
 90
13
 70
0
 10
141.437265329
 20
129.9603591131
 10
141.3589394078
 20
129.9835968361
 10
141.277783223
 20
130.0025781174
 10
141.194192751
 20
130.0173526376
 10
141.1087910785
 20
130.0279052197
 10
141.0221673266
 20
130.0342368106
 10
140.9347893027
 20
130.0363452921
 10
140.8472768786
 20
130.0342280225
 10
140.7602499055
 20
130.0278806527
 10
140.6741763639
 20
130.0173018978
 10
140.5896674683
 20
130.0024811875
 10
140.5073354038
 20
129.9834304442
 10
140.4275795492
 20
129.9600808053
  0
LWPOLYLINE
  5
400
100
AcDbEntity
  8
COPY_PUBLISH
100
AcDbPolyline
 62
253
  6
CONTINUOUS
 90
14
 70
0
 10
131.0589489956
 20
133.9444005714
 10
131.0520239772
 20
133.9467232297
 10
131.0448828197
 20
133.9485292475
 10
131.0375415807
 20
133.9498145639
 10
131.0300167675
 20
133.9505762887
 10
131.0223253002
 20
133.9508127092
 10
131.0144844737
 20
133.9505232936
 10
131.0065119186
 20
133.9497086928
 10
130.9984255619
 20
133.9483707386
 10
130.9902435863
 20
133.9465124392
 10
130.9819843896
 20
133.9441379734
 10
130.9736665432
 20
133.9412526802
 10
130.9653087505
 20
133.9378630475
 10
130.9569298046
 20
133.9339766971
  0
LINE
  5
401
100
AcDbEntity
  8
RACCORDO
100
AcDbLine
 62
7
  6
CONTINUOUS
 10
141.5122931196
 20
129.9327871591
 11
141.437265329
 21
129.9603591131
  0
LINE
  5
402
100
AcDbEntity
  8
RACCORDO
100
AcDbLine
 62
7
  6
CONTINUOUS
 10
141.7105735392
 20
130.9787228304
 11
141.6654538139
 21
131.001282693
  0
LINE
  5
403
100
AcDbEntity
  8
COPY_PUBLISH
100
AcDbLine
 62
7
  6
CONTINUOUS
 10
142.3918705495
 20
132.35441363
 11
145.0572180842
 21
131.0217398627
  0
LINE
  5
404
100
AcDbEntity
  8
COPY_PUBLISH
100
AcDbLine
 62
7
  6
CONTINUOUS
 10
146.0076107449
 20
130.5465435323
 11
146.1688831466
 21
130.4659073314
  0
LINE
  5
405
100
AcDbEntity
  8
COPY_PUBLISH
100
AcDbLine
 62
253
  6
CONTINUOUS
 10
139.612438281
 20
133.9131925196
 11
140.2289101057
 21
133.6049566072
  0
LINE
  5
406
100
AcDbEntity
  8
COPY_PUBLISH
100
AcDbLine
 62
253
  6
CONTINUOUS
 10
145.2274854719
 20
131.1056689241
 11
145.8439572967
 21
130.7974330117
  0
LINE
  5
407
100
AcDbEntity
  8
COPY_PUBLISH
100
AcDbLine
 62
7
  6
CONTINUOUS
 10
139.8969329877
 20
133.894899908
 11
140.411903721
 21
133.6374145414
  0
LINE
  5
408
100
AcDbEntity
  8
COPY_PUBLISH
100
AcDbLine
 62
7
  6
CONTINUOUS
 10
145.4875911636
 20
131.0995708201
 11
146.002561665
 21
130.8420855694
  0
LWPOLYLINE
  5
409
100
AcDbEntity
  8
0
100
AcDbPolyline
 62
7
  6
CONTINUOUS
 90
10
 70
0
 10
151.1859289957
 20
129.9271269662
 10
151.1431578884
 20
129.9767575566
 10
151.0779209417
 20
130.0466333664
 10
151.0110255716
 20
130.1126296631
 10
150.9426981307
 20
130.1745231361
 10
150.8731698175
 20
130.2321043574
 10
150.8026758939
 20
130.2851784905
 10
150.7314548889
 20
130.3335659493
 10
150.6597477919
 20
130.3771030059
 10
150.5877972369
 20
130.4156423447
  0
LINE
  5
40A
100
AcDbEntity
  8
RACCORDO
100
AcDbLine
 62
253
  6
CONTINUOUS
 10
165.5497011153
 20
128.5412254065
 11
165.5497011153
 21
102.2681015734
  0
LINE
  5
40B
100
AcDbEntity
  8
RACCORDO
100
AcDbLine
 62
7
  6
CONTINUOUS
 10
165.8364506662
 20
128.8916800384
 11
165.8364506662
 21
102.6185561918
  0
LWPOLYLINE
  5
40C
100
AcDbEntity
  8
RACCORDO
100
AcDbPolyline
 62
253
  6
CONTINUOUS
 90
13
 70
0
 10
165.5497011153
 20
102.2681015734
 10
165.5447814601
 20
102.072669084
 10
165.5292639888
 20
101.8833809863
 10
165.5032139663
 20
101.7010443522
 10
165.4667410876
 20
101.5264424689
 10
165.4200027989
 20
101.3603123182
 10
165.3631990284
 20
101.2033453312
 10
165.2965652027
 20
101.0562046837
 10
165.2203853932
 20
100.9195310368
 10
165.1349938164
 20
100.7939210052
 10
165.0407589654
 20
100.6799147434
 10
164.9380803863
 20
100.577995238
 10
164.8273975764
 20
100.488597725
  0
LWPOLYLINE
  5
40D
100
AcDbEntity
  8
RACCORDO
100
AcDbPolyline
 62
253
  6
CONTINUOUS
 90
9
 70
0
 10
165.836450642
 20
128.8915701696
 10
165.8353129666
 20
128.8678362517
 10
165.824944553
 20
128.8160496282
 10
165.8038658856
 20
128.7650824541
 10
165.7723053503
 20
128.715486955
 10
165.730604903
 20
128.6678004942
 10
165.6792163647
 20
128.6225397508
 10
165.6186965263
 20
128.5801951213
 10
165.5497011153
 20
128.5412254065
  0
LWPOLYLINE
  5
40E
100
AcDbEntity
  8
RACCORDO
100
AcDbPolyline
 62
253
  6
CONTINUOUS
 90
3
 70
0
 10
164.8273975764
 20
100.488597725
 10
164.7091854639
 20
100.4121054903
 10
164.6608050504
 20
100.3856646585
  0
LWPOLYLINE
  5
40F
100
AcDbEntity
  8
COPY_PUBLISH
100
AcDbPolyline
 62
253
  6
CONTINUOUS
 90
37
 70
0
 10
140.3183921132
 20
84.3004964813
 10
140.3027259735
 20
84.2904697206
 10
140.2864422892
 20
84.2807964756
 10
140.2695713802
 20
84.2714947577
 10
140.2521446593
 20
84.2625818864
 10
140.2341945746
 20
84.254074457
 10
140.2157545483
 20
84.2459883101
 10
140.1968589153
 20
84.2383385018
 10
140.1775428585
 20
84.2311392759
 10
140.1578423436
 20
84.2244040368
 10
140.1377940524
 20
84.2181453256
 10
140.1174353141
 20
84.2123747956
 10
140.0968040358
 20
84.2071031914
 10
140.0759386323
 20
84.2023403285
 10
140.0548779542
 20
84.1980950751
 10
140.0336612158
 20
84.1943753359
 10
140.0123279218
 20
84.1911880368
 10
139.990917794
 20
84.1885391124
 10
139.9694706975
 20
84.186433495
 10
139.9480265658
 20
84.1848751052
 10
139.9266253272
 20
84.1838668445
 10
139.90530683
 20
84.1834105904
 10
139.8841107685
 20
84.1835071924
 10
139.8630766091
 20
84.1841564706
 10
139.8422435164
 20
84.1853572161
 10
139.8216502811
 20
84.1871071931
 10
139.801335247
 20
84.1894031433
 10
139.78133624
 20
84.1922407916
 10
139.7616904974
 20
84.1956148545
 10
139.742434599
 20
84.1995190495
 10
139.7236043986
 20
84.2039461073
 10
139.7052349572
 20
84.2088877847
 10
139.6873604782
 20
84.2143348807
 10
139.6700142432
 20
84.2202772527
 10
139.6532285502
 20
84.2267038365
 10
139.6370346536
 20
84.2336026659
 10
139.6214627059
 20
84.2409608955
  0
LWPOLYLINE
  5
410
100
AcDbEntity
  8
RACCORDO
100
AcDbPolyline
 62
7
  6
CONTINUOUS
 90
15
 70
0
 10
164.6584730354
 20
100.3844719445
 10
164.7769350909
 20
100.4511791817
 10
164.9205479231
 20
100.5478181179
 10
165.0570505378
 20
100.6584704698
 10
165.1852449038
 20
100.7826965428
 10
165.3039218498
 20
100.9197958289
 10
165.4122253539
 20
101.0692310238
 10
165.5094431286
 20
101.2304103488
 10
165.59491165
 20
101.4025891106
 10
165.6681184999
 20
101.5851990965
 10
165.7286451393
 20
101.7777559627
 10
165.776135599
 20
101.979845807
 10
165.8101879469
 20
102.1911174031
 10
165.8304007982
 20
102.4110385613
 10
165.8364459066
 20
102.6185357542
  0
LWPOLYLINE
  5
411
100
AcDbEntity
  8
RACCORDO
100
AcDbPolyline
 62
253
  6
CONTINUOUS
 90
7
 70
0
 10
151.424523854
 20
92.88404099
 10
151.435953307
 20
92.8900603832
 10
151.4466462483
 20
92.8963773474
 10
151.4566026778
 20
92.9029918825
 10
151.4658225956
 20
92.9099039887
 10
151.4743060017
 20
92.9171136659
 10
151.482052896
 20
92.9246209141
  0
LINE
  5
412
100
AcDbEntity
  8
COPY_PUBLISH
100
AcDbLine
 62
7
  6
CONTINUOUS
 10
150.6408560161
 20
91.1416622677
 11
146.0080166153
 21
88.7615928586
  0
LINE
  5
413
100
AcDbEntity
  8
COPY_PUBLISH
100
AcDbLine
 62
7
  6
CONTINUOUS
 10
151.6120464812
 20
91.7709812344
 11
146.0080166153
 21
88.9051292417
  0
LINE
  5
414
100
AcDbEntity
  8
RACCORDO
100
AcDbLine
 62
7
  6
CONTINUOUS
 10
151.6120464812
 20
92.5159539832
 11
147.059420546
 21
90.2082866573
  0
LINE
  5
415
100
AcDbEntity
  8
COPY_PUBLISH
100
AcDbLine
 62
7
  6
CONTINUOUS
 10
146.0080166153
 20
89.1837858543
 11
146.3677408333
 21
89.3636479633
  0
LINE
  5
416
100
AcDbEntity
  8
RACCORDO
100
AcDbLine
 62
253
  6
CONTINUOUS
 10
147.1057041014
 20
91.0475109219
 11
151.2831078826
 21
93.1279474614
  0
LINE
  5
417
100
AcDbEntity
  8
RACCORDO
100
AcDbLine
 62
253
  6
CONTINUOUS
 10
147.1057041014
 20
90.7331762685
 11
151.424523854
 21
92.88404099
  0
LINE
  5
418
100
AcDbEntity
  8
COPY_PUBLISH
100
AcDbLine
 62
7
  6
CONTINUOUS
 10
146.0080166153
 20
89.3413176151
 11
147.059420546
 21
89.8649392878
  0
LWPOLYLINE
  5
419
100
AcDbEntity
  8
RACCORDO
100
AcDbPolyline
 62
7
  6
CONTINUOUS
 90
3
 70
0
 10
147.9098089267
 20
131.2992667253
 10
147.8518417455
 20
131.2843730245
 10
147.7936394668
 20
131.2639582179
  0
LWPOLYLINE
  5
41A
100
AcDbEntity
  8
COPY_PUBLISH
100
AcDbPolyline
 62
7
  6
CONTINUOUS
 90
11
 70
0
 10
145.9639517219
 20
130.8404030324
 10
145.9570205008
 20
130.8387293831
 10
145.9496614705
 20
130.8367758448
 10
145.941898551
 20
130.8345443831
 10
145.9337256795
 20
130.8320480689
 10
145.9251525315
 20
130.8292924261
 10
145.9161996223
 20
130.8262829134
 10
145.9068720539
 20
130.8230336572
 10
145.8971806923
 20
130.8195528749
 10
145.8871436617
 20
130.815842321
 10
145.8767758937
 20
130.8119064668
  0
LWPOLYLINE
  5
41B
100
AcDbEntity
  8
COPY_PUBLISH
100
AcDbPolyline
 62
7
  6
CONTINUOUS
 90
8
 70
0
 10
145.380224422
 20
131.1384627055
 10
145.395497266
 20
131.1348602534
 10
145.4112412442
 20
131.1304215949
 10
145.4274451434
 20
131.1251285463
 10
145.4440913936
 20
131.1189765383
 10
145.4611681063
 20
131.1119334193
 10
145.478669343
 20
131.1039387304
 10
145.4871662049
 20
131.0997777267
  0
LWPOLYLINE
  5
41C
100
AcDbEntity
  8
COPY_PUBLISH
100
AcDbPolyline
 62
7
  6
CONTINUOUS
 90
9
 70
0
 10
146.0025919949
 20
130.8420696487
 10
145.9994885304
 20
130.8432149532
 10
145.9959526072
 20
130.8438688634
 10
145.9918542684
 20
130.8441499745
 10
145.9872292472
 20
130.8440665409
 10
145.9821075442
 20
130.8436249489
 10
145.9765017229
 20
130.8428616683
 10
145.9704419242
 20
130.8417876697
 10
145.9639517219
 20
130.8404030324
  0
LWPOLYLINE
  5
41D
100
AcDbEntity
  8
RACCORDO
100
AcDbPolyline
 62
253
  6
CONTINUOUS
 90
10
 70
0
 10
148.2616059163
 20
131.2611557171
 10
148.2195441917
 20
131.2784007025
 10
148.1752383282
 20
131.2905826647
 10
148.1289323879
 20
131.2976350145
 10
148.0808841669
 20
131.2995184019
 10
148.031361472
 20
131.2962218663
 10
147.9806376396
 20
131.2877644119
 10
147.9289940164
 20
131.2741930408
 10
147.8767184122
 20
131.2555825681
 10
147.8241012434
 20
131.2320361861
  0
LWPOLYLINE
  5
41E
100
AcDbEntity
  8
RACCORDO
100
AcDbPolyline
 62
253
  6
CONTINUOUS
 90
7
 70
0
 10
147.8241012434
 20
131.2320361861
 10
147.8057361272
 20
131.2397454845
 10
147.7876678447
 20
131.2443866262
 10
147.7702021287
 20
131.2458810787
 10
147.7536345158
 20
131.2442035544
 10
147.7382453459
 20
131.2393824386
 10
147.734853569
 20
131.237813388
  0
LWPOLYLINE
  5
41F
100
AcDbEntity
  8
COPY_PUBLISH
100
AcDbPolyline
 62
7
  6
CONTINUOUS
 90
7
 70
0
 10
140.4121220691
 20
133.6372997828
 10
140.4107569093
 20
133.6378944055
 10
140.4074275497
 20
133.6388024107
 10
140.4034836979
 20
133.6392787561
 10
140.3989601811
 20
133.639369393
 10
140.3938925302
 20
133.6390945959
 10
140.3883185324
 20
133.6384488171
  0
LWPOLYLINE
  5
420
100
AcDbEntity
  8
RACCORDO
100
AcDbPolyline
 62
7
  6
CONTINUOUS
 90
8
 70
0
 10
148.2670867853
 20
131.2584507651
 10
148.2342309768
 20
131.273495822
 10
148.1849976782
 20
131.2909453356
 10
148.1332034122
 20
131.3034244083
 10
148.0792799248
 20
131.3106427923
 10
148.0238462948
 20
131.3123911369
 10
147.967269601
 20
131.3086077107
 10
147.9098089267
 20
131.2992667253
  0
LWPOLYLINE
  5
421
100
AcDbEntity
  8
0
100
AcDbPolyline
 62
7
  6
CONTINUOUS
 90
13
 70
0
 10
150.5877972369
 20
130.4156423447
 10
150.515846682
 20
130.4490535608
 10
150.444139585
 20
130.4772236012
 10
150.37291858
 20
130.5000571474
 10
150.3024246563
 20
130.517476938
 10
150.2328963432
 20
130.5294240298
 10
150.1645689023
 20
130.5358579977
 10
150.0976735321
 20
130.5367570712
 10
150.0324365854
 20
130.5321182081
 10
149.9690788034
 20
130.5219571048
 10
149.9078145687
 20
130.5063081433
 10
149.8488511801
 20
130.4852242748
 10
149.8303681702
 20
130.4768122062
  0
LWPOLYLINE
  5
422
100
AcDbEntity
  8
RACCORDO
100
AcDbPolyline
 62
7
  6
CONTINUOUS
 90
34
 70
0
 10
148.2062184644
 20
132.3349592872
 10
148.1370191362
 20
132.3679223755
 10
148.0651277445
 20
132.3990691849
 10
147.9905442893
 20
132.4283997153
 10
147.9131050555
 20
132.4559672372
 10
147.8329737583
 20
132.4817184802
 10
147.7506415426
 20
132.505493633
 10
147.6660517177
 20
132.5272895119
 10
147.5792609743
 20
132.5471093008
 10
147.4909305306
 20
132.5648027403
 10
147.4011087343
 20
132.5803457177
 10
147.3097472377
 20
132.5937623458
 10
147.2173622148
 20
132.6049747037
 10
147.1238724919
 20
132.6139751547
 10
147.0293592429
 20
132.6207713354
 10
146.9345821636
 20
132.6253082349
 10
146.8396185993
 20
132.6275675162
 10
146.7443912048
 20
132.6275675162
 10
146.6494276405
 20
132.6253082349
 10
146.5546505612
 20
132.6207713354
 10
146.4601373121
 20
132.6139751547
 10
146.3666475892
 20
132.6049747037
 10
146.2742625663
 20
132.5937623458
 10
146.1829010697
 20
132.5803457177
 10
146.0930792734
 20
132.5648027403
 10
146.0047488297
 20
132.5471093008
 10
145.9179580864
 20
132.5272895119
 10
145.8333682614
 20
132.505493633
 10
145.7510360458
 20
132.4817184802
 10
145.6709047485
 20
132.4559672372
 10
145.5934655147
 20
132.4283997153
 10
145.5188820595
 20
132.3990691849
 10
145.4469906678
 20
132.3679223755
 10
145.3777913396
 20
132.3349592872
  0
LINE
  5
423
100
AcDbEntity
  8
RACCORDO
100
AcDbLine
 62
253
  6
CONTINUOUS
 10
148.2660886183
 20
131.2589519822
 11
148.2616059163
 21
131.2611557171
  0
LWPOLYLINE
  5
424
100
AcDbEntity
  8
RACCORDO
100
AcDbPolyline
 62
253
  6
CONTINUOUS
 90
11
 70
0
 10
143.7374746489
 20
133.5232589669
 10
143.7329413788
 20
133.5254879863
 10
143.6904419667
 20
133.5429518212
 10
143.6457409981
 20
133.5553313445
 10
143.5990890217
 20
133.5625567157
 10
143.5507446125
 20
133.5645881761
 10
143.5009747934
 20
133.5614151563
 10
143.4500570472
 20
133.5530546194
 10
143.3982741057
 20
133.5395529011
 10
143.3459123981
 20
133.5209855065
 10
143.2932623411
 20
133.4974556373
  0
LINE
  5
425
100
AcDbEntity
  8
RACCORDO
100
AcDbLine
 62
7
  6
CONTINUOUS
 10
144.0627700326
 20
132.488024948
 11
147.1448491118
 21
130.9469854085
  0
LINE
  5
426
100
AcDbEntity
  8
RACCORDO
100
AcDbLine
 62
253
  6
CONTINUOUS
 10
140.4765075684
 20
134.9058330236
 11
143.2932623411
 21
133.4974556373
  0
LINE
  5
427
100
AcDbEntity
  8
RACCORDO
100
AcDbLine
 62
253
  6
CONTINUOUS
 10
147.8241012434
 20
131.2320361861
 11
150.6408560161
 21
129.8236587998
  0
LINE
  5
428
100
AcDbEntity
  8
COPY_PUBLISH
100
AcDbLine
 62
7
  6
CONTINUOUS
 10
140.7654683393
 20
135.0092621217
 11
143.7374780039
 21
133.5232572894
  0
LINE
  5
429
100
AcDbEntity
  8
COPY_PUBLISH
100
AcDbLine
 62
7
  6
CONTINUOUS
 10
148.2660852509
 20
131.2589536659
 11
151.2380949216
 21
129.7729488305
  0
LINE
  5
42A
100
AcDbEntity
  8
RACCORDO
100
AcDbLine
 62
7
  6
CONTINUOUS
 10
148.2062184644
 20
132.3349592872
 11
151.7417523703
 21
130.5671923343
  0
LINE
  5
42B
100
AcDbEntity
  8
RACCORDO
100
AcDbLine
 62
7
  6
CONTINUOUS
 10
143.7375993515
 20
133.523196587
 11
143.7374746489
 21
133.5232589669
  0
LINE
  5
42C
100
AcDbEntity
  8
RACCORDO
100
AcDbLine
 62
7
  6
CONTINUOUS
 10
148.2671104447
 20
131.258439098
 11
148.2660886183
 21
131.2589519822
  0
LWPOLYLINE
  5
42D
100
AcDbEntity
  8
RACCORDO
100
AcDbPolyline
 62
7
  6
CONTINUOUS
 90
7
 70
0
 10
152.0632033509
 20
130.3563876718
 10
152.0352707562
 20
130.3805699812
 10
151.9837682703
 20
130.4206356298
 10
151.9286332265
 20
130.4593552467
 10
151.8699721656
 20
130.4966469743
 10
151.8076785469
 20
130.5325926702
 10
151.7417523703
 20
130.5671923343
  0
LWPOLYLINE
  5
42E
100
AcDbEntity
  8
RACCORDO
100
AcDbPolyline
 62
7
  6
CONTINUOUS
 90
22
 70
0
 10
165.8364428975
 20
128.8915701728
 10
165.8332358676
 20
129.0455351787
 10
165.8168395788
 20
129.2765425086
 10
165.7868854995
 20
129.5088982182
 10
165.7437387613
 20
129.7418597999
 10
165.6877915771
 20
129.9745989045
 10
165.6194757003
 20
130.2059791191
 10
165.539199204
 20
130.4351822246
 10
165.4473451753
 20
130.661325477
 10
165.3445160593
 20
130.8830448892
 10
165.2311862213
 20
131.0994999802
 10
165.1077728675
 20
131.3098362828
 10
164.9750148116
 20
131.5127785556
 10
164.8333902476
 20
131.7075434911
 10
164.6833438598
 20
131.893321547
 10
164.5256393498
 20
132.0690354138
 10
164.3607452701
 20
132.2339333313
 10
164.1890482298
 20
132.3873203031
 10
164.0110494873
 20
132.5284016966
 10
163.8270867887
 20
132.6564351735
 10
163.6375814207
 20
132.7706541555
 10
163.5157946971
 20
132.8350171422
  0
LWPOLYLINE
  5
42F
100
AcDbEntity
  8
RACCORDO
100
AcDbPolyline
 62
253
  6
CONTINUOUS
 90
9
 70
0
 10
165.8364506653
 20
102.6185357525
 10
165.8353130341
 20
102.594713111
 10
165.8249447529
 20
102.5429264353
 10
165.803866185
 20
102.4919591811
 10
165.7723057016
 20
102.4423635783
 10
165.730605254
 20
102.3946770037
 10
165.6792166608
 20
102.349416144
 10
165.6186967061
 20
102.3070713986
 10
165.5497011153
 20
102.2681015742
  0
LWPOLYLINE
  5
430
100
AcDbEntity
  8
COPY_PUBLISH
100
AcDbPolyline
 62
253
  6
CONTINUOUS
 90
3
 70
0
 10
145.0738642804
 20
84.5080606441
 10
145.0676339192
 20
84.5042410878
 10
145.0645530043
 20
84.502587398
  0
LWPOLYLINE
  5
431
100
AcDbEntity
  8
COPY_PUBLISH
100
AcDbPolyline
 62
7
  6
CONTINUOUS
 90
4
 70
0
 10
145.0644726705
 20
84.502546234
 10
145.0853594694
 20
84.5145566454
 10
145.1063245938
 20
84.5295765362
 10
145.1256694085
 20
84.5467143617
  0
LINE
  5
432
100
AcDbEntity
  8
COPY_PUBLISH
100
AcDbLine
 62
253
  6
CONTINUOUS
 10
145.3070806615
 20
86.0477354714
 11
146.0080166153
 21
86.4094126641
  0
LINE
  5
433
100
AcDbEntity
  8
COPY_PUBLISH
100
AcDbLine
 62
7
  6
CONTINUOUS
 10
145.1783815141
 20
85.7779324496
 11
145.8802062736
 21
86.1400682587
  0
LWPOLYLINE
  5
434
100
AcDbEntity
  8
COPY_PUBLISH
100
AcDbPolyline
 62
7
  6
CONTINUOUS
 90
3
 70
0
 10
145.178371581
 20
85.7779273194
 10
145.176279096
 20
85.7768639284
 10
145.1648311927
 20
85.7716041057
  0
LINE
  5
435
100
AcDbEntity
  8
COPY_PUBLISH
100
AcDbLine
 62
253
  6
CONTINUOUS
 10
140.655268272
 20
84.095306428
 11
145.3070806615
 21
86.0479483189
  0
LINE
  5
436
100
AcDbEntity
  8
COPY_PUBLISH
100
AcDbLine
 62
7
  6
CONTINUOUS
 10
140.5014610266
 20
83.8141107296
 11
145.1648130451
 21
85.771596488
  0
LINE
  5
437
100
AcDbEntity
  8
COPY_PUBLISH
100
AcDbLine
 62
7
  6
CONTINUOUS
 10
140.3883185324
 20
133.6384488171
 11
140.3822745059
 21
133.6374376635
  0
LWPOLYLINE
  5
438
100
AcDbEntity
  8
RACCORDO
100
AcDbPolyline
 62
7
  6
CONTINUOUS
 90
3
 70
0
 10
160.3162109269
 20
134.3277279106
 10
160.2404069141
 20
134.3192540209
 10
160.1636849569
 20
134.3027491201
  0
LINE
  5
439
100
AcDbEntity
  8
RACCORDO
100
AcDbLine
 62
7
  6
CONTINUOUS
 10
142.3918705495
 20
132.35441363
 11
144.0040376615
 21
132.4390112712
  0
LINE
  5
43A
100
AcDbEntity
  8
RACCORDO
100
AcDbLine
 62
7
  6
CONTINUOUS
 10
148.2062184644
 20
132.6621562815
 11
151.7417523703
 21
130.8943893286
  0
LINE
  5
43B
100
AcDbEntity
  8
COPY_PUBLISH
100
AcDbLine
 62
253
  6
CONTINUOUS
 10
144.5999738803
 20
84.3661401549
 11
145.1282410521
 21
84.6371512135
  0
LINE
  5
43C
100
AcDbEntity
  8
COPY_PUBLISH
100
AcDbLine
 62
7
  6
CONTINUOUS
 10
144.535870751
 20
84.2313633947
 11
145.0645530145
 21
84.5025874033
  0
LINE
  5
43D
100
AcDbEntity
  8
COPY_PUBLISH
100
AcDbLine
 62
7
  6
CONTINUOUS
 10
144.5358687773
 20
84.2313623821
 11
144.5341323655
 21
84.2304941619
  0
LINE
  5
43E
100
AcDbEntity
  8
COPY_PUBLISH
100
AcDbLine
 62
253
  6
CONTINUOUS
 10
142.9986930895
 20
83.5861055552
 11
144.5999738803
 21
84.3661401549
  0
LINE
  5
43F
100
AcDbEntity
  8
COPY_PUBLISH
100
AcDbLine
 62
7
  6
CONTINUOUS
 10
142.9324314969
 20
83.4502549291
 11
144.5341295999
 21
84.2304928147
  0
LWPOLYLINE
  5
440
100
AcDbEntity
  8
COPY_PUBLISH
100
AcDbPolyline
 62
7
  6
CONTINUOUS
 90
9
 70
0
 10
142.9324314969
 20
83.4502549291
 10
142.9042098046
 20
83.438583155
 10
142.8743456282
 20
83.4303477116
 10
142.8433440826
 20
83.4258400305
 10
142.8116492443
 20
83.4252621321
 10
142.780000367
 20
83.4287232301
 10
142.7492483224
 20
83.4361167289
 10
142.7195571773
 20
83.4473878329
 10
142.7109845683
 20
83.4514799486
  0
LWPOLYLINE
  5
441
100
AcDbEntity
  8
COPY_PUBLISH
100
AcDbPolyline
 62
7
  6
CONTINUOUS
 90
5
 70
0
 10
139.6564899516
 20
133.9311743432
 10
139.6677150969
 20
133.9342951051
 10
139.6793073888
 20
133.9368287709
 10
139.6912527678
 20
133.938771486
 10
139.7035451951
 20
133.9401126706
  0
LWPOLYLINE
  5
442
100
AcDbEntity
  8
RACCORDO
100
AcDbPolyline
 62
7
  6
CONTINUOUS
 90
7
 70
0
 10
153.8630727139
 20
136.7312923534
 10
153.8909381754
 20
136.734589587
 10
153.9163044084
 20
136.7365745183
 10
153.9390115832
 20
136.7370892456
 10
153.9589012151
 20
136.7359979378
 10
153.9757708935
 20
136.7331314271
 10
153.9902440195
 20
136.7279616324
  0
LWPOLYLINE
  5
443
100
AcDbEntity
  8
COPY_PUBLISH
100
AcDbPolyline
 62
7
  6
CONTINUOUS
 90
14
 70
0
 10
139.7035451951
 20
133.9401126706
 10
139.716187749
 20
133.9408342803
 10
139.72916157
 20
133.9409300072
 10
139.7424634028
 20
133.9403911568
 10
139.7561220337
 20
133.9391935727
 10
139.7701161501
 20
133.937333924
 10
139.7844447551
 20
133.9347971069
 10
139.7991715275
 20
133.9315354992
 10
139.814294752
 20
133.9275382541
 10
139.8297940626
 20
133.9227893585
 10
139.845708212
 20
133.9172267051
 10
139.8620338887
 20
133.9108305879
 10
139.878745145
 20
133.9035878292
 10
139.8968744233
 20
133.8949284464
  0
LWPOLYLINE
  5
444
100
AcDbEntity
  8
RACCORDO
100
AcDbPolyline
 62
253
  6
CONTINUOUS
 90
8
 70
0
 10
163.5157970497
 20
132.8350218538
 10
163.4873683221
 20
132.8477732561
 10
163.4258617818
 20
132.8665339376
 10
163.3604859341
 20
132.8752612074
 10
163.2919491317
 20
132.8738604937
 10
163.2209939707
 20
132.8623469662
 10
163.1483892423
 20
132.8408453661
 10
163.0749216162
 20
132.8095886548
  0
LINE
  5
445
100
AcDbEntity
  8
RACCORDO
100
AcDbLine
 62
253
  6
CONTINUOUS
 10
159.3078701595
 20
133.9012887256
 11
153.7302898581
 21
136.6900788763
  0
LINE
  5
446
100
AcDbEntity
  8
RACCORDO
100
AcDbLine
 62
7
  6
CONTINUOUS
 10
159.4775434987
 20
133.9843118949
 11
153.9900428024
 21
136.7280622431
  0
LINE
  5
447
100
AcDbEntity
  8
RACCORDO
100
AcDbLine
 62
253
  6
CONTINUOUS
 10
152.7952929795
 20
137.9494029731
 11
153.1621365251
 21
137.7659812003
  0
LINE
  5
448
100
AcDbEntity
  8
RACCORDO
100
AcDbLine
 62
253
  6
CONTINUOUS
 10
160.233204337
 20
134.2304472944
 11
163.0749216168
 21
132.8095886545
  0
LWPOLYLINE
  5
449
100
AcDbEntity
  8
RACCORDO
100
AcDbPolyline
 62
253
  6
CONTINUOUS
 90
10
 70
0
 10
153.6031795282
 20
137.7913306669
 10
153.5574663532
 20
137.8105324406
 10
153.5130917054
 20
137.822923233
 10
153.4667414339
 20
137.830190887
 10
153.4186706659
 20
137.8322952288
 10
153.3691465985
 20
137.8292243978
 10
153.3184477127
 20
137.8209963735
 10
153.266856249
 20
137.8076585233
 10
153.2146562679
 20
137.7892858193
 10
153.1621365251
 20
137.7659812003
  0
LWPOLYLINE
  5
44A
100
AcDbEntity
  8
RACCORDO
100
AcDbPolyline
 62
253
  6
CONTINUOUS
 90
8
 70
0
 10
153.2362258424
 20
137.9748074872
 10
153.2077389207
 20
137.9875878812
 10
153.1462324132
 20
138.0063484174
 10
153.0808566465
 20
138.0150755653
 10
153.0123199621
 20
138.0136747669
 10
152.9413649493
 20
138.0021611997
 10
152.8687604002
 20
137.9806596125
 10
152.7952929795
 20
137.9494029731
  0
LWPOLYLINE
  5
44B
100
AcDbEntity
  8
RACCORDO
100
AcDbPolyline
 62
7
  6
CONTINUOUS
 90
15
 70
0
 10
153.2362220063
 20
137.9747998041
 10
153.1391241474
 20
138.0211593051
 10
152.9762224518
 20
138.0893318041
 10
152.8141193712
 20
138.1454180775
 10
152.6534290469
 20
138.1895392048
 10
152.494415462
 20
138.2219849311
 10
152.3371066761
 20
138.243057643
 10
152.1819558179
 20
138.2529365921
 10
152.0294514066
 20
138.2518229908
 10
151.8798206752
 20
138.2399585234
 10
151.7336185922
 20
138.2176084842
 10
151.5913751722
 20
138.1850749243
 10
151.4533886303
 20
138.1426246383
 10
151.3201197471
 20
138.0906086694
 10
151.2496530733
 20
138.0583859098
  0
LWPOLYLINE
  5
44C
100
AcDbEntity
  8
RACCORDO
100
AcDbPolyline
 62
7
  6
CONTINUOUS
 90
7
 70
0
 10
160.6743766664
 20
134.2557320666
 10
160.6624964362
 20
134.2615331802
 10
160.5989476724
 20
134.2879964346
 10
160.5325758208
 20
134.3081244846
 10
160.4630104554
 20
134.3217722239
 10
160.3905673744
 20
134.3284610097
 10
160.3162109269
 20
134.3277279106
  0
LINE
  5
44D
100
AcDbEntity
  8
RACCORDO
100
AcDbLine
 62
7
  6
CONTINUOUS
 10
153.2362258424
 20
137.9748074872
 11
153.6031795282
 21
137.7913306669
  0
LINE
  5
44E
100
AcDbEntity
  8
RACCORDO
100
AcDbLine
 62
7
  6
CONTINUOUS
 10
160.6742473401
 20
134.255796761
 11
163.515964631
 21
132.8349381155
  0
LWPOLYLINE
  5
44F
100
AcDbEntity
  8
RACCORDO
100
AcDbPolyline
 62
253
  6
CONTINUOUS
 90
25
 70
0
 10
163.0749216168
 20
132.8095886545
 10
163.2371983923
 20
132.7223385382
 10
163.3987468083
 20
132.6224776854
 10
163.5588714305
 20
132.5104349609
 10
163.716873714
 20
132.3866957436
 10
163.8720847053
 20
132.2517877048
 10
164.0238665196
 20
132.1062736224
 10
164.171577066
 20
131.9507634362
 10
164.314569789
 20
131.7859292649
 10
164.4522262777
 20
131.6124890048
 10
164.5839537086
 20
131.431190545
 10
164.7091899347
 20
131.2428048795
 10
164.8274018709
 20
131.0481366118
 10
164.9380843156
 20
130.8480198057
 10
165.0407624693
 20
130.643310701
 10
165.1349969765
 20
130.434881864
 10
165.2203883323
 20
130.2236208113
 10
165.2965679476
 20
130.0104378282
 10
165.363201528
 20
129.796258233
 10
165.4200050824
 20
129.5820146699
 10
165.4667430718
 20
129.3686110383
 10
165.5032153954
 20
129.1569307452
 10
165.5292647441
 20
128.947871788
 10
165.5447816791
 20
128.7423423278
 10
165.5497011153
 20
128.5412254065
  0
ELLIPSE
  5
450
100
AcDbEntity
  8
COPY_PUBLISH
100
AcDbEllipse
 62
7
  6
CONTINUOUS
 10
139.6103694357
 20
133.4791646896
 30
0.0
 11
0.2257019663
 21
0.4461636818
 31
0.0
 40
0.6159267166
 41
0.5882567743
 42
0.6817883054
  0
ELLIPSE
  5
451
100
AcDbEntity
  8
COPY_PUBLISH
100
AcDbEllipse
 62
7
  6
CONTINUOUS
 10
138.971614929
 20
129.4820780203
 30
0.0
 11
-0.0909679979
 21
0.1781462259
 31
0.0
 40
0.6079022756
 41
-0.6898048156
 42
-0.0128958448
  0
ELLIPSE
  5
452
100
AcDbEntity
  8
COPY_PUBLISH
100
AcDbEllipse
 62
7
  6
CONTINUOUS
 10
151.3438878441
 20
91.6520433443
 30
0.0
 11
0.9927147821
 21
0.620457446
 31
0.0
 40
0.0764819879
 41
-2.4043514965
 42
-1.2126728778
  0
ELLIPSE
  5
453
100
AcDbEntity
  8
COPY_PUBLISH
100
AcDbEllipse
 62
7
  6
CONTINUOUS
 10
139.7652482258
 20
134.3913381897
 30
0.0
 11
1.004787277
 21
0.6140102217
 31
0.0
 40
0.0864918533
 41
0.0541943698
 42
0.7329085821
  0
ELLIPSE
  5
454
100
AcDbEntity
  8
RACCORDO
100
AcDbEllipse
 62
7
  6
CONTINUOUS
 10
151.2523765811
 20
128.3629952433
 30
0.0
 11
0.499996712
 21
0.0035883639
 31
0.0
 40
0.5053247124
 41
-0.7715714568
 42
-0.0036968812
  0
ELLIPSE
  5
455
100
AcDbEntity
  8
COPY_PUBLISH
100
AcDbEllipse
 62
7
  6
CONTINUOUS
 10
145.654449762
 20
86.5862180746
 30
0.0
 11
-0.2236315662
 21
0.4472293059
 31
0.0
 40
0.6123445654
 41
-3.1337469158
 42
-2.2555748796
  0
ELLIPSE
  5
456
100
AcDbEntity
  8
COPY_PUBLISH
100
AcDbEllipse
 62
7
  6
CONTINUOUS
 10
145.654449762
 20
124.5080393274
 30
0.0
 11
-0.223611546
 21
0.4472115081
 31
0.0
 40
0.6124054886
 41
-2.2555017776
 42
-0.6847562194
  0
ELLIPSE
  5
457
100
AcDbEntity
  8
COPY_PUBLISH
100
AcDbEllipse
 62
7
  6
CONTINUOUS
 10
137.262431792
 20
130.3366695888
 30
0.0
 11
-0.090948378
 21
0.1781282571
 31
0.0
 40
0.6080538059
 41
-2.2606249166
 42
-0.6898793584
  0
ELLIPSE
  5
458
100
AcDbEntity
  8
COPY_PUBLISH
100
AcDbEllipse
 62
7
  6
CONTINUOUS
 10
145.2223432318
 20
130.6731777916
 30
0.0
 11
0.2273952932
 21
0.4453119217
 31
0.0
 40
0.6079814556
 41
0.2357074224
 42
0.6840559135
  0
ELLIPSE
  5
459
100
AcDbEntity
  8
SMUSSO
100
AcDbEllipse
 62
7
  6
CONTINUOUS
 10
146.9123532639
 20
113.1699978644
 30
0.0
 11
34.6255520829
 21
13.3067682249
 31
0.0
 40
0.1308076207
 41
-2.0738329155
 42
-2.0015508137
  0
ELLIPSE
  5
45A
100
AcDbEntity
  8
RACCORDO
100
AcDbEllipse
 62
7
  6
CONTINUOUS
 10
143.8626109201
 20
132.5097246419
 30
0.0
 11
0.1999252616
 21
-0.0480423494
 31
0.0
 40
0.2621922033
 41
-0.724042745
 42
0.0653649959
  0
ELLIPSE
  5
45B
100
AcDbEntity
  8
COPY_PUBLISH
100
AcDbEllipse
 62
7
  6
CONTINUOUS
 10
151.3438878441
 20
128.6020183806
 30
0.0
 11
-0.7356038977
 21
1.2035991204
 31
0.0
 40
0.5552491559
 41
5.0439921939
 42
6.2356708126
  0
ELLIPSE
  5
45C
100
AcDbEntity
  8
RACCORDO
100
AcDbEllipse
 62
7
  6
CONTINUOUS
 10
133.503747784
 20
129.3361007293
 30
0.0
 11
0.199943508
 21
0.008945986
 31
0.0
 40
0.5313301283
 41
3.1179062684
 42
3.9032222197
  0
ELLIPSE
  5
45D
100
AcDbEntity
  8
RACCORDO
100
AcDbEllipse
 62
7
  6
CONTINUOUS
 10
133.8823640983
 20
129.1467925722
 30
0.0
 11
0.199943508
 21
0.008945986
 31
0.0
 40
0.5313301283
 41
-2.3799630874
 42
-0.8178934069
  0
ELLIPSE
  5
45E
100
AcDbEntity
  8
COPY_PUBLISH
100
AcDbEllipse
 62
7
  6
CONTINUOUS
 10
129.5437447164
 20
131.3537269256
 30
0.0
 11
0.249929385
 21
0.0111824824
 31
0.0
 40
0.5313301283
 41
3.1178197826
 42
3.9032222197
  0
ELLIPSE
  5
45F
100
AcDbEntity
  8
RACCORDO
100
AcDbEllipse
 62
7
  6
CONTINUOUS
 10
139.5034546875
 20
126.3362472776
 30
0.0
 11
0.199943508
 21
0.008945986
 31
0.0
 40
0.5313301283
 41
-2.3799630874
 42
-0.8149845248
  0
ELLIPSE
  5
460
100
AcDbEntity
  8
COPY_PUBLISH
100
AcDbEllipse
 62
7
  6
CONTINUOUS
 10
131.2305104406
 20
130.5103440635
 30
0.0
 11
0.249929385
 21
0.0111824824
 31
0.0
 40
0.5313301283
 41
-2.3799630874
 42
-0.8149845248
  0
ELLIPSE
  5
461
100
AcDbEntity
  8
RACCORDO
100
AcDbEllipse
 62
7
  6
CONTINUOUS
 10
139.1248383731
 20
126.5255554348
 30
0.0
 11
0.199943508
 21
0.008945986
 31
0.0
 40
0.5313301283
 41
3.1179408412
 42
3.9032222197
  0
ELLIPSE
  5
462
100
AcDbEntity
  8
COPY_PUBLISH
100
AcDbEllipse
 62
7
  6
CONTINUOUS
 10
141.847402709
 20
125.2018979293
 30
0.0
 11
0.249929385
 21
0.0111824824
 31
0.0
 40
0.5313301283
 41
3.1178197826
 42
3.9032222197
  0
ELLIPSE
  5
463
100
AcDbEntity
  8
COPY_PUBLISH
100
AcDbEllipse
 62
7
  6
CONTINUOUS
 10
143.5341684332
 20
124.3585150672
 30
0.0
 11
0.249929385
 21
0.0111824824
 31
0.0
 40
0.5313301283
 41
-2.3799630874
 42
-0.8149845248
  0
ELLIPSE
  5
464
100
AcDbEntity
  8
COPY_PUBLISH
100
AcDbEllipse
 62
7
  6
CONTINUOUS
 10
194.9448663141
 20
154.9369008794
 30
0.0
 11
60.4168605605
 21
30.5632322457
 31
0.0
 40
0.005706723
 41
2.5167363259
 42
2.6876789752
  0
ELLIPSE
  5
465
100
AcDbEntity
  8
COPY_PUBLISH
100
AcDbEllipse
 62
7
  6
CONTINUOUS
 10
145.8419123846
 20
130.3633932152
 30
0.0
 11
0.221538876
 21
0.4482453432
 31
0.0
 40
0.6088015717
 41
0.5825560023
 42
0.6760875334
  0
ELLIPSE
  5
466
100
AcDbEntity
  8
COPY_PUBLISH
100
AcDbEllipse
 62
7
  6
CONTINUOUS
 10
194.9448663141
 20
154.9369008794
 30
0.0
 11
60.4168605605
 21
30.5632322457
 31
0.0
 40
0.005706723
 41
-2.6934527084
 42
-2.5225100591
  0
ELLIPSE
  5
467
100
AcDbEntity
  8
COPY_PUBLISH
100
AcDbEllipse
 62
7
  6
CONTINUOUS
 10
151.2523765811
 20
129.5410739613
 30
0.0
 11
-0.3739417019
 21
0.598522373
 31
0.0
 40
0.554557473
 41
-3.1836090632
 42
-2.1613513004
  0
ELLIPSE
  5
468
100
AcDbEntity
  8
COPY_PUBLISH
100
AcDbEllipse
 62
7
  6
CONTINUOUS
 10
151.2523765811
 20
91.5116058077
 30
0.0
 11
0.499443764
 21
0.3120915671
 31
0.0
 40
0.0755486457
 41
5.9816987304
 42
7.0039564932
  0
ELLIPSE
  5
469
100
AcDbEntity
  8
RACCORDO
100
AcDbEllipse
 62
7
  6
CONTINUOUS
 10
140.9583739572
 20
130.6476889147
 30
0.0
 11
1.0
 21
0.0
 31
0.0
 40
0.5000380777
 41
0.7854362396
 42
2.356156414
  0
ELLIPSE
  5
46A
100
AcDbEntity
  8
COPY_PUBLISH
100
AcDbEllipse
 62
7
  6
CONTINUOUS
 10
136.3603232462
 20
128.6603062477
 30
0.0
 11
0.199943508
 21
0.008945986
 31
0.0
 40
0.5313301283
 41
-2.3799630874
 42
-0.8178934069
  0
ELLIPSE
  5
46B
100
AcDbEntity
  8
COPY_PUBLISH
100
AcDbEllipse
 62
7
  6
CONTINUOUS
 10
138.0610927877
 20
127.8099214769
 30
0.0
 11
0.199943508
 21
0.008945986
 31
0.0
 40
0.5313301283
 41
3.1178423524
 42
3.9032222197
  0
ELLIPSE
  5
46C
100
AcDbEntity
  8
COPY_PUBLISH
100
AcDbEllipse
 62
7
  6
CONTINUOUS
 10
140.2299385885
 20
133.1693801132
 30
0.0
 11
0.2197467797
 21
0.4491356978
 31
0.0
 40
0.6167074461
 41
0.2252343201
 42
0.6735828111
  0
ELLIPSE
  5
46D
100
AcDbEntity
  8
0
100
AcDbEllipse
 62
7
  6
CONTINUOUS
 10
139.9641214219
 20
175.3006541792
 30
0.0
 11
-0.3192264997
 21
45.1189143812
 31
0.0
 40
0.0071249215
 41
-2.8357121276
 42
-2.7477165211
  0
ELLIPSE
  5
46E
100
AcDbEntity
  8
RACCORDO
100
AcDbEllipse
 62
7
  6
CONTINUOUS
 10
151.2523765811
 20
92.6896845257
 30
0.0
 11
0.4999969381
 21
-0.0035375912
 31
0.0
 40
0.4946372042
 41
-0.7644452153
 42
0.7888978189
  0
ELLIPSE
  5
46F
100
AcDbEntity
  8
RACCORDO
100
AcDbEllipse
 62
7
  6
CONTINUOUS
 10
150.3275388079
 20
130.2175156067
 30
0.0
 11
1.9999527313
 21
-0.0281056996
 31
0.0
 40
0.4892375088
 41
0.2705019126
 42
0.7922733988
  0
ELLIPSE
  5
470
100
AcDbEntity
  8
RACCORDO
100
AcDbEllipse
 62
7
  6
CONTINUOUS
 10
146.792004902
 20
131.9852825597
 30
0.0
 11
1.9999527313
 21
-0.0281056996
 31
0.0
 40
0.4892375088
 41
0.7922733988
 42
2.3630697256
  0
ENDSEC
  0
SECTION
  2
OBJECTS
  0
DICTIONARY
  5
C
100
AcDbDictionary
280
0
281
1
  3
ACAD_GROUP
350
D
  3
ACAD_MLINESTYLE
350
17
  3
ACAD_LAYOUT
350
1A
  3
ACAD_PLOTSETTINGS
350
19
  3
ACAD_PLOTSTYLENAME
350
E
  0
DICTIONARY
  5
D
102
{ACAD_REACTORS
330
C
102
}
100
AcDbDictionary
280
0
281
1
  0
ACDBDICTIONARYWDFLT
  5
E
102
{ACAD_REACTORS
330
C
102
}
100
AcDbDictionary
281
1
  3
Normal
350
F
100
AcDbDictionaryWithDefault
340
F
  0
DICTIONARY
  5
17
102
{ACAD_REACTORS
330
C
102
}
100
AcDbDictionary
280
0
281
1
  3
Standard
350
18
  0
DICTIONARY
  5
19
102
{ACAD_REACTORS
330
C
102
}
100
AcDbDictionary
281
1
  0
DICTIONARY
  5
1A
102
{ACAD_REACTORS
330
C
102
}
100
AcDbDictionary
281
1
  3
Model
350
471
  3
Layout1
350
472
  0
ACDBPLACEHOLDER
  5
F
102
{ACAD_REACTORS
330
E
102
}
  0
MLINESTYLE
  5
18
102
{ACAD_REACTORS
330
17
102
}
100
AcDbMlineStyle
  2
STANDARD
 70
0
  3

 62
256
 51
90.0
 52
90.0
 71
2
 49
0.5
 62
256
  6
BYLAYER
 49
-0.5
 62
256
  6
BYLAYER
  0
LAYOUT
  5
471
102
{ACAD_REACTORS
330
1A
102
}
100
AcDbPlotSettings
  1

  2
none_device
  4
ISO_A4_(297.00_x_210.00_MM)
  6

 40
0.0
 41
0.0
 42
0.0
 43
0.0
 44
297.0
 45
210.0
 46
0.0
 47
0.0
 48
0.0
 49
0.0
140
0.0
141
0.0
142
1.0
143
1.0
 70
1024
 72
1
 73
0
 74
0
  7

 75
0
147
1.0
148
0.0
149
0.0
100
AcDbLayout
  1
Model
 70
0
 71
0
 10
0.0
 20
0.0
 11
297.0
 21
210.0
 12
0.0
 22
0.0
 32
0.0
 14
0.0
 24
0.0
 34
0.0
 15
0.0
 25
0.0
 35
0.0
146
0.0
 13
0.0
 23
0.0
 33
0.0
 16
1.0
 26
0.0
 36
0.0
 17
0.0
 27
1.0
 37
0.0
 76
0
330
218
345
0
346
0
  0
LAYOUT
  5
472
102
{ACAD_REACTORS
330
1A
102
}
100
AcDbPlotSettings
  1

  2
none_device
  4
ISO_A4_(297.00_x_210.00_MM)
  6

 40
0.0
 41
0.0
 42
0.0
 43
0.0
 44
297.0
 45
210.0
 46
0.0
 47
0.0
 48
0.0
 49
0.0
140
0.0
141
0.0
142
1.0
143
1.0
 70
0
 72
1
 73
0
 74
0
  7

 75
0
147
1.0
148
0.0
149
0.0
100
AcDbLayout
  1
Layout1
 70
0
 71
1
 10
0.0
 20
0.0
 11
297.0
 21
210.0
 12
0.0
 22
0.0
 32
0.0
 14
0.0
 24
0.0
 34
0.0
 15
0.0
 25
0.0
 35
0.0
146
0.0
 13
0.0
 23
0.0
 33
0.0
 16
1.0
 26
0.0
 36
0.0
 17
0.0
 27
1.0
 37
0.0
 76
0
330
219
345
0
346
0
  0
ENDSEC
  0
EOF
