  0
SECTION
  2
HEADER
  9
$ACADVER
  1
AC1015
  9
$DWGCODEPAGE
  3
ANSI_1252
  9
$EXTMAX
 10
297.0
 20
210.0
 30
0.0
  9
$EXTMIN
 10
0.0
 20
0.0
 30
0.0
  9
$LIMMIN
 10
0.0
 20
0.0
  9
$LIMMAX
 10
297.0
 20
210.0
  9
$VIEWCTR
 10
148.5
 20
105.0
  9
$VIEWSIZE
 40
210.0
  9
$CLAYER
  8
0
  9
$LTSCALE
 40
16.335
  9
$CELTYPE
  6
BYLAYER
  9
$DIMSCALE
 40
1.0
  9
$DIMASZ
 40
3.0
  9
$DIMEXO
 40
1.85625
  9
$DIMDLI
 40
11.286
  9
$DIMEXE
 40
5.346
  9
$DIMCEN
 40
2.673
  9
$DIMLFAC
 40
1.0
  9
$DIMBLK
  1
_FILLED
  9
$DIMTXT
 40
3.0
  9
$DIMTOL
 70
1
  9
$DIMLIM
 70
0
  9
$DIMTFAC
 40
1.0
  9
$DIMTP
 40
0.01
  9
$DIMTM
 40
0.01
  9
$PDMODE
 70
3
  9
$PDSIZE
 40
3.0
  9
$HANDSEED
  5
405
  9
$TILEMODE
 70
1
  9
$MEASUREMENT
 70
1
  9
$INSUNITS
 70
4
  0
ENDSEC
  0
SECTION
  2
CLASSES
  0
CLASS
  1
ACDBDICTIONARYWDFLT
  2
AcDbDictionaryWithDefault
  3
AutoCAD 2000
 90
0
280
0
281
0
  0
CLASS
  1
ACDBPLACEHOLDER
  2
AcDbPlaceHolder
  3
AutoCAD 2000
 90
0
280
0
281
0
  0
CLASS
  1
LAYOUT
  2
AcDbLayout
  3
AutoCAD 2000
 90
0
280
0
281
0
  0
ENDSEC
  0
SECTION
  2
TABLES
  0
TABLE
  2
VPORT
  5
8
100
AcDbSymbolTable
 70
2
  0
VPORT
  5
1F4
100
AcDbSymbolTableRecord
100
AcDbViewportTableRecord
  2
*ACTIVE
 70
0
 10
0.0
 20
0.0
 11
1.0
 21
1.0
 12
148.5
 22
105.0
 13
0.0
 23
0.0
 14
1.0
 24
1.0
 15
0.0
 25
0.0
 16
0.0
 26
0.0
 36
1.0
 17
0.0
 27
0.0
 37
0.0
 40
210.0
 41
1.4142857143
 42
50.0
 43
0.0
 44
0.0
 50
0.0
 51
0.0
 71
0
 72
100
 73
1
 74
1
 75
0
 76
0
 77
0
 78
0
  0
ENDTAB
  0
TABLE
  2
LTYPE
  5
5
100
AcDbSymbolTable
 70
6
  0
LTYPE
  5
14
100
AcDbSymbolTableRecord
100
AcDbLinetypeTableRecord
  2
BYBLOCK
 70
0
  3

 72
65
 73
0
 40
0.0
  0
LTYPE
  5
15
100
AcDbSymbolTableRecord
100
AcDbLinetypeTableRecord
  2
BYLAYER
 70
0
  3

 72
65
 73
0
 40
0.0
  0
LTYPE
  5
16
100
AcDbSymbolTableRecord
100
AcDbLinetypeTableRecord
  2
CONTINUOUS
 70
64
  3
Solid line
 72
65
 73
0
 40
0.0
  0
LTYPE
  5
1F5
100
AcDbSymbolTableRecord
100
AcDbLinetypeTableRecord
  2
CENTER
 70
64
  3
____ _ ____ _ ____ _ ____ _ ____ _ ____ _ ____
 72
65
 73
4
 40
0.6
 49
0.375
 74
0
 49
-0.075
 74
0
 49
0.075
 74
0
 49
-0.075
 74
0
  0
LTYPE
  5
1F6
100
AcDbSymbolTableRecord
100
AcDbLinetypeTableRecord
  2
HIDDEN
 70
64
  3
- - - - - - - - - - - - - - - - - - - -
 72
65
 73
2
 40
0.2
 49
0.1
 74
0
 49
-0.1
 74
0
  0
LTYPE
  5
1F7
100
AcDbSymbolTableRecord
100
AcDbLinetypeTableRecord
  2
PHANTOM
 70
64
  3
_____ _ _ _____ _ _ _____ _ _ _____
 72
65
 73
6
 40
0.8
 49
0.45
 74
0
 49
-0.05
 74
0
 49
0.1
 74
0
 49
-0.05
 74
0
 49
0.1
 74
0
 49
-0.05
 74
0
  0
LTYPE
  5
1F8
100
AcDbSymbolTableRecord
100
AcDbLinetypeTableRecord
  2
DOT
 70
64
  3
. . . . . . . . . . . . . . . . . . . .
 72
65
 73
2
 40
0.2
 49
0.1
 74
0
 49
-0.1
 74
0
  0
LTYPE
  5
1F9
100
AcDbSymbolTableRecord
100
AcDbLinetypeTableRecord
  2
DASHED
 70
64
  3
- - - - - - - - - - - - - - - - - - - -
 72
65
 73
2
 40
0.2
 49
0.1
 74
0
 49
-0.1
 74
0
  0
ENDTAB
  0
TABLE
  2
LAYER
  5
2
100
AcDbSymbolTable
 70
36
  0
LAYER
  5
10
100
AcDbSymbolTableRecord
100
AcDbLayerTableRecord
  2
0
 70
0
 62
7
  6
CONTINUOUS
370
-3
390
F
  0
LAYER
  5
1FA
100
AcDbSymbolTableRecord
100
AcDbLayerTableRecord
  2
DEFAULT_1
 70
0
 62
7
  6
CENTER
370
-3
390
F
  0
LAYER
  5
1FB
100
AcDbSymbolTableRecord
100
AcDbLayerTableRecord
  2
DEFAULT_2
 70
0
 62
7
  6
HIDDEN
370
-3
390
F
  0
LAYER
  5
1FC
100
AcDbSymbolTableRecord
100
AcDbLayerTableRecord
  2
DEFAULT_3
 70
0
 62
7
  6
PHANTOM
370
-3
390
F
  0
LAYER
  5
1FD
100
AcDbSymbolTableRecord
100
AcDbLayerTableRecord
  2
ASSI
 70
0
 62
7
  6
CONTINUOUS
370
-3
390
F
  0
LAYER
  5
1FE
100
AcDbSymbolTableRecord
100
AcDbLayerTableRecord
  2
COLORE
 70
0
 62
7
  6
CONTINUOUS
370
-3
390
F
  0
LAYER
  5
1FF
100
AcDbSymbolTableRecord
100
AcDbLayerTableRecord
  2
COORDINATE
 70
0
 62
7
  6
CONTINUOUS
370
-3
390
F
  0
LAYER
  5
200
100
AcDbSymbolTableRecord
100
AcDbLayerTableRecord
  2
COORD_ORIGINE
 70
0
 62
7
  6
CONTINUOUS
370
-3
390
F
  0
LAYER
  5
201
100
AcDbSymbolTableRecord
100
AcDbLayerTableRecord
  2
COPY_PUBLISH
 70
0
 62
7
  6
CONTINUOUS
370
-3
390
F
  0
LAYER
  5
202
100
AcDbSymbolTableRecord
100
AcDbLayerTableRecord
  2
COSMETICHE
 70
0
 62
7
  6
CONTINUOUS
370
-3
390
F
  0
LAYER
  5
203
100
AcDbSymbolTableRecord
100
AcDbLayerTableRecord
  2
COSMETICI
 70
0
 62
7
  6
CONTINUOUS
370
-3
390
F
  0
LAYER
  5
204
100
AcDbSymbolTableRecord
100
AcDbLayerTableRecord
  2
CURVE
 70
0
 62
7
  6
CONTINUOUS
370
-3
390
F
  0
LAYER
  5
205
100
AcDbSymbolTableRecord
100
AcDbLayerTableRecord
  2
DRAFT
 70
0
 62
7
  6
CONTINUOUS
370
-3
390
F
  0
LAYER
  5
206
100
AcDbSymbolTableRecord
100
AcDbLayerTableRecord
  2
IMPORT_IGES
 70
0
 62
7
  6
CONTINUOUS
370
-3
390
F
  0
LAYER
  5
207
100
AcDbSymbolTableRecord
100
AcDbLayerTableRecord
  2
NOTE
 70
0
 62
7
  6
CONTINUOUS
370
-3
390
F
  0
LAYER
  5
208
100
AcDbSymbolTableRecord
100
AcDbLayerTableRecord
  2
PIANI
 70
0
 62
7
  6
CONTINUOUS
370
-3
390
F
  0
LAYER
  5
209
100
AcDbSymbolTableRecord
100
AcDbLayerTableRecord
  2
PIANI_ORIGINE
 70
0
 62
7
  6
CONTINUOUS
370
-3
390
F
  0
LAYER
  5
20A
100
AcDbSymbolTableRecord
100
AcDbLayerTableRecord
  2
PUNTI
 70
0
 62
7
  6
CONTINUOUS
370
-3
390
F
  0
LAYER
  5
20B
100
AcDbSymbolTableRecord
100
AcDbLayerTableRecord
  2
RACCORDO
 70
0
 62
7
  6
CONTINUOUS
370
-3
390
F
  0
LAYER
  5
20C
100
AcDbSymbolTableRecord
100
AcDbLayerTableRecord
  2
SIMBOLI
 70
0
 62
7
  6
CONTINUOUS
370
-3
390
F
  0
LAYER
  5
20D
100
AcDbSymbolTableRecord
100
AcDbLayerTableRecord
  2
SMUSSO
 70
0
 62
7
  6
CONTINUOUS
370
-3
390
F
  0
LAYER
  5
20E
100
AcDbSymbolTableRecord
100
AcDbLayerTableRecord
  2
SNAPLINE
 70
0
 62
7
  6
CONTINUOUS
370
-3
390
F
  0
LAYER
  5
20F
100
AcDbSymbolTableRecord
100
AcDbLayerTableRecord
  2
SUPERFICI
 70
0
 62
7
  6
CONTINUOUS
370
-3
390
F
  0
LAYER
  5
210
100
AcDbSymbolTableRecord
100
AcDbLayerTableRecord
  2
TRASH
 70
0
 62
7
  6
CONTINUOUS
370
-3
390
F
  0
LAYER
  5
211
100
AcDbSymbolTableRecord
100
AcDbLayerTableRecord
  2
XSEC_DATUMS
 70
0
 62
7
  6
CONTINUOUS
370
-3
390
F
  0
ENDTAB
  0
TABLE
  2
STYLE
  5
3
100
AcDbSymbolTable
 70
1
  0
STYLE
  5
11
100
AcDbSymbolTableRecord
100
AcDbTextStyleTableRecord
  2
STANDARD
 70
0
 40
0.0
 41
0.8
 50
0.0
 71
0
 42
0.2
  3
txt
  4

  0
STYLE
  5
212
100
AcDbSymbolTableRecord
100
AcDbTextStyleTableRecord
  2
TEXTSTYLE_1
 70
0
 40
0.0
 41
0.8
 50
0.0
 71
0
 42
0.2
  3
gdt
  4

  0
ENDTAB
  0
TABLE
  2
VIEW
  5
6
100
AcDbSymbolTable
 70
0
  0
ENDTAB
  0
TABLE
  2
UCS
  5
7
100
AcDbSymbolTable
 70
0
  0
ENDTAB
  0
TABLE
  2
APPID
  5
9
100
AcDbSymbolTable
 70
1
  0
APPID
  5
213
100
AcDbSymbolTableRecord
100
AcDbRegAppTableRecord
  2
ACAD
 70
0
  0
ENDTAB
  0
TABLE
  2
BLOCK_RECORD
  5
1
100
AcDbSymbolTable
 70
0
  0
BLOCK_RECORD
  5
214
100
AcDbSymbolTableRecord
100
AcDbBlockTableRecord
  2
*Model_Space
  0
BLOCK_RECORD
  5
215
100
AcDbSymbolTableRecord
100
AcDbBlockTableRecord
  2
*Paper_Space
  0
ENDTAB
  0
TABLE
  2
DIMSTYLE
  5
A
100
AcDbSymbolTable
 70
1
100
AcDbDimStyleTable
 71
0
  0
DIMSTYLE
105
216
100
AcDbSymbolTableRecord
100
AcDbDimStyleTableRecord
  2
STANDARD
 70
0
  3

  4

 40
1.0
 41
3.0
 42
0.0625
 43
0.38
 44
0.18
 45
0.0
 46
0.0
 47
0.01
 48
0.01
140
3.0
141
0.09
142
0.0
143
25.4
144
1.0
145
0.0
146
1.0
147
0.09
 71
1.0
 72
0.0
 73
0
 74
0
 75
0
 76
0
 77
1
 78
8
170
0
171
2
172
0
173
0
174
0
175
0
176
0
177
0
178
0
270
2
271
2
272
2
273
2
274
2
275
0
280
0
281
0
282
0
283
1
284
8
285
0
286
0
287
3
288
0
340
11
  0
ENDTAB
  0
ENDSEC
  0
SECTION
  2
BLOCKS
  0
BLOCK
  5
20
100
AcDbEntity
  8
0
100
AcDbBlockBegin
  2
*Model_Space
 70
0
 10
0.0
 20
0.0
 30
0.0
  3
*Model_Space
  1

  0
ENDBLK
  5
21
100
AcDbEntity
  8
0
100
AcDbBlockEnd
  0
BLOCK
  5
1C
100
AcDbEntity
  8
0
100
AcDbBlockBegin
  2
*Paper_Space
 70
0
 10
0.0
 20
0.0
 30
0.0
  3
*Paper_Space
  1

  0
ENDBLK
  5
1D
100
AcDbEntity
  8
0
100
AcDbBlockEnd
  0
ENDSEC
  0
SECTION
  2
ENTITIES
  0
LWPOLYLINE
  5
217
100
AcDbEntity
  8
RACCORDO
100
AcDbPolyline
 62
7
  6
CONTINUOUS
 90
18
 70
0
 10
-18.8257744981
 20
30.5002460597
 10
-18.9680540538
 20
30.4158569681
 10
-19.1072817523
 20
30.3173099801
 10
-19.2393130925
 20
30.2068844649
 10
-19.3637313288
 20
30.0848675671
 10
-19.4800005292
 20
29.95179703
 10
-19.5877783278
 20
29.8081149833
 10
-19.6868020736
 20
29.6541964171
 10
-19.7767954279
 20
29.490555663
 10
-19.8575457852
 20
29.317657096
 10
-19.9288859725
 20
29.1359116014
 10
-19.9906765081
 20
28.9457844096
 10
-20.0427743273
 20
28.7477571082
 10
-20.0850653824
 20
28.5422749329
 10
-20.1174664337
 20
28.3297613909
 10
-20.1398764067
 20
28.1106804211
 10
-20.1522224363
 20
27.8856047657
 10
-20.1548542314
 20
27.7202400674
  0
LINE
  5
218
100
AcDbEntity
  8
RACCORDO
100
AcDbLine
 62
7
  6
CONTINUOUS
 10
-17.9861733749
 20
30.9532311047
 11
-18.8257300095
 21
30.5002706669
  0
LINE
  5
219
100
AcDbEntity
  8
RACCORDO
100
AcDbLine
 62
253
  6
CONTINUOUS
 10
-15.6983090213
 20
30.8381965602
 11
-16.5355841918
 21
30.3863848121
  0
LWPOLYLINE
  5
21A
100
AcDbEntity
  8
RACCORDO
100
AcDbPolyline
 62
7
  6
CONTINUOUS
 90
17
 70
0
 10
-21.221235959
 20
23.9436817929
 10
-21.2635207912
 20
23.9170767914
 10
-21.3183406301
 20
23.8777766504
 10
-21.3712240057
 20
23.8342444978
 10
-21.4219715034
 20
23.7867007455
 10
-21.4701189246
 20
23.7356664199
 10
-21.515654708
 20
23.6812578224
 10
-21.5585045154
 20
23.6236086111
 10
-21.5981698441
 20
23.5634362478
 10
-21.6346171901
 20
23.5009047077
 10
-21.6677641672
 20
23.4361539511
 10
-21.6971965712
 20
23.3700502559
 10
-21.7228793394
 20
23.3027893605
 10
-21.7447519469
 20
23.2344969777
 10
-21.7625680955
 20
23.1659887392
 10
-21.7762703112
 20
23.0976092626
 10
-21.7856184271
 20
23.0316543066
  0
LINE
  5
21B
100
AcDbEntity
  8
RACCORDO
100
AcDbLine
 62
7
  6
CONTINUOUS
 10
-18.6132451259
 20
25.4897123769
 11
-21.221292363
 21
23.9436562595
  0
LINE
  5
21C
100
AcDbEntity
  8
RACCORDO
100
AcDbLine
 62
253
  6
CONTINUOUS
 10
-18.3780821068
 20
25.4820022125
 11
-20.9848280056
 21
23.9367175314
  0
LINE
  5
21D
100
AcDbEntity
  8
SMUSSO
100
AcDbLine
 62
7
  6
CONTINUOUS
 10
-13.7532268941
 20
26.4668058625
 11
-13.3289628254
 21
26.7742890704
  0
LINE
  5
21E
100
AcDbEntity
  8
SMUSSO
100
AcDbLine
 62
7
  6
CONTINUOUS
 10
-13.3289628254
 20
26.7742890704
 11
-12.9124895022
 21
26.9989859829
  0
LINE
  5
21F
100
AcDbEntity
  8
SMUSSO
100
AcDbLine
 62
7
  6
CONTINUOUS
 10
-13.7532268941
 20
26.4667267105
 11
-12.8368180973
 21
26.9611502804
  0
LINE
  5
220
100
AcDbEntity
  8
DRAFT
100
AcDbLine
 62
7
  6
CONTINUOUS
 10
-12.6925667223
 20
25.2868775959
 11
-12.7978422844
 21
25.230079015
  0
LINE
  5
221
100
AcDbEntity
  8
DRAFT
100
AcDbLine
 62
7
  6
CONTINUOUS
 10
-13.7532268941
 20
25.6007013309
 11
-12.7110806145
 21
26.1176135683
  0
LINE
  5
222
100
AcDbEntity
  8
RACCORDO
100
AcDbLine
 62
253
  6
CONTINUOUS
 10
-8.942508946
 20
27.4602965226
 11
-8.462296028
 21
27.6984856701
  0
LINE
  5
223
100
AcDbEntity
  8
RACCORDO
100
AcDbLine
 62
253
  6
CONTINUOUS
 10
-8.5484180363
 20
27.2632510678
 11
-8.2855462566
 21
27.3936374084
  0
LINE
  5
224
100
AcDbEntity
  8
RACCORDO
100
AcDbLine
 62
7
  6
CONTINUOUS
 10
-9.599950713
 20
28.222309011
 11
-10.0504359244
 21
28.0142600118
  0
LINE
  5
225
100
AcDbEntity
  8
RACCORDO
100
AcDbLine
 62
253
  6
CONTINUOUS
 10
-9.4920458567
 20
28.2133605844
 11
-9.9893208904
 21
27.9837024948
  0
LINE
  5
226
100
AcDbEntity
  8
DRAFT
100
AcDbLine
 62
7
  6
CONTINUOUS
 10
-10.3944696834
 20
25.6100722629
 11
-10.2695048507
 21
25.6774936571
  0
LINE
  5
227
100
AcDbEntity
  8
DRAFT
100
AcDbLine
 62
7
  6
CONTINUOUS
 10
-13.7532268941
 20
23.6954454425
 11
-12.7110806145
 21
24.21235768
  0
LWPOLYLINE
  5
228
100
AcDbEntity
  8
RACCORDO
100
AcDbPolyline
 62
7
  6
CONTINUOUS
 90
10
 70
0
 10
-22.4649806723
 20
-3.8978653922
 10
-22.4428485816
 20
-4.9606909934
 10
-22.4063172065
 20
-6.0853947283
 10
-22.3564239656
 20
-7.2023688269
 10
-22.2931766924
 20
-8.3113406009
 10
-22.216587045
 20
-9.4120869107
 10
-22.1266666585
 20
-10.5044035928
 10
-22.0234296549
 20
-11.5880692853
 10
-21.9069002785
 20
-12.6628216206
 10
-21.7847248594
 20
-13.6689586786
  0
LWPOLYLINE
  5
229
100
AcDbEntity
  8
RACCORDO
100
AcDbPolyline
 62
7
  6
CONTINUOUS
 90
10
 70
0
 10
-22.4649825029
 20
12.5552717879
 10
-22.4888846639
 20
10.7696710083
 10
-22.5076085941
 20
8.9168721875
 10
-22.5200947595
 20
7.06726761
 10
-22.5263427731
 20
5.2208952536
 10
-22.5263525249
 20
3.3777866599
 10
-22.5201239588
 20
1.5379709043
 10
-22.5076570722
 20
-0.2985205293
 10
-22.4889521394
 20
-2.1316500112
 10
-22.4649806857
 20
-3.8978655669
  0
LWPOLYLINE
  5
22A
100
AcDbEntity
  8
RACCORDO
100
AcDbPolyline
 62
7
  6
CONTINUOUS
 90
10
 70
0
 10
-21.7856176545
 20
23.0317081873
 10
-21.9069531007
 20
21.9049025093
 10
-22.0233594542
 20
20.7092671396
 10
-22.1265128823
 20
19.5185042631
 10
-22.2163846053
 20
18.3329036777
 10
-22.2929558892
 20
17.152704771
 10
-22.3562105007
 20
15.9781278867
 10
-22.4061323111
 20
14.8094111572
 10
-22.4427090607
 20
13.6468374861
 10
-22.4649824907
 20
12.5552716759
  0
LINE
  5
22B
100
AcDbEntity
  8
RACCORDO
100
AcDbLine
 62
7
  6
CONTINUOUS
 10
-21.7856236404
 20
23.0316548919
 11
-21.7856176545
 21
23.0317081873
  0
LINE
  5
22C
100
AcDbEntity
  8
RACCORDO
100
AcDbLine
 62
253
  6
CONTINUOUS
 10
-4.4547727215
 20
23.4921057928
 11
-5.3050196419
 21
23.0469425923
  0
LINE
  5
22D
100
AcDbEntity
  8
DRAFT
100
AcDbLine
 62
7
  6
CONTINUOUS
 10
-9.1570328164
 20
23.5191106429
 11
-9.2660488522
 21
23.4641822989
  0
LWPOLYLINE
  5
22E
100
AcDbEntity
  8
RACCORDO
100
AcDbPolyline
 62
7
  6
CONTINUOUS
 90
11
 70
0
 10
-7.9716384954
 20
-23.7275433618
 10
-7.9394184002
 20
-23.7421150466
 10
-7.9024052376
 20
-23.7552243309
 10
-7.864671842
 20
-23.7648089452
 10
-7.8265892509
 20
-23.7707591111
 10
-7.7885026911
 20
-23.7730237938
 10
-7.7507078555
 20
-23.7716080864
 10
-7.7136346236
 20
-23.7665781562
 10
-7.6776908926
 20
-23.7580701413
 10
-7.6431619332
 20
-23.7462483458
 10
-7.6229434135
 20
-23.7375121362
  0
LWPOLYLINE
  5
22F
100
AcDbEntity
  8
RACCORDO
100
AcDbPolyline
 62
7
  6
CONTINUOUS
 90
17
 70
0
 10
10.8823561516
 20
-33.1545458262
 10
10.9867082594
 20
-33.204858579
 10
11.1496691868
 20
-33.2760120282
 10
11.3121497519
 20
-33.3379364576
 10
11.47382012
 20
-33.390529992
 10
11.6344089515
 20
-33.4337475645
 10
11.7936823411
 20
-33.467565782
 10
11.9513903934
 20
-33.4919480286
 10
12.1072337825
 20
-33.5068695354
 10
12.2608904088
 20
-33.5123316702
 10
12.4120910047
 20
-33.5083409606
 10
12.5605063497
 20
-33.4949193104
 10
12.7057139509
 20
-33.4721554562
 10
12.8474273607
 20
-33.4401483163
 10
12.9853294636
 20
-33.399014127
 10
13.1189631288
 20
-33.3489764124
 10
13.1961224306
 20
-33.3151678595
  0
LINE
  5
230
100
AcDbEntity
  8
RACCORDO
100
AcDbLine
 62
7
  6
CONTINUOUS
 10
-16.6661255012
 20
-19.3803072187
 11
-7.9717363852
 21
-23.7275017768
  0
LINE
  5
231
100
AcDbEntity
  8
RACCORDO
100
AcDbLine
 62
7
  6
CONTINUOUS
 10
2.1879753183
 20
-28.8073576285
 11
10.8823644512
 21
-33.1545521949
  0
LINE
  5
232
100
AcDbEntity
  8
RACCORDO
100
AcDbLine
 62
253
  6
CONTINUOUS
 10
-16.7440934569
 20
-19.2180450786
 11
-8.0497043245
 21
-23.5652396448
  0
LINE
  5
233
100
AcDbEntity
  8
RACCORDO
100
AcDbLine
 62
253
  6
CONTINUOUS
 10
2.1100073626
 20
-28.6450954884
 11
10.804396495
 21
-32.9922900546
  0
LINE
  5
234
100
AcDbEntity
  8
DRAFT
100
AcDbLine
 62
7
  6
CONTINUOUS
 10
-13.3289628254
 20
-19.817956781
 11
-11.4551298552
 21
-20.7548732661
  0
LINE
  5
235
100
AcDbEntity
  8
DRAFT
100
AcDbLine
 62
7
  6
CONTINUOUS
 10
-10.3944696834
 20
-21.285203352
 11
-8.5206367133
 21
-22.2221198371
  0
LINE
  5
236
100
AcDbEntity
  8
DRAFT
100
AcDbLine
 62
7
  6
CONTINUOUS
 10
2.5809397513
 20
-27.7729080694
 11
4.4547727215
 21
-28.7098245545
  0
LINE
  5
237
100
AcDbEntity
  8
DRAFT
100
AcDbLine
 62
7
  6
CONTINUOUS
 10
5.5154328933
 20
-29.2401546404
 11
7.3892658634
 21
-30.1770711254
  0
LINE
  5
238
100
AcDbEntity
  8
DRAFT
100
AcDbLine
 62
7
  6
CONTINUOUS
 10
5.5154328933
 20
-29.1102508298
 11
4.4547727215
 21
-28.5799207439
  0
LINE
  5
239
100
AcDbEntity
  8
DRAFT
100
AcDbLine
 62
7
  6
CONTINUOUS
 10
-10.3944696834
 20
-21.1552995414
 11
-11.4551298552
 21
-20.6249694556
  0
LINE
  5
23A
100
AcDbEntity
  8
DRAFT
100
AcDbLine
 62
7
  6
CONTINUOUS
 10
-12.2868165458
 20
-19.3010445436
 11
-10.5712463787
 21
-20.1588296271
  0
LINE
  5
23B
100
AcDbEntity
  8
DRAFT
100
AcDbLine
 62
7
  6
CONTINUOUS
 10
-9.1570328164
 20
-20.8659364082
 11
-8.0963726446
 21
-21.3962664941
  0
LINE
  5
23C
100
AcDbEntity
  8
DRAFT
100
AcDbLine
 62
7
  6
CONTINUOUS
 10
3.6230860309
 20
-27.2559958319
 11
5.338656198
 21
-28.1137809154
  0
LINE
  5
23D
100
AcDbEntity
  8
DRAFT
100
AcDbLine
 62
7
  6
CONTINUOUS
 10
6.7528697603
 20
-28.8208876966
 11
7.8135299321
 21
-29.3512177825
  0
LINE
  5
23E
100
AcDbEntity
  8
RACCORDO
100
AcDbLine
 62
7
  6
CONTINUOUS
 10
-16.802405197
 20
-19.3089806865
 11
-16.6661081532
 21
-19.3803123427
  0
LWPOLYLINE
  5
23F
100
AcDbEntity
  8
RACCORDO
100
AcDbPolyline
 62
7
  6
CONTINUOUS
 90
24
 70
0
 10
-19.9348520951
 20
-14.9864456947
 10
-19.9342652956
 20
-14.9888291868
 10
-19.8648150031
 20
-15.2337067474
 10
-19.7863957261
 20
-15.4779528932
 10
-19.6992479797
 20
-15.7209171501
 10
-19.6036195289
 20
-15.9619720157
 10
-19.4997553008
 20
-16.2005116685
 10
-19.3879509899
 20
-16.435905019
 10
-19.2685016882
 20
-16.6675330274
 10
-19.1416967523
 20
-16.8948222111
 10
-19.0078749797
 20
-17.1171726055
 10
-18.8673758873
 20
-17.3339839605
 10
-18.720531854
 20
-17.5447170468
 10
-18.5677051011
 20
-17.7488229923
 10
-18.4092863758
 20
-17.9457157049
 10
-18.2456821785
 20
-18.1348537979
 10
-18.0772752759
 20
-18.315740916
 10
-17.9045011753
 20
-18.4878343988
 10
-17.7278669019
 20
-18.6505932159
 10
-17.5478154398
 20
-18.8035526934
 10
-17.3647780636
 20
-18.9462799425
 10
-17.179232218
 20
-19.0783504443
 10
-16.9916188113
 20
-19.1993713389
 10
-16.802405197
 20
-19.3089806865
  0
LWPOLYLINE
  5
240
100
AcDbEntity
  8
RACCORDO
100
AcDbPolyline
 62
7
  6
CONTINUOUS
 90
14
 70
0
 10
-21.7846897447
 20
-13.6691833275
 10
-21.7802735958
 20
-13.6996606619
 10
-21.7666067306
 20
-13.7675461608
 10
-21.7482112005
 20
-13.8322643221
 10
-21.7253643836
 20
-13.8935417389
 10
-21.698296731
 20
-13.9513262044
 10
-21.6671623093
 20
-14.0056226532
 10
-21.6322818796
 20
-14.0561421265
 10
-21.5939536783
 20
-14.1027284388
 10
-21.5522884296
 20
-14.1454194339
 10
-21.5076455049
 20
-14.1839593409
 10
-21.4603886438
 20
-14.2181759833
 10
-21.410597335
 20
-14.2481088425
 10
-21.3893599175
 20
-14.2591886563
  0
LINE
  5
241
100
AcDbEntity
  8
RACCORDO
100
AcDbLine
 62
7
  6
CONTINUOUS
 10
-21.7846897447
 20
-13.6691833275
 11
-21.7847187187
 21
-13.6689578886
  0
LINE
  5
242
100
AcDbEntity
  8
RACCORDO
100
AcDbLine
 62
7
  6
CONTINUOUS
 10
-20.154857124
 20
27.720255973
 11
-20.154857124
 21
24.5758414062
  0
LINE
  5
243
100
AcDbEntity
  8
RACCORDO
100
AcDbLine
 62
253
  6
CONTINUOUS
 10
-20.0669891583
 20
27.6141899558
 11
-20.0669891583
 21
24.6279297288
  0
LINE
  5
244
100
AcDbEntity
  8
DRAFT
100
AcDbLine
 62
7
  6
CONTINUOUS
 10
-12.7978422844
 20
25.230079015
 11
-12.9009959782
 21
24.9539601895
  0
LWPOLYLINE
  5
245
100
AcDbEntity
  8
RACCORDO
100
AcDbPolyline
 62
7
  6
CONTINUOUS
 90
16
 70
0
 10
-9.9187364879
 20
18.3714108999
 10
-9.9307971642
 20
18.3642469264
 10
-10.0015299857
 20
18.3169984627
 10
-10.06996414
 20
18.262357614
 10
-10.1356341126
 20
18.2008406659
 10
-10.1980672511
 20
18.1331069045
 10
-10.2566557033
 20
18.0600151972
 10
-10.3109162912
 20
17.982347827
 10
-10.3605691061
 20
17.9007481369
 10
-10.4052517752
 20
17.8159296054
 10
-10.4445712826
 20
17.7286494464
 10
-10.4782524676
 20
17.6396098235
 10
-10.5060364221
 20
17.549405295
 10
-10.5276163863
 20
17.4587117876
 10
-10.5427438301
 20
17.3683983165
 10
-10.5453889162
 20
17.3468630795
  0
LINE
  5
246
100
AcDbEntity
  8
RACCORDO
100
AcDbLine
 62
7
  6
CONTINUOUS
 10
-7.6363495721
 20
19.7022780843
 11
-9.9188644396
 21
18.3713628542
  0
LINE
  5
247
100
AcDbEntity
  8
RACCORDO
100
AcDbLine
 62
253
  6
CONTINUOUS
 10
-7.5661232961
 20
19.6997761825
 11
-9.8488582207
 21
18.3687326389
  0
LINE
  5
248
100
AcDbEntity
  8
RACCORDO
100
AcDbLine
 62
253
  6
CONTINUOUS
 10
-10.2821221652
 20
18.5853646112
 11
-7.9182809524
 21
19.8758550106
  0
LINE
  5
249
100
AcDbEntity
  8
RACCORDO
100
AcDbLine
 62
253
  6
CONTINUOUS
 10
-10.1723723432
 20
18.4044638775
 11
-7.8122956726
 21
19.6928991027
  0
LWPOLYLINE
  5
24A
100
AcDbEntity
  8
RACCORDO
100
AcDbPolyline
 62
7
  6
CONTINUOUS
 90
12
 70
0
 10
9.2753177415
 20
-29.5915268726
 10
9.2847054733
 20
-29.5961440705
 10
9.3402663555
 20
-29.6200449271
 10
9.3985793235
 20
-29.6393094403
 10
9.459303578
 20
-29.6536150067
 10
9.5219834598
 20
-29.6626670589
 10
9.5860947881
 20
-29.6662329942
 10
9.6512558452
 20
-29.664162358
 10
9.7169853234
 20
-29.6563710276
 10
9.7827182511
 20
-29.6428564055
 10
9.8480830333
 20
-29.6236520768
 10
9.9001517787
 20
-29.6041391948
  0
LINE
  5
24B
100
AcDbEntity
  8
DRAFT
100
AcDbLine
 62
7
  6
CONTINUOUS
 10
3.1120602923
 20
-26.5411765788
 11
6.6438537245
 21
-28.3070732949
  0
LINE
  5
24C
100
AcDbEntity
  8
DRAFT
100
AcDbLine
 62
7
  6
CONTINUOUS
 10
-9.2660488522
 20
-20.3521220066
 11
-12.7978422844
 21
-18.5862252905
  0
LINE
  5
24D
100
AcDbEntity
  8
RACCORDO
100
AcDbLine
 62
7
  6
CONTINUOUS
 10
9.27589174
 20
-29.5918176123
 11
-21.3896845924
 21
-14.2590294461
  0
LINE
  5
24E
100
AcDbEntity
  8
RACCORDO
100
AcDbLine
 62
253
  6
CONTINUOUS
 10
9.0205651191
 20
-29.1743266404
 11
-21.6383703617
 21
-13.8448588999
  0
LINE
  5
24F
100
AcDbEntity
  8
DRAFT
100
AcDbLine
 62
7
  6
CONTINUOUS
 10
-12.8252463967
 20
-18.541248544
 11
-12.7978422844
 21
-18.5862252905
  0
LINE
  5
250
100
AcDbEntity
  8
SMUSSO
100
AcDbLine
 62
7
  6
CONTINUOUS
 10
-13.3289628254
 20
-19.385023207
 11
-13.7532268941
 21
-18.6532759304
  0
LINE
  5
251
100
AcDbEntity
  8
SMUSSO
100
AcDbLine
 62
7
  6
CONTINUOUS
 10
-12.3083498547
 20
-18.8309715053
 11
-12.2868165458
 21
-18.8681109695
  0
LINE
  5
252
100
AcDbEntity
  8
RACCORDO
100
AcDbLine
 62
253
  6
CONTINUOUS
 10
-17.4792229935
 20
3.3100294322
 11
-17.4792229935
 21
7.3660294746
  0
LINE
  5
253
100
AcDbEntity
  8
RACCORDO
100
AcDbLine
 62
7
  6
CONTINUOUS
 10
-17.3388928936
 20
2.9373697748
 11
-17.3388928936
 21
7.291098401
  0
LINE
  5
254
100
AcDbEntity
  8
DRAFT
100
AcDbLine
 62
7
  6
CONTINUOUS
 10
-9.2660488522
 20
23.4641822989
 11
-9.3728676292
 21
23.189896015
  0
LWPOLYLINE
  5
255
100
AcDbEntity
  8
RACCORDO
100
AcDbPolyline
 62
7
  6
CONTINUOUS
 90
9
 70
0
 10
2.0901796393
 20
20.9711437583
 10
2.06080968
 20
20.9537676419
 10
2.034813746
 20
20.9351268541
 10
2.0102419014
 20
20.9141249054
 10
1.9873115097
 20
20.8908603383
 10
1.9662137961
 20
20.8654503911
 10
1.9471535036
 20
20.8380700492
 10
1.9303058254
 20
20.8089127006
 10
1.9235861084
 20
20.7954779598
  0
LINE
  5
256
100
AcDbEntity
  8
DRAFT
100
AcDbLine
 62
7
  6
CONTINUOUS
 10
-5.4508935125
 20
18.6421612907
 11
-5.0911688245
 21
18.8385455714
  0
LINE
  5
257
100
AcDbEntity
  8
RACCORDO
100
AcDbLine
 62
7
  6
CONTINUOUS
 10
2.9333277331
 20
21.4204029766
 11
2.089917688
 21
20.9710110252
  0
LINE
  5
258
100
AcDbEntity
  8
RACCORDO
100
AcDbLine
 62
253
  6
CONTINUOUS
 10
0.6363961031
 20
20.9465213805
 11
-0.2178176803
 21
20.5033416115
  0
LINE
  5
259
100
AcDbEntity
  8
RACCORDO
100
AcDbLine
 62
253
  6
CONTINUOUS
 10
-3.2804684944
 20
17.7158014204
 11
-2.9050764861
 21
17.8276581435
  0
LINE
  5
25A
100
AcDbEntity
  8
RACCORDO
100
AcDbLine
 62
253
  6
CONTINUOUS
 10
-2.9384121266
 20
17.3859205978
 11
-2.4155939831
 21
17.5417063444
  0
LINE
  5
25B
100
AcDbEntity
  8
DRAFT
100
AcDbLine
 62
7
  6
CONTINUOUS
 10
-9.2944266412
 20
-20.3066584217
 11
-9.2660488522
 21
-20.3521220066
  0
LINE
  5
25C
100
AcDbEntity
  8
DRAFT
100
AcDbLine
 62
7
  6
CONTINUOUS
 10
-1.1959102306
 20
16.5146696498
 11
-0.8485281374
 21
16.7172252279
  0
LINE
  5
25D
100
AcDbEntity
  8
SMUSSO
100
AcDbLine
 62
7
  6
CONTINUOUS
 10
2.5809397513
 20
18.8193377821
 11
2.9974130745
 21
19.0440346945
  0
LINE
  5
25E
100
AcDbEntity
  8
SMUSSO
100
AcDbLine
 62
7
  6
CONTINUOUS
 10
2.1566756826
 20
18.5117754222
 11
3.0730844794
 21
19.006198992
  0
LINE
  5
25F
100
AcDbEntity
  8
DRAFT
100
AcDbLine
 62
7
  6
CONTINUOUS
 10
2.1566756826
 20
17.6457500425
 11
3.1988219622
 21
18.16266228
  0
LINE
  5
260
100
AcDbEntity
  8
RACCORDO
100
AcDbLine
 62
253
  6
CONTINUOUS
 10
6.9673936307
 20
19.5053452342
 11
7.4476065487
 21
19.7435343817
  0
LINE
  5
261
100
AcDbEntity
  8
RACCORDO
100
AcDbLine
 62
253
  6
CONTINUOUS
 10
7.3614845404
 20
19.3082997794
 11
7.6243563201
 21
19.4386861201
  0
LINE
  5
262
100
AcDbEntity
  8
RACCORDO
100
AcDbLine
 62
253
  6
CONTINUOUS
 10
-10.9604097523
 20
12.9192161216
 11
-11.1956600909
 21
12.8056354508
  0
LINE
  5
263
100
AcDbEntity
  8
RACCORDO
100
AcDbLine
 62
7
  6
CONTINUOUS
 10
-20.2577553992
 20
7.6190509586
 11
-20.2590524167
 21
7.6184383351
  0
LINE
  5
264
100
AcDbEntity
  8
RACCORDO
100
AcDbLine
 62
7
  6
CONTINUOUS
 10
6.3099518637
 20
20.2673577227
 11
5.8594666523
 21
20.0593087235
  0
LINE
  5
265
100
AcDbEntity
  8
RACCORDO
100
AcDbLine
 62
253
  6
CONTINUOUS
 10
6.41785672
 20
20.2584092961
 11
5.9205816863
 21
20.0287512064
  0
LWPOLYLINE
  5
266
100
AcDbEntity
  8
RACCORDO
100
AcDbPolyline
 62
7
  6
CONTINUOUS
 90
48
 70
0
 10
-20.2578226386
 20
7.6190128653
 10
-20.1375877888
 20
7.6715351656
 10
-19.9652774433
 20
7.7330039782
 10
-19.7872535831
 20
7.7809577446
 10
-19.6039297019
 20
7.8153366046
 10
-19.4153865798
 20
7.8361312021
 10
-19.2219681466
 20
7.8432402041
 10
-19.0241817804
 20
7.8366157689
 10
-18.8223798207
 20
7.8162237101
 10
-18.6170412907
 20
7.7820376032
 10
-18.4087163476
 20
7.7341122692
 10
-18.1978863297
 20
7.6725088297
 10
-17.985094183
 20
7.5973215001
 10
-17.7709169593
 20
7.5087279512
 10
-17.5558791638
 20
7.4069070435
 10
-17.3405456074
 20
7.2920785535
 10
-17.1254806209
 20
7.1645328824
 10
-16.9111844282
 20
7.0245412156
 10
-16.6982485015
 20
6.8724574582
 10
-16.4871712857
 20
6.7086414214
 10
-16.2782939344
 20
6.5333292987
 10
-16.0721157052
 20
6.3468836502
 10
-15.8691805998
 20
6.1497756421
 10
-15.6698896685
 20
5.9423543247
 10
-15.4746931104
 20
5.7250220661
 10
-15.2841297033
 20
5.4983484431
 10
-15.0987225396
 20
5.2629241517
 10
-14.9189394002
 20
5.0193081881
 10
-14.7452070355
 20
4.7680819614
 10
-14.5779699549
 20
4.5098796394
 10
-14.4176473399
 20
4.2453327588
 10
-14.2646057351
 20
3.9750719595
 10
-14.1192009036
 20
3.6997326335
 10
-13.9817804603
 20
3.4199630592
 10
-13.8526687074
 20
3.1364606691
 10
-13.7321788686
 20
2.849937529
 10
-13.6205928085
 20
2.5610721512
 10
-13.5181653123
 20
2.2705881346
 10
-13.4251531391
 20
1.9792721222
 10
-13.3417661939
 20
1.6878355006
 10
-13.2681704106
 20
1.3969973148
 10
-13.204533489
 20
1.1075624036
 10
-13.1509797226
 20
0.8202396205
 10
-13.1075868769
 20
0.535710873
 10
-13.0744258795
 20
0.2547446124
 10
-13.0515318211
 20
-0.0219454125
 10
-13.0388814074
 20
-0.2936704412
 10
-13.0360931136
 20
-0.4908801966
  0
LINE
  5
267
100
AcDbEntity
  8
SMUSSO
100
AcDbLine
 62
7
  6
CONTINUOUS
 10
-13.7532268941
 20
26.4668058625
 11
-13.7532268941
 21
25.6007013309
  0
LINE
  5
268
100
AcDbEntity
  8
DRAFT
100
AcDbLine
 62
7
  6
CONTINUOUS
 10
-13.7532268941
 20
24.7346759271
 11
-13.7532268941
 21
23.6954454425
  0
LINE
  5
269
100
AcDbEntity
  8
SMUSSO
100
AcDbLine
 62
7
  6
CONTINUOUS
 10
-13.7532268941
 20
-18.0772582952
 11
-13.7532268941
 21
-18.6532759304
  0
LINE
  5
26A
100
AcDbEntity
  8
SMUSSO
100
AcDbLine
 62
7
  6
CONTINUOUS
 10
-13.3289628254
 20
27.2072226444
 11
-13.3289628254
 21
26.7742890704
  0
LINE
  5
26B
100
AcDbEntity
  8
SMUSSO
100
AcDbLine
 62
7
  6
CONTINUOUS
 10
-13.3289628254
 20
-19.385023207
 11
-13.3289628254
 21
-19.817956781
  0
LINE
  5
26C
100
AcDbEntity
  8
DRAFT
100
AcDbLine
 62
7
  6
CONTINUOUS
 10
-12.9009959782
 20
24.9539601895
 11
-12.9009959782
 21
24.5557551088
  0
LINE
  5
26D
100
AcDbEntity
  8
SMUSSO
100
AcDbLine
 62
7
  6
CONTINUOUS
 10
-12.7110806145
 20
26.898281539
 11
-12.7110806145
 21
26.1176135683
  0
LINE
  5
26E
100
AcDbEntity
  8
SMUSSO
100
AcDbLine
 62
7
  6
CONTINUOUS
 10
-12.2868165458
 20
-18.8681109695
 11
-12.2868165458
 21
-19.3010445436
  0
LINE
  5
26F
100
AcDbEntity
  8
DRAFT
100
AcDbLine
 62
7
  6
CONTINUOUS
 10
-11.4551298552
 20
26.2703061594
 11
-11.4551298552
 21
26.1404023488
  0
LINE
  5
270
100
AcDbEntity
  8
DRAFT
100
AcDbLine
 62
7
  6
CONTINUOUS
 10
-11.4551298552
 20
-20.6249694556
 11
-11.4551298552
 21
-20.7548732661
  0
LWPOLYLINE
  5
271
100
AcDbEntity
  8
RACCORDO
100
AcDbPolyline
 62
7
  6
CONTINUOUS
 90
21
 70
0
 10
-13.0360929327
 20
-0.4909017674
 10
-13.038465247
 20
-0.6701334925
 10
-13.0492010683
 20
-0.9083622428
 10
-13.0686091547
 20
-1.1414851762
 10
-13.0967006906
 20
-1.3689167883
 10
-13.1334423589
 20
-1.5900976759
 10
-13.1787600537
 20
-1.8044522975
 10
-13.2325769142
 20
-2.0114794941
 10
-13.2947850221
 20
-2.2107016889
 10
-13.3652163762
 20
-2.4015834712
 10
-13.4437082701
 20
-2.5836632684
 10
-13.530081599
 20
-2.7565326535
 10
-13.6240962427
 20
-2.9197821245
 10
-13.7255140423
 20
-3.0730466329
 10
-13.8341174094
 20
-3.2160427199
 10
-13.9496808429
 20
-3.348551418
 10
-14.0719304901
 20
-3.4703064944
 10
-14.2006733958
 20
-3.5811456925
 10
-14.3358464411
 20
-3.6810427955
 10
-14.4772260876
 20
-3.7698090663
 10
-14.5476941175
 20
-3.8086542056
  0
LWPOLYLINE
  5
272
100
AcDbEntity
  8
RACCORDO
100
AcDbPolyline
 62
7
  6
CONTINUOUS
 90
36
 70
0
 10
-10.9811179023
 20
12.6358863296
 10
-10.9949895328
 20
12.3513269521
 10
-10.9950222797
 20
11.9877235382
 10
-10.9757410856
 20
11.6188670285
 10
-10.9373049089
 20
11.2462516418
 10
-10.8799571934
 20
10.8713923906
 10
-10.8040275696
 20
10.4957938867
 10
-10.7099338348
 20
10.1209743479
 10
-10.5981721806
 20
9.7484304993
 10
-10.469310088
 20
9.3796267328
 10
-10.3239975894
 20
9.0160417019
 10
-10.1629515672
 20
8.6591096405
 10
-9.9869311583
 20
8.3101963983
 10
-9.7967759867
 20
7.9706955403
 10
-9.5933861333
 20
7.6419463968
 10
-9.3776574899
 20
7.3251991542
 10
-9.1505879022
 20
7.0217185062
 10
-8.9131822246
 20
6.7327131708
 10
-8.666406521
 20
6.459241052
 10
-8.4112327327
 20
6.2023249178
 10
-8.1488420016
 20
5.9631590219
 10
-7.8805630604
 20
5.7428789507
 10
-7.6074303732
 20
5.5423334392
 10
-7.3306756764
 20
5.3624482606
 10
-7.0519312049
 20
5.2041997723
 10
-6.7725113991
 20
5.0682605901
 10
-6.4933373651
 20
4.9550171782
 10
-6.2154152973
 20
4.8648081899
 10
-5.9398509145
 20
4.7980137658
 10
-5.6676574949
 20
4.7549025206
 10
-5.3996946708
 20
4.7356121394
 10
-5.13697745
 20
4.7403184185
 10
-4.8805780488
 20
4.7690717198
 10
-4.6315023474
 20
4.8218040288
 10
-4.390798472
 20
4.8983702838
 10
-4.1970962473
 20
4.9802657796
  0
LWPOLYLINE
  5
273
100
AcDbEntity
  8
RACCORDO
100
AcDbPolyline
 62
7
  6
CONTINUOUS
 90
10
 70
0
 10
-10.5454021799
 20
17.3469041691
 10
-10.597811381
 20
16.8774283759
 10
-10.655863661
 20
16.3355124667
 10
-10.7111906273
 20
15.7945348165
 10
-10.7637897455
 20
15.2545199513
 10
-10.813658754
 20
14.7154907968
 10
-10.8607955225
 20
14.1774698534
 10
-10.905197982
 20
13.6404799721
 10
-10.946864049
 20
13.1045454733
 10
-10.9811186038
 20
12.6358821409
  0
LINE
  5
274
100
AcDbEntity
  8
SMUSSO
100
AcDbLine
 62
7
  6
CONTINUOUS
 10
2.1566756826
 20
18.5118545742
 11
2.5809397513
 21
18.8193377821
  0
LWPOLYLINE
  5
275
100
AcDbEntity
  8
RACCORDO
100
AcDbPolyline
 62
7
  6
CONTINUOUS
 90
20
 70
0
 10
-1.0812074987
 20
13.9525927126
 10
-1.1235882384
 20
13.9262934011
 10
-1.1734928597
 20
13.8911391984
 10
-1.222136056
 20
13.8523173489
 10
-1.2693825067
 20
13.8100309841
 10
-1.3150946012
 20
13.7644740085
 10
-1.3591162952
 20
13.7158756998
 10
-1.4012817929
 20
13.6644645143
 10
-1.4414211039
 20
13.610488501
 10
-1.479382278
 20
13.5542035564
 10
-1.5150105224
 20
13.4958574621
 10
-1.5481456169
 20
13.4357330996
 10
-1.5786536346
 20
13.3741030115
 10
-1.6063962354
 20
13.311234779
 10
-1.6312397635
 20
13.2474287447
 10
-1.65307428
 20
13.1829657786
 10
-1.671786107
 20
13.1181219718
 10
-1.6872780829
 20
13.0531819013
 10
-1.6994616435
 20
12.9884115134
 10
-1.7078022102
 20
12.9280812578
  0
LINE
  5
276
100
AcDbEntity
  8
RACCORDO
100
AcDbLine
 62
7
  6
CONTINUOUS
 10
1.2012523511
 20
15.2834786583
 11
-1.081263929
 21
13.9525626046
  0
LINE
  5
277
100
AcDbEntity
  8
RACCORDO
100
AcDbLine
 62
253
  6
CONTINUOUS
 10
1.2714772093
 20
15.2809759298
 11
-1.0112577154
 21
13.9499323863
  0
LINE
  5
278
100
AcDbEntity
  8
RACCORDO
100
AcDbLine
 62
253
  6
CONTINUOUS
 10
-1.4445216599
 20
14.1665643585
 11
0.9193195529
 21
15.457054758
  0
LINE
  5
279
100
AcDbEntity
  8
RACCORDO
100
AcDbLine
 62
253
  6
CONTINUOUS
 10
-1.3347718379
 20
13.9856636248
 11
1.0253048327
 21
15.27409885
  0
LINE
  5
27A
100
AcDbEntity
  8
DRAFT
100
AcDbLine
 62
7
  6
CONTINUOUS
 10
3.2173358544
 20
17.3319263076
 11
3.1120602923
 21
17.2751277266
  0
LINE
  5
27B
100
AcDbEntity
  8
DRAFT
100
AcDbLine
 62
7
  6
CONTINUOUS
 10
5.5154328933
 20
17.6551209746
 11
5.640397726
 21
17.7225423688
  0
LINE
  5
27C
100
AcDbEntity
  8
DRAFT
100
AcDbLine
 62
7
  6
CONTINUOUS
 10
2.1566756826
 20
15.7404941542
 11
3.1988219622
 21
16.2574063917
  0
LINE
  5
27D
100
AcDbEntity
  8
RACCORDO
100
AcDbLine
 62
253
  6
CONTINUOUS
 10
-22.3185285364
 20
-4.0752029283
 11
8.3040365833
 21
-19.3864854881
  0
LINE
  5
27E
100
AcDbEntity
  8
DRAFT
100
AcDbLine
 62
7
  6
CONTINUOUS
 10
3.08465618
 20
-26.4961998323
 11
3.1120602923
 21
-26.5411765788
  0
LINE
  5
27F
100
AcDbEntity
  8
SMUSSO
100
AcDbLine
 62
7
  6
CONTINUOUS
 10
2.5809397513
 20
-27.3399744954
 11
2.1566756826
 21
-26.6082272187
  0
LINE
  5
280
100
AcDbEntity
  8
DRAFT
100
AcDbLine
 62
7
  6
CONTINUOUS
 10
-10.3944696834
 20
-21.285203352
 11
-10.3944696834
 21
-21.1552995414
  0
LINE
  5
281
100
AcDbEntity
  8
DRAFT
100
AcDbLine
 62
7
  6
CONTINUOUS
 10
-10.3944696834
 20
25.6100722629
 11
-10.3944696834
 21
25.7399760735
  0
LINE
  5
282
100
AcDbEntity
  8
DRAFT
100
AcDbLine
 62
7
  6
CONTINUOUS
 10
-9.3728676292
 20
23.189896015
 11
-9.3728676292
 21
22.7916909342
  0
LINE
  5
283
100
AcDbEntity
  8
DRAFT
100
AcDbLine
 62
7
  6
CONTINUOUS
 10
-9.1570328164
 20
22.8262903199
 11
-9.1570328164
 21
23.5191106429
  0
LINE
  5
284
100
AcDbEntity
  8
SMUSSO
100
AcDbLine
 62
7
  6
CONTINUOUS
 10
-8.5206367133
 20
-22.2221198371
 11
-8.5206367133
 21
-21.7891862631
  0
LINE
  5
285
100
AcDbEntity
  8
SMUSSO
100
AcDbLine
 62
7
  6
CONTINUOUS
 10
-8.5206367133
 20
24.3701260144
 11
-8.5206367133
 21
24.8030595884
  0
LINE
  5
286
100
AcDbEntity
  8
RACCORDO
100
AcDbLine
 62
253
  6
CONTINUOUS
 10
-8.2855462566
 20
27.3936374084
 11
-8.2855462566
 21
27.1318151779
  0
LINE
  5
287
100
AcDbEntity
  8
RACCORDO
100
AcDbLine
 62
253
  6
CONTINUOUS
 10
-8.2855462566
 20
-20.811098614
 11
-8.2855462566
 21
-21.1525304598
  0
LINE
  5
288
100
AcDbEntity
  8
RACCORDO
100
AcDbLine
 62
7
  6
CONTINUOUS
 10
-8.2153812067
 20
27.4804697047
 11
-8.2153812067
 21
27.0967326529
  0
LINE
  5
289
100
AcDbEntity
  8
RACCORDO
100
AcDbLine
 62
7
  6
CONTINUOUS
 10
-8.2153812067
 20
-20.8461811389
 11
-8.2153812067
 21
-21.0656981635
  0
LINE
  5
28A
100
AcDbEntity
  8
DRAFT
100
AcDbLine
 62
7
  6
CONTINUOUS
 10
6.7528697603
 20
15.5641593546
 11
6.6438537245
 21
15.5092310105
  0
LINE
  5
28B
100
AcDbEntity
  8
RACCORDO
100
AcDbLine
 62
253
  6
CONTINUOUS
 10
11.8799324029
 20
17.0490758482
 11
11.0127385479
 21
16.6122234422
  0
LINE
  5
28C
100
AcDbEntity
  8
RACCORDO
100
AcDbLine
 62
253
  6
CONTINUOUS
 10
-2.3580695894
 20
8.3867088224
 11
-2.1228178
 21
8.5002988286
  0
LINE
  5
28D
100
AcDbEntity
  8
DRAFT
100
AcDbLine
 62
7
  6
CONTINUOUS
 10
6.6154759355
 20
-28.26160971
 11
6.6438537245
 21
-28.3070732949
  0
LINE
  5
28E
100
AcDbEntity
  8
SMUSSO
100
AcDbLine
 62
7
  6
CONTINUOUS
 10
3.601552722
 20
-26.7859227936
 11
3.6230860309
 21
-26.8230622579
  0
LWPOLYLINE
  5
28F
100
AcDbEntity
  8
RACCORDO
100
AcDbPolyline
 62
7
  6
CONTINUOUS
 90
11
 70
0
 10
1.9249767533
 20
-28.5122706894
 10
1.9423443659
 20
-28.550866833
 10
1.9625824415
 20
-28.5887184653
 10
1.9852120298
 20
-28.6248411217
 10
2.0101988707
 20
-28.6591782512
 10
2.0375765392
 20
-28.6916530504
 10
2.0666973441
 20
-28.7214730275
 10
2.0974434018
 20
-28.7485523158
 10
2.1298517903
 20
-28.7729073044
 10
2.1632864529
 20
-28.7940686572
 10
2.1879043577
 20
-28.8073148195
  0
LINE
  5
290
100
AcDbEntity
  8
SMUSSO
100
AcDbLine
 62
7
  6
CONTINUOUS
 10
-8.0963726446
 20
-21.4817030551
 11
-8.0963726446
 21
-20.90568542
  0
LINE
  5
291
100
AcDbEntity
  8
DRAFT
100
AcDbLine
 62
7
  6
CONTINUOUS
 10
-8.0963726446
 20
20.8670183178
 11
-8.0963726446
 21
21.9062488023
  0
LINE
  5
292
100
AcDbEntity
  8
SMUSSO
100
AcDbLine
 62
7
  6
CONTINUOUS
 10
-8.0963726446
 20
22.7722742061
 11
-8.0963726446
 21
23.6383787378
  0
LINE
  5
293
100
AcDbEntity
  8
RACCORDO
100
AcDbLine
 62
7
  6
CONTINUOUS
 10
-7.8122956726
 20
19.5996853922
 11
-7.8122956726
 21
19.6928991027
  0
LINE
  5
294
100
AcDbEntity
  8
RACCORDO
100
AcDbLine
 62
7
  6
CONTINUOUS
 10
1.9235483136
 20
20.7954050086
 11
1.9235837163
 21
20.7954791037
  0
LINE
  5
295
100
AcDbEntity
  8
RACCORDO
100
AcDbLine
 62
7
  6
CONTINUOUS
 10
-3.9504598248
 20
4.6862196539
 11
-3.9516945769
 21
4.6855689397
  0
LINE
  5
296
100
AcDbEntity
  8
RACCORDO
100
AcDbLine
 62
7
  6
CONTINUOUS
 10
-4.1972779472
 20
4.9801786014
 11
-4.1971537114
 21
4.9802373776
  0
LINE
  5
297
100
AcDbEntity
  8
DRAFT
100
AcDbLine
 62
7
  6
CONTINUOUS
 10
-2.9875902102
 20
5.5519978785
 11
-4.197883087
 21
4.9798924315
  0
LWPOLYLINE
  5
298
100
AcDbEntity
  8
RACCORDO
100
AcDbPolyline
 62
7
  6
CONTINUOUS
 90
3
 70
0
 10
1.9088102762
 20
-28.4681009317
 10
1.9105286472
 20
-28.4733397205
 10
1.9249767533
 20
-28.5122706894
  0
LINE
  5
299
100
AcDbEntity
  8
DRAFT
100
AcDbLine
 62
7
  6
CONTINUOUS
 10
-5.0911688245
 20
18.8385455714
 11
-5.0911688245
 21
18.4622989467
  0
LWPOLYLINE
  5
29A
100
AcDbEntity
  8
RACCORDO
100
AcDbPolyline
 62
7
  6
CONTINUOUS
 90
16
 70
0
 10
-4.8105413345
 20
-4.6037156474
 10
-4.8115760944
 20
-4.6848587633
 10
-4.8184991984
 20
-4.8262245464
 10
-4.8320247805
 20
-4.9641657614
 10
-4.8522443377
 20
-5.098010279
 10
-4.8791775349
 20
-5.2270670148
 10
-4.9127647094
 20
-5.3505386127
 10
-4.9529206236
 20
-5.4677785891
 10
-4.9995046752
 20
-5.5782101835
 10
-5.0522725415
 20
-5.6811382321
 10
-5.1109386337
 20
-5.7759938304
 10
-5.1752671791
 20
-5.8624681898
 10
-5.2450923976
 20
-5.9403264066
 10
-5.3200566
 20
-6.0091988692
 10
-5.400087625
 20
-6.0690559793
 10
-5.4662664104
 20
-6.1095678276
  0
LWPOLYLINE
  5
29B
100
AcDbEntity
  8
RACCORDO
100
AcDbPolyline
 62
7
  6
CONTINUOUS
 90
20
 70
0
 10
-2.1435213386
 20
8.2170787208
 10
-2.1605795218
 20
8.0148425291
 10
-2.1919665802
 20
7.7462256495
 10
-2.2328941812
 20
7.4839501475
 10
-2.2833155448
 20
7.2286451354
 10
-2.3431551641
 20
6.980975843
 10
-2.4123099743
 20
6.7416544129
 10
-2.4906522604
 20
6.5112826208
 10
-2.5780324275
 20
6.2904336528
 10
-2.6742615112
 20
6.0797399039
 10
-2.7791368068
 20
5.8797152818
 10
-2.8924380929
 20
5.6908346389
 10
-3.0139014531
 20
5.5136070592
 10
-3.143252841
 20
5.3484325238
 10
-3.2802279389
 20
5.1956608367
 10
-3.4245372078
 20
5.055621172
 10
-3.5758633429
 20
4.9285979175
 10
-3.7339372538
 20
4.8148074236
 10
-3.8985387628
 20
4.7143968555
 10
-3.9504271649
 20
4.6862375557
  0
LWPOLYLINE
  5
29C
100
AcDbEntity
  8
RACCORDO
100
AcDbPolyline
 62
7
  6
CONTINUOUS
 90
10
 70
0
 10
-1.7078016743
 20
12.9281039165
 10
-1.7602108331
 20
12.4586285063
 10
-1.8182630869
 20
11.9167128686
 10
-1.8735900398
 20
11.3757353866
 10
-1.9261891555
 20
10.8357205882
 10
-1.9760581706
 20
10.2966914121
 10
-2.0231949491
 20
9.7586703962
 10
-2.0675974228
 20
9.2216804002
 10
-2.1092635113
 20
8.6857456407
 10
-2.1435180973
 20
8.2170818901
  0
LINE
  5
29D
100
AcDbEntity
  8
DRAFT
100
AcDbLine
 62
7
  6
CONTINUOUS
 10
3.1120602923
 20
17.2751277266
 11
3.0089065985
 21
16.9990089012
  0
LINE
  5
29E
100
AcDbEntity
  8
RACCORDO
100
AcDbLine
 62
253
  6
CONTINUOUS
 10
9.691448125
 20
8.5985794661
 11
12.4383851448
 21
10.0737685867
  0
LINE
  5
29F
100
AcDbEntity
  8
RACCORDO
100
AcDbLine
 62
7
  6
CONTINUOUS
 10
-14.5477735072
 20
-3.8086981328
 11
-14.5468299461
 21
-3.8082003005
  0
LINE
  5
2A0
100
AcDbEntity
  8
RACCORDO
100
AcDbLine
 62
253
  6
CONTINUOUS
 10
15.4149278299
 20
10.9521106151
 11
14.5478217418
 21
10.5151170254
  0
LINE
  5
2A1
100
AcDbEntity
  8
RACCORDO
100
AcDbLine
 62
7
  6
CONTINUOUS
 10
-8.1668359718
 20
-0.7070107226
 11
-8.1672620279
 21
-0.7072006209
  0
LINE
  5
2A2
100
AcDbEntity
  8
RACCORDO
100
AcDbLine
 62
253
  6
CONTINUOUS
 10
-2.1621160927
 20
16.9977725808
 11
-2.1621160927
 21
17.3665440023
  0
LINE
  5
2A3
100
AcDbEntity
  8
RACCORDO
100
AcDbLine
 62
7
  6
CONTINUOUS
 10
-2.0779180328
 20
16.9556735508
 11
-2.0779180328
 21
17.3048495967
  0
LINE
  5
2A4
100
AcDbEntity
  8
RACCORDO
100
AcDbLine
 62
253
  6
CONTINUOUS
 10
10.0541289676
 20
7.9940683777
 11
12.7915751982
 21
9.4641606545
  0
LWPOLYLINE
  5
2A5
100
AcDbEntity
  8
RACCORDO
100
AcDbPolyline
 62
7
  6
CONTINUOUS
 90
40
 70
0
 10
-8.1668063556
 20
-0.7070040173
 10
-8.0975584897
 20
-0.679325337
 10
-8.0001727577
 20
-0.6502686108
 10
-7.8988806087
 20
-0.6308711752
 10
-7.7940013067
 20
-0.6210909114
 10
-7.6858999021
 20
-0.6208903021
 10
-7.5748449216
 20
-0.630187946
 10
-7.4614216535
 20
-0.648878258
 10
-7.3460785429
 20
-0.6768217753
 10
-7.2289038292
 20
-0.7139538924
 10
-7.110420328
 20
-0.7601254684
 10
-6.9911708834
 20
-0.8151197406
 10
-6.8711938397
 20
-0.8789323134
 10
-6.7509595045
 20
-0.9513901053
 10
-6.631004943
 20
-1.0322241069
 10
-6.5114054766
 20
-1.1214542805
 10
-6.3925092536
 20
-1.2189639595
 10
-6.274941335
 20
-1.324363311
 10
-6.1591586635
 20
-1.4373326815
 10
-6.0455971188
 20
-1.5575571023
 10
-5.9347393688
 20
-1.6846144248
 10
-5.8270772466
 20
-1.818003173
 10
-5.7230351436
 20
-1.9572680837
 10
-5.6230098698
 20
-2.1019235634
 10
-5.5274158104
 20
-2.2513976897
 10
-5.4366228223
 20
-2.4051495991
 10
-5.3509569153
 20
-2.5626333292
 10
-5.2707379259
 20
-2.723255009
 10
-5.1962642528
 20
-2.8864264777
 10
-5.1277910586
 20
-3.0515573771
 10
-5.0655531903
 20
-3.2180404749
 10
-5.0097597271
 20
-3.3852979546
 10
-4.9606001237
 20
-3.5526778577
 10
-4.9182512825
 20
-3.7194480466
 10
-4.8828282205
 20
-3.8850159413
 10
-4.8544115012
 20
-4.0487543072
 10
-4.8330712318
 20
-4.2098702032
 10
-4.8188116672
 20
-4.3677065698
 10
-4.8115663946
 20
-4.5217245345
 10
-4.8105416732
 20
-4.6036415889
  0
LINE
  5
2A6
100
AcDbEntity
  8
RACCORDO
100
AcDbLine
 62
7
  6
CONTINUOUS
 10
1.0253048327
 20
15.1808851396
 11
1.0253048327
 21
15.27409885
  0
LINE
  5
2A7
100
AcDbEntity
  8
SMUSSO
100
AcDbLine
 62
7
  6
CONTINUOUS
 10
2.1566756826
 20
18.5118545742
 11
2.1566756826
 21
17.6457500425
  0
LINE
  5
2A8
100
AcDbEntity
  8
DRAFT
100
AcDbLine
 62
7
  6
CONTINUOUS
 10
2.1566756826
 20
16.7797246387
 11
2.1566756826
 21
15.7404941542
  0
LINE
  5
2A9
100
AcDbEntity
  8
SMUSSO
100
AcDbLine
 62
7
  6
CONTINUOUS
 10
2.1566756826
 20
-26.0322095836
 11
2.1566756826
 21
-26.6082272187
  0
LINE
  5
2AA
100
AcDbEntity
  8
SMUSSO
100
AcDbLine
 62
7
  6
CONTINUOUS
 10
2.5809397513
 20
19.2522713561
 11
2.5809397513
 21
18.8193377821
  0
LINE
  5
2AB
100
AcDbEntity
  8
SMUSSO
100
AcDbLine
 62
7
  6
CONTINUOUS
 10
2.5809397513
 20
-27.3399744954
 11
2.5809397513
 21
-27.7729080694
  0
LINE
  5
2AC
100
AcDbEntity
  8
DRAFT
100
AcDbLine
 62
7
  6
CONTINUOUS
 10
3.0089065985
 20
16.9990089012
 11
3.0089065985
 21
16.6008038204
  0
LINE
  5
2AD
100
AcDbEntity
  8
SMUSSO
100
AcDbLine
 62
7
  6
CONTINUOUS
 10
3.1988219622
 20
18.9433302506
 11
3.1988219622
 21
18.16266228
  0
LINE
  5
2AE
100
AcDbEntity
  8
DRAFT
100
AcDbLine
 62
7
  6
CONTINUOUS
 10
6.6438537245
 20
15.5092310105
 11
6.5370349475
 21
15.2349447266
  0
LINE
  5
2AF
100
AcDbEntity
  8
RACCORDO
100
AcDbLine
 62
7
  6
CONTINUOUS
 10
-5.4665210758
 20
-6.109713714
 11
-5.4663275251
 21
-6.1096059799
  0
LINE
  5
2B0
100
AcDbEntity
  8
DRAFT
100
AcDbLine
 62
7
  6
CONTINUOUS
 10
15.4149278299
 20
6.5825141357
 11
15.4393810733
 21
6.5954232363
  0
LINE
  5
2B1
100
AcDbEntity
  8
RACCORDO
100
AcDbLine
 62
7
  6
CONTINUOUS
 10
0.9555356172
 20
-2.9875094293
 11
0.9541509475
 21
-2.9881634165
  0
LWPOLYLINE
  5
2B2
100
AcDbEntity
  8
RACCORDO
100
AcDbPolyline
 62
7
  6
CONTINUOUS
 90
45
 70
0
 10
0.9554731689
 20
-2.9875452612
 10
1.0899405778
 20
-2.92935447
 10
1.2661349705
 20
-2.8679930581
 10
1.4483452056
 20
-2.8206555923
 10
1.6361385278
 20
-2.7874271629
 10
1.8293612766
 20
-2.7683552207
 10
2.0276366393
 20
-2.7635526483
 10
2.2304290968
 20
-2.7730715178
 10
2.4373079946
 20
-2.7969531525
 10
2.647764787
 20
-2.8352133169
 10
2.861199918
 20
-2.8877810994
 10
3.0770176527
 20
-2.9545624879
 10
3.2946405759
 20
-3.0354233622
 10
3.5134463933
 20
-3.1301448306
 10
3.7327800542
 20
-3.2384680288
 10
3.9520134437
 20
-3.360085649
 10
4.170582859
 20
-3.4946605015
 10
4.3879597365
 20
-3.6418696482
 10
4.6034619681
 20
-3.8012306674
 10
4.8166462213
 20
-3.9723716136
 10
5.0273625518
 20
-4.1551971804
 10
5.2351911902
 20
-4.3494010856
 10
5.4394685257
 20
-4.554401262
 10
5.6396885505
 20
-4.7697398155
 10
5.8353559871
 20
-4.9949178509
 10
6.0259597721
 20
-5.2293630385
 10
6.2109937602
 20
-5.4724887979
 10
6.3899915924
 20
-5.7236924034
 10
6.5625141191
 20
-5.9823511915
 10
6.7281224986
 20
-6.247827237
 10
6.8864104124
 20
-6.5194617106
 10
7.0369937583
 20
-6.7965729404
 10
7.1794942989
 20
-7.0784710898
 10
7.3135712299
 20
-7.3644547338
 10
7.4389054908
 20
-7.6538013049
 10
7.5551825786
 20
-7.9457737916
 10
7.6621324005
 20
-8.2396392391
 10
7.7595120733
 20
-8.5346605523
 10
7.8470837419
 20
-8.8300830705
 10
7.9246585609
 20
-9.1251675655
 10
7.9920711704
 20
-9.4191583929
 10
8.0491619316
 20
-9.71126802
 10
8.0958254755
 20
-10.0007597844
 10
8.131989161
 20
-10.2869424944
 10
8.1520355974
 20
-10.4971977322
  0
LINE
  5
2B3
100
AcDbEntity
  8
RACCORDO
100
AcDbLine
 62
253
  6
CONTINUOUS
 10
-6.2669119806
 20
4.3534516619
 11
8.3040366099
 21
-2.9320421234
  0
LINE
  5
2B4
100
AcDbEntity
  8
RACCORDO
100
AcDbLine
 62
253
  6
CONTINUOUS
 10
-22.3185285343
 20
12.3792404486
 11
-7.7475793479
 21
5.0937853455
  0
LINE
  5
2B5
100
AcDbEntity
  8
SMUSSO
100
AcDbLine
 62
7
  6
CONTINUOUS
 10
3.6230860309
 20
-26.8230622579
 11
3.6230860309
 21
-27.2559958319
  0
LINE
  5
2B6
100
AcDbEntity
  8
DRAFT
100
AcDbLine
 62
7
  6
CONTINUOUS
 10
4.4547727215
 20
18.315354871
 11
4.4547727215
 21
18.1854510605
  0
LINE
  5
2B7
100
AcDbEntity
  8
DRAFT
100
AcDbLine
 62
7
  6
CONTINUOUS
 10
4.4547727215
 20
-28.5799207439
 11
4.4547727215
 21
-28.7098245545
  0
LINE
  5
2B8
100
AcDbEntity
  8
DRAFT
100
AcDbLine
 62
7
  6
CONTINUOUS
 10
5.5154328933
 20
-29.2401546404
 11
5.5154328933
 21
-29.1102508298
  0
LINE
  5
2B9
100
AcDbEntity
  8
DRAFT
100
AcDbLine
 62
7
  6
CONTINUOUS
 10
5.5154328933
 20
17.6551209746
 11
5.5154328933
 21
17.7850247851
  0
LINE
  5
2BA
100
AcDbEntity
  8
SMUSSO
100
AcDbLine
 62
7
  6
CONTINUOUS
 10
-8.5206367133
 20
24.3701260144
 11
-8.0963726446
 21
23.6383787378
  0
LWPOLYLINE
  5
2BB
100
AcDbEntity
  8
RACCORDO
100
AcDbPolyline
 62
7
  6
CONTINUOUS
 90
8
 70
0
 10
8.1520407911
 20
-10.4972112843
 10
8.1589452379
 20
-10.5854857753
 10
8.1644958501
 20
-10.6647041777
 10
8.1693747482
 20
-10.7450996829
 10
8.173447224
 20
-10.8266744381
 10
8.1765785598
 20
-10.9094089035
 10
8.1786345258
 20
-10.9933069793
 10
8.1795199487
 20
-11.0783698762
  0
LINE
  5
2BC
100
AcDbEntity
  8
DRAFT
100
AcDbLine
 62
7
  6
CONTINUOUS
 10
6.5370349475
 20
15.2349447266
 11
6.5370349475
 21
14.8367396459
  0
LINE
  5
2BD
100
AcDbEntity
  8
DRAFT
100
AcDbLine
 62
7
  6
CONTINUOUS
 10
6.7528697603
 20
14.8713390316
 11
6.7528697603
 21
15.5641593546
  0
LINE
  5
2BE
100
AcDbEntity
  8
SMUSSO
100
AcDbLine
 62
7
  6
CONTINUOUS
 10
7.3892658634
 20
-30.1770711254
 11
7.3892658634
 21
-29.7441375514
  0
LINE
  5
2BF
100
AcDbEntity
  8
SMUSSO
100
AcDbLine
 62
7
  6
CONTINUOUS
 10
7.3892658634
 20
16.415174726
 11
7.3892658634
 21
16.8481083001
  0
LINE
  5
2C0
100
AcDbEntity
  8
RACCORDO
100
AcDbLine
 62
253
  6
CONTINUOUS
 10
7.6243563201
 20
19.4386861201
 11
7.6243563201
 21
19.1768638896
  0
LINE
  5
2C1
100
AcDbEntity
  8
RACCORDO
100
AcDbLine
 62
253
  6
CONTINUOUS
 10
7.6243563201
 20
-28.7660499023
 11
7.6243563201
 21
-29.1074817481
  0
LINE
  5
2C2
100
AcDbEntity
  8
RACCORDO
100
AcDbLine
 62
7
  6
CONTINUOUS
 10
7.69452137
 20
19.5255184164
 11
7.69452137
 21
19.1417813646
  0
LINE
  5
2C3
100
AcDbEntity
  8
RACCORDO
100
AcDbLine
 62
7
  6
CONTINUOUS
 10
7.69452137
 20
-28.8011324273
 11
7.69452137
 21
-29.0206494518
  0
LINE
  5
2C4
100
AcDbEntity
  8
SMUSSO
100
AcDbLine
 62
7
  6
CONTINUOUS
 10
7.8135299321
 20
-29.4366543435
 11
7.8135299321
 21
-28.8606367083
  0
LINE
  5
2C5
100
AcDbEntity
  8
DRAFT
100
AcDbLine
 62
7
  6
CONTINUOUS
 10
7.8135299321
 20
12.9120670294
 11
7.8135299321
 21
13.951297514
  0
LINE
  5
2C6
100
AcDbEntity
  8
SMUSSO
100
AcDbLine
 62
7
  6
CONTINUOUS
 10
7.8135299321
 20
14.8173229178
 11
7.8135299321
 21
15.6834274494
  0
LWPOLYLINE
  5
2C7
100
AcDbEntity
  8
RACCORDO
100
AcDbPolyline
 62
7
  6
CONTINUOUS
 90
10
 70
0
 10
8.1795199487
 20
-11.0783698762
 10
8.1795315233
 20
-11.1101378683
 10
8.1788217981
 20
-11.1873551181
 10
8.1770684235
 20
-11.2648748071
 10
8.1742625286
 20
-11.3426705072
 10
8.1704337319
 20
-11.420705648
 10
8.1656315851
 20
-11.4989437071
 10
8.1599146592
 20
-11.5773363231
 10
8.1533815251
 20
-11.6558041435
 10
8.152227754
 20
-11.6688105371
  0
LWPOLYLINE
  5
2C8
100
AcDbEntity
  8
RACCORDO
100
AcDbPolyline
 62
7
  6
CONTINUOUS
 90
18
 70
0
 10
8.1522256794
 20
-11.6687796384
 10
8.1336714876
 20
-11.8458429211
 10
8.1009064632
 20
-12.0766448511
 10
8.0590562395
 20
-12.3005588138
 10
8.0081863406
 20
-12.5170733385
 10
7.9483930764
 20
-12.7256249057
 10
7.8798468426
 20
-12.9256112215
 10
7.8027225174
 20
-13.116519087
 10
7.7171946823
 20
-13.2978916914
 10
7.6235061383
 20
-13.46927622
 10
7.5219204031
 20
-13.6302563456
 10
7.4126587197
 20
-13.7805159955
 10
7.295928363
 20
-13.9198323878
 10
7.1720153609
 20
-14.0479063734
 10
7.0411302144
 20
-14.1645285858
 10
6.9033259507
 20
-14.2696542551
 10
6.7588436908
 20
-14.3630602033
 10
6.665728379
 20
-14.4151404035
  0
LINE
  5
2C9
100
AcDbEntity
  8
SMUSSO
100
AcDbLine
 62
7
  6
CONTINUOUS
 10
-13.174979685
 20
-18.3663818998
 11
-13.7532268941
 21
-18.6531967784
  0
LINE
  5
2CA
100
AcDbEntity
  8
SMUSSO
100
AcDbLine
 62
7
  6
CONTINUOUS
 10
-12.2868165458
 20
-18.8681109695
 11
-13.3289628254
 21
-19.385023207
  0
LINE
  5
2CB
100
AcDbEntity
  8
RACCORDO
100
AcDbLine
 62
253
  6
CONTINUOUS
 10
-10.5012457628
 20
17.2968618903
 11
-2.1165594425
 21
13.1045187298
  0
LINE
  5
2CC
100
AcDbEntity
  8
RACCORDO
100
AcDbLine
 62
253
  6
CONTINUOUS
 10
-1.6636452575
 20
12.8780616367
 11
9.020565118
 21
7.5359562695
  0
LINE
  5
2CD
100
AcDbEntity
  8
RACCORDO
100
AcDbLine
 62
253
  6
CONTINUOUS
 10
-21.6383703628
 20
22.8654240099
 11
-10.9541599479
 21
17.5233189822
  0
LINE
  5
2CE
100
AcDbEntity
  8
RACCORDO
100
AcDbLine
 62
7
  6
CONTINUOUS
 10
12.7915751982
 20
-28.1954328147
 11
12.7915751982
 21
9.4641606545
  0
LINE
  5
2CF
100
AcDbEntity
  8
RACCORDO
100
AcDbLine
 62
253
  6
CONTINUOUS
 10
14.1272921963
 20
-30.5840384368
 11
14.1272921963
 21
10.5170492785
  0
LINE
  5
2D0
100
AcDbEntity
  8
RACCORDO
100
AcDbLine
 62
253
  6
CONTINUOUS
 10
14.5478217418
 20
-30.5857658976
 11
14.5478217418
 21
10.5151170254
  0
LINE
  5
2D1
100
AcDbEntity
  8
SMUSSO
100
AcDbLine
 62
7
  6
CONTINUOUS
 10
-8.0963726446
 20
-21.4817030551
 11
-8.5206367133
 21
-21.7891862631
  0
LINE
  5
2D2
100
AcDbEntity
  8
DRAFT
100
AcDbLine
 62
7
  6
CONTINUOUS
 10
-12.2868165458
 20
-19.3010445436
 11
-13.3289628254
 21
-19.817956781
  0
LINE
  5
2D3
100
AcDbEntity
  8
DRAFT
100
AcDbLine
 62
7
  6
CONTINUOUS
 10
-10.3944696834
 20
-21.1552995414
 11
-8.9902003175
 21
-20.4587715835
  0
LINE
  5
2D4
100
AcDbEntity
  8
DRAFT
100
AcDbLine
 62
7
  6
CONTINUOUS
 10
-10.3944696834
 20
-21.285203352
 11
-8.8597757703
 21
-20.5239838572
  0
LINE
  5
2D5
100
AcDbEntity
  8
RACCORDO
100
AcDbLine
 62
7
  6
CONTINUOUS
 10
-8.6644851828
 20
-20.6216291509
 11
-9.1570328164
 21
-20.8659364082
  0
LINE
  5
2D6
100
AcDbEntity
  8
RACCORDO
100
AcDbLine
 62
7
  6
CONTINUOUS
 10
-10.0937140863
 20
-19.9382893895
 11
-10.5712463787
 21
-20.1588296271
  0
LINE
  5
2D7
100
AcDbEntity
  8
DRAFT
100
AcDbLine
 62
7
  6
CONTINUOUS
 10
-11.4551298552
 20
-20.6249694556
 11
-10.0334820711
 21
-19.9684053971
  0
LINE
  5
2D8
100
AcDbEntity
  8
DRAFT
100
AcDbLine
 62
7
  6
CONTINUOUS
 10
-9.2660488522
 20
-20.3521220066
 11
-9.2335331391
 21
-20.3371051727
  0
LINE
  5
2D9
100
AcDbEntity
  8
DRAFT
100
AcDbLine
 62
7
  6
CONTINUOUS
 10
6.5370349475
 20
14.8367396459
 11
6.7528697603
 21
14.8713390316
  0
LINE
  5
2DA
100
AcDbEntity
  8
RACCORDO
100
AcDbLine
 62
253
  6
CONTINUOUS
 10
-20.9848280056
 20
23.9367175314
 11
-10.2821221652
 21
18.5853646112
  0
LINE
  5
2DB
100
AcDbEntity
  8
RACCORDO
100
AcDbLine
 62
253
  6
CONTINUOUS
 10
-9.8488582207
 20
18.3687326389
 11
-1.4445216599
 21
14.1665643585
  0
LINE
  5
2DC
100
AcDbEntity
  8
RACCORDO
100
AcDbLine
 62
253
  6
CONTINUOUS
 10
-1.0112577154
 20
13.9499323863
 11
9.691448125
 21
8.5985794661
  0
LINE
  5
2DD
100
AcDbEntity
  8
RACCORDO
100
AcDbLine
 62
7
  6
CONTINUOUS
 10
1.2714772093
 20
15.2809759298
 11
-7.9182809524
 21
19.8758550106
  0
LINE
  5
2DE
100
AcDbEntity
  8
RACCORDO
100
AcDbLine
 62
7
  6
CONTINUOUS
 10
-3.3663352488
 20
17.7587347976
 11
-3.2804684944
 21
17.7158014204
  0
LINE
  5
2DF
100
AcDbEntity
  8
RACCORDO
100
AcDbLine
 62
7
  6
CONTINUOUS
 10
-18.3780821068
 20
25.4820022125
 11
-5.0911688245
 21
18.8385455714
  0
LINE
  5
2E0
100
AcDbEntity
  8
RACCORDO
100
AcDbLine
 62
7
  6
CONTINUOUS
 10
-0.8485281374
 20
16.7172252279
 11
12.4383851448
 21
10.0737685867
  0
LINE
  5
2E1
100
AcDbEntity
  8
SMUSSO
100
AcDbLine
 62
7
  6
CONTINUOUS
 10
7.3892658634
 20
16.415174726
 11
7.8135299321
 21
15.6834274494
  0
LINE
  5
2E2
100
AcDbEntity
  8
RACCORDO
100
AcDbLine
 62
7
  6
CONTINUOUS
 10
15.4149278299
 20
10.9521106151
 11
15.4149278299
 21
-30.1854150633
  0
LINE
  5
2E3
100
AcDbEntity
  8
RACCORDO
100
AcDbLine
 62
253
  6
CONTINUOUS
 10
-8.2855462566
 20
-21.1525304598
 11
-8.4290247912
 21
-21.2299404208
  0
LINE
  5
2E4
100
AcDbEntity
  8
RACCORDO
100
AcDbLine
 62
7
  6
CONTINUOUS
 10
6.6656547536
 20
-14.4151812777
 11
6.6663790581
 21
-14.4147990785
  0
LINE
  5
2E5
100
AcDbEntity
  8
DRAFT
100
AcDbLine
 62
7
  6
CONTINUOUS
 10
-13.7532268941
 20
23.6954454425
 11
-8.0963726446
 21
20.8670183178
  0
LINE
  5
2E6
100
AcDbEntity
  8
DRAFT
100
AcDbLine
 62
7
  6
CONTINUOUS
 10
2.1566756826
 20
15.7404941542
 11
7.8135299321
 21
12.9120670294
  0
LINE
  5
2E7
100
AcDbEntity
  8
DRAFT
100
AcDbLine
 62
7
  6
CONTINUOUS
 10
7.8135299321
 20
13.951297514
 11
2.1566756826
 21
16.7797246387
  0
LINE
  5
2E8
100
AcDbEntity
  8
DRAFT
100
AcDbLine
 62
7
  6
CONTINUOUS
 10
-8.0963726446
 20
21.9062488023
 11
-13.7532268941
 21
24.7346759271
  0
LINE
  5
2E9
100
AcDbEntity
  8
DRAFT
100
AcDbLine
 62
7
  6
CONTINUOUS
 10
3.0089065985
 20
16.6008038204
 11
6.5370349475
 21
14.8367396459
  0
LINE
  5
2EA
100
AcDbEntity
  8
DRAFT
100
AcDbLine
 62
7
  6
CONTINUOUS
 10
-9.3728676292
 20
22.7916909342
 11
-12.9009959782
 21
24.5557551088
  0
LINE
  5
2EB
100
AcDbEntity
  8
DRAFT
100
AcDbLine
 62
7
  6
CONTINUOUS
 10
3.0089065985
 20
16.9990089012
 11
6.5370349475
 21
15.2349447266
  0
LINE
  5
2EC
100
AcDbEntity
  8
DRAFT
100
AcDbLine
 62
7
  6
CONTINUOUS
 10
-9.3728676292
 20
23.189896015
 11
-12.9009959782
 21
24.9539601895
  0
LINE
  5
2ED
100
AcDbEntity
  8
DRAFT
100
AcDbLine
 62
7
  6
CONTINUOUS
 10
7.8135299321
 20
14.8173229178
 11
6.7528697603
 21
15.3476530037
  0
LINE
  5
2EE
100
AcDbEntity
  8
DRAFT
100
AcDbLine
 62
7
  6
CONTINUOUS
 10
3.0783562621
 20
17.1849097528
 11
2.1566756826
 21
17.6457500425
  0
LINE
  5
2EF
100
AcDbEntity
  8
DRAFT
100
AcDbLine
 62
7
  6
CONTINUOUS
 10
-8.0963726446
 20
22.7722742061
 11
-9.1570328164
 21
23.302604292
  0
LINE
  5
2F0
100
AcDbEntity
  8
DRAFT
100
AcDbLine
 62
7
  6
CONTINUOUS
 10
-12.8315463146
 20
25.1398610411
 11
-13.7532268941
 21
25.6007013309
  0
LINE
  5
2F1
100
AcDbEntity
  8
DRAFT
100
AcDbLine
 62
7
  6
CONTINUOUS
 10
3.1120602923
 20
17.2751277266
 11
6.6438537245
 21
15.5092310105
  0
LINE
  5
2F2
100
AcDbEntity
  8
DRAFT
100
AcDbLine
 62
7
  6
CONTINUOUS
 10
-9.2660488522
 20
23.4641822989
 11
-12.7978422844
 21
25.230079015
  0
LINE
  5
2F3
100
AcDbEntity
  8
DRAFT
100
AcDbLine
 62
7
  6
CONTINUOUS
 10
3.2173358544
 20
17.3319263076
 11
6.7528697603
 21
15.5641593546
  0
LINE
  5
2F4
100
AcDbEntity
  8
DRAFT
100
AcDbLine
 62
7
  6
CONTINUOUS
 10
-9.1570328164
 20
23.5191106429
 11
-12.6925667223
 21
25.2868775959
  0
LINE
  5
2F5
100
AcDbEntity
  8
RACCORDO
100
AcDbLine
 62
7
  6
CONTINUOUS
 10
-7.6227545924
 20
-23.7374283996
 11
-6.760418837
 21
-23.333947995
  0
LINE
  5
2F6
100
AcDbEntity
  8
RACCORDO
100
AcDbLine
 62
253
  6
CONTINUOUS
 10
-2.9776054443
 20
17.8639226228
 11
-3.3663352488
 21
17.7587347976
  0
LINE
  5
2F7
100
AcDbEntity
  8
RACCORDO
100
AcDbLine
 62
7
  6
CONTINUOUS
 10
-3.0379200867
 20
17.8940799443
 11
-3.4772338641
 21
17.7752044161
  0
LINE
  5
2F8
100
AcDbEntity
  8
DRAFT
100
AcDbLine
 62
7
  6
CONTINUOUS
 10
-12.7110806145
 20
26.1176135683
 11
-8.2367127674
 21
23.8804296448
  0
LINE
  5
2F9
100
AcDbEntity
  8
DRAFT
100
AcDbLine
 62
7
  6
CONTINUOUS
 10
3.1988219622
 20
18.16266228
 11
7.6731898093
 21
15.9254783565
  0
LINE
  5
2FA
100
AcDbEntity
  8
DRAFT
100
AcDbLine
 62
7
  6
CONTINUOUS
 10
-11.4551298552
 20
26.1404023488
 11
-10.3944696834
 21
25.6100722629
  0
LINE
  5
2FB
100
AcDbEntity
  8
DRAFT
100
AcDbLine
 62
7
  6
CONTINUOUS
 10
4.4547727215
 20
18.1854510605
 11
5.5154328933
 21
17.6551209746
  0
LINE
  5
2FC
100
AcDbEntity
  8
DRAFT
100
AcDbLine
 62
7
  6
CONTINUOUS
 10
7.3892658634
 20
16.8481083001
 11
5.5154328933
 21
17.7850247851
  0
LINE
  5
2FD
100
AcDbEntity
  8
DRAFT
100
AcDbLine
 62
7
  6
CONTINUOUS
 10
4.4547727215
 20
18.315354871
 11
2.5809397513
 21
19.2522713561
  0
LINE
  5
2FE
100
AcDbEntity
  8
DRAFT
100
AcDbLine
 62
7
  6
CONTINUOUS
 10
-8.5206367133
 20
24.8030595884
 11
-10.3944696834
 21
25.7399760735
  0
LINE
  5
2FF
100
AcDbEntity
  8
DRAFT
100
AcDbLine
 62
7
  6
CONTINUOUS
 10
-11.4551298552
 20
26.2703061594
 11
-13.3289628254
 21
27.2072226444
  0
LINE
  5
300
100
AcDbEntity
  8
RACCORDO
100
AcDbLine
 62
253
  6
CONTINUOUS
 10
10.804396495
 20
16.2481965976
 11
2.1100073626
 21
20.5953911638
  0
LINE
  5
301
100
AcDbEntity
  8
RACCORDO
100
AcDbLine
 62
253
  6
CONTINUOUS
 10
-8.0497043245
 20
25.6752470074
 11
-16.7440934569
 21
30.0224415736
  0
LINE
  5
302
100
AcDbEntity
  8
RACCORDO
100
AcDbLine
 62
253
  6
CONTINUOUS
 10
11.0127385479
 20
16.6122234422
 11
2.3184371824
 21
20.9593741249
  0
LINE
  5
303
100
AcDbEntity
  8
RACCORDO
100
AcDbLine
 62
253
  6
CONTINUOUS
 10
-7.8412745047
 20
26.0392299685
 11
-16.5355841918
 21
30.3863848121
  0
LINE
  5
304
100
AcDbEntity
  8
RACCORDO
100
AcDbLine
 62
253
  6
CONTINUOUS
 10
7.5563271825
 20
19.7491240073
 11
7.5562952796
 21
19.7491399523
  0
LINE
  5
305
100
AcDbEntity
  8
RACCORDO
100
AcDbLine
 62
253
  6
CONTINUOUS
 10
-8.3535753942
 20
27.7040752956
 11
-8.3536072971
 21
27.7040912406
  0
LINE
  5
306
100
AcDbEntity
  8
RACCORDO
100
AcDbLine
 62
7
  6
CONTINUOUS
 10
-15.6983090213
 20
30.8381965602
 11
-6.9795968251
 21
26.4788404622
  0
LINE
  5
307
100
AcDbEntity
  8
RACCORDO
100
AcDbLine
 62
7
  6
CONTINUOUS
 10
3.1612202067
 20
21.4084319462
 11
11.8799324029
 21
17.0490758482
  0
LINE
  5
308
100
AcDbEntity
  8
RACCORDO
100
AcDbLine
 62
253
  6
CONTINUOUS
 10
-9.4920458567
 20
28.2133605844
 11
-8.462296028
 21
27.6984856701
  0
LINE
  5
309
100
AcDbEntity
  8
RACCORDO
100
AcDbLine
 62
253
  6
CONTINUOUS
 10
6.41785672
 20
20.2584092961
 11
7.4476065487
 21
19.7435343817
  0
LINE
  5
30A
100
AcDbEntity
  8
RACCORDO
100
AcDbLine
 62
7
  6
CONTINUOUS
 10
-9.3833276366
 20
28.2189514168
 11
-8.3535778078
 21
27.7040765025
  0
LINE
  5
30B
100
AcDbEntity
  8
RACCORDO
100
AcDbLine
 62
7
  6
CONTINUOUS
 10
6.5265749401
 20
20.2640001285
 11
7.5563247689
 21
19.7491252141
  0
LINE
  5
30C
100
AcDbEntity
  8
SMUSSO
100
AcDbLine
 62
7
  6
CONTINUOUS
 10
2.7349228917
 20
-26.3213331882
 11
2.1566756826
 21
-26.6081480668
  0
LINE
  5
30D
100
AcDbEntity
  8
SMUSSO
100
AcDbLine
 62
7
  6
CONTINUOUS
 10
3.6230860309
 20
-26.8230622579
 11
2.5809397513
 21
-27.3399744954
  0
LINE
  5
30E
100
AcDbEntity
  8
DRAFT
100
AcDbLine
 62
7
  6
CONTINUOUS
 10
3.6230860309
 20
-27.2559958319
 11
2.5809397513
 21
-27.7729080694
  0
LINE
  5
30F
100
AcDbEntity
  8
DRAFT
100
AcDbLine
 62
7
  6
CONTINUOUS
 10
-9.3728676292
 20
22.7916909342
 11
-9.1570328164
 21
22.8262903199
  0
LINE
  5
310
100
AcDbEntity
  8
SMUSSO
100
AcDbLine
 62
7
  6
CONTINUOUS
 10
7.8135299321
 20
-29.4366543435
 11
7.3892658634
 21
-29.7441375514
  0
LINE
  5
311
100
AcDbEntity
  8
RACCORDO
100
AcDbLine
 62
7
  6
CONTINUOUS
 10
7.2454173939
 20
-28.5765804392
 11
6.7528697603
 21
-28.8208876966
  0
LINE
  5
312
100
AcDbEntity
  8
DRAFT
100
AcDbLine
 62
7
  6
CONTINUOUS
 10
5.5154328933
 20
-29.1102508298
 11
6.9446493248
 21
-28.4261964047
  0
LINE
  5
313
100
AcDbEntity
  8
RACCORDO
100
AcDbLine
 62
7
  6
CONTINUOUS
 10
5.5154328933
 20
-29.2401546404
 11
7.0773908846
 21
-28.4925671846
  0
LINE
  5
314
100
AcDbEntity
  8
RACCORDO
100
AcDbLine
 62
7
  6
CONTINUOUS
 10
5.8161884904
 20
-27.8932406779
 11
5.338656198
 21
-28.1137809154
  0
LINE
  5
315
100
AcDbEntity
  8
DRAFT
100
AcDbLine
 62
7
  6
CONTINUOUS
 10
4.4547727215
 20
-28.5799207439
 11
5.8764205056
 21
-27.9233566854
  0
LINE
  5
316
100
AcDbEntity
  8
DRAFT
100
AcDbLine
 62
7
  6
CONTINUOUS
 10
6.6438537245
 20
-28.3070732949
 11
6.6763694376
 21
-28.2920564611
  0
LINE
  5
317
100
AcDbEntity
  8
RACCORDO
100
AcDbLine
 62
253
  6
CONTINUOUS
 10
7.6243563201
 20
-29.1074817481
 11
7.4808777855
 21
-29.1848917092
  0
LINE
  5
318
100
AcDbEntity
  8
DRAFT
100
AcDbLine
 62
7
  6
CONTINUOUS
 10
15.4149278299
 20
-25.4604258043
 11
15.4393810733
 21
-25.4475167038
  0
LINE
  5
319
100
AcDbEntity
  8
RACCORDO
100
AcDbLine
 62
253
  6
CONTINUOUS
 10
12.7915751982
 20
-28.1954328147
 11
10.0541289676
 21
-29.323080014
  0
LINE
  5
31A
100
AcDbEntity
  8
RACCORDO
100
AcDbLine
 62
7
  6
CONTINUOUS
 10
12.6490567511
 20
-28.471780039
 11
9.9003935039
 21
-29.6040479089
  0
LINE
  5
31B
100
AcDbEntity
  8
RACCORDO
100
AcDbLine
 62
253
  6
CONTINUOUS
 10
15.4149278299
 20
-30.1854150633
 11
14.5478217418
 21
-30.5857658976
  0
LINE
  5
31C
100
AcDbEntity
  8
RACCORDO
100
AcDbLine
 62
7
  6
CONTINUOUS
 10
14.0631884582
 20
-32.9147341734
 11
13.1945698376
 21
-33.3158910374
  0
ARC
  5
31D
100
AcDbEntity
  8
RACCORDO
100
AcDbCircle
 62
253
  6
CONTINUOUS
 10
8.8202720628
 20
-1.6064127373
 40
25.8403549027
100
AcDbArc
 50
236.3850710485
 51
236.6452603382
  0
ARC
  5
31E
100
AcDbEntity
  8
RACCORDO
100
AcDbCircle
 62
253
  6
CONTINUOUS
 10
0.1005770066
 20
-11.2446606606
 40
8.1655563459
100
AcDbArc
 50
4.6801312599
 51
5.3037937235
  0
ARC
  5
31F
100
AcDbEntity
  8
RACCORDO
100
AcDbCircle
 62
253
  6
CONTINUOUS
 10
-2.8953671443
 20
-30.0581879049
 40
5.1258868054
100
AcDbArc
 50
17.9093939971
 51
18.3192349341
  0
ARC
  5
320
100
AcDbEntity
  8
RACCORDO
100
AcDbCircle
 62
253
  6
CONTINUOUS
 10
-8.9821179218
 20
-4.7550740422
 40
4.2613601715
100
AcDbArc
 50
7.1929574391
 51
7.6186402105
  0
ARC
  5
321
100
AcDbEntity
  8
RACCORDO
100
AcDbCircle
 62
253
  6
CONTINUOUS
 10
12.4518777173
 20
-29.6980088567
 40
3.6832706917
100
AcDbArc
 50
243.4302095854
 51
246.1229280129
  0
ARC
  5
322
100
AcDbEntity
  8
RACCORDO
100
AcDbCircle
 62
7
  6
CONTINUOUS
 10
-7.0140383031
 20
-25.6380078791
 40
2.8443824727
100
AcDbArc
 50
56.3791589009
 51
58.7153833799
  0
ARC
  5
323
100
AcDbEntity
  8
RACCORDO
100
AcDbCircle
 62
7
  6
CONTINUOUS
 10
-6.9541250547
 20
-25.5411343518
 40
2.730482338
100
AcDbArc
 50
58.7341918881
 51
58.9379166755
  0
ARC
  5
324
100
AcDbEntity
  8
0
100
AcDbCircle
 62
7
  6
CONTINUOUS
 10
-7.1920807267
 20
-1.6381056404
 40
1.2524793035
100
AcDbArc
 50
135.6264734604
 51
136.1551313734
  0
ARC
  5
325
100
AcDbEntity
  8
RACCORDO
100
AcDbCircle
 62
253
  6
CONTINUOUS
 10
15.2670004194
 20
-25.1211625196
 40
0.3690820477
100
AcDbArc
 50
297.8430677271
 51
302.8948795953
  0
ARC
  5
326
100
AcDbEntity
  8
RACCORDO
100
AcDbCircle
 62
253
  6
CONTINUOUS
 10
-21.2261008748
 20
-13.9319829013
 40
0.3656751008
100
AcDbArc
 50
241.5313807092
 51
243.429889985
  0
ARC
  5
327
100
AcDbEntity
  8
RACCORDO
100
AcDbCircle
 62
7
  6
CONTINUOUS
 10
7.4449181002
 20
-29.0206703335
 40
0.2496035871
100
AcDbArc
 50
301.8796851275
 51
0.0208738395
  0
ARC
  5
328
100
AcDbEntity
  8
RACCORDO
100
AcDbCircle
 62
7
  6
CONTINUOUS
 10
-8.4649844765
 20
-21.0657190452
 40
0.2496035871
100
AcDbArc
 50
301.8796851275
 51
0.0208738395
  0
ARC
  5
329
100
AcDbEntity
  8
RACCORDO
100
AcDbCircle
 62
253
  6
CONTINUOUS
 10
7.6314124267
 20
-29.0206475437
 40
0.0630979714
100
AcDbArc
 50
354.2794988066
 51
359.9956742182
  0
ARC
  5
32A
100
AcDbEntity
  8
RACCORDO
100
AcDbCircle
 62
253
  6
CONTINUOUS
 10
-8.27849015
 20
-21.0656962553
 40
0.0630979714
100
AcDbArc
 50
354.2794988067
 51
359.9956742182
  0
ARC
  5
32B
100
AcDbEntity
  8
RACCORDO
100
AcDbCircle
 62
253
  6
CONTINUOUS
 10
100.9012664319
 20
4.6162389577
 40
112.1218886804
100
AcDbArc
 50
173.5061384679
 51
175.9001390515
  0
ARC
  5
32C
100
AcDbEntity
  8
RACCORDO
100
AcDbCircle
 62
253
  6
CONTINUOUS
 10
109.7388668016
 20
0.1974387199
 40
112.1218885439
100
AcDbArc
 50
173.5061384681
 51
175.9001390532
  0
ARC
  5
32D
100
AcDbEntity
  8
RACCORDO
100
AcDbCircle
 62
253
  6
CONTINUOUS
 10
95.0627838299
 20
4.9790724852
 40
106.7565009176
100
AcDbArc
 50
173.2519643852
 51
175.7888108017
  0
ARC
  5
32E
100
AcDbEntity
  8
RACCORDO
100
AcDbCircle
 62
253
  6
CONTINUOUS
 10
103.9003843048
 20
0.5602722354
 40
106.756500887
100
AcDbArc
 50
173.2519643847
 51
175.788810802
  0
ARC
  5
32F
100
AcDbEntity
  8
RACCORDO
100
AcDbCircle
 62
253
  6
CONTINUOUS
 10
103.9293582063
 20
0.5603474279
 40
106.5751811638
100
AcDbArc
 50
173.2517621898
 51
175.7886865912
  0
ARC
  5
330
100
AcDbEntity
  8
RACCORDO
100
AcDbCircle
 62
253
  6
CONTINUOUS
 10
95.088953612
 20
4.9794324877
 40
106.5723630346
100
AcDbArc
 50
173.2517371013
 51
175.7886604361
  0
ARC
  5
331
100
AcDbEntity
  8
DRAFT
100
AcDbCircle
 62
7
  6
CONTINUOUS
 10
-7.1790357819
 20
10.705090788
 40
8.3478602088
100
AcDbArc
 50
44.1584231723
 51
44.5344519967
  0
ARC
  5
332
100
AcDbEntity
  8
RACCORDO
100
AcDbCircle
 62
253
  6
CONTINUOUS
 10
-0.3006642342
 20
12.7198934339
 40
1.3721693918
100
AcDbArc
 50
168.992838995
 51
171.5576382436
  0
ARC
  5
333
100
AcDbEntity
  8
RACCORDO
100
AcDbCircle
 62
253
  6
CONTINUOUS
 10
-9.149536453
 20
17.1401722042
 40
1.3607930939
100
AcDbArc
 50
169.8197275567
 51
171.5867641407
  0
ARC
  5
334
100
AcDbEntity
  8
RACCORDO
100
AcDbCircle
 62
253
  6
CONTINUOUS
 10
-0.371837447
 20
12.730554741
 40
1.3002021779
100
AcDbArc
 50
171.5618919507
 51
173.4858147001
  0
ARC
  5
335
100
AcDbEntity
  8
RACCORDO
100
AcDbCircle
 62
253
  6
CONTINUOUS
 10
-9.2138631087
 20
17.1496449656
 40
1.2957727119
100
AcDbArc
 50
171.5849551061
 51
173.4763551884
  0
ARC
  5
336
100
AcDbEntity
  8
RACCORDO
100
AcDbCircle
 62
253
  6
CONTINUOUS
 10
-9.3188753502
 20
17.4758558602
 40
1.0386273112
100
AcDbArc
 50
124.8369835538
 51
129.1529237718
  0
ARC
  5
337
100
AcDbEntity
  8
RACCORDO
100
AcDbCircle
 62
253
  6
CONTINUOUS
 10
-0.5604560487
 20
13.1734751216
 40
0.897835189
100
AcDbArc
 50
120.1389304529
 51
123.7233403081
  0
ARC
  5
338
100
AcDbEntity
  8
RACCORDO
100
AcDbCircle
 62
253
  6
CONTINUOUS
 10
15.2670004194
 20
6.9217774204
 40
0.3690820477
100
AcDbArc
 50
297.8430677272
 51
302.8948795953
  0
ARC
  5
339
100
AcDbEntity
  8
RACCORDO
100
AcDbCircle
 62
7
  6
CONTINUOUS
 10
-8.4653761947
 20
27.4804733355
 40
0.2499949881
100
AcDbArc
 50
359.9991678709
 51
63.4431553984
  0
ARC
  5
33A
100
AcDbEntity
  8
RACCORDO
100
AcDbCircle
 62
7
  6
CONTINUOUS
 10
7.444526382
 20
19.5255220472
 40
0.2499949881
100
AcDbArc
 50
359.9991678709
 51
63.4431553984
  0
ARC
  5
33B
100
AcDbEntity
  8
RACCORDO
100
AcDbCircle
 62
7
  6
CONTINUOUS
 10
-9.4951292263
 20
27.9954746697
 40
0.2498698508
100
AcDbArc
 50
63.4508113349
 51
109.3071002722
  0
ARC
  5
33C
100
AcDbEntity
  8
RACCORDO
100
AcDbCircle
 62
7
  6
CONTINUOUS
 10
6.4147733504
 20
20.0405233814
 40
0.2498698508
100
AcDbArc
 50
63.4508113349
 51
109.3071002722
  0
ARC
  5
33D
100
AcDbEntity
  8
RACCORDO
100
AcDbCircle
 62
7
  6
CONTINUOUS
 10
-9.4955149671
 20
27.9960709152
 40
0.2491796562
100
AcDbArc
 50
109.2687215482
 51
114.7789325735
  0
ARC
  5
33E
100
AcDbEntity
  8
RACCORDO
100
AcDbCircle
 62
7
  6
CONTINUOUS
 10
6.4143876096
 20
20.0411196268
 40
0.2491796562
100
AcDbArc
 50
109.2687215482
 51
114.7789325735
  0
ARC
  5
33F
100
AcDbEntity
  8
RACCORDO
100
AcDbCircle
 62
253
  6
CONTINUOUS
 10
6.48464804
 20
20.1802792066
 40
0.0936284896
100
AcDbArc
 50
63.3990893828
 51
68.4471909085
  0
ARC
  5
340
100
AcDbEntity
  8
RACCORDO
100
AcDbCircle
 62
253
  6
CONTINUOUS
 10
-9.4252545367
 20
28.135230495
 40
0.0936284896
100
AcDbArc
 50
63.399089383
 51
68.4471909084
  0
ARC
  5
341
100
AcDbEntity
  8
RACCORDO
100
AcDbCircle
 62
253
  6
CONTINUOUS
 10
-9.5609806726
 20
28.1380739939
 40
0.0928095694
100
AcDbArc
 50
110.6858458121
 51
114.8268987464
  0
ARC
  5
342
100
AcDbEntity
  8
RACCORDO
100
AcDbCircle
 62
253
  6
CONTINUOUS
 10
6.3489219041
 20
20.1831227055
 40
0.0928095694
100
AcDbArc
 50
110.6858458122
 51
114.8268987464
  0
ARC
  5
343
100
AcDbEntity
  8
RACCORDO
100
AcDbCircle
 62
253
  6
CONTINUOUS
 10
530.4333157767
 20
-11.2028350828
 40
522.1947818386
100
AcDbArc
 50
179.0924816536
 51
179.9314873054
  0
ARC
  5
344
100
AcDbEntity
  8
RACCORDO
100
AcDbCircle
 62
253
  6
CONTINUOUS
 10
523.2444156123
 20
-11.1638629294
 40
514.3083888841
100
AcDbArc
 50
179.0843336881
 51
180.9156663119
  0
ARC
  5
345
100
AcDbEntity
  8
RACCORDO
100
AcDbCircle
 62
253
  6
CONTINUOUS
 10
517.8517762044
 20
-11.2183918822
 40
509.6132030217
100
AcDbArc
 50
180.0656069339
 51
180.9183775618
  0
ARC
  5
346
100
AcDbEntity
  8
RACCORDO
100
AcDbCircle
 62
253
  6
CONTINUOUS
 10
530.1751863945
 20
4.0899168383
 40
552.5558957443
100
AcDbArc
 50
179.1404289087
 51
179.9335025295
  0
ARC
  5
347
100
AcDbEntity
  8
RACCORDO
100
AcDbCircle
 62
253
  6
CONTINUOUS
 10
516.2065512597
 20
4.1060483176
 40
538.5872208418
100
AcDbArc
 50
180.0636538796
 51
180.870368211
  0
SPLINE
  5
348
100
AcDbEntity
  8
RACCORDO
100
AcDbSpline
 62
253
  6
CONTINUOUS
 70
0
 71
3
 72
11
 73
7
 74
5
 42
0.0000001
 43
0.0000001
 44
0.0000000001
 12
0.1918570331
 22
-0.0963297425
 32
0.0
 13
0.2011876191
 23
0.074913833
 33
0.0
 40
0.0
 40
0.0
 40
0.0
 40
0.0
 40
0.2372762761
 40
0.504043033
 40
0.7686364101
 40
1.0
 40
1.0
 40
1.0
 40
1.0
 10
-2.5678906422
 20
8.3997180559
 30
0.0
 10
-2.5527162681
 20
8.392099135
 30
0.0
 10
-2.5181628489
 20
8.3805752853
 30
0.0
 10
-2.4635200347
 20
8.3725462928
 30
0.0
 10
-2.4087332049
 20
8.3737163094
 30
0.0
 10
-2.3735854193
 20
8.380931378
 30
0.0
 10
-2.3580695894
 20
8.3867088224
 30
0.0
 11
-2.5678906422
 21
8.3997180559
 31
0.0
 11
-2.5199010012
 21
8.3826364688
 31
0.0
 11
-2.4632664316
 21
8.3741280268
 31
0.0
 11
-2.406482073
 21
8.3756043178
 31
0.0
 11
-2.3580695894
 21
8.3867088224
 31
0.0
  0
SPLINE
  5
349
100
AcDbEntity
  8
RACCORDO
100
AcDbSpline
 62
253
  6
CONTINUOUS
 70
0
 71
3
 72
11
 73
7
 74
5
 42
0.0000001
 43
0.0000001
 44
0.0000000001
 12
0.1909955691
 22
-0.0961738309
 32
0.0
 13
0.204748168
 23
0.0617000879
 33
0.0
 40
0.0
 40
0.0
 40
0.0
 40
0.0
 40
0.2389306964
 40
0.5072777095
 40
0.7717294543
 40
1.0
 40
1.0
 40
1.0
 40
1.0
 10
-2.1165397303
 20
13.1045249583
 30
0.0
 10
-2.1013281622
 20
13.0968653315
 30
0.0
 10
-2.0669100039
 20
13.0848586815
 30
0.0
 10
-2.012570287
 20
13.0751653724
 30
0.0
 10
-1.9581608639
 20
13.0738857913
 30
0.0
 10
-1.9230570459
 20
13.0789669721
 30
0.0
 10
-1.9074777205
 20
13.083661743
 30
0.0
 11
-2.1165397303
 21
13.1045249583
 31
0.0
 11
-2.0686172994
 21
13.0868050317
 31
0.0
 11
-2.0121503336
 21
13.0765868192
 31
0.0
 11
-1.9556091768
 21
13.0755272986
 31
0.0
 11
-1.9074777205
 21
13.083661743
 31
0.0
  0
SPLINE
  5
34A
100
AcDbEntity
  8
RACCORDO
100
AcDbSpline
 62
253
  6
CONTINUOUS
 70
0
 71
3
 72
11
 73
7
 74
5
 42
0.0000001
 43
0.0000001
 44
0.0000000001
 12
0.1946497628
 22
-0.1009944852
 32
0.0
 13
0.0097397649
 23
-0.2190743097
 33
0.0
 40
0.0
 40
0.0
 40
0.0
 40
0.0
 40
0.2297278916
 40
0.4899334777
 40
0.7556569955
 40
1.0
 40
1.0
 40
1.0
 40
1.0
 10
-1.4445216599
 20
14.1665643585
 30
0.0
 10
-1.4296161667
 20
14.1588306085
 30
0.0
 10
-1.4010703327
 20
14.1361286853
 30
0.0
 10
-1.367208536
 20
14.091972168
 30
0.0
 10
-1.3433613426
 20
14.0405068483
 30
0.0
 10
-1.335565119
 20
14.0035067165
 30
0.0
 10
-1.3347718379
 20
13.9856636248
 30
0.0
 11
-1.4445216599
 21
14.1665643585
 31
0.0
 11
-1.4042953136
 21
14.1362377593
 31
0.0
 11
-1.3692390282
 21
14.0912158012
 31
0.0
 11
-1.3448692802
 21
14.0382857551
 31
0.0
 11
-1.3347718379
 21
13.9856636248
 31
0.0
  0
SPLINE
  5
34B
100
AcDbEntity
  8
RACCORDO
100
AcDbSpline
 62
253
  6
CONTINUOUS
 70
0
 71
3
 72
9
 73
5
 74
3
 42
0.0000001
 43
0.0000001
 44
0.0000000001
 12
-0.0649699359
 22
-0.0377144684
 32
0.0
 13
-0.0616760549
 23
-0.0428898351
 33
0.0
 40
0.0
 40
0.0
 40
0.0
 40
0.0
 40
0.2456976466
 40
1.0
 40
1.0
 40
1.0
 40
1.0
 10
-9.8488582207
 20
18.3687326389
 30
0.0
 10
-9.8541792075
 20
18.3656438536
 30
0.0
 10
-9.8756996131
 20
18.3528385777
 30
0.0
 10
-9.8966769738
 20
18.3391250289
 30
0.0
 10
-9.9121844383
 20
18.3283410611
 30
0.0
 11
-9.8488582207
 21
18.3687326389
 31
0.0
 11
-9.8647214513
 21
18.3592965713
 31
0.0
 11
-9.9121844383
 21
18.3283410611
 31
0.0
  0
SPLINE
  5
34C
100
AcDbEntity
  8
RACCORDO
100
AcDbSpline
 62
253
  6
CONTINUOUS
 70
0
 71
3
 72
11
 73
7
 74
5
 42
0.0000001
 43
0.0000001
 44
0.0000000001
 12
-0.8197120792
 22
-0.6659640131
 32
0.0
 13
-0.1865511841
 23
-1.0395357691
 33
0.0
 40
0.0
 40
0.0
 40
0.0
 40
0.0
 40
0.2371774875
 40
0.4905264321
 40
0.748779871
 40
1.0
 40
1.0
 40
1.0
 40
1.0
 10
-9.9746567074
 20
18.2812734557
 30
0.0
 10
-10.0394624579
 20
18.2286228986
 30
0.0
 10
-10.1614683659
 20
18.1045430328
 30
0.0
 10
-10.3107959678
 20
17.8859197977
 30
0.0
 10
-10.4248998096
 20
17.6415665754
 30
0.0
 10
-10.4732841264
 20
17.4677375208
 30
0.0
 10
-10.4889059306
 20
17.3806867507
 30
0.0
 11
-9.9746567074
 21
18.2812734557
 31
0.0
 11
-10.1517928452
 21
18.1041588407
 31
0.0
 11
-10.3035640912
 21
17.8837943402
 31
0.0
 11
-10.4188026563
 21
17.6365820943
 31
0.0
 11
-10.4889059306
 21
17.3806867507
 31
0.0
  0
SPLINE
  5
34D
100
AcDbEntity
  8
RACCORDO
100
AcDbSpline
 62
253
  6
CONTINUOUS
 70
0
 71
3
 72
11
 73
7
 74
5
 42
0.0000001
 43
0.0000001
 44
0.0000000001
 12
0.1517850909
 22
1.2878951562
 32
0.0
 13
1.1368146558
 23
0.6239912544
 33
0.0
 40
0.0
 40
0.0
 40
0.0
 40
0.0
 40
0.2518139595
 40
0.5143549193
 40
0.7692105618
 40
1.0
 40
1.0
 40
1.0
 40
1.0
 10
-2.1165594425
 20
13.1045187298
 30
0.0
 10
-2.1038189076
 20
13.212622056
 30
0.0
 10
-2.0490009019
 20
13.430518781
 30
0.0
 10
-1.9007835109
 20
13.7306938623
 30
0.0
 10
-1.6994548217
 20
13.9867641644
 30
0.0
 10
-1.5319765984
 20
14.1185608282
 30
0.0
 10
-1.4445216599
 20
14.1665643585
 30
0.0
 11
-2.1165594425
 21
13.1045187298
 31
0.0
 11
-2.0395282264
 21
13.4218577364
 31
0.0
 11
-1.8891244233
 21
13.7273006513
 31
0.0
 11
-1.6828454431
 21
13.985522592
 31
0.0
 11
-1.4445216599
 21
14.1665643585
 31
0.0
  0
SPLINE
  5
34E
100
AcDbEntity
  8
RACCORDO
100
AcDbSpline
 62
253
  6
CONTINUOUS
 70
0
 71
3
 72
14
 73
10
 74
8
 42
0.0000001
 43
0.0000001
 44
0.0000000001
 12
3.6613860362
 22
1.7322803691
 32
0.0
 13
0.2899590748
 23
4.0401072657
 33
0.0
 40
0.0
 40
0.0
 40
0.0
 40
0.0
 40
0.1069981412
 40
0.2166503066
 40
0.3307789104
 40
0.450770217
 40
0.5775197805
 40
0.711437702
 40
1.0
 40
1.0
 40
1.0
 40
1.0
 10
-4.197156592
 20
4.9802361427
 30
0.0
 10
-4.0665694252
 20
5.0420197359
 30
0.0
 10
-3.8129248978
 20
5.191329771
 30
0.0
 10
-3.471596158
 20
5.4824421552
 30
0.0
 10
-3.1703528117
 20
5.8380117382
 30
0.0
 10
-2.9122340714
 20
6.253064732
 30
0.0
 10
-2.6993968224
 20
6.7223515536
 30
0.0
 10
-2.4729675979
 20
7.4297640135
 30
0.0
 10
-2.3859600084
 20
7.9981012768
 30
0.0
 10
-2.3580695894
 20
8.3867088224
 30
0.0
 11
-4.197156592
 21
4.9802361427
 31
0.0
 11
-3.8233700682
 21
5.1995888705
 31
0.0
 11
-3.4845759725
 21
5.4867895458
 31
0.0
 11
-3.1844485742
 21
5.8383920428
 31
0.0
 11
-2.9261791987
 21
6.2501163666
 31
0.0
 11
-2.7124562427
 21
6.7169150645
 31
0.0
 11
-2.5454805829
 21
7.2330102398
 31
0.0
 11
-2.3580695894
 21
8.3867088224
 31
0.0
  0
SPLINE
  5
34F
100
AcDbEntity
  8
RACCORDO
100
AcDbSpline
 62
253
  6
CONTINUOUS
 70
0
 71
3
 72
9
 73
5
 74
3
 42
0.0000001
 43
0.0000001
 44
0.0000000001
 12
-0.0649309091
 22
0.031283215
 32
0.0
 13
-0.06235389
 23
-0.0361476818
 33
0.0
 40
0.0
 40
0.0
 40
0.0
 40
0.0
 40
0.5410469085
 40
1.0
 40
1.0
 40
1.0
 40
1.0
 10
-9.8488582207
 20
18.3687326389
 30
0.0
 10
-9.8605684433
 20
18.3743745345
 30
0.0
 10
-9.8841439095
 20
18.3818532384
 30
0.0
 10
-9.9092184506
 20
18.3769773585
 30
0.0
 10
-9.9187576208
 20
18.3714473284
 30
0.0
 11
-9.8488582207
 21
18.3687326389
 31
0.0
 11
-9.8865181364
 21
18.3788506147
 31
0.0
 11
-9.9187576208
 21
18.3714473284
 31
0.0
  0
SPLINE
  5
350
100
AcDbEntity
  8
RACCORDO
100
AcDbSpline
 62
253
  6
CONTINUOUS
 70
0
 71
3
 72
11
 73
7
 74
5
 42
0.0000001
 43
0.0000001
 44
0.0000000001
 12
-0.0627758759
 22
0.0311660634
 32
0.0
 13
0.0078051648
 23
0.0696506533
 33
0.0
 40
0.0
 40
0.0
 40
0.0
 40
0.0
 40
0.3251343477
 40
0.5351850642
 40
0.7148731903
 40
1.0
 40
1.0
 40
1.0
 40
1.0
 10
-10.5012457585
 20
17.2968619116
 30
0.0
 10
-10.5080492897
 20
17.3002396308
 30
0.0
 10
-10.5189368879
 20
17.3065006421
 30
0.0
 10
-10.5319494216
 20
17.3171178785
 30
0.0
 10
-10.5423269831
 20
17.328956626
 30
0.0
 10
-10.546167019
 20
17.3402474272
 30
0.0
 10
-10.5454251984
 20
17.3468671834
 30
0.0
 11
-10.5012457585
 21
17.2968619116
 31
0.0
 11
-10.5208551967
 21
17.308469803
 31
0.0
 11
-10.5321822485
 21
17.3178734011
 31
0.0
 11
-10.5402113383
 21
17.3275757633
 31
0.0
 11
-10.5454251984
 21
17.3468671834
 31
0.0
  0
SPLINE
  5
351
100
AcDbEntity
  8
RACCORDO
100
AcDbSpline
 62
253
  6
CONTINUOUS
 70
0
 71
3
 72
25
 73
21
 74
19
 42
0.0000001
 43
0.0000001
 44
0.0000000001
 12
-1.0917860301
 22
-15.3978924772
 32
0.0
 13
1.1319297503
 23
15.3949934887
 33
0.0
 40
0.0
 40
0.0
 40
0.0
 40
0.0
 40
0.1417214203
 40
0.2163871401
 40
0.2915896085
 40
0.3657281413
 40
0.4372122546
 40
0.5046260334
 40
0.5669229823
 40
0.6236904587
 40
0.6754374411
 40
0.6999620268
 40
0.7239395641
 40
0.7477242104
 40
0.7716874352
 40
0.7961852929
 40
0.8215290308
 40
0.875575082
 40
0.9350544668
 40
1.0
 40
1.0
 40
1.0
 40
1.0
 10
-10.9371166067
 20
12.5843310353
 30
0.0
 10
-10.9886930957
 20
11.8569273046
 30
0.0
 10
-10.8739852472
 20
10.7270687642
 30
0.0
 10
-10.4262590386
 20
9.2929526315
 30
0.0
 10
-9.9404237825
 20
8.2435763334
 30
0.0
 10
-9.3319512808
 20
7.2802750205
 30
0.0
 10
-8.6261770301
 20
6.4369387575
 30
0.0
 10
-7.8515347734
 20
5.7441346083
 30
0.0
 10
-7.0371318057
 20
5.2271498876
 30
0.0
 10
-6.2120528082
 20
4.9060709503
 30
0.0
 10
-5.5246975357
 20
4.8148331577
 30
0.0
 10
-5.0090400147
 20
4.8591546367
 30
0.0
 10
-4.6459970054
 20
4.9467054704
 30
0.0
 10
-4.3036612584
 20
5.08859281
 30
0.0
 10
-3.9853077297
 20
5.2833701643
 30
0.0
 10
-3.6938241673
 20
5.528953377
 30
0.0
 10
-3.3367714982
 20
5.9288504294
 30
0.0
 10
-2.9722056076
 20
6.5522043095
 30
0.0
 10
-2.6846964911
 20
7.4296755955
 30
0.0
 10
-2.5923952392
 20
8.0664393676
 30
0.0
 10
-2.5678906454
 20
8.3997180546
 30
0.0
 11
-10.9371166067
 21
12.5843310353
 31
0.0
 11
-10.7451214153
 21
10.4050823709
 31
0.0
 11
-10.4035221713
 21
9.3042857227
 31
0.0
 11
-9.9159019717
 21
8.2507972185
 31
0.0
 11
-9.3035951771
 21
7.2839308206
 31
0.0
 11
-8.5929260012
 21
6.4397796405
 31
0.0
 11
-7.8137174489
 21
5.7500277103
 31
0.0
 11
-6.9978893064
 21
5.240915586
 31
0.0
 11
-6.1778174381
 21
4.9320898631
 31
0.0
 11
-5.3848518541
 21
4.835762919
 31
0.0
 11
-5.0077328134
 21
4.868933129
 31
0.0
 11
-4.6480302703
 21
4.9561721203
 31
0.0
 11
-4.3088537882
 21
5.096744377
 31
0.0
 11
-3.9930806226
 21
5.2894108427
 31
0.0
 11
-3.7033355742
 21
5.5324224059
 31
0.0
 11
-3.4419856071
 21
5.823539559
 31
0.0
 11
-3.0125668232
 21
6.5388229247
 31
0.0
 11
-2.718214487
 21
7.4085171829
 31
0.0
 11
-2.5678906454
 21
8.3997180546
 31
0.0
  0
LINE
  5
352
100
AcDbEntity
  8
RACCORDO
100
AcDbLine
 62
253
  6
CONTINUOUS
 10
-10.9336974519
 20
12.6323960391
 11
-10.9371166067
 21
12.5843310353
  0
SPLINE
  5
353
100
AcDbEntity
  8
RACCORDO
100
AcDbSpline
 62
253
  6
CONTINUOUS
 70
0
 71
3
 72
11
 73
7
 74
5
 42
0.0000001
 43
0.0000001
 44
0.0000000001
 12
0.1295941986
 22
1.0949663516
 32
0.0
 13
0.9675608323
 23
0.5287456887
 33
0.0
 40
0.0
 40
0.0
 40
0.0
 40
0.0
 40
0.2516996743
 40
0.5141714789
 40
0.7690554801
 40
1.0
 40
1.0
 40
1.0
 40
1.0
 10
-1.907477719
 20
13.0836617422
 30
0.0
 10
-1.8966047799
 20
13.1755293002
 30
0.0
 10
-1.849914591
 20
13.3607150846
 30
0.0
 10
-1.7235535769
 20
13.6157184433
 30
0.0
 10
-1.5519707051
 20
13.8331943275
 30
0.0
 10
-1.4092561285
 20
13.9449599851
 30
0.0
 10
-1.3347718379
 20
13.9856636248
 30
0.0
 11
-1.907477719
 21
13.0836617422
 31
0.0
 11
-1.8418365863
 21
13.3533134859
 31
0.0
 11
-1.7136527316
 21
13.6127810171
 31
0.0
 11
-1.5378619883
 21
13.8320516028
 31
0.0
 11
-1.3347718379
 21
13.9856636248
 31
0.0
  0
SPLINE
  5
354
100
AcDbEntity
  8
RACCORDO
100
AcDbSpline
 62
253
  6
CONTINUOUS
 70
0
 71
3
 72
11
 73
7
 74
5
 42
0.0000001
 43
0.0000001
 44
0.0000000001
 12
-0.0638413315
 22
0.0317873772
 32
0.0
 13
0.0050426557
 23
0.0711387699
 33
0.0
 40
0.0
 40
0.0
 40
0.0
 40
0.0
 40
0.3145427668
 40
0.5831679174
 40
0.8064814349
 40
1.0
 40
1.0
 40
1.0
 40
1.0
 10
-10.9371165588
 20
12.5843310538
 30
0.0
 10
-10.9438101685
 20
12.5876638837
 30
0.0
 10
-10.9558303853
 20
12.594712592
 30
0.0
 10
-10.9704149152
 20
12.6073682563
 30
0.0
 10
-10.9796572915
 20
12.6211484004
 30
0.0
 10
-10.9814621313
 20
12.6312945433
 30
0.0
 10
-10.9811368488
 20
12.6358834342
 30
0.0
 11
-10.9371165588
 21
12.5843310538
 31
0.0
 11
-10.9563479859
 21
12.5958792875
 31
0.0
 11
-10.9705594995
 21
12.6087263491
 31
0.0
 11
-10.9789639118
 21
12.6222543513
 31
0.0
 11
-10.9811368488
 21
12.6358834342
 31
0.0
  0
SPLINE
  5
355
100
AcDbEntity
  8
RACCORDO
100
AcDbSpline
 62
7
  6
CONTINUOUS
 70
0
 71
3
 72
10
 73
6
 74
4
 42
0.0000001
 43
0.0000001
 44
0.0000000001
 12
0.4748195037
 22
-0.2374097519
 32
0.0
 13
0.1620225671
 23
-0.5055350029
 33
0.0
 40
0.0
 40
0.0
 40
0.0
 40
0.0
 40
0.2246184185
 40
0.4735921533
 40
1.0
 40
1.0
 40
1.0
 40
1.0
 10
-6.9795968251
 20
26.4788404622
 30
0.0
 10
-6.9440457565
 20
26.4610649278
 30
0.0
 10
-6.8744125667
 20
26.412587572
 30
0.0
 10
-6.7532492623
 20
26.2827028292
 30
0.0
 10
-6.6877855657
 20
26.1578125544
 30
0.0
 10
-6.6593555821
 20
26.0691066903
 30
0.0
 11
-6.9795968251
 21
26.4788404622
 31
0.0
 11
-6.8807494572
 21
26.4121484027
 31
0.0
 11
-6.7898009245
 21
26.3162442255
 31
0.0
 11
-6.6593555821
 21
26.0691066903
 31
0.0
  0
SPLINE
  5
356
100
AcDbEntity
  8
RACCORDO
100
AcDbSpline
 62
7
  6
CONTINUOUS
 70
0
 71
3
 72
9
 73
5
 74
3
 42
0.0000001
 43
0.0000001
 44
0.0000000001
 12
-0.0633939028
 22
-0.1344046966
 32
0.0
 13
-0.1346137827
 23
-0.0629487004
 33
0.0
 40
0.0
 40
0.0
 40
0.0
 40
0.0
 40
0.5183719073
 40
1.0
 40
1.0
 40
1.0
 40
1.0
 10
-6.6593555821
 20
-23.2281277266
 30
0.0
 10
-6.6703094549
 20
-23.2513515995
 30
0.0
 10
-6.6977896211
 20
-23.2937220392
 30
0.0
 10
-6.7388078368
 20
-23.3238415079
 30
0.0
 10
-6.7604190967
 20
-23.3339474621
 30
0.0
 11
-6.6593555821
 21
-23.2281277266
 31
0.0
 11
-6.7024371488
 21
-23.2919869393
 31
0.0
 11
-6.7604190967
 21
-23.3339474621
 31
0.0
  0
SPLINE
  5
357
100
AcDbEntity
  8
RACCORDO
100
AcDbSpline
 62
7
  6
CONTINUOUS
 70
0
 71
3
 72
11
 73
7
 74
5
 42
0.0000001
 43
0.0000001
 44
0.0000000001
 12
1.0289618555
 22
-0.6840234984
 32
0.0
 13
1.2337221648
 23
0.0676776673
 33
0.0
 40
0.0
 40
0.0
 40
0.0
 40
0.0
 40
0.2764168799
 40
0.5345566418
 40
0.7749745001
 40
1.0
 40
1.0
 40
1.0
 40
1.0
 10
0.6363961031
 20
20.9465213805
 30
0.0
 10
0.7312035783
 20
20.8834961668
 30
0.0
 10
0.9219218665
 20
20.7721204905
 30
0.0
 10
1.2179909861
 20
20.6498718704
 30
0.0
 10
1.509204048
 20
20.5805325136
 30
0.0
 10
1.7020970008
 20
20.5706661805
 30
0.0
 10
1.7946366498
 20
20.5757425808
 30
0.0
 11
0.6363961031
 21
20.9465213805
 31
0.0
 11
0.9320530874
 21
20.7755457627
 31
0.0
 11
1.2274910382
 21
20.6553520922
 31
0.0
 11
1.5168851756
 21
20.5883253783
 31
0.0
 11
1.7946366498
 21
20.5757425808
 31
0.0
  0
SPLINE
  5
358
100
AcDbEntity
  8
DRAFT
100
AcDbSpline
 62
7
  6
CONTINUOUS
 70
0
 71
3
 72
9
 73
5
 74
3
 42
0.0000001
 43
0.0000001
 44
0.0000000001
 12
-4.7504614344
 22
3.1579666748
 32
0.0
 13
-5.4085394348
 23
1.8131019114
 33
0.0
 40
0.0
 40
0.0
 40
0.0
 40
0.0
 40
0.5163330685
 40
1.0
 40
1.0
 40
1.0
 40
1.0
 10
0.6363961031
 20
20.9465213805
 30
0.0
 10
-0.1812106733
 20
21.490042255
 30
0.0
 10
-1.8251962803
 20
22.4555404069
 30
0.0
 10
-3.5827954973
 20
23.1997933134
 30
0.0
 10
-4.4547727215
 20
23.4921057928
 30
0.0
 11
0.6363961031
 21
20.9465213805
 31
0.0
 11
-1.9091883092
 21
22.4280955552
 31
0.0
 11
-4.4547727215
 21
23.4921057928
 31
0.0
  0
SPLINE
  5
359
100
AcDbEntity
  8
RACCORDO
100
AcDbSpline
 62
7
  6
CONTINUOUS
 70
0
 71
3
 72
12
 73
8
 74
6
 42
0.0000001
 43
0.0000001
 44
0.0000000001
 12
1.067500964
 22
-3.330765044
 32
0.0
 13
3.3162706668
 23
-1.1117117213
 33
0.0
 40
0.0
 40
0.0
 40
0.0
 40
0.0
 40
0.2699355294
 40
0.5361947947
 40
0.6630942615
 40
0.7834844595
 40
1.0
 40
1.0
 40
1.0
 40
1.0
 10
-6.6593555821
 20
26.0691066903
 30
0.0
 10
-6.5633034362
 20
25.7694094151
 30
0.0
 10
-6.3119740082
 20
25.1921369579
 30
0.0
 10
-5.8723825559
 20
24.5498256516
 30
0.0
 10
-5.4591865598
 20
24.1145900237
 30
0.0
 10
-5.0439179475
 20
23.767767172
 30
0.0
 10
-4.6941141001
 20
23.5723400809
 30
0.0
 10
-4.4547727215
 20
23.4921057928
 30
0.0
 11
-6.6593555821
 21
26.0691066903
 31
0.0
 11
-6.2838587949
 21
25.2028489884
 31
0.0
 11
-5.7544532849
 21
24.4366797221
 31
0.0
 11
-5.4480388605
 21
24.1155677026
 31
0.0
 11
-5.1238348888
 21
23.8468625331
 31
0.0
 11
-4.4547727215
 21
23.4921057928
 31
0.0
  0
SPLINE
  5
35A
100
AcDbEntity
  8
RACCORDO
100
AcDbSpline
 62
7
  6
CONTINUOUS
 70
0
 71
3
 72
13
 73
9
 74
7
 42
0.0000001
 43
0.0000001
 44
0.0000000001
 12
-1.1014546809
 22
3.4083042335
 32
0.0
 13
-3.3961164755
 23
1.138478391
 33
0.0
 40
0.0
 40
0.0
 40
0.0
 40
0.0
 40
0.2733444512
 40
0.5424391381
 40
0.6698280447
 40
0.7895859323
 40
0.9000338827
 40
1.0
 40
1.0
 40
1.0
 40
1.0
 10
1.9088081492
 20
-28.4680995953
 30
0.0
 10
1.8084493075
 20
-28.1575525786
 30
0.0
 10
1.5471406071
 20
-27.5600379335
 30
0.0
 10
1.0924305276
 20
-26.8954593914
 30
0.0
 10
0.6678117237
 20
-26.4471484816
 30
0.0
 10
0.3396802776
 20
-26.1722602495
 30
0.0
 10
0.0063392639
 20
-25.9596625117
 30
0.0
 10
-0.2245835082
 20
-25.8573007099
 30
0.0
 10
-0.3377490341
 20
-25.8193642884
 30
0.0
 11
1.9088081492
 21
-28.4680995953
 31
0.0
 11
1.5179418983
 21
-27.5704216495
 31
0.0
 11
0.9699942118
 21
-26.7774652556
 31
0.0
 11
0.6552915231
 21
-26.4470679368
 31
0.0
 11
0.3254063117
 21
-26.1728795707
 31
0.0
 11
-0.0093374432
 21
-25.9620398013
 31
0.0
 11
-0.3377490341
 21
-25.8193642884
 31
0.0
  0
SPLINE
  5
35B
100
AcDbEntity
  8
RACCORDO
100
AcDbSpline
 62
7
  6
CONTINUOUS
 70
0
 71
3
 72
9
 73
5
 74
3
 42
0.0000001
 43
0.0000001
 44
0.0000000001
 12
4.7597015831
 22
-3.1641092532
 32
0.0
 13
5.4190596146
 23
-1.8166285859
 33
0.0
 40
0.0
 40
0.0
 40
0.0
 40
0.0
 40
0.5158018187
 40
1.0
 40
1.0
 40
1.0
 40
1.0
 10
-5.439119417
 20
-23.2694340143
 30
0.0
 10
-4.6207651727
 20
-23.8134517834
 30
0.0
 10
-2.9734933173
 20
-24.7806904637
 30
0.0
 10
-1.2123819707
 20
-25.526161536
 30
0.0
 10
-0.3377490341
 20
-25.8193642884
 30
0.0
 11
-5.439119417
 21
-23.2694340143
 31
0.0
 11
-2.8911463657
 21
-24.7522571158
 31
0.0
 11
-0.3377490341
 21
-25.8193642884
 31
0.0
  0
SPLINE
  5
35C
100
AcDbEntity
  8
RACCORDO
100
AcDbSpline
 62
7
  6
CONTINUOUS
 70
0
 71
3
 72
11
 73
7
 74
5
 42
0.0000001
 43
0.0000001
 44
0.0000000001
 12
-1.2343601024
 22
0.7434970639
 32
0.0
 13
-1.3027667251
 23
-0.6158178354
 33
0.0
 40
0.0
 40
0.0
 40
0.0
 40
0.0
 40
0.3002264874
 40
0.5633411443
 40
0.7925737382
 40
1.0
 40
1.0
 40
1.0
 40
1.0
 10
-5.5452874668
 20
-23.202179361
 30
0.0
 10
-5.6688166661
 20
-23.1277735237
 30
0.0
 10
-5.9123520742
 20
-23.0058949424
 30
0.0
 10
-6.2829829134
 20
-22.9062797899
 30
0.0
 10
-6.623016715
 20
-22.9005749622
 30
0.0
 10
-6.828322842
 20
-22.9596659215
 30
0.0
 10
-6.9183988526
 20
-23.002244852
 30
0.0
 11
-5.5452874668
 21
-23.202179361
 31
0.0
 11
-5.9340476582
 21
-23.0123722514
 31
0.0
 11
-6.3013989808
 21
-22.9185477429
 31
0.0
 11
-6.6317181265
 21
-22.9176633035
 31
0.0
 11
-6.9183988526
 21
-23.002244852
 31
0.0
  0
SPLINE
  5
35D
100
AcDbEntity
  8
RACCORDO
100
AcDbSpline
 62
7
  6
CONTINUOUS
 70
0
 71
3
 72
10
 73
6
 74
4
 42
0.0000001
 43
0.0000001
 44
0.0000000001
 12
0.645232145
 22
0.3406242055
 32
0.0
 13
0.314376641
 23
0.6584198493
 33
0.0
 40
0.0
 40
0.0
 40
0.0
 40
0.0
 40
0.2304434311
 40
0.4703604928
 40
1.0
 40
1.0
 40
1.0
 40
1.0
 10
1.4403064599
 20
20.2631986557
 30
0.0
 10
1.4898696296
 20
20.2893635259
 30
0.0
 10
1.5864409306
 20
20.3520211123
 30
0.0
 10
1.7652518251
 20
20.5182398399
 30
0.0
 10
1.8680462172
 20
20.6791632871
 30
0.0
 10
1.9235483136
 20
20.7954050086
 30
0.0
 11
1.4403064599
 21
20.2631986557
 31
0.0
 11
1.5815037105
 21
20.3544856235
 31
0.0
 11
1.7100628903
 21
20.4732908072
 31
0.0
 11
1.9235483136
 21
20.7954050086
 31
0.0
  0
SPLINE
  5
35E
100
AcDbEntity
  8
DRAFT
100
AcDbSpline
 62
7
  6
CONTINUOUS
 70
0
 71
3
 72
15
 73
11
 74
9
 42
0.0000001
 43
0.0000001
 44
0.0000000001
 12
0.0
 22
-9.7843984184
 32
0.0
 13
8.9799139369
 23
-3.8853054056
 33
0.0
 40
0.0
 40
0.0
 40
0.0
 40
0.0
 40
0.1206053294
 40
0.2486762722
 40
0.3813370576
 40
0.5152679553
 40
0.6470394093
 40
0.7734160189
 40
0.891680567
 40
1.0
 40
1.0
 40
1.0
 40
1.0
 10
3.2094921117
 20
-4.4331731806
 30
0.0
 10
3.2094921117
 20
-4.8265233786
 30
0.0
 10
3.2788190965
 20
-5.6384329316
 30
0.0
 10
3.5596421515
 20
-6.8535755702
 30
0.0
 10
4.009620584
 20
-8.0632406623
 30
0.0
 10
4.6107575156
 20
-9.2187580477
 30
0.0
 10
5.3389769063
 20
-10.2740691174
 30
0.0
 10
6.1656263502
 20
-11.1871349752
 30
0.0
 10
7.0577391304
 20
-11.921460263
 30
0.0
 10
7.7046778083
 20
-12.289629756
 30
0.0
 10
8.0289108702
 20
-12.4299144489
 30
0.0
 11
3.2094921117
 21
-4.4331731806
 31
0.0
 11
3.303505796
 21
-5.6094728158
 31
0.0
 11
3.5816608524
 21
-6.8313083952
 31
0.0
 11
4.032522367
 21
-8.0484950761
 31
0.0
 11
4.6375305198
 21
-9.2109065663
 31
0.0
 11
5.3717853052
 21
-10.2707064349
 31
0.0
 11
6.2050756521
 21
-11.1842745385
 31
0.0
 11
7.1031017886
 21
-11.9140274398
 31
0.0
 11
8.0289108702
 21
-12.4299144489
 31
0.0
  0
SPLINE
  5
35F
100
AcDbEntity
  8
DRAFT
100
AcDbSpline
 62
7
  6
CONTINUOUS
 70
0
 71
3
 72
18
 73
14
 74
12
 42
0.0000001
 43
0.0000001
 44
0.0000000001
 12
0.0
 22
-11.4439799683
 32
0.0
 13
11.3609738605
 23
1.3758453605
 33
0.0
 40
0.0
 40
0.0
 40
0.0
 40
0.0
 40
0.1281981549
 40
0.2653554894
 40
0.4063778244
 40
0.5456080437
 40
0.6776436785
 40
0.7396298889
 40
0.7983547414
 40
0.8536191868
 40
0.9054308458
 40
0.9540456778
 40
1.0
 40
1.0
 40
1.0
 40
1.0
 10
-20.4000306372
 20
4.8967144597
 30
0.0
 10
-20.4000306372
 20
4.4076820876
 30
0.0
 10
-20.2910109555
 20
3.3940430114
 30
0.0
 10
-19.8623721343
 20
1.8978474616
 30
0.0
 10
-19.1881801923
 20
0.4481029739
 30
0.0
 10
-18.3104457194
 20
-0.8643214065
 30
0.0
 10
-17.4352803814
 20
-1.7966941329
 30
0.0
 10
-16.6788824279
 20
-2.3969456182
 30
0.0
 10
-16.110437366
 20
-2.7567234841
 30
0.0
 10
-15.5380036155
 20
-3.0296197718
 30
0.0
 10
-14.9702293075
 20
-3.210949257
 30
0.0
 10
-14.416141481
 20
-3.2972241186
 30
0.0
 10
-14.0530114304
 20
-3.2894596738
 30
0.0
 10
-13.8789828128
 20
-3.2683843269
 30
0.0
 11
-20.4000306372
 21
4.8967144597
 31
0.0
 11
-20.2548097162
 21
3.4368223976
 31
0.0
 11
-19.8285512969
 21
1.9261838317
 31
0.0
 11
-19.1488285108
 21
0.4624520837
 31
0.0
 11
-18.259598143
 21
-0.8596775219
 31
0.0
 11
-17.2183832298
 21
-1.9546808432
 31
0.0
 11
-16.6615611301
 21
-2.3941731153
 31
0.0
 11
-16.0925344232
 21
-2.7517405635
 31
0.0
 11
-15.5205415911
 21
-3.0215759571
 31
0.0
 11
-14.9548704019
 21
-3.1992947613
 31
0.0
 11
-14.4047065889
 21
-3.2820108148
 31
0.0
 11
-13.8789828128
 21
-3.2683843269
 31
0.0
  0
SPLINE
  5
360
100
AcDbEntity
  8
DRAFT
100
AcDbSpline
 62
7
  6
CONTINUOUS
 70
0
 71
3
 72
18
 73
14
 74
12
 42
0.0000001
 43
0.0000001
 44
0.0000000001
 12
0.0
 22
-11.4440274183
 32
0.0
 13
11.3609962858
 23
1.3760548479
 33
0.0
 40
0.0
 40
0.0
 40
0.0
 40
0.0
 40
0.1281983947
 40
0.2653560088
 40
0.4063785876
 40
0.5456089391
 40
0.6776445372
 40
0.7396306606
 40
0.7983553834
 40
0.8536196664
 40
0.9054311469
 40
0.9540458086
 40
1.0
 40
1.0
 40
1.0
 40
1.0
 10
0.8131727984
 20
-5.7098872581
 30
0.0
 10
0.8131727984
 20
-6.1989225729
 30
0.0
 10
0.9221937879
 20
-7.2125678441
 30
0.0
 10
1.3508373797
 20
-8.7087718403
 30
0.0
 10
2.0250364372
 20
-10.1585231797
 30
0.0
 10
2.9027794583
 20
-11.4709513784
 30
0.0
 10
3.7779527137
 20
-12.4033241923
 30
0.0
 10
4.5343567429
 20
-13.0035729647
 30
0.0
 10
5.102805653
 20
-13.3633473272
 30
0.0
 10
5.6752426972
 20
-13.6362387509
 30
0.0
 10
6.2430196042
 20
-13.8175620101
 30
0.0
 10
6.7971091837
 20
-13.9038293062
 30
0.0
 10
7.1602395268
 20
-13.8960588035
 30
0.0
 10
7.3342679926
 20
-13.8749803076
 30
0.0
 11
0.8131727984
 21
-5.7098872581
 31
0.0
 11
0.958395394
 21
-7.1697880251
 31
0.0
 11
1.3846586214
 21
-8.6804353201
 31
0.0
 11
2.0643887194
 21
-10.1441741273
 31
0.0
 11
2.9536279223
 21
-11.4663075756
 31
0.0
 11
3.9948519607
 21
-12.5613102862
 31
0.0
 11
4.5516783057
 21
-13.0008003188
 31
0.0
 11
5.1207088143
 21
-13.3583641651
 31
0.0
 11
5.6927048361
 21
-13.6281945864
 31
0.0
 11
6.2583784443
 21
-13.8059070786
 31
0.0
 11
6.8085437594
 21
-13.8886155468
 31
0.0
 11
7.3342679926
 21
-13.8749803076
 31
0.0
  0
SPLINE
  5
361
100
AcDbEntity
  8
RACCORDO
100
AcDbSpline
 62
7
  6
CONTINUOUS
 70
0
 71
3
 72
10
 73
6
 74
4
 42
0.0000001
 43
0.0000001
 44
0.0000000001
 12
0.653510581
 22
-0.704091771
 32
0.0
 13
-0.0000000013
 23
-0.9606358839
 33
0.0
 40
0.0
 40
0.0
 40
0.0
 40
0.0
 40
0.251368651
 40
0.5071016192
 40
1.0
 40
1.0
 40
1.0
 40
1.0
 10
15.4152861666
 20
-23.9438491284
 30
0.0
 10
15.4700435244
 20
-24.0028446613
 30
0.0
 10
15.5690651109
 20
-24.1330907103
 30
0.0
 10
15.7159819441
 20
-24.4182534922
 30
0.0
 10
15.7707950808
 20
-24.6596957263
 30
0.0
 10
15.7707950806
 20
-24.8175276835
 30
0.0
 11
15.4152861666
 21
-23.9438491284
 31
0.0
 11
15.5621879959
 21
-24.1354983462
 31
0.0
 11
15.6747001115
 21
-24.3538854751
 31
0.0
 11
15.7707950806
 21
-24.8175276835
 31
0.0
  0
SPLINE
  5
362
100
AcDbEntity
  8
RACCORDO
100
AcDbSpline
 62
7
  6
CONTINUOUS
 70
0
 71
3
 72
11
 73
7
 74
5
 42
0.0000001
 43
0.0000001
 44
0.0000000001
 12
-0.000000001
 22
-0.7465131202
 32
0.0
 13
-0.6601689105
 23
-0.3485094665
 33
0.0
 40
0.0
 40
0.0
 40
0.0
 40
0.0
 40
0.258853205
 40
0.509070651
 40
0.755080722
 40
1.0
 40
1.0
 40
1.0
 40
1.0
 10
15.7707950806
 20
-24.8175276835
 30
0.0
 10
15.7707950805
 20
-24.8819401214
 30
0.0
 10
15.7588012186
 20
-25.0091201331
 30
0.0
 10
15.6982314851
 20
-25.1890706875
 30
0.0
 10
15.5924209645
 20
-25.3433260794
 30
0.0
 10
15.4932771043
 20
-25.4190644748
 30
0.0
 10
15.4393810733
 20
-25.4475167038
 30
0.0
 11
15.7707950806
 21
-24.8175276835
 31
0.0
 11
15.7511405816
 21
-25.0097628522
 31
0.0
 11
15.6900021211
 21
-25.1862644648
 31
0.0
 11
15.5849689537
 21
-25.336913935
 31
0.0
 11
15.4393810733
 21
-25.4475167038
 31
0.0
  0
SPLINE
  5
363
100
AcDbEntity
  8
RACCORDO
100
AcDbSpline
 62
7
  6
CONTINUOUS
 70
0
 71
3
 72
10
 73
6
 74
4
 42
0.0000001
 43
0.0000001
 44
0.0000000001
 12
0.653510581
 22
-0.704091771
 32
0.0
 13
-0.0000000013
 23
-0.9606358839
 33
0.0
 40
0.0
 40
0.0
 40
0.0
 40
0.0
 40
0.251368651
 40
0.5071016192
 40
1.0
 40
1.0
 40
1.0
 40
1.0
 10
15.4152861666
 20
8.0990908117
 30
0.0
 10
15.4700435244
 20
8.0400952788
 30
0.0
 10
15.5690651109
 20
7.9098492297
 30
0.0
 10
15.7159819441
 20
7.6246864478
 30
0.0
 10
15.7707950808
 20
7.3832442138
 30
0.0
 10
15.7707950806
 20
7.2254122565
 30
0.0
 11
15.4152861666
 21
8.0990908117
 31
0.0
 11
15.5621879959
 21
7.9074415939
 31
0.0
 11
15.6747001115
 21
7.689054465
 31
0.0
 11
15.7707950806
 21
7.2254122565
 31
0.0
  0
SPLINE
  5
364
100
AcDbEntity
  8
RACCORDO
100
AcDbSpline
 62
7
  6
CONTINUOUS
 70
0
 71
3
 72
11
 73
7
 74
5
 42
0.0000001
 43
0.0000001
 44
0.0000000001
 12
-0.000000001
 22
-0.7465131202
 32
0.0
 13
-0.6601689105
 23
-0.3485094665
 33
0.0
 40
0.0
 40
0.0
 40
0.0
 40
0.0
 40
0.258853205
 40
0.509070651
 40
0.755080722
 40
1.0
 40
1.0
 40
1.0
 40
1.0
 10
15.7707950806
 20
7.2254122565
 30
0.0
 10
15.7707950805
 20
7.1609998186
 30
0.0
 10
15.7588012186
 20
7.0338198069
 30
0.0
 10
15.6982314851
 20
6.8538692525
 30
0.0
 10
15.5924209645
 20
6.6996138606
 30
0.0
 10
15.4932771043
 20
6.6238754652
 30
0.0
 10
15.4393810733
 20
6.5954232363
 30
0.0
 11
15.7707950806
 21
7.2254122565
 31
0.0
 11
15.7511405816
 21
7.0331770878
 31
0.0
 11
15.6900021211
 21
6.8566754752
 31
0.0
 11
15.5849689537
 21
6.706026005
 31
0.0
 11
15.4393810733
 21
6.5954232363
 31
0.0
  0
SPLINE
  5
365
100
AcDbEntity
  8
RACCORDO
100
AcDbSpline
 62
7
  6
CONTINUOUS
 70
0
 71
3
 72
10
 73
6
 74
4
 42
0.0000001
 43
0.0000001
 44
0.0000000001
 12
0.2082980609
 22
0.1109816519
 32
0.0
 13
0.2111018887
 23
-0.1055509443
 33
0.0
 40
0.0
 40
0.0
 40
0.0
 40
0.0
 40
0.2278636508
 40
0.4657494471
 40
1.0
 40
1.0
 40
1.0
 40
1.0
 10
2.9333274906
 20
21.4204034639
 30
0.0
 10
2.9491486762
 20
21.4288330253
 30
0.0
 10
2.9842146379
 20
21.441381876
 30
0.0
 10
3.0635028654
 20
21.4465360935
 30
0.0
 10
3.1236264398
 20
21.4272288297
 30
0.0
 10
3.1612202067
 20
21.4084319462
 30
0.0
 11
2.9333274906
 21
21.4204034639
 31
0.0
 11
2.9839058758
 21
21.4386827888
 31
0.0
 11
3.039900433
 21
21.4427982052
 31
0.0
 11
3.1612202067
 21
21.4084319462
 31
0.0
  0
SPLINE
  5
366
100
AcDbEntity
  8
DRAFT
100
AcDbSpline
 62
7
  6
CONTINUOUS
 70
0
 71
3
 72
9
 73
5
 74
3
 42
0.0000001
 43
0.0000001
 44
0.0000000001
 12
-0.3281856536
 22
-1.3390091827
 32
0.0
 13
0.0
 23
-1.3786411478
 33
0.0
 40
0.0
 40
0.0
 40
0.0
 40
0.0
 40
0.2387378833
 40
1.0
 40
1.0
 40
1.0
 40
1.0
 10
-17.8486289593
 20
7.5413968745
 30
0.0
 10
-17.874745742
 20
7.4348394685
 30
0.0
 10
-17.9687259148
 20
6.9847570844
 30
0.0
 10
-18.0037113239
 20
6.5232642966
 30
0.0
 10
-18.0037113239
 20
6.1734285372
 30
0.0
 11
-17.8486289593
 21
7.5413968745
 31
0.0
 11
-17.9162565447
 21
7.2192856923
 31
0.0
 11
-18.0037113239
 21
6.1734285372
 31
0.0
  0
SPLINE
  5
367
100
AcDbEntity
  8
DRAFT
100
AcDbSpline
 62
7
  6
CONTINUOUS
 70
0
 71
3
 72
12
 73
8
 74
6
 42
0.0000001
 43
0.0000001
 44
0.0000000001
 12
-2.8364461102
 22
2.88289216
 32
0.0
 13
-4.0418522451
 23
-0.1411530061
 33
0.0
 40
0.0
 40
0.0
 40
0.0
 40
0.0
 40
0.2850115364
 40
0.5473016888
 40
0.6693223289
 40
0.7852149309
 40
1.0
 40
1.0
 40
1.0
 40
1.0
 10
-1.2284400812
 20
16.5597625014
 30
0.0
 10
-1.4979133692
 20
16.8336483427
 30
0.0
 10
-2.0525936798
 20
17.3248988864
 30
0.0
 10
-2.8211393718
 20
17.8077421475
 30
0.0
 10
-3.441170611
 20
18.0763075317
 30
0.0
 10
-4.0249810002
 20
18.2561460856
 30
0.0
 10
-4.4746424667
 20
18.3099247913
 30
0.0
 10
-4.7640189713
 20
18.2998189386
 30
0.0
 11
-1.2284400812
 21
16.5597625014
 31
0.0
 11
-2.0956231295
 21
17.3191420663
 31
0.0
 11
-2.998549294
 21
17.875907469
 31
0.0
 11
-3.4518998459
 21
18.0708580044
 31
0.0
 11
-3.9002980317
 21
18.2073303151
 31
0.0
 11
-4.7640189713
 21
18.2998189386
 31
0.0
  0
SPLINE
  5
368
100
AcDbEntity
  8
DRAFT
100
AcDbSpline
 62
7
  6
CONTINUOUS
 70
0
 71
3
 72
9
 73
5
 74
3
 42
0.0000001
 43
0.0000001
 44
0.0000000001
 12
-0.3281886743
 22
-1.3390144237
 32
0.0
 13
0.0
 23
-1.3786469573
 33
0.0
 40
0.0
 40
0.0
 40
0.0
 40
0.0
 40
0.2387378289
 40
1.0
 40
1.0
 40
1.0
 40
1.0
 10
3.3645758639
 20
-3.0651991817
 30
0.0
 10
3.3384588467
 20
-3.1717569805
 30
0.0
 10
3.2444778167
 20
-3.6218411682
 30
0.0
 10
3.2094921117
 20
-4.083335922
 30
0.0
 10
3.2094921117
 20
-4.4331731806
 30
0.0
 11
3.3645758639
 21
-3.0651991817
 31
0.0
 11
3.2969476755
 21
-3.3873115779
 31
0.0
 11
3.2094921117
 21
-4.4331731806
 31
0.0
  0
SPLINE
  5
369
100
AcDbEntity
  8
DRAFT
100
AcDbSpline
 62
7
  6
CONTINUOUS
 70
0
 71
3
 72
11
 73
7
 74
5
 42
0.0000001
 43
0.0000001
 44
0.0000000001
 12
-2.2026813447
 22
-2.2794758713
 32
0.0
 13
0.0
 23
-3.1698289156
 33
0.0
 40
0.0
 40
0.0
 40
0.0
 40
0.0
 40
0.2205178735
 40
0.4589207731
 40
0.7185682387
 40
1.0
 40
1.0
 40
1.0
 40
1.0
 10
1.7935999266
 20
-2.7701167928
 30
0.0
 10
1.6316897246
 20
-2.93767185
 30
0.0
 10
1.3403743304
 20
-3.3323253983
 30
0.0
 10
1.034708023
 20
-4.0327518692
 30
0.0
 10
0.8507961
 20
-4.8396856165
 30
0.0
 10
0.8131727984
 20
-5.4125237465
 30
0.0
 10
0.8131727984
 20
-5.7098872581
 30
0.0
 11
1.7935999266
 21
-2.7701167928
 31
0.0
 11
1.3739160078
 21
-3.3291086574
 31
0.0
 11
1.0653635304
 21
-4.0189437284
 31
0.0
 11
0.8766697564
 21
-4.8200593768
 31
0.0
 11
0.8131727984
 21
-5.7098872581
 31
0.0
  0
SPLINE
  5
36A
100
AcDbEntity
  8
DRAFT
100
AcDbSpline
 62
7
  6
CONTINUOUS
 70
0
 71
3
 72
15
 73
11
 74
9
 42
0.0000001
 43
0.0000001
 44
0.0000000001
 12
0.0
 22
-9.7852799896
 32
0.0
 13
8.981438395
 23
-3.884001652
 33
0.0
 40
0.0
 40
0.0
 40
0.0
 40
0.0
 40
0.120608103
 40
0.2486824945
 40
0.3813466217
 40
0.5152798986
 40
0.6470519724
 40
0.7734268525
 40
0.8916870964
 40
1.0
 40
1.0
 40
1.0
 40
1.0
 10
-18.0037113239
 20
6.1734285372
 30
0.0
 10
-18.0037113239
 20
5.7800338514
 30
0.0
 10
-17.9343686184
 20
4.9680307099
 30
0.0
 10
-17.6534854415
 20
3.7527538918
 30
0.0
 10
-17.2034139081
 20
2.5429666545
 30
0.0
 10
-16.6021585346
 20
1.3873544098
 30
0.0
 10
-15.8738050592
 20
0.3319893465
 30
0.0
 10
-15.0470170557
 20
-0.581078736
 30
0.0
 10
-14.1547733049
 20
-1.3153468243
 30
0.0
 10
-13.5077487907
 20
-1.6834349453
 30
0.0
 10
-13.1834802336
 20
-1.8236641108
 30
0.0
 11
-18.0037113239
 21
6.1734285372
 31
0.0
 11
-17.9096771137
 21
4.9969966537
 31
0.0
 11
-17.631462177
 21
3.7750243049
 31
0.0
 11
-17.1805063712
 21
2.557712965
 31
0.0
 11
-16.5753774838
 21
1.3952049652
 31
0.0
 11
-15.8409858847
 21
0.3353511871
 31
0.0
 11
-15.0075549096
 21
-0.5782165282
 31
0.0
 11
-14.1093975885
 21
-1.3079065169
 31
0.0
 11
-13.1834802336
 21
-1.8236641108
 31
0.0
  0
SPLINE
  5
36B
100
AcDbEntity
  8
DRAFT
100
AcDbSpline
 62
7
  6
CONTINUOUS
 70
0
 71
3
 72
11
 73
7
 74
5
 42
0.0000001
 43
0.0000001
 44
0.0000000001
 12
-2.2050020692
 22
-2.2793017712
 32
0.0
 13
0.0
 23
-3.1713168699
 33
0.0
 40
0.0
 40
0.0
 40
0.0
 40
0.0
 40
0.2205064911
 40
0.4589009922
 40
0.718551288
 40
1.0
 40
1.0
 40
1.0
 40
1.0
 10
-19.4185626529
 20
7.8375614615
 30
0.0
 10
-19.5806350759
 20
7.6700278496
 30
0.0
 10
-19.8722615744
 20
7.2753326634
 30
0.0
 10
-20.1782580429
 20
6.5746698458
 30
0.0
 10
-20.3623686574
 20
5.7673649288
 30
0.0
 10
-20.4000306372
 20
5.1942354758
 30
0.0
 10
-20.4000306372
 20
4.8967144597
 30
0.0
 11
-19.4185626529
 21
7.8375614615
 31
0.0
 11
-19.8386817387
 21
7.2785312417
 31
0.0
 11
-20.1475641773
 21
6.5884843677
 31
0.0
 11
-20.3364637537
 21
5.7870110656
 31
0.0
 11
-20.4000306372
 21
4.8967144597
 31
0.0
  0
SPLINE
  5
36C
100
AcDbEntity
  8
RACCORDO
100
AcDbSpline
 62
7
  6
CONTINUOUS
 70
0
 71
3
 72
9
 73
5
 74
3
 42
0.0000001
 43
0.0000001
 44
0.0000000001
 12
-0.2449485015
 22
-0.2919547838
 32
0.0
 13
-0.1625749419
 23
-0.344683554
 33
0.0
 40
0.0
 40
0.0
 40
0.0
 40
0.0
 40
0.2425704973
 40
1.0
 40
1.0
 40
1.0
 40
1.0
 10
-6.4559749149
 20
-22.9065479723
 30
0.0
 10
-6.4757806748
 20
-22.9301545113
 30
0.0
 10
-6.5539985529
 20
-23.0303340942
 30
0.0
 10
-6.6183092297
 20
-23.1411032289
 30
0.0
 10
-6.6593555821
 20
-23.2281277266
 30
0.0
 11
-6.4559749149
 21
-22.9065479723
 31
0.0
 11
-6.5129090681
 21
-22.9793788277
 31
0.0
 11
-6.6593555821
 21
-23.2281277266
 31
0.0
  0
SPLINE
  5
36D
100
AcDbEntity
  8
RACCORDO
100
AcDbSpline
 62
253
  6
CONTINUOUS
 70
0
 71
3
 72
9
 73
5
 74
3
 42
0.0000001
 43
0.0000001
 44
0.0000000001
 12
-1.5532456442
 22
0.4663321787
 32
0.0
 13
-1.3279410739
 23
0.9309190278
 33
0.0
 40
0.0
 40
0.0
 40
0.0
 40
0.0
 40
0.2361523219
 40
1.0
 40
1.0
 40
1.0
 40
1.0
 10
-6.1795736562
 20
4.5397426926
 30
0.0
 10
-6.301841178
 20
4.5764511682
 30
0.0
 10
-6.812191615
 20
4.7564312353
 30
0.0
 10
-7.288411244
 20
5.0261921582
 30
0.0
 10
-7.626526146
 20
5.2632189375
 30
0.0
 11
-6.1795736562
 21
4.5397426926
 31
0.0
 11
-6.5409786552
 21
4.6664634812
 31
0.0
 11
-7.626526146
 21
5.2632189375
 31
0.0
  0
SPLINE
  5
36E
100
AcDbEntity
  8
RACCORDO
100
AcDbSpline
 62
253
  6
CONTINUOUS
 70
0
 71
3
 72
11
 73
7
 74
5
 42
0.0000001
 43
0.0000001
 44
0.0000000001
 12
0.1292175151
 22
1.0950105387
 32
0.0
 13
0.9677835773
 23
0.5283371968
 33
0.0
 40
0.0
 40
0.0
 40
0.0
 40
0.0
 40
0.2516387366
 40
0.5141686896
 40
0.7691036206
 40
1.0
 40
1.0
 40
1.0
 40
1.0
 10
-10.7450782244
 20
17.5024619949
 30
0.0
 10
-10.7342395136
 20
17.5943110178
 30
0.0
 10
-10.6874822674
 20
17.7794792017
 30
0.0
 10
-10.5612024959
 20
18.0345436072
 30
0.0
 10
-10.3895302748
 20
18.2519724469
 30
0.0
 10
-10.2468582512
 20
18.3638001622
 30
0.0
 10
-10.1723723432
 20
18.4044638775
 30
0.0
 11
-10.7450782244
 21
17.5024619949
 31
0.0
 11
-10.6794512358
 21
17.7720479445
 31
0.0
 11
-10.5512704806
 21
18.0315884208
 31
0.0
 11
-10.3754184417
 21
18.25088173
 31
0.0
 11
-10.1723723432
 21
18.4044638775
 31
0.0
  0
SPLINE
  5
36F
100
AcDbEntity
  8
RACCORDO
100
AcDbSpline
 62
253
  6
CONTINUOUS
 70
0
 71
3
 72
11
 73
7
 74
5
 42
0.0000001
 43
0.0000001
 44
0.0000000001
 12
0.0000000006
 22
-0.576302702
 32
0.0
 13
-0.4839289583
 23
-0.3129497845
 33
0.0
 40
0.0
 40
0.0
 40
0.0
 40
0.0
 40
0.2874285034
 40
0.5475927338
 40
0.7825385713
 40
1.0
 40
1.0
 40
1.0
 40
1.0
 10
15.6865970207
 20
-24.9217264377
 30
0.0
 10
15.6865970208
 20
-24.976941712
 30
0.0
 10
15.6782788295
 20
-25.0824639166
 30
0.0
 10
15.6368008341
 20
-25.2281988153
 30
0.0
 10
15.567685335
 20
-25.3482283565
 30
0.0
 10
15.5025272903
 20
-25.4083842176
 30
0.0
 10
15.4674486627
 20
-25.4310690534
 30
0.0
 11
15.6865970207
 21
-24.9217264377
 31
0.0
 11
15.6721596951
 21
-25.0867418986
 31
0.0
 11
15.6294503612
 21
-25.2304635808
 31
0.0
 11
15.560251087
 21
-25.3468448467
 31
0.0
 11
15.4674486627
 21
-25.4310690534
 31
0.0
  0
SPLINE
  5
370
100
AcDbEntity
  8
RACCORDO
100
AcDbSpline
 62
253
  6
CONTINUOUS
 70
0
 71
3
 72
11
 73
7
 74
5
 42
0.0000001
 43
0.0000001
 44
0.0000000001
 12
0.0000000006
 22
-0.576302702
 32
0.0
 13
-0.4839289583
 23
-0.3129497845
 33
0.0
 40
0.0
 40
0.0
 40
0.0
 40
0.0
 40
0.2874285034
 40
0.5475927338
 40
0.7825385713
 40
1.0
 40
1.0
 40
1.0
 40
1.0
 10
15.6865970207
 20
7.1212135024
 30
0.0
 10
15.6865970208
 20
7.065998228
 30
0.0
 10
15.6782788295
 20
6.9604760235
 30
0.0
 10
15.6368008341
 20
6.8147411248
 30
0.0
 10
15.567685335
 20
6.6947115835
 30
0.0
 10
15.5025272903
 20
6.6345557224
 30
0.0
 10
15.4674486627
 20
6.6118708866
 30
0.0
 11
15.6865970207
 21
7.1212135024
 31
0.0
 11
15.6721596951
 21
6.9561980414
 31
0.0
 11
15.6294503612
 21
6.8124763592
 31
0.0
 11
15.560251087
 21
6.6960950934
 31
0.0
 11
15.4674486627
 21
6.6118708866
 31
0.0
  0
SPLINE
  5
371
100
AcDbEntity
  8
RACCORDO
100
AcDbSpline
 62
253
  6
CONTINUOUS
 70
0
 71
3
 72
9
 73
5
 74
3
 42
0.0000001
 43
0.0000001
 44
0.0000000001
 12
0.1339770068
 22
0.0626602398
 32
0.0
 13
0.0643463043
 23
0.1331754374
 33
0.0
 40
0.0
 40
0.0
 40
0.0
 40
0.0
 40
0.4813696577
 40
1.0
 40
1.0
 40
1.0
 40
1.0
 10
-7.6227548244
 20
-23.7374280274
 30
0.0
 10
-7.6012573357
 20
-23.7273737814
 30
0.0
 10
-7.5604081243
 20
-23.6974914748
 30
0.0
 10
-7.532745114
 20
-23.6555613072
 30
0.0
 10
-7.5216211321
 20
-23.6325383663
 30
0.0
 11
-7.6227548244
 21
-23.7374280274
 31
0.0
 11
-7.5649856575
 21
-23.6958132188
 31
0.0
 11
-7.5216211321
 21
-23.6325383663
 31
0.0
  0
SPLINE
  5
372
100
AcDbEntity
  8
RACCORDO
100
AcDbSpline
 62
253
  6
CONTINUOUS
 70
0
 71
3
 72
15
 73
11
 74
9
 42
0.0000001
 43
0.0000001
 44
0.0000000001
 12
-0.0002598529
 22
6.9159277974
 32
0.0
 13
-6.1856408248
 23
3.0932030249
 33
0.0
 40
0.0
 40
0.0
 40
0.0
 40
0.0
 40
0.119775971
 40
0.2468107906
 40
0.3784620382
 40
0.5116669833
 40
0.6432374922
 40
0.7701218536
 40
0.8896781975
 40
1.0
 40
1.0
 40
1.0
 40
1.0
 10
14.1272921963
 20
10.5170492785
 30
0.0
 10
14.1272818216
 20
10.7931699343
 30
0.0
 10
14.0803520207
 20
11.3627231328
 30
0.0
 10
13.889402711
 20
12.216390603
 30
0.0
 10
13.5827536357
 20
13.0686227145
 30
0.0
 10
13.1718382251
 20
13.8873313153
 30
0.0
 10
12.6720808436
 20
14.6419806608
 30
0.0
 10
12.1019318421
 20
15.3044048553
 30
0.0
 10
11.4827492955
 20
15.8498317991
 30
0.0
 10
11.0318668435
 20
16.1344473532
 30
0.0
 10
10.804396495
 20
16.2481965976
 30
0.0
 11
14.1272921963
 21
10.5170492785
 31
0.0
 11
14.0634575069
 21
11.3429479905
 31
0.0
 11
13.8743925661
 21
12.2009273135
 31
0.0
 11
13.5673436535
 21
13.0580818844
 31
0.0
 11
13.1540976225
 21
13.8814305869
 31
0.0
 11
12.6505431772
 21
14.6393286154
 31
0.0
 11
12.0760316219
 21
15.3026409345
 31
0.0
 11
11.4526796845
 21
15.8458736466
 31
0.0
 11
10.804396495
 21
16.2481965976
 31
0.0
  0
SPLINE
  5
373
100
AcDbEntity
  8
RACCORDO
100
AcDbSpline
 62
253
  6
CONTINUOUS
 70
0
 71
3
 72
19
 73
15
 74
13
 42
0.0000001
 43
0.0000001
 44
0.0000000001
 12
4.548109217
 22
-2.0111173025
 32
0.0
 13
0.0002050705
 23
4.9729156651
 33
0.0
 40
0.0
 40
0.0
 40
0.0
 40
0.0
 40
0.1322571103
 40
0.2527069469
 40
0.3097364744
 40
0.3654115277
 40
0.4205135253
 40
0.475868082
 40
0.5322810173
 40
0.5904774985
 40
0.7142411755
 40
0.7807907343
 40
0.8506238178
 40
1.0
 40
1.0
 40
1.0
 40
1.0
 10
10.9609792522
 20
-33.0660505363
 30
0.0
 10
11.1614858463
 20
-33.1547120572
 30
0.0
 10
11.5618013699
 20
-33.289556925
 30
0.0
 10
12.0795985398
 20
-33.3348814116
 30
0.0
 10
12.464192421
 20
-33.2853655771
 30
0.0
 10
12.7327593022
 20
-33.2088172062
 30
0.0
 10
12.9837459189
 20
-33.092788847
 30
0.0
 10
13.2146087453
 20
-32.9384305539
 30
0.0
 10
13.4230967881
 20
-32.7473523556
 30
0.0
 10
13.673650765
 20
-32.4403245943
 30
0.0
 10
13.8657558618
 20
-32.0702889442
 30
0.0
 10
13.9995753495
 20
-31.659878261
 30
0.0
 10
14.1004153228
 20
-31.1963314083
 30
0.0
 10
14.1272819855
 20
-30.8316501557
 30
0.0
 10
14.1272921963
 20
-30.5840384368
 30
0.0
 11
10.9609792522
 21
-33.0660505363
 31
0.0
 11
11.5865706304
 21
-33.2690511854
 31
0.0
 11
12.183804872
 21
-33.3148392109
 31
0.0
 11
12.4650106444
 21
-33.2780425711
 31
0.0
 11
12.7311669223
 21
-33.2017774918
 31
0.0
 11
12.9798657841
 21
-33.0867361327
 31
0.0
 11
13.2088448758
 21
-32.9339483755
 31
0.0
 11
13.416034114
 21
-32.7448095404
 31
0.0
 11
13.5995573252
 21
-32.5210347083
 31
0.0
 11
13.8891682409
 21
-31.9779653581
 31
0.0
 11
13.9926412872
 21
-31.6636118161
 31
0.0
 11
14.0672218582
 21
-31.3244407769
 31
0.0
 11
14.1272921963
 21
-30.5840384368
 31
0.0
  0
SPLINE
  5
374
100
AcDbEntity
  8
RACCORDO
100
AcDbSpline
 62
253
  6
CONTINUOUS
 70
0
 71
3
 72
9
 73
5
 74
3
 42
0.0000001
 43
0.0000001
 44
0.0000000001
 12
0.0648538895
 22
-0.2008005019
 32
0.0
 13
0.1887500657
 23
-0.0943413019
 33
0.0
 40
0.0
 40
0.0
 40
0.0
 40
0.0
 40
0.5279610095
 40
1.0
 40
1.0
 40
1.0
 40
1.0
 10
1.9821396802
 20
-28.4819129546
 30
0.0
 10
1.9935531219
 20
-28.5172512332
 30
0.0
 10
2.0268204026
 20
-28.5806430996
 30
0.0
 10
2.0803082324
 20
-28.6302512307
 30
0.0
 10
2.1100073626
 20
-28.6450954884
 30
0.0
 11
1.9821396802
 21
-28.4819129546
 31
0.0
 11
2.0343171091
 21
-28.5803459834
 31
0.0
 11
2.1100073626
 21
-28.6450954884
 31
0.0
  0
SPLINE
  5
375
100
AcDbEntity
  8
RACCORDO
100
AcDbSpline
 62
253
  6
CONTINUOUS
 70
0
 71
3
 72
12
 73
8
 74
6
 42
0.0000001
 43
0.0000001
 44
0.0000000001
 12
3.6248027745
 22
-1.2151407821
 32
0.0
 13
1.2016152905
 23
-3.629308883
 33
0.0
 40
0.0
 40
0.0
 40
0.0
 40
0.0
 40
0.216500355
 40
0.3367688854
 40
0.463524741
 40
0.7296457585
 40
1.0
 40
1.0
 40
1.0
 40
1.0
 10
-0.4545274636
 20
-25.6409875345
 30
0.0
 10
-0.1929371011
 20
-25.7286803381
 30
0.0
 10
0.189578767
 20
-25.9412622461
 30
0.0
 10
0.6446166376
 20
-26.3184350469
 30
0.0
 10
1.0980819385
 20
-26.7916715718
 30
0.0
 10
1.5827363259
 20
-27.4909744273
 30
0.0
 10
1.86245252
 20
-28.119998062
 30
0.0
 10
1.9707397835
 20
-28.4470644121
 30
0.0
 11
-0.4545274636
 21
-25.6409875345
 31
0.0
 11
0.2774277514
 21
-26.027403726
 31
0.0
 11
0.6325101033
 21
-26.3195107278
 31
0.0
 11
0.9686702655
 21
-26.6685501004
 31
0.0
 11
1.5520063539
 21
-27.5021045855
 31
0.0
 11
1.9707397835
 21
-28.4470644121
 31
0.0
  0
SPLINE
  5
376
100
AcDbEntity
  8
RACCORDO
100
AcDbSpline
 62
253
  6
CONTINUOUS
 70
0
 71
3
 72
9
 73
5
 74
3
 42
0.0000001
 43
0.0000001
 44
0.0000000001
 12
4.6102744915
 22
-3.0346771187
 32
0.0
 13
5.233188388
 23
-1.7543190696
 33
0.0
 40
0.0
 40
0.0
 40
0.0
 40
0.0
 40
0.5160413621
 40
1.0
 40
1.0
 40
1.0
 40
1.0
 10
-5.3872999603
 20
-23.1904077037
 30
0.0
 10
-4.5942691842
 20
-23.7124140083
 30
0.0
 10
-3.0002324973
 20
-24.6405832229
 30
0.0
 10
-1.2987430383
 20
-25.3579815787
 30
0.0
 10
-0.4545274636
 20
-25.6409875345
 30
0.0
 11
-5.3872999603
 21
-23.1904077037
 31
0.0
 11
-2.9204769258
 21
-24.6142334168
 31
0.0
 11
-0.4545274636
 21
-25.6409875345
 31
0.0
  0
SPLINE
  5
377
100
AcDbEntity
  8
RACCORDO
100
AcDbSpline
 62
253
  6
CONTINUOUS
 70
0
 71
3
 72
15
 73
11
 74
9
 42
0.0000001
 43
0.0000001
 44
0.0000000001
 12
1.2286958949
 22
2.5733393017
 32
0.0
 13
2.3747721803
 23
-1.5786785156
 33
0.0
 40
0.0
 40
0.0
 40
0.0
 40
0.0
 40
0.1239464981
 40
0.2403964377
 40
0.3531479583
 40
0.4667430887
 40
0.5855475674
 40
0.7129252022
 40
0.8508626827
 40
1.0
 40
1.0
 40
1.0
 40
1.0
 10
-7.9218366422
 20
-23.5299247935
 30
0.0
 10
-7.8710724577
 20
-23.4236059952
 30
0.0
 10
-7.7525788984
 20
-23.2258820229
 30
0.0
 10
-7.5169293108
 20
-22.9823317293
 30
0.0
 10
-7.2354936433
 20
-22.8108258851
 30
0.0
 10
-6.917194938
 20
-22.7175308731
 30
0.0
 10
-6.5723741995
 20
-22.7043126784
 30
0.0
 10
-6.2106621016
 20
-22.769753903
 30
0.0
 10
-5.8408140748
 20
-22.9107013861
 30
0.0
 10
-5.6032252157
 20
-23.0471865576
 30
0.0
 10
-5.4851694984
 20
-23.1256665171
 30
0.0
 11
-7.9218366422
 21
-23.5299247935
 31
0.0
 11
-7.7377402672
 21
-23.2282051746
 31
0.0
 11
-7.5053668812
 21
-22.9909833821
 31
0.0
 11
-7.2305021741
 21
-22.8241667168
 31
0.0
 11
-6.9199874951
 21
-22.7319073633
 31
0.0
 11
-6.5815520455
 21
-22.7165018283
 31
0.0
 11
-6.2236200854
 21
-22.778333559
 31
0.0
 11
-5.8551005527
 21
-22.915863459
 31
0.0
 11
-5.4851694984
 21
-23.1256665171
 31
0.0
  0
SPLINE
  5
378
100
AcDbEntity
  8
RACCORDO
100
AcDbSpline
 62
253
  6
CONTINUOUS
 70
0
 71
3
 72
11
 73
7
 74
5
 42
0.0000001
 43
0.0000001
 44
0.0000000001
 12
0.1334528353
 22
-0.0667502668
 32
0.0
 13
0.0642475373
 23
0.134675578
 33
0.0
 40
0.0
 40
0.0
 40
0.0
 40
0.0
 40
0.2777787406
 40
0.5212578604
 40
0.7523421238
 40
1.0
 40
1.0
 40
1.0
 40
1.0
 10
-8.0497043245
 20
-23.5652396448
 30
0.0
 10
-8.0373475377
 20
-23.5714202465
 30
0.0
 10
-8.0124440443
 20
-23.5802222105
 30
0.0
 10
-7.9739071282
 20
-23.5791049896
 30
0.0
 10
-7.9412020316
 20
-23.56123034
 30
0.0
 10
-7.9271404451
 20
-23.541042616
 30
0.0
 10
-7.9218366422
 20
-23.5299247935
 30
0.0
 11
-8.0497043245
 21
-23.5652396448
 31
0.0
 11
-8.0102951246
 21
-23.5780819626
 31
0.0
 11
-7.9740140711
 21
-23.5761803933
 31
0.0
 11
-7.9437274217
 21
-23.5596976083
 31
0.0
 11
-7.9218366422
 21
-23.5299247935
 31
0.0
  0
SPLINE
  5
379
100
AcDbEntity
  8
RACCORDO
100
AcDbSpline
 62
253
  6
CONTINUOUS
 70
0
 71
3
 72
12
 73
8
 74
6
 42
0.0000001
 43
0.0000001
 44
0.0000000001
 12
1.3781790928
 22
-5.1734556141
 32
0.0
 13
4.7885364926
 23
-2.394564441
 33
0.0
 40
0.0
 40
0.0
 40
0.0
 40
0.0
 40
0.2621965879
 40
0.5254842112
 40
0.6530490205
 40
0.7755668331
 40
1.0
 40
1.0
 40
1.0
 40
1.0
 10
-19.8539455913
 20
-15.0273109229
 30
0.0
 10
-19.7334943061
 20
-15.4794650594
 30
0.0
 10
-19.4010925349
 20
-16.3631883613
 30
0.0
 10
-18.7974796393
 20
-17.3681291964
 30
0.0
 10
-18.2160220969
 20
-18.078300847
 30
0.0
 10
-17.6143766175
 20
-18.675001586
 30
0.0
 10
-17.1023289269
 20
-19.038905185
 30
0.0
 10
-16.7440934569
 20
-19.2180450786
 30
0.0
 11
-19.8539455913
 21
-15.0273109229
 31
0.0
 11
-19.3636159076
 21
-16.3426601839
 31
0.0
 11
-18.6350826058
 21
-17.5494078035
 31
0.0
 11
-18.2015026855
 21
-18.0770930977
 31
0.0
 11
-17.7346003737
 21
-18.5378173013
 31
0.0
 11
-16.7440934569
 21
-19.2180450786
 31
0.0
  0
SPLINE
  5
37A
100
AcDbEntity
  8
RACCORDO
100
AcDbSpline
 62
253
  6
CONTINUOUS
 70
0
 71
3
 72
18
 73
14
 74
12
 42
0.0000001
 43
0.0000001
 44
0.0000000001
 12
-4.6014850678
 22
2.3004831909
 32
0.0
 13
-0.0002121463
 23
-5.1445007237
 33
0.0
 40
0.0
 40
0.0
 40
0.0
 40
0.0
 40
0.1347796373
 40
0.2569449513
 40
0.3144282823
 40
0.3702681169
 40
0.4252630054
 40
0.4802800747
 40
0.5361848205
 40
0.5937701964
 40
0.7162303239
 40
0.8513494202
 40
1.0
 40
1.0
 40
1.0
 40
1.0
 10
-16.7440934569
 20
30.0224415736
 30
0.0
 10
-16.9508222864
 20
30.1257943369
 30
0.0
 10
-17.36431959
 20
30.2880102208
 30
0.0
 10
-17.9048225304
 20
30.3638908428
 30
0.0
 10
-18.308826318
 20
30.3329066803
 30
0.0
 10
-18.5911419016
 20
30.267385503
 30
0.0
 10
-18.8556481421
 20
30.1595767131
 30
0.0
 10
-19.0994817137
 20
30.0106025433
 30
0.0
 10
-19.3200576719
 20
29.8221121991
 30
0.0
 10
-19.5854842625
 20
29.5149474961
 30
0.0
 10
-19.8465089451
 20
29.0340125396
 30
0.0
 10
-20.0299026798
 20
28.3571687929
 30
0.0
 10
-20.0669786464
 20
27.8691009609
 30
0.0
 10
-20.0669891583
 20
27.6141899558
 30
0.0
 11
-16.7440934569
 21
30.0224415736
 31
0.0
 11
-17.3923765286
 21
30.2684019009
 31
0.0
 11
-18.0157282735
 21
30.3485214568
 31
0.0
 11
-18.3105284158
 21
30.3251764092
 31
0.0
 11
-18.5902398563
 21
30.2597206672
 31
0.0
 11
-18.8521702146
 21
30.1527771428
 31
0.0
 11
-19.0937942711
 21
30.0053769174
 31
0.0
 11
-19.3127886114
 21
29.8189462533
 31
0.0
 11
-19.5070401786
 21
29.5952741469
 31
0.0
 11
-19.8140890589
 21
29.0451685061
 31
0.0
 11
-20.0031543483
 21
28.3762540625
 31
0.0
 11
-20.0669891583
 21
27.6141899558
 31
0.0
  0
SPLINE
  5
37B
100
AcDbEntity
  8
RACCORDO
100
AcDbSpline
 62
253
  6
CONTINUOUS
 70
0
 71
3
 72
9
 73
5
 74
3
 42
0.0000001
 43
0.0000001
 44
0.0000000001
 12
-0.0648538895
 22
0.2008005019
 32
0.0
 13
-0.1887500657
 23
0.0943413019
 33
0.0
 40
0.0
 40
0.0
 40
0.0
 40
0.0
 40
0.5279610095
 40
1.0
 40
1.0
 40
1.0
 40
1.0
 10
-7.9218366422
 20
25.5120644737
 30
0.0
 10
-7.9332500838
 20
25.5474027522
 30
0.0
 10
-7.9665173646
 20
25.6107946186
 30
0.0
 10
-8.0200051944
 20
25.6604027497
 30
0.0
 10
-8.0497043245
 20
25.6752470074
 30
0.0
 11
-7.9218366422
 21
25.5120644737
 31
0.0
 11
-7.9740140711
 21
25.6104975024
 31
0.0
 11
-8.0497043245
 21
25.6752470074
 31
0.0
  0
SPLINE
  5
37C
100
AcDbEntity
  8
RACCORDO
100
AcDbSpline
 62
253
  6
CONTINUOUS
 70
0
 71
3
 72
12
 73
8
 74
6
 42
0.0000001
 43
0.0000001
 44
0.0000000001
 12
-3.6593994301
 22
1.2267386013
 32
0.0
 13
-1.1868446275
 23
3.6725320442
 33
0.0
 40
0.0
 40
0.0
 40
0.0
 40
0.0
 40
0.2165106684
 40
0.3368701008
 40
0.4637333623
 40
0.7299586484
 40
1.0
 40
1.0
 40
1.0
 40
1.0
 10
-5.4851694984
 20
22.6711390535
 30
0.0
 10
-5.7492691705
 20
22.7596730517
 30
0.0
 10
-6.1353083471
 20
22.9750577322
 30
0.0
 10
-6.5938332754
 20
23.3572762299
 30
0.0
 10
-7.050249889
 20
23.8369113142
 30
0.0
 10
-7.5363881633
 20
24.5449799897
 30
0.0
 10
-7.8150042664
 20
25.181485968
 30
0.0
 10
-7.9218366422
 20
25.5120644737
 30
0.0
 11
-5.4851694984
 21
22.6711390535
 31
0.0
 11
-6.2236200273
 21
23.062256641
 31
0.0
 11
-6.5815519977
 21
23.358356867
 31
0.0
 11
-6.9199874406
 21
23.7121978329
 31
0.0
 11
-7.5053668408
 21
24.5566532277
 31
0.0
 11
-7.9218366422
 21
25.5120644737
 31
0.0
  0
SPLINE
  5
37D
100
AcDbEntity
  8
RACCORDO
100
AcDbSpline
 62
253
  6
CONTINUOUS
 70
0
 71
3
 72
9
 73
5
 74
3
 42
0.0000001
 43
0.0000001
 44
0.0000000001
 12
-4.693985163
 22
3.1204229151
 32
0.0
 13
-5.3442395463
 23
1.7915466926
 33
0.0
 40
0.0
 40
0.0
 40
0.0
 40
0.0
 40
0.5163330612
 40
1.0
 40
1.0
 40
1.0
 40
1.0
 10
-0.4545274636
 20
20.1558180361
 30
0.0
 10
-1.2624140398
 20
20.6928772081
 30
0.0
 10
-2.8868550679
 20
21.6468967905
 30
0.0
 10
-4.6235588378
 20
22.382301752
 30
0.0
 10
-5.4851694984
 20
22.6711390535
 30
0.0
 11
-0.4545274636
 21
20.1558180361
 31
0.0
 11
-2.9698484853
 21
21.6197782902
 31
0.0
 11
-5.4851694984
 21
22.6711390535
 31
0.0
  0
SPLINE
  5
37E
100
AcDbEntity
  8
RACCORDO
100
AcDbSpline
 62
253
  6
CONTINUOUS
 70
0
 71
3
 72
15
 73
11
 74
9
 42
0.0000001
 43
0.0000001
 44
0.0000000001
 12
-1.2286958949
 22
-2.5733393017
 32
0.0
 13
-2.3747721803
 23
1.5786785156
 33
0.0
 40
0.0
 40
0.0
 40
0.0
 40
0.0
 40
0.1239464981
 40
0.2403964377
 40
0.3531479583
 40
0.4667430887
 40
0.5855475674
 40
0.7129252022
 40
0.8508626827
 40
1.0
 40
1.0
 40
1.0
 40
1.0
 10
1.9821396802
 20
20.5600763125
 30
0.0
 10
1.9313754957
 20
20.4537575142
 30
0.0
 10
1.8128819365
 20
20.256033542
 30
0.0
 10
1.5772323488
 20
20.0124832484
 30
0.0
 10
1.2957966813
 20
19.8409774041
 30
0.0
 10
0.9774979761
 20
19.7476823921
 30
0.0
 10
0.6326772375
 20
19.7344641974
 30
0.0
 10
0.2709651396
 20
19.799905422
 30
0.0
 10
-0.0988828871
 20
19.9408529051
 30
0.0
 10
-0.3364717462
 20
20.0773380766
 30
0.0
 10
-0.4545274636
 20
20.1558180361
 30
0.0
 11
1.9821396802
 21
20.5600763125
 31
0.0
 11
1.7980433052
 21
20.2583566936
 31
0.0
 11
1.5656699192
 21
20.0211349011
 31
0.0
 11
1.2908052122
 21
19.8543182358
 31
0.0
 11
0.9802905332
 21
19.7620588824
 31
0.0
 11
0.6418550836
 21
19.7466533473
 31
0.0
 11
0.2839231234
 21
19.808485078
 31
0.0
 11
-0.0845964093
 21
19.946014978
 31
0.0
 11
-0.4545274636
 21
20.1558180361
 31
0.0
  0
SPLINE
  5
37F
100
AcDbEntity
  8
RACCORDO
100
AcDbSpline
 62
253
  6
CONTINUOUS
 70
0
 71
3
 72
11
 73
7
 74
5
 42
0.0000001
 43
0.0000001
 44
0.0000000001
 12
-0.1334528353
 22
0.0667502668
 32
0.0
 13
-0.0642475373
 23
-0.134675578
 33
0.0
 40
0.0
 40
0.0
 40
0.0
 40
0.0
 40
0.2777787406
 40
0.5212578604
 40
0.7523421238
 40
1.0
 40
1.0
 40
1.0
 40
1.0
 10
2.1100073626
 20
20.5953911638
 30
0.0
 10
2.0976505757
 20
20.6015717655
 30
0.0
 10
2.0727470824
 20
20.6103737295
 30
0.0
 10
2.0342101663
 20
20.6092565086
 30
0.0
 10
2.0015050696
 20
20.591381859
 30
0.0
 10
1.9874434831
 20
20.571194135
 30
0.0
 10
1.9821396802
 20
20.5600763125
 30
0.0
 11
2.1100073626
 21
20.5953911638
 31
0.0
 11
2.0705981626
 21
20.6082334816
 31
0.0
 11
2.0343171091
 21
20.6063319123
 31
0.0
 11
2.0040304597
 21
20.5898491273
 31
0.0
 11
1.9821396802
 21
20.5600763125
 31
0.0
  0
SPLINE
  5
380
100
AcDbEntity
  8
RACCORDO
100
AcDbSpline
 62
253
  6
CONTINUOUS
 70
0
 71
3
 72
11
 73
7
 74
5
 42
0.0000001
 43
0.0000001
 44
0.0000000001
 12
0.0101508145
 22
-0.1243504381
 32
0.0
 13
0.1170184054
 23
-0.043275435
 33
0.0
 40
0.0
 40
0.0
 40
0.0
 40
0.0
 40
0.1972473526
 40
0.4208827005
 40
0.6871479462
 40
1.0
 40
1.0
 40
1.0
 40
1.0
 10
8.1520492772
 20
-10.4972105894
 30
0.0
 10
8.1527166843
 20
-10.5053865209
 30
0.0
 10
8.1582514061
 20
-10.5226337967
 30
0.0
 10
8.1769445883
 20
-10.544880169
 30
0.0
 10
8.2046016417
 20
-10.5640366881
 30
0.0
 10
8.2267047051
 20
-10.5738960321
 30
0.0
 10
8.2389078546
 20
-10.5784089684
 30
0.0
 11
8.1520492772
 21
-10.4972105894
 31
0.0
 11
8.1592035288
 21
-10.5207571027
 31
0.0
 11
8.1765248921
 21
-10.5426311205
 31
0.0
 11
8.2034512809
 21
-10.5620877416
 31
0.0
 11
8.2389078546
 21
-10.5784089684
 31
0.0
  0
SPLINE
  5
381
100
AcDbEntity
  8
RACCORDO
100
AcDbSpline
 62
253
  6
CONTINUOUS
 70
0
 71
3
 72
11
 73
7
 74
5
 42
0.0000001
 43
0.0000001
 44
0.0000000001
 12
-0.0146654607
 22
-0.165854847
 32
0.0
 13
0.1408847888
 23
-0.0887377164
 33
0.0
 40
0.0
 40
0.0
 40
0.0
 40
0.0
 40
0.2131310037
 40
0.4442495644
 40
0.7054689111
 40
1.0
 40
1.0
 40
1.0
 40
1.0
 10
8.1522384107
 20
-11.6688114869
 30
0.0
 10
8.1511965226
 20
-11.6805944236
 30
0.0
 10
8.1537784446
 20
-11.7057645543
 30
0.0
 10
8.1710845173
 20
-11.7415562129
 30
0.0
 10
8.2001960217
 20
-11.7746435034
 30
0.0
 10
8.2250751158
 20
-11.7932161914
 30
0.0
 10
8.2389067658
 20
-11.8019281968
 30
0.0
 11
8.1522384107
 21
-11.6688114869
 31
0.0
 11
8.155587978
 21
-11.7041397836
 31
0.0
 11
8.1716985213
 21
-11.739086762
 31
0.0
 11
8.199917611
 21
-11.772183146
 31
0.0
 11
8.2389067658
 21
-11.8019281968
 31
0.0
  0
LINE
  5
382
100
AcDbEntity
  8
RACCORDO
100
AcDbLine
 62
253
  6
CONTINUOUS
 10
3.1612202067
 20
21.4084319462
 11
2.9886914823
 21
21.316500584
  0
LINE
  5
383
100
AcDbEntity
  8
RACCORDO
100
AcDbLine
 62
253
  6
CONTINUOUS
 10
2.9886914823
 20
21.316500584
 11
2.3184371824
 21
20.9593741249
  0
LINE
  5
384
100
AcDbEntity
  8
RACCORDO
100
AcDbLine
 62
253
  6
CONTINUOUS
 10
-7.8412745047
 20
26.0392299685
 11
-6.9795968251
 21
26.4788404622
  0
SPLINE
  5
385
100
AcDbEntity
  8
RACCORDO
100
AcDbSpline
 62
253
  6
CONTINUOUS
 70
0
 71
3
 72
10
 73
6
 74
4
 42
0.0000001
 43
0.0000001
 44
0.0000000001
 12
0.3823822107
 22
0.8008701238
 32
0.0
 13
0.8023379773
 23
0.3792926052
 33
0.0
 40
0.0
 40
0.0
 40
0.0
 40
0.0
 40
0.5170581405
 40
0.7607865124
 40
1.0
 40
1.0
 40
1.0
 40
1.0
 10
-7.5216208552
 20
-23.6325382395
 30
0.0
 10
-7.4557162436
 20
-23.4945061005
 30
0.0
 10
-7.3292363392
 20
-23.3021258752
 30
0.0
 10
-7.1060937539
 20
-23.1059674145
 30
0.0
 10
-6.9823701226
 20
-23.0324998843
 30
0.0
 10
-6.9183934341
 20
-23.0022559153
 30
0.0
 11
-7.5216208552
 21
-23.6325382395
 31
0.0
 11
-7.2638024695
 21
-23.2529380774
 31
0.0
 11
-7.1010216614
 21
-23.1104980498
 31
0.0
 11
-6.9183934341
 21
-23.0022559153
 31
0.0
  0
LINE
  5
386
100
AcDbEntity
  8
RACCORDO
100
AcDbLine
 62
253
  6
CONTINUOUS
 10
-6.6593555821
 20
-23.2281277266
 11
-6.8415472125
 21
-23.3135708087
  0
LINE
  5
387
100
AcDbEntity
  8
RACCORDO
100
AcDbLine
 62
253
  6
CONTINUOUS
 10
-6.8415472125
 20
-23.3135708087
 11
-7.5216208552
 21
-23.6325382395
  0
SPLINE
  5
388
100
AcDbEntity
  8
RACCORDO
100
AcDbSpline
 62
253
  6
CONTINUOUS
 70
0
 71
3
 72
12
 73
8
 74
6
 42
0.0000001
 43
0.0000001
 44
0.0000000001
 12
-3.3288785878
 22
1.115938268
 32
0.0
 13
-1.07964756
 23
3.3408250502
 33
0.0
 40
0.0
 40
0.0
 40
0.0
 40
0.0
 40
0.2165150701
 40
0.336869953
 40
0.4637336191
 40
0.7299534458
 40
1.0
 40
1.0
 40
1.0
 40
1.0
 10
-5.3050196419
 20
23.0469425923
 30
0.0
 10
-5.5452704355
 20
23.1274817431
 30
0.0
 10
-5.8964457093
 20
23.3234088507
 30
0.0
 10
-6.3135442983
 20
23.6711193898
 30
0.0
 10
-6.7287368565
 20
24.1074169033
 30
0.0
 10
-7.1709687717
 20
24.7515320216
 30
0.0
 10
-7.4244202643
 20
25.3305475365
 30
0.0
 10
-7.5216052988
 20
25.6312736342
 30
0.0
 11
-5.3050196419
 21
23.0469425923
 31
0.0
 11
-5.9767853888
 21
23.4027427735
 31
0.0
 11
-6.30237072
 21
23.6720954233
 31
0.0
 11
-6.6102418891
 21
23.9939756437
 31
0.0
 11
-7.1427429362
 21
24.76213995
 31
0.0
 11
-7.5216052988
 21
25.6312736342
 31
0.0
  0
LINE
  5
389
100
AcDbEntity
  8
RACCORDO
100
AcDbLine
 62
253
  6
CONTINUOUS
 10
-7.5216052988
 20
25.6312736342
 11
-6.6593555821
 21
26.0691066903
  0
SPLINE
  5
38A
100
AcDbEntity
  8
RACCORDO
100
AcDbSpline
 62
253
  6
CONTINUOUS
 70
0
 71
3
 72
9
 73
5
 74
3
 42
0.0000001
 43
0.0000001
 44
0.0000000001
 12
-4.7467600389
 22
3.1555060962
 32
0.0
 13
-5.4043252876
 23
1.8116892051
 33
0.0
 40
0.0
 40
0.0
 40
0.0
 40
0.0
 40
0.5163330685
 40
1.0
 40
1.0
 40
1.0
 40
1.0
 10
-0.2178176803
 20
20.5033416115
 30
0.0
 10
-1.0347874057
 20
21.0464389932
 30
0.0
 10
-2.6774920759
 20
22.0111848623
 30
0.0
 10
-4.4337218323
 20
22.7548578727
 30
0.0
 10
-5.3050196419
 20
23.0469425923
 30
0.0
 11
-0.2178176803
 21
20.5033416115
 31
0.0
 11
-2.7614186611
 21
21.9837613948
 31
0.0
 11
-5.3050196419
 21
23.0469425923
 31
0.0
  0
SPLINE
  5
38B
100
AcDbEntity
  8
RACCORDO
100
AcDbSpline
 62
253
  6
CONTINUOUS
 70
0
 71
3
 72
13
 73
9
 74
7
 42
0.0000001
 43
0.0000001
 44
0.0000000001
 12
-0.4357756435
 22
-0.1794540336
 32
0.0
 13
-0.0627593675
 23
0.4670818166
 33
0.0
 40
0.0
 40
0.0
 40
0.0
 40
0.0
 40
0.2608591863
 40
0.3787954676
 40
0.4929161651
 40
0.6081794015
 40
0.7292782797
 40
1.0
 40
1.0
 40
1.0
 40
1.0
 10
10.0541289676
 20
-29.323080014
 30
0.0
 10
10.016236941
 20
-29.3386840917
 30
0.0
 10
9.9560430041
 20
-29.3529135374
 30
0.0
 10
9.8786018378
 20
-29.342027448
 30
0.0
 10
9.8278760211
 20
-29.3200853372
 30
0.0
 10
9.7847398236
 20
-29.2847820518
 30
0.0
 10
9.737588003
 20
-29.2197065056
 30
0.0
 10
9.7200157546
 20
-29.1585218288
 30
0.0
 10
9.7143523132
 20
-29.1163720978
 30
0.0
 11
10.0541289676
 21
-29.323080014
 31
0.0
 11
9.9336547621
 21
-29.347566788
 31
0.0
 11
9.878665233
 21
-29.339480317
 31
0.0
 11
9.8293471854
 21
-29.3180254527
 31
0.0
 11
9.787149389
 21
-29.2838182011
 31
0.0
 11
9.7533025836
 21
-29.2378667312
 31
0.0
 11
9.7143523132
 21
-29.1163720978
 31
0.0
  0
SPLINE
  5
38C
100
AcDbEntity
  8
RACCORDO
100
AcDbSpline
 62
253
  6
CONTINUOUS
 70
0
 71
3
 72
9
 73
5
 74
3
 42
0.0000001
 43
0.0000001
 44
0.0000000001
 12
-1.2988989264
 22
9.6759490996
 32
0.0
 13
-0.156614339
 23
9.7614856117
 33
0.0
 40
0.0
 40
0.0
 40
0.0
 40
0.0
 40
0.2447331325
 40
1.0
 40
1.0
 40
1.0
 40
1.0
 10
9.7143523132
 20
-29.1163720978
 30
0.0
 10
9.6083911122
 20
-28.3270303202
 30
0.0
 10
9.225911105
 20
-25.0950505894
 30
0.0
 10
9.0411323096
 20
-21.8403859107
 30
0.0
 10
9.0017037692
 20
-19.382877024
 30
0.0
 11
9.7143523132
 21
-29.1163720978
 31
0.0
 11
9.4330212286
 21
-26.7437265737
 31
0.0
 11
9.0017037692
 21
-19.382877024
 31
0.0
  0
SPLINE
  5
38D
100
AcDbEntity
  8
RACCORDO
100
AcDbSpline
 62
253
  6
CONTINUOUS
 70
0
 71
3
 72
9
 73
5
 74
3
 42
0.0000001
 43
0.0000001
 44
0.0000000001
 12
0.1649162971
 22
10.4354419776
 32
0.0
 13
1.2340021769
 23
10.3635363308
 33
0.0
 40
0.0
 40
0.0
 40
0.0
 40
0.0
 40
0.2456269037
 40
1.0
 40
1.0
 40
1.0
 40
1.0
 10
9.0017037692
 20
-2.9448488347
 30
0.0
 10
9.0152063956
 20
-2.0904404007
 30
0.0
 10
9.1173072579
 20
1.3871938391
 30
0.0
 10
9.4040529656
 20
4.8589334592
 30
0.0
 10
9.7143523132
 20
7.464924456
 30
0.0
 11
9.0017037692
 21
-2.9448488347
 31
0.0
 11
9.0765039321
 21
-0.382394977
 31
0.0
 11
9.7143523132
 21
7.464924456
 31
0.0
  0
SPLINE
  5
38E
100
AcDbEntity
  8
RACCORDO
100
AcDbSpline
 62
253
  6
CONTINUOUS
 70
0
 71
3
 72
11
 73
7
 74
5
 42
0.0000001
 43
0.0000001
 44
0.0000000001
 12
0.0768253545
 22
0.6446713993
 32
0.0
 13
0.571941043
 23
0.3072243342
 33
0.0
 40
0.0
 40
0.0
 40
0.0
 40
0.0
 40
0.2513335813
 40
0.5135653153
 40
0.7685217099
 40
1.0
 40
1.0
 40
1.0
 40
1.0
 10
9.7143523132
 20
7.464924456
 30
0.0
 10
9.7207885771
 20
7.5189336465
 30
0.0
 10
9.7485381684
 20
7.6277960157
 30
0.0
 10
9.8235119069
 20
7.777554003
 30
0.0
 10
9.9254092192
 20
7.9050424798
 30
0.0
 10
10.0099983227
 20
7.9703631232
 30
0.0
 10
10.0541289676
 20
7.9940683777
 30
0.0
 11
9.7143523132
 21
7.464924456
 31
0.0
 11
9.7533025836
 21
7.6233815158
 31
0.0
 11
9.8293471854
 21
7.7757038699
 31
0.0
 11
9.9336547621
 21
7.9042293995
 31
0.0
 11
10.0541289676
 21
7.9940683777
 31
0.0
  0
SPLINE
  5
38F
100
AcDbEntity
  8
RACCORDO
100
AcDbSpline
 62
253
  6
CONTINUOUS
 70
0
 71
3
 72
11
 73
7
 74
5
 42
0.0000001
 43
0.0000001
 44
0.0000000001
 12
0.3115314806
 22
0.1283467489
 32
0.0
 13
0.0144701617
 23
0.3366234778
 33
0.0
 40
0.0
 40
0.0
 40
0.0
 40
0.0
 40
0.216311755
 40
0.4493382479
 40
0.7097072646
 40
1.0
 40
1.0
 40
1.0
 40
1.0
 10
9.9003905703
 20
-29.6040406334
 30
0.0
 10
9.9228532107
 20
-29.5947863299
 30
0.0
 10
9.9660871599
 20
-29.5662020649
 30
0.0
 10
10.0140156767
 20
-29.5009120009
 30
0.0
 10
10.044672381
 20
-29.4174524405
 30
0.0
 10
10.0527287733
 20
-29.3556531307
 30
0.0
 10
10.0541289676
 20
-29.323080014
 30
0.0
 11
9.9003905703
 21
-29.6040406334
 31
0.0
 11
9.9614919642
 21
-29.5643099047
 31
0.0
 11
10.0090419829
 21
-29.501831568
 31
0.0
 11
10.0404870763
 21
-29.4199335895
 31
0.0
 11
10.0541289676
 21
-29.323080014
 31
0.0
  0
SPLINE
  5
390
100
AcDbEntity
  8
RACCORDO
100
AcDbSpline
 62
253
  6
CONTINUOUS
 70
0
 71
3
 72
11
 73
7
 74
5
 42
0.0000001
 43
0.0000001
 44
0.0000000001
 12
-0.4536728239
 22
0.2278523648
 32
0.0
 13
-0.0667860279
 23
0.5032646995
 33
0.0
 40
0.0
 40
0.0
 40
0.0
 40
0.0
 40
0.2257065839
 40
0.4625183665
 40
0.7191169002
 40
1.0
 40
1.0
 40
1.0
 40
1.0
 10
9.2752809125
 20
-29.5915102969
 30
0.0
 10
9.241148598
 20
-29.5743677039
 30
0.0
 10
9.1761904896
 20
-29.5283314694
 30
0.0
 10
9.1000678619
 20
-29.431598329
 30
0.0
 10
9.0462372671
 20
-29.310933742
 30
0.0
 10
9.0268181413
 20
-29.2214461566
 30
0.0
 10
9.0205651191
 20
-29.1743266404
 30
0.0
 11
9.2752809125
 21
-29.5915102969
 31
0.0
 11
9.181559876
 21
-29.525583688
 31
0.0
 11
9.1062919788
 21
-29.4318365965
 31
0.0
 11
9.0520162313
 21
-29.3134128346
 31
0.0
 11
9.0205651191
 21
-29.1743266404
 31
0.0
  0
SPLINE
  5
391
100
AcDbEntity
  8
RACCORDO
100
AcDbSpline
 62
253
  6
CONTINUOUS
 70
0
 71
3
 72
19
 73
15
 74
13
 42
0.0000001
 43
0.0000001
 44
0.0000000001
 12
0.9915477607
 22
-11.7661375814
 32
0.0
 13
10.4448005876
 23
5.5073860617
 33
0.0
 40
0.0
 40
0.0
 40
0.0
 40
0.0
 40
0.1370688397
 40
0.2814620838
 40
0.4269089178
 40
0.5668916664
 40
0.6330720156
 40
0.69589137
 40
0.7549740945
 40
0.8101705294
 40
0.8616156163
 40
0.9097843478
 40
0.9555206317
 40
1.0
 40
1.0
 40
1.0
 40
1.0
 10
-21.9609927008
 20
3.5342376189
 30
0.0
 10
-21.9156892671
 20
2.9966473435
 30
0.0
 10
-21.7050836036
 20
1.9009552352
 30
0.0
 10
-21.1037673263
 20
0.3241315724
 30
0.0
 10
-20.2483449092
 20
-1.143971683
 30
0.0
 10
-19.3572643082
 20
-2.2134148059
 30
0.0
 10
-18.5686285949
 20
-2.9220856371
 30
0.0
 10
-17.9681892308
 20
-3.357692764
 30
0.0
 10
-17.3585958993
 20
-3.6993998956
 30
0.0
 10
-16.7502763074
 20
-3.9408722445
 30
0.0
 10
-16.153582844
 20
-4.0771666181
 30
0.0
 10
-15.5786891347
 20
-4.1045456726
 30
0.0
 10
-15.0365747703
 20
-4.0209167719
 30
0.0
 10
-14.7026305951
 20
-3.8903466243
 30
0.0
 10
-14.5477712178
 20
-3.8086916066
 30
0.0
 11
-21.9609927008
 21
3.5342376189
 31
0.0
 11
-21.6664898428
 21
1.942769927
 31
0.0
 11
-21.0634116063
 21
0.3480195297
 31
0.0
 11
-20.19714318
 21
-1.1349126413
 31
0.0
 11
-19.1324338164
 21
-2.3992123216
 31
0.0
 11
-18.549929699
 21
-2.920123692
 31
0.0
 11
-17.9481773089
 21
-3.3538327738
 31
0.0
 11
-17.3382372847
 21
-3.6924684226
 31
0.0
 11
-16.7312587665
 21
-3.9298631261
 31
0.0
 11
-16.1382743568
 21
-4.0616648589
 31
0.0
 11
-15.5700017354
 21
-4.0854179092
 31
0.0
 11
-15.0366553061
 21
-4.0006110326
 31
0.0
 11
-14.5477712178
 21
-3.8086916066
 31
0.0
  0
SPLINE
  5
392
100
AcDbEntity
  8
RACCORDO
100
AcDbSpline
 62
253
  6
CONTINUOUS
 70
0
 71
3
 72
9
 73
5
 74
3
 42
0.0000001
 43
0.0000001
 44
0.0000000001
 12
-0.0000415039
 22
-0.5982085249
 32
0.0
 13
0.0502616726
 23
-0.5960932857
 33
0.0
 40
0.0
 40
0.0
 40
0.0
 40
0.0
 40
0.4949693343
 40
1.0
 40
1.0
 40
1.0
 40
1.0
 10
-21.9840583977
 20
4.1318755461
 30
0.0
 10
-21.9840652454
 20
4.0331772543
 30
0.0
 10
-21.980627932
 20
3.8337638678
 30
0.0
 10
-21.9694539294
 20
3.6345860818
 30
0.0
 10
-21.9609927008
 20
3.5342376189
 30
0.0
 11
-21.9840583977
 21
4.1318755461
 31
0.0
 11
-21.9787670685
 21
3.8358279528
 31
0.0
 11
-21.9609927008
 21
3.5342376189
 31
0.0
  0
SPLINE
  5
393
100
AcDbEntity
  8
RACCORDO
100
AcDbSpline
 62
253
  6
CONTINUOUS
 70
0
 71
3
 72
9
 73
5
 74
3
 42
0.0000001
 43
0.0000001
 44
0.0000000001
 12
-0.0522165319
 22
-0.5685248566
 32
0.0
 13
0.0000402717
 23
-0.5709177499
 33
0.0
 40
0.0
 40
0.0
 40
0.0
 40
0.0
 40
0.4941542986
 40
1.0
 40
1.0
 40
1.0
 40
1.0
 10
-21.9609927008
 20
4.7021843517
 30
0.0
 10
-21.9695937087
 20
4.6085380178
 30
0.0
 10
-21.9808742507
 20
4.4184598582
 30
0.0
 10
-21.9840651881
 20
4.228140976
 30
0.0
 10
-21.9840583977
 20
4.1318755461
 30
0.0
 11
-21.9609927008
 21
4.7021843517
 31
0.0
 11
-21.9787669771
 21
4.4206233568
 31
0.0
 11
-21.9840583977
 21
4.1318755461
 31
0.0
  0
SPLINE
  5
394
100
AcDbEntity
  8
RACCORDO
100
AcDbSpline
 62
253
  6
CONTINUOUS
 70
0
 71
3
 72
21
 73
17
 74
15
 42
0.0000001
 43
0.0000001
 44
0.0000000001
 12
0.0002324046
 22
-12.4066565933
 32
0.0
 13
10.973661854
 23
5.788253052
 33
0.0
 40
0.0
 40
0.0
 40
0.0
 40
0.0
 40
0.1327664353
 40
0.2032270511
 40
0.2753350267
 40
0.4208545467
 40
0.4925936019
 40
0.5624372912
 40
0.6295997263
 40
0.6934223234
 40
0.7534267647
 40
0.8093764102
 40
0.8613457453
 40
0.9097895152
 40
0.9555852758
 40
1.0
 40
1.0
 40
1.0
 40
1.0
 10
-0.7733826656
 20
-6.4759466592
 30
0.0
 10
-0.7733723805
 20
-7.0250091825
 30
0.0
 10
-0.6710428057
 20
-7.8674953434
 30
0.0
 10
-0.3761060055
 20
-8.9681361152
 30
0.0
 10
0.0362119008
 20
-10.0874440326
 30
0.0
 10
0.5963467554
 20
-11.1530971265
 30
0.0
 10
1.2820495252
 20
-12.1238676409
 30
0.0
 10
1.8430232886
 20
-12.7817884077
 30
0.0
 10
2.4414714434
 20
-13.3596828873
 30
0.0
 10
3.0656550548
 20
-13.8463467365
 30
0.0
 10
3.7034538496
 20
-14.2322022874
 30
0.0
 10
4.342807078
 20
-14.5094670977
 30
0.0
 10
4.971820821
 20
-14.6720453953
 30
0.0
 10
5.5788335341
 20
-14.7152518619
 30
0.0
 10
6.1512264458
 20
-14.6362296454
 30
0.0
 10
6.5031868482
 20
-14.5008712998
 30
0.0
 10
6.6656509031
 20
-14.4151767455
 30
0.0
 11
-0.7733826656
 21
-6.4759466592
 31
0.0
 11
-0.5904335146
 21
-8.1129428411
 31
0.0
 11
-0.3653332706
 21
-8.9576449858
 31
0.0
 11
-0.0568026104
 21
-9.797378153
 31
0.0
 11
0.783282898
 21
-11.3954282714
 31
0.0
 11
1.2974450557
 21
-12.1219347883
 31
0.0
 11
1.8606444614
 21
-12.7804747617
 31
0.0
 11
2.4613508818
 21
-13.357948691
 31
0.0
 11
3.0873299508
 21
-13.8428580724
 31
0.0
 11
3.7259026243
 21
-14.2255295225
 31
0.0
 11
4.3642090641
 21
-14.4983048652
 31
0.0
 11
4.9894703523
 21
-14.655693308
 31
0.0
 11
5.5892425417
 21
-14.6944829021
 31
0.0
 11
6.1516582379
 21
-14.6138087472
 31
0.0
 11
6.6656509031
 21
-14.4151767455
 31
0.0
  0
SPLINE
  5
395
100
AcDbEntity
  8
RACCORDO
100
AcDbSpline
 62
253
  6
CONTINUOUS
 70
0
 71
3
 72
15
 73
11
 74
9
 42
0.0000001
 43
0.0000001
 44
0.0000000001
 12
-0.0064710305
 22
7.3564117715
 32
0.0
 13
-6.5769174245
 23
3.2956021023
 33
0.0
 40
0.0
 40
0.0
 40
0.0
 40
0.0
 40
0.119757206
 40
0.2467935277
 40
0.3784596137
 40
0.5116849845
 40
0.6432737885
 40
0.7701664643
 40
0.889713064
 40
1.0
 40
1.0
 40
1.0
 40
1.0
 10
14.5478219235
 20
10.5151171179
 30
0.0
 10
14.547563606
 20
10.8087782246
 30
0.0
 10
14.4971744491
 20
11.4145193226
 30
0.0
 10
14.2935550684
 20
12.3224292258
 30
0.0
 10
13.9670328978
 20
13.2289050926
 30
0.0
 10
13.5297888686
 20
14.0998171767
 30
0.0
 10
12.9982346879
 20
14.902681183
 30
0.0
 10
12.3919974672
 20
15.6075330454
 30
0.0
 10
11.7337839535
 20
16.1880093795
 30
0.0
 10
11.2545214399
 20
16.4910695899
 30
0.0
 10
11.0127387497
 20
16.6122235425
 30
0.0
 11
14.5478219235
 21
10.5151171179
 31
0.0
 11
14.4792600363
 21
11.3934288385
 31
0.0
 11
14.2776374201
 21
12.3059517734
 31
0.0
 11
13.9506815786
 21
13.2176902691
 31
0.0
 11
13.5109460286
 21
14.0935625983
 31
0.0
 11
12.975338073
 21
14.8999063995
 31
0.0
 11
12.3644397911
 21
15.6057244481
 31
0.0
 11
11.7017681558
 21
16.1838862646
 31
0.0
 11
11.0127387497
 21
16.6122235425
 31
0.0
  0
SPLINE
  5
396
100
AcDbEntity
  8
RACCORDO
100
AcDbSpline
 62
253
  6
CONTINUOUS
 70
0
 71
3
 72
12
 73
8
 74
6
 42
0.0000001
 43
0.0000001
 44
0.0000000001
 12
-2.1290992704
 22
1.0622451028
 32
0.0
 13
-2.0940669403
 23
-1.129739798
 33
0.0
 40
0.0
 40
0.0
 40
0.0
 40
0.0
 40
0.2795244402
 40
0.5353053539
 40
0.7723599701
 40
0.8867548417
 40
1.0
 40
1.0
 40
1.0
 40
1.0
 10
-16.5355840155
 20
30.3863849061
 30
0.0
 10
-16.7339624427
 20
30.4853593954
 30
0.0
 10
-17.1307182081
 20
30.6444346731
 30
0.0
 10
-17.7384309213
 20
30.7531652961
 30
0.0
 10
-18.2251166483
 20
30.7198432992
 30
0.0
 10
-18.5803600685
 20
30.6177969064
 30
0.0
 10
-18.7457109889
 20
30.5434404922
 30
0.0
 10
-18.8247586363
 20
30.5007946381
 30
0.0
 11
-16.5355840155
 21
30.3863849061
 31
0.0
 11
-17.1549793762
 21
30.6286635399
 31
0.0
 11
-17.7551111961
 21
30.729828676
 31
0.0
 11
-18.3175075302
 21
30.6867739041
 31
0.0
 11
-18.5790489748
 21
30.6113910084
 31
0.0
 11
-18.8247586363
 21
30.5007946381
 31
0.0
  0
SPLINE
  5
397
100
AcDbEntity
  8
RACCORDO
100
AcDbSpline
 62
253
  6
CONTINUOUS
 70
0
 71
3
 72
10
 73
6
 74
4
 42
0.0000001
 43
0.0000001
 44
0.0000000001
 12
-0.1652345154
 22
0.502211435
 32
0.0
 13
-0.4716032562
 23
0.2389751856
 33
0.0
 40
0.0
 40
0.0
 40
0.0
 40
0.0
 40
0.5268294424
 40
0.7757801585
 40
1.0
 40
1.0
 40
1.0
 40
1.0
 10
-7.5216052988
 20
25.6312736342
 30
0.0
 10
-7.5506221013
 20
25.719466891
 30
0.0
 10
-7.6163589253
 20
25.8434906934
 30
0.0
 10
-7.7369539541
 20
25.9728739356
 30
0.0
 10
-7.8060269022
 20
26.0213689757
 30
0.0
 10
-7.8412745047
 20
26.0392299685
 30
0.0
 11
-7.5216052988
 21
25.6312736342
 31
0.0
 11
-7.652734435
 21
25.8770079988
 31
0.0
 11
-7.7432611936
 21
25.9725511283
 31
0.0
 11
-7.8412745047
 21
26.0392299685
 31
0.0
  0
SPLINE
  5
398
100
AcDbEntity
  8
RACCORDO
100
AcDbSpline
 62
253
  6
CONTINUOUS
 70
0
 71
3
 72
10
 73
6
 74
4
 42
0.0000001
 43
0.0000001
 44
0.0000000001
 12
-0.2118903473
 22
0.1045380469
 32
0.0
 13
-0.2086862299
 23
-0.110796119
 33
0.0
 40
0.0
 40
0.0
 40
0.0
 40
0.0
 40
0.5350411614
 40
0.7728291561
 40
1.0
 40
1.0
 40
1.0
 40
1.0
 10
2.3184371824
 20
20.9593741249
 30
0.0
 10
2.2806471633
 20
20.9780181776
 30
0.0
 10
2.2203851329
 20
20.9971382025
 30
0.0
 10
2.1410234307
 20
20.9920053161
 30
0.0
 10
2.1059587831
 20
20.9795283427
 30
0.0
 10
2.0901563074
 20
20.9711384601
 30
0.0
 11
2.3184371824
 21
20.9593741249
 31
0.0
 11
2.1966932233
 21
20.9934267995
 31
0.0
 11
2.140660848
 21
20.989311701
 31
0.0
 11
2.0901563074
 21
20.9711384601
 31
0.0
  0
SPLINE
  5
399
100
AcDbEntity
  8
RACCORDO
100
AcDbSpline
 62
253
  6
CONTINUOUS
 70
0
 71
3
 72
11
 73
7
 74
5
 42
0.0000001
 43
0.0000001
 44
0.0000000001
 12
0.0
 22
0.4363619363
 32
0.0
 13
0.386929169
 23
0.2017363567
 33
0.0
 40
0.0
 40
0.0
 40
0.0
 40
0.0
 40
0.2462479807
 40
0.5106590784
 40
0.769251615
 40
1.0
 40
1.0
 40
1.0
 40
1.0
 10
10.804396495
 20
16.2481965976
 30
0.0
 10
10.804396495
 20
16.2840143462
 30
0.0
 10
10.8166157138
 20
16.3584218063
 30
0.0
 10
10.8610181699
 20
16.4621320116
 30
0.0
 10
10.926392368
 20
16.5512987877
 30
0.0
 10
10.9830652212
 20
16.5966627792
 30
0.0
 10
11.0128263148
 20
16.6121795587
 30
0.0
 11
10.804396495
 21
16.2481965976
 31
0.0
 11
10.8201938765
 21
16.3544822634
 31
0.0
 11
10.8652319885
 21
16.4607078155
 31
0.0
 11
10.9327816235
 21
16.5510953084
 31
0.0
 11
11.0128263148
 21
16.6121795587
 31
0.0
  0
SPLINE
  5
39A
100
AcDbEntity
  8
RACCORDO
100
AcDbSpline
 62
253
  6
CONTINUOUS
 70
0
 71
3
 72
11
 73
7
 74
5
 42
0.0000001
 43
0.0000001
 44
0.0000000001
 12
0.0000000741
 22
0.436361924
 32
0.0
 13
0.3869291253
 23
0.2017364141
 33
0.0
 40
0.0
 40
0.0
 40
0.0
 40
0.0
 40
0.2462479498
 40
0.5106590466
 40
0.7692515998
 40
1.0
 40
1.0
 40
1.0
 40
1.0
 10
2.1100073626
 20
20.5953911638
 30
0.0
 10
2.1100073686
 20
20.6312089069
 30
0.0
 10
2.1222265949
 20
20.7056163579
 30
0.0
 10
2.1666290498
 20
20.809326557
 30
0.0
 10
2.2320032411
 20
20.898493339
 30
0.0
 10
2.2886760894
 20
20.9438573404
 30
0.0
 10
2.3184371816
 20
20.9593741254
 30
0.0
 11
2.1100073626
 21
20.5953911638
 31
0.0
 11
2.1258047539
 21
20.7016768114
 31
0.0
 11
2.1708428657
 21
20.8079023597
 31
0.0
 11
2.238392496
 21
20.8982898612
 31
0.0
 11
2.3184371816
 21
20.9593741254
 31
0.0
  0
SPLINE
  5
39B
100
AcDbEntity
  8
RACCORDO
100
AcDbSpline
 62
253
  6
CONTINUOUS
 70
0
 71
3
 72
11
 73
7
 74
5
 42
0.0000001
 43
0.0000001
 44
0.0000000001
 12
-0.1744560978
 22
0.1880943549
 32
0.0
 13
0.1105404194
 23
0.2315064407
 33
0.0
 40
0.0
 40
0.0
 40
0.0
 40
0.0
 40
0.2815100674
 40
0.5402266344
 40
0.7769448198
 40
1.0
 40
1.0
 40
1.0
 40
1.0
 10
1.9821396802
 20
20.5600763125
 30
0.0
 10
1.9657692976
 20
20.577726464
 30
0.0
 10
1.9376975273
 20
20.6149947611
 30
0.0
 10
1.9115464721
 20
20.676936916
 30
0.0
 10
1.9051942356
 20
20.7391085656
 30
0.0
 10
1.9153289979
 20
20.7781923173
 30
0.0
 10
1.9235478689
 20
20.7954052209
 30
0.0
 11
1.9821396802
 21
20.5600763125
 31
0.0
 11
1.9391982112
 21
20.6181425309
 31
0.0
 11
1.9141589602
 21
20.6796102078
 31
0.0
 11
1.9088374744
 21
20.7401050462
 31
0.0
 11
1.9235478689
 21
20.7954052209
 31
0.0
  0
SPLINE
  5
39C
100
AcDbEntity
  8
RACCORDO
100
AcDbSpline
 62
253
  6
CONTINUOUS
 70
0
 71
3
 72
11
 73
7
 74
5
 42
0.0000001
 43
0.0000001
 44
0.0000000001
 12
0.0500658326
 22
0.430744932
 32
0.0
 13
0.3849233048
 23
0.1997043652
 33
0.0
 40
0.0
 40
0.0
 40
0.0
 40
0.0
 40
0.2386833623
 40
0.5027975913
 40
0.7654011562
 40
1.0
 40
1.0
 40
1.0
 40
1.0
 10
-0.4545274636
 20
20.1558180361
 30
0.0
 10
-0.4505441699
 20
20.1900885857
 30
0.0
 10
-0.4303021931
 20
20.2609380858
 30
0.0
 10
-0.3771490958
 20
20.3587605024
 30
0.0
 10
-0.3060219388
 20
20.4436319174
 30
0.0
 10
-0.2479185344
 20
20.4877248071
 30
0.0
 10
-0.2178176803
 20
20.5033416115
 30
0.0
 11
-0.4545274636
 21
20.1558180361
 31
0.0
 11
-0.4280190649
 21
20.2558697206
 31
0.0
 11
-0.3738681439
 21
20.3567914738
 31
0.0
 11
-0.3001553014
 21
20.4435918825
 31
0.0
 11
-0.2178176803
 21
20.5033416115
 31
0.0
  0
SPLINE
  5
39D
100
AcDbEntity
  8
RACCORDO
100
AcDbSpline
 62
253
  6
CONTINUOUS
 70
0
 71
3
 72
11
 73
7
 74
5
 42
0.0000001
 43
0.0000001
 44
0.0000000001
 12
-0.0452433319
 22
0.4344975378
 32
0.0
 13
0.387010817
 23
0.2026269896
 33
0.0
 40
0.0
 40
0.0
 40
0.0
 40
0.0
 40
0.2538176835
 40
0.4528917497
 40
0.6493270169
 40
1.0
 40
1.0
 40
1.0
 40
1.0
 10
-5.4851694984
 20
22.6711390535
 30
0.0
 10
-5.4889973509
 20
22.7079001064
 30
0.0
 10
-5.4852026409
 20
22.7748282633
 30
0.0
 10
-5.4584866988
 20
22.8661455169
 30
0.0
 10
-5.4086874616
 20
22.9628539665
 30
0.0
 10
-5.3502577209
 20
23.0232573219
 30
0.0
 10
-5.3050196417
 20
23.0469425922
 30
0.0
 11
-5.4851694984
 21
22.6711390535
 31
0.0
 11
-5.480083134
 21
22.7819017551
 31
0.0
 11
-5.4558135149
 21
22.8654114654
 31
0.0
 11
-5.4161557992
 21
22.9415099736
 31
0.0
 11
-5.3050196417
 21
23.0469425922
 31
0.0
  0
SPLINE
  5
39E
100
AcDbEntity
  8
RACCORDO
100
AcDbSpline
 62
253
  6
CONTINUOUS
 70
0
 71
3
 72
11
 73
7
 74
5
 42
0.0000001
 43
0.0000001
 44
0.0000000001
 12
0.4180563454
 22
0.0326818342
 32
0.0
 13
0.3760425684
 23
0.1855564521
 33
0.0
 40
0.0
 40
0.0
 40
0.0
 40
0.0
 40
0.2133828938
 40
0.4763931386
 40
0.751721083
 40
1.0
 40
1.0
 40
1.0
 40
1.0
 10
-7.9218366422
 20
25.5120644737
 30
0.0
 10
-7.8921012846
 20
25.5143890551
 30
0.0
 10
-7.826262948
 20
25.5257380551
 30
0.0
 10
-7.7245212323
 20
25.5521909106
 30
0.0
 10
-7.6202775518
 20
25.5874350875
 30
0.0
 10
-7.5527264464
 20
25.6159170504
 30
0.0
 10
-7.5216052991
 20
25.6312736354
 30
0.0
 11
-7.9218366422
 21
25.5120644737
 31
0.0
 11
-7.8333945625
 21
25.5256422153
 31
0.0
 11
-7.7265511848
 21
25.5529929474
 31
0.0
 11
-7.6172011922
 21
25.5900355488
 31
0.0
 11
-7.5216052991
 21
25.6312736354
 31
0.0
  0
SPLINE
  5
39F
100
AcDbEntity
  8
RACCORDO
100
AcDbSpline
 62
253
  6
CONTINUOUS
 70
0
 71
3
 72
11
 73
7
 74
5
 42
0.0000001
 43
0.0000001
 44
0.0000000001
 12
0.0
 22
0.4363619363
 32
0.0
 13
0.386929169
 23
0.2017363567
 33
0.0
 40
0.0
 40
0.0
 40
0.0
 40
0.0
 40
0.2462479807
 40
0.5106590784
 40
0.769251615
 40
1.0
 40
1.0
 40
1.0
 40
1.0
 10
-8.0497043245
 20
25.6752470074
 30
0.0
 10
-8.0497043245
 20
25.7110647559
 30
0.0
 10
-8.0374851057
 20
25.785472216
 30
0.0
 10
-7.9930826496
 20
25.8891824214
 30
0.0
 10
-7.9277084515
 20
25.9783491975
 30
0.0
 10
-7.8710355983
 20
26.023713189
 30
0.0
 10
-7.8412745047
 20
26.0392299685
 30
0.0
 11
-8.0497043245
 21
25.6752470074
 31
0.0
 11
-8.033906943
 21
25.7815326731
 31
0.0
 11
-7.988868831
 21
25.8877582253
 31
0.0
 11
-7.921319196
 21
25.9781457181
 31
0.0
 11
-7.8412745047
 21
26.0392299685
 31
0.0
  0
SPLINE
  5
3A0
100
AcDbEntity
  8
RACCORDO
100
AcDbSpline
 62
253
  6
CONTINUOUS
 70
0
 71
3
 72
11
 73
7
 74
5
 42
0.0000001
 43
0.0000001
 44
0.0000000001
 12
-0.0000000024
 22
0.4363619367
 32
0.0
 13
0.3869291705
 23
0.2017363547
 33
0.0
 40
0.0
 40
0.0
 40
0.0
 40
0.0
 40
0.246247973
 40
0.5106590689
 40
0.7692516089
 40
1.0
 40
1.0
 40
1.0
 40
1.0
 10
-16.7440934569
 20
30.0224415736
 30
0.0
 10
-16.7440934571
 20
30.058259321
 30
0.0
 10
-16.7318742391
 20
30.1326667798
 30
0.0
 10
-16.6874717844
 20
30.2363769849
 30
0.0
 10
-16.622097586
 20
30.3255437625
 30
0.0
 10
-16.5654247315
 20
30.3709077549
 30
0.0
 10
-16.535663637
 20
30.3864245347
 30
0.0
 11
-16.7440934569
 21
30.0224415736
 31
0.0
 11
-16.7282960767
 21
30.1287272362
 31
0.0
 11
-16.683257966
 21
30.2349527882
 31
0.0
 11
-16.6157083306
 21
30.3253402827
 31
0.0
 11
-16.535663637
 21
30.3864245347
 31
0.0
  0
SPLINE
  5
3A1
100
AcDbEntity
  8
RACCORDO
100
AcDbSpline
 62
253
  6
CONTINUOUS
 70
0
 71
3
 72
11
 73
7
 74
5
 42
0.0000001
 43
0.0000001
 44
0.0000000001
 12
-0.1291269358
 22
0.0645634679
 32
0.0
 13
-0.0000453382
 23
0.144368296
 33
0.0
 40
0.0
 40
0.0
 40
0.0
 40
0.0
 40
0.302299569
 40
0.5655434271
 40
0.7934540135
 40
1.0
 40
1.0
 40
1.0
 40
1.0
 10
-20.0669891583
 20
27.6141899558
 30
0.0
 10
-20.0800008307
 20
27.620695792
 30
0.0
 10
-20.1035309567
 20
27.6346791716
 30
0.0
 10
-20.1321228271
 20
27.6604750782
 30
0.0
 10
-20.1504685305
 20
27.6892306137
 30
0.0
 10
-20.1548407267
 20
27.7103005048
 30
0.0
 10
-20.1548438482
 20
27.7202400688
 30
0.0
 11
-20.0669891583
 21
27.6141899558
 31
0.0
 11
-20.1042556247
 21
27.6369028636
 31
0.0
 11
-20.1320218041
 21
27.662851824
 31
0.0
 11
-20.1490897473
 21
27.6909818254
 31
0.0
 11
-20.1548438482
 21
27.7202400688
 31
0.0
  0
SPLINE
  5
3A2
100
AcDbEntity
  8
RACCORDO
100
AcDbSpline
 62
253
  6
CONTINUOUS
 70
0
 71
3
 72
11
 73
7
 74
5
 42
0.0000001
 43
0.0000001
 44
0.0000000001
 12
0.0
 22
-0.1889124304
 32
0.0
 13
0.168912539
 23
-0.084595866
 33
0.0
 40
0.0
 40
0.0
 40
0.0
 40
0.0
 40
0.2895715287
 40
0.549637177
 40
0.782832727
 40
1.0
 40
1.0
 40
1.0
 40
1.0
 10
-16.7440934569
 20
-19.2180450786
 30
0.0
 10
-16.7440934569
 20
-19.2362796324
 30
0.0
 10
-16.7411310547
 20
-19.2710190279
 30
0.0
 10
-16.7263118701
 20
-19.3185388854
 30
0.0
 10
-16.7014964712
 20
-19.3565850198
 30
0.0
 10
-16.6783508233
 20
-19.3741791974
 30
0.0
 10
-16.6661233982
 20
-19.3803030152
 30
0.0
 11
-16.7440934569
 21
-19.2180450786
 31
0.0
 11
-16.7389063164
 21
-19.2725022556
 31
0.0
 11
-16.7236093557
 21
-19.319189769
 31
0.0
 11
-16.6989487171
 21
-19.3556941128
 31
0.0
 11
-16.6661233982
 21
-19.3803030152
 31
0.0
  0
SPLINE
  5
3A3
100
AcDbEntity
  8
RACCORDO
100
AcDbSpline
 62
253
  6
CONTINUOUS
 70
0
 71
3
 72
11
 73
7
 74
5
 42
0.0000001
 43
0.0000001
 44
0.0000000001
 12
-0.0000000321
 22
-0.1889123949
 32
0.0
 13
0.1689124898
 23
-0.0845958848
 33
0.0
 40
0.0
 40
0.0
 40
0.0
 40
0.0
 40
0.289571514
 40
0.549637136
 40
0.782832697
 40
1.0
 40
1.0
 40
1.0
 40
1.0
 10
-8.0497043245
 20
-23.5652396448
 30
0.0
 10
-8.0497043276
 20
-23.5834741942
 30
0.0
 10
-8.0467419334
 20
-23.6182135813
 30
0.0
 10
-8.0319227575
 20
-23.66573343
 30
0.0
 10
-8.0071073683
 20
-23.7037795611
 30
0.0
 10
-7.9839617274
 20
-23.721373743
 30
0.0
 10
-7.9717343042
 20
-23.7274975631
 30
0.0
 11
-8.0497043245
 21
-23.5652396448
 31
0.0
 11
-8.044517195
 21
-23.6196968098
 31
0.0
 11
-8.029220245
 21
-23.6663843117
 31
0.0
 11
-8.0045596158
 21
-23.7028886544
 31
0.0
 11
-7.9717343042
 21
-23.7274975631
 31
0.0
  0
SPLINE
  5
3A4
100
AcDbEntity
  8
RACCORDO
100
AcDbSpline
 62
253
  6
CONTINUOUS
 70
0
 71
3
 72
10
 73
6
 74
4
 42
0.0000001
 43
0.0000001
 44
0.0000000001
 12
0.2950936213
 22
-0.3181628216
 32
0.0
 13
0.3918999408
 23
0.1863391071
 33
0.0
 40
0.0
 40
0.0
 40
0.0
 40
0.0
 40
0.2605313736
 40
0.526910297
 40
1.0
 40
1.0
 40
1.0
 40
1.0
 10
-7.9218366422
 20
-23.5299247935
 30
0.0
 10
-7.8962095933
 20
-23.5575552591
 30
0.0
 10
-7.8349177907
 20
-23.6053536336
 30
0.0
 10
-7.7014899483
 20
-23.6613428287
 30
0.0
 10
-7.5834065744
 20
-23.6618906955
 30
0.0
 10
-7.5216052989
 20
-23.6325056579
 30
0.0
 11
-7.9218366422
 21
-23.5299247935
 31
0.0
 11
-7.8333945531
 21
-23.600349869
 31
0.0
 11
-7.7265511723
 21
-23.6444677568
 31
0.0
 11
-7.5216052989
 21
-23.6325056579
 31
0.0
  0
SPLINE
  5
3A5
100
AcDbEntity
  8
RACCORDO
100
AcDbSpline
 62
253
  6
CONTINUOUS
 70
0
 71
3
 72
11
 73
7
 74
5
 42
0.0000001
 43
0.0000001
 44
0.0000000001
 12
-0.0182684393
 22
-0.1571738096
 32
0.0
 13
0.1317370042
 23
-0.0876510355
 33
0.0
 40
0.0
 40
0.0
 40
0.0
 40
0.0
 40
0.2971852395
 40
0.5590759373
 40
0.7890902326
 40
1.0
 40
1.0
 40
1.0
 40
1.0
 10
-5.4851694984
 20
-23.1256665171
 30
0.0
 10
-5.4869792019
 20
-23.1412364292
 30
0.0
 10
-5.4881340808
 20
-23.1708864173
 30
0.0
 10
-5.4812181656
 20
-23.2123042285
 30
0.0
 10
-5.4653255703
 20
-23.2464309463
 30
0.0
 10
-5.4483742764
 20
-23.2632618137
 30
0.0
 10
-5.4391127361
 20
-23.2694239669
 30
0.0
 11
-5.4851694984
 21
-23.1256665171
 31
0.0
 11
-5.4864961205
 21
-23.1726719931
 31
0.0
 11
-5.4790078983
 21
-23.2134292766
 31
0.0
 11
-5.4629938608
 21
-23.2461124627
 31
0.0
 11
-5.4391127361
 21
-23.2694239669
 31
0.0
  0
SPLINE
  5
3A6
100
AcDbEntity
  8
RACCORDO
100
AcDbSpline
 62
253
  6
CONTINUOUS
 70
0
 71
3
 72
11
 73
7
 74
5
 42
0.0000001
 43
0.0000001
 44
0.0000000001
 12
0.0232511525
 22
-0.2232940873
 32
0.0
 13
0.2128587092
 23
-0.0713584994
 33
0.0
 40
0.0
 40
0.0
 40
0.0
 40
0.0
 40
0.2843907687
 40
0.5434520117
 40
0.7788772473
 40
1.0
 40
1.0
 40
1.0
 40
1.0
 10
-0.4545274636
 20
-25.6409875345
 30
0.0
 10
-0.4523233259
 20
-25.6621551269
 30
0.0
 10
-0.4442610217
 20
-25.702375402
 30
0.0
 10
-0.4197084691
 20
-25.7559362954
 30
0.0
 10
-0.3840089188
 20
-25.7969918211
 30
0.0
 10
-0.3534387556
 20
-25.8141058796
 30
0.0
 10
-0.3377494544
 20
-25.8193655422
 30
0.0
 11
-0.4545274636
 21
-25.6409875345
 31
0.0
 11
-0.4414017445
 21
-25.7034698697
 31
0.0
 11
-0.4164710009
 21
-25.7560150653
 31
0.0
 11
-0.3812228144
 21
-25.7953982522
 31
0.0
 11
-0.3377494544
 21
-25.8193655422
 31
0.0
  0
SPLINE
  5
3A7
100
AcDbEntity
  8
RACCORDO
100
AcDbSpline
 62
253
  6
CONTINUOUS
 70
0
 71
3
 72
10
 73
6
 74
4
 42
0.0000001
 43
0.0000001
 44
0.0000000001
 12
-0.0766782528
 22
-0.0059943737
 32
0.0
 13
-0.0235078727
 23
0.0732315976
 33
0.0
 40
0.0
 40
0.0
 40
0.0
 40
0.0
 40
0.3787061041
 40
0.6707304343
 40
1.0
 40
1.0
 40
1.0
 40
1.0
 10
1.9821396802
 20
-28.4819129546
 30
0.0
 10
1.9724601727
 20
-28.4826696566
 30
0.0
 10
1.954853503
 20
-28.4833481033
 30
0.0
 10
1.930716867
 20
-28.4819501557
 30
0.0
 10
1.9113940904
 20
-28.4761373905
 30
0.0
 10
1.908813948
 20
-28.4680997451
 30
0.0
 11
1.9821396802
 21
-28.4819129546
 31
0.0
 11
1.9530299937
 21
-28.4829205834
 31
0.0
 11
1.9306599384
 21
-28.4809099212
 31
0.0
 11
1.908813948
 21
-28.4680997451
 31
0.0
  0
SPLINE
  5
3A8
100
AcDbEntity
  8
RACCORDO
100
AcDbSpline
 62
253
  6
CONTINUOUS
 70
0
 71
3
 72
11
 73
7
 74
5
 42
0.0000001
 43
0.0000001
 44
0.0000000001
 12
0.0
 22
-0.1888308884
 32
0.0
 13
0.1687774461
 23
-0.0846833991
 33
0.0
 40
0.0
 40
0.0
 40
0.0
 40
0.0
 40
0.2895572886
 40
0.5496264652
 40
0.7828334569
 40
1.0
 40
1.0
 40
1.0
 40
1.0
 10
2.1100073626
 20
-28.6450954884
 30
0.0
 10
2.1100073626
 20
-28.663321275
 30
0.0
 10
2.1129670676
 20
-28.6980448424
 30
0.0
 10
2.1277715453
 20
-28.7455461367
 30
0.0
 10
2.1525617492
 20
-28.7835850659
 30
0.0
 10
2.1756859657
 20
-28.8011862709
 30
0.0
 10
2.1879035705
 20
-28.8073164046
 30
0.0
 11
2.1100073626
 21
-28.6450954884
 31
0.0
 11
2.1151892696
 21
-28.6995267436
 31
0.0
 11
2.1304710174
 21
-28.7461976259
 31
0.0
 11
2.1551079693
 21
-28.7826976271
 31
0.0
 11
2.1879035705
 21
-28.8073164046
 31
0.0
  0
SPLINE
  5
3A9
100
AcDbEntity
  8
RACCORDO
100
AcDbSpline
 62
253
  6
CONTINUOUS
 70
0
 71
3
 72
11
 73
7
 74
5
 42
0.0000001
 43
0.0000001
 44
0.0000000001
 12
0.0000000011
 22
-0.1889022928
 32
0.0
 13
0.1688957454
 23
-0.0846067576
 33
0.0
 40
0.0
 40
0.0
 40
0.0
 40
0.0
 40
0.2895697583
 40
0.5496358406
 40
0.7828328156
 40
1.0
 40
1.0
 40
1.0
 40
1.0
 10
10.804396495
 20
-32.9922900546
 30
0.0
 10
10.8043964951
 20
-33.0105235183
 30
0.0
 10
10.8073585616
 20
-33.0452609457
 30
0.0
 10
10.8221759178
 20
-33.0927784953
 30
0.0
 10
10.8469881834
 20
-33.1308237347
 30
0.0
 10
10.8701311664
 20
-33.1484187881
 30
0.0
 10
10.8823573709
 20
-33.1545433919
 30
0.0
 11
10.804396495
 21
-32.9922900546
 31
0.0
 11
10.8095829846
 21
-33.0467440088
 31
0.0
 11
10.8248780535
 21
-33.0934294539
 31
0.0
 11
10.8495357469
 21
-33.1299332593
 31
0.0
 11
10.8823573709
 21
-33.1545433919
 31
0.0
  0
SPLINE
  5
3AA
100
AcDbEntity
  8
RACCORDO
100
AcDbSpline
 62
253
  6
CONTINUOUS
 70
0
 71
3
 72
11
 73
7
 74
5
 42
0.0000001
 43
0.0000001
 44
0.0000000001
 12
0.3862564221
 22
-0.193128211
 32
0.0
 13
0.388888191
 23
0.1877724804
 33
0.0
 40
0.0
 40
0.0
 40
0.0
 40
0.0
 40
0.2348074367
 40
0.498746538
 40
0.7633588641
 40
1.0
 40
1.0
 40
1.0
 40
1.0
 10
14.1272921963
 20
-30.5840384368
 30
0.0
 10
14.1575241565
 20
-30.5991544169
 30
0.0
 10
14.2269407995
 20
-30.6208355886
 30
0.0
 10
14.3368881442
 20
-30.6314867493
 30
0.0
 10
14.4471878879
 20
-30.6217431971
 30
0.0
 10
14.5171460941
 20
-30.600684954
 30
0.0
 10
14.5478217418
 20
-30.5858733897
 30
0.0
 11
14.1272921963
 21
-30.5840384368
 31
0.0
 11
14.2234222066
 21
-30.6163060604
 31
0.0
 11
14.3368063865
 21
-30.6279600383
 31
0.0
 11
14.4505800773
 21
-30.6172972488
 31
0.0
 11
14.5478217418
 21
-30.5858733897
 31
0.0
  0
SPLINE
  5
3AB
100
AcDbEntity
  8
RACCORDO
100
AcDbSpline
 62
253
  6
CONTINUOUS
 70
0
 71
3
 72
11
 73
7
 74
5
 42
0.0000001
 43
0.0000001
 44
0.0000000001
 12
0.386256423
 22
-0.1931282083
 32
0.0
 13
0.388888192
 23
0.1877724774
 33
0.0
 40
0.0
 40
0.0
 40
0.0
 40
0.0
 40
0.2348074288
 40
0.4987465285
 40
0.7633588583
 40
1.0
 40
1.0
 40
1.0
 40
1.0
 10
14.1272921963
 20
10.5170492785
 30
0.0
 10
14.1575241555
 20
10.5019332992
 30
0.0
 10
14.2269407971
 20
10.480252128
 30
0.0
 10
14.3368881408
 20
10.4696009668
 30
0.0
 10
14.4471878856
 20
10.4793445182
 30
0.0
 10
14.5171460932
 20
10.5004027611
 30
0.0
 10
14.5478217418
 20
10.5152143255
 30
0.0
 11
14.1272921963
 21
10.5170492785
 31
0.0
 11
14.2234222033
 21
10.4847816562
 31
0.0
 11
14.3368063823
 21
10.4731276777
 31
0.0
 11
14.4505800748
 21
10.4837904665
 31
0.0
 11
14.5478217418
 21
10.5152143255
 31
0.0
  0
SPLINE
  5
3AC
100
AcDbEntity
  8
RACCORDO
100
AcDbSpline
 62
253
  6
CONTINUOUS
 70
0
 71
3
 72
9
 73
5
 74
3
 42
0.0000001
 43
0.0000001
 44
0.0000000001
 12
-0.0650107475
 22
0.0313216842
 32
0.0
 13
-0.0623999757
 23
-0.0362448372
 33
0.0
 40
0.0
 40
0.0
 40
0.0
 40
0.0
 40
0.5419592004
 40
1.0
 40
1.0
 40
1.0
 40
1.0
 10
-1.0112577154
 20
13.9499323863
 30
0.0
 10
-1.0230021063
 20
13.9555907446
 30
0.0
 10
-1.0466083992
 20
13.9631886986
 30
0.0
 10
-1.0716805834
 20
13.9581271477
 30
0.0
 10
-1.0812078284
 20
13.9525932763
 30
0.0
 11
-1.0112577154
 21
13.9499323863
 31
0.0
 11
-1.0490199628
 21
13.9601079598
 31
0.0
 11
-1.0812078284
 21
13.9525932763
 31
0.0
  0
SPLINE
  5
3AD
100
AcDbEntity
  8
RACCORDO
100
AcDbSpline
 62
253
  6
CONTINUOUS
 70
0
 71
3
 72
9
 73
5
 74
3
 42
0.0000001
 43
0.0000001
 44
0.0000000001
 12
-0.0612575326
 22
0.0304122582
 32
0.0
 13
0.0077104716
 23
0.067955422
 33
0.0
 40
0.0
 40
0.0
 40
0.0
 40
0.0
 40
0.3345475765
 40
1.0
 40
1.0
 40
1.0
 40
1.0
 10
-1.6636452529
 20
12.878061659
 30
0.0
 10
-1.6704764393
 20
12.8814531081
 30
0.0
 10
-1.6895623938
 20
12.8920461067
 30
0.0
 10
-1.7095129825
 20
12.9130076083
 30
0.0
 10
-1.7078026651
 20
12.9280813084
 30
0.0
 11
-1.6636452529
 21
12.878061659
 31
0.0
 11
-1.6833435306
 21
12.8897012965
 31
0.0
 11
-1.7078026651
 21
12.9280813084
 31
0.0
  0
SPLINE
  5
3AE
100
AcDbEntity
  8
RACCORDO
100
AcDbSpline
 62
253
  6
CONTINUOUS
 70
0
 71
3
 72
11
 73
7
 74
5
 42
0.0000001
 43
0.0000001
 44
0.0000000001
 12
-0.0638444383
 22
0.0317864383
 32
0.0
 13
0.0050686023
 23
0.0711392946
 33
0.0
 40
0.0
 40
0.0
 40
0.0
 40
0.0
 40
0.3157054567
 40
0.5839866631
 40
0.8065323873
 40
1.0
 40
1.0
 40
1.0
 40
1.0
 10
-2.0995145883
 20
8.1655313691
 30
0.0
 10
-2.1062332675
 20
8.1688764198
 30
0.0
 10
-2.1182796072
 20
8.17591245
 30
0.0
 10
-2.1328868618
 20
8.1885651227
 30
0.0
 10
-2.142024266
 20
8.2023735168
 30
0.0
 10
-2.1438473351
 20
8.2124909423
 30
0.0
 10
-2.143520465
 20
8.2170786588
 30
0.0
 11
-2.0995145883
 21
8.1655313691
 31
0.0
 11
-2.1188283542
 21
8.1771049846
 31
0.0
 11
-2.1330174503
 21
8.1899412098
 31
0.0
 11
-2.1413445697
 21
8.2034532649
 31
0.0
 11
-2.143520465
 21
8.2170786588
 31
0.0
  0
SPLINE
  5
3AF
100
AcDbEntity
  8
RACCORDO
100
AcDbSpline
 62
253
  6
CONTINUOUS
 70
0
 71
3
 72
9
 73
5
 74
3
 42
0.0000001
 43
0.0000001
 44
0.0000000001
 12
-0.0227445413
 22
0.2103649825
 32
0.0
 13
0.1872318987
 23
0.0985644769
 33
0.0
 40
0.0
 40
0.0
 40
0.0
 40
0.0
 40
0.2610827819
 40
1.0
 40
1.0
 40
1.0
 40
1.0
 10
-6.2669118746
 20
4.3534517123
 30
0.0
 10
-6.2688912773
 20
4.3717592706
 30
0.0
 10
-6.2658510861
 20
4.4419904719
 30
0.0
 10
-6.2256906736
 20
4.5154709647
 30
0.0
 10
-6.1795743824
 20
4.539747961
 30
0.0
 11
-6.2669118746
 21
4.3534517123
 31
0.0
 11
-6.2647735233
 21
4.4086530708
 31
0.0
 11
-6.1795743824
 21
4.539747961
 31
0.0
  0
SPLINE
  5
3B0
100
AcDbEntity
  8
RACCORDO
100
AcDbSpline
 62
253
  6
CONTINUOUS
 70
0
 71
3
 72
9
 73
5
 74
3
 42
0.0000001
 43
0.0000001
 44
0.0000000001
 12
0.0936174103
 22
0.044807352
 32
0.0
 13
0.0965318217
 23
-0.0381251321
 33
0.0
 40
0.0
 40
0.0
 40
0.0
 40
0.0
 40
0.533707535
 40
1.0
 40
1.0
 40
1.0
 40
1.0
 10
6.41785672
 20
20.2584092961
 30
0.0
 10
6.4345114924
 20
20.2663806366
 30
0.0
 10
6.4681821387
 20
20.277287043
 30
0.0
 10
6.5040392533
 20
20.273286954
 30
0.0
 10
6.5190432737
 20
20.2673611334
 30
0.0
 11
6.41785672
 21
20.2584092961
 31
0.0
 11
6.4710748495
 21
20.2737762773
 31
0.0
 11
6.5190432737
 21
20.2673611334
 31
0.0
  0
SPLINE
  5
3B1
100
AcDbEntity
  8
RACCORDO
100
AcDbSpline
 62
253
  6
CONTINUOUS
 70
0
 71
3
 72
11
 73
7
 74
5
 42
0.0000001
 43
0.0000001
 44
0.0000000001
 12
0.0330439253
 22
0.2117191392
 32
0.0
 13
0.1905287321
 23
0.0980596611
 33
0.0
 40
0.0
 40
0.0
 40
0.0
 40
0.0
 40
0.2383265401
 40
0.5023193209
 40
0.765063562
 40
1.0
 40
1.0
 40
1.0
 40
1.0
 10
-7.7475796329
 20
5.09378521
 30
0.0
 10
-7.7449545514
 20
5.11060464
 30
0.0
 10
-7.7337921969
 20
5.1451902975
 30
0.0
 10
-7.7063106518
 20
5.1927913767
 30
0.0
 10
-7.6703690957
 20
5.2340527641
 30
0.0
 10
-7.6414459309
 20
5.2555470369
 30
0.0
 10
-7.626525217
 20
5.2632262994
 30
0.0
 11
-7.7475796329
 21
5.09378521
 31
0.0
 11
-7.7328135372
 21
5.1426730501
 31
0.0
 11
-7.7047750732
 21
5.1918044395
 31
0.0
 11
-7.6675410211
 21
5.2340356709
 31
0.0
 11
-7.626525217
 21
5.2632262994
 31
0.0
  0
SPLINE
  5
3B2
100
AcDbEntity
  8
RACCORDO
100
AcDbSpline
 62
253
  6
CONTINUOUS
 70
0
 71
3
 72
11
 73
7
 74
5
 42
0.0000001
 43
0.0000001
 44
0.0000000001
 12
0.1038184213
 22
0.0537535612
 32
0.0
 13
-0.0000120679
 23
0.1169089809
 33
0.0
 40
0.0
 40
0.0
 40
0.0
 40
0.0
 40
0.3011147761
 40
0.5638957638
 40
0.792271531
 40
1.0
 40
1.0
 40
1.0
 40
1.0
 10
7.6243563201
 20
19.4386861201
 30
0.0
 10
7.6347767403
 20
19.4440814506
 30
0.0
 10
7.6536137421
 20
19.4556395596
 30
0.0
 10
7.6764459362
 20
19.4768094853
 30
0.0
 10
7.6910472414
 20
19.500298145
 30
0.0
 10
7.6945111453
 20
19.5174233082
 30
0.0
 10
7.6945103097
 20
19.5255184161
 30
0.0
 11
7.6243563201
 21
19.4386861201
 31
0.0
 11
7.6541568182
 21
19.4574259988
 31
0.0
 11
7.6763230458
 21
19.4786972544
 31
0.0
 11
7.6899299334
 21
19.5016689485
 31
0.0
 11
7.6945103097
 21
19.5255184161
 31
0.0
  0
SPLINE
  5
3B3
100
AcDbEntity
  8
RACCORDO
100
AcDbSpline
 62
253
  6
CONTINUOUS
 70
0
 71
3
 72
11
 73
7
 74
5
 42
0.0000001
 43
0.0000001
 44
0.0000000001
 12
0.3312427712
 22
-0.1600618619
 32
0.0
 13
-0.0051124979
 23
-0.3678524643
 33
0.0
 40
0.0
 40
0.0
 40
0.0
 40
0.0
 40
0.2304566886
 40
0.4885288094
 40
0.7529025366
 40
1.0
 40
1.0
 40
1.0
 40
1.0
 10
7.4476065487
 20
19.7435343817
 30
0.0
 10
7.4730522528
 20
19.7312386062
 30
0.0
 10
7.5216976331
 20
19.6940935162
 30
0.0
 10
7.5775568567
 20
19.6195027037
 30
0.0
 10
7.6150480585
 20
19.5319750158
 30
0.0
 10
7.6247774152
 20
19.4689845904
 30
0.0
 10
7.6243563201
 20
19.4386861201
 30
0.0
 11
7.4476065487
 21
19.7435343817
 31
0.0
 11
7.5161882679
 21
19.6936888467
 31
0.0
 11
7.5738420305
 21
19.6182570398
 31
0.0
 11
7.6118316601
 21
19.5287233595
 31
0.0
 11
7.6243563201
 21
19.4386861201
 31
0.0
  0
SPLINE
  5
3B4
100
AcDbEntity
  8
RACCORDO
100
AcDbSpline
 62
253
  6
CONTINUOUS
 70
0
 71
3
 72
11
 73
7
 74
5
 42
0.0000001
 43
0.0000001
 44
0.0000000001
 12
0.1918640249
 22
-0.0963332529
 32
0.0
 13
0.2011949502
 23
0.0749165647
 33
0.0
 40
0.0
 40
0.0
 40
0.0
 40
0.0
 40
0.2374645252
 40
0.5040405687
 40
0.7684600132
 40
1.0
 40
1.0
 40
1.0
 40
1.0
 10
-11.4054911487
 20
12.8185183081
 30
0.0
 10
-11.3903041822
 20
12.8108930647
 30
0.0
 10
-11.355761431
 20
12.7993233359
 30
0.0
 10
-11.3011172905
 20
12.7913878461
 30
0.0
 10
-11.2463410389
 20
12.7924646308
 30
0.0
 10
-11.2111983201
 20
12.799727015
 30
0.0
 10
-11.1956700948
 20
12.8055090751
 30
0.0
 11
-11.4054911487
 21
12.8185183081
 31
0.0
 11
-11.3574681976
 21
12.8014042564
 31
0.0
 11
-11.3008668133
 21
12.7929365446
 31
0.0
 11
-11.2441167993
 21
12.7943762927
 31
0.0
 11
-11.1956700948
 21
12.8055090751
 31
0.0
  0
SPLINE
  5
3B5
100
AcDbEntity
  8
RACCORDO
100
AcDbSpline
 62
253
  6
CONTINUOUS
 70
0
 71
3
 72
11
 73
7
 74
5
 42
0.0000001
 43
0.0000001
 44
0.0000000001
 12
0.1910177505
 22
-0.0961845965
 32
0.0
 13
0.2047649621
 23
0.0617297973
 33
0.0
 40
0.0
 40
0.0
 40
0.0
 40
0.0
 40
0.2391277389
 40
0.5072877531
 40
0.7715746017
 40
1.0
 40
1.0
 40
1.0
 40
1.0
 10
-10.9541577285
 20
17.5233197029
 30
0.0
 10
-10.9389318476
 20
17.5156529012
 30
0.0
 10
-10.9045203513
 20
17.5036037339
 30
0.0
 10
-10.8501715497
 20
17.4939967221
 30
0.0
 10
-10.7957725267
 20
17.4926341436
 30
0.0
 10
-10.7606693971
 20
17.4977617771
 30
0.0
 10
-10.7450782244
 20
17.5024619949
 30
0.0
 11
-10.9541577285
 21
17.5233197029
 31
0.0
 11
-10.9061961475
 21
17.5055671699
 31
0.0
 11
-10.8497560035
 21
17.495388236
 31
0.0
 11
-10.7932441612
 21
17.4942990937
 31
0.0
 11
-10.7450782244
 21
17.5024619949
 31
0.0
  0
SPLINE
  5
3B6
100
AcDbEntity
  8
RACCORDO
100
AcDbSpline
 62
253
  6
CONTINUOUS
 70
0
 71
3
 72
11
 73
7
 74
5
 42
0.0000001
 43
0.0000001
 44
0.0000000001
 12
0.3312427712
 22
-0.1600618619
 32
0.0
 13
-0.0051124979
 23
-0.3678524643
 33
0.0
 40
0.0
 40
0.0
 40
0.0
 40
0.0
 40
0.2304566886
 40
0.4885288094
 40
0.7529025366
 40
1.0
 40
1.0
 40
1.0
 40
1.0
 10
-8.462296028
 20
27.6984856701
 30
0.0
 10
-8.4368503239
 20
27.6861898945
 30
0.0
 10
-8.3882049436
 20
27.6490448045
 30
0.0
 10
-8.33234572
 20
27.574453992
 30
0.0
 10
-8.2948545182
 20
27.4869263041
 30
0.0
 10
-8.2851251615
 20
27.4239358787
 30
0.0
 10
-8.2855462566
 20
27.3936374084
 30
0.0
 11
-8.462296028
 21
27.6984856701
 31
0.0
 11
-8.3937143088
 21
27.648640135
 31
0.0
 11
-8.3360605462
 21
27.5732083282
 31
0.0
 11
-8.2980709166
 21
27.4836746479
 31
0.0
 11
-8.2855462566
 21
27.3936374084
 31
0.0
  0
SPLINE
  5
3B7
100
AcDbEntity
  8
RACCORDO
100
AcDbSpline
 62
253
  6
CONTINUOUS
 70
0
 71
3
 72
11
 73
7
 74
5
 42
0.0000001
 43
0.0000001
 44
0.0000000001
 12
0.1946616855
 22
-0.1010007477
 32
0.0
 13
0.0097403684
 23
-0.2190877634
 33
0.0
 40
0.0
 40
0.0
 40
0.0
 40
0.0
 40
0.2299119406
 40
0.4899408886
 40
0.7554445379
 40
1.0
 40
1.0
 40
1.0
 40
1.0
 10
-10.2821221652
 20
18.5853646112
 30
0.0
 10
-10.2672038166
 20
18.5776241852
 30
0.0
 10
-10.238612022
 20
18.5549665646
 30
0.0
 10
-10.2048569144
 20
18.5107452729
 30
0.0
 10
-10.180903753
 20
18.4593442981
 30
0.0
 10
-10.1731663633
 20
18.4223235805
 30
0.0
 10
-10.1723723432
 20
18.4044638775
 30
0.0
 11
-10.2821221652
 21
18.5853646112
 31
0.0
 11
-10.2418449904
 21
18.5550332566
 31
0.0
 11
-10.2068484835
 21
18.5100094326
 31
0.0
 11
-10.1824544307
 21
18.4571397417
 31
0.0
 11
-10.1723723432
 21
18.4044638775
 31
0.0
  0
SPLINE
  5
3B8
100
AcDbEntity
  8
RACCORDO
100
AcDbSpline
 62
253
  6
CONTINUOUS
 70
0
 71
3
 72
11
 73
7
 74
5
 42
0.0000001
 43
0.0000001
 44
0.0000000001
 12
0.1038184213
 22
0.0537535612
 32
0.0
 13
-0.0000120679
 23
0.1169089809
 33
0.0
 40
0.0
 40
0.0
 40
0.0
 40
0.0
 40
0.3011147761
 40
0.5638957638
 40
0.792271531
 40
1.0
 40
1.0
 40
1.0
 40
1.0
 10
-8.2855462566
 20
27.3936374084
 30
0.0
 10
-8.2751258364
 20
27.3990327389
 30
0.0
 10
-8.2562888346
 20
27.4105908479
 30
0.0
 10
-8.2334566405
 20
27.4317607736
 30
0.0
 10
-8.2188553353
 20
27.4552494334
 30
0.0
 10
-8.2153914314
 20
27.4723745966
 30
0.0
 10
-8.215392267
 20
27.4804697044
 30
0.0
 11
-8.2855462566
 21
27.3936374084
 31
0.0
 11
-8.2557457585
 21
27.4123772871
 31
0.0
 11
-8.2335795309
 21
27.4336485427
 31
0.0
 11
-8.2199726433
 21
27.4566202369
 31
0.0
 11
-8.215392267
 21
27.4804697044
 31
0.0
  0
SPLINE
  5
3B9
100
AcDbEntity
  8
RACCORDO
100
AcDbSpline
 62
253
  6
CONTINUOUS
 70
0
 71
3
 72
9
 73
5
 74
3
 42
0.0000001
 43
0.0000001
 44
0.0000000001
 12
0.0936174103
 22
0.044807352
 32
0.0
 13
0.0965318217
 23
-0.0381251321
 33
0.0
 40
0.0
 40
0.0
 40
0.0
 40
0.0
 40
0.533707535
 40
1.0
 40
1.0
 40
1.0
 40
1.0
 10
-9.4920458567
 20
28.2133605844
 30
0.0
 10
-9.4753910843
 20
28.2213319249
 30
0.0
 10
-9.441720438
 20
28.2322383313
 30
0.0
 10
-9.4058633234
 20
28.2282382424
 30
0.0
 10
-9.390859303
 20
28.2223124217
 30
0.0
 11
-9.4920458567
 21
28.2133605844
 31
0.0
 11
-9.4388277272
 21
28.2287275657
 31
0.0
 11
-9.390859303
 21
28.2223124217
 31
0.0
  0
SPLINE
  5
3BA
100
AcDbEntity
  8
RACCORDO
100
AcDbSpline
 62
253
  6
CONTINUOUS
 70
0
 71
3
 72
9
 73
5
 74
3
 42
0.0000001
 43
0.0000001
 44
0.0000000001
 12
0.001943007
 22
-0.1377904426
 32
0.0
 13
-0.1095044074
 23
-0.0836586284
 33
0.0
 40
0.0
 40
0.0
 40
0.0
 40
0.0
 40
0.5462774278
 40
1.0
 40
1.0
 40
1.0
 40
1.0
 10
-8.2855462566
 20
-21.1525304598
 30
0.0
 10
-8.2851924497
 20
-21.1776210626
 30
0.0
 10
-8.2906586295
 20
-21.2243649507
 30
0.0
 10
-8.3175420854
 20
-21.2649238475
 30
0.0
 10
-8.3341036259
 20
-21.2775764502
 30
0.0
 11
-8.2855462566
 21
-21.1525304598
 31
0.0
 11
-8.2975558737
 21
-21.2268456054
 31
0.0
 11
-8.3341036259
 21
-21.2775764502
 31
0.0
  0
SPLINE
  5
3BB
100
AcDbEntity
  8
RACCORDO
100
AcDbSpline
 62
253
  6
CONTINUOUS
 70
0
 71
3
 72
11
 73
7
 74
5
 42
0.0000001
 43
0.0000001
 44
0.0000000001
 12
-0.3854887465
 22
-0.1877260247
 32
0.0
 13
-0.4021097682
 23
0.148829998
 33
0.0
 40
0.0
 40
0.0
 40
0.0
 40
0.0
 40
0.2399224551
 40
0.5075919918
 40
0.7712165132
 40
1.0
 40
1.0
 40
1.0
 40
1.0
 10
-21.9609876704
 20
3.5342356791
 30
0.0
 10
-21.9918168059
 20
3.5192224495
 30
0.0
 10
-22.0613719511
 20
3.4963760227
 30
0.0
 10
-22.170883561
 20
3.4804989038
 30
0.0
 10
-22.2799087001
 20
3.4822717362
 30
0.0
 10
-22.3496712588
 20
3.4963446385
 30
0.0
 10
-22.3803366171
 20
3.5076945871
 30
0.0
 11
-21.9609876704
 21
3.5342356791
 31
0.0
 11
-22.0581332693
 21
3.5003944835
 31
0.0
 11
-22.1716522669
 21
3.4835064147
 31
0.0
 11
-22.2846574293
 21
3.486057517
 31
0.0
 11
-22.3803366171
 21
3.5076945871
 31
0.0
  0
SPLINE
  5
3BC
100
AcDbEntity
  8
RACCORDO
100
AcDbSpline
 62
253
  6
CONTINUOUS
 70
0
 71
3
 72
11
 73
7
 74
5
 42
0.0000001
 43
0.0000001
 44
0.0000000001
 12
-0.391869928
 22
-0.1877774926
 32
0.0
 13
-0.3676250764
 23
0.2316769959
 33
0.0
 40
0.0
 40
0.0
 40
0.0
 40
0.0
 40
0.2333848656
 40
0.4948462327
 40
0.7590988494
 40
1.0
 40
1.0
 40
1.0
 40
1.0
 10
-21.960992697
 20
4.7021843493
 30
0.0
 10
-21.9914782005
 20
4.6875762077
 30
0.0
 10
-22.061697171
 20
4.6682054134
 30
0.0
 10
-22.1723350134
 20
4.6644268085
 30
0.0
 10
-22.2824520393
 20
4.6837402562
 30
0.0
 10
-22.350817273
 20
4.7126089742
 30
0.0
 10
-22.3803377076
 20
4.7312127259
 30
0.0
 11
-21.960992697
 21
4.7021843493
 31
0.0
 11
-22.0581366918
 21
4.6730653211
 31
0.0
 11
-22.1716540268
 21
4.6683640229
 31
0.0
 11
-22.2846582141
 21
4.6887458537
 31
0.0
 11
-22.3803377076
 21
4.7312127259
 31
0.0
  0
SPLINE
  5
3BD
100
AcDbEntity
  8
RACCORDO
100
AcDbSpline
 62
253
  6
CONTINUOUS
 70
0
 71
3
 72
11
 73
7
 74
5
 42
0.0000001
 43
0.0000001
 44
0.0000000001
 12
-0.2220929314
 22
0.1050314993
 32
0.0
 13
-0.2114133651
 23
-0.1251450163
 33
0.0
 40
0.0
 40
0.0
 40
0.0
 40
0.0
 40
0.2829650186
 40
0.5403451038
 40
0.7762525718
 40
1.0
 40
1.0
 40
1.0
 40
1.0
 10
-20.9848280056
 20
23.9367175314
 30
0.0
 10
-21.0057761824
 20
23.9466242781
 30
0.0
 10
-21.0474355977
 20
23.9623754788
 30
0.0
 10
-21.1107234998
 20
23.9725065716
 30
0.0
 10
-21.1698960618
 20
23.9672416798
 30
0.0
 10
-21.2054699303
 20
23.9530182914
 30
0.0
 10
-21.2212376626
 20
23.9436846662
 30
0.0
 11
-20.9848280056
 21
23.9367175314
 31
0.0
 11
-21.0500649167
 21
23.9607357142
 31
0.0
 11
-21.1126076379
 21
23.9700480857
 31
0.0
 11
-21.1702782769
 21
23.9642949177
 31
0.0
 11
-21.2212376626
 21
23.9436846662
 31
0.0
  0
SPLINE
  5
3BE
100
AcDbEntity
  8
RACCORDO
100
AcDbSpline
 62
253
  6
CONTINUOUS
 70
0
 71
3
 72
11
 73
7
 74
5
 42
0.0000001
 43
0.0000001
 44
0.0000000001
 12
-0.2097126862
 22
0.103744607
 32
0.0
 13
0.0258480805
 23
0.2325386655
 33
0.0
 40
0.0
 40
0.0
 40
0.0
 40
0.0
 40
0.3260546337
 40
0.5975686212
 40
0.8162444203
 40
1.0
 40
1.0
 40
1.0
 40
1.0
 10
-21.6383703247
 20
22.8654242065
 30
0.0
 10
-21.6611629224
 20
22.8766996764
 30
0.0
 10
-21.7017986168
 20
22.8999472003
 30
0.0
 10
-21.7509170411
 20
22.9411113208
 30
0.0
 10
-21.7816053526
 20
22.9849995
 30
0.0
 10
-21.7871907858
 20
23.0174096565
 30
0.0
 10
-21.7856075428
 20
23.0316530823
 30
0.0
 11
-21.6383703247
 21
22.8654242065
 31
0.0
 11
-21.7041152462
 21
22.9041198637
 31
0.0
 11
-21.7518948006
 21
22.9459852678
 31
0.0
 11
-21.7794339051
 21
22.9891051949
 31
0.0
 11
-21.7856075428
 21
23.0316530823
 31
0.0
  0
SPLINE
  5
3BF
100
AcDbEntity
  8
RACCORDO
100
AcDbSpline
 62
253
  6
CONTINUOUS
 70
0
 71
3
 72
9
 73
5
 74
3
 42
0.0000001
 43
0.0000001
 44
0.0000000001
 12
0.001943007
 22
-0.1377904426
 32
0.0
 13
-0.1095044074
 23
-0.0836586284
 33
0.0
 40
0.0
 40
0.0
 40
0.0
 40
0.0
 40
0.5462774278
 40
1.0
 40
1.0
 40
1.0
 40
1.0
 10
7.6243563201
 20
-29.1074817481
 30
0.0
 10
7.624710127
 20
-29.132572351
 30
0.0
 10
7.6192439472
 20
-29.1793162391
 30
0.0
 10
7.5923604913
 20
-29.2198751358
 30
0.0
 10
7.5757989508
 20
-29.2325277385
 30
0.0
 11
7.6243563201
 21
-29.1074817481
 31
0.0
 11
7.612346703
 21
-29.1817968938
 31
0.0
 11
7.5757989508
 21
-29.2325277385
 31
0.0
  0
SPLINE
  5
3C0
100
AcDbEntity
  8
RACCORDO
100
AcDbSpline
 62
253
  6
CONTINUOUS
 70
0
 71
3
 72
11
 73
7
 74
5
 42
0.0000001
 43
0.0000001
 44
0.0000000001
 12
-0.2149445313
 22
0.1073392821
 32
0.0
 13
0.0035425755
 23
0.24022973
 33
0.0
 40
0.0
 40
0.0
 40
0.0
 40
0.0
 40
0.3050237068
 40
0.5691349762
 40
0.7959510384
 40
1.0
 40
1.0
 40
1.0
 40
1.0
 10
-22.3185282413
 20
12.3792597926
 30
0.0
 10
-22.3403826339
 20
12.3901734678
 30
0.0
 10
-22.3798270874
 20
12.4135177768
 30
0.0
 10
-22.4276978561
 20
12.4564186488
 30
0.0
 10
-22.4582301258
 20
12.5040422745
 30
0.0
 10
-22.4652023238
 20
12.5389318182
 30
0.0
 10
-22.4649613708
 20
12.5552713605
 30
0.0
 11
-22.3185282413
 21
12.3792597926
 31
0.0
 11
-22.3811646212
 21
12.4173017294
 31
0.0
 11
-22.427637649
 21
12.4605070877
 31
0.0
 11
-22.4559168685
 21
12.5070889437
 31
0.0
 11
-22.4649613708
 21
12.5552713605
 31
0.0
  0
SPLINE
  5
3C1
100
AcDbEntity
  8
RACCORDO
100
AcDbSpline
 62
253
  6
CONTINUOUS
 70
0
 71
3
 72
9
 73
5
 74
3
 42
0.0000001
 43
0.0000001
 44
0.0000000001
 12
0.000001325
 22
-0.6511878706
 32
0.0
 13
0.1256037895
 23
-0.638959569
 33
0.0
 40
0.0
 40
0.0
 40
0.0
 40
0.0
 40
0.4891565935
 40
1.0
 40
1.0
 40
1.0
 40
1.0
 10
-22.4404486086
 20
4.1553673625
 30
0.0
 10
-22.4404483925
 20
4.049189749
 30
0.0
 10
-22.4308832121
 20
3.8320612273
 30
0.0
 10
-22.4017251732
 20
3.6164970469
 30
0.0
 10
-22.3803372173
 20
3.507694286
 30
0.0
 11
-22.4404486086
 21
4.1553673625
 31
0.0
 11
-22.4264025854
 21
3.8371443594
 31
0.0
 11
-22.3803372173
 21
3.507694286
 31
0.0
  0
SPLINE
  5
3C2
100
AcDbEntity
  8
RACCORDO
100
AcDbSpline
 62
253
  6
CONTINUOUS
 70
0
 71
3
 72
9
 73
5
 74
3
 42
0.0000001
 43
0.0000001
 44
0.0000000001
 12
-0.1375033352
 22
-0.5634438745
 32
0.0
 13
-0.0000012566
 23
-0.5799794539
 33
0.0
 40
0.0
 40
0.0
 40
0.0
 40
0.0
 40
0.4841979649
 40
1.0
 40
1.0
 40
1.0
 40
1.0
 10
-22.3803372173
 20
4.7312129702
 30
0.0
 10
-22.4025301624
 20
4.640273511
 30
0.0
 10
-22.4325247155
 20
4.4485318154
 30
0.0
 10
-22.4404483925
 20
4.2550855567
 30
0.0
 10
-22.4404486086
 20
4.1553673625
 30
0.0
 11
-22.3803372173
 21
4.7312129702
 31
0.0
 11
-22.4264023001
 21
4.4541920026
 31
0.0
 11
-22.4404486086
 21
4.1553673625
 31
0.0
  0
SPLINE
  5
3C3
100
AcDbEntity
  8
RACCORDO
100
AcDbSpline
 62
253
  6
CONTINUOUS
 70
0
 71
3
 72
11
 73
7
 74
5
 42
0.0000001
 43
0.0000001
 44
0.0000000001
 12
-0.215388574
 22
0.1078234728
 32
0.0
 13
-0.0036831711
 23
0.2408413863
 33
0.0
 40
0.0
 40
0.0
 40
0.0
 40
0.0
 40
0.2996870001
 40
0.5620916323
 40
0.7910577614
 40
1.0
 40
1.0
 40
1.0
 40
1.0
 10
-22.318528225
 20
-4.0752228708
 30
0.0
 10
-22.3400446102
 20
-4.0644517731
 30
0.0
 10
-22.3790292444
 20
-4.0411949063
 30
0.0
 10
-22.4264597324
 20
-3.9981371708
 30
0.0
 10
-22.4570908508
 20
-3.9499553011
 30
0.0
 10
-22.4647024435
 20
-3.9146392152
 30
0.0
 10
-22.4649589669
 20
-3.8978652357
 30
0.0
 11
-22.318528225
 21
-4.0752228708
 31
0.0
 11
-22.380113371
 21
-4.037566368
 31
0.0
 11
-22.4261918487
 21
-3.9943034283
 31
0.0
 11
-22.454811216
 21
-3.9471593822
 31
0.0
 11
-22.4649589669
 21
-3.8978652357
 31
0.0
  0
SPLINE
  5
3C4
100
AcDbEntity
  8
RACCORDO
100
AcDbSpline
 62
253
  6
CONTINUOUS
 70
0
 71
3
 72
11
 73
7
 74
5
 42
0.0000001
 43
0.0000001
 44
0.0000000001
 12
-0.2120336983
 22
0.1068945222
 32
0.0
 13
-0.0303041985
 23
0.2355130223
 33
0.0
 40
0.0
 40
0.0
 40
0.0
 40
0.0
 40
0.2838946689
 40
0.5416917456
 40
0.7771811604
 40
1.0
 40
1.0
 40
1.0
 40
1.0
 10
-21.6383637351
 20
-13.844854538
 30
0.0
 10
-21.6584288139
 20
-13.834738943
 30
0.0
 10
-21.6952893525
 20
-13.8123141281
 30
0.0
 10
-21.7408163217
 20
-13.7702015611
 30
0.0
 10
-21.7720789454
 20
-13.7221256429
 30
0.0
 10
-21.7824218514
 20
-13.6866733814
 30
0.0
 10
-21.7846726335
 20
-13.6691811353
 30
0.0
 11
-21.6383637351
 21
-13.844854538
 31
0.0
 11
-21.6956565905
 21
-13.8093309883
 31
0.0
 11
-21.7401125348
 21
-13.7672482076
 31
0.0
 11
-21.7700803444
 21
-13.7200384587
 31
0.0
 11
-21.7846726335
 21
-13.6691811353
 31
0.0
  0
SPLINE
  5
3C5
100
AcDbEntity
  8
RACCORDO
100
AcDbSpline
 62
253
  6
CONTINUOUS
 70
0
 71
3
 72
11
 73
7
 74
5
 42
0.0000001
 43
0.0000001
 44
0.0000000001
 12
0.646338358
 22
-0.3204901501
 32
0.0
 13
0.6036734171
 23
0.3950260938
 33
0.0
 40
0.0
 40
0.0
 40
0.0
 40
0.0
 40
0.2302052178
 40
0.4894626976
 40
0.754441543
 40
1.0
 40
1.0
 40
1.0
 40
1.0
 10
9.0205651552
 20
-29.1743267916
 30
0.0
 10
9.070161976
 20
-29.1989196265
 30
0.0
 10
9.1856053814
 20
-29.2311335881
 30
0.0
 10
9.3683370501
 20
-29.23537658
 30
0.0
 10
9.5513726346
 20
-29.1996809942
 30
0.0
 10
9.6649399423
 20
-29.1487060972
 30
0.0
 10
9.7143523132
 20
-29.1163720978
 30
0.0
 11
9.0205651552
 21
-29.1743267916
 31
0.0
 11
9.1794407567
 21
-29.2227046041
 31
0.0
 11
9.3663825414
 21
-29.228678008
 31
0.0
 11
9.553882584
 21
-29.1914260467
 31
0.0
 11
9.7143523132
 21
-29.1163720978
 31
0.0
  0
SPLINE
  5
3C6
100
AcDbEntity
  8
RACCORDO
100
AcDbSpline
 62
253
  6
CONTINUOUS
 70
0
 71
3
 72
11
 73
7
 74
5
 42
0.0000001
 43
0.0000001
 44
0.0000000001
 12
0.6414960033
 22
-0.3203632369
 32
0.0
 13
0.6420652248
 23
0.3192208842
 33
0.0
 40
0.0
 40
0.0
 40
0.0
 40
0.0
 40
0.2339596635
 40
0.49702499
 40
0.7616891067
 40
1.0
 40
1.0
 40
1.0
 40
1.0
 10
8.3040369132
 20
-19.3865054566
 30
0.0
 10
8.3540649762
 20
-19.4114894817
 30
0.0
 10
8.4691069824
 20
-19.4469983411
 30
0.0
 10
8.6514408985
 20
-19.4631710501
 30
0.0
 10
8.8346313685
 20
-19.444882537
 30
0.0
 10
8.9507000567
 20
-19.408234962
 30
0.0
 10
9.0017037692
 20
-19.382877024
 30
0.0
 11
8.3040369132
 21
-19.3865054566
 31
0.0
 11
8.4632423552
 21
-19.439389335
 31
0.0
 11
8.6510265011
 21
-19.4572220634
 31
0.0
 11
8.8397670965
 21
-19.4374311014
 31
0.0
 11
9.0017037692
 21
-19.382877024
 31
0.0
  0
SPLINE
  5
3C7
100
AcDbEntity
  8
RACCORDO
100
AcDbSpline
 62
253
  6
CONTINUOUS
 70
0
 71
3
 72
9
 73
5
 74
3
 42
0.0000001
 43
0.0000001
 44
0.0000000001
 12
-0.0000533705
 22
0.6465963862
 32
0.0
 13
-0.1233043886
 23
0.6347305863
 33
0.0
 40
0.0
 40
0.0
 40
0.0
 40
0.0
 40
0.4889333288
 40
1.0
 40
1.0
 40
1.0
 40
1.0
 10
8.310734725
 20
-11.2202243043
 30
0.0
 10
8.3107260268
 20
-11.1148434631
 30
0.0
 10
8.2962339369
 20
-10.8991831077
 30
0.0
 10
8.2599128439
 20
-10.6865391492
 30
0.0
 10
8.2389072561
 20
-10.5784092666
 30
0.0
 11
8.310734725
 21
-11.2202243043
 31
0.0
 11
8.2913363455
 21
-10.9046774794
 31
0.0
 11
8.2389072561
 21
-10.5784092666
 31
0.0
  0
SPLINE
  5
3C8
100
AcDbEntity
  8
RACCORDO
100
AcDbSpline
 62
253
  6
CONTINUOUS
 70
0
 71
3
 72
9
 73
5
 74
3
 42
0.0000001
 43
0.0000001
 44
0.0000000001
 12
0.1379728652
 22
0.5707498606
 32
0.0
 13
0.0000494132
 23
0.5871898436
 33
0.0
 40
0.0
 40
0.0
 40
0.0
 40
0.0
 40
0.4854743527
 40
1.0
 40
1.0
 40
1.0
 40
1.0
 10
8.2389072561
 20
-11.8019279508
 30
0.0
 10
8.2612346853
 20
-11.7095664777
 30
0.0
 10
8.2981396968
 20
-11.5169119005
 30
0.0
 10
8.3107262502
 20
-11.3209323824
 30
0.0
 10
8.310734725
 20
-11.2202243043
 30
0.0
 11
8.2389072561
 21
-11.8019279508
 31
0.0
 11
8.2913360542
 21
-11.5217251255
 31
0.0
 11
8.310734725
 21
-11.2202243043
 31
0.0
  0
SPLINE
  5
3C9
100
AcDbEntity
  8
RACCORDO
100
AcDbSpline
 62
253
  6
CONTINUOUS
 70
0
 71
3
 72
11
 73
7
 74
5
 42
0.0000001
 43
0.0000001
 44
0.0000000001
 12
0.6398032553
 22
-0.3202974742
 32
0.0
 13
0.6520422583
 23
0.2945837247
 33
0.0
 40
0.0
 40
0.0
 40
0.0
 40
0.0
 40
0.2350768053
 40
0.4992319924
 40
0.763798711
 40
1.0
 40
1.0
 40
1.0
 40
1.0
 10
8.3040369276
 20
-2.9320227779
 30
0.0
 10
8.3541712294
 20
-2.9571209468
 30
0.0
 10
8.4690210759
 20
-2.9936451008
 30
0.0
 10
8.6510204207
 20
-3.0133889462
 30
0.0
 10
8.8338913331
 20
-3.0003004818
 30
0.0
 10
8.9503660285
 20
-2.9680425199
 30
0.0
 10
9.0017037692
 20
-2.9448488347
 30
0.0
 11
8.3040369276
 21
-2.9320227779
 31
0.0
 11
8.463242365
 21
-2.9862807303
 31
0.0
 11
8.6510265055
 21
-3.0077086236
 31
0.0
 11
8.8397670969
 21
-2.9932028418
 31
0.0
 11
9.0017037692
 21
-2.9448488347
 31
0.0
  0
SPLINE
  5
3CA
100
AcDbEntity
  8
RACCORDO
100
AcDbSpline
 62
253
  6
CONTINUOUS
 70
0
 71
3
 72
11
 73
7
 74
5
 42
0.0000001
 43
0.0000001
 44
0.0000000001
 12
0.6334559999
 22
-0.3200903589
 32
0.0
 13
0.6808094189
 23
0.2005564179
 33
0.0
 40
0.0
 40
0.0
 40
0.0
 40
0.0
 40
0.2388542089
 40
0.5066071917
 40
0.7708537431
 40
1.0
 40
1.0
 40
1.0
 40
1.0
 10
9.0205717467
 20
7.5359585438
 30
0.0
 10
9.0710062906
 20
7.5104735673
 30
0.0
 10
9.1849640558
 20
7.4703111458
 30
0.0
 10
9.3650823183
 20
7.4380714741
 30
0.0
 10
9.5456602963
 20
7.4330176187
 30
0.0
 10
9.6623506699
 20
7.4496055385
 30
0.0
 10
9.7143523132
 20
7.464924456
 30
0.0
 11
9.0205717467
 21
7.5359585438
 31
0.0
 11
9.1794452175
 21
7.4768200157
 31
0.0
 11
9.3663846336
 21
7.4426661167
 31
0.0
 11
9.5538830923
 21
7.4384822472
 31
0.0
 11
9.7143523132
 21
7.464924456
 31
0.0
  0
SPLINE
  5
3CB
100
AcDbEntity
  8
RACCORDO
100
AcDbSpline
 62
253
  6
CONTINUOUS
 70
0
 71
3
 72
11
 73
7
 74
5
 42
0.0000001
 43
0.0000001
 44
0.0000000001
 12
0.6455805374
 22
-0.3412122508
 32
0.0
 13
0.032690815
 23
-0.7294733312
 33
0.0
 40
0.0
 40
0.0
 40
0.0
 40
0.0
 40
0.22934067
 40
0.4893005901
 40
0.7550782125
 40
1.0
 40
1.0
 40
1.0
 40
1.0
 10
9.691448125
 20
8.5985794661
 30
0.0
 10
9.7408007493
 20
8.5724948507
 30
0.0
 10
9.835280587
 20
8.4964231313
 30
0.0
 10
9.9467109055
 20
8.3486028746
 30
0.0
 10
10.0258341604
 20
8.1770391001
 30
0.0
 10
10.05146007
 20
8.0536230151
 30
0.0
 10
10.0541289676
 20
7.9940683777
 30
0.0
 11
9.691448125
 21
8.5985794661
 31
0.0
 11
9.8244754302
 21
8.4968517203
 31
0.0
 11
9.9400802018
 21
8.3462902811
 31
0.0
 11
10.0207150224
 21
8.1697624553
 31
0.0
 11
10.0541289676
 21
7.9940683777
 31
0.0
  0
SPLINE
  5
3CC
100
AcDbEntity
  8
RACCORDO
100
AcDbSpline
 62
253
  6
CONTINUOUS
 70
0
 71
3
 72
11
 73
7
 74
5
 42
0.0000001
 43
0.0000001
 44
0.0000000001
 12
0.0629066594
 22
-0.4858080561
 32
0.0
 13
0.4306301713
 23
-0.2335045412
 33
0.0
 40
0.0
 40
0.0
 40
0.0
 40
0.0
 40
0.282801121
 40
0.5404163592
 40
0.7767583052
 40
1.0
 40
1.0
 40
1.0
 40
1.0
 10
-21.6383703618
 20
-13.8448588999
 30
0.0
 10
-21.6324403372
 20
-13.8906545876
 30
0.0
 10
-21.6142258783
 20
-13.9775512602
 30
0.0
 10
-21.5640669898
 20
-14.0951082143
 30
0.0
 10
-21.4932697207
 20
-14.1899725295
 30
0.0
 10
-21.4324547875
 20
-14.2360639711
 30
0.0
 10
-21.4004099178
 20
-14.2534399542
 30
0.0
 11
-21.6383703618
 21
-13.8448588999
 31
0.0
 11
-21.6088085129
 21
-13.9802021261
 31
0.0
 11
-21.5581065379
 21
-14.0957653009
 31
0.0
 11
-21.487891297
 21
-14.1878183532
 31
0.0
 11
-21.4004099178
 21
-14.2534399542
 31
0.0
  0
SPLINE
  5
3CD
100
AcDbEntity
  8
RACCORDO
100
AcDbSpline
 62
253
  6
CONTINUOUS
 70
0
 71
3
 72
11
 73
7
 74
5
 42
0.0000001
 43
0.0000001
 44
0.0000000001
 12
0.151564308
 22
1.2879224332
 32
0.0
 13
1.1369446991
 23
0.6237569113
 33
0.0
 40
0.0
 40
0.0
 40
0.0
 40
0.0
 40
0.2517352948
 40
0.5143503011
 40
0.7692751109
 40
1.0
 40
1.0
 40
1.0
 40
1.0
 10
-10.9541599479
 20
17.5233189822
 30
0.0
 10
-10.9414419193
 20
17.6313908267
 30
0.0
 10
-10.8865903694
 20
17.8492762032
 30
0.0
 10
-10.73842332
 20
18.14950985
 30
0.0
 10
-10.5370201476
 20
18.4055647689
 30
0.0
 10
-10.3695626451
 20
18.5373925298
 30
0.0
 10
-10.2821221652
 20
18.5853646112
 30
0.0
 11
-10.9541599479
 21
17.5233189822
 31
0.0
 11
-10.8771594332
 21
17.840560794
 31
0.0
 11
-10.7267406259
 21
18.1461037244
 31
0.0
 11
-10.5203833411
 21
18.4043783268
 31
0.0
 11
-10.2821221652
 21
18.5853646112
 31
0.0
  0
SPLINE
  5
3CE
100
AcDbEntity
  8
RACCORDO
100
AcDbSpline
 62
253
  6
CONTINUOUS
 70
0
 71
3
 72
11
 73
7
 74
5
 42
0.0000001
 43
0.0000001
 44
0.0000000001
 12
-1.119244868
 22
-0.6473604316
 32
0.0
 13
-0.1468246851
 23
-1.2846116592
 33
0.0
 40
0.0
 40
0.0
 40
0.0
 40
0.0
 40
0.2290129338
 40
0.4836600194
 40
0.7470446369
 40
1.0
 40
1.0
 40
1.0
 40
1.0
 10
-20.9848280056
 20
23.9367175314
 30
0.0
 10
-21.0702685225
 20
23.8872995608
 30
0.0
 10
-21.2334391923
 20
23.7526037367
 30
0.0
 10
-21.4288961934
 20
23.4940052865
 30
0.0
 10
-21.5727208324
 20
23.192077646
 30
0.0
 10
-21.6259903323
 20
22.9737404795
 30
0.0
 10
-21.6383703628
 20
22.8654240099
 30
0.0
 11
-20.9848280056
 21
23.9367175314
 31
0.0
 11
-21.2165795297
 21
23.7524047787
 31
0.0
 11
-21.4172101092
 21
23.4913406597
 31
0.0
 11
-21.5634642609
 21
23.1837957745
 31
0.0
 11
-21.6383703628
 21
22.8654240099
 31
0.0
  0
SPLINE
  5
3CF
100
AcDbEntity
  8
RACCORDO
100
AcDbSpline
 62
253
  6
CONTINUOUS
 70
0
 71
3
 72
11
 73
7
 74
5
 42
0.0000001
 43
0.0000001
 44
0.0000000001
 12
0.1513238979
 22
1.2876998697
 32
0.0
 13
1.1358367363
 23
0.6252557755
 33
0.0
 40
0.0
 40
0.0
 40
0.0
 40
0.0
 40
0.2518663989
 40
0.514477849
 40
0.7693348563
 40
1.0
 40
1.0
 40
1.0
 40
1.0
 10
9.020565118
 20
7.5359562695
 30
0.0
 10
9.0332695864
 20
7.6440657125
 30
0.0
 10
9.0880204882
 20
7.8619799819
 30
0.0
 10
9.2359142447
 20
8.1622967229
 30
0.0
 10
9.4369263163
 20
8.4184955848
 30
0.0
 10
9.604115477
 20
8.5505045617
 30
0.0
 10
9.691448125
 20
8.5985794661
 30
0.0
 11
9.020565118
 21
7.5359562695
 31
0.0
 11
9.0974583136
 21
7.8533344873
 31
0.0
 11
9.2475935246
 21
8.1589388428
 31
0.0
 11
9.4535485279
 21
8.4173407499
 31
0.0
 11
9.691448125
 21
8.5985794661
 31
0.0
  0
SPLINE
  5
3D0
100
AcDbEntity
  8
RACCORDO
100
AcDbSpline
 62
253
  6
CONTINUOUS
 70
0
 71
3
 72
9
 73
5
 74
3
 42
0.0000001
 43
0.0000001
 44
0.0000000001
 12
-0.0752253669
 22
-0.0501264729
 32
0.0
 13
-0.0704993608
 23
-0.0565805553
 33
0.0
 40
0.0
 40
0.0
 40
0.0
 40
0.0
 40
0.2456163258
 40
1.0
 40
1.0
 40
1.0
 40
1.0
 10
-1.0589191433
 20
13.9202298135
 30
0.0
 10
-1.0650780027
 20
13.9161258535
 30
0.0
 10
-1.0899578783
 20
13.8991252319
 30
0.0
 10
-1.1140589498
 20
13.8809899259
 30
0.0
 10
-1.1317868054
 20
13.8667621102
 30
0.0
 11
-1.0589191433
 21
13.9202298135
 31
0.0
 11
-1.0772528267
 21
13.9077061405
 31
0.0
 11
-1.1317868054
 21
13.8667621102
 31
0.0
  0
SPLINE
  5
3D1
100
AcDbEntity
  8
RACCORDO
100
AcDbSpline
 62
253
  6
CONTINUOUS
 70
0
 71
3
 72
11
 73
7
 74
5
 42
0.0000001
 43
0.0000001
 44
0.0000000001
 12
-0.8131534701
 22
-0.6526112346
 32
0.0
 13
-0.1988625054
 23
-1.0235104755
 33
0.0
 40
0.0
 40
0.0
 40
0.0
 40
0.0
 40
0.236444634
 40
0.4894354449
 40
0.7479225265
 40
1.0
 40
1.0
 40
1.0
 40
1.0
 10
-1.1317868054
 20
13.8667621102
 30
0.0
 10
-1.1958753969
 20
13.8153266354
 30
0.0
 10
-1.3168565015
 20
13.693928362
 30
0.0
 10
-1.4658714651
 20
13.4795788301
 30
0.0
 10
-1.5808674458
 20
13.2392053919
 30
0.0
 10
-1.6308806896
 20
13.0678853537
 30
0.0
 10
-1.6475902755
 20
12.9818840421
 30
0.0
 11
-1.1317868054
 21
13.8667621102
 31
0.0
 11
-1.3072898153
 21
13.6936283636
 31
0.0
 11
-1.4586907082
 21
13.4776233211
 31
0.0
 11
-1.5749427775
 21
13.2344731625
 31
0.0
 11
-1.6475902755
 21
12.9818840421
 31
0.0
  0
SPLINE
  5
3D2
100
AcDbEntity
  8
RACCORDO
100
AcDbSpline
 62
253
  6
CONTINUOUS
 70
0
 71
3
 72
9
 73
5
 74
3
 42
0.0000001
 43
0.0000001
 44
0.0000000001
 12
-1.176777104
 22
-10.4444291908
 32
0.0
 13
-0.1575653036
 23
-10.5093329308
 33
0.0
 40
0.0
 40
0.0
 40
0.0
 40
0.0
 40
0.2545145449
 40
1.0
 40
1.0
 40
1.0
 40
1.0
 10
-21.6383703628
 20
22.8654240099
 30
0.0
 10
-21.7382059925
 20
21.9793376292
 30
0.0
 10
-22.0903094817
 20
18.4935127793
 30
0.0
 10
-22.2793743088
 20
14.9907587238
 30
0.0
 10
-22.3185285228
 20
12.3792404429
 30
0.0
 11
-21.6383703628
 21
22.8654240099
 31
0.0
 11
-21.9068756491
 21
20.2038547444
 31
0.0
 11
-22.3185285228
 21
12.3792404429
 31
0.0
  0
SPLINE
  5
3D3
100
AcDbEntity
  8
RACCORDO
100
AcDbSpline
 62
253
  6
CONTINUOUS
 70
0
 71
3
 72
14
 73
10
 74
8
 42
0.0000001
 43
0.0000001
 44
0.0000000001
 12
-7.2751619633
 22
5.1014501034
 32
0.0
 13
0.6511608378
 23
8.8616456887
 33
0.0
 40
0.0
 40
0.0
 40
0.0
 40
0.0
 40
0.1152104363
 40
0.237369881
 40
0.3646145688
 40
0.4947582951
 40
0.6255143611
 40
0.7546690047
 40
1.0
 40
1.0
 40
1.0
 40
1.0
 10
-7.7475793481
 20
5.0937853456
 30
0.0
 10
-8.0269708761
 20
5.2896987763
 30
0.0
 10
-8.5714387901
 20
5.7389896469
 30
0.0
 10
-9.3073918552
 20
6.5329962424
 30
0.0
 10
-9.9665207848
 20
7.4470730622
 30
0.0
 10
-10.5259563694
 20
8.4542616888
 30
0.0
 10
-10.9660678944
 20
9.5258126391
 30
0.0
 10
-11.3649633892
 20
10.9699211909
 30
0.0
 10
-11.4587411296
 20
12.0938395218
 30
0.0
 10
-11.4054911508
 20
12.8185183073
 30
0.0
 11
-7.7475793481
 21
5.0937853456
 31
0.0
 11
-8.5401043588
 21
5.7417663574
 31
0.0
 11
-9.2802647758
 21
6.5357243428
 31
0.0
 11
-9.942909664
 21
7.4518262767
 31
0.0
 11
-10.5047557981
 21
8.4625600792
 31
0.0
 11
-10.9455870025
 21
9.5375183043
 31
0.0
 11
-11.2492272257
 21
10.6442286055
 31
0.0
 11
-11.4054911508
 21
12.8185183073
 31
0.0
  0
LINE
  5
3D4
100
AcDbEntity
  8
RACCORDO
100
AcDbLine
 62
253
  6
CONTINUOUS
 10
-2.0960969463
 20
8.2135957882
 11
-2.0995161014
 21
8.1655307826
  0
SPLINE
  5
3D5
100
AcDbEntity
  8
RACCORDO
100
AcDbSpline
 62
253
  6
CONTINUOUS
 70
0
 71
3
 72
18
 73
14
 74
12
 42
0.0000001
 43
0.0000001
 44
0.0000000001
 12
-0.4692580626
 22
-6.616403946
 32
0.0
 13
-6.3533531729
 23
1.9057564812
 33
0.0
 40
0.0
 40
0.0
 40
0.0
 40
0.0
 40
0.1521031906
 40
0.292676276
 40
0.4214731173
 40
0.5400122282
 40
0.5965965995
 40
0.6521047255
 40
0.7072261109
 40
0.7626753258
 40
0.8191389787
 40
0.8772298
 40
1.0
 40
1.0
 40
1.0
 40
1.0
 10
-2.0995161014
 20
8.1655307826
 30
0.0
 10
-2.1233079842
 20
7.8300720658
 30
0.0
 10
-2.2101911117
 20
7.1863148696
 30
0.0
 10
-2.474884215
 20
6.2884396014
 30
0.0
 10
-2.8650764229
 20
5.5184322319
 30
0.0
 10
-3.2983342704
 20
4.995218031
 30
0.0
 10
-3.6957107115
 20
4.6734345079
 30
0.0
 10
-4.0131234699
 20
4.4814993185
 30
0.0
 10
-4.3520661704
 20
4.3370835587
 30
0.0
 10
-4.7099597027
 20
4.2412335124
 30
0.0
 10
-5.0841188418
 20
4.1945571668
 30
0.0
 10
-5.6099706791
 20
4.1979510706
 30
0.0
 10
-6.0069111674
 20
4.2754616271
 30
0.0
 10
-6.2669119806
 20
4.3534516618
 30
0.0
 11
-2.0995161014
 21
8.1655307826
 31
0.0
 11
-2.2397914586
 21
7.1664260516
 31
0.0
 11
-2.5099999745
 21
6.2740118965
 31
0.0
 11
-2.9035420047
 21
5.5157411444
 31
0.0
 11
-3.410519692
 21
4.9147432681
 31
0.0
 11
-3.7025709405
 21
4.6789991614
 31
0.0
 11
-4.0178294847
 21
4.4888058117
 31
0.0
 11
-4.3541939268
 21
4.3454949134
 31
0.0
 11
-4.709386528
 21
4.2500376726
 31
0.0
 11
-5.080951201
 21
4.2030431725
 31
0.0
 11
-5.4662651949
 21
4.2047555285
 31
0.0
 11
-6.2669119806
 21
4.3534516618
 31
0.0
  0
SPLINE
  5
3D6
100
AcDbEntity
  8
RACCORDO
100
AcDbSpline
 62
253
  6
CONTINUOUS
 70
0
 71
3
 72
9
 73
5
 74
3
 42
0.0000001
 43
0.0000001
 44
0.0000000001
 12
0.1658121763
 22
10.4938030459
 32
0.0
 13
1.2407211976
 23
10.4215165381
 33
0.0
 40
0.0
 40
0.0
 40
0.0
 40
0.0
 40
0.2456263602
 40
1.0
 40
1.0
 40
1.0
 40
1.0
 10
8.3040365985
 20
-2.9320421177
 30
0.0
 10
8.3176125456
 20
-2.0728572355
 30
0.0
 10
8.4202693162
 20
1.4242262032
 30
0.0
 10
8.7085759961
 20
4.9153838151
 30
0.0
 10
9.020565118
 20
7.5359562695
 30
0.0
 11
8.3040365985
 21
-2.9320421177
 31
0.0
 11
8.3792436511
 21
-0.3552630017
 31
0.0
 11
9.020565118
 21
7.5359562695
 31
0.0
  0
SPLINE
  5
3D7
100
AcDbEntity
  8
RACCORDO
100
AcDbSpline
 62
253
  6
CONTINUOUS
 70
0
 71
3
 72
27
 73
23
 74
21
 42
0.0000001
 43
0.0000001
 44
0.0000000001
 12
-0.0005453467
 22
16.6023423726
 32
0.0
 13
-1.5154032978
 23
-16.5330373918
 33
0.0
 40
0.0
 40
0.0
 40
0.0
 40
0.0
 40
0.0685939797
 40
0.1412758418
 40
0.2166104155
 40
0.2929472316
 40
0.3685722133
 40
0.4418399726
 40
0.5113101399
 40
0.5758946629
 40
0.6350273
 40
0.6888603871
 40
0.7141374975
 40
0.7385677028
 40
0.7624285052
 40
0.7860377211
 40
0.8097318113
 40
0.8338404243
 40
0.8586622953
 40
0.8844480163
 40
0.9395253064
 40
1.0
 40
1.0
 40
1.0
 40
1.0
 10
-12.9482234126
 20
-0.5969561056
 30
0.0
 10
-12.9482358818
 20
-0.2173491938
 30
0.0
 10
-13.0096471877
 20
0.5652213487
 30
0.0
 10
-13.260333288
 20
1.7404195547
 30
0.0
 10
-13.6641587855
 20
2.9175864758
 30
0.0
 10
-14.2076124235
 20
4.0550601256
 30
0.0
 10
-14.872330382
 20
5.1128622176
 30
0.0
 10
-15.6358828289
 20
6.0536219692
 30
0.0
 10
-16.4724762398
 20
6.844231737
 30
0.0
 10
-17.354472247
 20
7.45684501
 30
0.0
 10
-18.2526513371
 20
7.8693764717
 30
0.0
 10
-19.0077059494
 20
8.0353162992
 30
0.0
 10
-19.5822085237
 20
8.0461866797
 30
0.0
 10
-19.9878155418
 20
7.9971318754
 30
0.0
 10
-20.3729306507
 20
7.8912134338
 30
0.0
 10
-20.7336868349
 20
7.7293679591
 30
0.0
 10
-21.06639806
 20
7.5132334075
 30
0.0
 10
-21.3677407126
 20
7.2450850986
 30
0.0
 10
-21.6348862082
 20
6.927709636
 30
0.0
 10
-21.949070504
 20
6.4325829875
 30
0.0
 10
-22.2394423147
 20
5.6984468453
 30
0.0
 10
-22.3497893555
 20
5.0644897488
 30
0.0
 10
-22.3803372056
 20
4.7312129584
 30
0.0
 11
-12.9482234126
 21
-0.5969561056
 31
0.0
 11
-13.0319368677
 21
0.5387836207
 31
0.0
 11
-13.2801988807
 21
1.7196581704
 31
0.0
 11
-13.6844688131
 21
2.9032511409
 31
0.0
 11
-14.2308019945
 21
4.0468186573
 31
0.0
 11
-14.9002375101
 21
5.1090175601
 31
0.0
 11
-15.6694146855
 21
6.0513738583
 31
0.0
 11
-16.5112811102
 21
6.8397376833
 31
0.0
 11
-17.3959923972
 21
7.4455556072
 31
0.0
 11
-18.2919366302
 21
7.8469256631
 31
0.0
 11
-19.1668520836
 21
8.0294676149
 31
0.0
 11
-19.5864547998
 21
8.0363552041
 31
0.0
 11
-19.9890131229
 21
7.9867865807
 31
0.0
 11
-20.370837383
 21
7.8812344026
 31
0.0
 11
-20.7284216901
 21
7.7206959321
 31
0.0
 11
-21.0584804386
 21
7.5066702341
 31
0.0
 11
-21.3579646293
 21
7.2411201542
 31
0.0
 11
-21.6241032505
 21
6.9264812592
 31
0.0
 11
-21.8544398258
 21
6.5656245619
 31
0.0
 11
-22.1994892178
 21
5.718812734
 31
0.0
 11
-22.3803372056
 21
4.7312129584
 31
0.0
  0
SPLINE
  5
3D8
100
AcDbEntity
  8
RACCORDO
100
AcDbSpline
 62
253
  6
CONTINUOUS
 70
0
 71
3
 72
26
 73
22
 74
20
 42
0.0000001
 43
0.0000001
 44
0.0000000001
 12
1.3850202789
 22
-16.4592715245
 32
0.0
 13
0.0005271129
 23
16.5174422963
 33
0.0
 40
0.0
 40
0.0
 40
0.0
 40
0.0
 40
0.0713035382
 40
0.14593577
 40
0.2223833681
 40
0.2989667965
 40
0.3739827717
 40
0.4458355411
 40
0.5131840508
 40
0.5751126577
 40
0.6313369407
 40
0.682438752
 40
0.706598399
 40
0.73017119
 40
0.7534991655
 40
0.77694426
 40
0.8008588863
 40
0.8255589733
 40
0.8781904938
 40
0.9362427072
 40
1.0
 40
1.0
 40
1.0
 40
1.0
 10
-22.3803372055
 20
3.5076943144
 30
0.0
 10
-22.3474182567
 20
3.1164928826
 30
0.0
 10
-22.2205333949
 20
2.3200748218
 30
0.0
 10
-21.8743759492
 20
1.1426472103
 30
0.0
 10
-21.3794415326
 20
-0.0121416025
 30
0.0
 10
-20.753661826
 20
-1.1038903253
 30
0.0
 10
-20.0195512202
 20
-2.0948369071
 30
0.0
 10
-19.2031471294
 20
-2.9506593752
 30
0.0
 10
-18.3328860378
 20
-3.6418809643
 30
0.0
 10
-17.4377334674
 20
-4.1444007249
 30
0.0
 10
-16.5468621004
 20
-4.439661838
 30
0.0
 10
-15.8163124921
 20
-4.5008401534
 30
0.0
 10
-15.2751428783
 20
-4.4286558674
 30
0.0
 10
-14.8979337914
 20
-4.3190452381
 30
0.0
 10
-14.5459133726
 20
-4.1537319396
 30
0.0
 10
-14.2225360587
 20
-3.9343692791
 30
0.0
 10
-13.9308677532
 20
-3.6632131761
 30
0.0
 10
-13.5804844501
 20
-3.2274903451
 30
0.0
 10
-13.23761253
 20
-2.5561788659
 30
0.0
 10
-12.9969696319
 20
-1.6204594877
 30
0.0
 10
-12.948234615
 20
-0.9479919073
 30
0.0
 10
-12.9482234126
 20
-0.5969561056
 30
0.0
 11
-22.3803372055
 21
3.5076943144
 31
0.0
 11
-22.1994891685
 21
2.343909994
 31
0.0
 11
-21.8544397214
 21
1.1604519392
 31
0.0
 11
-21.3579645366
 21
-0.0005696521
 31
0.0
 11
-20.7284216191
 21
-1.097750352
 31
0.0
 11
-19.9890130545
 21
-2.09202119
 31
0.0
 11
-19.1668520467
 21
-2.94794316
 31
0.0
 11
-18.2919366658
 21
-3.6349749865
 31
0.0
 11
-17.3959924974
 21
-4.1285466038
 31
0.0
 11
-16.5112812797
 21
-4.4109206713
 31
0.0
 11
-15.6694149211
 21
-4.4718899821
 31
0.0
 11
-15.2739745984
 21
-4.4182961012
 31
0.0
 11
-14.9002377721
 21
-4.3091003177
 31
0.0
 11
-14.5514954931
 21
-4.1452431824
 31
0.0
 11
-14.2308022727
 21
-3.928170059
 31
0.0
 11
-13.9409511235
 21
-3.6598083721
 31
0.0
 11
-13.6844690755
 21
-3.3425285492
 31
0.0
 11
-13.2801990871
 21
-2.5729088299
 31
0.0
 11
-13.0319370008
 21
-1.6467309591
 31
0.0
 11
-12.9482234126
 21
-0.5969561056
 31
0.0
  0
SPLINE
  5
3D9
100
AcDbEntity
  8
RACCORDO
100
AcDbSpline
 62
253
  6
CONTINUOUS
 70
0
 71
3
 72
27
 73
23
 74
21
 42
0.0000001
 43
0.0000001
 44
0.0000000001
 12
0.0006007258
 22
-16.5457281421
 32
0.0
 13
1.4726826007
 23
16.4800584365
 33
0.0
 40
0.0
 40
0.0
 40
0.0
 40
0.0
 40
0.0687710049
 40
0.1415925109
 40
0.2170997179
 40
0.2936876587
 40
0.3696543632
 40
0.4433298305
 40
0.5132144624
 40
0.5781344392
 40
0.6374265189
 40
0.6911612043
 40
0.7162804639
 40
0.7404864396
 40
0.7640695867
 40
0.7873674797
 40
0.8107406622
 40
0.8345435622
 40
0.8590967521
 40
0.8846670329
 40
0.9395072481
 40
1.0
 40
1.0
 40
1.0
 40
1.0
 10
-1.1939122111
 20
-6.4741117063
 30
0.0
 10
-1.1938984403
 20
-6.8534004901
 30
0.0
 10
-1.1308857967
 20
-7.635100209
 30
0.0
 10
-0.873459582
 20
-8.8075798153
 30
0.0
 10
-0.4595892567
 20
-9.9801772264
 30
0.0
 10
0.0957486032
 20
-11.1118723407
 30
0.0
 10
0.7724653776
 20
-12.1635242108
 30
0.0
 10
1.5463844569
 20
-13.0986453719
 30
0.0
 10
2.3901765084
 20
-13.8849605978
 30
0.0
 10
3.2751180452
 20
-14.4953285471
 30
0.0
 10
4.171553676
 20
-14.9081773619
 30
0.0
 10
4.9225641159
 20
-15.0769999372
 30
0.0
 10
5.4923945843
 20
-15.090819809
 30
0.0
 10
5.8932382215
 20
-15.0442734761
 30
0.0
 10
6.2730693263
 20
-14.9411108118
 30
0.0
 10
6.6281725831
 20
-14.7821376272
 30
0.0
 10
6.9550198635
 20
-14.5688939719
 30
0.0
 10
7.2504667606
 20
-14.3035834509
 30
0.0
 10
7.511897429
 20
-13.9889365955
 30
0.0
 10
7.8192700243
 20
-13.4965762217
 30
0.0
 10
8.1022708747
 20
-12.7651303314
 30
0.0
 10
8.2092117328
 20
-12.1342359528
 30
0.0
 10
8.2389072738
 20
-11.8019279242
 30
0.0
 11
-1.1939122111
 21
-6.4741117063
 31
0.0
 11
-1.1079468702
 21
-7.6087260882
 31
0.0
 11
-0.8532500182
 21
-8.7863835071
 31
0.0
 11
-0.4392768989
 21
-9.965124792
 31
0.0
 11
0.1186488859
 21
-11.1028958106
 31
0.0
 11
0.7999174197
 21
-12.1591780814
 31
0.0
 11
1.5794839915
 21
-13.0963395997
 31
0.0
 11
2.4288170545
 21
-13.8809699708
 31
0.0
 11
3.3170090061
 21
-14.4850474501
 31
0.0
 11
4.2119506768
 21
-14.8869187078
 31
0.0
 11
5.0815244812
 21
-15.0721314206
 31
0.0
 11
5.4970450047
 21
-15.0810600916
 31
0.0
 11
5.8947654555
 21
-15.0339103997
 31
0.0
 11
6.2711692794
 21
-14.9310684473
 31
0.0
 11
6.6229457068
 21
-14.7734339282
 31
0.0
 11
6.947017654
 21
-14.5624016492
 31
0.0
 11
7.2405507502
 21
-14.2998271608
 31
0.0
 11
7.5009879788
 21
-13.9880390237
 31
0.0
 11
7.7260768948
 21
-13.6298062112
 31
0.0
 11
8.0627232074
 21
-12.7871960268
 31
0.0
 11
8.2389072738
 21
-11.8019279242
 31
0.0
  0
SPLINE
  5
3DA
100
AcDbEntity
  8
RACCORDO
100
AcDbSpline
 62
253
  6
CONTINUOUS
 70
0
 71
3
 72
27
 73
23
 74
21
 42
0.0000001
 43
0.0000001
 44
0.0000000001
 12
-1.5237098637
 22
16.4160619589
 32
0.0
 13
-0.0005795158
 23
-16.4866243255
 33
0.0
 40
0.0
 40
0.0
 40
0.0
 40
0.0
 40
0.0714914544
 40
0.1461827083
 40
0.2225066291
 40
0.2987684956
 40
0.373293589
 40
0.4445568978
 40
0.5113229763
 40
0.5728025738
 40
0.6288358512
 40
0.6800883769
 40
0.7044524459
 40
0.7282997944
 40
0.7519505206
 40
0.7757391395
 40
0.7999894592
 40
0.8249918279
 40
0.8780573024
 40
0.9065204566
 40
0.9363402716
 40
1.0
 40
1.0
 40
1.0
 40
1.0
 10
8.2311731752
 20
-10.4898650715
 30
0.0
 10
8.1948624304
 20
-10.0986623568
 30
0.0
 10
8.0637826037
 20
-9.303309049
 30
0.0
 10
7.7173479747
 20
-8.1278224017
 30
0.0
 10
7.2269989332
 20
-6.9760607674
 30
0.0
 10
6.6091059698
 20
-5.8884799228
 30
0.0
 10
5.8843623829
 20
-4.9030078067
 30
0.0
 10
5.0769804632
 20
-4.0541009437
 30
0.0
 10
4.2138120219
 20
-3.3712989505
 30
0.0
 10
3.3227277004
 20
-2.8787043175
 30
0.0
 10
2.4325456061
 20
-2.5947690817
 30
0.0
 10
1.7016216879
 20
-2.5440191735
 30
0.0
 10
1.1590400582
 20
-2.6234582554
 30
0.0
 10
0.7795391892
 20
-2.7381451531
 30
0.0
 10
0.4248192652
 20
-2.9080269804
 30
0.0
 10
0.0984222589
 20
-3.1313469734
 30
0.0
 10
-0.1964802258
 20
-3.4058108199
 30
0.0
 10
-0.5508238122
 20
-3.8444274795
 30
0.0
 10
-0.8230162009
 20
-4.370538824
 30
0.0
 10
-1.0128155505
 20
-4.9529559644
 30
0.0
 10
-1.1556726772
 20
-5.6086979632
 30
0.0
 10
-1.1938999139
 20
-6.1242670309
 30
0.0
 10
-1.1939122111
 20
-6.4741117063
 30
0.0
 11
8.2311731752
 21
-10.4898650715
 31
0.0
 11
8.0435663163
 21
-9.326238854
 31
0.0
 11
7.6977052128
 21
-8.1444002761
 31
0.0
 11
7.2053645762
 21
-6.9863935799
 31
0.0
 11
6.5834292955
 21
-5.8936897468
 31
0.0
 11
5.853350135
 21
-4.905455184
 31
0.0
 11
5.0404716149
 21
-4.0571637723
 31
0.0
 11
4.1732459502
 21
-3.3792521527
 31
0.0
 11
3.2822667854
 21
-2.89601008
 31
0.0
 11
2.3992118247
 21
-2.6246807101
 31
0.0
 11
1.5557048253
 21
-2.5747901954
 31
0.0
 11
1.1583649632
 21
-2.6336872529
 31
0.0
 11
0.7821525394
 21
-2.7478835193
 31
0.0
 11
0.4304935557
 21
-2.9163295434
 31
0.0
 11
0.1065962275
 21
-3.1374780752
 31
0.0
 11
-0.1865864416
 21
-3.4093028147
 31
0.0
 11
-0.4463654427
 21
-3.7293458621
 31
0.0
 11
-0.8565007329
 21
-4.502124945
 31
0.0
 11
-1.0030935898
 21
-4.9479014941
 31
0.0
 11
-1.1087749135
 21
-5.4280365112
 31
0.0
 11
-1.1939122111
 21
-6.4741117063
 31
0.0
  0
SPLINE
  5
3DB
100
AcDbEntity
  8
RACCORDO
100
AcDbSpline
 62
253
  6
CONTINUOUS
 70
0
 71
3
 72
9
 73
5
 74
3
 42
0.0000001
 43
0.0000001
 44
0.0000000001
 12
-1.5894396805
 22
0.4771881799
 32
0.0
 13
-1.3588964072
 23
0.9525899493
 33
0.0
 40
0.0
 40
0.0
 40
0.0
 40
0.0
 40
0.2361397617
 40
1.0
 40
1.0
 40
1.0
 40
1.0
 10
-6.2669119806
 20
4.3534516619
 30
0.0
 10
-6.3920219498
 20
4.3910126962
 30
0.0
 10
-6.914262164
 20
4.5751914567
 30
0.0
 10
-7.4015770368
 20
4.8512368169
 30
0.0
 10
-7.7475793479
 20
5.0937853455
 30
0.0
 11
-6.2669119806
 21
4.3534516619
 31
0.0
 11
-6.6367178028
 21
4.4831192176
 31
0.0
 11
-7.7475793479
 21
5.0937853455
 31
0.0
  0
SPLINE
  5
3DC
100
AcDbEntity
  8
RACCORDO
100
AcDbSpline
 62
253
  6
CONTINUOUS
 70
0
 71
3
 72
14
 73
10
 74
8
 42
0.0000001
 43
0.0000001
 44
0.0000000001
 12
-3.7086497918
 22
-1.7530563278
 32
0.0
 13
-0.0000743871
 23
-4.1021079656
 33
0.0
 40
0.0
 40
0.0
 40
0.0
 40
0.0
 40
0.1083028061
 40
0.2185263352
 40
0.3326122524
 40
0.4521355879
 40
0.5782236816
 40
0.711527543
 40
1.0
 40
1.0
 40
1.0
 40
1.0
 10
0.9541535172
 20
-2.9881689132
 30
0.0
 10
0.8202677908
 20
-3.0514558864
 30
0.0
 10
0.5612463428
 20
-3.2043157625
 30
0.0
 10
0.2157762896
 20
-3.5035530764
 30
0.0
 10
-0.0834766857
 20
-3.8689411158
 30
0.0
 10
-0.3326860454
 20
-4.2950625937
 30
0.0
 10
-0.529094335
 20
-4.7762434648
 30
0.0
 10
-0.7226597238
 20
-5.5014733195
 30
0.0
 10
-0.7733755128
 20
-6.0814982713
 30
0.0
 10
-0.7733826656
 20
-6.4759466592
 30
0.0
 11
0.9541535172
 21
-2.9881689132
 31
0.0
 11
0.5713946576
 21
-3.2137156132
 31
0.0
 11
0.228904262
 21
-3.5089085698
 31
0.0
 11
-0.0688540323
 21
-3.869958721
 31
0.0
 11
-0.3179888484
 21
-4.2922425193
 31
0.0
 11
-0.5152390704
 21
-4.7703806711
 31
0.0
 11
-0.6580179528
 21
-5.2982383933
 31
0.0
 11
-0.7733826656
 21
-6.4759466592
 31
0.0
  0
SPLINE
  5
3DD
100
AcDbEntity
  8
RACCORDO
100
AcDbSpline
 62
253
  6
CONTINUOUS
 70
0
 71
3
 72
9
 73
5
 74
3
 42
0.0000001
 43
0.0000001
 44
0.0000000001
 12
-0.0000289576
 22
0.489434462
 32
0.0
 13
-0.061279543
 23
0.4855830629
 33
0.0
 40
0.0
 40
0.0
 40
0.0
 40
0.0
 40
0.2441501077
 40
1.0
 40
1.0
 40
1.0
 40
1.0
 10
-4.7226705023
 20
-4.7097325607
 30
0.0
 10
-4.722672859
 20
-4.6699007352
 30
0.0
 10
-4.7254370655
 20
-4.5067626991
 30
0.0
 10
-4.7388548532
 20
-4.3438462904
 30
0.0
 10
-4.7542942318
 20
-4.2215036551
 30
0.0
 11
-4.7226705023
 21
-4.7097325607
 31
0.0
 11
-4.7246576739
 21
-4.590253608
 31
0.0
 11
-4.7542942318
 21
-4.2215036551
 31
0.0
  0
SPLINE
  5
3DE
100
AcDbEntity
  8
RACCORDO
100
AcDbSpline
 62
253
  6
CONTINUOUS
 70
0
 71
3
 72
11
 73
7
 74
5
 42
0.0000001
 43
0.0000001
 44
0.0000000001
 12
-0.4215205827
 22
3.1514851585
 32
0.0
 13
-2.2020109136
 23
2.2936185912
 33
0.0
 40
0.0
 40
0.0
 40
0.0
 40
0.0
 40
0.2443632993
 40
0.4987480914
 40
0.753767569
 40
1.0
 40
1.0
 40
1.0
 40
1.0
 10
-4.7583750758
 20
-4.1901077753
 30
0.0
 10
-4.7927097959
 20
-3.9334053383
 30
0.0
 10
-4.9098878423
 20
-3.4150801876
 30
0.0
 10
-5.2042122242
 20
-2.6693667532
 30
0.0
 10
-5.6060157101
 20
-1.9733327596
 30
0.0
 10
-5.9404429846
 20
-1.5569754528
 30
0.0
 10
-6.1211784848
 20
-1.3687210256
 30
0.0
 11
-4.7583750758
 21
-4.1901077753
 31
0.0
 11
-4.9261540297
 21
-3.4314739044
 31
0.0
 11
-5.2219105584
 21
-2.6786573915
 31
0.0
 11
-5.6282611265
 21
-1.9769791379
 31
0.0
 11
-6.1211784848
 21
-1.3687210256
 31
0.0
  0
SPLINE
  5
3DF
100
AcDbEntity
  8
RACCORDO
100
AcDbSpline
 62
253
  6
CONTINUOUS
 70
0
 71
3
 72
20
 73
16
 74
14
 42
0.0000001
 43
0.0000001
 44
0.0000000001
 12
-3.3458177861
 22
3.4850099196
 32
0.0
 13
-0.0003346288
 23
-4.8311272686
 33
0.0
 40
0.0
 40
0.0
 40
0.0
 40
0.0
 40
0.1523035333
 40
0.2894698136
 40
0.3521415178
 40
0.4110840215
 40
0.4668882293
 40
0.5204522553
 40
0.5729302005
 40
0.6256130335
 40
0.6797633938
 40
0.7364627731
 40
0.7965133697
 40
0.8603969046
 40
1.0
 40
1.0
 40
1.0
 40
1.0
 10
-6.1211784848
 20
-1.3687210256
 30
0.0
 10
-6.2910384416
 20
-1.1917945842
 30
0.0
 10
-6.6426667347
 20
-0.8813549219
 30
0.0
 10
-7.1406199167
 20
-0.5981422539
 30
0.0
 10
-7.538127908
 20
-0.4687080552
 30
0.0
 10
-7.8211797313
 20
-0.4216832081
 30
0.0
 10
-8.0936568115
 20
-0.4229179025
 30
0.0
 10
-8.3511269956
 20
-0.4729170972
 30
0.0
 10
-8.5889785944
 20
-0.5712262811
 30
0.0
 10
-8.8027872582
 20
-0.7161333261
 30
0.0
 10
-8.9888063529
 20
-0.9047811788
 30
0.0
 10
-9.1441773731
 20
-1.1335870692
 30
0.0
 10
-9.2668181534
 20
-1.3986523247
 30
0.0
 10
-9.3882076351
 20
-1.8064527309
 30
0.0
 10
-9.4194495497
 20
-2.1365218109
 30
0.0
 10
-9.4194651214
 20
-2.3613352512
 30
0.0
 11
-6.1211784848
 21
-1.3687210256
 31
0.0
 11
-6.6770282724
 21
-0.8866117547
 31
0.0
 11
-7.2574477504
 21
-0.566859056
 31
0.0
 11
-7.5457717741
 21
-0.474436409
 31
0.0
 11
-7.8268981058
 21
-0.4290985197
 31
0.0
 11
-8.0964844452
 21
-0.4315218244
 31
0.0
 11
-8.3503570102
 21
-0.4816519398
 31
0.0
 11
-8.5845749152
 21
-0.5786995235
 31
0.0
 11
-8.7955028798
 21
-0.7211373591
 31
0.0
 11
-8.9798657892
 21
-0.9067409373
 31
0.0
 11
-9.1347923357
 21
-1.1326413187
 31
0.0
 11
-9.2578630455
 21
-1.3953552634
 31
0.0
 11
-9.3471711638
 21
-1.6907807551
 31
0.0
 11
-9.4194651214
 21
-2.3613352512
 31
0.0
  0
SPLINE
  5
3E0
100
AcDbEntity
  8
RACCORDO
100
AcDbSpline
 62
253
  6
CONTINUOUS
 70
0
 71
3
 72
23
 73
19
 74
17
 42
0.0000001
 43
0.0000001
 44
0.0000000001
 12
0.0006005216
 22
-8.514930267
 32
0.0
 13
0.0004979203
 23
8.5149302736
 33
0.0
 40
0.0
 40
0.0
 40
0.0
 40
0.0
 40
0.0687544793
 40
0.1416609715
 40
0.2172261847
 40
0.2937052288
 40
0.3692733071
 40
0.4421703349
 40
0.5108631357
 40
0.57422644
 40
0.6317592064
 40
0.6838376733
 40
0.7319350856
 40
0.7785728225
 40
0.8267242842
 40
0.8788947447
 40
0.9365309192
 40
1.0
 40
1.0
 40
1.0
 40
1.0
 10
-9.4194651214
 20
-2.3613352512
 30
0.0
 10
-9.4194513585
 20
-2.5564817834
 30
0.0
 10
-9.3860952168
 20
-2.9589751531
 30
0.0
 10
-9.2502750059
 20
-3.5620653478
 30
0.0
 10
-9.03230588
 20
-4.1639247181
 30
0.0
 10
-8.7404274158
 20
-4.7419746586
 30
0.0
 10
-8.3857386733
 20
-5.2747547583
 30
0.0
 10
-7.9815833275
 20
-5.7424299121
 30
0.0
 10
-7.5429450779
 20
-6.1276775046
 30
0.0
 10
-7.0855983933
 20
-6.4162009407
 30
0.0
 10
-6.625242369
 20
-6.5967863736
 30
0.0
 10
-6.1771797488
 20
-6.6605619495
 30
0.0
 10
-5.75819908
 20
-6.6001547774
 30
0.0
 10
-5.3897366134
 20
-6.4136929605
 30
0.0
 10
-5.092475886
 20
-6.1117867797
 30
0.0
 10
-4.8774725238
 20
-5.7127611383
 30
0.0
 10
-4.7486124561
 20
-5.2345918104
 30
0.0
 10
-4.7226810365
 20
-4.8898774933
 30
0.0
 10
-4.7226705023
 20
-4.7097325607
 30
0.0
 11
-9.4194651214
 21
-2.3613352512
 31
0.0
 11
-9.3740659329
 21
-2.9450119056
 31
0.0
 11
-9.2396321757
 21
-3.5510749232
 31
0.0
 11
-9.0214220009
 21
-4.1563762783
 31
0.0
 11
-8.7279326621
 21
-4.7377052116
 31
0.0
 11
-8.3705907001
 21
-5.2728159748
 31
0.0
 11
-7.9632848721
 21
-5.7412033439
 31
0.0
 11
-7.5218154278
 21
-6.1249084344
 31
0.0
 11
-7.063260783
 21
-6.4092052926
 31
0.0
 11
-6.6053006311
 21
-6.5831657958
 31
0.0
 11
-6.1655241019
 21
-6.6400836574
 31
0.0
 11
-5.7607516839
 21
-6.5777353766
 31
0.0
 11
-5.4063975823
 21
-6.3984725959
 31
0.0
 11
-5.1158955426
 21
-6.1091392875
 31
0.0
 11
-4.9002172782
 21
-5.7207821645
 31
0.0
 11
-4.7674757604
 21
-5.2483068457
 31
0.0
 11
-4.7226705023
 21
-4.7097325607
 31
0.0
  0
SPLINE
  5
3E1
100
AcDbEntity
  8
RACCORDO
100
AcDbSpline
 62
253
  6
CONTINUOUS
 70
0
 71
3
 72
9
 73
5
 74
3
 42
0.0000001
 43
0.0000001
 44
0.0000000001
 12
0.1492120772
 22
-9.7949942726
 32
0.0
 13
1.2422743487
 23
-9.7170433511
 33
0.0
 40
0.0
 40
0.0
 40
0.0
 40
0.0
 40
0.2556620338
 40
1.0
 40
1.0
 40
1.0
 40
1.0
 10
-22.3185285364
 20
-4.0752029283
 30
0.0
 10
-22.305812582
 20
-4.9099389805
 30
0.0
 10
-22.2133422385
 20
-8.1740566228
 30
0.0
 10
-21.9465943492
 20
-11.4339374714
 30
0.0
 10
-21.6383703617
 20
-13.8448588999
 30
0.0
 11
-22.3185285364
 21
-4.0752029283
 31
0.0
 11
-22.2471389534
 21
-6.5786839604
 31
0.0
 11
-21.6383703617
 21
-13.8448588999
 31
0.0
  0
SPLINE
  5
3E2
100
AcDbEntity
  8
RACCORDO
100
AcDbSpline
 62
253
  6
CONTINUOUS
 70
0
 71
3
 72
9
 73
5
 74
3
 42
0.0000001
 43
0.0000001
 44
0.0000000001
 12
-1.3059822654
 22
9.7299884377
 32
0.0
 13
-0.1574637454
 23
9.8159803303
 33
0.0
 40
0.0
 40
0.0
 40
0.0
 40
0.0
 40
0.2447320888
 40
1.0
 40
1.0
 40
1.0
 40
1.0
 10
9.0205651191
 20
-29.1743266404
 30
0.0
 10
8.9140265298
 20
-28.3805798422
 30
0.0
 10
8.5294624866
 20
-25.1305513033
 30
0.0
 10
8.3436790213
 20
-21.8577171416
 30
0.0
 10
8.3040365833
 20
-19.3864854881
 30
0.0
 11
9.0205651191
 21
-29.1743266404
 31
0.0
 11
8.7377019299
 21
-26.7884413809
 31
0.0
 11
8.3040365833
 21
-19.3864854881
 31
0.0
  0
SPLINE
  5
3E3
100
AcDbEntity
  8
RACCORDO
100
AcDbSpline
 62
253
  6
CONTINUOUS
 70
0
 71
3
 72
13
 73
9
 74
7
 42
0.0000001
 43
0.0000001
 44
0.0000000001
 12
-3.1908679713
 22
-1.5084272851
 32
0.0
 13
-0.3226281765
 23
-3.5146695925
 33
0.0
 40
0.0
 40
0.0
 40
0.0
 40
0.0
 40
0.1110432015
 40
0.2236046773
 40
0.3392763269
 40
0.4594158404
 40
0.7165033064
 40
1.0
 40
1.0
 40
1.0
 40
1.0
 10
-20.259055815
 20
7.61843306
 30
0.0
 10
-20.37716388
 20
7.5625995283
 30
0.0
 10
-20.6063320125
 20
7.430713235
 30
0.0
 10
-20.9173924486
 20
7.1781122274
 30
0.0
 10
-21.1935213734
 20
6.8731563144
 30
0.0
 10
-21.5184646961
 20
6.3907952889
 30
0.0
 10
-21.8184169713
 20
5.6648154969
 30
0.0
 10
-21.9305046937
 20
5.0343167545
 30
0.0
 10
-21.9609927008
 20
4.7021843517
 30
0.0
 11
-20.259055815
 21
7.61843306
 31
0.0
 11
-20.598817825
 21
7.4230773302
 31
0.0
 11
-20.9076455701
 21
7.1731642
 31
0.0
 11
-21.1824123101
 21
6.8712090436
 31
0.0
 11
-21.4203275517
 21
6.5202185092
 31
0.0
 11
-21.7762738919
 21
5.685572386
 31
0.0
 11
-21.9609927008
 21
4.7021843517
 31
0.0
  0
SPLINE
  5
3E4
100
AcDbEntity
  8
RACCORDO
100
AcDbSpline
 62
253
  6
CONTINUOUS
 70
0
 71
3
 72
12
 73
8
 74
6
 42
0.0000001
 43
0.0000001
 44
0.0000000001
 12
-1.5521900881
 22
-0.819321614
 32
0.0
 13
-1.4616582006
 23
0.9716672689
 33
0.0
 40
0.0
 40
0.0
 40
0.0
 40
0.0
 40
0.1097035735
 40
0.2210959156
 40
0.4551739681
 40
0.7133652432
 40
1.0
 40
1.0
 40
1.0
 40
1.0
 10
1.4403010872
 20
20.2632091762
 30
0.0
 10
1.3835408208
 20
20.2332483398
 30
0.0
 10
1.2637299086
 20
20.1825371358
 30
0.0
 10
1.0035067212
 20
20.1211152374
 30
0.0
 10
0.6444748585
 20
20.1262338699
 30
0.0
 10
0.2033182688
 20
20.255915497
 30
0.0
 10
-0.078163666
 20
20.4105037411
 30
0.0
 10
-0.2178176803
 20
20.5033416115
 30
0.0
 11
1.4403010872
 21
20.2632091762
 31
0.0
 11
1.263022682
 21
20.1880640958
 31
0.0
 11
1.0728180924
 21
20.1428218878
 31
0.0
 11
0.6619747376
 21
20.1436172158
 31
0.0
 11
0.2255135718
 21
20.2655256618
 31
0.0
 11
-0.2178176803
 21
20.5033416115
 31
0.0
  0
SPLINE
  5
3E5
100
AcDbEntity
  8
RACCORDO
100
AcDbSpline
 62
253
  6
CONTINUOUS
 70
0
 71
3
 72
17
 73
13
 74
11
 42
0.0000001
 43
0.0000001
 44
0.0000000001
 12
0.0002070524
 22
-5.8905893305
 32
0.0
 13
5.1474266689
 23
2.8640952136
 33
0.0
 40
0.0
 40
0.0
 40
0.0
 40
0.0
 40
0.1331179619
 40
0.2759350046
 40
0.421740323
 40
0.5632367128
 40
0.6938586918
 40
0.8092405634
 40
0.8610914122
 40
0.9094912198
 40
0.9553611365
 40
1.0
 40
1.0
 40
1.0
 40
1.0
 10
-9.002733579
 20
-2.3649722892
 30
0.0
 10
-9.0027243916
 20
-2.6263533713
 30
0.0
 10
-8.9368387023
 20
-3.1690022504
 30
0.0
 10
-8.6823226601
 20
-3.9612583893
 30
0.0
 10
-8.2876229437
 20
-4.7126899036
 30
0.0
 10
-7.7831003923
 20
-5.3657181733
 30
0.0
 10
-7.2076068203
 20
-5.8711403794
 30
0.0
 10
-6.6824762605
 20
-6.1474524997
 30
0.0
 10
-6.2691980091
 20
-6.2482970457
 30
0.0
 10
-5.980772585
 20
-6.2637789672
 30
0.0
 10
-5.7092860574
 20
-6.2205896132
 30
0.0
 10
-5.5431116417
 20
-6.1523271086
 30
0.0
 10
-5.466519883
 20
-6.1097104569
 30
0.0
 11
-9.002733579
 21
-2.3649722892
 31
0.0
 11
-8.9157326255
 21
-3.1442741981
 31
0.0
 11
-8.6619244139
 21
-3.9463512656
 31
0.0
 11
-8.2622426026
 21
-4.7065670391
 31
0.0
 11
-7.7495237297
 21
-5.3637099563
 31
0.0
 11
-7.1656988188
 21
-5.8648956091
 31
0.0
 11
-6.5582451712
 21
-6.1697686954
 31
0.0
 11
-6.2610471105
 21
-6.2402105455
 31
0.0
 11
-5.9762624531
 21
-6.253688011
 31
0.0
 11
-5.7096330128
 21
-6.2099017474
 31
0.0
 11
-5.466519883
 21
-6.1097104569
 31
0.0
  0
SPLINE
  5
3E6
100
AcDbEntity
  8
0
100
AcDbSpline
 62
7
  6
CONTINUOUS
 70
0
 71
3
 72
17
 73
13
 74
11
 42
0.0000001
 43
0.0000001
 44
0.0000000001
 12
0.0
 22
-5.6024300943
 32
0.0
 13
5.375696566
 23
1.5776911587
 33
0.0
 40
0.0
 40
0.0
 40
0.0
 40
0.0
 40
0.1303750252
 40
0.2700445227
 40
0.4132286019
 40
0.5535675273
 40
0.6851557216
 40
0.8036120013
 40
0.8574174779
 40
0.9076915757
 40
0.9549384419
 40
1.0
 40
1.0
 40
1.0
 40
1.0
 10
-8.5559920524
 20
-2.1566756826
 30
0.0
 10
-8.5559920524
 20
-2.4001480042
 30
0.0
 10
-8.4988232719
 20
-2.905178171
 30
0.0
 10
-8.2757686995
 20
-3.6474440039
 30
0.0
 10
-7.9268558872
 20
-4.3604609204
 30
0.0
 10
-7.4756442309
 20
-4.9954016353
 30
0.0
 10
-6.9527888986
 20
-5.5091881843
 30
0.0
 10
-6.4691565722
 20
-5.8176129713
 30
0.0
 10
-6.0788951611
 20
-5.9644201753
 30
0.0
 10
-5.8008174629
 20
-6.0218553335
 30
0.0
 10
-5.5331252509
 20
-6.0286264415
 30
0.0
 10
-5.3619322731
 20
-5.9981823903
 30
0.0
 10
-5.2811865187
 20
-5.9744846497
 30
0.0
 11
-8.5559920524
 21
-2.1566756826
 31
0.0
 11
-8.4801400716
 21
-2.8831434515
 31
0.0
 11
-8.2580314004
 21
-3.6334474842
 31
0.0
 11
-7.9055294933
 21
-4.3540258792
 31
0.0
 11
-7.4478537813
 21
-4.9933260727
 31
0.0
 11
-6.917726173
 21
-5.5056235441
 31
0.0
 11
-6.3530554724
 21
-5.8542911031
 31
0.0
 11
-6.0703684473
 21
-5.9589571245
 31
0.0
 11
-5.7942217312
 21
-6.0143982993
 31
0.0
 11
-5.5295757031
 21
-6.0196061622
 31
0.0
 11
-5.2811865187
 21
-5.9744846497
 31
0.0
  0
SPLINE
  5
3E7
100
AcDbEntity
  8
0
100
AcDbSpline
 62
7
  6
CONTINUOUS
 70
0
 71
3
 72
11
 73
7
 74
5
 42
0.0000001
 43
0.0000001
 44
0.0000000001
 12
0.0
 22
1.4938389055
 32
0.0
 13
1.0347993327
 23
1.0773787713
 33
0.0
 40
0.0
 40
0.0
 40
0.0
 40
0.0
 40
0.2813233659
 40
0.5409838831
 40
0.7794181359
 40
1.0
 40
1.0
 40
1.0
 40
1.0
 10
-8.5559920524
 20
-2.1566756826
 30
0.0
 10
-8.5559920524
 20
-2.016591753
 30
0.0
 10
-8.5383039277
 20
-1.7466845406
 30
0.0
 10
-8.4519340789
 20
-1.3663795616
 30
0.0
 10
-8.3083261815
 20
-1.036059372
 30
0.0
 10
-8.1714773159
 20
-0.8497197261
 30
0.0
 10
-8.0953913273
 20
-0.7705029868
 30
0.0
 11
-8.5559920524
 21
-2.1566756826
 31
0.0
 11
-8.5261675622
 21
-1.7374835239
 31
0.0
 11
-8.437533345
 21
-1.3598548834
 31
0.0
 11
-8.2925824895
 21
-1.0345010369
 31
0.0
 11
-8.0953913273
 21
-0.7705029868
 31
0.0
  0
SPLINE
  5
3E8
100
AcDbEntity
  8
0
100
AcDbSpline
 62
7
  6
CONTINUOUS
 70
0
 71
3
 72
9
 73
5
 74
3
 42
0.0000001
 43
0.0000001
 44
0.0000000001
 12
0.1312851598
 22
0.1341867287
 32
0.0
 13
0.1506453001
 23
0.1120172527
 33
0.0
 40
0.0
 40
0.0
 40
0.0
 40
0.0
 40
0.2525490892
 40
1.0
 40
1.0
 40
1.0
 40
1.0
 10
-8.0873477753
 20
-0.7622053508
 30
0.0
 10
-8.0762957928
 20
-0.7509091054
 30
0.0
 10
-8.0316918785
 20
-0.7070137129
 30
0.0
 10
-7.983685589
 20
-0.6665620301
 30
0.0
 10
-7.9461522667
 20
-0.6386528976
 30
0.0
 11
-8.0873477753
 21
-0.7622053508
 31
0.0
 11
-8.0535494299
 21
-0.728957266
 31
0.0
 11
-7.9461522667
 21
-0.6386528976
 31
0.0
  0
SPLINE
  5
3E9
100
AcDbEntity
  8
RACCORDO
100
AcDbSpline
 62
253
  6
CONTINUOUS
 70
0
 71
3
 72
10
 73
6
 74
4
 42
0.0000001
 43
0.0000001
 44
0.0000000001
 12
-0.0109701634
 22
-0.1095625677
 32
0.0
 13
-0.0977810944
 23
-0.0506276437
 33
0.0
 40
0.0
 40
0.0
 40
0.0
 40
0.0
 40
0.4354616069
 40
0.6999641439
 40
1.0
 40
1.0
 40
1.0
 40
1.0
 10
7.6941961682
 20
-29.0269368837
 30
0.0
 10
7.6926038065
 20
-29.0428403143
 30
0.0
 10
7.6794752732
 20
-29.0673049153
 30
0.0
 10
7.6519436732
 20
-29.0915298208
 30
0.0
 10
7.6341355982
 20
-29.1024183787
 30
0.0
 10
7.6243563201
 20
-29.1074817481
 30
0.0
 11
7.6941961682
 21
-29.0269368837
 31
0.0
 11
7.6738913739
 21
-29.0703742848
 31
0.0
 11
7.6524246568
 21
-29.0900571565
 31
0.0
 11
7.6243563201
 21
-29.1074817481
 31
0.0
  0
SPLINE
  5
3EA
100
AcDbEntity
  8
RACCORDO
100
AcDbSpline
 62
253
  6
CONTINUOUS
 70
0
 71
3
 72
10
 73
6
 74
4
 42
0.0000001
 43
0.0000001
 44
0.0000000001
 12
0.4933072537
 22
-0.7091182693
 32
0.0
 13
0.0000000008
 23
-0.8638291304
 33
0.0
 40
0.0
 40
0.0
 40
0.0
 40
0.0
 40
0.5152974195
 40
0.7654338627
 40
1.0
 40
1.0
 40
1.0
 40
1.0
 10
15.4151566897
 20
7.9301181084
 30
0.0
 10
15.499890008
 20
7.808315837
 30
0.0
 10
15.6006824301
 20
7.6078952218
 30
0.0
 10
15.673093517
 20
7.3285438609
 30
0.0
 10
15.6865970206
 20
7.1887551898
 30
0.0
 10
15.6865970207
 20
7.1212135024
 30
0.0
 11
15.4151566897
 21
7.9301181084
 31
0.0
 11
15.6150382441
 21
7.5323906625
 31
0.0
 11
15.6684699827
 21
7.3230261046
 31
0.0
 11
15.6865970207
 21
7.1212135024
 31
0.0
  0
SPLINE
  5
3EB
100
AcDbEntity
  8
RACCORDO
100
AcDbSpline
 62
253
  6
CONTINUOUS
 70
0
 71
3
 72
10
 73
6
 74
4
 42
0.0000001
 43
0.0000001
 44
0.0000000001
 12
-0.0109701634
 22
-0.1095625677
 32
0.0
 13
-0.0977810944
 23
-0.0506276437
 33
0.0
 40
0.0
 40
0.0
 40
0.0
 40
0.0
 40
0.4354616069
 40
0.6999641439
 40
1.0
 40
1.0
 40
1.0
 40
1.0
 10
-8.2157064085
 20
-21.0719855953
 30
0.0
 10
-8.2172987702
 20
-21.0878890259
 30
0.0
 10
-8.2304273035
 20
-21.112353627
 30
0.0
 10
-8.2579589034
 20
-21.1365785325
 30
0.0
 10
-8.2757669785
 20
-21.1474670903
 30
0.0
 10
-8.2855462566
 20
-21.1525304598
 30
0.0
 11
-8.2157064085
 21
-21.0719855953
 31
0.0
 11
-8.2360112028
 21
-21.1154229964
 31
0.0
 11
-8.2574779199
 21
-21.1351058681
 31
0.0
 11
-8.2855462566
 21
-21.1525304598
 31
0.0
  0
SPLINE
  5
3EC
100
AcDbEntity
  8
RACCORDO
100
AcDbSpline
 62
253
  6
CONTINUOUS
 70
0
 71
3
 72
10
 73
6
 74
4
 42
0.0000001
 43
0.0000001
 44
0.0000000001
 12
0.4933072537
 22
-0.7091182693
 32
0.0
 13
0.0000000008
 23
-0.8638291304
 33
0.0
 40
0.0
 40
0.0
 40
0.0
 40
0.0
 40
0.5152974195
 40
0.7654338627
 40
1.0
 40
1.0
 40
1.0
 40
1.0
 10
15.4151566897
 20
-24.1128218316
 30
0.0
 10
15.499890008
 20
-24.2346241031
 30
0.0
 10
15.6006824301
 20
-24.4350447182
 30
0.0
 10
15.673093517
 20
-24.7143960791
 30
0.0
 10
15.6865970206
 20
-24.8541847502
 30
0.0
 10
15.6865970207
 20
-24.9217264377
 30
0.0
 11
15.4151566897
 21
-24.1128218316
 31
0.0
 11
15.6150382441
 21
-24.5105492775
 31
0.0
 11
15.6684699827
 21
-24.7199138355
 31
0.0
 11
15.6865970207
 21
-24.9217264377
 31
0.0
  0
SPLINE
  5
3ED
100
AcDbEntity
  8
RACCORDO
100
AcDbSpline
 62
253
  6
CONTINUOUS
 70
0
 71
3
 72
9
 73
5
 74
3
 42
0.0000001
 43
0.0000001
 44
0.0000000001
 12
-0.099952598
 22
0.05001377
 32
0.0
 13
-0.1008148087
 23
-0.0482521852
 33
0.0
 40
0.0
 40
0.0
 40
0.0
 40
0.0
 40
0.4650407032
 40
1.0
 40
1.0
 40
1.0
 40
1.0
 10
-8.3536089324
 20
27.7040879708
 30
0.0
 10
-8.3691029412
 20
27.7118407837
 30
0.0
 10
-8.4077500414
 20
27.7185829847
 30
0.0
 10
-8.4443187549
 20
27.7070899884
 30
0.0
 10
-8.462296028
 20
27.6984856701
 30
0.0
 11
-8.3536089324
 21
27.7040879708
 31
0.0
 11
-8.4045984127
 21
27.7141679837
 31
0.0
 11
-8.462296028
 21
27.6984856701
 31
0.0
  0
SPLINE
  5
3EE
100
AcDbEntity
  8
RACCORDO
100
AcDbSpline
 62
253
  6
CONTINUOUS
 70
0
 71
3
 72
11
 73
7
 74
5
 42
0.0000001
 43
0.0000001
 44
0.0000000001
 12
-2.024184978
 22
-1.0660224731
 32
0.0
 13
-2.191109788
 23
0.6578500098
 33
0.0
 40
0.0
 40
0.0
 40
0.0
 40
0.0
 40
0.237885862
 40
0.4798777312
 40
0.7323209852
 40
1.0
 40
1.0
 40
1.0
 40
1.0
 10
-3.9516774846
 20
4.6855783899
 30
0.0
 10
-4.112185814
 20
4.6010478316
 30
0.0
 10
-4.4554638221
 20
4.4649064765
 30
0.0
 10
-5.0103760205
 20
4.3737659276
 30
0.0
 10
-5.5945688868
 20
4.3955184385
 30
0.0
 10
-5.9840689531
 20
4.4810451451
 30
0.0
 10
-6.1795736562
 20
4.5397426926
 30
0.0
 11
-3.9516774846
 21
4.6855783899
 31
0.0
 11
-4.4575266127
 21
4.484850436
 31
0.0
 11
-5.00349856
 21
4.39318732
 31
0.0
 11
-5.5807238025
 21
4.4117338183
 31
0.0
 11
-6.1795736562
 21
4.5397426926
 31
0.0
  0
SPLINE
  5
3EF
100
AcDbEntity
  8
RACCORDO
100
AcDbSpline
 62
253
  6
CONTINUOUS
 70
0
 71
3
 72
9
 73
5
 74
3
 42
0.0000001
 43
0.0000001
 44
0.0000000001
 12
0.0979385822
 22
0.0369781657
 32
0.0
 13
0.0929795073
 23
-0.048105736
 33
0.0
 40
0.0
 40
0.0
 40
0.0
 40
0.0
 40
0.4658287121
 40
1.0
 40
1.0
 40
1.0
 40
1.0
 10
-9.5937650723
 20
28.2249002531
 30
0.0
 10
-9.5785575378
 20
28.2306420836
 30
0.0
 10
-9.5422519427
 20
28.2339437354
 30
0.0
 10
-9.5086015178
 20
28.2219261521
 30
0.0
 10
-9.4920458567
 20
28.2133605844
 30
0.0
 11
-9.5937650723
 21
28.2249002531
 31
0.0
 11
-9.5453093229
 21
28.2303938733
 31
0.0
 11
-9.4920458567
 21
28.2133605844
 31
0.0
  0
SPLINE
  5
3F0
100
AcDbEntity
  8
DRAFT
100
AcDbSpline
 62
7
  6
CONTINUOUS
 70
0
 71
3
 72
11
 73
7
 74
5
 42
0.0000001
 43
0.0000001
 44
0.0000000001
 12
-0.7616885682
 22
-0.5397913859
 32
0.0
 13
0.0
 23
-0.9335653246
 33
0.0
 40
0.0
 40
0.0
 40
0.0
 40
0.0
 40
0.2177888287
 40
0.4533864241
 40
0.7135550449
 40
1.0
 40
1.0
 40
1.0
 40
1.0
 10
-6.275719111
 20
-1.3232912408
 30
0.0
 10
-6.3310148647
 20
-1.3624780853
 30
0.0
 10
-6.4330496799
 20
-1.463685047
 30
0.0
 10
-6.5409468242
 20
-1.6604694229
 30
0.0
 10
-6.605760253
 20
-1.8969444422
 30
0.0
 10
-6.6188033989
 20
-2.0675373235
 30
0.0
 10
-6.6188033989
 20
-2.1566756826
 30
0.0
 11
-6.275719111
 21
-1.3232912408
 31
0.0
 11
-6.4213169072
 21
-1.4652079213
 31
0.0
 11
-6.5295787629
 21
-1.6566641869
 31
0.0
 11
-6.5962772936
 21
-1.8902110541
 31
0.0
 11
-6.6188033989
 21
-2.1566756826
 31
0.0
  0
SPLINE
  5
3F1
100
AcDbEntity
  8
DRAFT
100
AcDbSpline
 62
7
  6
CONTINUOUS
 70
0
 71
3
 72
17
 73
13
 74
11
 42
0.0000001
 43
0.0000001
 44
0.0000000001
 12
-2.9172437001
 22
-0.8993057871
 32
0.0
 13
0.0
 23
3.0527138262
 33
0.0
 40
0.0
 40
0.0
 40
0.0
 40
0.0
 40
0.0450151422
 40
0.0921666561
 40
0.1423230671
 40
0.1960110184
 40
0.3142892745
 40
0.4458270448
 40
0.5862405047
 40
0.72959125
 40
0.8694529676
 40
1.0
 40
1.0
 40
1.0
 40
1.0
 10
-4.8312059738
 20
-4.2288464401
 30
0.0
 10
-4.8749793538
 20
-4.2423405661
 30
0.0
 10
-4.9679173773
 20
-4.2600679918
 30
0.0
 10
-5.1135626103
 20
-4.257970566
 30
0.0
 10
-5.2650374205
 20
-4.2280573218
 30
0.0
 10
-5.4778660089
 20
-4.1497081331
 30
0.0
 10
-5.7419642152
 20
-3.9830958427
 30
0.0
 10
-6.0276800865
 20
-3.7041597136
 30
0.0
 10
-6.2744509343
 20
-3.3585681306
 30
0.0
 10
-6.465364365
 20
-2.9699323415
 30
0.0
 10
-6.5874910257
 20
-2.5650767825
 30
0.0
 10
-6.6188033989
 20
-2.2895165929
 30
0.0
 10
-6.6188033989
 20
-2.1566756826
 30
0.0
 11
-4.8312059738
 21
-4.2288464401
 31
0.0
 11
-4.9660923235
 21
-4.255104291
 31
0.0
 11
-5.1100267193
 21
-4.2538252773
 31
0.0
 11
-5.2604042057
 21
-4.2250111448
 31
0.0
 11
-5.4145033775
 21
-4.1692018937
 31
0.0
 11
-5.7226988013
 21
-3.9810878707
 31
0.0
 11
-6.0124030622
 21
-3.7030382867
 31
0.0
 11
-6.2627330716
 21
-3.3550886564
 31
0.0
 11
-6.4556537956
 21
-2.9622998354
 31
0.0
 11
-6.5772650202
 21
-2.5530277106
 31
0.0
 11
-6.6188033989
 21
-2.1566756826
 31
0.0
  0
SPLINE
  5
3F2
100
AcDbEntity
  8
RACCORDO
100
AcDbSpline
 62
253
  6
CONTINUOUS
 70
0
 71
3
 72
9
 73
5
 74
3
 42
0.0000001
 43
0.0000001
 44
0.0000000001
 12
-0.099952598
 22
0.05001377
 32
0.0
 13
-0.1008148087
 23
-0.0482521852
 33
0.0
 40
0.0
 40
0.0
 40
0.0
 40
0.0
 40
0.4650407032
 40
1.0
 40
1.0
 40
1.0
 40
1.0
 10
7.5562936443
 20
19.7491366824
 30
0.0
 10
7.5407996355
 20
19.7568894954
 30
0.0
 10
7.5021525353
 20
19.7636316963
 30
0.0
 10
7.4655838218
 20
19.7521387001
 30
0.0
 10
7.4476065487
 20
19.7435343817
 30
0.0
 11
7.5562936443
 21
19.7491366824
 31
0.0
 11
7.505304164
 21
19.7592166953
 31
0.0
 11
7.4476065487
 21
19.7435343817
 31
0.0
  0
SPLINE
  5
3F3
100
AcDbEntity
  8
RACCORDO
100
AcDbSpline
 62
253
  6
CONTINUOUS
 70
0
 71
3
 72
13
 73
9
 74
7
 42
0.0000001
 43
0.0000001
 44
0.0000000001
 12
-1.7898724703
 22
-0.7982187442
 32
0.0
 13
-0.0000677046
 23
-1.9597950451
 33
0.0
 40
0.0
 40
0.0
 40
0.0
 40
0.0
 40
0.1082761663
 40
0.218296163
 40
0.3321332451
 40
0.4514816766
 40
0.7104938743
 40
1.0
 40
1.0
 40
1.0
 40
1.0
 10
-8.1672595238
 20
-0.707205878
 30
0.0
 10
-8.2318597002
 20
-0.7360152331
 30
0.0
 10
-8.3569825941
 20
-0.8064367388
 30
0.0
 10
-8.5241283938
 20
-0.9465348068
 30
0.0
 10
-8.6689425299
 20
-1.1191125723
 30
0.0
 10
-8.8341247212
 20
-1.3963627393
 30
0.0
 10
-8.9712473788
 20
-1.8162276982
 30
0.0
 10
-9.0027270454
 20
-2.1758480657
 30
0.0
 10
-9.002733579
 20
-2.3649722892
 30
0.0
 11
-8.1672595238
 21
-0.707205878
 31
0.0
 11
-8.3522274164
 21
-0.8112026776
 31
0.0
 11
-8.5178112115
 21
-0.9493060599
 31
0.0
 11
-8.6618185908
 21
-1.1197006083
 31
0.0
 11
-8.7823485012
 21
-1.3201526786
 31
0.0
 11
-8.9468944764
 21
-1.8003540621
 31
0.0
 11
-9.002733579
 21
-2.3649722892
 31
0.0
  0
SPLINE
  5
3F4
100
AcDbEntity
  8
RACCORDO
100
AcDbSpline
 62
253
  6
CONTINUOUS
 70
0
 71
3
 72
9
 73
5
 74
3
 42
0.0000001
 43
0.0000001
 44
0.0000000001
 12
0.0979385822
 22
0.0369781657
 32
0.0
 13
0.0929795073
 23
-0.048105736
 33
0.0
 40
0.0
 40
0.0
 40
0.0
 40
0.0
 40
0.4658287121
 40
1.0
 40
1.0
 40
1.0
 40
1.0
 10
6.3161375044
 20
20.2699489648
 30
0.0
 10
6.3313450389
 20
20.2756907952
 30
0.0
 10
6.367650634
 20
20.2789924471
 30
0.0
 10
6.4013010589
 20
20.2669748638
 30
0.0
 10
6.41785672
 20
20.2584092961
 30
0.0
 11
6.3161375044
 21
20.2699489648
 31
0.0
 11
6.3645932538
 21
20.275442585
 31
0.0
 11
6.41785672
 21
20.2584092961
 31
0.0
  0
SPLINE
  5
3F5
100
AcDbEntity
  8
RACCORDO
100
AcDbSpline
 62
253
  6
CONTINUOUS
 70
0
 71
3
 72
14
 73
10
 74
8
 42
0.0000001
 43
0.0000001
 44
0.0000000001
 12
2.9151835325
 22
1.348939159
 32
0.0
 13
0.0028263521
 23
3.2121525329
 33
0.0
 40
0.0
 40
0.0
 40
0.0
 40
0.0
 40
0.1078282262
 40
0.217565115
 40
0.3312637492
 40
0.4505845676
 40
0.5767038713
 40
0.7102861316
 40
1.0
 40
1.0
 40
1.0
 40
1.0
 10
13.1960661713
 20
-33.3151943191
 30
0.0
 10
13.3008458611
 20
-33.2667097468
 30
0.0
 10
13.5036262995
 20
-33.1488880716
 30
0.0
 10
13.774000768
 20
-32.9165396113
 30
0.0
 10
14.008042366
 20
-32.6316290967
 30
0.0
 10
14.2028393063
 20
-32.2984217884
 30
0.0
 10
14.3563383097
 20
-31.921381805
 30
0.0
 10
14.5078059549
 20
-31.3517424769
 30
0.0
 10
14.547548998
 20
-30.8959675159
 30
0.0
 10
14.5478219425
 20
-30.5857658039
 30
0.0
 11
13.1960661713
 21
-33.3151943191
 31
0.0
 11
13.4956559774
 21
-33.1413789505
 31
0.0
 11
13.763579237
 21
-32.9123209469
 31
0.0
 11
13.996413135
 21
-32.6309454036
 31
0.0
 11
14.1911807382
 21
-32.3008443594
 31
0.0
 11
14.3453967345
 21
-31.9262308736
 31
0.0
 11
14.457098407
 21
-31.5119384822
 31
0.0
 11
14.5478219425
 21
-30.5857658039
 31
0.0
  0
SPLINE
  5
3F6
100
AcDbEntity
  8
RACCORDO
100
AcDbSpline
 62
253
  6
CONTINUOUS
 70
0
 71
3
 72
14
 73
10
 74
8
 42
0.0000001
 43
0.0000001
 44
0.0000000001
 12
-7.1044254472
 22
4.9801759258
 32
0.0
 13
0.6502574663
 23
8.6517153452
 33
0.0
 40
0.0
 40
0.0
 40
0.0
 40
0.0
 40
0.1151797471
 40
0.2372979744
 40
0.3645046604
 40
0.4946251797
 40
0.6253798946
 40
0.754557479
 40
1.0
 40
1.0
 40
1.0
 40
1.0
 10
-7.626526146
 20
5.2632189375
 30
0.0
 10
-7.8992881214
 20
5.4544240721
 30
0.0
 10
-8.4308999693
 20
5.8928131476
 30
0.0
 10
-9.1496061826
 20
6.6675805524
 30
0.0
 10
-9.7933728888
 20
7.5596273237
 30
0.0
 10
-10.3397677302
 20
8.542800647
 30
0.0
 10
-10.7694691883
 20
9.5891249271
 30
0.0
 10
-11.1584926099
 20
10.9997413347
 30
0.0
 10
-11.2488614048
 20
12.0978020074
 30
0.0
 10
-11.1956611275
 20
12.8056349492
 30
0.0
 11
-7.626526146
 21
5.2632189375
 31
0.0
 11
-8.4003430477
 21
5.8955431353
 31
0.0
 11
-9.123116454
 21
6.6702459452
 31
0.0
 11
-9.7702773087
 21
7.5642529576
 31
0.0
 11
-10.3189961252
 21
8.5508710297
 31
0.0
 11
-10.7493777222
 21
9.6005058164
 31
0.0
 11
-11.0454519583
 21
10.6814511312
 31
0.0
 11
-11.1956611275
 21
12.8056349492
 31
0.0
  0
ELLIPSE
  5
3F7
100
AcDbEntity
  8
RACCORDO
100
AcDbEllipse
 62
7
  6
CONTINUOUS
 10
-7.5660264019
 20
19.5696456518
 30
0.0
 11
-0.0670385456
 21
0.1344092066
 31
0.0
 40
0.6116748051
 41
-0.6831523243
 42
0.0408455326
  0
ELLIPSE
  5
3F8
100
AcDbEntity
  8
RACCORDO
100
AcDbEllipse
 62
7
  6
CONTINUOUS
 10
0.9192226587
 20
15.3270211215
 30
0.0
 11
-0.066929941
 21
0.134313301
 31
0.0
 40
0.6127700112
 41
-2.2535417632
 42
-0.6836588249
  0
ELLIPSE
  5
3F9
100
AcDbEntity
  8
RACCORDO
100
AcDbEllipse
 62
7
  6
CONTINUOUS
 10
-3.3656922681
 20
17.4945977347
 30
0.0
 11
-0.1318782652
 21
0.273094126
 31
0.0
 40
0.6085747011
 41
-0.6677344043
 42
0.4938735741
  0
ELLIPSE
  5
3FA
100
AcDbEntity
  8
RACCORDO
100
AcDbEllipse
 62
7
  6
CONTINUOUS
 10
-3.2811114751
 20
17.4523073383
 30
0.0
 11
-0.1311179185
 21
0.2724695871
 31
0.0
 40
0.6121735965
 41
-1.8308368674
 42
-0.669228889
  0
ELLIPSE
  5
3FB
100
AcDbEntity
  8
RACCORDO
100
AcDbEllipse
 62
7
  6
CONTINUOUS
 10
11.878855363
 20
-28.4160597308
 30
0.0
 11
-2.2370091071
 21
4.4733511354
 31
0.0
 40
0.6121897086
 41
-3.1606702172
 42
-2.2557347926
  0
ELLIPSE
  5
3FC
100
AcDbEntity
  8
RACCORDO
100
AcDbEllipse
 62
7
  6
CONTINUOUS
 10
11.878855363
 20
12.7188277494
 30
0.0
 11
-2.2358077559
 21
4.4722832679
 31
0.0
 40
0.6125552124
 41
-2.255296188
 42
-0.6848044477
  0
ELLIPSE
  5
3FD
100
AcDbEntity
  8
RACCORDO
100
AcDbEllipse
 62
7
  6
CONTINUOUS
 10
-15.6972319814
 20
26.5068714216
 30
0.0
 11
-2.2370091071
 21
4.4733511354
 31
0.0
 40
0.6121897086
 41
-0.6846338794
 42
0.0190101911
  0
ELLIPSE
  5
3FE
100
AcDbEntity
  8
RACCORDO
100
AcDbEllipse
 62
7
  6
CONTINUOUS
 10
1.2715741035
 20
15.1508453992
 30
0.0
 11
-0.0670385456
 21
0.1344092066
 31
0.0
 40
0.6116748051
 41
-0.6831523243
 42
0.0394965825
  0
ELLIPSE
  5
3FF
100
AcDbEntity
  8
RACCORDO
100
AcDbEllipse
 62
7
  6
CONTINUOUS
 10
-18.3775975741
 20
25.0481530011
 30
0.0
 11
-0.2236507175
 21
0.4481039483
 31
0.0
 40
0.6114248242
 41
-0.6832297371
 42
0.0444622319
  0
ELLIPSE
  5
400
100
AcDbEntity
  8
RACCORDO
100
AcDbEllipse
 62
7
  6
CONTINUOUS
 10
-7.9183778466
 20
19.7458213742
 30
0.0
 11
-0.066929941
 21
0.134313301
 31
0.0
 40
0.6127700112
 41
-2.2535417632
 42
-0.6836588249
  0
ELLIPSE
  5
401
100
AcDbEntity
  8
RACCORDO
100
AcDbEllipse
 62
7
  6
CONTINUOUS
 10
12.4379006122
 20
-28.018001482
 30
0.0
 11
-0.2236507175
 21
0.4481039483
 31
0.0
 40
0.6114248242
 41
-3.1858607681
 42
-2.25539606
  0
ELLIPSE
  5
402
100
AcDbEntity
  8
RACCORDO
100
AcDbEllipse
 62
7
  6
CONTINUOUS
 10
12.4379006122
 20
9.6404039079
 30
0.0
 11
-0.2231080361
 21
0.4476242326
 31
0.0
 40
0.6130677323
 41
-2.2534169372
 42
-0.6839906064
  0
ENDSEC
  0
SECTION
  2
OBJECTS
  0
DICTIONARY
  5
C
100
AcDbDictionary
280
0
281
1
  3
ACAD_GROUP
350
D
  3
ACAD_MLINESTYLE
350
17
  3
ACAD_LAYOUT
350
1A
  3
ACAD_PLOTSETTINGS
350
19
  3
ACAD_PLOTSTYLENAME
350
E
  0
DICTIONARY
  5
D
102
{ACAD_REACTORS
330
C
102
}
100
AcDbDictionary
280
0
281
1
  0
ACDBDICTIONARYWDFLT
  5
E
102
{ACAD_REACTORS
330
C
102
}
100
AcDbDictionary
281
1
  3
Normal
350
F
100
AcDbDictionaryWithDefault
340
F
  0
DICTIONARY
  5
17
102
{ACAD_REACTORS
330
C
102
}
100
AcDbDictionary
280
0
281
1
  3
Standard
350
18
  0
DICTIONARY
  5
19
102
{ACAD_REACTORS
330
C
102
}
100
AcDbDictionary
281
1
  0
DICTIONARY
  5
1A
102
{ACAD_REACTORS
330
C
102
}
100
AcDbDictionary
281
1
  3
Model
350
403
  3
Layout1
350
404
  0
ACDBPLACEHOLDER
  5
F
102
{ACAD_REACTORS
330
E
102
}
  0
MLINESTYLE
  5
18
102
{ACAD_REACTORS
330
17
102
}
100
AcDbMlineStyle
  2
STANDARD
 70
0
  3

 62
256
 51
90.0
 52
90.0
 71
2
 49
0.5
 62
256
  6
BYLAYER
 49
-0.5
 62
256
  6
BYLAYER
  0
LAYOUT
  5
403
102
{ACAD_REACTORS
330
1A
102
}
100
AcDbPlotSettings
  1

  2
none_device
  4
ISO_A4_(297.00_x_210.00_MM)
  6

 40
0.0
 41
0.0
 42
0.0
 43
0.0
 44
297.0
 45
210.0
 46
0.0
 47
0.0
 48
0.0
 49
0.0
140
0.0
141
0.0
142
1.0
143
1.0
 70
1024
 72
1
 73
0
 74
0
  7

 75
0
147
1.0
148
0.0
149
0.0
100
AcDbLayout
  1
Model
 70
0
 71
0
 10
0.0
 20
0.0
 11
297.0
 21
210.0
 12
0.0
 22
0.0
 32
0.0
 14
0.0
 24
0.0
 34
0.0
 15
0.0
 25
0.0
 35
0.0
146
0.0
 13
0.0
 23
0.0
 33
0.0
 16
1.0
 26
0.0
 36
0.0
 17
0.0
 27
1.0
 37
0.0
 76
0
330
214
345
0
346
0
  0
LAYOUT
  5
404
102
{ACAD_REACTORS
330
1A
102
}
100
AcDbPlotSettings
  1

  2
none_device
  4
ISO_A4_(297.00_x_210.00_MM)
  6

 40
0.0
 41
0.0
 42
0.0
 43
0.0
 44
297.0
 45
210.0
 46
0.0
 47
0.0
 48
0.0
 49
0.0
140
0.0
141
0.0
142
1.0
143
1.0
 70
0
 72
1
 73
0
 74
0
  7

 75
0
147
1.0
148
0.0
149
0.0
100
AcDbLayout
  1
Layout1
 70
0
 71
1
 10
0.0
 20
0.0
 11
297.0
 21
210.0
 12
0.0
 22
0.0
 32
0.0
 14
0.0
 24
0.0
 34
0.0
 15
0.0
 25
0.0
 35
0.0
146
0.0
 13
0.0
 23
0.0
 33
0.0
 16
1.0
 26
0.0
 36
0.0
 17
0.0
 27
1.0
 37
0.0
 76
0
330
215
345
0
346
0
  0
ENDSEC
  0
EOF
