  0
SECTION
  2
HEADER
  9
$ACADVER
  1
AC1015
  9
$DWGCODEPAGE
  3
ANSI_1252
  9
$EXTMAX
 10
297.0
 20
210.0
 30
0.0
  9
$EXTMIN
 10
0.0
 20
0.0
 30
0.0
  9
$LIMMIN
 10
0.0
 20
0.0
  9
$LIMMAX
 10
297.0
 20
210.0
  9
$VIEWCTR
 10
148.5
 20
105.0
  9
$VIEWSIZE
 40
210.0
  9
$CLAYER
  8
0
  9
$LTSCALE
 40
16.335
  9
$CELTYPE
  6
BYLAYER
  9
$DIMSCALE
 40
1.0
  9
$DIMASZ
 40
3.0
  9
$DIMEXO
 40
1.85625
  9
$DIMDLI
 40
11.286
  9
$DIMEXE
 40
5.346
  9
$DIMCEN
 40
2.673
  9
$DIMLFAC
 40
1.0
  9
$DIMBLK
  1
_FILLED
  9
$DIMTXT
 40
3.0
  9
$DIMTOL
 70
1
  9
$DIMLIM
 70
0
  9
$DIMTFAC
 40
1.0
  9
$DIMTP
 40
0.01
  9
$DIMTM
 40
0.01
  9
$PDMODE
 70
3
  9
$PDSIZE
 40
3.0
  9
$HANDSEED
  5
52D
  9
$TILEMODE
 70
1
  9
$MEASUREMENT
 70
1
  9
$INSUNITS
 70
4
  0
ENDSEC
  0
SECTION
  2
CLASSES
  0
CLASS
  1
ACDBDICTIONARYWDFLT
  2
AcDbDictionaryWithDefault
  3
AutoCAD 2000
 90
0
280
0
281
0
  0
CLASS
  1
ACDBPLACEHOLDER
  2
AcDbPlaceHolder
  3
AutoCAD 2000
 90
0
280
0
281
0
  0
CLASS
  1
LAYOUT
  2
AcDbLayout
  3
AutoCAD 2000
 90
0
280
0
281
0
  0
ENDSEC
  0
SECTION
  2
TABLES
  0
TABLE
  2
VPORT
  5
8
100
AcDbSymbolTable
 70
2
  0
VPORT
  5
1F4
100
AcDbSymbolTableRecord
100
AcDbViewportTableRecord
  2
*ACTIVE
 70
0
 10
0.0
 20
0.0
 11
1.0
 21
1.0
 12
148.5
 22
105.0
 13
0.0
 23
0.0
 14
1.0
 24
1.0
 15
0.0
 25
0.0
 16
0.0
 26
0.0
 36
1.0
 17
0.0
 27
0.0
 37
0.0
 40
210.0
 41
1.4142857143
 42
50.0
 43
0.0
 44
0.0
 50
0.0
 51
0.0
 71
0
 72
100
 73
1
 74
1
 75
0
 76
0
 77
0
 78
0
  0
ENDTAB
  0
TABLE
  2
LTYPE
  5
5
100
AcDbSymbolTable
 70
6
  0
LTYPE
  5
14
100
AcDbSymbolTableRecord
100
AcDbLinetypeTableRecord
  2
BYBLOCK
 70
0
  3

 72
65
 73
0
 40
0.0
  0
LTYPE
  5
15
100
AcDbSymbolTableRecord
100
AcDbLinetypeTableRecord
  2
BYLAYER
 70
0
  3

 72
65
 73
0
 40
0.0
  0
LTYPE
  5
16
100
AcDbSymbolTableRecord
100
AcDbLinetypeTableRecord
  2
CONTINUOUS
 70
64
  3
Solid line
 72
65
 73
0
 40
0.0
  0
LTYPE
  5
1F5
100
AcDbSymbolTableRecord
100
AcDbLinetypeTableRecord
  2
CENTER
 70
64
  3
____ _ ____ _ ____ _ ____ _ ____ _ ____ _ ____
 72
65
 73
4
 40
0.6
 49
0.375
 74
0
 49
-0.075
 74
0
 49
0.075
 74
0
 49
-0.075
 74
0
  0
LTYPE
  5
1F6
100
AcDbSymbolTableRecord
100
AcDbLinetypeTableRecord
  2
HIDDEN
 70
64
  3
- - - - - - - - - - - - - - - - - - - -
 72
65
 73
2
 40
0.2
 49
0.1
 74
0
 49
-0.1
 74
0
  0
LTYPE
  5
1F7
100
AcDbSymbolTableRecord
100
AcDbLinetypeTableRecord
  2
PHANTOM
 70
64
  3
_____ _ _ _____ _ _ _____ _ _ _____
 72
65
 73
6
 40
0.8
 49
0.45
 74
0
 49
-0.05
 74
0
 49
0.1
 74
0
 49
-0.05
 74
0
 49
0.1
 74
0
 49
-0.05
 74
0
  0
LTYPE
  5
1F8
100
AcDbSymbolTableRecord
100
AcDbLinetypeTableRecord
  2
DOT
 70
64
  3
. . . . . . . . . . . . . . . . . . . .
 72
65
 73
2
 40
0.2
 49
0.1
 74
0
 49
-0.1
 74
0
  0
LTYPE
  5
1F9
100
AcDbSymbolTableRecord
100
AcDbLinetypeTableRecord
  2
DASHED
 70
64
  3
- - - - - - - - - - - - - - - - - - - -
 72
65
 73
2
 40
0.2
 49
0.1
 74
0
 49
-0.1
 74
0
  0
ENDTAB
  0
TABLE
  2
LAYER
  5
2
100
AcDbSymbolTable
 70
36
  0
LAYER
  5
10
100
AcDbSymbolTableRecord
100
AcDbLayerTableRecord
  2
0
 70
0
 62
7
  6
CONTINUOUS
370
-3
390
F
  0
LAYER
  5
1FA
100
AcDbSymbolTableRecord
100
AcDbLayerTableRecord
  2
DEFAULT_1
 70
0
 62
7
  6
CENTER
370
-3
390
F
  0
LAYER
  5
1FB
100
AcDbSymbolTableRecord
100
AcDbLayerTableRecord
  2
DEFAULT_2
 70
0
 62
7
  6
HIDDEN
370
-3
390
F
  0
LAYER
  5
1FC
100
AcDbSymbolTableRecord
100
AcDbLayerTableRecord
  2
DEFAULT_3
 70
0
 62
7
  6
PHANTOM
370
-3
390
F
  0
LAYER
  5
1FD
100
AcDbSymbolTableRecord
100
AcDbLayerTableRecord
  2
ASSI
 70
0
 62
7
  6
CONTINUOUS
370
-3
390
F
  0
LAYER
  5
1FE
100
AcDbSymbolTableRecord
100
AcDbLayerTableRecord
  2
COORDINATE
 70
0
 62
7
  6
CONTINUOUS
370
-3
390
F
  0
LAYER
  5
1FF
100
AcDbSymbolTableRecord
100
AcDbLayerTableRecord
  2
COORD_ORIGINE
 70
0
 62
7
  6
CONTINUOUS
370
-3
390
F
  0
LAYER
  5
200
100
AcDbSymbolTableRecord
100
AcDbLayerTableRecord
  2
COPY_PUBLISH
 70
0
 62
7
  6
CONTINUOUS
370
-3
390
F
  0
LAYER
  5
201
100
AcDbSymbolTableRecord
100
AcDbLayerTableRecord
  2
COSMETIC
 70
0
 62
7
  6
CONTINUOUS
370
-3
390
F
  0
LAYER
  5
202
100
AcDbSymbolTableRecord
100
AcDbLayerTableRecord
  2
CURVE
 70
0
 62
7
  6
CONTINUOUS
370
-3
390
F
  0
LAYER
  5
203
100
AcDbSymbolTableRecord
100
AcDbLayerTableRecord
  2
DRAFT
 70
0
 62
7
  6
CONTINUOUS
370
-3
390
F
  0
LAYER
  5
204
100
AcDbSymbolTableRecord
100
AcDbLayerTableRecord
  2
IMPORT_IGES
 70
0
 62
7
  6
CONTINUOUS
370
-3
390
F
  0
LAYER
  5
205
100
AcDbSymbolTableRecord
100
AcDbLayerTableRecord
  2
INTF_1
 70
0
 62
7
  6
CONTINUOUS
370
-3
390
F
  0
LAYER
  5
206
100
AcDbSymbolTableRecord
100
AcDbLayerTableRecord
  2
INTF_5
 70
0
 62
7
  6
CONTINUOUS
370
-3
390
F
  0
LAYER
  5
207
100
AcDbSymbolTableRecord
100
AcDbLayerTableRecord
  2
INTF_CYAN
 70
0
 62
7
  6
CONTINUOUS
370
-3
390
F
  0
LAYER
  5
208
100
AcDbSymbolTableRecord
100
AcDbLayerTableRecord
  2
NOTE
 70
0
 62
7
  6
CONTINUOUS
370
-3
390
F
  0
LAYER
  5
209
100
AcDbSymbolTableRecord
100
AcDbLayerTableRecord
  2
PIANI
 70
0
 62
7
  6
CONTINUOUS
370
-3
390
F
  0
LAYER
  5
20A
100
AcDbSymbolTableRecord
100
AcDbLayerTableRecord
  2
PIANI_ORIGINE
 70
0
 62
7
  6
CONTINUOUS
370
-3
390
F
  0
LAYER
  5
20B
100
AcDbSymbolTableRecord
100
AcDbLayerTableRecord
  2
PIANI_RIFERIMENTO
 70
0
 62
7
  6
CONTINUOUS
370
-3
390
F
  0
LAYER
  5
20C
100
AcDbSymbolTableRecord
100
AcDbLayerTableRecord
  2
PIANI_SFORMI
 70
0
 62
7
  6
CONTINUOUS
370
-3
390
F
  0
LAYER
  5
20D
100
AcDbSymbolTableRecord
100
AcDbLayerTableRecord
  2
PUNTI
 70
0
 62
7
  6
CONTINUOUS
370
-3
390
F
  0
LAYER
  5
20E
100
AcDbSymbolTableRecord
100
AcDbLayerTableRecord
  2
RACCORDO
 70
0
 62
7
  6
CONTINUOUS
370
-3
390
F
  0
LAYER
  5
20F
100
AcDbSymbolTableRecord
100
AcDbLayerTableRecord
  2
RGB____0____0____0__
 70
0
 62
7
  6
CONTINUOUS
370
-3
390
F
  0
LAYER
  5
210
100
AcDbSymbolTableRecord
100
AcDbLayerTableRecord
  2
SKEL
 70
0
 62
7
  6
CONTINUOUS
370
-3
390
F
  0
LAYER
  5
211
100
AcDbSymbolTableRecord
100
AcDbLayerTableRecord
  2
SMUSSO
 70
0
 62
7
  6
CONTINUOUS
370
-3
390
F
  0
LAYER
  5
212
100
AcDbSymbolTableRecord
100
AcDbLayerTableRecord
  2
SNAPLINE
 70
0
 62
7
  6
CONTINUOUS
370
-3
390
F
  0
LAYER
  5
213
100
AcDbSymbolTableRecord
100
AcDbLayerTableRecord
  2
SUPERFICI
 70
0
 62
7
  6
CONTINUOUS
370
-3
390
F
  0
LAYER
  5
214
100
AcDbSymbolTableRecord
100
AcDbLayerTableRecord
  2
TRASH
 70
0
 62
7
  6
CONTINUOUS
370
-3
390
F
  0
LAYER
  5
215
100
AcDbSymbolTableRecord
100
AcDbLayerTableRecord
  2
XSEC_DATUMS
 70
0
 62
7
  6
CONTINUOUS
370
-3
390
F
  0
ENDTAB
  0
TABLE
  2
STYLE
  5
3
100
AcDbSymbolTable
 70
1
  0
STYLE
  5
11
100
AcDbSymbolTableRecord
100
AcDbTextStyleTableRecord
  2
STANDARD
 70
0
 40
0.0
 41
0.8
 50
0.0
 71
0
 42
0.2
  3
txt
  4

  0
STYLE
  5
216
100
AcDbSymbolTableRecord
100
AcDbTextStyleTableRecord
  2
TEXTSTYLE_1
 70
0
 40
0.0
 41
0.8
 50
0.0
 71
0
 42
0.2
  3
gdt
  4

  0
ENDTAB
  0
TABLE
  2
VIEW
  5
6
100
AcDbSymbolTable
 70
0
  0
ENDTAB
  0
TABLE
  2
UCS
  5
7
100
AcDbSymbolTable
 70
0
  0
ENDTAB
  0
TABLE
  2
APPID
  5
9
100
AcDbSymbolTable
 70
1
  0
APPID
  5
217
100
AcDbSymbolTableRecord
100
AcDbRegAppTableRecord
  2
ACAD
 70
0
  0
ENDTAB
  0
TABLE
  2
BLOCK_RECORD
  5
1
100
AcDbSymbolTable
 70
0
  0
BLOCK_RECORD
  5
218
100
AcDbSymbolTableRecord
100
AcDbBlockTableRecord
  2
*Model_Space
  0
BLOCK_RECORD
  5
219
100
AcDbSymbolTableRecord
100
AcDbBlockTableRecord
  2
*Paper_Space
  0
ENDTAB
  0
TABLE
  2
DIMSTYLE
  5
A
100
AcDbSymbolTable
 70
1
100
AcDbDimStyleTable
 71
0
  0
DIMSTYLE
105
21A
100
AcDbSymbolTableRecord
100
AcDbDimStyleTableRecord
  2
STANDARD
 70
0
  3

  4

 40
1.0
 41
3.0
 42
0.0625
 43
0.38
 44
0.18
 45
0.0
 46
0.0
 47
0.01
 48
0.01
140
3.0
141
0.09
142
0.0
143
25.4
144
1.0
145
0.0
146
1.0
147
0.09
 71
1.0
 72
0.0
 73
0
 74
0
 75
0
 76
0
 77
1
 78
8
170
0
171
2
172
0
173
0
174
0
175
0
176
0
177
0
178
0
270
2
271
2
272
2
273
2
274
2
275
0
280
0
281
0
282
0
283
1
284
8
285
0
286
0
287
3
288
0
340
11
  0
ENDTAB
  0
ENDSEC
  0
SECTION
  2
BLOCKS
  0
BLOCK
  5
20
100
AcDbEntity
  8
0
100
AcDbBlockBegin
  2
*Model_Space
 70
0
 10
0.0
 20
0.0
 30
0.0
  3
*Model_Space
  1

  0
ENDBLK
  5
21
100
AcDbEntity
  8
0
100
AcDbBlockEnd
  0
BLOCK
  5
1C
100
AcDbEntity
  8
0
100
AcDbBlockBegin
  2
*Paper_Space
 70
0
 10
0.0
 20
0.0
 30
0.0
  3
*Paper_Space
  1

  0
ENDBLK
  5
1D
100
AcDbEntity
  8
0
100
AcDbBlockEnd
  0
ENDSEC
  0
SECTION
  2
ENTITIES
  0
LINE
  5
21B
100
AcDbEntity
  8
0
100
AcDbLine
 62
7
  6
CONTINUOUS
 10
-17.8854554218
 20
23.9122663332
 11
-16.3022837268
 21
24.7244633805
  0
LINE
  5
21C
100
AcDbEntity
  8
0
100
AcDbLine
 62
253
  6
CONTINUOUS
 10
-17.7723697556
 20
23.9058183581
 11
-16.1896131525
 21
24.7178024554
  0
LINE
  5
21D
100
AcDbEntity
  8
0
100
AcDbLine
 62
253
  6
CONTINUOUS
 10
-17.8854554115
 20
23.9122663385
 11
-17.8852827912
 21
23.912354671
  0
LINE
  5
21E
100
AcDbEntity
  8
0
100
AcDbLine
 62
7
  6
CONTINUOUS
 10
-16.3022817571
 20
24.7244643911
 11
-16.3005453397
 21
24.7253326141
  0
LINE
  5
21F
100
AcDbEntity
  8
0
100
AcDbLine
 62
7
  6
CONTINUOUS
 10
-16.3005425757
 20
24.7253339605
 11
-15.7656753849
 21
24.985884713
  0
LINE
  5
220
100
AcDbEntity
  8
0
100
AcDbLine
 62
253
  6
CONTINUOUS
 10
-16.1896131525
 20
24.7178024554
 11
-15.6551632738
 21
24.978149922
  0
LWPOLYLINE
  5
221
100
AcDbEntity
  8
RACCORDO
100
AcDbPolyline
 62
7
  6
CONTINUOUS
 90
5
 70
0
 10
-20.9886999875
 20
19.4288056679
 10
-21.0132705098
 20
19.3592195767
 10
-21.034293538
 20
19.2890964543
 10
-21.0516216219
 20
19.2188447069
 10
-21.0651384704
 20
19.1488387073
  0
LWPOLYLINE
  5
222
100
AcDbEntity
  8
RACCORDO
100
AcDbPolyline
 62
7
  6
CONTINUOUS
 90
3
 70
0
 10
-20.9296799278
 20
19.5646079242
 10
-20.9607383956
 20
19.4974748369
 10
-20.9886999875
 20
19.4288056679
  0
LINE
  5
223
100
AcDbEntity
  8
RACCORDO
100
AcDbLine
 62
7
  6
CONTINUOUS
 10
-20.8925274782
 20
19.6329274662
 11
-20.9296799285
 21
19.5646079222
  0
LWPOLYLINE
  5
224
100
AcDbEntity
  8
RACCORDO
100
AcDbPolyline
 62
7
  6
CONTINUOUS
 90
9
 70
0
 10
-20.4854499656
 20
20.0788885137
 10
-20.5436166341
 20
20.0378702813
 10
-20.6003400009
 20
19.9919291428
 10
-20.6553040421
 20
19.9413750617
 10
-20.7081526175
 20
19.8865952327
 10
-20.7585956201
 20
19.827944129
 10
-20.8063510814
 20
19.7657971641
 10
-20.8510843926
 20
19.7006402185
 10
-20.8925274782
 20
19.6329274662
  0
LWPOLYLINE
  5
225
100
AcDbEntity
  8
0
100
AcDbPolyline
 62
7
  6
CONTINUOUS
 90
14
 70
0
 10
-21.4577100284
 20
20.5468843366
 10
-21.509470393
 20
20.5144337138
 10
-21.5776142303
 20
20.4643130594
 10
-21.6426598936
 20
20.407718275
 10
-21.7042445782
 20
20.3450275451
 10
-21.761533118
 20
20.27723116
 10
-21.8144712897
 20
20.2045422055
 10
-21.8628372536
 20
20.1272330432
 10
-21.9057369556
 20
20.0467686583
 10
-21.943051394
 20
19.9634747243
 10
-21.9745816046
 20
19.8776277733
 10
-21.9997013832
 20
19.7908030644
 10
-22.0182404376
 20
19.7036798193
 10
-22.0281546959
 20
19.6349446009
  0
LINE
  5
226
100
AcDbEntity
  8
RACCORDO
100
AcDbLine
 62
7
  6
CONTINUOUS
 10
-20.4211932213
 20
20.1174231263
 11
-20.4854499656
 21
20.0788885137
  0
LINE
  5
227
100
AcDbEntity
  8
0
100
AcDbLine
 62
7
  6
CONTINUOUS
 10
-21.4578843466
 20
20.5467829451
 11
-17.4260590995
 21
22.897706351
  0
LINE
  5
228
100
AcDbEntity
  8
0
100
AcDbLine
 62
253
  6
CONTINUOUS
 10
-21.224530299
 20
20.538015552
 11
-17.318348362
 21
22.8156774
  0
LINE
  5
229
100
AcDbEntity
  8
RACCORDO
100
AcDbLine
 62
253
  6
CONTINUOUS
 10
-17.3137260213
 20
22.5984965934
 11
-17.3809907975
 21
22.5601278474
  0
LINE
  5
22A
100
AcDbEntity
  8
RACCORDO
100
AcDbLine
 62
253
  6
CONTINUOUS
 10
-15.2058292661
 20
21.6389446983
 11
-14.3157771907
 21
22.1356210954
  0
LINE
  5
22B
100
AcDbEntity
  8
RACCORDO
100
AcDbLine
 62
253
  6
CONTINUOUS
 10
-15.0578397401
 20
21.3985523186
 11
-14.1743965014
 21
21.8915407819
  0
LINE
  5
22C
100
AcDbEntity
  8
RACCORDO
100
AcDbLine
 62
253
  6
CONTINUOUS
 10
-20.6272781144
 20
20.2393894597
 11
-19.2004394426
 21
21.0183426302
  0
LINE
  5
22D
100
AcDbEntity
  8
RACCORDO
100
AcDbLine
 62
7
  6
CONTINUOUS
 10
-20.4212371571
 20
20.1173992023
 11
-18.9961423887
 21
20.8954003248
  0
LINE
  5
22E
100
AcDbEntity
  8
RACCORDO
100
AcDbLine
 62
253
  6
CONTINUOUS
 10
-20.3770205367
 20
20.1142606708
 11
-18.9501818649
 21
20.8932138414
  0
LINE
  5
22F
100
AcDbEntity
  8
0
100
AcDbLine
 62
253
  6
CONTINUOUS
 10
-16.0938316852
 20
23.0665493229
 11
-14.4925508944
 21
23.8692713264
  0
LINE
  5
230
100
AcDbEntity
  8
0
100
AcDbLine
 62
253
  6
CONTINUOUS
 10
-15.9170579815
 20
22.761659784
 11
-14.3157771907
 21
23.5643817875
  0
LINE
  5
231
100
AcDbEntity
  8
0
100
AcDbLine
 62
253
  6
CONTINUOUS
 10
-14.4925508944
 20
23.8692713264
 11
-13.9642837227
 21
24.1327101464
  0
LINE
  5
232
100
AcDbEntity
  8
0
100
AcDbLine
 62
253
  6
CONTINUOUS
 10
-14.3157771907
 20
23.5643817875
 11
-13.787510019
 21
23.8278206076
  0
LINE
  5
233
100
AcDbEntity
  8
0
100
AcDbLine
 62
7
  6
CONTINUOUS
 10
-6.4914454211
 20
25.7769020076
 11
-13.6127842364
 21
22.3128030422
  0
LWPOLYLINE
  5
234
100
AcDbEntity
  8
0
100
AcDbPolyline
 62
7
  6
CONTINUOUS
 90
7
 70
0
 10
-21.9385540601
 20
-17.3800551718
 10
-21.8972318827
 20
-17.4491062869
 10
-21.8494720769
 20
-17.5122312489
 10
-21.7959943554
 20
-17.5687633316
 10
-21.7374777762
 20
-17.6183044802
 10
-21.6737189283
 20
-17.6610855501
 10
-21.6304445451
 20
-17.6846500365
  0
LWPOLYLINE
  5
235
100
AcDbEntity
  8
0
100
AcDbPolyline
 62
7
  6
CONTINUOUS
 90
10
 70
0
 10
-22.7152954412
 20
-7.3067415219
 10
-22.6932585063
 20
-8.3586835146
 10
-22.6562572392
 20
-9.4907078729
 10
-22.6056032027
 20
-10.6149481897
 10
-22.5413054422
 20
-11.7311636157
 10
-22.4633754603
 20
-12.8391183176
 10
-22.3718273779
 20
-13.9385760753
 10
-22.2666776416
 20
-15.0293043963
 10
-22.1479456444
 20
-16.1110687862
 10
-22.0272309434
 20
-17.0943414458
  0
LWPOLYLINE
  5
236
100
AcDbEntity
  8
0
100
AcDbPolyline
 62
7
  6
CONTINUOUS
 90
10
 70
0
 10
-22.715297273
 20
9.1465310261
 10
-22.7392611438
 20
7.3738674059
 10
-22.7582447425
 20
5.5154811964
 10
-22.7708961547
 20
3.6602821049
 10
-22.7772151087
 20
1.8083050646
 10
-22.7772014591
 20
-0.0404173584
 10
-22.7708551519
 20
-1.8858532606
 10
-22.7581762244
 20
-3.7279701716
 10
-22.7391648402
 20
-5.5667333786
 10
-22.7152954388
 20
-7.3067417453
  0
LWPOLYLINE
  5
237
100
AcDbEntity
  8
0
100
AcDbPolyline
 62
7
  6
CONTINUOUS
 90
10
 70
0
 10
-22.0281349096
 20
19.6351213817
 10
-22.1495014465
 20
18.520472948
 10
-22.2679472593
 20
17.3177276903
 10
-22.3728499955
 20
16.1198688831
 10
-22.4641858506
 20
14.9271528449
 10
-22.5419338838
 20
13.7398321688
 10
-22.6060754905
 20
12.5581615218
 10
-22.6565948213
 20
11.38239121
 10
-22.6934785271
 20
10.2127733124
 10
-22.7152972744
 20
9.146530832
  0
LWPOLYLINE
  5
238
100
AcDbEntity
  8
RACCORDO
100
AcDbPolyline
 62
7
  6
CONTINUOUS
 90
10
 70
0
 10
-21.0742715366
 20
19.0836338084
 10
-21.127618628
 20
18.6061660835
 10
-21.1858404302
 20
18.0629479061
 10
-21.2413242621
 20
17.5206727184
 10
-21.2940672351
 20
16.9793676697
 10
-21.3440671722
 20
16.4390553256
 10
-21.3913221143
 20
15.8997565056
 10
-21.4358300011
 20
15.3614937105
 10
-21.4775886561
 20
14.8242938079
 10
-21.5115488682
 20
14.3596738681
  0
LINE
  5
239
100
AcDbEntity
  8
RACCORDO
100
AcDbLine
 62
7
  6
CONTINUOUS
 10
-21.0651384704
 20
19.1488387073
 11
-21.0742736921
 21
19.0836140447
  0
LINE
  5
23A
100
AcDbEntity
  8
RACCORDO
100
AcDbLine
 62
7
  6
CONTINUOUS
 10
-17.3219408709
 20
22.534998614
 11
-17.3229476539
 21
22.5324383158
  0
LINE
  5
23B
100
AcDbEntity
  8
0
100
AcDbLine
 62
253
  6
CONTINUOUS
 10
-14.3157771907
 20
22.8373369351
 11
-13.787510019
 21
23.4802890908
  0
LINE
  5
23C
100
AcDbEntity
  8
0
100
AcDbLine
 62
7
  6
CONTINUOUS
 10
-14.3157771907
 20
22.7478064687
 11
-13.7721494466
 21
23.4094539243
  0
LINE
  5
23D
100
AcDbEntity
  8
0
100
AcDbLine
 62
7
  6
CONTINUOUS
 10
-12.0176801519
 20
20.4369359824
 11
-12.7309577604
 21
20.0410815373
  0
LINE
  5
23E
100
AcDbEntity
  8
DRAFT
100
AcDbLine
 62
7
  6
CONTINUOUS
 10
-13.7147364267
 20
19.1032336966
 11
-14.5061307403
 21
18.671188279
  0
LINE
  5
23F
100
AcDbEntity
  8
0
100
AcDbLine
 62
7
  6
CONTINUOUS
 10
-12.3358782034
 20
22.357922279
 11
-13.3903676348
 21
21.8169492403
  0
LINE
  5
240
100
AcDbEntity
  8
0
100
AcDbLine
 62
7
  6
CONTINUOUS
 10
-10.9570199801
 20
22.3705615601
 11
-6.3988973519
 21
24.6569870217
  0
LINE
  5
241
100
AcDbEntity
  8
0
100
AcDbLine
 62
7
  6
CONTINUOUS
 10
-9.5736143776
 20
21.6788587589
 11
-6.2112155119
 21
23.3654905163
  0
LINE
  5
242
100
AcDbEntity
  8
0
100
AcDbLine
 62
253
  6
CONTINUOUS
 10
-10.0377793696
 20
21.2088728621
 11
-9.3368434158
 21
21.5604732779
  0
LINE
  5
243
100
AcDbEntity
  8
0
100
AcDbLine
 62
7
  6
CONTINUOUS
 10
-9.2533919241
 20
21.4853627453
 11
-3.5900291945
 21
24.3261938943
  0
LINE
  5
244
100
AcDbEntity
  8
0
100
AcDbLine
 62
253
  6
CONTINUOUS
 10
-9.8963598083
 20
20.964963863
 11
-9.1954238545
 21
21.3165642789
  0
LINE
  5
245
100
AcDbEntity
  8
0
100
AcDbLine
 62
7
  6
CONTINUOUS
 10
-12.7309577604
 20
21.4872443031
 11
-11.8758545616
 21
21.9134382934
  0
LINE
  5
246
100
AcDbEntity
  8
0
100
AcDbLine
 62
253
  6
CONTINUOUS
 10
-10.2525925837
 20
21.1018073044
 11
-10.0377793696
 21
21.2088728621
  0
LINE
  5
247
100
AcDbEntity
  8
0
100
AcDbLine
 62
253
  6
CONTINUOUS
 10
-10.1115879794
 20
20.8576914856
 11
-9.8963598083
 21
20.964963863
  0
LINE
  5
248
100
AcDbEntity
  8
0
100
AcDbLine
 62
7
  6
CONTINUOUS
 10
-9.1954238545
 20
20.9082002589
 11
-4.479564208
 21
23.25679935
  0
LINE
  5
249
100
AcDbEntity
  8
0
100
AcDbLine
 62
7
  6
CONTINUOUS
 10
-6.9996547974
 20
24.9573657445
 11
-12.3358782034
 21
22.357922279
  0
LINE
  5
24A
100
AcDbEntity
  8
DRAFT
100
AcDbLine
 62
7
  6
CONTINUOUS
 10
7.4924406095
 20
29.1545933938
 11
-2.9525016394
 21
24.1331569876
  0
LINE
  5
24B
100
AcDbEntity
  8
0
100
AcDbLine
 62
253
  6
CONTINUOUS
 10
-1.4838520263
 20
-23.9711440449
 11
-2.0121191981
 21
-23.8626417678
  0
LINE
  5
24C
100
AcDbEntity
  8
0
100
AcDbLine
 62
253
  6
CONTINUOUS
 10
-1.5732658217
 20
-23.6515772389
 11
-2.0121191981
 21
-23.5614399122
  0
LWPOLYLINE
  5
24D
100
AcDbEntity
  8
0
100
AcDbPolyline
 62
7
  6
CONTINUOUS
 90
12
 70
0
 10
-6.7371187212
 20
-25.1313130623
 10
-6.7292404538
 20
-25.1352007002
 10
-6.6715441124
 20
-25.1600616117
 10
-6.6112249569
 20
-25.1797960295
 10
-6.5488210578
 20
-25.1941028464
 10
-6.4847256723
 20
-25.2027957749
 10
-6.4191187316
 20
-25.2057252811
 10
-6.3524262445
 20
-25.2027243284
 10
-6.2851579333
 20
-25.1936869183
 10
-6.2174977932
 20
-25.1784959803
 10
-6.1497251492
 20
-25.1570279944
 10
-6.1109325723
 20
-25.1418417774
  0
LINE
  5
24E
100
AcDbEntity
  8
0
100
AcDbLine
 62
7
  6
CONTINUOUS
 10
-6.7364394707
 20
-25.1316538185
 11
-21.6311613466
 21
-17.6842928806
  0
LINE
  5
24F
100
AcDbEntity
  8
0
100
AcDbLine
 62
253
  6
CONTINUOUS
 10
-6.9906305471
 20
-24.7148659992
 11
-21.880944666
 21
-17.2697089398
  0
LINE
  5
250
100
AcDbEntity
  8
0
100
AcDbLine
 62
7
  6
CONTINUOUS
 10
-5.3037571079
 20
-24.8030227183
 11
-3.9009486521
 21
-25.5044269462
  0
LINE
  5
251
100
AcDbEntity
  8
0
100
AcDbLine
 62
253
  6
CONTINUOUS
 10
-5.1920628931
 20
-24.7561380238
 11
-3.9659219486
 21
-25.3692084961
  0
LINE
  5
252
100
AcDbEntity
  8
0
100
AcDbLine
 62
253
  6
CONTINUOUS
 10
-3.9659219486
 20
-25.0292345619
 11
-4.8224293335
 21
-24.6009808695
  0
LINE
  5
253
100
AcDbEntity
  8
0
100
AcDbLine
 62
253
  6
CONTINUOUS
 10
-3.8775336009
 20
-24.7975403881
 11
-4.5224722434
 21
-24.4750710669
  0
LINE
  5
254
100
AcDbEntity
  8
0
100
AcDbLine
 62
7
  6
CONTINUOUS
 10
-3.2547013405
 20
-24.0527380848
 11
-3.3741083833
 21
-23.9930345634
  0
LINE
  5
255
100
AcDbEntity
  8
0
100
AcDbLine
 62
253
  6
CONTINUOUS
 10
-3.9011085101
 20
-25.5043468265
 11
-3.9009486409
 21
-25.5044269518
  0
LWPOLYLINE
  5
256
100
AcDbEntity
  8
0
100
AcDbPolyline
 62
7
  6
CONTINUOUS
 90
5
 70
0
 10
-22.0271678131
 20
-17.0948239032
 10
-22.020932732
 20
-17.1357588214
 10
-22.0010592968
 20
-17.2230094342
 10
-21.97334193
 20
-17.3046937013
 10
-21.9385540601
 20
-17.3800551718
  0
LINE
  5
257
100
AcDbEntity
  8
0
100
AcDbLine
 62
7
  6
CONTINUOUS
 10
-22.0272309434
 20
-17.0943414458
 11
-22.0271679781
 21
-17.0948239247
  0
LWPOLYLINE
  5
258
100
AcDbEntity
  8
RACCORDO
100
AcDbPolyline
 62
7
  6
CONTINUOUS
 90
5
 70
0
 10
-20.3247768785
 20
-10.3044371992
 10
-20.3187301117
 20
-10.3754228004
 10
-20.2990102728
 20
-10.4465278442
 10
-20.2690772362
 20
-10.508991598
 10
-20.2296321449
 20
-10.5647473785
  0
LINE
  5
259
100
AcDbEntity
  8
RACCORDO
100
AcDbLine
 62
7
  6
CONTINUOUS
 10
-21.5128789421
 20
14.3114783829
 11
-21.5097496425
 21
14.258155815
  0
LINE
  5
25A
100
AcDbEntity
  8
RACCORDO
100
AcDbLine
 62
7
  6
CONTINUOUS
 10
-19.7958547449
 20
0.5267914469
 11
-19.7958547449
 21
-9.8066185945
  0
LINE
  5
25B
100
AcDbEntity
  8
DRAFT
100
AcDbLine
 62
7
  6
CONTINUOUS
 10
-19.7257611495
 20
0.5342447232
 11
-19.7257611495
 21
-9.7668542403
  0
LINE
  5
25C
100
AcDbEntity
  8
RACCORDO
100
AcDbLine
 62
7
  6
CONTINUOUS
 10
-21.511548202
 20
14.3596813633
 11
-21.5128789421
 21
14.3114783829
  0
LWPOLYLINE
  5
25D
100
AcDbEntity
  8
RACCORDO
100
AcDbPolyline
 62
7
  6
CONTINUOUS
 90
3
 70
0
 10
-17.3183428308
 20
22.5568449622
 10
-17.319490707
 20
22.5441598863
 10
-17.3219408709
 20
22.534998614
  0
LINE
  5
25E
100
AcDbEntity
  8
DRAFT
100
AcDbLine
 62
7
  6
CONTINUOUS
 10
-9.4720957396
 20
16.981913353
 11
-10.2363363446
 21
16.5362910812
  0
LINE
  5
25F
100
AcDbEntity
  8
0
100
AcDbLine
 62
7
  6
CONTINUOUS
 10
-10.1115879794
 20
19.6330752143
 11
-9.8963598083
 21
19.7525224354
  0
LINE
  5
260
100
AcDbEntity
  8
DRAFT
100
AcDbLine
 62
7
  6
CONTINUOUS
 10
-0.3312138285
 20
22.0695901736
 11
10.3962560291
 21
27.702685684
  0
LINE
  5
261
100
AcDbEntity
  8
0
100
AcDbLine
 62
7
  6
CONTINUOUS
 10
-8.4310225848
 20
20.3655945985
 11
-8.6427096116
 21
20.2563658321
  0
LINE
  5
262
100
AcDbEntity
  8
0
100
AcDbLine
 62
253
  6
CONTINUOUS
 10
-8.3407266846
 20
20.3603465196
 11
-8.5518230422
 21
20.2514225336
  0
LINE
  5
263
100
AcDbEntity
  8
0
100
AcDbLine
 62
7
  6
CONTINUOUS
 10
-6.9285610642
 20
19.4397915446
 11
-7.7688686373
 21
19.0061997415
  0
LINE
  5
264
100
AcDbEntity
  8
0
100
AcDbLine
 62
7
  6
CONTINUOUS
 10
-9.8963598083
 20
19.7525224354
 11
-9.1954238545
 21
20.1046266998
  0
LINE
  5
265
100
AcDbEntity
  8
0
100
AcDbLine
 62
7
  6
CONTINUOUS
 10
-7.109458763
 20
18.6764948044
 11
-6.0426278508
 21
19.2112971027
  0
LINE
  5
266
100
AcDbEntity
  8
0
100
AcDbLine
 62
7
  6
CONTINUOUS
 10
-8.4293187969
 20
20.3664465964
 11
-8.4310200996
 21
20.3655958809
  0
LINE
  5
267
100
AcDbEntity
  8
0
100
AcDbLine
 62
7
  6
CONTINUOUS
 10
-6.0426278508
 20
19.2112971027
 11
-0.7681357817
 21
21.8416062366
  0
LINE
  5
268
100
AcDbEntity
  8
0
100
AcDbLine
 62
7
  6
CONTINUOUS
 10
-7.7160373897
 20
20.7118780251
 11
-8.429317029
 21
20.3664474532
  0
LINE
  5
269
100
AcDbEntity
  8
0
100
AcDbLine
 62
253
  6
CONTINUOUS
 10
-7.6274490761
 20
20.7057761081
 11
-8.3407266846
 21
20.3603465196
  0
LINE
  5
26A
100
AcDbEntity
  8
0
100
AcDbLine
 62
7
  6
CONTINUOUS
 10
-6.0072725118
 20
19.8956878259
 11
-1.3688932273
 21
22.1419849594
  0
LINE
  5
26B
100
AcDbEntity
  8
0
100
AcDbLine
 62
7
  6
CONTINUOUS
 10
-0.6044823335
 20
21.4745342508
 11
0.7760998409
 21
22.1431293766
  0
LINE
  5
26C
100
AcDbEntity
  8
SMUSSO
100
AcDbLine
 62
7
  6
CONTINUOUS
 10
-13.7147364267
 20
18.3049197444
 11
-13.745332817
 21
18.2907893174
  0
LINE
  5
26D
100
AcDbEntity
  8
0
100
AcDbLine
 62
253
  6
CONTINUOUS
 10
-1.5498520492
 20
-23.6596639756
 11
-1.5499626636
 21
-23.6596087616
  0
LINE
  5
26E
100
AcDbEntity
  8
0
100
AcDbLine
 62
253
  6
CONTINUOUS
 10
-2.0121191981
 20
-23.4321505507
 11
-1.5732658217
 21
-23.6515772389
  0
LINE
  5
26F
100
AcDbEntity
  8
0
100
AcDbLine
 62
7
  6
CONTINUOUS
 10
-2.0121191981
 20
-23.4285304011
 11
-1.5498507705
 21
-23.6596646149
  0
LINE
  5
270
100
AcDbEntity
  8
RACCORDO
100
AcDbLine
 62
7
  6
CONTINUOUS
 10
-8.7909559743
 20
-18.9430615267
 11
-21.094613967
 21
-12.7912325304
  0
LINE
  5
271
100
AcDbEntity
  8
RACCORDO
100
AcDbLine
 62
7
  6
CONTINUOUS
 10
-20.8817956303
 20
-12.684823362
 11
-8.5781376376
 21
-18.8366523584
  0
LINE
  5
272
100
AcDbEntity
  8
RACCORDO
100
AcDbLine
 62
7
  6
CONTINUOUS
 10
-8.807648014
 20
-18.6915999254
 11
-21.1113060067
 21
-12.5397709291
  0
LINE
  5
273
100
AcDbEntity
  8
RACCORDO
100
AcDbLine
 62
7
  6
CONTINUOUS
 10
-9.0128495918
 20
-17.4450353639
 11
-21.0430480142
 21
-11.4299361527
  0
LWPOLYLINE
  5
274
100
AcDbEntity
  8
RACCORDO
100
AcDbPolyline
 62
7
  6
CONTINUOUS
 90
4
 70
0
 10
-20.2296321449
 20
-10.5647473785
 10
-20.1781205737
 20
-10.6154341234
 10
-20.1194336007
 20
-10.6545245754
 10
-20.1113408009
 20
-10.6587113057
  0
LWPOLYLINE
  5
275
100
AcDbEntity
  8
RACCORDO
100
AcDbPolyline
 62
7
  6
CONTINUOUS
 90
9
 70
0
 10
-21.5097496425
 20
14.258155815
 10
-21.5019991179
 20
14.2045215049
 10
-21.4897923225
 20
14.1511186692
 10
-21.4733097835
 20
14.0985001273
 10
-21.4527622254
 20
14.0472473869
 10
-21.4283563537
 20
13.9978831065
 10
-21.4003383004
 20
13.9509748435
 10
-21.3690157657
 20
13.9071250235
 10
-21.3344969222
 20
13.8666554875
  0
LINE
  5
276
100
AcDbEntity
  8
0
100
AcDbLine
 62
7
  6
CONTINUOUS
 10
-18.0213413163
 20
23.6898298907
 11
-18.0213413163
 21
23.3498559566
  0
LINE
  5
277
100
AcDbEntity
  8
0
100
AcDbLine
 62
253
  6
CONTINUOUS
 10
-17.9481180116
 20
23.6014415431
 11
-17.9481180116
 21
23.261467609
  0
LINE
  5
278
100
AcDbEntity
  8
0
100
AcDbLine
 62
7
  6
CONTINUOUS
 10
-17.318348362
 20
22.8438509823
 11
-17.318348362
 21
22.5570794689
  0
LINE
  5
279
100
AcDbEntity
  8
RACCORDO
100
AcDbLine
 62
253
  6
CONTINUOUS
 10
-17.2451314182
 20
22.8072425104
 11
-17.2451432808
 21
22.4625397819
  0
LINE
  5
27A
100
AcDbEntity
  8
0
100
AcDbLine
 62
253
  6
CONTINUOUS
 10
-16.2695799412
 20
22.4221985738
 11
-16.2695799412
 21
22.7621725079
  0
LINE
  5
27B
100
AcDbEntity
  8
0
100
AcDbLine
 62
253
  6
CONTINUOUS
 10
-15.9170579815
 20
22.4216858499
 11
-15.9170579815
 21
22.761659784
  0
LINE
  5
27C
100
AcDbEntity
  8
RACCORDO
100
AcDbLine
 62
253
  6
CONTINUOUS
 10
-5.0100680287
 20
16.4466675971
 11
-5.0773328049
 21
16.4082988511
  0
LINE
  5
27D
100
AcDbEntity
  8
0
100
AcDbLine
 62
7
  6
CONTINUOUS
 10
-6.0426278508
 20
17.8256564566
 11
-7.109458763
 21
17.2303320386
  0
LINE
  5
27E
100
AcDbEntity
  8
DRAFT
100
AcDbLine
 62
7
  6
CONTINUOUS
 10
1.572330543
 20
21.9929235091
 11
10.3962560291
 21
26.8218986767
  0
LINE
  5
27F
100
AcDbEntity
  8
DRAFT
100
AcDbLine
 62
7
  6
CONTINUOUS
 10
8.4177058244
 20
24.8878489359
 11
2.2214524431
 21
21.6683625591
  0
LINE
  5
280
100
AcDbEntity
  8
0
100
AcDbLine
 62
7
  6
CONTINUOUS
 10
-5.5817974291
 20
17.7604373369
 11
-3.9986257342
 21
18.5726343842
  0
LINE
  5
281
100
AcDbEntity
  8
0
100
AcDbLine
 62
253
  6
CONTINUOUS
 10
-5.468711763
 20
17.7539893617
 11
-3.8859551598
 21
18.5659734591
  0
LINE
  5
282
100
AcDbEntity
  8
0
100
AcDbLine
 62
253
  6
CONTINUOUS
 10
-3.7901736926
 20
16.9147203265
 11
-2.1888929018
 21
17.71744233
  0
LINE
  5
283
100
AcDbEntity
  8
0
100
AcDbLine
 62
253
  6
CONTINUOUS
 10
-3.6133999889
 20
16.6098307877
 11
-2.0121191981
 21
17.4125527912
  0
LINE
  5
284
100
AcDbEntity
  8
0
100
AcDbLine
 62
7
  6
CONTINUOUS
 10
-3.9986237645
 20
18.5726353947
 11
-3.996887347
 21
18.5735036178
  0
LINE
  5
285
100
AcDbEntity
  8
RACCORDO
100
AcDbLine
 62
253
  6
CONTINUOUS
 10
-21.8456514776
 20
9.0495692339
 11
-21.633455245
 21
9.1556673502
  0
LINE
  5
286
100
AcDbEntity
  8
RACCORDO
100
AcDbLine
 62
7
  6
CONTINUOUS
 10
-21.4963021672
 20
9.2175754585
 11
-21.2840816007
 21
9.3236857418
  0
LINE
  5
287
100
AcDbEntity
  8
RACCORDO
100
AcDbLine
 62
253
  6
CONTINUOUS
 10
-21.2702986106
 20
9.2045729443
 11
-21.0580700209
 21
9.3106872392
  0
LINE
  5
288
100
AcDbEntity
  8
0
100
AcDbLine
 62
7
  6
CONTINUOUS
 10
3.6775160675
 20
20.6924212633
 11
-1.6443398632
 21
18.0347155875
  0
LINE
  5
289
100
AcDbEntity
  8
0
100
AcDbLine
 62
7
  6
CONTINUOUS
 10
-6.0426278508
 20
17.8256564566
 11
-0.7353171847
 21
20.4723317267
  0
LINE
  5
28A
100
AcDbEntity
  8
0
100
AcDbLine
 62
253
  6
CONTINUOUS
 10
-2.1888929018
 20
17.71744233
 11
-1.66062573
 21
17.9808811501
  0
LINE
  5
28B
100
AcDbEntity
  8
0
100
AcDbLine
 62
253
  6
CONTINUOUS
 10
-2.0121191981
 20
17.4125527912
 11
-1.4838520263
 21
17.6759916113
  0
LINE
  5
28C
100
AcDbEntity
  8
DRAFT
100
AcDbLine
 62
7
  6
CONTINUOUS
 10
8.1762448504
 20
22.4907058257
 11
4.3643442636
 21
20.592297704
  0
LINE
  5
28D
100
AcDbEntity
  8
DRAFT
100
AcDbLine
 62
7
  6
CONTINUOUS
 10
8.3559975505
 20
22.4008294757
 11
4.5155895272
 21
20.4882240402
  0
LINE
  5
28E
100
AcDbEntity
  8
0
100
AcDbLine
 62
7
  6
CONTINUOUS
 10
-3.9968845831
 20
18.5735049642
 11
-3.4620173923
 21
18.8340557167
  0
LINE
  5
28F
100
AcDbEntity
  8
0
100
AcDbLine
 62
253
  6
CONTINUOUS
 10
-3.8859551598
 20
18.5659734591
 11
-3.3515052812
 21
18.8263209256
  0
LWPOLYLINE
  5
290
100
AcDbEntity
  8
RACCORDO
100
AcDbPolyline
 62
7
  6
CONTINUOUS
 90
6
 70
0
 10
-10.4122572863
 20
-15.5082000379
 10
-10.349305634
 20
-15.5317677639
 10
-10.2825894101
 20
-15.5425802707
 10
-10.2171727267
 20
-15.5399817054
 10
-10.1549677766
 20
-15.5249509407
 10
-10.1339951646
 20
-15.5168198303
  0
LINE
  5
291
100
AcDbEntity
  8
RACCORDO
100
AcDbLine
 62
253
  6
CONTINUOUS
 10
-10.4931683439
 20
-15.3445199508
 11
-20.188995703
 21
-10.4966062713
  0
LINE
  5
292
100
AcDbEntity
  8
RACCORDO
100
AcDbLine
 62
253
  6
CONTINUOUS
 10
-20.188995703
 20
-10.379483171
 11
-10.4931683439
 21
-15.2273968506
  0
LINE
  5
293
100
AcDbEntity
  8
DRAFT
100
AcDbLine
 62
7
  6
CONTINUOUS
 10
-9.6381935956
 20
-15.303290235
 11
-9.231641515
 21
-15.5065662753
  0
LINE
  5
294
100
AcDbEntity
  8
RACCORDO
100
AcDbLine
 62
253
  6
CONTINUOUS
 10
-19.9953521937
 20
-10.0238424417
 11
-10.2995228881
 21
-14.8717570945
  0
LINE
  5
295
100
AcDbEntity
  8
DRAFT
100
AcDbLine
 62
7
  6
CONTINUOUS
 10
-9.2525470347
 20
-15.1372002292
 11
-9.2423304153
 21
-15.1423085389
  0
LINE
  5
296
100
AcDbEntity
  8
RACCORDO
100
AcDbLine
 62
7
  6
CONTINUOUS
 10
-18.8403959305
 20
-9.4065396993
 11
-9.2961837041
 21
-14.1786458126
  0
LINE
  5
297
100
AcDbEntity
  8
0
100
AcDbLine
 62
253
  6
CONTINUOUS
 10
-8.6304561328
 20
-14.4532252757
 11
-9.1198030403
 21
-14.2085492349
  0
LINE
  5
298
100
AcDbEntity
  8
0
100
AcDbLine
 62
253
  6
CONTINUOUS
 10
-7.7028330087
 20
-14.9170368378
 11
-8.4183240985
 21
-14.5592912929
  0
LINE
  5
299
100
AcDbEntity
  8
0
100
AcDbLine
 62
253
  6
CONTINUOUS
 10
-21.853352941
 20
-7.8417768716
 11
-22.5688440308
 21
-7.4840313267
  0
LINE
  5
29A
100
AcDbEntity
  8
0
100
AcDbLine
 62
253
  6
CONTINUOUS
 10
-21.1518740742
 20
-8.1925141266
 11
-21.6412209066
 21
-7.9478428888
  0
LINE
  5
29B
100
AcDbEntity
  8
RACCORDO
100
AcDbLine
 62
7
  6
CONTINUOUS
 10
-10.4152003882
 20
-15.5067820909
 11
-20.1113407887
 21
-10.6587112811
  0
LINE
  5
29C
100
AcDbEntity
  8
RACCORDO
100
AcDbLine
 62
253
  6
CONTINUOUS
 10
-15.5583339419
 20
21.6191351125
 11
-15.5583587009
 21
22.1355088531
  0
LINE
  5
29D
100
AcDbEntity
  8
RACCORDO
100
AcDbLine
 62
253
  6
CONTINUOUS
 10
-15.2058292661
 20
21.6389446983
 11
-15.2058373734
 21
22.2731823271
  0
LINE
  5
29E
100
AcDbEntity
  8
0
100
AcDbLine
 62
7
  6
CONTINUOUS
 10
-14.3157771907
 20
23.5643817875
 11
-14.3157771907
 21
22.8373369351
  0
LINE
  5
29F
100
AcDbEntity
  8
RACCORDO
100
AcDbLine
 62
7
  6
CONTINUOUS
 10
-14.3157771907
 20
22.1356210954
 11
-14.3157771907
 21
22.8373369351
  0
LINE
  5
2A0
100
AcDbEntity
  8
0
100
AcDbLine
 62
253
  6
CONTINUOUS
 10
-13.787510019
 20
23.8278206076
 11
-13.787510019
 21
23.4802890908
  0
LINE
  5
2A1
100
AcDbEntity
  8
0
100
AcDbLine
 62
7
  6
CONTINUOUS
 10
-13.715312162
 20
23.9156932398
 11
-13.715312162
 21
23.568161723
  0
LINE
  5
2A2
100
AcDbEntity
  8
DRAFT
100
AcDbLine
 62
7
  6
CONTINUOUS
 10
-13.7147364267
 20
18.3049197444
 11
-13.7147364267
 21
19.1032336966
  0
LINE
  5
2A3
100
AcDbEntity
  8
0
100
AcDbLine
 62
7
  6
CONTINUOUS
 10
-13.3903676348
 20
21.8169492403
 11
-13.3903676348
 21
20.3707864745
  0
LINE
  5
2A4
100
AcDbEntity
  8
0
100
AcDbLine
 62
7
  6
CONTINUOUS
 10
-12.7309577604
 20
20.0410815373
 11
-12.7309577604
 21
21.4872443031
  0
LINE
  5
2A5
100
AcDbEntity
  8
RACCORDO
100
AcDbLine
 62
7
  6
CONTINUOUS
 10
-20.374137377
 20
-10.6828105541
 11
-20.2952651053
 21
-10.4543431963
  0
LWPOLYLINE
  5
2A6
100
AcDbEntity
  8
RACCORDO
100
AcDbPolyline
 62
7
  6
CONTINUOUS
 90
16
 70
0
 10
-7.0131256076
 20
13.3892672372
 10
-7.0527458636
 20
13.3647881042
 10
-7.1133133585
 20
13.3218839151
 10
-7.1720562517
 20
13.2735214316
 10
-7.2286286537
 20
13.2201074666
 10
-7.2824784863
 20
13.1623342709
 10
-7.3332814233
 20
13.1007375516
 10
-7.3809407842
 20
13.0356345997
 10
-7.4252097984
 20
12.9674939067
 10
-7.4658387056
 20
12.8967839919
 10
-7.5026617651
 20
12.823922537
 10
-7.5355060539
 20
12.749301344
 10
-7.5641575904
 20
12.673370837
 10
-7.5884553119
 20
12.5965401258
 10
-7.6082463951
 20
12.5190984587
 10
-7.6233340833
 20
12.4414227926
  0
LINE
  5
2A7
100
AcDbEntity
  8
RACCORDO
100
AcDbLine
 62
7
  6
CONTINUOUS
 10
-0.7327026382
 20
15.7737878008
 11
4.319240897
 21
18.8599414329
  0
LINE
  5
2A8
100
AcDbEntity
  8
RACCORDO
100
AcDbLine
 62
253
  6
CONTINUOUS
 10
-5.79228522
 20
14.3142655189
 11
-7.1701673087
 21
13.5108340568
  0
LINE
  5
2A9
100
AcDbEntity
  8
RACCORDO
100
AcDbLine
 62
253
  6
CONTINUOUS
 10
-5.7214991745
 20
14.1920718968
 11
-7.0945326177
 21
13.3914676392
  0
LINE
  5
2AA
100
AcDbEntity
  8
RACCORDO
100
AcDbLine
 62
7
  6
CONTINUOUS
 10
-5.6356626769
 20
14.1924725991
 11
-7.013251346
 21
13.3892122276
  0
LINE
  5
2AB
100
AcDbEntity
  8
RACCORDO
100
AcDbLine
 62
253
  6
CONTINUOUS
 10
-5.5420276423
 20
14.18913673
 11
-6.919909731
 21
13.385705268
  0
LINE
  5
2AC
100
AcDbEntity
  8
RACCORDO
100
AcDbLine
 62
253
  6
CONTINUOUS
 10
-2.9021712734
 20
15.4871157019
 11
-2.0121191981
 21
15.9837920991
  0
LINE
  5
2AD
100
AcDbEntity
  8
RACCORDO
100
AcDbLine
 62
253
  6
CONTINUOUS
 10
-2.7541817474
 20
15.2467233223
 11
-1.8707385087
 21
15.7397117856
  0
LINE
  5
2AE
100
AcDbEntity
  8
0
100
AcDbLine
 62
253
  6
CONTINUOUS
 10
-1.6582966828
 20
15.6334908726
 11
-6.3226575464
 21
13.0870791757
  0
LINE
  5
2AF
100
AcDbEntity
  8
0
100
AcDbLine
 62
253
  6
CONTINUOUS
 10
-1.3050124169
 20
15.0236378461
 11
-5.9568248064
 21
12.4840767299
  0
LINE
  5
2B0
100
AcDbEntity
  8
DRAFT
100
AcDbLine
 62
7
  6
CONTINUOUS
 10
8.3559975505
 20
18.7781368187
 11
4.3610646322
 21
16.6593446336
  0
LINE
  5
2B1
100
AcDbEntity
  8
0
100
AcDbLine
 62
7
  6
CONTINUOUS
 10
4.6525713096
 20
19.3963387984
 11
-1.3905478241
 21
16.201684836
  0
LINE
  5
2B2
100
AcDbEntity
  8
0
100
AcDbLine
 62
7
  6
CONTINUOUS
 10
4.6525713096
 20
19.7964660587
 11
-1.8078218162
 21
16.4103218321
  0
LINE
  5
2B3
100
AcDbEntity
  8
0
100
AcDbLine
 62
253
  6
CONTINUOUS
 10
-0.9576253663
 20
15.9852236071
 11
-1.6585613201
 21
15.6336231913
  0
LINE
  5
2B4
100
AcDbEntity
  8
0
100
AcDbLine
 62
253
  6
CONTINUOUS
 10
-0.6040764631
 20
15.3754511094
 11
-1.3050124169
 21
15.0238506935
  0
LINE
  5
2B5
100
AcDbEntity
  8
DRAFT
100
AcDbLine
 62
7
  6
CONTINUOUS
 10
5.165014631
 20
16.2573696342
 11
19.8741844623
 21
22.9637214674
  0
LWPOLYLINE
  5
2B6
100
AcDbEntity
  8
RACCORDO
100
AcDbPolyline
 62
7
  6
CONTINUOUS
 90
9
 70
0
 10
-9.2662533611
 20
-14.0313299359
 10
-9.2612075915
 20
-14.3268055733
 10
-9.2532938532
 20
-14.709070986
 10
-9.2438295845
 20
-15.0905069243
 10
-9.2328149227
 20
-15.4711025723
 10
-9.2202500528
 20
-15.8508485325
 10
-9.2061351816
 20
-16.229736344
 10
-9.190470525
 20
-16.6077573222
 10
-9.1692378998
 20
-17.0682373306
  0
LINE
  5
2B7
100
AcDbEntity
  8
0
100
AcDbLine
 62
7
  6
CONTINUOUS
 10
-12.0176801519
 20
21.6705503341
 11
-12.0176801519
 21
20.4369359824
  0
LINE
  5
2B8
100
AcDbEntity
  8
0
100
AcDbLine
 62
253
  6
CONTINUOUS
 10
-10.3931911884
 20
19.6246915007
 11
-10.3931911884
 21
20.8583058524
  0
LINE
  5
2B9
100
AcDbEntity
  8
0
100
AcDbLine
 62
253
  6
CONTINUOUS
 10
-10.1115879794
 20
19.6330752143
 11
-10.1115879794
 21
20.8576914856
  0
LINE
  5
2BA
100
AcDbEntity
  8
0
100
AcDbLine
 62
7
  6
CONTINUOUS
 10
-9.8963598083
 20
19.7525224354
 11
-9.8963598083
 21
20.964963863
  0
LWPOLYLINE
  5
2BB
100
AcDbEntity
  8
RACCORDO
100
AcDbPolyline
 62
7
  6
CONTINUOUS
 90
5
 70
0
 10
-8.0777994985
 20
7.5877043727
 10
-8.0876171472
 20
7.5478693059
 10
-8.1005555805
 20
7.5118189643
 10
-8.1160864755
 20
7.4807580986
 10
-8.1330493295
 20
7.4559751496
  0
LINE
  5
2BC
100
AcDbEntity
  8
RACCORDO
100
AcDbLine
 62
7
  6
CONTINUOUS
 10
-5.0182828782
 20
16.3831696177
 11
-5.0192896613
 21
16.3806093195
  0
LINE
  5
2BD
100
AcDbEntity
  8
0
100
AcDbLine
 62
253
  6
CONTINUOUS
 10
-1.4684551938
 20
17.2576691884
 11
-1.4684914541
 21
17.2576249277
  0
LINE
  5
2BE
100
AcDbEntity
  8
0
100
AcDbLine
 62
253
  6
CONTINUOUS
 10
-2.0121191981
 20
16.6855079388
 11
-1.4838520263
 21
17.3284600945
  0
LINE
  5
2BF
100
AcDbEntity
  8
0
100
AcDbLine
 62
7
  6
CONTINUOUS
 10
-2.0121191981
 20
16.5959774724
 11
-1.4684914539
 21
17.2576249279
  0
LWPOLYLINE
  5
2C0
100
AcDbEntity
  8
RACCORDO
100
AcDbPolyline
 62
7
  6
CONTINUOUS
 90
4
 70
0
 10
-8.1330493295
 20
7.4559751496
 10
-8.1498967045
 20
7.4379950185
 10
-8.1663566271
 20
7.4254861017
 10
-8.1717921668
 20
7.4223026903
  0
LINE
  5
2C1
100
AcDbEntity
  8
RACCORDO
100
AcDbLine
 62
7
  6
CONTINUOUS
 10
-20.2470444457
 20
0.7258512756
 11
-20.248364923
 21
0.7252133019
  0
LINE
  5
2C2
100
AcDbEntity
  8
RACCORDO
100
AcDbLine
 62
253
  6
CONTINUOUS
 10
-8.1397645889
 20
7.7153469738
 11
-8.0620432844
 21
7.7520578208
  0
LINE
  5
2C3
100
AcDbEntity
  8
RACCORDO
100
AcDbLine
 62
7
  6
CONTINUOUS
 10
-8.2937436596
 20
7.4335385207
 11
-8.0949504994
 21
7.5274363952
  0
LWPOLYLINE
  5
2C4
100
AcDbEntity
  8
RACCORDO
100
AcDbPolyline
 62
7
  6
CONTINUOUS
 90
10
 70
0
 10
-9.3294847273
 20
-5.6557099956
 10
-9.3290760965
 20
-6.5220376485
 10
-9.3270007141
 20
-7.4757075249
 10
-9.3232214764
 20
-8.4285048001
 10
-9.3177383911
 20
-9.3804242273
 10
-9.3105514794
 20
-10.3314614397
 10
-9.3016607642
 20
-11.281612413
 10
-9.2910662745
 20
-12.230872794
 10
-9.2787680661
 20
-13.1792373704
 10
-9.2662533631
 20
-14.0313299586
  0
LINE
  5
2C5
100
AcDbEntity
  8
0
100
AcDbLine
 62
7
  6
CONTINUOUS
 10
-9.1954238545
 20
20.1046266998
 11
-9.1954238545
 21
21.3165642789
  0
LINE
  5
2C6
100
AcDbEntity
  8
0
100
AcDbLine
 62
7
  6
CONTINUOUS
 10
-8.7510002907
 20
20.0786317598
 11
-8.7510002907
 21
18.8476782811
  0
LINE
  5
2C7
100
AcDbEntity
  8
0
100
AcDbLine
 62
253
  6
CONTINUOUS
 10
-8.692421647
 20
20.0079210817
 11
-8.692421647
 21
18.77430673
  0
LINE
  5
2C8
100
AcDbEntity
  8
0
100
AcDbLine
 62
7
  6
CONTINUOUS
 10
-7.7688686373
 20
19.0061997415
 11
-7.7688686373
 21
17.5600369758
  0
LINE
  5
2C9
100
AcDbEntity
  8
RACCORDO
100
AcDbLine
 62
7
  6
CONTINUOUS
 10
-7.5466850947
 20
12.7196753504
 11
-7.5466850947
 21
12.8752160006
  0
LINE
  5
2CA
100
AcDbEntity
  8
0
100
AcDbLine
 62
7
  6
CONTINUOUS
 10
-7.109458763
 20
17.2303320386
 11
-7.109458763
 21
18.6764948044
  0
LINE
  5
2CB
100
AcDbEntity
  8
0
100
AcDbLine
 62
7
  6
CONTINUOUS
 10
-6.2112155119
 20
24.683554826
 11
-6.2112155119
 21
23.3654905163
  0
LINE
  5
2CC
100
AcDbEntity
  8
0
100
AcDbLine
 62
7
  6
CONTINUOUS
 10
-6.1949289466
 20
24.6730422719
 11
-6.1949289466
 21
23.4251961907
  0
LINE
  5
2CD
100
AcDbEntity
  8
RACCORDO
100
AcDbLine
 62
7
  6
CONTINUOUS
 10
-8.0693451733
 20
7.6521069326
 11
-8.0693313459
 21
7.6523103411
  0
LWPOLYLINE
  5
2CE
100
AcDbEntity
  8
RACCORDO
100
AcDbPolyline
 62
7
  6
CONTINUOUS
 90
3
 70
0
 10
-8.0693451733
 20
7.6521069326
 10
-8.0712798261
 20
7.6306157074
 10
-8.0777994985
 20
7.5877043727
  0
LWPOLYLINE
  5
2CF
100
AcDbEntity
  8
RACCORDO
100
AcDbPolyline
 62
7
  6
CONTINUOUS
 90
3
 70
0
 10
-5.0146848382
 20
16.4050159659
 10
-5.0158327143
 20
16.39233089
 10
-5.0182828782
 20
16.3831696177
  0
LWPOLYLINE
  5
2D0
100
AcDbEntity
  8
RACCORDO
100
AcDbPolyline
 62
7
  6
CONTINUOUS
 90
10
 70
0
 10
-7.6317326075
 20
12.3810032862
 10
-7.6820336098
 20
11.9312939107
 10
-7.7410811225
 20
11.3814849846
 10
-7.7973240831
 20
10.8326374857
 10
-7.850759446
 20
10.2847796281
 10
-7.9013849049
 20
9.7379348791
 10
-7.9491983964
 20
9.1921247926
 10
-7.9941977537
 20
8.6473725795
 10
-8.0363806924
 20
8.1037059718
 10
-8.069322704
 20
7.6523097337
  0
LINE
  5
2D1
100
AcDbEntity
  8
RACCORDO
100
AcDbLine
 62
7
  6
CONTINUOUS
 10
-7.6233340833
 20
12.4414227926
 11
-7.631726521
 21
12.3809452533
  0
LINE
  5
2D2
100
AcDbEntity
  8
RACCORDO
100
AcDbLine
 62
253
  6
CONTINUOUS
 10
-8.966640618
 20
3.052743948
 11
-8.7544120283
 21
3.1588582428
  0
LINE
  5
2D3
100
AcDbEntity
  8
DRAFT
100
AcDbLine
 62
7
  6
CONTINUOUS
 10
22.7779998819
 20
21.5118137576
 11
-0.5855630409
 21
9.8762591061
  0
LINE
  5
2D4
100
AcDbEntity
  8
RACCORDO
100
AcDbLine
 62
253
  6
CONTINUOUS
 10
-20.5122132888
 20
0.1823323896
 11
-19.7958547449
 21
0.5267914469
  0
LWPOLYLINE
  5
2D5
100
AcDbEntity
  8
RACCORDO
100
AcDbPolyline
 62
7
  6
CONTINUOUS
 90
11
 70
0
 10
-20.248346529
 20
0.7252220867
 10
-20.2394116863
 20
0.7289550288
 10
-20.2277135743
 20
0.7319974294
 10
-20.2127087801
 20
0.7339255678
 10
-20.1938771131
 20
0.7342173446
 10
-20.1705845743
 20
0.7322384323
 10
-20.1426928357
 20
0.7272677736
 10
-20.1109881891
 20
0.7188163601
 10
-20.0763856192
 20
0.706696797
 10
-20.0395293931
 20
0.6908628566
 10
-20.0239196499
 20
0.6833132093
  0
LINE
  5
2D6
100
AcDbEntity
  8
DRAFT
100
AcDbLine
 62
7
  6
CONTINUOUS
 10
7.9882512569
 20
-4.5535894557
 11
1.6798276728
 21
-6.0312878867
  0
LINE
  5
2D7
100
AcDbEntity
  8
RACCORDO
100
AcDbLine
 62
7
  6
CONTINUOUS
 10
-10.1115407894
 20
-4.2728653702
 11
-20.0236015512
 21
0.683164924
  0
LINE
  5
2D8
100
AcDbEntity
  8
RACCORDO
100
AcDbLine
 62
253
  6
CONTINUOUS
 10
-10.2416378583
 20
-4.0008699734
 11
-20.1535460781
 21
0.9550841365
  0
LINE
  5
2D9
100
AcDbEntity
  8
RACCORDO
100
AcDbLine
 62
7
  6
CONTINUOUS
 10
-20.0236013699
 20
0.6831648334
 11
-20.0239151899
 21
0.6833221103
  0
LWPOLYLINE
  5
2DA
100
AcDbEntity
  8
RACCORDO
100
AcDbPolyline
 62
7
  6
CONTINUOUS
 90
23
 70
0
 10
-10.111545555
 20
-4.2728749046
 10
-10.0778580464
 20
-4.290831245
 10
-10.0298951112
 20
-4.320074244
 10
-9.9792885099
 20
-4.355480976
 10
-9.9268069848
 20
-4.397087839
 10
-9.8734529571
 20
-4.4445596637
 10
-9.8198526515
 20
-4.4977204169
 10
-9.7665779337
 20
-4.5563569415
 10
-9.7144389502
 20
-4.6198598035
 10
-9.6639952867
 20
-4.6877616595
 10
-9.6157257545
 20
-4.7596063214
 10
-9.570189427
 20
-4.8346918094
 10
-9.5277930553
 20
-4.9124185494
 10
-9.4888979034
 20
-4.9921623379
 10
-9.4538766481
 20
-5.0731243355
 10
-9.4229639749
 20
-5.1546375497
 10
-9.3963524599
 20
-5.2360003288
 10
-9.3742231043
 20
-5.3163204593
 10
-9.3566041434
 20
-5.3949439583
 10
-9.3434702879
 20
-5.4712123187
 10
-9.3347619159
 20
-5.5442155627
 10
-9.3302788703
 20
-5.6132409234
 10
-9.329491784
 20
-5.6555800781
  0
LINE
  5
2DB
100
AcDbEntity
  8
0
100
AcDbLine
 62
7
  6
CONTINUOUS
 10
-6.0426278508
 20
17.8256564566
 11
-6.0426278508
 21
19.2112971027
  0
LINE
  5
2DC
100
AcDbEntity
  8
RACCORDO
100
AcDbLine
 62
7
  6
CONTINUOUS
 10
-5.7214991745
 20
14.142422059
 11
-5.7214991745
 21
14.1920718968
  0
LINE
  5
2DD
100
AcDbEntity
  8
0
100
AcDbLine
 62
7
  6
CONTINUOUS
 10
-5.7176833237
 20
17.5380008944
 11
-5.7176833237
 21
17.1980269603
  0
LINE
  5
2DE
100
AcDbEntity
  8
0
100
AcDbLine
 62
253
  6
CONTINUOUS
 10
-5.644460019
 20
17.4496125468
 11
-5.644460019
 21
17.1096386126
  0
LINE
  5
2DF
100
AcDbEntity
  8
0
100
AcDbLine
 62
7
  6
CONTINUOUS
 10
-5.0146903694
 20
16.692021986
 11
-5.0146903694
 21
16.4052504726
  0
LINE
  5
2E0
100
AcDbEntity
  8
RACCORDO
100
AcDbLine
 62
253
  6
CONTINUOUS
 10
-4.9414734256
 20
16.6554135141
 11
-4.9414852881
 21
16.3107107856
  0
LINE
  5
2E1
100
AcDbEntity
  8
0
100
AcDbLine
 62
253
  6
CONTINUOUS
 10
-3.9659219486
 20
-25.3692084961
 11
-3.9659219486
 21
-25.0292345619
  0
LINE
  5
2E2
100
AcDbEntity
  8
0
100
AcDbLine
 62
253
  6
CONTINUOUS
 10
-3.9659219486
 20
16.2703695774
 11
-3.9659219486
 21
16.6103435116
  0
LINE
  5
2E3
100
AcDbEntity
  8
0
100
AcDbLine
 62
253
  6
CONTINUOUS
 10
-3.6133999889
 20
-25.3697212199
 11
-3.6133999889
 21
-25.0297472858
  0
LINE
  5
2E4
100
AcDbEntity
  8
0
100
AcDbLine
 62
253
  6
CONTINUOUS
 10
-3.6133999889
 20
16.2698568536
 11
-3.6133999889
 21
16.6098307877
  0
LINE
  5
2E5
100
AcDbEntity
  8
RACCORDO
100
AcDbLine
 62
253
  6
CONTINUOUS
 10
-3.2546759493
 20
15.4673061162
 11
-3.2547007082
 21
15.9836795359
  0
LINE
  5
2E6
100
AcDbEntity
  8
RACCORDO
100
AcDbLine
 62
253
  6
CONTINUOUS
 10
-3.2547013405
 20
-24.0527380848
 11
-3.2546975609
 21
-23.9429107504
  0
LINE
  5
2E7
100
AcDbEntity
  8
RACCORDO
100
AcDbLine
 62
253
  6
CONTINUOUS
 10
-2.9021712734
 20
15.4871157019
 11
-2.9021793808
 21
16.1213533307
  0
LINE
  5
2E8
100
AcDbEntity
  8
RACCORDO
100
AcDbLine
 62
253
  6
CONTINUOUS
 10
-2.9021793808
 20
-24.1782508087
 11
-2.9021739507
 21
-23.7949356579
  0
LINE
  5
2E9
100
AcDbEntity
  8
0
100
AcDbLine
 62
7
  6
CONTINUOUS
 10
-2.8931710978
 20
23.8147471219
 11
-2.8931710978
 21
23.3505688083
  0
LINE
  5
2EA
100
AcDbEntity
  8
RACCORDO
100
AcDbLine
 62
253
  6
CONTINUOUS
 10
-8.6227546694
 20
2.4381208298
 11
-8.4286895757
 21
2.5351533766
  0
LINE
  5
2EB
100
AcDbEntity
  8
DRAFT
100
AcDbLine
 62
7
  6
CONTINUOUS
 10
7.0236743695
 20
-4.071301012
 11
1.6798276728
 21
-5.2551645656
  0
LWPOLYLINE
  5
2EC
100
AcDbEntity
  8
RACCORDO
100
AcDbPolyline
 62
7
  6
CONTINUOUS
 90
4
 70
0
 10
-21.3344969222
 20
13.8666554875
 10
-21.297198113
 20
13.8302683455
 10
-21.2579763191
 20
13.7988628333
 10
-21.21737882
 20
13.7728064344
  0
LINE
  5
2ED
100
AcDbEntity
  8
0
100
AcDbLine
 62
7
  6
CONTINUOUS
 10
-2.0121191981
 20
17.4125527912
 11
-2.0121191981
 21
16.6855079388
  0
LINE
  5
2EE
100
AcDbEntity
  8
RACCORDO
100
AcDbLine
 62
7
  6
CONTINUOUS
 10
-2.0121191981
 20
-23.8626417678
 11
-2.0121191981
 21
-23.4213268255
  0
LINE
  5
2EF
100
AcDbEntity
  8
0
100
AcDbLine
 62
7
  6
CONTINUOUS
 10
-2.0121191981
 20
-23.8626417678
 11
-2.0121191981
 21
-24.5896866203
  0
LINE
  5
2F0
100
AcDbEntity
  8
RACCORDO
100
AcDbLine
 62
7
  6
CONTINUOUS
 10
-2.0121191981
 20
15.9837920991
 11
-2.0121191981
 21
16.6855079388
  0
LINE
  5
2F1
100
AcDbEntity
  8
0
100
AcDbLine
 62
253
  6
CONTINUOUS
 10
-1.4838520263
 20
17.6759916113
 11
-1.4838520263
 21
17.3284600945
  0
LINE
  5
2F2
100
AcDbEntity
  8
0
100
AcDbLine
 62
253
  6
CONTINUOUS
 10
-1.4838520263
 20
-23.9711440449
 11
-1.4838520263
 21
-24.3186755616
  0
LINE
  5
2F3
100
AcDbEntity
  8
0
100
AcDbLine
 62
7
  6
CONTINUOUS
 10
-1.4116541693
 20
17.7638642434
 11
-1.4116541693
 21
17.4163327267
  0
LINE
  5
2F4
100
AcDbEntity
  8
0
100
AcDbLine
 62
7
  6
CONTINUOUS
 10
-1.4116541693
 20
-23.8832714127
 11
-1.4116541693
 21
-24.2308029294
  0
LINE
  5
2F5
100
AcDbEntity
  8
0
100
AcDbLine
 62
7
  6
CONTINUOUS
 10
-1.3050124169
 20
15.0238506935
 11
-1.3050124169
 21
14.7640284166
  0
LINE
  5
2F6
100
AcDbEntity
  8
0
100
AcDbLine
 62
7
  6
CONTINUOUS
 10
-1.3050124169
 20
-22.9080913038
 11
-1.3050124169
 21
-22.6482690269
  0
LINE
  5
2F7
100
AcDbEntity
  8
0
100
AcDbLine
 62
253
  6
CONTINUOUS
 10
-0.7353171847
 20
21.8560796916
 11
-0.7353171847
 21
21.3029089686
  0
LINE
  5
2F8
100
AcDbEntity
  8
0
100
AcDbLine
 62
253
  6
CONTINUOUS
 10
-0.7353171847
 20
20.946733102
 11
-0.7353171847
 21
20.4723317267
  0
LINE
  5
2F9
100
AcDbEntity
  8
0
100
AcDbLine
 62
7
  6
CONTINUOUS
 10
-0.6044823335
 20
21.8778676028
 11
-0.6044823335
 21
20.6299735846
  0
LINE
  5
2FA
100
AcDbEntity
  8
0
100
AcDbLine
 62
7
  6
CONTINUOUS
 10
-0.6040764631
 20
-22.5464141111
 11
-0.6040764631
 21
-21.8226924185
  0
LINE
  5
2FB
100
AcDbEntity
  8
0
100
AcDbLine
 62
7
  6
CONTINUOUS
 10
-0.6040764631
 20
14.6206672209
 11
-0.6040764631
 21
15.3754511094
  0
LINE
  5
2FC
100
AcDbEntity
  8
0
100
AcDbLine
 62
7
  6
CONTINUOUS
 10
-0.5855630409
 20
-21.8008869337
 11
-0.5855630409
 21
14.6114105098
  0
LINE
  5
2FD
100
AcDbEntity
  8
0
100
AcDbLine
 62
253
  6
CONTINUOUS
 10
-1.4116541693
 20
-24.2308029118
 11
-1.4116543143
 21
-24.2309375532
  0
LWPOLYLINE
  5
2FE
100
AcDbEntity
  8
RACCORDO
100
AcDbPolyline
 62
7
  6
CONTINUOUS
 90
7
 70
0
 10
-20.1569073137
 20
-10.0114493783
 10
-20.17587554
 20
-10.0231305371
 10
-20.2252556116
 20
-10.0633841396
 10
-20.2666498032
 20
-10.1134993263
 10
-20.2983852436
 20
-10.1728078146
 10
-20.3179467506
 20
-10.2376421121
 10
-20.3247768785
 20
-10.3044371992
  0
LINE
  5
2FF
100
AcDbEntity
  8
RACCORDO
100
AcDbLine
 62
7
  6
CONTINUOUS
 10
-19.0735672666
 20
-9.3968622539
 11
-20.156929793
 21
-10.0114593608
  0
LINE
  5
300
100
AcDbEntity
  8
DRAFT
100
AcDbLine
 62
7
  6
CONTINUOUS
 10
5.9930057402
 20
2.6648799353
 11
9.9543083672
 21
4.6297152414
  0
LINE
  5
301
100
AcDbEntity
  8
0
100
AcDbLine
 62
253
  6
CONTINUOUS
 10
-7.7028330087
 20
1.5374458341
 11
-8.4183240985
 21
1.895191379
  0
LINE
  5
302
100
AcDbEntity
  8
0
100
AcDbLine
 62
253
  6
CONTINUOUS
 10
-8.6304561328
 20
2.0012573962
 11
-21.6412209066
 21
8.5066397831
  0
LINE
  5
303
100
AcDbEntity
  8
0
100
AcDbLine
 62
253
  6
CONTINUOUS
 10
-21.853352941
 20
8.6127058003
 11
-22.5688440308
 21
8.9704513452
  0
LINE
  5
304
100
AcDbEntity
  8
RACCORDO
100
AcDbLine
 62
7
  6
CONTINUOUS
 10
-21.2702986106
 20
9.2045729443
 11
-8.966640618
 21
3.052743948
  0
LINE
  5
305
100
AcDbEntity
  8
RACCORDO
100
AcDbLine
 62
7
  6
CONTINUOUS
 10
-21.0580700209
 20
9.3106872392
 11
-8.7544120283
 21
3.1588582428
  0
LINE
  5
306
100
AcDbEntity
  8
RACCORDO
100
AcDbLine
 62
7
  6
CONTINUOUS
 10
-21.2635541103
 20
9.4677528156
 11
-8.9598961177
 21
3.3159238193
  0
LINE
  5
307
100
AcDbEntity
  8
DRAFT
100
AcDbLine
 62
7
  6
CONTINUOUS
 10
7.9882512569
 20
-4.5535894557
 11
7.0236743695
 21
-4.071301012
  0
LINE
  5
308
100
AcDbEntity
  8
DRAFT
100
AcDbLine
 62
7
  6
CONTINUOUS
 10
1.6798276728
 20
0.3773001013
 11
1.6798276728
 21
-6.0312878867
  0
LINE
  5
309
100
AcDbEntity
  8
DRAFT
100
AcDbLine
 62
7
  6
CONTINUOUS
 10
9.9543083672
 20
2.424668801
 11
1.6798276728
 21
-2.8269938927
  0
LINE
  5
30A
100
AcDbEntity
  8
DRAFT
100
AcDbLine
 62
7
  6
CONTINUOUS
 10
9.9543083672
 20
2.8976644338
 11
1.6798276728
 21
-1.9609684889
  0
LINE
  5
30B
100
AcDbEntity
  8
DRAFT
100
AcDbLine
 62
7
  6
CONTINUOUS
 10
1.6798276728
 20
0.3773001013
 11
22.7779998819
 21
11.5671356529
  0
LINE
  5
30C
100
AcDbEntity
  8
RACCORDO
100
AcDbLine
 62
253
  6
CONTINUOUS
 10
-21.7032264146
 20
-11.8370330062
 11
-21.5029563328
 21
-11.7368979653
  0
LINE
  5
30D
100
AcDbEntity
  8
0
100
AcDbLine
 62
7
  6
CONTINUOUS
 10
15.4180629582
 20
6.427086584
 11
14.9937988895
 21
6.2149545496
  0
LINE
  5
30E
100
AcDbEntity
  8
0
100
AcDbLine
 62
7
  6
CONTINUOUS
 10
18.9535968641
 20
7.9827215026
 11
11.8825290522
 21
4.4471875967
  0
LINE
  5
30F
100
AcDbEntity
  8
RACCORDO
100
AcDbLine
 62
253
  6
CONTINUOUS
 10
-21.094613967
 20
-12.7912325304
 11
-20.8817956303
 21
-12.684823362
  0
LINE
  5
310
100
AcDbEntity
  8
DRAFT
100
AcDbLine
 62
7
  6
CONTINUOUS
 10
1.6798276728
 20
-1.2065389909
 11
9.9543083672
 21
2.8976644338
  0
LWPOLYLINE
  5
311
100
AcDbEntity
  8
RACCORDO
100
AcDbPolyline
 62
7
  6
CONTINUOUS
 90
8
 70
0
 10
-8.562457728
 20
7.4447218916
 10
-8.5364869207
 20
7.4329029706
 10
-8.4943581806
 20
7.4185380397
 10
-8.4520780724
 20
7.4099742312
 10
-8.410177912
 20
7.4073064115
 10
-8.3694571302
 20
7.4104983817
 10
-8.330572318
 20
7.4193150927
 10
-8.2923588489
 20
7.434200003
  0
LINE
  5
312
100
AcDbEntity
  8
0
100
AcDbLine
 62
7
  6
CONTINUOUS
 10
6.1625939817
 20
-1.3530989059
 11
11.8401820727
 21
-4.1918929514
  0
LINE
  5
313
100
AcDbEntity
  8
RACCORDO
100
AcDbLine
 62
253
  6
CONTINUOUS
 10
-8.5484378794
 20
7.2009332119
 11
-21.3013880619
 21
13.5774083031
  0
LINE
  5
314
100
AcDbEntity
  8
RACCORDO
100
AcDbLine
 62
7
  6
CONTINUOUS
 10
-8.5624577429
 20
7.4447218613
 11
-21.1985388079
 21
13.7627622725
  0
LINE
  5
315
100
AcDbEntity
  8
RACCORDO
100
AcDbLine
 62
253
  6
CONTINUOUS
 10
-8.5882599475
 20
7.5065141701
 11
-21.224260275
 21
13.8245143338
  0
LINE
  5
316
100
AcDbEntity
  8
DRAFT
100
AcDbLine
 62
7
  6
CONTINUOUS
 10
13.688627349
 20
-3.3228360917
 11
14.7816668551
 21
-3.8693558448
  0
LINE
  5
317
100
AcDbEntity
  8
0
100
AcDbLine
 62
7
  6
CONTINUOUS
 10
13.5795853271
 20
-2.9545606932
 11
14.2866921083
 21
-3.3081140838
  0
LINE
  5
318
100
AcDbEntity
  8
0
100
AcDbLine
 62
7
  6
CONTINUOUS
 10
14.9937988895
 20
-3.6473810162
 11
13.5938717853
 21
-2.9474174641
  0
LINE
  5
319
100
AcDbEntity
  8
RACCORDO
100
AcDbLine
 62
7
  6
CONTINUOUS
 10
-21.21737882
 20
13.7728064344
 11
-21.1984871891
 21
13.7627365941
  0
LINE
  5
31A
100
AcDbEntity
  8
RACCORDO
100
AcDbLine
 62
7
  6
CONTINUOUS
 10
4.3900287485
 20
19.2575474533
 11
4.3900287485
 21
19.0204312432
  0
LINE
  5
31B
100
AcDbEntity
  8
0
100
AcDbLine
 62
253
  6
CONTINUOUS
 10
4.6525713096
 20
-17.3624937132
 11
4.6525713096
 21
-17.2789275767
  0
LINE
  5
31C
100
AcDbEntity
  8
0
100
AcDbLine
 62
253
  6
CONTINUOUS
 10
4.6525713096
 20
19.3963387984
 11
4.6525713096
 21
19.7964660587
  0
LINE
  5
31D
100
AcDbEntity
  8
0
100
AcDbLine
 62
7
  6
CONTINUOUS
 10
4.6700398841
 20
-4.5927198033
 11
4.6700398841
 21
-2.1583660833
  0
LINE
  5
31E
100
AcDbEntity
  8
0
100
AcDbLine
 62
7
  6
CONTINUOUS
 10
4.7929014095
 20
-17.3121813201
 11
4.7929014095
 21
-17.2060140244
  0
LINE
  5
31F
100
AcDbEntity
  8
0
100
AcDbLine
 62
7
  6
CONTINUOUS
 10
4.7929014095
 20
19.5726047953
 11
4.7929014095
 21
20.0934828508
  0
LINE
  5
320
100
AcDbEntity
  8
RACCORDO
100
AcDbLine
 62
253
  6
CONTINUOUS
 10
-10.2995228881
 20
-14.8717570945
 11
-9.2961837041
 21
-14.1786458126
  0
LINE
  5
321
100
AcDbEntity
  8
DRAFT
100
AcDbLine
 62
7
  6
CONTINUOUS
 10
1.6798276728
 20
-3.7716541718
 11
9.9543083672
 21
0.6926179934
  0
LINE
  5
322
100
AcDbEntity
  8
0
100
AcDbLine
 62
7
  6
CONTINUOUS
 10
19.9435463578
 20
4.8896705444
 11
12.8724785459
 21
1.3541366385
  0
LINE
  5
323
100
AcDbEntity
  8
0
100
AcDbLine
 62
7
  6
CONTINUOUS
 10
13.1906765974
 20
0.6472102605
 11
16.0898144003
 21
2.0967791619
  0
LINE
  5
324
100
AcDbEntity
  8
0
100
AcDbLine
 62
7
  6
CONTINUOUS
 10
16.7262105034
 20
2.4149772134
 11
19.6253483062
 21
3.8645461149
  0
LINE
  5
325
100
AcDbEntity
  8
ASSI
100
AcDbLine
 62
253
  6
CONTINUOUS
 10
13.2613872756
 20
-0.3813053804
 11
15.0291542285
 21
0.502578096
  0
LINE
  5
326
100
AcDbEntity
  8
ASSI
100
AcDbLine
 62
253
  6
CONTINUOUS
 10
16.7969211815
 20
1.3864615725
 11
18.5646881345
 21
2.270345049
  0
LINE
  5
327
100
AcDbEntity
  8
ASSI
100
AcDbLine
 62
7
  6
CONTINUOUS
 10
13.1906765974
 20
-0.5810316025
 11
14.9251969542
 21
0.2862285759
  0
LINE
  5
328
100
AcDbEntity
  8
ASSI
100
AcDbLine
 62
7
  6
CONTINUOUS
 10
16.7262105034
 20
1.1867353504
 11
18.4607308602
 21
2.0539955288
  0
LINE
  5
329
100
AcDbEntity
  8
0
100
AcDbLine
 62
7
  6
CONTINUOUS
 10
14.2866921083
 20
-2.6010073026
 11
14.9937988895
 21
-2.9545606932
  0
LINE
  5
32A
100
AcDbEntity
  8
0
100
AcDbLine
 62
7
  6
CONTINUOUS
 10
15.3827076191
 20
-2.0529995472
 11
16.0898144003
 21
-2.4065529378
  0
LINE
  5
32B
100
AcDbEntity
  8
ASSI
100
AcDbLine
 62
7
  6
CONTINUOUS
 10
13.1906765974
 20
-0.3459500414
 11
13.2613872756
 21
-0.3813053804
  0
LINE
  5
32C
100
AcDbEntity
  8
0
100
AcDbLine
 62
7
  6
CONTINUOUS
 10
17.115119233
 20
-1.1867937402
 11
17.8222260142
 21
-1.5403471308
  0
LINE
  5
32D
100
AcDbEntity
  8
0
100
AcDbLine
 62
7
  6
CONTINUOUS
 10
18.5293327954
 20
-1.8796140632
 11
17.1294056912
 21
-1.1796505111
  0
LINE
  5
32E
100
AcDbEntity
  8
DRAFT
100
AcDbLine
 62
7
  6
CONTINUOUS
 10
7.9882512569
 20
-8.1537398377
 11
7.9882512569
 21
-4.5535894557
  0
LINE
  5
32F
100
AcDbEntity
  8
DRAFT
100
AcDbLine
 62
7
  6
CONTINUOUS
 10
8.1762448504
 20
24.7623891994
 11
8.1762448504
 21
22.4907058257
  0
LINE
  5
330
100
AcDbEntity
  8
DRAFT
100
AcDbLine
 62
7
  6
CONTINUOUS
 10
8.3559975505
 20
18.7781368187
 11
8.3559975505
 21
22.4008294757
  0
LINE
  5
331
100
AcDbEntity
  8
DRAFT
100
AcDbLine
 62
7
  6
CONTINUOUS
 10
8.4177058244
 20
24.8878489359
 11
8.4177058244
 21
25.739118703
  0
LINE
  5
332
100
AcDbEntity
  8
DRAFT
100
AcDbLine
 62
7
  6
CONTINUOUS
 10
9.9543083672
 20
4.6297152414
 11
9.9543083672
 21
0.6926179934
  0
LINE
  5
333
100
AcDbEntity
  8
0
100
AcDbLine
 62
7
  6
CONTINUOUS
 10
13.1906765974
 20
-3.149015058
 11
15.3827076191
 21
-2.0529995472
  0
LINE
  5
334
100
AcDbEntity
  8
0
100
AcDbLine
 62
7
  6
CONTINUOUS
 10
16.7262105034
 20
-1.381248105
 11
18.918241525
 21
-0.2852325942
  0
LINE
  5
335
100
AcDbEntity
  8
0
100
AcDbLine
 62
7
  6
CONTINUOUS
 10
13.9729377207
 20
-3.4649912776
 11
14.2866921083
 21
-3.3081140838
  0
LINE
  5
336
100
AcDbEntity
  8
0
100
AcDbLine
 62
7
  6
CONTINUOUS
 10
14.9937988895
 20
-2.9545606932
 11
16.0898144003
 21
-2.4065529378
  0
LINE
  5
337
100
AcDbEntity
  8
0
100
AcDbLine
 62
7
  6
CONTINUOUS
 10
16.7262105034
 20
-2.0883548862
 11
17.8222260142
 21
-1.5403471308
  0
LINE
  5
338
100
AcDbEntity
  8
0
100
AcDbLine
 62
7
  6
CONTINUOUS
 10
18.5293327954
 20
-1.1867937402
 11
19.6253483062
 21
-0.6387859848
  0
LINE
  5
339
100
AcDbEntity
  8
0
100
AcDbLine
 62
7
  6
CONTINUOUS
 10
19.9435463578
 20
-1.1725072821
 11
18.5293327954
 21
-1.8796140632
  0
LINE
  5
33A
100
AcDbEntity
  8
0
100
AcDbLine
 62
7
  6
CONTINUOUS
 10
17.8222260142
 20
-2.2331674538
 11
14.9937988895
 21
-3.6473810162
  0
LINE
  5
33B
100
AcDbEntity
  8
DRAFT
100
AcDbLine
 62
7
  6
CONTINUOUS
 10
7.9882512569
 20
-6.0028997154
 11
13.688627349
 21
-3.3228360917
  0
LINE
  5
33C
100
AcDbEntity
  8
DRAFT
100
AcDbLine
 62
7
  6
CONTINUOUS
 10
21.9144429409
 20
-0.5158413723
 11
14.7816668551
 21
-3.8693558448
  0
LINE
  5
33D
100
AcDbEntity
  8
0
100
AcDbLine
 62
7
  6
CONTINUOUS
 10
17.8222260142
 20
-0.8332403496
 11
18.5293327954
 21
-1.1867937402
  0
LINE
  5
33E
100
AcDbEntity
  8
RACCORDO
100
AcDbLine
 62
253
  6
CONTINUOUS
 10
-21.880944666
 20
19.4683314198
 11
-21.2987187091
 21
19.1772184065
  0
LINE
  5
33F
100
AcDbEntity
  8
RACCORDO
100
AcDbLine
 62
253
  6
CONTINUOUS
 10
-21.0448334879
 20
19.0502758308
 11
-7.8267417251
 21
12.4412299494
  0
LINE
  5
340
100
AcDbEntity
  8
RACCORDO
100
AcDbLine
 62
253
  6
CONTINUOUS
 10
-7.5728565116
 20
12.3142873078
 11
-6.9906305471
 21
12.0231743604
  0
LINE
  5
341
100
AcDbEntity
  8
0
100
AcDbLine
 62
7
  6
CONTINUOUS
 10
18.918241525
 20
-0.2852325942
 11
19.6253483062
 21
-0.6387859848
  0
LINE
  5
342
100
AcDbEntity
  8
ASSI
100
AcDbLine
 62
7
  6
CONTINUOUS
 10
19.9435463578
 20
-0.7482432133
 11
20.3678104265
 21
-0.9603752477
  0
LINE
  5
343
100
AcDbEntity
  8
RACCORDO
100
AcDbLine
 62
7
  6
CONTINUOUS
 10
9.9543083672
 20
4.6297152414
 11
9.8222000979
 21
4.695769376
  0
LINE
  5
344
100
AcDbEntity
  8
ASSI
100
AcDbLine
 62
7
  6
CONTINUOUS
 10
16.7262105034
 20
1.4218169116
 11
16.7969211815
 21
1.3864615725
  0
LINE
  5
345
100
AcDbEntity
  8
RACCORDO
100
AcDbLine
 62
253
  6
CONTINUOUS
 10
-20.3770205367
 20
20.1142606708
 11
-7.1701673087
 21
13.5108340568
  0
LINE
  5
346
100
AcDbEntity
  8
RACCORDO
100
AcDbLine
 62
253
  6
CONTINUOUS
 10
-6.919909731
 20
13.385705268
 11
-6.3226575464
 21
13.0870791757
  0
LINE
  5
347
100
AcDbEntity
  8
RACCORDO
100
AcDbLine
 62
253
  6
CONTINUOUS
 10
-20.6272781144
 20
20.2393894597
 11
-21.224530299
 21
20.538015552
  0
LINE
  5
348
100
AcDbEntity
  8
0
100
AcDbLine
 62
7
  6
CONTINUOUS
 10
11.8825290522
 20
4.4471875967
 11
10.5807458352
 21
5.0980792052
  0
LINE
  5
349
100
AcDbEntity
  8
DRAFT
100
AcDbLine
 62
7
  6
CONTINUOUS
 10
21.9144429409
 20
-0.5158413723
 11
22.7779998819
 21
-0.9476198429
  0
LINE
  5
34A
100
AcDbEntity
  8
RACCORDO
100
AcDbLine
 62
7
  6
CONTINUOUS
 10
-19.2004394426
 20
21.0183426302
 11
-5.5420276423
 21
14.18913673
  0
LINE
  5
34B
100
AcDbEntity
  8
DRAFT
100
AcDbLine
 62
7
  6
CONTINUOUS
 10
10.3962560291
 20
27.702685684
 11
10.3962560291
 21
26.8218986767
  0
LINE
  5
34C
100
AcDbEntity
  8
0
100
AcDbLine
 62
7
  6
CONTINUOUS
 10
12.8724785459
 20
-3.7065530051
 11
12.8724785459
 21
1.3541366385
  0
LINE
  5
34D
100
AcDbEntity
  8
0
100
AcDbLine
 62
7
  6
CONTINUOUS
 10
13.1906765974
 20
-3.5569504158
 11
13.1906765974
 21
0.6472102605
  0
LINE
  5
34E
100
AcDbEntity
  8
0
100
AcDbLine
 62
253
  6
CONTINUOUS
 10
-3.2552155688
 20
-24.0524809706
 11
-3.8775336009
 21
-24.7975403881
  0
LINE
  5
34F
100
AcDbEntity
  8
0
100
AcDbLine
 62
253
  6
CONTINUOUS
 10
-2.9021793808
 20
-24.1782508087
 11
-3.6133999889
 21
-25.0297472858
  0
LINE
  5
350
100
AcDbEntity
  8
RACCORDO
100
AcDbLine
 62
253
  6
CONTINUOUS
 10
-8.4803296064
 20
-18.4484814103
 11
-8.2800595313
 21
-18.3483463728
  0
LINE
  5
351
100
AcDbEntity
  8
RACCORDO
100
AcDbLine
 62
7
  6
CONTINUOUS
 10
-8.5902603249
 20
-18.7089103733
 11
-8.3775190892
 21
-18.6025397555
  0
LINE
  5
352
100
AcDbEntity
  8
RACCORDO
100
AcDbLine
 62
253
  6
CONTINUOUS
 10
-8.7909559743
 20
-18.9430615267
 11
-8.5781376376
 21
-18.8366523584
  0
LINE
  5
353
100
AcDbEntity
  8
DRAFT
100
AcDbLine
 62
7
  6
CONTINUOUS
 10
7.9882512569
 20
-8.1537398377
 11
22.7779998819
 21
-0.9476198429
  0
LINE
  5
354
100
AcDbEntity
  8
RACCORDO
100
AcDbLine
 62
7
  6
CONTINUOUS
 10
-9.2426022063
 20
-15.1329171971
 11
-10.1339975351
 21
-15.5168208579
  0
LINE
  5
355
100
AcDbEntity
  8
DRAFT
100
AcDbLine
 62
7
  6
CONTINUOUS
 10
-13.7147364267
 20
19.1032336966
 11
-9.4720957396
 21
16.981913353
  0
LINE
  5
356
100
AcDbEntity
  8
RACCORDO
100
AcDbLine
 62
253
  6
CONTINUOUS
 10
-17.3791449917
 20
22.2225529938
 11
-15.6923792674
 21
21.3791701317
  0
LINE
  5
357
100
AcDbEntity
  8
RACCORDO
100
AcDbLine
 62
253
  6
CONTINUOUS
 10
-5.075486999
 20
16.0707239975
 11
-3.3887212748
 21
15.2273411354
  0
LINE
  5
358
100
AcDbEntity
  8
0
100
AcDbLine
 62
7
  6
CONTINUOUS
 10
-7.109458763
 20
17.2303320386
 11
-7.7688686373
 21
17.5600369758
  0
LINE
  5
359
100
AcDbEntity
  8
0
100
AcDbLine
 62
7
  6
CONTINUOUS
 10
-12.7309577604
 20
20.0410815373
 11
-13.3903676348
 21
20.3707864745
  0
LINE
  5
35A
100
AcDbEntity
  8
0
100
AcDbLine
 62
7
  6
CONTINUOUS
 10
14.9937988895
 20
6.2149545496
 11
13.8061912421
 21
6.8087583733
  0
LINE
  5
35B
100
AcDbEntity
  8
RACCORDO
100
AcDbLine
 62
253
  6
CONTINUOUS
 10
-17.2451432808
 20
22.4625397819
 11
-15.5583339419
 21
21.6191351125
  0
LINE
  5
35C
100
AcDbEntity
  8
RACCORDO
100
AcDbLine
 62
253
  6
CONTINUOUS
 10
-4.9414852881
 20
16.3107107856
 11
-3.2546759493
 21
15.4673061162
  0
LINE
  5
35D
100
AcDbEntity
  8
0
100
AcDbLine
 62
7
  6
CONTINUOUS
 10
14.2179502302
 20
7.027142948
 11
15.4180629582
 21
6.427086584
  0
LINE
  5
35E
100
AcDbEntity
  8
0
100
AcDbLine
 62
7
  6
CONTINUOUS
 10
-17.8831447152
 20
23.1262491589
 11
-16.2046066448
 21
22.2869801237
  0
LINE
  5
35F
100
AcDbEntity
  8
0
100
AcDbLine
 62
7
  6
CONTINUOUS
 10
-5.5794867225
 20
16.9744201625
 11
-3.9009486521
 21
16.1351511273
  0
LINE
  5
360
100
AcDbEntity
  8
0
100
AcDbLine
 62
253
  6
CONTINUOUS
 10
-17.9481180116
 20
23.261467609
 11
-16.2695799412
 21
22.4221985738
  0
LINE
  5
361
100
AcDbEntity
  8
0
100
AcDbLine
 62
253
  6
CONTINUOUS
 10
-5.644460019
 20
17.1096386126
 11
-3.9659219486
 21
16.2703695774
  0
LINE
  5
362
100
AcDbEntity
  8
0
100
AcDbLine
 62
7
  6
CONTINUOUS
 10
-0.5855630409
 20
14.6114105098
 11
-0.6040764631
 21
14.6206672209
  0
LINE
  5
363
100
AcDbEntity
  8
0
100
AcDbLine
 62
7
  6
CONTINUOUS
 10
-12.0176801519
 20
20.4369359824
 11
-10.3931911884
 21
19.6246915007
  0
LINE
  5
364
100
AcDbEntity
  8
0
100
AcDbLine
 62
7
  6
CONTINUOUS
 10
-8.692421647
 20
18.77430673
 11
-7.7688686373
 21
18.3125302252
  0
LINE
  5
365
100
AcDbEntity
  8
0
100
AcDbLine
 62
253
  6
CONTINUOUS
 10
-3.9659219486
 20
16.6103435116
 11
-5.644460019
 21
17.4496125468
  0
LINE
  5
366
100
AcDbEntity
  8
0
100
AcDbLine
 62
253
  6
CONTINUOUS
 10
-16.2695799412
 20
22.7621725079
 11
-17.9481180116
 21
23.6014415431
  0
LINE
  5
367
100
AcDbEntity
  8
RACCORDO
100
AcDbLine
 62
7
  6
CONTINUOUS
 10
-14.1743965014
 20
21.8915407819
 11
-13.3903676348
 21
21.4995263486
  0
LINE
  5
368
100
AcDbEntity
  8
RACCORDO
100
AcDbLine
 62
7
  6
CONTINUOUS
 10
-6.0426278508
 20
17.8256564566
 11
-5.690812252
 21
17.6497486572
  0
LINE
  5
369
100
AcDbEntity
  8
RACCORDO
100
AcDbLine
 62
7
  6
CONTINUOUS
 10
-1.8707385087
 20
15.7397117856
 11
-1.6582966828
 21
15.6334908726
  0
LINE
  5
36A
100
AcDbEntity
  8
0
100
AcDbLine
 62
7
  6
CONTINUOUS
 10
-8.7510002907
 20
19.1798426766
 11
-9.8963598083
 21
19.7525224354
  0
LINE
  5
36B
100
AcDbEntity
  8
0
100
AcDbLine
 62
253
  6
CONTINUOUS
 10
-3.7901736926
 20
16.9147203265
 11
-5.468711763
 21
17.7539893617
  0
LINE
  5
36C
100
AcDbEntity
  8
0
100
AcDbLine
 62
253
  6
CONTINUOUS
 10
-16.0938316852
 20
23.0665493229
 11
-17.7723697556
 21
23.9058183581
  0
LINE
  5
36D
100
AcDbEntity
  8
ASSI
100
AcDbLine
 62
7
  6
CONTINUOUS
 10
13.2613872756
 20
-0.3813053804
 11
13.1906765974
 21
-0.2434556387
  0
LINE
  5
36E
100
AcDbEntity
  8
0
100
AcDbLine
 62
7
  6
CONTINUOUS
 10
12.8724785459
 20
1.3541366385
 11
11.8825290522
 21
4.4471875967
  0
LINE
  5
36F
100
AcDbEntity
  8
0
100
AcDbLine
 62
7
  6
CONTINUOUS
 10
14.2866921083
 20
-3.6218684714
 11
14.2866921083
 21
-3.3081140838
  0
LINE
  5
370
100
AcDbEntity
  8
0
100
AcDbLine
 62
7
  6
CONTINUOUS
 10
14.9937988895
 20
-3.6473810162
 11
14.9937988895
 21
-2.9545606932
  0
LINE
  5
371
100
AcDbEntity
  8
0
100
AcDbLine
 62
7
  6
CONTINUOUS
 10
15.3827076191
 20
1.5453801951
 11
15.3827076191
 21
-2.0529995472
  0
LINE
  5
372
100
AcDbEntity
  8
0
100
AcDbLine
 62
7
  6
CONTINUOUS
 10
16.0898144003
 20
-2.4065529378
 11
16.0898144003
 21
2.0967791619
  0
LINE
  5
373
100
AcDbEntity
  8
0
100
AcDbLine
 62
7
  6
CONTINUOUS
 10
16.7262105034
 20
-2.0883548862
 11
16.7262105034
 21
2.4149772134
  0
LINE
  5
374
100
AcDbEntity
  8
ASSI
100
AcDbLine
 62
7
  6
CONTINUOUS
 10
15.4634777374
 20
1.7836108305
 11
15.0291542285
 21
0.502578096
  0
LINE
  5
375
100
AcDbEntity
  8
0
100
AcDbLine
 62
7
  6
CONTINUOUS
 10
-1.3050124169
 20
-22.6482690269
 11
-0.5855630409
 21
-21.8008869337
  0
LINE
  5
376
100
AcDbEntity
  8
0
100
AcDbLine
 62
7
  6
CONTINUOUS
 10
-0.6040764631
 20
14.6206672209
 11
-1.3050124169
 21
14.7640284166
  0
LINE
  5
377
100
AcDbEntity
  8
0
100
AcDbLine
 62
7
  6
CONTINUOUS
 10
-3.8402434824
 20
16.1140356928
 11
-3.2159440602
 21
15.9836813942
  0
LINE
  5
378
100
AcDbEntity
  8
0
100
AcDbLine
 62
253
  6
CONTINUOUS
 10
-3.6133999889
 20
16.2698568536
 11
-2.9021793808
 21
16.1213533307
  0
LINE
  5
379
100
AcDbEntity
  8
0
100
AcDbLine
 62
7
  6
CONTINUOUS
 10
-0.5855630409
 20
14.6114105098
 11
-1.3050124169
 21
14.7640284166
  0
LINE
  5
37A
100
AcDbEntity
  8
0
100
AcDbLine
 62
253
  6
CONTINUOUS
 10
-13.8535087743
 20
24.1393000431
 11
-13.8536932542
 21
24.1393920296
  0
LINE
  5
37B
100
AcDbEntity
  8
0
100
AcDbLine
 62
7
  6
CONTINUOUS
 10
-13.3903676348
 20
21.8169492403
 11
-12.7309577604
 21
21.4872443031
  0
LINE
  5
37C
100
AcDbEntity
  8
0
100
AcDbLine
 62
7
  6
CONTINUOUS
 10
-7.7688686373
 20
19.0061997415
 11
-7.109458763
 21
18.6764948044
  0
LINE
  5
37D
100
AcDbEntity
  8
0
100
AcDbLine
 62
7
  6
CONTINUOUS
 10
-14.3157771907
 20
22.6642995193
 11
-13.6127842364
 21
22.3128030422
  0
LINE
  5
37E
100
AcDbEntity
  8
0
100
AcDbLine
 62
7
  6
CONTINUOUS
 10
-2.0121191981
 20
16.512470523
 11
-0.9576253663
 21
15.9852236071
  0
LINE
  5
37F
100
AcDbEntity
  8
0
100
AcDbLine
 62
7
  6
CONTINUOUS
 10
-9.1954238545
 20
20.1046266998
 11
-8.7510002907
 21
19.8824149179
  0
LINE
  5
380
100
AcDbEntity
  8
0
100
AcDbLine
 62
253
  6
CONTINUOUS
 10
-7.2374225723
 20
19.2804215443
 11
-8.692421647
 21
20.0079210817
  0
LINE
  5
381
100
AcDbEntity
  8
0
100
AcDbLine
 62
253
  6
CONTINUOUS
 10
-10.3931911884
 20
20.8583058524
 11
-12.0176801519
 21
21.6705503341
  0
LINE
  5
382
100
AcDbEntity
  8
0
100
AcDbLine
 62
253
  6
CONTINUOUS
 10
-6.9285610642
 20
19.4397915446
 11
-8.5518230422
 21
20.2514225336
  0
LINE
  5
383
100
AcDbEntity
  8
0
100
AcDbLine
 62
253
  6
CONTINUOUS
 10
-10.2525925837
 20
21.1018073044
 11
-11.8758545616
 21
21.9134382934
  0
LINE
  5
384
100
AcDbEntity
  8
0
100
AcDbLine
 62
7
  6
CONTINUOUS
 10
-12.3358782034
 20
22.357922279
 11
-10.0377793696
 21
21.2088728621
  0
LINE
  5
385
100
AcDbEntity
  8
0
100
AcDbLine
 62
7
  6
CONTINUOUS
 10
-8.3407266846
 20
20.3603465196
 11
-6.0426278508
 21
19.2112971027
  0
LINE
  5
386
100
AcDbEntity
  8
0
100
AcDbLine
 62
7
  6
CONTINUOUS
 10
-2.1888929018
 20
17.71744233
 11
-3.8859551598
 21
18.5659734591
  0
LINE
  5
387
100
AcDbEntity
  8
0
100
AcDbLine
 62
7
  6
CONTINUOUS
 10
-14.4925508944
 20
23.8692713264
 11
-16.1896131525
 21
24.7178024554
  0
LINE
  5
388
100
AcDbEntity
  8
0
100
AcDbLine
 62
7
  6
CONTINUOUS
 10
-10.9570199801
 20
22.3705615601
 11
-9.3368434158
 21
21.5604732779
  0
LINE
  5
389
100
AcDbEntity
  8
0
100
AcDbLine
 62
7
  6
CONTINUOUS
 10
-7.6274490761
 20
20.7057761081
 11
-6.0072725118
 21
19.8956878259
  0
LINE
  5
38A
100
AcDbEntity
  8
0
100
AcDbLine
 62
253
  6
CONTINUOUS
 10
-15.6551632738
 20
24.978149922
 11
-13.9642837227
 21
24.1327101464
  0
LINE
  5
38B
100
AcDbEntity
  8
0
100
AcDbLine
 62
253
  6
CONTINUOUS
 10
-3.3515052812
 20
18.8263209256
 11
-1.66062573
 21
17.9808811501
  0
LINE
  5
38C
100
AcDbEntity
  8
0
100
AcDbLine
 62
7
  6
CONTINUOUS
 10
-15.5443883142
 20
24.9847398131
 11
-13.8535087631
 21
24.1393000375
  0
LINE
  5
38D
100
AcDbEntity
  8
0
100
AcDbLine
 62
7
  6
CONTINUOUS
 10
-3.2407303216
 20
18.8329108168
 11
-1.5498507705
 21
17.9874710412
  0
LINE
  5
38E
100
AcDbEntity
  8
0
100
AcDbLine
 62
7
  6
CONTINUOUS
 10
18.9535968641
 20
7.9827215026
 11
17.4433956371
 21
8.7378221161
  0
LINE
  5
38F
100
AcDbEntity
  8
ASSI
100
AcDbLine
 62
7
  6
CONTINUOUS
 10
16.7969211815
 20
1.3864615725
 11
16.7262105034
 21
1.5243113142
  0
LINE
  5
390
100
AcDbEntity
  8
0
100
AcDbLine
 62
7
  6
CONTINUOUS
 10
17.8222260142
 20
-2.2331674538
 11
17.8222260142
 21
-1.5403471308
  0
LINE
  5
391
100
AcDbEntity
  8
0
100
AcDbLine
 62
7
  6
CONTINUOUS
 10
18.5293327954
 20
-1.8796140632
 11
18.5293327954
 21
-1.1867937402
  0
LINE
  5
392
100
AcDbEntity
  8
0
100
AcDbLine
 62
7
  6
CONTINUOUS
 10
18.918241525
 20
3.3131471481
 11
18.918241525
 21
-0.2852325942
  0
LINE
  5
393
100
AcDbEntity
  8
0
100
AcDbLine
 62
7
  6
CONTINUOUS
 10
19.6253483062
 20
-0.6387859848
 11
19.6253483062
 21
3.8645461149
  0
LINE
  5
394
100
AcDbEntity
  8
0
100
AcDbLine
 62
7
  6
CONTINUOUS
 10
19.9435463578
 20
-1.1725072821
 11
19.9435463578
 21
4.8896705444
  0
LINE
  5
395
100
AcDbEntity
  8
ASSI
100
AcDbLine
 62
7
  6
CONTINUOUS
 10
18.9990116433
 20
3.5513777834
 11
18.5646881345
 21
2.270345049
  0
LINE
  5
396
100
AcDbEntity
  8
DRAFT
100
AcDbLine
 62
7
  6
CONTINUOUS
 10
22.7779998819
 20
-7.8612090343
 11
-0.5855630409
 21
-20.0005887393
  0
LINE
  5
397
100
AcDbEntity
  8
0
100
AcDbLine
 62
253
  6
CONTINUOUS
 10
-1.3050124169
 20
-22.9080913038
 11
-0.6040764631
 21
-22.5464141111
  0
LINE
  5
398
100
AcDbEntity
  8
0
100
AcDbLine
 62
7
  6
CONTINUOUS
 10
-1.4337115643
 20
-23.1778943255
 11
-0.7318868048
 21
-22.8157585164
  0
LINE
  5
399
100
AcDbEntity
  8
0
100
AcDbLine
 62
7
  6
CONTINUOUS
 10
3.6775160675
 20
-17.9946136572
 11
-0.5855630409
 21
-20.184722853
  0
LINE
  5
39A
100
AcDbEntity
  8
0
100
AcDbLine
 62
7
  6
CONTINUOUS
 10
4.6525713096
 20
-17.3624937132
 11
-0.5855630409
 21
-20.0412299309
  0
LINE
  5
39B
100
AcDbEntity
  8
0
100
AcDbLine
 62
7
  6
CONTINUOUS
 10
-16.1439014751
 20
22.2658646891
 11
-15.5196035892
 21
22.1355107113
  0
LINE
  5
39C
100
AcDbEntity
  8
0
100
AcDbLine
 62
253
  6
CONTINUOUS
 10
-15.9170579815
 20
22.4216858499
 11
-15.2058373734
 21
22.2731823271
  0
LINE
  5
39D
100
AcDbEntity
  8
DRAFT
100
AcDbLine
 62
7
  6
CONTINUOUS
 10
2.3571241559
 20
17.6613148717
 11
5.165014631
 21
16.2573696342
  0
LINE
  5
39E
100
AcDbEntity
  8
0
100
AcDbLine
 62
7
  6
CONTINUOUS
 10
-1.8164476818
 20
21.9252410869
 11
-4.479564208
 21
23.25679935
  0
LINE
  5
39F
100
AcDbEntity
  8
0
100
AcDbLine
 62
253
  6
CONTINUOUS
 10
-6.9996547974
 20
24.9573657445
 11
-6.3988973519
 21
24.6569870217
  0
LINE
  5
3A0
100
AcDbEntity
  8
0
100
AcDbLine
 62
253
  6
CONTINUOUS
 10
-1.3688932273
 20
22.1419849594
 11
-0.7681357817
 21
21.8416062366
  0
LINE
  5
3A1
100
AcDbEntity
  8
0
100
AcDbLine
 62
7
  6
CONTINUOUS
 10
-6.7151866158
 20
24.9390863954
 11
-6.2097971049
 21
24.6863916399
  0
LINE
  5
3A2
100
AcDbEntity
  8
0
100
AcDbLine
 62
7
  6
CONTINUOUS
 10
-1.1246664097
 20
22.1438262923
 11
-0.6095038183
 21
21.8862449967
  0
LINE
  5
3A3
100
AcDbEntity
  8
0
100
AcDbLine
 62
7
  6
CONTINUOUS
 10
-2.8931710978
 20
23.3505688083
 11
0.1388899986
 21
21.8345382601
  0
LINE
  5
3A4
100
AcDbEntity
  8
ASSI
100
AcDbLine
 62
7
  6
CONTINUOUS
 10
20.3678104265
 20
-1.2429992781
 11
20.3678104265
 21
-0.9603752477
  0
LINE
  5
3A5
100
AcDbEntity
  8
DRAFT
100
AcDbLine
 62
7
  6
CONTINUOUS
 10
22.7779998819
 20
21.5118137576
 11
22.7779998819
 21
11.5671356529
  0
LINE
  5
3A6
100
AcDbEntity
  8
DRAFT
100
AcDbLine
 62
7
  6
CONTINUOUS
 10
22.7779998819
 20
-0.9476198429
 11
22.7779998819
 21
-7.8612090343
  0
LINE
  5
3A7
100
AcDbEntity
  8
0
100
AcDbLine
 62
253
  6
CONTINUOUS
 10
-2.0121191981
 20
-24.5896866203
 11
-1.4838520263
 21
-24.3186755616
  0
LINE
  5
3A8
100
AcDbEntity
  8
0
100
AcDbLine
 62
7
  6
CONTINUOUS
 10
-2.0762223274
 20
-24.7244633805
 11
-1.5475400639
 21
-24.4532393719
  0
LINE
  5
3A9
100
AcDbEntity
  8
0
100
AcDbLine
 62
7
  6
CONTINUOUS
 10
-2.0762243011
 20
-24.724464393
 11
-2.0779607129
 21
-24.7253326133
  0
LINE
  5
3AA
100
AcDbEntity
  8
0
100
AcDbLine
 62
253
  6
CONTINUOUS
 10
-3.6133999889
 20
-25.3697212199
 11
-2.0121191981
 21
-24.5896866203
  0
LINE
  5
3AB
100
AcDbEntity
  8
0
100
AcDbLine
 62
7
  6
CONTINUOUS
 10
-3.6796615815
 20
-25.5055718461
 11
-2.0779634785
 21
-24.7253339605
  0
LINE
  5
3AC
100
AcDbEntity
  8
0
100
AcDbLine
 62
253
  6
CONTINUOUS
 10
-5.9568248064
 20
-24.8605203472
 11
-1.3050124169
 21
-22.9078784563
  0
LINE
  5
3AD
100
AcDbEntity
  8
0
100
AcDbLine
 62
7
  6
CONTINUOUS
 10
-6.1106320518
 20
-25.1417160456
 11
-1.4472800333
 21
-23.1842302871
  0
LINE
  5
3AE
100
AcDbEntity
  8
0
100
AcDbLine
 62
253
  6
CONTINUOUS
 10
-6.4914454211
 20
25.7769020076
 11
-3.5900291945
 21
24.3261938943
  0
LINE
  5
3AF
100
AcDbEntity
  8
0
100
AcDbLine
 62
253
  6
CONTINUOUS
 10
0.7760998409
 20
22.1431293766
 11
3.6775160675
 21
20.6924212633
  0
LINE
  5
3B0
100
AcDbEntity
  8
0
100
AcDbLine
 62
7
  6
CONTINUOUS
 10
-6.2024466902
 20
25.8803121257
 11
-3.1507909339
 21
24.3544842475
  0
LINE
  5
3B1
100
AcDbEntity
  8
0
100
AcDbLine
 62
7
  6
CONTINUOUS
 10
1.2230612568
 20
22.1675581522
 11
4.2747170131
 21
20.641730274
  0
LINE
  5
3B2
100
AcDbEntity
  8
0
100
AcDbLine
 62
7
  6
CONTINUOUS
 10
19.9435463578
 20
4.8896705444
 11
18.9535968641
 21
7.9827215026
  0
LINE
  5
3B3
100
AcDbEntity
  8
0
100
AcDbLine
 62
7
  6
CONTINUOUS
 10
-4.479564208
 20
23.25679935
 11
-2.8931710978
 21
23.3505688083
  0
LINE
  5
3B4
100
AcDbEntity
  8
DRAFT
100
AcDbLine
 62
7
  6
CONTINUOUS
 10
8.1762448504
 20
22.4907058257
 11
8.3559975505
 21
22.4008294757
  0
LINE
  5
3B5
100
AcDbEntity
  8
DRAFT
100
AcDbLine
 62
7
  6
CONTINUOUS
 10
7.4924406095
 20
29.1545933938
 11
10.3962560291
 21
27.702685684
  0
LINE
  5
3B6
100
AcDbEntity
  8
DRAFT
100
AcDbLine
 62
7
  6
CONTINUOUS
 10
19.8741844623
 20
22.9637214674
 11
22.7779998819
 21
21.5118137576
  0
ARC
  5
3B7
100
AcDbEntity
  8
RACCORDO
100
AcDbCircle
 62
253
  6
CONTINUOUS
 10
103.8466178559
 20
-0.3829776524
 40
112.1406251357
100
AcDbArc
 50
173.4986702928
 51
175.8934343335
  0
ARC
  5
3B8
100
AcDbEntity
  8
0
100
AcDbCircle
 62
253
  6
CONTINUOUS
 10
100.474420813
 20
-0.6794061872
 40
108.2131822672
100
AcDbArc
 50
173.2588053155
 51
175.4161840601
  0
ARC
  5
3B9
100
AcDbEntity
  8
0
100
AcDbCircle
 62
253
  6
CONTINUOUS
 10
101.0417918269
 20
-0.7317103432
 40
108.082488539
100
AcDbArc
 50
173.2598513519
 51
174.9548614749
  0
ARC
  5
3BA
100
AcDbEntity
  8
RACCORDO
100
AcDbCircle
 62
253
  6
CONTINUOUS
 10
99.253049815
 20
-0.2199436614
 40
107.8257254717
100
AcDbArc
 50
173.2566251049
 51
175.7749554887
  0
ARC
  5
3BB
100
AcDbEntity
  8
RACCORDO
100
AcDbCircle
 62
253
  6
CONTINUOUS
 10
99.2711617265
 20
-0.2197800895
 40
107.7036365841
100
AcDbArc
 50
173.2564904467
 51
175.7748723638
  0
ARC
  5
3BC
100
AcDbEntity
  8
RACCORDO
100
AcDbCircle
 62
253
  6
CONTINUOUS
 10
84.2007224602
 20
-12.7630677296
 40
93.3317196695
100
AcDbArc
 50
180.8874078523
 51
181.3687952985
  0
ARC
  5
3BD
100
AcDbEntity
  8
0
100
AcDbCircle
 62
253
  6
CONTINUOUS
 10
82.9714602647
 20
-13.4764781971
 40
90.6857357572
100
AcDbArc
 50
180.9101916769
 51
181.9473938527
  0
ARC
  5
3BE
100
AcDbEntity
  8
RACCORDO
100
AcDbCircle
 62
253
  6
CONTINUOUS
 10
81.4282592385
 20
-12.8426246744
 40
90.558137959
100
AcDbArc
 50
181.405665617
 51
182.913182252
  0
ARC
  5
3BF
100
AcDbEntity
  8
RACCORDO
100
AcDbCircle
 62
253
  6
CONTINUOUS
 10
69.269213629
 20
-6.7735460587
 40
90.4322208718
100
AcDbArc
 50
180.8990624942
 51
182.9514870628
  0
ARC
  5
3C0
100
AcDbEntity
  8
RACCORDO
100
AcDbCircle
 62
253
  6
CONTINUOUS
 10
69.9220397456
 20
-6.7647207468
 40
90.3811431146
100
AcDbArc
 50
180.9009452306
 51
182.4845933016
  0
ARC
  5
3C1
100
AcDbEntity
  8
RACCORDO
100
AcDbCircle
 62
7
  6
CONTINUOUS
 10
68.2146250941
 20
-6.5725509256
 40
89.8663701754
100
AcDbArc
 50
180.8768741976
 51
183.2910355166
  0
ARC
  5
3C2
100
AcDbEntity
  8
RACCORDO
100
AcDbCircle
 62
7
  6
CONTINUOUS
 10
81.4375219017
 20
-13.1839993297
 40
89.8663701748
100
AcDbArc
 50
180.8768741976
 51
183.2910355146
  0
ARC
  5
3C3
100
AcDbEntity
  8
RACCORDO
100
AcDbCircle
 62
7
  6
CONTINUOUS
 10
81.0348739097
 20
-13.0843919447
 40
89.675777757
100
AcDbArc
 50
180.8746109663
 51
183.4292789894
  0
ARC
  5
3C4
100
AcDbEntity
  8
RACCORDO
100
AcDbCircle
 62
7
  6
CONTINUOUS
 10
67.8119770979
 20
-6.4729435408
 40
89.6757777534
100
AcDbArc
 50
180.8746109663
 51
183.4292789894
  0
ARC
  5
3C5
100
AcDbEntity
  8
RACCORDO
100
AcDbCircle
 62
7
  6
CONTINUOUS
 10
78.8915766984
 20
-13.3205582464
 40
87.3167847187
100
AcDbArc
 50
183.29748151
 51
183.4365141689
  0
ARC
  5
3C6
100
AcDbEntity
  8
RACCORDO
100
AcDbCircle
 62
7
  6
CONTINUOUS
 10
65.6686798589
 20
-6.7091098442
 40
87.3167846874
100
AcDbArc
 50
183.297481512
 51
183.436514169
  0
ARC
  5
3C7
100
AcDbEntity
  8
RACCORDO
100
AcDbCircle
 62
7
  6
CONTINUOUS
 10
-9.4878041689
 20
-14.5607179183
 40
0.4274312769
100
AcDbArc
 50
58.3187585974
 51
63.3648806976
  0
ARC
  5
3C8
100
AcDbEntity
  8
0
100
AcDbCircle
 62
253
  6
CONTINUOUS
 10
-21.4660239326
 20
-17.3540526961
 40
0.3692272598
100
AcDbArc
 50
239.9543987233
 51
243.4333453919
  0
ARC
  5
3C9
100
AcDbEntity
  8
0
100
AcDbCircle
 62
253
  6
CONTINUOUS
 10
-1.7465243594
 20
-23.8571441021
 40
0.2830811092
100
AcDbArc
 50
7.4211822063
 51
12.0402744179
  0
ARC
  5
3CA
100
AcDbEntity
  8
0
100
AcDbCircle
 62
7
  6
CONTINUOUS
 10
-1.6625122612
 20
-23.8844714543
 40
0.2514565689
100
AcDbArc
 50
51.9097890452
 51
63.4108362127
  0
ARC
  5
3CB
100
AcDbEntity
  8
0
100
AcDbCircle
 62
7
  6
CONTINUOUS
 10
-1.661885942
 20
-24.2308857779
 40
0.2501988556
100
AcDbArc
 50
344.5341514771
 51
359.9881924891
  0
ARC
  5
3CC
100
AcDbEntity
  8
0
100
AcDbCircle
 62
7
  6
CONTINUOUS
 10
-3.7891364648
 20
-25.2808608581
 40
0.2499595531
100
AcDbArc
 50
243.3880234853
 51
295.9744556518
  0
ARC
  5
3CD
100
AcDbEntity
  8
0
100
AcDbCircle
 62
7
  6
CONTINUOUS
 10
-1.6615466011
 20
-24.2308439865
 40
0.2498829809
100
AcDbArc
 50
297.0965504174
 51
344.5041676115
  0
ARC
  5
3CE
100
AcDbEntity
  8
0
100
AcDbCircle
 62
7
  6
CONTINUOUS
 10
-1.5205952457
 20
-23.0095281195
 40
0.189462091
100
AcDbArc
 50
292.7717188963
 51
297.2921248775
  0
ARC
  5
3CF
100
AcDbEntity
  8
RACCORDO
100
AcDbCircle
 62
7
  6
CONTINUOUS
 10
-8.4512340614
 20
-18.455041425
 40
0.1648834275
100
AcDbArc
 50
296.6183189396
 51
301.4575227762
  0
ARC
  5
3D0
100
AcDbEntity
  8
0
100
AcDbCircle
 62
253
  6
CONTINUOUS
 10
-1.6450890241
 20
-23.795546163
 40
0.1608900976
100
AcDbArc
 50
60.1189448307
 51
63.4863134447
  0
ARC
  5
3D1
100
AcDbEntity
  8
ASSI
100
AcDbCircle
 62
7
  6
CONTINUOUS
 10
16.1790561901
 20
6.8523838168
 40
1.7774754484
100
AcDbArc
 50
63.4446609324
 51
65.083837365
  0
ARC
  5
3D2
100
AcDbEntity
  8
RACCORDO
100
AcDbCircle
 62
253
  6
CONTINUOUS
 10
-6.1777443851
 20
12.1499171061
 40
1.4048565774
100
AcDbArc
 50
167.4706886307
 51
170.9298897467
  0
ARC
  5
3D3
100
AcDbEntity
  8
RACCORDO
100
AcDbCircle
 62
253
  6
CONTINUOUS
 10
-6.2734176349
 20
12.1653582017
 40
1.3079454396
100
AcDbArc
 50
170.9371532446
 51
173.4618401443
  0
ARC
  5
3D4
100
AcDbEntity
  8
0
100
AcDbCircle
 62
7
  6
CONTINUOUS
 10
14.0068647456
 20
0.1931845957
 40
1.1536305934
100
AcDbArc
 50
15.5760345452
 51
20.3028287791
  0
ARC
  5
3D5
100
AcDbEntity
  8
0
100
AcDbCircle
 62
7
  6
CONTINUOUS
 10
17.5423986516
 20
1.9609515487
 40
1.1536305934
100
AcDbArc
 50
15.5760345452
 51
20.3028287791
  0
ARC
  5
3D6
100
AcDbEntity
  8
RACCORDO
100
AcDbCircle
 62
253
  6
CONTINUOUS
 10
-6.5521489912
 20
12.2928247031
 40
1.1431450127
100
AcDbArc
 50
170.2020722698
 51
173.2438467961
  0
ARC
  5
3D7
100
AcDbEntity
  8
0
100
AcDbCircle
 62
7
  6
CONTINUOUS
 10
14.0828055874
 20
0.2210218543
 40
1.07274882
100
AcDbArc
 50
20.3157712504
 51
22.5386324697
  0
ARC
  5
3D8
100
AcDbEntity
  8
0
100
AcDbCircle
 62
7
  6
CONTINUOUS
 10
17.6183394933
 20
1.9887888072
 40
1.07274882
100
AcDbArc
 50
20.3157712504
 51
22.5386324697
  0
ARC
  5
3D9
100
AcDbEntity
  8
RACCORDO
100
AcDbCircle
 62
7
  6
CONTINUOUS
 10
-20.828810146
 20
9.1400860349
 40
0.8047959448
100
AcDbArc
 50
174.6085853167
 51
178.8906512384
  0
ARC
  5
3DA
100
AcDbEntity
  8
RACCORDO
100
AcDbCircle
 62
253
  6
CONTINUOUS
 10
-8.7587323069
 20
7.6361527546
 40
0.7499243282
100
AcDbArc
 50
351.7713881537
 51
355.9795496008
  0
ARC
  5
3DB
100
AcDbEntity
  8
RACCORDO
100
AcDbCircle
 62
253
  6
CONTINUOUS
 10
-8.4567045804
 20
7.7695296841
 40
0.2940815792
100
AcDbArc
 50
243.4266522569
 51
245.6004315908
  0
ARC
  5
3DC
100
AcDbEntity
  8
RACCORDO
100
AcDbCircle
 62
253
  6
CONTINUOUS
 10
-8.4649246131
 20
7.7510496921
 40
0.2738564595
100
AcDbArc
 50
245.5694328281
 51
250.3865351722
  0
ARC
  5
3DD
100
AcDbEntity
  8
RACCORDO
100
AcDbCircle
 62
253
  6
CONTINUOUS
 10
-8.2922749217
 20
7.2225406682
 40
0.2380349535
100
AcDbArc
 50
128.2114084812
 51
132.894153541
  0
ARC
  5
3DE
100
AcDbEntity
  8
RACCORDO
100
AcDbCircle
 62
253
  6
CONTINUOUS
 10
-8.4807625053
 20
7.6526671702
 40
0.1728871245
100
AcDbArc
 50
282.2593059171
 51
295.8655707955
  0
ARC
  5
3DF
100
AcDbEntity
  8
RACCORDO
100
AcDbCircle
 62
253
  6
CONTINUOUS
 10
-19.4077363437
 20
18.8163231668
 40
1.6571829568
100
AcDbArc
 50
153.8250281888
 51
156.6537960561
  0
ARC
  5
3E0
100
AcDbEntity
  8
RACCORDO
100
AcDbCircle
 62
253
  6
CONTINUOUS
 10
-19.4686777163
 20
18.8183239236
 40
1.6018049476
100
AcDbArc
 50
148.2037572803
 51
152.9276595602
  0
ARC
  5
3E1
100
AcDbEntity
  8
RACCORDO
100
AcDbCircle
 62
253
  6
CONTINUOUS
 10
-19.6371007501
 20
18.8838609696
 40
1.417676814
100
AcDbArc
 50
167.4175202958
 51
169.9311582979
  0
ARC
  5
3E2
100
AcDbEntity
  8
RACCORDO
100
AcDbCircle
 62
253
  6
CONTINUOUS
 10
-19.7332531535
 20
18.9003687301
 40
1.3201193554
100
AcDbArc
 50
169.9069861659
 51
173.479671939
  0
ARC
  5
3E3
100
AcDbEntity
  8
RACCORDO
100
AcDbCircle
 62
253
  6
CONTINUOUS
 10
-6.4635559759
 20
12.5989204698
 40
0.9095543241
100
AcDbArc
 50
120.1147451686
 51
124.7504414596
  0
ARC
  5
3E4
100
AcDbEntity
  8
RACCORDO
100
AcDbCircle
 62
253
  6
CONTINUOUS
 10
-19.9465083537
 20
19.3284213456
 40
0.8960380487
100
AcDbArc
 50
118.7155766627
 51
120.2077945428
  0
ARC
  5
3E5
100
AcDbEntity
  8
0
100
AcDbCircle
 62
253
  6
CONTINUOUS
 10
-8.379423953
 20
19.9919844616
 40
0.3146669839
100
AcDbArc
 50
155.4397174882
 51
164.8178757269
  0
ARC
  5
3E6
100
AcDbEntity
  8
0
100
AcDbCircle
 62
7
  6
CONTINUOUS
 10
-1.6638263653
 20
17.4181676324
 40
0.2528164671
100
AcDbArc
 50
320.5966796396
 51
322.3864165157
  0
ARC
  5
3E7
100
AcDbEntity
  8
0
100
AcDbCircle
 62
7
  6
CONTINUOUS
 10
-3.3530340328
 20
18.6083068104
 40
0.2511076924
100
AcDbArc
 50
63.3938371272
 51
65.5614104976
  0
ARC
  5
3E8
100
AcDbEntity
  8
0
100
AcDbCircle
 62
7
  6
CONTINUOUS
 10
-15.655698534
 20
24.7601328492
 40
0.2511070237
100
AcDbArc
 50
114.0214681682
 51
116.0150406509
  0
ARC
  5
3E9
100
AcDbEntity
  8
0
100
AcDbCircle
 62
7
  6
CONTINUOUS
 10
-3.7887983111
 20
16.3597547257
 40
0.2510467064
100
AcDbArc
 50
243.4638390089
 51
258.1750254128
  0
ARC
  5
3EA
100
AcDbEntity
  8
0
100
AcDbCircle
 62
7
  6
CONTINUOUS
 10
-15.6559851192
 20
24.7604604845
 40
0.250691134
100
AcDbArc
 50
99.4431458383
 51
113.9921241267
  0
ARC
  5
3EB
100
AcDbEntity
  8
0
100
AcDbCircle
 62
7
  6
CONTINUOUS
 10
-3.3527439067
 20
18.6086377559
 40
0.2506863999
100
AcDbArc
 50
65.5904860463
 51
80.0867799204
  0
ARC
  5
3EC
100
AcDbEntity
  8
0
100
AcDbCircle
 62
7
  6
CONTINUOUS
 10
-15.656207522
 20
24.760961178
 40
0.2501607737
100
AcDbArc
 50
63.4493112243
 51
99.4117127847
  0
ARC
  5
3ED
100
AcDbEntity
  8
0
100
AcDbCircle
 62
7
  6
CONTINUOUS
 10
-3.3525195945
 20
18.6091333344
 40
0.2501596406
100
AcDbArc
 50
80.1178478781
 51
115.9579685268
  0
ARC
  5
3EE
100
AcDbEntity
  8
0
100
AcDbCircle
 62
7
  6
CONTINUOUS
 10
-13.9653433099
 20
23.5681835091
 40
0.2500529403
100
AcDbArc
 50
320.5991320924
 51
328.846228407
  0
ARC
  5
3EF
100
AcDbEntity
  8
0
100
AcDbCircle
 62
7
  6
CONTINUOUS
 10
-1.6616751203
 20
17.7638547486
 40
0.2500178625
100
AcDbArc
 50
0.0078515286
 51
63.4316275385
  0
ARC
  5
3F0
100
AcDbEntity
  8
0
100
AcDbCircle
 62
7
  6
CONTINUOUS
 10
-5.4676646833
 20
17.5379934824
 40
0.2500151037
100
AcDbArc
 50
117.1617076756
 51
179.9944821188
  0
ARC
  5
3F1
100
AcDbEntity
  8
0
100
AcDbCircle
 62
7
  6
CONTINUOUS
 10
-16.0927865874
 20
22.5105684708
 40
0.249977951
100
AcDbArc
 50
243.4290122564
 51
258.2010452672
  0
ARC
  5
3F2
100
AcDbEntity
  8
0
100
AcDbCircle
 62
7
  6
CONTINUOUS
 10
-5.4677639009
 20
17.1979410722
 40
0.2498866409
100
AcDbArc
 50
187.206109458
 51
243.4713279222
  0
ARC
  5
3F3
100
AcDbEntity
  8
0
100
AcDbCircle
 62
7
  6
CONTINUOUS
 10
-17.7714218935
 20
23.3497700685
 40
0.2498866409
100
AcDbArc
 50
187.206109458
 51
243.4713279222
  0
ARC
  5
3F4
100
AcDbEntity
  8
0
100
AcDbCircle
 62
7
  6
CONTINUOUS
 10
-13.9651287133
 20
23.9158082878
 40
0.2497830963
100
AcDbArc
 50
0.0058275177
 51
63.5080917514
  0
ARC
  5
3F5
100
AcDbEntity
  8
0
100
AcDbCircle
 62
7
  6
CONTINUOUS
 10
-17.7715260475
 20
23.6899445112
 40
0.2497823472
100
AcDbArc
 50
117.0884793292
 51
179.9954607481
  0
ARC
  5
3F6
100
AcDbEntity
  8
0
100
AcDbCircle
 62
7
  6
CONTINUOUS
 10
-5.4681415722
 20
17.1980220196
 40
0.2495447277
100
AcDbArc
 50
179.9925713995
 51
187.186461319
  0
ARC
  5
3F7
100
AcDbEntity
  8
0
100
AcDbCircle
 62
7
  6
CONTINUOUS
 10
-17.7717995649
 20
23.3498510159
 40
0.2495447277
100
AcDbArc
 50
179.9925713995
 51
187.186461319
  0
ARC
  5
3F8
100
AcDbEntity
  8
0
100
AcDbCircle
 62
7
  6
CONTINUOUS
 10
-1.6610730943
 20
17.4161346585
 40
0.2493946962
100
AcDbArc
 50
322.3703342886
 51
0.0725358283
  0
ARC
  5
3F9
100
AcDbEntity
  8
0
100
AcDbCircle
 62
253
  6
CONTINUOUS
 10
-17.6771552309
 20
23.7181938695
 40
0.2104014127
100
AcDbArc
 50
116.9066028643
 51
119.4958829237
  0
ARC
  5
3FA
100
AcDbEntity
  8
0
100
AcDbCircle
 62
253
  6
CONTINUOUS
 10
-5.3735025414
 20
17.5663748853
 40
0.2103900845
100
AcDbArc
 50
116.9065488737
 51
119.4916305375
  0
ARC
  5
3FB
100
AcDbEntity
  8
0
100
AcDbCircle
 62
7
  6
CONTINUOUS
 10
-8.5509738636
 20
20.0786158937
 40
0.2000264278
100
AcDbArc
 50
117.3009020161
 51
179.9954553107
  0
ARC
  5
3FC
100
AcDbEntity
  8
0
100
AcDbCircle
 62
253
  6
CONTINUOUS
 10
-8.4753947395
 20
20.1008393451
 40
0.168868535
100
AcDbArc
 50
116.9100126536
 51
119.7528174079
  0
ARC
  5
3FD
100
AcDbEntity
  8
0
100
AcDbCircle
 62
253
  6
CONTINUOUS
 10
-15.5865333816
 20
24.9004057814
 40
0.0942783586
100
AcDbArc
 50
63.4468793612
 51
70.027007792
  0
ARC
  5
3FE
100
AcDbEntity
  8
0
100
AcDbCircle
 62
253
  6
CONTINUOUS
 10
-17.8410680967
 20
23.2103813848
 40
0.0940674361
100
AcDbArc
 50
238.1057996918
 51
243.4300963099
  0
ARC
  5
3FF
100
AcDbEntity
  8
0
100
AcDbCircle
 62
253
  6
CONTINUOUS
 10
-5.537410104
 20
17.0585523885
 40
0.0940674362
100
AcDbArc
 50
238.1057996921
 51
243.4300963096
  0
ARC
  5
400
100
AcDbEntity
  8
0
100
AcDbCircle
 62
253
  6
CONTINUOUS
 10
-3.4208423388
 20
18.7494874446
 40
0.0940592748
100
AcDbArc
 50
109.4786603836
 51
115.960772569
  0
ARC
  5
401
100
AcDbEntity
  8
0
100
AcDbCircle
 62
253
  6
CONTINUOUS
 10
-13.7782814303
 20
23.5681773177
 40
0.0629690123
100
AcDbArc
 50
352.5179519722
 51
359.9858103333
  0
ARC
  5
402
100
AcDbEntity
  8
0
100
AcDbCircle
 62
253
  6
CONTINUOUS
 10
-17.9585159934
 20
23.3498644372
 40
0.0628250654
100
AcDbArc
 50
180.0077273449
 51
185.9637001144
  0
ARC
  5
403
100
AcDbEntity
  8
0
100
AcDbCircle
 62
253
  6
CONTINUOUS
 10
-5.6548580008
 20
17.1980354409
 40
0.0628250654
100
AcDbArc
 50
180.0077273448
 51
185.9637001145
  0
ARC
  5
404
100
AcDbEntity
  8
RACCORDO
100
AcDbCircle
 62
253
  6
CONTINUOUS
 10
89.2458818182
 20
6.458077446
 40
111.0072310388
100
AcDbArc
 50
173.4865851471
 51
175.9193965135
  0
ARC
  5
405
100
AcDbEntity
  8
RACCORDO
100
AcDbCircle
 62
253
  6
CONTINUOUS
 10
84.7232750478
 20
6.6178215247
 40
106.763297112
100
AcDbArc
 50
173.2442085275
 51
175.7906951183
  0
ARC
  5
406
100
AcDbEntity
  8
0
100
AcDbCircle
 62
253
  6
CONTINUOUS
 10
94.3473259013
 20
-0.155537568
 40
101.3632909423
100
AcDbArc
 50
174.9465102295
 51
179.0493917099
  0
ARC
  5
407
100
AcDbEntity
  8
0
100
AcDbCircle
 62
253
  6
CONTINUOUS
 10
93.3865980179
 20
-0.1159433374
 40
101.1029512974
100
AcDbArc
 50
175.5211898356
 51
179.0629705344
  0
ARC
  5
408
100
AcDbEntity
  8
RACCORDO
100
AcDbCircle
 62
7
  6
CONTINUOUS
 10
76.139693974
 20
7.1036864385
 40
98.004665109
100
AcDbArc
 50
178.8623174405
 51
179.1177577389
  0
ARC
  5
409
100
AcDbEntity
  8
RACCORDO
100
AcDbCircle
 62
7
  6
CONTINUOUS
 10
89.3625907814
 20
0.4922380344
 40
98.0046651081
100
AcDbArc
 50
178.8623174405
 51
179.1177577389
  0
ARC
  5
40A
100
AcDbEntity
  8
RACCORDO
100
AcDbCircle
 62
7
  6
CONTINUOUS
 10
89.4666435495
 20
0.3879701558
 40
97.8965709678
100
AcDbArc
 50
178.947416499
 51
179.1178360379
  0
ARC
  5
40B
100
AcDbEntity
  8
RACCORDO
100
AcDbCircle
 62
7
  6
CONTINUOUS
 10
76.2437464756
 20
6.9994185643
 40
97.8965707021
100
AcDbArc
 50
178.9474167058
 51
179.1178360381
  0
ARC
  5
40C
100
AcDbEntity
  8
RACCORDO
100
AcDbCircle
 62
7
  6
CONTINUOUS
 10
76.0847077168
 20
7.2086755615
 40
97.7375574148
100
AcDbArc
 50
178.9017746161
 51
179.0313298588
  0
ARC
  5
40D
100
AcDbEntity
  8
0
100
AcDbCircle
 62
7
  6
CONTINUOUS
 10
519.9574545471
 20
-6.3324919187
 40
528.4398340699
100
AcDbArc
 50
179.1078822106
 51
180.8685090045
  0
ARC
  5
40E
100
AcDbEntity
  8
0
100
AcDbCircle
 62
7
  6
CONTINUOUS
 10
519.5534775914
 20
-6.2259839398
 40
528.248005528
100
AcDbArc
 50
179.1076061624
 51
180.8923938376
  0
ARC
  5
40F
100
AcDbEntity
  8
RACCORDO
100
AcDbCircle
 62
253
  6
CONTINUOUS
 10
518.5937961313
 20
-6.0363057226
 40
527.7768736075
100
AcDbArc
 50
179.9778719905
 51
180.8872191995
  0
ARC
  5
410
100
AcDbEntity
  8
0
100
AcDbCircle
 62
253
  6
CONTINUOUS
 10
515.4356193218
 20
-6.6897955018
 40
523.2031420078
100
AcDbArc
 50
179.0990007583
 51
180.9009992417
  0
ARC
  5
411
100
AcDbEntity
  8
0
100
AcDbCircle
 62
253
  6
CONTINUOUS
 10
515.6042976159
 20
-6.6928856677
 40
522.6709379715
100
AcDbArc
 50
179.098985241
 51
180.901014759
  0
ARC
  5
412
100
AcDbEntity
  8
0
100
AcDbCircle
 62
253
  6
CONTINUOUS
 10
514.9524243554
 20
0.7432100092
 40
537.5842273239
100
AcDbArc
 50
179.1231055813
 51
180.8768944187
  0
ARC
  5
413
100
AcDbEntity
  8
0
100
AcDbCircle
 62
7
  6
CONTINUOUS
 10
506.7345577389
 20
0.2789564854
 40
528.4398340698
100
AcDbArc
 50
179.1078822106
 51
180.8685090045
  0
ARC
  5
414
100
AcDbEntity
  8
0
100
AcDbCircle
 62
7
  6
CONTINUOUS
 10
506.3305807832
 20
0.3854644643
 40
528.248005528
100
AcDbArc
 50
179.1076061624
 51
180.8923938376
  0
ARC
  5
415
100
AcDbEntity
  8
RACCORDO
100
AcDbCircle
 62
253
  6
CONTINUOUS
 10
499.6267381784
 20
-0.0034492868
 40
520.8429933892
100
AcDbArc
 50
179.9793666253
 51
180.9008822099
  0
ARC
  5
416
100
AcDbEntity
  8
RACCORDO
100
AcDbCircle
 62
253
  6
CONTINUOUS
 10
499.8005828833
 20
-0.0050272223
 40
520.3128299053
100
AcDbArc
 50
179.9793683441
 51
180.9008932732
  0
SPLINE
  5
417
100
AcDbEntity
  8
RACCORDO
100
AcDbSpline
 62
253
  6
CONTINUOUS
 70
0
 71
3
 72
11
 73
7
 74
5
 42
0.0000001
 43
0.0000001
 44
0.0000000001
 12
-0.3586335921
 22
-0.217744845
 32
0.0
 13
0.0000000033
 23
-0.4195603305
 33
0.0
 40
0.0
 40
0.0
 40
0.0
 40
0.0
 40
0.2345987475
 40
0.4936433664
 40
0.7561526099
 40
1.0
 40
1.0
 40
1.0
 40
1.0
 10
-10.2995248345
 20
-14.8717561212
 30
0.0
 10
-10.3275698317
 20
-14.8887836772
 30
0.0
 10
-10.3802998199
 20
-14.9350673773
 30
0.0
 10
-10.4412720932
 20
-15.0224759823
 30
0.0
 10
-10.4819344353
 20
-15.1223842173
 30
0.0
 10
-10.4931683441
 20
-15.1932939534
 30
0.0
 10
-10.4931683439
 20
-15.2273968506
 30
0.0
 11
-10.2995248345
 21
-14.8717561212
 31
0.0
 11
-10.3747693925
 21
-14.9352099805
 31
0.0
 11
-10.4374533176
 21
-15.0239969235
 31
0.0
 11
-10.4787152014
 21
-15.1261142013
 31
0.0
 11
-10.4931683439
 21
-15.2273968506
 31
0.0
  0
SPLINE
  5
418
100
AcDbEntity
  8
RACCORDO
100
AcDbSpline
 62
253
  6
CONTINUOUS
 70
0
 71
3
 72
11
 73
7
 74
5
 42
0.0000001
 43
0.0000001
 44
0.0000000001
 12
-0.1684337701
 22
0.0847613059
 32
0.0
 13
-0.0000000015
 23
0.188558781
 33
0.0
 40
0.0
 40
0.0
 40
0.0
 40
0.0
 40
0.2170835201
 40
0.4506974028
 40
0.7115247267
 40
1.0
 40
1.0
 40
1.0
 40
1.0
 10
-20.111353906
 20
-10.6587374524
 30
0.0
 10
-20.1235419713
 20
-10.6526040249
 30
0.0
 10
-20.1466161765
 20
-10.6349646245
 30
0.0
 10
-20.1712947309
 20
-10.5968431865
 30
0.0
 10
-20.1859363548
 20
-10.5493761781
 30
0.0
 10
-20.1889957029
 20
-10.5147377866
 30
0.0
 10
-20.188995703
 20
-10.4966062713
 30
0.0
 11
-20.111353906
 21
-10.6587374524
 31
0.0
 11
-20.1440433047
 21
-10.6341018273
 31
0.0
 11
-20.1685867246
 21
-10.5975228915
 31
0.0
 11
-20.1837929229
 21
-10.5507514252
 31
0.0
 11
-20.188995703
 21
-10.4966062713
 31
0.0
  0
SPLINE
  5
419
100
AcDbEntity
  8
RACCORDO
100
AcDbSpline
 62
253
  6
CONTINUOUS
 70
0
 71
3
 72
11
 73
7
 74
5
 42
0.0000001
 43
0.0000001
 44
0.0000000001
 12
-0.35863359
 22
-0.2177448475
 32
0.0
 13
0.0
 23
-0.41956033
 33
0.0
 40
0.0
 40
0.0
 40
0.0
 40
0.0
 40
0.2345987474
 40
0.4936433667
 40
0.7561526103
 40
1.0
 40
1.0
 40
1.0
 40
1.0
 10
-19.9953521937
 20
-10.0238424417
 30
0.0
 10
-20.0233971907
 20
-10.0408699978
 30
0.0
 10
-20.0761271786
 20
-10.0871536982
 30
0.0
 10
-20.1370994516
 20
-10.1745623033
 30
0.0
 10
-20.1777617938
 20
-10.274470538
 30
0.0
 10
-20.188995703
 20
-10.3453802739
 30
0.0
 10
-20.188995703
 20
-10.379483171
 30
0.0
 11
-19.9953521937
 21
-10.0238424417
 31
0.0
 11
-20.0705967511
 21
-10.0872963013
 31
0.0
 11
-20.1332806761
 21
-10.1760832445
 31
0.0
 11
-20.17454256
 21
-10.2782005221
 31
0.0
 11
-20.188995703
 21
-10.379483171
 31
0.0
  0
SPLINE
  5
41A
100
AcDbEntity
  8
RACCORDO
100
AcDbSpline
 62
253
  6
CONTINUOUS
 70
0
 71
3
 72
13
 73
9
 74
7
 42
0.0000001
 43
0.0000001
 44
0.0000000001
 12
0.71819087
 22
-0.3162768994
 32
0.0
 13
-0.7208096357
 23
-0.3102622632
 33
0.0
 40
0.0
 40
0.0
 40
0.0
 40
0.0
 40
0.2633012059
 40
0.5499513615
 40
0.6834476688
 40
0.8021591693
 40
0.9055798481
 40
1.0
 40
1.0
 40
1.0
 40
1.0
 10
-10.2995227855
 20
-14.8717570236
 30
0.0
 10
-10.2364892781
 20
-14.89951572
 30
0.0
 10
-10.1238985144
 20
-14.9991524932
 30
0.0
 10
-10.0417384962
 20
-15.1627993094
 30
0.0
 10
-10.0204727288
 20
-15.3033681511
 30
0.0
 10
-10.0308241168
 20
-15.3971655076
 30
0.0
 10
-10.0677861765
 20
-15.4736733594
 30
0.0
 10
-10.1106391729
 20
-15.5067643325
 30
0.0
 10
-10.1333254914
 20
-15.5165293359
 30
0.0
 11
-10.2995227855
 21
-14.8717570236
 31
0.0
 11
-10.1393327138
 21
-15.0022677718
 31
0.0
 11
-10.0391194905
 21
-15.2036603133
 31
0.0
 11
-10.0247346093
 21
-15.3074289504
 31
0.0
 11
-10.0368303007
 21
-15.3997989576
 31
0.0
 11
-10.0742346949
 21
-15.4718247859
 31
0.0
 11
-10.1333254914
 21
-15.5165293359
 31
0.0
  0
SPLINE
  5
41B
100
AcDbEntity
  8
RACCORDO
100
AcDbSpline
 62
253
  6
CONTINUOUS
 70
0
 71
3
 72
9
 73
5
 74
3
 42
0.0000001
 43
0.0000001
 44
0.0000000001
 12
0.1455090885
 22
0.0825213245
 32
0.0
 13
0.1455433123
 23
-0.0824609489
 33
0.0
 40
0.0
 40
0.0
 40
0.0
 40
0.0
 40
0.4587604525
 40
1.0
 40
1.0
 40
1.0
 40
1.0
 10
-20.1564269012
 20
-10.0111727365
 30
0.0
 10
-20.1341756295
 20
-9.9985535631
 30
0.0
 10
-20.0754408415
 20
-9.9878519956
 30
0.0
 10
-20.0216101258
 20
-10.0089653994
 30
0.0
 10
-19.9953521937
 20
-10.0238424417
 30
0.0
 11
-20.1564269012
 21
-10.0111727365
 31
0.0
 11
-20.0813173504
 21
-9.9954304668
 31
0.0
 11
-19.9953521937
 21
-10.0238424417
 31
0.0
  0
LINE
  5
41C
100
AcDbEntity
  8
RACCORDO
100
AcDbLine
 62
253
  6
CONTINUOUS
 10
-19.9953521937
 20
-10.0238424417
 11
-19.7743750653
 21
-9.9057342572
  0
LINE
  5
41D
100
AcDbEntity
  8
RACCORDO
100
AcDbLine
 62
253
  6
CONTINUOUS
 10
-19.7743750653
 20
-9.9057342572
 11
-19.0177344691
 21
-9.5013238653
  0
LINE
  5
41E
100
AcDbEntity
  8
RACCORDO
100
AcDbLine
 62
253
  6
CONTINUOUS
 10
-19.0177344691
 20
-9.5013238653
 11
-18.8403959305
 21
-9.4065396993
  0
SPLINE
  5
41F
100
AcDbEntity
  8
RACCORDO
100
AcDbSpline
 62
253
  6
CONTINUOUS
 70
0
 71
3
 72
13
 73
9
 74
7
 42
0.0000001
 43
0.0000001
 44
0.0000000001
 12
-0.1532227183
 22
0.0766089139
 32
0.0
 13
0.1532264299
 23
-0.07660149
 33
0.0
 40
0.0
 40
0.0
 40
0.0
 40
0.0
 40
0.2803772962
 40
0.434168645
 40
0.5774113964
 40
0.7943801926
 40
0.8895486722
 40
1.0
 40
1.0
 40
1.0
 40
1.0
 10
-20.188995703
 20
-10.4966062713
 30
0.0
 10
-20.2033157602
 20
-10.4894464712
 30
0.0
 10
-20.2210047052
 20
-10.4696365103
 30
0.0
 10
-20.2340122396
 20
-10.43910873
 30
0.0
 10
-20.2392643887
 20
-10.4106087643
 30
0.0
 10
-20.2312559502
 20
-10.3804409038
 30
0.0
 10
-20.2063232726
 20
-10.3729078679
 30
0.0
 10
-20.1946370572
 20
-10.3766629256
 30
0.0
 10
-20.188995703
 20
-10.379483171
 30
0.0
 11
-20.188995703
 21
-10.4966062713
 31
0.0
 11
-20.2228640793
 21
-10.4625493476
 31
0.0
 11
-20.2332697335
 21
-10.4383458257
 31
0.0
 11
-20.2369272428
 21
-10.4140814337
 31
0.0
 11
-20.2228680802
 21
-10.3796747143
 31
0.0
 11
-20.2073203564
 21
-10.3747698884
 31
0.0
 11
-20.188995703
 21
-10.379483171
 31
0.0
  0
SPLINE
  5
420
100
AcDbEntity
  8
RACCORDO
100
AcDbSpline
 62
253
  6
CONTINUOUS
 70
0
 71
3
 72
13
 73
9
 74
7
 42
0.0000001
 43
0.0000001
 44
0.0000000001
 12
0.1532227183
 22
-0.0766089138
 32
0.0
 13
-0.1532264299
 23
0.07660149
 33
0.0
 40
0.0
 40
0.0
 40
0.0
 40
0.0
 40
0.2803772962
 40
0.434168645
 40
0.5774113964
 40
0.7943801926
 40
0.8895486722
 40
1.0
 40
1.0
 40
1.0
 40
1.0
 10
-10.4931683439
 20
-15.2273968506
 30
0.0
 10
-10.4788482867
 20
-15.2345566506
 30
0.0
 10
-10.4611593417
 20
-15.2543666116
 30
0.0
 10
-10.4481518073
 20
-15.2848943918
 30
0.0
 10
-10.4428996581
 20
-15.3133943576
 30
0.0
 10
-10.4509080967
 20
-15.3435622181
 30
0.0
 10
-10.4758407743
 20
-15.351095254
 30
0.0
 10
-10.4875269897
 20
-15.3473401963
 30
0.0
 10
-10.4931683439
 20
-15.3445199508
 30
0.0
 11
-10.4931683439
 21
-15.2273968506
 31
0.0
 11
-10.4592999676
 21
-15.2614537743
 31
0.0
 11
-10.4488943133
 21
-15.2856572962
 31
0.0
 11
-10.4452368041
 21
-15.3099216882
 31
0.0
 11
-10.4592959667
 21
-15.3443284075
 31
0.0
 11
-10.4748436905
 21
-15.3492332334
 31
0.0
 11
-10.4931683439
 21
-15.3445199508
 31
0.0
  0
SPLINE
  5
421
100
AcDbEntity
  8
RACCORDO
100
AcDbSpline
 62
7
  6
CONTINUOUS
 70
0
 71
3
 72
10
 73
6
 74
4
 42
0.0000001
 43
0.0000001
 44
0.0000000001
 12
0.210378215
 22
0.1192790895
 32
0.0
 13
0.2163081034
 23
-0.1081540517
 33
0.0
 40
0.0
 40
0.0
 40
0.0
 40
0.0
 40
0.2280784972
 40
0.4661382489
 40
1.0
 40
1.0
 40
1.0
 40
1.0
 10
-19.0735632954
 20
-9.3968736512
 30
0.0
 10
-19.0575690463
 20
-9.3878053194
 30
0.0
 10
-19.0218999252
 20
-9.3740372594
 30
0.0
 10
-18.9406626212
 20
-9.3677635596
 30
0.0
 10
-18.8788888048
 20
-9.3872932622
 30
0.0
 10
-18.8403959305
 20
-9.4065396993
 30
0.0
 11
-19.0735632954
 21
-9.3968736512
 31
0.0
 11
-19.0221373101
 21
-9.3769281295
 31
0.0
 11
-18.9647817064
 21
-9.3719373989
 31
0.0
 11
-18.8403959305
 21
-9.4065396993
 31
0.0
  0
SPLINE
  5
422
100
AcDbEntity
  8
RACCORDO
100
AcDbSpline
 62
253
  6
CONTINUOUS
 70
0
 71
3
 72
11
 73
7
 74
5
 42
0.0000001
 43
0.0000001
 44
0.0000000001
 12
-0.1690081552
 22
0.0843870467
 32
0.0
 13
-0.0
 23
0.1889045531
 33
0.0
 40
0.0
 40
0.0
 40
0.0
 40
0.0
 40
0.2170868256
 40
0.4506471309
 40
0.7114626697
 40
1.0
 40
1.0
 40
1.0
 40
1.0
 10
-10.4152133898
 20
-15.5068081078
 30
0.0
 10
-10.4274432044
 20
-15.5007016691
 30
0.0
 10
-10.4506082334
 20
-15.4830922903
 30
0.0
 10
-10.4753945628
 20
-15.4449405534
 30
0.0
 10
-10.4900969659
 20
-15.3973942038
 30
0.0
 10
-10.4931683439
 20
-15.3626886226
 30
0.0
 10
-10.4931683439
 20
-15.3445199508
 30
0.0
 11
-10.4152133898
 21
-15.5068081078
 31
0.0
 11
-10.4480290989
 21
-15.4822145745
 31
0.0
 11
-10.4726729977
 21
-15.4456180441
 31
0.0
 11
-10.4879433203
 21
-15.3987749492
 31
0.0
 11
-10.4931683439
 21
-15.3445199508
 31
0.0
  0
SPLINE
  5
423
100
AcDbEntity
  8
RACCORDO
100
AcDbSpline
 62
253
  6
CONTINUOUS
 70
0
 71
3
 72
10
 73
6
 74
4
 42
0.0000001
 43
0.0000001
 44
0.0000000001
 12
-0.0052294069
 22
-0.0464471338
 32
0.0
 13
0.0418651471
 23
-0.0207844266
 33
0.0
 40
0.0
 40
0.0
 40
0.0
 40
0.0
 40
0.1842709862
 40
0.5323257582
 40
1.0
 40
1.0
 40
1.0
 40
1.0
 10
-21.07428609
 20
19.0836154537
 30
0.0
 10
-21.0746072993
 20
19.0807625007
 30
0.0
 10
-21.0731055661
 20
19.0722000725
 30
0.0
 10
-21.0622475799
 20
19.0601352975
 30
0.0
 10
-21.0513598127
 20
19.0535159704
 30
0.0
 10
-21.0448333957
 20
19.0502758567
 30
0.0
 11
-21.07428609
 21
19.0836154537
 31
0.0
 11
-21.073054958
 21
19.0750909618
 31
0.0
 11
-21.0631767262
 21
19.062165109
 31
0.0
 11
-21.0448333957
 21
19.0502758567
 31
0.0
  0
SPLINE
  5
424
100
AcDbEntity
  8
RACCORDO
100
AcDbSpline
 62
253
  6
CONTINUOUS
 70
0
 71
3
 72
14
 73
10
 74
8
 42
0.0000001
 43
0.0000001
 44
0.0000000001
 12
-0.0150782182
 22
-0.0357036693
 32
0.0
 13
0.0346653102
 23
-0.0173326551
 33
0.0
 40
0.0
 40
0.0
 40
0.0
 40
0.0
 40
0.0166541062
 40
0.0663295089
 40
0.1487403484
 40
0.2635276767
 40
0.4089260144
 40
0.5820726134
 40
1.0
 40
1.0
 40
1.0
 40
1.0
 10
-20.9297593305
 20
19.5644167618
 30
0.0
 10
-20.9298430353
 20
19.5642185576
 30
0.0
 10
-20.9284035466
 20
19.5640883373
 30
0.0
 10
-20.9272738001
 20
19.5631097754
 30
0.0
 10
-20.9240142888
 20
19.5619040547
 30
0.0
 10
-20.9201827229
 20
19.5599324737
 30
0.0
 10
-20.9151096626
 20
19.5574612011
 30
0.0
 10
-20.9066360028
 20
19.5531793373
 30
0.0
 10
-20.8998061955
 20
19.5497441063
 30
0.0
 10
-20.8949770013
 20
19.5473295092
 30
0.0
 11
-20.9297593305
 21
19.5644167618
 31
0.0
 11
-20.9291791651
 21
19.5641338648
 31
0.0
 11
-20.9274176756
 21
19.5633568084
 31
0.0
 11
-20.9245113044
 21
19.5620321876
 31
0.0
 11
-20.9204985785
 21
19.5601112612
 31
0.0
 11
-20.9154478769
 21
19.5576120769
 31
0.0
 11
-20.9094498932
 21
19.5546026075
 31
0.0
 11
-20.8949770013
 21
19.5473295092
 31
0.0
  0
SPLINE
  5
425
100
AcDbEntity
  8
RACCORDO
100
AcDbSpline
 62
253
  6
CONTINUOUS
 70
0
 71
3
 72
11
 73
7
 74
5
 42
0.0000001
 43
0.0000001
 44
0.0000000001
 12
-0.0063026807
 22
0.1466896534
 32
0.0
 13
-0.1322734836
 23
0.0637283588
 33
0.0
 40
0.0
 40
0.0
 40
0.0
 40
0.0
 40
0.2429757366
 40
0.5075246798
 40
0.7679358194
 40
1.0
 40
1.0
 40
1.0
 40
1.0
 10
-7.0945326177
 20
13.3914676392
 30
0.0
 10
-7.0950430839
 20
13.4033483147
 30
0.0
 10
-7.1003712185
 20
13.428001771
 30
0.0
 10
-7.1168332845
 20
13.4621237431
 30
0.0
 10
-7.14026229
 20
13.4912103677
 30
0.0
 10
-7.1599353288
 20
13.5059043674
 30
0.0
 10
-7.170167308
 20
13.5108340572
 30
0.0
 11
-7.0945326177
 21
13.3914676392
 31
0.0
 11
-7.1014171447
 21
13.4264719608
 31
0.0
 11
-7.1181901036
 21
13.4615062241
 31
0.0
 11
-7.1423786822
 21
13.4911173275
 31
0.0
 11
-7.170167308
 21
13.5108340572
 31
0.0
  0
SPLINE
  5
426
100
AcDbEntity
  8
RACCORDO
100
AcDbSpline
 62
253
  6
CONTINUOUS
 70
0
 71
3
 72
9
 73
5
 74
3
 42
0.0000001
 43
0.0000001
 44
0.0000000001
 12
-0.6665713003
 22
-0.3873892836
 32
0.0
 13
-0.3400829272
 23
-0.6919041538
 33
0.0
 40
0.0
 40
0.0
 40
0.0
 40
0.0
 40
0.4721840235
 40
1.0
 40
1.0
 40
1.0
 40
1.0
 10
-7.1701673087
 20
13.5108340568
 30
0.0
 10
-7.2750820815
 20
13.4498610466
 30
0.0
 10
-7.470960252
 20
13.2754701708
 30
0.0
 10
-7.6122685782
 20
13.0576251767
 30
0.0
 10
-7.6721023123
 20
12.9358924878
 30
0.0
 11
-7.1701673087
 21
13.5108340568
 31
0.0
 11
-7.447896397
 21
13.2754834433
 31
0.0
 11
-7.6721023123
 21
12.9358924878
 31
0.0
  0
SPLINE
  5
427
100
AcDbEntity
  8
RACCORDO
100
AcDbSpline
 62
253
  6
CONTINUOUS
 70
0
 71
3
 72
11
 73
7
 74
5
 42
0.0000001
 43
0.0000001
 44
0.0000000001
 12
-0.1260722457
 22
0.0635153367
 32
0.0
 13
-0.1262645131
 23
0.0631322567
 33
0.0
 40
0.0
 40
0.0
 40
0.0
 40
0.0
 40
0.2087004354
 40
0.4720126513
 40
0.7506128111
 40
1.0
 40
1.0
 40
1.0
 40
1.0
 10
-7.5466849075
 20
12.8711415284
 30
0.0
 10
-7.5554553517
 20
12.8755600879
 30
0.0
 10
-7.5745202609
 20
12.8870051764
 30
0.0
 10
-7.6059428111
 20
12.9031596946
 30
0.0
 10
-7.6394621595
 20
12.919373945
 30
0.0
 10
-7.6616053934
 20
12.9306440327
 30
0.0
 10
-7.6721016441
 20
12.935892158
 30
0.0
 11
-7.5466849075
 21
12.8711415284
 31
0.0
 11
-7.5724502724
 21
12.8854294674
 31
0.0
 11
-7.6053664502
 21
12.9026987484
 31
0.0
 11
-7.6406377382
 21
12.9200981874
 31
0.0
 11
-7.6721016441
 21
12.935892158
 31
0.0
  0
SPLINE
  5
428
100
AcDbEntity
  8
RACCORDO
100
AcDbSpline
 62
253
  6
CONTINUOUS
 70
0
 71
3
 72
9
 73
5
 74
3
 42
0.0000001
 43
0.0000001
 44
0.0000000001
 12
-0.6016126432
 22
-0.3507906522
 32
0.0
 13
-0.3055022521
 23
-0.6258276345
 33
0.0
 40
0.0
 40
0.0
 40
0.0
 40
0.0
 40
0.4720621593
 40
1.0
 40
1.0
 40
1.0
 40
1.0
 10
-7.0945326177
 20
13.3914676392
 30
0.0
 10
-7.1891988055
 20
13.3362693083
 30
0.0
 10
-7.365818433
 20
13.1783413065
 30
0.0
 10
-7.4929230283
 20
12.9812102866
 30
0.0
 10
-7.5466850947
 20
12.87107759
 30
0.0
 11
-7.0945326177
 21
13.3914676392
 31
0.0
 11
-7.3449156284
 21
13.1784295355
 31
0.0
 11
-7.5466850947
 21
12.87107759
 31
0.0
  0
SPLINE
  5
429
100
AcDbEntity
  8
RACCORDO
100
AcDbSpline
 62
253
  6
CONTINUOUS
 70
0
 71
3
 72
10
 73
6
 74
4
 42
0.0000001
 43
0.0000001
 44
0.0000000001
 12
-0.0033542033
 22
-0.0473076843
 32
0.0
 13
0.0424549579
 23
-0.0211386903
 33
0.0
 40
0.0
 40
0.0
 40
0.0
 40
0.0
 40
0.1939965287
 40
0.5448586135
 40
1.0
 40
1.0
 40
1.0
 40
1.0
 10
-21.5115612996
 20
14.3596747498
 30
0.0
 10
-21.5117782009
 20
14.3566155743
 30
0.0
 10
-21.5101870734
 20
14.3477987364
 30
0.0
 10
-21.4995588828
 20
14.3352624984
 30
0.0
 10
-21.488655171
 20
14.3285139255
 30
0.0
 10
-21.4822141682
 20
14.3253068946
 30
0.0
 11
-21.5115612996
 21
14.3596747498
 31
0.0
 11
-21.5101127563
 21
14.3505889295
 31
0.0
 11
-21.500224265
 21
14.3372056547
 31
0.0
 11
-21.4822141682
 21
14.3253068946
 31
0.0
  0
SPLINE
  5
42A
100
AcDbEntity
  8
RACCORDO
100
AcDbSpline
 62
253
  6
CONTINUOUS
 70
0
 71
3
 72
9
 73
5
 74
3
 42
0.0000001
 43
0.0000001
 44
0.0000000001
 12
-0.2365784912
 22
-0.4627744463
 32
0.0
 13
-0.0608679456
 23
-0.5161634081
 33
0.0
 40
0.0
 40
0.0
 40
0.0
 40
0.0
 40
0.2576098297
 40
1.0
 40
1.0
 40
1.0
 40
1.0
 10
-7.6721023123
 20
12.9358924878
 30
0.0
 10
-7.6924172939
 20
12.8961540724
 30
0.0
 10
-7.7647869902
 20
12.7387508766
 30
0.0
 10
-7.811679137
 20
12.5689614962
 30
0.0
 10
-7.8267417251
 20
12.4412299494
 30
0.0
 11
-7.6721023123
 21
12.9358924878
 31
0.0
 11
-7.728012822
 21
12.8142348692
 31
0.0
 11
-7.8267417251
 21
12.4412299494
 31
0.0
  0
SPLINE
  5
42B
100
AcDbEntity
  8
RACCORDO
100
AcDbSpline
 62
253
  6
CONTINUOUS
 70
0
 71
3
 72
9
 73
5
 74
3
 42
0.0000001
 43
0.0000001
 44
0.0000000001
 12
-0.1880275357
 22
-0.365287306
 32
0.0
 13
-0.0697881357
 23
-0.4048688507
 33
0.0
 40
0.0
 40
0.0
 40
0.0
 40
0.0
 40
0.5084972652
 40
1.0
 40
1.0
 40
1.0
 40
1.0
 10
-7.5466850947
 20
12.8752160006
 30
0.0
 10
-7.5785555906
 20
12.8133001353
 30
0.0
 10
-7.6323392514
 20
12.6867805062
 30
0.0
 10
-7.6671864658
 20
12.5536894836
 30
0.0
 10
-7.6786201524
 20
12.4873581012
 30
0.0
 11
-7.5466850947
 21
12.8752160006
 31
0.0
 11
-7.6283568926
 21
12.6829312028
 31
0.0
 11
-7.6786201524
 21
12.4873581012
 31
0.0
  0
SPLINE
  5
42C
100
AcDbEntity
  8
RACCORDO
100
AcDbSpline
 62
253
  6
CONTINUOUS
 70
0
 71
3
 72
11
 73
7
 74
5
 42
0.0000001
 43
0.0000001
 44
0.0000000001
 12
-0.1365133714
 22
-0.0411259864
 32
0.0
 13
-0.1273408408
 23
0.0641214285
 33
0.0
 40
0.0
 40
0.0
 40
0.0
 40
0.0
 40
0.2282460621
 40
0.4926962954
 40
0.7610561288
 40
1.0
 40
1.0
 40
1.0
 40
1.0
 10
-7.6873558088
 20
12.4273089076
 30
0.0
 10
-7.6977420219
 20
12.4241799595
 30
0.0
 10
-7.7211456929
 20
12.4207950007
 30
0.0
 10
-7.7574208705
 20
12.4216514815
 30
0.0
 10
-7.7936510391
 20
12.4281167692
 30
0.0
 10
-7.8165992852
 20
12.4361228093
 30
0.0
 10
-7.8267417231
 20
12.4412299501
 30
0.0
 11
-7.6873558088
 21
12.4273089076
 31
0.0
 11
-7.7194431912
 21
12.4218891709
 31
0.0
 11
-7.7571401464
 21
12.4225989435
 31
0.0
 11
-7.7947892946
 21
12.429414295
 31
0.0
 11
-7.8267417231
 21
12.4412299501
 31
0.0
  0
SPLINE
  5
42D
100
AcDbEntity
  8
RACCORDO
100
AcDbSpline
 62
253
  6
CONTINUOUS
 70
0
 71
3
 72
11
 73
7
 74
5
 42
0.0000001
 43
0.0000001
 44
0.0000000001
 12
-0.0631463584
 22
0.031536263
 32
0.0
 13
0.0048459561
 23
0.0704167251
 33
0.0
 40
0.0
 40
0.0
 40
0.0
 40
0.0
 40
0.2130353409
 40
0.4452389377
 40
0.7080621625
 40
1.0
 40
1.0
 40
1.0
 40
1.0
 10
-21.1985451918
 20
13.7627495011
 30
0.0
 10
-21.2030293271
 20
13.7649889473
 30
0.0
 10
-21.2114939717
 20
13.771687433
 30
0.0
 10
-21.2200204083
 20
13.7863418781
 30
0.0
 10
-21.2244342633
 20
13.8045144594
 30
0.0
 10
-21.2247318476
 20
13.8176618983
 30
0.0
 10
-21.224260275
 20
13.8245143338
 30
0.0
 11
-21.1985451918
 21
13.7627495011
 31
0.0
 11
-21.2104191373
 21
13.7719751565
 31
0.0
 11
-21.2189509795
 21
13.7859690696
 31
0.0
 11
-21.2236393921
 21
13.8039177618
 31
0.0
 11
-21.224260275
 21
13.8245143338
 31
0.0
  0
SPLINE
  5
42E
100
AcDbEntity
  8
RACCORDO
100
AcDbSpline
 62
253
  6
CONTINUOUS
 70
0
 71
3
 72
9
 73
5
 74
3
 42
0.0000001
 43
0.0000001
 44
0.0000000001
 12
0.0400923011
 22
0.0218071709
 32
0.0
 13
0.0405109573
 23
-0.0210192209
 33
0.0
 40
0.0
 40
0.0
 40
0.0
 40
0.0
 40
0.4566423038
 40
1.0
 40
1.0
 40
1.0
 40
1.0
 10
-20.4211994202
 20
20.117434495
 30
0.0
 10
-20.4150968066
 20
20.1207538539
 30
0.0
 10
-20.3991044897
 20
20.1233052498
 30
0.0
 10
-20.3843578501
 20
20.118067656
 30
0.0
 10
-20.3770205367
 20
20.1142606708
 30
0.0
 11
-20.4211994202
 21
20.117434495
 31
0.0
 11
-20.4007510211
 21
20.1214598273
 31
0.0
 11
-20.3770205367
 21
20.1142606708
 31
0.0
  0
SPLINE
  5
42F
100
AcDbEntity
  8
RACCORDO
100
AcDbSpline
 62
253
  6
CONTINUOUS
 70
0
 71
3
 72
11
 73
7
 74
5
 42
0.0000001
 43
0.0000001
 44
0.0000000001
 12
-0.0631463598
 22
0.0315362619
 32
0.0
 13
0.0048459563
 23
0.0704167259
 33
0.0
 40
0.0
 40
0.0
 40
0.0
 40
0.0
 40
0.2130353395
 40
0.4452389364
 40
0.7080621625
 40
1.0
 40
1.0
 40
1.0
 40
1.0
 10
-8.5625448636
 20
7.444749337
 30
0.0
 10
-8.567028999
 20
7.4469887831
 30
0.0
 10
-8.5754936438
 20
7.4536872687
 30
0.0
 10
-8.5840200805
 20
7.4683417139
 30
0.0
 10
-8.5884339357
 20
7.4865142954
 30
0.0
 10
-8.5887315201
 20
7.4996617345
 30
0.0
 10
-8.5882599475
 20
7.5065141701
 30
0.0
 11
-8.5625448636
 21
7.444749337
 31
0.0
 11
-8.5744188093
 21
7.4539749922
 31
0.0
 11
-8.5829506518
 21
7.4679689054
 31
0.0
 11
-8.5876390645
 21
7.4859175978
 31
0.0
 11
-8.5882599475
 21
7.5065141701
 31
0.0
  0
SPLINE
  5
430
100
AcDbEntity
  8
RACCORDO
100
AcDbSpline
 62
253
  6
CONTINUOUS
 70
0
 71
3
 72
11
 73
7
 74
5
 42
0.0000001
 43
0.0000001
 44
0.0000000001
 12
-0.1341262575
 22
-0.0499383253
 32
0.0
 13
-0.1279043713
 23
0.0642196316
 33
0.0
 40
0.0
 40
0.0
 40
0.0
 40
0.0
 40
0.2313619783
 40
0.4959552303
 40
0.7627227962
 40
1.0
 40
1.0
 40
1.0
 40
1.0
 10
-8.1397646844
 20
7.7153470233
 30
0.0
 10
-8.1501085898
 20
7.7114957467
 30
0.0
 10
-8.1735404283
 20
7.7066863966
 30
0.0
 10
-8.2100648445
 20
7.7059071801
 30
0.0
 10
-8.2464932778
 20
7.7112603702
 30
0.0
 10
-8.2695288421
 20
7.7189430777
 30
0.0
 10
-8.279645106
 20
7.7240223626
 30
0.0
 11
-8.1397646844
 21
7.7153470233
 31
0.0
 11
-8.1720395715
 21
7.7079449926
 31
0.0
 11
-8.2098957156
 21
7.7069616173
 31
0.0
 11
-8.2476520309
 21
7.7126344517
 31
0.0
 11
-8.279645106
 21
7.7240223626
 31
0.0
  0
SPLINE
  5
431
100
AcDbEntity
  8
RACCORDO
100
AcDbSpline
 62
253
  6
CONTINUOUS
 70
0
 71
3
 72
9
 73
5
 74
3
 42
0.0000001
 43
0.0000001
 44
0.0000000001
 12
-0.0144735166
 22
-0.1968233327
 32
0.0
 13
-0.1313778572
 23
-0.1472710616
 33
0.0
 40
0.0
 40
0.0
 40
0.0
 40
0.0
 40
0.2765896114
 40
1.0
 40
1.0
 40
1.0
 40
1.0
 10
-8.2796451075
 20
7.7240223619
 30
0.0
 10
-8.2809795156
 20
7.7058759322
 30
0.0
 10
-8.2896461081
 20
7.6408706957
 30
0.0
 10
-8.3164840455
 20
7.576388204
 30
0.0
 10
-8.3481640811
 20
7.540875732
 30
0.0
 11
-8.2796451075
 21
7.7240223619
 31
0.0
 11
-8.2871638353
 21
7.6699563769
 31
0.0
 11
-8.3481640811
 21
7.540875732
 31
0.0
  0
SPLINE
  5
432
100
AcDbEntity
  8
RACCORDO
100
AcDbSpline
 62
253
  6
CONTINUOUS
 70
0
 71
3
 72
9
 73
5
 74
3
 42
0.0000001
 43
0.0000001
 44
0.0000000001
 12
-0.0481060282
 22
-0.05392557
 32
0.0
 13
-0.0650029345
 23
-0.0315717526
 33
0.0
 40
0.0
 40
0.0
 40
0.0
 40
0.0
 40
0.2570990391
 40
1.0
 40
1.0
 40
1.0
 40
1.0
 10
-8.3481640811
 20
7.540875732
 30
0.0
 10
-8.3522867523
 20
7.5362543279
 30
0.0
 10
-8.369100836
 20
7.5189973825
 30
0.0
 10
-8.3892416532
 20
7.5049180903
 30
0.0
 10
-8.4053385674
 20
7.4970998619
 30
0.0
 11
-8.3481640811
 21
7.540875732
 31
0.0
 11
-8.3611524186
 21
7.5275908824
 31
0.0
 11
-8.4053385674
 21
7.4970998619
 31
0.0
  0
SPLINE
  5
433
100
AcDbEntity
  8
RACCORDO
100
AcDbSpline
 62
253
  6
CONTINUOUS
 70
0
 71
3
 72
9
 73
5
 74
3
 42
0.0000001
 43
0.0000001
 44
0.0000000001
 12
-0.1116941073
 22
-0.0242535336
 32
0.0
 13
-0.1076929131
 23
0.0382889536
 33
0.0
 40
0.0
 40
0.0
 40
0.0
 40
0.0
 40
0.4825115903
 40
1.0
 40
1.0
 40
1.0
 40
1.0
 10
-8.4440522774
 20
7.4837224544
 30
0.0
 10
-8.4620168445
 20
7.479821584
 30
0.0
 10
-8.5007161061
 20
7.4777161073
 30
0.0
 10
-8.5382742071
 20
7.4864780729
 30
0.0
 10
-8.5568508186
 20
7.4930827695
 30
0.0
 11
-8.4440522774
 21
7.4837224544
 31
0.0
 11
-8.4990968469
 21
7.4803198802
 31
0.0
 11
-8.5568508186
 21
7.4930827695
 31
0.0
  0
SPLINE
  5
434
100
AcDbEntity
  8
RACCORDO
100
AcDbSpline
 62
253
  6
CONTINUOUS
 70
0
 71
3
 72
9
 73
5
 74
3
 42
0.0000001
 43
0.0000001
 44
0.0000000001
 12
-0.01137256
 22
-0.1876266281
 32
0.0
 13
-0.0928161031
 23
-0.1634572045
 33
0.0
 40
0.0
 40
0.0
 40
0.0
 40
0.0
 40
0.2694057826
 40
1.0
 40
1.0
 40
1.0
 40
1.0
 10
-8.1397645889
 20
7.7153469738
 30
0.0
 10
-8.1407858667
 20
7.6984977409
 30
0.0
 10
-8.1474023066
 20
7.6362547101
 30
0.0
 10
-8.1663033783
 20
7.5746066366
 30
0.0
 10
-8.1889070144
 20
7.5347996738
 30
0.0
 11
-8.1397645889
 21
7.7153469738
 31
0.0
 11
-8.1452424932
 21
7.6650036577
 31
0.0
 11
-8.1889070144
 21
7.5347996738
 31
0.0
  0
SPLINE
  5
435
100
AcDbEntity
  8
RACCORDO
100
AcDbSpline
 62
253
  6
CONTINUOUS
 70
0
 71
3
 72
9
 73
5
 74
3
 42
0.0000001
 43
0.0000001
 44
0.0000000001
 12
-0.0720916064
 22
-0.126959569
 32
0.0
 13
-0.1315504684
 23
-0.0633277674
 33
0.0
 40
0.0
 40
0.0
 40
0.0
 40
0.0
 40
0.5167400603
 40
1.0
 40
1.0
 40
1.0
 40
1.0
 10
-8.1889070144
 20
7.5347996738
 30
0.0
 10
-8.2013245547
 20
7.5129313087
 30
0.0
 10
-8.2307556705
 20
7.473268897
 30
0.0
 10
-8.2711692817
 20
7.4443994845
 30
0.0
 10
-8.2923603055
 20
7.4341982268
 30
0.0
 11
-8.1889070144
 21
7.5347996738
 31
0.0
 11
-8.2346735769
 21
7.4748229445
 31
0.0
 11
-8.2923603055
 21
7.4341982268
 31
0.0
  0
SPLINE
  5
436
100
AcDbEntity
  8
RACCORDO
100
AcDbSpline
 62
253
  6
CONTINUOUS
 70
0
 71
3
 72
9
 73
5
 74
3
 42
0.0000001
 43
0.0000001
 44
0.0000000001
 12
0.2527482166
 22
0.4075960584
 32
0.0
 13
0.3765727905
 23
0.2970002378
 33
0.0
 40
0.0
 40
0.0
 40
0.0
 40
0.0
 40
0.2602401138
 40
1.0
 40
1.0
 40
1.0
 40
1.0
 10
-20.8300953861
 20
19.6623150482
 30
0.0
 10
-20.8081703112
 20
19.6976726631
 30
0.0
 10
-20.7186488939
 20
19.830092703
 30
0.0
 10
-20.6079500307
 20
19.9490092142
 30
0.0
 10
-20.5150922158
 20
20.0222455015
 30
0.0
 11
-20.8300953861
 21
19.6623150482
 31
0.0
 11
-20.7601419428
 21
19.7656801503
 31
0.0
 11
-20.5150922158
 21
20.0222455015
 31
0.0
  0
SPLINE
  5
437
100
AcDbEntity
  8
RACCORDO
100
AcDbSpline
 62
253
  6
CONTINUOUS
 70
0
 71
3
 72
9
 73
5
 74
3
 42
0.0000001
 43
0.0000001
 44
0.0000000001
 12
0.1120657333
 22
0.0883854337
 32
0.0
 13
0.1233509173
 23
0.0718001718
 33
0.0
 40
0.0
 40
0.0
 40
0.0
 40
0.0
 40
0.2564376068
 40
1.0
 40
1.0
 40
1.0
 40
1.0
 10
-20.5150922158
 20
20.0222455015
 30
0.0
 10
-20.5055129263
 20
20.0298006179
 30
0.0
 10
-20.4676811206
 20
20.058649286
 30
0.0
 10
-20.4279117483
 20
20.0849871595
 30
0.0
 10
-20.3973387138
 20
20.1027831287
 30
0.0
 11
-20.5150922158
 21
20.0222455015
 31
0.0
 11
-20.485982516
 21
20.0444312743
 31
0.0
 11
-20.3973387138
 21
20.1027831287
 31
0.0
  0
SPLINE
  5
438
100
AcDbEntity
  8
RACCORDO
100
AcDbSpline
 62
253
  6
CONTINUOUS
 70
0
 71
3
 72
9
 73
5
 74
3
 42
0.0000001
 43
0.0000001
 44
0.0000000001
 12
0.0642420931
 22
0.2880667622
 32
0.0
 13
0.1169588382
 23
0.2709799553
 33
0.0
 40
0.0
 40
0.0
 40
0.0
 40
0.0
 40
0.2456887501
 40
1.0
 40
1.0
 40
1.0
 40
1.0
 10
-21.0207298179
 20
19.1926945039
 30
0.0
 10
-21.0154686313
 20
19.2162860915
 30
0.0
 10
-20.9916595168
 20
19.3117631895
 30
0.0
 10
-20.9586487326
 20
19.4049071941
 30
0.0
 10
-20.9292409435
 20
19.4730416037
 30
0.0
 11
-21.0207298179
 21
19.1926945039
 31
0.0
 11
-21.0032139281
 21
19.2630605568
 31
0.0
 11
-20.9292409435
 21
19.4730416037
 31
0.0
  0
SPLINE
  5
439
100
AcDbEntity
  8
RACCORDO
100
AcDbSpline
 62
253
  6
CONTINUOUS
 70
0
 71
3
 72
11
 73
7
 74
5
 42
0.0000001
 43
0.0000001
 44
0.0000000001
 12
-0.4557461
 22
0.2278696048
 32
0.0
 13
-0.0488699695
 23
0.5071891073
 33
0.0
 40
0.0
 40
0.0
 40
0.0
 40
0.0
 40
0.2246340471
 40
0.4755495709
 40
0.7395609113
 40
1.0
 40
1.0
 40
1.0
 40
1.0
 10
-21.224260275
 20
13.8245143338
 30
0.0
 10
-21.2583856386
 20
13.8415767577
 30
0.0
 10
-21.3239622296
 20
13.8913174931
 30
0.0
 10
-21.4013723641
 20
13.9915952817
 30
0.0
 10
-21.4572502438
 20
14.111955081
 30
0.0
 10
-21.4767329803
 20
14.199802951
 30
0.0
 10
-21.4809755304
 20
14.2438335739
 30
0.0
 11
-21.224260275
 21
13.8245143338
 31
0.0
 11
-21.3168125004
 21
13.8918573834
 31
0.0
 11
-21.3960152318
 21
13.992220772
 31
0.0
 11
-21.4528669663
 21
14.1141410008
 31
0.0
 11
-21.4809755304
 21
14.2438335739
 31
0.0
  0
SPLINE
  5
43A
100
AcDbEntity
  8
RACCORDO
100
AcDbSpline
 62
253
  6
CONTINUOUS
 70
0
 71
3
 72
9
 73
5
 74
3
 42
0.0000001
 43
0.0000001
 44
0.0000000001
 12
-0.0078200431
 22
0.0811590576
 32
0.0
 13
0.0057695418
 23
0.0813305483
 33
0.0
 40
0.0
 40
0.0
 40
0.0
 40
0.0
 40
0.2557397153
 40
1.0
 40
1.0
 40
1.0
 40
1.0
 10
-21.4809755304
 20
14.2438335739
 30
0.0
 10
-21.4816421623
 20
14.2507521053
 30
0.0
 10
-21.4837200488
 20
14.2778517509
 30
0.0
 10
-21.4836455177
 20
14.3051298612
 30
0.0
 10
-21.4822141708
 20
14.3253068936
 30
0.0
 11
-21.4809755304
 21
14.2438335739
 31
0.0
 11
-21.4825641843
 21
14.2646246887
 31
0.0
 11
-21.4822141708
 21
14.3253068936
 31
0.0
  0
LINE
  5
43B
100
AcDbEntity
  8
RACCORDO
100
AcDbLine
 62
253
  6
CONTINUOUS
 10
-21.4822141708
 20
14.3253068936
 11
-21.4799381217
 21
14.3573268745
  0
SPLINE
  5
43C
100
AcDbEntity
  8
ASSI
100
AcDbSpline
 62
7
  6
CONTINUOUS
 70
0
 71
3
 72
17
 73
13
 74
11
 42
0.0000001
 43
0.0000001
 44
0.0000000001
 12
0.9525127272
 22
-0.4762563636
 32
0.0
 13
-0.0000586355
 23
1.0649416021
 33
0.0
 40
0.0
 40
0.0
 40
0.0
 40
0.0
 40
0.129825922
 40
0.2748070512
 40
0.4262226163
 40
0.5743898362
 40
0.7100958581
 40
0.8263347758
 40
0.8762939073
 40
0.9210597763
 40
0.9616998
 40
1.0
 40
1.0
 40
1.0
 40
1.0
 10
8.3469951463
 20
-4.6019751708
 30
0.0
 10
8.3882154273
 20
-4.6225853113
 30
0.0
 10
8.48089334
 20
-4.6554808121
 30
0.0
 10
8.6305046412
 20
-4.6813278701
 30
0.0
 10
8.7888329565
 20
-4.6850946251
 30
0.0
 10
8.9428340271
 20
-4.6664336482
 30
0.0
 10
9.0799067673
 20
-4.6269571789
 30
0.0
 10
9.1760476612
 20
-4.5767616841
 30
0.0
 10
9.2329662312
 20
-4.5275657273
 30
0.0
 10
9.2629485249
 20
-4.4895568215
 30
0.0
 10
9.2816269077
 20
-4.4492945532
 30
0.0
 10
9.2858846993
 20
-4.42111663
 30
0.0
 10
9.2858839507
 20
-4.4075208045
 30
0.0
 11
8.3469951463
 21
-4.6019751708
 31
0.0
 11
8.4766268204
 21
-4.6500442275
 31
0.0
 11
8.628609578
 21
-4.6772379929
 31
0.0
 11
8.7898098046
 21
-4.6811929167
 31
0.0
 11
8.946376153
 21
-4.6615846305
 31
0.0
 11
9.0848115843
 21
-4.6200952408
 31
0.0
 11
9.1931995531
 21
-4.5603003175
 31
0.0
 11
9.233094457
 21
-4.5251006702
 31
0.0
 11
9.2622080885
 21
-4.4873499767
 31
0.0
 11
9.2799496232
 21
-4.4478742677
 31
0.0
 11
9.2858839507
 21
-4.4075208045
 31
0.0
  0
SPLINE
  5
43D
100
AcDbEntity
  8
ASSI
100
AcDbSpline
 62
7
  6
CONTINUOUS
 70
0
 71
3
 72
11
 73
7
 74
5
 42
0.0000001
 43
0.0000001
 44
0.0000000001
 12
0.0000145746
 22
-0.2647042062
 32
0.0
 13
0.2367586399
 23
-0.11837932
 33
0.0
 40
0.0
 40
0.0
 40
0.0
 40
0.0
 40
0.2065358893
 40
0.4344465054
 40
0.697705174
 40
1.0
 40
1.0
 40
1.0
 40
1.0
 10
8.1859238012
 20
-4.4075208074
 30
0.0
 10
8.1859248046
 20
-4.425744447
 30
0.0
 10
8.1939425733
 20
-4.4643762439
 30
0.0
 10
8.2275701254
 20
-4.5171062137
 30
0.0
 10
8.2799952905
 20
-4.5644058024
 30
0.0
 10
8.3231381757
 20
-4.5900466855
 30
0.0
 10
8.3469951463
 20
-4.6019751708
 30
0.0
 11
8.1859238012
 21
-4.4075208074
 31
0.0
 11
8.1964684055
 21
-4.4611651983
 31
0.0
 11
8.2277566817
 21
-4.5127463945
 31
0.0
 11
8.2786676769
 21
-4.5603296284
 31
0.0
 11
8.3469951463
 21
-4.6019751708
 31
0.0
  0
SPLINE
  5
43E
100
AcDbEntity
  8
ASSI
100
AcDbSpline
 62
7
  6
CONTINUOUS
 70
0
 71
3
 72
9
 73
5
 74
3
 42
0.0000001
 43
0.0000001
 44
0.0000000001
 12
0.0
 22
-0.063238136
 32
0.0
 13
0.0154923047
 23
-0.0613110947
 33
0.0
 40
0.0
 40
0.0
 40
0.0
 40
0.0
 40
0.7472239209
 40
1.0
 40
1.0
 40
1.0
 40
1.0
 10
20.0749172077
 20
-1.3139286383
 30
0.0
 10
20.0749172077
 20
-1.3296796543
 30
0.0
 10
20.0769510076
 20
-1.3508299736
 30
0.0
 10
20.0815091549
 20
-1.3714144893
 30
0.0
 10
20.0828145162
 20
-1.376580482
 30
0.0
 11
20.0749172077
 21
-1.3139286383
 31
0.0
 11
20.0793660687
 21
-1.3609717905
 31
0.0
 11
20.0828145162
 21
-1.376580482
 31
0.0
  0
SPLINE
  5
43F
100
AcDbEntity
  8
ASSI
100
AcDbSpline
 62
7
  6
CONTINUOUS
 70
0
 71
3
 72
18
 73
14
 74
12
 42
0.0000001
 43
0.0000001
 44
0.0000000001
 12
-0.0000270645
 22
-3.2373307895
 32
0.0
 13
-3.002611959
 23
1.2102198416
 33
0.0
 40
0.0
 40
0.0
 40
0.0
 40
0.0
 40
0.0382435344
 40
0.0786262863
 40
0.1228272464
 40
0.1718792531
 40
0.2262203216
 40
0.2858043957
 40
0.4187380657
 40
0.5649876258
 40
0.7164359324
 40
0.864206037
 40
1.0
 40
1.0
 40
1.0
 40
1.0
 10
13.9507171652
 20
6.0558555237
 30
0.0
 10
13.9507168202
 20
6.0145865332
 30
0.0
 10
13.9383748913
 20
5.9293189138
 30
0.0
 10
13.8844353129
 20
5.8068012854
 30
0.0
 10
13.7973077214
 20
5.6905937076
 30
0.0
 10
13.6793563801
 20
5.5824938664
 30
0.0
 10
13.5329489516
 20
5.4840751457
 30
0.0
 10
13.294782249
 20
5.363566973
 30
0.0
 10
12.9443816453
 20
5.2515516901
 30
0.0
 10
12.4835525048
 20
5.1810554005
 30
0.0
 10
12.0012605247
 20
5.1753411961
 30
0.0
 10
11.5341758549
 20
5.2347662742
 30
0.0
 10
11.2382977486
 20
5.3198897105
 30
0.0
 10
11.1023855561
 20
5.3746698933
 30
0.0
 11
13.9507171652
 21
6.0558555237
 31
0.0
 11
13.9334616999
 21
5.9332569302
 31
0.0
 11
13.8820087661
 21
5.8130756643
 31
0.0
 11
13.7973869107
 21
5.6976859544
 31
0.0
 11
13.6812753582
 21
5.5893587825
 31
0.0
 11
13.5359363045
 21
5.4902406164
 31
0.0
 11
13.3642665388
 21
5.4022784718
 31
0.0
 11
12.9558898032
 21
5.2665221068
 31
0.0
 11
12.4882148617
 21
5.192746638
 31
0.0
 11
11.9979632838
 21
5.186748795
 31
0.0
 11
11.5236501177
 21
5.2489992863
 31
0.0
 11
11.1023855561
 21
5.3746698933
 31
0.0
  0
SPLINE
  5
440
100
AcDbEntity
  8
ASSI
100
AcDbSpline
 62
7
  6
CONTINUOUS
 70
0
 71
3
 72
18
 73
14
 74
12
 42
0.0000001
 43
0.0000001
 44
0.0000000001
 12
-0.0000280728
 22
-3.3579454145
 32
0.0
 13
-3.0298756994
 23
1.4476362298
 33
0.0
 40
0.0
 40
0.0
 40
0.0
 40
0.0
 40
0.0382714418
 40
0.0788369803
 40
0.123467234
 40
0.1732084125
 40
0.228457525
 40
0.2890959835
 40
0.4241760977
 40
0.5719068134
 40
0.7233240722
 40
0.8688787958
 40
1.0
 40
1.0
 40
1.0
 40
1.0
 10
17.4862510711
 20
7.8236224767
 30
0.0
 10
17.486250713
 20
7.7807846725
 30
0.0
 10
17.4728945361
 20
7.6920774138
 30
0.0
 10
17.4147281721
 20
7.5651110843
 30
0.0
 10
17.3210354238
 20
7.4452217969
 30
0.0
 10
17.1945107875
 20
7.334327049
 30
0.0
 10
17.037842016
 20
7.2341355049
 30
0.0
 10
16.7838089149
 20
7.1129178412
 30
0.0
 10
16.412672377
 20
7.0037227889
 30
0.0
 10
15.9289567126
 20
6.9418812652
 30
0.0
 10
15.4294529128
 20
6.950040692
 30
0.0
 10
14.954928713
 20
7.0273280268
 30
0.0
 10
14.6594993675
 20
7.1278254288
 30
0.0
 10
14.5270723841
 20
7.191097364
 30
0.0
 11
17.4862510711
 21
7.8236224767
 31
0.0
 11
17.467678079
 21
7.6964582477
 31
0.0
 11
17.4123312549
 21
7.5719923361
 31
0.0
 11
17.3213909023
 21
7.4528719895
 31
0.0
 11
17.1968056354
 21
7.341620391
 31
0.0
 11
17.0411931886
 21
7.2406068427
 31
0.0
 11
16.8578747624
 21
7.1519743592
 31
0.0
 11
16.4241910066
 21
7.0190691859
 31
0.0
 11
15.9323875363
 21
6.9541349295
 31
0.0
 11
15.4240082861
 21
6.9626698853
 31
0.0
 11
14.942044678
 21
7.0439233556
 31
0.0
 11
14.5270723841
 21
7.191097364
 31
0.0
  0
SPLINE
  5
441
100
AcDbEntity
  8
ASSI
100
AcDbSpline
 62
7
  6
CONTINUOUS
 70
0
 71
3
 72
11
 73
7
 74
5
 42
0.0000001
 43
0.0000001
 44
0.0000000001
 12
0.0
 22
-0.252025148
 32
0.0
 13
-0.2254459387
 23
-0.1126534685
 33
0.0
 40
0.0
 40
0.0
 40
0.0
 40
0.0
 40
0.2895796029
 40
0.5496503397
 40
0.7828257904
 40
1.0
 40
1.0
 40
1.0
 40
1.0
 10
15.0291542285
 20
0.502578096
 30
0.0
 10
15.0291542285
 20
0.478250982
 30
0.0
 10
15.0251974093
 20
0.4319046008
 30
0.0
 10
15.0054166917
 20
0.3685123693
 30
0.0
 10
14.9722858058
 20
0.3177690764
 30
0.0
 10
14.9413845081
 20
0.294327051
 30
0.0
 10
14.9250641603
 20
0.2861719083
 30
0.0
 11
15.0291542285
 21
0.502578096
 31
0.0
 11
15.0222282336
 21
0.4299261386
 31
0.0
 11
15.0018070899
 21
0.3676441927
 31
0.0
 11
14.9688858533
 21
0.3189652029
 31
0.0
 11
14.9250641603
 21
0.2861719083
 31
0.0
  0
SPLINE
  5
442
100
AcDbEntity
  8
ASSI
100
AcDbSpline
 62
7
  6
CONTINUOUS
 70
0
 71
3
 72
11
 73
7
 74
5
 42
0.0000001
 43
0.0000001
 44
0.0000000001
 12
0.0
 22
-0.252025148
 32
0.0
 13
-0.2254459387
 23
-0.1126534685
 33
0.0
 40
0.0
 40
0.0
 40
0.0
 40
0.0
 40
0.2895796029
 40
0.5496503397
 40
0.7828257904
 40
1.0
 40
1.0
 40
1.0
 40
1.0
 10
18.5646881345
 20
2.270345049
 30
0.0
 10
18.5646881345
 20
2.2460179349
 30
0.0
 10
18.5607313152
 20
2.1996715538
 30
0.0
 10
18.5409505976
 20
2.1362793223
 30
0.0
 10
18.5078197117
 20
2.0855360294
 30
0.0
 10
18.4769184141
 20
2.0620940039
 30
0.0
 10
18.4605980662
 20
2.0539388613
 30
0.0
 11
18.5646881345
 21
2.270345049
 31
0.0
 11
18.5577621396
 21
2.1976930916
 31
0.0
 11
18.5373409958
 21
2.1354111456
 31
0.0
 11
18.5044197592
 21
2.0867321559
 31
0.0
 11
18.4605980662
 21
2.0539388613
 31
0.0
  0
SPLINE
  5
443
100
AcDbEntity
  8
ASSI
100
AcDbSpline
 62
7
  6
CONTINUOUS
 70
0
 71
3
 72
12
 73
8
 74
6
 42
0.0000001
 43
0.0000001
 44
0.0000000001
 12
0.7540465313
 22
-0.3770232657
 32
0.0
 13
-0.000007048
 23
-0.8430496511
 33
0.0
 40
0.0
 40
0.0
 40
0.0
 40
0.0
 40
0.3022587084
 40
0.5649697199
 40
0.7926794951
 40
0.8977787138
 40
1.0
 40
1.0
 40
1.0
 40
1.0
 10
16.9736978768
 20
8.4423409104
 30
0.0
 10
17.0496702537
 20
8.4043547219
 30
0.0
 10
17.1869843193
 20
8.3227974741
 30
0.0
 10
17.3537215611
 20
8.1724309924
 30
0.0
 10
17.4450207121
 20
8.0284517561
 30
0.0
 10
17.4804466948
 20
7.9107661291
 30
0.0
 10
17.4862513113
 20
7.8523483499
 30
0.0
 10
17.4862510711
 20
7.8236224767
 30
0.0
 11
16.9736978768
 21
8.4423409104
 31
0.0
 11
17.1913083287
 21
8.3097571094
 31
0.0
 11
17.3530571941
 21
8.1584627011
 31
0.0
 11
17.4526197374
 21
7.9943285209
 31
0.0
 11
17.4778340817
 21
7.9093880667
 31
0.0
 11
17.4862510711
 21
7.8236224767
 31
0.0
  0
SPLINE
  5
444
100
AcDbEntity
  8
ASSI
100
AcDbSpline
 62
7
  6
CONTINUOUS
 70
0
 71
3
 72
11
 73
7
 74
5
 42
0.0000001
 43
0.0000001
 44
0.0000000001
 12
0.6808699051
 22
-0.3749041586
 32
0.0
 13
-0.000006498
 23
-0.7772624754
 33
0.0
 40
0.0
 40
0.0
 40
0.0
 40
0.0
 40
0.2993528047
 40
0.5609354575
 40
0.7901490738
 40
1.0
 40
1.0
 40
1.0
 40
1.0
 10
13.4960514351
 20
6.6441999987
 30
0.0
 10
13.5639915403
 20
6.6067904616
 30
0.0
 10
13.6866678671
 20
6.5273283274
 30
0.0
 10
13.8344494778
 20
6.3831814299
 30
0.0
 10
13.9284506439
 20
6.2247995918
 30
0.0
 10
13.9507176197
 20
6.1102252738
 30
0.0
 10
13.9507171652
 20
6.0558555237
 30
0.0
 11
13.4960514351
 21
6.6441999987
 31
0.0
 11
13.6898688285
 21
6.5154646101
 31
0.0
 11
13.8331329281
 21
6.3711948574
 31
0.0
 11
13.9210628496
 21
6.2162464497
 31
0.0
 11
13.9507171652
 21
6.0558555237
 31
0.0
  0
SPLINE
  5
445
100
AcDbEntity
  8
ASSI
100
AcDbSpline
 62
7
  6
CONTINUOUS
 70
0
 71
3
 72
11
 73
7
 74
5
 42
0.0000001
 43
0.0000001
 44
0.0000000001
 12
-0.0000145746
 22
0.2647042062
 32
0.0
 13
-0.2367586399
 23
0.11837932
 33
0.0
 40
0.0
 40
0.0
 40
0.0
 40
0.0
 40
0.2065358893
 40
0.4344465054
 40
0.697705174
 40
1.0
 40
1.0
 40
1.0
 40
1.0
 10
9.2858839507
 20
-4.4075208045
 30
0.0
 10
9.2858829474
 20
-4.389297165
 30
0.0
 10
9.2778651787
 20
-4.3506653681
 30
0.0
 10
9.2442376266
 20
-4.2979353982
 30
0.0
 10
9.1918124614
 20
-4.2506358096
 30
0.0
 10
9.1486695762
 20
-4.2249949265
 30
0.0
 10
9.1248126056
 20
-4.2130664412
 30
0.0
 11
9.2858839507
 21
-4.4075208045
 31
0.0
 11
9.2753393465
 21
-4.3538764137
 31
0.0
 11
9.2440510702
 21
-4.3022952175
 31
0.0
 11
9.193140075
 21
-4.2547119836
 31
0.0
 11
9.1248126056
 21
-4.2130664412
 31
0.0
  0
SPLINE
  5
446
100
AcDbEntity
  8
ASSI
100
AcDbSpline
 62
7
  6
CONTINUOUS
 70
0
 71
3
 72
11
 73
7
 74
5
 42
0.0000001
 43
0.0000001
 44
0.0000000001
 12
-0.4304760393
 22
-0.2152380197
 32
0.0
 13
0.0
 23
-0.4812868433
 33
0.0
 40
0.0
 40
0.0
 40
0.0
 40
0.0
 40
0.3024673256
 40
0.5655230414
 40
0.7934184043
 40
1.0
 40
1.0
 40
1.0
 40
1.0
 10
20.3678104265
 20
-0.9603752477
 30
0.0
 10
20.324408781
 20
-0.9820760704
 30
0.0
 10
20.2459466425
 20
-1.0286579611
 30
0.0
 10
20.1506696291
 20
-1.1147057421
 30
0.0
 10
20.0895725686
 20
-1.2105542604
 30
0.0
 10
20.0749172077
 20
-1.2807869703
 30
0.0
 10
20.0749172077
 20
-1.3139286383
 30
0.0
 11
20.3678104265
 21
-0.9603752477
 31
0.0
 11
20.2434970032
 21
-1.0361237104
 31
0.0
 11
20.1510273662
 21
-1.1226006255
 31
0.0
 11
20.0941438861
 21
-1.2163803617
 31
0.0
 11
20.0749172077
 21
-1.3139286383
 31
0.0
  0
SPLINE
  5
447
100
AcDbEntity
  8
ASSI
100
AcDbSpline
 62
7
  6
CONTINUOUS
 70
0
 71
3
 72
9
 73
5
 74
3
 42
0.0000001
 43
0.0000001
 44
0.0000000001
 12
0.0
 22
-0.2107928412
 32
0.0
 13
-0.157524614
 23
-0.1400700464
 33
0.0
 40
0.0
 40
0.0
 40
0.0
 40
0.0
 40
0.5445496966
 40
1.0
 40
1.0
 40
1.0
 40
1.0
 10
13.2613872756
 20
-0.3813053804
 30
0.0
 10
13.2613872756
 20
-0.419567773
 30
0.0
 10
13.2525334065
 20
-0.4906531013
 30
0.0
 10
13.2146136139
 20
-0.5537927389
 30
0.0
 10
13.1906987361
 20
-0.5750577206
 30
0.0
 11
13.2613872756
 21
-0.3813053804
 31
0.0
 11
13.2431254867
 21
-0.4946305905
 31
0.0
 11
13.1906987361
 21
-0.5750577206
 31
0.0
  0
SPLINE
  5
448
100
AcDbEntity
  8
ASSI
100
AcDbSpline
 62
7
  6
CONTINUOUS
 70
0
 71
3
 72
9
 73
5
 74
3
 42
0.0000001
 43
0.0000001
 44
0.0000000001
 12
0.0
 22
-0.2107928412
 32
0.0
 13
-0.157524614
 23
-0.1400700464
 33
0.0
 40
0.0
 40
0.0
 40
0.0
 40
0.0
 40
0.5445496966
 40
1.0
 40
1.0
 40
1.0
 40
1.0
 10
16.7969211815
 20
1.3864615725
 30
0.0
 10
16.7969211815
 20
1.3481991799
 30
0.0
 10
16.7880673124
 20
1.2771138516
 30
0.0
 10
16.7501475198
 20
1.2139742141
 30
0.0
 10
16.7262326421
 20
1.1927092324
 30
0.0
 11
16.7969211815
 21
1.3864615725
 31
0.0
 11
16.7786593927
 21
1.2731363624
 31
0.0
 11
16.7262326421
 21
1.1927092324
 31
0.0
  0
SPLINE
  5
449
100
AcDbEntity
  8
0
100
AcDbSpline
 62
7
  6
CONTINUOUS
 70
0
 71
3
 72
9
 73
5
 74
3
 42
0.0000001
 43
0.0000001
 44
0.0000000001
 12
0.1117370796
 22
-0.3990861853
 32
0.0
 13
0.0
 23
-0.4144332977
 33
0.0
 40
0.0
 40
0.0
 40
0.0
 40
0.0
 40
0.2373466072
 40
1.0
 40
1.0
 40
1.0
 40
1.0
 10
15.1181282154
 20
0.5029539401
 30
0.0
 10
15.1269683543
 20
0.4713800227
 30
0.0
 10
15.1588847664
 20
0.3368693139
 30
0.0
 10
15.1705755848
 20
0.1979568057
 30
0.0
 10
15.1705755848
 20
0.0926004855
 30
0.0
 11
15.1181282154
 21
0.5029539401
 31
0.0
 11
15.1409794819
 21
0.4072807336
 31
0.0
 11
15.1705755848
 21
0.0926004855
 31
0.0
  0
SPLINE
  5
44A
100
AcDbEntity
  8
ASSI
100
AcDbSpline
 62
7
  6
CONTINUOUS
 70
0
 71
3
 72
17
 73
13
 74
11
 42
0.0000001
 43
0.0000001
 44
0.0000000001
 12
0.0
 22
-3.3418563017
 32
0.0
 13
-3.0818181348
 23
1.292439757
 33
0.0
 40
0.0
 40
0.0
 40
0.0
 40
0.0
 40
0.1317704061
 40
0.2730370032
 40
0.4175501563
 40
0.5584666333
 40
0.6895697312
 40
0.8065002988
 40
0.8593365238
 40
0.9086692497
 40
0.9552028612
 40
1.0
 40
1.0
 40
1.0
 40
1.0
 10
15.1705755848
 20
0.0926004855
 30
0.0
 10
15.1705755848
 20
-0.0541854352
 30
0.0
 10
15.1349759093
 20
-0.3587896005
 30
0.0
 10
14.9967341366
 20
-0.8051339268
 30
0.0
 10
14.7813223367
 20
-1.2313510555
 30
0.0
 10
14.5040850984
 20
-1.6064333838
 30
0.0
 10
14.1850015425
 20
-1.9034346889
 30
0.0
 10
13.8915468364
 20
-2.0739655931
 30
0.0
 10
13.6574610441
 20
-2.1464159113
 30
0.0
 10
13.4922558749
 20
-2.1678650474
 30
0.0
 10
13.3348478751
 20
-2.1575317233
 30
0.0
 10
13.236190141
 20
-2.1288690521
 30
0.0
 10
13.1901712628
 20
-2.109569851
 30
0.0
 11
15.1705755848
 21
0.0926004855
 31
0.0
 11
15.1234511712
 21
-0.3452285317
 31
0.0
 11
14.9856753137
 21
-0.7967695595
 31
0.0
 11
14.7677452232
 21
-1.2277447744
 31
0.0
 11
14.4862539367
 21
-1.6052772453
 31
0.0
 11
14.1626349388
 21
-1.9006188069
 31
0.0
 11
13.8215384325
 21
-2.0912770853
 31
0.0
 11
13.6525545085
 21
-2.1424803731
 31
0.0
 11
13.488941448
 21
-2.1627420588
 31
0.0
 11
13.3338249622
 21
-2.1517051271
 31
0.0
 11
13.1901712628
 21
-2.109569851
 31
0.0
  0
SPLINE
  5
44B
100
AcDbEntity
  8
ASSI
100
AcDbSpline
 62
7
  6
CONTINUOUS
 70
0
 71
3
 72
17
 73
13
 74
11
 42
0.0000001
 43
0.0000001
 44
0.0000000001
 12
0.0
 22
-3.3418563017
 32
0.0
 13
-3.0818181348
 23
1.292439757
 33
0.0
 40
0.0
 40
0.0
 40
0.0
 40
0.0
 40
0.1317704061
 40
0.2730370032
 40
0.4175501563
 40
0.5584666333
 40
0.6895697312
 40
0.8065002988
 40
0.8593365238
 40
0.9086692497
 40
0.9552028612
 40
1.0
 40
1.0
 40
1.0
 40
1.0
 10
18.7061094907
 20
1.8603674385
 30
0.0
 10
18.7061094907
 20
1.7135815178
 30
0.0
 10
18.6705098152
 20
1.4089773525
 30
0.0
 10
18.5322680425
 20
0.9626330262
 30
0.0
 10
18.3168562426
 20
0.5364158975
 30
0.0
 10
18.0396190043
 20
0.1613335691
 30
0.0
 10
17.7205354485
 20
-0.1356677359
 30
0.0
 10
17.4270807423
 20
-0.3061986401
 30
0.0
 10
17.1929949501
 20
-0.3786489583
 30
0.0
 10
17.0277897809
 20
-0.4000980944
 30
0.0
 10
16.870381781
 20
-0.3897647704
 30
0.0
 10
16.771724047
 20
-0.3611020991
 30
0.0
 10
16.7257051687
 20
-0.341802898
 30
0.0
 11
18.7061094907
 21
1.8603674385
 31
0.0
 11
18.6589850772
 21
1.4225384213
 31
0.0
 11
18.5212092196
 21
0.9709973935
 31
0.0
 11
18.3032791292
 21
0.5400221785
 31
0.0
 11
18.0217878426
 21
0.1624897076
 31
0.0
 11
17.6981688447
 21
-0.132851854
 31
0.0
 11
17.3570723384
 21
-0.3235101324
 31
0.0
 11
17.1880884144
 21
-0.3747134201
 31
0.0
 11
17.024475354
 21
-0.3949751059
 31
0.0
 11
16.8693588682
 21
-0.3839381742
 31
0.0
 11
16.7257051687
 21
-0.341802898
 31
0.0
  0
SPLINE
  5
44C
100
AcDbEntity
  8
0
100
AcDbSpline
 62
7
  6
CONTINUOUS
 70
0
 71
3
 72
9
 73
5
 74
3
 42
0.0000001
 43
0.0000001
 44
0.0000000001
 12
0.1117370796
 22
-0.3990861853
 32
0.0
 13
0.0
 23
-0.4144332977
 33
0.0
 40
0.0
 40
0.0
 40
0.0
 40
0.0
 40
0.2373466072
 40
1.0
 40
1.0
 40
1.0
 40
1.0
 10
18.6536621213
 20
2.2707208931
 30
0.0
 10
18.6625022602
 20
2.2391469757
 30
0.0
 10
18.6944186723
 20
2.1046362668
 30
0.0
 10
18.7061094907
 20
1.9657237587
 30
0.0
 10
18.7061094907
 20
1.8603674385
 30
0.0
 11
18.6536621213
 21
2.2707208931
 31
0.0
 11
18.6765133878
 21
2.1750476865
 31
0.0
 11
18.7061094907
 21
1.8603674385
 31
0.0
  0
SPLINE
  5
44D
100
AcDbEntity
  8
ASSI
100
AcDbSpline
 62
7
  6
CONTINUOUS
 70
0
 71
3
 72
17
 73
13
 74
11
 42
0.0000001
 43
0.0000001
 44
0.0000000001
 12
-0.9525127272
 22
0.4762563636
 32
0.0
 13
0.0000586355
 23
-1.0649416021
 33
0.0
 40
0.0
 40
0.0
 40
0.0
 40
0.0
 40
0.129825922
 40
0.2748070512
 40
0.4262226163
 40
0.5743898362
 40
0.7100958581
 40
0.8263347758
 40
0.8762939073
 40
0.9210597763
 40
0.9616998
 40
1.0
 40
1.0
 40
1.0
 40
1.0
 10
9.1248126056
 20
-4.2130664412
 30
0.0
 10
9.0835923246
 20
-4.1924563007
 30
0.0
 10
8.9909144119
 20
-4.1595607999
 30
0.0
 10
8.8413031107
 20
-4.1337137419
 30
0.0
 10
8.6829747954
 20
-4.1299469869
 30
0.0
 10
8.5289737248
 20
-4.1486079638
 30
0.0
 10
8.3919009846
 20
-4.188084433
 30
0.0
 10
8.2957600908
 20
-4.2382799279
 30
0.0
 10
8.2388415207
 20
-4.2874758847
 30
0.0
 10
8.208859227
 20
-4.3254847905
 30
0.0
 10
8.1901808443
 20
-4.3657470587
 30
0.0
 10
8.1859230526
 20
-4.393924982
 30
0.0
 10
8.1859238012
 20
-4.4075208074
 30
0.0
 11
9.1248126056
 21
-4.2130664412
 31
0.0
 11
8.9951809315
 21
-4.1649973845
 31
0.0
 11
8.8431981739
 21
-4.1378036191
 31
0.0
 11
8.6819979474
 21
-4.1338486952
 31
0.0
 11
8.5254315989
 21
-4.1534569815
 31
0.0
 11
8.3869961677
 21
-4.1949463712
 31
0.0
 11
8.2786081989
 21
-4.2547412945
 31
0.0
 11
8.238713295
 21
-4.2899409418
 31
0.0
 11
8.2095996635
 21
-4.3276916352
 31
0.0
 11
8.1918581287
 21
-4.3671673442
 31
0.0
 11
8.1859238012
 21
-4.4075208074
 31
0.0
  0
SPLINE
  5
44E
100
AcDbEntity
  8
RACCORDO
100
AcDbSpline
 62
7
  6
CONTINUOUS
 70
0
 71
3
 72
10
 73
6
 74
4
 42
0.0000001
 43
0.0000001
 44
0.0000000001
 12
0.3347768331
 22
0.1674476807
 32
0.0
 13
0.3348005421
 23
-0.1674002711
 33
0.0
 40
0.0
 40
0.0
 40
0.0
 40
0.0
 40
0.2302899068
 40
0.4694019161
 40
1.0
 40
1.0
 40
1.0
 40
1.0
 10
-21.6255469801
 20
9.4883516892
 30
0.0
 10
-21.5998484049
 20
9.5012055261
 30
0.0
 10
-21.5435292486
 20
9.520230789
 30
0.0
 10
-21.4178191411
 20
9.5275464935
 30
0.0
 10
-21.3227689524
 20
9.4973602366
 30
0.0
 10
-21.2635541103
 20
9.4677528156
 30
0.0
 11
-21.6255469801
 21
9.4883516892
 31
0.0
 11
-21.5439404135
 21
9.5161205442
 31
0.0
 11
-21.4546269244
 21
9.521957537
 31
0.0
 11
-21.2635541103
 21
9.4677528156
 31
0.0
  0
SPLINE
  5
44F
100
AcDbEntity
  8
RACCORDO
100
AcDbSpline
 62
7
  6
CONTINUOUS
 70
0
 71
3
 72
9
 73
5
 74
3
 42
0.0000001
 43
0.0000001
 44
0.0000000001
 12
-0.1379238484
 22
-0.0689740637
 32
0.0
 13
-0.0649403201
 23
-0.1398683818
 33
0.0
 40
0.0
 40
0.0
 40
0.0
 40
0.0
 40
0.4808321681
 40
1.0
 40
1.0
 40
1.0
 40
1.0
 10
-21.4961520348
 20
9.2176399813
 30
0.0
 10
-21.5182581091
 20
9.2065849984
 30
0.0
 10
-21.5600630294
 20
9.1744486769
 30
0.0
 10
-21.5880909323
 20
9.1302461985
 30
0.0
 10
-21.5993292407
 20
9.1060411437
 30
0.0
 11
-21.4961520348
 21
9.2176399813
 31
0.0
 11
-21.5552751695
 21
9.1728909538
 31
0.0
 11
-21.5993292407
 21
9.1060411437
 31
0.0
  0
SPLINE
  5
450
100
AcDbEntity
  8
RACCORDO
100
AcDbSpline
 62
7
  6
CONTINUOUS
 70
0
 71
3
 72
9
 73
5
 74
3
 42
0.0000001
 43
0.0000001
 44
0.0000000001
 12
-0.0702381599
 22
-0.1512788625
 32
0.0
 13
-0.0033111934
 23
-0.1667564972
 33
0.0
 40
0.0
 40
0.0
 40
0.0
 40
0.0
 40
0.232655721
 40
1.0
 40
1.0
 40
1.0
 40
1.0
 10
-21.5993292407
 20
9.1060411437
 30
0.0
 10
-21.6047763439
 20
9.0943091794
 30
0.0
 10
-21.6249318171
 20
9.0423701101
 30
0.0
 10
-21.6326725015
 20
8.9861564314
 30
0.0
 10
-21.6335194432
 20
8.9435032167
 30
0.0
 11
-21.5993292407
 21
9.1060411437
 31
0.0
 11
-21.61348292
 21
9.0699099572
 31
0.0
 11
-21.6335194432
 21
8.9435032167
 31
0.0
  0
SPLINE
  5
451
100
AcDbEntity
  8
RACCORDO
100
AcDbSpline
 62
7
  6
CONTINUOUS
 70
0
 71
3
 72
10
 73
6
 74
4
 42
0.0000001
 43
0.0000001
 44
0.0000000001
 12
0.0
 22
-0.1821555335
 32
0.0
 13
-0.1554888599
 23
-0.0948886337
 33
0.0
 40
0.0
 40
0.0
 40
0.0
 40
0.0
 40
0.5468079016
 40
0.7821197639
 40
1.0
 40
1.0
 40
1.0
 40
1.0
 10
4.3900287485
 20
19.0204312432
 30
0.0
 10
4.3900287485
 20
18.9872298815
 30
0.0
 10
4.3828564258
 20
18.9383401191
 30
0.0
 10
4.3515933509
 20
18.8854747258
 30
0.0
 10
4.3305271289
 20
18.8668448047
 30
0.0
 10
4.3192344791
 20
18.859953352
 30
0.0
 11
4.3900287485
 21
19.0204312432
 31
0.0
 11
4.3715540058
 21
18.9225555177
 31
0.0
 11
4.3491886589
 21
18.8859897045
 31
0.0
 11
4.3192344791
 21
18.859953352
 31
0.0
  0
SPLINE
  5
452
100
AcDbEntity
  8
0
100
AcDbSpline
 62
7
  6
CONTINUOUS
 70
0
 71
3
 72
8
 73
4
 74
2
 42
0.0000001
 43
0.0000001
 44
0.0000000001
 12
0.0
 22
-0.1342672156
 32
0.0
 13
-0.0694512804
 23
-0.1149095507
 33
0.0
 40
0.0
 40
0.0
 40
0.0
 40
0.0
 40
1.0
 40
1.0
 40
1.0
 40
1.0
 10
-13.715312162
 20
23.568161723
 30
0.0
 10
-13.715312162
 20
23.5234059845
 30
0.0
 10
-13.7282020914
 20
23.4771251296
 30
0.0
 10
-13.7513525182
 20
23.438821946
 30
0.0
 11
-13.715312162
 21
23.568161723
 31
0.0
 11
-13.7513525182
 21
23.438821946
 31
0.0
  0
SPLINE
  5
453
100
AcDbEntity
  8
0
100
AcDbSpline
 62
7
  6
CONTINUOUS
 70
0
 71
3
 72
8
 73
4
 74
2
 42
0.0000001
 43
0.0000001
 44
0.0000000001
 12
0.0861007395
 22
-0.0674674098
 32
0.0
 13
0.0489774714
 23
-0.0978079548
 33
0.0
 40
0.0
 40
0.0
 40
0.0
 40
0.0
 40
1.0
 40
1.0
 40
1.0
 40
1.0
 10
-1.5073883474
 20
-23.6865649678
 30
0.0
 10
-1.4786881009
 20
-23.7090541044
 30
0.0
 10
-1.4544811032
 20
-23.7386498065
 30
0.0
 10
-1.4381552794
 20
-23.7712524581
 30
0.0
 11
-1.5073883474
 21
-23.6865649678
 31
0.0
 11
-1.4381552794
 21
-23.7712524581
 31
0.0
  0
SPLINE
  5
454
100
AcDbEntity
  8
0
100
AcDbSpline
 62
7
  6
CONTINUOUS
 70
0
 71
3
 72
8
 73
4
 74
2
 42
0.0000001
 43
0.0000001
 44
0.0000000001
 12
0.0515533437
 22
-0.1029519688
 32
0.0
 13
-0.0000107715
 23
-0.1151384167
 33
0.0
 40
0.0
 40
0.0
 40
0.0
 40
0.0
 40
1.0
 40
1.0
 40
1.0
 40
1.0
 10
-1.4381552794
 20
-23.7712524581
 30
0.0
 10
-1.4209708315
 20
-23.805569781
 30
0.0
 10
-1.4116476046
 20
-23.8449193541
 30
0.0
 10
-1.4116511951
 20
-23.8832988263
 30
0.0
 11
-1.4381552794
 21
-23.7712524581
 31
0.0
 11
-1.4116511951
 21
-23.8832988263
 31
0.0
  0
SPLINE
  5
455
100
AcDbEntity
  8
0
100
AcDbSpline
 62
7
  6
CONTINUOUS
 70
0
 71
3
 72
8
 73
4
 74
2
 42
0.0000001
 43
0.0000001
 44
0.0000000001
 12
0.0543607661
 22
-0.0198481506
 32
0.0
 13
0.0517650045
 23
-0.0258732734
 33
0.0
 40
0.0
 40
0.0
 40
0.0
 40
0.0
 40
1.0
 40
1.0
 40
1.0
 40
1.0
 10
-1.1779067993
 20
22.1669004697
 30
0.0
 10
-1.1597865439
 20
22.1602844196
 30
0.0
 10
-1.1420598452
 20
22.152520019
 30
0.0
 10
-1.1248048437
 20
22.1438955945
 30
0.0
 11
-1.1779067993
 21
22.1669004697
 31
0.0
 11
-1.1248048437
 21
22.1438955945
 31
0.0
  0
SPLINE
  5
456
100
AcDbEntity
  8
0
100
AcDbSpline
 62
7
  6
CONTINUOUS
 70
0
 71
3
 72
8
 73
4
 74
2
 42
0.0000001
 43
0.0000001
 44
0.0000000001
 12
0.0329040484
 22
0.0122680275
 32
0.0
 13
0.0345005407
 23
0.0065493199
 33
0.0
 40
0.0
 40
0.0
 40
0.0
 40
0.0
 40
1.0
 40
1.0
 40
1.0
 40
1.0
 10
-6.9664520998
 20
24.9716471492
 30
0.0
 10
-6.9554840836
 20
24.9757364917
 30
0.0
 10
-6.9441136368
 20
24.9788516477
 30
0.0
 10
-6.9326134566
 20
24.9810347543
 30
0.0
 11
-6.9664520998
 21
24.9716471492
 31
0.0
 11
-6.9326134566
 21
24.9810347543
 31
0.0
  0
SPLINE
  5
457
100
AcDbEntity
  8
0
100
AcDbSpline
 62
7
  6
CONTINUOUS
 70
0
 71
3
 72
9
 73
5
 74
3
 42
0.0000001
 43
0.0000001
 44
0.0000000001
 12
0.0623999173
 22
0.0118455251
 32
0.0
 13
0.0633791594
 23
-0.0041410509
 33
0.0
 40
0.0
 40
0.0
 40
0.0
 40
0.0
 40
0.2446357508
 40
1.0
 40
1.0
 40
1.0
 40
1.0
 10
-6.9326134566
 20
24.9810347543
 30
0.0
 10
-6.9275250397
 20
24.9820007006
 30
0.0
 10
-6.9065876743
 20
24.9852157378
 30
0.0
 10
-6.8852522965
 20
24.9855816767
 30
0.0
 10
-6.8692941795
 20
24.9845390094
 30
0.0
 11
-6.9326134566
 21
24.9810347543
 31
0.0
 11
-6.9172571638
 21
24.9834032177
 31
0.0
 11
-6.8692941795
 21
24.9845390094
 31
0.0
  0
SPLINE
  5
458
100
AcDbEntity
  8
0
100
AcDbSpline
 62
7
  6
CONTINUOUS
 70
0
 71
3
 72
9
 73
5
 74
3
 42
0.0000001
 43
0.0000001
 44
0.0000000001
 12
0.1609531497
 22
-0.0105163146
 32
0.0
 13
0.1442690579
 23
-0.0721314647
 33
0.0
 40
0.0
 40
0.0
 40
0.0
 40
0.0
 40
0.2395050636
 40
1.0
 40
1.0
 40
1.0
 40
1.0
 10
-6.8692941795
 20
24.9845390094
 30
0.0
 10
-6.8564444813
 20
24.9836994392
 30
0.0
 10
-6.8030203704
 20
24.9766206309
 30
0.0
 10
-6.7517706402
 20
24.9573776289
 30
0.0
 10
-6.7151986775
 20
24.9390924244
 30
0.0
 11
-6.8692941795
 21
24.9845390094
 31
0.0
 11
-6.8309785195
 21
24.9796108476
 31
0.0
 11
-6.7151986775
 21
24.9390924244
 31
0.0
  0
LINE
  5
459
100
AcDbEntity
  8
0
100
AcDbLine
 62
7
  6
CONTINUOUS
 10
-21.6412209066
 20
-7.9478428888
 11
-21.6445662765
 21
-7.7310083362
  0
LINE
  5
45A
100
AcDbEntity
  8
0
100
AcDbLine
 62
7
  6
CONTINUOUS
 10
-8.4183240985
 20
-14.5592912929
 11
-8.4216694683
 21
-14.3424567403
  0
SPLINE
  5
45B
100
AcDbEntity
  8
0
100
AcDbSpline
 62
7
  6
CONTINUOUS
 70
0
 71
3
 72
9
 73
5
 74
3
 42
0.0000001
 43
0.0000001
 44
0.0000000001
 12
-0.0000351102
 22
0.0098568031
 32
0.0
 13
-0.0088204142
 23
0.0043997833
 33
0.0
 40
0.0
 40
0.0
 40
0.0
 40
0.0
 40
0.490895114
 40
1.0
 40
1.0
 40
1.0
 40
1.0
 10
-6.1949288779
 20
24.6735004231
 30
0.0
 10
-6.194934623
 20
24.6751133086
 30
0.0
 10
-6.1956959144
 20
24.6785421721
 30
0.0
 10
-6.1984555733
 20
24.6807227281
 30
0.0
 10
-6.1999524119
 20
24.6814693785
 30
0.0
 11
-6.1949288779
 21
24.6735004231
 31
0.0
 11
-6.1961636141
 21
24.6781789186
 31
0.0
 11
-6.1999524119
 21
24.6814693785
 31
0.0
  0
SPLINE
  5
45C
100
AcDbEntity
  8
0
100
AcDbSpline
 62
7
  6
CONTINUOUS
 70
0
 71
3
 72
9
 73
5
 74
3
 42
0.0000001
 43
0.0000001
 44
0.0000000001
 12
-0.0000310628
 22
0.0098532891
 32
0.0
 13
-0.008813579
 23
0.0044055756
 33
0.0
 40
0.0
 40
0.0
 40
0.0
 40
0.0
 40
0.4910210291
 40
1.0
 40
1.0
 40
1.0
 40
1.0
 10
-0.6044821646
 20
21.8782718183
 30
0.0
 10
-0.6044872487
 20
21.8798845424
 30
0.0
 10
-0.6052461218
 20
21.8833124333
 30
0.0
 10
-0.6080026647
 20
21.885494624
 30
0.0
 10
-0.6094979735
 20
21.8862420724
 30
0.0
 11
-0.6044821646
 21
21.8782718183
 31
0.0
 11
-0.6057141355
 21
21.8829505351
 31
0.0
 11
-0.6094979735
 21
21.8862420724
 31
0.0
  0
SPLINE
  5
45D
100
AcDbEntity
  8
RACCORDO
100
AcDbSpline
 62
7
  6
CONTINUOUS
 70
0
 71
3
 72
11
 73
7
 74
5
 42
0.0000001
 43
0.0000001
 44
0.0000000001
 12
0.940685401
 22
-0.4703427005
 32
0.0
 13
0.1171167836
 23
-1.0451769891
 33
0.0
 40
0.0
 40
0.0
 40
0.0
 40
0.0
 40
0.2259935033
 40
0.4791233012
 40
0.7435330234
 40
1.0
 40
1.0
 40
1.0
 40
1.0
 10
-8.9598961177
 20
3.3159238193
 30
0.0
 10
-8.8890331879
 20
3.2804923544
 30
0.0
 10
-8.7525699747
 20
3.1773996561
 30
0.0
 10
-8.5897784066
 20
2.9712043393
 30
0.0
 10
-8.470292486
 20
2.7254059915
 30
0.0
 10
-8.4266262981
 20
2.5461367243
 30
0.0
 10
-8.4166141023
 20
2.4567855969
 30
0.0
 11
-8.9598961177
 21
3.3159238193
 31
0.0
 11
-8.7673209963
 21
3.1766136822
 31
0.0
 11
-8.60024225
 21
2.9693495151
 31
0.0
 11
-8.4785344336
 21
2.7193130906
 31
0.0
 11
-8.4166141023
 21
2.4567855969
 31
0.0
  0
SPLINE
  5
45E
100
AcDbEntity
  8
RACCORDO
100
AcDbSpline
 62
7
  6
CONTINUOUS
 70
0
 71
3
 72
9
 73
5
 74
3
 42
0.0000001
 43
0.0000001
 44
0.0000000001
 12
0.0139112451
 22
-0.1241471361
 32
0.0
 13
-0.0024800616
 23
-0.1248994933
 33
0.0
 40
0.0
 40
0.0
 40
0.0
 40
0.0
 40
0.2558751888
 40
1.0
 40
1.0
 40
1.0
 40
1.0
 10
-8.4166141023
 20
2.4567855969
 30
0.0
 10
-8.4154275882
 20
2.4461968729
 30
0.0
 10
-8.411427826
 20
2.4047473299
 30
0.0
 10
-8.4100074766
 20
2.3630350832
 30
0.0
 10
-8.410622635
 20
2.3320548126
 30
0.0
 11
-8.4166141023
 21
2.4567855969
 31
0.0
 11
-8.413549588
 21
2.4249678539
 31
0.0
 11
-8.410622635
 21
2.3320548126
 31
0.0
  0
SPLINE
  5
45F
100
AcDbEntity
  8
RACCORDO
100
AcDbSpline
 62
7
  6
CONTINUOUS
 70
0
 71
3
 72
9
 73
5
 74
3
 42
0.0000001
 43
0.0000001
 44
0.0000000001
 12
0.0066987951
 22
-0.1115512554
 32
0.0
 13
-0.0102998355
 23
-0.1112765466
 33
0.0
 40
0.0
 40
0.0
 40
0.0
 40
0.0
 40
0.2580600185
 40
1.0
 40
1.0
 40
1.0
 40
1.0
 10
-8.268197572
 20
-18.5545474275
 30
0.0
 10
-8.2676213416
 20
-18.5641430671
 30
0.0
 10
-8.2660367388
 20
-18.6013601815
 30
0.0
 10
-8.2670944992
 20
-18.6387109733
 30
0.0
 10
-8.2696417857
 20
-18.6662311463
 30
0.0
 11
-8.268197572
 21
-18.5545474275
 31
0.0
 11
-8.2669794645
 21
-18.5833604678
 31
0.0
 11
-8.2696417857
 21
-18.6662311463
 31
0.0
  0
SPLINE
  5
460
100
AcDbEntity
  8
RACCORDO
100
AcDbSpline
 62
7
  6
CONTINUOUS
 70
0
 71
3
 72
11
 73
7
 74
5
 42
0.0000001
 43
0.0000001
 44
0.0000000001
 12
-0.0336778403
 22
-0.3638459837
 32
0.0
 13
-0.32680154
 23
-0.163459017
 33
0.0
 40
0.0
 40
0.0
 40
0.0
 40
0.0
 40
0.2850610747
 40
0.5417173367
 40
0.7763382439
 40
1.0
 40
1.0
 40
1.0
 40
1.0
 10
-8.2696417857
 20
-18.6662311463
 30
0.0
 10
-8.2728418662
 20
-18.700803922
 30
0.0
 10
-8.2842491945
 20
-18.7662463582
 30
0.0
 10
-8.3198528238
 20
-18.8547592619
 30
0.0
 10
-8.3726458247
 20
-18.9254231677
 30
0.0
 10
-8.4188675511
 20
-18.9586082342
 30
0.0
 10
-8.4432318866
 20
-18.9707947444
 30
0.0
 11
-8.2696417857
 21
-18.6662311463
 31
0.0
 11
-8.2885679257
 21
-18.7686589611
 31
0.0
 11
-8.3246152861
 21
-18.8552369618
 31
0.0
 11
-8.3767001107
 21
-18.9233320256
 31
0.0
 11
-8.4432318866
 21
-18.9707947444
 31
0.0
  0
LINE
  5
461
100
AcDbEntity
  8
RACCORDO
100
AcDbLine
 62
7
  6
CONTINUOUS
 10
-21.6335194432
 20
8.9435032167
 11
-21.6363048767
 21
8.797779625
  0
LINE
  5
462
100
AcDbEntity
  8
RACCORDO
100
AcDbLine
 62
7
  6
CONTINUOUS
 10
-8.410622635
 20
2.3320548126
 11
-8.413408062
 21
2.1863315746
  0
SPLINE
  5
463
100
AcDbEntity
  8
RACCORDO
100
AcDbSpline
 62
7
  6
CONTINUOUS
 70
0
 71
3
 72
10
 73
6
 74
4
 42
0.0000001
 43
0.0000001
 44
0.0000000001
 12
0.2012956573
 22
-0.1006478286
 32
0.0
 13
0.2012895358
 23
0.1006600707
 33
0.0
 40
0.0
 40
0.0
 40
0.0
 40
0.0
 40
0.5430576527
 40
0.7790026322
 40
1.0
 40
1.0
 40
1.0
 40
1.0
 10
-8.807648014
 20
-18.6915999254
 30
0.0
 10
-8.7712096317
 20
-18.7098191166
 30
0.0
 10
-8.713952582
 20
-18.7292829658
 30
0.0
 10
-8.6382616596
 20
-18.726927406
 30
0.0
 10
-8.6050539701
 20
-18.716297779
 30
0.0
 10
-8.5902258176
 20
-18.7088825755
 30
0.0
 11
-8.807648014
 21
-18.6915999254
 31
0.0
 11
-8.6905504028
 21
-18.7266056562
 31
0.0
 11
-8.6374978546
 21
-18.7243450678
 31
0.0
 11
-8.5902258176
 21
-18.7088825755
 31
0.0
  0
SPLINE
  5
464
100
AcDbEntity
  8
RACCORDO
100
AcDbSpline
 62
7
  6
CONTINUOUS
 70
0
 71
3
 72
11
 73
7
 74
5
 42
0.0000001
 43
0.0000001
 44
0.0000000001
 12
0.0439417543
 22
-0.7317372444
 32
0.0
 13
0.6556647147
 23
-0.3278323573
 33
0.0
 40
0.0
 40
0.0
 40
0.0
 40
0.0
 40
0.2426743677
 40
0.5074175482
 40
0.7682247895
 40
1.0
 40
1.0
 40
1.0
 40
1.0
 10
-21.4910943802
 20
-11.9430990234
 30
0.0
 10
-21.4875398677
 20
-12.0022903144
 30
0.0
 10
-21.4594338161
 20
-12.1249464858
 30
0.0
 10
-21.3757481275
 20
-12.2945230422
 30
0.0
 10
-21.2594185318
 20
-12.4401829736
 30
0.0
 10
-21.1619616158
 20
-12.5144431245
 30
0.0
 10
-21.1113060067
 20
-12.5397709291
 30
0.0
 11
-21.4910943802
 21
-11.9430990234
 31
0.0
 11
-21.4544419638
 21
-12.1171759943
 31
0.0
 11
-21.3693617909
 21
-12.2916038683
 31
0.0
 11
-21.2488495326
 21
-12.4400253818
 31
0.0
 11
-21.1113060067
 21
-12.5397709291
 31
0.0
  0
SPLINE
  5
465
100
AcDbEntity
  8
0
100
AcDbSpline
 62
7
  6
CONTINUOUS
 70
0
 71
3
 72
10
 73
6
 74
4
 42
0.0000001
 43
0.0000001
 44
0.0000000001
 12
0.3337797138
 22
0.4033469033
 32
0.0
 13
-0.2159583465
 23
0.4769272631
 33
0.0
 40
0.0
 40
0.0
 40
0.0
 40
0.0
 40
0.437339694
 40
0.7085619899
 40
1.0
 40
1.0
 40
1.0
 40
1.0
 10
-0.7701806938
 20
20.8899635966
 30
0.0
 10
-0.7215223211
 20
20.948763467
 30
0.0
 10
-0.693546364
 20
21.082294987
 30
0.0
 10
-0.7169825918
 20
21.2542554905
 30
0.0
 10
-0.7492012035
 20
21.3482104056
 30
0.0
 10
-0.7701806938
 20
21.3945419831
 30
0.0
 11
-0.7701806938
 21
20.8899635966
 31
0.0
 11
-0.7039716529
 21
21.1091482694
 31
0.0
 11
-0.7209310497
 21
21.2501284819
 31
0.0
 11
-0.7701806938
 21
21.3945419831
 31
0.0
  0
SPLINE
  5
466
100
AcDbEntity
  8
RACCORDO
100
AcDbSpline
 62
253
  6
CONTINUOUS
 70
0
 71
3
 72
15
 73
11
 74
9
 42
0.0000001
 43
0.0000001
 44
0.0000000001
 12
-0.3883410732
 22
-0.2215298029
 32
0.0
 13
0.399929036
 23
-0.1998524677
 33
0.0
 40
0.0
 40
0.0
 40
0.0
 40
0.0
 40
0.1500930291
 40
0.2826437627
 40
0.3991344756
 40
0.5054837915
 40
0.6107835806
 40
0.7245283673
 40
0.8535173535
 40
1.0
 40
1.0
 40
1.0
 40
1.0
 10
-5.0773328049
 20
16.4082988511
 30
0.0
 10
-5.0967619009
 20
16.3972154913
 30
0.0
 10
-5.131902234
 20
16.3735471434
 30
0.0
 10
-5.1741700302
 20
16.3310211682
 30
0.0
 10
-5.2010407613
 20
16.2844716452
 30
0.0
 10
-5.2103176962
 20
16.2353446123
 30
0.0
 10
-5.2007185659
 20
16.1866549652
 30
0.0
 10
-5.1733106062
 20
16.1416067587
 30
0.0
 10
-5.1304277852
 20
16.1017696285
 30
0.0
 10
-5.0950145536
 20
16.0804823036
 30
0.0
 10
-5.075486999
 20
16.0707239975
 30
0.0
 11
-5.0773328049
 21
16.4082988511
 31
0.0
 11
-5.1326143774
 21
16.3702604041
 31
0.0
 11
-5.1737338505
 21
16.3275861202
 31
0.0
 11
-5.1989248619
 21
16.2820025777
 31
0.0
 11
-5.2072601642
 21
16.2351918001
 31
0.0
 11
-5.1984746121
 21
16.1889409659
 31
0.0
 11
-5.1728360517
 21
16.1450235221
 31
0.0
 11
-5.1312452049
 21
16.105074715
 31
0.0
 11
-5.075486999
 21
16.0707239975
 31
0.0
  0
SPLINE
  5
467
100
AcDbEntity
  8
RACCORDO
100
AcDbSpline
 62
253
  6
CONTINUOUS
 70
0
 71
3
 72
9
 73
5
 74
3
 42
0.0000001
 43
0.0000001
 44
0.0000000001
 12
0.0000503036
 22
0.1991513152
 32
0.0
 13
-0.022644745
 23
0.1978597089
 33
0.0
 40
0.0
 40
0.0
 40
0.0
 40
0.0
 40
0.2445566719
 40
1.0
 40
1.0
 40
1.0
 40
1.0
 10
-9.1830381157
 20
-5.8324748039
 30
0.0
 10
-9.183034015
 20
-5.8162402096
 30
0.0
 10
-9.1840345504
 20
-5.7498584258
 30
0.0
 10
-9.1889772306
 20
-5.6835496063
 30
0.0
 10
-9.1946795045
 20
-5.633725674
 30
0.0
 11
-9.1830381157
 21
-5.8324748039
 31
0.0
 11
-9.1837591619
 21
-5.7837763572
 31
0.0
 11
-9.1946795045
 21
-5.633725674
 31
0.0
  0
SPLINE
  5
468
100
AcDbEntity
  8
RACCORDO
100
AcDbSpline
 62
253
  6
CONTINUOUS
 70
0
 71
3
 72
11
 73
7
 74
5
 42
0.0000001
 43
0.0000001
 44
0.0000000001
 12
-0.1967275004
 22
1.7189173912
 32
0.0
 13
-1.3652859555
 23
1.0627196088
 33
0.0
 40
0.0
 40
0.0
 40
0.0
 40
0.0
 40
0.2474222469
 40
0.505914869
 40
0.7613041457
 40
1.0
 40
1.0
 40
1.0
 40
1.0
 10
-9.1946795045
 20
-5.633725674
 30
0.0
 10
-9.2109044245
 20
-5.4919595396
 30
0.0
 10
-9.2766548457
 20
-5.2053137999
 30
0.0
 10
-9.4528087116
 20
-4.8006852973
 30
0.0
 10
-9.6955992679
 20
-4.4381692494
 30
0.0
 10
-9.8988675697
 20
-4.2346858267
 30
0.0
 10
-10.0074969355
 20
-4.1501302384
 30
0.0
 11
-9.1946795045
 21
-5.633725674
 31
0.0
 11
-9.2874884508
 21
-5.2158327888
 31
0.0
 11
-9.4653888093
 21
-4.8055105435
 31
0.0
 11
-9.7127060386
 21
-4.4393502355
 31
0.0
 11
-10.0074969355
 21
-4.1501302384
 31
0.0
  0
SPLINE
  5
469
100
AcDbEntity
  8
RACCORDO
100
AcDbSpline
 62
253
  6
CONTINUOUS
 70
0
 71
3
 72
9
 73
5
 74
3
 42
0.0000001
 43
0.0000001
 44
0.0000000001
 12
-0.2193091791
 22
0.1707072164
 32
0.0
 13
-0.2485640173
 23
0.1243117014
 33
0.0
 40
0.0
 40
0.0
 40
0.0
 40
0.0
 40
0.2595738889
 40
1.0
 40
1.0
 40
1.0
 40
1.0
 10
-10.0074969355
 20
-4.1501302384
 30
0.0
 10
-10.026472581
 20
-4.1353598597
 30
0.0
 10
-10.1008265835
 20
-4.0801055261
 30
0.0
 10
-10.1802900954
 20
-4.0315511833
 30
0.0
 10
-10.2416378583
 20
-4.0008699734
 30
0.0
 11
-10.0074969355
 21
-4.1501302384
 31
0.0
 11
-10.0654175678
 21
-4.1071261312
 31
0.0
 11
-10.2416378583
 21
-4.0008699734
 31
0.0
  0
SPLINE
  5
46A
100
AcDbEntity
  8
RACCORDO
100
AcDbSpline
 62
253
  6
CONTINUOUS
 70
0
 71
3
 72
15
 73
11
 74
9
 42
0.0000001
 43
0.0000001
 44
0.0000000001
 12
-1.4698075072
 22
0.7346918754
 32
0.0
 13
-0.0008218106
 23
-1.6431998006
 33
0.0
 40
0.0
 40
0.0
 40
0.0
 40
0.0
 40
0.1347533126
 40
0.2570012026
 40
0.3701423711
 40
0.4800253981
 40
0.5934377577
 40
0.7160834993
 40
0.8513401548
 40
1.0
 40
1.0
 40
1.0
 40
1.0
 10
-20.1535460781
 20
0.9550841365
 30
0.0
 10
-20.2195665549
 20
0.9880848578
 30
0.0
 10
-20.3517786974
 20
1.0398272403
 30
0.0
 10
-20.554745956
 20
1.0682184703
 30
0.0
 10
-20.7448177977
 20
1.0403151996
 30
0.0
 10
-20.9121540508
 20
0.9555264452
 30
0.0
 10
-21.0473804616
 20
0.8186152549
 30
0.0
 10
-21.1454417527
 20
0.6378942242
 30
0.0
 10
-21.2042758566
 20
0.4214952979
 30
0.0
 10
-21.2161807141
 20
0.2655427997
 30
0.0
 10
-21.2162214375
 20
0.184116857
 30
0.0
 11
-20.1535460781
 21
0.9550841365
 31
0.0
 11
-20.360607743
 21
1.0335393826
 31
0.0
 11
-20.5598760919
 21
1.0589163202
 31
0.0
 11
-20.7435624485
 21
1.0302252507
 31
0.0
 11
-20.9046407119
 21
0.9486431997
 31
0.0
 11
-21.0368619715
 21
0.8173142759
 31
0.0
 11
-21.1351485017
 21
0.6413748069
 31
0.0
 11
-21.1957135401
 21
0.4275323421
 31
0.0
 11
-21.2162214375
 21
0.184116857
 31
0.0
  0
SPLINE
  5
46B
100
AcDbEntity
  8
RACCORDO
100
AcDbSpline
 62
253
  6
CONTINUOUS
 70
0
 71
3
 72
11
 73
7
 74
5
 42
0.0000001
 43
0.0000001
 44
0.0000000001
 12
0.5852300107
 22
-0.2928473416
 32
0.0
 13
0.5714867888
 23
0.3188362921
 33
0.0
 40
0.0
 40
0.0
 40
0.0
 40
0.0
 40
0.233717506
 40
0.496573559
 40
0.7612407692
 40
1.0
 40
1.0
 40
1.0
 40
1.0
 10
-3.3887212748
 20
15.2273411354
 30
0.0
 10
-3.3431284419
 20
15.2045266186
 30
0.0
 10
-3.2377834667
 20
15.1730226846
 30
0.0
 10
-3.0711060099
 20
15.1616959031
 30
0.0
 10
-2.9043493455
 20
15.1835136353
 30
0.0
 10
-2.7996643294
 20
15.2213482864
 30
0.0
 10
-2.7541817474
 20
15.2467233223
 30
0.0
 11
-3.3887212748
 21
15.2273411354
 31
0.0
 11
-3.243215781
 21
15.1802133463
 31
0.0
 11
-3.0716777191
 21
15.1674008985
 31
0.0
 11
-2.9000572112
 21
15.1907468226
 31
0.0
 11
-2.7541817474
 21
15.2467233223
 31
0.0
  0
SPLINE
  5
46C
100
AcDbEntity
  8
RACCORDO
100
AcDbSpline
 62
253
  6
CONTINUOUS
 70
0
 71
3
 72
10
 73
6
 74
4
 42
0.0000001
 43
0.0000001
 44
0.0000000001
 12
0.0000406213
 22
-0.1249947148
 32
0.0
 13
0.1118022175
 23
-0.0558922584
 33
0.0
 40
0.0
 40
0.0
 40
0.0
 40
0.0
 40
0.2185028044
 40
0.4507915579
 40
1.0
 40
1.0
 40
1.0
 40
1.0
 10
-5.0146788727
 20
16.4050510366
 30
0.0
 10
-5.0146759141
 20
16.395947138
 30
0.0
 10
-5.0112346951
 20
16.3770011678
 30
0.0
 10
-4.9899388432
 20
16.3404621581
 30
0.0
 10
-4.961952861
 20
16.3209432804
 30
0.0
 10
-4.9414852872
 20
16.3107111136
 30
0.0
 11
-5.0146788727
 21
16.4050510366
 31
0.0
 11
-5.0098929732
 21
16.3781619316
 31
0.0
 11
-4.9956857461
 21
16.3528404336
 31
0.0
 11
-4.9414852872
 21
16.3107111136
 31
0.0
  0
SPLINE
  5
46D
100
AcDbEntity
  8
0
100
AcDbSpline
 62
253
  6
CONTINUOUS
 70
0
 71
3
 72
11
 73
7
 74
5
 42
0.0000001
 43
0.0000001
 44
0.0000000001
 12
-0.4160088913
 22
0.2406179417
 32
0.0
 13
-0.0620231803
 23
0.4765642839
 33
0.0
 40
0.0
 40
0.0
 40
0.0
 40
0.0
 40
0.2236798135
 40
0.4605518289
 40
0.7181011571
 40
1.0
 40
1.0
 40
1.0
 40
1.0
 10
-21.6508919987
 20
-17.673665849
 30
0.0
 10
-21.6819095958
 20
-17.6557253902
 30
0.0
 10
-21.7405723814
 20
-17.6090921111
 30
0.0
 10
-21.8088291027
 20
-17.515066688
 30
0.0
 10
-21.8573432455
 20
-17.3995782134
 30
0.0
 10
-21.8751165784
 20
-17.3144899132
 30
0.0
 10
-21.880944666
 20
-17.2697089398
 30
0.0
 11
-21.6508919987
 21
-17.673665849
 31
0.0
 11
-21.7353805389
 21
-17.6072034604
 31
0.0
 11
-21.8031687735
 21
-17.5157509475
 31
0.0
 11
-21.8521886474
 21
-17.4020978028
 31
0.0
 11
-21.880944666
 21
-17.2697089398
 31
0.0
  0
SPLINE
  5
46E
100
AcDbEntity
  8
0
100
AcDbSpline
 62
253
  6
CONTINUOUS
 70
0
 71
3
 72
11
 73
7
 74
5
 42
0.0000001
 43
0.0000001
 44
0.0000000001
 12
-0.0002556205
 22
-0.1190492571
 32
0.0
 13
-0.1062313157
 23
-0.0537373102
 33
0.0
 40
0.0
 40
0.0
 40
0.0
 40
0.0
 40
0.2069632709
 40
0.4351047998
 40
0.6978603879
 40
1.0
 40
1.0
 40
1.0
 40
1.0
 10
-1.4116545716
 20
-24.2309375531
 30
0.0
 10
-1.4116722063
 20
-24.2391504943
 30
0.0
 10
-1.4152997389
 20
-24.2565399653
 30
0.0
 10
-1.4303563323
 20
-24.2802935961
 30
0.0
 10
-1.4538159078
 20
-24.3016704478
 30
0.0
 10
-1.4731531302
 20
-24.3132635049
 30
0.0
 10
-1.4838520263
 20
-24.3186755616
 30
0.0
 11
-1.4116545716
 21
-24.2309375531
 31
0.0
 11
-1.4164264062
 21
-24.2551099345
 31
0.0
 11
-1.4304584391
 21
-24.278364512
 31
0.0
 11
-1.4532191135
 21
-24.2998225702
 31
0.0
 11
-1.4838520263
 21
-24.3186755616
 31
0.0
  0
SPLINE
  5
46F
100
AcDbEntity
  8
RACCORDO
100
AcDbSpline
 62
253
  6
CONTINUOUS
 70
0
 71
3
 72
11
 73
7
 74
5
 42
0.0000001
 43
0.0000001
 44
0.0000000001
 12
-0.2824028899
 22
0.1417260822
 32
0.0
 13
0.0008813145
 23
0.3159697737
 33
0.0
 40
0.0
 40
0.0
 40
0.0
 40
0.0
 40
0.2168657711
 40
0.450112764
 40
0.7106165434
 40
1.0
 40
1.0
 40
1.0
 40
1.0
 10
-20.02391002
 20
0.6833324358
 30
0.0
 10
-20.0443245268
 20
0.6935776145
 30
0.0
 10
-20.0829278079
 20
0.7231156718
 30
0.0
 10
-20.1243084967
 20
0.7868563768
 30
0.0
 10
-20.148776936
 20
0.8664736771
 30
0.0
 10
-20.1536310894
 20
0.9246053266
 30
0.0
 10
-20.1535460768
 20
0.955084135
 30
0.0
 11
-20.02391002
 21
0.6833324358
 31
0.0
 11
-20.0786462238
 21
0.7245560936
 31
0.0
 11
-20.1197476085
 21
0.7857301157
 31
0.0
 11
-20.1451081409
 21
0.8640375198
 31
0.0
 11
-20.1535460768
 21
0.955084135
 31
0.0
  0
SPLINE
  5
470
100
AcDbEntity
  8
0
100
AcDbSpline
 62
253
  6
CONTINUOUS
 70
0
 71
3
 72
9
 73
5
 74
3
 42
0.0000001
 43
0.0000001
 44
0.0000000001
 12
-0.1019364604
 22
0.0506833646
 32
0.0
 13
-0.1021121397
 23
-0.0503284844
 33
0.0
 40
0.0
 40
0.0
 40
0.0
 40
0.0
 40
0.4641918988
 40
1.0
 40
1.0
 40
1.0
 40
1.0
 10
-13.8536933206
 20
24.1393918964
 30
0.0
 10
-13.8694660137
 20
24.1472341654
 30
0.0
 10
-13.9089233906
 20
24.1538457259
 30
0.0
 10
-13.9460462188
 20
24.1416989496
 30
0.0
 10
-13.9642837227
 20
24.1327101464
 30
0.0
 11
-13.8536933206
 21
24.1393918964
 31
0.0
 11
-13.9055945683
 21
24.149330295
 31
0.0
 11
-13.9642837227
 21
24.1327101464
 31
0.0
  0
SPLINE
  5
471
100
AcDbEntity
  8
0
100
AcDbSpline
 62
253
  6
CONTINUOUS
 70
0
 71
3
 72
9
 73
5
 74
3
 42
0.0000001
 43
0.0000001
 44
0.0000000001
 12
0.1035822821
 22
0.0528648095
 32
0.0
 13
0.1042570885
 23
-0.0515212262
 33
0.0
 40
0.0
 40
0.0
 40
0.0
 40
0.0
 40
0.4633404558
 40
1.0
 40
1.0
 40
1.0
 40
1.0
 10
-17.8852827493
 20
23.9123545891
 30
0.0
 10
-17.8692847954
 20
23.9205193908
 30
0.0
 10
-17.8289486996
 20
23.9274843327
 30
0.0
 10
-17.7910199428
 20
23.9150348107
 30
0.0
 10
-17.7723697556
 20
23.9058183581
 30
0.0
 11
-17.8852827493
 21
23.9123545891
 31
0.0
 11
-17.8324229235
 21
23.9228056874
 31
0.0
 11
-17.7723697556
 21
23.9058183581
 31
0.0
  0
SPLINE
  5
472
100
AcDbEntity
  8
0
100
AcDbSpline
 62
253
  6
CONTINUOUS
 70
0
 71
3
 72
9
 73
5
 74
3
 42
0.0000001
 43
0.0000001
 44
0.0000000001
 12
0.0
 22
0.0672312779
 32
0.0
 13
0.0175169887
 23
0.064909166
 33
0.0
 40
0.0
 40
0.0
 40
0.0
 40
0.0
 40
0.2391933057
 40
1.0
 40
1.0
 40
1.0
 40
1.0
 10
-8.692421647
 20
20.0079210817
 30
0.0
 10
-8.692421647
 20
20.0132815055
 30
0.0
 10
-8.6915707689
 20
20.035689304
 30
0.0
 10
-8.6875508552
 20
20.0579308877
 30
0.0
 10
-8.6831085078
 20
20.0743919971
 30
0.0
 11
-8.692421647
 21
20.0079210817
 31
0.0
 11
-8.6918332869
 21
20.0239915866
 31
0.0
 11
-8.6831085078
 21
20.0743919971
 31
0.0
  0
SPLINE
  5
473
100
AcDbEntity
  8
0
100
AcDbSpline
 62
253
  6
CONTINUOUS
 70
0
 71
3
 72
9
 73
5
 74
3
 42
0.0000001
 43
0.0000001
 44
0.0000000001
 12
0.0382904325
 22
0.0840342318
 32
0.0
 13
0.0611853786
 23
0.0691683366
 33
0.0
 40
0.0
 40
0.0
 40
0.0
 40
0.0
 40
0.2541045617
 40
1.0
 40
1.0
 40
1.0
 40
1.0
 10
-8.6656212706
 20
20.1227759222
 30
0.0
 10
-8.6623780127
 20
20.1298937494
 30
0.0
 10
-8.6486116773
 20
20.1574308401
 30
0.0
 10
-8.6309417439
 20
20.1830675283
 30
0.0
 10
-8.6157291123
 20
20.2002649772
 30
0.0
 11
-8.6656212706
 21
20.1227759222
 31
0.0
 11
-8.6551297836
 21
20.1437656428
 31
0.0
 11
-8.6157291123
 21
20.2002649772
 31
0.0
  0
SPLINE
  5
474
100
AcDbEntity
  8
0
100
AcDbSpline
 62
253
  6
CONTINUOUS
 70
0
 71
3
 72
9
 73
5
 74
3
 42
0.0000001
 43
0.0000001
 44
0.0000000001
 12
0.0489032524
 22
0.055283741
 32
0.0
 13
0.0640914381
 23
0.0366074812
 33
0.0
 40
0.0
 40
0.0
 40
0.0
 40
0.0
 40
0.2644295703
 40
1.0
 40
1.0
 40
1.0
 40
1.0
 10
-8.6157291123
 20
20.2002649772
 30
0.0
 10
-8.6114186236
 20
20.2051378625
 30
0.0
 10
-8.5944888622
 20
20.2229786687
 30
0.0
 10
-8.5749118916
 20
20.2384708928
 30
0.0
 10
-8.5591973027
 20
20.2474466864
 30
0.0
 11
-8.6157291123
 21
20.2002649772
 31
0.0
 11
-8.6022800638
 21
20.214408916
 31
0.0
 11
-8.5591973027
 21
20.2474466864
 31
0.0
  0
SPLINE
  5
475
100
AcDbEntity
  8
0
100
AcDbSpline
 62
253
  6
CONTINUOUS
 70
0
 71
3
 72
11
 73
7
 74
5
 42
0.0000001
 43
0.0000001
 44
0.0000000001
 12
0.0
 22
0.2927347425
 32
0.0
 13
0.2610815641
 23
0.1324010815
 33
0.0
 40
0.0
 40
0.0
 40
0.0
 40
0.0
 40
0.2465991961
 40
0.5114081749
 40
0.7699752441
 40
1.0
 40
1.0
 40
1.0
 40
1.0
 10
-10.3931911884
 20
20.8583058524
 30
0.0
 10
-10.3931911884
 20
20.8823685698
 30
0.0
 10
-10.3849169935
 20
20.9323565559
 30
0.0
 10
-10.3549301119
 20
21.0019328824
 30
0.0
 10
-10.3108186311
 20
21.0615321014
 30
0.0
 10
-10.2726109913
 20
21.0916554622
 30
0.0
 10
-10.2525925837
 20
21.1018073044
 30
0.0
 11
-10.3931911884
 21
20.8583058524
 31
0.0
 11
-10.3825045241
 21
20.9296986008
 31
0.0
 11
-10.3520603294
 21
21.0009889475
 31
0.0
 11
-10.3064587
 21
21.0614017303
 31
0.0
 11
-10.2525925837
 21
21.1018073044
 31
0.0
  0
SPLINE
  5
476
100
AcDbEntity
  8
0
100
AcDbSpline
 62
253
  6
CONTINUOUS
 70
0
 71
3
 72
9
 73
5
 74
3
 42
0.0000001
 43
0.0000001
 44
0.0000000001
 12
0.1036396474
 22
0.053164101
 32
0.0
 13
0.1044250911
 23
-0.0516042488
 33
0.0
 40
0.0
 40
0.0
 40
0.0
 40
0.0
 40
0.4633167549
 40
1.0
 40
1.0
 40
1.0
 40
1.0
 10
-5.5817973902
 20
17.760437261
 30
0.0
 10
-5.5657913952
 20
17.7686478673
 30
0.0
 10
-5.5253907806
 20
17.7756853906
 30
0.0
 10
-5.4873928286
 20
17.7632210736
 30
0.0
 10
-5.468711763
 20
17.7539893617
 30
0.0
 11
-5.5817973902
 21
17.760437261
 31
0.0
 11
-5.5288705932
 21
17.7709827601
 31
0.0
 11
-5.468711763
 21
17.7539893617
 31
0.0
  0
SPLINE
  5
477
100
AcDbEntity
  8
RACCORDO
100
AcDbSpline
 62
253
  6
CONTINUOUS
 70
0
 71
3
 72
11
 73
7
 74
5
 42
0.0000001
 43
0.0000001
 44
0.0000000001
 12
-0.5706690175
 22
-0.2770642397
 32
0.0
 13
0.0019371118
 23
-0.6343689526
 33
0.0
 40
0.0
 40
0.0
 40
0.0
 40
0.0
 40
0.2177893117
 40
0.4510356761
 40
0.7105751538
 40
1.0
 40
1.0
 40
1.0
 40
1.0
 10
-20.2483652857
 20
0.7252132468
 30
0.0
 10
-20.2897938232
 20
0.7050993701
 30
0.0
 10
-20.368310754
 20
0.6467440616
 30
0.0
 10
-20.4525478341
 20
0.5194695287
 30
0.0
 10
-20.5027319013
 20
0.3601040799
 30
0.0
 10
-20.512400233
 20
0.2435330701
 30
0.0
 10
-20.5122133502
 20
0.182332358
 30
0.0
 11
-20.2483652857
 21
0.7252132468
 31
0.0
 11
-20.3597798901
 21
0.6435137259
 31
0.0
 11
-20.4434260412
 21
0.5214606825
 31
0.0
 11
-20.4951032727
 21
0.3651363626
 31
0.0
 11
-20.5122133502
 21
0.182332358
 31
0.0
  0
SPLINE
  5
478
100
AcDbEntity
  8
0
100
AcDbSpline
 62
253
  6
CONTINUOUS
 70
0
 71
3
 72
9
 73
5
 74
3
 42
0.0000001
 43
0.0000001
 44
0.0000000001
 12
0.0975881115
 22
0.0345244798
 32
0.0
 13
0.0923710692
 23
-0.0467222087
 33
0.0
 40
0.0
 40
0.0
 40
0.0
 40
0.0
 40
0.4657827872
 40
1.0
 40
1.0
 40
1.0
 40
1.0
 10
-3.4522069451
 20
18.8381633075
 30
0.0
 10
-3.4370553242
 20
18.8435236103
 30
0.0
 10
-3.4012271916
 20
18.8463196223
 30
0.0
 10
-3.3679540195
 20
18.8346408617
 30
0.0
 10
-3.3515052812
 20
18.8263209256
 30
0.0
 11
-3.4522069451
 21
18.8381633075
 31
0.0
 11
-3.4042333772
 21
18.8429879247
 31
0.0
 11
-3.3515052812
 21
18.8263209256
 31
0.0
  0
SPLINE
  5
479
100
AcDbEntity
  8
0
100
AcDbSpline
 62
7
  6
CONTINUOUS
 70
0
 71
3
 72
9
 73
5
 74
3
 42
0.0000001
 43
0.0000001
 44
0.0000000001
 12
0.1026923057
 22
0.0500197096
 32
0.0
 13
0.1021672394
 23
-0.0510836197
 33
0.0
 40
0.0
 40
0.0
 40
0.0
 40
0.0
 40
0.4638305674
 40
1.0
 40
1.0
 40
1.0
 40
1.0
 10
-3.9968872759
 20
18.5735034721
 30
0.0
 10
-3.9810099991
 20
18.5812370288
 30
0.0
 10
-3.9413699715
 20
18.5875280051
 30
0.0
 10
-3.9042148101
 20
18.5751032842
 30
0.0
 10
-3.8859551598
 20
18.5659734591
 30
0.0
 11
-3.9968872759
 21
18.5735034721
 31
0.0
 11
-3.9447720772
 21
18.5830464505
 31
0.0
 11
-3.8859551598
 21
18.5659734591
 31
0.0
  0
SPLINE
  5
47A
100
AcDbEntity
  8
0
100
AcDbSpline
 62
253
  6
CONTINUOUS
 70
0
 71
3
 72
9
 73
5
 74
3
 42
0.0000001
 43
0.0000001
 44
0.0000000001
 12
-0.10200315
 22
0.0509965498
 32
0.0
 13
-0.1022910174
 23
-0.0504166487
 33
0.0
 40
0.0
 40
0.0
 40
0.0
 40
0.0
 40
0.4641675224
 40
1.0
 40
1.0
 40
1.0
 40
1.0
 10
-1.5498508338
 20
17.9874709145
 30
0.0
 10
-1.5656330169
 20
17.9953612286
 30
0.0
 10
-1.6051591356
 20
18.002048388
 30
0.0
 10
-1.6423554469
 20
17.9898861093
 30
0.0
 10
-1.66062573
 20
17.9808811501
 30
0.0
 11
-1.5498508338
 21
17.9874709145
 31
0.0
 11
-1.6018245376
 21
17.9975080135
 31
0.0
 11
-1.66062573
 21
17.9808811501
 31
0.0
  0
SPLINE
  5
47B
100
AcDbEntity
  8
0
100
AcDbSpline
 62
253
  6
CONTINUOUS
 70
0
 71
3
 72
9
 73
5
 74
3
 42
0.0000001
 43
0.0000001
 44
0.0000000001
 12
-0.102003147
 22
0.050996529
 32
0.0
 13
-0.1022910066
 23
-0.0504166433
 33
0.0
 40
0.0
 40
0.0
 40
0.0
 40
0.0
 40
0.464167748
 40
1.0
 40
1.0
 40
1.0
 40
1.0
 10
-3.2407303958
 20
18.8329106964
 30
0.0
 10
-3.2565125862
 20
18.8408010111
 30
0.0
 10
-3.2960387035
 20
18.8474881602
 30
0.0
 10
-3.3332350077
 20
18.8353258802
 30
0.0
 10
-3.3515052812
 20
18.8263209256
 30
0.0
 11
-3.2407303958
 21
18.8329106964
 31
0.0
 11
-3.2927041217
 21
18.8429477874
 31
0.0
 11
-3.3515052812
 21
18.8263209256
 31
0.0
  0
SPLINE
  5
47C
100
AcDbEntity
  8
0
100
AcDbSpline
 62
253
  6
CONTINUOUS
 70
0
 71
3
 72
9
 73
5
 74
3
 42
0.0000001
 43
0.0000001
 44
0.0000000001
 12
0.0833396401
 22
-0.0411912196
 32
0.0
 13
0.0639711943
 23
-0.0674529353
 33
0.0
 40
0.0
 40
0.0
 40
0.0
 40
0.0
 40
0.2342089013
 40
1.0
 40
1.0
 40
1.0
 40
1.0
 10
-13.9642837227
 20
24.1327101464
 30
0.0
 10
-13.9577774275
 20
24.129494363
 30
0.0
 10
-13.930741736
 20
24.1142640719
 30
0.0
 10
-13.9068460083
 20
24.0938119555
 30
0.0
 10
-13.8905164845
 20
24.0765936697
 30
0.0
 11
-13.9642837227
 21
24.1327101464
 31
0.0
 11
-13.9452856673
 21
24.1220737865
 31
0.0
 11
-13.8905164845
 21
24.0765936697
 31
0.0
  0
SPLINE
  5
47D
100
AcDbEntity
  8
0
100
AcDbSpline
 62
253
  6
CONTINUOUS
 70
0
 71
3
 72
9
 73
5
 74
3
 42
0.0000001
 43
0.0000001
 44
0.0000000001
 12
0.0637826619
 22
-0.0672541417
 32
0.0
 13
0.0453007712
 23
-0.0808652438
 33
0.0
 40
0.0
 40
0.0
 40
0.0
 40
0.0
 40
0.2437183679
 40
1.0
 40
1.0
 40
1.0
 40
1.0
 10
-13.8905164845
 20
24.0765936697
 30
0.0
 10
-13.8853348158
 20
24.0711299798
 30
0.0
 10
-13.8648379279
 20
24.0479945644
 30
0.0
 10
-13.8473433001
 20
24.0222396788
 30
0.0
 10
-13.8359232531
 20
24.0018540459
 30
0.0
 11
-13.8905164845
 21
24.0765936697
 31
0.0
 11
-13.8755222098
 21
24.0596973355
 31
0.0
 11
-13.8359232531
 21
24.0018540459
 31
0.0
  0
SPLINE
  5
47E
100
AcDbEntity
  8
0
100
AcDbSpline
 62
253
  6
CONTINUOUS
 70
0
 71
3
 72
9
 73
5
 74
3
 42
0.0000001
 43
0.0000001
 44
0.0000000001
 12
0.0887954283
 22
-0.1585064398
 32
0.0
 13
-0.0008559359
 23
-0.1816815536
 33
0.0
 40
0.0
 40
0.0
 40
0.0
 40
0.0
 40
0.2615668487
 40
1.0
 40
1.0
 40
1.0
 40
1.0
 10
-13.8359232531
 20
24.0018540459
 30
0.0
 10
-13.828181273
 20
23.9880340359
 30
0.0
 10
-13.8017698936
 20
23.9335808326
 30
0.0
 10
-13.7872993352
 20
23.8725405016
 30
0.0
 10
-13.787510019
 20
23.8278206076
 30
0.0
 11
-13.8359232531
 21
24.0018540459
 31
0.0
 11
-13.8151815482
 21
23.9590970574
 31
0.0
 11
-13.787510019
 21
23.8278206076
 31
0.0
  0
SPLINE
  5
47F
100
AcDbEntity
  8
0
100
AcDbSpline
 62
7
  6
CONTINUOUS
 70
0
 71
3
 72
11
 73
7
 74
5
 42
0.0000001
 43
0.0000001
 44
0.0000000001
 12
0.328298287
 22
-0.1641491435
 32
0.0
 13
-0.0
 23
-0.3670486434
 33
0.0
 40
0.0
 40
0.0
 40
0.0
 40
0.0
 40
0.2296752475
 40
0.4882147097
 40
0.7532072079
 40
1.0
 40
1.0
 40
1.0
 40
1.0
 10
-14.4925508944
 20
23.8692713264
 30
0.0
 10
-14.4674168976
 20
23.856704328
 30
0.0
 10
-14.4193895736
 20
23.8191310311
 30
0.0
 10
-14.3639309679
 20
23.7445349218
 30
0.0
 10
-14.3261971941
 20
23.6573011126
 30
0.0
 10
-14.3157771907
 20
23.5945767741
 30
0.0
 10
-14.3157771907
 20
23.5643817875
 30
0.0
 11
-14.4925508944
 21
23.8692713264
 31
0.0
 11
-14.4249025254
 21
23.8189670188
 31
0.0
 11
-14.3675527783
 21
23.743360383
 31
0.0
 11
-14.3292331549
 21
23.6539617626
 31
0.0
 11
-14.3157771907
 21
23.5643817875
 31
0.0
  0
SPLINE
  5
480
100
AcDbEntity
  8
0
100
AcDbSpline
 62
253
  6
CONTINUOUS
 70
0
 71
3
 72
11
 73
7
 74
5
 42
0.0000001
 43
0.0000001
 44
0.0000000001
 12
0.3272561542
 22
-0.1655567191
 32
0.0
 13
0.0017563535
 23
-0.3667458697
 33
0.0
 40
0.0
 40
0.0
 40
0.0
 40
0.0
 40
0.2294296147
 40
0.4881164794
 40
0.7533035489
 40
1.0
 40
1.0
 40
1.0
 40
1.0
 10
-16.0938316852
 20
23.0665493229
 30
0.0
 10
-16.0688042674
 20
23.0538881181
 30
0.0
 10
-16.0209889142
 20
23.0161715465
 30
0.0
 10
-15.9656743515
 20
22.9415731697
 30
0.0
 10
-15.9278549672
 20
22.8544473748
 30
0.0
 10
-15.9172024103
 20
22.7918180855
 30
0.0
 10
-15.9170579815
 20
22.761659784
 30
0.0
 11
-16.0938316852
 21
23.0665493229
 31
0.0
 11
-16.026500166
 21
23.0160858089
 31
0.0
 11
-15.9692620379
 21
22.9404236396
 31
0.0
 11
-15.9308311675
 21
22.8510812324
 31
0.0
 11
-15.9170579815
 21
22.761659784
 31
0.0
  0
SPLINE
  5
481
100
AcDbEntity
  8
0
100
AcDbSpline
 62
253
  6
CONTINUOUS
 70
0
 71
3
 72
9
 73
5
 74
3
 42
0.0000001
 43
0.0000001
 44
0.0000000001
 12
0.0
 22
0.1809588586
 32
0.0
 13
0.0881917394
 23
0.158013688
 33
0.0
 40
0.0
 40
0.0
 40
0.0
 40
0.0
 40
0.2350218079
 40
1.0
 40
1.0
 40
1.0
 40
1.0
 10
-17.9481180116
 20
23.6014415431
 30
0.0
 10
-17.9481180116
 20
23.6156179691
 30
0.0
 10
-17.9432935297
 20
23.6758997731
 30
0.0
 10
-17.9221123674
 20
23.7343599338
 30
0.0
 10
-17.899624115
 20
23.7746522756
 30
0.0
 11
-17.9481180116
 21
23.6014415431
 31
0.0
 11
-17.9449468293
 21
23.6438524273
 31
0.0
 11
-17.899624115
 21
23.7746522756
 31
0.0
  0
SPLINE
  5
482
100
AcDbEntity
  8
0
100
AcDbSpline
 62
253
  6
CONTINUOUS
 70
0
 71
3
 72
9
 73
5
 74
3
 42
0.0000001
 43
0.0000001
 44
0.0000000001
 12
0.085200086
 22
0.152653524
 32
0.0
 13
0.1521854241
 23
0.0860334222
 33
0.0
 40
0.0
 40
0.0
 40
0.0
 40
0.0
 40
0.2684542174
 40
1.0
 40
1.0
 40
1.0
 40
1.0
 10
-17.899624115
 20
23.7746522756
 30
0.0
 10
-17.8920000075
 20
23.7883124364
 30
0.0
 10
-17.8607675333
 20
23.8373913121
 30
0.0
 10
-17.8178588863
 20
23.8803462527
 30
0.0
 10
-17.7807486846
 20
23.9013253818
 30
0.0
 11
-17.899624115
 21
23.7746522756
 31
0.0
 11
-17.8743895541
 21
23.814221961
 31
0.0
 11
-17.7807486846
 21
23.9013253818
 31
0.0
  0
SPLINE
  5
483
100
AcDbEntity
  8
0
100
AcDbSpline
 62
253
  6
CONTINUOUS
 70
0
 71
3
 72
11
 73
7
 74
5
 42
0.0000001
 43
0.0000001
 44
0.0000000001
 12
0.0
 22
0.3659185077
 32
0.0
 13
0.326352026
 23
0.1655013878
 33
0.0
 40
0.0
 40
0.0
 40
0.0
 40
0.0
 40
0.2466000408
 40
0.5114083384
 40
0.7699749055
 40
1.0
 40
1.0
 40
1.0
 40
1.0
 10
-16.2695799412
 20
22.7621725079
 30
0.0
 10
-16.2695799412
 20
22.7922510142
 30
0.0
 10
-16.25923764
 20
22.8547361641
 30
0.0
 10
-16.2217531054
 20
22.941706108
 30
0.0
 10
-16.1666146262
 20
23.016205659
 30
0.0
 10
-16.1188547371
 20
23.0538594987
 30
0.0
 10
-16.0938316852
 20
23.0665493229
 30
0.0
 11
-16.2695799412
 21
22.7621725079
 31
0.0
 11
-16.2562217341
 21
22.8514137942
 31
0.0
 11
-16.218166197
 21
22.940526354
 31
0.0
 11
-16.1611645699
 21
23.0160424372
 31
0.0
 11
-16.0938316852
 21
23.0665493229
 31
0.0
  0
SPLINE
  5
484
100
AcDbEntity
  8
0
100
AcDbSpline
 62
253
  6
CONTINUOUS
 70
0
 71
3
 72
9
 73
5
 74
3
 42
0.0000001
 43
0.0000001
 44
0.0000000001
 12
0.0
 22
0.1809850597
 32
0.0
 13
0.0882148261
 23
0.158030808
 33
0.0
 40
0.0
 40
0.0
 40
0.0
 40
0.0
 40
0.2350217057
 40
1.0
 40
1.0
 40
1.0
 40
1.0
 10
-5.644460019
 20
17.4496125468
 30
0.0
 10
-5.644460019
 20
17.4637910193
 30
0.0
 10
-5.6396341499
 20
17.5240815328
 30
0.0
 10
-5.6184473426
 20
17.582549718
 30
0.0
 10
-5.5959532002
 20
17.6228464306
 30
0.0
 11
-5.644460019
 21
17.4496125468
 31
0.0
 11
-5.6412879513
 21
17.4920295212
 31
0.0
 11
-5.5959532002
 21
17.6228464306
 31
0.0
  0
SPLINE
  5
485
100
AcDbEntity
  8
0
100
AcDbSpline
 62
253
  6
CONTINUOUS
 70
0
 71
3
 72
9
 73
5
 74
3
 42
0.0000001
 43
0.0000001
 44
0.0000000001
 12
0.0852049033
 22
0.1526387379
 32
0.0
 13
0.1521825344
 23
0.0860170685
 33
0.0
 40
0.0
 40
0.0
 40
0.0
 40
0.0
 40
0.2684578659
 40
1.0
 40
1.0
 40
1.0
 40
1.0
 10
-5.5959532002
 20
17.6228464306
 30
0.0
 10
-5.588328558
 20
17.6365054539
 30
0.0
 10
-5.5570948743
 20
17.6855793585
 30
0.0
 10
-5.5141861384
 20
17.7285291886
 30
0.0
 10
-5.4770768264
 20
17.7495042252
 30
0.0
 11
-5.5959532002
 21
17.6228464306
 31
0.0
 11
-5.5707172852
 21
17.6624126455
 31
0.0
 11
-5.4770768264
 21
17.7495042252
 31
0.0
  0
SPLINE
  5
486
100
AcDbEntity
  8
0
100
AcDbSpline
 62
253
  6
CONTINUOUS
 70
0
 71
3
 72
11
 73
7
 74
5
 42
0.0000001
 43
0.0000001
 44
0.0000000001
 12
0.0
 22
0.365918508
 32
0.0
 13
0.3263520263
 23
0.1655013879
 33
0.0
 40
0.0
 40
0.0
 40
0.0
 40
0.0
 40
0.2466001016
 40
0.5114084622
 40
0.7699750674
 40
1.0
 40
1.0
 40
1.0
 40
1.0
 10
-3.9659219486
 20
16.6103435116
 30
0.0
 10
-3.9659219486
 20
16.6404220253
 30
0.0
 10
-3.9555796419
 20
16.7029071904
 30
0.0
 10
-3.9180950922
 20
16.7898771494
 30
0.0
 10
-3.8629566089
 20
16.8643766898
 30
0.0
 10
-3.8151967269
 20
16.9020305113
 30
0.0
 10
-3.7901736926
 20
16.9147203265
 30
0.0
 11
-3.9659219486
 21
16.6103435116
 31
0.0
 11
-3.9525637349
 21
16.6995848194
 31
0.0
 11
-3.9145081813
 21
16.7886973974
 31
0.0
 11
-3.8575065359
 21
16.8642134844
 31
0.0
 11
-3.7901736926
 21
16.9147203265
 31
0.0
  0
SPLINE
  5
487
100
AcDbEntity
  8
0
100
AcDbSpline
 62
253
  6
CONTINUOUS
 70
0
 71
3
 72
11
 73
7
 74
5
 42
0.0000001
 43
0.0000001
 44
0.0000000001
 12
0.323933903
 22
-0.1619669515
 32
0.0
 13
0.3246816254
 23
0.1604627963
 33
0.0
 40
0.0
 40
0.0
 40
0.0
 40
0.0
 40
0.235171244
 40
0.4995791052
 40
0.7642134563
 40
1.0
 40
1.0
 40
1.0
 40
1.0
 10
-3.9659219486
 20
-25.0292345619
 30
0.0
 10
-3.9405286356
 20
-25.0419312184
 30
0.0
 10
-3.8821844821
 20
-25.0600755146
 30
0.0
 10
-3.78984942
 20
-25.0688311645
 30
0.0
 10
-3.6974150892
 20
-25.0603290845
 30
0.0
 10
-3.6389185083
 20
-25.0423589418
 30
0.0
 10
-3.6133999889
 20
-25.0297472858
 30
0.0
 11
-3.9659219486
 21
-25.0292345619
 31
0.0
 11
-3.8851520107
 21
-25.0562613266
 31
0.0
 11
-3.7898724786
 21
-25.065845556
 31
0.0
 11
-3.6944830408
 21
-25.0565386465
 31
0.0
 11
-3.6133999889
 21
-25.0297472858
 31
0.0
  0
SPLINE
  5
488
100
AcDbEntity
  8
0
100
AcDbSpline
 62
253
  6
CONTINUOUS
 70
0
 71
3
 72
11
 73
7
 74
5
 42
0.0000001
 43
0.0000001
 44
0.0000000001
 12
0.3239339031
 22
-0.1619669516
 32
0.0
 13
0.3246816256
 23
0.1604627963
 33
0.0
 40
0.0
 40
0.0
 40
0.0
 40
0.0
 40
0.2351713294
 40
0.4995792494
 40
0.7642136314
 40
1.0
 40
1.0
 40
1.0
 40
1.0
 10
-3.9659219486
 20
-25.3692084961
 30
0.0
 10
-3.9405286263
 20
-25.3819051572
 30
0.0
 10
-3.8821844544
 20
-25.400049455
 30
0.0
 10
-3.7898493706
 20
-25.4088050992
 30
0.0
 10
-3.69741505
 20
-25.4003030117
 30
0.0
 10
-3.6389184894
 20
-25.3823328666
 30
0.0
 10
-3.6133999889
 20
-25.3697212199
 30
0.0
 11
-3.9659219486
 21
-25.3692084961
 31
0.0
 11
-3.88515198
 21
-25.3962352667
 31
0.0
 11
-3.7898724259
 21
-25.4058194901
 31
0.0
 11
-3.694482978
 21
-25.3965125687
 31
0.0
 11
-3.6133999889
 21
-25.3697212199
 31
0.0
  0
SPLINE
  5
489
100
AcDbEntity
  8
0
100
AcDbSpline
 62
253
  6
CONTINUOUS
 70
0
 71
3
 72
9
 73
5
 74
3
 42
0.0000001
 43
0.0000001
 44
0.0000000001
 12
0.0833076241
 22
-0.0411753954
 32
0.0
 13
0.0639538854
 23
-0.0674201303
 33
0.0
 40
0.0
 40
0.0
 40
0.0
 40
0.0
 40
0.2342128577
 40
1.0
 40
1.0
 40
1.0
 40
1.0
 10
-1.66062573
 20
17.9808811501
 30
0.0
 10
-1.6541218244
 20
17.9776665477
 30
0.0
 10
-1.6270962425
 20
17.9624426659
 30
0.0
 10
-1.6032082217
 20
17.9420005473
 30
0.0
 10
-1.5868832006
 20
17.9247907243
 30
0.0
 11
-1.66062573
 21
17.9808811501
 31
0.0
 11
-1.6416344599
 21
17.9702490401
 31
0.0
 11
-1.5868832006
 21
17.9247907243
 31
0.0
  0
SPLINE
  5
48A
100
AcDbEntity
  8
0
100
AcDbSpline
 62
253
  6
CONTINUOUS
 70
0
 71
3
 72
9
 73
5
 74
3
 42
0.0000001
 43
0.0000001
 44
0.0000000001
 12
0.0637963994
 22
-0.0672541087
 32
0.0
 13
0.0453107012
 23
-0.0808704895
 33
0.0
 40
0.0
 40
0.0
 40
0.0
 40
0.0
 40
0.2437147928
 40
1.0
 40
1.0
 40
1.0
 40
1.0
 10
-1.5868832006
 20
17.9247907243
 30
0.0
 10
-1.5817004919
 20
17.9193271173
 30
0.0
 10
-1.5611991879
 20
17.8961914037
 30
0.0
 10
-1.5437007837
 20
17.8704351611
 30
0.0
 10
-1.5322781794
 20
17.8500481095
 30
0.0
 11
-1.5868832006
 21
17.9247907243
 31
0.0
 11
-1.5718859127
 21
17.9078944347
 31
0.0
 11
-1.5322781794
 21
17.8500481095
 31
0.0
  0
SPLINE
  5
48B
100
AcDbEntity
  8
0
100
AcDbSpline
 62
253
  6
CONTINUOUS
 70
0
 71
3
 72
9
 73
5
 74
3
 42
0.0000001
 43
0.0000001
 44
0.0000000001
 12
0.0888186073
 22
-0.1585233522
 32
0.0
 13
-0.0008560588
 23
-0.1817076371
 33
0.0
 40
0.0
 40
0.0
 40
0.0
 40
0.0
 40
0.2615658282
 40
1.0
 40
1.0
 40
1.0
 40
1.0
 10
-1.5322781794
 20
17.8500481095
 30
0.0
 10
-1.5245342085
 20
17.8362266788
 30
0.0
 10
-1.4981159508
 20
17.781767163
 30
0.0
 10
-1.483641312
 20
17.7207179874
 30
0.0
 10
-1.4838520263
 20
17.6759916113
 30
0.0
 11
-1.5322781794
 21
17.8500481095
 31
0.0
 11
-1.5115311244
 21
17.8072863395
 31
0.0
 11
-1.4838520263
 21
17.6759916113
 31
0.0
  0
SPLINE
  5
48C
100
AcDbEntity
  8
0
100
AcDbSpline
 62
7
  6
CONTINUOUS
 70
0
 71
3
 72
11
 73
7
 74
5
 42
0.0000001
 43
0.0000001
 44
0.0000000001
 12
0.328298287
 22
-0.1641491435
 32
0.0
 13
-0.0
 23
-0.3670486434
 33
0.0
 40
0.0
 40
0.0
 40
0.0
 40
0.0
 40
0.2296752475
 40
0.4882147097
 40
0.7532072079
 40
1.0
 40
1.0
 40
1.0
 40
1.0
 10
-2.1888929018
 20
17.71744233
 30
0.0
 10
-2.163758905
 20
17.7048753316
 30
0.0
 10
-2.1157315809
 20
17.6673020347
 30
0.0
 10
-2.0602729752
 20
17.5927059255
 30
0.0
 10
-2.0225392015
 20
17.5054721163
 30
0.0
 10
-2.0121191981
 20
17.4427477777
 30
0.0
 10
-2.0121191981
 20
17.4125527912
 30
0.0
 11
-2.1888929018
 21
17.71744233
 31
0.0
 11
-2.1212445328
 21
17.6671380225
 31
0.0
 11
-2.0638947856
 21
17.5915313867
 31
0.0
 11
-2.0255751622
 21
17.5021327662
 31
0.0
 11
-2.0121191981
 21
17.4125527912
 31
0.0
  0
SPLINE
  5
48D
100
AcDbEntity
  8
0
100
AcDbSpline
 62
253
  6
CONTINUOUS
 70
0
 71
3
 72
11
 73
7
 74
5
 42
0.0000001
 43
0.0000001
 44
0.0000000001
 12
0.327256154
 22
-0.1655567189
 32
0.0
 13
0.0017563535
 23
-0.3667458694
 33
0.0
 40
0.0
 40
0.0
 40
0.0
 40
0.0
 40
0.2294297766
 40
0.4881166035
 40
0.7533036098
 40
1.0
 40
1.0
 40
1.0
 40
1.0
 10
-3.7901736926
 20
16.9147203265
 30
0.0
 10
-3.7651462572
 20
16.9020591129
 30
0.0
 10
-3.7173308968
 20
16.864342523
 30
0.0
 10
-3.6620163381
 20
16.7897441356
 30
0.0
 10
-3.624196969
 20
16.7026183558
 30
0.0
 10
-3.6135444176
 20
16.6399890817
 30
0.0
 10
-3.6133999889
 20
16.6098307877
 30
0.0
 11
-3.7901736926
 21
16.9147203265
 31
0.0
 11
-3.7228421319
 21
16.864256769
 31
0.0
 11
-3.665604022
 21
16.7885946034
 31
0.0
 11
-3.6271731682
 21
16.6992522145
 31
0.0
 11
-3.6133999889
 21
16.6098307877
 31
0.0
  0
SPLINE
  5
48E
100
AcDbEntity
  8
0
100
AcDbSpline
 62
253
  6
CONTINUOUS
 70
0
 71
3
 72
9
 73
5
 74
3
 42
0.0000001
 43
0.0000001
 44
0.0000000001
 12
-0.0972978999
 22
0.0353697585
 32
0.0
 13
-0.0928607827
 23
-0.0457687251
 33
0.0
 40
0.0
 40
0.0
 40
0.0
 40
0.0
 40
0.4658745477
 40
1.0
 40
1.0
 40
1.0
 40
1.0
 10
-15.5543300478
 20
24.989013649
 30
0.0
 10
-15.5694395862
 20
24.9945062724
 30
0.0
 10
-15.6052374116
 20
24.9976349639
 30
0.0
 10
-15.6386301713
 20
24.986298669
 30
0.0
 10
-15.6551632738
 20
24.978149922
 30
0.0
 11
-15.5543300478
 21
24.989013649
 31
0.0
 11
-15.6022721843
 21
24.9942819603
 31
0.0
 11
-15.6551632738
 21
24.978149922
 31
0.0
  0
SPLINE
  5
48F
100
AcDbEntity
  8
RACCORDO
100
AcDbSpline
 62
7
  6
CONTINUOUS
 70
0
 71
3
 72
11
 73
7
 74
5
 42
0.0000001
 43
0.0000001
 44
0.0000000001
 12
0.2667887594
 22
0.1334146621
 32
0.0
 13
-0.0178803623
 23
0.2977515858
 33
0.0
 40
0.0
 40
0.0
 40
0.0
 40
0.0
 40
0.2139562578
 40
0.4442632081
 40
0.7049429778
 40
1.0
 40
1.0
 40
1.0
 40
1.0
 10
-8.5902258176
 20
-18.7088825755
 30
0.0
 10
-8.571198776
 20
-18.6993676082
 30
0.0
 10
-8.5353309284
 20
-18.6714135741
 30
0.0
 10
-8.4989463384
 20
-18.6100418308
 30
0.0
 10
-8.4798650885
 20
-18.5334121603
 30
0.0
 10
-8.4785710309
 20
-18.4777659757
 30
0.0
 10
-8.4803296064
 20
-18.4484814103
 30
0.0
 11
-8.5902258176
 21
-18.7088825755
 31
0.0
 11
-8.539651774
 21
-18.6699553058
 31
0.0
 11
-8.5034673617
 21
-18.6115594576
 31
0.0
 11
-8.4833831552
 21
-18.5364403841
 31
0.0
 11
-8.4803296064
 21
-18.4484814103
 31
0.0
  0
SPLINE
  5
490
100
AcDbEntity
  8
0
100
AcDbSpline
 62
253
  6
CONTINUOUS
 70
0
 71
3
 72
9
 73
5
 74
3
 42
0.0000001
 43
0.0000001
 44
0.0000000001
 12
0.1023513264
 22
0.0498536012
 32
0.0
 13
0.1015908034
 23
-0.0513856423
 33
0.0
 40
0.0
 40
0.0
 40
0.0
 40
0.0
 40
0.4641049814
 40
1.0
 40
1.0
 40
1.0
 40
1.0
 10
-15.7656753031
 20
24.9858845734
 30
0.0
 10
-15.7498413829
 20
24.9935970083
 30
0.0
 10
-15.7103137154
 20
24.9998591678
 30
0.0
 10
-15.673310609
 20
24.9873290252
 30
0.0
 10
-15.6551632738
 20
24.978149922
 30
0.0
 11
-15.7656753031
 21
24.9858845734
 31
0.0
 11
-15.713695182
 21
24.9953618687
 31
0.0
 11
-15.6551632738
 21
24.978149922
 31
0.0
  0
SPLINE
  5
491
100
AcDbEntity
  8
0
100
AcDbSpline
 62
7
  6
CONTINUOUS
 70
0
 71
3
 72
9
 73
5
 74
3
 42
0.0000001
 43
0.0000001
 44
0.0000000001
 12
0.1026923057
 22
0.0500197096
 32
0.0
 13
0.1021672394
 23
-0.0510836197
 33
0.0
 40
0.0
 40
0.0
 40
0.0
 40
0.0
 40
0.4638305674
 40
1.0
 40
1.0
 40
1.0
 40
1.0
 10
-16.3005452686
 20
24.7253324684
 30
0.0
 10
-16.2846679917
 20
24.7330660252
 30
0.0
 10
-16.2450279641
 20
24.7393570015
 30
0.0
 10
-16.2078728027
 20
24.7269322805
 30
0.0
 10
-16.1896131525
 20
24.7178024554
 30
0.0
 11
-16.3005452686
 21
24.7253324684
 31
0.0
 11
-16.2484300699
 21
24.7348754468
 31
0.0
 11
-16.1896131525
 21
24.7178024554
 31
0.0
  0
SPLINE
  5
492
100
AcDbEntity
  8
RACCORDO
100
AcDbSpline
 62
7
  6
CONTINUOUS
 70
0
 71
3
 72
9
 73
5
 74
3
 42
0.0000001
 43
0.0000001
 44
0.0000000001
 12
-0.224973756
 22
-0.2456128304
 32
0.0
 13
-0.0314890555
 23
-0.3315830103
 33
0.0
 40
0.0
 40
0.0
 40
0.0
 40
0.0
 40
0.4668542486
 40
1.0
 40
1.0
 40
1.0
 40
1.0
 10
-21.5091710736
 20
9.5214718173
 30
0.0
 10
-21.5441810582
 20
9.4832500195
 30
0.0
 10
-21.6014722011
 20
9.3847597509
 30
0.0
 10
-21.6244496323
 20
9.2746313236
 30
0.0
 10
-21.6300457176
 20
9.2157039659
 30
0.0
 11
-21.5091710736
 21
9.5214718173
 31
0.0
 11
-21.5901955125
 21
9.3887522485
 31
0.0
 11
-21.6300457176
 21
9.2157039659
 31
0.0
  0
SPLINE
  5
493
100
AcDbEntity
  8
RACCORDO
100
AcDbSpline
 62
253
  6
CONTINUOUS
 70
0
 71
3
 72
11
 73
7
 74
5
 42
0.0000001
 43
0.0000001
 44
0.0000000001
 12
0.0037455278
 22
-0.2407218703
 32
0.0
 13
0.2153170293
 23
-0.1077015539
 33
0.0
 40
0.0
 40
0.0
 40
0.0
 40
0.0
 40
0.2088507172
 40
0.4379488669
 40
0.7007037522
 40
1.0
 40
1.0
 40
1.0
 40
1.0
 10
-9.2662533373
 20
-14.0313299582
 30
0.0
 10
-9.2659925853
 20
-14.0480882699
 30
0.0
 10
-9.2583167191
 20
-14.0833728445
 30
0.0
 10
-9.2277156166
 20
-14.1315740059
 30
0.0
 10
-9.180222256
 20
-14.1745353655
 30
0.0
 10
-9.1412841929
 20
-14.1978069517
 30
0.0
 10
-9.1198029999
 20
-14.2085518421
 30
0.0
 11
-9.2662533373
 21
-14.0313299582
 31
0.0
 11
-9.2560676057
 21
-14.0805684788
 31
0.0
 11
-9.227439804
 21
-14.1277128351
 31
0.0
 11
-9.181279919
 21
-14.1709667746
 31
0.0
 11
-9.1198029999
 21
-14.2085518421
 31
0.0
  0
SPLINE
  5
494
100
AcDbEntity
  8
0
100
AcDbSpline
 62
7
  6
CONTINUOUS
 70
0
 71
3
 72
10
 73
6
 74
4
 42
0.0000001
 43
0.0000001
 44
0.0000000001
 12
-0.0552340986
 22
0.0276094422
 32
0.0
 13
-0.0592088991
 23
-0.017532633
 33
0.0
 40
0.0
 40
0.0
 40
0.0
 40
0.0
 40
0.1378587112
 40
0.3428863583
 40
1.0
 40
1.0
 40
1.0
 40
1.0
 10
-0.6094979735
 20
21.8862420724
 30
0.0
 10
-0.6120361407
 20
21.8875108065
 30
0.0
 10
-0.6192065858
 20
21.8887161809
 30
0.0
 10
-0.6397375257
 20
21.887310703
 30
0.0
 10
-0.6570358437
 20
21.8826139904
 30
0.0
 10
-0.6700048354
 20
21.8787736797
 30
0.0
 11
-0.6094979735
 21
21.8862420724
 31
0.0
 11
-0.6177808261
 21
21.8882073107
 31
0.0
 11
-0.6304330261
 21
21.8877490075
 31
0.0
 11
-0.6700048354
 21
21.8787736797
 31
0.0
  0
SPLINE
  5
495
100
AcDbEntity
  8
0
100
AcDbSpline
 62
7
  6
CONTINUOUS
 70
0
 71
3
 72
9
 73
5
 74
3
 42
0.0000001
 43
0.0000001
 44
0.0000000001
 12
-0.0663070596
 22
-0.0196345036
 32
0.0
 13
-0.0645773021
 23
-0.0247368537
 33
0.0
 40
0.0
 40
0.0
 40
0.0
 40
0.0
 40
0.2148691628
 40
1.0
 40
1.0
 40
1.0
 40
1.0
 10
-0.6700048354
 20
21.8787736797
 30
0.0
 10
-0.6747539496
 20
21.8773673966
 30
0.0
 10
-0.6967566708
 20
21.8704858751
 30
0.0
 10
-0.7184166409
 20
21.8625535805
 30
0.0
 10
-0.7353171847
 20
21.8560796916
 30
0.0
 11
-0.6700048354
 21
21.8787736797
 31
0.0
 11
-0.6841935378
 21
21.8743616302
 31
0.0
 11
-0.7353171847
 21
21.8560796916
 31
0.0
  0
SPLINE
  5
496
100
AcDbEntity
  8
RACCORDO
100
AcDbSpline
 62
253
  6
CONTINUOUS
 70
0
 71
3
 72
11
 73
7
 74
5
 42
0.0000001
 43
0.0000001
 44
0.0000000001
 12
-0.0000738314
 22
-0.2406339362
 32
0.0
 13
0.2152348115
 23
-0.1076042406
 33
0.0
 40
0.0
 40
0.0
 40
0.0
 40
0.0
 40
0.2064174157
 40
0.4344336086
 40
0.6980453568
 40
1.0
 40
1.0
 40
1.0
 40
1.0
 10
-9.3294918383
 20
-5.6557099944
 30
0.0
 10
-9.3294969184
 20
-5.6722670061
 30
0.0
 10
-9.3221563688
 20
-5.7073728163
 30
0.0
 10
-9.2916158773
 20
-5.7553550726
 30
0.0
 10
-9.2438813459
 20
-5.798292317
 30
0.0
 10
-9.2046903283
 20
-5.8216385253
 30
0.0
 10
-9.1830266114
 20
-5.8324690587
 30
0.0
 11
-9.3294918383
 21
-5.6557099944
 31
0.0
 11
-9.3198874868
 21
-5.704443642
 31
0.0
 11
-9.2914389573
 21
-5.7513608723
 31
0.0
 11
-9.2450641137
 21
-5.7946417926
 31
0.0
 11
-9.1830266114
 21
-5.8324690587
 31
0.0
  0
SPLINE
  5
497
100
AcDbEntity
  8
0
100
AcDbSpline
 62
7
  6
CONTINUOUS
 70
0
 71
3
 72
9
 73
5
 74
3
 42
0.0000001
 43
0.0000001
 44
0.0000000001
 12
-0.006550221
 22
0.0032673696
 32
0.0
 13
-0.007276758
 23
0.0007936572
 33
0.0
 40
0.0
 40
0.0
 40
0.0
 40
0.0
 40
0.2176355694
 40
1.0
 40
1.0
 40
1.0
 40
1.0
 10
-6.1999524119
 20
24.6814693785
 30
0.0
 10
-6.2004275989
 20
24.6817064104
 30
0.0
 10
-6.2026798471
 20
24.6826585688
 30
0.0
 10
-6.2051139496
 20
24.6831115629
 30
0.0
 10
-6.2070116418
 20
24.6833185393
 30
0.0
 11
-6.1999524119
 21
24.6814693785
 31
0.0
 11
-6.2014165511
 21
24.6820972145
 31
0.0
 11
-6.2070116418
 21
24.6833185393
 31
0.0
  0
LINE
  5
498
100
AcDbEntity
  8
0
100
AcDbLine
 62
7
  6
CONTINUOUS
 10
-6.2070116418
 20
24.6833185393
 11
-6.2112155119
 21
24.683554826
  0
SPLINE
  5
499
100
AcDbEntity
  8
0
100
AcDbSpline
 62
253
  6
CONTINUOUS
 70
0
 71
3
 72
10
 73
6
 74
4
 42
0.0000001
 43
0.0000001
 44
0.0000000001
 12
0.0
 22
-0.1567251828
 32
0.0
 13
0.1400481104
 23
-0.0703513304
 33
0.0
 40
0.0
 40
0.0
 40
0.0
 40
0.0
 40
0.5480386929
 40
0.782115348
 40
1.0
 40
1.0
 40
1.0
 40
1.0
 10
-3.9659219486
 20
-25.3692084961
 30
0.0
 10
-3.9659219486
 20
-25.3978389842
 30
0.0
 10
-3.9594050636
 20
-25.4401285703
 30
0.0
 10
-3.9305265767
 20
-25.4845420054
 30
0.0
 10
-3.9112798948
 20
-25.4992372152
 30
0.0
 10
-3.9011084502
 20
-25.5043467069
 30
0.0
 11
-3.9659219486
 21
-25.3692084961
 31
0.0
 11
-3.948898937
 21
-25.4533961479
 31
0.0
 11
-3.9283973413
 21
-25.4838186008
 31
0.0
 11
-3.9011084502
 21
-25.5043467069
 31
0.0
  0
SPLINE
  5
49A
100
AcDbEntity
  8
RACCORDO
100
AcDbSpline
 62
7
  6
CONTINUOUS
 70
0
 71
3
 72
9
 73
5
 74
3
 42
0.0000001
 43
0.0000001
 44
0.0000000001
 12
0.2080937749
 22
0.1042679539
 32
0.0
 13
0.2081822766
 23
-0.1040911383
 33
0.0
 40
0.0
 40
0.0
 40
0.0
 40
0.0
 40
0.4669554744
 40
1.0
 40
1.0
 40
1.0
 40
1.0
 10
-21.2840682149
 20
9.3236818125
 30
0.0
 10
-21.2516780391
 20
9.3399113098
 30
0.0
 10
-21.1710982588
 20
9.3540286875
 30
0.0
 10
-21.0950601619
 20
9.3291823096
 30
0.0
 10
-21.0580700209
 20
9.3106872392
 30
0.0
 11
-21.2840682149
 21
9.3236818125
 31
0.0
 11
-21.1774140024
 21
9.3445997372
 31
0.0
 11
-21.0580700209
 21
9.3106872392
 31
0.0
  0
SPLINE
  5
49B
100
AcDbEntity
  8
RACCORDO
100
AcDbSpline
 62
253
  6
CONTINUOUS
 70
0
 71
3
 72
11
 73
7
 74
5
 42
0.0000001
 43
0.0000001
 44
0.0000000001
 12
-0.28297661
 22
0.1413536169
 32
0.0
 13
0.0008822822
 23
0.3163160261
 33
0.0
 40
0.0
 40
0.0
 40
0.0
 40
0.0
 40
0.2168674232
 40
0.4500845811
 40
0.7105794858
 40
1.0
 40
1.0
 40
1.0
 40
1.0
 10
-10.1116881109
 20
-4.2727787342
 30
0.0
 10
-10.1321442469
 20
-4.2625604027
 30
0.0
 10
-10.1708394354
 20
-4.2330532909
 30
0.0
 10
-10.2123265586
 20
-4.1692813331
 30
0.0
 10
-10.2368575596
 20
-4.0895851486
 30
0.0
 10
-10.2417229751
 20
-4.0313860891
 30
0.0
 10
-10.2416378583
 20
-4.0008699734
 30
0.0
 11
-10.1116881109
 21
-4.2727787342
 31
0.0
 11
-10.1665509715
 21
-4.2315977101
 31
0.0
 11
-10.207752781
 21
-4.1704052758
 31
0.0
 11
-10.2331779525
 21
-4.0920269535
 31
0.0
 11
-10.2416378583
 21
-4.0008699734
 31
0.0
  0
SPLINE
  5
49C
100
AcDbEntity
  8
0
100
AcDbSpline
 62
253
  6
CONTINUOUS
 70
0
 71
3
 72
11
 73
7
 74
5
 42
0.0000001
 43
0.0000001
 44
0.0000000001
 12
-0.0000524484
 22
-0.1191548052
 32
0.0
 13
-0.1063252648
 23
-0.0537848345
 33
0.0
 40
0.0
 40
0.0
 40
0.0
 40
0.0
 40
0.2069627274
 40
0.4350712485
 40
0.6978189664
 40
1.0
 40
1.0
 40
1.0
 40
1.0
 10
-1.4116544335
 20
-23.8832992424
 30
0.0
 10
-1.4116580518
 20
-23.8915194435
 30
0.0
 10
-1.4152627863
 20
-23.9089298696
 30
0.0
 10
-1.4303135593
 20
-23.9327167321
 30
0.0
 10
-1.4537872749
 20
-23.95412095
 30
0.0
 10
-1.4731422002
 20
-23.9657264592
 30
0.0
 10
-1.4838520263
 20
-23.9711440449
 30
0.0
 11
-1.4116544335
 21
-23.8832992424
 31
0.0
 11
-1.416395313
 21
-23.9074998528
 31
0.0
 11
-1.4304178298
 21
-23.9307836212
 31
0.0
 11
-1.4531896569
 21
-23.9522688074
 31
0.0
 11
-1.4838520263
 21
-23.9711440449
 31
0.0
  0
SPLINE
  5
49D
100
AcDbEntity
  8
0
100
AcDbSpline
 62
253
  6
CONTINUOUS
 70
0
 71
3
 72
8
 73
4
 74
2
 42
0.0000001
 43
0.0000001
 44
0.0000000001
 12
-0.0220607894
 22
0.010993836
 32
0.0
 13
-0.0241361801
 23
0.0049987666
 33
0.0
 40
0.0
 40
0.0
 40
0.0
 40
0.0
 40
1.0
 40
1.0
 40
1.0
 40
1.0
 10
-1.5499626411
 20
-23.6596087166
 30
0.0
 10
-1.5573162376
 20
-23.6559441046
 30
0.0
 10
-1.5652204283
 20
-23.6532434944
 30
0.0
 10
-1.5732658217
 20
-23.6515772389
 30
0.0
 11
-1.5499626411
 21
-23.6596087166
 31
0.0
 11
-1.5732658217
 21
-23.6515772389
 31
0.0
  0
SPLINE
  5
49E
100
AcDbEntity
  8
RACCORDO
100
AcDbSpline
 62
7
  6
CONTINUOUS
 70
0
 71
3
 72
11
 73
7
 74
5
 42
0.0000001
 43
0.0000001
 44
0.0000000001
 12
0.0102086591
 22
0.5141228621
 32
0.0
 13
0.4599035416
 23
0.2300331856
 33
0.0
 40
0.0
 40
0.0
 40
0.0
 40
0.0
 40
0.2874486279
 40
0.5470500418
 40
0.781406575
 40
1.0
 40
1.0
 40
1.0
 40
1.0
 10
-21.8456514776
 20
9.0495692339
 30
0.0
 10
-21.8446733226
 20
9.0988305376
 30
0.0
 10
-21.8347169153
 20
9.1927712954
 30
0.0
 10
-21.7917920919
 20
9.3210035268
 30
0.0
 10
-21.7225323708
 20
9.4237400277
 30
0.0
 10
-21.6590576103
 20
9.4715904419
 30
0.0
 10
-21.6255469801
 20
9.4883516892
 30
0.0
 11
-21.8456514776
 21
9.0495692339
 31
0.0
 11
-21.8286619825
 21
9.1964026517
 31
0.0
 11
-21.7846386647
 21
9.322428113
 31
0.0
 11
-21.7157938565
 21
9.4213396232
 31
0.0
 11
-21.6255469801
 21
9.4883516892
 31
0.0
  0
SPLINE
  5
49F
100
AcDbEntity
  8
RACCORDO
100
AcDbSpline
 62
7
  6
CONTINUOUS
 70
0
 71
3
 72
11
 73
7
 74
5
 42
0.0000001
 43
0.0000001
 44
0.0000000001
 12
-1.0491650369
 22
0.5245825185
 32
0.0
 13
-0.0703136088
 23
1.1708928601
 33
0.0
 40
0.0
 40
0.0
 40
0.0
 40
0.0
 40
0.2318143117
 40
0.4926746298
 40
0.7573897307
 40
1.0
 40
1.0
 40
1.0
 40
1.0
 10
-21.094613967
 20
-12.7912325304
 30
0.0
 10
-21.1756844573
 20
-12.7506972852
 30
0.0
 10
-21.3316981127
 20
-12.6319401009
 30
0.0
 10
-21.5182130718
 20
-12.3991310767
 30
0.0
 10
-21.6524321388
 20
-12.1279428836
 30
0.0
 10
-21.6975401467
 20
-11.9317232169
 30
0.0
 10
-21.7032264146
 20
-11.8370330062
 30
0.0
 11
-21.094613967
 21
-12.7912325304
 31
0.0
 11
-21.314820708
 21
-12.6317058376
 31
0.0
 11
-21.508001508
 21
-12.394406687
 31
0.0
 11
-21.6444420421
 21
-12.1154778379
 31
0.0
 11
-21.7032264146
 21
-11.8370330062
 31
0.0
  0
SPLINE
  5
4A0
100
AcDbEntity
  8
RACCORDO
100
AcDbSpline
 62
7
  6
CONTINUOUS
 70
0
 71
3
 72
9
 73
5
 74
3
 42
0.0000001
 43
0.0000001
 44
0.0000000001
 12
-0.0341313064
 22
-0.173360888
 32
0.0
 13
-0.1507187584
 23
-0.0922106254
 33
0.0
 40
0.0
 40
0.0
 40
0.0
 40
0.0
 40
0.5329542016
 40
1.0
 40
1.0
 40
1.0
 40
1.0
 10
-8.2738647605
 20
-18.4489449687
 30
0.0
 10
-8.2799282349
 20
-18.4797427732
 30
0.0
 10
-8.2993307665
 20
-18.5368665088
 30
0.0
 10
-8.3417227693
 20
-18.5813359605
 30
0.0
 10
-8.3651869569
 20
-18.5956914889
 30
0.0
 11
-8.2738647605
 21
-18.4489449687
 31
0.0
 11
-8.3071394899
 21
-18.5370371179
 31
0.0
 11
-8.3651869569
 21
-18.5956914889
 31
0.0
  0
SPLINE
  5
4A1
100
AcDbEntity
  8
RACCORDO
100
AcDbSpline
 62
7
  6
CONTINUOUS
 70
0
 71
3
 72
9
 73
5
 74
3
 42
0.0000001
 43
0.0000001
 44
0.0000000001
 12
0.2114814966
 22
-0.1057407483
 32
0.0
 13
0.2363035598
 23
0.008133689
 33
0.0
 40
0.0
 40
0.0
 40
0.0
 40
0.0
 40
0.2742350876
 40
1.0
 40
1.0
 40
1.0
 40
1.0
 10
-8.5781376376
 20
-18.8366523584
 30
0.0
 10
-8.5588057554
 20
-18.8463182995
 30
0.0
 10
-8.4868708404
 20
-18.8781931239
 30
0.0
 10
-8.4071497244
 20
-18.8956623481
 30
0.0
 10
-8.3499827803
 20
-18.8936946327
 30
0.0
 11
-8.5781376376
 21
-18.8366523584
 31
0.0
 11
-8.5187660396
 21
-18.8627173185
 31
0.0
 11
-8.3499827803
 21
-18.8936946327
 31
0.0
  0
SPLINE
  5
4A2
100
AcDbEntity
  8
RACCORDO
100
AcDbSpline
 62
253
  6
CONTINUOUS
 70
0
 71
3
 72
9
 73
5
 74
3
 42
0.0000001
 43
0.0000001
 44
0.0000000001
 12
-0.1302035208
 22
-0.0687776449
 32
0.0
 13
-0.1455095767
 23
0.0225894747
 33
0.0
 40
0.0
 40
0.0
 40
0.0
 40
0.0
 40
0.4923487692
 40
1.0
 40
1.0
 40
1.0
 40
1.0
 10
-8.1729741045
 20
7.4216731186
 30
0.0
 10
-8.194342619
 20
7.410385589
 30
0.0
 10
-8.2418843824
 20
7.3944975861
 30
0.0
 10
-8.2918822218
 20
7.3951226632
 30
0.0
 10
-8.316504927
 20
7.3989451881
 30
0.0
 11
-8.1729741045
 21
7.4216731186
 31
0.0
 11
-8.2417522472
 21
7.398743603
 31
0.0
 11
-8.316504927
 21
7.3989451881
 31
0.0
  0
SPLINE
  5
4A3
100
AcDbEntity
  8
RACCORDO
100
AcDbSpline
 62
253
  6
CONTINUOUS
 70
0
 71
3
 72
9
 73
5
 74
3
 42
0.0000001
 43
0.0000001
 44
0.0000000001
 12
-0.0495742747
 22
0.0076961039
 32
0.0
 13
-0.0474845422
 23
0.0161881742
 33
0.0
 40
0.0
 40
0.0
 40
0.0
 40
0.0
 40
0.2451983063
 40
1.0
 40
1.0
 40
1.0
 40
1.0
 10
-8.316504927
 20
7.3989451881
 30
0.0
 10
-8.3205567698
 20
7.399574212
 30
0.0
 10
-8.3370205662
 20
7.4025242344
 30
0.0
 10
-8.3532072492
 20
7.4069728348
 30
0.0
 10
-8.3651543868
 20
7.4110457886
 30
0.0
 11
-8.316504927
 21
7.3989451881
 31
0.0
 11
-8.3286138991
 21
7.4011109908
 31
0.0
 11
-8.3651543868
 21
7.4110457886
 31
0.0
  0
SPLINE
  5
4A4
100
AcDbEntity
  8
RACCORDO
100
AcDbSpline
 62
7
  6
CONTINUOUS
 70
0
 71
3
 72
9
 73
5
 74
3
 42
0.0000001
 43
0.0000001
 44
0.0000000001
 12
0.0701163157
 22
-0.0595946402
 32
0.0
 13
0.0754643514
 23
-0.0526588127
 33
0.0
 40
0.0
 40
0.0
 40
0.0
 40
0.0
 40
0.2548223755
 40
1.0
 40
1.0
 40
1.0
 40
1.0
 10
-21.0530554411
 20
-12.5695687865
 30
0.0
 10
-21.0470997058
 20
-12.5746308025
 30
0.0
 10
-21.0235053812
 20
-12.594232
 30
0.0
 10
-20.9990079867
 20
-12.6127519793
 30
0.0
 10
-20.9802632047
 20
-12.6258320356
 30
0.0
 11
-21.0530554411
 21
-12.5695687865
 31
0.0
 11
-21.0350163417
 21
-12.5845502416
 31
0.0
 11
-20.9802632047
 21
-12.6258320356
 31
0.0
  0
SPLINE
  5
4A5
100
AcDbEntity
  8
RACCORDO
100
AcDbSpline
 62
7
  6
CONTINUOUS
 70
0
 71
3
 72
9
 73
5
 74
3
 42
0.0000001
 43
0.0000001
 44
0.0000000001
 12
0.0941791578
 22
-0.0657179521
 32
0.0
 13
0.1027173325
 23
-0.0513586662
 33
0.0
 40
0.0
 40
0.0
 40
0.0
 40
0.0
 40
0.2583377127
 40
1.0
 40
1.0
 40
1.0
 40
1.0
 10
-20.9802632047
 20
-12.6258320356
 30
0.0
 10
-20.9721531953
 20
-12.6314911774
 30
0.0
 10
-20.9404019365
 20
-12.6528743764
 30
0.0
 10
-20.9071894875
 20
-12.6721264334
 30
0.0
 10
-20.8817956303
 20
-12.684823362
 30
0.0
 11
-20.9802632047
 21
-12.6258320356
 31
0.0
 11
-20.9556505827
 21
-12.6423971219
 31
0.0
 11
-20.8817956303
 21
-12.684823362
 31
0.0
  0
LINE
  5
4A6
100
AcDbEntity
  8
RACCORDO
100
AcDbLine
 62
7
  6
CONTINUOUS
 10
-21.633455245
 20
9.1556673502
 11
-21.6348959188
 21
9.0819600322
  0
SPLINE
  5
4A7
100
AcDbEntity
  8
RACCORDO
100
AcDbSpline
 62
7
  6
CONTINUOUS
 70
0
 71
3
 72
11
 73
7
 74
5
 42
0.0000001
 43
0.0000001
 44
0.0000000001
 12
-0.3790616052
 22
0.1895308026
 32
0.0
 13
-0.020662909
 23
0.42329974
 33
0.0
 40
0.0
 40
0.0
 40
0.0
 40
0.0
 40
0.2244614817
 40
0.4716909202
 40
0.7325895586
 40
1.0
 40
1.0
 40
1.0
 40
1.0
 10
-9.0128495918
 20
-17.4450353639
 30
0.0
 10
-9.0412111683
 20
-17.4308545756
 30
0.0
 10
-9.0914938674
 20
-17.38250036
 30
0.0
 10
-9.1351192911
 20
-17.2875488278
 30
0.0
 10
-9.1602803168
 20
-17.1804374235
 30
0.0
 10
-9.1673985728
 20
-17.1059693078
 30
0.0
 10
-9.1692403986
 20
-17.0682377177
 30
0.0
 11
-9.0128495918
 21
-17.4450353639
 31
0.0
 11
-9.0840410639
 21
-17.3819398941
 31
0.0
 11
-9.1310446945
 21
-17.288297867
 31
0.0
 11
-9.1576249771
 21
-17.1809704499
 31
0.0
 11
-9.1692403986
 21
-17.0682377177
 31
0.0
  0
SPLINE
  5
4A8
100
AcDbEntity
  8
RACCORDO
100
AcDbSpline
 62
253
  6
CONTINUOUS
 70
0
 71
3
 72
11
 73
7
 74
5
 42
0.0000001
 43
0.0000001
 44
0.0000000001
 12
-0.649188379
 22
-0.3186483056
 32
0.0
 13
-0.6468263595
 23
0.3234160707
 33
0.0
 40
0.0
 40
0.0
 40
0.0
 40
0.0
 40
0.2359705712
 40
0.5006055875
 40
0.7649148275
 40
1.0
 40
1.0
 40
1.0
 40
1.0
 10
-20.5122134457
 20
0.1823999152
 30
0.0
 10
-20.5632765632
 20
0.157336041
 30
0.0
 10
-20.6801767754
 20
0.1216575432
 30
0.0
 10
-20.8647855126
 20
0.1048948451
 30
0.0
 10
-21.0490973122
 20
0.1225138041
 30
0.0
 10
-21.1655350087
 20
0.1587734162
 30
0.0
 10
-21.2162214375
 20
0.1841168571
 30
0.0
 11
-20.5122134457
 21
0.1823999152
 31
0.0
 11
-20.6743538152
 21
0.1291903443
 31
0.0
 11
-20.8648497107
 21
0.1108423563
 31
0.0
 11
-21.0550171056
 21
0.1301187098
 31
0.0
 11
-21.2162214375
 21
0.1841168571
 31
0.0
  0
SPLINE
  5
4A9
100
AcDbEntity
  8
RACCORDO
100
AcDbSpline
 62
7
  6
CONTINUOUS
 70
0
 71
3
 72
17
 73
13
 74
11
 42
0.0000001
 43
0.0000001
 44
0.0000000001
 12
-0.3543429845
 22
-1.026416523
 32
0.0
 13
-0.9712218405
 23
0.4856109202
 33
0.0
 40
0.0
 40
0.0
 40
0.0
 40
0.0
 40
0.1355596325
 40
0.2697013737
 40
0.4019779842
 40
0.5317571055
 40
0.6580039954
 40
0.7789658245
 40
0.8368134447
 40
0.8924805894
 40
0.9463026053
 40
1.0
 40
1.0
 40
1.0
 40
1.0
 10
-20.374137377
 20
-10.6828105541
 30
0.0
 10
-20.3901489119
 20
-10.7291907697
 30
0.0
 10
-20.424702572
 20
-10.8205625515
 30
0.0
 10
-20.4845047372
 20
-10.9533099424
 30
0.0
 10
-20.5523290786
 20
-11.0798036427
 30
0.0
 10
-20.6287930631
 20
-11.197993991
 30
0.0
 10
-20.7147939899
 20
-11.3042535852
 30
0.0
 10
-20.79705541
 20
-11.379237545
 30
0.0
 10
-20.8700824582
 20
-11.423109637
 30
0.0
 10
-20.9273525915
 20
-11.4443253914
 30
0.0
 10
-20.9871445956
 20
-11.4494724504
 30
0.0
 10
-21.0256639867
 20
-11.4386281664
 30
0.0
 10
-21.0430480142
 20
-11.4299361527
 30
0.0
 11
-20.374137377
 21
-10.6828105541
 31
0.0
 11
-20.4262913456
 21
-10.8204601322
 31
0.0
 11
-20.4862963651
 21
-10.9531852164
 31
0.0
 11
-20.5544745971
 21
-11.0796066675
 31
0.0
 11
-20.6315416364
 21
-11.1975881652
 31
0.0
 11
-20.718677423
 21
-11.3034182897
 31
0.0
 11
-20.8174941782
 21
-11.3899481292
 31
0.0
 11
-20.8716694577
 21
-11.4217393699
 31
0.0
 11
-20.9286678126
 21
-11.4418636753
 31
0.0
 11
-20.9869707448
 21
-11.4459092393
 31
0.0
 11
-21.0430480142
 21
-11.4299361527
 31
0.0
  0
SPLINE
  5
4AA
100
AcDbEntity
  8
RACCORDO
100
AcDbSpline
 62
253
  6
CONTINUOUS
 70
0
 71
3
 72
11
 73
7
 74
5
 42
0.0000001
 43
0.0000001
 44
0.0000000001
 12
-0.6438348999
 22
-0.3312037265
 32
0.0
 13
-0.6476437984
 23
0.3236924423
 33
0.0
 40
0.0
 40
0.0
 40
0.0
 40
0.0
 40
0.2370705237
 40
0.5017497135
 40
0.7654861829
 40
1.0
 40
1.0
 40
1.0
 40
1.0
 10
-20.4479298389
 20
-8.1858569091
 30
0.0
 10
-20.4988079312
 20
-8.2120297894
 30
0.0
 10
-20.6154749091
 20
-8.2499694989
 30
0.0
 10
-20.8002353608
 20
-8.2694004047
 30
0.0
 10
-20.9847141805
 20
-8.253591758
 30
0.0
 10
-21.1012468976
 20
-8.2178197714
 30
0.0
 10
-21.1518740374
 20
-8.1925163213
 30
0.0
 11
-20.4479298389
 21
-8.1858569091
 31
0.0
 11
-20.6100458946
 21
-8.2422553482
 31
0.0
 11
-20.8005211933
 21
-8.2633119685
 31
0.0
 11
-20.9906747529
 21
-8.2458561513
 31
0.0
 11
-21.1518740374
 21
-8.1925163213
 31
0.0
  0
SPLINE
  5
4AB
100
AcDbEntity
  8
RACCORDO
100
AcDbSpline
 62
253
  6
CONTINUOUS
 70
0
 71
3
 72
9
 73
5
 74
3
 42
0.0000001
 43
0.0000001
 44
0.0000000001
 12
-0.0866366712
 22
0.0417409009
 32
0.0
 13
-0.083192193
 23
-0.0482418348
 33
0.0
 40
0.0
 40
0.0
 40
0.0
 40
0.0
 40
0.5419484001
 40
1.0
 40
1.0
 40
1.0
 40
1.0
 10
-6.919909731
 20
13.385705268
 30
0.0
 10
-6.9355605995
 20
13.3932457395
 30
0.0
 10
-6.9670173618
 20
13.4033721841
 30
0.0
 10
-7.0004302288
 20
13.3966445302
 30
0.0
 10
-7.0131323345
 20
13.3892787803
 30
0.0
 11
-6.919909731
 21
13.385705268
 31
0.0
 11
-6.9702310072
 21
13.3992715757
 31
0.0
 11
-7.0131323345
 21
13.3892787803
 31
0.0
  0
SPLINE
  5
4AC
100
AcDbEntity
  8
RACCORDO
100
AcDbSpline
 62
253
  6
CONTINUOUS
 70
0
 71
3
 72
9
 73
5
 74
3
 42
0.0000001
 43
0.0000001
 44
0.0000000001
 12
-0.081652919
 22
0.0405374905
 32
0.0
 13
0.0102137057
 23
0.0905878995
 33
0.0
 40
0.0
 40
0.0
 40
0.0
 40
0.0
 40
0.3345381594
 40
1.0
 40
1.0
 40
1.0
 40
1.0
 10
-7.5728565049
 20
12.3142873417
 30
0.0
 10
-7.581961844
 20
12.3188077875
 30
0.0
 10
-7.6074022766
 20
12.3329287751
 30
0.0
 10
-7.6340025627
 20
12.3608521702
 30
0.0
 10
-7.6317369523
 20
12.3809464337
 30
0.0
 11
-7.5728565049
 21
12.3142873417
 31
0.0
 11
-7.5991132409
 21
12.3298005131
 31
0.0
 11
-7.6317369523
 21
12.3809464337
 31
0.0
  0
SPLINE
  5
4AD
100
AcDbEntity
  8
RACCORDO
100
AcDbSpline
 62
253
  6
CONTINUOUS
 70
0
 71
3
 72
11
 73
7
 74
5
 42
0.0000001
 43
0.0000001
 44
0.0000000001
 12
-0.084958505
 22
0.0422919984
 32
0.0
 13
0.0062379343
 23
0.0946976709
 33
0.0
 40
0.0
 40
0.0
 40
0.0
 40
0.0
 40
0.3155410043
 40
0.5838392161
 40
0.806509652
 40
1.0
 40
1.0
 40
1.0
 40
1.0
 10
-8.0106441413
 20
7.5835772839
 30
0.0
 10
-8.0195801053
 20
7.5880255705
 30
0.0
 10
-8.0356073055
 20
7.5973820142
 30
0.0
 10
-8.0550580553
 20
7.6141998798
 30
0.0
 10
-8.0672579936
 20
7.6325474796
 30
0.0
 10
-8.0697464421
 20
7.6459991635
 30
0.0
 10
-8.0693441154
 20
7.6521068586
 30
0.0
 11
-8.0106441413
 21
7.5835772839
 31
0.0
 11
-8.036335582
 21
7.5989622841
 31
0.0
 11
-8.0552358156
 21
7.6160241951
 31
0.0
 11
-8.0663669108
 21
7.6339870211
 31
0.0
 11
-8.0693441154
 21
7.6521068586
 31
0.0
  0
SPLINE
  5
4AE
100
AcDbEntity
  8
0
100
AcDbSpline
 62
253
  6
CONTINUOUS
 70
0
 71
3
 72
10
 73
6
 74
4
 42
0.0000001
 43
0.0000001
 44
0.0000000001
 12
0.0007367353
 22
-0.1556345922
 32
0.0
 13
-0.1384794885
 23
-0.0710359087
 33
0.0
 40
0.0
 40
0.0
 40
0.0
 40
0.0
 40
0.5475254686
 40
0.7817271398
 40
1.0
 40
1.0
 40
1.0
 40
1.0
 10
-1.4838520263
 20
-24.3186755616
 30
0.0
 10
-1.4837175659
 20
-24.347080196
 30
0.0
 10
-1.4899977296
 20
-24.3890797671
 30
0.0
 10
-1.5184394735
 20
-24.4333309726
 30
0.0
 10
-1.5374646747
 20
-24.4480708983
 30
0.0
 10
-1.5475401127
 20
-24.453239302
 30
0.0
 11
-1.4838520263
 21
-24.3186755616
 31
0.0
 11
-1.5003411491
 21
-24.4022798726
 31
0.0
 11
-1.520541791
 21
-24.4326205665
 31
0.0
 11
-1.5475401127
 21
-24.453239302
 31
0.0
  0
SPLINE
  5
4AF
100
AcDbEntity
  8
RACCORDO
100
AcDbSpline
 62
253
  6
CONTINUOUS
 70
0
 71
3
 72
9
 73
5
 74
3
 42
0.0000001
 43
0.0000001
 44
0.0000000001
 12
0.0145922904
 22
0.2205007387
 32
0.0
 13
0.1620109865
 23
0.1502862301
 33
0.0
 40
0.0
 40
0.0
 40
0.0
 40
0.0
 40
0.4975761521
 40
1.0
 40
1.0
 40
1.0
 40
1.0
 10
-8.5484378794
 20
7.2009332119
 30
0.0
 10
-8.5460176208
 20
7.2375051816
 30
0.0
 10
-8.5247260874
 20
7.3099791834
 30
0.0
 10
-8.4814252162
 20
7.3717588875
 30
0.0
 10
-8.4542924885
 20
7.3969280162
 30
0.0
 11
-8.5484378794
 21
7.2009332119
 31
0.0
 11
-8.5193801858
 21
7.3069801356
 31
0.0
 11
-8.4542924885
 21
7.3969280162
 31
0.0
  0
SPLINE
  5
4B0
100
AcDbEntity
  8
0
100
AcDbSpline
 62
7
  6
CONTINUOUS
 70
0
 71
3
 72
10
 73
6
 74
4
 42
0.0000001
 43
0.0000001
 44
0.0000000001
 12
-0.0
 22
-0.1559505894
 32
0.0
 13
-0.1387591004
 23
-0.0711793397
 33
0.0
 40
0.0
 40
0.0
 40
0.0
 40
0.0
 40
0.5479337167
 40
0.782130602
 40
1.0
 40
1.0
 40
1.0
 40
1.0
 10
-2.0121191981
 20
-24.5896866203
 30
0.0
 10
-2.0121191981
 20
-24.618170149
 30
0.0
 10
-2.0185703132
 20
-24.6602277776
 30
0.0
 10
-2.04710729
 20
-24.704533072
 30
0.0
 10
-2.066147217
 20
-24.7192950493
 30
0.0
 10
-2.0762243376
 20
-24.7244643159
 30
0.0
 11
-2.0121191981
 21
-24.5896866203
 31
0.0
 11
-2.0289462023
 21
-24.6734640313
 31
0.0
 11
-2.0492209281
 21
-24.7038428959
 31
0.0
 11
-2.0762243376
 21
-24.7244643159
 31
0.0
  0
SPLINE
  5
4B1
100
AcDbEntity
  8
RACCORDO
100
AcDbSpline
 62
253
  6
CONTINUOUS
 70
0
 71
3
 72
9
 73
5
 74
3
 42
0.0000001
 43
0.0000001
 44
0.0000000001
 12
0.0142417605
 22
0.2152036573
 32
0.0
 13
0.1549656712
 23
0.1500036087
 33
0.0
 40
0.0
 40
0.0
 40
0.0
 40
0.0
 40
0.4963753761
 40
1.0
 40
1.0
 40
1.0
 40
1.0
 10
-21.3013880619
 20
13.5774083031
 30
0.0
 10
-21.2990316421
 20
13.6130155686
 30
0.0
 10
-21.2786296162
 20
13.6837804039
 30
0.0
 10
-21.2371839007
 20
13.7445002947
 30
0.0
 10
-21.2111690581
 20
13.7696821317
 30
0.0
 11
-21.3013880619
 21
13.5774083031
 31
0.0
 11
-21.2735925922
 21
13.6807924531
 31
0.0
 11
-21.2111690581
 21
13.7696821317
 31
0.0
  0
SPLINE
  5
4B2
100
AcDbEntity
  8
0
100
AcDbSpline
 62
253
  6
CONTINUOUS
 70
0
 71
3
 72
11
 73
7
 74
5
 42
0.0000001
 43
0.0000001
 44
0.0000000001
 12
-0.0007563656
 22
-0.1586850504
 32
0.0
 13
-0.1426632749
 23
-0.0694889007
 33
0.0
 40
0.0
 40
0.0
 40
0.0
 40
0.0
 40
0.2901390019
 40
0.5501335806
 40
0.7832367603
 40
1.0
 40
1.0
 40
1.0
 40
1.0
 10
-3.6133999889
 20
-25.3697212199
 30
0.0
 10
-3.6134731393
 20
-25.3850681273
 30
0.0
 10
-3.6160904919
 20
-25.4142666315
 30
0.0
 10
-3.6287778997
 20
-25.4541330905
 30
0.0
 10
-3.6498006841
 20
-25.4859419158
 30
0.0
 10
-3.6693536012
 20
-25.5005508207
 30
0.0
 10
-3.6796616525
 20
-25.5055717004
 30
0.0
 11
-3.6133999889
 21
-25.3697212199
 31
0.0
 11
-3.6179845973
 21
-25.4155336377
 31
0.0
 11
-3.6310527525
 21
-25.4546670365
 31
0.0
 11
-3.6519572846
 21
-25.4851840968
 31
0.0
 11
-3.6796616525
 21
-25.5055717004
 31
0.0
  0
SPLINE
  5
4B3
100
AcDbEntity
  8
0
100
AcDbSpline
 62
253
  6
CONTINUOUS
 70
0
 71
3
 72
9
 73
5
 74
3
 42
0.0000001
 43
0.0000001
 44
0.0000000001
 12
0.0
 22
0.2514083247
 32
0.0
 13
0.1603864367
 23
0.1936035553
 33
0.0
 40
0.0
 40
0.0
 40
0.0
 40
0.0
 40
0.4868891312
 40
1.0
 40
1.0
 40
1.0
 40
1.0
 10
-3.9659219486
 20
-25.0292345619
 30
0.0
 10
-3.9659219486
 20
-24.9884319017
 30
0.0
 10
-3.9474428148
 20
-24.9045957415
 30
0.0
 10
-3.9049656089
 20
-24.8306537509
 30
0.0
 10
-3.8775336009
 20
-24.7975403881
 30
0.0
 11
-3.9659219486
 21
-25.0292345619
 31
0.0
 11
-3.9422383622
 21
-24.9091395933
 31
0.0
 11
-3.8775336009
 21
-24.7975403881
 31
0.0
  0
SPLINE
  5
4B4
100
AcDbEntity
  8
0
100
AcDbSpline
 62
253
  6
CONTINUOUS
 70
0
 71
3
 72
11
 73
7
 74
5
 42
0.0000001
 43
0.0000001
 44
0.0000000001
 12
-0.1867733391
 22
0.3016213508
 32
0.0
 13
-0.3163609943
 23
0.1605473161
 33
0.0
 40
0.0
 40
0.0
 40
0.0
 40
0.0
 40
0.2188690821
 40
0.4829783205
 40
0.7560361716
 40
1.0
 40
1.0
 40
1.0
 40
1.0
 10
-3.6133999889
 20
-25.0297472858
 30
0.0
 10
-3.627026292
 20
-25.0077420897
 30
0.0
 10
-3.6630522171
 20
-24.9629697514
 30
0.0
 10
-3.727160308
 20
-24.9004911013
 30
0.0
 10
-3.7997894379
 20
-24.8431661345
 30
0.0
 10
-3.8518067211
 20
-24.8105963007
 30
0.0
 10
-3.8775336009
 20
-24.7975403881
 30
0.0
 11
-3.6133999889
 21
-25.0297472858
 31
0.0
 11
-3.660689755
 21
-24.9681614016
 31
0.0
 11
-3.7274643004
 21
-24.902432109
 31
0.0
 11
-3.8035949232
 21
-24.8425296615
 31
0.0
 11
-3.8775336009
 21
-24.7975403881
 31
0.0
  0
SPLINE
  5
4B5
100
AcDbEntity
  8
0
100
AcDbSpline
 62
7
  6
CONTINUOUS
 70
0
 71
3
 72
10
 73
6
 74
4
 42
0.0000001
 43
0.0000001
 44
0.0000000001
 12
-0.3674823818
 22
0.0767372205
 32
0.0
 13
-0.3357759991
 23
0.1678879995
 33
0.0
 40
0.0
 40
0.0
 40
0.0
 40
0.0
 40
0.2083150484
 40
0.4661810473
 40
1.0
 40
1.0
 40
1.0
 40
1.0
 10
-2.9021793808
 20
-24.1782508087
 30
0.0
 10
-2.9276967509
 20
-24.1729223027
 30
0.0
 10
-2.9841606362
 20
-24.157956581
 30
0.0
 10
-3.1031203923
 20
-24.1191997109
 30
0.0
 10
-3.1954677048
 20
-24.0823549026
 30
0.0
 10
-3.2552155688
 20
-24.0524809706
 30
0.0
 11
-2.9021793808
 21
-24.1782508087
 31
0.0
 11
-2.9779579243
 21
-24.1589279027
 31
0.0
 11
-3.0700988057
 21
-24.1292410885
 31
0.0
 11
-3.2552155688
 21
-24.0524809706
 31
0.0
  0
SPLINE
  5
4B6
100
AcDbEntity
  8
RACCORDO
100
AcDbSpline
 62
253
  6
CONTINUOUS
 70
0
 71
3
 72
9
 73
5
 74
3
 42
0.0000001
 43
0.0000001
 44
0.0000000001
 12
0.223453012
 22
-0.112193577
 32
0.0
 13
0.2444225209
 23
0.0526904029
 33
0.0
 40
0.0
 40
0.0
 40
0.0
 40
0.0
 40
0.4886683806
 40
1.0
 40
1.0
 40
1.0
 40
1.0
 10
-21.7520355525
 20
14.4542647078
 30
0.0
 10
-21.715637412
 20
14.4359895566
 30
0.0
 10
-21.6326997317
 20
14.4165725918
 30
0.0
 10
-21.5480904191
 20
14.4181478682
 30
0.0
 10
-21.506430098
 20
14.4271286245
 30
0.0
 11
-21.7520355525
 21
14.4542647078
 31
0.0
 11
-21.6341801877
 21
14.4220255228
 31
0.0
 11
-21.506430098
 21
14.4271286245
 31
0.0
  0
SPLINE
  5
4B7
100
AcDbEntity
  8
RACCORDO
100
AcDbSpline
 62
253
  6
CONTINUOUS
 70
0
 71
3
 72
9
 73
5
 74
3
 42
0.0000001
 43
0.0000001
 44
0.0000000001
 12
0.2121449405
 22
-0.1068241757
 32
0.0
 13
0.235898687
 23
0.0277252544
 33
0.0
 40
0.0
 40
0.0
 40
0.0
 40
0.0
 40
0.4865724107
 40
1.0
 40
1.0
 40
1.0
 40
1.0
 10
-21.2987045886
 20
19.1772228865
 30
0.0
 10
-21.2642966302
 20
19.1598969877
 30
0.0
 10
-21.1865431302
 20
19.1390346187
 30
0.0
 10
-21.1065807063
 20
19.1354161478
 30
0.0
 10
-21.0662084082
 20
19.140161118
 30
0.0
 11
-21.2987045886
 21
19.1772228865
 31
0.0
 11
-21.1881082456
 21
19.143677421
 31
0.0
 11
-21.0662084082
 21
19.140161118
 31
0.0
  0
SPLINE
  5
4B8
100
AcDbEntity
  8
0
100
AcDbSpline
 62
253
  6
CONTINUOUS
 70
0
 71
3
 72
9
 73
5
 74
3
 42
0.0000001
 43
0.0000001
 44
0.0000000001
 12
0.0540205738
 22
0.1425958475
 32
0.0
 13
-0.0197436141
 23
0.1512018116
 33
0.0
 40
0.0
 40
0.0
 40
0.0
 40
0.0
 40
0.2521477516
 40
1.0
 40
1.0
 40
1.0
 40
1.0
 10
-1.4838520263
 20
-23.9711440449
 30
0.0
 10
-1.4793116376
 20
-23.9591589708
 30
0.0
 10
-1.464229875
 20
-23.9105803004
 30
0.0
 10
-1.4608927164
 20
-23.8582729259
 30
0.0
 10
-1.4658144851
 20
-23.820580721
 30
0.0
 11
-1.4838520263
 21
-23.9711440449
 31
0.0
 11
-1.4724526767
 21
-23.9344239004
 31
0.0
 11
-1.4658144851
 21
-23.820580721
 31
0.0
  0
SPLINE
  5
4B9
100
AcDbEntity
  8
0
100
AcDbSpline
 62
253
  6
CONTINUOUS
 70
0
 71
3
 72
9
 73
5
 74
3
 42
0.0000001
 43
0.0000001
 44
0.0000000001
 12
-0.0115352623
 22
0.0539890339
 32
0.0
 13
-0.0227940441
 23
0.0502822992
 33
0.0
 40
0.0
 40
0.0
 40
0.0
 40
0.0
 40
0.2548105244
 40
1.0
 40
1.0
 40
1.0
 40
1.0
 10
-1.4696706911
 20
-23.7980936092
 30
0.0
 10
-1.4706504599
 20
-23.7935079511
 30
0.0
 10
-1.4749525697
 20
-23.7756138153
 30
0.0
 10
-1.4811137791
 20
-23.7581546981
 30
0.0
 10
-1.4867757397
 20
-23.7456647514
 30
0.0
 11
-1.4696706911
 21
-23.7980936092
 31
0.0
 11
-1.472963614
 21
-23.7844169679
 31
0.0
 11
-1.4867757397
 21
-23.7456647514
 31
0.0
  0
SPLINE
  5
4BA
100
AcDbEntity
  8
0
100
AcDbSpline
 62
253
  6
CONTINUOUS
 70
0
 71
3
 72
9
 73
5
 74
3
 42
0.0000001
 43
0.0000001
 44
0.0000000001
 12
-0.0497004364
 22
0.1096361925
 32
0.0
 13
-0.1043794006
 23
0.0599597266
 33
0.0
 40
0.0
 40
0.0
 40
0.0
 40
0.0
 40
0.5166283026
 40
1.0
 40
1.0
 40
1.0
 40
1.0
 10
-1.4867757397
 20
-23.7456647514
 30
0.0
 10
-1.4953346237
 20
-23.7267843648
 30
0.0
 10
-1.5167987482
 20
-23.6921506223
 30
0.0
 10
-1.5481153887
 20
-23.6657054943
 30
0.0
 10
-1.5649334048
 20
-23.6560445494
 30
0.0
 11
-1.4867757397
 21
-23.7456647514
 31
0.0
 11
-1.5201422559
 21
-23.6931844021
 31
0.0
 11
-1.5649334048
 21
-23.6560445494
 31
0.0
  0
SPLINE
  5
4BB
100
AcDbEntity
  8
RACCORDO
100
AcDbSpline
 62
253
  6
CONTINUOUS
 70
0
 71
3
 72
9
 73
5
 74
3
 42
0.0000001
 43
0.0000001
 44
0.0000000001
 12
0.1041226463
 22
-0.0540243066
 32
0.0
 13
0.0683217135
 23
-0.0953535245
 33
0.0
 40
0.0
 40
0.0
 40
0.0
 40
0.0
 40
0.2269081972
 40
1.0
 40
1.0
 40
1.0
 40
1.0
 10
-20.6272781144
 20
20.2393894597
 30
0.0
 10
-20.619402687
 20
20.2353032736
 30
0.0
 10
-20.5861644128
 20
20.2144889395
 30
0.0
 10
-20.5588204542
 20
20.1851569848
 30
0.0
 10
-20.5412141353
 20
20.1605846421
 30
0.0
 11
-20.6272781144
 21
20.2393894597
 31
0.0
 11
-20.6046220959
 21
20.225418838
 31
0.0
 11
-20.5412141353
 21
20.1605846421
 31
0.0
  0
SPLINE
  5
4BC
100
AcDbEntity
  8
RACCORDO
100
AcDbSpline
 62
253
  6
CONTINUOUS
 70
0
 71
3
 72
9
 73
5
 74
3
 42
0.0000001
 43
0.0000001
 44
0.0000000001
 12
0.0583236007
 22
-0.0813996109
 32
0.0
 13
0.0321196199
 23
-0.0948465554
 33
0.0
 40
0.0
 40
0.0
 40
0.0
 40
0.0
 40
0.7521343921
 40
1.0
 40
1.0
 40
1.0
 40
1.0
 10
-20.5412141353
 20
20.1605846421
 30
0.0
 10
-20.52659174
 20
20.1401768264
 30
0.0
 10
-20.5100869458
 20
20.1107417046
 30
0.0
 10
-20.4981390243
 20
20.0795602556
 30
0.0
 10
-20.4954852413
 20
20.0717238559
 30
0.0
 11
-20.5412141353
 21
20.1605846421
 31
0.0
 11
-20.5043419442
 21
20.0949105835
 31
0.0
 11
-20.4954852413
 21
20.0717238559
 31
0.0
  0
SPLINE
  5
4BD
100
AcDbEntity
  8
RACCORDO
100
AcDbSpline
 62
253
  6
CONTINUOUS
 70
0
 71
3
 72
9
 73
5
 74
3
 42
0.0000001
 43
0.0000001
 44
0.0000000001
 12
0.0572003679
 22
-0.0282490489
 32
0.0
 13
0.0635238624
 23
0.0058830055
 33
0.0
 40
0.0
 40
0.0
 40
0.0
 40
0.0
 40
0.2739412591
 40
1.0
 40
1.0
 40
1.0
 40
1.0
 10
-17.3809907975
 20
22.5601278474
 30
0.0
 10
-17.3757676173
 20
22.5575483207
 30
0.0
 10
-17.3562788021
 20
22.5491502959
 30
0.0
 10
-17.3344696176
 20
22.5450656067
 30
0.0
 10
-17.3190955991
 20
22.5464894092
 30
0.0
 11
-17.3809907975
 21
22.5601278474
 31
0.0
 11
-17.3649159068
 21
22.5532708789
 31
0.0
 11
-17.3190955991
 21
22.5464894092
 31
0.0
  0
SPLINE
  5
4BE
100
AcDbEntity
  8
RACCORDO
100
AcDbSpline
 62
253
  6
CONTINUOUS
 70
0
 71
3
 72
11
 73
7
 74
5
 42
0.0000001
 43
0.0000001
 44
0.0000000001
 12
0.2485227499
 22
0.1402130956
 32
0.0
 13
-0.0
 23
0.285347629
 33
0.0
 40
0.0
 40
0.0
 40
0.0
 40
0.0
 40
0.2325923618
 40
0.4915258743
 40
0.7550990907
 40
1.0
 40
1.0
 40
1.0
 40
1.0
 10
-17.3791449917
 20
22.2225529938
 30
0.0
 10
-17.3598768272
 20
22.2334238255
 30
0.0
 10
-17.3234427007
 20
22.2640381786
 30
0.0
 10
-17.2812481047
 20
22.3228794279
 30
0.0
 10
-17.2529805467
 20
22.3908100453
 30
0.0
 10
-17.2451250573
 20
22.4392367056
 30
0.0
 10
-17.2451250573
 20
22.4625306702
 30
0.0
 11
-17.3791449917
 21
22.2225529938
 31
0.0
 11
-17.3274033388
 21
22.2641190334
 31
0.0
 11
-17.2839510947
 21
22.3238773208
 31
0.0
 11
-17.2552146337
 21
22.3933809809
 31
0.0
 11
-17.2451250573
 21
22.4625306702
 31
0.0
  0
SPLINE
  5
4BF
100
AcDbEntity
  8
RACCORDO
100
AcDbSpline
 62
253
  6
CONTINUOUS
 70
0
 71
3
 72
11
 73
7
 74
5
 42
0.0000001
 43
0.0000001
 44
0.0000000001
 12
0.2485227502
 22
0.1402130954
 32
0.0
 13
-0.0000000004
 23
0.2853476291
 33
0.0
 40
0.0
 40
0.0
 40
0.0
 40
0.0
 40
0.2325923477
 40
0.4915258488
 40
0.7550990786
 40
1.0
 40
1.0
 40
1.0
 40
1.0
 10
-15.6923792674
 20
21.3791701317
 30
0.0
 10
-15.6731111041
 20
21.3900409627
 30
0.0
 10
-15.6366769781
 20
21.4206553125
 30
0.0
 10
-15.5944823831
 20
21.4794965615
 30
0.0
 10
-15.5662148242
 20
21.5474271797
 30
0.0
 10
-15.5583593331
 20
21.5958538423
 30
0.0
 10
-15.5583593331
 20
21.6191478081
 30
0.0
 11
-15.6923792674
 21
21.3791701317
 31
0.0
 11
-15.6406376167
 21
21.4207361676
 31
0.0
 11
-15.5971853741
 21
21.4804944521
 31
0.0
 11
-15.568448911
 21
21.5499981155
 31
0.0
 11
-15.5583593331
 21
21.6191478081
 31
0.0
  0
SPLINE
  5
4C0
100
AcDbEntity
  8
RACCORDO
100
AcDbSpline
 62
253
  6
CONTINUOUS
 70
0
 71
3
 72
11
 73
7
 74
5
 42
0.0000001
 43
0.0000001
 44
0.0000000001
 12
-0.2612648762
 22
0.1322549794
 32
0.0
 13
-0.0128644528
 23
0.2925495188
 33
0.0
 40
0.0
 40
0.0
 40
0.0
 40
0.0
 40
0.2306959004
 40
0.4907914876
 40
0.7559042309
 40
1.0
 40
1.0
 40
1.0
 40
1.0
 10
-15.0578397401
 20
21.3985523186
 30
0.0
 10
-15.077930652
 20
21.4087225458
 30
0.0
 10
-15.1164876798
 20
21.4386401662
 30
0.0
 10
-15.1620680853
 20
21.4973743182
 30
0.0
 10
-15.1943862983
 20
21.5657836147
 30
0.0
 10
-15.2047906538
 20
21.6151368076
 30
0.0
 10
-15.2058373733
 20
21.6389401742
 30
0.0
 11
-15.0578397401
 21
21.3985523186
 31
0.0
 11
-15.112197742
 21
21.4386635639
 31
0.0
 11
-15.1594097659
 21
21.4984300779
 31
0.0
 11
-15.192290959
 21
21.5687564324
 31
0.0
 11
-15.2058373733
 21
21.6389401742
 31
0.0
  0
SPLINE
  5
4C1
100
AcDbEntity
  8
RACCORDO
100
AcDbSpline
 62
253
  6
CONTINUOUS
 70
0
 71
3
 72
9
 73
5
 74
3
 42
0.0000001
 43
0.0000001
 44
0.0000000001
 12
0.0572003679
 22
-0.0282490489
 32
0.0
 13
0.0635238624
 23
0.0058830055
 33
0.0
 40
0.0
 40
0.0
 40
0.0
 40
0.0
 40
0.2739412591
 40
1.0
 40
1.0
 40
1.0
 40
1.0
 10
-5.0773328049
 20
16.4082988511
 30
0.0
 10
-5.0721096246
 20
16.4057193244
 30
0.0
 10
-5.0526208095
 20
16.3973212996
 30
0.0
 10
-5.0308116249
 20
16.3932366103
 30
0.0
 10
-5.0154376064
 20
16.3946604129
 30
0.0
 11
-5.0773328049
 21
16.4082988511
 31
0.0
 11
-5.0612579141
 21
16.4014418826
 31
0.0
 11
-5.0154376064
 21
16.3946604129
 31
0.0
  0
SPLINE
  5
4C2
100
AcDbEntity
  8
RACCORDO
100
AcDbSpline
 62
253
  6
CONTINUOUS
 70
0
 71
3
 72
11
 73
7
 74
5
 42
0.0000001
 43
0.0000001
 44
0.0000000001
 12
0.2485227499
 22
0.1402130956
 32
0.0
 13
0.0
 23
0.285347629
 33
0.0
 40
0.0
 40
0.0
 40
0.0
 40
0.0
 40
0.2325923618
 40
0.4915258743
 40
0.7550990907
 40
1.0
 40
1.0
 40
1.0
 40
1.0
 10
-5.075486999
 20
16.0707239975
 30
0.0
 10
-5.0562188346
 20
16.0815948292
 30
0.0
 10
-5.0197847081
 20
16.1122091823
 30
0.0
 10
-4.977590112
 20
16.1710504316
 30
0.0
 10
-4.949322554
 20
16.238981049
 30
0.0
 10
-4.9414670647
 20
16.2874077093
 30
0.0
 10
-4.9414670647
 20
16.3107016739
 30
0.0
 11
-5.075486999
 21
16.0707239975
 31
0.0
 11
-5.0237453461
 21
16.1122900371
 31
0.0
 11
-4.980293102
 21
16.1720483245
 31
0.0
 11
-4.951556641
 21
16.2415519845
 31
0.0
 11
-4.9414670647
 21
16.3107016739
 31
0.0
  0
SPLINE
  5
4C3
100
AcDbEntity
  8
RACCORDO
100
AcDbSpline
 62
253
  6
CONTINUOUS
 70
0
 71
3
 72
11
 73
7
 74
5
 42
0.0000001
 43
0.0000001
 44
0.0000000001
 12
0.2485227502
 22
0.1402130954
 32
0.0
 13
-0.0000000004
 23
0.2853476291
 33
0.0
 40
0.0
 40
0.0
 40
0.0
 40
0.0
 40
0.2325923477
 40
0.4915258488
 40
0.7550990786
 40
1.0
 40
1.0
 40
1.0
 40
1.0
 10
-3.3887212748
 20
15.2273411354
 30
0.0
 10
-3.3694531115
 20
15.2382119664
 30
0.0
 10
-3.3330189855
 20
15.2688263161
 30
0.0
 10
-3.2908243904
 20
15.3276675651
 30
0.0
 10
-3.2625568316
 20
15.3955981834
 30
0.0
 10
-3.2547013404
 20
15.444024846
 30
0.0
 10
-3.2547013405
 20
15.4673188118
 30
0.0
 11
-3.3887212748
 21
15.2273411354
 31
0.0
 11
-3.3369796241
 21
15.2689071712
 31
0.0
 11
-3.2935273815
 21
15.3286654558
 31
0.0
 11
-3.2647909184
 21
15.3981691191
 31
0.0
 11
-3.2547013405
 21
15.4673188118
 31
0.0
  0
SPLINE
  5
4C4
100
AcDbEntity
  8
RACCORDO
100
AcDbSpline
 62
253
  6
CONTINUOUS
 70
0
 71
3
 72
11
 73
7
 74
5
 42
0.0000001
 43
0.0000001
 44
0.0000000001
 12
-0.2612648762
 22
0.1322549794
 32
0.0
 13
-0.0128644528
 23
0.2925495188
 33
0.0
 40
0.0
 40
0.0
 40
0.0
 40
0.0
 40
0.2306959004
 40
0.4907914876
 40
0.7559042309
 40
1.0
 40
1.0
 40
1.0
 40
1.0
 10
-2.7541817474
 20
15.2467233223
 30
0.0
 10
-2.7742726594
 20
15.2568935495
 30
0.0
 10
-2.8128296871
 20
15.2868111699
 30
0.0
 10
-2.8584100927
 20
15.3455453219
 30
0.0
 10
-2.8907283056
 20
15.4139546184
 30
0.0
 10
-2.9011326611
 20
15.4633078113
 30
0.0
 10
-2.9021793806
 20
15.4871111779
 30
0.0
 11
-2.7541817474
 21
15.2467233223
 31
0.0
 11
-2.8085397494
 21
15.2868345676
 31
0.0
 11
-2.8557517733
 21
15.3466010816
 31
0.0
 11
-2.8886329663
 21
15.4169274361
 31
0.0
 11
-2.9021793806
 21
15.4871111779
 31
0.0
  0
SPLINE
  5
4C5
100
AcDbEntity
  8
0
100
AcDbSpline
 62
253
  6
CONTINUOUS
 70
0
 71
3
 72
10
 73
6
 74
4
 42
0.0000001
 43
0.0000001
 44
0.0000000001
 12
0.0394099582
 22
-0.0641576145
 32
0.0
 13
-0.0476287454
 23
-0.0583167808
 33
0.0
 40
0.0
 40
0.0
 40
0.0
 40
0.0
 40
0.3488607343
 40
0.628015101
 40
1.0
 40
1.0
 40
1.0
 40
1.0
 10
-1.4838520263
 20
17.3284600945
 30
0.0
 10
-1.479269164
 20
17.3209994037
 30
0.0
 10
-1.4716615389
 20
17.3069682748
 30
0.0
 10
-1.4628142346
 20
17.2840780692
 30
0.0
 10
-1.4625495474
 20
17.26490024
 30
0.0
 10
-1.4684552721
 20
17.2576692527
 30
0.0
 11
-1.4838520263
 21
17.3284600945
 31
0.0
 11
-1.4714501433
 21
17.3053046608
 31
0.0
 11
-1.4646457148
 21
17.2854175882
 31
0.0
 11
-1.4684552721
 21
17.2576692527
 31
0.0
  0
SPLINE
  5
4C6
100
AcDbEntity
  8
0
100
AcDbSpline
 62
7
  6
CONTINUOUS
 70
0
 71
3
 72
10
 73
6
 74
4
 42
0.0000001
 43
0.0000001
 44
0.0000000001
 12
0.3473086931
 22
-0.0725863021
 32
0.0
 13
0.2274530278
 23
0.2723182324
 33
0.0
 40
0.0
 40
0.0
 40
0.0
 40
0.0
 40
0.4823936024
 40
0.7434680481
 40
1.0
 40
1.0
 40
1.0
 40
1.0
 10
-3.2160178589
 20
15.9836987524
 30
0.0
 10
-3.1601713617
 20
15.9720270298
 30
0.0
 10
-3.0667802161
 20
15.9932558714
 30
0.0
 10
-2.9664728725
 20
16.0553037593
 30
0.0
 10
-2.9216290372
 20
16.0980672215
 30
0.0
 10
-2.9021793808
 20
16.1213533307
 30
0.0
 11
-3.2160178589
 21
15.9836987524
 31
0.0
 11
-3.0469004917
 21
16.0100589373
 31
0.0
 11
-2.967817384
 21
16.0582943053
 31
0.0
 11
-2.9021793808
 21
16.1213533307
 31
0.0
  0
LINE
  5
4C7
100
AcDbEntity
  8
RACCORDO
100
AcDbLine
 62
253
  6
CONTINUOUS
 10
4.3900287485
 20
19.0204312432
 11
4.2671197347
 21
18.9459382203
  0
LINE
  5
4C8
100
AcDbEntity
  8
RACCORDO
100
AcDbLine
 62
253
  6
CONTINUOUS
 10
4.2671197347
 20
18.9459382203
 11
-0.8081902853
 21
15.8698807857
  0
SPLINE
  5
4C9
100
AcDbEntity
  8
0
100
AcDbSpline
 62
253
  6
CONTINUOUS
 70
0
 71
3
 72
10
 73
6
 74
4
 42
0.0000001
 43
0.0000001
 44
0.0000000001
 12
0.0394245837
 22
-0.0641814242
 32
0.0
 13
-0.047737085
 23
-0.0582642577
 33
0.0
 40
0.0
 40
0.0
 40
0.0
 40
0.0
 40
0.3489322052
 40
0.6280947357
 40
1.0
 40
1.0
 40
1.0
 40
1.0
 10
-13.787510019
 20
23.4802890908
 30
0.0
 10
-13.7829245167
 20
23.4728241022
 30
0.0
 10
-13.7753139542
 20
23.4587852555
 30
0.0
 10
-13.7664645587
 20
23.4358869619
 30
0.0
 10
-13.7662151405
 20
23.4166970122
 30
0.0
 10
-13.7721330315
 20
23.4094740841
 30
0.0
 11
-13.787510019
 21
23.4802890908
 31
0.0
 11
-13.7751019551
 21
23.4571198023
 31
0.0
 11
-13.7682986782
 21
23.4372234419
 31
0.0
 11
-13.7721330315
 21
23.4094740841
 31
0.0
  0
SPLINE
  5
4CA
100
AcDbEntity
  8
0
100
AcDbSpline
 62
253
  6
CONTINUOUS
 70
0
 71
3
 72
9
 73
5
 74
3
 42
0.0000001
 43
0.0000001
 44
0.0000000001
 12
-0.1010580258
 22
0.0505290129
 32
0.0
 13
-0.0117323552
 23
0.1123755203
 33
0.0
 40
0.0
 40
0.0
 40
0.0
 40
0.0
 40
0.5649857998
 40
1.0
 40
1.0
 40
1.0
 40
1.0
 10
-17.9481180116
 20
23.261467609
 30
0.0
 10
-17.9671501281
 20
23.2709836672
 30
0.0
 10
-17.9995776228
 20
23.291625094
 30
0.0
 10
-18.0192997974
 20
23.3270420335
 30
0.0
 10
-18.0210010445
 20
23.3433370159
 30
0.0
 11
-17.9481180116
 21
23.261467609
 31
0.0
 11
-17.9997366242
 21
23.2990243692
 31
0.0
 11
-18.0210010445
 21
23.3433370159
 31
0.0
  0
SPLINE
  5
4CB
100
AcDbEntity
  8
0
100
AcDbSpline
 62
253
  6
CONTINUOUS
 70
0
 71
3
 72
11
 73
7
 74
5
 42
0.0000001
 43
0.0000001
 44
0.0000000001
 12
-0.1076203556
 22
0.0538101778
 32
0.0
 13
-0.0000006378
 23
0.1203232155
 33
0.0
 40
0.0
 40
0.0
 40
0.0
 40
0.0
 40
0.3025799362
 40
0.5654849533
 40
0.7934323367
 40
1.0
 40
1.0
 40
1.0
 40
1.0
 10
-17.9481180116
 20
23.6014415431
 30
0.0
 10
-17.9589725984
 20
23.6068688365
 30
0.0
 10
-17.9785910166
 20
23.6185087948
 30
0.0
 10
-18.00240284
 20
23.6400289189
 30
0.0
 10
-18.017681971
 20
23.6639835512
 30
0.0
 10
-18.0213410143
 20
23.6815449113
 30
0.0
 10
-18.0213410582
 20
23.6898298731
 30
0.0
 11
-17.9481180116
 21
23.6014415431
 31
0.0
 11
-17.9792094363
 21
23.6203841253
 31
0.0
 11
-18.0023109289
 21
23.6419944061
 31
0.0
 11
-18.0165375512
 21
23.6654435726
 31
0.0
 11
-18.0213410582
 21
23.6898298731
 31
0.0
  0
SPLINE
  5
4CC
100
AcDbEntity
  8
0
100
AcDbSpline
 62
253
  6
CONTINUOUS
 70
0
 71
3
 72
11
 73
7
 74
5
 42
0.0000001
 43
0.0000001
 44
0.0000000001
 12
0.0
 22
-0.157427875
 32
0.0
 13
0.1408051618
 23
-0.0704091061
 33
0.0
 40
0.0
 40
0.0
 40
0.0
 40
0.0
 40
0.2897455134
 40
0.5495875958
 40
0.7828491694
 40
1.0
 40
1.0
 40
1.0
 40
1.0
 10
-16.2695799412
 20
22.4221985738
 30
0.0
 10
-16.2695799412
 20
22.4069939003
 30
0.0
 10
-16.2671263242
 20
22.3780440761
 30
0.0
 10
-16.2547529625
 20
22.3384503134
 30
0.0
 10
-16.2340879427
 20
22.3067507593
 30
0.0
 10
-16.2148011239
 20
22.292077779
 30
0.0
 10
-16.2046091379
 20
22.2869813138
 30
0.0
 11
-16.2695799412
 21
22.4221985738
 31
0.0
 11
-16.2652604102
 21
22.3767895382
 31
0.0
 11
-16.2525131614
 21
22.3379200111
 31
0.0
 11
-16.2319611674
 21
22.30748793
 31
0.0
 11
-16.2046091379
 21
22.2869813138
 31
0.0
  0
SPLINE
  5
4CD
100
AcDbEntity
  8
0
100
AcDbSpline
 62
253
  6
CONTINUOUS
 70
0
 71
3
 72
9
 73
5
 74
3
 42
0.0000001
 43
0.0000001
 44
0.0000000001
 12
0.0
 22
-0.1475994898
 32
0.0
 13
0.125318951
 23
-0.0779792914
 33
0.0
 40
0.0
 40
0.0
 40
0.0
 40
0.0
 40
0.549503191
 40
1.0
 40
1.0
 40
1.0
 40
1.0
 10
-17.9481180116
 20
23.261467609
 30
0.0
 10
-17.9481180116
 20
23.2344321454
 30
0.0
 10
-17.9413780656
 20
23.1842703471
 30
0.0
 10
-17.9095874478
 20
23.1422255708
 30
0.0
 10
-17.890768852
 20
23.1305157635
 30
0.0
 11
-17.9481180116
 21
23.261467609
 31
0.0
 11
-17.9331466235
 21
23.1817549742
 31
0.0
 11
-17.890768852
 21
23.1305157635
 31
0.0
  0
SPLINE
  5
4CE
100
AcDbEntity
  8
0
100
AcDbSpline
 62
253
  6
CONTINUOUS
 70
0
 71
3
 72
11
 73
7
 74
5
 42
0.0000001
 43
0.0000001
 44
0.0000000001
 12
0.3239339031
 22
-0.1619669516
 32
0.0
 13
0.3246816256
 23
0.1604627963
 33
0.0
 40
0.0
 40
0.0
 40
0.0
 40
0.0
 40
0.2351711086
 40
0.4995790016
 40
0.7642134063
 40
1.0
 40
1.0
 40
1.0
 40
1.0
 10
-16.2695799412
 20
22.7621725079
 30
0.0
 10
-16.2441866428
 20
22.7494758587
 30
0.0
 10
-16.1858425042
 20
22.7313315604
 30
0.0
 10
-16.0935074479
 20
22.7225759049
 30
0.0
 10
-16.0010731004
 20
22.731077981
 30
0.0
 10
-15.9425765064
 20
22.7490481253
 30
0.0
 10
-15.9170579815
 20
22.761659784
 30
0.0
 11
-16.2695799412
 21
22.7621725079
 31
0.0
 11
-16.1888100519
 21
22.7351457526
 31
0.0
 11
-16.0935305091
 21
22.725561514
 31
0.0
 11
-15.9981410514
 21
22.7348684199
 31
0.0
 11
-15.9170579815
 21
22.761659784
 31
0.0
  0
SPLINE
  5
4CF
100
AcDbEntity
  8
0
100
AcDbSpline
 62
253
  6
CONTINUOUS
 70
0
 71
3
 72
11
 73
7
 74
5
 42
0.0000001
 43
0.0000001
 44
0.0000000001
 12
0.323933903
 22
-0.1619669515
 32
0.0
 13
0.3246816254
 23
0.1604627962
 33
0.0
 40
0.0
 40
0.0
 40
0.0
 40
0.0
 40
0.2351712695
 40
0.4995791233
 40
0.7642134642
 40
1.0
 40
1.0
 40
1.0
 40
1.0
 10
-16.2695799412
 20
22.4221985738
 30
0.0
 10
-16.2441866255
 20
22.4095019159
 30
0.0
 10
-16.1858424694
 20
22.3913576202
 30
0.0
 10
-16.0935074063
 20
22.3826019714
 30
0.0
 10
-16.0010730787
 20
22.391104052
 30
0.0
 10
-15.9425765001
 20
22.4090741943
 30
0.0
 10
-15.9170579815
 20
22.4216858499
 30
0.0
 11
-16.2695799412
 21
22.4221985738
 31
0.0
 11
-16.1888099942
 21
22.3951718073
 31
0.0
 11
-16.0935304646
 21
22.3855875797
 31
0.0
 11
-15.9981410306
 21
22.3948944898
 31
0.0
 11
-15.9170579815
 21
22.4216858499
 31
0.0
  0
SPLINE
  5
4D0
100
AcDbEntity
  8
0
100
AcDbSpline
 62
7
  6
CONTINUOUS
 70
0
 71
3
 72
10
 73
6
 74
4
 42
0.0000001
 43
0.0000001
 44
0.0000000001
 12
-0.2274471789
 22
-0.2723112298
 32
0.0
 13
-0.3473290773
 23
0.0724440274
 33
0.0
 40
0.0
 40
0.0
 40
0.0
 40
0.0
 40
0.2565291183
 40
0.5176013489
 40
1.0
 40
1.0
 40
1.0
 40
1.0
 10
-15.2058373734
 20
22.2731823271
 30
0.0
 10
-15.2252863149
 20
22.2498970738
 30
0.0
 10
-15.2701281052
 20
22.2071358752
 30
0.0
 10
-15.3704335919
 20
22.1450831897
 30
0.0
 10
-15.46381586
 20
22.1238748637
 30
0.0
 10
-15.5196662195
 20
22.1355238307
 30
0.0
 11
-15.2058373734
 21
22.2731823271
 31
0.0
 11
-15.2714727145
 21
22.2101253603
 31
0.0
 11
-15.3505525334
 21
22.1618906838
 31
0.0
 11
-15.5196662195
 21
22.1355238307
 31
0.0
  0
SPLINE
  5
4D1
100
AcDbEntity
  8
0
100
AcDbSpline
 62
253
  6
CONTINUOUS
 70
0
 71
3
 72
11
 73
7
 74
5
 42
0.0000001
 43
0.0000001
 44
0.0000000001
 12
-0.1066634485
 22
-0.2776809507
 32
0.0
 13
-0.2911830694
 23
0.06079656
 33
0.0
 40
0.0
 40
0.0
 40
0.0
 40
0.0
 40
0.2776557585
 40
0.5374732707
 40
0.7760958843
 40
1.0
 40
1.0
 40
1.0
 40
1.0
 10
-15.9170579815
 20
22.4216858499
 30
0.0
 10
-15.9269298884
 20
22.3959859449
 30
0.0
 10
-15.9527057606
 20
22.348428559
 30
0.0
 10
-16.0082149676
 20
22.2933470115
 30
0.0
 10
-16.0746060745
 20
22.2622728766
 30
0.0
 10
-16.1221691306
 20
22.2613271433
 30
0.0
 10
-16.1439014932
 20
22.2658646766
 30
0.0
 11
-15.9170579815
 21
22.4216858499
 31
0.0
 11
-15.9569414595
 21
22.349361821
 31
0.0
 11
-16.0124919689
 21
22.2956286629
 31
0.0
 11
-16.0773035053
 21
22.2666839065
 31
0.0
 11
-16.1439014932
 21
22.2658646766
 31
0.0
  0
SPLINE
  5
4D2
100
AcDbEntity
  8
RACCORDO
100
AcDbSpline
 62
253
  6
CONTINUOUS
 70
0
 71
3
 72
11
 73
7
 74
5
 42
0.0000001
 43
0.0000001
 44
0.0000000001
 12
0.3264016368
 22
-0.1632368628
 32
0.0
 13
0.3116685507
 23
0.1898605183
 33
0.0
 40
0.0
 40
0.0
 40
0.0
 40
0.0
 40
0.2326068364
 40
0.4942871587
 40
0.7589758636
 40
1.0
 40
1.0
 40
1.0
 40
1.0
 10
-15.5583339401
 20
21.619135569
 30
0.0
 10
-15.5330261894
 20
21.6064788989
 30
0.0
 10
-15.4743011417
 20
21.5894779217
 30
0.0
 10
-15.3814512848
 20
21.5851985445
 30
0.0
 10
-15.2886840697
 20
21.6002597609
 30
0.0
 10
-15.2308691473
 20
21.6236914401
 30
0.0
 10
-15.2058292662
 20
21.6389450959
 30
0.0
 11
-15.5583339401
 21
21.619135569
 31
0.0
 11
-15.4773690895
 21
21.5936256718
 31
0.0
 11
-15.3820078934
 21
21.5885022676
 31
0.0
 11
-15.2867325082
 21
21.604424198
 31
0.0
 11
-15.2058292662
 21
21.6389450959
 31
0.0
  0
SPLINE
  5
4D3
100
AcDbEntity
  8
0
100
AcDbSpline
 62
253
  6
CONTINUOUS
 70
0
 71
3
 72
9
 73
5
 74
3
 42
0.0000001
 43
0.0000001
 44
0.0000000001
 12
-0.1010580258
 22
0.0505290129
 32
0.0
 13
-0.0117323552
 23
0.1123755203
 33
0.0
 40
0.0
 40
0.0
 40
0.0
 40
0.0
 40
0.5649857998
 40
1.0
 40
1.0
 40
1.0
 40
1.0
 10
-5.644460019
 20
17.1096386126
 30
0.0
 10
-5.6634921355
 20
17.1191546709
 30
0.0
 10
-5.6959196301
 20
17.1397960977
 30
0.0
 10
-5.7156418048
 20
17.1752130372
 30
0.0
 10
-5.7173430518
 20
17.1915080196
 30
0.0
 11
-5.644460019
 21
17.1096386126
 31
0.0
 11
-5.6960786316
 21
17.1471953729
 31
0.0
 11
-5.7173430518
 21
17.1915080196
 31
0.0
  0
SPLINE
  5
4D4
100
AcDbEntity
  8
0
100
AcDbSpline
 62
253
  6
CONTINUOUS
 70
0
 71
3
 72
11
 73
7
 74
5
 42
0.0000001
 43
0.0000001
 44
0.0000000001
 12
-0.1076203879
 22
0.0538101939
 32
0.0
 13
-0.0000005245
 23
0.1203232516
 33
0.0
 40
0.0
 40
0.0
 40
0.0
 40
0.0
 40
0.3025803505
 40
0.5654851532
 40
0.7934324302
 40
1.0
 40
1.0
 40
1.0
 40
1.0
 10
-5.644460019
 20
17.4496125468
 30
0.0
 10
-5.6553146239
 20
17.4550398492
 30
0.0
 10
-5.6749330569
 20
17.4666798141
 30
0.0
 10
-5.6987448761
 20
17.4881999628
 30
0.0
 10
-5.7140239955
 20
17.5121545918
 30
0.0
 10
-5.7176830293
 20
17.5297159524
 30
0.0
 10
-5.7176830654
 20
17.538000913
 30
0.0
 11
-5.644460019
 21
17.4496125468
 31
0.0
 11
-5.6755514935
 21
17.468555164
 31
0.0
 11
-5.6986529633
 21
17.4901654452
 31
0.0
 11
-5.7128795743
 21
17.5136146132
 31
0.0
 11
-5.7176830654
 21
17.538000913
 31
0.0
  0
SPLINE
  5
4D5
100
AcDbEntity
  8
0
100
AcDbSpline
 62
253
  6
CONTINUOUS
 70
0
 71
3
 72
11
 73
7
 74
5
 42
0.0000001
 43
0.0000001
 44
0.0000000001
 12
0.0
 22
-0.1574218324
 32
0.0
 13
0.1407951418
 23
-0.070415633
 33
0.0
 40
0.0
 40
0.0
 40
0.0
 40
0.0
 40
0.2897444855
 40
0.5495867566
 40
0.7828492792
 40
1.0
 40
1.0
 40
1.0
 40
1.0
 10
-3.9659219486
 20
16.2703695774
 30
0.0
 10
-3.9659219486
 20
16.2551655415
 30
0.0
 10
-3.9634685312
 20
16.2262168839
 30
0.0
 10
-3.9510962514
 20
16.1866244959
 30
0.0
 10
-3.9304330979
 20
16.1549254918
 30
0.0
 10
-3.9111478759
 20
16.1402519919
 30
0.0
 10
-3.9009566204
 20
16.1351550568
 30
0.0
 11
-3.9659219486
 21
16.2703695774
 31
0.0
 11
-3.9616027999
 21
16.2249624267
 31
0.0
 11
-3.9488566767
 21
16.1860941516
 31
0.0
 11
-3.9283064398
 21
16.1556624045
 31
0.0
 11
-3.9009566204
 21
16.1351550568
 31
0.0
  0
SPLINE
  5
4D6
100
AcDbEntity
  8
0
100
AcDbSpline
 62
253
  6
CONTINUOUS
 70
0
 71
3
 72
9
 73
5
 74
3
 42
0.0000001
 43
0.0000001
 44
0.0000000001
 12
0.0
 22
-0.1475994898
 32
0.0
 13
0.125318951
 23
-0.0779792914
 33
0.0
 40
0.0
 40
0.0
 40
0.0
 40
0.0
 40
0.549503191
 40
1.0
 40
1.0
 40
1.0
 40
1.0
 10
-5.644460019
 20
17.1096386126
 30
0.0
 10
-5.644460019
 20
17.0826031491
 30
0.0
 10
-5.637720073
 20
17.0324413508
 30
0.0
 10
-5.6059294552
 20
16.9903965745
 30
0.0
 10
-5.5871108593
 20
16.9786867672
 30
0.0
 11
-5.644460019
 21
17.1096386126
 31
0.0
 11
-5.6294886308
 21
17.0299259779
 31
0.0
 11
-5.5871108593
 21
16.9786867672
 31
0.0
  0
SPLINE
  5
4D7
100
AcDbEntity
  8
RACCORDO
100
AcDbSpline
 62
253
  6
CONTINUOUS
 70
0
 71
3
 72
11
 73
7
 74
5
 42
0.0000001
 43
0.0000001
 44
0.0000000001
 12
0.3264016368
 22
-0.1632368628
 32
0.0
 13
0.3116685507
 23
0.1898605183
 33
0.0
 40
0.0
 40
0.0
 40
0.0
 40
0.0
 40
0.2326068364
 40
0.4942871587
 40
0.7589758636
 40
1.0
 40
1.0
 40
1.0
 40
1.0
 10
-3.2546759475
 20
15.4673065726
 30
0.0
 10
-3.2293681968
 20
15.4546499026
 30
0.0
 10
-3.1706431491
 20
15.4376489254
 30
0.0
 10
-3.0777932922
 20
15.4333695482
 30
0.0
 10
-2.9850260771
 20
15.4484307646
 30
0.0
 10
-2.9272111547
 20
15.4718624438
 30
0.0
 10
-2.9021712736
 20
15.4871160996
 30
0.0
 11
-3.2546759475
 21
15.4673065726
 31
0.0
 11
-3.1737110968
 21
15.4417966755
 31
0.0
 11
-3.0783499008
 21
15.4366732713
 31
0.0
 11
-2.9830745155
 21
15.4525952017
 31
0.0
 11
-2.9021712736
 21
15.4871160996
 31
0.0
  0
SPLINE
  5
4D8
100
AcDbEntity
  8
0
100
AcDbSpline
 62
253
  6
CONTINUOUS
 70
0
 71
3
 72
11
 73
7
 74
5
 42
0.0000001
 43
0.0000001
 44
0.0000000001
 12
-0.1066634432
 22
-0.2776809368
 32
0.0
 13
-0.2911830606
 23
0.0607965295
 33
0.0
 40
0.0
 40
0.0
 40
0.0
 40
0.0
 40
0.2776558679
 40
0.5374733441
 40
0.7760959182
 40
1.0
 40
1.0
 40
1.0
 40
1.0
 10
-3.6133999889
 20
16.2698568536
 30
0.0
 10
-3.6232718992
 20
16.2441569398
 30
0.0
 10
-3.6490477761
 20
16.1965995502
 30
0.0
 10
-3.7045569878
 20
16.1415180089
 30
0.0
 10
-3.7709480815
 20
16.1104438821
 30
0.0
 10
-3.8185111271
 20
16.1094981469
 30
0.0
 10
-3.8402434857
 20
16.1140356772
 30
0.0
 11
-3.6133999889
 21
16.2698568536
 31
0.0
 11
-3.6532834843
 21
16.1975328019
 31
0.0
 11
-3.7088339881
 21
16.1437996588
 31
0.0
 11
-3.7736455113
 21
16.1148549103
 31
0.0
 11
-3.8402434857
 21
16.1140356772
 31
0.0
  0
SPLINE
  5
4D9
100
AcDbEntity
  8
0
100
AcDbSpline
 62
253
  6
CONTINUOUS
 70
0
 71
3
 72
11
 73
7
 74
5
 42
0.0000001
 43
0.0000001
 44
0.0000000001
 12
0.3239339031
 22
-0.1619669516
 32
0.0
 13
0.3246816256
 23
0.1604627963
 33
0.0
 40
0.0
 40
0.0
 40
0.0
 40
0.0
 40
0.2351713294
 40
0.4995792494
 40
0.7642136314
 40
1.0
 40
1.0
 40
1.0
 40
1.0
 10
-3.9659219486
 20
16.6103435116
 30
0.0
 10
-3.9405286263
 20
16.5976468505
 30
0.0
 10
-3.8821844544
 20
16.5795025527
 30
0.0
 10
-3.7898493706
 20
16.5707469084
 30
0.0
 10
-3.69741505
 20
16.5792489959
 30
0.0
 10
-3.6389184894
 20
16.597219141
 30
0.0
 10
-3.6133999889
 20
16.6098307877
 30
0.0
 11
-3.9659219486
 21
16.6103435116
 31
0.0
 11
-3.88515198
 21
16.583316741
 31
0.0
 11
-3.7898724259
 21
16.5737325175
 31
0.0
 11
-3.694482978
 21
16.5830394389
 31
0.0
 11
-3.6133999889
 21
16.6098307877
 31
0.0
  0
SPLINE
  5
4DA
100
AcDbEntity
  8
0
100
AcDbSpline
 62
253
  6
CONTINUOUS
 70
0
 71
3
 72
11
 73
7
 74
5
 42
0.0000001
 43
0.0000001
 44
0.0000000001
 12
0.323933903
 22
-0.1619669515
 32
0.0
 13
0.3246816255
 23
0.1604627963
 33
0.0
 40
0.0
 40
0.0
 40
0.0
 40
0.0
 40
0.2351713009
 40
0.4995791941
 40
0.7642135602
 40
1.0
 40
1.0
 40
1.0
 40
1.0
 10
-3.9659219486
 20
16.2703695774
 30
0.0
 10
-3.9405286294
 20
16.2576729179
 30
0.0
 10
-3.8821844645
 20
16.2395286209
 30
0.0
 10
-3.7898493895
 20
16.2307729746
 30
0.0
 10
-3.6974150656
 20
16.2392750591
 30
0.0
 10
-3.6389184971
 20
16.2572452031
 30
0.0
 10
-3.6133999889
 20
16.2698568536
 30
0.0
 11
-3.9659219486
 21
16.2703695774
 31
0.0
 11
-3.8851519903
 21
16.2433428088
 31
0.0
 11
-3.7898724461
 21
16.2337585834
 31
0.0
 11
-3.6944830035
 21
16.2430655
 31
0.0
 11
-3.6133999889
 21
16.2698568536
 31
0.0
  0
SPLINE
  5
4DB
100
AcDbEntity
  8
RACCORDO
100
AcDbSpline
 62
7
  6
CONTINUOUS
 70
0
 71
3
 72
9
 73
5
 74
3
 42
0.0000001
 43
0.0000001
 44
0.0000000001
 12
-0.2080426658
 22
0.1040213329
 32
0.0
 13
-0.2080353411
 23
-0.104035981
 33
0.0
 40
0.0
 40
0.0
 40
0.0
 40
0.0
 40
0.5330489252
 40
1.0
 40
1.0
 40
1.0
 40
1.0
 10
-21.2702986106
 20
9.2045729443
 30
0.0
 10
-21.3072642504
 20
9.2230557642
 30
0.0
 10
-21.383243967
 20
9.2478915379
 30
0.0
 10
-21.4637712594
 20
9.233833219
 30
0.0
 10
-21.4961520348
 20
9.2176399813
 30
0.0
 11
-21.2702986106
 21
9.2045729443
 31
0.0
 11
-21.3895582164
 21
9.2384817167
 31
0.0
 11
-21.4961520348
 21
9.2176399813
 31
0.0
  0
SPLINE
  5
4DC
100
AcDbEntity
  8
RACCORDO
100
AcDbSpline
 62
7
  6
CONTINUOUS
 70
0
 71
3
 72
11
 73
7
 74
5
 42
0.0000001
 43
0.0000001
 44
0.0000000001
 12
0.0145863765
 22
0.7345910517
 32
0.0
 13
-0.6571677263
 23
0.3285838631
 33
0.0
 40
0.0
 40
0.0
 40
0.0
 40
0.0
 40
0.248261816
 40
0.513301334
 40
0.7710039852
 40
1.0
 40
1.0
 40
1.0
 40
1.0
 10
-8.6227546694
 20
2.4381208298
 30
0.0
 10
-8.6215475893
 20
2.4989111326
 30
0.0
 10
-8.6397930308
 20
2.6252593546
 30
0.0
 10
-8.7121501068
 20
2.8014629867
 30
0.0
 10
-8.8209029653
 20
2.9521052293
 30
0.0
 10
-8.9164776878
 20
3.0276624829
 30
0.0
 10
-8.966640618
 20
3.052743948
 30
0.0
 11
-8.6227546694
 21
2.4381208298
 31
0.0
 11
-8.646197262
 21
2.6190150157
 31
0.0
 11
-8.7196679232
 21
2.7993574871
 31
0.0
 11
-8.8321111221
 21
2.9516973757
 31
0.0
 11
-8.966640618
 21
3.052743948
 31
0.0
  0
SPLINE
  5
4DD
100
AcDbEntity
  8
RACCORDO
100
AcDbSpline
 62
253
  6
CONTINUOUS
 70
0
 71
3
 72
15
 73
11
 74
9
 42
0.0000001
 43
0.0000001
 44
0.0000000001
 12
-0.3883410732
 22
-0.2215298029
 32
0.0
 13
0.399929036
 23
-0.1998524677
 33
0.0
 40
0.0
 40
0.0
 40
0.0
 40
0.0
 40
0.1500930291
 40
0.2826437627
 40
0.3991344756
 40
0.5054837915
 40
0.6107835806
 40
0.7245283673
 40
0.8535173535
 40
1.0
 40
1.0
 40
1.0
 40
1.0
 10
-17.3809907975
 20
22.5601278474
 30
0.0
 10
-17.4004198935
 20
22.5490444877
 30
0.0
 10
-17.4355602266
 20
22.5253761397
 30
0.0
 10
-17.4778280229
 20
22.4828501646
 30
0.0
 10
-17.504698754
 20
22.4363006415
 30
0.0
 10
-17.5139756888
 20
22.3871736087
 30
0.0
 10
-17.5043765586
 20
22.3384839615
 30
0.0
 10
-17.4769685988
 20
22.293435755
 30
0.0
 10
-17.4340857779
 20
22.2535986249
 30
0.0
 10
-17.3986725462
 20
22.2323112999
 30
0.0
 10
-17.3791449917
 20
22.2225529938
 30
0.0
 11
-17.3809907975
 21
22.5601278474
 31
0.0
 11
-17.43627237
 21
22.5220894004
 31
0.0
 11
-17.4773918431
 21
22.4794151165
 31
0.0
 11
-17.5025828546
 21
22.433831574
 31
0.0
 11
-17.5109181569
 21
22.3870207965
 31
0.0
 11
-17.5021326048
 21
22.3407699622
 31
0.0
 11
-17.4764940444
 21
22.2968525184
 31
0.0
 11
-17.4349031976
 21
22.2569037114
 31
0.0
 11
-17.3791449917
 21
22.2225529938
 31
0.0
  0
SPLINE
  5
4DE
100
AcDbEntity
  8
0
100
AcDbSpline
 62
253
  6
CONTINUOUS
 70
0
 71
3
 72
9
 73
5
 74
3
 42
0.0000001
 43
0.0000001
 44
0.0000000001
 12
-0.0143455091
 22
-0.1093257812
 32
0.0
 13
-0.0983908045
 23
-0.0497711729
 33
0.0
 40
0.0
 40
0.0
 40
0.0
 40
0.0
 40
0.4364396997
 40
1.0
 40
1.0
 40
1.0
 40
1.0
 10
-13.7158485545
 20
23.5599777734
 30
0.0
 10
-13.7179355377
 20
23.5440730697
 30
0.0
 10
-13.7375192527
 20
23.5099137459
 30
0.0
 10
-13.7690269685
 20
23.4896387766
 30
0.0
 10
-13.787510019
 20
23.4802890908
 30
0.0
 11
-13.7158485545
 21
23.5599777734
 31
0.0
 11
-13.7373010381
 21
23.5169007861
 31
0.0
 11
-13.787510019
 21
23.4802890908
 31
0.0
  0
SPLINE
  5
4DF
100
AcDbEntity
  8
RACCORDO
100
AcDbSpline
 62
253
  6
CONTINUOUS
 70
0
 71
3
 72
11
 73
7
 74
5
 42
0.0000001
 43
0.0000001
 44
0.0000000001
 12
-0.9245181409
 22
0.4617459598
 32
0.0
 13
0.0759266163
 23
1.0306203341
 33
0.0
 40
0.0
 40
0.0
 40
0.0
 40
0.0
 40
0.2276252092
 40
0.4836949976
 40
0.7485958777
 40
1.0
 40
1.0
 40
1.0
 40
1.0
 10
-21.3013880619
 20
13.5774083031
 30
0.0
 10
-21.3715359403
 20
13.61244331
 30
0.0
 10
-21.504342754
 20
13.7197525453
 30
0.0
 10
-21.6508497605
 20
13.9352136173
 30
0.0
 10
-21.7421916154
 20
14.1879031643
 30
0.0
 10
-21.7583983123
 20
14.3678973057
 30
0.0
 10
-21.7520355575
 20
14.4542647059
 30
0.0
 11
-21.3013880619
 21
13.5774083031
 31
0.0
 11
-21.4880855421
 21
13.7205084074
 31
0.0
 11
-21.6393734755
 21
13.9376232305
 31
0.0
 11
-21.7319808345
 21
14.1952355178
 31
0.0
 11
-21.7520355575
 21
14.4542647059
 31
0.0
  0
SPLINE
  5
4E0
100
AcDbEntity
  8
RACCORDO
100
AcDbSpline
 62
253
  6
CONTINUOUS
 70
0
 71
3
 72
9
 73
5
 74
3
 42
0.0000001
 43
0.0000001
 44
0.0000000001
 12
-0.0147705253
 22
-0.1017736013
 32
0.0
 13
-0.0307012727
 23
-0.0981502226
 33
0.0
 40
0.0
 40
0.0
 40
0.0
 40
0.0
 40
0.2565024611
 40
1.0
 40
1.0
 40
1.0
 40
1.0
 10
-8.0165285377
 20
7.5288211989
 30
0.0
 10
-8.0177914297
 20
7.5201194725
 30
0.0
 10
-8.0233368726
 20
7.4862905449
 30
0.0
 10
-8.0314188283
 20
7.452858463
 30
0.0
 10
-8.0390276019
 20
7.4285336467
 30
0.0
 11
-8.0165285377
 21
7.5288211989
 31
0.0
 11
-8.0208031553
 21
7.502791176
 31
0.0
 11
-8.0390276019
 21
7.4285336467
 31
0.0
  0
SPLINE
  5
4E1
100
AcDbEntity
  8
RACCORDO
100
AcDbSpline
 62
253
  6
CONTINUOUS
 70
0
 71
3
 72
13
 73
9
 74
7
 42
0.0000001
 43
0.0000001
 44
0.0000000001
 12
-0.193034233
 22
-0.6171194622
 32
0.0
 13
-0.5782136664
 23
0.289426332
 33
0.0
 40
0.0
 40
0.0
 40
0.0
 40
0.0
 40
0.2667905453
 40
0.3882663876
 40
0.5049834395
 40
0.6208693483
 40
0.7400759282
 40
1.0
 40
1.0
 40
1.0
 40
1.0
 10
-8.0390276019
 20
7.4285336467
 30
0.0
 10
-8.0561941713
 20
7.3736531008
 30
0.0
 10
-8.0938101781
 20
7.2959309418
 30
0.0
 10
-8.1709366022
 20
7.2179464026
 30
0.0
 10
-8.2366992493
 20
7.1776460617
 30
0.0
 10
-8.3100575775
 20
7.1553797265
 30
0.0
 10
-8.417546163
 20
7.1504759262
 30
0.0
 10
-8.4983406625
 20
7.1758569216
 30
0.0
 10
-8.5484378794
 20
7.2009332119
 30
0.0
 11
-8.0390276019
 21
7.4285336467
 31
0.0
 11
-8.1181267532
 21
7.2752286791
 31
0.0
 11
-8.1737077021
 21
7.2197275014
 31
0.0
 11
-8.2381882613
 21
7.1805106546
 31
0.0
 11
-8.3098578154
 21
7.1586394607
 31
0.0
 11
-8.386839269
 21
7.1547503977
 31
0.0
 11
-8.5484378794
 21
7.2009332119
 31
0.0
  0
LINE
  5
4E2
100
AcDbEntity
  8
RACCORDO
100
AcDbLine
 62
253
  6
CONTINUOUS
 10
-8.0060955673
 20
7.6476079852
 11
-8.010653476
 21
7.5835736651
  0
SPLINE
  5
4E3
100
AcDbEntity
  8
0
100
AcDbSpline
 62
253
  6
CONTINUOUS
 70
0
 71
3
 72
11
 73
7
 74
5
 42
0.0000001
 43
0.0000001
 44
0.0000000001
 12
0.0000005196
 22
-0.1191822341
 32
0.0
 13
-0.1063497301
 23
-0.0537972104
 33
0.0
 40
0.0
 40
0.0
 40
0.0
 40
0.0
 40
0.2069626469
 40
0.435062601
 40
0.697808331
 40
1.0
 40
1.0
 40
1.0
 40
1.0
 10
-13.7153124202
 20
23.9156932212
 30
0.0
 10
-13.7153123844
 20
23.907471131
 30
0.0
 10
-13.7189111711
 20
23.8900552485
 30
0.0
 10
-13.7339604228
 20
23.8662597236
 30
0.0
 10
-13.7574378196
 20
23.8448483816
 30
0.0
 10
-13.7767973515
 20
23.8332396305
 30
0.0
 10
-13.787510019
 20
23.8278206076
 30
0.0
 11
-13.7153124202
 21
23.9156932212
 31
0.0
 11
-13.720045226
 21
23.8914852585
 31
0.0
 11
-13.7340652578
 21
23.8681938854
 31
0.0
 11
-13.7568399931
 21
23.8467016298
 31
0.0
 11
-13.787510019
 21
23.8278206076
 31
0.0
  0
LINE
  5
4E4
100
AcDbEntity
  8
RACCORDO
100
AcDbLine
 62
253
  6
CONTINUOUS
 10
-9.102626965
 20
-15.0641092714
 11
-9.1043648058
 21
-14.9925490022
  0
SPLINE
  5
4E5
100
AcDbEntity
  8
0
100
AcDbSpline
 62
253
  6
CONTINUOUS
 70
0
 71
3
 72
11
 73
7
 74
5
 42
0.0000001
 43
0.0000001
 44
0.0000000001
 12
0.0000005802
 22
-0.119182253
 32
0.0
 13
-0.1063497469
 23
-0.0537972189
 33
0.0
 40
0.0
 40
0.0
 40
0.0
 40
0.0
 40
0.2069625523
 40
0.4350623985
 40
0.6978079136
 40
1.0
 40
1.0
 40
1.0
 40
1.0
 10
-1.4116544273
 20
17.4163327268
 30
0.0
 10
-1.4116543873
 20
17.4081106391
 30
0.0
 10
-1.4152531678
 20
17.3906947601
 30
0.0
 10
-1.4303024078
 20
17.3668992432
 30
0.0
 10
-1.4537797985
 20
17.3454878817
 30
0.0
 10
-1.4731393424
 20
17.3338791258
 30
0.0
 10
-1.4838520263
 20
17.3284600945
 30
0.0
 11
-1.4116544273
 21
17.4163327268
 31
0.0
 11
-1.4163872231
 21
17.3921247697
 31
0.0
 11
-1.4304072442
 21
17.3688334002
 31
0.0
 11
-1.4531819551
 21
17.3473411488
 31
0.0
 11
-1.4838520263
 21
17.3284600945
 31
0.0
  0
SPLINE
  5
4E6
100
AcDbEntity
  8
RACCORDO
100
AcDbSpline
 62
253
  6
CONTINUOUS
 70
0
 71
3
 72
11
 73
7
 74
5
 42
0.0000001
 43
0.0000001
 44
0.0000000001
 12
0.1516699549
 22
1.2876201193
 32
0.0
 13
1.1362046554
 23
0.6245064674
 33
0.0
 40
0.0
 40
0.0
 40
0.0
 40
0.0
 40
0.2518484962
 40
0.5144246723
 40
0.7692745105
 40
1.0
 40
1.0
 40
1.0
 40
1.0
 10
-21.2987187091
 20
19.1772184065
 30
0.0
 10
-21.2859860924
 20
19.2853134701
 30
0.0
 10
-21.2311731389
 20
19.5031844617
 30
0.0
 10
-21.0831424835
 20
19.8033971039
 30
0.0
 10
-20.8819651918
 20
20.0594692624
 30
0.0
 10
-20.7146619061
 20
20.1913596062
 30
0.0
 10
-20.6272781144
 20
20.2393894597
 30
0.0
 11
-21.2987187091
 21
19.1772184065
 31
0.0
 11
-21.2217277152
 21
19.4945389818
 31
0.0
 11
-21.0714661688
 21
19.8000189282
 31
0.0
 11
-20.8653599117
 21
20.0582756756
 31
0.0
 11
-20.6272781144
 21
20.2393894597
 31
0.0
  0
SPLINE
  5
4E7
100
AcDbEntity
  8
RACCORDO
100
AcDbSpline
 62
253
  6
CONTINUOUS
 70
0
 71
3
 72
9
 73
5
 74
3
 42
0.0000001
 43
0.0000001
 44
0.0000000001
 12
-0.0985963099
 22
-0.0682024496
 32
0.0
 13
-0.0903624389
 23
-0.0787872838
 33
0.0
 40
0.0
 40
0.0
 40
0.0
 40
0.0
 40
0.2445402184
 40
1.0
 40
1.0
 40
1.0
 40
1.0
 10
-6.9820047542
 20
13.3462490005
 30
0.0
 10
-6.9900416752
 20
13.3406895865
 30
0.0
 10
-7.0225669534
 20
13.3174660343
 30
0.0
 10
-7.053737382
 20
13.2923575019
 30
0.0
 10
-7.0764924448
 20
13.2725172938
 30
0.0
 11
-6.9820047542
 21
13.3462490005
 31
0.0
 11
-7.0058681326
 21
13.3292186798
 31
0.0
 11
-7.0764924448
 21
13.2725172938
 31
0.0
  0
SPLINE
  5
4E8
100
AcDbEntity
  8
RACCORDO
100
AcDbSpline
 62
253
  6
CONTINUOUS
 70
0
 71
3
 72
9
 73
5
 74
3
 42
0.0000001
 43
0.0000001
 44
0.0000000001
 12
-0.7203287051
 22
-0.628056777
 32
0.0
 13
-0.2069900741
 23
-0.9329972496
 33
0.0
 40
0.0
 40
0.0
 40
0.0
 40
0.0
 40
0.4907391087
 40
1.0
 40
1.0
 40
1.0
 40
1.0
 10
-7.0764924448
 20
13.2725172938
 30
0.0
 10
-7.1943236004
 20
13.1697799529
 30
0.0
 10
-7.3941282451
 20
12.91361837
 30
0.0
 10
-7.5140072018
 20
12.6130650122
 30
0.0
 10
-7.5491445183
 20
12.4546853419
 30
0.0
 11
-7.0764924448
 21
13.2725172938
 31
0.0
 11
-7.3711794132
 21
12.9076722956
 31
0.0
 11
-7.5491445183
 21
12.4546853419
 31
0.0
  0
SPLINE
  5
4E9
100
AcDbEntity
  8
0
100
AcDbSpline
 62
253
  6
CONTINUOUS
 70
0
 71
3
 72
11
 73
7
 74
5
 42
0.0000001
 43
0.0000001
 44
0.0000000001
 12
0.0000006317
 22
-0.1191822703
 32
0.0
 13
-0.1063497623
 23
-0.0537972267
 33
0.0
 40
0.0
 40
0.0
 40
0.0
 40
0.0
 40
0.2069625494
 40
0.4350623935
 40
0.6978079022
 40
1.0
 40
1.0
 40
1.0
 40
1.0
 10
-1.4116544274
 20
17.7638642611
 30
0.0
 10
-1.4116543838
 20
17.7556421723
 30
0.0
 10
-1.4152531616
 20
17.7382262896
 30
0.0
 10
-1.430302401
 20
17.7144307681
 30
0.0
 10
-1.4537797934
 20
17.6930194012
 30
0.0
 10
-1.4731393404
 20
17.6814106435
 30
0.0
 10
-1.4838520263
 20
17.6759916113
 30
0.0
 11
-1.4116544274
 21
17.7638642611
 31
0.0
 11
-1.4163872176
 21
17.7396562996
 31
0.0
 11
-1.4304072379
 21
17.7163649252
 31
0.0
 11
-1.4531819498
 21
17.6948726694
 31
0.0
 11
-1.4838520263
 21
17.6759916113
 31
0.0
  0
SPLINE
  5
4EA
100
AcDbEntity
  8
RACCORDO
100
AcDbSpline
 62
253
  6
CONTINUOUS
 70
0
 71
3
 72
11
 73
7
 74
5
 42
0.0000001
 43
0.0000001
 44
0.0000000001
 12
0.5852300107
 22
-0.2928473416
 32
0.0
 13
0.5714867888
 23
0.3188362921
 33
0.0
 40
0.0
 40
0.0
 40
0.0
 40
0.0
 40
0.233717506
 40
0.496573559
 40
0.7612407692
 40
1.0
 40
1.0
 40
1.0
 40
1.0
 10
-15.6923792674
 20
21.3791701317
 30
0.0
 10
-15.6467864346
 20
21.3563556149
 30
0.0
 10
-15.5414414594
 20
21.3248516809
 30
0.0
 10
-15.3747640025
 20
21.3135248994
 30
0.0
 10
-15.2080073381
 20
21.3353426316
 30
0.0
 10
-15.1033223221
 20
21.3731772827
 30
0.0
 10
-15.0578397401
 20
21.3985523186
 30
0.0
 11
-15.6923792674
 21
21.3791701317
 31
0.0
 11
-15.5468737736
 21
21.3320423426
 31
0.0
 11
-15.3753357117
 21
21.3192298948
 31
0.0
 11
-15.2037152039
 21
21.342575819
 31
0.0
 11
-15.0578397401
 21
21.3985523186
 31
0.0
  0
SPLINE
  5
4EB
100
AcDbEntity
  8
0
100
AcDbSpline
 62
7
  6
CONTINUOUS
 70
0
 71
3
 72
9
 73
5
 74
3
 42
0.0000001
 43
0.0000001
 44
0.0000000001
 12
0.1698226182
 22
0.3445330186
 32
0.0
 13
-0.1204268443
 23
0.3647466213
 33
0.0
 40
0.0
 40
0.0
 40
0.0
 40
0.0
 40
0.4547712433
 40
1.0
 40
1.0
 40
1.0
 40
1.0
 10
-6.0426278508
 20
18.2864296486
 30
0.0
 10
-6.0168843698
 20
18.3386575517
 30
0.0
 10
-5.9958936116
 20
18.4702949912
 30
0.0
 10
-6.0207411246
 20
18.5976312547
 30
0.0
 10
-6.0426278508
 20
18.6639213704
 30
0.0
 11
-6.0426278508
 21
18.2864296486
 31
0.0
 11
-6.0072725118
 21
18.4574978399
 31
0.0
 11
-6.0426278508
 21
18.6639213704
 31
0.0
  0
SPLINE
  5
4EC
100
AcDbEntity
  8
0
100
AcDbSpline
 62
253
  6
CONTINUOUS
 70
0
 71
3
 72
10
 73
6
 74
4
 42
0.0000001
 43
0.0000001
 44
0.0000000001
 12
0.0308799789
 22
-0.2340447477
 32
0.0
 13
0.2109165949
 23
-0.1060410628
 33
0.0
 40
0.0
 40
0.0
 40
0.0
 40
0.0
 40
0.2234425178
 40
0.459597332
 40
1.0
 40
1.0
 40
1.0
 40
1.0
 10
-22.0271676188
 20
-17.0948238779
 30
0.0
 10
-22.0248676521
 20
-17.1122557272
 30
0.0
 10
-22.014448255
 20
-17.1475786541
 30
0.0
 10
-21.9709403145
 20
-17.2141510619
 30
0.0
 10
-21.9189379612
 20
-17.2506073143
 30
0.0
 10
-21.8809446643
 20
-17.2697089387
 30
0.0
 11
-22.0271676188
 21
-17.0948238779
 31
0.0
 11
-22.0124728806
 21
-17.1454844899
 31
0.0
 11
-21.9824929078
 21
-17.1924870621
 31
0.0
 11
-21.8809446643
 21
-17.2697089387
 31
0.0
  0
SPLINE
  5
4ED
100
AcDbEntity
  8
0
100
AcDbSpline
 62
253
  6
CONTINUOUS
 70
0
 71
3
 72
11
 73
7
 74
5
 42
0.0000001
 43
0.0000001
 44
0.0000000001
 12
0.0041452609
 22
-0.2405440989
 32
0.0
 13
0.2151467092
 23
-0.1076593713
 33
0.0
 40
0.0
 40
0.0
 40
0.0
 40
0.0
 40
0.2089532095
 40
0.4379862534
 40
0.7000739252
 40
1.0
 40
1.0
 40
1.0
 40
1.0
 10
-22.7152914574
 20
-7.3069860052
 30
0.0
 10
-22.7150027355
 20
-7.3237401591
 30
0.0
 10
-22.7073011087
 20
-7.3589977476
 30
0.0
 10
-22.6766729789
 20
-7.4070623595
 30
0.0
 10
-22.6293095298
 20
-7.4500790278
 30
0.0
 10
-22.5903534
 20
-7.4732680425
 30
0.0
 10
-22.5688440306
 20
-7.4840313267
 30
0.0
 11
-22.7152914574
 21
-7.3069860052
 31
0.0
 11
-22.7050458237
 21
-7.3562007618
 31
0.0
 11
-22.6763968666
 21
-7.4032680262
 31
0.0
 11
-22.6304212083
 21
-7.4464179979
 31
0.0
 11
-22.5688440306
 21
-7.4840313267
 31
0.0
  0
SPLINE
  5
4EE
100
AcDbEntity
  8
0
100
AcDbSpline
 62
7
  6
CONTINUOUS
 70
0
 71
3
 72
11
 73
7
 74
5
 42
0.0000001
 43
0.0000001
 44
0.0000000001
 12
-0.0
 22
0.7308594011
 32
0.0
 13
-0.6537005211
 23
0.3268502606
 33
0.0
 40
0.0
 40
0.0
 40
0.0
 40
0.0
 40
0.5095240915
 40
0.7692759824
 40
0.8894805775
 40
1.0
 40
1.0
 40
1.0
 40
1.0
 10
-1.3050124169
 20
15.0236378461
 30
0.0
 10
-1.3050124169
 20
15.1477680035
 30
0.0
 10
-1.3667091609
 20
15.336465447
 30
0.0
 10
-1.497132476
 20
15.5109906124
 30
0.0
 10
-1.5868960363
 20
15.590441307
 30
0.0
 10
-1.6342144815
 20
15.6214497719
 30
0.0
 10
-1.6582966828
 20
15.6334908726
 30
0.0
 11
-1.3050124169
 21
15.0236378461
 31
0.0
 11
-1.4091590921
 21
15.3811684516
 31
0.0
 11
-1.5240551191
 21
15.5322939964
 31
0.0
 11
-1.5900509141
 21
15.5902823109
 31
0.0
 11
-1.6582966828
 21
15.6334908726
 31
0.0
  0
SPLINE
  5
4EF
100
AcDbEntity
  8
0
100
AcDbSpline
 62
253
  6
CONTINUOUS
 70
0
 71
3
 72
11
 73
7
 74
5
 42
0.0000001
 43
0.0000001
 44
0.0000000001
 12
-0.5692072355
 22
-0.3107586558
 32
0.0
 13
-0.0760911916
 23
-0.6440325688
 33
0.0
 40
0.0
 40
0.0
 40
0.0
 40
0.0
 40
0.2309298734
 40
0.4858202465
 40
0.7483088577
 40
1.0
 40
1.0
 40
1.0
 40
1.0
 10
-5.9568248064
 20
12.4840767299
 30
0.0
 10
-6.000640458
 20
12.4601555776
 30
0.0
 10
-6.084555158
 20
12.3943873042
 30
0.0
 10
-6.1855193495
 20
12.2665138267
 30
0.0
 10
-6.2598051323
 20
12.1165101692
 30
0.0
 10
-6.2873171389
 20
12.0076015825
 30
0.0
 10
-6.2937009652
 20
11.9535691515
 30
0.0
 11
-5.9568248064
 21
12.4840767299
 31
0.0
 11
-6.0762666781
 21
12.3937333019
 31
0.0
 11
-6.1796807541
 21
12.264778106
 31
0.0
 11
-6.2550746596
 21
12.1121576758
 31
0.0
 11
-6.2937009652
 21
11.9535691515
 31
0.0
  0
SPLINE
  5
4F0
100
AcDbEntity
  8
0
100
AcDbSpline
 62
253
  6
CONTINUOUS
 70
0
 71
3
 72
11
 73
7
 74
5
 42
0.0000001
 43
0.0000001
 44
0.0000000001
 12
-1.1329865746
 22
-0.6287953203
 32
0.0
 13
-0.1506659082
 23
-1.2869894783
 33
0.0
 40
0.0
 40
0.0
 40
0.0
 40
0.0
 40
0.2303844051
 40
0.4852076103
 40
0.7479515775
 40
1.0
 40
1.0
 40
1.0
 40
1.0
 10
-6.3226575464
 20
13.0870791757
 30
0.0
 10
-6.4096650257
 20
13.0387909637
 30
0.0
 10
-6.5761645597
 20
12.9063497365
 30
0.0
 10
-6.7762404911
 20
12.6497934932
 30
0.0
 10
-6.9234467164
 20
12.3492506777
 30
0.0
 10
-6.977972179
 20
12.1313022496
 30
0.0
 10
-6.9906305471
 20
12.0231743604
 30
0.0
 11
-6.3226575464
 21
13.0870791757
 31
0.0
 11
-6.5595027015
 21
12.9053572773
 31
0.0
 11
-6.7645582412
 21
12.6465511696
 31
0.0
 11
-6.914046249
 21
12.340667223
 31
0.0
 11
-6.9906305471
 21
12.0231743604
 31
0.0
  0
SPLINE
  5
4F1
100
AcDbEntity
  8
0
100
AcDbSpline
 62
253
  6
CONTINUOUS
 70
0
 71
3
 72
11
 73
7
 74
5
 42
0.0000001
 43
0.0000001
 44
0.0000000001
 12
-0.0324678924
 22
0.7302924718
 32
0.0
 13
-0.6488722199
 23
0.3366691262
 33
0.0
 40
0.0
 40
0.0
 40
0.0
 40
0.0
 40
0.2445556234
 40
0.510059094
 40
0.7700878926
 40
1.0
 40
1.0
 40
1.0
 40
1.0
 10
-5.9568248064
 20
12.4840767299
 30
0.0
 10
-5.9594715416
 20
12.5436091068
 30
0.0
 10
-5.9852629125
 20
12.6670114803
 30
0.0
 10
-6.065106896
 20
12.8383479272
 30
0.0
 10
-6.1776237521
 20
12.9857522658
 30
0.0
 10
-6.2729296865
 20
13.0612777396
 30
0.0
 10
-6.3226575464
 20
13.0870791757
 30
0.0
 11
-5.9568248064
 21
12.4840767299
 31
0.0
 11
-5.9904318637
 21
12.6596630268
 31
0.0
 11
-6.0717454048
 21
12.8358951503
 31
0.0
 11
-6.1884002654
 21
12.9859745276
 31
0.0
 11
-6.3226575464
 21
13.0870791757
 31
0.0
  0
LINE
  5
4F2
100
AcDbEntity
  8
0
100
AcDbLine
 62
253
  6
CONTINUOUS
 10
-7.3926407349
 20
7.9687062901
 11
-7.4076134046
 21
7.7792263726
  0
SPLINE
  5
4F3
100
AcDbEntity
  8
0
100
AcDbSpline
 62
253
  6
CONTINUOUS
 70
0
 71
3
 72
11
 73
7
 74
5
 42
0.0000001
 43
0.0000001
 44
0.0000000001
 12
-0.6825879843
 22
-0.2056363113
 32
0.0
 13
-0.6367239155
 23
0.320617068
 33
0.0
 40
0.0
 40
0.0
 40
0.0
 40
0.0
 40
0.2284142287
 40
0.4927005503
 40
0.7608662696
 40
1.0
 40
1.0
 40
1.0
 40
1.0
 10
-6.2937009652
 20
11.9535691515
 30
0.0
 10
-6.3456719012
 20
11.9379123984
 30
0.0
 10
-6.4626820842
 20
11.9208414979
 30
0.0
 10
-6.6440094712
 20
11.9254078266
 30
0.0
 10
-6.8251712143
 20
11.9574483323
 30
0.0
 10
-6.9398764909
 20
11.9976175756
 30
0.0
 10
-6.990630546
 20
12.0231743607
 30
0.0
 11
-6.2937009652
 21
11.9535691515
 31
0.0
 11
-6.454250762
 21
11.9263887966
 31
0.0
 11
-6.6426224584
 21
11.9300446015
 31
0.0
 11
-6.8307569709
 21
11.9639920124
 31
0.0
 11
-6.990630546
 21
12.0231743607
 31
0.0
  0
SPLINE
  5
4F4
100
AcDbEntity
  8
0
100
AcDbSpline
 62
253
  6
CONTINUOUS
 70
0
 71
3
 72
11
 73
7
 74
5
 42
0.0000001
 43
0.0000001
 44
0.0000000001
 12
-0.6531473612
 22
-0.3004231948
 32
0.0
 13
-0.6429214765
 23
0.3217258872
 33
0.0
 40
0.0
 40
0.0
 40
0.0
 40
0.0
 40
0.2355498366
 40
0.5001440414
 40
0.7646609401
 40
1.0
 40
1.0
 40
1.0
 40
1.0
 10
-7.002014255
 20
1.5261284269
 30
0.0
 10
-7.0532971731
 20
1.5025402155
 30
0.0
 10
-7.1700818817
 20
1.4696701519
 30
0.0
 10
-7.3537362551
 20
1.456013419
 30
0.0
 10
-7.5368035812
 20
1.4755823339
 30
0.0
 10
-7.6523981633
 20
1.5122076116
 30
0.0
 10
-7.7028330086
 20
1.5374458342
 30
0.0
 11
-7.002014255
 21
1.5261284269
 31
0.0
 11
-7.1640404955
 21
1.4768885038
 31
0.0
 11
-7.3536619743
 21
1.4617623165
 31
0.0
 11
-7.5426403388
 21
1.4830024506
 31
0.0
 11
-7.7028330086
 21
1.5374458342
 31
0.0
  0
SPLINE
  5
4F5
100
AcDbEntity
  8
0
100
AcDbSpline
 62
253
  6
CONTINUOUS
 70
0
 71
3
 72
9
 73
5
 74
3
 42
0.0000001
 43
0.0000001
 44
0.0000000001
 12
0.1554408835
 22
-9.7709735605
 32
0.0
 13
1.2916660774
 23
-9.6864691675
 33
0.0
 40
0.0
 40
0.0
 40
0.0
 40
0.0
 40
0.2553865594
 40
1.0
 40
1.0
 40
1.0
 40
1.0
 10
-7.002014255
 20
-14.9118997623
 30
0.0
 10
-6.9887817509
 20
-15.7436915355
 30
0.0
 10
-6.892402555
 20
-18.9997296805
 30
0.0
 10
-6.6142982725
 20
-22.2511052491
 30
0.0
 10
-6.2937009652
 20
-24.6553302938
 30
0.0
 11
-7.002014255
 21
-14.9118997623
 31
0.0
 11
-6.9277013212
 21
-17.4064841898
 31
0.0
 11
-6.2937009652
 21
-24.6553302938
 31
0.0
  0
SPLINE
  5
4F6
100
AcDbEntity
  8
0
100
AcDbSpline
 62
253
  6
CONTINUOUS
 70
0
 71
3
 72
9
 73
5
 74
3
 42
0.0000001
 43
0.0000001
 44
0.0000000001
 12
0.2786721908
 22
-8.181382382
 32
0.0
 13
1.0819275293
 23
-8.1143150476
 33
0.0
 40
0.0
 40
0.0
 40
0.0
 40
0.0
 40
0.2545508151
 40
1.0
 40
1.0
 40
1.0
 40
1.0
 10
-7.6618998334
 20
-16.558150981
 30
0.0
 10
-7.6382544223
 20
-17.2523434989
 30
0.0
 10
-7.5135487621
 20
-19.9782483263
 30
0.0
 10
-7.2594712121
 20
-22.6985961531
 30
0.0
 10
-6.9906305471
 20
-24.7148659992
 30
0.0
 11
-7.6618998334
 21
-16.558150981
 31
0.0
 11
-7.5663837713
 21
-18.6397460181
 31
0.0
 11
-6.9906305471
 21
-24.7148659992
 31
0.0
  0
SPLINE
  5
4F7
100
AcDbEntity
  8
0
100
AcDbSpline
 62
253
  6
CONTINUOUS
 70
0
 71
3
 72
11
 73
7
 74
5
 42
0.0000001
 43
0.0000001
 44
0.0000000001
 12
-0.6429962505
 22
-0.3251801931
 32
0.0
 13
-0.64457886
 23
0.322031721
 33
0.0
 40
0.0
 40
0.0
 40
0.0
 40
0.0
 40
0.2376792375
 40
0.5023658428
 40
0.7657789404
 40
1.0
 40
1.0
 40
1.0
 40
1.0
 10
-7.002014255
 20
-14.9118997623
 30
0.0
 10
-7.0529565412
 20
-14.9376626224
 30
0.0
 10
-7.1693289852
 20
-14.9749508839
 30
0.0
 10
-7.3533109371
 20
-14.9938248889
 30
0.0
 10
-7.5367210364
 20
-14.9778166494
 30
0.0
 10
-7.6525083597
 20
-14.9421790408
 30
0.0
 10
-7.7028330075
 20
-14.9170368372
 30
0.0
 11
-7.002014255
 21
-14.9118997623
 31
0.0
 11
-7.1640404955
 21
-14.967371113
 31
0.0
 11
-7.353661974
 21
-14.9878007462
 31
0.0
 11
-7.542640338
 21
-14.9701462895
 31
0.0
 11
-7.7028330075
 21
-14.9170368372
 31
0.0
  0
SPLINE
  5
4F8
100
AcDbEntity
  8
0
100
AcDbSpline
 62
253
  6
CONTINUOUS
 70
0
 71
3
 72
13
 73
9
 74
7
 42
0.0000001
 43
0.0000001
 44
0.0000000001
 12
0.0619204245
 22
-0.4642959475
 32
0.0
 13
0.4319028848
 23
0.1812864139
 33
0.0
 40
0.0
 40
0.0
 40
0.0
 40
0.0
 40
0.2717502792
 40
0.3929613945
 40
0.5080748357
 40
0.6218813089
 40
0.7394780953
 40
1.0
 40
1.0
 40
1.0
 40
1.0
 10
-6.2937009652
 20
-24.6553302938
 30
0.0
 10
-6.288092001
 20
-24.6973878116
 30
0.0
 10
-6.2707214973
 20
-24.7584017321
 30
0.0
 10
-6.2239509551
 20
-24.8233448684
 30
0.0
 10
-6.1811739754
 20
-24.8584750032
 30
0.0
 10
-6.1308556335
 20
-24.8802228191
 30
0.0
 10
-6.0539893139
 20
-24.8907742517
 30
0.0
 10
-5.9943315271
 20
-24.8762633745
 30
0.0
 10
-5.9568248064
 20
-24.8605203472
 30
0.0
 11
-6.2937009652
 21
-24.6553302938
 31
0.0
 11
-6.2550746596
 21
-24.7766178285
 31
0.0
 11
-6.221517112
 21
-24.8224153915
 31
0.0
 11
-6.1796807541
 21
-24.8564312104
 31
0.0
 11
-6.1307878727
 21
-24.8776726547
 31
0.0
 11
-6.0762666781
 21
-24.885520594
 31
0.0
 11
-5.9568248064
 21
-24.8605203472
 31
0.0
  0
SPLINE
  5
4F9
100
AcDbEntity
  8
0
100
AcDbSpline
 62
253
  6
CONTINUOUS
 70
0
 71
3
 72
11
 73
7
 74
5
 42
0.0000001
 43
0.0000001
 44
0.0000000001
 12
0.0664062853
 22
-0.5019861068
 32
0.0
 13
0.4524519651
 23
-0.2273478951
 33
0.0
 40
0.0
 40
0.0
 40
0.0
 40
0.0
 40
0.2812826683
 40
0.5380078703
 40
0.7746859608
 40
1.0
 40
1.0
 40
1.0
 40
1.0
 10
-6.9906305471
 20
-24.7148659992
 30
0.0
 10
-6.9844042347
 20
-24.7619326631
 30
0.0
 10
-6.965080065
 20
-24.8512853307
 30
0.0
 10
-6.9115158853
 20
-24.9717611807
 30
0.0
 10
-6.8357803359
 20
-25.0683061162
 30
0.0
 10
-6.7711008681
 20
-25.1142377553
 30
0.0
 10
-6.7371196082
 20
-25.1313126462
 30
0.0
 11
-6.9906305471
 21
-24.7148659992
 31
0.0
 11
-6.9593118982
 21
-24.8538101698
 31
0.0
 11
-6.9052898474
 21
-24.9720488071
 31
0.0
 11
-6.8303845289
 21
-25.0655999695
 31
0.0
 11
-6.7371196082
 21
-25.1313126462
 31
0.0
  0
SPLINE
  5
4FA
100
AcDbEntity
  8
0
100
AcDbSpline
 62
253
  6
CONTINUOUS
 70
0
 71
3
 72
11
 73
7
 74
5
 42
0.0000001
 43
0.0000001
 44
0.0000000001
 12
-0.6040142685
 22
-0.4013243693
 32
0.0
 13
-0.6493425433
 23
0.3228757461
 33
0.0
 40
0.0
 40
0.0
 40
0.0
 40
0.0
 40
0.2449979728
 40
0.5099789627
 40
0.7695318252
 40
1.0
 40
1.0
 40
1.0
 40
1.0
 10
-6.2937009652
 20
-24.6553302938
 30
0.0
 10
-6.343028389
 20
-24.6881048461
 30
0.0
 10
-6.4568646447
 20
-24.7398237261
 30
0.0
 10
-6.6407114004
 20
-24.7761879525
 30
0.0
 10
-6.8245509848
 20
-24.7720957379
 30
0.0
 10
-6.940746109
 20
-24.7396700743
 30
0.0
 10
-6.9906303725
 20
-24.7148658797
 30
0.0
 11
-6.2937009652
 21
-24.6553302938
 31
0.0
 11
-6.4542507496
 21
-24.7314227432
 31
0.0
 11
-6.6426224037
 21
-24.7693932821
 31
0.0
 11
-6.8307568534
 21
-24.7635859812
 31
0.0
 11
-6.9906303725
 21
-24.7148658797
 31
0.0
  0
SPLINE
  5
4FB
100
AcDbEntity
  8
0
100
AcDbSpline
 62
253
  6
CONTINUOUS
 70
0
 71
3
 72
11
 73
7
 74
5
 42
0.0000001
 43
0.0000001
 44
0.0000000001
 12
-0.014353954
 22
-0.3367214871
 32
0.0
 13
-0.3107574987
 23
-0.1304498866
 33
0.0
 40
0.0
 40
0.0
 40
0.0
 40
0.0
 40
0.2893508886
 40
0.5493554316
 40
0.7828042077
 40
1.0
 40
1.0
 40
1.0
 40
1.0
 10
-5.9568248064
 20
-24.8605203472
 30
0.0
 10
-5.9582092495
 20
-24.8929972344
 30
0.0
 10
-5.9662521753
 20
-24.954670964
 30
0.0
 10
-5.9969393845
 20
-25.0380377384
 30
0.0
 10
-6.0449037916
 20
-25.1034400237
 30
0.0
 10
-6.0881337259
 20
-25.1322714636
 30
0.0
 10
-6.1106321329
 20
-25.1417158524
 30
0.0
 11
-5.9568248064
 21
-24.8605203472
 31
0.0
 11
-5.9704250157
 21
-24.9570864813
 31
0.0
 11
-6.001856397
 21
-25.0388840642
 31
0.0
 11
-6.0494395689
 21
-25.1015431837
 31
0.0
 11
-6.1106321329
 21
-25.1417158524
 31
0.0
  0
SPLINE
  5
4FC
100
AcDbEntity
  8
0
100
AcDbSpline
 62
7
  6
CONTINUOUS
 70
0
 71
3
 72
11
 73
7
 74
5
 42
0.0000001
 43
0.0000001
 44
0.0000000001
 12
-0.0
 22
-0.3137422494
 32
0.0
 13
-0.2788135326
 23
-0.1438652602
 33
0.0
 40
0.0
 40
0.0
 40
0.0
 40
0.0
 40
0.287659901
 40
0.547734791
 40
0.7821193107
 40
1.0
 40
1.0
 40
1.0
 40
1.0
 10
-1.3050124169
 20
-22.9078784563
 30
0.0
 10
-1.3050124169
 20
-22.9379621444
 30
0.0
 10
-1.3090823287
 20
-22.9955405263
 30
0.0
 10
-1.3341204274
 20
-23.0743147328
 30
0.0
 10
-1.3752085234
 20
-23.1377190646
 30
0.0
 10
-1.4134723217
 20
-23.1674508533
 30
0.0
 10
-1.4337216833
 20
-23.1778993406
 30
0.0
 11
-1.3050124169
 21
-22.9078784563
 31
0.0
 11
-1.3130010927
 21
-22.997775262
 31
0.0
 11
-1.3384539832
 21
-23.0753003295
 31
0.0
 11
-1.3794309375
 21
-23.1363616144
 31
0.0
 11
-1.4337216833
 21
-23.1778993406
 31
0.0
  0
SPLINE
  5
4FD
100
AcDbEntity
  8
0
100
AcDbSpline
 62
253
  6
CONTINUOUS
 70
0
 71
3
 72
11
 73
7
 74
5
 42
0.0000001
 43
0.0000001
 44
0.0000000001
 12
0.1256923233
 22
1.0936816385
 32
0.0
 13
0.832712112
 23
0.7200893173
 33
0.0
 40
0.0
 40
0.0
 40
0.0
 40
0.0
 40
0.2461960746
 40
0.5034859781
 40
0.7589522187
 40
1.0
 40
1.0
 40
1.0
 40
1.0
 10
-21.880944666
 20
19.4683314198
 30
0.0
 10
-21.8706296804
 20
19.5580847952
 30
0.0
 10
-21.8300665145
 20
19.7396917218
 30
0.0
 10
-21.7222132294
 20
19.997856127
 30
0.0
 10
-21.5734074842
 20
20.2325682937
 30
0.0
 10
-21.4487919322
 20
20.3674367108
 30
0.0
 10
-21.3818841299
 20
20.4252953549
 30
0.0
 11
-21.880944666
 21
19.4683314198
 31
0.0
 11
-21.8235513284
 21
19.7332174533
 31
0.0
 11
-21.7148149241
 21
19.9947597755
 31
0.0
 11
-21.5635192265
 21
20.2318342939
 31
0.0
 11
-21.3818841299
 21
20.4252953549
 31
0.0
  0
SPLINE
  5
4FE
100
AcDbEntity
  8
0
100
AcDbSpline
 62
253
  6
CONTINUOUS
 70
0
 71
3
 72
9
 73
5
 74
3
 42
0.0000001
 43
0.0000001
 44
0.0000000001
 12
0.1465341312
 22
0.1267156572
 32
0.0
 13
0.1680450632
 23
0.0963844704
 33
0.0
 40
0.0
 40
0.0
 40
0.0
 40
0.0
 40
0.2592707632
 40
1.0
 40
1.0
 40
1.0
 40
1.0
 10
-21.3818841299
 20
20.4252953549
 30
0.0
 10
-21.3692201245
 20
20.4362465766
 30
0.0
 10
-21.3194759533
 20
20.4774201819
 30
0.0
 10
-21.2660222628
 20
20.5142172869
 30
0.0
 10
-21.224530299
 20
20.538015552
 30
0.0
 11
-21.3818841299
 21
20.4252953549
 31
0.0
 11
-21.3431763472
 21
20.4573026066
 31
0.0
 11
-21.224530299
 21
20.538015552
 31
0.0
  0
SPLINE
  5
4FF
100
AcDbEntity
  8
0
100
AcDbSpline
 62
253
  6
CONTINUOUS
 70
0
 71
3
 72
9
 73
5
 74
3
 42
0.0000001
 43
0.0000001
 44
0.0000000001
 12
0.159165979
 22
10.5215953686
 32
0.0
 13
1.1904631782
 23
10.4552427198
 33
0.0
 40
0.0
 40
0.0
 40
0.0
 40
0.0
 40
0.2454643075
 40
1.0
 40
1.0
 40
1.0
 40
1.0
 10
-22.5688440308
 20
8.9704513452
 30
0.0
 10
-22.5558208418
 20
9.8313433853
 30
0.0
 10
-22.4572160621
 20
13.3377600628
 30
0.0
 10
-22.1803603188
 20
16.8387134844
 30
0.0
 10
-21.880944666
 20
19.4683314198
 30
0.0
 11
-22.5688440308
 21
8.9704513452
 31
0.0
 11
-22.4966728274
 21
11.5524144921
 31
0.0
 11
-21.880944666
 21
19.4683314198
 31
0.0
  0
SPLINE
  5
500
100
AcDbEntity
  8
RACCORDO
100
AcDbSpline
 62
7
  6
CONTINUOUS
 70
0
 71
3
 72
11
 73
7
 74
5
 42
0.0000001
 43
0.0000001
 44
0.0000000001
 12
-0.3227292698
 22
-0.161422156
 32
0.0
 13
-0.3227522815
 23
0.1613761408
 33
0.0
 40
0.0
 40
0.0
 40
0.0
 40
0.0
 40
0.2202580098
 40
0.4554647255
 40
0.7142398547
 40
1.0
 40
1.0
 40
1.0
 40
1.0
 10
-8.4432318866
 20
-18.9707947444
 30
0.0
 10
-8.4669264555
 20
-18.982646252
 30
0.0
 10
-8.5199677445
 20
-18.9996809495
 30
0.0
 10
-8.6067353663
 20
-19.0023537454
 30
0.0
 10
-8.6992870431
 20
-18.9834508302
 30
0.0
 10
-8.760212728
 20
-18.9584331498
 30
0.0
 10
-8.7909559743
 20
-18.9430615267
 30
0.0
 11
-8.4432318866
 21
-18.9707947444
 31
0.0
 11
-8.5187623528
 21
-18.9955367353
 31
0.0
 11
-8.6035600707
 21
-18.999131478
 31
0.0
 11
-8.6952466342
 21
-18.981436364
 31
0.0
 11
-8.7909559743
 21
-18.9430615267
 31
0.0
  0
LINE
  5
501
100
AcDbEntity
  8
0
100
AcDbLine
 62
253
  6
CONTINUOUS
 10
-21.880944666
 20
-17.2697089398
 11
-21.9052783654
 21
-17.0793804108
  0
SPLINE
  5
502
100
AcDbEntity
  8
0
100
AcDbSpline
 62
253
  6
CONTINUOUS
 70
0
 71
3
 72
9
 73
5
 74
3
 42
0.0000001
 43
0.0000001
 44
0.0000000001
 12
-1.2086125111
 22
9.5448433491
 32
0.0
 13
-0.1478413548
 23
9.6199231647
 33
0.0
 40
0.0
 40
0.0
 40
0.0
 40
0.0
 40
0.2445363407
 40
1.0
 40
1.0
 40
1.0
 40
1.0
 10
-21.9052783654
 20
-17.0793804108
 30
0.0
 10
-22.0037949256
 20
-16.3013600557
 30
0.0
 10
-22.3596359276
 20
-13.1138885909
 30
0.0
 10
-22.5316144405
 20
-9.9065321121
 30
0.0
 10
-22.5688440308
 20
-7.4840313267
 30
0.0
 11
-21.9052783654
 21
-17.0793804108
 31
0.0
 11
-22.1668324255
 21
-14.7412657549
 31
0.0
 11
-22.5688440308
 21
-7.4840313267
 31
0.0
  0
SPLINE
  5
503
100
AcDbEntity
  8
0
100
AcDbSpline
 62
253
  6
CONTINUOUS
 70
0
 71
3
 72
11
 73
7
 74
5
 42
0.0000001
 43
0.0000001
 44
0.0000000001
 12
-0.00364149
 22
-0.2402883827
 32
0.0
 13
0.2149805936
 23
-0.1074016372
 33
0.0
 40
0.0
 40
0.0
 40
0.0
 40
0.0
 40
0.2040789261
 40
0.430943944
 40
0.6947280059
 40
1.0
 40
1.0
 40
1.0
 40
1.0
 10
-22.7152972046
 20
9.1465308309
 30
0.0
 10
-22.7155449217
 20
9.1301848992
 30
0.0
 10
-22.7085363701
 20
9.0952839592
 30
0.0
 10
-22.6780252795
 20
9.0476657015
 30
0.0
 10
-22.6301820028
 20
9.0047089328
 30
0.0
 10
-22.5907198806
 20
8.9813802499
 30
0.0
 10
-22.5688440291
 20
8.970451346
 30
0.0
 11
-22.7152972046
 21
9.1465308309
 31
0.0
 11
-22.7062342735
 21
9.0983320664
 31
0.0
 11
-22.6779481384
 21
9.0517246925
 31
0.0
 11
-22.6315465164
 21
9.0085347081
 31
0.0
 11
-22.5688440291
 21
8.970451346
 31
0.0
  0
SPLINE
  5
504
100
AcDbEntity
  8
RACCORDO
100
AcDbSpline
 62
253
  6
CONTINUOUS
 70
0
 71
3
 72
10
 73
6
 74
4
 42
0.0000001
 43
0.0000001
 44
0.0000000001
 12
0.0000406213
 22
-0.1249947148
 32
0.0
 13
0.1118022175
 23
-0.0558922584
 33
0.0
 40
0.0
 40
0.0
 40
0.0
 40
0.0
 40
0.2185028044
 40
0.4507915579
 40
1.0
 40
1.0
 40
1.0
 40
1.0
 10
-17.3183368654
 20
22.5568800329
 30
0.0
 10
-17.3183339067
 20
22.5477761344
 30
0.0
 10
-17.3148926878
 20
22.5288301641
 30
0.0
 10
-17.2935968359
 20
22.4922911544
 30
0.0
 10
-17.2656108537
 20
22.4727722767
 30
0.0
 10
-17.2451432798
 20
22.46254011
 30
0.0
 11
-17.3183368654
 21
22.5568800329
 31
0.0
 11
-17.3135509658
 21
22.529990928
 31
0.0
 11
-17.2993437387
 21
22.50466943
 31
0.0
 11
-17.2451432798
 21
22.46254011
 31
0.0
  0
SPLINE
  5
505
100
AcDbEntity
  8
0
100
AcDbSpline
 62
253
  6
CONTINUOUS
 70
0
 71
3
 72
11
 73
7
 74
5
 42
0.0000001
 43
0.0000001
 44
0.0000000001
 12
-0.0259833958
 22
-0.2327724576
 32
0.0
 13
0.2097872378
 23
-0.104151182
 33
0.0
 40
0.0
 40
0.0
 40
0.0
 40
0.0
 40
0.1838850728
 40
0.4027047842
 40
0.6738738629
 40
1.0
 40
1.0
 40
1.0
 40
1.0
 10
-22.0281543403
 20
19.6349445606
 30
0.0
 10
-22.0297469931
 20
19.6206767671
 30
0.0
 10
-22.0241221998
 20
19.5882152556
 30
0.0
 10
-21.9934704489
 20
19.5442583465
 30
0.0
 10
-21.944389476
 20
19.502953623
 30
0.0
 10
-21.9037501919
 20
19.4796536157
 30
0.0
 10
-21.8809444914
 20
19.4683314749
 30
0.0
 11
-22.0281543403
 21
19.6349445606
 31
0.0
 11
-22.0219636642
 21
19.5923225735
 31
0.0
 11
-21.9944196171
 21
19.5491016616
 31
0.0
 11
-21.9467221307
 21
19.5071634181
 31
0.0
 11
-21.8809444914
 21
19.4683314749
 31
0.0
  0
SPLINE
  5
506
100
AcDbEntity
  8
0
100
AcDbSpline
 62
253
  6
CONTINUOUS
 70
0
 71
3
 72
10
 73
6
 74
4
 42
0.0000001
 43
0.0000001
 44
0.0000000001
 12
0.2089263791
 22
0.1215044275
 32
0.0
 13
0.217735698
 23
-0.1049034013
 33
0.0
 40
0.0
 40
0.0
 40
0.0
 40
0.0
 40
0.2240208459
 40
0.4604618054
 40
1.0
 40
1.0
 40
1.0
 40
1.0
 10
-21.4577100798
 20
20.5468844247
 30
0.0
 10
-21.4421087917
 20
20.5559575996
 30
0.0
 10
-21.4069148075
 20
20.5696722478
 30
0.0
 10
-21.3257548681
 20
20.5761782389
 30
0.0
 10
-21.2636892075
 20
20.5568820159
 30
0.0
 10
-21.224530299
 20
20.538015552
 30
0.0
 11
-21.4577100798
 21
20.5468844247
 31
0.0
 11
-21.407348799
 21
20.5667652099
 31
0.0
 11
-21.350438964
 21
20.5719460727
 31
0.0
 11
-21.224530299
 21
20.538015552
 31
0.0
  0
SPLINE
  5
507
100
AcDbEntity
  8
0
100
AcDbSpline
 62
253
  6
CONTINUOUS
 70
0
 71
3
 72
11
 73
7
 74
5
 42
0.0000001
 43
0.0000001
 44
0.0000000001
 12
0.2614083509
 22
-0.1330218541
 32
0.0
 13
0.0014086312
 23
-0.2933038618
 33
0.0
 40
0.0
 40
0.0
 40
0.0
 40
0.0
 40
0.2292299108
 40
0.4879022955
 40
0.7531904418
 40
1.0
 40
1.0
 40
1.0
 40
1.0
 10
-10.2525925837
 20
21.1018073044
 30
0.0
 10
-10.2326183793
 20
21.0916431084
 30
0.0
 10
-10.1944711493
 20
21.0613978838
 30
0.0
 10
-10.1503613327
 20
21.0016624736
 30
0.0
 10
-10.1202016827
 20
20.9319292459
 30
0.0
 10
-10.1117038672
 20
20.8818215511
 30
0.0
 10
-10.1115879794
 20
20.8576914856
 30
0.0
 11
-10.2525925837
 21
21.1018073044
 31
0.0
 11
-10.1988864313
 21
21.0613577475
 31
0.0
 11
-10.1532306525
 21
21.0007617059
 31
0.0
 11
-10.1225756396
 21
20.9292437934
 31
0.0
 11
-10.1115879794
 21
20.8576914856
 31
0.0
  0
SPLINE
  5
508
100
AcDbEntity
  8
0
100
AcDbSpline
 62
7
  6
CONTINUOUS
 70
0
 71
3
 72
11
 73
7
 74
5
 42
0.0000001
 43
0.0000001
 44
0.0000000001
 12
0.2626369811
 22
-0.1313184905
 32
0.0
 13
-0.0
 23
-0.2936370715
 33
0.0
 40
0.0
 40
0.0
 40
0.0
 40
0.0
 40
0.2296750453
 40
0.4882137809
 40
0.7532064433
 40
1.0
 40
1.0
 40
1.0
 40
1.0
 10
-10.0377793696
 20
21.2088728621
 30
0.0
 10
-10.0176723161
 20
21.1988193353
 30
0.0
 10
-9.9792504449
 20
21.1687614646
 30
0.0
 10
-9.9348832585
 20
21.1090854337
 30
0.0
 10
-9.9046957783
 20
21.0392990545
 30
0.0
 10
-9.8963598083
 20
20.9891197754
 30
0.0
 10
-9.8963598083
 20
20.964963863
 30
0.0
 11
-10.0377793696
 21
21.2088728621
 31
0.0
 11
-9.9836607395
 21
21.1686301374
 31
0.0
 11
-9.9377807345
 21
21.1081458519
 31
0.0
 11
-9.9071246515
 21
21.0366275993
 31
0.0
 11
-9.8963598083
 21
20.964963863
 31
0.0
  0
SPLINE
  5
509
100
AcDbEntity
  8
0
100
AcDbSpline
 62
7
  6
CONTINUOUS
 70
0
 71
3
 72
9
 73
5
 74
3
 42
0.0000001
 43
0.0000001
 44
0.0000000001
 12
-0.0815859525
 22
0.0407929763
 32
0.0
 13
-0.0820943577
 23
-0.0397599169
 33
0.0
 40
0.0
 40
0.0
 40
0.0
 40
0.0
 40
0.5361431045
 40
1.0
 40
1.0
 40
1.0
 40
1.0
 10
-8.3407266846
 20
20.3603465196
 30
0.0
 10
-8.3553072666
 20
20.3676368106
 30
0.0
 10
-8.3849702992
 20
20.3775630525
 30
0.0
 10
-8.4166254124
 20
20.3725942002
 30
0.0
 10
-8.429318757
 20
20.366446563
 30
0.0
 11
-8.3407266846
 21
20.3603465196
 31
0.0
 11
-8.3876871498
 21
20.3739989966
 31
0.0
 11
-8.429318757
 21
20.366446563
 31
0.0
  0
SPLINE
  5
50A
100
AcDbEntity
  8
0
100
AcDbSpline
 62
253
  6
CONTINUOUS
 70
0
 71
3
 72
9
 73
5
 74
3
 42
0.0000001
 43
0.0000001
 44
0.0000000001
 12
-0.0840102402
 22
0.0412731624
 32
0.0
 13
-0.0831822566
 23
-0.0429174392
 33
0.0
 40
0.0
 40
0.0
 40
0.0
 40
0.0
 40
0.5365169102
 40
1.0
 40
1.0
 40
1.0
 40
1.0
 10
-8.5518230422
 20
20.2514225336
 30
0.0
 10
-8.566847347
 20
20.2588037835
 30
0.0
 10
-8.5974102487
 20
20.2687383751
 30
0.0
 10
-8.6298583984
 20
20.2629962769
 30
0.0
 10
-8.6427095881
 20
20.2563657745
 30
0.0
 11
-8.5518230422
 21
20.2514225336
 31
0.0
 11
-8.6001850436
 21
20.264951395
 31
0.0
 11
-8.6427095881
 21
20.2563657745
 31
0.0
  0
SPLINE
  5
50B
100
AcDbEntity
  8
0
100
AcDbSpline
 62
253
  6
CONTINUOUS
 70
0
 71
3
 72
11
 73
7
 74
5
 42
0.0000001
 43
0.0000001
 44
0.0000000001
 12
0.2587375916
 22
-0.1293687958
 32
0.0
 13
0.2596298131
 23
0.1275687534
 33
0.0
 40
0.0
 40
0.0
 40
0.0
 40
0.0
 40
0.2350722031
 40
0.4993698028
 40
0.7640064406
 40
1.0
 40
1.0
 40
1.0
 40
1.0
 10
-10.3931911884
 20
20.8583058524
 30
0.0
 10
-10.3729171832
 20
20.8481688498
 30
0.0
 10
-10.32634116
 20
20.8336696692
 30
0.0
 10
-10.2526149236
 20
20.8266369825
 30
0.0
 10
-10.1787699676
 20
20.8333658205
 30
0.0
 10
-10.1320116339
 20
20.8476563509
 30
0.0
 10
-10.1115879794
 20
20.8576914856
 30
0.0
 11
-10.3931911884
 21
20.8583058524
 31
0.0
 11
-10.3287095897
 21
20.8367125568
 31
0.0
 11
-10.2526424941
 21
20.8290174824
 31
0.0
 11
-10.1764439921
 21
20.8363803627
 31
0.0
 11
-10.1115879794
 21
20.8576914856
 31
0.0
  0
SPLINE
  5
50C
100
AcDbEntity
  8
0
100
AcDbSpline
 62
253
  6
CONTINUOUS
 70
0
 71
3
 72
9
 73
5
 74
3
 42
0.0000001
 43
0.0000001
 44
0.0000000001
 12
-0.085269577
 22
0.0426347885
 32
0.0
 13
0.0000015909
 23
0.0953342853
 33
0.0
 40
0.0
 40
0.0
 40
0.0
 40
0.0
 40
0.5679866803
 40
1.0
 40
1.0
 40
1.0
 40
1.0
 10
-8.692421647
 20
20.0079210817
 30
0.0
 10
-8.7085656416
 20
20.015993079
 30
0.0
 10
-8.7361153039
 20
20.0334996212
 30
0.0
 10
-8.7510005161
 20
20.0649031994
 30
0.0
 10
-8.751000287
 20
20.0786317598
 30
0.0
 11
-8.692421647
 21
20.0079210817
 31
0.0
 11
-8.7357756601
 21
20.0403633516
 31
0.0
 11
-8.751000287
 21
20.0786317598
 31
0.0
  0
ELLIPSE
  5
50D
100
AcDbEntity
  8
RACCORDO
100
AcDbEllipse
 62
7
  6
CONTINUOUS
 10
-18.9502464611
 20
20.8065247504
 30
0.0
 11
-0.0446199607
 21
0.0895422007
 31
0.0
 40
0.6127700112
 41
-0.6836588249
 42
0.0239984985
  0
ELLIPSE
  5
50E
100
AcDbEntity
  8
RACCORDO
100
AcDbEllipse
 62
7
  6
CONTINUOUS
 10
-5.7922206238
 20
14.2275118318
 30
0.0
 11
-0.0446923637
 21
0.0896061377
 31
0.0
 40
0.6116748051
 41
-2.2548620396
 42
-0.6831523243
  0
ELLIPSE
  5
50F
100
AcDbEntity
  8
RACCORDO
100
AcDbEllipse
 62
7
  6
CONTINUOUS
 10
-19.0887210382
 20
0.1731586412
 30
0.0
 11
-0.4472606553
 21
0.8944879452
 31
0.0
 40
0.6123267458
 41
0.8368781886
 42
0.8860222965
  0
ELLIPSE
  5
510
100
AcDbEntity
  8
0
100
AcDbEllipse
 62
7
  6
CONTINUOUS
 10
-7.627441896
 20
20.5325645061
 30
0.0
 11
-0.0894526265
 21
0.1788917224
 31
0.0
 40
0.6123445654
 41
-0.6847277841
 42
-0.0078186591
  0
ELLIPSE
  5
511
100
AcDbEntity
  8
0
100
AcDbEllipse
 62
7
  6
CONTINUOUS
 10
-7.0017236427
 20
24.5233379145
 30
0.0
 11
0.2257019663
 21
0.4461636818
 31
0.0
 40
0.6159267166
 41
0.5882567743
 42
0.6817883054
  0
ELLIPSE
  5
512
100
AcDbEntity
  8
0
100
AcDbEllipse
 62
7
  6
CONTINUOUS
 10
4.3805478955
 20
-17.4842325806
 30
0.0
 11
0.9927147821
 21
0.620457446
 31
0.0
 40
0.0764819879
 41
-2.4043514965
 42
-1.2091443565
  0
ELLIPSE
  5
513
100
AcDbEntity
  8
0
100
AcDbEllipse
 62
7
  6
CONTINUOUS
 10
0.7719501834
 20
21.2750797001
 30
0.0
 11
0.4535199836
 21
0.8912633791
 31
0.0
 40
0.6176975122
 41
0.0043582183
 42
0.6832596203
  0
ELLIPSE
  5
514
100
AcDbEntity
  8
0
100
AcDbEllipse
 62
7
  6
CONTINUOUS
 10
-7.2027047636
 20
25.2624071737
 30
0.0
 11
1.004787277
 21
0.6140102217
 31
0.0
 40
0.0864918533
 41
0.0541644768
 42
0.7329085821
  0
ELLIPSE
  5
515
100
AcDbEntity
  8
RACCORDO
100
AcDbEllipse
 62
7
  6
CONTINUOUS
 10
-14.1743534411
 20
22.0649620298
 30
0.0
 11
-0.089260153
 21
0.1791289513
 31
0.0
 40
0.6123879345
 41
0.8877563558
 42
2.4582482032
  0
ELLIPSE
  5
516
100
AcDbEntity
  8
RACCORDO
100
AcDbEllipse
 62
7
  6
CONTINUOUS
 10
-1.8706954485
 20
15.9131330335
 30
0.0
 11
-0.089260153
 21
0.1791289513
 31
0.0
 40
0.6123879345
 41
0.8877563558
 42
2.4582482032
  0
ELLIPSE
  5
517
100
AcDbEntity
  8
0
100
AcDbEllipse
 62
7
  6
CONTINUOUS
 10
-0.9576433164
 20
-22.3696087006
 30
0.0
 11
-0.2236315662
 21
0.4472293059
 31
0.0
 40
0.6123445654
 41
-3.1337469158
 42
-2.2555748796
  0
ELLIPSE
  5
518
100
AcDbEntity
  8
0
100
AcDbEllipse
 62
7
  6
CONTINUOUS
 10
-0.9576433164
 20
15.5522125523
 30
0.0
 11
-0.223611546
 21
0.4472115081
 31
0.0
 40
0.6124054886
 41
-2.2555017776
 42
-0.6847562194
  0
ELLIPSE
  5
519
100
AcDbEntity
  8
0
100
AcDbEllipse
 62
7
  6
CONTINUOUS
 10
-1.370968056
 20
21.7079601211
 30
0.0
 11
0.2267599918
 21
0.4456316896
 31
0.0
 40
0.6176975122
 41
6.4002379998
 42
6.9664449275
  0
ELLIPSE
  5
51A
100
AcDbEntity
  8
0
100
AcDbEllipse
 62
7
  6
CONTINUOUS
 10
4.2929014095
 20
19.5699374411
 30
0.0
 11
0.499996712
 21
0.0035883639
 31
0.0
 40
0.5053247124
 41
-0.7715714568
 42
-0.0036366941
  0
ELLIPSE
  5
51B
100
AcDbEntity
  8
0
100
AcDbEllipse
 62
7
  6
CONTINUOUS
 10
-9.3368505958
 20
21.387268856
 30
0.0
 11
-0.0894446184
 21
0.1788846033
 31
0.0
 40
0.6124054886
 41
-2.2555017776
 42
-0.6847562194
  0
ELLIPSE
  5
51C
100
AcDbEntity
  8
0
100
AcDbEllipse
 62
7
  6
CONTINUOUS
 10
-3.5941070516
 20
23.4581083176
 30
0.0
 11
0.4410298232
 21
0.8975092442
 31
0.0
 40
0.607010042
 41
5.3929141747
 42
6.9578927373
  0
ELLIPSE
  5
51D
100
AcDbEntity
  8
0
100
AcDbEllipse
 62
7
  6
CONTINUOUS
 10
4.3805478955
 20
19.4707808441
 30
0.0
 11
-0.7356038977
 21
1.2035991204
 31
0.0
 40
0.5552491559
 41
5.0404636726
 42
6.2356708126
  0
ELLIPSE
  5
51E
100
AcDbEntity
  8
0
100
AcDbEllipse
 62
7
  6
CONTINUOUS
 10
48.3327732357
 20
45.9810741043
 30
0.0
 11
60.4168605605
 21
30.5632322457
 31
0.0
 40
0.005706723
 41
2.5167363259
 42
2.6876789752
  0
ELLIPSE
  5
51F
100
AcDbEntity
  8
0
100
AcDbEllipse
 62
7
  6
CONTINUOUS
 10
-0.7701806938
 20
21.40756644
 30
0.0
 11
0.221538876
 21
0.4482453432
 31
0.0
 40
0.6088015717
 41
0.5825560023
 42
0.6760875334
  0
ELLIPSE
  5
520
100
AcDbEntity
  8
0
100
AcDbEllipse
 62
7
  6
CONTINUOUS
 10
-11.8750246301
 20
21.7406439295
 30
0.0
 11
0.0907039967
 21
0.1782526758
 31
0.0
 40
0.6176975122
 41
0.6948951487
 42
2.2598737113
  0
ELLIPSE
  5
521
100
AcDbEntity
  8
0
100
AcDbEllipse
 62
7
  6
CONTINUOUS
 10
48.3327732357
 20
45.9810741043
 30
0.0
 11
60.4168605605
 21
30.5632322457
 31
0.0
 40
0.005706723
 41
-2.6934527084
 42
-2.5225100591
  0
ELLIPSE
  5
522
100
AcDbEntity
  8
RACCORDO
100
AcDbEllipse
 62
7
  6
CONTINUOUS
 10
-5.54189845
 20
14.0156293558
 30
0.0
 11
-0.0893847275
 21
0.1792122754
 31
0.0
 40
0.6116748051
 41
-0.6831523243
 42
0.0408455326
  0
ELLIPSE
  5
523
100
AcDbEntity
  8
0
100
AcDbEllipse
 62
7
  6
CONTINUOUS
 10
-1.0575250435
 20
20.6315852279
 30
0.0
 11
0.4530414621
 21
-0.0021419047
 31
0.0
 40
0.4964289597
 41
-0.77723337
 42
0.0023166901
  0
ELLIPSE
  5
524
100
AcDbEntity
  8
0
100
AcDbEllipse
 62
7
  6
CONTINUOUS
 10
-6.6479716565
 20
23.4268085344
 30
0.0
 11
0.4530414621
 21
-0.0021419047
 31
0.0
 40
0.4964289597
 41
-0.2666019412
 42
0.0023176539
  0
ELLIPSE
  5
525
100
AcDbEntity
  8
RACCORDO
100
AcDbEllipse
 62
7
  6
CONTINUOUS
 10
-19.2005686349
 20
20.8449644483
 30
0.0
 11
-0.0892399214
 21
0.1790844013
 31
0.0
 40
0.6127700112
 41
-1.8201777678
 42
-0.6836588249
  0
ELLIPSE
  5
526
100
AcDbEntity
  8
0
100
AcDbEllipse
 62
7
  6
CONTINUOUS
 10
4.2929014095
 20
20.4031706706
 30
0.0
 11
-0.3739417019
 21
0.598522373
 31
0.0
 40
0.554557473
 41
-3.1836090632
 42
-2.1562706881
  0
ELLIPSE
  5
527
100
AcDbEntity
  8
0
100
AcDbEllipse
 62
7
  6
CONTINUOUS
 10
4.2929014095
 20
-17.6218691399
 30
0.0
 11
0.499443764
 21
0.3120915671
 31
0.0
 40
0.0755486457
 41
5.9766181181
 42
7.0039564932
  0
ELLIPSE
  5
528
100
AcDbEntity
  8
0
100
AcDbEllipse
 62
7
  6
CONTINUOUS
 10
-6.4009362804
 20
24.2229442333
 30
0.0
 11
0.2205149116
 21
0.4487546221
 31
0.0
 40
0.607010042
 41
6.3916858096
 42
6.9578927373
  0
ELLIPSE
  5
529
100
AcDbEntity
  8
0
100
AcDbEllipse
 62
7
  6
CONTINUOUS
 10
-10.2517698322
 20
19.7044794725
 30
0.0
 11
0.199943508
 21
0.008945986
 31
0.0
 40
0.5313301283
 41
-2.3799630874
 42
-0.8178934069
  0
ELLIPSE
  5
52A
100
AcDbEntity
  8
0
100
AcDbEllipse
 62
7
  6
CONTINUOUS
 10
-8.5510002907
 20
18.8540947018
 30
0.0
 11
0.199943508
 21
0.008945986
 31
0.0
 40
0.5313301283
 41
3.1178423524
 42
3.9032222197
  0
ENDSEC
  0
SECTION
  2
OBJECTS
  0
DICTIONARY
  5
C
100
AcDbDictionary
280
0
281
1
  3
ACAD_GROUP
350
D
  3
ACAD_MLINESTYLE
350
17
  3
ACAD_LAYOUT
350
1A
  3
ACAD_PLOTSETTINGS
350
19
  3
ACAD_PLOTSTYLENAME
350
E
  0
DICTIONARY
  5
D
102
{ACAD_REACTORS
330
C
102
}
100
AcDbDictionary
280
0
281
1
  0
ACDBDICTIONARYWDFLT
  5
E
102
{ACAD_REACTORS
330
C
102
}
100
AcDbDictionary
281
1
  3
Normal
350
F
100
AcDbDictionaryWithDefault
340
F
  0
DICTIONARY
  5
17
102
{ACAD_REACTORS
330
C
102
}
100
AcDbDictionary
280
0
281
1
  3
Standard
350
18
  0
DICTIONARY
  5
19
102
{ACAD_REACTORS
330
C
102
}
100
AcDbDictionary
281
1
  0
DICTIONARY
  5
1A
102
{ACAD_REACTORS
330
C
102
}
100
AcDbDictionary
281
1
  3
Model
350
52B
  3
Layout1
350
52C
  0
ACDBPLACEHOLDER
  5
F
102
{ACAD_REACTORS
330
E
102
}
  0
MLINESTYLE
  5
18
102
{ACAD_REACTORS
330
17
102
}
100
AcDbMlineStyle
  2
STANDARD
 70
0
  3

 62
256
 51
90.0
 52
90.0
 71
2
 49
0.5
 62
256
  6
BYLAYER
 49
-0.5
 62
256
  6
BYLAYER
  0
LAYOUT
  5
52B
102
{ACAD_REACTORS
330
1A
102
}
100
AcDbPlotSettings
  1

  2
none_device
  4
ISO_A4_(297.00_x_210.00_MM)
  6

 40
0.0
 41
0.0
 42
0.0
 43
0.0
 44
297.0
 45
210.0
 46
0.0
 47
0.0
 48
0.0
 49
0.0
140
0.0
141
0.0
142
1.0
143
1.0
 70
1024
 72
1
 73
0
 74
0
  7

 75
0
147
1.0
148
0.0
149
0.0
100
AcDbLayout
  1
Model
 70
0
 71
0
 10
0.0
 20
0.0
 11
297.0
 21
210.0
 12
0.0
 22
0.0
 32
0.0
 14
0.0
 24
0.0
 34
0.0
 15
0.0
 25
0.0
 35
0.0
146
0.0
 13
0.0
 23
0.0
 33
0.0
 16
1.0
 26
0.0
 36
0.0
 17
0.0
 27
1.0
 37
0.0
 76
0
330
218
345
0
346
0
  0
LAYOUT
  5
52C
102
{ACAD_REACTORS
330
1A
102
}
100
AcDbPlotSettings
  1

  2
none_device
  4
ISO_A4_(297.00_x_210.00_MM)
  6

 40
0.0
 41
0.0
 42
0.0
 43
0.0
 44
297.0
 45
210.0
 46
0.0
 47
0.0
 48
0.0
 49
0.0
140
0.0
141
0.0
142
1.0
143
1.0
 70
0
 72
1
 73
0
 74
0
  7

 75
0
147
1.0
148
0.0
149
0.0
100
AcDbLayout
  1
Layout1
 70
0
 71
1
 10
0.0
 20
0.0
 11
297.0
 21
210.0
 12
0.0
 22
0.0
 32
0.0
 14
0.0
 24
0.0
 34
0.0
 15
0.0
 25
0.0
 35
0.0
146
0.0
 13
0.0
 23
0.0
 33
0.0
 16
1.0
 26
0.0
 36
0.0
 17
0.0
 27
1.0
 37
0.0
 76
0
330
219
345
0
346
0
  0
ENDSEC
  0
EOF
