  0
SECTION
  2
HEADER
  9
$ACADVER
  1
AC1015
  9
$DWGCODEPAGE
  3
ANSI_1252
  9
$EXTMAX
 10
297.0
 20
210.0
 30
0.0
  9
$EXTMIN
 10
0.0
 20
0.0
 30
0.0
  9
$LIMMIN
 10
0.0
 20
0.0
  9
$LIMMAX
 10
297.0
 20
210.0
  9
$VIEWCTR
 10
148.5
 20
105.0
  9
$VIEWSIZE
 40
210.0
  9
$CLAYER
  8
0
  9
$LTSCALE
 40
16.335
  9
$CELTYPE
  6
BYLAYER
  9
$DIMSCALE
 40
1.0
  9
$DIMASZ
 40
3.0
  9
$DIMEXO
 40
1.85625
  9
$DIMDLI
 40
11.286
  9
$DIMEXE
 40
5.346
  9
$DIMCEN
 40
2.673
  9
$DIMLFAC
 40
1.0
  9
$DIMBLK
  1
_FILLED
  9
$DIMTXT
 40
3.0
  9
$DIMTOL
 70
1
  9
$DIMLIM
 70
0
  9
$DIMTFAC
 40
1.0
  9
$DIMTP
 40
0.01
  9
$DIMTM
 40
0.01
  9
$PDMODE
 70
3
  9
$PDSIZE
 40
3.0
  9
$HANDSEED
  5
52E
  9
$TILEMODE
 70
1
  9
$MEASUREMENT
 70
1
  9
$INSUNITS
 70
4
  0
ENDSEC
  0
SECTION
  2
CLASSES
  0
CLASS
  1
ACDBDICTIONARYWDFLT
  2
AcDbDictionaryWithDefault
  3
AutoCAD 2000
 90
0
280
0
281
0
  0
CLASS
  1
ACDBPLACEHOLDER
  2
AcDbPlaceHolder
  3
AutoCAD 2000
 90
0
280
0
281
0
  0
CLASS
  1
LAYOUT
  2
AcDbLayout
  3
AutoCAD 2000
 90
0
280
0
281
0
  0
ENDSEC
  0
SECTION
  2
TABLES
  0
TABLE
  2
VPORT
  5
8
100
AcDbSymbolTable
 70
2
  0
VPORT
  5
1F4
100
AcDbSymbolTableRecord
100
AcDbViewportTableRecord
  2
*ACTIVE
 70
0
 10
0.0
 20
0.0
 11
1.0
 21
1.0
 12
148.5
 22
105.0
 13
0.0
 23
0.0
 14
1.0
 24
1.0
 15
0.0
 25
0.0
 16
0.0
 26
0.0
 36
1.0
 17
0.0
 27
0.0
 37
0.0
 40
210.0
 41
1.4142857143
 42
50.0
 43
0.0
 44
0.0
 50
0.0
 51
0.0
 71
0
 72
100
 73
1
 74
1
 75
0
 76
0
 77
0
 78
0
  0
ENDTAB
  0
TABLE
  2
LTYPE
  5
5
100
AcDbSymbolTable
 70
6
  0
LTYPE
  5
14
100
AcDbSymbolTableRecord
100
AcDbLinetypeTableRecord
  2
BYBLOCK
 70
0
  3

 72
65
 73
0
 40
0.0
  0
LTYPE
  5
15
100
AcDbSymbolTableRecord
100
AcDbLinetypeTableRecord
  2
BYLAYER
 70
0
  3

 72
65
 73
0
 40
0.0
  0
LTYPE
  5
16
100
AcDbSymbolTableRecord
100
AcDbLinetypeTableRecord
  2
CONTINUOUS
 70
64
  3
Solid line
 72
65
 73
0
 40
0.0
  0
LTYPE
  5
1F5
100
AcDbSymbolTableRecord
100
AcDbLinetypeTableRecord
  2
CENTER
 70
64
  3
____ _ ____ _ ____ _ ____ _ ____ _ ____ _ ____
 72
65
 73
4
 40
0.6
 49
0.375
 74
0
 49
-0.075
 74
0
 49
0.075
 74
0
 49
-0.075
 74
0
  0
LTYPE
  5
1F6
100
AcDbSymbolTableRecord
100
AcDbLinetypeTableRecord
  2
HIDDEN
 70
64
  3
- - - - - - - - - - - - - - - - - - - -
 72
65
 73
2
 40
0.2
 49
0.1
 74
0
 49
-0.1
 74
0
  0
LTYPE
  5
1F7
100
AcDbSymbolTableRecord
100
AcDbLinetypeTableRecord
  2
PHANTOM
 70
64
  3
_____ _ _ _____ _ _ _____ _ _ _____
 72
65
 73
6
 40
0.8
 49
0.45
 74
0
 49
-0.05
 74
0
 49
0.1
 74
0
 49
-0.05
 74
0
 49
0.1
 74
0
 49
-0.05
 74
0
  0
LTYPE
  5
1F8
100
AcDbSymbolTableRecord
100
AcDbLinetypeTableRecord
  2
DOT
 70
64
  3
. . . . . . . . . . . . . . . . . . . .
 72
65
 73
2
 40
0.2
 49
0.1
 74
0
 49
-0.1
 74
0
  0
LTYPE
  5
1F9
100
AcDbSymbolTableRecord
100
AcDbLinetypeTableRecord
  2
DASHED
 70
64
  3
- - - - - - - - - - - - - - - - - - - -
 72
65
 73
2
 40
0.2
 49
0.1
 74
0
 49
-0.1
 74
0
  0
ENDTAB
  0
TABLE
  2
LAYER
  5
2
100
AcDbSymbolTable
 70
36
  0
LAYER
  5
10
100
AcDbSymbolTableRecord
100
AcDbLayerTableRecord
  2
0
 70
0
 62
7
  6
CONTINUOUS
370
-3
390
F
  0
LAYER
  5
1FA
100
AcDbSymbolTableRecord
100
AcDbLayerTableRecord
  2
DEFAULT_1
 70
0
 62
7
  6
CENTER
370
-3
390
F
  0
LAYER
  5
1FB
100
AcDbSymbolTableRecord
100
AcDbLayerTableRecord
  2
DEFAULT_2
 70
0
 62
7
  6
HIDDEN
370
-3
390
F
  0
LAYER
  5
1FC
100
AcDbSymbolTableRecord
100
AcDbLayerTableRecord
  2
DEFAULT_3
 70
0
 62
7
  6
PHANTOM
370
-3
390
F
  0
LAYER
  5
1FD
100
AcDbSymbolTableRecord
100
AcDbLayerTableRecord
  2
ASSI
 70
0
 62
7
  6
CONTINUOUS
370
-3
390
F
  0
LAYER
  5
1FE
100
AcDbSymbolTableRecord
100
AcDbLayerTableRecord
  2
COLOR1
 70
0
 62
7
  6
CONTINUOUS
370
-3
390
F
  0
LAYER
  5
1FF
100
AcDbSymbolTableRecord
100
AcDbLayerTableRecord
  2
COORDINATE
 70
0
 62
7
  6
CONTINUOUS
370
-3
390
F
  0
LAYER
  5
200
100
AcDbSymbolTableRecord
100
AcDbLayerTableRecord
  2
COORD_ORIGINE
 70
0
 62
7
  6
CONTINUOUS
370
-3
390
F
  0
LAYER
  5
201
100
AcDbSymbolTableRecord
100
AcDbLayerTableRecord
  2
COPY_PUBLISH
 70
0
 62
7
  6
CONTINUOUS
370
-3
390
F
  0
LAYER
  5
202
100
AcDbSymbolTableRecord
100
AcDbLayerTableRecord
  2
COSMETIC
 70
0
 62
7
  6
CONTINUOUS
370
-3
390
F
  0
LAYER
  5
203
100
AcDbSymbolTableRecord
100
AcDbLayerTableRecord
  2
CURVE
 70
0
 62
7
  6
CONTINUOUS
370
-3
390
F
  0
LAYER
  5
204
100
AcDbSymbolTableRecord
100
AcDbLayerTableRecord
  2
DRAFT
 70
0
 62
7
  6
CONTINUOUS
370
-3
390
F
  0
LAYER
  5
205
100
AcDbSymbolTableRecord
100
AcDbLayerTableRecord
  2
IMPORT_IGES
 70
0
 62
7
  6
CONTINUOUS
370
-3
390
F
  0
LAYER
  5
206
100
AcDbSymbolTableRecord
100
AcDbLayerTableRecord
  2
INTFCLR_2
 70
0
 62
7
  6
CONTINUOUS
370
-3
390
F
  0
LAYER
  5
207
100
AcDbSymbolTableRecord
100
AcDbLayerTableRecord
  2
INTF_5
 70
0
 62
7
  6
CONTINUOUS
370
-3
390
F
  0
LAYER
  5
208
100
AcDbSymbolTableRecord
100
AcDbLayerTableRecord
  2
INTF_CYAN
 70
0
 62
7
  6
CONTINUOUS
370
-3
390
F
  0
LAYER
  5
209
100
AcDbSymbolTableRecord
100
AcDbLayerTableRecord
  2
INTF_YELLOW
 70
0
 62
7
  6
CONTINUOUS
370
-3
390
F
  0
LAYER
  5
20A
100
AcDbSymbolTableRecord
100
AcDbLayerTableRecord
  2
NOTE
 70
0
 62
7
  6
CONTINUOUS
370
-3
390
F
  0
LAYER
  5
20B
100
AcDbSymbolTableRecord
100
AcDbLayerTableRecord
  2
PIANI
 70
0
 62
7
  6
CONTINUOUS
370
-3
390
F
  0
LAYER
  5
20C
100
AcDbSymbolTableRecord
100
AcDbLayerTableRecord
  2
PIANI_ORIGINE
 70
0
 62
7
  6
CONTINUOUS
370
-3
390
F
  0
LAYER
  5
20D
100
AcDbSymbolTableRecord
100
AcDbLayerTableRecord
  2
PIANI_SFORMI
 70
0
 62
7
  6
CONTINUOUS
370
-3
390
F
  0
LAYER
  5
20E
100
AcDbSymbolTableRecord
100
AcDbLayerTableRecord
  2
PUNTI
 70
0
 62
7
  6
CONTINUOUS
370
-3
390
F
  0
LAYER
  5
20F
100
AcDbSymbolTableRecord
100
AcDbLayerTableRecord
  2
RACCORDO
 70
0
 62
7
  6
CONTINUOUS
370
-3
390
F
  0
LAYER
  5
210
100
AcDbSymbolTableRecord
100
AcDbLayerTableRecord
  2
SKEL
 70
0
 62
7
  6
CONTINUOUS
370
-3
390
F
  0
LAYER
  5
211
100
AcDbSymbolTableRecord
100
AcDbLayerTableRecord
  2
SMUSSO
 70
0
 62
7
  6
CONTINUOUS
370
-3
390
F
  0
LAYER
  5
212
100
AcDbSymbolTableRecord
100
AcDbLayerTableRecord
  2
SNAPLINE
 70
0
 62
7
  6
CONTINUOUS
370
-3
390
F
  0
LAYER
  5
213
100
AcDbSymbolTableRecord
100
AcDbLayerTableRecord
  2
SUPERFICI
 70
0
 62
7
  6
CONTINUOUS
370
-3
390
F
  0
LAYER
  5
214
100
AcDbSymbolTableRecord
100
AcDbLayerTableRecord
  2
TRASH
 70
0
 62
7
  6
CONTINUOUS
370
-3
390
F
  0
LAYER
  5
215
100
AcDbSymbolTableRecord
100
AcDbLayerTableRecord
  2
XSEC_DATUMS
 70
0
 62
7
  6
CONTINUOUS
370
-3
390
F
  0
ENDTAB
  0
TABLE
  2
STYLE
  5
3
100
AcDbSymbolTable
 70
1
  0
STYLE
  5
11
100
AcDbSymbolTableRecord
100
AcDbTextStyleTableRecord
  2
STANDARD
 70
0
 40
0.0
 41
0.8
 50
0.0
 71
0
 42
0.2
  3
txt
  4

  0
STYLE
  5
216
100
AcDbSymbolTableRecord
100
AcDbTextStyleTableRecord
  2
TEXTSTYLE_1
 70
0
 40
0.0
 41
0.8
 50
0.0
 71
0
 42
0.2
  3
gdt
  4

  0
ENDTAB
  0
TABLE
  2
VIEW
  5
6
100
AcDbSymbolTable
 70
0
  0
ENDTAB
  0
TABLE
  2
UCS
  5
7
100
AcDbSymbolTable
 70
0
  0
ENDTAB
  0
TABLE
  2
APPID
  5
9
100
AcDbSymbolTable
 70
1
  0
APPID
  5
217
100
AcDbSymbolTableRecord
100
AcDbRegAppTableRecord
  2
ACAD
 70
0
  0
ENDTAB
  0
TABLE
  2
BLOCK_RECORD
  5
1
100
AcDbSymbolTable
 70
0
  0
BLOCK_RECORD
  5
218
100
AcDbSymbolTableRecord
100
AcDbBlockTableRecord
  2
*Model_Space
  0
BLOCK_RECORD
  5
219
100
AcDbSymbolTableRecord
100
AcDbBlockTableRecord
  2
*Paper_Space
  0
ENDTAB
  0
TABLE
  2
DIMSTYLE
  5
A
100
AcDbSymbolTable
 70
1
100
AcDbDimStyleTable
 71
0
  0
DIMSTYLE
105
21A
100
AcDbSymbolTableRecord
100
AcDbDimStyleTableRecord
  2
STANDARD
 70
0
  3

  4

 40
1.0
 41
3.0
 42
0.0625
 43
0.38
 44
0.18
 45
0.0
 46
0.0
 47
0.01
 48
0.01
140
3.0
141
0.09
142
0.0
143
25.4
144
1.0
145
0.0
146
1.0
147
0.09
 71
1.0
 72
0.0
 73
0
 74
0
 75
0
 76
0
 77
1
 78
8
170
0
171
2
172
0
173
0
174
0
175
0
176
0
177
0
178
0
270
2
271
2
272
2
273
2
274
2
275
0
280
0
281
0
282
0
283
1
284
8
285
0
286
0
287
3
288
0
340
11
  0
ENDTAB
  0
ENDSEC
  0
SECTION
  2
BLOCKS
  0
BLOCK
  5
20
100
AcDbEntity
  8
0
100
AcDbBlockBegin
  2
*Model_Space
 70
0
 10
0.0
 20
0.0
 30
0.0
  3
*Model_Space
  1

  0
ENDBLK
  5
21
100
AcDbEntity
  8
0
100
AcDbBlockEnd
  0
BLOCK
  5
1C
100
AcDbEntity
  8
0
100
AcDbBlockBegin
  2
*Paper_Space
 70
0
 10
0.0
 20
0.0
 30
0.0
  3
*Paper_Space
  1

  0
ENDBLK
  5
1D
100
AcDbEntity
  8
0
100
AcDbBlockEnd
  0
ENDSEC
  0
SECTION
  2
ENTITIES
  0
LWPOLYLINE
  5
21B
100
AcDbEntity
  8
0
100
AcDbPolyline
 62
7
  6
CONTINUOUS
 90
7
 70
0
 10
-21.9385540601
 20
-19.1919417945
 10
-21.8972318827
 20
-19.2609929096
 10
-21.8494720769
 20
-19.3241178716
 10
-21.7959943554
 20
-19.3806499543
 10
-21.7374777762
 20
-19.4301911029
 10
-21.6737189283
 20
-19.4729721728
 10
-21.6304445451
 20
-19.4965366592
  0
LWPOLYLINE
  5
21C
100
AcDbEntity
  8
RACCORDO
100
AcDbPolyline
 62
7
  6
CONTINUOUS
 90
3
 70
0
 10
-20.9296799278
 20
17.7527213015
 10
-20.9607383956
 20
17.6855882142
 10
-20.9886999875
 20
17.6169190452
  0
LINE
  5
21D
100
AcDbEntity
  8
RACCORDO
100
AcDbLine
 62
7
  6
CONTINUOUS
 10
-20.8925274782
 20
17.8210408435
 11
-20.9296799285
 21
17.7527212995
  0
LWPOLYLINE
  5
21E
100
AcDbEntity
  8
RACCORDO
100
AcDbPolyline
 62
7
  6
CONTINUOUS
 90
9
 70
0
 10
-20.4854499656
 20
18.267001891
 10
-20.5436166341
 20
18.2259836586
 10
-20.6003400009
 20
18.1800425201
 10
-20.6553040421
 20
18.129488439
 10
-20.7081526175
 20
18.07470861
 10
-20.7585956201
 20
18.0160575063
 10
-20.8063510814
 20
17.9539105414
 10
-20.8510843926
 20
17.8887535958
 10
-20.8925274782
 20
17.8210408435
  0
LWPOLYLINE
  5
21F
100
AcDbEntity
  8
0
100
AcDbPolyline
 62
7
  6
CONTINUOUS
 90
14
 70
0
 10
-21.4577100284
 20
18.7349977139
 10
-21.509470393
 20
18.7025470911
 10
-21.5776142303
 20
18.6524264367
 10
-21.6426598936
 20
18.5958316523
 10
-21.7042445782
 20
18.5331409224
 10
-21.761533118
 20
18.4653445373
 10
-21.8144712897
 20
18.3926555828
 10
-21.8628372536
 20
18.3153464205
 10
-21.9057369556
 20
18.2348820356
 10
-21.943051394
 20
18.1515881016
 10
-21.9745816046
 20
18.0657411506
 10
-21.9997013832
 20
17.9789164417
 10
-22.0182404376
 20
17.8917931966
 10
-22.0281546959
 20
17.8230579782
  0
LINE
  5
220
100
AcDbEntity
  8
RACCORDO
100
AcDbLine
 62
7
  6
CONTINUOUS
 10
-20.4211932213
 20
18.3055365036
 11
-20.4854499656
 21
18.267001891
  0
LINE
  5
221
100
AcDbEntity
  8
0
100
AcDbLine
 62
7
  6
CONTINUOUS
 10
-21.4578843466
 20
18.7348963224
 11
-17.4260590995
 21
21.0858197283
  0
LINE
  5
222
100
AcDbEntity
  8
0
100
AcDbLine
 62
253
  6
CONTINUOUS
 10
-21.224530299
 20
18.7261289293
 11
-17.318348362
 21
21.0037907773
  0
LINE
  5
223
100
AcDbEntity
  8
RACCORDO
100
AcDbLine
 62
253
  6
CONTINUOUS
 10
-17.3137260213
 20
20.7866099707
 11
-17.3809907975
 21
20.7482412247
  0
LINE
  5
224
100
AcDbEntity
  8
RACCORDO
100
AcDbLine
 62
253
  6
CONTINUOUS
 10
-20.6272781144
 20
18.4275028369
 11
-19.2004394426
 21
19.2064560075
  0
LINE
  5
225
100
AcDbEntity
  8
RACCORDO
100
AcDbLine
 62
7
  6
CONTINUOUS
 10
-20.4212371571
 20
18.3055125795
 11
-18.9961423887
 21
19.0835137021
  0
LINE
  5
226
100
AcDbEntity
  8
RACCORDO
100
AcDbLine
 62
253
  6
CONTINUOUS
 10
-20.3770205367
 20
18.3023740481
 11
-18.9501818649
 21
19.0813272187
  0
LINE
  5
227
100
AcDbEntity
  8
0
100
AcDbLine
 62
7
  6
CONTINUOUS
 10
-17.8854554218
 20
22.1003797105
 11
-16.3022837268
 21
22.9125767578
  0
LINE
  5
228
100
AcDbEntity
  8
0
100
AcDbLine
 62
253
  6
CONTINUOUS
 10
-17.7723697556
 20
22.0939317354
 11
-16.1896131525
 21
22.9059158327
  0
LINE
  5
229
100
AcDbEntity
  8
0
100
AcDbLine
 62
253
  6
CONTINUOUS
 10
-17.8854554115
 20
22.1003797158
 11
-17.8852827912
 21
22.1004680483
  0
LINE
  5
22A
100
AcDbEntity
  8
0
100
AcDbLine
 62
253
  6
CONTINUOUS
 10
-16.0938316852
 20
21.2546627002
 11
-14.4925508944
 21
22.0573847037
  0
LINE
  5
22B
100
AcDbEntity
  8
0
100
AcDbLine
 62
253
  6
CONTINUOUS
 10
-15.9170579815
 20
20.9497731613
 11
-14.3157771907
 21
21.7524951648
  0
LINE
  5
22C
100
AcDbEntity
  8
0
100
AcDbLine
 62
7
  6
CONTINUOUS
 10
-16.3022817571
 20
22.9125777683
 11
-16.3005453397
 21
22.9134459914
  0
LINE
  5
22D
100
AcDbEntity
  8
0
100
AcDbLine
 62
253
  6
CONTINUOUS
 10
-14.4925508944
 20
22.0573847037
 11
-13.9642837227
 21
22.3208235237
  0
LINE
  5
22E
100
AcDbEntity
  8
0
100
AcDbLine
 62
253
  6
CONTINUOUS
 10
-14.3157771907
 20
21.7524951648
 11
-13.787510019
 21
22.0159339849
  0
LINE
  5
22F
100
AcDbEntity
  8
0
100
AcDbLine
 62
7
  6
CONTINUOUS
 10
-16.3005425757
 20
22.9134473378
 11
-15.7656753849
 21
23.1739980903
  0
LINE
  5
230
100
AcDbEntity
  8
0
100
AcDbLine
 62
253
  6
CONTINUOUS
 10
-16.1896131525
 20
22.9059158327
 11
-15.6551632738
 21
23.1662632993
  0
LWPOLYLINE
  5
231
100
AcDbEntity
  8
0
100
AcDbPolyline
 62
7
  6
CONTINUOUS
 90
12
 70
0
 10
-6.7371187212
 20
-26.943199685
 10
-6.7292404538
 20
-26.9470873229
 10
-6.6715441124
 20
-26.9719482344
 10
-6.6112249569
 20
-26.9916826522
 10
-6.5488210578
 20
-27.0059894691
 10
-6.4847256723
 20
-27.0146823976
 10
-6.4191187316
 20
-27.0176119038
 10
-6.3524262445
 20
-27.0146109511
 10
-6.2851579333
 20
-27.005573541
 10
-6.2174977932
 20
-26.990382603
 10
-6.1497251492
 20
-26.9689146171
 10
-6.1109325723
 20
-26.9537284001
  0
LINE
  5
232
100
AcDbEntity
  8
0
100
AcDbLine
 62
7
  6
CONTINUOUS
 10
-6.7364394707
 20
-26.9435404412
 11
-21.6311613466
 21
-19.4961795033
  0
LINE
  5
233
100
AcDbEntity
  8
0
100
AcDbLine
 62
253
  6
CONTINUOUS
 10
-6.9906305471
 20
-26.5267526219
 11
-21.880944666
 21
-19.0815955625
  0
LINE
  5
234
100
AcDbEntity
  8
0
100
AcDbLine
 62
7
  6
CONTINUOUS
 10
-5.3037571079
 20
-26.614909341
 11
-3.9009486521
 21
-27.3163135689
  0
LINE
  5
235
100
AcDbEntity
  8
0
100
AcDbLine
 62
253
  6
CONTINUOUS
 10
-5.1920628931
 20
-26.5680246465
 11
-3.9659219486
 21
-27.1810951188
  0
LINE
  5
236
100
AcDbEntity
  8
0
100
AcDbLine
 62
253
  6
CONTINUOUS
 10
-3.9659219486
 20
-26.8411211846
 11
-4.8224293335
 21
-26.4128674922
  0
LINE
  5
237
100
AcDbEntity
  8
0
100
AcDbLine
 62
253
  6
CONTINUOUS
 10
-3.9011085101
 20
-27.3162334492
 11
-3.9009486409
 21
-27.3163135745
  0
LWPOLYLINE
  5
238
100
AcDbEntity
  8
0
100
AcDbPolyline
 62
7
  6
CONTINUOUS
 90
10
 70
0
 10
-22.0281349096
 20
17.823234759
 10
-22.1495014465
 20
16.7085863253
 10
-22.2679472593
 20
15.5058410676
 10
-22.3728499955
 20
14.3079822603
 10
-22.4641858506
 20
13.1152662222
 10
-22.5419338838
 20
11.9279455461
 10
-22.6060754905
 20
10.7462748991
 10
-22.6565948213
 20
9.5705045873
 10
-22.6934785271
 20
8.4008866897
 10
-22.7152972744
 20
7.3346442093
  0
LWPOLYLINE
  5
239
100
AcDbEntity
  8
RACCORDO
100
AcDbPolyline
 62
7
  6
CONTINUOUS
 90
5
 70
0
 10
-20.9886999875
 20
17.6169190452
 10
-21.0132705098
 20
17.547332954
 10
-21.034293538
 20
17.4772098316
 10
-21.0516216219
 20
17.4069580842
 10
-21.0651384704
 20
17.3369520846
  0
LINE
  5
23A
100
AcDbEntity
  8
RACCORDO
100
AcDbLine
 62
7
  6
CONTINUOUS
 10
-17.3219408709
 20
20.7231119913
 11
-17.3229476539
 21
20.7205516931
  0
LINE
  5
23B
100
AcDbEntity
  8
0
100
AcDbLine
 62
253
  6
CONTINUOUS
 10
-14.3157771907
 20
21.0254503124
 11
-13.787510019
 21
21.6684024681
  0
LINE
  5
23C
100
AcDbEntity
  8
0
100
AcDbLine
 62
7
  6
CONTINUOUS
 10
-14.3157771907
 20
20.935919846
 11
-13.7721494466
 21
21.5975673016
  0
LINE
  5
23D
100
AcDbEntity
  8
RACCORDO
100
AcDbLine
 62
253
  6
CONTINUOUS
 10
-15.2058292661
 20
19.8270580756
 11
-14.3157771907
 21
20.3237344727
  0
LINE
  5
23E
100
AcDbEntity
  8
RACCORDO
100
AcDbLine
 62
253
  6
CONTINUOUS
 10
-15.0578397401
 20
19.5866656959
 11
-14.1743965014
 21
20.0796541592
  0
LINE
  5
23F
100
AcDbEntity
  8
0
100
AcDbLine
 62
7
  6
CONTINUOUS
 10
-12.3358782034
 20
20.5460356563
 11
-13.3903676348
 21
20.0050626176
  0
LINE
  5
240
100
AcDbEntity
  8
0
100
AcDbLine
 62
7
  6
CONTINUOUS
 10
-6.9996547974
 20
23.1454791218
 11
-12.3358782034
 21
20.5460356563
  0
LINE
  5
241
100
AcDbEntity
  8
0
100
AcDbLine
 62
7
  6
CONTINUOUS
 10
-6.4914454211
 20
23.9650153849
 11
-13.6127842364
 21
20.5009164195
  0
LINE
  5
242
100
AcDbEntity
  8
0
100
AcDbLine
 62
253
  6
CONTINUOUS
 10
-1.4838520263
 20
-25.7830306676
 11
-2.0121191981
 21
-25.6745283905
  0
LINE
  5
243
100
AcDbEntity
  8
0
100
AcDbLine
 62
253
  6
CONTINUOUS
 10
-1.5732658217
 20
-25.4634638616
 11
-2.0121191981
 21
-25.3733265349
  0
LINE
  5
244
100
AcDbEntity
  8
0
100
AcDbLine
 62
253
  6
CONTINUOUS
 10
-1.5498520492
 20
-25.4715505983
 11
-1.5499626636
 21
-25.4714953843
  0
LINE
  5
245
100
AcDbEntity
  8
0
100
AcDbLine
 62
253
  6
CONTINUOUS
 10
-3.8775336009
 20
-26.6094270108
 11
-4.5224722434
 21
-26.2869576896
  0
LINE
  5
246
100
AcDbEntity
  8
0
100
AcDbLine
 62
7
  6
CONTINUOUS
 10
-3.2547013405
 20
-25.8646247075
 11
-3.3741083833
 21
-25.8049211861
  0
LINE
  5
247
100
AcDbEntity
  8
0
100
AcDbLine
 62
253
  6
CONTINUOUS
 10
-2.0121191981
 20
-25.2440371734
 11
-1.5732658217
 21
-25.4634638616
  0
LINE
  5
248
100
AcDbEntity
  8
0
100
AcDbLine
 62
7
  6
CONTINUOUS
 10
-2.0121191981
 20
-25.2404170238
 11
-1.5498507705
 21
-25.4715512376
  0
LWPOLYLINE
  5
249
100
AcDbEntity
  8
0
100
AcDbPolyline
 62
7
  6
CONTINUOUS
 90
5
 70
0
 10
-22.0271678131
 20
-18.9067105259
 10
-22.020932732
 20
-18.9476454441
 10
-22.0010592968
 20
-19.0348960569
 10
-21.97334193
 20
-19.116580324
 10
-21.9385540601
 20
-19.1919417945
  0
LINE
  5
24A
100
AcDbEntity
  8
0
100
AcDbLine
 62
7
  6
CONTINUOUS
 10
-22.0272309434
 20
-18.9062280685
 11
-22.0271679781
 21
-18.9067105474
  0
LWPOLYLINE
  5
24B
100
AcDbEntity
  8
RACCORDO
100
AcDbPolyline
 62
7
  6
CONTINUOUS
 90
5
 70
0
 10
-20.3247768785
 20
-12.1163238219
 10
-20.3187301117
 20
-12.1873094231
 10
-20.2990102728
 20
-12.2584144669
 10
-20.2690772362
 20
-12.3208782207
 10
-20.2296321449
 20
-12.3766340012
  0
LWPOLYLINE
  5
24C
100
AcDbEntity
  8
0
100
AcDbPolyline
 62
7
  6
CONTINUOUS
 90
10
 70
0
 10
-22.7152954412
 20
-9.1186281446
 10
-22.6932585063
 20
-10.1705701373
 10
-22.6562572392
 20
-11.3025944956
 10
-22.6056032027
 20
-12.4268348124
 10
-22.5413054422
 20
-13.5430502384
 10
-22.4633754603
 20
-14.6510049403
 10
-22.3718273779
 20
-15.750462698
 10
-22.2666776416
 20
-16.841191019
 10
-22.1479456444
 20
-17.9229554089
 10
-22.0272309434
 20
-18.9062280685
  0
LWPOLYLINE
  5
24D
100
AcDbEntity
  8
0
100
AcDbPolyline
 62
7
  6
CONTINUOUS
 90
10
 70
0
 10
-22.715297273
 20
7.3346444034
 10
-22.7392611438
 20
5.5619807832
 10
-22.7582447425
 20
3.7035945737
 10
-22.7708961547
 20
1.8483954822
 10
-22.7772151087
 20
-0.0035815581
 10
-22.7772014591
 20
-1.8523039811
 10
-22.7708551519
 20
-3.6977398833
 10
-22.7581762244
 20
-5.5398567943
 10
-22.7391648402
 20
-7.3786200013
 10
-22.7152954388
 20
-9.118628368
  0
LINE
  5
24E
100
AcDbEntity
  8
RACCORDO
100
AcDbLine
 62
7
  6
CONTINUOUS
 10
-21.511548202
 20
12.5477947406
 11
-21.5128789421
 21
12.4995917602
  0
LWPOLYLINE
  5
24F
100
AcDbEntity
  8
RACCORDO
100
AcDbPolyline
 62
7
  6
CONTINUOUS
 90
10
 70
0
 10
-21.0742715366
 20
17.2717471857
 10
-21.127618628
 20
16.7942794608
 10
-21.1858404302
 20
16.2510612834
 10
-21.2413242621
 20
15.7087860957
 10
-21.2940672351
 20
15.167481047
 10
-21.3440671722
 20
14.6271687029
 10
-21.3913221143
 20
14.0878698829
 10
-21.4358300011
 20
13.5496070878
 10
-21.4775886561
 20
13.0124071852
 10
-21.5115488682
 20
12.5477872454
  0
LINE
  5
250
100
AcDbEntity
  8
RACCORDO
100
AcDbLine
 62
7
  6
CONTINUOUS
 10
-21.0651384704
 20
17.3369520846
 11
-21.0742736921
 21
17.271727422
  0
LINE
  5
251
100
AcDbEntity
  8
0
100
AcDbLine
 62
7
  6
CONTINUOUS
 10
-12.0176801519
 20
18.6250493597
 11
-12.7309577604
 21
18.2291949146
  0
LINE
  5
252
100
AcDbEntity
  8
DRAFT
100
AcDbLine
 62
7
  6
CONTINUOUS
 10
-13.7147364267
 20
17.2913470739
 11
-14.5061307403
 21
16.8593016563
  0
LINE
  5
253
100
AcDbEntity
  8
0
100
AcDbLine
 62
7
  6
CONTINUOUS
 10
-10.9570199801
 20
20.5586749374
 11
-6.3988973519
 21
22.845100399
  0
LINE
  5
254
100
AcDbEntity
  8
0
100
AcDbLine
 62
7
  6
CONTINUOUS
 10
-9.5736143776
 20
19.8669721362
 11
-6.2112155119
 21
21.5536038936
  0
LINE
  5
255
100
AcDbEntity
  8
0
100
AcDbLine
 62
253
  6
CONTINUOUS
 10
-10.0377793696
 20
19.3969862394
 11
-9.3368434158
 21
19.7485866552
  0
LINE
  5
256
100
AcDbEntity
  8
0
100
AcDbLine
 62
7
  6
CONTINUOUS
 10
-9.2533919241
 20
19.6734761226
 11
-3.5900291945
 21
22.5143072716
  0
LINE
  5
257
100
AcDbEntity
  8
0
100
AcDbLine
 62
253
  6
CONTINUOUS
 10
-9.8963598083
 20
19.1530772403
 11
-9.1954238545
 21
19.5046776561
  0
LINE
  5
258
100
AcDbEntity
  8
0
100
AcDbLine
 62
7
  6
CONTINUOUS
 10
-12.7309577604
 20
19.6753576804
 11
-11.8758545616
 21
20.1015516707
  0
LINE
  5
259
100
AcDbEntity
  8
0
100
AcDbLine
 62
253
  6
CONTINUOUS
 10
-10.2525925837
 20
19.2899206817
 11
-10.0377793696
 21
19.3969862394
  0
LINE
  5
25A
100
AcDbEntity
  8
0
100
AcDbLine
 62
253
  6
CONTINUOUS
 10
-10.1115879794
 20
19.0458048629
 11
-9.8963598083
 21
19.1530772403
  0
LINE
  5
25B
100
AcDbEntity
  8
0
100
AcDbLine
 62
7
  6
CONTINUOUS
 10
-9.1954238545
 20
19.0963136362
 11
-4.479564208
 21
21.4449127273
  0
LINE
  5
25C
100
AcDbEntity
  8
DRAFT
100
AcDbLine
 62
7
  6
CONTINUOUS
 10
7.4924406095
 20
27.3427067711
 11
-2.9525016394
 21
22.3212703649
  0
LINE
  5
25D
100
AcDbEntity
  8
RACCORDO
100
AcDbLine
 62
7
  6
CONTINUOUS
 10
-8.7909559743
 20
-20.7549481494
 11
-21.094613967
 21
-14.6031191531
  0
LINE
  5
25E
100
AcDbEntity
  8
RACCORDO
100
AcDbLine
 62
7
  6
CONTINUOUS
 10
-20.8817956303
 20
-14.4967099847
 11
-8.5781376376
 21
-20.6485389811
  0
LINE
  5
25F
100
AcDbEntity
  8
RACCORDO
100
AcDbLine
 62
7
  6
CONTINUOUS
 10
-8.807648014
 20
-20.5034865481
 11
-21.1113060067
 21
-14.3516575518
  0
LINE
  5
260
100
AcDbEntity
  8
RACCORDO
100
AcDbLine
 62
7
  6
CONTINUOUS
 10
-9.0128495918
 20
-19.2569219866
 11
-21.0430480142
 21
-13.2418227754
  0
LWPOLYLINE
  5
261
100
AcDbEntity
  8
RACCORDO
100
AcDbPolyline
 62
7
  6
CONTINUOUS
 90
4
 70
0
 10
-20.2296321449
 20
-12.3766340012
 10
-20.1781205737
 20
-12.4273207461
 10
-20.1194336007
 20
-12.4664111981
 10
-20.1113408009
 20
-12.4705979284
  0
LINE
  5
262
100
AcDbEntity
  8
RACCORDO
100
AcDbLine
 62
7
  6
CONTINUOUS
 10
-21.5128789421
 20
12.4995917602
 11
-21.5097496425
 21
12.4462691923
  0
LINE
  5
263
100
AcDbEntity
  8
RACCORDO
100
AcDbLine
 62
7
  6
CONTINUOUS
 10
-19.7958547449
 20
-1.2850951758
 11
-19.7958547449
 21
-11.6185052172
  0
LINE
  5
264
100
AcDbEntity
  8
DRAFT
100
AcDbLine
 62
7
  6
CONTINUOUS
 10
-19.7257611495
 20
-1.2776418995
 11
-19.7257611495
 21
-11.578740863
  0
LWPOLYLINE
  5
265
100
AcDbEntity
  8
RACCORDO
100
AcDbPolyline
 62
7
  6
CONTINUOUS
 90
3
 70
0
 10
-17.3183428308
 20
20.7449583395
 10
-17.319490707
 20
20.7322732636
 10
-17.3219408709
 20
20.7231119913
  0
LINE
  5
266
100
AcDbEntity
  8
0
100
AcDbLine
 62
7
  6
CONTINUOUS
 10
-10.1115879794
 20
17.8211885916
 11
-9.8963598083
 21
17.9406358127
  0
LINE
  5
267
100
AcDbEntity
  8
0
100
AcDbLine
 62
7
  6
CONTINUOUS
 10
-8.4310225848
 20
18.5537079758
 11
-8.6427096116
 21
18.4444792094
  0
LINE
  5
268
100
AcDbEntity
  8
0
100
AcDbLine
 62
253
  6
CONTINUOUS
 10
-8.3407266846
 20
18.5484598969
 11
-8.5518230422
 21
18.4395359109
  0
LINE
  5
269
100
AcDbEntity
  8
0
100
AcDbLine
 62
7
  6
CONTINUOUS
 10
-6.9285610642
 20
17.6279049219
 11
-7.7688686373
 21
17.1943131188
  0
LINE
  5
26A
100
AcDbEntity
  8
0
100
AcDbLine
 62
7
  6
CONTINUOUS
 10
-9.8963598083
 20
17.9406358127
 11
-9.1954238545
 21
18.2927400771
  0
LINE
  5
26B
100
AcDbEntity
  8
0
100
AcDbLine
 62
7
  6
CONTINUOUS
 10
-8.4293187969
 20
18.5545599737
 11
-8.4310200996
 21
18.5537092582
  0
LINE
  5
26C
100
AcDbEntity
  8
0
100
AcDbLine
 62
7
  6
CONTINUOUS
 10
-7.7160373897
 20
18.8999914024
 11
-8.429317029
 21
18.5545608305
  0
LINE
  5
26D
100
AcDbEntity
  8
0
100
AcDbLine
 62
253
  6
CONTINUOUS
 10
-7.6274490761
 20
18.8938894854
 11
-8.3407266846
 21
18.5484598969
  0
LINE
  5
26E
100
AcDbEntity
  8
0
100
AcDbLine
 62
7
  6
CONTINUOUS
 10
-6.0072725118
 20
18.0838012032
 11
-1.3688932273
 21
20.3300983367
  0
LINE
  5
26F
100
AcDbEntity
  8
SMUSSO
100
AcDbLine
 62
7
  6
CONTINUOUS
 10
-13.7147364267
 20
16.4930331217
 11
-13.745332817
 21
16.4789026947
  0
LWPOLYLINE
  5
270
100
AcDbEntity
  8
RACCORDO
100
AcDbPolyline
 62
7
  6
CONTINUOUS
 90
6
 70
0
 10
-10.4122572863
 20
-17.3200866606
 10
-10.349305634
 20
-17.3436543866
 10
-10.2825894101
 20
-17.3544668934
 10
-10.2171727267
 20
-17.3518683281
 10
-10.1549677766
 20
-17.3368375634
 10
-10.1339951646
 20
-17.328706453
  0
LINE
  5
271
100
AcDbEntity
  8
RACCORDO
100
AcDbLine
 62
253
  6
CONTINUOUS
 10
-10.4931683439
 20
-17.1564065735
 11
-20.188995703
 21
-12.308492894
  0
LINE
  5
272
100
AcDbEntity
  8
RACCORDO
100
AcDbLine
 62
253
  6
CONTINUOUS
 10
-20.188995703
 20
-12.1913697937
 11
-10.4931683439
 21
-17.0392834733
  0
LINE
  5
273
100
AcDbEntity
  8
DRAFT
100
AcDbLine
 62
7
  6
CONTINUOUS
 10
-9.6381935956
 20
-17.1151768577
 11
-9.231641515
 21
-17.318452898
  0
LINE
  5
274
100
AcDbEntity
  8
RACCORDO
100
AcDbLine
 62
253
  6
CONTINUOUS
 10
-19.9953521937
 20
-11.8357290644
 11
-10.2995228881
 21
-16.6836437172
  0
LINE
  5
275
100
AcDbEntity
  8
DRAFT
100
AcDbLine
 62
7
  6
CONTINUOUS
 10
-9.2525470347
 20
-16.9490868519
 11
-9.2423304153
 21
-16.9541951616
  0
LINE
  5
276
100
AcDbEntity
  8
RACCORDO
100
AcDbLine
 62
7
  6
CONTINUOUS
 10
-10.4152003882
 20
-17.3186687137
 11
-20.1113407887
 21
-12.4705979038
  0
LWPOLYLINE
  5
277
100
AcDbEntity
  8
RACCORDO
100
AcDbPolyline
 62
7
  6
CONTINUOUS
 90
9
 70
0
 10
-21.5097496425
 20
12.4462691923
 10
-21.5019991179
 20
12.3926348822
 10
-21.4897923225
 20
12.3392320465
 10
-21.4733097835
 20
12.2866135046
 10
-21.4527622254
 20
12.2353607642
 10
-21.4283563537
 20
12.1859964838
 10
-21.4003383004
 20
12.1390882208
 10
-21.3690157657
 20
12.0952384008
 10
-21.3344969222
 20
12.0547688648
  0
LINE
  5
278
100
AcDbEntity
  8
0
100
AcDbLine
 62
7
  6
CONTINUOUS
 10
-18.0213413163
 20
21.877943268
 11
-18.0213413163
 21
21.5379693339
  0
LINE
  5
279
100
AcDbEntity
  8
0
100
AcDbLine
 62
253
  6
CONTINUOUS
 10
-17.9481180116
 20
21.7895549204
 11
-17.9481180116
 21
21.4495809863
  0
LINE
  5
27A
100
AcDbEntity
  8
0
100
AcDbLine
 62
7
  6
CONTINUOUS
 10
-17.318348362
 20
21.0319643596
 11
-17.318348362
 21
20.7451928462
  0
LINE
  5
27B
100
AcDbEntity
  8
RACCORDO
100
AcDbLine
 62
253
  6
CONTINUOUS
 10
-17.2451314182
 20
20.9953558877
 11
-17.2451432808
 21
20.6506531592
  0
LINE
  5
27C
100
AcDbEntity
  8
DRAFT
100
AcDbLine
 62
7
  6
CONTINUOUS
 10
-9.4720957396
 20
15.1700267303
 11
-10.2363363446
 21
14.7244044585
  0
LINE
  5
27D
100
AcDbEntity
  8
0
100
AcDbLine
 62
7
  6
CONTINUOUS
 10
-6.0426278508
 20
16.0137698339
 11
-7.109458763
 21
15.4184454159
  0
LINE
  5
27E
100
AcDbEntity
  8
DRAFT
100
AcDbLine
 62
7
  6
CONTINUOUS
 10
1.572330543
 20
20.1810368864
 11
10.3962560291
 21
25.010012054
  0
LINE
  5
27F
100
AcDbEntity
  8
DRAFT
100
AcDbLine
 62
7
  6
CONTINUOUS
 10
-0.3312138285
 20
20.2577035509
 11
10.3962560291
 21
25.8907990613
  0
LINE
  5
280
100
AcDbEntity
  8
DRAFT
100
AcDbLine
 62
7
  6
CONTINUOUS
 10
8.4177058244
 20
23.0759623132
 11
2.2214524431
 21
19.8564759363
  0
LINE
  5
281
100
AcDbEntity
  8
0
100
AcDbLine
 62
7
  6
CONTINUOUS
 10
-5.5817974291
 20
15.9485507142
 11
-3.9986257342
 21
16.7607477615
  0
LINE
  5
282
100
AcDbEntity
  8
0
100
AcDbLine
 62
253
  6
CONTINUOUS
 10
-5.468711763
 20
15.942102739
 11
-3.8859551598
 21
16.7540868364
  0
LINE
  5
283
100
AcDbEntity
  8
0
100
AcDbLine
 62
7
  6
CONTINUOUS
 10
-7.109458763
 20
16.8646081817
 11
-6.0426278508
 21
17.39941048
  0
LINE
  5
284
100
AcDbEntity
  8
0
100
AcDbLine
 62
7
  6
CONTINUOUS
 10
-3.9986237645
 20
16.760748772
 11
-3.996887347
 21
16.761616995
  0
LINE
  5
285
100
AcDbEntity
  8
0
100
AcDbLine
 62
7
  6
CONTINUOUS
 10
-6.0426278508
 20
17.39941048
 11
-0.7681357817
 21
20.0297196139
  0
LINE
  5
286
100
AcDbEntity
  8
0
100
AcDbLine
 62
7
  6
CONTINUOUS
 10
-6.0426278508
 20
16.0137698339
 11
-0.7353171847
 21
18.660445104
  0
LINE
  5
287
100
AcDbEntity
  8
0
100
AcDbLine
 62
7
  6
CONTINUOUS
 10
-3.9968845831
 20
16.7616183415
 11
-3.4620173923
 21
17.022169094
  0
LINE
  5
288
100
AcDbEntity
  8
0
100
AcDbLine
 62
253
  6
CONTINUOUS
 10
-3.8859551598
 20
16.7540868364
 11
-3.3515052812
 21
17.0144343029
  0
LINE
  5
289
100
AcDbEntity
  8
0
100
AcDbLine
 62
7
  6
CONTINUOUS
 10
-0.6044823335
 20
19.6626476281
 11
0.7760998409
 21
20.3312427539
  0
LINE
  5
28A
100
AcDbEntity
  8
RACCORDO
100
AcDbLine
 62
7
  6
CONTINUOUS
 10
-18.8403959305
 20
-11.2184263221
 11
-9.2961837041
 21
-15.9905324353
  0
LINE
  5
28B
100
AcDbEntity
  8
0
100
AcDbLine
 62
253
  6
CONTINUOUS
 10
-8.6304561328
 20
-16.2651118984
 11
-9.1198030403
 21
-16.0204358576
  0
LINE
  5
28C
100
AcDbEntity
  8
0
100
AcDbLine
 62
253
  6
CONTINUOUS
 10
-7.7028330087
 20
-16.7289234605
 11
-8.4183240985
 21
-16.3711779156
  0
LINE
  5
28D
100
AcDbEntity
  8
0
100
AcDbLine
 62
253
  6
CONTINUOUS
 10
-21.853352941
 20
-9.6536634943
 11
-22.5688440308
 21
-9.2959179494
  0
LINE
  5
28E
100
AcDbEntity
  8
0
100
AcDbLine
 62
253
  6
CONTINUOUS
 10
-21.1518740742
 20
-10.0044007493
 11
-21.6412209066
 21
-9.7597295115
  0
LINE
  5
28F
100
AcDbEntity
  8
0
100
AcDbLine
 62
253
  6
CONTINUOUS
 10
-16.2695799412
 20
20.6103119511
 11
-16.2695799412
 21
20.9502858852
  0
LINE
  5
290
100
AcDbEntity
  8
0
100
AcDbLine
 62
253
  6
CONTINUOUS
 10
-15.9170579815
 20
20.6097992272
 11
-15.9170579815
 21
20.9497731613
  0
LINE
  5
291
100
AcDbEntity
  8
RACCORDO
100
AcDbLine
 62
253
  6
CONTINUOUS
 10
-15.5583339419
 20
19.8072484898
 11
-15.5583587009
 21
20.3236222304
  0
LINE
  5
292
100
AcDbEntity
  8
RACCORDO
100
AcDbLine
 62
253
  6
CONTINUOUS
 10
-15.2058292661
 20
19.8270580756
 11
-15.2058373734
 21
20.4612957043
  0
LINE
  5
293
100
AcDbEntity
  8
0
100
AcDbLine
 62
7
  6
CONTINUOUS
 10
-14.3157771907
 20
21.7524951648
 11
-14.3157771907
 21
21.0254503124
  0
LINE
  5
294
100
AcDbEntity
  8
RACCORDO
100
AcDbLine
 62
7
  6
CONTINUOUS
 10
-14.3157771907
 20
20.3237344727
 11
-14.3157771907
 21
21.0254503124
  0
LINE
  5
295
100
AcDbEntity
  8
RACCORDO
100
AcDbLine
 62
7
  6
CONTINUOUS
 10
-20.374137377
 20
-12.4946971768
 11
-20.2952651053
 21
-12.266229819
  0
LINE
  5
296
100
AcDbEntity
  8
RACCORDO
100
AcDbLine
 62
253
  6
CONTINUOUS
 10
-5.0100680287
 20
14.6347809744
 11
-5.0773328049
 21
14.5964122283
  0
LINE
  5
297
100
AcDbEntity
  8
0
100
AcDbLine
 62
253
  6
CONTINUOUS
 10
-3.7901736926
 20
15.1028337038
 11
-2.1888929018
 21
15.9055557073
  0
LINE
  5
298
100
AcDbEntity
  8
0
100
AcDbLine
 62
253
  6
CONTINUOUS
 10
-3.6133999889
 20
14.797944165
 11
-2.0121191981
 21
15.6006661685
  0
LINE
  5
299
100
AcDbEntity
  8
RACCORDO
100
AcDbLine
 62
253
  6
CONTINUOUS
 10
-21.8456514776
 20
7.2376826112
 11
-21.633455245
 21
7.3437807275
  0
LINE
  5
29A
100
AcDbEntity
  8
RACCORDO
100
AcDbLine
 62
7
  6
CONTINUOUS
 10
-21.4963021672
 20
7.4056888358
 11
-21.2840816007
 21
7.5117991191
  0
LINE
  5
29B
100
AcDbEntity
  8
RACCORDO
100
AcDbLine
 62
253
  6
CONTINUOUS
 10
-21.2702986106
 20
7.3926863216
 11
-21.0580700209
 21
7.4988006165
  0
LINE
  5
29C
100
AcDbEntity
  8
0
100
AcDbLine
 62
7
  6
CONTINUOUS
 10
3.6775160675
 20
18.8805346406
 11
-1.6443398632
 21
16.2228289648
  0
LINE
  5
29D
100
AcDbEntity
  8
0
100
AcDbLine
 62
253
  6
CONTINUOUS
 10
-2.1888929018
 20
15.9055557073
 11
-1.66062573
 21
16.1689945274
  0
LINE
  5
29E
100
AcDbEntity
  8
0
100
AcDbLine
 62
253
  6
CONTINUOUS
 10
-2.0121191981
 20
15.6006661685
 11
-1.4838520263
 21
15.8641049885
  0
LINE
  5
29F
100
AcDbEntity
  8
DRAFT
100
AcDbLine
 62
7
  6
CONTINUOUS
 10
8.1762448504
 20
20.678819203
 11
4.3643442636
 21
18.7804110813
  0
LINE
  5
2A0
100
AcDbEntity
  8
DRAFT
100
AcDbLine
 62
7
  6
CONTINUOUS
 10
8.3559975505
 20
20.588942853
 11
4.5155895272
 21
18.6763374175
  0
LINE
  5
2A1
100
AcDbEntity
  8
0
100
AcDbLine
 62
253
  6
CONTINUOUS
 10
-13.787510019
 20
22.0159339849
 11
-13.787510019
 21
21.6684024681
  0
LINE
  5
2A2
100
AcDbEntity
  8
0
100
AcDbLine
 62
7
  6
CONTINUOUS
 10
-13.715312162
 20
22.103806617
 11
-13.715312162
 21
21.7562751003
  0
LINE
  5
2A3
100
AcDbEntity
  8
DRAFT
100
AcDbLine
 62
7
  6
CONTINUOUS
 10
-13.7147364267
 20
16.4930331217
 11
-13.7147364267
 21
17.2913470739
  0
LINE
  5
2A4
100
AcDbEntity
  8
0
100
AcDbLine
 62
7
  6
CONTINUOUS
 10
-13.3903676348
 20
20.0050626176
 11
-13.3903676348
 21
18.5588998518
  0
LINE
  5
2A5
100
AcDbEntity
  8
0
100
AcDbLine
 62
7
  6
CONTINUOUS
 10
-12.7309577604
 20
18.2291949146
 11
-12.7309577604
 21
19.6753576804
  0
LINE
  5
2A6
100
AcDbEntity
  8
0
100
AcDbLine
 62
7
  6
CONTINUOUS
 10
-12.0176801519
 20
19.8586637114
 11
-12.0176801519
 21
18.6250493597
  0
LWPOLYLINE
  5
2A7
100
AcDbEntity
  8
RACCORDO
100
AcDbPolyline
 62
7
  6
CONTINUOUS
 90
16
 70
0
 10
-7.0131256076
 20
11.5773806145
 10
-7.0527458636
 20
11.5529014815
 10
-7.1133133585
 20
11.5099972924
 10
-7.1720562517
 20
11.4616348089
 10
-7.2286286537
 20
11.4082208439
 10
-7.2824784863
 20
11.3504476482
 10
-7.3332814233
 20
11.2888509289
 10
-7.3809407842
 20
11.223747977
 10
-7.4252097984
 20
11.155607284
 10
-7.4658387056
 20
11.0848973692
 10
-7.5026617651
 20
11.0120359143
 10
-7.5355060539
 20
10.9374147213
 10
-7.5641575904
 20
10.8614842143
 10
-7.5884553119
 20
10.7846535031
 10
-7.6082463951
 20
10.707211836
 10
-7.6233340833
 20
10.6295361699
  0
LINE
  5
2A8
100
AcDbEntity
  8
RACCORDO
100
AcDbLine
 62
7
  6
CONTINUOUS
 10
-0.7327026382
 20
13.9619011781
 11
4.319240897
 21
17.0480548102
  0
LINE
  5
2A9
100
AcDbEntity
  8
RACCORDO
100
AcDbLine
 62
253
  6
CONTINUOUS
 10
-5.79228522
 20
12.5023788962
 11
-7.1701673087
 21
11.6989474341
  0
LINE
  5
2AA
100
AcDbEntity
  8
RACCORDO
100
AcDbLine
 62
253
  6
CONTINUOUS
 10
-5.7214991745
 20
12.3801852741
 11
-7.0945326177
 21
11.5795810165
  0
LINE
  5
2AB
100
AcDbEntity
  8
RACCORDO
100
AcDbLine
 62
7
  6
CONTINUOUS
 10
-5.6356626769
 20
12.3805859764
 11
-7.013251346
 21
11.5773256049
  0
LINE
  5
2AC
100
AcDbEntity
  8
RACCORDO
100
AcDbLine
 62
253
  6
CONTINUOUS
 10
-5.5420276423
 20
12.3772501073
 11
-6.919909731
 21
11.5738186453
  0
LINE
  5
2AD
100
AcDbEntity
  8
RACCORDO
100
AcDbLine
 62
253
  6
CONTINUOUS
 10
-2.9021712734
 20
13.6752290792
 11
-2.0121191981
 21
14.1719054763
  0
LINE
  5
2AE
100
AcDbEntity
  8
RACCORDO
100
AcDbLine
 62
253
  6
CONTINUOUS
 10
-2.7541817474
 20
13.4348366996
 11
-1.8707385087
 21
13.9278251629
  0
LINE
  5
2AF
100
AcDbEntity
  8
0
100
AcDbLine
 62
253
  6
CONTINUOUS
 10
-1.6582966828
 20
13.8216042499
 11
-6.3226575464
 21
11.275192553
  0
LINE
  5
2B0
100
AcDbEntity
  8
0
100
AcDbLine
 62
253
  6
CONTINUOUS
 10
-1.3050124169
 20
13.2117512234
 11
-5.9568248064
 21
10.6721901072
  0
LINE
  5
2B1
100
AcDbEntity
  8
0
100
AcDbLine
 62
7
  6
CONTINUOUS
 10
4.6525713096
 20
17.5844521757
 11
-1.3905478241
 21
14.3897982133
  0
LINE
  5
2B2
100
AcDbEntity
  8
0
100
AcDbLine
 62
7
  6
CONTINUOUS
 10
4.6525713096
 20
17.984579436
 11
-1.8078218162
 21
14.5984352094
  0
LINE
  5
2B3
100
AcDbEntity
  8
0
100
AcDbLine
 62
253
  6
CONTINUOUS
 10
-0.9576253663
 20
14.1733369844
 11
-1.6585613201
 21
13.8217365686
  0
LINE
  5
2B4
100
AcDbEntity
  8
0
100
AcDbLine
 62
253
  6
CONTINUOUS
 10
-0.6040764631
 20
13.5635644867
 11
-1.3050124169
 21
13.2119640708
  0
LINE
  5
2B5
100
AcDbEntity
  8
ASSI
100
AcDbLine
 62
7
  6
CONTINUOUS
 10
4.3900287485
 20
17.234259656
 11
7.6752437042
 21
18.8768671339
  0
LINE
  5
2B6
100
AcDbEntity
  8
0
100
AcDbLine
 62
7
  6
CONTINUOUS
 10
3.7618923389
 20
16.5745839918
 11
2.5624879921
 21
15.9748818184
  0
LINE
  5
2B7
100
AcDbEntity
  8
0
100
AcDbLine
 62
7
  6
CONTINUOUS
 10
4.0932631888
 20
16.1745839918
 11
2.9000379296
 21
15.5779713622
  0
LINE
  5
2B8
100
AcDbEntity
  8
0
100
AcDbLine
 62
7
  6
CONTINUOUS
 10
4.0932631888
 20
16.1312827216
 11
2.9433391998
 21
15.5563207271
  0
LWPOLYLINE
  5
2B9
100
AcDbEntity
  8
RACCORDO
100
AcDbPolyline
 62
7
  6
CONTINUOUS
 90
9
 70
0
 10
-9.2662533611
 20
-15.8432165586
 10
-9.2612075915
 20
-16.138692196
 10
-9.2532938532
 20
-16.5209576088
 10
-9.2438295845
 20
-16.902393547
 10
-9.2328149227
 20
-17.282989195
 10
-9.2202500528
 20
-17.6627351552
 10
-9.2061351816
 20
-18.0416229667
 10
-9.190470525
 20
-18.419643945
 10
-9.1692378998
 20
-18.8801239533
  0
LWPOLYLINE
  5
2BA
100
AcDbEntity
  8
RACCORDO
100
AcDbPolyline
 62
7
  6
CONTINUOUS
 90
10
 70
0
 10
-9.3294847273
 20
-7.4675966183
 10
-9.3290760965
 20
-8.3339242712
 10
-9.3270007141
 20
-9.2875941476
 10
-9.3232214764
 20
-10.2403914228
 10
-9.3177383911
 20
-11.19231085
 10
-9.3105514794
 20
-12.1433480624
 10
-9.3016607642
 20
-13.0934990357
 10
-9.2910662745
 20
-14.0427594167
 10
-9.2787680661
 20
-14.9911239931
 10
-9.2662533631
 20
-15.8432165813
  0
LINE
  5
2BB
100
AcDbEntity
  8
0
100
AcDbLine
 62
253
  6
CONTINUOUS
 10
-10.3931911884
 20
17.812804878
 11
-10.3931911884
 21
19.0464192297
  0
LINE
  5
2BC
100
AcDbEntity
  8
0
100
AcDbLine
 62
253
  6
CONTINUOUS
 10
-10.1115879794
 20
17.8211885916
 11
-10.1115879794
 21
19.0458048629
  0
LINE
  5
2BD
100
AcDbEntity
  8
0
100
AcDbLine
 62
7
  6
CONTINUOUS
 10
-9.8963598083
 20
17.9406358127
 11
-9.8963598083
 21
19.1530772403
  0
LINE
  5
2BE
100
AcDbEntity
  8
0
100
AcDbLine
 62
7
  6
CONTINUOUS
 10
-9.1954238545
 20
18.2927400771
 11
-9.1954238545
 21
19.5046776561
  0
LWPOLYLINE
  5
2BF
100
AcDbEntity
  8
RACCORDO
100
AcDbPolyline
 62
7
  6
CONTINUOUS
 90
5
 70
0
 10
-8.0777994985
 20
5.77581775
 10
-8.0876171472
 20
5.7359826832
 10
-8.1005555805
 20
5.6999323416
 10
-8.1160864755
 20
5.6688714758
 10
-8.1330493295
 20
5.6440885269
  0
LINE
  5
2C0
100
AcDbEntity
  8
RACCORDO
100
AcDbLine
 62
7
  6
CONTINUOUS
 10
-5.0182828782
 20
14.571282995
 11
-5.0192896613
 21
14.5687226968
  0
LINE
  5
2C1
100
AcDbEntity
  8
0
100
AcDbLine
 62
253
  6
CONTINUOUS
 10
-1.4684551938
 20
15.4457825657
 11
-1.4684914541
 21
15.445738305
  0
LINE
  5
2C2
100
AcDbEntity
  8
0
100
AcDbLine
 62
253
  6
CONTINUOUS
 10
-2.0121191981
 20
14.873621316
 11
-1.4838520263
 21
15.5165734718
  0
LINE
  5
2C3
100
AcDbEntity
  8
0
100
AcDbLine
 62
7
  6
CONTINUOUS
 10
-2.0121191981
 20
14.7840908497
 11
-1.4684914539
 21
15.4457383052
  0
LWPOLYLINE
  5
2C4
100
AcDbEntity
  8
RACCORDO
100
AcDbPolyline
 62
7
  6
CONTINUOUS
 90
4
 70
0
 10
-8.1330493295
 20
5.6440885269
 10
-8.1498967045
 20
5.6261083957
 10
-8.1663566271
 20
5.613599479
 10
-8.1717921668
 20
5.6104160676
  0
LINE
  5
2C5
100
AcDbEntity
  8
DRAFT
100
AcDbLine
 62
7
  6
CONTINUOUS
 10
5.165014631
 20
14.4454830115
 11
19.8741844623
 21
21.1518348447
  0
LINE
  5
2C6
100
AcDbEntity
  8
RACCORDO
100
AcDbLine
 62
7
  6
CONTINUOUS
 10
-10.1115407894
 20
-6.0847519929
 11
-20.0236015512
 21
-1.1287216987
  0
LINE
  5
2C7
100
AcDbEntity
  8
RACCORDO
100
AcDbLine
 62
253
  6
CONTINUOUS
 10
-10.2416378583
 20
-5.8127565961
 11
-20.1535460781
 21
-0.8568024862
  0
LINE
  5
2C8
100
AcDbEntity
  8
RACCORDO
100
AcDbLine
 62
7
  6
CONTINUOUS
 10
-20.0236013699
 20
-1.1287217893
 11
-20.0239151899
 21
-1.1285645124
  0
LWPOLYLINE
  5
2C9
100
AcDbEntity
  8
RACCORDO
100
AcDbPolyline
 62
7
  6
CONTINUOUS
 90
23
 70
0
 10
-10.111545555
 20
-6.0847615273
 10
-10.0778580464
 20
-6.1027178677
 10
-10.0298951112
 20
-6.1319608667
 10
-9.9792885099
 20
-6.1673675987
 10
-9.9268069848
 20
-6.2089744617
 10
-9.8734529571
 20
-6.2564462864
 10
-9.8198526515
 20
-6.3096070396
 10
-9.7665779337
 20
-6.3682435642
 10
-9.7144389502
 20
-6.4317464262
 10
-9.6639952867
 20
-6.4996482822
 10
-9.6157257545
 20
-6.5714929441
 10
-9.570189427
 20
-6.6465784321
 10
-9.5277930553
 20
-6.7243051721
 10
-9.4888979034
 20
-6.8040489606
 10
-9.4538766481
 20
-6.8850109582
 10
-9.4229639749
 20
-6.9665241724
 10
-9.3963524599
 20
-7.0478869515
 10
-9.3742231043
 20
-7.1282070821
 10
-9.3566041434
 20
-7.206830581
 10
-9.3434702879
 20
-7.2830989414
 10
-9.3347619159
 20
-7.3561021854
 10
-9.3302788703
 20
-7.4251275461
 10
-9.329491784
 20
-7.4674667008
  0
LINE
  5
2CA
100
AcDbEntity
  8
0
100
AcDbLine
 62
7
  6
CONTINUOUS
 10
-8.7510002907
 20
18.2667451371
 11
-8.7510002907
 21
17.0357916584
  0
LINE
  5
2CB
100
AcDbEntity
  8
0
100
AcDbLine
 62
253
  6
CONTINUOUS
 10
-8.692421647
 20
18.196034459
 11
-8.692421647
 21
16.9624201073
  0
LINE
  5
2CC
100
AcDbEntity
  8
0
100
AcDbLine
 62
7
  6
CONTINUOUS
 10
-7.7688686373
 20
17.1943131188
 11
-7.7688686373
 21
15.7481503531
  0
LINE
  5
2CD
100
AcDbEntity
  8
RACCORDO
100
AcDbLine
 62
7
  6
CONTINUOUS
 10
-7.5466850947
 20
10.9077887277
 11
-7.5466850947
 21
11.0633293779
  0
LINE
  5
2CE
100
AcDbEntity
  8
0
100
AcDbLine
 62
7
  6
CONTINUOUS
 10
-7.109458763
 20
15.4184454159
 11
-7.109458763
 21
16.8646081817
  0
LINE
  5
2CF
100
AcDbEntity
  8
RACCORDO
100
AcDbLine
 62
7
  6
CONTINUOUS
 10
-8.0693451733
 20
5.8402203098
 11
-8.0693313459
 21
5.8404237184
  0
LWPOLYLINE
  5
2D0
100
AcDbEntity
  8
RACCORDO
100
AcDbPolyline
 62
7
  6
CONTINUOUS
 90
3
 70
0
 10
-8.0693451733
 20
5.8402203098
 10
-8.0712798261
 20
5.8187290847
 10
-8.0777994985
 20
5.77581775
  0
LWPOLYLINE
  5
2D1
100
AcDbEntity
  8
RACCORDO
100
AcDbPolyline
 62
7
  6
CONTINUOUS
 90
10
 70
0
 10
-7.6317326075
 20
10.5691166635
 10
-7.6820336098
 20
10.119407288
 10
-7.7410811225
 20
9.5695983619
 10
-7.7973240831
 20
9.020750863
 10
-7.850759446
 20
8.4728930054
 10
-7.9013849049
 20
7.9260482564
 10
-7.9491983964
 20
7.3802381698
 10
-7.9941977537
 20
6.8354859568
 10
-8.0363806924
 20
6.291819349
 10
-8.069322704
 20
5.840423111
  0
LINE
  5
2D2
100
AcDbEntity
  8
RACCORDO
100
AcDbLine
 62
7
  6
CONTINUOUS
 10
-7.6233340833
 20
10.6295361699
 11
-7.631726521
 21
10.5690586306
  0
LINE
  5
2D3
100
AcDbEntity
  8
DRAFT
100
AcDbLine
 62
7
  6
CONTINUOUS
 10
22.7779998819
 20
19.6999271349
 11
-0.5855630409
 21
8.0643724834
  0
LINE
  5
2D4
100
AcDbEntity
  8
RACCORDO
100
AcDbLine
 62
7
  6
CONTINUOUS
 10
-20.2470444457
 20
-1.0860353471
 11
-20.248364923
 21
-1.0866733208
  0
LINE
  5
2D5
100
AcDbEntity
  8
RACCORDO
100
AcDbLine
 62
253
  6
CONTINUOUS
 10
-20.5122132888
 20
-1.6295542331
 11
-19.7958547449
 21
-1.2850951758
  0
LINE
  5
2D6
100
AcDbEntity
  8
RACCORDO
100
AcDbLine
 62
253
  6
CONTINUOUS
 10
-8.1397645889
 20
5.9034603511
 11
-8.0620432844
 21
5.9401711981
  0
LINE
  5
2D7
100
AcDbEntity
  8
RACCORDO
100
AcDbLine
 62
7
  6
CONTINUOUS
 10
-8.2937436596
 20
5.621651898
 11
-8.0949504994
 21
5.7155497725
  0
LWPOLYLINE
  5
2D8
100
AcDbEntity
  8
RACCORDO
100
AcDbPolyline
 62
7
  6
CONTINUOUS
 90
11
 70
0
 10
-20.248346529
 20
-1.086664536
 10
-20.2394116863
 20
-1.0829315939
 10
-20.2277135743
 20
-1.0798891933
 10
-20.2127087801
 20
-1.0779610549
 10
-20.1938771131
 20
-1.0776692781
 10
-20.1705845743
 20
-1.0796481904
 10
-20.1426928357
 20
-1.0846188492
 10
-20.1109881891
 20
-1.0930702626
 10
-20.0763856192
 20
-1.1051898257
 10
-20.0395293931
 20
-1.1210237661
 10
-20.0239196499
 20
-1.1285734134
  0
LINE
  5
2D9
100
AcDbEntity
  8
DRAFT
100
AcDbLine
 62
7
  6
CONTINUOUS
 10
7.9882512569
 20
-6.3654760784
 11
1.6798276728
 21
-7.8431745094
  0
LINE
  5
2DA
100
AcDbEntity
  8
DRAFT
100
AcDbLine
 62
7
  6
CONTINUOUS
 10
7.0236743695
 20
-5.8831876347
 11
1.6798276728
 21
-7.0670511883
  0
LINE
  5
2DB
100
AcDbEntity
  8
0
100
AcDbLine
 62
7
  6
CONTINUOUS
 10
-6.2112155119
 20
22.8716682033
 11
-6.2112155119
 21
21.5536038936
  0
LINE
  5
2DC
100
AcDbEntity
  8
0
100
AcDbLine
 62
7
  6
CONTINUOUS
 10
-6.1949289466
 20
22.8611556492
 11
-6.1949289466
 21
21.613309568
  0
LINE
  5
2DD
100
AcDbEntity
  8
0
100
AcDbLine
 62
7
  6
CONTINUOUS
 10
-6.0426278508
 20
16.0137698339
 11
-6.0426278508
 21
17.39941048
  0
LINE
  5
2DE
100
AcDbEntity
  8
RACCORDO
100
AcDbLine
 62
7
  6
CONTINUOUS
 10
-5.7214991745
 20
12.3305354363
 11
-5.7214991745
 21
12.3801852741
  0
LINE
  5
2DF
100
AcDbEntity
  8
0
100
AcDbLine
 62
7
  6
CONTINUOUS
 10
-5.7176833237
 20
15.7261142717
 11
-5.7176833237
 21
15.3861403376
  0
LINE
  5
2E0
100
AcDbEntity
  8
0
100
AcDbLine
 62
253
  6
CONTINUOUS
 10
-5.644460019
 20
15.6377259241
 11
-5.644460019
 21
15.2977519899
  0
LINE
  5
2E1
100
AcDbEntity
  8
0
100
AcDbLine
 62
7
  6
CONTINUOUS
 10
-5.0146903694
 20
14.8801353633
 11
-5.0146903694
 21
14.5933638499
  0
LINE
  5
2E2
100
AcDbEntity
  8
RACCORDO
100
AcDbLine
 62
253
  6
CONTINUOUS
 10
-4.9414734256
 20
14.8435268914
 11
-4.9414852881
 21
14.4988241629
  0
LWPOLYLINE
  5
2E3
100
AcDbEntity
  8
RACCORDO
100
AcDbPolyline
 62
7
  6
CONTINUOUS
 90
3
 70
0
 10
-5.0146848382
 20
14.5931293432
 10
-5.0158327143
 20
14.5804442673
 10
-5.0182828782
 20
14.571282995
  0
LINE
  5
2E4
100
AcDbEntity
  8
RACCORDO
100
AcDbLine
 62
253
  6
CONTINUOUS
 10
-8.966640618
 20
1.2408573253
 11
-8.7544120283
 21
1.3469716201
  0
LWPOLYLINE
  5
2E5
100
AcDbEntity
  8
RACCORDO
100
AcDbPolyline
 62
7
  6
CONTINUOUS
 90
4
 70
0
 10
-21.3344969222
 20
12.0547688648
 10
-21.297198113
 20
12.0183817228
 10
-21.2579763191
 20
11.9869762105
 10
-21.21737882
 20
11.9609198117
  0
LINE
  5
2E6
100
AcDbEntity
  8
0
100
AcDbLine
 62
253
  6
CONTINUOUS
 10
-3.9659219486
 20
-27.1810951188
 11
-3.9659219486
 21
-26.8411211846
  0
LINE
  5
2E7
100
AcDbEntity
  8
0
100
AcDbLine
 62
253
  6
CONTINUOUS
 10
-3.9659219486
 20
14.4584829547
 11
-3.9659219486
 21
14.7984568889
  0
LINE
  5
2E8
100
AcDbEntity
  8
0
100
AcDbLine
 62
253
  6
CONTINUOUS
 10
-3.6133999889
 20
-27.1816078426
 11
-3.6133999889
 21
-26.8416339085
  0
LINE
  5
2E9
100
AcDbEntity
  8
0
100
AcDbLine
 62
253
  6
CONTINUOUS
 10
-3.6133999889
 20
14.4579702309
 11
-3.6133999889
 21
14.797944165
  0
LINE
  5
2EA
100
AcDbEntity
  8
RACCORDO
100
AcDbLine
 62
253
  6
CONTINUOUS
 10
-3.2546759493
 20
13.6554194935
 11
-3.2547007082
 21
14.1717929132
  0
LINE
  5
2EB
100
AcDbEntity
  8
RACCORDO
100
AcDbLine
 62
253
  6
CONTINUOUS
 10
-3.2547013405
 20
-25.8646247075
 11
-3.2546975609
 21
-25.7547973731
  0
LINE
  5
2EC
100
AcDbEntity
  8
RACCORDO
100
AcDbLine
 62
253
  6
CONTINUOUS
 10
-2.9021712734
 20
13.6752290792
 11
-2.9021793808
 21
14.309466708
  0
LINE
  5
2ED
100
AcDbEntity
  8
RACCORDO
100
AcDbLine
 62
253
  6
CONTINUOUS
 10
-2.9021793808
 20
-25.9901374314
 11
-2.9021739507
 21
-25.6068222806
  0
LINE
  5
2EE
100
AcDbEntity
  8
0
100
AcDbLine
 62
7
  6
CONTINUOUS
 10
-2.8931710978
 20
22.0028604992
 11
-2.8931710978
 21
21.5386821856
  0
LINE
  5
2EF
100
AcDbEntity
  8
RACCORDO
100
AcDbLine
 62
253
  6
CONTINUOUS
 10
-8.6227546694
 20
0.6262342071
 11
-8.4286895757
 21
0.7232667539
  0
LINE
  5
2F0
100
AcDbEntity
  8
0
100
AcDbLine
 62
253
  6
CONTINUOUS
 10
-7.7028330087
 20
-0.2744407886
 11
-8.4183240985
 21
0.0833047563
  0
LINE
  5
2F1
100
AcDbEntity
  8
0
100
AcDbLine
 62
253
  6
CONTINUOUS
 10
-8.6304561328
 20
0.1893707735
 11
-21.6412209066
 21
6.6947531604
  0
LINE
  5
2F2
100
AcDbEntity
  8
0
100
AcDbLine
 62
253
  6
CONTINUOUS
 10
-21.853352941
 20
6.8008191776
 11
-22.5688440308
 21
7.1585647225
  0
LINE
  5
2F3
100
AcDbEntity
  8
RACCORDO
100
AcDbLine
 62
7
  6
CONTINUOUS
 10
-21.2702986106
 20
7.3926863216
 11
-8.966640618
 21
1.2408573253
  0
LINE
  5
2F4
100
AcDbEntity
  8
RACCORDO
100
AcDbLine
 62
7
  6
CONTINUOUS
 10
-21.0580700209
 20
7.4988006165
 11
-8.7544120283
 21
1.3469716201
  0
LINE
  5
2F5
100
AcDbEntity
  8
RACCORDO
100
AcDbLine
 62
7
  6
CONTINUOUS
 10
-21.2635541103
 20
7.6558661929
 11
-8.9598961177
 21
1.5040371966
  0
LINE
  5
2F6
100
AcDbEntity
  8
DRAFT
100
AcDbLine
 62
7
  6
CONTINUOUS
 10
7.9882512569
 20
-6.3654760784
 11
7.0236743695
 21
-5.8831876347
  0
LINE
  5
2F7
100
AcDbEntity
  8
DRAFT
100
AcDbLine
 62
7
  6
CONTINUOUS
 10
3.0436942874
 20
-6.3752145569
 11
3.397247678
 21
-6.6283430745
  0
LINE
  5
2F8
100
AcDbEntity
  8
0
100
AcDbLine
 62
7
  6
CONTINUOUS
 10
-2.0121191981
 20
15.6006661685
 11
-2.0121191981
 21
14.873621316
  0
LINE
  5
2F9
100
AcDbEntity
  8
RACCORDO
100
AcDbLine
 62
7
  6
CONTINUOUS
 10
-2.0121191981
 20
-25.6745283905
 11
-2.0121191981
 21
-25.2332134482
  0
LINE
  5
2FA
100
AcDbEntity
  8
0
100
AcDbLine
 62
7
  6
CONTINUOUS
 10
-2.0121191981
 20
-25.6745283905
 11
-2.0121191981
 21
-26.401573243
  0
LINE
  5
2FB
100
AcDbEntity
  8
RACCORDO
100
AcDbLine
 62
7
  6
CONTINUOUS
 10
-2.0121191981
 20
14.1719054763
 11
-2.0121191981
 21
14.873621316
  0
LINE
  5
2FC
100
AcDbEntity
  8
0
100
AcDbLine
 62
253
  6
CONTINUOUS
 10
-1.4838520263
 20
15.8641049885
 11
-1.4838520263
 21
15.5165734718
  0
LINE
  5
2FD
100
AcDbEntity
  8
0
100
AcDbLine
 62
253
  6
CONTINUOUS
 10
-1.4838520263
 20
-25.7830306676
 11
-1.4838520263
 21
-26.1305621843
  0
LINE
  5
2FE
100
AcDbEntity
  8
0
100
AcDbLine
 62
7
  6
CONTINUOUS
 10
-1.4116541693
 20
15.9519776207
 11
-1.4116541693
 21
15.604446104
  0
LINE
  5
2FF
100
AcDbEntity
  8
0
100
AcDbLine
 62
7
  6
CONTINUOUS
 10
-1.4116541693
 20
-25.6951580354
 11
-1.4116541693
 21
-26.0426895521
  0
LINE
  5
300
100
AcDbEntity
  8
0
100
AcDbLine
 62
7
  6
CONTINUOUS
 10
-1.3050124169
 20
13.2119640708
 11
-1.3050124169
 21
12.9521417939
  0
LINE
  5
301
100
AcDbEntity
  8
0
100
AcDbLine
 62
7
  6
CONTINUOUS
 10
-1.3050124169
 20
-24.7199779265
 11
-1.3050124169
 21
-24.4601556496
  0
LINE
  5
302
100
AcDbEntity
  8
0
100
AcDbLine
 62
253
  6
CONTINUOUS
 10
-0.7353171847
 20
20.0441930689
 11
-0.7353171847
 21
19.4910223459
  0
LINE
  5
303
100
AcDbEntity
  8
0
100
AcDbLine
 62
253
  6
CONTINUOUS
 10
-0.7353171847
 20
19.1348464793
 11
-0.7353171847
 21
18.660445104
  0
LINE
  5
304
100
AcDbEntity
  8
0
100
AcDbLine
 62
7
  6
CONTINUOUS
 10
-0.6044823335
 20
20.0659809801
 11
-0.6044823335
 21
18.8180869619
  0
LINE
  5
305
100
AcDbEntity
  8
0
100
AcDbLine
 62
7
  6
CONTINUOUS
 10
-0.6040764631
 20
-24.3583007338
 11
-0.6040764631
 21
-23.6345790412
  0
LINE
  5
306
100
AcDbEntity
  8
0
100
AcDbLine
 62
7
  6
CONTINUOUS
 10
-0.6040764631
 20
12.8087805982
 11
-0.6040764631
 21
13.5635644867
  0
LINE
  5
307
100
AcDbEntity
  8
0
100
AcDbLine
 62
7
  6
CONTINUOUS
 10
-0.5855630409
 20
-23.6127735564
 11
-0.5855630409
 21
12.7995238871
  0
LINE
  5
308
100
AcDbEntity
  8
0
100
AcDbLine
 62
253
  6
CONTINUOUS
 10
-1.4116541693
 20
-26.0426895345
 11
-1.4116543143
 21
-26.0428241759
  0
LWPOLYLINE
  5
309
100
AcDbEntity
  8
RACCORDO
100
AcDbPolyline
 62
7
  6
CONTINUOUS
 90
7
 70
0
 10
-20.1569073137
 20
-11.823336001
 10
-20.17587554
 20
-11.8350171598
 10
-20.2252556116
 20
-11.8752707623
 10
-20.2666498032
 20
-11.925385949
 10
-20.2983852436
 20
-11.9846944373
 10
-20.3179467506
 20
-12.0495287348
 10
-20.3247768785
 20
-12.1163238219
  0
LINE
  5
30A
100
AcDbEntity
  8
RACCORDO
100
AcDbLine
 62
7
  6
CONTINUOUS
 10
-20.156929793
 20
-11.8233459835
 11
-20.1564271925
 21
-11.8230592917
  0
LINE
  5
30B
100
AcDbEntity
  8
DRAFT
100
AcDbLine
 62
7
  6
CONTINUOUS
 10
1.6798276728
 20
-1.4345865214
 11
1.6798276728
 21
-7.8431745094
  0
LINE
  5
30C
100
AcDbEntity
  8
RACCORDO
100
AcDbLine
 62
7
  6
CONTINUOUS
 10
-19.0735672666
 20
-11.2087488766
 11
-20.1564266158
 21
-11.8230589646
  0
LINE
  5
30D
100
AcDbEntity
  8
DRAFT
100
AcDbLine
 62
7
  6
CONTINUOUS
 10
1.6798276728
 20
-1.4345865214
 11
22.7779998819
 21
9.7552490302
  0
LINE
  5
30E
100
AcDbEntity
  8
RACCORDO
100
AcDbLine
 62
253
  6
CONTINUOUS
 10
-21.7032264146
 20
-13.6489196289
 11
-21.5029563328
 21
-13.548784588
  0
LINE
  5
30F
100
AcDbEntity
  8
0
100
AcDbLine
 62
7
  6
CONTINUOUS
 10
18.882886186
 20
6.549831468
 11
16.5847891471
 21
5.4007829486
  0
LINE
  5
310
100
AcDbEntity
  8
0
100
AcDbLine
 62
7
  6
CONTINUOUS
 10
15.3473522801
 20
4.782064515
 11
13.0492552412
 21
3.6330159956
  0
LINE
  5
311
100
AcDbEntity
  8
0
100
AcDbLine
 62
7
  6
CONTINUOUS
 10
11.8118183741
 20
3.0142975621
 11
9.9543083672
 21
2.0855425586
  0
LINE
  5
312
100
AcDbEntity
  8
DRAFT
100
AcDbLine
 62
7
  6
CONTINUOUS
 10
5.9930057402
 20
0.8529933126
 11
9.9543083672
 21
2.8178286187
  0
LWPOLYLINE
  5
313
100
AcDbEntity
  8
RACCORDO
100
AcDbPolyline
 62
7
  6
CONTINUOUS
 90
8
 70
0
 10
-8.562457728
 20
5.6328352689
 10
-8.5364869207
 20
5.6210163479
 10
-8.4943581806
 20
5.606651417
 10
-8.4520780724
 20
5.5980876085
 10
-8.410177912
 20
5.5954197888
 10
-8.3694571302
 20
5.598611759
 10
-8.330572318
 20
5.60742847
 10
-8.2923588489
 20
5.6223133803
  0
LINE
  5
314
100
AcDbEntity
  8
RACCORDO
100
AcDbLine
 62
253
  6
CONTINUOUS
 10
-8.5484378794
 20
5.3890465892
 11
-21.3013880619
 21
11.7655216804
  0
LINE
  5
315
100
AcDbEntity
  8
RACCORDO
100
AcDbLine
 62
7
  6
CONTINUOUS
 10
-8.5624577429
 20
5.6328352386
 11
-21.1985388079
 21
11.9508756498
  0
LINE
  5
316
100
AcDbEntity
  8
RACCORDO
100
AcDbLine
 62
253
  6
CONTINUOUS
 10
-8.5882599475
 20
5.6946275473
 11
-21.224260275
 21
12.0126277111
  0
LINE
  5
317
100
AcDbEntity
  8
DRAFT
100
AcDbLine
 62
7
  6
CONTINUOUS
 10
13.688627349
 20
-5.1347227144
 11
14.7816668551
 21
-5.6812424675
  0
LINE
  5
318
100
AcDbEntity
  8
DRAFT
100
AcDbLine
 62
7
  6
CONTINUOUS
 10
8.7410650492
 20
-1.7738412332
 11
10.3962560291
 21
-2.6014367232
  0
LINE
  5
319
100
AcDbEntity
  8
RACCORDO
100
AcDbLine
 62
7
  6
CONTINUOUS
 10
-21.21737882
 20
11.9609198117
 11
-21.1984871891
 21
11.9508499713
  0
LINE
  5
31A
100
AcDbEntity
  8
DRAFT
100
AcDbLine
 62
7
  6
CONTINUOUS
 10
3.0436942874
 20
-4.8477034665
 11
3.0436942874
 21
-6.3752145569
  0
LINE
  5
31B
100
AcDbEntity
  8
DRAFT
100
AcDbLine
 62
7
  6
CONTINUOUS
 10
3.397247678
 20
-6.6283430745
 11
3.397247678
 21
-6.6865778952
  0
LINE
  5
31C
100
AcDbEntity
  8
0
100
AcDbLine
 62
7
  6
CONTINUOUS
 10
4.0932631888
 20
16.1312827216
 11
4.0932631888
 21
16.1745839918
  0
LINE
  5
31D
100
AcDbEntity
  8
RACCORDO
100
AcDbLine
 62
7
  6
CONTINUOUS
 10
4.3900287485
 20
17.4456608305
 11
4.3900287485
 21
17.2085446205
  0
LINE
  5
31E
100
AcDbEntity
  8
0
100
AcDbLine
 62
253
  6
CONTINUOUS
 10
4.6525713096
 20
-19.1743803359
 11
4.6525713096
 21
-19.0908141994
  0
LINE
  5
31F
100
AcDbEntity
  8
0
100
AcDbLine
 62
253
  6
CONTINUOUS
 10
4.6525713096
 20
17.5844521757
 11
4.6525713096
 21
17.984579436
  0
LINE
  5
320
100
AcDbEntity
  8
0
100
AcDbLine
 62
7
  6
CONTINUOUS
 10
4.7929014095
 20
-19.1240679428
 11
4.7929014095
 21
-19.0179006471
  0
LINE
  5
321
100
AcDbEntity
  8
0
100
AcDbLine
 62
7
  6
CONTINUOUS
 10
4.7929014095
 20
17.7607181726
 11
4.7929014095
 21
18.2815962281
  0
LINE
  5
322
100
AcDbEntity
  8
DRAFT
100
AcDbLine
 62
7
  6
CONTINUOUS
 10
9.9543083672
 20
0.6127821783
 11
1.6798276728
 21
-4.6388805154
  0
LINE
  5
323
100
AcDbEntity
  8
DRAFT
100
AcDbLine
 62
7
  6
CONTINUOUS
 10
9.9543083672
 20
1.0857778111
 11
1.6798276728
 21
-3.7728551116
  0
LINE
  5
324
100
AcDbEntity
  8
0
100
AcDbLine
 62
7
  6
CONTINUOUS
 10
9.9543083672
 20
1.5905678118
 11
12.4128591381
 21
2.8198431972
  0
LINE
  5
325
100
AcDbEntity
  8
0
100
AcDbLine
 62
7
  6
CONTINUOUS
 10
13.0492552412
 20
3.1380412488
 11
15.9483930441
 21
4.5876101502
  0
LINE
  5
326
100
AcDbEntity
  8
0
100
AcDbLine
 62
7
  6
CONTINUOUS
 10
16.5847891471
 20
4.9058082017
 11
19.48392695
 21
6.3553771032
  0
LINE
  5
327
100
AcDbEntity
  8
RACCORDO
100
AcDbLine
 62
253
  6
CONTINUOUS
 10
-21.094613967
 20
-14.6031191531
 11
-20.8817956303
 21
-14.4967099847
  0
LINE
  5
328
100
AcDbEntity
  8
0
100
AcDbLine
 62
7
  6
CONTINUOUS
 10
19.8021250015
 20
5.6484507252
 11
9.9543083672
 21
0.724542408
  0
LINE
  5
329
100
AcDbEntity
  8
DRAFT
100
AcDbLine
 62
7
  6
CONTINUOUS
 10
1.6798276728
 20
-3.0184256136
 11
9.9543083672
 21
1.0857778111
  0
LINE
  5
32A
100
AcDbEntity
  8
ASSI
100
AcDbLine
 62
7
  6
CONTINUOUS
 10
5.7610301418
 20
15.9491564147
 11
5.7610301418
 21
15.3612677216
  0
LINE
  5
32B
100
AcDbEntity
  8
ASSI
100
AcDbLine
 62
7
  6
CONTINUOUS
 10
6.7610301418
 20
15.9491564147
 11
6.7610301418
 21
15.3612677216
  0
LINE
  5
32C
100
AcDbEntity
  8
DRAFT
100
AcDbLine
 62
7
  6
CONTINUOUS
 10
1.6798276728
 20
-5.5835407945
 11
9.9543083672
 21
-1.1192686293
  0
LINE
  5
32D
100
AcDbEntity
  8
DRAFT
100
AcDbLine
 62
7
  6
CONTINUOUS
 10
3.1138933689
 20
-6.42547398
 11
10.3962560291
 21
-2.6014367232
  0
LINE
  5
32E
100
AcDbEntity
  8
0
100
AcDbLine
 62
7
  6
CONTINUOUS
 10
18.8121755079
 20
3.5453492606
 11
9.9543083672
 21
-0.8835843097
  0
LINE
  5
32F
100
AcDbEntity
  8
DRAFT
100
AcDbLine
 62
7
  6
CONTINUOUS
 10
3.0436942874
 20
-6.3752145569
 11
1.6798276728
 21
-7.0571478642
  0
LINE
  5
330
100
AcDbEntity
  8
RACCORDO
100
AcDbLine
 62
253
  6
CONTINUOUS
 10
-21.880944666
 20
17.6564447971
 11
-21.2987187091
 21
17.3653317838
  0
LINE
  5
331
100
AcDbEntity
  8
RACCORDO
100
AcDbLine
 62
253
  6
CONTINUOUS
 10
-21.0448334879
 20
17.2383892081
 11
-7.8267417251
 21
10.6293433267
  0
LINE
  5
332
100
AcDbEntity
  8
RACCORDO
100
AcDbLine
 62
253
  6
CONTINUOUS
 10
-7.5728565116
 20
10.5024006851
 11
-6.9906305471
 21
10.2112877377
  0
LINE
  5
333
100
AcDbEntity
  8
RACCORDO
100
AcDbLine
 62
7
  6
CONTINUOUS
 10
9.9543083672
 20
2.8178286187
 11
9.8222000979
 21
2.8838827533
  0
LINE
  5
334
100
AcDbEntity
  8
RACCORDO
100
AcDbLine
 62
253
  6
CONTINUOUS
 10
-20.3770205367
 20
18.3023740481
 11
-7.1701673087
 21
11.6989474341
  0
LINE
  5
335
100
AcDbEntity
  8
RACCORDO
100
AcDbLine
 62
253
  6
CONTINUOUS
 10
-6.919909731
 20
11.5738186453
 11
-6.3226575464
 21
11.275192553
  0
LINE
  5
336
100
AcDbEntity
  8
RACCORDO
100
AcDbLine
 62
253
  6
CONTINUOUS
 10
-20.6272781144
 20
18.4275028369
 11
-21.224530299
 21
18.7261289293
  0
LINE
  5
337
100
AcDbEntity
  8
DRAFT
100
AcDbLine
 62
7
  6
CONTINUOUS
 10
7.9882512569
 20
-9.9656264604
 11
7.9882512569
 21
-6.3654760784
  0
LINE
  5
338
100
AcDbEntity
  8
DRAFT
100
AcDbLine
 62
7
  6
CONTINUOUS
 10
8.1762448504
 20
22.9505025767
 11
8.1762448504
 21
20.678819203
  0
LINE
  5
339
100
AcDbEntity
  8
DRAFT
100
AcDbLine
 62
7
  6
CONTINUOUS
 10
8.3559975505
 20
18.7310074538
 11
8.3559975505
 21
20.588942853
  0
LINE
  5
33A
100
AcDbEntity
  8
DRAFT
100
AcDbLine
 62
7
  6
CONTINUOUS
 10
8.4177058244
 20
23.0759623132
 11
8.4177058244
 21
23.9272320803
  0
LINE
  5
33B
100
AcDbEntity
  8
ASSI
100
AcDbLine
 62
7
  6
CONTINUOUS
 10
9.2965640477
 20
17.7169233677
 11
9.2965640477
 21
17.1290346746
  0
LINE
  5
33C
100
AcDbEntity
  8
RACCORDO
100
AcDbLine
 62
253
  6
CONTINUOUS
 10
-10.2995228881
 20
-16.6836437172
 11
-9.2961837041
 21
-15.9905324353
  0
LINE
  5
33D
100
AcDbEntity
  8
DRAFT
100
AcDbLine
 62
7
  6
CONTINUOUS
 10
5.3188831966
 20
-6.2608631652
 11
10.3962560291
 21
-3.4822237305
  0
LINE
  5
33E
100
AcDbEntity
  8
DRAFT
100
AcDbLine
 62
7
  6
CONTINUOUS
 10
3.1881176717
 20
-6.7329080776
 11
3.397247678
 21
-6.6283430745
  0
LINE
  5
33F
100
AcDbEntity
  8
DRAFT
100
AcDbLine
 62
7
  6
CONTINUOUS
 10
21.9144429409
 20
-2.327727995
 11
22.7779998819
 21
-2.7595064656
  0
LINE
  5
340
100
AcDbEntity
  8
0
100
AcDbLine
 62
7
  6
CONTINUOUS
 10
12.4128591381
 20
2.8198431972
 11
11.8118183741
 21
3.1203635792
  0
LINE
  5
341
100
AcDbEntity
  8
RACCORDO
100
AcDbLine
 62
7
  6
CONTINUOUS
 10
-19.2004394426
 20
19.2064560075
 11
-5.5420276423
 21
12.3772501073
  0
LINE
  5
342
100
AcDbEntity
  8
DRAFT
100
AcDbLine
 62
7
  6
CONTINUOUS
 10
-13.7147364267
 20
17.2913470739
 11
-9.4720957396
 21
15.1700267303
  0
LINE
  5
343
100
AcDbEntity
  8
DRAFT
100
AcDbLine
 62
7
  6
CONTINUOUS
 10
9.9543083672
 20
2.8178286187
 11
9.9543083672
 21
-1.1192686293
  0
LINE
  5
344
100
AcDbEntity
  8
ASSI
100
AcDbLine
 62
7
  6
CONTINUOUS
 10
10.2965640477
 20
17.7169233677
 11
10.2965640477
 21
17.1290346746
  0
LINE
  5
345
100
AcDbEntity
  8
DRAFT
100
AcDbLine
 62
7
  6
CONTINUOUS
 10
10.3962560291
 20
25.8907990613
 11
10.3962560291
 21
25.010012054
  0
LINE
  5
346
100
AcDbEntity
  8
DRAFT
100
AcDbLine
 62
7
  6
CONTINUOUS
 10
10.3962560291
 20
-3.4822237305
 11
10.3962560291
 21
-2.6014367232
  0
LINE
  5
347
100
AcDbEntity
  8
0
100
AcDbLine
 62
7
  6
CONTINUOUS
 10
11.7057523569
 20
3.6540848765
 11
11.7057523569
 21
3.8828621825
  0
LINE
  5
348
100
AcDbEntity
  8
0
100
AcDbLine
 62
7
  6
CONTINUOUS
 10
11.8118183741
 20
3.0142975621
 11
11.8118183741
 21
3.447310264
  0
LINE
  5
349
100
AcDbEntity
  8
DRAFT
100
AcDbLine
 62
7
  6
CONTINUOUS
 10
7.9882512569
 20
-7.8147863381
 11
13.688627349
 21
-5.1347227144
  0
LINE
  5
34A
100
AcDbEntity
  8
DRAFT
100
AcDbLine
 62
7
  6
CONTINUOUS
 10
21.9144429409
 20
-2.327727995
 11
14.7816668551
 21
-5.6812424675
  0
LINE
  5
34B
100
AcDbEntity
  8
RACCORDO
100
AcDbLine
 62
7
  6
CONTINUOUS
 10
-9.2426022063
 20
-16.9448038198
 11
-10.1339975351
 21
-17.3287074806
  0
LINE
  5
34C
100
AcDbEntity
  8
RACCORDO
100
AcDbLine
 62
253
  6
CONTINUOUS
 10
-17.3791449917
 20
20.4106663711
 11
-15.6923792674
 21
19.567283509
  0
LINE
  5
34D
100
AcDbEntity
  8
RACCORDO
100
AcDbLine
 62
253
  6
CONTINUOUS
 10
-5.075486999
 20
14.2588373748
 11
-3.3887212748
 21
13.4154545127
  0
LINE
  5
34E
100
AcDbEntity
  8
0
100
AcDbLine
 62
7
  6
CONTINUOUS
 10
-7.109458763
 20
15.4184454159
 11
-7.7688686373
 21
15.7481503531
  0
LINE
  5
34F
100
AcDbEntity
  8
0
100
AcDbLine
 62
7
  6
CONTINUOUS
 10
-12.7309577604
 20
18.2291949146
 11
-13.3903676348
 21
18.5588998518
  0
LINE
  5
350
100
AcDbEntity
  8
RACCORDO
100
AcDbLine
 62
253
  6
CONTINUOUS
 10
-17.2451432808
 20
20.6506531592
 11
-15.5583339419
 21
19.8072484898
  0
LINE
  5
351
100
AcDbEntity
  8
RACCORDO
100
AcDbLine
 62
253
  6
CONTINUOUS
 10
-4.9414852881
 20
14.4988241629
 11
-3.2546759493
 21
13.6554194935
  0
LINE
  5
352
100
AcDbEntity
  8
0
100
AcDbLine
 62
7
  6
CONTINUOUS
 10
-17.8831447152
 20
21.3143625362
 11
-16.2046066448
 21
20.475093501
  0
LINE
  5
353
100
AcDbEntity
  8
0
100
AcDbLine
 62
7
  6
CONTINUOUS
 10
-5.5794867225
 20
15.1625335398
 11
-3.9009486521
 21
14.3232645046
  0
LINE
  5
354
100
AcDbEntity
  8
0
100
AcDbLine
 62
253
  6
CONTINUOUS
 10
-17.9481180116
 20
21.4495809863
 11
-16.2695799412
 21
20.6103119511
  0
LINE
  5
355
100
AcDbEntity
  8
0
100
AcDbLine
 62
253
  6
CONTINUOUS
 10
-5.644460019
 20
15.2977519899
 11
-3.9659219486
 21
14.4584829547
  0
LINE
  5
356
100
AcDbEntity
  8
0
100
AcDbLine
 62
7
  6
CONTINUOUS
 10
-0.5855630409
 20
12.7995238871
 11
-0.6040764631
 21
12.8087805982
  0
LINE
  5
357
100
AcDbEntity
  8
0
100
AcDbLine
 62
7
  6
CONTINUOUS
 10
15.9483930441
 20
4.5876101502
 11
15.3473522801
 21
4.8881305322
  0
LINE
  5
358
100
AcDbEntity
  8
0
100
AcDbLine
 62
7
  6
CONTINUOUS
 10
-12.0176801519
 20
18.6250493597
 11
-10.3931911884
 21
17.812804878
  0
LINE
  5
359
100
AcDbEntity
  8
0
100
AcDbLine
 62
7
  6
CONTINUOUS
 10
-8.692421647
 20
16.9624201073
 11
-7.7688686373
 21
16.5006436025
  0
LINE
  5
35A
100
AcDbEntity
  8
0
100
AcDbLine
 62
253
  6
CONTINUOUS
 10
-3.9659219486
 20
14.7984568889
 11
-5.644460019
 21
15.6377259241
  0
LINE
  5
35B
100
AcDbEntity
  8
0
100
AcDbLine
 62
253
  6
CONTINUOUS
 10
-16.2695799412
 20
20.9502858852
 11
-17.9481180116
 21
21.7895549204
  0
LINE
  5
35C
100
AcDbEntity
  8
RACCORDO
100
AcDbLine
 62
7
  6
CONTINUOUS
 10
-14.1743965014
 20
20.0796541592
 11
-13.3903676348
 21
19.6876397259
  0
LINE
  5
35D
100
AcDbEntity
  8
RACCORDO
100
AcDbLine
 62
7
  6
CONTINUOUS
 10
-6.0426278508
 20
16.0137698339
 11
-5.690812252
 21
15.8378620345
  0
LINE
  5
35E
100
AcDbEntity
  8
RACCORDO
100
AcDbLine
 62
7
  6
CONTINUOUS
 10
-1.8707385087
 20
13.9278251629
 11
-1.6582966828
 21
13.8216042499
  0
LINE
  5
35F
100
AcDbEntity
  8
0
100
AcDbLine
 62
7
  6
CONTINUOUS
 10
-8.7510002907
 20
17.3679560539
 11
-9.8963598083
 21
17.9406358127
  0
LINE
  5
360
100
AcDbEntity
  8
0
100
AcDbLine
 62
253
  6
CONTINUOUS
 10
-3.7901736926
 20
15.1028337038
 11
-5.468711763
 21
15.942102739
  0
LINE
  5
361
100
AcDbEntity
  8
0
100
AcDbLine
 62
253
  6
CONTINUOUS
 10
-16.0938316852
 20
21.2546627002
 11
-17.7723697556
 21
22.0939317354
  0
LINE
  5
362
100
AcDbEntity
  8
0
100
AcDbLine
 62
7
  6
CONTINUOUS
 10
-13.3903676348
 20
20.0050626176
 11
-12.7309577604
 21
19.6753576804
  0
LINE
  5
363
100
AcDbEntity
  8
0
100
AcDbLine
 62
7
  6
CONTINUOUS
 10
-7.7688686373
 20
17.1943131188
 11
-7.109458763
 21
16.8646081817
  0
LINE
  5
364
100
AcDbEntity
  8
ASSI
100
AcDbLine
 62
7
  6
CONTINUOUS
 10
11.8118183741
 20
3.447310264
 11
11.6134982222
 21
3.833933366
  0
LINE
  5
365
100
AcDbEntity
  8
0
100
AcDbLine
 62
7
  6
CONTINUOUS
 10
12.4128591381
 20
4.2578903376
 11
12.4128591381
 21
2.8198431972
  0
LINE
  5
366
100
AcDbEntity
  8
0
100
AcDbLine
 62
7
  6
CONTINUOUS
 10
13.0492552412
 20
4.5954156772
 11
13.0492552412
 21
3.1380412488
  0
LINE
  5
367
100
AcDbEntity
  8
0
100
AcDbLine
 62
253
  6
CONTINUOUS
 10
-3.2552155688
 20
-25.8643675933
 11
-3.8775336009
 21
-26.6094270108
  0
LINE
  5
368
100
AcDbEntity
  8
0
100
AcDbLine
 62
253
  6
CONTINUOUS
 10
-2.9021793808
 20
-25.9901374314
 11
-3.6133999889
 21
-26.8416339085
  0
LINE
  5
369
100
AcDbEntity
  8
RACCORDO
100
AcDbLine
 62
253
  6
CONTINUOUS
 10
-8.4803296064
 20
-20.260368033
 11
-8.2800595313
 21
-20.1602329955
  0
LINE
  5
36A
100
AcDbEntity
  8
RACCORDO
100
AcDbLine
 62
7
  6
CONTINUOUS
 10
-8.5902603249
 20
-20.5207969961
 11
-8.3775190892
 21
-20.4144263782
  0
LINE
  5
36B
100
AcDbEntity
  8
DRAFT
100
AcDbLine
 62
7
  6
CONTINUOUS
 10
7.9882512569
 20
-9.9656264604
 11
22.7779998819
 21
-2.7595064656
  0
LINE
  5
36C
100
AcDbEntity
  8
0
100
AcDbLine
 62
7
  6
CONTINUOUS
 10
-0.6040764631
 20
12.8087805982
 11
-1.3050124169
 21
12.9521417939
  0
LINE
  5
36D
100
AcDbEntity
  8
0
100
AcDbLine
 62
7
  6
CONTINUOUS
 10
-3.8402434824
 20
14.3021490701
 11
-3.2159440602
 21
14.1717947715
  0
LINE
  5
36E
100
AcDbEntity
  8
0
100
AcDbLine
 62
253
  6
CONTINUOUS
 10
-3.6133999889
 20
14.4579702309
 11
-2.9021793808
 21
14.309466708
  0
LINE
  5
36F
100
AcDbEntity
  8
0
100
AcDbLine
 62
7
  6
CONTINUOUS
 10
-0.5855630409
 20
12.7995238871
 11
-1.3050124169
 21
12.9521417939
  0
LINE
  5
370
100
AcDbEntity
  8
0
100
AcDbLine
 62
253
  6
CONTINUOUS
 10
-13.8535087743
 20
22.3274134204
 11
-13.8536932542
 21
22.3275054069
  0
LINE
  5
371
100
AcDbEntity
  8
0
100
AcDbLine
 62
7
  6
CONTINUOUS
 10
-14.3157771907
 20
20.8524128966
 11
-13.6127842364
 21
20.5009164195
  0
LINE
  5
372
100
AcDbEntity
  8
0
100
AcDbLine
 62
7
  6
CONTINUOUS
 10
-2.0121191981
 20
14.7005839003
 11
-0.9576253663
 21
14.1733369844
  0
LINE
  5
373
100
AcDbEntity
  8
0
100
AcDbLine
 62
7
  6
CONTINUOUS
 10
-9.1954238545
 20
18.2927400771
 11
-8.7510002907
 21
18.0705282952
  0
LINE
  5
374
100
AcDbEntity
  8
0
100
AcDbLine
 62
253
  6
CONTINUOUS
 10
-7.2374225723
 20
17.4685349216
 11
-8.692421647
 21
18.196034459
  0
LINE
  5
375
100
AcDbEntity
  8
0
100
AcDbLine
 62
253
  6
CONTINUOUS
 10
-10.3931911884
 20
19.0464192297
 11
-12.0176801519
 21
19.8586637114
  0
LINE
  5
376
100
AcDbEntity
  8
0
100
AcDbLine
 62
253
  6
CONTINUOUS
 10
-6.9285610642
 20
17.6279049219
 11
-8.5518230422
 21
18.4395359109
  0
LINE
  5
377
100
AcDbEntity
  8
0
100
AcDbLine
 62
253
  6
CONTINUOUS
 10
-10.2525925837
 20
19.2899206817
 11
-11.8758545616
 21
20.1015516707
  0
LINE
  5
378
100
AcDbEntity
  8
0
100
AcDbLine
 62
7
  6
CONTINUOUS
 10
-12.3358782034
 20
20.5460356563
 11
-10.0377793696
 21
19.3969862394
  0
LINE
  5
379
100
AcDbEntity
  8
0
100
AcDbLine
 62
7
  6
CONTINUOUS
 10
-8.3407266846
 20
18.5484598969
 11
-6.0426278508
 21
17.39941048
  0
LINE
  5
37A
100
AcDbEntity
  8
0
100
AcDbLine
 62
7
  6
CONTINUOUS
 10
-2.1888929018
 20
15.9055557073
 11
-3.8859551598
 21
16.7540868364
  0
LINE
  5
37B
100
AcDbEntity
  8
0
100
AcDbLine
 62
7
  6
CONTINUOUS
 10
-14.4925508944
 20
22.0573847037
 11
-16.1896131525
 21
22.9059158327
  0
LINE
  5
37C
100
AcDbEntity
  8
0
100
AcDbLine
 62
7
  6
CONTINUOUS
 10
-10.9570199801
 20
20.5586749374
 11
-9.3368434158
 21
19.7485866552
  0
LINE
  5
37D
100
AcDbEntity
  8
0
100
AcDbLine
 62
7
  6
CONTINUOUS
 10
-7.6274490761
 20
18.8938894854
 11
-6.0072725118
 21
18.0838012032
  0
LINE
  5
37E
100
AcDbEntity
  8
0
100
AcDbLine
 62
253
  6
CONTINUOUS
 10
-15.6551632738
 20
23.1662632993
 11
-13.9642837227
 21
22.3208235237
  0
LINE
  5
37F
100
AcDbEntity
  8
0
100
AcDbLine
 62
253
  6
CONTINUOUS
 10
-3.3515052812
 20
17.0144343029
 11
-1.66062573
 21
16.1689945274
  0
LINE
  5
380
100
AcDbEntity
  8
0
100
AcDbLine
 62
7
  6
CONTINUOUS
 10
-15.5443883142
 20
23.1728531904
 11
-13.8535087631
 21
22.3274134148
  0
LINE
  5
381
100
AcDbEntity
  8
0
100
AcDbLine
 62
7
  6
CONTINUOUS
 10
-3.2407303216
 20
17.021024194
 11
-1.5498507705
 21
16.1755844185
  0
LINE
  5
382
100
AcDbEntity
  8
0
100
AcDbLine
 62
7
  6
CONTINUOUS
 10
19.48392695
 20
6.3553771032
 11
18.882886186
 21
6.6558974852
  0
LINE
  5
383
100
AcDbEntity
  8
0
100
AcDbLine
 62
7
  6
CONTINUOUS
 10
15.2412862629
 20
5.4218518295
 11
15.2412862629
 21
5.7580029579
  0
LINE
  5
384
100
AcDbEntity
  8
0
100
AcDbLine
 62
7
  6
CONTINUOUS
 10
15.3473522801
 20
4.782064515
 11
15.3473522801
 21
5.2150772169
  0
LINE
  5
385
100
AcDbEntity
  8
0
100
AcDbLine
 62
7
  6
CONTINUOUS
 10
15.9483930441
 20
6.1330311129
 11
15.9483930441
 21
4.5876101502
  0
LINE
  5
386
100
AcDbEntity
  8
0
100
AcDbLine
 62
7
  6
CONTINUOUS
 10
16.5847891471
 20
6.4705564525
 11
16.5847891471
 21
4.9058082017
  0
LINE
  5
387
100
AcDbEntity
  8
0
100
AcDbLine
 62
7
  6
CONTINUOUS
 10
18.8121755079
 20
3.5453492606
 11
19.8021250015
 21
5.6484507252
  0
LINE
  5
388
100
AcDbEntity
  8
0
100
AcDbLine
 62
7
  6
CONTINUOUS
 10
-1.3050124169
 20
-24.4601556496
 11
-0.5855630409
 21
-23.6127735564
  0
LINE
  5
389
100
AcDbEntity
  8
RACCORDO
100
AcDbLine
 62
253
  6
CONTINUOUS
 10
-8.7909559743
 20
-20.7549481494
 11
-8.5781376376
 21
-20.6485389811
  0
LINE
  5
38A
100
AcDbEntity
  8
0
100
AcDbLine
 62
7
  6
CONTINUOUS
 10
4.8380051947
 20
14.8068170388
 11
4.4423465762
 21
14.8068170388
  0
LINE
  5
38B
100
AcDbEntity
  8
0
100
AcDbLine
 62
7
  6
CONTINUOUS
 10
8.3508808183
 20
16.1312827216
 11
6.6145835324
 21
16.1312827216
  0
LINE
  5
38C
100
AcDbEntity
  8
0
100
AcDbLine
 62
7
  6
CONTINUOUS
 10
5.9195860926
 20
16.1312827216
 11
4.0932631888
 21
16.1312827216
  0
LINE
  5
38D
100
AcDbEntity
  8
0
100
AcDbLine
 62
7
  6
CONTINUOUS
 10
8.3735391007
 20
16.1745839918
 11
6.4765971427
 21
16.1745839918
  0
LINE
  5
38E
100
AcDbEntity
  8
0
100
AcDbLine
 62
7
  6
CONTINUOUS
 10
6.0471506978
 20
16.1745839918
 11
4.0932631888
 21
16.1745839918
  0
LINE
  5
38F
100
AcDbEntity
  8
0
100
AcDbLine
 62
7
  6
CONTINUOUS
 10
8.3735391007
 20
16.5745839918
 11
3.7618923389
 21
16.5745839918
  0
LINE
  5
390
100
AcDbEntity
  8
0
100
AcDbLine
 62
7
  6
CONTINUOUS
 10
-16.1439014751
 20
20.4539780664
 11
-15.5196035892
 21
20.3236240886
  0
LINE
  5
391
100
AcDbEntity
  8
0
100
AcDbLine
 62
253
  6
CONTINUOUS
 10
-15.9170579815
 20
20.6097992272
 11
-15.2058373734
 21
20.4612957043
  0
LINE
  5
392
100
AcDbEntity
  8
DRAFT
100
AcDbLine
 62
7
  6
CONTINUOUS
 10
2.3571241559
 20
15.849428249
 11
5.165014631
 21
14.4454830115
  0
LINE
  5
393
100
AcDbEntity
  8
ASSI
100
AcDbLine
 62
7
  6
CONTINUOUS
 10
15.3473522801
 20
5.2150772169
 11
15.1057337815
 21
5.6861100015
  0
LINE
  5
394
100
AcDbEntity
  8
0
100
AcDbLine
 62
7
  6
CONTINUOUS
 10
18.7768201688
 20
7.1896187824
 11
18.7768201688
 21
7.6331437332
  0
LINE
  5
395
100
AcDbEntity
  8
0
100
AcDbLine
 62
7
  6
CONTINUOUS
 10
18.882886186
 20
6.549831468
 11
18.882886186
 21
6.9828441699
  0
LINE
  5
396
100
AcDbEntity
  8
DRAFT
100
AcDbLine
 62
7
  6
CONTINUOUS
 10
22.7779998819
 20
-9.673095657
 11
-0.5855630409
 21
-21.812475362
  0
LINE
  5
397
100
AcDbEntity
  8
0
100
AcDbLine
 62
7
  6
CONTINUOUS
 10
3.6775160675
 20
-19.8065002799
 11
-0.5855630409
 21
-21.9966094757
  0
LINE
  5
398
100
AcDbEntity
  8
0
100
AcDbLine
 62
7
  6
CONTINUOUS
 10
4.6525713096
 20
-19.1743803359
 11
-0.5855630409
 21
-21.8531165536
  0
LINE
  5
399
100
AcDbEntity
  8
0
100
AcDbLine
 62
7
  6
CONTINUOUS
 10
-1.8164476818
 20
20.1133544642
 11
-4.479564208
 21
21.4449127273
  0
LINE
  5
39A
100
AcDbEntity
  8
0
100
AcDbLine
 62
253
  6
CONTINUOUS
 10
-6.9996547974
 20
23.1454791218
 11
-6.3988973519
 21
22.845100399
  0
LINE
  5
39B
100
AcDbEntity
  8
0
100
AcDbLine
 62
253
  6
CONTINUOUS
 10
-1.3688932273
 20
20.3300983367
 11
-0.7681357817
 21
20.0297196139
  0
LINE
  5
39C
100
AcDbEntity
  8
0
100
AcDbLine
 62
7
  6
CONTINUOUS
 10
-6.7151866158
 20
23.1271997727
 11
-6.2097971049
 21
22.8745050172
  0
LINE
  5
39D
100
AcDbEntity
  8
0
100
AcDbLine
 62
7
  6
CONTINUOUS
 10
-1.1246664097
 20
20.3319396696
 11
-0.6095038183
 21
20.074358374
  0
LINE
  5
39E
100
AcDbEntity
  8
0
100
AcDbLine
 62
7
  6
CONTINUOUS
 10
-2.8931710978
 20
21.5386821856
 11
0.1388899986
 21
20.0226516374
  0
LINE
  5
39F
100
AcDbEntity
  8
0
100
AcDbLine
 62
253
  6
CONTINUOUS
 10
-6.4914454211
 20
23.9650153849
 11
-3.5900291945
 21
22.5143072716
  0
LINE
  5
3A0
100
AcDbEntity
  8
0
100
AcDbLine
 62
253
  6
CONTINUOUS
 10
0.7760998409
 20
20.3312427539
 11
3.6775160675
 21
18.8805346406
  0
LINE
  5
3A1
100
AcDbEntity
  8
0
100
AcDbLine
 62
7
  6
CONTINUOUS
 10
-6.2024466902
 20
24.068425503
 11
-3.1507909339
 21
22.5425976248
  0
LINE
  5
3A2
100
AcDbEntity
  8
0
100
AcDbLine
 62
7
  6
CONTINUOUS
 10
1.2230612568
 20
20.3556715295
 11
4.2747170131
 21
18.8298436513
  0
LINE
  5
3A3
100
AcDbEntity
  8
0
100
AcDbLine
 62
7
  6
CONTINUOUS
 10
19.48392695
 20
8.0081718883
 11
19.48392695
 21
6.3553771032
  0
LINE
  5
3A4
100
AcDbEntity
  8
0
100
AcDbLine
 62
7
  6
CONTINUOUS
 10
19.8021250015
 20
5.6484507252
 11
19.8021250015
 21
8.1769345581
  0
LINE
  5
3A5
100
AcDbEntity
  8
0
100
AcDbLine
 62
253
  6
CONTINUOUS
 10
-1.3050124169
 20
-24.7199779265
 11
-0.6040764631
 21
-24.3583007338
  0
LINE
  5
3A6
100
AcDbEntity
  8
0
100
AcDbLine
 62
7
  6
CONTINUOUS
 10
-1.4337115643
 20
-24.9897809482
 11
-0.7318868048
 21
-24.6276451391
  0
LINE
  5
3A7
100
AcDbEntity
  8
ASSI
100
AcDbLine
 62
7
  6
CONTINUOUS
 10
9.0894572666
 20
18.8768671339
 11
11.8533761487
 21
17.4949076928
  0
LINE
  5
3A8
100
AcDbEntity
  8
ASSI
100
AcDbLine
 62
7
  6
CONTINUOUS
 10
18.882886186
 20
6.9828441699
 11
18.5979693409
 21
7.5382866369
  0
LINE
  5
3A9
100
AcDbEntity
  8
DRAFT
100
AcDbLine
 62
7
  6
CONTINUOUS
 10
22.7779998819
 20
19.6999271349
 11
22.7779998819
 21
9.7552490302
  0
LINE
  5
3AA
100
AcDbEntity
  8
DRAFT
100
AcDbLine
 62
7
  6
CONTINUOUS
 10
22.7779998819
 20
-2.7595064656
 11
22.7779998819
 21
-9.673095657
  0
LINE
  5
3AB
100
AcDbEntity
  8
0
100
AcDbLine
 62
253
  6
CONTINUOUS
 10
-2.0121191981
 20
-26.401573243
 11
-1.4838520263
 21
-26.1305621843
  0
LINE
  5
3AC
100
AcDbEntity
  8
0
100
AcDbLine
 62
7
  6
CONTINUOUS
 10
-2.0762223274
 20
-26.5363500032
 11
-1.5475400639
 21
-26.2651259946
  0
LINE
  5
3AD
100
AcDbEntity
  8
0
100
AcDbLine
 62
7
  6
CONTINUOUS
 10
-2.0762243011
 20
-26.5363510158
 11
-2.0779607129
 21
-26.537219236
  0
LINE
  5
3AE
100
AcDbEntity
  8
0
100
AcDbLine
 62
253
  6
CONTINUOUS
 10
-3.6133999889
 20
-27.1816078426
 11
-2.0121191981
 21
-26.401573243
  0
LINE
  5
3AF
100
AcDbEntity
  8
0
100
AcDbLine
 62
7
  6
CONTINUOUS
 10
-3.6796615815
 20
-27.3174584688
 11
-2.0779634785
 21
-26.5372205832
  0
LINE
  5
3B0
100
AcDbEntity
  8
0
100
AcDbLine
 62
253
  6
CONTINUOUS
 10
-5.9568248064
 20
-26.6724069699
 11
-1.3050124169
 21
-24.719765079
  0
LINE
  5
3B1
100
AcDbEntity
  8
0
100
AcDbLine
 62
7
  6
CONTINUOUS
 10
-6.1106320518
 20
-26.9536026683
 11
-1.4472800333
 21
-24.9961169098
  0
LINE
  5
3B2
100
AcDbEntity
  8
0
100
AcDbLine
 62
7
  6
CONTINUOUS
 10
-4.479564208
 20
21.4449127273
 11
-2.8931710978
 21
21.5386821856
  0
LINE
  5
3B3
100
AcDbEntity
  8
DRAFT
100
AcDbLine
 62
7
  6
CONTINUOUS
 10
8.1762448504
 20
20.678819203
 11
8.3559975505
 21
20.588942853
  0
LINE
  5
3B4
100
AcDbEntity
  8
DRAFT
100
AcDbLine
 62
7
  6
CONTINUOUS
 10
7.4924406095
 20
27.3427067711
 11
10.3962560291
 21
25.8907990613
  0
LINE
  5
3B5
100
AcDbEntity
  8
DRAFT
100
AcDbLine
 62
7
  6
CONTINUOUS
 10
19.8741844623
 20
21.1518348447
 11
22.7779998819
 21
19.6999271349
  0
ARC
  5
3B6
100
AcDbEntity
  8
RACCORDO
100
AcDbCircle
 62
253
  6
CONTINUOUS
 10
103.846617856
 20
-2.1948642751
 40
112.1406251357
100
AcDbArc
 50
173.4986702928
 51
175.8934343335
  0
ARC
  5
3B7
100
AcDbEntity
  8
0
100
AcDbCircle
 62
253
  6
CONTINUOUS
 10
100.474420813
 20
-2.4912928099
 40
108.2131822672
100
AcDbArc
 50
173.2588053155
 51
175.4161840601
  0
ARC
  5
3B8
100
AcDbEntity
  8
0
100
AcDbCircle
 62
253
  6
CONTINUOUS
 10
101.0417918269
 20
-2.5435969659
 40
108.082488539
100
AcDbArc
 50
173.2598513519
 51
174.9548614749
  0
ARC
  5
3B9
100
AcDbEntity
  8
RACCORDO
100
AcDbCircle
 62
253
  6
CONTINUOUS
 10
99.253049815
 20
-2.0318302841
 40
107.8257254717
100
AcDbArc
 50
173.2566251049
 51
175.7749554887
  0
ARC
  5
3BA
100
AcDbEntity
  8
RACCORDO
100
AcDbCircle
 62
253
  6
CONTINUOUS
 10
99.2711617265
 20
-2.0316667122
 40
107.7036365841
100
AcDbArc
 50
173.2564904467
 51
175.7748723638
  0
ARC
  5
3BB
100
AcDbEntity
  8
RACCORDO
100
AcDbCircle
 62
253
  6
CONTINUOUS
 10
84.2007224601
 20
-14.5749543523
 40
93.3317196693
100
AcDbArc
 50
180.8874078523
 51
181.3687952985
  0
ARC
  5
3BC
100
AcDbEntity
  8
0
100
AcDbCircle
 62
253
  6
CONTINUOUS
 10
82.9714602648
 20
-15.2883648198
 40
90.6857357573
100
AcDbArc
 50
180.9101916769
 51
181.9473938527
  0
ARC
  5
3BD
100
AcDbEntity
  8
RACCORDO
100
AcDbCircle
 62
253
  6
CONTINUOUS
 10
81.4282592385
 20
-14.6545112971
 40
90.558137959
100
AcDbArc
 50
181.405665617
 51
182.913182252
  0
ARC
  5
3BE
100
AcDbEntity
  8
RACCORDO
100
AcDbCircle
 62
253
  6
CONTINUOUS
 10
69.269213629
 20
-8.5854326814
 40
90.4322208718
100
AcDbArc
 50
180.8990624942
 51
182.9514870628
  0
ARC
  5
3BF
100
AcDbEntity
  8
RACCORDO
100
AcDbCircle
 62
253
  6
CONTINUOUS
 10
69.9220397456
 20
-8.5766073695
 40
90.3811431146
100
AcDbArc
 50
180.9009452306
 51
182.4845933016
  0
ARC
  5
3C0
100
AcDbEntity
  8
RACCORDO
100
AcDbCircle
 62
7
  6
CONTINUOUS
 10
68.2146250942
 20
-8.3844375483
 40
89.8663701754
100
AcDbArc
 50
180.8768741976
 51
183.2910355166
  0
ARC
  5
3C1
100
AcDbEntity
  8
RACCORDO
100
AcDbCircle
 62
7
  6
CONTINUOUS
 10
81.4375219017
 20
-14.9958859525
 40
89.8663701748
100
AcDbArc
 50
180.8768741976
 51
183.2910355146
  0
ARC
  5
3C2
100
AcDbEntity
  8
RACCORDO
100
AcDbCircle
 62
7
  6
CONTINUOUS
 10
81.0348739097
 20
-14.8962785675
 40
89.675777757
100
AcDbArc
 50
180.8746109663
 51
183.4292789894
  0
ARC
  5
3C3
100
AcDbEntity
  8
RACCORDO
100
AcDbCircle
 62
7
  6
CONTINUOUS
 10
67.8119770979
 20
-8.2848301635
 40
89.6757777534
100
AcDbArc
 50
180.8746109663
 51
183.4292789894
  0
ARC
  5
3C4
100
AcDbEntity
  8
RACCORDO
100
AcDbCircle
 62
7
  6
CONTINUOUS
 10
78.8915766977
 20
-15.1324448691
 40
87.316784718
100
AcDbArc
 50
183.29748151
 51
183.4365141689
  0
ARC
  5
3C5
100
AcDbEntity
  8
RACCORDO
100
AcDbCircle
 62
7
  6
CONTINUOUS
 10
65.6686798618
 20
-8.5209964667
 40
87.3167846902
100
AcDbArc
 50
183.2974815121
 51
183.436514169
  0
ARC
  5
3C6
100
AcDbEntity
  8
RACCORDO
100
AcDbCircle
 62
7
  6
CONTINUOUS
 10
-9.4878041688
 20
-16.372604541
 40
0.4274312769
100
AcDbArc
 50
58.3187585974
 51
63.3648806976
  0
ARC
  5
3C7
100
AcDbEntity
  8
0
100
AcDbCircle
 62
253
  6
CONTINUOUS
 10
-21.4660239326
 20
-19.1659393188
 40
0.3692272598
100
AcDbArc
 50
239.9543987233
 51
243.4333453919
  0
ARC
  5
3C8
100
AcDbEntity
  8
0
100
AcDbCircle
 62
253
  6
CONTINUOUS
 10
-1.7465243594
 20
-25.6690307248
 40
0.2830811092
100
AcDbArc
 50
7.4211822063
 51
12.0402744179
  0
ARC
  5
3C9
100
AcDbEntity
  8
0
100
AcDbCircle
 62
7
  6
CONTINUOUS
 10
-1.6625122612
 20
-25.696358077
 40
0.2514565689
100
AcDbArc
 50
51.9097890452
 51
63.4108362127
  0
ARC
  5
3CA
100
AcDbEntity
  8
0
100
AcDbCircle
 62
7
  6
CONTINUOUS
 10
-1.661885942
 20
-26.0427724006
 40
0.2501988556
100
AcDbArc
 50
344.5341514771
 51
359.9881924891
  0
ARC
  5
3CB
100
AcDbEntity
  8
0
100
AcDbCircle
 62
7
  6
CONTINUOUS
 10
-3.7891364648
 20
-27.0927474808
 40
0.2499595531
100
AcDbArc
 50
243.3880234853
 51
295.9744556518
  0
ARC
  5
3CC
100
AcDbEntity
  8
0
100
AcDbCircle
 62
7
  6
CONTINUOUS
 10
-1.6615466011
 20
-26.0427306092
 40
0.2498829809
100
AcDbArc
 50
297.0965504174
 51
344.5041676115
  0
ARC
  5
3CD
100
AcDbEntity
  8
0
100
AcDbCircle
 62
7
  6
CONTINUOUS
 10
-1.5205952457
 20
-24.8214147422
 40
0.189462091
100
AcDbArc
 50
292.7717188963
 51
297.2921248775
  0
ARC
  5
3CE
100
AcDbEntity
  8
RACCORDO
100
AcDbCircle
 62
7
  6
CONTINUOUS
 10
-8.4512340614
 20
-20.2669280477
 40
0.1648834275
100
AcDbArc
 50
296.6183189396
 51
301.4575227762
  0
ARC
  5
3CF
100
AcDbEntity
  8
0
100
AcDbCircle
 62
253
  6
CONTINUOUS
 10
-1.6450890241
 20
-25.6074327857
 40
0.1608900976
100
AcDbArc
 50
60.1189448307
 51
63.4863134447
  0
ARC
  5
3D0
100
AcDbEntity
  8
RACCORDO
100
AcDbCircle
 62
253
  6
CONTINUOUS
 10
-6.1777443851
 20
10.3380304834
 40
1.4048565774
100
AcDbArc
 50
167.4706886307
 51
170.9298897467
  0
ARC
  5
3D1
100
AcDbEntity
  8
RACCORDO
100
AcDbCircle
 62
253
  6
CONTINUOUS
 10
-6.2734176349
 20
10.353471579
 40
1.3079454396
100
AcDbArc
 50
170.9371532446
 51
173.4618401443
  0
ARC
  5
3D2
100
AcDbEntity
  8
RACCORDO
100
AcDbCircle
 62
253
  6
CONTINUOUS
 10
-6.5521489912
 20
10.4809380804
 40
1.1431450127
100
AcDbArc
 50
170.2020722698
 51
173.2438467961
  0
ARC
  5
3D3
100
AcDbEntity
  8
RACCORDO
100
AcDbCircle
 62
7
  6
CONTINUOUS
 10
-20.828810146
 20
7.3281994122
 40
0.8047959448
100
AcDbArc
 50
174.6085853167
 51
178.8906512384
  0
ARC
  5
3D4
100
AcDbEntity
  8
RACCORDO
100
AcDbCircle
 62
253
  6
CONTINUOUS
 10
-8.7587323069
 20
5.8242661318
 40
0.7499243282
100
AcDbArc
 50
351.7713881537
 51
355.9795496008
  0
ARC
  5
3D5
100
AcDbEntity
  8
RACCORDO
100
AcDbCircle
 62
253
  6
CONTINUOUS
 10
-8.4567045804
 20
5.9576430614
 40
0.2940815792
100
AcDbArc
 50
243.4266522569
 51
245.6004315908
  0
ARC
  5
3D6
100
AcDbEntity
  8
RACCORDO
100
AcDbCircle
 62
253
  6
CONTINUOUS
 10
-8.4649246131
 20
5.9391630694
 40
0.2738564595
100
AcDbArc
 50
245.5694328282
 51
250.3865351722
  0
ARC
  5
3D7
100
AcDbEntity
  8
RACCORDO
100
AcDbCircle
 62
253
  6
CONTINUOUS
 10
-8.2922749217
 20
5.4106540455
 40
0.2380349535
100
AcDbArc
 50
128.2114084812
 51
132.8941535411
  0
ARC
  5
3D8
100
AcDbEntity
  8
RACCORDO
100
AcDbCircle
 62
253
  6
CONTINUOUS
 10
-8.4807625053
 20
5.8407805475
 40
0.1728871245
100
AcDbArc
 50
282.2593059171
 51
295.8655707955
  0
ARC
  5
3D9
100
AcDbEntity
  8
RACCORDO
100
AcDbCircle
 62
253
  6
CONTINUOUS
 10
-6.4635559759
 20
10.7870338471
 40
0.9095543241
100
AcDbArc
 50
120.1147451687
 51
124.7504414596
  0
ARC
  5
3DA
100
AcDbEntity
  8
0
100
AcDbCircle
 62
7
  6
CONTINUOUS
 10
-5.4676646833
 20
15.7261068597
 40
0.2500151037
100
AcDbArc
 50
117.1617076756
 51
179.9944821188
  0
ARC
  5
3DB
100
AcDbEntity
  8
0
100
AcDbCircle
 62
7
  6
CONTINUOUS
 10
-5.4677639009
 20
15.3860544495
 40
0.2498866409
100
AcDbArc
 50
187.206109458
 51
243.4713279222
  0
ARC
  5
3DC
100
AcDbEntity
  8
0
100
AcDbCircle
 62
7
  6
CONTINUOUS
 10
-5.4681415722
 20
15.3861353969
 40
0.2495447277
100
AcDbArc
 50
179.9925713995
 51
187.186461319
  0
ARC
  5
3DD
100
AcDbEntity
  8
0
100
AcDbCircle
 62
253
  6
CONTINUOUS
 10
-5.3735025414
 20
15.7544882626
 40
0.2103900845
100
AcDbArc
 50
116.9065488738
 51
119.4916305374
  0
ARC
  5
3DE
100
AcDbEntity
  8
0
100
AcDbCircle
 62
253
  6
CONTINUOUS
 10
-5.537410104
 20
15.2466657658
 40
0.0940674362
100
AcDbArc
 50
238.105799692
 51
243.4300963096
  0
ARC
  5
3DF
100
AcDbEntity
  8
0
100
AcDbCircle
 62
253
  6
CONTINUOUS
 10
-5.6548580008
 20
15.3861488182
 40
0.0628250654
100
AcDbArc
 50
180.0077273449
 51
185.9637001145
  0
ARC
  5
3E0
100
AcDbEntity
  8
RACCORDO
100
AcDbCircle
 62
253
  6
CONTINUOUS
 10
-19.4077363437
 20
17.0044365441
 40
1.6571829568
100
AcDbArc
 50
153.8250281888
 51
156.6537960561
  0
ARC
  5
3E1
100
AcDbEntity
  8
RACCORDO
100
AcDbCircle
 62
253
  6
CONTINUOUS
 10
-19.4686777163
 20
17.0064373009
 40
1.6018049476
100
AcDbArc
 50
148.2037572803
 51
152.9276595602
  0
ARC
  5
3E2
100
AcDbEntity
  8
RACCORDO
100
AcDbCircle
 62
253
  6
CONTINUOUS
 10
-19.6371007501
 20
17.0719743469
 40
1.417676814
100
AcDbArc
 50
167.4175202957
 51
169.9311582979
  0
ARC
  5
3E3
100
AcDbEntity
  8
RACCORDO
100
AcDbCircle
 62
253
  6
CONTINUOUS
 10
-19.7332531535
 20
17.0884821074
 40
1.3201193554
100
AcDbArc
 50
169.9069861659
 51
173.479671939
  0
ARC
  5
3E4
100
AcDbEntity
  8
RACCORDO
100
AcDbCircle
 62
253
  6
CONTINUOUS
 10
-19.9465083537
 20
17.5165347229
 40
0.8960380487
100
AcDbArc
 50
118.7155766628
 51
120.2077945427
  0
ARC
  5
3E5
100
AcDbEntity
  8
0
100
AcDbCircle
 62
253
  6
CONTINUOUS
 10
-8.379423953
 20
18.1800978389
 40
0.3146669839
100
AcDbArc
 50
155.4397174882
 51
164.8178757269
  0
ARC
  5
3E6
100
AcDbEntity
  8
0
100
AcDbCircle
 62
7
  6
CONTINUOUS
 10
-15.655698534
 20
22.9482462266
 40
0.2511070237
100
AcDbArc
 50
114.021468168
 51
116.0150406509
  0
ARC
  5
3E7
100
AcDbEntity
  8
0
100
AcDbCircle
 62
7
  6
CONTINUOUS
 10
-15.6559851192
 20
22.9485738618
 40
0.250691134
100
AcDbArc
 50
99.4431458383
 51
113.9921241267
  0
ARC
  5
3E8
100
AcDbEntity
  8
0
100
AcDbCircle
 62
7
  6
CONTINUOUS
 10
-15.656207522
 20
22.9490745553
 40
0.2501607737
100
AcDbArc
 50
63.4493112243
 51
99.4117127847
  0
ARC
  5
3E9
100
AcDbEntity
  8
0
100
AcDbCircle
 62
7
  6
CONTINUOUS
 10
-13.9653433099
 20
21.7562968864
 40
0.2500529403
100
AcDbArc
 50
320.5991320924
 51
328.846228407
  0
ARC
  5
3EA
100
AcDbEntity
  8
0
100
AcDbCircle
 62
7
  6
CONTINUOUS
 10
-16.0927865874
 20
20.6986818481
 40
0.249977951
100
AcDbArc
 50
243.4290122564
 51
258.2010452672
  0
ARC
  5
3EB
100
AcDbEntity
  8
0
100
AcDbCircle
 62
7
  6
CONTINUOUS
 10
-17.7714218935
 20
21.5378834458
 40
0.2498866409
100
AcDbArc
 50
187.206109458
 51
243.4713279222
  0
ARC
  5
3EC
100
AcDbEntity
  8
0
100
AcDbCircle
 62
7
  6
CONTINUOUS
 10
-13.9651287133
 20
22.1039216651
 40
0.2497830963
100
AcDbArc
 50
0.0058275177
 51
63.5080917514
  0
ARC
  5
3ED
100
AcDbEntity
  8
0
100
AcDbCircle
 62
7
  6
CONTINUOUS
 10
-17.7715260475
 20
21.8780578885
 40
0.2497823472
100
AcDbArc
 50
117.0884793292
 51
179.9954607481
  0
ARC
  5
3EE
100
AcDbEntity
  8
0
100
AcDbCircle
 62
7
  6
CONTINUOUS
 10
-17.7717995649
 20
21.5379643932
 40
0.2495447277
100
AcDbArc
 50
179.9925713995
 51
187.186461319
  0
ARC
  5
3EF
100
AcDbEntity
  8
0
100
AcDbCircle
 62
253
  6
CONTINUOUS
 10
-17.6771552309
 20
21.9063072468
 40
0.2104014126
100
AcDbArc
 50
116.9066028641
 51
119.4958829238
  0
ARC
  5
3F0
100
AcDbEntity
  8
0
100
AcDbCircle
 62
7
  6
CONTINUOUS
 10
-8.5509738636
 20
18.266729271
 40
0.2000264278
100
AcDbArc
 50
117.3009020161
 51
179.9954553107
  0
ARC
  5
3F1
100
AcDbEntity
  8
0
100
AcDbCircle
 62
253
  6
CONTINUOUS
 10
-8.4753947395
 20
18.2889527224
 40
0.168868535
100
AcDbArc
 50
116.9100126538
 51
119.7528174078
  0
ARC
  5
3F2
100
AcDbEntity
  8
0
100
AcDbCircle
 62
253
  6
CONTINUOUS
 10
-15.5865333816
 20
23.0885191587
 40
0.0942783586
100
AcDbArc
 50
63.4468793615
 51
70.0270077917
  0
ARC
  5
3F3
100
AcDbEntity
  8
0
100
AcDbCircle
 62
253
  6
CONTINUOUS
 10
-17.8410680967
 20
21.3984947621
 40
0.0940674362
100
AcDbArc
 50
238.105799692
 51
243.4300963097
  0
ARC
  5
3F4
100
AcDbEntity
  8
0
100
AcDbCircle
 62
253
  6
CONTINUOUS
 10
-13.7782814303
 20
21.756290695
 40
0.0629690123
100
AcDbArc
 50
352.5179519723
 51
359.9858103332
  0
ARC
  5
3F5
100
AcDbEntity
  8
0
100
AcDbCircle
 62
253
  6
CONTINUOUS
 10
-17.9585159934
 20
21.5379778145
 40
0.0628250654
100
AcDbArc
 50
180.0077273449
 51
185.9637001145
  0
ARC
  5
3F6
100
AcDbEntity
  8
0
100
AcDbCircle
 62
7
  6
CONTINUOUS
 10
9.7933573131
 20
15.7851027097
 40
1.6308295688
100
AcDbArc
 50
49.990523012
 51
63.4113914083
  0
ARC
  5
3F7
100
AcDbEntity
  8
0
100
AcDbCircle
 62
7
  6
CONTINUOUS
 10
6.2597375123
 20
14.0190191038
 40
1.6284678113
100
AcDbArc
 50
63.445106021
 51
72.0641454306
  0
ARC
  5
3F8
100
AcDbEntity
  8
0
100
AcDbCircle
 62
7
  6
CONTINUOUS
 10
9.7952714183
 20
15.7867860568
 40
1.6284678113
100
AcDbArc
 50
63.445106021
 51
72.0641454306
  0
ARC
  5
3F9
100
AcDbEntity
  8
0
100
AcDbCircle
 62
7
  6
CONTINUOUS
 10
6.2594129182
 20
14.0197012506
 40
1.6280028468
100
AcDbArc
 50
55.6373000519
 51
63.4241547799
  0
ARC
  5
3FA
100
AcDbEntity
  8
0
100
AcDbCircle
 62
7
  6
CONTINUOUS
 10
6.261805849
 20
14.0213310991
 40
1.6261114307
100
AcDbArc
 50
149.062626216
 51
151.3675041945
  0
ARC
  5
3FB
100
AcDbEntity
  8
0
100
AcDbCircle
 62
7
  6
CONTINUOUS
 10
9.797339755
 20
15.7890980521
 40
1.6261114307
100
AcDbArc
 50
149.062626216
 51
151.3675041945
  0
ARC
  5
3FC
100
AcDbEntity
  8
0
100
AcDbCircle
 62
7
  6
CONTINUOUS
 10
6.2609310393
 20
14.0224237005
 40
1.6247994462
100
AcDbArc
 50
107.9276467418
 51
149.0798141171
  0
ARC
  5
3FD
100
AcDbEntity
  8
0
100
AcDbCircle
 62
7
  6
CONTINUOUS
 10
9.7964649452
 20
15.7901906534
 40
1.6247994462
100
AcDbArc
 50
107.9276467418
 51
149.0798141171
  0
ARC
  5
3FE
100
AcDbEntity
  8
0
100
AcDbCircle
 62
7
  6
CONTINUOUS
 10
9.4991670957
 20
15.5579970936
 40
1.2834398257
100
AcDbArc
 50
151.2873296167
 51
153.4691886599
  0
ARC
  5
3FF
100
AcDbEntity
  8
0
100
AcDbCircle
 62
7
  6
CONTINUOUS
 10
-1.6638263653
 20
15.6062810097
 40
0.2528164671
100
AcDbArc
 50
320.5966796397
 51
322.3864165157
  0
ARC
  5
400
100
AcDbEntity
  8
0
100
AcDbCircle
 62
7
  6
CONTINUOUS
 10
-3.3530340328
 20
16.7964201877
 40
0.2511076924
100
AcDbArc
 50
63.3938371272
 51
65.5614104975
  0
ARC
  5
401
100
AcDbEntity
  8
0
100
AcDbCircle
 62
7
  6
CONTINUOUS
 10
-3.7887983111
 20
14.547868103
 40
0.2510467064
100
AcDbArc
 50
243.4638390089
 51
258.1750254128
  0
ARC
  5
402
100
AcDbEntity
  8
0
100
AcDbCircle
 62
7
  6
CONTINUOUS
 10
-3.3527439067
 20
16.7967511332
 40
0.2506863999
100
AcDbArc
 50
65.5904860463
 51
80.0867799203
  0
ARC
  5
403
100
AcDbEntity
  8
0
100
AcDbCircle
 62
7
  6
CONTINUOUS
 10
-3.3525195945
 20
16.7972467117
 40
0.2501596406
100
AcDbArc
 50
80.1178478781
 51
115.9579685268
  0
ARC
  5
404
100
AcDbEntity
  8
0
100
AcDbCircle
 62
7
  6
CONTINUOUS
 10
-1.6616751203
 20
15.9519681258
 40
0.2500178625
100
AcDbArc
 50
0.0078515286
 51
63.4316275385
  0
ARC
  5
405
100
AcDbEntity
  8
0
100
AcDbCircle
 62
7
  6
CONTINUOUS
 10
-1.6610730943
 20
15.6042480358
 40
0.2493946962
100
AcDbArc
 50
322.3703342886
 51
0.0725358283
  0
ARC
  5
406
100
AcDbEntity
  8
0
100
AcDbCircle
 62
253
  6
CONTINUOUS
 10
-3.4208423388
 20
16.9376008219
 40
0.0940592748
100
AcDbArc
 50
109.4786603837
 51
115.9607725688
  0
ARC
  5
407
100
AcDbEntity
  8
RACCORDO
100
AcDbCircle
 62
253
  6
CONTINUOUS
 10
89.2458818182
 20
4.6461908233
 40
111.0072310388
100
AcDbArc
 50
173.4865851471
 51
175.9193965135
  0
ARC
  5
408
100
AcDbEntity
  8
RACCORDO
100
AcDbCircle
 62
253
  6
CONTINUOUS
 10
84.7232750479
 20
4.805934902
 40
106.763297112
100
AcDbArc
 50
173.2442085275
 51
175.7906951183
  0
ARC
  5
409
100
AcDbEntity
  8
0
100
AcDbCircle
 62
253
  6
CONTINUOUS
 10
94.3473259013
 20
-1.9674241907
 40
101.3632909423
100
AcDbArc
 50
174.9465102295
 51
179.0493917099
  0
ARC
  5
40A
100
AcDbEntity
  8
0
100
AcDbCircle
 62
253
  6
CONTINUOUS
 10
93.3865980179
 20
-1.9278299601
 40
101.1029512974
100
AcDbArc
 50
175.5211898356
 51
179.0629705344
  0
ARC
  5
40B
100
AcDbEntity
  8
RACCORDO
100
AcDbCircle
 62
7
  6
CONTINUOUS
 10
76.139693974
 20
5.2917998158
 40
98.004665109
100
AcDbArc
 50
178.8623174405
 51
179.1177577389
  0
ARC
  5
40C
100
AcDbEntity
  8
RACCORDO
100
AcDbCircle
 62
7
  6
CONTINUOUS
 10
89.3625907814
 20
-1.3196485883
 40
98.0046651081
100
AcDbArc
 50
178.8623174405
 51
179.1177577389
  0
ARC
  5
40D
100
AcDbEntity
  8
RACCORDO
100
AcDbCircle
 62
7
  6
CONTINUOUS
 10
89.466643549
 20
-1.4239164669
 40
97.8965709674
100
AcDbArc
 50
178.947416499
 51
179.1178360379
  0
ARC
  5
40E
100
AcDbEntity
  8
RACCORDO
100
AcDbCircle
 62
7
  6
CONTINUOUS
 10
76.2437464737
 20
5.1875319416
 40
97.8965707002
100
AcDbArc
 50
178.9474167058
 51
179.1178360381
  0
ARC
  5
40F
100
AcDbEntity
  8
RACCORDO
100
AcDbCircle
 62
7
  6
CONTINUOUS
 10
76.0847077168
 20
5.3967889388
 40
97.7375574148
100
AcDbArc
 50
178.9017746161
 51
179.0313298588
  0
ARC
  5
410
100
AcDbEntity
  8
0
100
AcDbCircle
 62
7
  6
CONTINUOUS
 10
519.9574545471
 20
-8.1443785414
 40
528.4398340699
100
AcDbArc
 50
179.1078822106
 51
180.8685090045
  0
ARC
  5
411
100
AcDbEntity
  8
0
100
AcDbCircle
 62
7
  6
CONTINUOUS
 10
519.5534775914
 20
-8.0378705625
 40
528.248005528
100
AcDbArc
 50
179.1076061624
 51
180.8923938376
  0
ARC
  5
412
100
AcDbEntity
  8
RACCORDO
100
AcDbCircle
 62
253
  6
CONTINUOUS
 10
518.5937961314
 20
-7.8481923453
 40
527.7768736076
100
AcDbArc
 50
179.9778719905
 51
180.8872191995
  0
ARC
  5
413
100
AcDbEntity
  8
0
100
AcDbCircle
 62
253
  6
CONTINUOUS
 10
515.4356193218
 20
-8.5016821245
 40
523.2031420078
100
AcDbArc
 50
179.0990007583
 51
180.9009992417
  0
ARC
  5
414
100
AcDbEntity
  8
0
100
AcDbCircle
 62
253
  6
CONTINUOUS
 10
515.6042976159
 20
-8.5047722904
 40
522.6709379715
100
AcDbArc
 50
179.098985241
 51
180.901014759
  0
ARC
  5
415
100
AcDbEntity
  8
0
100
AcDbCircle
 62
253
  6
CONTINUOUS
 10
514.9524243554
 20
-1.0686766135
 40
537.5842273239
100
AcDbArc
 50
179.1231055813
 51
180.8768944187
  0
ARC
  5
416
100
AcDbEntity
  8
0
100
AcDbCircle
 62
7
  6
CONTINUOUS
 10
506.734557739
 20
-1.5329301373
 40
528.4398340699
100
AcDbArc
 50
179.1078822106
 51
180.8685090045
  0
ARC
  5
417
100
AcDbEntity
  8
0
100
AcDbCircle
 62
7
  6
CONTINUOUS
 10
506.3305807832
 20
-1.4264221584
 40
528.2480055281
100
AcDbArc
 50
179.1076061624
 51
180.8923938376
  0
ARC
  5
418
100
AcDbEntity
  8
RACCORDO
100
AcDbCircle
 62
253
  6
CONTINUOUS
 10
499.6267381784
 20
-1.8153359096
 40
520.8429933892
100
AcDbArc
 50
179.9793666253
 51
180.9008822099
  0
ARC
  5
419
100
AcDbEntity
  8
RACCORDO
100
AcDbCircle
 62
253
  6
CONTINUOUS
 10
499.8005828832
 20
-1.816913845
 40
520.3128299051
100
AcDbArc
 50
179.9793683441
 51
180.9008932732
  0
SPLINE
  5
41A
100
AcDbEntity
  8
RACCORDO
100
AcDbSpline
 62
253
  6
CONTINUOUS
 70
0
 71
3
 72
11
 73
7
 74
5
 42
0.0000001
 43
0.0000001
 44
0.0000000001
 12
-0.3586335921
 22
-0.217744845
 32
0.0
 13
0.0000000033
 23
-0.4195603305
 33
0.0
 40
0.0
 40
0.0
 40
0.0
 40
0.0
 40
0.2345987475
 40
0.4936433664
 40
0.7561526099
 40
1.0
 40
1.0
 40
1.0
 40
1.0
 10
-10.2995248345
 20
-16.6836427439
 30
0.0
 10
-10.3275698317
 20
-16.7006702999
 30
0.0
 10
-10.3802998199
 20
-16.746954
 30
0.0
 10
-10.4412720932
 20
-16.834362605
 30
0.0
 10
-10.4819344353
 20
-16.93427084
 30
0.0
 10
-10.4931683441
 20
-17.0051805761
 30
0.0
 10
-10.4931683439
 20
-17.0392834733
 30
0.0
 11
-10.2995248345
 21
-16.6836427439
 31
0.0
 11
-10.3747693925
 21
-16.7470966032
 31
0.0
 11
-10.4374533176
 21
-16.8358835462
 31
0.0
 11
-10.4787152014
 21
-16.938000824
 31
0.0
 11
-10.4931683439
 21
-17.0392834733
 31
0.0
  0
SPLINE
  5
41B
100
AcDbEntity
  8
RACCORDO
100
AcDbSpline
 62
253
  6
CONTINUOUS
 70
0
 71
3
 72
11
 73
7
 74
5
 42
0.0000001
 43
0.0000001
 44
0.0000000001
 12
-0.1684337701
 22
0.0847613059
 32
0.0
 13
-0.0000000015
 23
0.188558781
 33
0.0
 40
0.0
 40
0.0
 40
0.0
 40
0.0
 40
0.2170835201
 40
0.4506974028
 40
0.7115247267
 40
1.0
 40
1.0
 40
1.0
 40
1.0
 10
-20.111353906
 20
-12.4706240751
 30
0.0
 10
-20.1235419713
 20
-12.4644906476
 30
0.0
 10
-20.1466161765
 20
-12.4468512472
 30
0.0
 10
-20.1712947309
 20
-12.4087298092
 30
0.0
 10
-20.1859363548
 20
-12.3612628008
 30
0.0
 10
-20.1889957029
 20
-12.3266244093
 30
0.0
 10
-20.188995703
 20
-12.308492894
 30
0.0
 11
-20.111353906
 21
-12.4706240751
 31
0.0
 11
-20.1440433047
 21
-12.44598845
 31
0.0
 11
-20.1685867246
 21
-12.4094095142
 31
0.0
 11
-20.1837929229
 21
-12.362638048
 31
0.0
 11
-20.188995703
 21
-12.308492894
 31
0.0
  0
SPLINE
  5
41C
100
AcDbEntity
  8
RACCORDO
100
AcDbSpline
 62
253
  6
CONTINUOUS
 70
0
 71
3
 72
11
 73
7
 74
5
 42
0.0000001
 43
0.0000001
 44
0.0000000001
 12
-0.35863359
 22
-0.2177448475
 32
0.0
 13
0.0
 23
-0.41956033
 33
0.0
 40
0.0
 40
0.0
 40
0.0
 40
0.0
 40
0.2345987474
 40
0.4936433667
 40
0.7561526103
 40
1.0
 40
1.0
 40
1.0
 40
1.0
 10
-19.9953521937
 20
-11.8357290644
 30
0.0
 10
-20.0233971907
 20
-11.8527566205
 30
0.0
 10
-20.0761271786
 20
-11.8990403209
 30
0.0
 10
-20.1370994516
 20
-11.986448926
 30
0.0
 10
-20.1777617938
 20
-12.0863571607
 30
0.0
 10
-20.188995703
 20
-12.1572668966
 30
0.0
 10
-20.188995703
 20
-12.1913697937
 30
0.0
 11
-19.9953521937
 21
-11.8357290644
 31
0.0
 11
-20.0705967511
 21
-11.899182924
 31
0.0
 11
-20.1332806761
 21
-11.9879698672
 31
0.0
 11
-20.17454256
 21
-12.0900871448
 31
0.0
 11
-20.188995703
 21
-12.1913697937
 31
0.0
  0
SPLINE
  5
41D
100
AcDbEntity
  8
RACCORDO
100
AcDbSpline
 62
253
  6
CONTINUOUS
 70
0
 71
3
 72
13
 73
9
 74
7
 42
0.0000001
 43
0.0000001
 44
0.0000000001
 12
0.71819087
 22
-0.3162768994
 32
0.0
 13
-0.7208096357
 23
-0.3102622632
 33
0.0
 40
0.0
 40
0.0
 40
0.0
 40
0.0
 40
0.2633012059
 40
0.5499513615
 40
0.6834476688
 40
0.8021591693
 40
0.9055798481
 40
1.0
 40
1.0
 40
1.0
 40
1.0
 10
-10.2995227855
 20
-16.6836436463
 30
0.0
 10
-10.2364892781
 20
-16.7114023427
 30
0.0
 10
-10.1238985144
 20
-16.8110391159
 30
0.0
 10
-10.0417384962
 20
-16.9746859321
 30
0.0
 10
-10.0204727288
 20
-17.1152547739
 30
0.0
 10
-10.0308241168
 20
-17.2090521303
 30
0.0
 10
-10.0677861765
 20
-17.2855599821
 30
0.0
 10
-10.1106391729
 20
-17.3186509552
 30
0.0
 10
-10.1333254914
 20
-17.3284159586
 30
0.0
 11
-10.2995227855
 21
-16.6836436463
 31
0.0
 11
-10.1393327138
 21
-16.8141543945
 31
0.0
 11
-10.0391194905
 21
-17.015546936
 31
0.0
 11
-10.0247346093
 21
-17.1193155731
 31
0.0
 11
-10.0368303007
 21
-17.2116855803
 31
0.0
 11
-10.0742346949
 21
-17.2837114086
 31
0.0
 11
-10.1333254914
 21
-17.3284159586
 31
0.0
  0
SPLINE
  5
41E
100
AcDbEntity
  8
RACCORDO
100
AcDbSpline
 62
253
  6
CONTINUOUS
 70
0
 71
3
 72
9
 73
5
 74
3
 42
0.0000001
 43
0.0000001
 44
0.0000000001
 12
0.1455090885
 22
0.0825213245
 32
0.0
 13
0.1455433123
 23
-0.0824609489
 33
0.0
 40
0.0
 40
0.0
 40
0.0
 40
0.0
 40
0.4587604525
 40
1.0
 40
1.0
 40
1.0
 40
1.0
 10
-20.1564269012
 20
-11.8230593592
 30
0.0
 10
-20.1341756295
 20
-11.8104401858
 30
0.0
 10
-20.0754408415
 20
-11.7997386183
 30
0.0
 10
-20.0216101258
 20
-11.8208520221
 30
0.0
 10
-19.9953521937
 20
-11.8357290644
 30
0.0
 11
-20.1564269012
 21
-11.8230593592
 31
0.0
 11
-20.0813173504
 21
-11.8073170895
 31
0.0
 11
-19.9953521937
 21
-11.8357290644
 31
0.0
  0
LINE
  5
41F
100
AcDbEntity
  8
RACCORDO
100
AcDbLine
 62
253
  6
CONTINUOUS
 10
-19.9953521937
 20
-11.8357290644
 11
-19.7743750653
 21
-11.7176208799
  0
LINE
  5
420
100
AcDbEntity
  8
RACCORDO
100
AcDbLine
 62
253
  6
CONTINUOUS
 10
-19.7743750653
 20
-11.7176208799
 11
-19.0177344691
 21
-11.3132104881
  0
LINE
  5
421
100
AcDbEntity
  8
RACCORDO
100
AcDbLine
 62
253
  6
CONTINUOUS
 10
-19.0177344691
 20
-11.3132104881
 11
-18.8403959305
 21
-11.2184263221
  0
SPLINE
  5
422
100
AcDbEntity
  8
RACCORDO
100
AcDbSpline
 62
253
  6
CONTINUOUS
 70
0
 71
3
 72
13
 73
9
 74
7
 42
0.0000001
 43
0.0000001
 44
0.0000000001
 12
-0.1532227183
 22
0.0766089139
 32
0.0
 13
0.1532264299
 23
-0.07660149
 33
0.0
 40
0.0
 40
0.0
 40
0.0
 40
0.0
 40
0.2803772962
 40
0.434168645
 40
0.5774113964
 40
0.7943801926
 40
0.8895486722
 40
1.0
 40
1.0
 40
1.0
 40
1.0
 10
-20.188995703
 20
-12.308492894
 30
0.0
 10
-20.2033157602
 20
-12.3013330939
 30
0.0
 10
-20.2210047052
 20
-12.281523133
 30
0.0
 10
-20.2340122396
 20
-12.2509953527
 30
0.0
 10
-20.2392643887
 20
-12.222495387
 30
0.0
 10
-20.2312559502
 20
-12.1923275265
 30
0.0
 10
-20.2063232726
 20
-12.1847944906
 30
0.0
 10
-20.1946370572
 20
-12.1885495483
 30
0.0
 10
-20.188995703
 20
-12.1913697937
 30
0.0
 11
-20.188995703
 21
-12.308492894
 31
0.0
 11
-20.2228640793
 21
-12.2744359703
 31
0.0
 11
-20.2332697335
 21
-12.2502324484
 31
0.0
 11
-20.2369272428
 21
-12.2259680564
 31
0.0
 11
-20.2228680802
 21
-12.191561337
 31
0.0
 11
-20.2073203564
 21
-12.1866565112
 31
0.0
 11
-20.188995703
 21
-12.1913697937
 31
0.0
  0
SPLINE
  5
423
100
AcDbEntity
  8
RACCORDO
100
AcDbSpline
 62
253
  6
CONTINUOUS
 70
0
 71
3
 72
13
 73
9
 74
7
 42
0.0000001
 43
0.0000001
 44
0.0000000001
 12
0.1532227183
 22
-0.0766089138
 32
0.0
 13
-0.1532264299
 23
0.07660149
 33
0.0
 40
0.0
 40
0.0
 40
0.0
 40
0.0
 40
0.2803772962
 40
0.434168645
 40
0.5774113964
 40
0.7943801926
 40
0.8895486722
 40
1.0
 40
1.0
 40
1.0
 40
1.0
 10
-10.4931683439
 20
-17.0392834733
 30
0.0
 10
-10.4788482867
 20
-17.0464432733
 30
0.0
 10
-10.4611593417
 20
-17.0662532343
 30
0.0
 10
-10.4481518073
 20
-17.0967810146
 30
0.0
 10
-10.4428996581
 20
-17.1252809803
 30
0.0
 10
-10.4509080967
 20
-17.1554488408
 30
0.0
 10
-10.4758407743
 20
-17.1629818767
 30
0.0
 10
-10.4875269897
 20
-17.159226819
 30
0.0
 10
-10.4931683439
 20
-17.1564065735
 30
0.0
 11
-10.4931683439
 21
-17.0392834733
 31
0.0
 11
-10.4592999676
 21
-17.073340397
 31
0.0
 11
-10.4488943133
 21
-17.0975439189
 31
0.0
 11
-10.4452368041
 21
-17.1218083109
 31
0.0
 11
-10.4592959667
 21
-17.1562150302
 31
0.0
 11
-10.4748436905
 21
-17.1611198561
 31
0.0
 11
-10.4931683439
 21
-17.1564065735
 31
0.0
  0
SPLINE
  5
424
100
AcDbEntity
  8
RACCORDO
100
AcDbSpline
 62
7
  6
CONTINUOUS
 70
0
 71
3
 72
10
 73
6
 74
4
 42
0.0000001
 43
0.0000001
 44
0.0000000001
 12
0.210378215
 22
0.1192790895
 32
0.0
 13
0.2163081034
 23
-0.1081540517
 33
0.0
 40
0.0
 40
0.0
 40
0.0
 40
0.0
 40
0.2280784972
 40
0.4661382489
 40
1.0
 40
1.0
 40
1.0
 40
1.0
 10
-19.0735632954
 20
-11.2087602739
 30
0.0
 10
-19.0575690463
 20
-11.1996919421
 30
0.0
 10
-19.0218999252
 20
-11.1859238821
 30
0.0
 10
-18.9406626212
 20
-11.1796501823
 30
0.0
 10
-18.8788888048
 20
-11.1991798849
 30
0.0
 10
-18.8403959305
 20
-11.2184263221
 30
0.0
 11
-19.0735632954
 21
-11.2087602739
 31
0.0
 11
-19.0221373101
 21
-11.1888147522
 31
0.0
 11
-18.9647817064
 21
-11.1838240216
 31
0.0
 11
-18.8403959305
 21
-11.2184263221
 31
0.0
  0
SPLINE
  5
425
100
AcDbEntity
  8
RACCORDO
100
AcDbSpline
 62
253
  6
CONTINUOUS
 70
0
 71
3
 72
11
 73
7
 74
5
 42
0.0000001
 43
0.0000001
 44
0.0000000001
 12
-0.1690081552
 22
0.0843870467
 32
0.0
 13
0.0
 23
0.1889045531
 33
0.0
 40
0.0
 40
0.0
 40
0.0
 40
0.0
 40
0.2170868256
 40
0.4506471309
 40
0.7114626697
 40
1.0
 40
1.0
 40
1.0
 40
1.0
 10
-10.4152133898
 20
-17.3186947305
 30
0.0
 10
-10.4274432044
 20
-17.3125882918
 30
0.0
 10
-10.4506082334
 20
-17.294978913
 30
0.0
 10
-10.4753945628
 20
-17.2568271761
 30
0.0
 10
-10.4900969659
 20
-17.2092808265
 30
0.0
 10
-10.4931683439
 20
-17.1745752453
 30
0.0
 10
-10.4931683439
 20
-17.1564065735
 30
0.0
 11
-10.4152133898
 21
-17.3186947305
 31
0.0
 11
-10.4480290989
 21
-17.2941011973
 31
0.0
 11
-10.4726729977
 21
-17.2575046668
 31
0.0
 11
-10.4879433203
 21
-17.2106615719
 31
0.0
 11
-10.4931683439
 21
-17.1564065735
 31
0.0
  0
SPLINE
  5
426
100
AcDbEntity
  8
RACCORDO
100
AcDbSpline
 62
253
  6
CONTINUOUS
 70
0
 71
3
 72
10
 73
6
 74
4
 42
0.0000001
 43
0.0000001
 44
0.0000000001
 12
-0.0052294069
 22
-0.0464471338
 32
0.0
 13
0.0418651471
 23
-0.0207844266
 33
0.0
 40
0.0
 40
0.0
 40
0.0
 40
0.0
 40
0.1842709862
 40
0.5323257582
 40
1.0
 40
1.0
 40
1.0
 40
1.0
 10
-21.07428609
 20
17.271728831
 30
0.0
 10
-21.0746072993
 20
17.268875878
 30
0.0
 10
-21.0731055661
 20
17.2603134498
 30
0.0
 10
-21.0622475799
 20
17.2482486748
 30
0.0
 10
-21.0513598127
 20
17.2416293477
 30
0.0
 10
-21.0448333957
 20
17.238389234
 30
0.0
 11
-21.07428609
 21
17.271728831
 31
0.0
 11
-21.073054958
 21
17.2632043391
 31
0.0
 11
-21.0631767262
 21
17.2502784863
 31
0.0
 11
-21.0448333957
 21
17.238389234
 31
0.0
  0
SPLINE
  5
427
100
AcDbEntity
  8
RACCORDO
100
AcDbSpline
 62
253
  6
CONTINUOUS
 70
0
 71
3
 72
14
 73
10
 74
8
 42
0.0000001
 43
0.0000001
 44
0.0000000001
 12
-0.0150782182
 22
-0.0357036693
 32
0.0
 13
0.0346653102
 23
-0.0173326551
 33
0.0
 40
0.0
 40
0.0
 40
0.0
 40
0.0
 40
0.0166541062
 40
0.0663295089
 40
0.1487403484
 40
0.2635276767
 40
0.4089260144
 40
0.5820726134
 40
1.0
 40
1.0
 40
1.0
 40
1.0
 10
-20.9297593305
 20
17.7525301391
 30
0.0
 10
-20.9298430353
 20
17.7523319349
 30
0.0
 10
-20.9284035466
 20
17.7522017146
 30
0.0
 10
-20.9272738001
 20
17.7512231527
 30
0.0
 10
-20.9240142888
 20
17.750017432
 30
0.0
 10
-20.9201827229
 20
17.748045851
 30
0.0
 10
-20.9151096626
 20
17.7455745784
 30
0.0
 10
-20.9066360028
 20
17.7412927146
 30
0.0
 10
-20.8998061955
 20
17.7378574836
 30
0.0
 10
-20.8949770013
 20
17.7354428865
 30
0.0
 11
-20.9297593305
 21
17.7525301391
 31
0.0
 11
-20.9291791651
 21
17.7522472421
 31
0.0
 11
-20.9274176756
 21
17.7514701857
 31
0.0
 11
-20.9245113044
 21
17.7501455649
 31
0.0
 11
-20.9204985785
 21
17.7482246385
 31
0.0
 11
-20.9154478769
 21
17.7457254542
 31
0.0
 11
-20.9094498932
 21
17.7427159848
 31
0.0
 11
-20.8949770013
 21
17.7354428865
 31
0.0
  0
SPLINE
  5
428
100
AcDbEntity
  8
RACCORDO
100
AcDbSpline
 62
253
  6
CONTINUOUS
 70
0
 71
3
 72
11
 73
7
 74
5
 42
0.0000001
 43
0.0000001
 44
0.0000000001
 12
-0.0063026807
 22
0.1466896534
 32
0.0
 13
-0.1322734836
 23
0.0637283588
 33
0.0
 40
0.0
 40
0.0
 40
0.0
 40
0.0
 40
0.2429757366
 40
0.5075246798
 40
0.7679358194
 40
1.0
 40
1.0
 40
1.0
 40
1.0
 10
-7.0945326177
 20
11.5795810165
 30
0.0
 10
-7.0950430839
 20
11.591461692
 30
0.0
 10
-7.1003712185
 20
11.6161151483
 30
0.0
 10
-7.1168332845
 20
11.6502371204
 30
0.0
 10
-7.14026229
 20
11.6793237449
 30
0.0
 10
-7.1599353288
 20
11.6940177447
 30
0.0
 10
-7.170167308
 20
11.6989474345
 30
0.0
 11
-7.0945326177
 21
11.5795810165
 31
0.0
 11
-7.1014171447
 21
11.614585338
 31
0.0
 11
-7.1181901036
 21
11.6496196014
 31
0.0
 11
-7.1423786822
 21
11.6792307048
 31
0.0
 11
-7.170167308
 21
11.6989474345
 31
0.0
  0
SPLINE
  5
429
100
AcDbEntity
  8
RACCORDO
100
AcDbSpline
 62
253
  6
CONTINUOUS
 70
0
 71
3
 72
9
 73
5
 74
3
 42
0.0000001
 43
0.0000001
 44
0.0000000001
 12
-0.6665713003
 22
-0.3873892836
 32
0.0
 13
-0.3400829272
 23
-0.6919041538
 33
0.0
 40
0.0
 40
0.0
 40
0.0
 40
0.0
 40
0.4721840235
 40
1.0
 40
1.0
 40
1.0
 40
1.0
 10
-7.1701673087
 20
11.6989474341
 30
0.0
 10
-7.2750820815
 20
11.6379744239
 30
0.0
 10
-7.470960252
 20
11.4635835481
 30
0.0
 10
-7.6122685782
 20
11.245738554
 30
0.0
 10
-7.6721023123
 20
11.1240058651
 30
0.0
 11
-7.1701673087
 21
11.6989474341
 31
0.0
 11
-7.447896397
 21
11.4635968206
 31
0.0
 11
-7.6721023123
 21
11.1240058651
 31
0.0
  0
SPLINE
  5
42A
100
AcDbEntity
  8
RACCORDO
100
AcDbSpline
 62
253
  6
CONTINUOUS
 70
0
 71
3
 72
11
 73
7
 74
5
 42
0.0000001
 43
0.0000001
 44
0.0000000001
 12
-0.1260722457
 22
0.0635153367
 32
0.0
 13
-0.1262645131
 23
0.0631322567
 33
0.0
 40
0.0
 40
0.0
 40
0.0
 40
0.0
 40
0.2087004354
 40
0.4720126513
 40
0.7506128111
 40
1.0
 40
1.0
 40
1.0
 40
1.0
 10
-7.5466849075
 20
11.0592549057
 30
0.0
 10
-7.5554553517
 20
11.0636734652
 30
0.0
 10
-7.5745202609
 20
11.0751185537
 30
0.0
 10
-7.6059428111
 20
11.0912730719
 30
0.0
 10
-7.6394621595
 20
11.1074873223
 30
0.0
 10
-7.6616053934
 20
11.1187574099
 30
0.0
 10
-7.6721016441
 20
11.1240055353
 30
0.0
 11
-7.5466849075
 21
11.0592549057
 31
0.0
 11
-7.5724502724
 21
11.0735428447
 31
0.0
 11
-7.6053664502
 21
11.0908121257
 31
0.0
 11
-7.6406377382
 21
11.1082115647
 31
0.0
 11
-7.6721016441
 21
11.1240055353
 31
0.0
  0
SPLINE
  5
42B
100
AcDbEntity
  8
RACCORDO
100
AcDbSpline
 62
253
  6
CONTINUOUS
 70
0
 71
3
 72
9
 73
5
 74
3
 42
0.0000001
 43
0.0000001
 44
0.0000000001
 12
-0.6016126432
 22
-0.3507906522
 32
0.0
 13
-0.3055022521
 23
-0.6258276345
 33
0.0
 40
0.0
 40
0.0
 40
0.0
 40
0.0
 40
0.4720621593
 40
1.0
 40
1.0
 40
1.0
 40
1.0
 10
-7.0945326177
 20
11.5795810165
 30
0.0
 10
-7.1891988055
 20
11.5243826856
 30
0.0
 10
-7.365818433
 20
11.3664546838
 30
0.0
 10
-7.4929230283
 20
11.1693236639
 30
0.0
 10
-7.5466850947
 20
11.0591909673
 30
0.0
 11
-7.0945326177
 21
11.5795810165
 31
0.0
 11
-7.3449156284
 21
11.3665429128
 31
0.0
 11
-7.5466850947
 21
11.0591909673
 31
0.0
  0
SPLINE
  5
42C
100
AcDbEntity
  8
RACCORDO
100
AcDbSpline
 62
253
  6
CONTINUOUS
 70
0
 71
3
 72
10
 73
6
 74
4
 42
0.0000001
 43
0.0000001
 44
0.0000000001
 12
-0.0033542033
 22
-0.0473076843
 32
0.0
 13
0.0424549579
 23
-0.0211386903
 33
0.0
 40
0.0
 40
0.0
 40
0.0
 40
0.0
 40
0.1939965287
 40
0.5448586135
 40
1.0
 40
1.0
 40
1.0
 40
1.0
 10
-21.5115612996
 20
12.5477881271
 30
0.0
 10
-21.5117782009
 20
12.5447289516
 30
0.0
 10
-21.5101870734
 20
12.5359121137
 30
0.0
 10
-21.4995588828
 20
12.5233758757
 30
0.0
 10
-21.488655171
 20
12.5166273028
 30
0.0
 10
-21.4822141682
 20
12.5134202719
 30
0.0
 11
-21.5115612996
 21
12.5477881271
 31
0.0
 11
-21.5101127563
 21
12.5387023068
 31
0.0
 11
-21.500224265
 21
12.525319032
 31
0.0
 11
-21.4822141682
 21
12.5134202719
 31
0.0
  0
SPLINE
  5
42D
100
AcDbEntity
  8
RACCORDO
100
AcDbSpline
 62
253
  6
CONTINUOUS
 70
0
 71
3
 72
9
 73
5
 74
3
 42
0.0000001
 43
0.0000001
 44
0.0000000001
 12
-0.2365784912
 22
-0.4627744463
 32
0.0
 13
-0.0608679456
 23
-0.5161634081
 33
0.0
 40
0.0
 40
0.0
 40
0.0
 40
0.0
 40
0.2576098297
 40
1.0
 40
1.0
 40
1.0
 40
1.0
 10
-7.6721023123
 20
11.1240058651
 30
0.0
 10
-7.6924172939
 20
11.0842674497
 30
0.0
 10
-7.7647869902
 20
10.9268642538
 30
0.0
 10
-7.811679137
 20
10.7570748735
 30
0.0
 10
-7.8267417251
 20
10.6293433267
 30
0.0
 11
-7.6721023123
 21
11.1240058651
 31
0.0
 11
-7.728012822
 21
11.0023482465
 31
0.0
 11
-7.8267417251
 21
10.6293433267
 31
0.0
  0
SPLINE
  5
42E
100
AcDbEntity
  8
RACCORDO
100
AcDbSpline
 62
253
  6
CONTINUOUS
 70
0
 71
3
 72
9
 73
5
 74
3
 42
0.0000001
 43
0.0000001
 44
0.0000000001
 12
-0.1880275357
 22
-0.365287306
 32
0.0
 13
-0.0697881357
 23
-0.4048688507
 33
0.0
 40
0.0
 40
0.0
 40
0.0
 40
0.0
 40
0.5084972652
 40
1.0
 40
1.0
 40
1.0
 40
1.0
 10
-7.5466850947
 20
11.0633293779
 30
0.0
 10
-7.5785555906
 20
11.0014135126
 30
0.0
 10
-7.6323392514
 20
10.8748938835
 30
0.0
 10
-7.6671864658
 20
10.7418028609
 30
0.0
 10
-7.6786201524
 20
10.6754714785
 30
0.0
 11
-7.5466850947
 21
11.0633293779
 31
0.0
 11
-7.6283568926
 21
10.8710445801
 31
0.0
 11
-7.6786201524
 21
10.6754714785
 31
0.0
  0
SPLINE
  5
42F
100
AcDbEntity
  8
RACCORDO
100
AcDbSpline
 62
253
  6
CONTINUOUS
 70
0
 71
3
 72
11
 73
7
 74
5
 42
0.0000001
 43
0.0000001
 44
0.0000000001
 12
-0.1365133714
 22
-0.0411259864
 32
0.0
 13
-0.1273408408
 23
0.0641214285
 33
0.0
 40
0.0
 40
0.0
 40
0.0
 40
0.0
 40
0.2282460621
 40
0.4926962954
 40
0.7610561288
 40
1.0
 40
1.0
 40
1.0
 40
1.0
 10
-7.6873558088
 20
10.6154222849
 30
0.0
 10
-7.6977420219
 20
10.6122933368
 30
0.0
 10
-7.7211456929
 20
10.608908378
 30
0.0
 10
-7.7574208705
 20
10.6097648588
 30
0.0
 10
-7.7936510391
 20
10.6162301465
 30
0.0
 10
-7.8165992852
 20
10.6242361866
 30
0.0
 10
-7.8267417231
 20
10.6293433274
 30
0.0
 11
-7.6873558088
 21
10.6154222849
 31
0.0
 11
-7.7194431912
 21
10.6100025482
 31
0.0
 11
-7.7571401464
 21
10.6107123208
 31
0.0
 11
-7.7947892946
 21
10.6175276723
 31
0.0
 11
-7.8267417231
 21
10.6293433274
 31
0.0
  0
SPLINE
  5
430
100
AcDbEntity
  8
RACCORDO
100
AcDbSpline
 62
253
  6
CONTINUOUS
 70
0
 71
3
 72
11
 73
7
 74
5
 42
0.0000001
 43
0.0000001
 44
0.0000000001
 12
-0.0631463584
 22
0.031536263
 32
0.0
 13
0.0048459561
 23
0.0704167251
 33
0.0
 40
0.0
 40
0.0
 40
0.0
 40
0.0
 40
0.2130353409
 40
0.4452389377
 40
0.7080621625
 40
1.0
 40
1.0
 40
1.0
 40
1.0
 10
-21.1985451918
 20
11.9508628784
 30
0.0
 10
-21.2030293271
 20
11.9531023246
 30
0.0
 10
-21.2114939717
 20
11.9598008103
 30
0.0
 10
-21.2200204083
 20
11.9744552553
 30
0.0
 10
-21.2244342633
 20
11.9926278367
 30
0.0
 10
-21.2247318476
 20
12.0057752756
 30
0.0
 10
-21.224260275
 20
12.0126277111
 30
0.0
 11
-21.1985451918
 21
11.9508628784
 31
0.0
 11
-21.2104191373
 21
11.9600885338
 31
0.0
 11
-21.2189509795
 21
11.9740824469
 31
0.0
 11
-21.2236393921
 21
11.9920311391
 31
0.0
 11
-21.224260275
 21
12.0126277111
 31
0.0
  0
SPLINE
  5
431
100
AcDbEntity
  8
RACCORDO
100
AcDbSpline
 62
253
  6
CONTINUOUS
 70
0
 71
3
 72
9
 73
5
 74
3
 42
0.0000001
 43
0.0000001
 44
0.0000000001
 12
0.0400923011
 22
0.0218071709
 32
0.0
 13
0.0405109573
 23
-0.0210192209
 33
0.0
 40
0.0
 40
0.0
 40
0.0
 40
0.0
 40
0.4566423038
 40
1.0
 40
1.0
 40
1.0
 40
1.0
 10
-20.4211994202
 20
18.3055478723
 30
0.0
 10
-20.4150968066
 20
18.3088672312
 30
0.0
 10
-20.3991044897
 20
18.3114186271
 30
0.0
 10
-20.3843578501
 20
18.3061810333
 30
0.0
 10
-20.3770205367
 20
18.3023740481
 30
0.0
 11
-20.4211994202
 21
18.3055478723
 31
0.0
 11
-20.4007510211
 21
18.3095732046
 31
0.0
 11
-20.3770205367
 21
18.3023740481
 31
0.0
  0
SPLINE
  5
432
100
AcDbEntity
  8
RACCORDO
100
AcDbSpline
 62
253
  6
CONTINUOUS
 70
0
 71
3
 72
11
 73
7
 74
5
 42
0.0000001
 43
0.0000001
 44
0.0000000001
 12
-0.0631463598
 22
0.0315362619
 32
0.0
 13
0.0048459563
 23
0.0704167259
 33
0.0
 40
0.0
 40
0.0
 40
0.0
 40
0.0
 40
0.2130353395
 40
0.4452389364
 40
0.7080621625
 40
1.0
 40
1.0
 40
1.0
 40
1.0
 10
-8.5625448636
 20
5.6328627143
 30
0.0
 10
-8.567028999
 20
5.6351021604
 30
0.0
 10
-8.5754936438
 20
5.641800646
 30
0.0
 10
-8.5840200805
 20
5.6564550911
 30
0.0
 10
-8.5884339357
 20
5.6746276727
 30
0.0
 10
-8.5887315201
 20
5.6877751118
 30
0.0
 10
-8.5882599475
 20
5.6946275473
 30
0.0
 11
-8.5625448636
 21
5.6328627143
 31
0.0
 11
-8.5744188093
 21
5.6420883695
 31
0.0
 11
-8.5829506518
 21
5.6560822827
 31
0.0
 11
-8.5876390645
 21
5.6740309751
 31
0.0
 11
-8.5882599475
 21
5.6946275473
 31
0.0
  0
SPLINE
  5
433
100
AcDbEntity
  8
RACCORDO
100
AcDbSpline
 62
253
  6
CONTINUOUS
 70
0
 71
3
 72
11
 73
7
 74
5
 42
0.0000001
 43
0.0000001
 44
0.0000000001
 12
-0.1341262575
 22
-0.0499383253
 32
0.0
 13
-0.1279043713
 23
0.0642196316
 33
0.0
 40
0.0
 40
0.0
 40
0.0
 40
0.0
 40
0.2313619783
 40
0.4959552303
 40
0.7627227962
 40
1.0
 40
1.0
 40
1.0
 40
1.0
 10
-8.1397646844
 20
5.9034604006
 30
0.0
 10
-8.1501085898
 20
5.899609124
 30
0.0
 10
-8.1735404283
 20
5.8947997739
 30
0.0
 10
-8.2100648445
 20
5.8940205574
 30
0.0
 10
-8.2464932778
 20
5.8993737475
 30
0.0
 10
-8.2695288421
 20
5.907056455
 30
0.0
 10
-8.279645106
 20
5.9121357399
 30
0.0
 11
-8.1397646844
 21
5.9034604006
 31
0.0
 11
-8.1720395715
 21
5.8960583699
 31
0.0
 11
-8.2098957156
 21
5.8950749946
 31
0.0
 11
-8.2476520309
 21
5.900747829
 31
0.0
 11
-8.279645106
 21
5.9121357399
 31
0.0
  0
SPLINE
  5
434
100
AcDbEntity
  8
RACCORDO
100
AcDbSpline
 62
253
  6
CONTINUOUS
 70
0
 71
3
 72
9
 73
5
 74
3
 42
0.0000001
 43
0.0000001
 44
0.0000000001
 12
-0.0144735166
 22
-0.1968233327
 32
0.0
 13
-0.1313778572
 23
-0.1472710616
 33
0.0
 40
0.0
 40
0.0
 40
0.0
 40
0.0
 40
0.2765896114
 40
1.0
 40
1.0
 40
1.0
 40
1.0
 10
-8.2796451075
 20
5.9121357392
 30
0.0
 10
-8.2809795156
 20
5.8939893095
 30
0.0
 10
-8.2896461081
 20
5.828984073
 30
0.0
 10
-8.3164840455
 20
5.7645015813
 30
0.0
 10
-8.3481640811
 20
5.7289891093
 30
0.0
 11
-8.2796451075
 21
5.9121357392
 31
0.0
 11
-8.2871638353
 21
5.8580697542
 31
0.0
 11
-8.3481640811
 21
5.7289891093
 31
0.0
  0
SPLINE
  5
435
100
AcDbEntity
  8
RACCORDO
100
AcDbSpline
 62
253
  6
CONTINUOUS
 70
0
 71
3
 72
9
 73
5
 74
3
 42
0.0000001
 43
0.0000001
 44
0.0000000001
 12
-0.0481060282
 22
-0.05392557
 32
0.0
 13
-0.0650029345
 23
-0.0315717526
 33
0.0
 40
0.0
 40
0.0
 40
0.0
 40
0.0
 40
0.2570990391
 40
1.0
 40
1.0
 40
1.0
 40
1.0
 10
-8.3481640811
 20
5.7289891093
 30
0.0
 10
-8.3522867523
 20
5.7243677052
 30
0.0
 10
-8.369100836
 20
5.7071107598
 30
0.0
 10
-8.3892416532
 20
5.6930314676
 30
0.0
 10
-8.4053385674
 20
5.6852132392
 30
0.0
 11
-8.3481640811
 21
5.7289891093
 31
0.0
 11
-8.3611524186
 21
5.7157042597
 31
0.0
 11
-8.4053385674
 21
5.6852132392
 31
0.0
  0
SPLINE
  5
436
100
AcDbEntity
  8
RACCORDO
100
AcDbSpline
 62
253
  6
CONTINUOUS
 70
0
 71
3
 72
9
 73
5
 74
3
 42
0.0000001
 43
0.0000001
 44
0.0000000001
 12
-0.1116941073
 22
-0.0242535336
 32
0.0
 13
-0.1076929131
 23
0.0382889536
 33
0.0
 40
0.0
 40
0.0
 40
0.0
 40
0.0
 40
0.4825115903
 40
1.0
 40
1.0
 40
1.0
 40
1.0
 10
-8.4440522774
 20
5.6718358317
 30
0.0
 10
-8.4620168445
 20
5.6679349613
 30
0.0
 10
-8.5007161061
 20
5.6658294846
 30
0.0
 10
-8.5382742071
 20
5.6745914502
 30
0.0
 10
-8.5568508186
 20
5.6811961468
 30
0.0
 11
-8.4440522774
 21
5.6718358317
 31
0.0
 11
-8.4990968469
 21
5.6684332575
 31
0.0
 11
-8.5568508186
 21
5.6811961468
 31
0.0
  0
SPLINE
  5
437
100
AcDbEntity
  8
RACCORDO
100
AcDbSpline
 62
253
  6
CONTINUOUS
 70
0
 71
3
 72
9
 73
5
 74
3
 42
0.0000001
 43
0.0000001
 44
0.0000000001
 12
-0.01137256
 22
-0.1876266281
 32
0.0
 13
-0.0928161031
 23
-0.1634572045
 33
0.0
 40
0.0
 40
0.0
 40
0.0
 40
0.0
 40
0.2694057826
 40
1.0
 40
1.0
 40
1.0
 40
1.0
 10
-8.1397645889
 20
5.9034603511
 30
0.0
 10
-8.1407858667
 20
5.8866111182
 30
0.0
 10
-8.1474023066
 20
5.8243680874
 30
0.0
 10
-8.1663033783
 20
5.7627200139
 30
0.0
 10
-8.1889070144
 20
5.7229130511
 30
0.0
 11
-8.1397645889
 21
5.9034603511
 31
0.0
 11
-8.1452424932
 21
5.853117035
 31
0.0
 11
-8.1889070144
 21
5.7229130511
 31
0.0
  0
SPLINE
  5
438
100
AcDbEntity
  8
RACCORDO
100
AcDbSpline
 62
253
  6
CONTINUOUS
 70
0
 71
3
 72
9
 73
5
 74
3
 42
0.0000001
 43
0.0000001
 44
0.0000000001
 12
-0.0720916064
 22
-0.126959569
 32
0.0
 13
-0.1315504684
 23
-0.0633277674
 33
0.0
 40
0.0
 40
0.0
 40
0.0
 40
0.0
 40
0.5167400603
 40
1.0
 40
1.0
 40
1.0
 40
1.0
 10
-8.1889070144
 20
5.7229130511
 30
0.0
 10
-8.2013245547
 20
5.701044686
 30
0.0
 10
-8.2307556705
 20
5.6613822743
 30
0.0
 10
-8.2711692817
 20
5.6325128618
 30
0.0
 10
-8.2923603055
 20
5.6223116041
 30
0.0
 11
-8.1889070144
 21
5.7229130511
 31
0.0
 11
-8.2346735769
 21
5.6629363218
 31
0.0
 11
-8.2923603055
 21
5.6223116041
 31
0.0
  0
SPLINE
  5
439
100
AcDbEntity
  8
RACCORDO
100
AcDbSpline
 62
253
  6
CONTINUOUS
 70
0
 71
3
 72
9
 73
5
 74
3
 42
0.0000001
 43
0.0000001
 44
0.0000000001
 12
0.2527482166
 22
0.4075960584
 32
0.0
 13
0.3765727905
 23
0.2970002378
 33
0.0
 40
0.0
 40
0.0
 40
0.0
 40
0.0
 40
0.2602401138
 40
1.0
 40
1.0
 40
1.0
 40
1.0
 10
-20.8300953861
 20
17.8504284255
 30
0.0
 10
-20.8081703112
 20
17.8857860404
 30
0.0
 10
-20.7186488939
 20
18.0182060803
 30
0.0
 10
-20.6079500307
 20
18.1371225915
 30
0.0
 10
-20.5150922158
 20
18.2103588788
 30
0.0
 11
-20.8300953861
 21
17.8504284255
 31
0.0
 11
-20.7601419428
 21
17.9537935276
 31
0.0
 11
-20.5150922158
 21
18.2103588788
 31
0.0
  0
SPLINE
  5
43A
100
AcDbEntity
  8
RACCORDO
100
AcDbSpline
 62
253
  6
CONTINUOUS
 70
0
 71
3
 72
9
 73
5
 74
3
 42
0.0000001
 43
0.0000001
 44
0.0000000001
 12
0.1120657333
 22
0.0883854337
 32
0.0
 13
0.1233509173
 23
0.0718001718
 33
0.0
 40
0.0
 40
0.0
 40
0.0
 40
0.0
 40
0.2564376068
 40
1.0
 40
1.0
 40
1.0
 40
1.0
 10
-20.5150922158
 20
18.2103588788
 30
0.0
 10
-20.5055129263
 20
18.2179139952
 30
0.0
 10
-20.4676811206
 20
18.2467626633
 30
0.0
 10
-20.4279117483
 20
18.2731005368
 30
0.0
 10
-20.3973387138
 20
18.290896506
 30
0.0
 11
-20.5150922158
 21
18.2103588788
 31
0.0
 11
-20.485982516
 21
18.2325446515
 31
0.0
 11
-20.3973387138
 21
18.290896506
 31
0.0
  0
SPLINE
  5
43B
100
AcDbEntity
  8
RACCORDO
100
AcDbSpline
 62
253
  6
CONTINUOUS
 70
0
 71
3
 72
9
 73
5
 74
3
 42
0.0000001
 43
0.0000001
 44
0.0000000001
 12
0.0642420931
 22
0.2880667622
 32
0.0
 13
0.1169588382
 23
0.2709799553
 33
0.0
 40
0.0
 40
0.0
 40
0.0
 40
0.0
 40
0.2456887501
 40
1.0
 40
1.0
 40
1.0
 40
1.0
 10
-21.0207298179
 20
17.3808078812
 30
0.0
 10
-21.0154686313
 20
17.4043994688
 30
0.0
 10
-20.9916595168
 20
17.4998765668
 30
0.0
 10
-20.9586487326
 20
17.5930205714
 30
0.0
 10
-20.9292409435
 20
17.661154981
 30
0.0
 11
-21.0207298179
 21
17.3808078812
 31
0.0
 11
-21.0032139281
 21
17.4511739341
 31
0.0
 11
-20.9292409435
 21
17.661154981
 31
0.0
  0
SPLINE
  5
43C
100
AcDbEntity
  8
RACCORDO
100
AcDbSpline
 62
253
  6
CONTINUOUS
 70
0
 71
3
 72
11
 73
7
 74
5
 42
0.0000001
 43
0.0000001
 44
0.0000000001
 12
-0.4557461
 22
0.2278696048
 32
0.0
 13
-0.0488699695
 23
0.5071891073
 33
0.0
 40
0.0
 40
0.0
 40
0.0
 40
0.0
 40
0.2246340471
 40
0.4755495709
 40
0.7395609113
 40
1.0
 40
1.0
 40
1.0
 40
1.0
 10
-21.224260275
 20
12.0126277111
 30
0.0
 10
-21.2583856386
 20
12.0296901349
 30
0.0
 10
-21.3239622296
 20
12.0794308704
 30
0.0
 10
-21.4013723641
 20
12.179708659
 30
0.0
 10
-21.4572502438
 20
12.3000684583
 30
0.0
 10
-21.4767329803
 20
12.3879163282
 30
0.0
 10
-21.4809755304
 20
12.4319469512
 30
0.0
 11
-21.224260275
 21
12.0126277111
 31
0.0
 11
-21.3168125004
 21
12.0799707607
 31
0.0
 11
-21.3960152318
 21
12.1803341493
 31
0.0
 11
-21.4528669663
 21
12.3022543781
 31
0.0
 11
-21.4809755304
 21
12.4319469512
 31
0.0
  0
SPLINE
  5
43D
100
AcDbEntity
  8
RACCORDO
100
AcDbSpline
 62
253
  6
CONTINUOUS
 70
0
 71
3
 72
9
 73
5
 74
3
 42
0.0000001
 43
0.0000001
 44
0.0000000001
 12
-0.0078200431
 22
0.0811590576
 32
0.0
 13
0.0057695418
 23
0.0813305483
 33
0.0
 40
0.0
 40
0.0
 40
0.0
 40
0.0
 40
0.2557397153
 40
1.0
 40
1.0
 40
1.0
 40
1.0
 10
-21.4809755304
 20
12.4319469512
 30
0.0
 10
-21.4816421623
 20
12.4388654826
 30
0.0
 10
-21.4837200488
 20
12.4659651282
 30
0.0
 10
-21.4836455177
 20
12.4932432385
 30
0.0
 10
-21.4822141708
 20
12.5134202709
 30
0.0
 11
-21.4809755304
 21
12.4319469512
 31
0.0
 11
-21.4825641843
 21
12.452738066
 31
0.0
 11
-21.4822141708
 21
12.5134202709
 31
0.0
  0
LINE
  5
43E
100
AcDbEntity
  8
RACCORDO
100
AcDbLine
 62
253
  6
CONTINUOUS
 10
-21.4822141708
 20
12.5134202709
 11
-21.4799381217
 21
12.5454402518
  0
SPLINE
  5
43F
100
AcDbEntity
  8
ASSI
100
AcDbSpline
 62
7
  6
CONTINUOUS
 70
0
 71
3
 72
13
 73
9
 74
7
 42
0.0000001
 43
0.0000001
 44
0.0000000001
 12
-1.30107473
 22
-0.650537365
 32
0.0
 13
-1.30107473
 23
0.650537365
 33
0.0
 40
0.0
 40
0.0
 40
0.0
 40
0.0
 40
0.1125718574
 40
0.2356444686
 40
0.5
 40
0.7643555314
 40
0.8874281426
 40
1.0
 40
1.0
 40
1.0
 40
1.0
 10
9.0894572666
 20
18.8768671339
 30
0.0
 10
9.0406358002
 20
18.8524564007
 30
0.0
 10
8.9341932605
 20
18.8096734264
 30
0.0
 10
8.6992629466
 20
18.7480007608
 30
0.0
 10
8.3823504854
 20
18.7184249253
 30
0.0
 10
8.0654380241
 20
18.7480007608
 30
0.0
 10
7.8305077102
 20
18.8096734264
 30
0.0
 10
7.7240651705
 20
18.8524564007
 30
0.0
 10
7.6752437042
 20
18.8768671339
 30
0.0
 11
9.0894572666
 21
18.8768671339
 31
0.0
 11
8.9379603411
 21
18.8147104223
 31
0.0
 11
8.765006511
 21
18.7684756037
 31
0.0
 11
8.3823504854
 21
18.7304205245
 31
0.0
 11
7.9996944597
 21
18.7684756037
 31
0.0
 11
7.8267406296
 21
18.8147104223
 31
0.0
 11
7.6752437042
 21
18.8768671339
 31
0.0
  0
SPLINE
  5
440
100
AcDbEntity
  8
ASSI
100
AcDbSpline
 62
7
  6
CONTINUOUS
 70
0
 71
3
 72
17
 73
13
 74
11
 42
0.0000001
 43
0.0000001
 44
0.0000000001
 12
-0.0004687856
 22
0.9682860466
 32
0.0
 13
0.8660614702
 23
-0.4330307351
 33
0.0
 40
0.0
 40
0.0
 40
0.0
 40
0.0
 40
0.0383016485
 40
0.078923598
 40
0.1236885111
 40
0.1736215593
 40
0.2898489405
 40
0.4255506674
 40
0.5737284213
 40
0.7251385222
 40
0.8701797192
 40
1.0
 40
1.0
 40
1.0
 40
1.0
 10
5.7610480817
 20
15.9489890222
 30
0.0
 10
5.7610420966
 20
15.9613513395
 30
0.0
 10
5.7649038492
 20
15.9869619961
 30
0.0
 10
5.781785868
 20
16.0236128081
 30
0.0
 10
5.8090619405
 20
16.0581470347
 30
0.0
 10
5.860730132
 20
16.1029474971
 30
0.0
 10
5.9481538317
 20
16.1485741865
 30
0.0
 10
6.0727651113
 20
16.1845053739
 30
0.0
 10
6.2127916334
 20
16.2014747468
 30
0.0
 10
6.3567714415
 20
16.1980880353
 30
0.0
 10
6.4928180995
 20
16.1745722117
 30
0.0
 10
6.5771060846
 20
16.1446718339
 30
0.0
 10
6.6145835324
 20
16.12593311
 30
0.0
 11
5.7610480817
 21
15.9489890222
 31
0.0
 11
5.7664178254
 21
15.9856851824
 31
0.0
 11
5.7824780889
 21
16.0215906924
 31
0.0
 11
5.8089384349
 21
16.0559223166
 31
0.0
 11
5.8451607654
 21
16.08794754
 31
0.0
 11
5.9436843514
 21
16.1423411221
 31
0.0
 11
6.0695438319
 21
16.180088346
 31
0.0
 11
6.2119082446
 21
16.1979333695
 31
0.0
 11
6.3584730554
 21
16.1943624614
 31
0.0
 11
6.4967193253
 21
16.1696288587
 31
0.0
 11
6.6145835324
 21
16.12593311
 31
0.0
  0
SPLINE
  5
441
100
AcDbEntity
  8
ASSI
100
AcDbSpline
 62
7
  6
CONTINUOUS
 70
0
 71
3
 72
11
 73
7
 74
5
 42
0.0000001
 43
0.0000001
 44
0.0000000001
 12
0.2150852277
 22
-0.1075426138
 32
0.0
 13
0.0001164223
 23
-0.2404725668
 33
0.0
 40
0.0
 40
0.0
 40
0.0
 40
0.0
 40
0.3021011337
 40
0.5655248614
 40
0.7935014726
 40
1.0
 40
1.0
 40
1.0
 40
1.0
 10
10.1501174383
 20
17.893700063
 30
0.0
 10
10.171776602
 20
17.8828704811
 30
0.0
 10
10.2109546354
 20
17.8595626098
 30
0.0
 10
10.2586232208
 20
17.8166322318
 30
0.0
 10
10.2891865383
 20
17.768727425
 30
0.0
 10
10.2965380942
 20
17.7336431705
 30
0.0
 10
10.2965461079
 20
17.7170907602
 30
0.0
 11
10.1501174383
 21
17.893700063
 31
0.0
 11
10.2121488171
 21
17.855888676
 31
0.0
 11
10.2584536605
 21
17.812661359
 31
0.0
 11
10.2869125245
 21
17.7658045697
 31
0.0
 11
10.2965461079
 21
17.7170907602
 31
0.0
  0
SPLINE
  5
442
100
AcDbEntity
  8
ASSI
100
AcDbSpline
 62
7
  6
CONTINUOUS
 70
0
 71
3
 72
11
 73
7
 74
5
 42
0.0000001
 43
0.0000001
 44
0.0000000001
 12
0.2150852277
 22
-0.1075426138
 32
0.0
 13
0.0001164223
 23
-0.2404725668
 33
0.0
 40
0.0
 40
0.0
 40
0.0
 40
0.0
 40
0.3021011337
 40
0.5655248614
 40
0.7935014726
 40
1.0
 40
1.0
 40
1.0
 40
1.0
 10
6.6145835324
 20
16.12593311
 30
0.0
 10
6.6362426961
 20
16.1151035282
 30
0.0
 10
6.6754207295
 20
16.0917956568
 30
0.0
 10
6.7230893149
 20
16.0488652788
 30
0.0
 10
6.7536526324
 20
16.000960472
 30
0.0
 10
6.7610041883
 20
15.9658762175
 30
0.0
 10
6.7610122019
 20
15.9493238072
 30
0.0
 11
6.6145835324
 21
16.12593311
 31
0.0
 11
6.6766149112
 21
16.088121723
 31
0.0
 11
6.7229197546
 21
16.044894406
 31
0.0
 11
6.7513786185
 21
15.9980376167
 31
0.0
 11
6.7610122019
 21
15.9493238072
 31
0.0
  0
SPLINE
  5
443
100
AcDbEntity
  8
ASSI
100
AcDbSpline
 62
7
  6
CONTINUOUS
 70
0
 71
3
 72
17
 73
13
 74
11
 42
0.0000001
 43
0.0000001
 44
0.0000000001
 12
-0.0004687856
 22
0.9682860466
 32
0.0
 13
0.8660614702
 23
-0.4330307351
 33
0.0
 40
0.0
 40
0.0
 40
0.0
 40
0.0
 40
0.0383016485
 40
0.078923598
 40
0.1236885111
 40
0.1736215593
 40
0.2898489405
 40
0.4255506674
 40
0.5737284213
 40
0.7251385222
 40
0.8701797192
 40
1.0
 40
1.0
 40
1.0
 40
1.0
 10
9.2965819876
 20
17.7167559752
 30
0.0
 10
9.2965760025
 20
17.7291182924
 30
0.0
 10
9.3004377551
 20
17.7547289491
 30
0.0
 10
9.317319774
 20
17.7913797611
 30
0.0
 10
9.3445958465
 20
17.8259139876
 30
0.0
 10
9.3962640379
 20
17.8707144501
 30
0.0
 10
9.4836877376
 20
17.9163411395
 30
0.0
 10
9.6082990172
 20
17.9522723268
 30
0.0
 10
9.7483255394
 20
17.9692416998
 30
0.0
 10
9.8923053474
 20
17.9658549883
 30
0.0
 10
10.0283520054
 20
17.9423391646
 30
0.0
 10
10.1126399906
 20
17.9124387869
 30
0.0
 10
10.1501174383
 20
17.893700063
 30
0.0
 11
9.2965819876
 21
17.7167559752
 31
0.0
 11
9.3019517313
 21
17.7534521353
 31
0.0
 11
9.3180119948
 21
17.7893576453
 31
0.0
 11
9.3444723408
 21
17.8236892696
 31
0.0
 11
9.3806946713
 21
17.855714493
 31
0.0
 11
9.4792182573
 21
17.9101080751
 31
0.0
 11
9.6050777378
 21
17.9478552989
 31
0.0
 11
9.7474421505
 21
17.9657003225
 31
0.0
 11
9.8940069613
 21
17.9621294144
 31
0.0
 11
10.0322532312
 21
17.9373958117
 31
0.0
 11
10.1501174383
 21
17.893700063
 31
0.0
  0
SPLINE
  5
444
100
AcDbEntity
  8
0
100
AcDbSpline
 62
7
  6
CONTINUOUS
 70
0
 71
3
 72
9
 73
5
 74
3
 42
0.0000001
 43
0.0000001
 44
0.0000000001
 12
-0.1651057071
 22
0.1459201428
 32
0.0
 13
-0.1066878176
 23
0.1927959859
 33
0.0
 40
0.0
 40
0.0
 40
0.0
 40
0.0
 40
0.2676657409
 40
1.0
 40
1.0
 40
1.0
 40
1.0
 10
8.4910118517
 20
15.9619780532
 30
0.0
 10
8.4762808046
 20
15.9749973275
 30
0.0
 10
8.422976618
 20
16.0254795686
 30
0.0
 10
8.3769245329
 20
16.0842190198
 30
0.0
 10
8.3508808183
 20
16.1312827216
 30
0.0
 11
8.4910118517
 21
15.9619780532
 31
0.0
 11
8.4482649718
 21
16.0026136479
 31
0.0
 11
8.3508808183
 21
16.1312827216
 31
0.0
  0
SPLINE
  5
445
100
AcDbEntity
  8
0
100
AcDbSpline
 62
7
  6
CONTINUOUS
 70
0
 71
3
 72
17
 73
13
 74
11
 42
0.0000001
 43
0.0000001
 44
0.0000000001
 12
0.000053293
 22
-0.9681287276
 32
0.0
 13
-0.8659206597
 23
0.4329603298
 33
0.0
 40
0.0
 40
0.0
 40
0.0
 40
0.0
 40
0.0383002
 40
0.0789402238
 40
0.123706093
 40
0.1736652245
 40
0.2899041424
 40
0.4256101644
 40
0.5737773842
 40
0.7251929492
 40
0.8701740781
 40
1.0
 40
1.0
 40
1.0
 40
1.0
 10
6.761012028
 20
15.3612677214
 30
0.0
 10
6.7610127083
 20
15.3489078801
 30
0.0
 10
6.7571419883
 20
15.3232915863
 30
0.0
 10
6.74016164
 20
15.2866895244
 30
0.0
 10
6.7129050091
 20
15.2521359738
 30
0.0
 10
6.6611608542
 20
15.2074123771
 30
0.0
 10
6.5737600416
 20
15.1617801093
 30
0.0
 10
6.4491484596
 20
15.1258924103
 30
0.0
 10
6.3091474866
 20
15.1089278861
 30
0.0
 10
6.1652126549
 20
15.1123522089
 30
0.0
 10
6.0292023815
 20
15.1358495344
 30
0.0
 10
5.9449497339
 20
15.165754535
 30
0.0
 10
5.9074767512
 20
15.1844910263
 30
0.0
 11
6.761012028
 21
15.3612677214
 31
0.0
 11
6.7556171843
 21
15.324582755
 31
0.0
 11
6.739488516
 21
15.2886957469
 31
0.0
 11
6.713021578
 21
15.2543769349
 31
0.0
 11
6.6767534833
 21
15.2223772556
 31
0.0
 11
6.578218966
 21
15.1680182349
 31
0.0
 11
6.452368574
 21
15.1303006082
 31
0.0
 11
6.3100355303
 21
15.1124748936
 31
0.0
 11
6.1634898702
 21
15.1160702791
 31
0.0
 11
6.0253237273
 21
15.140791884
 31
0.0
 11
5.9074767512
 21
15.1844910263
 31
0.0
  0
SPLINE
  5
446
100
AcDbEntity
  8
ASSI
100
AcDbSpline
 62
7
  6
CONTINUOUS
 70
0
 71
3
 72
17
 73
13
 74
11
 42
0.0000001
 43
0.0000001
 44
0.0000000001
 12
0.0004687856
 22
-0.9682860466
 32
0.0
 13
-0.8660614702
 23
0.4330307351
 33
0.0
 40
0.0
 40
0.0
 40
0.0
 40
0.0
 40
0.0383016485
 40
0.078923598
 40
0.1236885111
 40
0.1736215593
 40
0.2898489405
 40
0.4255506674
 40
0.5737284213
 40
0.7251385222
 40
0.8701797192
 40
1.0
 40
1.0
 40
1.0
 40
1.0
 10
6.7610122019
 20
15.9493238072
 30
0.0
 10
6.761018187
 20
15.93696149
 30
0.0
 10
6.7571564344
 20
15.9113508333
 30
0.0
 10
6.7402744156
 20
15.8747000213
 30
0.0
 10
6.7129983431
 20
15.8401657948
 30
0.0
 10
6.6613301516
 20
15.7953653323
 30
0.0
 10
6.5739064519
 20
15.7497386429
 30
0.0
 10
6.4492951723
 20
15.7138074556
 30
0.0
 10
6.3092686502
 20
15.6968380826
 30
0.0
 10
6.1652888421
 20
15.7002247941
 30
0.0
 10
6.0292421841
 20
15.7237406178
 30
0.0
 10
5.944954199
 20
15.7536409955
 30
0.0
 10
5.9074767512
 20
15.7723797194
 30
0.0
 11
6.7610122019
 21
15.9493238072
 31
0.0
 11
6.7556424583
 21
15.9126276471
 31
0.0
 11
6.7395821947
 21
15.8767221371
 31
0.0
 11
6.7131218487
 21
15.8423905128
 31
0.0
 11
6.6768995183
 21
15.8103652894
 31
0.0
 11
6.5783759322
 21
15.7559717073
 31
0.0
 11
6.4525164518
 21
15.7182244835
 31
0.0
 11
6.310152039
 21
15.7003794599
 31
0.0
 11
6.1635872282
 21
15.703950368
 31
0.0
 11
6.0253409583
 21
15.7286839707
 31
0.0
 11
5.9074767512
 21
15.7723797194
 31
0.0
  0
SPLINE
  5
447
100
AcDbEntity
  8
ASSI
100
AcDbSpline
 62
7
  6
CONTINUOUS
 70
0
 71
3
 72
11
 73
7
 74
5
 42
0.0000001
 43
0.0000001
 44
0.0000000001
 12
-0.2150852277
 22
0.1075426138
 32
0.0
 13
-0.0001164223
 23
0.2404725668
 33
0.0
 40
0.0
 40
0.0
 40
0.0
 40
0.0
 40
0.3021011337
 40
0.5655248614
 40
0.7935014726
 40
1.0
 40
1.0
 40
1.0
 40
1.0
 10
9.4430106571
 20
17.5401466724
 30
0.0
 10
9.4213514934
 20
17.5509762542
 30
0.0
 10
9.3821734601
 20
17.5742841256
 30
0.0
 10
9.3345048747
 20
17.6172145036
 30
0.0
 10
9.3039415571
 20
17.6651193103
 30
0.0
 10
9.2965900013
 20
17.7002035648
 30
0.0
 10
9.2965819876
 20
17.7167559752
 30
0.0
 11
9.4430106571
 21
17.5401466724
 31
0.0
 11
9.3809792783
 21
17.5779580594
 31
0.0
 11
9.334674435
 21
17.6211853764
 31
0.0
 11
9.306215571
 21
17.6680421657
 31
0.0
 11
9.2965819876
 21
17.7167559752
 31
0.0
  0
SPLINE
  5
448
100
AcDbEntity
  8
0
100
AcDbSpline
 62
7
  6
CONTINUOUS
 70
0
 71
3
 72
11
 73
7
 74
5
 42
0.0000001
 43
0.0000001
 44
0.0000000001
 12
-0.2152351286
 22
0.1076175643
 32
0.0
 13
-0.0000132466
 23
0.240640189
 33
0.0
 40
0.0
 40
0.0
 40
0.0
 40
0.0
 40
0.3022948263
 40
0.5655534949
 40
0.7934641107
 40
1.0
 40
1.0
 40
1.0
 40
1.0
 10
9.4430106571
 20
16.9522579793
 30
0.0
 10
9.4213225019
 20
16.9631020569
 30
0.0
 10
9.3821016969
 20
16.9864119509
 30
0.0
 10
9.3344424557
 20
17.0294115773
 30
0.0
 10
9.3038719538
 20
17.077347914
 30
0.0
 10
9.2965830735
 20
17.1124677297
 30
0.0
 10
9.2965821616
 20
17.1290346749
 30
0.0
 11
9.4430106571
 21
16.9522579793
 31
0.0
 11
9.3808947754
 21
16.9901175636
 31
0.0
 11
9.3346120524
 21
17.0333750494
 31
0.0
 11
9.306168165
 21
17.0802670464
 31
0.0
 11
9.2965821616
 21
17.1290346749
 31
0.0
  0
SPLINE
  5
449
100
AcDbEntity
  8
0
100
AcDbSpline
 62
7
  6
CONTINUOUS
 70
0
 71
3
 72
17
 73
13
 74
11
 42
0.0000001
 43
0.0000001
 44
0.0000000001
 12
0.000053293
 22
-0.9681287276
 32
0.0
 13
-0.8659206597
 23
0.4329603298
 33
0.0
 40
0.0
 40
0.0
 40
0.0
 40
0.0
 40
0.0383002
 40
0.0789402238
 40
0.123706093
 40
0.1736652245
 40
0.2899041424
 40
0.4256101644
 40
0.5737773842
 40
0.7251929492
 40
0.8701740781
 40
1.0
 40
1.0
 40
1.0
 40
1.0
 10
10.2965459339
 20
17.1290346744
 30
0.0
 10
10.2965466143
 20
17.1166748331
 30
0.0
 10
10.2926758943
 20
17.0910585393
 30
0.0
 10
10.275695546
 20
17.0544564774
 30
0.0
 10
10.248438915
 20
17.0199029268
 30
0.0
 10
10.1966947602
 20
16.97517933
 30
0.0
 10
10.1092939475
 20
16.9295470623
 30
0.0
 10
9.9846823655
 20
16.8936593633
 30
0.0
 10
9.8446813926
 20
16.876694839
 30
0.0
 10
9.7007465608
 20
16.8801191619
 30
0.0
 10
9.5647362874
 20
16.9036164874
 30
0.0
 10
9.4804836398
 20
16.933521488
 30
0.0
 10
9.4430106571
 20
16.9522579793
 30
0.0
 11
10.2965459339
 21
17.1290346744
 31
0.0
 11
10.2911510902
 21
17.0923497079
 31
0.0
 11
10.275022422
 21
17.0564626999
 31
0.0
 11
10.2485554839
 21
17.0221438879
 31
0.0
 11
10.2122873893
 21
16.9901442086
 31
0.0
 11
10.113752872
 21
16.9357851878
 31
0.0
 11
9.98790248
 21
16.8980675611
 31
0.0
 11
9.8455694362
 21
16.8802418466
 31
0.0
 11
9.6990237761
 21
16.883837232
 31
0.0
 11
9.5608576332
 21
16.908558837
 31
0.0
 11
9.4430106571
 21
16.9522579793
 31
0.0
  0
SPLINE
  5
44A
100
AcDbEntity
  8
ASSI
100
AcDbSpline
 62
7
  6
CONTINUOUS
 70
0
 71
3
 72
11
 73
7
 74
5
 42
0.0000001
 43
0.0000001
 44
0.0000000001
 12
-0.2150852277
 22
0.1075426138
 32
0.0
 13
-0.0001164223
 23
0.2404725668
 33
0.0
 40
0.0
 40
0.0
 40
0.0
 40
0.0
 40
0.3021011337
 40
0.5655248614
 40
0.7935014726
 40
1.0
 40
1.0
 40
1.0
 40
1.0
 10
5.9074767512
 20
15.7723797194
 30
0.0
 10
5.8858175875
 20
15.7832093013
 30
0.0
 10
5.8466395541
 20
15.8065171726
 30
0.0
 10
5.7989709687
 20
15.8494475506
 30
0.0
 10
5.7684076512
 20
15.8973523574
 30
0.0
 10
5.7610560954
 20
15.9324366119
 30
0.0
 10
5.7610480817
 20
15.9489890222
 30
0.0
 11
5.9074767512
 21
15.7723797194
 31
0.0
 11
5.8454453724
 21
15.8101911064
 31
0.0
 11
5.799140529
 21
15.8534184234
 31
0.0
 11
5.7706816651
 21
15.9002752127
 31
0.0
 11
5.7610480817
 21
15.9489890222
 31
0.0
  0
SPLINE
  5
44B
100
AcDbEntity
  8
0
100
AcDbSpline
 62
7
  6
CONTINUOUS
 70
0
 71
3
 72
11
 73
7
 74
5
 42
0.0000001
 43
0.0000001
 44
0.0000000001
 12
-0.2152351286
 22
0.1076175643
 32
0.0
 13
-0.0000132466
 23
0.240640189
 33
0.0
 40
0.0
 40
0.0
 40
0.0
 40
0.0
 40
0.3022948263
 40
0.5655534949
 40
0.7934641107
 40
1.0
 40
1.0
 40
1.0
 40
1.0
 10
5.9074767512
 20
15.1844910263
 30
0.0
 10
5.8857885959
 20
15.195335104
 30
0.0
 10
5.846567791
 20
15.2186449979
 30
0.0
 10
5.7989085497
 20
15.2616446244
 30
0.0
 10
5.7683380479
 20
15.309580961
 30
0.0
 10
5.7610491676
 20
15.3447007767
 30
0.0
 10
5.7610482556
 20
15.3612677219
 30
0.0
 11
5.9074767512
 21
15.1844910263
 31
0.0
 11
5.8453608695
 21
15.2223506107
 31
0.0
 11
5.7990781464
 21
15.2656080965
 31
0.0
 11
5.7706342591
 21
15.3125000934
 31
0.0
 11
5.7610482556
 21
15.3612677219
 31
0.0
  0
SPLINE
  5
44C
100
AcDbEntity
  8
ASSI
100
AcDbSpline
 62
7
  6
CONTINUOUS
 70
0
 71
3
 72
17
 73
13
 74
11
 42
0.0000001
 43
0.0000001
 44
0.0000000001
 12
0.0004687856
 22
-0.9682860466
 32
0.0
 13
-0.8660614702
 23
0.4330307351
 33
0.0
 40
0.0
 40
0.0
 40
0.0
 40
0.0
 40
0.0383016485
 40
0.078923598
 40
0.1236885111
 40
0.1736215593
 40
0.2898489405
 40
0.4255506674
 40
0.5737284213
 40
0.7251385222
 40
0.8701797192
 40
1.0
 40
1.0
 40
1.0
 40
1.0
 10
10.2965461079
 20
17.7170907602
 30
0.0
 10
10.296552093
 20
17.7047284429
 30
0.0
 10
10.2926903404
 20
17.6791177863
 30
0.0
 10
10.2758083215
 20
17.6424669743
 30
0.0
 10
10.248532249
 20
17.6079327477
 30
0.0
 10
10.1968640576
 20
17.5631322853
 30
0.0
 10
10.1094403579
 20
17.5175055959
 30
0.0
 10
9.9848290783
 20
17.4815744085
 30
0.0
 10
9.8448025561
 20
17.4646050356
 30
0.0
 10
9.700822748
 20
17.467991747
 30
0.0
 10
9.5647760901
 20
17.4915075707
 30
0.0
 10
9.4804881049
 20
17.5214079485
 30
0.0
 10
9.4430106571
 20
17.5401466724
 30
0.0
 11
10.2965461079
 21
17.7170907602
 31
0.0
 11
10.2911763642
 21
17.6803946
 31
0.0
 11
10.2751161007
 21
17.64448909
 31
0.0
 11
10.2486557547
 21
17.6101574658
 31
0.0
 11
10.2124334242
 21
17.5781322424
 31
0.0
 11
10.1139098381
 21
17.5237386603
 31
0.0
 11
9.9880503577
 21
17.4859914364
 31
0.0
 11
9.8456859449
 21
17.4681464129
 31
0.0
 11
9.6991211342
 21
17.471717321
 31
0.0
 11
9.5608748643
 21
17.4964509237
 31
0.0
 11
9.4430106571
 21
17.5401466724
 31
0.0
  0
SPLINE
  5
44D
100
AcDbEntity
  8
0
100
AcDbSpline
 62
7
  6
CONTINUOUS
 70
0
 71
3
 72
11
 73
7
 74
5
 42
0.0000001
 43
0.0000001
 44
0.0000000001
 12
-0.2015618791
 22
0.3585344779
 32
0.0
 13
0.1963112972
 23
0.3614360766
 33
0.0
 40
0.0
 40
0.0
 40
0.0
 40
0.0
 40
0.2568404357
 40
0.5007985768
 40
0.7443178008
 40
1.0
 40
1.0
 40
1.0
 40
1.0
 10
8.3735391007
 20
16.1745839918
 30
0.0
 10
8.3562826871
 20
16.2052793756
 30
0.0
 10
8.3288772463
 20
16.269072196
 30
0.0
 10
8.3137437268
 20
16.3712260595
 30
0.0
 10
8.3270287569
 20
16.4734847533
 30
0.0
 10
8.3533443314
 20
16.5375123378
 30
0.0
 10
8.3700754328
 20
16.5683165948
 30
0.0
 11
8.3735391007
 21
16.1745839918
 31
0.0
 11
8.3327024442
 21
16.27201233
 31
0.0
 11
8.3183996344
 21
16.3713296354
 31
0.0
 11
8.3309499456
 21
16.470701615
 31
0.0
 11
8.3700754328
 21
16.5683165948
 31
0.0
  0
SPLINE
  5
44E
100
AcDbEntity
  8
0
100
AcDbSpline
 62
7
  6
CONTINUOUS
 70
0
 71
3
 72
9
 73
5
 74
3
 42
0.0000001
 43
0.0000001
 44
0.0000000001
 12
0.0135574839
 22
0.1725116179
 32
0.0
 13
0.0825912312
 23
0.1520616724
 33
0.0
 40
0.0
 40
0.0
 40
0.0
 40
0.0
 40
0.2428976705
 40
1.0
 40
1.0
 40
1.0
 40
1.0
 10
4.7839907994
 20
14.6358252196
 30
0.0
 10
4.7850884932
 20
14.6497927763
 30
0.0
 10
4.7928394737
 20
14.7070370385
 30
0.0
 10
4.8136981844
 20
14.7621742208
 30
0.0
 10
4.8345415223
 20
14.8005496362
 30
0.0
 11
4.7839907994
 21
14.6358252196
 31
0.0
 11
4.78962723
 21
14.677477456
 31
0.0
 11
4.8345415223
 21
14.8005496362
 31
0.0
  0
SPLINE
  5
44F
100
AcDbEntity
  8
RACCORDO
100
AcDbSpline
 62
7
  6
CONTINUOUS
 70
0
 71
3
 72
10
 73
6
 74
4
 42
0.0000001
 43
0.0000001
 44
0.0000000001
 12
0.3347768331
 22
0.1674476807
 32
0.0
 13
0.3348005421
 23
-0.1674002711
 33
0.0
 40
0.0
 40
0.0
 40
0.0
 40
0.0
 40
0.2302899068
 40
0.4694019161
 40
1.0
 40
1.0
 40
1.0
 40
1.0
 10
-21.6255469801
 20
7.6764650665
 30
0.0
 10
-21.5998484049
 20
7.6893189034
 30
0.0
 10
-21.5435292486
 20
7.7083441663
 30
0.0
 10
-21.4178191411
 20
7.7156598708
 30
0.0
 10
-21.3227689524
 20
7.6854736139
 30
0.0
 10
-21.2635541103
 20
7.6558661929
 30
0.0
 11
-21.6255469801
 21
7.6764650665
 31
0.0
 11
-21.5439404135
 21
7.7042339215
 31
0.0
 11
-21.4546269244
 21
7.7100709143
 31
0.0
 11
-21.2635541103
 21
7.6558661929
 31
0.0
  0
SPLINE
  5
450
100
AcDbEntity
  8
RACCORDO
100
AcDbSpline
 62
7
  6
CONTINUOUS
 70
0
 71
3
 72
9
 73
5
 74
3
 42
0.0000001
 43
0.0000001
 44
0.0000000001
 12
-0.1379238484
 22
-0.0689740637
 32
0.0
 13
-0.0649403201
 23
-0.1398683818
 33
0.0
 40
0.0
 40
0.0
 40
0.0
 40
0.0
 40
0.4808321681
 40
1.0
 40
1.0
 40
1.0
 40
1.0
 10
-21.4961520348
 20
7.4057533586
 30
0.0
 10
-21.5182581091
 20
7.3946983757
 30
0.0
 10
-21.5600630294
 20
7.3625620542
 30
0.0
 10
-21.5880909323
 20
7.3183595758
 30
0.0
 10
-21.5993292407
 20
7.294154521
 30
0.0
 11
-21.4961520348
 21
7.4057533586
 31
0.0
 11
-21.5552751695
 21
7.3610043311
 31
0.0
 11
-21.5993292407
 21
7.294154521
 31
0.0
  0
SPLINE
  5
451
100
AcDbEntity
  8
RACCORDO
100
AcDbSpline
 62
7
  6
CONTINUOUS
 70
0
 71
3
 72
9
 73
5
 74
3
 42
0.0000001
 43
0.0000001
 44
0.0000000001
 12
-0.0702381599
 22
-0.1512788625
 32
0.0
 13
-0.0033111934
 23
-0.1667564972
 33
0.0
 40
0.0
 40
0.0
 40
0.0
 40
0.0
 40
0.232655721
 40
1.0
 40
1.0
 40
1.0
 40
1.0
 10
-21.5993292407
 20
7.294154521
 30
0.0
 10
-21.6047763439
 20
7.2824225567
 30
0.0
 10
-21.6249318171
 20
7.2304834874
 30
0.0
 10
-21.6326725015
 20
7.1742698087
 30
0.0
 10
-21.6335194432
 20
7.131616594
 30
0.0
 11
-21.5993292407
 21
7.294154521
 31
0.0
 11
-21.61348292
 21
7.2580233345
 31
0.0
 11
-21.6335194432
 21
7.131616594
 31
0.0
  0
SPLINE
  5
452
100
AcDbEntity
  8
RACCORDO
100
AcDbSpline
 62
7
  6
CONTINUOUS
 70
0
 71
3
 72
10
 73
6
 74
4
 42
0.0000001
 43
0.0000001
 44
0.0000000001
 12
0.0
 22
-0.1821555335
 32
0.0
 13
-0.1554888599
 23
-0.0948886337
 33
0.0
 40
0.0
 40
0.0
 40
0.0
 40
0.0
 40
0.5468079016
 40
0.7821197639
 40
1.0
 40
1.0
 40
1.0
 40
1.0
 10
4.3900287485
 20
17.2085446205
 30
0.0
 10
4.3900287485
 20
17.1753432588
 30
0.0
 10
4.3828564258
 20
17.1264534964
 30
0.0
 10
4.3515933509
 20
17.0735881031
 30
0.0
 10
4.3305271289
 20
17.054958182
 30
0.0
 10
4.3192344791
 20
17.0480667293
 30
0.0
 11
4.3900287485
 21
17.2085446205
 31
0.0
 11
4.3715540058
 21
17.110668895
 31
0.0
 11
4.3491886589
 21
17.0741030818
 31
0.0
 11
4.3192344791
 21
17.0480667293
 31
0.0
  0
SPLINE
  5
453
100
AcDbEntity
  8
0
100
AcDbSpline
 62
7
  6
CONTINUOUS
 70
0
 71
3
 72
8
 73
4
 74
2
 42
0.0000001
 43
0.0000001
 44
0.0000000001
 12
0.0
 22
-0.1342672156
 32
0.0
 13
-0.0694512804
 23
-0.1149095507
 33
0.0
 40
0.0
 40
0.0
 40
0.0
 40
0.0
 40
1.0
 40
1.0
 40
1.0
 40
1.0
 10
-13.715312162
 20
21.7562751003
 30
0.0
 10
-13.715312162
 20
21.7115193618
 30
0.0
 10
-13.7282020914
 20
21.6652385069
 30
0.0
 10
-13.7513525182
 20
21.6269353233
 30
0.0
 11
-13.715312162
 21
21.7562751003
 31
0.0
 11
-13.7513525182
 21
21.6269353233
 31
0.0
  0
SPLINE
  5
454
100
AcDbEntity
  8
0
100
AcDbSpline
 62
7
  6
CONTINUOUS
 70
0
 71
3
 72
8
 73
4
 74
2
 42
0.0000001
 43
0.0000001
 44
0.0000000001
 12
0.0861007395
 22
-0.0674674098
 32
0.0
 13
0.0489774714
 23
-0.0978079548
 33
0.0
 40
0.0
 40
0.0
 40
0.0
 40
0.0
 40
1.0
 40
1.0
 40
1.0
 40
1.0
 10
-1.5073883474
 20
-25.4984515905
 30
0.0
 10
-1.4786881009
 20
-25.5209407271
 30
0.0
 10
-1.4544811032
 20
-25.5505364292
 30
0.0
 10
-1.4381552794
 20
-25.5831390808
 30
0.0
 11
-1.5073883474
 21
-25.4984515905
 31
0.0
 11
-1.4381552794
 21
-25.5831390808
 31
0.0
  0
SPLINE
  5
455
100
AcDbEntity
  8
0
100
AcDbSpline
 62
7
  6
CONTINUOUS
 70
0
 71
3
 72
8
 73
4
 74
2
 42
0.0000001
 43
0.0000001
 44
0.0000000001
 12
0.0515533437
 22
-0.1029519688
 32
0.0
 13
-0.0000107715
 23
-0.1151384167
 33
0.0
 40
0.0
 40
0.0
 40
0.0
 40
0.0
 40
1.0
 40
1.0
 40
1.0
 40
1.0
 10
-1.4381552794
 20
-25.5831390808
 30
0.0
 10
-1.4209708315
 20
-25.6174564037
 30
0.0
 10
-1.4116476046
 20
-25.6568059768
 30
0.0
 10
-1.4116511951
 20
-25.695185449
 30
0.0
 11
-1.4381552794
 21
-25.5831390808
 31
0.0
 11
-1.4116511951
 21
-25.695185449
 31
0.0
  0
SPLINE
  5
456
100
AcDbEntity
  8
0
100
AcDbSpline
 62
7
  6
CONTINUOUS
 70
0
 71
3
 72
8
 73
4
 74
2
 42
0.0000001
 43
0.0000001
 44
0.0000000001
 12
0.0543607661
 22
-0.0198481506
 32
0.0
 13
0.0517650045
 23
-0.0258732734
 33
0.0
 40
0.0
 40
0.0
 40
0.0
 40
0.0
 40
1.0
 40
1.0
 40
1.0
 40
1.0
 10
-1.1779067993
 20
20.355013847
 30
0.0
 10
-1.1597865439
 20
20.3483977969
 30
0.0
 10
-1.1420598452
 20
20.3406333963
 30
0.0
 10
-1.1248048437
 20
20.3320089718
 30
0.0
 11
-1.1779067993
 21
20.355013847
 31
0.0
 11
-1.1248048437
 21
20.3320089718
 31
0.0
  0
SPLINE
  5
457
100
AcDbEntity
  8
0
100
AcDbSpline
 62
7
  6
CONTINUOUS
 70
0
 71
3
 72
8
 73
4
 74
2
 42
0.0000001
 43
0.0000001
 44
0.0000000001
 12
0.0329040484
 22
0.0122680275
 32
0.0
 13
0.0345005407
 23
0.0065493199
 33
0.0
 40
0.0
 40
0.0
 40
0.0
 40
0.0
 40
1.0
 40
1.0
 40
1.0
 40
1.0
 10
-6.9664520998
 20
23.1597605265
 30
0.0
 10
-6.9554840836
 20
23.163849869
 30
0.0
 10
-6.9441136368
 20
23.166965025
 30
0.0
 10
-6.9326134566
 20
23.1691481316
 30
0.0
 11
-6.9664520998
 21
23.1597605265
 31
0.0
 11
-6.9326134566
 21
23.1691481316
 31
0.0
  0
SPLINE
  5
458
100
AcDbEntity
  8
0
100
AcDbSpline
 62
7
  6
CONTINUOUS
 70
0
 71
3
 72
9
 73
5
 74
3
 42
0.0000001
 43
0.0000001
 44
0.0000000001
 12
0.0623999173
 22
0.0118455251
 32
0.0
 13
0.0633791594
 23
-0.0041410509
 33
0.0
 40
0.0
 40
0.0
 40
0.0
 40
0.0
 40
0.2446357508
 40
1.0
 40
1.0
 40
1.0
 40
1.0
 10
-6.9326134566
 20
23.1691481316
 30
0.0
 10
-6.9275250397
 20
23.1701140779
 30
0.0
 10
-6.9065876743
 20
23.173329115
 30
0.0
 10
-6.8852522965
 20
23.173695054
 30
0.0
 10
-6.8692941795
 20
23.1726523867
 30
0.0
 11
-6.9326134566
 21
23.1691481316
 31
0.0
 11
-6.9172571638
 21
23.171516595
 31
0.0
 11
-6.8692941795
 21
23.1726523867
 31
0.0
  0
SPLINE
  5
459
100
AcDbEntity
  8
0
100
AcDbSpline
 62
7
  6
CONTINUOUS
 70
0
 71
3
 72
9
 73
5
 74
3
 42
0.0000001
 43
0.0000001
 44
0.0000000001
 12
0.1609531497
 22
-0.0105163146
 32
0.0
 13
0.1442690579
 23
-0.0721314647
 33
0.0
 40
0.0
 40
0.0
 40
0.0
 40
0.0
 40
0.2395050636
 40
1.0
 40
1.0
 40
1.0
 40
1.0
 10
-6.8692941795
 20
23.1726523867
 30
0.0
 10
-6.8564444813
 20
23.1718128165
 30
0.0
 10
-6.8030203704
 20
23.1647340082
 30
0.0
 10
-6.7517706402
 20
23.1454910062
 30
0.0
 10
-6.7151986775
 20
23.1272058017
 30
0.0
 11
-6.8692941795
 21
23.1726523867
 31
0.0
 11
-6.8309785195
 21
23.1677242249
 31
0.0
 11
-6.7151986775
 21
23.1272058017
 31
0.0
  0
LINE
  5
45A
100
AcDbEntity
  8
0
100
AcDbLine
 62
7
  6
CONTINUOUS
 10
-21.6412209066
 20
-9.7597295115
 11
-21.6445662765
 21
-9.5428949589
  0
LINE
  5
45B
100
AcDbEntity
  8
0
100
AcDbLine
 62
7
  6
CONTINUOUS
 10
-8.4183240985
 20
-16.3711779156
 11
-8.4216694683
 21
-16.154343363
  0
SPLINE
  5
45C
100
AcDbEntity
  8
0
100
AcDbSpline
 62
7
  6
CONTINUOUS
 70
0
 71
3
 72
9
 73
5
 74
3
 42
0.0000001
 43
0.0000001
 44
0.0000000001
 12
-0.0000351102
 22
0.0098568031
 32
0.0
 13
-0.0088204142
 23
0.0043997833
 33
0.0
 40
0.0
 40
0.0
 40
0.0
 40
0.0
 40
0.490895114
 40
1.0
 40
1.0
 40
1.0
 40
1.0
 10
-6.1949288779
 20
22.8616138004
 30
0.0
 10
-6.194934623
 20
22.8632266859
 30
0.0
 10
-6.1956959144
 20
22.8666555494
 30
0.0
 10
-6.1984555733
 20
22.8688361054
 30
0.0
 10
-6.1999524119
 20
22.8695827558
 30
0.0
 11
-6.1949288779
 21
22.8616138004
 31
0.0
 11
-6.1961636141
 21
22.8662922959
 31
0.0
 11
-6.1999524119
 21
22.8695827558
 31
0.0
  0
SPLINE
  5
45D
100
AcDbEntity
  8
0
100
AcDbSpline
 62
7
  6
CONTINUOUS
 70
0
 71
3
 72
9
 73
5
 74
3
 42
0.0000001
 43
0.0000001
 44
0.0000000001
 12
-0.0000310628
 22
0.0098532891
 32
0.0
 13
-0.008813579
 23
0.0044055756
 33
0.0
 40
0.0
 40
0.0
 40
0.0
 40
0.0
 40
0.4910210291
 40
1.0
 40
1.0
 40
1.0
 40
1.0
 10
-0.6044821646
 20
20.0663851956
 30
0.0
 10
-0.6044872487
 20
20.0679979197
 30
0.0
 10
-0.6052461218
 20
20.0714258106
 30
0.0
 10
-0.6080026647
 20
20.0736080013
 30
0.0
 10
-0.6094979735
 20
20.0743554497
 30
0.0
 11
-0.6044821646
 21
20.0663851956
 31
0.0
 11
-0.6057141355
 21
20.0710639123
 31
0.0
 11
-0.6094979735
 21
20.0743554497
 31
0.0
  0
SPLINE
  5
45E
100
AcDbEntity
  8
RACCORDO
100
AcDbSpline
 62
7
  6
CONTINUOUS
 70
0
 71
3
 72
11
 73
7
 74
5
 42
0.0000001
 43
0.0000001
 44
0.0000000001
 12
0.940685401
 22
-0.4703427005
 32
0.0
 13
0.1171167836
 23
-1.0451769891
 33
0.0
 40
0.0
 40
0.0
 40
0.0
 40
0.0
 40
0.2259935033
 40
0.4791233012
 40
0.7435330234
 40
1.0
 40
1.0
 40
1.0
 40
1.0
 10
-8.9598961177
 20
1.5040371966
 30
0.0
 10
-8.8890331879
 20
1.4686057317
 30
0.0
 10
-8.7525699747
 20
1.3655130334
 30
0.0
 10
-8.5897784066
 20
1.1593177166
 30
0.0
 10
-8.470292486
 20
0.9135193688
 30
0.0
 10
-8.4266262981
 20
0.7342501016
 30
0.0
 10
-8.4166141023
 20
0.6448989742
 30
0.0
 11
-8.9598961177
 21
1.5040371966
 31
0.0
 11
-8.7673209963
 21
1.3647270595
 31
0.0
 11
-8.60024225
 21
1.1574628924
 31
0.0
 11
-8.4785344336
 21
0.9074264679
 31
0.0
 11
-8.4166141023
 21
0.6448989742
 31
0.0
  0
SPLINE
  5
45F
100
AcDbEntity
  8
RACCORDO
100
AcDbSpline
 62
7
  6
CONTINUOUS
 70
0
 71
3
 72
9
 73
5
 74
3
 42
0.0000001
 43
0.0000001
 44
0.0000000001
 12
0.0139112451
 22
-0.1241471361
 32
0.0
 13
-0.0024800616
 23
-0.1248994933
 33
0.0
 40
0.0
 40
0.0
 40
0.0
 40
0.0
 40
0.2558751888
 40
1.0
 40
1.0
 40
1.0
 40
1.0
 10
-8.4166141023
 20
0.6448989742
 30
0.0
 10
-8.4154275882
 20
0.6343102502
 30
0.0
 10
-8.411427826
 20
0.5928607072
 30
0.0
 10
-8.4100074766
 20
0.5511484605
 30
0.0
 10
-8.410622635
 20
0.5201681899
 30
0.0
 11
-8.4166141023
 21
0.6448989742
 31
0.0
 11
-8.413549588
 21
0.6130812312
 31
0.0
 11
-8.410622635
 21
0.5201681899
 31
0.0
  0
SPLINE
  5
460
100
AcDbEntity
  8
RACCORDO
100
AcDbSpline
 62
7
  6
CONTINUOUS
 70
0
 71
3
 72
9
 73
5
 74
3
 42
0.0000001
 43
0.0000001
 44
0.0000000001
 12
0.0066987951
 22
-0.1115512554
 32
0.0
 13
-0.0102998355
 23
-0.1112765466
 33
0.0
 40
0.0
 40
0.0
 40
0.0
 40
0.0
 40
0.2580600185
 40
1.0
 40
1.0
 40
1.0
 40
1.0
 10
-8.268197572
 20
-20.3664340502
 30
0.0
 10
-8.2676213416
 20
-20.3760296899
 30
0.0
 10
-8.2660367388
 20
-20.4132468042
 30
0.0
 10
-8.2670944992
 20
-20.450597596
 30
0.0
 10
-8.2696417857
 20
-20.478117769
 30
0.0
 11
-8.268197572
 21
-20.3664340502
 31
0.0
 11
-8.2669794645
 21
-20.3952470905
 31
0.0
 11
-8.2696417857
 21
-20.478117769
 31
0.0
  0
SPLINE
  5
461
100
AcDbEntity
  8
RACCORDO
100
AcDbSpline
 62
7
  6
CONTINUOUS
 70
0
 71
3
 72
11
 73
7
 74
5
 42
0.0000001
 43
0.0000001
 44
0.0000000001
 12
-0.0336778403
 22
-0.3638459837
 32
0.0
 13
-0.32680154
 23
-0.163459017
 33
0.0
 40
0.0
 40
0.0
 40
0.0
 40
0.0
 40
0.2850610747
 40
0.5417173367
 40
0.7763382439
 40
1.0
 40
1.0
 40
1.0
 40
1.0
 10
-8.2696417857
 20
-20.478117769
 30
0.0
 10
-8.2728418662
 20
-20.5126905447
 30
0.0
 10
-8.2842491945
 20
-20.5781329809
 30
0.0
 10
-8.3198528238
 20
-20.6666458846
 30
0.0
 10
-8.3726458247
 20
-20.7373097904
 30
0.0
 10
-8.4188675511
 20
-20.7704948569
 30
0.0
 10
-8.4432318866
 20
-20.7826813671
 30
0.0
 11
-8.2696417857
 21
-20.478117769
 31
0.0
 11
-8.2885679257
 21
-20.5805455838
 31
0.0
 11
-8.3246152861
 21
-20.6671235845
 31
0.0
 11
-8.3767001107
 21
-20.7352186484
 31
0.0
 11
-8.4432318866
 21
-20.7826813671
 31
0.0
  0
LINE
  5
462
100
AcDbEntity
  8
RACCORDO
100
AcDbLine
 62
7
  6
CONTINUOUS
 10
-21.6335194432
 20
7.131616594
 11
-21.6363048767
 21
6.9858930022
  0
LINE
  5
463
100
AcDbEntity
  8
RACCORDO
100
AcDbLine
 62
7
  6
CONTINUOUS
 10
-8.410622635
 20
0.5201681899
 11
-8.413408062
 21
0.3744449519
  0
SPLINE
  5
464
100
AcDbEntity
  8
RACCORDO
100
AcDbSpline
 62
7
  6
CONTINUOUS
 70
0
 71
3
 72
10
 73
6
 74
4
 42
0.0000001
 43
0.0000001
 44
0.0000000001
 12
0.2012956573
 22
-0.1006478286
 32
0.0
 13
0.2012895358
 23
0.1006600707
 33
0.0
 40
0.0
 40
0.0
 40
0.0
 40
0.0
 40
0.5430576527
 40
0.7790026322
 40
1.0
 40
1.0
 40
1.0
 40
1.0
 10
-8.807648014
 20
-20.5034865481
 30
0.0
 10
-8.7712096317
 20
-20.5217057393
 30
0.0
 10
-8.713952582
 20
-20.5411695886
 30
0.0
 10
-8.6382616596
 20
-20.5388140287
 30
0.0
 10
-8.6050539701
 20
-20.5281844017
 30
0.0
 10
-8.5902258176
 20
-20.5207691982
 30
0.0
 11
-8.807648014
 21
-20.5034865481
 31
0.0
 11
-8.6905504028
 21
-20.538492279
 31
0.0
 11
-8.6374978546
 21
-20.5362316905
 31
0.0
 11
-8.5902258176
 21
-20.5207691982
 31
0.0
  0
SPLINE
  5
465
100
AcDbEntity
  8
RACCORDO
100
AcDbSpline
 62
7
  6
CONTINUOUS
 70
0
 71
3
 72
11
 73
7
 74
5
 42
0.0000001
 43
0.0000001
 44
0.0000000001
 12
0.0439417543
 22
-0.7317372444
 32
0.0
 13
0.6556647147
 23
-0.3278323573
 33
0.0
 40
0.0
 40
0.0
 40
0.0
 40
0.0
 40
0.2426743677
 40
0.5074175482
 40
0.7682247895
 40
1.0
 40
1.0
 40
1.0
 40
1.0
 10
-21.4910943802
 20
-13.7549856461
 30
0.0
 10
-21.4875398677
 20
-13.8141769371
 30
0.0
 10
-21.4594338161
 20
-13.9368331085
 30
0.0
 10
-21.3757481275
 20
-14.1064096649
 30
0.0
 10
-21.2594185318
 20
-14.2520695963
 30
0.0
 10
-21.1619616158
 20
-14.3263297473
 30
0.0
 10
-21.1113060067
 20
-14.3516575518
 30
0.0
 11
-21.4910943802
 21
-13.7549856461
 31
0.0
 11
-21.4544419638
 21
-13.929062617
 31
0.0
 11
-21.3693617909
 21
-14.103490491
 31
0.0
 11
-21.2488495326
 21
-14.2519120045
 31
0.0
 11
-21.1113060067
 21
-14.3516575518
 31
0.0
  0
SPLINE
  5
466
100
AcDbEntity
  8
0
100
AcDbSpline
 62
7
  6
CONTINUOUS
 70
0
 71
3
 72
10
 73
6
 74
4
 42
0.0000001
 43
0.0000001
 44
0.0000000001
 12
0.3337797138
 22
0.4033469033
 32
0.0
 13
-0.2159583465
 23
0.4769272631
 33
0.0
 40
0.0
 40
0.0
 40
0.0
 40
0.0
 40
0.437339694
 40
0.7085619899
 40
1.0
 40
1.0
 40
1.0
 40
1.0
 10
-0.7701806938
 20
19.0780769739
 30
0.0
 10
-0.7215223211
 20
19.1368768443
 30
0.0
 10
-0.693546364
 20
19.2704083643
 30
0.0
 10
-0.7169825918
 20
19.4423688678
 30
0.0
 10
-0.7492012035
 20
19.5363237829
 30
0.0
 10
-0.7701806938
 20
19.5826553604
 30
0.0
 11
-0.7701806938
 21
19.0780769739
 31
0.0
 11
-0.7039716529
 21
19.2972616467
 31
0.0
 11
-0.7209310497
 21
19.4382418592
 31
0.0
 11
-0.7701806938
 21
19.5826553604
 31
0.0
  0
SPLINE
  5
467
100
AcDbEntity
  8
RACCORDO
100
AcDbSpline
 62
253
  6
CONTINUOUS
 70
0
 71
3
 72
15
 73
11
 74
9
 42
0.0000001
 43
0.0000001
 44
0.0000000001
 12
-0.3883410732
 22
-0.2215298029
 32
0.0
 13
0.399929036
 23
-0.1998524677
 33
0.0
 40
0.0
 40
0.0
 40
0.0
 40
0.0
 40
0.1500930291
 40
0.2826437627
 40
0.3991344756
 40
0.5054837915
 40
0.6107835806
 40
0.7245283673
 40
0.8535173535
 40
1.0
 40
1.0
 40
1.0
 40
1.0
 10
-5.0773328049
 20
14.5964122283
 30
0.0
 10
-5.0967619009
 20
14.5853288686
 30
0.0
 10
-5.131902234
 20
14.5616605207
 30
0.0
 10
-5.1741700302
 20
14.5191345455
 30
0.0
 10
-5.2010407613
 20
14.4725850225
 30
0.0
 10
-5.2103176962
 20
14.4234579896
 30
0.0
 10
-5.2007185659
 20
14.3747683425
 30
0.0
 10
-5.1733106062
 20
14.329720136
 30
0.0
 10
-5.1304277852
 20
14.2898830058
 30
0.0
 10
-5.0950145536
 20
14.2685956809
 30
0.0
 10
-5.075486999
 20
14.2588373748
 30
0.0
 11
-5.0773328049
 21
14.5964122283
 31
0.0
 11
-5.1326143774
 21
14.5583737814
 31
0.0
 11
-5.1737338505
 21
14.5156994975
 31
0.0
 11
-5.1989248619
 21
14.470115955
 31
0.0
 11
-5.2072601642
 21
14.4233051774
 31
0.0
 11
-5.1984746121
 21
14.3770543432
 31
0.0
 11
-5.1728360517
 21
14.3331368994
 31
0.0
 11
-5.1312452049
 21
14.2931880923
 31
0.0
 11
-5.075486999
 21
14.2588373748
 31
0.0
  0
SPLINE
  5
468
100
AcDbEntity
  8
RACCORDO
100
AcDbSpline
 62
253
  6
CONTINUOUS
 70
0
 71
3
 72
9
 73
5
 74
3
 42
0.0000001
 43
0.0000001
 44
0.0000000001
 12
0.0000503036
 22
0.1991513152
 32
0.0
 13
-0.022644745
 23
0.1978597089
 33
0.0
 40
0.0
 40
0.0
 40
0.0
 40
0.0
 40
0.2445566719
 40
1.0
 40
1.0
 40
1.0
 40
1.0
 10
-9.1830381157
 20
-7.6443614266
 30
0.0
 10
-9.183034015
 20
-7.6281268323
 30
0.0
 10
-9.1840345504
 20
-7.5617450485
 30
0.0
 10
-9.1889772306
 20
-7.495436229
 30
0.0
 10
-9.1946795045
 20
-7.4456122967
 30
0.0
 11
-9.1830381157
 21
-7.6443614266
 31
0.0
 11
-9.1837591619
 21
-7.5956629799
 31
0.0
 11
-9.1946795045
 21
-7.4456122967
 31
0.0
  0
SPLINE
  5
469
100
AcDbEntity
  8
RACCORDO
100
AcDbSpline
 62
253
  6
CONTINUOUS
 70
0
 71
3
 72
11
 73
7
 74
5
 42
0.0000001
 43
0.0000001
 44
0.0000000001
 12
-0.1967275004
 22
1.7189173912
 32
0.0
 13
-1.3652859555
 23
1.0627196088
 33
0.0
 40
0.0
 40
0.0
 40
0.0
 40
0.0
 40
0.2474222469
 40
0.505914869
 40
0.7613041457
 40
1.0
 40
1.0
 40
1.0
 40
1.0
 10
-9.1946795045
 20
-7.4456122967
 30
0.0
 10
-9.2109044245
 20
-7.3038461623
 30
0.0
 10
-9.2766548457
 20
-7.0172004226
 30
0.0
 10
-9.4528087116
 20
-6.61257192
 30
0.0
 10
-9.6955992679
 20
-6.2500558721
 30
0.0
 10
-9.8988675697
 20
-6.0465724494
 30
0.0
 10
-10.0074969355
 20
-5.9620168611
 30
0.0
 11
-9.1946795045
 21
-7.4456122967
 31
0.0
 11
-9.2874884508
 21
-7.0277194115
 31
0.0
 11
-9.4653888093
 21
-6.6173971662
 31
0.0
 11
-9.7127060386
 21
-6.2512368582
 31
0.0
 11
-10.0074969355
 21
-5.9620168611
 31
0.0
  0
SPLINE
  5
46A
100
AcDbEntity
  8
RACCORDO
100
AcDbSpline
 62
253
  6
CONTINUOUS
 70
0
 71
3
 72
9
 73
5
 74
3
 42
0.0000001
 43
0.0000001
 44
0.0000000001
 12
-0.2193091791
 22
0.1707072164
 32
0.0
 13
-0.2485640173
 23
0.1243117014
 33
0.0
 40
0.0
 40
0.0
 40
0.0
 40
0.0
 40
0.2595738889
 40
1.0
 40
1.0
 40
1.0
 40
1.0
 10
-10.0074969355
 20
-5.9620168611
 30
0.0
 10
-10.026472581
 20
-5.9472464824
 30
0.0
 10
-10.1008265835
 20
-5.8919921488
 30
0.0
 10
-10.1802900954
 20
-5.843437806
 30
0.0
 10
-10.2416378583
 20
-5.8127565961
 30
0.0
 11
-10.0074969355
 21
-5.9620168611
 31
0.0
 11
-10.0654175678
 21
-5.9190127539
 31
0.0
 11
-10.2416378583
 21
-5.8127565961
 31
0.0
  0
SPLINE
  5
46B
100
AcDbEntity
  8
RACCORDO
100
AcDbSpline
 62
253
  6
CONTINUOUS
 70
0
 71
3
 72
15
 73
11
 74
9
 42
0.0000001
 43
0.0000001
 44
0.0000000001
 12
-1.4698075072
 22
0.7346918754
 32
0.0
 13
-0.0008218106
 23
-1.6431998006
 33
0.0
 40
0.0
 40
0.0
 40
0.0
 40
0.0
 40
0.1347533126
 40
0.2570012026
 40
0.3701423711
 40
0.4800253981
 40
0.5934377577
 40
0.7160834993
 40
0.8513401548
 40
1.0
 40
1.0
 40
1.0
 40
1.0
 10
-20.1535460781
 20
-0.8568024862
 30
0.0
 10
-20.2195665549
 20
-0.8238017649
 30
0.0
 10
-20.3517786974
 20
-0.7720593824
 30
0.0
 10
-20.554745956
 20
-0.7436681524
 30
0.0
 10
-20.7448177977
 20
-0.7715714231
 30
0.0
 10
-20.9121540508
 20
-0.8563601775
 30
0.0
 10
-21.0473804616
 20
-0.9932713678
 30
0.0
 10
-21.1454417527
 20
-1.1739923985
 30
0.0
 10
-21.2042758566
 20
-1.3903913249
 30
0.0
 10
-21.2161807141
 20
-1.546343823
 30
0.0
 10
-21.2162214375
 20
-1.6277697657
 30
0.0
 11
-20.1535460781
 21
-0.8568024862
 31
0.0
 11
-20.360607743
 21
-0.7783472401
 31
0.0
 11
-20.5598760919
 21
-0.7529703025
 31
0.0
 11
-20.7435624485
 21
-0.781661372
 31
0.0
 11
-20.9046407119
 21
-0.863243423
 31
0.0
 11
-21.0368619715
 21
-0.9945723468
 31
0.0
 11
-21.1351485017
 21
-1.1705118158
 31
0.0
 11
-21.1957135401
 21
-1.3843542806
 31
0.0
 11
-21.2162214375
 21
-1.6277697657
 31
0.0
  0
SPLINE
  5
46C
100
AcDbEntity
  8
RACCORDO
100
AcDbSpline
 62
253
  6
CONTINUOUS
 70
0
 71
3
 72
11
 73
7
 74
5
 42
0.0000001
 43
0.0000001
 44
0.0000000001
 12
0.5852300107
 22
-0.2928473416
 32
0.0
 13
0.5714867888
 23
0.3188362921
 33
0.0
 40
0.0
 40
0.0
 40
0.0
 40
0.0
 40
0.233717506
 40
0.496573559
 40
0.7612407692
 40
1.0
 40
1.0
 40
1.0
 40
1.0
 10
-3.3887212748
 20
13.4154545127
 30
0.0
 10
-3.3431284419
 20
13.3926399959
 30
0.0
 10
-3.2377834667
 20
13.3611360619
 30
0.0
 10
-3.0711060099
 20
13.3498092804
 30
0.0
 10
-2.9043493455
 20
13.3716270126
 30
0.0
 10
-2.7996643294
 20
13.4094616637
 30
0.0
 10
-2.7541817474
 20
13.4348366996
 30
0.0
 11
-3.3887212748
 21
13.4154545127
 31
0.0
 11
-3.243215781
 21
13.3683267236
 31
0.0
 11
-3.0716777191
 21
13.3555142758
 31
0.0
 11
-2.9000572112
 21
13.3788601999
 31
0.0
 11
-2.7541817474
 21
13.4348366996
 31
0.0
  0
SPLINE
  5
46D
100
AcDbEntity
  8
RACCORDO
100
AcDbSpline
 62
253
  6
CONTINUOUS
 70
0
 71
3
 72
10
 73
6
 74
4
 42
0.0000001
 43
0.0000001
 44
0.0000000001
 12
0.0000406213
 22
-0.1249947148
 32
0.0
 13
0.1118022175
 23
-0.0558922584
 33
0.0
 40
0.0
 40
0.0
 40
0.0
 40
0.0
 40
0.2185028044
 40
0.4507915579
 40
1.0
 40
1.0
 40
1.0
 40
1.0
 10
-5.0146788727
 20
14.5931644139
 30
0.0
 10
-5.0146759141
 20
14.5840605153
 30
0.0
 10
-5.0112346951
 20
14.5651145451
 30
0.0
 10
-4.9899388432
 20
14.5285755354
 30
0.0
 10
-4.961952861
 20
14.5090566576
 30
0.0
 10
-4.9414852872
 20
14.4988244909
 30
0.0
 11
-5.0146788727
 21
14.5931644139
 31
0.0
 11
-5.0098929732
 21
14.5662753089
 31
0.0
 11
-4.9956857461
 21
14.5409538109
 31
0.0
 11
-4.9414852872
 21
14.4988244909
 31
0.0
  0
SPLINE
  5
46E
100
AcDbEntity
  8
0
100
AcDbSpline
 62
253
  6
CONTINUOUS
 70
0
 71
3
 72
11
 73
7
 74
5
 42
0.0000001
 43
0.0000001
 44
0.0000000001
 12
-0.4160088913
 22
0.2406179417
 32
0.0
 13
-0.0620231803
 23
0.4765642839
 33
0.0
 40
0.0
 40
0.0
 40
0.0
 40
0.0
 40
0.2236798135
 40
0.4605518289
 40
0.7181011571
 40
1.0
 40
1.0
 40
1.0
 40
1.0
 10
-21.6508919987
 20
-19.4855524717
 30
0.0
 10
-21.6819095958
 20
-19.4676120129
 30
0.0
 10
-21.7405723814
 20
-19.4209787338
 30
0.0
 10
-21.8088291027
 20
-19.3269533108
 30
0.0
 10
-21.8573432455
 20
-19.2114648361
 30
0.0
 10
-21.8751165784
 20
-19.1263765359
 30
0.0
 10
-21.880944666
 20
-19.0815955625
 30
0.0
 11
-21.6508919987
 21
-19.4855524717
 31
0.0
 11
-21.7353805389
 21
-19.4190900831
 31
0.0
 11
-21.8031687735
 21
-19.3276375702
 31
0.0
 11
-21.8521886474
 21
-19.2139844255
 31
0.0
 11
-21.880944666
 21
-19.0815955625
 31
0.0
  0
SPLINE
  5
46F
100
AcDbEntity
  8
0
100
AcDbSpline
 62
253
  6
CONTINUOUS
 70
0
 71
3
 72
11
 73
7
 74
5
 42
0.0000001
 43
0.0000001
 44
0.0000000001
 12
-0.0002556205
 22
-0.1190492571
 32
0.0
 13
-0.1062313157
 23
-0.0537373102
 33
0.0
 40
0.0
 40
0.0
 40
0.0
 40
0.0
 40
0.2069632709
 40
0.4351047998
 40
0.6978603879
 40
1.0
 40
1.0
 40
1.0
 40
1.0
 10
-1.4116545716
 20
-26.0428241758
 30
0.0
 10
-1.4116722063
 20
-26.051037117
 30
0.0
 10
-1.4152997389
 20
-26.068426588
 30
0.0
 10
-1.4303563323
 20
-26.0921802188
 30
0.0
 10
-1.4538159078
 20
-26.1135570705
 30
0.0
 10
-1.4731531302
 20
-26.1251501276
 30
0.0
 10
-1.4838520263
 20
-26.1305621843
 30
0.0
 11
-1.4116545716
 21
-26.0428241758
 31
0.0
 11
-1.4164264062
 21
-26.0669965572
 31
0.0
 11
-1.4304584391
 21
-26.0902511347
 31
0.0
 11
-1.4532191135
 21
-26.1117091929
 31
0.0
 11
-1.4838520263
 21
-26.1305621843
 31
0.0
  0
SPLINE
  5
470
100
AcDbEntity
  8
RACCORDO
100
AcDbSpline
 62
253
  6
CONTINUOUS
 70
0
 71
3
 72
11
 73
7
 74
5
 42
0.0000001
 43
0.0000001
 44
0.0000000001
 12
-0.2824028899
 22
0.1417260822
 32
0.0
 13
0.0008813145
 23
0.3159697737
 33
0.0
 40
0.0
 40
0.0
 40
0.0
 40
0.0
 40
0.2168657711
 40
0.450112764
 40
0.7106165434
 40
1.0
 40
1.0
 40
1.0
 40
1.0
 10
-20.02391002
 20
-1.1285541869
 30
0.0
 10
-20.0443245268
 20
-1.1183090082
 30
0.0
 10
-20.0829278079
 20
-1.088770951
 30
0.0
 10
-20.1243084967
 20
-1.0250302459
 30
0.0
 10
-20.148776936
 20
-0.9454129456
 30
0.0
 10
-20.1536310894
 20
-0.8872812961
 30
0.0
 10
-20.1535460768
 20
-0.8568024877
 30
0.0
 11
-20.02391002
 21
-1.1285541869
 31
0.0
 11
-20.0786462238
 21
-1.0873305291
 31
0.0
 11
-20.1197476085
 21
-1.0261565071
 31
0.0
 11
-20.1451081409
 21
-0.9478491029
 31
0.0
 11
-20.1535460768
 21
-0.8568024877
 31
0.0
  0
SPLINE
  5
471
100
AcDbEntity
  8
0
100
AcDbSpline
 62
253
  6
CONTINUOUS
 70
0
 71
3
 72
9
 73
5
 74
3
 42
0.0000001
 43
0.0000001
 44
0.0000000001
 12
-0.1019364604
 22
0.0506833646
 32
0.0
 13
-0.1021121397
 23
-0.0503284844
 33
0.0
 40
0.0
 40
0.0
 40
0.0
 40
0.0
 40
0.4641918988
 40
1.0
 40
1.0
 40
1.0
 40
1.0
 10
-13.8536933206
 20
22.3275052736
 30
0.0
 10
-13.8694660137
 20
22.3353475427
 30
0.0
 10
-13.9089233906
 20
22.3419591032
 30
0.0
 10
-13.9460462188
 20
22.3298123269
 30
0.0
 10
-13.9642837227
 20
22.3208235237
 30
0.0
 11
-13.8536933206
 21
22.3275052736
 31
0.0
 11
-13.9055945683
 21
22.3374436723
 31
0.0
 11
-13.9642837227
 21
22.3208235237
 31
0.0
  0
SPLINE
  5
472
100
AcDbEntity
  8
0
100
AcDbSpline
 62
253
  6
CONTINUOUS
 70
0
 71
3
 72
9
 73
5
 74
3
 42
0.0000001
 43
0.0000001
 44
0.0000000001
 12
0.1035822821
 22
0.0528648095
 32
0.0
 13
0.1042570885
 23
-0.0515212262
 33
0.0
 40
0.0
 40
0.0
 40
0.0
 40
0.0
 40
0.4633404558
 40
1.0
 40
1.0
 40
1.0
 40
1.0
 10
-17.8852827493
 20
22.1004679664
 30
0.0
 10
-17.8692847954
 20
22.1086327681
 30
0.0
 10
-17.8289486996
 20
22.11559771
 30
0.0
 10
-17.7910199428
 20
22.1031481879
 30
0.0
 10
-17.7723697556
 20
22.0939317354
 30
0.0
 11
-17.8852827493
 21
22.1004679664
 31
0.0
 11
-17.8324229235
 21
22.1109190647
 31
0.0
 11
-17.7723697556
 21
22.0939317354
 31
0.0
  0
SPLINE
  5
473
100
AcDbEntity
  8
0
100
AcDbSpline
 62
253
  6
CONTINUOUS
 70
0
 71
3
 72
9
 73
5
 74
3
 42
0.0000001
 43
0.0000001
 44
0.0000000001
 12
0.0
 22
0.0672312779
 32
0.0
 13
0.0175169887
 23
0.064909166
 33
0.0
 40
0.0
 40
0.0
 40
0.0
 40
0.0
 40
0.2391933057
 40
1.0
 40
1.0
 40
1.0
 40
1.0
 10
-8.692421647
 20
18.196034459
 30
0.0
 10
-8.692421647
 20
18.2013948828
 30
0.0
 10
-8.6915707689
 20
18.2238026813
 30
0.0
 10
-8.6875508552
 20
18.246044265
 30
0.0
 10
-8.6831085078
 20
18.2625053743
 30
0.0
 11
-8.692421647
 21
18.196034459
 31
0.0
 11
-8.6918332869
 21
18.2121049639
 31
0.0
 11
-8.6831085078
 21
18.2625053743
 31
0.0
  0
SPLINE
  5
474
100
AcDbEntity
  8
0
100
AcDbSpline
 62
253
  6
CONTINUOUS
 70
0
 71
3
 72
9
 73
5
 74
3
 42
0.0000001
 43
0.0000001
 44
0.0000000001
 12
0.0382904325
 22
0.0840342318
 32
0.0
 13
0.0611853786
 23
0.0691683366
 33
0.0
 40
0.0
 40
0.0
 40
0.0
 40
0.0
 40
0.2541045617
 40
1.0
 40
1.0
 40
1.0
 40
1.0
 10
-8.6656212706
 20
18.3108892995
 30
0.0
 10
-8.6623780127
 20
18.3180071267
 30
0.0
 10
-8.6486116773
 20
18.3455442174
 30
0.0
 10
-8.6309417439
 20
18.3711809056
 30
0.0
 10
-8.6157291123
 20
18.3883783545
 30
0.0
 11
-8.6656212706
 21
18.3108892995
 31
0.0
 11
-8.6551297836
 21
18.3318790201
 31
0.0
 11
-8.6157291123
 21
18.3883783545
 31
0.0
  0
SPLINE
  5
475
100
AcDbEntity
  8
0
100
AcDbSpline
 62
253
  6
CONTINUOUS
 70
0
 71
3
 72
9
 73
5
 74
3
 42
0.0000001
 43
0.0000001
 44
0.0000000001
 12
0.0489032524
 22
0.055283741
 32
0.0
 13
0.0640914381
 23
0.0366074812
 33
0.0
 40
0.0
 40
0.0
 40
0.0
 40
0.0
 40
0.2644295703
 40
1.0
 40
1.0
 40
1.0
 40
1.0
 10
-8.6157291123
 20
18.3883783545
 30
0.0
 10
-8.6114186236
 20
18.3932512398
 30
0.0
 10
-8.5944888622
 20
18.411092046
 30
0.0
 10
-8.5749118916
 20
18.4265842701
 30
0.0
 10
-8.5591973027
 20
18.4355600637
 30
0.0
 11
-8.6157291123
 21
18.3883783545
 31
0.0
 11
-8.6022800638
 21
18.4025222933
 31
0.0
 11
-8.5591973027
 21
18.4355600637
 31
0.0
  0
SPLINE
  5
476
100
AcDbEntity
  8
0
100
AcDbSpline
 62
253
  6
CONTINUOUS
 70
0
 71
3
 72
11
 73
7
 74
5
 42
0.0000001
 43
0.0000001
 44
0.0000000001
 12
0.0
 22
0.2927347425
 32
0.0
 13
0.2610815641
 23
0.1324010815
 33
0.0
 40
0.0
 40
0.0
 40
0.0
 40
0.0
 40
0.2465991961
 40
0.5114081749
 40
0.7699752441
 40
1.0
 40
1.0
 40
1.0
 40
1.0
 10
-10.3931911884
 20
19.0464192297
 30
0.0
 10
-10.3931911884
 20
19.0704819471
 30
0.0
 10
-10.3849169935
 20
19.1204699332
 30
0.0
 10
-10.3549301119
 20
19.1900462596
 30
0.0
 10
-10.3108186311
 20
19.2496454786
 30
0.0
 10
-10.2726109913
 20
19.2797688395
 30
0.0
 10
-10.2525925837
 20
19.2899206817
 30
0.0
 11
-10.3931911884
 21
19.0464192297
 31
0.0
 11
-10.3825045241
 21
19.1178119781
 31
0.0
 11
-10.3520603294
 21
19.1891023248
 31
0.0
 11
-10.3064587
 21
19.2495151076
 31
0.0
 11
-10.2525925837
 21
19.2899206817
 31
0.0
  0
SPLINE
  5
477
100
AcDbEntity
  8
0
100
AcDbSpline
 62
253
  6
CONTINUOUS
 70
0
 71
3
 72
9
 73
5
 74
3
 42
0.0000001
 43
0.0000001
 44
0.0000000001
 12
0.1036396474
 22
0.053164101
 32
0.0
 13
0.1044250911
 23
-0.0516042488
 33
0.0
 40
0.0
 40
0.0
 40
0.0
 40
0.0
 40
0.4633167549
 40
1.0
 40
1.0
 40
1.0
 40
1.0
 10
-5.5817973902
 20
15.9485506383
 30
0.0
 10
-5.5657913952
 20
15.9567612446
 30
0.0
 10
-5.5253907806
 20
15.9637987679
 30
0.0
 10
-5.4873928286
 20
15.9513344509
 30
0.0
 10
-5.468711763
 20
15.942102739
 30
0.0
 11
-5.5817973902
 21
15.9485506383
 31
0.0
 11
-5.5288705932
 21
15.9590961374
 31
0.0
 11
-5.468711763
 21
15.942102739
 31
0.0
  0
SPLINE
  5
478
100
AcDbEntity
  8
RACCORDO
100
AcDbSpline
 62
253
  6
CONTINUOUS
 70
0
 71
3
 72
11
 73
7
 74
5
 42
0.0000001
 43
0.0000001
 44
0.0000000001
 12
-0.5706690175
 22
-0.2770642397
 32
0.0
 13
0.0019371118
 23
-0.6343689526
 33
0.0
 40
0.0
 40
0.0
 40
0.0
 40
0.0
 40
0.2177893117
 40
0.4510356761
 40
0.7105751538
 40
1.0
 40
1.0
 40
1.0
 40
1.0
 10
-20.2483652857
 20
-1.0866733759
 30
0.0
 10
-20.2897938232
 20
-1.1067872526
 30
0.0
 10
-20.368310754
 20
-1.1651425611
 30
0.0
 10
-20.4525478341
 20
-1.292417094
 30
0.0
 10
-20.5027319013
 20
-1.4517825428
 30
0.0
 10
-20.512400233
 20
-1.5683535526
 30
0.0
 10
-20.5122133502
 20
-1.6295542647
 30
0.0
 11
-20.2483652857
 21
-1.0866733759
 31
0.0
 11
-20.3597798901
 21
-1.1683728968
 31
0.0
 11
-20.4434260412
 21
-1.2904259402
 31
0.0
 11
-20.4951032727
 21
-1.4467502601
 31
0.0
 11
-20.5122133502
 21
-1.6295542647
 31
0.0
  0
SPLINE
  5
479
100
AcDbEntity
  8
0
100
AcDbSpline
 62
253
  6
CONTINUOUS
 70
0
 71
3
 72
9
 73
5
 74
3
 42
0.0000001
 43
0.0000001
 44
0.0000000001
 12
0.0975881115
 22
0.0345244798
 32
0.0
 13
0.0923710692
 23
-0.0467222087
 33
0.0
 40
0.0
 40
0.0
 40
0.0
 40
0.0
 40
0.4657827872
 40
1.0
 40
1.0
 40
1.0
 40
1.0
 10
-3.4522069451
 20
17.0262766848
 30
0.0
 10
-3.4370553242
 20
17.0316369876
 30
0.0
 10
-3.4012271916
 20
17.0344329996
 30
0.0
 10
-3.3679540195
 20
17.022754239
 30
0.0
 10
-3.3515052812
 20
17.0144343029
 30
0.0
 11
-3.4522069451
 21
17.0262766848
 31
0.0
 11
-3.4042333772
 21
17.031101302
 31
0.0
 11
-3.3515052812
 21
17.0144343029
 31
0.0
  0
SPLINE
  5
47A
100
AcDbEntity
  8
0
100
AcDbSpline
 62
7
  6
CONTINUOUS
 70
0
 71
3
 72
9
 73
5
 74
3
 42
0.0000001
 43
0.0000001
 44
0.0000000001
 12
0.1026923057
 22
0.0500197096
 32
0.0
 13
0.1021672394
 23
-0.0510836197
 33
0.0
 40
0.0
 40
0.0
 40
0.0
 40
0.0
 40
0.4638305674
 40
1.0
 40
1.0
 40
1.0
 40
1.0
 10
-3.9968872759
 20
16.7616168494
 30
0.0
 10
-3.9810099991
 20
16.7693504061
 30
0.0
 10
-3.9413699715
 20
16.7756413824
 30
0.0
 10
-3.9042148101
 20
16.7632166615
 30
0.0
 10
-3.8859551598
 20
16.7540868364
 30
0.0
 11
-3.9968872759
 21
16.7616168494
 31
0.0
 11
-3.9447720772
 21
16.7711598278
 31
0.0
 11
-3.8859551598
 21
16.7540868364
 31
0.0
  0
SPLINE
  5
47B
100
AcDbEntity
  8
0
100
AcDbSpline
 62
253
  6
CONTINUOUS
 70
0
 71
3
 72
9
 73
5
 74
3
 42
0.0000001
 43
0.0000001
 44
0.0000000001
 12
-0.10200315
 22
0.0509965498
 32
0.0
 13
-0.1022910174
 23
-0.0504166487
 33
0.0
 40
0.0
 40
0.0
 40
0.0
 40
0.0
 40
0.4641675224
 40
1.0
 40
1.0
 40
1.0
 40
1.0
 10
-1.5498508338
 20
16.1755842918
 30
0.0
 10
-1.5656330169
 20
16.1834746059
 30
0.0
 10
-1.6051591356
 20
16.1901617653
 30
0.0
 10
-1.6423554469
 20
16.1779994866
 30
0.0
 10
-1.66062573
 20
16.1689945274
 30
0.0
 11
-1.5498508338
 21
16.1755842918
 31
0.0
 11
-1.6018245376
 21
16.1856213908
 31
0.0
 11
-1.66062573
 21
16.1689945274
 31
0.0
  0
SPLINE
  5
47C
100
AcDbEntity
  8
0
100
AcDbSpline
 62
253
  6
CONTINUOUS
 70
0
 71
3
 72
9
 73
5
 74
3
 42
0.0000001
 43
0.0000001
 44
0.0000000001
 12
-0.102003147
 22
0.050996529
 32
0.0
 13
-0.1022910066
 23
-0.0504166433
 33
0.0
 40
0.0
 40
0.0
 40
0.0
 40
0.0
 40
0.464167748
 40
1.0
 40
1.0
 40
1.0
 40
1.0
 10
-3.2407303958
 20
17.0210240737
 30
0.0
 10
-3.2565125862
 20
17.0289143884
 30
0.0
 10
-3.2960387035
 20
17.0356015375
 30
0.0
 10
-3.3332350077
 20
17.0234392575
 30
0.0
 10
-3.3515052812
 20
17.0144343029
 30
0.0
 11
-3.2407303958
 21
17.0210240737
 31
0.0
 11
-3.2927041217
 21
17.0310611647
 31
0.0
 11
-3.3515052812
 21
17.0144343029
 31
0.0
  0
SPLINE
  5
47D
100
AcDbEntity
  8
0
100
AcDbSpline
 62
253
  6
CONTINUOUS
 70
0
 71
3
 72
9
 73
5
 74
3
 42
0.0000001
 43
0.0000001
 44
0.0000000001
 12
0.0833396401
 22
-0.0411912196
 32
0.0
 13
0.0639711943
 23
-0.0674529353
 33
0.0
 40
0.0
 40
0.0
 40
0.0
 40
0.0
 40
0.2342089013
 40
1.0
 40
1.0
 40
1.0
 40
1.0
 10
-13.9642837227
 20
22.3208235237
 30
0.0
 10
-13.9577774275
 20
22.3176077403
 30
0.0
 10
-13.930741736
 20
22.3023774492
 30
0.0
 10
-13.9068460083
 20
22.2819253328
 30
0.0
 10
-13.8905164845
 20
22.264707047
 30
0.0
 11
-13.9642837227
 21
22.3208235237
 31
0.0
 11
-13.9452856673
 21
22.3101871638
 31
0.0
 11
-13.8905164845
 21
22.264707047
 31
0.0
  0
SPLINE
  5
47E
100
AcDbEntity
  8
0
100
AcDbSpline
 62
253
  6
CONTINUOUS
 70
0
 71
3
 72
9
 73
5
 74
3
 42
0.0000001
 43
0.0000001
 44
0.0000000001
 12
0.0637826619
 22
-0.0672541417
 32
0.0
 13
0.0453007712
 23
-0.0808652438
 33
0.0
 40
0.0
 40
0.0
 40
0.0
 40
0.0
 40
0.2437183679
 40
1.0
 40
1.0
 40
1.0
 40
1.0
 10
-13.8905164845
 20
22.264707047
 30
0.0
 10
-13.8853348158
 20
22.2592433571
 30
0.0
 10
-13.8648379279
 20
22.2361079417
 30
0.0
 10
-13.8473433001
 20
22.2103530561
 30
0.0
 10
-13.8359232531
 20
22.1899674232
 30
0.0
 11
-13.8905164845
 21
22.264707047
 31
0.0
 11
-13.8755222098
 21
22.2478107128
 31
0.0
 11
-13.8359232531
 21
22.1899674232
 31
0.0
  0
SPLINE
  5
47F
100
AcDbEntity
  8
0
100
AcDbSpline
 62
253
  6
CONTINUOUS
 70
0
 71
3
 72
9
 73
5
 74
3
 42
0.0000001
 43
0.0000001
 44
0.0000000001
 12
0.0887954283
 22
-0.1585064398
 32
0.0
 13
-0.0008559359
 23
-0.1816815536
 33
0.0
 40
0.0
 40
0.0
 40
0.0
 40
0.0
 40
0.2615668487
 40
1.0
 40
1.0
 40
1.0
 40
1.0
 10
-13.8359232531
 20
22.1899674232
 30
0.0
 10
-13.828181273
 20
22.1761474132
 30
0.0
 10
-13.8017698936
 20
22.1216942099
 30
0.0
 10
-13.7872993352
 20
22.0606538789
 30
0.0
 10
-13.787510019
 20
22.0159339849
 30
0.0
 11
-13.8359232531
 21
22.1899674232
 31
0.0
 11
-13.8151815482
 21
22.1472104347
 31
0.0
 11
-13.787510019
 21
22.0159339849
 31
0.0
  0
SPLINE
  5
480
100
AcDbEntity
  8
0
100
AcDbSpline
 62
7
  6
CONTINUOUS
 70
0
 71
3
 72
11
 73
7
 74
5
 42
0.0000001
 43
0.0000001
 44
0.0000000001
 12
0.328298287
 22
-0.1641491435
 32
0.0
 13
-0.0
 23
-0.3670486434
 33
0.0
 40
0.0
 40
0.0
 40
0.0
 40
0.0
 40
0.2296752475
 40
0.4882147097
 40
0.7532072079
 40
1.0
 40
1.0
 40
1.0
 40
1.0
 10
-14.4925508944
 20
22.0573847037
 30
0.0
 10
-14.4674168976
 20
22.0448177053
 30
0.0
 10
-14.4193895736
 20
22.0072444083
 30
0.0
 10
-14.3639309679
 20
21.9326482991
 30
0.0
 10
-14.3261971941
 20
21.8454144899
 30
0.0
 10
-14.3157771907
 20
21.7826901513
 30
0.0
 10
-14.3157771907
 20
21.7524951648
 30
0.0
 11
-14.4925508944
 21
22.0573847037
 31
0.0
 11
-14.4249025254
 21
22.0070803961
 31
0.0
 11
-14.3675527783
 21
21.9314737603
 31
0.0
 11
-14.3292331549
 21
21.8420751399
 31
0.0
 11
-14.3157771907
 21
21.7524951648
 31
0.0
  0
SPLINE
  5
481
100
AcDbEntity
  8
0
100
AcDbSpline
 62
253
  6
CONTINUOUS
 70
0
 71
3
 72
11
 73
7
 74
5
 42
0.0000001
 43
0.0000001
 44
0.0000000001
 12
0.3272561542
 22
-0.1655567191
 32
0.0
 13
0.0017563535
 23
-0.3667458697
 33
0.0
 40
0.0
 40
0.0
 40
0.0
 40
0.0
 40
0.2294296147
 40
0.4881164794
 40
0.7533035489
 40
1.0
 40
1.0
 40
1.0
 40
1.0
 10
-16.0938316852
 20
21.2546627002
 30
0.0
 10
-16.0688042674
 20
21.2420014954
 30
0.0
 10
-16.0209889142
 20
21.2042849238
 30
0.0
 10
-15.9656743515
 20
21.129686547
 30
0.0
 10
-15.9278549672
 20
21.0425607521
 30
0.0
 10
-15.9172024103
 20
20.9799314628
 30
0.0
 10
-15.9170579815
 20
20.9497731613
 30
0.0
 11
-16.0938316852
 21
21.2546627002
 31
0.0
 11
-16.026500166
 21
21.2041991862
 31
0.0
 11
-15.9692620379
 21
21.1285370169
 31
0.0
 11
-15.9308311675
 21
21.0391946097
 31
0.0
 11
-15.9170579815
 21
20.9497731613
 31
0.0
  0
SPLINE
  5
482
100
AcDbEntity
  8
0
100
AcDbSpline
 62
253
  6
CONTINUOUS
 70
0
 71
3
 72
9
 73
5
 74
3
 42
0.0000001
 43
0.0000001
 44
0.0000000001
 12
0.0
 22
0.1809588586
 32
0.0
 13
0.0881917394
 23
0.158013688
 33
0.0
 40
0.0
 40
0.0
 40
0.0
 40
0.0
 40
0.2350218079
 40
1.0
 40
1.0
 40
1.0
 40
1.0
 10
-17.9481180116
 20
21.7895549204
 30
0.0
 10
-17.9481180116
 20
21.8037313464
 30
0.0
 10
-17.9432935297
 20
21.8640131504
 30
0.0
 10
-17.9221123674
 20
21.9224733111
 30
0.0
 10
-17.899624115
 20
21.9627656529
 30
0.0
 11
-17.9481180116
 21
21.7895549204
 31
0.0
 11
-17.9449468293
 21
21.8319658046
 31
0.0
 11
-17.899624115
 21
21.9627656529
 31
0.0
  0
SPLINE
  5
483
100
AcDbEntity
  8
0
100
AcDbSpline
 62
253
  6
CONTINUOUS
 70
0
 71
3
 72
9
 73
5
 74
3
 42
0.0000001
 43
0.0000001
 44
0.0000000001
 12
0.085200086
 22
0.152653524
 32
0.0
 13
0.1521854241
 23
0.0860334222
 33
0.0
 40
0.0
 40
0.0
 40
0.0
 40
0.0
 40
0.2684542174
 40
1.0
 40
1.0
 40
1.0
 40
1.0
 10
-17.899624115
 20
21.9627656529
 30
0.0
 10
-17.8920000075
 20
21.9764258137
 30
0.0
 10
-17.8607675333
 20
22.0255046894
 30
0.0
 10
-17.8178588863
 20
22.06845963
 30
0.0
 10
-17.7807486846
 20
22.089438759
 30
0.0
 11
-17.899624115
 21
21.9627656529
 31
0.0
 11
-17.8743895541
 21
22.0023353383
 31
0.0
 11
-17.7807486846
 21
22.089438759
 31
0.0
  0
SPLINE
  5
484
100
AcDbEntity
  8
0
100
AcDbSpline
 62
253
  6
CONTINUOUS
 70
0
 71
3
 72
11
 73
7
 74
5
 42
0.0000001
 43
0.0000001
 44
0.0000000001
 12
0.0
 22
0.3659185077
 32
0.0
 13
0.326352026
 23
0.1655013878
 33
0.0
 40
0.0
 40
0.0
 40
0.0
 40
0.0
 40
0.2466000408
 40
0.5114083384
 40
0.7699749055
 40
1.0
 40
1.0
 40
1.0
 40
1.0
 10
-16.2695799412
 20
20.9502858852
 30
0.0
 10
-16.2695799412
 20
20.9803643915
 30
0.0
 10
-16.25923764
 20
21.0428495414
 30
0.0
 10
-16.2217531054
 20
21.1298194853
 30
0.0
 10
-16.1666146262
 20
21.2043190363
 30
0.0
 10
-16.1188547371
 20
21.241972876
 30
0.0
 10
-16.0938316852
 20
21.2546627002
 30
0.0
 11
-16.2695799412
 21
20.9502858852
 31
0.0
 11
-16.2562217341
 21
21.0395271715
 31
0.0
 11
-16.218166197
 21
21.1286397313
 31
0.0
 11
-16.1611645699
 21
21.2041558145
 31
0.0
 11
-16.0938316852
 21
21.2546627002
 31
0.0
  0
SPLINE
  5
485
100
AcDbEntity
  8
0
100
AcDbSpline
 62
253
  6
CONTINUOUS
 70
0
 71
3
 72
9
 73
5
 74
3
 42
0.0000001
 43
0.0000001
 44
0.0000000001
 12
0.0
 22
0.1809850597
 32
0.0
 13
0.0882148261
 23
0.158030808
 33
0.0
 40
0.0
 40
0.0
 40
0.0
 40
0.0
 40
0.2350217057
 40
1.0
 40
1.0
 40
1.0
 40
1.0
 10
-5.644460019
 20
15.6377259241
 30
0.0
 10
-5.644460019
 20
15.6519043965
 30
0.0
 10
-5.6396341499
 20
15.7121949101
 30
0.0
 10
-5.6184473426
 20
15.7706630953
 30
0.0
 10
-5.5959532002
 20
15.8109598079
 30
0.0
 11
-5.644460019
 21
15.6377259241
 31
0.0
 11
-5.6412879513
 21
15.6801428985
 31
0.0
 11
-5.5959532002
 21
15.8109598079
 31
0.0
  0
SPLINE
  5
486
100
AcDbEntity
  8
0
100
AcDbSpline
 62
253
  6
CONTINUOUS
 70
0
 71
3
 72
9
 73
5
 74
3
 42
0.0000001
 43
0.0000001
 44
0.0000000001
 12
0.0852049033
 22
0.1526387379
 32
0.0
 13
0.1521825344
 23
0.0860170685
 33
0.0
 40
0.0
 40
0.0
 40
0.0
 40
0.0
 40
0.2684578659
 40
1.0
 40
1.0
 40
1.0
 40
1.0
 10
-5.5959532002
 20
15.8109598079
 30
0.0
 10
-5.588328558
 20
15.8246188312
 30
0.0
 10
-5.5570948743
 20
15.8736927358
 30
0.0
 10
-5.5141861384
 20
15.9166425659
 30
0.0
 10
-5.4770768264
 20
15.9376176025
 30
0.0
 11
-5.5959532002
 21
15.8109598079
 31
0.0
 11
-5.5707172852
 21
15.8505260228
 31
0.0
 11
-5.4770768264
 21
15.9376176025
 31
0.0
  0
SPLINE
  5
487
100
AcDbEntity
  8
0
100
AcDbSpline
 62
253
  6
CONTINUOUS
 70
0
 71
3
 72
11
 73
7
 74
5
 42
0.0000001
 43
0.0000001
 44
0.0000000001
 12
0.0
 22
0.365918508
 32
0.0
 13
0.3263520263
 23
0.1655013879
 33
0.0
 40
0.0
 40
0.0
 40
0.0
 40
0.0
 40
0.2466001016
 40
0.5114084622
 40
0.7699750674
 40
1.0
 40
1.0
 40
1.0
 40
1.0
 10
-3.9659219486
 20
14.7984568889
 30
0.0
 10
-3.9659219486
 20
14.8285354026
 30
0.0
 10
-3.9555796419
 20
14.8910205677
 30
0.0
 10
-3.9180950922
 20
14.9779905267
 30
0.0
 10
-3.8629566089
 20
15.0524900671
 30
0.0
 10
-3.8151967269
 20
15.0901438886
 30
0.0
 10
-3.7901736926
 20
15.1028337038
 30
0.0
 11
-3.9659219486
 21
14.7984568889
 31
0.0
 11
-3.9525637349
 21
14.8876981967
 31
0.0
 11
-3.9145081813
 21
14.9768107747
 31
0.0
 11
-3.8575065359
 21
15.0523268617
 31
0.0
 11
-3.7901736926
 21
15.1028337038
 31
0.0
  0
SPLINE
  5
488
100
AcDbEntity
  8
0
100
AcDbSpline
 62
253
  6
CONTINUOUS
 70
0
 71
3
 72
11
 73
7
 74
5
 42
0.0000001
 43
0.0000001
 44
0.0000000001
 12
0.323933903
 22
-0.1619669515
 32
0.0
 13
0.3246816254
 23
0.1604627963
 33
0.0
 40
0.0
 40
0.0
 40
0.0
 40
0.0
 40
0.235171244
 40
0.4995791052
 40
0.7642134563
 40
1.0
 40
1.0
 40
1.0
 40
1.0
 10
-3.9659219486
 20
-26.8411211846
 30
0.0
 10
-3.9405286356
 20
-26.8538178411
 30
0.0
 10
-3.8821844821
 20
-26.8719621373
 30
0.0
 10
-3.78984942
 20
-26.8807177872
 30
0.0
 10
-3.6974150892
 20
-26.8722157072
 30
0.0
 10
-3.6389185083
 20
-26.8542455645
 30
0.0
 10
-3.6133999889
 20
-26.8416339085
 30
0.0
 11
-3.9659219486
 21
-26.8411211846
 31
0.0
 11
-3.8851520107
 21
-26.8681479493
 31
0.0
 11
-3.7898724786
 21
-26.8777321787
 31
0.0
 11
-3.6944830408
 21
-26.8684252692
 31
0.0
 11
-3.6133999889
 21
-26.8416339085
 31
0.0
  0
SPLINE
  5
489
100
AcDbEntity
  8
0
100
AcDbSpline
 62
253
  6
CONTINUOUS
 70
0
 71
3
 72
11
 73
7
 74
5
 42
0.0000001
 43
0.0000001
 44
0.0000000001
 12
0.3239339031
 22
-0.1619669516
 32
0.0
 13
0.3246816256
 23
0.1604627963
 33
0.0
 40
0.0
 40
0.0
 40
0.0
 40
0.0
 40
0.2351713294
 40
0.4995792494
 40
0.7642136314
 40
1.0
 40
1.0
 40
1.0
 40
1.0
 10
-3.9659219486
 20
-27.1810951188
 30
0.0
 10
-3.9405286263
 20
-27.1937917799
 30
0.0
 10
-3.8821844544
 20
-27.2119360777
 30
0.0
 10
-3.7898493706
 20
-27.2206917219
 30
0.0
 10
-3.69741505
 20
-27.2121896344
 30
0.0
 10
-3.6389184894
 20
-27.1942194893
 30
0.0
 10
-3.6133999889
 20
-27.1816078426
 30
0.0
 11
-3.9659219486
 21
-27.1810951188
 31
0.0
 11
-3.88515198
 21
-27.2081218894
 31
0.0
 11
-3.7898724259
 21
-27.2177061128
 31
0.0
 11
-3.694482978
 21
-27.2083991914
 31
0.0
 11
-3.6133999889
 21
-27.1816078426
 31
0.0
  0
SPLINE
  5
48A
100
AcDbEntity
  8
0
100
AcDbSpline
 62
253
  6
CONTINUOUS
 70
0
 71
3
 72
9
 73
5
 74
3
 42
0.0000001
 43
0.0000001
 44
0.0000000001
 12
0.0833076241
 22
-0.0411753954
 32
0.0
 13
0.0639538854
 23
-0.0674201303
 33
0.0
 40
0.0
 40
0.0
 40
0.0
 40
0.0
 40
0.2342128577
 40
1.0
 40
1.0
 40
1.0
 40
1.0
 10
-1.66062573
 20
16.1689945274
 30
0.0
 10
-1.6541218244
 20
16.165779925
 30
0.0
 10
-1.6270962425
 20
16.1505560432
 30
0.0
 10
-1.6032082217
 20
16.1301139246
 30
0.0
 10
-1.5868832006
 20
16.1129041016
 30
0.0
 11
-1.66062573
 21
16.1689945274
 31
0.0
 11
-1.6416344599
 21
16.1583624174
 31
0.0
 11
-1.5868832006
 21
16.1129041016
 31
0.0
  0
SPLINE
  5
48B
100
AcDbEntity
  8
0
100
AcDbSpline
 62
253
  6
CONTINUOUS
 70
0
 71
3
 72
9
 73
5
 74
3
 42
0.0000001
 43
0.0000001
 44
0.0000000001
 12
0.0637963994
 22
-0.0672541087
 32
0.0
 13
0.0453107012
 23
-0.0808704895
 33
0.0
 40
0.0
 40
0.0
 40
0.0
 40
0.0
 40
0.2437147928
 40
1.0
 40
1.0
 40
1.0
 40
1.0
 10
-1.5868832006
 20
16.1129041016
 30
0.0
 10
-1.5817004919
 20
16.1074404946
 30
0.0
 10
-1.5611991879
 20
16.084304781
 30
0.0
 10
-1.5437007837
 20
16.0585485384
 30
0.0
 10
-1.5322781794
 20
16.0381614868
 30
0.0
 11
-1.5868832006
 21
16.1129041016
 31
0.0
 11
-1.5718859127
 21
16.096007812
 31
0.0
 11
-1.5322781794
 21
16.0381614868
 31
0.0
  0
SPLINE
  5
48C
100
AcDbEntity
  8
0
100
AcDbSpline
 62
253
  6
CONTINUOUS
 70
0
 71
3
 72
9
 73
5
 74
3
 42
0.0000001
 43
0.0000001
 44
0.0000000001
 12
0.0888186073
 22
-0.1585233522
 32
0.0
 13
-0.0008560588
 23
-0.1817076371
 33
0.0
 40
0.0
 40
0.0
 40
0.0
 40
0.0
 40
0.2615658282
 40
1.0
 40
1.0
 40
1.0
 40
1.0
 10
-1.5322781794
 20
16.0381614868
 30
0.0
 10
-1.5245342085
 20
16.0243400561
 30
0.0
 10
-1.4981159508
 20
15.9698805403
 30
0.0
 10
-1.483641312
 20
15.9088313647
 30
0.0
 10
-1.4838520263
 20
15.8641049885
 30
0.0
 11
-1.5322781794
 21
16.0381614868
 31
0.0
 11
-1.5115311244
 21
15.9953997168
 31
0.0
 11
-1.4838520263
 21
15.8641049885
 31
0.0
  0
SPLINE
  5
48D
100
AcDbEntity
  8
0
100
AcDbSpline
 62
7
  6
CONTINUOUS
 70
0
 71
3
 72
11
 73
7
 74
5
 42
0.0000001
 43
0.0000001
 44
0.0000000001
 12
0.328298287
 22
-0.1641491435
 32
0.0
 13
-0.0
 23
-0.3670486434
 33
0.0
 40
0.0
 40
0.0
 40
0.0
 40
0.0
 40
0.2296752475
 40
0.4882147097
 40
0.7532072079
 40
1.0
 40
1.0
 40
1.0
 40
1.0
 10
-2.1888929018
 20
15.9055557073
 30
0.0
 10
-2.163758905
 20
15.8929887089
 30
0.0
 10
-2.1157315809
 20
15.855415412
 30
0.0
 10
-2.0602729752
 20
15.7808193028
 30
0.0
 10
-2.0225392015
 20
15.6935854935
 30
0.0
 10
-2.0121191981
 20
15.630861155
 30
0.0
 10
-2.0121191981
 20
15.6006661685
 30
0.0
 11
-2.1888929018
 21
15.9055557073
 31
0.0
 11
-2.1212445328
 21
15.8552513998
 31
0.0
 11
-2.0638947856
 21
15.779644764
 31
0.0
 11
-2.0255751622
 21
15.6902461435
 31
0.0
 11
-2.0121191981
 21
15.6006661685
 31
0.0
  0
SPLINE
  5
48E
100
AcDbEntity
  8
0
100
AcDbSpline
 62
253
  6
CONTINUOUS
 70
0
 71
3
 72
11
 73
7
 74
5
 42
0.0000001
 43
0.0000001
 44
0.0000000001
 12
0.327256154
 22
-0.1655567189
 32
0.0
 13
0.0017563535
 23
-0.3667458694
 33
0.0
 40
0.0
 40
0.0
 40
0.0
 40
0.0
 40
0.2294297766
 40
0.4881166035
 40
0.7533036098
 40
1.0
 40
1.0
 40
1.0
 40
1.0
 10
-3.7901736926
 20
15.1028337038
 30
0.0
 10
-3.7651462572
 20
15.0901724902
 30
0.0
 10
-3.7173308968
 20
15.0524559003
 30
0.0
 10
-3.6620163381
 20
14.9778575129
 30
0.0
 10
-3.624196969
 20
14.8907317331
 30
0.0
 10
-3.6135444176
 20
14.828102459
 30
0.0
 10
-3.6133999889
 20
14.797944165
 30
0.0
 11
-3.7901736926
 21
15.1028337038
 31
0.0
 11
-3.7228421319
 21
15.0523701463
 31
0.0
 11
-3.665604022
 21
14.9767079807
 31
0.0
 11
-3.6271731682
 21
14.8873655917
 31
0.0
 11
-3.6133999889
 21
14.797944165
 31
0.0
  0
SPLINE
  5
48F
100
AcDbEntity
  8
0
100
AcDbSpline
 62
253
  6
CONTINUOUS
 70
0
 71
3
 72
9
 73
5
 74
3
 42
0.0000001
 43
0.0000001
 44
0.0000000001
 12
-0.0972978999
 22
0.0353697585
 32
0.0
 13
-0.0928607827
 23
-0.0457687251
 33
0.0
 40
0.0
 40
0.0
 40
0.0
 40
0.0
 40
0.4658745477
 40
1.0
 40
1.0
 40
1.0
 40
1.0
 10
-15.5543300478
 20
23.1771270263
 30
0.0
 10
-15.5694395862
 20
23.1826196497
 30
0.0
 10
-15.6052374116
 20
23.1857483412
 30
0.0
 10
-15.6386301713
 20
23.1744120463
 30
0.0
 10
-15.6551632738
 20
23.1662632993
 30
0.0
 11
-15.5543300478
 21
23.1771270263
 31
0.0
 11
-15.6022721843
 21
23.1823953376
 31
0.0
 11
-15.6551632738
 21
23.1662632993
 31
0.0
  0
SPLINE
  5
490
100
AcDbEntity
  8
RACCORDO
100
AcDbSpline
 62
7
  6
CONTINUOUS
 70
0
 71
3
 72
11
 73
7
 74
5
 42
0.0000001
 43
0.0000001
 44
0.0000000001
 12
0.2667887594
 22
0.1334146621
 32
0.0
 13
-0.0178803623
 23
0.2977515858
 33
0.0
 40
0.0
 40
0.0
 40
0.0
 40
0.0
 40
0.2139562578
 40
0.4442632081
 40
0.7049429778
 40
1.0
 40
1.0
 40
1.0
 40
1.0
 10
-8.5902258176
 20
-20.5207691982
 30
0.0
 10
-8.571198776
 20
-20.5112542309
 30
0.0
 10
-8.5353309284
 20
-20.4833001968
 30
0.0
 10
-8.4989463384
 20
-20.4219284535
 30
0.0
 10
-8.4798650885
 20
-20.345298783
 30
0.0
 10
-8.4785710309
 20
-20.2896525984
 30
0.0
 10
-8.4803296064
 20
-20.260368033
 30
0.0
 11
-8.5902258176
 21
-20.5207691982
 31
0.0
 11
-8.539651774
 21
-20.4818419285
 31
0.0
 11
-8.5034673617
 21
-20.4234460803
 31
0.0
 11
-8.4833831552
 21
-20.3483270068
 31
0.0
 11
-8.4803296064
 21
-20.260368033
 31
0.0
  0
SPLINE
  5
491
100
AcDbEntity
  8
0
100
AcDbSpline
 62
253
  6
CONTINUOUS
 70
0
 71
3
 72
9
 73
5
 74
3
 42
0.0000001
 43
0.0000001
 44
0.0000000001
 12
0.1023513264
 22
0.0498536012
 32
0.0
 13
0.1015908034
 23
-0.0513856423
 33
0.0
 40
0.0
 40
0.0
 40
0.0
 40
0.0
 40
0.4641049814
 40
1.0
 40
1.0
 40
1.0
 40
1.0
 10
-15.7656753031
 20
23.1739979507
 30
0.0
 10
-15.7498413829
 20
23.1817103856
 30
0.0
 10
-15.7103137154
 20
23.1879725451
 30
0.0
 10
-15.673310609
 20
23.1754424025
 30
0.0
 10
-15.6551632738
 20
23.1662632993
 30
0.0
 11
-15.7656753031
 21
23.1739979507
 31
0.0
 11
-15.713695182
 21
23.183475246
 31
0.0
 11
-15.6551632738
 21
23.1662632993
 31
0.0
  0
SPLINE
  5
492
100
AcDbEntity
  8
0
100
AcDbSpline
 62
7
  6
CONTINUOUS
 70
0
 71
3
 72
9
 73
5
 74
3
 42
0.0000001
 43
0.0000001
 44
0.0000000001
 12
0.1026923057
 22
0.0500197096
 32
0.0
 13
0.1021672394
 23
-0.0510836197
 33
0.0
 40
0.0
 40
0.0
 40
0.0
 40
0.0
 40
0.4638305674
 40
1.0
 40
1.0
 40
1.0
 40
1.0
 10
-16.3005452686
 20
22.9134458457
 30
0.0
 10
-16.2846679917
 20
22.9211794025
 30
0.0
 10
-16.2450279641
 20
22.9274703788
 30
0.0
 10
-16.2078728027
 20
22.9150456578
 30
0.0
 10
-16.1896131525
 20
22.9059158327
 30
0.0
 11
-16.3005452686
 21
22.9134458457
 31
0.0
 11
-16.2484300699
 21
22.9229888241
 31
0.0
 11
-16.1896131525
 21
22.9059158327
 31
0.0
  0
SPLINE
  5
493
100
AcDbEntity
  8
RACCORDO
100
AcDbSpline
 62
7
  6
CONTINUOUS
 70
0
 71
3
 72
9
 73
5
 74
3
 42
0.0000001
 43
0.0000001
 44
0.0000000001
 12
-0.224973756
 22
-0.2456128304
 32
0.0
 13
-0.0314890555
 23
-0.3315830103
 33
0.0
 40
0.0
 40
0.0
 40
0.0
 40
0.0
 40
0.4668542486
 40
1.0
 40
1.0
 40
1.0
 40
1.0
 10
-21.5091710736
 20
7.7095851946
 30
0.0
 10
-21.5441810582
 20
7.6713633968
 30
0.0
 10
-21.6014722011
 20
7.5728731281
 30
0.0
 10
-21.6244496323
 20
7.4627447009
 30
0.0
 10
-21.6300457176
 20
7.4038173432
 30
0.0
 11
-21.5091710736
 21
7.7095851946
 31
0.0
 11
-21.5901955125
 21
7.5768656258
 31
0.0
 11
-21.6300457176
 21
7.4038173432
 31
0.0
  0
SPLINE
  5
494
100
AcDbEntity
  8
RACCORDO
100
AcDbSpline
 62
253
  6
CONTINUOUS
 70
0
 71
3
 72
11
 73
7
 74
5
 42
0.0000001
 43
0.0000001
 44
0.0000000001
 12
0.0037455278
 22
-0.2407218703
 32
0.0
 13
0.2153170293
 23
-0.1077015539
 33
0.0
 40
0.0
 40
0.0
 40
0.0
 40
0.0
 40
0.2088507172
 40
0.4379488669
 40
0.7007037522
 40
1.0
 40
1.0
 40
1.0
 40
1.0
 10
-9.2662533373
 20
-15.8432165809
 30
0.0
 10
-9.2659925853
 20
-15.8599748926
 30
0.0
 10
-9.2583167191
 20
-15.8952594672
 30
0.0
 10
-9.2277156166
 20
-15.9434606286
 30
0.0
 10
-9.180222256
 20
-15.9864219882
 30
0.0
 10
-9.1412841929
 20
-16.0096935745
 30
0.0
 10
-9.1198029999
 20
-16.0204384648
 30
0.0
 11
-9.2662533373
 21
-15.8432165809
 31
0.0
 11
-9.2560676057
 21
-15.8924551015
 31
0.0
 11
-9.227439804
 21
-15.9395994578
 31
0.0
 11
-9.181279919
 21
-15.9828533973
 31
0.0
 11
-9.1198029999
 21
-16.0204384648
 31
0.0
  0
SPLINE
  5
495
100
AcDbEntity
  8
0
100
AcDbSpline
 62
7
  6
CONTINUOUS
 70
0
 71
3
 72
10
 73
6
 74
4
 42
0.0000001
 43
0.0000001
 44
0.0000000001
 12
-0.0552340986
 22
0.0276094422
 32
0.0
 13
-0.0592088991
 23
-0.017532633
 33
0.0
 40
0.0
 40
0.0
 40
0.0
 40
0.0
 40
0.1378587112
 40
0.3428863583
 40
1.0
 40
1.0
 40
1.0
 40
1.0
 10
-0.6094979735
 20
20.0743554497
 30
0.0
 10
-0.6120361407
 20
20.0756241838
 30
0.0
 10
-0.6192065858
 20
20.0768295582
 30
0.0
 10
-0.6397375257
 20
20.0754240803
 30
0.0
 10
-0.6570358437
 20
20.0707273677
 30
0.0
 10
-0.6700048354
 20
20.066887057
 30
0.0
 11
-0.6094979735
 21
20.0743554497
 31
0.0
 11
-0.6177808261
 21
20.076320688
 31
0.0
 11
-0.6304330261
 21
20.0758623848
 31
0.0
 11
-0.6700048354
 21
20.066887057
 31
0.0
  0
SPLINE
  5
496
100
AcDbEntity
  8
0
100
AcDbSpline
 62
7
  6
CONTINUOUS
 70
0
 71
3
 72
9
 73
5
 74
3
 42
0.0000001
 43
0.0000001
 44
0.0000000001
 12
-0.0663070596
 22
-0.0196345036
 32
0.0
 13
-0.0645773021
 23
-0.0247368537
 33
0.0
 40
0.0
 40
0.0
 40
0.0
 40
0.0
 40
0.2148691628
 40
1.0
 40
1.0
 40
1.0
 40
1.0
 10
-0.6700048354
 20
20.066887057
 30
0.0
 10
-0.6747539496
 20
20.0654807738
 30
0.0
 10
-0.6967566708
 20
20.0585992524
 30
0.0
 10
-0.7184166409
 20
20.0506669578
 30
0.0
 10
-0.7353171847
 20
20.0441930689
 30
0.0
 11
-0.6700048354
 21
20.066887057
 31
0.0
 11
-0.6841935378
 21
20.0624750075
 31
0.0
 11
-0.7353171847
 21
20.0441930689
 31
0.0
  0
SPLINE
  5
497
100
AcDbEntity
  8
RACCORDO
100
AcDbSpline
 62
253
  6
CONTINUOUS
 70
0
 71
3
 72
11
 73
7
 74
5
 42
0.0000001
 43
0.0000001
 44
0.0000000001
 12
-0.0000738314
 22
-0.2406339362
 32
0.0
 13
0.2152348115
 23
-0.1076042406
 33
0.0
 40
0.0
 40
0.0
 40
0.0
 40
0.0
 40
0.2064174157
 40
0.4344336086
 40
0.6980453568
 40
1.0
 40
1.0
 40
1.0
 40
1.0
 10
-9.3294918383
 20
-7.4675966171
 30
0.0
 10
-9.3294969184
 20
-7.4841536289
 30
0.0
 10
-9.3221563688
 20
-7.519259439
 30
0.0
 10
-9.2916158773
 20
-7.5672416953
 30
0.0
 10
-9.2438813459
 20
-7.6101789397
 30
0.0
 10
-9.2046903283
 20
-7.633525148
 30
0.0
 10
-9.1830266114
 20
-7.6443556814
 30
0.0
 11
-9.3294918383
 21
-7.4675966171
 31
0.0
 11
-9.3198874868
 21
-7.5163302647
 31
0.0
 11
-9.2914389573
 21
-7.563247495
 31
0.0
 11
-9.2450641137
 21
-7.6065284153
 31
0.0
 11
-9.1830266114
 21
-7.6443556814
 31
0.0
  0
SPLINE
  5
498
100
AcDbEntity
  8
0
100
AcDbSpline
 62
7
  6
CONTINUOUS
 70
0
 71
3
 72
9
 73
5
 74
3
 42
0.0000001
 43
0.0000001
 44
0.0000000001
 12
-0.006550221
 22
0.0032673696
 32
0.0
 13
-0.007276758
 23
0.0007936572
 33
0.0
 40
0.0
 40
0.0
 40
0.0
 40
0.0
 40
0.2176355694
 40
1.0
 40
1.0
 40
1.0
 40
1.0
 10
-6.1999524119
 20
22.8695827558
 30
0.0
 10
-6.2004275989
 20
22.8698197877
 30
0.0
 10
-6.2026798471
 20
22.8707719461
 30
0.0
 10
-6.2051139496
 20
22.8712249402
 30
0.0
 10
-6.2070116418
 20
22.8714319166
 30
0.0
 11
-6.1999524119
 21
22.8695827558
 31
0.0
 11
-6.2014165511
 21
22.8702105918
 31
0.0
 11
-6.2070116418
 21
22.8714319166
 31
0.0
  0
LINE
  5
499
100
AcDbEntity
  8
0
100
AcDbLine
 62
7
  6
CONTINUOUS
 10
-6.2070116418
 20
22.8714319166
 11
-6.2112155119
 21
22.8716682033
  0
SPLINE
  5
49A
100
AcDbEntity
  8
0
100
AcDbSpline
 62
253
  6
CONTINUOUS
 70
0
 71
3
 72
10
 73
6
 74
4
 42
0.0000001
 43
0.0000001
 44
0.0000000001
 12
0.0
 22
-0.1567251828
 32
0.0
 13
0.1400481104
 23
-0.0703513304
 33
0.0
 40
0.0
 40
0.0
 40
0.0
 40
0.0
 40
0.5480386929
 40
0.782115348
 40
1.0
 40
1.0
 40
1.0
 40
1.0
 10
-3.9659219486
 20
-27.1810951188
 30
0.0
 10
-3.9659219486
 20
-27.2097256069
 30
0.0
 10
-3.9594050636
 20
-27.252015193
 30
0.0
 10
-3.9305265767
 20
-27.2964286281
 30
0.0
 10
-3.9112798948
 20
-27.3111238379
 30
0.0
 10
-3.9011084502
 20
-27.3162333296
 30
0.0
 11
-3.9659219486
 21
-27.1810951188
 31
0.0
 11
-3.948898937
 21
-27.2652827706
 31
0.0
 11
-3.9283973413
 21
-27.2957052235
 31
0.0
 11
-3.9011084502
 21
-27.3162333296
 31
0.0
  0
SPLINE
  5
49B
100
AcDbEntity
  8
RACCORDO
100
AcDbSpline
 62
7
  6
CONTINUOUS
 70
0
 71
3
 72
9
 73
5
 74
3
 42
0.0000001
 43
0.0000001
 44
0.0000000001
 12
0.2080937749
 22
0.1042679539
 32
0.0
 13
0.2081822766
 23
-0.1040911383
 33
0.0
 40
0.0
 40
0.0
 40
0.0
 40
0.0
 40
0.4669554744
 40
1.0
 40
1.0
 40
1.0
 40
1.0
 10
-21.2840682149
 20
7.5117951898
 30
0.0
 10
-21.2516780391
 20
7.5280246871
 30
0.0
 10
-21.1710982588
 20
7.5421420648
 30
0.0
 10
-21.0950601619
 20
7.5172956869
 30
0.0
 10
-21.0580700209
 20
7.4988006165
 30
0.0
 11
-21.2840682149
 21
7.5117951898
 31
0.0
 11
-21.1774140024
 21
7.5327131145
 31
0.0
 11
-21.0580700209
 21
7.4988006165
 31
0.0
  0
SPLINE
  5
49C
100
AcDbEntity
  8
RACCORDO
100
AcDbSpline
 62
253
  6
CONTINUOUS
 70
0
 71
3
 72
11
 73
7
 74
5
 42
0.0000001
 43
0.0000001
 44
0.0000000001
 12
-0.28297661
 22
0.1413536169
 32
0.0
 13
0.0008822822
 23
0.3163160261
 33
0.0
 40
0.0
 40
0.0
 40
0.0
 40
0.0
 40
0.2168674232
 40
0.4500845811
 40
0.7105794858
 40
1.0
 40
1.0
 40
1.0
 40
1.0
 10
-10.1116881109
 20
-6.0846653569
 30
0.0
 10
-10.1321442469
 20
-6.0744470254
 30
0.0
 10
-10.1708394354
 20
-6.0449399136
 30
0.0
 10
-10.2123265586
 20
-5.9811679558
 30
0.0
 10
-10.2368575596
 20
-5.9014717713
 30
0.0
 10
-10.2417229751
 20
-5.8432727118
 30
0.0
 10
-10.2416378583
 20
-5.8127565961
 30
0.0
 11
-10.1116881109
 21
-6.0846653569
 31
0.0
 11
-10.1665509715
 21
-6.0434843328
 31
0.0
 11
-10.207752781
 21
-5.9822918985
 31
0.0
 11
-10.2331779525
 21
-5.9039135762
 31
0.0
 11
-10.2416378583
 21
-5.8127565961
 31
0.0
  0
SPLINE
  5
49D
100
AcDbEntity
  8
0
100
AcDbSpline
 62
253
  6
CONTINUOUS
 70
0
 71
3
 72
11
 73
7
 74
5
 42
0.0000001
 43
0.0000001
 44
0.0000000001
 12
-0.0000524484
 22
-0.1191548052
 32
0.0
 13
-0.1063252648
 23
-0.0537848345
 33
0.0
 40
0.0
 40
0.0
 40
0.0
 40
0.0
 40
0.2069627274
 40
0.4350712485
 40
0.6978189664
 40
1.0
 40
1.0
 40
1.0
 40
1.0
 10
-1.4116544335
 20
-25.6951858651
 30
0.0
 10
-1.4116580518
 20
-25.7034060662
 30
0.0
 10
-1.4152627863
 20
-25.7208164923
 30
0.0
 10
-1.4303135593
 20
-25.7446033548
 30
0.0
 10
-1.4537872749
 20
-25.7660075727
 30
0.0
 10
-1.4731422002
 20
-25.7776130819
 30
0.0
 10
-1.4838520263
 20
-25.7830306676
 30
0.0
 11
-1.4116544335
 21
-25.6951858651
 31
0.0
 11
-1.416395313
 21
-25.7193864755
 31
0.0
 11
-1.4304178298
 21
-25.7426702439
 31
0.0
 11
-1.4531896569
 21
-25.7641554301
 31
0.0
 11
-1.4838520263
 21
-25.7830306676
 31
0.0
  0
SPLINE
  5
49E
100
AcDbEntity
  8
0
100
AcDbSpline
 62
253
  6
CONTINUOUS
 70
0
 71
3
 72
8
 73
4
 74
2
 42
0.0000001
 43
0.0000001
 44
0.0000000001
 12
-0.0220607894
 22
0.010993836
 32
0.0
 13
-0.0241361801
 23
0.0049987666
 33
0.0
 40
0.0
 40
0.0
 40
0.0
 40
0.0
 40
1.0
 40
1.0
 40
1.0
 40
1.0
 10
-1.5499626411
 20
-25.4714953393
 30
0.0
 10
-1.5573162376
 20
-25.4678307273
 30
0.0
 10
-1.5652204283
 20
-25.4651301171
 30
0.0
 10
-1.5732658217
 20
-25.4634638616
 30
0.0
 11
-1.5499626411
 21
-25.4714953393
 31
0.0
 11
-1.5732658217
 21
-25.4634638616
 31
0.0
  0
SPLINE
  5
49F
100
AcDbEntity
  8
RACCORDO
100
AcDbSpline
 62
7
  6
CONTINUOUS
 70
0
 71
3
 72
11
 73
7
 74
5
 42
0.0000001
 43
0.0000001
 44
0.0000000001
 12
0.0102086591
 22
0.5141228621
 32
0.0
 13
0.4599035416
 23
0.2300331856
 33
0.0
 40
0.0
 40
0.0
 40
0.0
 40
0.0
 40
0.2874486279
 40
0.5470500418
 40
0.781406575
 40
1.0
 40
1.0
 40
1.0
 40
1.0
 10
-21.8456514776
 20
7.2376826112
 30
0.0
 10
-21.8446733226
 20
7.2869439149
 30
0.0
 10
-21.8347169153
 20
7.3808846727
 30
0.0
 10
-21.7917920919
 20
7.5091169041
 30
0.0
 10
-21.7225323708
 20
7.611853405
 30
0.0
 10
-21.6590576103
 20
7.6597038191
 30
0.0
 10
-21.6255469801
 20
7.6764650665
 30
0.0
 11
-21.8456514776
 21
7.2376826112
 31
0.0
 11
-21.8286619825
 21
7.384516029
 31
0.0
 11
-21.7846386647
 21
7.5105414903
 31
0.0
 11
-21.7157938565
 21
7.6094530005
 31
0.0
 11
-21.6255469801
 21
7.6764650665
 31
0.0
  0
SPLINE
  5
4A0
100
AcDbEntity
  8
RACCORDO
100
AcDbSpline
 62
7
  6
CONTINUOUS
 70
0
 71
3
 72
11
 73
7
 74
5
 42
0.0000001
 43
0.0000001
 44
0.0000000001
 12
-1.0491650369
 22
0.5245825185
 32
0.0
 13
-0.0703136088
 23
1.1708928601
 33
0.0
 40
0.0
 40
0.0
 40
0.0
 40
0.0
 40
0.2318143117
 40
0.4926746298
 40
0.7573897307
 40
1.0
 40
1.0
 40
1.0
 40
1.0
 10
-21.094613967
 20
-14.6031191531
 30
0.0
 10
-21.1756844573
 20
-14.5625839079
 30
0.0
 10
-21.3316981127
 20
-14.4438267236
 30
0.0
 10
-21.5182130718
 20
-14.2110176994
 30
0.0
 10
-21.6524321388
 20
-13.9398295063
 30
0.0
 10
-21.6975401467
 20
-13.7436098396
 30
0.0
 10
-21.7032264146
 20
-13.6489196289
 30
0.0
 11
-21.094613967
 21
-14.6031191531
 31
0.0
 11
-21.314820708
 21
-14.4435924603
 31
0.0
 11
-21.508001508
 21
-14.2062933097
 31
0.0
 11
-21.6444420421
 21
-13.9273644607
 31
0.0
 11
-21.7032264146
 21
-13.6489196289
 31
0.0
  0
SPLINE
  5
4A1
100
AcDbEntity
  8
RACCORDO
100
AcDbSpline
 62
7
  6
CONTINUOUS
 70
0
 71
3
 72
9
 73
5
 74
3
 42
0.0000001
 43
0.0000001
 44
0.0000000001
 12
-0.0341313064
 22
-0.173360888
 32
0.0
 13
-0.1507187584
 23
-0.0922106254
 33
0.0
 40
0.0
 40
0.0
 40
0.0
 40
0.0
 40
0.5329542016
 40
1.0
 40
1.0
 40
1.0
 40
1.0
 10
-8.2738647605
 20
-20.2608315914
 30
0.0
 10
-8.2799282349
 20
-20.2916293959
 30
0.0
 10
-8.2993307665
 20
-20.3487531315
 30
0.0
 10
-8.3417227693
 20
-20.3932225832
 30
0.0
 10
-8.3651869569
 20
-20.4075781116
 30
0.0
 11
-8.2738647605
 21
-20.2608315914
 31
0.0
 11
-8.3071394899
 21
-20.3489237406
 31
0.0
 11
-8.3651869569
 21
-20.4075781116
 31
0.0
  0
SPLINE
  5
4A2
100
AcDbEntity
  8
RACCORDO
100
AcDbSpline
 62
7
  6
CONTINUOUS
 70
0
 71
3
 72
9
 73
5
 74
3
 42
0.0000001
 43
0.0000001
 44
0.0000000001
 12
0.2114814966
 22
-0.1057407483
 32
0.0
 13
0.2363035598
 23
0.008133689
 33
0.0
 40
0.0
 40
0.0
 40
0.0
 40
0.0
 40
0.2742350876
 40
1.0
 40
1.0
 40
1.0
 40
1.0
 10
-8.5781376376
 20
-20.6485389811
 30
0.0
 10
-8.5588057554
 20
-20.6582049222
 30
0.0
 10
-8.4868708404
 20
-20.6900797467
 30
0.0
 10
-8.4071497244
 20
-20.7075489708
 30
0.0
 10
-8.3499827803
 20
-20.7055812554
 30
0.0
 11
-8.5781376376
 21
-20.6485389811
 31
0.0
 11
-8.5187660396
 21
-20.6746039413
 31
0.0
 11
-8.3499827803
 21
-20.7055812554
 31
0.0
  0
SPLINE
  5
4A3
100
AcDbEntity
  8
RACCORDO
100
AcDbSpline
 62
253
  6
CONTINUOUS
 70
0
 71
3
 72
9
 73
5
 74
3
 42
0.0000001
 43
0.0000001
 44
0.0000000001
 12
-0.1302035208
 22
-0.0687776449
 32
0.0
 13
-0.1455095767
 23
0.0225894747
 33
0.0
 40
0.0
 40
0.0
 40
0.0
 40
0.0
 40
0.4923487692
 40
1.0
 40
1.0
 40
1.0
 40
1.0
 10
-8.1729741045
 20
5.6097864959
 30
0.0
 10
-8.194342619
 20
5.5984989663
 30
0.0
 10
-8.2418843824
 20
5.5826109634
 30
0.0
 10
-8.2918822218
 20
5.5832360405
 30
0.0
 10
-8.316504927
 20
5.5870585654
 30
0.0
 11
-8.1729741045
 21
5.6097864959
 31
0.0
 11
-8.2417522472
 21
5.5868569803
 31
0.0
 11
-8.316504927
 21
5.5870585654
 31
0.0
  0
SPLINE
  5
4A4
100
AcDbEntity
  8
RACCORDO
100
AcDbSpline
 62
253
  6
CONTINUOUS
 70
0
 71
3
 72
9
 73
5
 74
3
 42
0.0000001
 43
0.0000001
 44
0.0000000001
 12
-0.0495742747
 22
0.0076961039
 32
0.0
 13
-0.0474845422
 23
0.0161881742
 33
0.0
 40
0.0
 40
0.0
 40
0.0
 40
0.0
 40
0.2451983063
 40
1.0
 40
1.0
 40
1.0
 40
1.0
 10
-8.316504927
 20
5.5870585654
 30
0.0
 10
-8.3205567698
 20
5.5876875893
 30
0.0
 10
-8.3370205662
 20
5.5906376117
 30
0.0
 10
-8.3532072492
 20
5.5950862121
 30
0.0
 10
-8.3651543868
 20
5.5991591658
 30
0.0
 11
-8.316504927
 21
5.5870585654
 31
0.0
 11
-8.3286138991
 21
5.5892243681
 31
0.0
 11
-8.3651543868
 21
5.5991591658
 31
0.0
  0
SPLINE
  5
4A5
100
AcDbEntity
  8
RACCORDO
100
AcDbSpline
 62
7
  6
CONTINUOUS
 70
0
 71
3
 72
9
 73
5
 74
3
 42
0.0000001
 43
0.0000001
 44
0.0000000001
 12
0.0701163157
 22
-0.0595946402
 32
0.0
 13
0.0754643514
 23
-0.0526588127
 33
0.0
 40
0.0
 40
0.0
 40
0.0
 40
0.0
 40
0.2548223755
 40
1.0
 40
1.0
 40
1.0
 40
1.0
 10
-21.0530554411
 20
-14.3814554092
 30
0.0
 10
-21.0470997058
 20
-14.3865174252
 30
0.0
 10
-21.0235053812
 20
-14.4061186227
 30
0.0
 10
-20.9990079867
 20
-14.424638602
 30
0.0
 10
-20.9802632047
 20
-14.4377186583
 30
0.0
 11
-21.0530554411
 21
-14.3814554092
 31
0.0
 11
-21.0350163417
 21
-14.3964368643
 31
0.0
 11
-20.9802632047
 21
-14.4377186583
 31
0.0
  0
SPLINE
  5
4A6
100
AcDbEntity
  8
RACCORDO
100
AcDbSpline
 62
7
  6
CONTINUOUS
 70
0
 71
3
 72
9
 73
5
 74
3
 42
0.0000001
 43
0.0000001
 44
0.0000000001
 12
0.0941791578
 22
-0.0657179521
 32
0.0
 13
0.1027173325
 23
-0.0513586662
 33
0.0
 40
0.0
 40
0.0
 40
0.0
 40
0.0
 40
0.2583377127
 40
1.0
 40
1.0
 40
1.0
 40
1.0
 10
-20.9802632047
 20
-14.4377186583
 30
0.0
 10
-20.9721531953
 20
-14.4433778001
 30
0.0
 10
-20.9404019365
 20
-14.4647609992
 30
0.0
 10
-20.9071894875
 20
-14.4840130561
 30
0.0
 10
-20.8817956303
 20
-14.4967099847
 30
0.0
 11
-20.9802632047
 21
-14.4377186583
 31
0.0
 11
-20.9556505827
 21
-14.4542837446
 31
0.0
 11
-20.8817956303
 21
-14.4967099847
 31
0.0
  0
LINE
  5
4A7
100
AcDbEntity
  8
RACCORDO
100
AcDbLine
 62
7
  6
CONTINUOUS
 10
-21.633455245
 20
7.3437807275
 11
-21.6348959188
 21
7.2700734095
  0
SPLINE
  5
4A8
100
AcDbEntity
  8
RACCORDO
100
AcDbSpline
 62
7
  6
CONTINUOUS
 70
0
 71
3
 72
11
 73
7
 74
5
 42
0.0000001
 43
0.0000001
 44
0.0000000001
 12
-0.3790616052
 22
0.1895308026
 32
0.0
 13
-0.020662909
 23
0.42329974
 33
0.0
 40
0.0
 40
0.0
 40
0.0
 40
0.0
 40
0.2244614817
 40
0.4716909202
 40
0.7325895586
 40
1.0
 40
1.0
 40
1.0
 40
1.0
 10
-9.0128495918
 20
-19.2569219866
 30
0.0
 10
-9.0412111683
 20
-19.2427411983
 30
0.0
 10
-9.0914938674
 20
-19.1943869827
 30
0.0
 10
-9.1351192911
 20
-19.0994354505
 30
0.0
 10
-9.1602803168
 20
-18.9923240463
 30
0.0
 10
-9.1673985728
 20
-18.9178559305
 30
0.0
 10
-9.1692403986
 20
-18.8801243404
 30
0.0
 11
-9.0128495918
 21
-19.2569219866
 31
0.0
 11
-9.0840410639
 21
-19.1938265168
 31
0.0
 11
-9.1310446945
 21
-19.1001844897
 31
0.0
 11
-9.1576249771
 21
-18.9928570726
 31
0.0
 11
-9.1692403986
 21
-18.8801243404
 31
0.0
  0
SPLINE
  5
4A9
100
AcDbEntity
  8
RACCORDO
100
AcDbSpline
 62
253
  6
CONTINUOUS
 70
0
 71
3
 72
11
 73
7
 74
5
 42
0.0000001
 43
0.0000001
 44
0.0000000001
 12
-0.649188379
 22
-0.3186483056
 32
0.0
 13
-0.6468263595
 23
0.3234160707
 33
0.0
 40
0.0
 40
0.0
 40
0.0
 40
0.0
 40
0.2359705712
 40
0.5006055875
 40
0.7649148275
 40
1.0
 40
1.0
 40
1.0
 40
1.0
 10
-20.5122134457
 20
-1.6294867075
 30
0.0
 10
-20.5632765632
 20
-1.6545505817
 30
0.0
 10
-20.6801767754
 20
-1.6902290795
 30
0.0
 10
-20.8647855126
 20
-1.7069917776
 30
0.0
 10
-21.0490973122
 20
-1.6893728186
 30
0.0
 10
-21.1655350087
 20
-1.6531132065
 30
0.0
 10
-21.2162214375
 20
-1.6277697656
 30
0.0
 11
-20.5122134457
 21
-1.6294867075
 31
0.0
 11
-20.6743538152
 21
-1.6826962784
 31
0.0
 11
-20.8648497107
 21
-1.7010442664
 31
0.0
 11
-21.0550171056
 21
-1.6817679129
 31
0.0
 11
-21.2162214375
 21
-1.6277697656
 31
0.0
  0
SPLINE
  5
4AA
100
AcDbEntity
  8
RACCORDO
100
AcDbSpline
 62
7
  6
CONTINUOUS
 70
0
 71
3
 72
17
 73
13
 74
11
 42
0.0000001
 43
0.0000001
 44
0.0000000001
 12
-0.3543429845
 22
-1.026416523
 32
0.0
 13
-0.9712218405
 23
0.4856109202
 33
0.0
 40
0.0
 40
0.0
 40
0.0
 40
0.0
 40
0.1355596325
 40
0.2697013737
 40
0.4019779842
 40
0.5317571055
 40
0.6580039954
 40
0.7789658245
 40
0.8368134447
 40
0.8924805894
 40
0.9463026053
 40
1.0
 40
1.0
 40
1.0
 40
1.0
 10
-20.374137377
 20
-12.4946971768
 30
0.0
 10
-20.3901489119
 20
-12.5410773924
 30
0.0
 10
-20.424702572
 20
-12.6324491742
 30
0.0
 10
-20.4845047372
 20
-12.7651965651
 30
0.0
 10
-20.5523290786
 20
-12.8916902654
 30
0.0
 10
-20.6287930631
 20
-13.0098806137
 30
0.0
 10
-20.7147939899
 20
-13.1161402079
 30
0.0
 10
-20.79705541
 20
-13.1911241678
 30
0.0
 10
-20.8700824582
 20
-13.2349962597
 30
0.0
 10
-20.9273525915
 20
-13.2562120141
 30
0.0
 10
-20.9871445956
 20
-13.2613590731
 30
0.0
 10
-21.0256639867
 20
-13.2505147891
 30
0.0
 10
-21.0430480142
 20
-13.2418227754
 30
0.0
 11
-20.374137377
 21
-12.4946971768
 31
0.0
 11
-20.4262913456
 21
-12.6323467549
 31
0.0
 11
-20.4862963651
 21
-12.7650718391
 31
0.0
 11
-20.5544745971
 21
-12.8914932902
 31
0.0
 11
-20.6315416364
 21
-13.0094747879
 31
0.0
 11
-20.718677423
 21
-13.1153049124
 31
0.0
 11
-20.8174941782
 21
-13.2018347519
 31
0.0
 11
-20.8716694577
 21
-13.2336259926
 31
0.0
 11
-20.9286678126
 21
-13.253750298
 31
0.0
 11
-20.9869707448
 21
-13.257795862
 31
0.0
 11
-21.0430480142
 21
-13.2418227754
 31
0.0
  0
SPLINE
  5
4AB
100
AcDbEntity
  8
RACCORDO
100
AcDbSpline
 62
253
  6
CONTINUOUS
 70
0
 71
3
 72
11
 73
7
 74
5
 42
0.0000001
 43
0.0000001
 44
0.0000000001
 12
-0.6438348999
 22
-0.3312037265
 32
0.0
 13
-0.6476437984
 23
0.3236924423
 33
0.0
 40
0.0
 40
0.0
 40
0.0
 40
0.0
 40
0.2370705237
 40
0.5017497135
 40
0.7654861829
 40
1.0
 40
1.0
 40
1.0
 40
1.0
 10
-20.4479298389
 20
-9.9977435318
 30
0.0
 10
-20.4988079312
 20
-10.0239164121
 30
0.0
 10
-20.6154749091
 20
-10.0618561216
 30
0.0
 10
-20.8002353608
 20
-10.0812870275
 30
0.0
 10
-20.9847141805
 20
-10.0654783807
 30
0.0
 10
-21.1012468976
 20
-10.0297063941
 30
0.0
 10
-21.1518740374
 20
-10.004402944
 30
0.0
 11
-20.4479298389
 21
-9.9977435318
 31
0.0
 11
-20.6100458946
 21
-10.0541419709
 31
0.0
 11
-20.8005211933
 21
-10.0751985912
 31
0.0
 11
-20.9906747529
 21
-10.057742774
 31
0.0
 11
-21.1518740374
 21
-10.004402944
 31
0.0
  0
SPLINE
  5
4AC
100
AcDbEntity
  8
RACCORDO
100
AcDbSpline
 62
253
  6
CONTINUOUS
 70
0
 71
3
 72
9
 73
5
 74
3
 42
0.0000001
 43
0.0000001
 44
0.0000000001
 12
-0.0866366712
 22
0.0417409009
 32
0.0
 13
-0.083192193
 23
-0.0482418348
 33
0.0
 40
0.0
 40
0.0
 40
0.0
 40
0.0
 40
0.5419484001
 40
1.0
 40
1.0
 40
1.0
 40
1.0
 10
-6.919909731
 20
11.5738186453
 30
0.0
 10
-6.9355605995
 20
11.5813591168
 30
0.0
 10
-6.9670173618
 20
11.5914855614
 30
0.0
 10
-7.0004302288
 20
11.5847579075
 30
0.0
 10
-7.0131323345
 20
11.5773921576
 30
0.0
 11
-6.919909731
 21
11.5738186453
 31
0.0
 11
-6.9702310072
 21
11.587384953
 31
0.0
 11
-7.0131323345
 21
11.5773921576
 31
0.0
  0
SPLINE
  5
4AD
100
AcDbEntity
  8
RACCORDO
100
AcDbSpline
 62
253
  6
CONTINUOUS
 70
0
 71
3
 72
9
 73
5
 74
3
 42
0.0000001
 43
0.0000001
 44
0.0000000001
 12
-0.081652919
 22
0.0405374905
 32
0.0
 13
0.0102137057
 23
0.0905878995
 33
0.0
 40
0.0
 40
0.0
 40
0.0
 40
0.0
 40
0.3345381594
 40
1.0
 40
1.0
 40
1.0
 40
1.0
 10
-7.5728565049
 20
10.502400719
 30
0.0
 10
-7.581961844
 20
10.5069211648
 30
0.0
 10
-7.6074022766
 20
10.5210421524
 30
0.0
 10
-7.6340025627
 20
10.5489655475
 30
0.0
 10
-7.6317369523
 20
10.569059811
 30
0.0
 11
-7.5728565049
 21
10.502400719
 31
0.0
 11
-7.5991132409
 21
10.5179138904
 31
0.0
 11
-7.6317369523
 21
10.569059811
 31
0.0
  0
SPLINE
  5
4AE
100
AcDbEntity
  8
RACCORDO
100
AcDbSpline
 62
253
  6
CONTINUOUS
 70
0
 71
3
 72
11
 73
7
 74
5
 42
0.0000001
 43
0.0000001
 44
0.0000000001
 12
-0.084958505
 22
0.0422919984
 32
0.0
 13
0.0062379343
 23
0.0946976709
 33
0.0
 40
0.0
 40
0.0
 40
0.0
 40
0.0
 40
0.3155410043
 40
0.5838392161
 40
0.806509652
 40
1.0
 40
1.0
 40
1.0
 40
1.0
 10
-8.0106441413
 20
5.7716906612
 30
0.0
 10
-8.0195801053
 20
5.7761389477
 30
0.0
 10
-8.0356073055
 20
5.7854953915
 30
0.0
 10
-8.0550580553
 20
5.8023132571
 30
0.0
 10
-8.0672579936
 20
5.8206608569
 30
0.0
 10
-8.0697464421
 20
5.8341125408
 30
0.0
 10
-8.0693441154
 20
5.8402202359
 30
0.0
 11
-8.0106441413
 21
5.7716906612
 31
0.0
 11
-8.036335582
 21
5.7870756613
 31
0.0
 11
-8.0552358156
 21
5.8041375724
 31
0.0
 11
-8.0663669108
 21
5.8221003984
 31
0.0
 11
-8.0693441154
 21
5.8402202359
 31
0.0
  0
SPLINE
  5
4AF
100
AcDbEntity
  8
0
100
AcDbSpline
 62
253
  6
CONTINUOUS
 70
0
 71
3
 72
10
 73
6
 74
4
 42
0.0000001
 43
0.0000001
 44
0.0000000001
 12
0.0007367353
 22
-0.1556345922
 32
0.0
 13
-0.1384794885
 23
-0.0710359087
 33
0.0
 40
0.0
 40
0.0
 40
0.0
 40
0.0
 40
0.5475254686
 40
0.7817271398
 40
1.0
 40
1.0
 40
1.0
 40
1.0
 10
-1.4838520263
 20
-26.1305621843
 30
0.0
 10
-1.4837175659
 20
-26.1589668187
 30
0.0
 10
-1.4899977296
 20
-26.2009663898
 30
0.0
 10
-1.5184394735
 20
-26.2452175953
 30
0.0
 10
-1.5374646747
 20
-26.259957521
 30
0.0
 10
-1.5475401127
 20
-26.2651259247
 30
0.0
 11
-1.4838520263
 21
-26.1305621843
 31
0.0
 11
-1.5003411491
 21
-26.2141664953
 31
0.0
 11
-1.520541791
 21
-26.2445071892
 31
0.0
 11
-1.5475401127
 21
-26.2651259247
 31
0.0
  0
SPLINE
  5
4B0
100
AcDbEntity
  8
RACCORDO
100
AcDbSpline
 62
253
  6
CONTINUOUS
 70
0
 71
3
 72
9
 73
5
 74
3
 42
0.0000001
 43
0.0000001
 44
0.0000000001
 12
0.0145922904
 22
0.2205007387
 32
0.0
 13
0.1620109865
 23
0.1502862301
 33
0.0
 40
0.0
 40
0.0
 40
0.0
 40
0.0
 40
0.4975761521
 40
1.0
 40
1.0
 40
1.0
 40
1.0
 10
-8.5484378794
 20
5.3890465892
 30
0.0
 10
-8.5460176208
 20
5.4256185589
 30
0.0
 10
-8.5247260874
 20
5.4980925606
 30
0.0
 10
-8.4814252162
 20
5.5598722648
 30
0.0
 10
-8.4542924885
 20
5.5850413935
 30
0.0
 11
-8.5484378794
 21
5.3890465892
 31
0.0
 11
-8.5193801858
 21
5.4950935129
 31
0.0
 11
-8.4542924885
 21
5.5850413935
 31
0.0
  0
SPLINE
  5
4B1
100
AcDbEntity
  8
0
100
AcDbSpline
 62
7
  6
CONTINUOUS
 70
0
 71
3
 72
10
 73
6
 74
4
 42
0.0000001
 43
0.0000001
 44
0.0000000001
 12
-0.0
 22
-0.1559505894
 32
0.0
 13
-0.1387591004
 23
-0.0711793397
 33
0.0
 40
0.0
 40
0.0
 40
0.0
 40
0.0
 40
0.5479337167
 40
0.782130602
 40
1.0
 40
1.0
 40
1.0
 40
1.0
 10
-2.0121191981
 20
-26.401573243
 30
0.0
 10
-2.0121191981
 20
-26.4300567717
 30
0.0
 10
-2.0185703132
 20
-26.4721144003
 30
0.0
 10
-2.04710729
 20
-26.5164196947
 30
0.0
 10
-2.066147217
 20
-26.531181672
 30
0.0
 10
-2.0762243376
 20
-26.5363509386
 30
0.0
 11
-2.0121191981
 21
-26.401573243
 31
0.0
 11
-2.0289462023
 21
-26.485350654
 31
0.0
 11
-2.0492209281
 21
-26.5157295186
 31
0.0
 11
-2.0762243376
 21
-26.5363509386
 31
0.0
  0
SPLINE
  5
4B2
100
AcDbEntity
  8
RACCORDO
100
AcDbSpline
 62
253
  6
CONTINUOUS
 70
0
 71
3
 72
9
 73
5
 74
3
 42
0.0000001
 43
0.0000001
 44
0.0000000001
 12
0.0142417605
 22
0.2152036573
 32
0.0
 13
0.1549656712
 23
0.1500036087
 33
0.0
 40
0.0
 40
0.0
 40
0.0
 40
0.0
 40
0.4963753761
 40
1.0
 40
1.0
 40
1.0
 40
1.0
 10
-21.3013880619
 20
11.7655216804
 30
0.0
 10
-21.2990316421
 20
11.8011289459
 30
0.0
 10
-21.2786296162
 20
11.8718937811
 30
0.0
 10
-21.2371839007
 20
11.932613672
 30
0.0
 10
-21.2111690581
 20
11.957795509
 30
0.0
 11
-21.3013880619
 21
11.7655216804
 31
0.0
 11
-21.2735925922
 21
11.8689058304
 31
0.0
 11
-21.2111690581
 21
11.957795509
 31
0.0
  0
SPLINE
  5
4B3
100
AcDbEntity
  8
0
100
AcDbSpline
 62
253
  6
CONTINUOUS
 70
0
 71
3
 72
11
 73
7
 74
5
 42
0.0000001
 43
0.0000001
 44
0.0000000001
 12
-0.0007563656
 22
-0.1586850504
 32
0.0
 13
-0.1426632749
 23
-0.0694889007
 33
0.0
 40
0.0
 40
0.0
 40
0.0
 40
0.0
 40
0.2901390019
 40
0.5501335806
 40
0.7832367603
 40
1.0
 40
1.0
 40
1.0
 40
1.0
 10
-3.6133999889
 20
-27.1816078426
 30
0.0
 10
-3.6134731393
 20
-27.19695475
 30
0.0
 10
-3.6160904919
 20
-27.2261532542
 30
0.0
 10
-3.6287778997
 20
-27.2660197132
 30
0.0
 10
-3.6498006841
 20
-27.2978285385
 30
0.0
 10
-3.6693536012
 20
-27.3124374434
 30
0.0
 10
-3.6796616525
 20
-27.3174583231
 30
0.0
 11
-3.6133999889
 21
-27.1816078426
 31
0.0
 11
-3.6179845973
 21
-27.2274202604
 31
0.0
 11
-3.6310527525
 21
-27.2665536592
 31
0.0
 11
-3.6519572846
 21
-27.2970707195
 31
0.0
 11
-3.6796616525
 21
-27.3174583231
 31
0.0
  0
SPLINE
  5
4B4
100
AcDbEntity
  8
0
100
AcDbSpline
 62
253
  6
CONTINUOUS
 70
0
 71
3
 72
9
 73
5
 74
3
 42
0.0000001
 43
0.0000001
 44
0.0000000001
 12
0.0
 22
0.2514083247
 32
0.0
 13
0.1603864367
 23
0.1936035553
 33
0.0
 40
0.0
 40
0.0
 40
0.0
 40
0.0
 40
0.4868891312
 40
1.0
 40
1.0
 40
1.0
 40
1.0
 10
-3.9659219486
 20
-26.8411211846
 30
0.0
 10
-3.9659219486
 20
-26.8003185244
 30
0.0
 10
-3.9474428148
 20
-26.7164823642
 30
0.0
 10
-3.9049656089
 20
-26.6425403736
 30
0.0
 10
-3.8775336009
 20
-26.6094270108
 30
0.0
 11
-3.9659219486
 21
-26.8411211846
 31
0.0
 11
-3.9422383622
 21
-26.721026216
 31
0.0
 11
-3.8775336009
 21
-26.6094270108
 31
0.0
  0
SPLINE
  5
4B5
100
AcDbEntity
  8
0
100
AcDbSpline
 62
253
  6
CONTINUOUS
 70
0
 71
3
 72
11
 73
7
 74
5
 42
0.0000001
 43
0.0000001
 44
0.0000000001
 12
-0.1867733391
 22
0.3016213508
 32
0.0
 13
-0.3163609943
 23
0.1605473161
 33
0.0
 40
0.0
 40
0.0
 40
0.0
 40
0.0
 40
0.2188690821
 40
0.4829783205
 40
0.7560361716
 40
1.0
 40
1.0
 40
1.0
 40
1.0
 10
-3.6133999889
 20
-26.8416339085
 30
0.0
 10
-3.627026292
 20
-26.8196287124
 30
0.0
 10
-3.6630522171
 20
-26.7748563741
 30
0.0
 10
-3.727160308
 20
-26.712377724
 30
0.0
 10
-3.7997894379
 20
-26.6550527572
 30
0.0
 10
-3.8518067211
 20
-26.6224829234
 30
0.0
 10
-3.8775336009
 20
-26.6094270108
 30
0.0
 11
-3.6133999889
 21
-26.8416339085
 31
0.0
 11
-3.660689755
 21
-26.7800480243
 31
0.0
 11
-3.7274643004
 21
-26.7143187317
 31
0.0
 11
-3.8035949232
 21
-26.6544162842
 31
0.0
 11
-3.8775336009
 21
-26.6094270108
 31
0.0
  0
SPLINE
  5
4B6
100
AcDbEntity
  8
0
100
AcDbSpline
 62
7
  6
CONTINUOUS
 70
0
 71
3
 72
10
 73
6
 74
4
 42
0.0000001
 43
0.0000001
 44
0.0000000001
 12
-0.3674823818
 22
0.0767372205
 32
0.0
 13
-0.3357759991
 23
0.1678879995
 33
0.0
 40
0.0
 40
0.0
 40
0.0
 40
0.0
 40
0.2083150484
 40
0.4661810473
 40
1.0
 40
1.0
 40
1.0
 40
1.0
 10
-2.9021793808
 20
-25.9901374314
 30
0.0
 10
-2.9276967509
 20
-25.9848089254
 30
0.0
 10
-2.9841606362
 20
-25.9698432037
 30
0.0
 10
-3.1031203923
 20
-25.9310863336
 30
0.0
 10
-3.1954677048
 20
-25.8942415254
 30
0.0
 10
-3.2552155688
 20
-25.8643675933
 30
0.0
 11
-2.9021793808
 21
-25.9901374314
 31
0.0
 11
-2.9779579243
 21
-25.9708145254
 31
0.0
 11
-3.0700988057
 21
-25.9411277112
 31
0.0
 11
-3.2552155688
 21
-25.8643675933
 31
0.0
  0
SPLINE
  5
4B7
100
AcDbEntity
  8
RACCORDO
100
AcDbSpline
 62
253
  6
CONTINUOUS
 70
0
 71
3
 72
9
 73
5
 74
3
 42
0.0000001
 43
0.0000001
 44
0.0000000001
 12
0.223453012
 22
-0.112193577
 32
0.0
 13
0.2444225209
 23
0.0526904029
 33
0.0
 40
0.0
 40
0.0
 40
0.0
 40
0.0
 40
0.4886683806
 40
1.0
 40
1.0
 40
1.0
 40
1.0
 10
-21.7520355525
 20
12.6423780851
 30
0.0
 10
-21.715637412
 20
12.6241029339
 30
0.0
 10
-21.6326997317
 20
12.6046859691
 30
0.0
 10
-21.5480904191
 20
12.6062612455
 30
0.0
 10
-21.506430098
 20
12.6152420018
 30
0.0
 11
-21.7520355525
 21
12.6423780851
 31
0.0
 11
-21.6341801877
 21
12.6101389001
 31
0.0
 11
-21.506430098
 21
12.6152420018
 31
0.0
  0
SPLINE
  5
4B8
100
AcDbEntity
  8
RACCORDO
100
AcDbSpline
 62
253
  6
CONTINUOUS
 70
0
 71
3
 72
9
 73
5
 74
3
 42
0.0000001
 43
0.0000001
 44
0.0000000001
 12
0.2121449405
 22
-0.1068241757
 32
0.0
 13
0.235898687
 23
0.0277252544
 33
0.0
 40
0.0
 40
0.0
 40
0.0
 40
0.0
 40
0.4865724107
 40
1.0
 40
1.0
 40
1.0
 40
1.0
 10
-21.2987045886
 20
17.3653362638
 30
0.0
 10
-21.2642966302
 20
17.3480103649
 30
0.0
 10
-21.1865431302
 20
17.327147996
 30
0.0
 10
-21.1065807063
 20
17.3235295251
 30
0.0
 10
-21.0662084082
 20
17.3282744953
 30
0.0
 11
-21.2987045886
 21
17.3653362638
 31
0.0
 11
-21.1881082456
 21
17.3317907983
 31
0.0
 11
-21.0662084082
 21
17.3282744953
 31
0.0
  0
SPLINE
  5
4B9
100
AcDbEntity
  8
0
100
AcDbSpline
 62
253
  6
CONTINUOUS
 70
0
 71
3
 72
9
 73
5
 74
3
 42
0.0000001
 43
0.0000001
 44
0.0000000001
 12
0.0540205738
 22
0.1425958475
 32
0.0
 13
-0.0197436141
 23
0.1512018116
 33
0.0
 40
0.0
 40
0.0
 40
0.0
 40
0.0
 40
0.2521477516
 40
1.0
 40
1.0
 40
1.0
 40
1.0
 10
-1.4838520263
 20
-25.7830306676
 30
0.0
 10
-1.4793116376
 20
-25.7710455935
 30
0.0
 10
-1.464229875
 20
-25.7224669231
 30
0.0
 10
-1.4608927164
 20
-25.6701595487
 30
0.0
 10
-1.4658144851
 20
-25.6324673437
 30
0.0
 11
-1.4838520263
 21
-25.7830306676
 31
0.0
 11
-1.4724526767
 21
-25.7463105231
 31
0.0
 11
-1.4658144851
 21
-25.6324673437
 31
0.0
  0
SPLINE
  5
4BA
100
AcDbEntity
  8
0
100
AcDbSpline
 62
253
  6
CONTINUOUS
 70
0
 71
3
 72
9
 73
5
 74
3
 42
0.0000001
 43
0.0000001
 44
0.0000000001
 12
-0.0115352623
 22
0.0539890339
 32
0.0
 13
-0.0227940441
 23
0.0502822992
 33
0.0
 40
0.0
 40
0.0
 40
0.0
 40
0.0
 40
0.2548105244
 40
1.0
 40
1.0
 40
1.0
 40
1.0
 10
-1.4696706911
 20
-25.6099802319
 30
0.0
 10
-1.4706504599
 20
-25.6053945738
 30
0.0
 10
-1.4749525697
 20
-25.587500438
 30
0.0
 10
-1.4811137791
 20
-25.5700413208
 30
0.0
 10
-1.4867757397
 20
-25.5575513741
 30
0.0
 11
-1.4696706911
 21
-25.6099802319
 31
0.0
 11
-1.472963614
 21
-25.5963035906
 31
0.0
 11
-1.4867757397
 21
-25.5575513741
 31
0.0
  0
SPLINE
  5
4BB
100
AcDbEntity
  8
0
100
AcDbSpline
 62
253
  6
CONTINUOUS
 70
0
 71
3
 72
9
 73
5
 74
3
 42
0.0000001
 43
0.0000001
 44
0.0000000001
 12
-0.0497004364
 22
0.1096361925
 32
0.0
 13
-0.1043794006
 23
0.0599597266
 33
0.0
 40
0.0
 40
0.0
 40
0.0
 40
0.0
 40
0.5166283026
 40
1.0
 40
1.0
 40
1.0
 40
1.0
 10
-1.4867757397
 20
-25.5575513741
 30
0.0
 10
-1.4953346237
 20
-25.5386709875
 30
0.0
 10
-1.5167987482
 20
-25.504037245
 30
0.0
 10
-1.5481153887
 20
-25.477592117
 30
0.0
 10
-1.5649334048
 20
-25.4679311721
 30
0.0
 11
-1.4867757397
 21
-25.5575513741
 31
0.0
 11
-1.5201422559
 21
-25.5050710248
 31
0.0
 11
-1.5649334048
 21
-25.4679311721
 31
0.0
  0
SPLINE
  5
4BC
100
AcDbEntity
  8
RACCORDO
100
AcDbSpline
 62
253
  6
CONTINUOUS
 70
0
 71
3
 72
9
 73
5
 74
3
 42
0.0000001
 43
0.0000001
 44
0.0000000001
 12
0.1041226463
 22
-0.0540243066
 32
0.0
 13
0.0683217135
 23
-0.0953535245
 33
0.0
 40
0.0
 40
0.0
 40
0.0
 40
0.0
 40
0.2269081972
 40
1.0
 40
1.0
 40
1.0
 40
1.0
 10
-20.6272781144
 20
18.4275028369
 30
0.0
 10
-20.619402687
 20
18.4234166509
 30
0.0
 10
-20.5861644128
 20
18.4026023168
 30
0.0
 10
-20.5588204542
 20
18.3732703621
 30
0.0
 10
-20.5412141353
 20
18.3486980194
 30
0.0
 11
-20.6272781144
 21
18.4275028369
 31
0.0
 11
-20.6046220959
 21
18.4135322153
 31
0.0
 11
-20.5412141353
 21
18.3486980194
 31
0.0
  0
SPLINE
  5
4BD
100
AcDbEntity
  8
RACCORDO
100
AcDbSpline
 62
253
  6
CONTINUOUS
 70
0
 71
3
 72
9
 73
5
 74
3
 42
0.0000001
 43
0.0000001
 44
0.0000000001
 12
0.0583236007
 22
-0.0813996109
 32
0.0
 13
0.0321196199
 23
-0.0948465554
 33
0.0
 40
0.0
 40
0.0
 40
0.0
 40
0.0
 40
0.7521343921
 40
1.0
 40
1.0
 40
1.0
 40
1.0
 10
-20.5412141353
 20
18.3486980194
 30
0.0
 10
-20.52659174
 20
18.3282902037
 30
0.0
 10
-20.5100869458
 20
18.2988550819
 30
0.0
 10
-20.4981390243
 20
18.2676736329
 30
0.0
 10
-20.4954852413
 20
18.2598372332
 30
0.0
 11
-20.5412141353
 21
18.3486980194
 31
0.0
 11
-20.5043419442
 21
18.2830239608
 31
0.0
 11
-20.4954852413
 21
18.2598372332
 31
0.0
  0
SPLINE
  5
4BE
100
AcDbEntity
  8
RACCORDO
100
AcDbSpline
 62
253
  6
CONTINUOUS
 70
0
 71
3
 72
9
 73
5
 74
3
 42
0.0000001
 43
0.0000001
 44
0.0000000001
 12
0.0572003679
 22
-0.0282490489
 32
0.0
 13
0.0635238624
 23
0.0058830055
 33
0.0
 40
0.0
 40
0.0
 40
0.0
 40
0.0
 40
0.2739412591
 40
1.0
 40
1.0
 40
1.0
 40
1.0
 10
-17.3809907975
 20
20.7482412247
 30
0.0
 10
-17.3757676173
 20
20.745661698
 30
0.0
 10
-17.3562788021
 20
20.7372636732
 30
0.0
 10
-17.3344696176
 20
20.733178984
 30
0.0
 10
-17.3190955991
 20
20.7346027865
 30
0.0
 11
-17.3809907975
 21
20.7482412247
 31
0.0
 11
-17.3649159068
 21
20.7413842562
 31
0.0
 11
-17.3190955991
 21
20.7346027865
 31
0.0
  0
SPLINE
  5
4BF
100
AcDbEntity
  8
RACCORDO
100
AcDbSpline
 62
253
  6
CONTINUOUS
 70
0
 71
3
 72
11
 73
7
 74
5
 42
0.0000001
 43
0.0000001
 44
0.0000000001
 12
0.2485227499
 22
0.1402130956
 32
0.0
 13
0.0
 23
0.285347629
 33
0.0
 40
0.0
 40
0.0
 40
0.0
 40
0.0
 40
0.2325923618
 40
0.4915258743
 40
0.7550990907
 40
1.0
 40
1.0
 40
1.0
 40
1.0
 10
-17.3791449917
 20
20.4106663711
 30
0.0
 10
-17.3598768272
 20
20.4215372028
 30
0.0
 10
-17.3234427007
 20
20.4521515559
 30
0.0
 10
-17.2812481047
 20
20.5109928052
 30
0.0
 10
-17.2529805467
 20
20.5789234226
 30
0.0
 10
-17.2451250573
 20
20.6273500829
 30
0.0
 10
-17.2451250573
 20
20.6506440475
 30
0.0
 11
-17.3791449917
 21
20.4106663711
 31
0.0
 11
-17.3274033388
 21
20.4522324107
 31
0.0
 11
-17.2839510947
 21
20.5119906981
 31
0.0
 11
-17.2552146337
 21
20.5814943582
 31
0.0
 11
-17.2451250573
 21
20.6506440475
 31
0.0
  0
SPLINE
  5
4C0
100
AcDbEntity
  8
RACCORDO
100
AcDbSpline
 62
253
  6
CONTINUOUS
 70
0
 71
3
 72
11
 73
7
 74
5
 42
0.0000001
 43
0.0000001
 44
0.0000000001
 12
0.2485227502
 22
0.1402130954
 32
0.0
 13
-0.0000000004
 23
0.2853476291
 33
0.0
 40
0.0
 40
0.0
 40
0.0
 40
0.0
 40
0.2325923477
 40
0.4915258488
 40
0.7550990786
 40
1.0
 40
1.0
 40
1.0
 40
1.0
 10
-15.6923792674
 20
19.567283509
 30
0.0
 10
-15.6731111041
 20
19.57815434
 30
0.0
 10
-15.6366769781
 20
19.6087686898
 30
0.0
 10
-15.5944823831
 20
19.6676099388
 30
0.0
 10
-15.5662148242
 20
19.735540557
 30
0.0
 10
-15.5583593331
 20
19.7839672196
 30
0.0
 10
-15.5583593331
 20
19.8072611854
 30
0.0
 11
-15.6923792674
 21
19.567283509
 31
0.0
 11
-15.6406376167
 21
19.6088495448
 31
0.0
 11
-15.5971853741
 21
19.6686078294
 31
0.0
 11
-15.568448911
 21
19.7381114928
 31
0.0
 11
-15.5583593331
 21
19.8072611854
 31
0.0
  0
SPLINE
  5
4C1
100
AcDbEntity
  8
RACCORDO
100
AcDbSpline
 62
253
  6
CONTINUOUS
 70
0
 71
3
 72
11
 73
7
 74
5
 42
0.0000001
 43
0.0000001
 44
0.0000000001
 12
-0.2612648762
 22
0.1322549794
 32
0.0
 13
-0.0128644528
 23
0.2925495188
 33
0.0
 40
0.0
 40
0.0
 40
0.0
 40
0.0
 40
0.2306959004
 40
0.4907914876
 40
0.7559042309
 40
1.0
 40
1.0
 40
1.0
 40
1.0
 10
-15.0578397401
 20
19.5866656959
 30
0.0
 10
-15.077930652
 20
19.5968359231
 30
0.0
 10
-15.1164876798
 20
19.6267535435
 30
0.0
 10
-15.1620680853
 20
19.6854876955
 30
0.0
 10
-15.1943862983
 20
19.753896992
 30
0.0
 10
-15.2047906538
 20
19.8032501849
 30
0.0
 10
-15.2058373733
 20
19.8270535515
 30
0.0
 11
-15.0578397401
 21
19.5866656959
 31
0.0
 11
-15.112197742
 21
19.6267769412
 31
0.0
 11
-15.1594097659
 21
19.6865434552
 31
0.0
 11
-15.192290959
 21
19.7568698097
 31
0.0
 11
-15.2058373733
 21
19.8270535515
 31
0.0
  0
SPLINE
  5
4C2
100
AcDbEntity
  8
RACCORDO
100
AcDbSpline
 62
253
  6
CONTINUOUS
 70
0
 71
3
 72
9
 73
5
 74
3
 42
0.0000001
 43
0.0000001
 44
0.0000000001
 12
0.0572003679
 22
-0.0282490489
 32
0.0
 13
0.0635238624
 23
0.0058830055
 33
0.0
 40
0.0
 40
0.0
 40
0.0
 40
0.0
 40
0.2739412591
 40
1.0
 40
1.0
 40
1.0
 40
1.0
 10
-5.0773328049
 20
14.5964122283
 30
0.0
 10
-5.0721096246
 20
14.5938327017
 30
0.0
 10
-5.0526208095
 20
14.5854346769
 30
0.0
 10
-5.0308116249
 20
14.5813499876
 30
0.0
 10
-5.0154376064
 20
14.5827737902
 30
0.0
 11
-5.0773328049
 21
14.5964122283
 31
0.0
 11
-5.0612579141
 21
14.5895552598
 31
0.0
 11
-5.0154376064
 21
14.5827737902
 31
0.0
  0
SPLINE
  5
4C3
100
AcDbEntity
  8
RACCORDO
100
AcDbSpline
 62
253
  6
CONTINUOUS
 70
0
 71
3
 72
11
 73
7
 74
5
 42
0.0000001
 43
0.0000001
 44
0.0000000001
 12
0.2485227499
 22
0.1402130956
 32
0.0
 13
0.0
 23
0.285347629
 33
0.0
 40
0.0
 40
0.0
 40
0.0
 40
0.0
 40
0.2325923618
 40
0.4915258743
 40
0.7550990907
 40
1.0
 40
1.0
 40
1.0
 40
1.0
 10
-5.075486999
 20
14.2588373748
 30
0.0
 10
-5.0562188346
 20
14.2697082065
 30
0.0
 10
-5.0197847081
 20
14.3003225596
 30
0.0
 10
-4.977590112
 20
14.3591638089
 30
0.0
 10
-4.949322554
 20
14.4270944262
 30
0.0
 10
-4.9414670647
 20
14.4755210866
 30
0.0
 10
-4.9414670647
 20
14.4988150512
 30
0.0
 11
-5.075486999
 21
14.2588373748
 31
0.0
 11
-5.0237453461
 21
14.3004034144
 31
0.0
 11
-4.980293102
 21
14.3601617018
 31
0.0
 11
-4.951556641
 21
14.4296653618
 31
0.0
 11
-4.9414670647
 21
14.4988150512
 31
0.0
  0
SPLINE
  5
4C4
100
AcDbEntity
  8
RACCORDO
100
AcDbSpline
 62
253
  6
CONTINUOUS
 70
0
 71
3
 72
11
 73
7
 74
5
 42
0.0000001
 43
0.0000001
 44
0.0000000001
 12
0.2485227502
 22
0.1402130954
 32
0.0
 13
-0.0000000004
 23
0.2853476291
 33
0.0
 40
0.0
 40
0.0
 40
0.0
 40
0.0
 40
0.2325923477
 40
0.4915258488
 40
0.7550990786
 40
1.0
 40
1.0
 40
1.0
 40
1.0
 10
-3.3887212748
 20
13.4154545127
 30
0.0
 10
-3.3694531115
 20
13.4263253437
 30
0.0
 10
-3.3330189855
 20
13.4569396934
 30
0.0
 10
-3.2908243904
 20
13.5157809424
 30
0.0
 10
-3.2625568316
 20
13.5837115607
 30
0.0
 10
-3.2547013404
 20
13.6321382233
 30
0.0
 10
-3.2547013405
 20
13.655432189
 30
0.0
 11
-3.3887212748
 21
13.4154545127
 31
0.0
 11
-3.3369796241
 21
13.4570205485
 31
0.0
 11
-3.2935273815
 21
13.5167788331
 31
0.0
 11
-3.2647909184
 21
13.5862824964
 31
0.0
 11
-3.2547013405
 21
13.655432189
 31
0.0
  0
SPLINE
  5
4C5
100
AcDbEntity
  8
RACCORDO
100
AcDbSpline
 62
253
  6
CONTINUOUS
 70
0
 71
3
 72
11
 73
7
 74
5
 42
0.0000001
 43
0.0000001
 44
0.0000000001
 12
-0.2612648762
 22
0.1322549794
 32
0.0
 13
-0.0128644528
 23
0.2925495188
 33
0.0
 40
0.0
 40
0.0
 40
0.0
 40
0.0
 40
0.2306959004
 40
0.4907914876
 40
0.7559042309
 40
1.0
 40
1.0
 40
1.0
 40
1.0
 10
-2.7541817474
 20
13.4348366996
 30
0.0
 10
-2.7742726594
 20
13.4450069268
 30
0.0
 10
-2.8128296871
 20
13.4749245472
 30
0.0
 10
-2.8584100927
 20
13.5336586992
 30
0.0
 10
-2.8907283056
 20
13.6020679957
 30
0.0
 10
-2.9011326611
 20
13.6514211886
 30
0.0
 10
-2.9021793806
 20
13.6752245552
 30
0.0
 11
-2.7541817474
 21
13.4348366996
 31
0.0
 11
-2.8085397494
 21
13.4749479449
 31
0.0
 11
-2.8557517733
 21
13.5347144589
 31
0.0
 11
-2.8886329663
 21
13.6050408134
 31
0.0
 11
-2.9021793806
 21
13.6752245552
 31
0.0
  0
SPLINE
  5
4C6
100
AcDbEntity
  8
0
100
AcDbSpline
 62
253
  6
CONTINUOUS
 70
0
 71
3
 72
10
 73
6
 74
4
 42
0.0000001
 43
0.0000001
 44
0.0000000001
 12
0.0394099582
 22
-0.0641576145
 32
0.0
 13
-0.0476287454
 23
-0.0583167808
 33
0.0
 40
0.0
 40
0.0
 40
0.0
 40
0.0
 40
0.3488607343
 40
0.628015101
 40
1.0
 40
1.0
 40
1.0
 40
1.0
 10
-1.4838520263
 20
15.5165734718
 30
0.0
 10
-1.479269164
 20
15.509112781
 30
0.0
 10
-1.4716615389
 20
15.4950816521
 30
0.0
 10
-1.4628142346
 20
15.4721914465
 30
0.0
 10
-1.4625495474
 20
15.4530136173
 30
0.0
 10
-1.4684552721
 20
15.44578263
 30
0.0
 11
-1.4838520263
 21
15.5165734718
 31
0.0
 11
-1.4714501433
 21
15.4934180381
 31
0.0
 11
-1.4646457148
 21
15.4735309655
 31
0.0
 11
-1.4684552721
 21
15.44578263
 31
0.0
  0
SPLINE
  5
4C7
100
AcDbEntity
  8
0
100
AcDbSpline
 62
7
  6
CONTINUOUS
 70
0
 71
3
 72
10
 73
6
 74
4
 42
0.0000001
 43
0.0000001
 44
0.0000000001
 12
0.3473086931
 22
-0.0725863021
 32
0.0
 13
0.2274530278
 23
0.2723182324
 33
0.0
 40
0.0
 40
0.0
 40
0.0
 40
0.0
 40
0.4823936024
 40
0.7434680481
 40
1.0
 40
1.0
 40
1.0
 40
1.0
 10
-3.2160178589
 20
14.1718121297
 30
0.0
 10
-3.1601713617
 20
14.1601404071
 30
0.0
 10
-3.0667802161
 20
14.1813692487
 30
0.0
 10
-2.9664728725
 20
14.2434171366
 30
0.0
 10
-2.9216290372
 20
14.2861805988
 30
0.0
 10
-2.9021793808
 20
14.309466708
 30
0.0
 11
-3.2160178589
 21
14.1718121297
 31
0.0
 11
-3.0469004917
 21
14.1981723146
 31
0.0
 11
-2.967817384
 21
14.2464076825
 31
0.0
 11
-2.9021793808
 21
14.309466708
 31
0.0
  0
LINE
  5
4C8
100
AcDbEntity
  8
RACCORDO
100
AcDbLine
 62
253
  6
CONTINUOUS
 10
4.3900287485
 20
17.2085446205
 11
4.2671197347
 21
17.1340515976
  0
LINE
  5
4C9
100
AcDbEntity
  8
RACCORDO
100
AcDbLine
 62
253
  6
CONTINUOUS
 10
4.2671197347
 20
17.1340515976
 11
-0.8081902853
 21
14.057994163
  0
SPLINE
  5
4CA
100
AcDbEntity
  8
0
100
AcDbSpline
 62
253
  6
CONTINUOUS
 70
0
 71
3
 72
10
 73
6
 74
4
 42
0.0000001
 43
0.0000001
 44
0.0000000001
 12
0.0394245837
 22
-0.0641814242
 32
0.0
 13
-0.047737085
 23
-0.0582642577
 33
0.0
 40
0.0
 40
0.0
 40
0.0
 40
0.0
 40
0.3489322052
 40
0.6280947357
 40
1.0
 40
1.0
 40
1.0
 40
1.0
 10
-13.787510019
 20
21.6684024681
 30
0.0
 10
-13.7829245167
 20
21.6609374795
 30
0.0
 10
-13.7753139542
 20
21.6468986328
 30
0.0
 10
-13.7664645587
 20
21.6240003392
 30
0.0
 10
-13.7662151405
 20
21.6048103895
 30
0.0
 10
-13.7721330315
 20
21.5975874614
 30
0.0
 11
-13.787510019
 21
21.6684024681
 31
0.0
 11
-13.7751019551
 21
21.6452331796
 31
0.0
 11
-13.7682986782
 21
21.6253368191
 31
0.0
 11
-13.7721330315
 21
21.5975874614
 31
0.0
  0
SPLINE
  5
4CB
100
AcDbEntity
  8
0
100
AcDbSpline
 62
253
  6
CONTINUOUS
 70
0
 71
3
 72
9
 73
5
 74
3
 42
0.0000001
 43
0.0000001
 44
0.0000000001
 12
-0.1010580258
 22
0.0505290129
 32
0.0
 13
-0.0117323552
 23
0.1123755203
 33
0.0
 40
0.0
 40
0.0
 40
0.0
 40
0.0
 40
0.5649857998
 40
1.0
 40
1.0
 40
1.0
 40
1.0
 10
-17.9481180116
 20
21.4495809863
 30
0.0
 10
-17.9671501281
 20
21.4590970445
 30
0.0
 10
-17.9995776228
 20
21.4797384713
 30
0.0
 10
-18.0192997974
 20
21.5151554108
 30
0.0
 10
-18.0210010445
 20
21.5314503932
 30
0.0
 11
-17.9481180116
 21
21.4495809863
 31
0.0
 11
-17.9997366242
 21
21.4871377465
 31
0.0
 11
-18.0210010445
 21
21.5314503932
 31
0.0
  0
SPLINE
  5
4CC
100
AcDbEntity
  8
0
100
AcDbSpline
 62
253
  6
CONTINUOUS
 70
0
 71
3
 72
11
 73
7
 74
5
 42
0.0000001
 43
0.0000001
 44
0.0000000001
 12
-0.1076203556
 22
0.0538101778
 32
0.0
 13
-0.0000006378
 23
0.1203232155
 33
0.0
 40
0.0
 40
0.0
 40
0.0
 40
0.0
 40
0.3025799362
 40
0.5654849533
 40
0.7934323367
 40
1.0
 40
1.0
 40
1.0
 40
1.0
 10
-17.9481180116
 20
21.7895549204
 30
0.0
 10
-17.9589725984
 20
21.7949822138
 30
0.0
 10
-17.9785910166
 20
21.8066221721
 30
0.0
 10
-18.00240284
 20
21.8281422962
 30
0.0
 10
-18.017681971
 20
21.8520969285
 30
0.0
 10
-18.0213410143
 20
21.8696582886
 30
0.0
 10
-18.0213410582
 20
21.8779432504
 30
0.0
 11
-17.9481180116
 21
21.7895549204
 31
0.0
 11
-17.9792094363
 21
21.8084975026
 31
0.0
 11
-18.0023109289
 21
21.8301077834
 31
0.0
 11
-18.0165375512
 21
21.8535569499
 31
0.0
 11
-18.0213410582
 21
21.8779432504
 31
0.0
  0
SPLINE
  5
4CD
100
AcDbEntity
  8
0
100
AcDbSpline
 62
253
  6
CONTINUOUS
 70
0
 71
3
 72
11
 73
7
 74
5
 42
0.0000001
 43
0.0000001
 44
0.0000000001
 12
0.0
 22
-0.157427875
 32
0.0
 13
0.1408051618
 23
-0.0704091061
 33
0.0
 40
0.0
 40
0.0
 40
0.0
 40
0.0
 40
0.2897455134
 40
0.5495875958
 40
0.7828491694
 40
1.0
 40
1.0
 40
1.0
 40
1.0
 10
-16.2695799412
 20
20.6103119511
 30
0.0
 10
-16.2695799412
 20
20.5951072776
 30
0.0
 10
-16.2671263242
 20
20.5661574534
 30
0.0
 10
-16.2547529625
 20
20.5265636907
 30
0.0
 10
-16.2340879427
 20
20.4948641366
 30
0.0
 10
-16.2148011239
 20
20.4801911563
 30
0.0
 10
-16.2046091379
 20
20.4750946911
 30
0.0
 11
-16.2695799412
 21
20.6103119511
 31
0.0
 11
-16.2652604102
 21
20.5649029155
 31
0.0
 11
-16.2525131614
 21
20.5260333884
 31
0.0
 11
-16.2319611674
 21
20.4956013073
 31
0.0
 11
-16.2046091379
 21
20.4750946911
 31
0.0
  0
SPLINE
  5
4CE
100
AcDbEntity
  8
0
100
AcDbSpline
 62
253
  6
CONTINUOUS
 70
0
 71
3
 72
9
 73
5
 74
3
 42
0.0000001
 43
0.0000001
 44
0.0000000001
 12
0.0
 22
-0.1475994898
 32
0.0
 13
0.125318951
 23
-0.0779792914
 33
0.0
 40
0.0
 40
0.0
 40
0.0
 40
0.0
 40
0.549503191
 40
1.0
 40
1.0
 40
1.0
 40
1.0
 10
-17.9481180116
 20
21.4495809863
 30
0.0
 10
-17.9481180116
 20
21.4225455227
 30
0.0
 10
-17.9413780656
 20
21.3723837244
 30
0.0
 10
-17.9095874478
 20
21.3303389481
 30
0.0
 10
-17.890768852
 20
21.3186291408
 30
0.0
 11
-17.9481180116
 21
21.4495809863
 31
0.0
 11
-17.9331466235
 21
21.3698683515
 31
0.0
 11
-17.890768852
 21
21.3186291408
 31
0.0
  0
SPLINE
  5
4CF
100
AcDbEntity
  8
0
100
AcDbSpline
 62
253
  6
CONTINUOUS
 70
0
 71
3
 72
11
 73
7
 74
5
 42
0.0000001
 43
0.0000001
 44
0.0000000001
 12
0.3239339031
 22
-0.1619669516
 32
0.0
 13
0.3246816256
 23
0.1604627963
 33
0.0
 40
0.0
 40
0.0
 40
0.0
 40
0.0
 40
0.2351711086
 40
0.4995790016
 40
0.7642134063
 40
1.0
 40
1.0
 40
1.0
 40
1.0
 10
-16.2695799412
 20
20.9502858852
 30
0.0
 10
-16.2441866428
 20
20.937589236
 30
0.0
 10
-16.1858425042
 20
20.9194449377
 30
0.0
 10
-16.0935074479
 20
20.9106892822
 30
0.0
 10
-16.0010731004
 20
20.9191913583
 30
0.0
 10
-15.9425765064
 20
20.9371615026
 30
0.0
 10
-15.9170579815
 20
20.9497731613
 30
0.0
 11
-16.2695799412
 21
20.9502858852
 31
0.0
 11
-16.1888100519
 21
20.9232591299
 31
0.0
 11
-16.0935305091
 21
20.9136748913
 31
0.0
 11
-15.9981410514
 21
20.9229817972
 31
0.0
 11
-15.9170579815
 21
20.9497731613
 31
0.0
  0
SPLINE
  5
4D0
100
AcDbEntity
  8
0
100
AcDbSpline
 62
253
  6
CONTINUOUS
 70
0
 71
3
 72
11
 73
7
 74
5
 42
0.0000001
 43
0.0000001
 44
0.0000000001
 12
0.323933903
 22
-0.1619669515
 32
0.0
 13
0.3246816254
 23
0.1604627962
 33
0.0
 40
0.0
 40
0.0
 40
0.0
 40
0.0
 40
0.2351712695
 40
0.4995791233
 40
0.7642134642
 40
1.0
 40
1.0
 40
1.0
 40
1.0
 10
-16.2695799412
 20
20.6103119511
 30
0.0
 10
-16.2441866255
 20
20.5976152932
 30
0.0
 10
-16.1858424694
 20
20.5794709975
 30
0.0
 10
-16.0935074063
 20
20.5707153487
 30
0.0
 10
-16.0010730787
 20
20.5792174293
 30
0.0
 10
-15.9425765001
 20
20.5971875716
 30
0.0
 10
-15.9170579815
 20
20.6097992272
 30
0.0
 11
-16.2695799412
 21
20.6103119511
 31
0.0
 11
-16.1888099942
 21
20.5832851846
 31
0.0
 11
-16.0935304646
 21
20.573700957
 31
0.0
 11
-15.9981410306
 21
20.5830078671
 31
0.0
 11
-15.9170579815
 21
20.6097992272
 31
0.0
  0
SPLINE
  5
4D1
100
AcDbEntity
  8
0
100
AcDbSpline
 62
7
  6
CONTINUOUS
 70
0
 71
3
 72
10
 73
6
 74
4
 42
0.0000001
 43
0.0000001
 44
0.0000000001
 12
-0.2274471789
 22
-0.2723112298
 32
0.0
 13
-0.3473290773
 23
0.0724440274
 33
0.0
 40
0.0
 40
0.0
 40
0.0
 40
0.0
 40
0.2565291183
 40
0.5176013489
 40
1.0
 40
1.0
 40
1.0
 40
1.0
 10
-15.2058373734
 20
20.4612957043
 30
0.0
 10
-15.2252863149
 20
20.4380104511
 30
0.0
 10
-15.2701281052
 20
20.3952492525
 30
0.0
 10
-15.3704335919
 20
20.333196567
 30
0.0
 10
-15.46381586
 20
20.311988241
 30
0.0
 10
-15.5196662195
 20
20.323637208
 30
0.0
 11
-15.2058373734
 21
20.4612957043
 31
0.0
 11
-15.2714727145
 21
20.3982387376
 31
0.0
 11
-15.3505525334
 21
20.3500040611
 31
0.0
 11
-15.5196662195
 21
20.323637208
 31
0.0
  0
SPLINE
  5
4D2
100
AcDbEntity
  8
0
100
AcDbSpline
 62
253
  6
CONTINUOUS
 70
0
 71
3
 72
11
 73
7
 74
5
 42
0.0000001
 43
0.0000001
 44
0.0000000001
 12
-0.1066634485
 22
-0.2776809507
 32
0.0
 13
-0.2911830694
 23
0.06079656
 33
0.0
 40
0.0
 40
0.0
 40
0.0
 40
0.0
 40
0.2776557585
 40
0.5374732707
 40
0.7760958843
 40
1.0
 40
1.0
 40
1.0
 40
1.0
 10
-15.9170579815
 20
20.6097992272
 30
0.0
 10
-15.9269298884
 20
20.5840993222
 30
0.0
 10
-15.9527057606
 20
20.5365419363
 30
0.0
 10
-16.0082149676
 20
20.4814603888
 30
0.0
 10
-16.0746060745
 20
20.4503862539
 30
0.0
 10
-16.1221691306
 20
20.4494405206
 30
0.0
 10
-16.1439014932
 20
20.4539780539
 30
0.0
 11
-15.9170579815
 21
20.6097992272
 31
0.0
 11
-15.9569414595
 21
20.5374751983
 31
0.0
 11
-16.0124919689
 21
20.4837420402
 31
0.0
 11
-16.0773035053
 21
20.4547972838
 31
0.0
 11
-16.1439014932
 21
20.4539780539
 31
0.0
  0
SPLINE
  5
4D3
100
AcDbEntity
  8
RACCORDO
100
AcDbSpline
 62
253
  6
CONTINUOUS
 70
0
 71
3
 72
11
 73
7
 74
5
 42
0.0000001
 43
0.0000001
 44
0.0000000001
 12
0.3264016368
 22
-0.1632368628
 32
0.0
 13
0.3116685507
 23
0.1898605183
 33
0.0
 40
0.0
 40
0.0
 40
0.0
 40
0.0
 40
0.2326068364
 40
0.4942871587
 40
0.7589758636
 40
1.0
 40
1.0
 40
1.0
 40
1.0
 10
-15.5583339401
 20
19.8072489463
 30
0.0
 10
-15.5330261894
 20
19.7945922762
 30
0.0
 10
-15.4743011417
 20
19.777591299
 30
0.0
 10
-15.3814512848
 20
19.7733119218
 30
0.0
 10
-15.2886840697
 20
19.7883731382
 30
0.0
 10
-15.2308691473
 20
19.8118048174
 30
0.0
 10
-15.2058292662
 20
19.8270584732
 30
0.0
 11
-15.5583339401
 21
19.8072489463
 31
0.0
 11
-15.4773690895
 21
19.7817390491
 31
0.0
 11
-15.3820078934
 21
19.7766156449
 31
0.0
 11
-15.2867325082
 21
19.7925375753
 31
0.0
 11
-15.2058292662
 21
19.8270584732
 31
0.0
  0
SPLINE
  5
4D4
100
AcDbEntity
  8
0
100
AcDbSpline
 62
253
  6
CONTINUOUS
 70
0
 71
3
 72
9
 73
5
 74
3
 42
0.0000001
 43
0.0000001
 44
0.0000000001
 12
-0.1010580258
 22
0.0505290129
 32
0.0
 13
-0.0117323552
 23
0.1123755203
 33
0.0
 40
0.0
 40
0.0
 40
0.0
 40
0.0
 40
0.5649857998
 40
1.0
 40
1.0
 40
1.0
 40
1.0
 10
-5.644460019
 20
15.2977519899
 30
0.0
 10
-5.6634921355
 20
15.3072680482
 30
0.0
 10
-5.6959196301
 20
15.327909475
 30
0.0
 10
-5.7156418048
 20
15.3633264145
 30
0.0
 10
-5.7173430518
 20
15.3796213969
 30
0.0
 11
-5.644460019
 21
15.2977519899
 31
0.0
 11
-5.6960786316
 21
15.3353087502
 31
0.0
 11
-5.7173430518
 21
15.3796213969
 31
0.0
  0
SPLINE
  5
4D5
100
AcDbEntity
  8
0
100
AcDbSpline
 62
253
  6
CONTINUOUS
 70
0
 71
3
 72
11
 73
7
 74
5
 42
0.0000001
 43
0.0000001
 44
0.0000000001
 12
-0.1076203879
 22
0.0538101939
 32
0.0
 13
-0.0000005245
 23
0.1203232516
 33
0.0
 40
0.0
 40
0.0
 40
0.0
 40
0.0
 40
0.3025803505
 40
0.5654851532
 40
0.7934324302
 40
1.0
 40
1.0
 40
1.0
 40
1.0
 10
-5.644460019
 20
15.6377259241
 30
0.0
 10
-5.6553146239
 20
15.6431532265
 30
0.0
 10
-5.6749330569
 20
15.6547931914
 30
0.0
 10
-5.6987448761
 20
15.67631334
 30
0.0
 10
-5.7140239955
 20
15.7002679691
 30
0.0
 10
-5.7176830293
 20
15.7178293297
 30
0.0
 10
-5.7176830654
 20
15.7261142903
 30
0.0
 11
-5.644460019
 21
15.6377259241
 31
0.0
 11
-5.6755514935
 21
15.6566685413
 31
0.0
 11
-5.6986529633
 21
15.6782788225
 31
0.0
 11
-5.7128795743
 21
15.7017279905
 31
0.0
 11
-5.7176830654
 21
15.7261142903
 31
0.0
  0
SPLINE
  5
4D6
100
AcDbEntity
  8
0
100
AcDbSpline
 62
253
  6
CONTINUOUS
 70
0
 71
3
 72
11
 73
7
 74
5
 42
0.0000001
 43
0.0000001
 44
0.0000000001
 12
0.0
 22
-0.1574218324
 32
0.0
 13
0.1407951418
 23
-0.070415633
 33
0.0
 40
0.0
 40
0.0
 40
0.0
 40
0.0
 40
0.2897444855
 40
0.5495867566
 40
0.7828492792
 40
1.0
 40
1.0
 40
1.0
 40
1.0
 10
-3.9659219486
 20
14.4584829547
 30
0.0
 10
-3.9659219486
 20
14.4432789188
 30
0.0
 10
-3.9634685312
 20
14.4143302612
 30
0.0
 10
-3.9510962514
 20
14.3747378731
 30
0.0
 10
-3.9304330979
 20
14.3430388691
 30
0.0
 10
-3.9111478759
 20
14.3283653692
 30
0.0
 10
-3.9009566204
 20
14.3232684341
 30
0.0
 11
-3.9659219486
 21
14.4584829547
 31
0.0
 11
-3.9616027999
 21
14.413075804
 31
0.0
 11
-3.9488566767
 21
14.3742075289
 31
0.0
 11
-3.9283064398
 21
14.3437757818
 31
0.0
 11
-3.9009566204
 21
14.3232684341
 31
0.0
  0
SPLINE
  5
4D7
100
AcDbEntity
  8
0
100
AcDbSpline
 62
253
  6
CONTINUOUS
 70
0
 71
3
 72
9
 73
5
 74
3
 42
0.0000001
 43
0.0000001
 44
0.0000000001
 12
0.0
 22
-0.1475994898
 32
0.0
 13
0.125318951
 23
-0.0779792914
 33
0.0
 40
0.0
 40
0.0
 40
0.0
 40
0.0
 40
0.549503191
 40
1.0
 40
1.0
 40
1.0
 40
1.0
 10
-5.644460019
 20
15.2977519899
 30
0.0
 10
-5.644460019
 20
15.2707165264
 30
0.0
 10
-5.637720073
 20
15.2205547281
 30
0.0
 10
-5.6059294552
 20
15.1785099518
 30
0.0
 10
-5.5871108593
 20
15.1668001445
 30
0.0
 11
-5.644460019
 21
15.2977519899
 31
0.0
 11
-5.6294886308
 21
15.2180393552
 31
0.0
 11
-5.5871108593
 21
15.1668001445
 31
0.0
  0
SPLINE
  5
4D8
100
AcDbEntity
  8
RACCORDO
100
AcDbSpline
 62
253
  6
CONTINUOUS
 70
0
 71
3
 72
11
 73
7
 74
5
 42
0.0000001
 43
0.0000001
 44
0.0000000001
 12
0.3264016368
 22
-0.1632368628
 32
0.0
 13
0.3116685507
 23
0.1898605183
 33
0.0
 40
0.0
 40
0.0
 40
0.0
 40
0.0
 40
0.2326068364
 40
0.4942871587
 40
0.7589758636
 40
1.0
 40
1.0
 40
1.0
 40
1.0
 10
-3.2546759475
 20
13.6554199499
 30
0.0
 10
-3.2293681968
 20
13.6427632799
 30
0.0
 10
-3.1706431491
 20
13.6257623027
 30
0.0
 10
-3.0777932922
 20
13.6214829255
 30
0.0
 10
-2.9850260771
 20
13.6365441419
 30
0.0
 10
-2.9272111547
 20
13.6599758211
 30
0.0
 10
-2.9021712736
 20
13.6752294769
 30
0.0
 11
-3.2546759475
 21
13.6554199499
 31
0.0
 11
-3.1737110968
 21
13.6299100528
 31
0.0
 11
-3.0783499008
 21
13.6247866485
 31
0.0
 11
-2.9830745155
 21
13.6407085789
 31
0.0
 11
-2.9021712736
 21
13.6752294769
 31
0.0
  0
SPLINE
  5
4D9
100
AcDbEntity
  8
0
100
AcDbSpline
 62
253
  6
CONTINUOUS
 70
0
 71
3
 72
11
 73
7
 74
5
 42
0.0000001
 43
0.0000001
 44
0.0000000001
 12
-0.1066634432
 22
-0.2776809368
 32
0.0
 13
-0.2911830606
 23
0.0607965295
 33
0.0
 40
0.0
 40
0.0
 40
0.0
 40
0.0
 40
0.2776558679
 40
0.5374733441
 40
0.7760959182
 40
1.0
 40
1.0
 40
1.0
 40
1.0
 10
-3.6133999889
 20
14.4579702309
 30
0.0
 10
-3.6232718992
 20
14.432270317
 30
0.0
 10
-3.6490477761
 20
14.3847129275
 30
0.0
 10
-3.7045569878
 20
14.3296313862
 30
0.0
 10
-3.7709480815
 20
14.2985572594
 30
0.0
 10
-3.8185111271
 20
14.2976115241
 30
0.0
 10
-3.8402434857
 20
14.3021490545
 30
0.0
 11
-3.6133999889
 21
14.4579702309
 31
0.0
 11
-3.6532834843
 21
14.3856461792
 31
0.0
 11
-3.7088339881
 21
14.3319130361
 31
0.0
 11
-3.7736455113
 21
14.3029682876
 31
0.0
 11
-3.8402434857
 21
14.3021490545
 31
0.0
  0
SPLINE
  5
4DA
100
AcDbEntity
  8
0
100
AcDbSpline
 62
253
  6
CONTINUOUS
 70
0
 71
3
 72
11
 73
7
 74
5
 42
0.0000001
 43
0.0000001
 44
0.0000000001
 12
0.3239339031
 22
-0.1619669516
 32
0.0
 13
0.3246816256
 23
0.1604627963
 33
0.0
 40
0.0
 40
0.0
 40
0.0
 40
0.0
 40
0.2351713294
 40
0.4995792494
 40
0.7642136314
 40
1.0
 40
1.0
 40
1.0
 40
1.0
 10
-3.9659219486
 20
14.7984568889
 30
0.0
 10
-3.9405286263
 20
14.7857602278
 30
0.0
 10
-3.8821844544
 20
14.7676159299
 30
0.0
 10
-3.7898493706
 20
14.7588602857
 30
0.0
 10
-3.69741505
 20
14.7673623732
 30
0.0
 10
-3.6389184894
 20
14.7853325183
 30
0.0
 10
-3.6133999889
 20
14.797944165
 30
0.0
 11
-3.9659219486
 21
14.7984568889
 31
0.0
 11
-3.88515198
 21
14.7714301182
 31
0.0
 11
-3.7898724259
 21
14.7618458948
 31
0.0
 11
-3.694482978
 21
14.7711528162
 31
0.0
 11
-3.6133999889
 21
14.797944165
 31
0.0
  0
SPLINE
  5
4DB
100
AcDbEntity
  8
0
100
AcDbSpline
 62
253
  6
CONTINUOUS
 70
0
 71
3
 72
11
 73
7
 74
5
 42
0.0000001
 43
0.0000001
 44
0.0000000001
 12
0.323933903
 22
-0.1619669515
 32
0.0
 13
0.3246816255
 23
0.1604627963
 33
0.0
 40
0.0
 40
0.0
 40
0.0
 40
0.0
 40
0.2351713009
 40
0.4995791941
 40
0.7642135602
 40
1.0
 40
1.0
 40
1.0
 40
1.0
 10
-3.9659219486
 20
14.4584829547
 30
0.0
 10
-3.9405286294
 20
14.4457862952
 30
0.0
 10
-3.8821844645
 20
14.4276419982
 30
0.0
 10
-3.7898493895
 20
14.4188863519
 30
0.0
 10
-3.6974150656
 20
14.4273884364
 30
0.0
 10
-3.6389184971
 20
14.4453585804
 30
0.0
 10
-3.6133999889
 20
14.4579702309
 30
0.0
 11
-3.9659219486
 21
14.4584829547
 31
0.0
 11
-3.8851519903
 21
14.4314561861
 31
0.0
 11
-3.7898724461
 21
14.4218719607
 31
0.0
 11
-3.6944830035
 21
14.4311788773
 31
0.0
 11
-3.6133999889
 21
14.4579702309
 31
0.0
  0
SPLINE
  5
4DC
100
AcDbEntity
  8
RACCORDO
100
AcDbSpline
 62
7
  6
CONTINUOUS
 70
0
 71
3
 72
9
 73
5
 74
3
 42
0.0000001
 43
0.0000001
 44
0.0000000001
 12
-0.2080426658
 22
0.1040213329
 32
0.0
 13
-0.2080353411
 23
-0.104035981
 33
0.0
 40
0.0
 40
0.0
 40
0.0
 40
0.0
 40
0.5330489252
 40
1.0
 40
1.0
 40
1.0
 40
1.0
 10
-21.2702986106
 20
7.3926863216
 30
0.0
 10
-21.3072642504
 20
7.4111691415
 30
0.0
 10
-21.383243967
 20
7.4360049152
 30
0.0
 10
-21.4637712594
 20
7.4219465963
 30
0.0
 10
-21.4961520348
 20
7.4057533586
 30
0.0
 11
-21.2702986106
 21
7.3926863216
 31
0.0
 11
-21.3895582164
 21
7.426595094
 31
0.0
 11
-21.4961520348
 21
7.4057533586
 31
0.0
  0
SPLINE
  5
4DD
100
AcDbEntity
  8
RACCORDO
100
AcDbSpline
 62
7
  6
CONTINUOUS
 70
0
 71
3
 72
11
 73
7
 74
5
 42
0.0000001
 43
0.0000001
 44
0.0000000001
 12
0.0145863765
 22
0.7345910517
 32
0.0
 13
-0.6571677263
 23
0.3285838631
 33
0.0
 40
0.0
 40
0.0
 40
0.0
 40
0.0
 40
0.248261816
 40
0.513301334
 40
0.7710039852
 40
1.0
 40
1.0
 40
1.0
 40
1.0
 10
-8.6227546694
 20
0.6262342071
 30
0.0
 10
-8.6215475893
 20
0.6870245099
 30
0.0
 10
-8.6397930308
 20
0.8133727319
 30
0.0
 10
-8.7121501068
 20
0.989576364
 30
0.0
 10
-8.8209029653
 20
1.1402186065
 30
0.0
 10
-8.9164776878
 20
1.2157758602
 30
0.0
 10
-8.966640618
 20
1.2408573253
 30
0.0
 11
-8.6227546694
 21
0.6262342071
 31
0.0
 11
-8.646197262
 21
0.807128393
 31
0.0
 11
-8.7196679232
 21
0.9874708644
 31
0.0
 11
-8.8321111221
 21
1.139810753
 31
0.0
 11
-8.966640618
 21
1.2408573253
 31
0.0
  0
SPLINE
  5
4DE
100
AcDbEntity
  8
RACCORDO
100
AcDbSpline
 62
253
  6
CONTINUOUS
 70
0
 71
3
 72
15
 73
11
 74
9
 42
0.0000001
 43
0.0000001
 44
0.0000000001
 12
-0.3883410732
 22
-0.2215298029
 32
0.0
 13
0.399929036
 23
-0.1998524677
 33
0.0
 40
0.0
 40
0.0
 40
0.0
 40
0.0
 40
0.1500930291
 40
0.2826437627
 40
0.3991344756
 40
0.5054837915
 40
0.6107835806
 40
0.7245283673
 40
0.8535173535
 40
1.0
 40
1.0
 40
1.0
 40
1.0
 10
-17.3809907975
 20
20.7482412247
 30
0.0
 10
-17.4004198935
 20
20.737157865
 30
0.0
 10
-17.4355602266
 20
20.713489517
 30
0.0
 10
-17.4778280229
 20
20.6709635419
 30
0.0
 10
-17.504698754
 20
20.6244140188
 30
0.0
 10
-17.5139756888
 20
20.575286986
 30
0.0
 10
-17.5043765586
 20
20.5265973388
 30
0.0
 10
-17.4769685988
 20
20.4815491323
 30
0.0
 10
-17.4340857779
 20
20.4417120021
 30
0.0
 10
-17.3986725462
 20
20.4204246772
 30
0.0
 10
-17.3791449917
 20
20.4106663711
 30
0.0
 11
-17.3809907975
 21
20.7482412247
 31
0.0
 11
-17.43627237
 21
20.7102027777
 31
0.0
 11
-17.4773918431
 21
20.6675284938
 31
0.0
 11
-17.5025828546
 21
20.6219449513
 31
0.0
 11
-17.5109181569
 21
20.5751341738
 31
0.0
 11
-17.5021326048
 21
20.5288833395
 31
0.0
 11
-17.4764940444
 21
20.4849658957
 31
0.0
 11
-17.4349031976
 21
20.4450170887
 31
0.0
 11
-17.3791449917
 21
20.4106663711
 31
0.0
  0
SPLINE
  5
4DF
100
AcDbEntity
  8
0
100
AcDbSpline
 62
253
  6
CONTINUOUS
 70
0
 71
3
 72
9
 73
5
 74
3
 42
0.0000001
 43
0.0000001
 44
0.0000000001
 12
-0.0143455091
 22
-0.1093257812
 32
0.0
 13
-0.0983908045
 23
-0.0497711729
 33
0.0
 40
0.0
 40
0.0
 40
0.0
 40
0.0
 40
0.4364396997
 40
1.0
 40
1.0
 40
1.0
 40
1.0
 10
-13.7158485545
 20
21.7480911507
 30
0.0
 10
-13.7179355377
 20
21.732186447
 30
0.0
 10
-13.7375192527
 20
21.6980271232
 30
0.0
 10
-13.7690269685
 20
21.6777521538
 30
0.0
 10
-13.787510019
 20
21.6684024681
 30
0.0
 11
-13.7158485545
 21
21.7480911507
 31
0.0
 11
-13.7373010381
 21
21.7050141634
 31
0.0
 11
-13.787510019
 21
21.6684024681
 31
0.0
  0
SPLINE
  5
4E0
100
AcDbEntity
  8
RACCORDO
100
AcDbSpline
 62
253
  6
CONTINUOUS
 70
0
 71
3
 72
11
 73
7
 74
5
 42
0.0000001
 43
0.0000001
 44
0.0000000001
 12
-0.9245181409
 22
0.4617459598
 32
0.0
 13
0.0759266163
 23
1.0306203341
 33
0.0
 40
0.0
 40
0.0
 40
0.0
 40
0.0
 40
0.2276252092
 40
0.4836949976
 40
0.7485958777
 40
1.0
 40
1.0
 40
1.0
 40
1.0
 10
-21.3013880619
 20
11.7655216804
 30
0.0
 10
-21.3715359403
 20
11.8005566873
 30
0.0
 10
-21.504342754
 20
11.9078659226
 30
0.0
 10
-21.6508497605
 20
12.1233269946
 30
0.0
 10
-21.7421916154
 20
12.3760165416
 30
0.0
 10
-21.7583983123
 20
12.556010683
 30
0.0
 10
-21.7520355575
 20
12.6423780832
 30
0.0
 11
-21.3013880619
 21
11.7655216804
 31
0.0
 11
-21.4880855421
 21
11.9086217847
 31
0.0
 11
-21.6393734755
 21
12.1257366078
 31
0.0
 11
-21.7319808345
 21
12.3833488951
 31
0.0
 11
-21.7520355575
 21
12.6423780832
 31
0.0
  0
SPLINE
  5
4E1
100
AcDbEntity
  8
RACCORDO
100
AcDbSpline
 62
253
  6
CONTINUOUS
 70
0
 71
3
 72
9
 73
5
 74
3
 42
0.0000001
 43
0.0000001
 44
0.0000000001
 12
-0.0147705253
 22
-0.1017736013
 32
0.0
 13
-0.0307012727
 23
-0.0981502226
 33
0.0
 40
0.0
 40
0.0
 40
0.0
 40
0.0
 40
0.2565024611
 40
1.0
 40
1.0
 40
1.0
 40
1.0
 10
-8.0165285377
 20
5.7169345762
 30
0.0
 10
-8.0177914297
 20
5.7082328498
 30
0.0
 10
-8.0233368726
 20
5.6744039222
 30
0.0
 10
-8.0314188283
 20
5.6409718403
 30
0.0
 10
-8.0390276019
 20
5.616647024
 30
0.0
 11
-8.0165285377
 21
5.7169345762
 31
0.0
 11
-8.0208031553
 21
5.6909045533
 31
0.0
 11
-8.0390276019
 21
5.616647024
 31
0.0
  0
SPLINE
  5
4E2
100
AcDbEntity
  8
RACCORDO
100
AcDbSpline
 62
253
  6
CONTINUOUS
 70
0
 71
3
 72
13
 73
9
 74
7
 42
0.0000001
 43
0.0000001
 44
0.0000000001
 12
-0.193034233
 22
-0.6171194622
 32
0.0
 13
-0.5782136664
 23
0.289426332
 33
0.0
 40
0.0
 40
0.0
 40
0.0
 40
0.0
 40
0.2667905453
 40
0.3882663876
 40
0.5049834395
 40
0.6208693483
 40
0.7400759282
 40
1.0
 40
1.0
 40
1.0
 40
1.0
 10
-8.0390276019
 20
5.616647024
 30
0.0
 10
-8.0561941713
 20
5.5617664781
 30
0.0
 10
-8.0938101781
 20
5.4840443191
 30
0.0
 10
-8.1709366022
 20
5.4060597799
 30
0.0
 10
-8.2366992493
 20
5.365759439
 30
0.0
 10
-8.3100575775
 20
5.3434931038
 30
0.0
 10
-8.417546163
 20
5.3385893035
 30
0.0
 10
-8.4983406625
 20
5.3639702989
 30
0.0
 10
-8.5484378794
 20
5.3890465892
 30
0.0
 11
-8.0390276019
 21
5.616647024
 31
0.0
 11
-8.1181267532
 21
5.4633420564
 31
0.0
 11
-8.1737077021
 21
5.4078408787
 31
0.0
 11
-8.2381882613
 21
5.3686240319
 31
0.0
 11
-8.3098578154
 21
5.346752838
 31
0.0
 11
-8.386839269
 21
5.342863775
 31
0.0
 11
-8.5484378794
 21
5.3890465892
 31
0.0
  0
LINE
  5
4E3
100
AcDbEntity
  8
RACCORDO
100
AcDbLine
 62
253
  6
CONTINUOUS
 10
-8.0060955673
 20
5.8357213625
 11
-8.010653476
 21
5.7716870424
  0
SPLINE
  5
4E4
100
AcDbEntity
  8
0
100
AcDbSpline
 62
253
  6
CONTINUOUS
 70
0
 71
3
 72
11
 73
7
 74
5
 42
0.0000001
 43
0.0000001
 44
0.0000000001
 12
0.0000005196
 22
-0.1191822341
 32
0.0
 13
-0.1063497301
 23
-0.0537972104
 33
0.0
 40
0.0
 40
0.0
 40
0.0
 40
0.0
 40
0.2069626469
 40
0.435062601
 40
0.697808331
 40
1.0
 40
1.0
 40
1.0
 40
1.0
 10
-13.7153124202
 20
22.1038065985
 30
0.0
 10
-13.7153123844
 20
22.0955845083
 30
0.0
 10
-13.7189111711
 20
22.0781686258
 30
0.0
 10
-13.7339604228
 20
22.0543731009
 30
0.0
 10
-13.7574378196
 20
22.0329617589
 30
0.0
 10
-13.7767973515
 20
22.0213530078
 30
0.0
 10
-13.787510019
 20
22.0159339849
 30
0.0
 11
-13.7153124202
 21
22.1038065985
 31
0.0
 11
-13.720045226
 21
22.0795986358
 31
0.0
 11
-13.7340652578
 21
22.0563072627
 31
0.0
 11
-13.7568399931
 21
22.0348150071
 31
0.0
 11
-13.787510019
 21
22.0159339849
 31
0.0
  0
LINE
  5
4E5
100
AcDbEntity
  8
RACCORDO
100
AcDbLine
 62
253
  6
CONTINUOUS
 10
-9.102626965
 20
-16.8759958941
 11
-9.1043648058
 21
-16.8044356249
  0
SPLINE
  5
4E6
100
AcDbEntity
  8
0
100
AcDbSpline
 62
253
  6
CONTINUOUS
 70
0
 71
3
 72
11
 73
7
 74
5
 42
0.0000001
 43
0.0000001
 44
0.0000000001
 12
0.0000005802
 22
-0.119182253
 32
0.0
 13
-0.1063497469
 23
-0.0537972189
 33
0.0
 40
0.0
 40
0.0
 40
0.0
 40
0.0
 40
0.2069625523
 40
0.4350623985
 40
0.6978079136
 40
1.0
 40
1.0
 40
1.0
 40
1.0
 10
-1.4116544273
 20
15.6044461041
 30
0.0
 10
-1.4116543873
 20
15.5962240164
 30
0.0
 10
-1.4152531678
 20
15.5788081374
 30
0.0
 10
-1.4303024078
 20
15.5550126205
 30
0.0
 10
-1.4537797985
 20
15.533601259
 30
0.0
 10
-1.4731393424
 20
15.5219925031
 30
0.0
 10
-1.4838520263
 20
15.5165734718
 30
0.0
 11
-1.4116544273
 21
15.6044461041
 31
0.0
 11
-1.4163872231
 21
15.580238147
 31
0.0
 11
-1.4304072442
 21
15.5569467775
 31
0.0
 11
-1.4531819551
 21
15.535454526
 31
0.0
 11
-1.4838520263
 21
15.5165734718
 31
0.0
  0
SPLINE
  5
4E7
100
AcDbEntity
  8
RACCORDO
100
AcDbSpline
 62
253
  6
CONTINUOUS
 70
0
 71
3
 72
11
 73
7
 74
5
 42
0.0000001
 43
0.0000001
 44
0.0000000001
 12
0.1516699549
 22
1.2876201193
 32
0.0
 13
1.1362046554
 23
0.6245064674
 33
0.0
 40
0.0
 40
0.0
 40
0.0
 40
0.0
 40
0.2518484962
 40
0.5144246723
 40
0.7692745105
 40
1.0
 40
1.0
 40
1.0
 40
1.0
 10
-21.2987187091
 20
17.3653317838
 30
0.0
 10
-21.2859860924
 20
17.4734268474
 30
0.0
 10
-21.2311731389
 20
17.691297839
 30
0.0
 10
-21.0831424835
 20
17.9915104812
 30
0.0
 10
-20.8819651918
 20
18.2475826396
 30
0.0
 10
-20.7146619061
 20
18.3794729835
 30
0.0
 10
-20.6272781144
 20
18.4275028369
 30
0.0
 11
-21.2987187091
 21
17.3653317838
 31
0.0
 11
-21.2217277152
 21
17.6826523591
 31
0.0
 11
-21.0714661688
 21
17.9881323055
 31
0.0
 11
-20.8653599117
 21
18.2463890529
 31
0.0
 11
-20.6272781144
 21
18.4275028369
 31
0.0
  0
SPLINE
  5
4E8
100
AcDbEntity
  8
RACCORDO
100
AcDbSpline
 62
253
  6
CONTINUOUS
 70
0
 71
3
 72
9
 73
5
 74
3
 42
0.0000001
 43
0.0000001
 44
0.0000000001
 12
-0.0985963099
 22
-0.0682024496
 32
0.0
 13
-0.0903624389
 23
-0.0787872838
 33
0.0
 40
0.0
 40
0.0
 40
0.0
 40
0.0
 40
0.2445402184
 40
1.0
 40
1.0
 40
1.0
 40
1.0
 10
-6.9820047542
 20
11.5343623778
 30
0.0
 10
-6.9900416752
 20
11.5288029638
 30
0.0
 10
-7.0225669534
 20
11.5055794116
 30
0.0
 10
-7.053737382
 20
11.4804708792
 30
0.0
 10
-7.0764924448
 20
11.4606306711
 30
0.0
 11
-6.9820047542
 21
11.5343623778
 31
0.0
 11
-7.0058681326
 21
11.5173320571
 31
0.0
 11
-7.0764924448
 21
11.4606306711
 31
0.0
  0
SPLINE
  5
4E9
100
AcDbEntity
  8
RACCORDO
100
AcDbSpline
 62
253
  6
CONTINUOUS
 70
0
 71
3
 72
9
 73
5
 74
3
 42
0.0000001
 43
0.0000001
 44
0.0000000001
 12
-0.7203287051
 22
-0.628056777
 32
0.0
 13
-0.2069900741
 23
-0.9329972496
 33
0.0
 40
0.0
 40
0.0
 40
0.0
 40
0.0
 40
0.4907391087
 40
1.0
 40
1.0
 40
1.0
 40
1.0
 10
-7.0764924448
 20
11.4606306711
 30
0.0
 10
-7.1943236004
 20
11.3578933302
 30
0.0
 10
-7.3941282451
 20
11.1017317473
 30
0.0
 10
-7.5140072018
 20
10.8011783895
 30
0.0
 10
-7.5491445183
 20
10.6427987192
 30
0.0
 11
-7.0764924448
 21
11.4606306711
 31
0.0
 11
-7.3711794132
 21
11.0957856729
 31
0.0
 11
-7.5491445183
 21
10.6427987192
 31
0.0
  0
SPLINE
  5
4EA
100
AcDbEntity
  8
0
100
AcDbSpline
 62
253
  6
CONTINUOUS
 70
0
 71
3
 72
11
 73
7
 74
5
 42
0.0000001
 43
0.0000001
 44
0.0000000001
 12
0.0000006317
 22
-0.1191822703
 32
0.0
 13
-0.1063497623
 23
-0.0537972267
 33
0.0
 40
0.0
 40
0.0
 40
0.0
 40
0.0
 40
0.2069625494
 40
0.4350623935
 40
0.6978079022
 40
1.0
 40
1.0
 40
1.0
 40
1.0
 10
-1.4116544274
 20
15.9519776384
 30
0.0
 10
-1.4116543838
 20
15.9437555496
 30
0.0
 10
-1.4152531616
 20
15.9263396669
 30
0.0
 10
-1.430302401
 20
15.9025441454
 30
0.0
 10
-1.4537797934
 20
15.8811327785
 30
0.0
 10
-1.4731393404
 20
15.8695240208
 30
0.0
 10
-1.4838520263
 20
15.8641049885
 30
0.0
 11
-1.4116544274
 21
15.9519776384
 31
0.0
 11
-1.4163872176
 21
15.9277696769
 31
0.0
 11
-1.4304072379
 21
15.9044783025
 31
0.0
 11
-1.4531819498
 21
15.8829860467
 31
0.0
 11
-1.4838520263
 21
15.8641049885
 31
0.0
  0
SPLINE
  5
4EB
100
AcDbEntity
  8
RACCORDO
100
AcDbSpline
 62
253
  6
CONTINUOUS
 70
0
 71
3
 72
11
 73
7
 74
5
 42
0.0000001
 43
0.0000001
 44
0.0000000001
 12
0.5852300107
 22
-0.2928473416
 32
0.0
 13
0.5714867888
 23
0.3188362921
 33
0.0
 40
0.0
 40
0.0
 40
0.0
 40
0.0
 40
0.233717506
 40
0.496573559
 40
0.7612407692
 40
1.0
 40
1.0
 40
1.0
 40
1.0
 10
-15.6923792674
 20
19.567283509
 30
0.0
 10
-15.6467864346
 20
19.5444689922
 30
0.0
 10
-15.5414414594
 20
19.5129650582
 30
0.0
 10
-15.3747640025
 20
19.5016382767
 30
0.0
 10
-15.2080073381
 20
19.5234560089
 30
0.0
 10
-15.1033223221
 20
19.56129066
 30
0.0
 10
-15.0578397401
 20
19.5866656959
 30
0.0
 11
-15.6923792674
 21
19.567283509
 31
0.0
 11
-15.5468737736
 21
19.5201557199
 31
0.0
 11
-15.3753357117
 21
19.5073432721
 31
0.0
 11
-15.2037152039
 21
19.5306891963
 31
0.0
 11
-15.0578397401
 21
19.5866656959
 31
0.0
  0
SPLINE
  5
4EC
100
AcDbEntity
  8
0
100
AcDbSpline
 62
7
  6
CONTINUOUS
 70
0
 71
3
 72
9
 73
5
 74
3
 42
0.0000001
 43
0.0000001
 44
0.0000000001
 12
0.1698226182
 22
0.3445330186
 32
0.0
 13
-0.1204268443
 23
0.3647466213
 33
0.0
 40
0.0
 40
0.0
 40
0.0
 40
0.0
 40
0.4547712433
 40
1.0
 40
1.0
 40
1.0
 40
1.0
 10
-6.0426278508
 20
16.4745430259
 30
0.0
 10
-6.0168843698
 20
16.526770929
 30
0.0
 10
-5.9958936116
 20
16.6584083685
 30
0.0
 10
-6.0207411246
 20
16.785744632
 30
0.0
 10
-6.0426278508
 20
16.8520347476
 30
0.0
 11
-6.0426278508
 21
16.4745430259
 31
0.0
 11
-6.0072725118
 21
16.6456112172
 31
0.0
 11
-6.0426278508
 21
16.8520347476
 31
0.0
  0
SPLINE
  5
4ED
100
AcDbEntity
  8
0
100
AcDbSpline
 62
253
  6
CONTINUOUS
 70
0
 71
3
 72
10
 73
6
 74
4
 42
0.0000001
 43
0.0000001
 44
0.0000000001
 12
0.0308799789
 22
-0.2340447477
 32
0.0
 13
0.2109165949
 23
-0.1060410628
 33
0.0
 40
0.0
 40
0.0
 40
0.0
 40
0.0
 40
0.2234425178
 40
0.459597332
 40
1.0
 40
1.0
 40
1.0
 40
1.0
 10
-22.0271676188
 20
-18.9067105006
 30
0.0
 10
-22.0248676521
 20
-18.9241423499
 30
0.0
 10
-22.014448255
 20
-18.9594652769
 30
0.0
 10
-21.9709403145
 20
-19.0260376846
 30
0.0
 10
-21.9189379612
 20
-19.062493937
 30
0.0
 10
-21.8809446643
 20
-19.0815955614
 30
0.0
 11
-22.0271676188
 21
-18.9067105006
 31
0.0
 11
-22.0124728806
 21
-18.9573711126
 31
0.0
 11
-21.9824929078
 21
-19.0043736848
 31
0.0
 11
-21.8809446643
 21
-19.0815955614
 31
0.0
  0
SPLINE
  5
4EE
100
AcDbEntity
  8
0
100
AcDbSpline
 62
253
  6
CONTINUOUS
 70
0
 71
3
 72
11
 73
7
 74
5
 42
0.0000001
 43
0.0000001
 44
0.0000000001
 12
0.0041452609
 22
-0.2405440989
 32
0.0
 13
0.2151467092
 23
-0.1076593713
 33
0.0
 40
0.0
 40
0.0
 40
0.0
 40
0.0
 40
0.2089532095
 40
0.4379862534
 40
0.7000739252
 40
1.0
 40
1.0
 40
1.0
 40
1.0
 10
-22.7152914574
 20
-9.1188726279
 30
0.0
 10
-22.7150027355
 20
-9.1356267818
 30
0.0
 10
-22.7073011087
 20
-9.1708843703
 30
0.0
 10
-22.6766729789
 20
-9.2189489822
 30
0.0
 10
-22.6293095298
 20
-9.2619656505
 30
0.0
 10
-22.5903534
 20
-9.2851546652
 30
0.0
 10
-22.5688440306
 20
-9.2959179494
 30
0.0
 11
-22.7152914574
 21
-9.1188726279
 31
0.0
 11
-22.7050458237
 21
-9.1680873846
 31
0.0
 11
-22.6763968666
 21
-9.2151546489
 31
0.0
 11
-22.6304212083
 21
-9.2583046206
 31
0.0
 11
-22.5688440306
 21
-9.2959179494
 31
0.0
  0
SPLINE
  5
4EF
100
AcDbEntity
  8
0
100
AcDbSpline
 62
7
  6
CONTINUOUS
 70
0
 71
3
 72
11
 73
7
 74
5
 42
0.0000001
 43
0.0000001
 44
0.0000000001
 12
-0.0
 22
0.7308594011
 32
0.0
 13
-0.6537005211
 23
0.3268502606
 33
0.0
 40
0.0
 40
0.0
 40
0.0
 40
0.0
 40
0.5095240915
 40
0.7692759824
 40
0.8894805775
 40
1.0
 40
1.0
 40
1.0
 40
1.0
 10
-1.3050124169
 20
13.2117512234
 30
0.0
 10
-1.3050124169
 20
13.3358813808
 30
0.0
 10
-1.3667091609
 20
13.5245788243
 30
0.0
 10
-1.497132476
 20
13.6991039897
 30
0.0
 10
-1.5868960363
 20
13.7785546843
 30
0.0
 10
-1.6342144815
 20
13.8095631492
 30
0.0
 10
-1.6582966828
 20
13.8216042499
 30
0.0
 11
-1.3050124169
 21
13.2117512234
 31
0.0
 11
-1.4091590921
 21
13.5692818289
 31
0.0
 11
-1.5240551191
 21
13.7204073737
 31
0.0
 11
-1.5900509141
 21
13.7783956882
 31
0.0
 11
-1.6582966828
 21
13.8216042499
 31
0.0
  0
SPLINE
  5
4F0
100
AcDbEntity
  8
0
100
AcDbSpline
 62
253
  6
CONTINUOUS
 70
0
 71
3
 72
11
 73
7
 74
5
 42
0.0000001
 43
0.0000001
 44
0.0000000001
 12
-0.5692072355
 22
-0.3107586558
 32
0.0
 13
-0.0760911916
 23
-0.6440325688
 33
0.0
 40
0.0
 40
0.0
 40
0.0
 40
0.0
 40
0.2309298734
 40
0.4858202465
 40
0.7483088577
 40
1.0
 40
1.0
 40
1.0
 40
1.0
 10
-5.9568248064
 20
10.6721901072
 30
0.0
 10
-6.000640458
 20
10.6482689549
 30
0.0
 10
-6.084555158
 20
10.5825006815
 30
0.0
 10
-6.1855193495
 20
10.454627204
 30
0.0
 10
-6.2598051323
 20
10.3046235465
 30
0.0
 10
-6.2873171389
 20
10.1957149598
 30
0.0
 10
-6.2937009652
 20
10.1416825288
 30
0.0
 11
-5.9568248064
 21
10.6721901072
 31
0.0
 11
-6.0762666781
 21
10.5818466792
 31
0.0
 11
-6.1796807541
 21
10.4528914833
 31
0.0
 11
-6.2550746596
 21
10.3002710531
 31
0.0
 11
-6.2937009652
 21
10.1416825288
 31
0.0
  0
SPLINE
  5
4F1
100
AcDbEntity
  8
0
100
AcDbSpline
 62
253
  6
CONTINUOUS
 70
0
 71
3
 72
11
 73
7
 74
5
 42
0.0000001
 43
0.0000001
 44
0.0000000001
 12
-1.1329865746
 22
-0.6287953203
 32
0.0
 13
-0.1506659082
 23
-1.2869894783
 33
0.0
 40
0.0
 40
0.0
 40
0.0
 40
0.0
 40
0.2303844051
 40
0.4852076103
 40
0.7479515775
 40
1.0
 40
1.0
 40
1.0
 40
1.0
 10
-6.3226575464
 20
11.275192553
 30
0.0
 10
-6.4096650257
 20
11.226904341
 30
0.0
 10
-6.5761645597
 20
11.0944631138
 30
0.0
 10
-6.7762404911
 20
10.8379068705
 30
0.0
 10
-6.9234467164
 20
10.537364055
 30
0.0
 10
-6.977972179
 20
10.3194156269
 30
0.0
 10
-6.9906305471
 20
10.2112877377
 30
0.0
 11
-6.3226575464
 21
11.275192553
 31
0.0
 11
-6.5595027015
 21
11.0934706546
 31
0.0
 11
-6.7645582412
 21
10.8346645469
 31
0.0
 11
-6.914046249
 21
10.5287806002
 31
0.0
 11
-6.9906305471
 21
10.2112877377
 31
0.0
  0
SPLINE
  5
4F2
100
AcDbEntity
  8
0
100
AcDbSpline
 62
253
  6
CONTINUOUS
 70
0
 71
3
 72
11
 73
7
 74
5
 42
0.0000001
 43
0.0000001
 44
0.0000000001
 12
-0.0324678924
 22
0.7302924718
 32
0.0
 13
-0.6488722199
 23
0.3366691262
 33
0.0
 40
0.0
 40
0.0
 40
0.0
 40
0.0
 40
0.2445556234
 40
0.510059094
 40
0.7700878926
 40
1.0
 40
1.0
 40
1.0
 40
1.0
 10
-5.9568248064
 20
10.6721901072
 30
0.0
 10
-5.9594715416
 20
10.7317224841
 30
0.0
 10
-5.9852629125
 20
10.8551248576
 30
0.0
 10
-6.065106896
 20
11.0264613045
 30
0.0
 10
-6.1776237521
 20
11.173865643
 30
0.0
 10
-6.2729296865
 20
11.2493911169
 30
0.0
 10
-6.3226575464
 20
11.275192553
 30
0.0
 11
-5.9568248064
 21
10.6721901072
 31
0.0
 11
-5.9904318637
 21
10.8477764041
 31
0.0
 11
-6.0717454048
 21
11.0240085276
 31
0.0
 11
-6.1884002654
 21
11.1740879049
 31
0.0
 11
-6.3226575464
 21
11.275192553
 31
0.0
  0
LINE
  5
4F3
100
AcDbEntity
  8
0
100
AcDbLine
 62
253
  6
CONTINUOUS
 10
-7.3926407349
 20
6.1568196674
 11
-7.4076134046
 21
5.9673397499
  0
SPLINE
  5
4F4
100
AcDbEntity
  8
0
100
AcDbSpline
 62
253
  6
CONTINUOUS
 70
0
 71
3
 72
11
 73
7
 74
5
 42
0.0000001
 43
0.0000001
 44
0.0000000001
 12
-0.6825879843
 22
-0.2056363113
 32
0.0
 13
-0.6367239155
 23
0.320617068
 33
0.0
 40
0.0
 40
0.0
 40
0.0
 40
0.0
 40
0.2284142287
 40
0.4927005503
 40
0.7608662696
 40
1.0
 40
1.0
 40
1.0
 40
1.0
 10
-6.2937009652
 20
10.1416825288
 30
0.0
 10
-6.3456719012
 20
10.1260257757
 30
0.0
 10
-6.4626820842
 20
10.1089548752
 30
0.0
 10
-6.6440094712
 20
10.1135212039
 30
0.0
 10
-6.8251712143
 20
10.1455617096
 30
0.0
 10
-6.9398764909
 20
10.1857309529
 30
0.0
 10
-6.990630546
 20
10.211287738
 30
0.0
 11
-6.2937009652
 21
10.1416825288
 31
0.0
 11
-6.454250762
 21
10.1145021739
 31
0.0
 11
-6.6426224584
 21
10.1181579788
 31
0.0
 11
-6.8307569709
 21
10.1521053897
 31
0.0
 11
-6.990630546
 21
10.211287738
 31
0.0
  0
SPLINE
  5
4F5
100
AcDbEntity
  8
0
100
AcDbSpline
 62
253
  6
CONTINUOUS
 70
0
 71
3
 72
11
 73
7
 74
5
 42
0.0000001
 43
0.0000001
 44
0.0000000001
 12
-0.6531473612
 22
-0.3004231948
 32
0.0
 13
-0.6429214765
 23
0.3217258872
 33
0.0
 40
0.0
 40
0.0
 40
0.0
 40
0.0
 40
0.2355498366
 40
0.5001440414
 40
0.7646609401
 40
1.0
 40
1.0
 40
1.0
 40
1.0
 10
-7.002014255
 20
-0.2857581958
 30
0.0
 10
-7.0532971731
 20
-0.3093464073
 30
0.0
 10
-7.1700818817
 20
-0.3422164708
 30
0.0
 10
-7.3537362551
 20
-0.3558732037
 30
0.0
 10
-7.5368035812
 20
-0.3363042888
 30
0.0
 10
-7.6523981633
 20
-0.2996790111
 30
0.0
 10
-7.7028330086
 20
-0.2744407885
 30
0.0
 11
-7.002014255
 21
-0.2857581958
 31
0.0
 11
-7.1640404955
 21
-0.3349981189
 31
0.0
 11
-7.3536619743
 21
-0.3501243062
 31
0.0
 11
-7.5426403388
 21
-0.3288841721
 31
0.0
 11
-7.7028330086
 21
-0.2744407885
 31
0.0
  0
SPLINE
  5
4F6
100
AcDbEntity
  8
0
100
AcDbSpline
 62
253
  6
CONTINUOUS
 70
0
 71
3
 72
9
 73
5
 74
3
 42
0.0000001
 43
0.0000001
 44
0.0000000001
 12
0.1554408835
 22
-9.7709735605
 32
0.0
 13
1.2916660774
 23
-9.6864691675
 33
0.0
 40
0.0
 40
0.0
 40
0.0
 40
0.0
 40
0.2553865594
 40
1.0
 40
1.0
 40
1.0
 40
1.0
 10
-7.002014255
 20
-16.723786385
 30
0.0
 10
-6.9887817509
 20
-17.5555781582
 30
0.0
 10
-6.892402555
 20
-20.8116163032
 30
0.0
 10
-6.6142982725
 20
-24.0629918718
 30
0.0
 10
-6.2937009652
 20
-26.4672169165
 30
0.0
 11
-7.002014255
 21
-16.723786385
 31
0.0
 11
-6.9277013212
 21
-19.2183708125
 31
0.0
 11
-6.2937009652
 21
-26.4672169165
 31
0.0
  0
SPLINE
  5
4F7
100
AcDbEntity
  8
0
100
AcDbSpline
 62
253
  6
CONTINUOUS
 70
0
 71
3
 72
9
 73
5
 74
3
 42
0.0000001
 43
0.0000001
 44
0.0000000001
 12
0.2786721908
 22
-8.181382382
 32
0.0
 13
1.0819275293
 23
-8.1143150476
 33
0.0
 40
0.0
 40
0.0
 40
0.0
 40
0.0
 40
0.2545508151
 40
1.0
 40
1.0
 40
1.0
 40
1.0
 10
-7.6618998334
 20
-18.3700376037
 30
0.0
 10
-7.6382544223
 20
-19.0642301216
 30
0.0
 10
-7.5135487621
 20
-21.790134949
 30
0.0
 10
-7.2594712121
 20
-24.5104827758
 30
0.0
 10
-6.9906305471
 20
-26.5267526219
 30
0.0
 11
-7.6618998334
 21
-18.3700376037
 31
0.0
 11
-7.5663837713
 21
-20.4516326408
 31
0.0
 11
-6.9906305471
 21
-26.5267526219
 31
0.0
  0
SPLINE
  5
4F8
100
AcDbEntity
  8
0
100
AcDbSpline
 62
253
  6
CONTINUOUS
 70
0
 71
3
 72
11
 73
7
 74
5
 42
0.0000001
 43
0.0000001
 44
0.0000000001
 12
-0.6429962505
 22
-0.3251801931
 32
0.0
 13
-0.64457886
 23
0.322031721
 33
0.0
 40
0.0
 40
0.0
 40
0.0
 40
0.0
 40
0.2376792375
 40
0.5023658428
 40
0.7657789404
 40
1.0
 40
1.0
 40
1.0
 40
1.0
 10
-7.002014255
 20
-16.723786385
 30
0.0
 10
-7.0529565412
 20
-16.7495492451
 30
0.0
 10
-7.1693289852
 20
-16.7868375066
 30
0.0
 10
-7.3533109371
 20
-16.8057115117
 30
0.0
 10
-7.5367210364
 20
-16.7897032721
 30
0.0
 10
-7.6525083597
 20
-16.7540656635
 30
0.0
 10
-7.7028330075
 20
-16.7289234599
 30
0.0
 11
-7.002014255
 21
-16.723786385
 31
0.0
 11
-7.1640404955
 21
-16.7792577357
 31
0.0
 11
-7.353661974
 21
-16.7996873689
 31
0.0
 11
-7.542640338
 21
-16.7820329122
 31
0.0
 11
-7.7028330075
 21
-16.7289234599
 31
0.0
  0
SPLINE
  5
4F9
100
AcDbEntity
  8
0
100
AcDbSpline
 62
253
  6
CONTINUOUS
 70
0
 71
3
 72
13
 73
9
 74
7
 42
0.0000001
 43
0.0000001
 44
0.0000000001
 12
0.0619204245
 22
-0.4642959475
 32
0.0
 13
0.4319028848
 23
0.1812864139
 33
0.0
 40
0.0
 40
0.0
 40
0.0
 40
0.0
 40
0.2717502792
 40
0.3929613945
 40
0.5080748357
 40
0.6218813089
 40
0.7394780953
 40
1.0
 40
1.0
 40
1.0
 40
1.0
 10
-6.2937009652
 20
-26.4672169165
 30
0.0
 10
-6.288092001
 20
-26.5092744343
 30
0.0
 10
-6.2707214973
 20
-26.5702883548
 30
0.0
 10
-6.2239509551
 20
-26.6352314911
 30
0.0
 10
-6.1811739754
 20
-26.6703616259
 30
0.0
 10
-6.1308556335
 20
-26.6921094418
 30
0.0
 10
-6.0539893139
 20
-26.7026608744
 30
0.0
 10
-5.9943315271
 20
-26.6881499972
 30
0.0
 10
-5.9568248064
 20
-26.6724069699
 30
0.0
 11
-6.2937009652
 21
-26.4672169165
 31
0.0
 11
-6.2550746596
 21
-26.5885044512
 31
0.0
 11
-6.221517112
 21
-26.6343020143
 31
0.0
 11
-6.1796807541
 21
-26.6683178332
 31
0.0
 11
-6.1307878727
 21
-26.6895592774
 31
0.0
 11
-6.0762666781
 21
-26.6974072167
 31
0.0
 11
-5.9568248064
 21
-26.6724069699
 31
0.0
  0
SPLINE
  5
4FA
100
AcDbEntity
  8
0
100
AcDbSpline
 62
253
  6
CONTINUOUS
 70
0
 71
3
 72
11
 73
7
 74
5
 42
0.0000001
 43
0.0000001
 44
0.0000000001
 12
0.0664062853
 22
-0.5019861068
 32
0.0
 13
0.4524519651
 23
-0.2273478951
 33
0.0
 40
0.0
 40
0.0
 40
0.0
 40
0.0
 40
0.2812826683
 40
0.5380078703
 40
0.7746859608
 40
1.0
 40
1.0
 40
1.0
 40
1.0
 10
-6.9906305471
 20
-26.5267526219
 30
0.0
 10
-6.9844042347
 20
-26.5738192858
 30
0.0
 10
-6.965080065
 20
-26.6631719534
 30
0.0
 10
-6.9115158853
 20
-26.7836478034
 30
0.0
 10
-6.8357803359
 20
-26.8801927389
 30
0.0
 10
-6.7711008681
 20
-26.926124378
 30
0.0
 10
-6.7371196082
 20
-26.9431992689
 30
0.0
 11
-6.9906305471
 21
-26.5267526219
 31
0.0
 11
-6.9593118982
 21
-26.6656967925
 31
0.0
 11
-6.9052898474
 21
-26.7839354298
 31
0.0
 11
-6.8303845289
 21
-26.8774865922
 31
0.0
 11
-6.7371196082
 21
-26.9431992689
 31
0.0
  0
SPLINE
  5
4FB
100
AcDbEntity
  8
0
100
AcDbSpline
 62
253
  6
CONTINUOUS
 70
0
 71
3
 72
11
 73
7
 74
5
 42
0.0000001
 43
0.0000001
 44
0.0000000001
 12
-0.6040142685
 22
-0.4013243693
 32
0.0
 13
-0.6493425433
 23
0.3228757461
 33
0.0
 40
0.0
 40
0.0
 40
0.0
 40
0.0
 40
0.2449979728
 40
0.5099789627
 40
0.7695318252
 40
1.0
 40
1.0
 40
1.0
 40
1.0
 10
-6.2937009652
 20
-26.4672169165
 30
0.0
 10
-6.343028389
 20
-26.4999914688
 30
0.0
 10
-6.4568646447
 20
-26.5517103488
 30
0.0
 10
-6.6407114004
 20
-26.5880745752
 30
0.0
 10
-6.8245509848
 20
-26.5839823606
 30
0.0
 10
-6.940746109
 20
-26.551556697
 30
0.0
 10
-6.9906303725
 20
-26.5267525024
 30
0.0
 11
-6.2937009652
 21
-26.4672169165
 31
0.0
 11
-6.4542507496
 21
-26.5433093659
 31
0.0
 11
-6.6426224037
 21
-26.5812799048
 31
0.0
 11
-6.8307568534
 21
-26.5754726039
 31
0.0
 11
-6.9906303725
 21
-26.5267525024
 31
0.0
  0
SPLINE
  5
4FC
100
AcDbEntity
  8
0
100
AcDbSpline
 62
253
  6
CONTINUOUS
 70
0
 71
3
 72
11
 73
7
 74
5
 42
0.0000001
 43
0.0000001
 44
0.0000000001
 12
-0.014353954
 22
-0.3367214871
 32
0.0
 13
-0.3107574987
 23
-0.1304498866
 33
0.0
 40
0.0
 40
0.0
 40
0.0
 40
0.0
 40
0.2893508886
 40
0.5493554316
 40
0.7828042077
 40
1.0
 40
1.0
 40
1.0
 40
1.0
 10
-5.9568248064
 20
-26.6724069699
 30
0.0
 10
-5.9582092495
 20
-26.7048838571
 30
0.0
 10
-5.9662521753
 20
-26.7665575867
 30
0.0
 10
-5.9969393845
 20
-26.8499243611
 30
0.0
 10
-6.0449037916
 20
-26.9153266464
 30
0.0
 10
-6.0881337259
 20
-26.9441580863
 30
0.0
 10
-6.1106321329
 20
-26.9536024751
 30
0.0
 11
-5.9568248064
 21
-26.6724069699
 31
0.0
 11
-5.9704250157
 21
-26.768973104
 31
0.0
 11
-6.001856397
 21
-26.8507706869
 31
0.0
 11
-6.0494395689
 21
-26.9134298064
 31
0.0
 11
-6.1106321329
 21
-26.9536024751
 31
0.0
  0
SPLINE
  5
4FD
100
AcDbEntity
  8
0
100
AcDbSpline
 62
7
  6
CONTINUOUS
 70
0
 71
3
 72
11
 73
7
 74
5
 42
0.0000001
 43
0.0000001
 44
0.0000000001
 12
-0.0
 22
-0.3137422494
 32
0.0
 13
-0.2788135326
 23
-0.1438652602
 33
0.0
 40
0.0
 40
0.0
 40
0.0
 40
0.0
 40
0.287659901
 40
0.547734791
 40
0.7821193107
 40
1.0
 40
1.0
 40
1.0
 40
1.0
 10
-1.3050124169
 20
-24.719765079
 30
0.0
 10
-1.3050124169
 20
-24.7498487671
 30
0.0
 10
-1.3090823287
 20
-24.807427149
 30
0.0
 10
-1.3341204274
 20
-24.8862013555
 30
0.0
 10
-1.3752085234
 20
-24.9496056873
 30
0.0
 10
-1.4134723217
 20
-24.979337476
 30
0.0
 10
-1.4337216833
 20
-24.9897859634
 30
0.0
 11
-1.3050124169
 21
-24.719765079
 31
0.0
 11
-1.3130010927
 21
-24.8096618847
 31
0.0
 11
-1.3384539832
 21
-24.8871869522
 31
0.0
 11
-1.3794309375
 21
-24.9482482371
 31
0.0
 11
-1.4337216833
 21
-24.9897859634
 31
0.0
  0
SPLINE
  5
4FE
100
AcDbEntity
  8
0
100
AcDbSpline
 62
253
  6
CONTINUOUS
 70
0
 71
3
 72
11
 73
7
 74
5
 42
0.0000001
 43
0.0000001
 44
0.0000000001
 12
0.1256923233
 22
1.0936816385
 32
0.0
 13
0.832712112
 23
0.7200893173
 33
0.0
 40
0.0
 40
0.0
 40
0.0
 40
0.0
 40
0.2461960746
 40
0.5034859781
 40
0.7589522187
 40
1.0
 40
1.0
 40
1.0
 40
1.0
 10
-21.880944666
 20
17.6564447971
 30
0.0
 10
-21.8706296804
 20
17.7461981725
 30
0.0
 10
-21.8300665145
 20
17.9278050991
 30
0.0
 10
-21.7222132294
 20
18.1859695043
 30
0.0
 10
-21.5734074842
 20
18.420681671
 30
0.0
 10
-21.4487919322
 20
18.5555500881
 30
0.0
 10
-21.3818841299
 20
18.6134087322
 30
0.0
 11
-21.880944666
 21
17.6564447971
 31
0.0
 11
-21.8235513284
 21
17.9213308306
 31
0.0
 11
-21.7148149241
 21
18.1828731528
 31
0.0
 11
-21.5635192265
 21
18.4199476712
 31
0.0
 11
-21.3818841299
 21
18.6134087322
 31
0.0
  0
SPLINE
  5
4FF
100
AcDbEntity
  8
0
100
AcDbSpline
 62
253
  6
CONTINUOUS
 70
0
 71
3
 72
9
 73
5
 74
3
 42
0.0000001
 43
0.0000001
 44
0.0000000001
 12
0.1465341312
 22
0.1267156572
 32
0.0
 13
0.1680450632
 23
0.0963844704
 33
0.0
 40
0.0
 40
0.0
 40
0.0
 40
0.0
 40
0.2592707632
 40
1.0
 40
1.0
 40
1.0
 40
1.0
 10
-21.3818841299
 20
18.6134087322
 30
0.0
 10
-21.3692201245
 20
18.6243599539
 30
0.0
 10
-21.3194759533
 20
18.6655335592
 30
0.0
 10
-21.2660222628
 20
18.7023306642
 30
0.0
 10
-21.224530299
 20
18.7261289293
 30
0.0
 11
-21.3818841299
 21
18.6134087322
 31
0.0
 11
-21.3431763472
 21
18.6454159839
 31
0.0
 11
-21.224530299
 21
18.7261289293
 31
0.0
  0
SPLINE
  5
500
100
AcDbEntity
  8
0
100
AcDbSpline
 62
253
  6
CONTINUOUS
 70
0
 71
3
 72
9
 73
5
 74
3
 42
0.0000001
 43
0.0000001
 44
0.0000000001
 12
0.159165979
 22
10.5215953686
 32
0.0
 13
1.1904631782
 23
10.4552427198
 33
0.0
 40
0.0
 40
0.0
 40
0.0
 40
0.0
 40
0.2454643075
 40
1.0
 40
1.0
 40
1.0
 40
1.0
 10
-22.5688440308
 20
7.1585647225
 30
0.0
 10
-22.5558208418
 20
8.0194567626
 30
0.0
 10
-22.4572160621
 20
11.5258734401
 30
0.0
 10
-22.1803603188
 20
15.0268268617
 30
0.0
 10
-21.880944666
 20
17.6564447971
 30
0.0
 11
-22.5688440308
 21
7.1585647225
 31
0.0
 11
-22.4966728274
 21
9.7405278693
 31
0.0
 11
-21.880944666
 21
17.6564447971
 31
0.0
  0
SPLINE
  5
501
100
AcDbEntity
  8
RACCORDO
100
AcDbSpline
 62
7
  6
CONTINUOUS
 70
0
 71
3
 72
11
 73
7
 74
5
 42
0.0000001
 43
0.0000001
 44
0.0000000001
 12
-0.3227292698
 22
-0.161422156
 32
0.0
 13
-0.3227522815
 23
0.1613761408
 33
0.0
 40
0.0
 40
0.0
 40
0.0
 40
0.0
 40
0.2202580098
 40
0.4554647255
 40
0.7142398547
 40
1.0
 40
1.0
 40
1.0
 40
1.0
 10
-8.4432318866
 20
-20.7826813671
 30
0.0
 10
-8.4669264555
 20
-20.7945328747
 30
0.0
 10
-8.5199677445
 20
-20.8115675722
 30
0.0
 10
-8.6067353663
 20
-20.8142403681
 30
0.0
 10
-8.6992870431
 20
-20.7953374529
 30
0.0
 10
-8.760212728
 20
-20.7703197725
 30
0.0
 10
-8.7909559743
 20
-20.7549481494
 30
0.0
 11
-8.4432318866
 21
-20.7826813671
 31
0.0
 11
-8.5187623528
 21
-20.807423358
 31
0.0
 11
-8.6035600707
 21
-20.8110181007
 31
0.0
 11
-8.6952466342
 21
-20.7933229867
 31
0.0
 11
-8.7909559743
 21
-20.7549481494
 31
0.0
  0
LINE
  5
502
100
AcDbEntity
  8
0
100
AcDbLine
 62
253
  6
CONTINUOUS
 10
-21.880944666
 20
-19.0815955625
 11
-21.9052783654
 21
-18.8912670335
  0
SPLINE
  5
503
100
AcDbEntity
  8
0
100
AcDbSpline
 62
253
  6
CONTINUOUS
 70
0
 71
3
 72
9
 73
5
 74
3
 42
0.0000001
 43
0.0000001
 44
0.0000000001
 12
-1.2086125111
 22
9.5448433491
 32
0.0
 13
-0.1478413548
 23
9.6199231647
 33
0.0
 40
0.0
 40
0.0
 40
0.0
 40
0.0
 40
0.2445363407
 40
1.0
 40
1.0
 40
1.0
 40
1.0
 10
-21.9052783654
 20
-18.8912670335
 30
0.0
 10
-22.0037949256
 20
-18.1132466784
 30
0.0
 10
-22.3596359276
 20
-14.9257752136
 30
0.0
 10
-22.5316144405
 20
-11.7184187348
 30
0.0
 10
-22.5688440308
 20
-9.2959179494
 30
0.0
 11
-21.9052783654
 21
-18.8912670335
 31
0.0
 11
-22.1668324255
 21
-16.5531523776
 31
0.0
 11
-22.5688440308
 21
-9.2959179494
 31
0.0
  0
SPLINE
  5
504
100
AcDbEntity
  8
0
100
AcDbSpline
 62
253
  6
CONTINUOUS
 70
0
 71
3
 72
11
 73
7
 74
5
 42
0.0000001
 43
0.0000001
 44
0.0000000001
 12
-0.00364149
 22
-0.2402883827
 32
0.0
 13
0.2149805936
 23
-0.1074016372
 33
0.0
 40
0.0
 40
0.0
 40
0.0
 40
0.0
 40
0.2040789261
 40
0.430943944
 40
0.6947280059
 40
1.0
 40
1.0
 40
1.0
 40
1.0
 10
-22.7152972046
 20
7.3346442082
 30
0.0
 10
-22.7155449217
 20
7.3182982765
 30
0.0
 10
-22.7085363701
 20
7.2833973365
 30
0.0
 10
-22.6780252795
 20
7.2357790788
 30
0.0
 10
-22.6301820028
 20
7.1928223101
 30
0.0
 10
-22.5907198806
 20
7.1694936272
 30
0.0
 10
-22.5688440291
 20
7.1585647233
 30
0.0
 11
-22.7152972046
 21
7.3346442082
 31
0.0
 11
-22.7062342735
 21
7.2864454437
 31
0.0
 11
-22.6779481384
 21
7.2398380698
 31
0.0
 11
-22.6315465164
 21
7.1966480854
 31
0.0
 11
-22.5688440291
 21
7.1585647233
 31
0.0
  0
SPLINE
  5
505
100
AcDbEntity
  8
RACCORDO
100
AcDbSpline
 62
253
  6
CONTINUOUS
 70
0
 71
3
 72
10
 73
6
 74
4
 42
0.0000001
 43
0.0000001
 44
0.0000000001
 12
0.0000406213
 22
-0.1249947148
 32
0.0
 13
0.1118022175
 23
-0.0558922584
 33
0.0
 40
0.0
 40
0.0
 40
0.0
 40
0.0
 40
0.2185028044
 40
0.4507915579
 40
1.0
 40
1.0
 40
1.0
 40
1.0
 10
-17.3183368654
 20
20.7449934102
 30
0.0
 10
-17.3183339067
 20
20.7358895117
 30
0.0
 10
-17.3148926878
 20
20.7169435414
 30
0.0
 10
-17.2935968359
 20
20.6804045317
 30
0.0
 10
-17.2656108537
 20
20.660885654
 30
0.0
 10
-17.2451432798
 20
20.6506534872
 30
0.0
 11
-17.3183368654
 21
20.7449934102
 31
0.0
 11
-17.3135509658
 21
20.7181043052
 31
0.0
 11
-17.2993437387
 21
20.6927828073
 31
0.0
 11
-17.2451432798
 21
20.6506534872
 31
0.0
  0
SPLINE
  5
506
100
AcDbEntity
  8
0
100
AcDbSpline
 62
253
  6
CONTINUOUS
 70
0
 71
3
 72
11
 73
7
 74
5
 42
0.0000001
 43
0.0000001
 44
0.0000000001
 12
-0.0259833958
 22
-0.2327724576
 32
0.0
 13
0.2097872378
 23
-0.104151182
 33
0.0
 40
0.0
 40
0.0
 40
0.0
 40
0.0
 40
0.1838850728
 40
0.4027047842
 40
0.6738738629
 40
1.0
 40
1.0
 40
1.0
 40
1.0
 10
-22.0281543403
 20
17.8230579379
 30
0.0
 10
-22.0297469931
 20
17.8087901444
 30
0.0
 10
-22.0241221998
 20
17.7763286329
 30
0.0
 10
-21.9934704489
 20
17.7323717238
 30
0.0
 10
-21.944389476
 20
17.6910670003
 30
0.0
 10
-21.9037501919
 20
17.667766993
 30
0.0
 10
-21.8809444914
 20
17.6564448521
 30
0.0
 11
-22.0281543403
 21
17.8230579379
 31
0.0
 11
-22.0219636642
 21
17.7804359508
 31
0.0
 11
-21.9944196171
 21
17.7372150389
 31
0.0
 11
-21.9467221307
 21
17.6952767954
 31
0.0
 11
-21.8809444914
 21
17.6564448521
 31
0.0
  0
SPLINE
  5
507
100
AcDbEntity
  8
0
100
AcDbSpline
 62
253
  6
CONTINUOUS
 70
0
 71
3
 72
10
 73
6
 74
4
 42
0.0000001
 43
0.0000001
 44
0.0000000001
 12
0.2089263791
 22
0.1215044275
 32
0.0
 13
0.217735698
 23
-0.1049034013
 33
0.0
 40
0.0
 40
0.0
 40
0.0
 40
0.0
 40
0.2240208459
 40
0.4604618054
 40
1.0
 40
1.0
 40
1.0
 40
1.0
 10
-21.4577100798
 20
18.734997802
 30
0.0
 10
-21.4421087917
 20
18.7440709769
 30
0.0
 10
-21.4069148075
 20
18.7577856251
 30
0.0
 10
-21.3257548681
 20
18.7642916162
 30
0.0
 10
-21.2636892075
 20
18.7449953932
 30
0.0
 10
-21.224530299
 20
18.7261289293
 30
0.0
 11
-21.4577100798
 21
18.734997802
 31
0.0
 11
-21.407348799
 21
18.7548785872
 31
0.0
 11
-21.350438964
 21
18.76005945
 31
0.0
 11
-21.224530299
 21
18.7261289293
 31
0.0
  0
SPLINE
  5
508
100
AcDbEntity
  8
0
100
AcDbSpline
 62
253
  6
CONTINUOUS
 70
0
 71
3
 72
11
 73
7
 74
5
 42
0.0000001
 43
0.0000001
 44
0.0000000001
 12
0.2614083509
 22
-0.1330218541
 32
0.0
 13
0.0014086312
 23
-0.2933038618
 33
0.0
 40
0.0
 40
0.0
 40
0.0
 40
0.0
 40
0.2292299108
 40
0.4879022955
 40
0.7531904418
 40
1.0
 40
1.0
 40
1.0
 40
1.0
 10
-10.2525925837
 20
19.2899206817
 30
0.0
 10
-10.2326183793
 20
19.2797564857
 30
0.0
 10
-10.1944711493
 20
19.2495112611
 30
0.0
 10
-10.1503613327
 20
19.1897758509
 30
0.0
 10
-10.1202016827
 20
19.1200426232
 30
0.0
 10
-10.1117038672
 20
19.0699349284
 30
0.0
 10
-10.1115879794
 20
19.0458048629
 30
0.0
 11
-10.2525925837
 21
19.2899206817
 31
0.0
 11
-10.1988864313
 21
19.2494711248
 31
0.0
 11
-10.1532306525
 21
19.1888750832
 31
0.0
 11
-10.1225756396
 21
19.1173571707
 31
0.0
 11
-10.1115879794
 21
19.0458048629
 31
0.0
  0
SPLINE
  5
509
100
AcDbEntity
  8
0
100
AcDbSpline
 62
7
  6
CONTINUOUS
 70
0
 71
3
 72
11
 73
7
 74
5
 42
0.0000001
 43
0.0000001
 44
0.0000000001
 12
0.2626369811
 22
-0.1313184905
 32
0.0
 13
-0.0
 23
-0.2936370715
 33
0.0
 40
0.0
 40
0.0
 40
0.0
 40
0.0
 40
0.2296750453
 40
0.4882137809
 40
0.7532064433
 40
1.0
 40
1.0
 40
1.0
 40
1.0
 10
-10.0377793696
 20
19.3969862394
 30
0.0
 10
-10.0176723161
 20
19.3869327126
 30
0.0
 10
-9.9792504449
 20
19.3568748419
 30
0.0
 10
-9.9348832585
 20
19.297198811
 30
0.0
 10
-9.9046957783
 20
19.2274124318
 30
0.0
 10
-9.8963598083
 20
19.1772331527
 30
0.0
 10
-9.8963598083
 20
19.1530772403
 30
0.0
 11
-10.0377793696
 21
19.3969862394
 31
0.0
 11
-9.9836607395
 21
19.3567435147
 31
0.0
 11
-9.9377807345
 21
19.2962592292
 31
0.0
 11
-9.9071246515
 21
19.2247409765
 31
0.0
 11
-9.8963598083
 21
19.1530772403
 31
0.0
  0
SPLINE
  5
50A
100
AcDbEntity
  8
0
100
AcDbSpline
 62
7
  6
CONTINUOUS
 70
0
 71
3
 72
9
 73
5
 74
3
 42
0.0000001
 43
0.0000001
 44
0.0000000001
 12
-0.0815859525
 22
0.0407929763
 32
0.0
 13
-0.0820943577
 23
-0.0397599169
 33
0.0
 40
0.0
 40
0.0
 40
0.0
 40
0.0
 40
0.5361431045
 40
1.0
 40
1.0
 40
1.0
 40
1.0
 10
-8.3407266846
 20
18.5484598969
 30
0.0
 10
-8.3553072666
 20
18.5557501879
 30
0.0
 10
-8.3849702992
 20
18.5656764298
 30
0.0
 10
-8.4166254124
 20
18.5607075775
 30
0.0
 10
-8.429318757
 20
18.5545599403
 30
0.0
 11
-8.3407266846
 21
18.5484598969
 31
0.0
 11
-8.3876871498
 21
18.5621123739
 31
0.0
 11
-8.429318757
 21
18.5545599403
 31
0.0
  0
SPLINE
  5
50B
100
AcDbEntity
  8
0
100
AcDbSpline
 62
253
  6
CONTINUOUS
 70
0
 71
3
 72
9
 73
5
 74
3
 42
0.0000001
 43
0.0000001
 44
0.0000000001
 12
-0.0840102402
 22
0.0412731624
 32
0.0
 13
-0.0831822566
 23
-0.0429174392
 33
0.0
 40
0.0
 40
0.0
 40
0.0
 40
0.0
 40
0.5365169102
 40
1.0
 40
1.0
 40
1.0
 40
1.0
 10
-8.5518230422
 20
18.4395359109
 30
0.0
 10
-8.566847347
 20
18.4469171608
 30
0.0
 10
-8.5974102487
 20
18.4568517524
 30
0.0
 10
-8.6298583984
 20
18.4511096542
 30
0.0
 10
-8.6427095881
 20
18.4444791518
 30
0.0
 11
-8.5518230422
 21
18.4395359109
 31
0.0
 11
-8.6001850436
 21
18.4530647723
 31
0.0
 11
-8.6427095881
 21
18.4444791518
 31
0.0
  0
SPLINE
  5
50C
100
AcDbEntity
  8
0
100
AcDbSpline
 62
253
  6
CONTINUOUS
 70
0
 71
3
 72
11
 73
7
 74
5
 42
0.0000001
 43
0.0000001
 44
0.0000000001
 12
0.2587375916
 22
-0.1293687958
 32
0.0
 13
0.2596298131
 23
0.1275687534
 33
0.0
 40
0.0
 40
0.0
 40
0.0
 40
0.0
 40
0.2350722031
 40
0.4993698028
 40
0.7640064406
 40
1.0
 40
1.0
 40
1.0
 40
1.0
 10
-10.3931911884
 20
19.0464192297
 30
0.0
 10
-10.3729171832
 20
19.0362822271
 30
0.0
 10
-10.32634116
 20
19.0217830465
 30
0.0
 10
-10.2526149236
 20
19.0147503598
 30
0.0
 10
-10.1787699676
 20
19.0214791978
 30
0.0
 10
-10.1320116339
 20
19.0357697282
 30
0.0
 10
-10.1115879794
 20
19.0458048629
 30
0.0
 11
-10.3931911884
 21
19.0464192297
 31
0.0
 11
-10.3287095897
 21
19.0248259341
 31
0.0
 11
-10.2526424941
 21
19.0171308597
 31
0.0
 11
-10.1764439921
 21
19.02449374
 31
0.0
 11
-10.1115879794
 21
19.0458048629
 31
0.0
  0
SPLINE
  5
50D
100
AcDbEntity
  8
0
100
AcDbSpline
 62
253
  6
CONTINUOUS
 70
0
 71
3
 72
9
 73
5
 74
3
 42
0.0000001
 43
0.0000001
 44
0.0000000001
 12
-0.085269577
 22
0.0426347885
 32
0.0
 13
0.0000015909
 23
0.0953342853
 33
0.0
 40
0.0
 40
0.0
 40
0.0
 40
0.0
 40
0.5679866803
 40
1.0
 40
1.0
 40
1.0
 40
1.0
 10
-8.692421647
 20
18.196034459
 30
0.0
 10
-8.7085656416
 20
18.2041064563
 30
0.0
 10
-8.7361153039
 20
18.2216129985
 30
0.0
 10
-8.7510005161
 20
18.2530165767
 30
0.0
 10
-8.751000287
 20
18.2667451371
 30
0.0
 11
-8.692421647
 21
18.196034459
 31
0.0
 11
-8.7357756601
 21
18.2284767289
 31
0.0
 11
-8.751000287
 21
18.2667451371
 31
0.0
  0
ELLIPSE
  5
50E
100
AcDbEntity
  8
RACCORDO
100
AcDbEllipse
 62
7
  6
CONTINUOUS
 10
-18.9502464611
 20
18.9946381277
 30
0.0
 11
-0.0446199607
 21
0.0895422007
 31
0.0
 40
0.6127700112
 41
-0.6836588249
 42
0.0239984985
  0
ELLIPSE
  5
50F
100
AcDbEntity
  8
RACCORDO
100
AcDbEllipse
 62
7
  6
CONTINUOUS
 10
-5.7922206238
 20
12.4156252091
 30
0.0
 11
-0.0446923637
 21
0.0896061377
 31
0.0
 40
0.6116748051
 41
-2.2548620396
 42
-0.6831523243
  0
ELLIPSE
  5
510
100
AcDbEntity
  8
RACCORDO
100
AcDbEllipse
 62
7
  6
CONTINUOUS
 10
-19.0887210382
 20
-1.6387279815
 30
0.0
 11
-0.4472606553
 21
0.8944879452
 31
0.0
 40
0.6123267458
 41
0.8368781886
 42
0.8860222965
  0
ELLIPSE
  5
511
100
AcDbEntity
  8
0
100
AcDbEllipse
 62
7
  6
CONTINUOUS
 10
-7.627441896
 20
18.7206778834
 30
0.0
 11
-0.0894526265
 21
0.1788917224
 31
0.0
 40
0.6123445654
 41
-0.6847277841
 42
-0.0078186591
  0
ELLIPSE
  5
512
100
AcDbEntity
  8
0
100
AcDbEllipse
 62
7
  6
CONTINUOUS
 10
-7.0017236427
 20
22.7114512918
 30
0.0
 11
0.2257019663
 21
0.4461636818
 31
0.0
 40
0.6159267166
 41
0.5882567743
 42
0.6817883054
  0
ELLIPSE
  5
513
100
AcDbEntity
  8
0
100
AcDbEllipse
 62
7
  6
CONTINUOUS
 10
4.3805478955
 20
-19.2961192033
 30
0.0
 11
0.9927147821
 21
0.620457446
 31
0.0
 40
0.0764819879
 41
-2.4043514965
 42
-1.2091443565
  0
ELLIPSE
  5
514
100
AcDbEntity
  8
0
100
AcDbEllipse
 62
7
  6
CONTINUOUS
 10
0.7719501834
 20
19.4631930774
 30
0.0
 11
0.4535199836
 21
0.8912633791
 31
0.0
 40
0.6176975122
 41
0.0043582183
 42
0.6832596203
  0
ELLIPSE
  5
515
100
AcDbEntity
  8
0
100
AcDbEllipse
 62
7
  6
CONTINUOUS
 10
-7.2027047636
 20
23.450520551
 30
0.0
 11
1.004787277
 21
0.6140102217
 31
0.0
 40
0.0864918533
 41
0.0541644768
 42
0.7329085821
  0
ELLIPSE
  5
516
100
AcDbEntity
  8
RACCORDO
100
AcDbEllipse
 62
7
  6
CONTINUOUS
 10
-14.1743534411
 20
20.2530754071
 30
0.0
 11
-0.089260153
 21
0.1791289513
 31
0.0
 40
0.6123879345
 41
0.8877563558
 42
2.4582482032
  0
ELLIPSE
  5
517
100
AcDbEntity
  8
RACCORDO
100
AcDbEllipse
 62
7
  6
CONTINUOUS
 10
-1.8706954485
 20
14.1012464108
 30
0.0
 11
-0.089260153
 21
0.1791289513
 31
0.0
 40
0.6123879345
 41
0.8877563558
 42
2.4582482032
  0
ELLIPSE
  5
518
100
AcDbEntity
  8
0
100
AcDbEllipse
 62
7
  6
CONTINUOUS
 10
-0.9576433164
 20
-24.1814953233
 30
0.0
 11
-0.2236315662
 21
0.4472293059
 31
0.0
 40
0.6123445654
 41
-3.1337469158
 42
-2.2555748796
  0
ELLIPSE
  5
519
100
AcDbEntity
  8
0
100
AcDbEllipse
 62
7
  6
CONTINUOUS
 10
-0.9576433164
 20
13.7403259295
 30
0.0
 11
-0.223611546
 21
0.4472115081
 31
0.0
 40
0.6124054886
 41
-2.2555017776
 42
-0.6847562194
  0
ELLIPSE
  5
51A
100
AcDbEntity
  8
0
100
AcDbEllipse
 62
7
  6
CONTINUOUS
 10
-1.370968056
 20
19.8960734984
 30
0.0
 11
0.2267599918
 21
0.4456316896
 31
0.0
 40
0.6176975122
 41
6.4002379998
 42
6.9664449275
  0
ELLIPSE
  5
51B
100
AcDbEntity
  8
0
100
AcDbEllipse
 62
7
  6
CONTINUOUS
 10
4.2929014095
 20
17.7580508184
 30
0.0
 11
0.499996712
 21
0.0035883639
 31
0.0
 40
0.5053247124
 41
-0.7715714568
 42
-0.0036366941
  0
ELLIPSE
  5
51C
100
AcDbEntity
  8
0
100
AcDbEllipse
 62
7
  6
CONTINUOUS
 10
-9.3368505958
 20
19.5753822333
 30
0.0
 11
-0.0894446184
 21
0.1788846033
 31
0.0
 40
0.6124054886
 41
-2.2555017776
 42
-0.6847562194
  0
ELLIPSE
  5
51D
100
AcDbEntity
  8
0
100
AcDbEllipse
 62
7
  6
CONTINUOUS
 10
-3.5941070516
 20
21.6462216949
 30
0.0
 11
0.4410298232
 21
0.8975092442
 31
0.0
 40
0.607010042
 41
5.3929141747
 42
6.9578927373
  0
ELLIPSE
  5
51E
100
AcDbEntity
  8
0
100
AcDbEllipse
 62
7
  6
CONTINUOUS
 10
4.3805478955
 20
17.6588942214
 30
0.0
 11
-0.7356038977
 21
1.2035991204
 31
0.0
 40
0.5552491559
 41
5.0404636726
 42
6.2356708126
  0
ELLIPSE
  5
51F
100
AcDbEntity
  8
0
100
AcDbEllipse
 62
7
  6
CONTINUOUS
 10
48.3327732357
 20
44.1691874816
 30
0.0
 11
60.4168605605
 21
30.5632322457
 31
0.0
 40
0.005706723
 41
2.5167363259
 42
2.6876789752
  0
ELLIPSE
  5
520
100
AcDbEntity
  8
0
100
AcDbEllipse
 62
7
  6
CONTINUOUS
 10
-0.7701806938
 20
19.5956798173
 30
0.0
 11
0.221538876
 21
0.4482453432
 31
0.0
 40
0.6088015717
 41
0.5825560023
 42
0.6760875334
  0
ELLIPSE
  5
521
100
AcDbEntity
  8
0
100
AcDbEllipse
 62
7
  6
CONTINUOUS
 10
-11.8750246301
 20
19.9287573068
 30
0.0
 11
0.0907039967
 21
0.1782526758
 31
0.0
 40
0.6176975122
 41
0.6948951487
 42
2.2598737113
  0
ELLIPSE
  5
522
100
AcDbEntity
  8
0
100
AcDbEllipse
 62
7
  6
CONTINUOUS
 10
48.3327732357
 20
44.1691874816
 30
0.0
 11
60.4168605605
 21
30.5632322457
 31
0.0
 40
0.005706723
 41
-2.6934527084
 42
-2.5225100591
  0
ELLIPSE
  5
523
100
AcDbEntity
  8
RACCORDO
100
AcDbEllipse
 62
7
  6
CONTINUOUS
 10
-5.54189845
 20
12.2037427331
 30
0.0
 11
-0.0893847275
 21
0.1792122754
 31
0.0
 40
0.6116748051
 41
-0.6831523243
 42
0.0408455326
  0
ELLIPSE
  5
524
100
AcDbEntity
  8
0
100
AcDbEllipse
 62
7
  6
CONTINUOUS
 10
-1.0575250435
 20
18.8196986052
 30
0.0
 11
0.4530414621
 21
-0.0021419047
 31
0.0
 40
0.4964289597
 41
-0.77723337
 42
0.0023166901
  0
ELLIPSE
  5
525
100
AcDbEntity
  8
0
100
AcDbEllipse
 62
7
  6
CONTINUOUS
 10
-6.6479716565
 20
21.6149219117
 30
0.0
 11
0.4530414621
 21
-0.0021419047
 31
0.0
 40
0.4964289597
 41
-0.2666019412
 42
0.0023176539
  0
ELLIPSE
  5
526
100
AcDbEntity
  8
RACCORDO
100
AcDbEllipse
 62
7
  6
CONTINUOUS
 10
-19.2005686349
 20
19.0330778256
 30
0.0
 11
-0.0892399214
 21
0.1790844013
 31
0.0
 40
0.6127700112
 41
-1.8201777678
 42
-0.6836588249
  0
ELLIPSE
  5
527
100
AcDbEntity
  8
0
100
AcDbEllipse
 62
7
  6
CONTINUOUS
 10
4.2929014095
 20
18.5912840479
 30
0.0
 11
-0.3739417019
 21
0.598522373
 31
0.0
 40
0.554557473
 41
-3.1836090632
 42
-2.1562706881
  0
ELLIPSE
  5
528
100
AcDbEntity
  8
0
100
AcDbEllipse
 62
7
  6
CONTINUOUS
 10
4.2929014095
 20
-19.4337557626
 30
0.0
 11
0.499443764
 21
0.3120915671
 31
0.0
 40
0.0755486457
 41
5.9766181181
 42
7.0039564932
  0
ELLIPSE
  5
529
100
AcDbEntity
  8
0
100
AcDbEllipse
 62
7
  6
CONTINUOUS
 10
-6.4009362804
 20
22.4110576106
 30
0.0
 11
0.2205149116
 21
0.4487546221
 31
0.0
 40
0.607010042
 41
6.3916858096
 42
6.9578927373
  0
ELLIPSE
  5
52A
100
AcDbEntity
  8
0
100
AcDbEllipse
 62
7
  6
CONTINUOUS
 10
-10.2517698322
 20
17.8925928498
 30
0.0
 11
0.199943508
 21
0.008945986
 31
0.0
 40
0.5313301283
 41
-2.3799630874
 42
-0.8178934069
  0
ELLIPSE
  5
52B
100
AcDbEntity
  8
0
100
AcDbEllipse
 62
7
  6
CONTINUOUS
 10
-8.5510002907
 20
17.0422080791
 30
0.0
 11
0.199943508
 21
0.008945986
 31
0.0
 40
0.5313301283
 41
3.1178423524
 42
3.9032222197
  0
ENDSEC
  0
SECTION
  2
OBJECTS
  0
DICTIONARY
  5
C
100
AcDbDictionary
280
0
281
1
  3
ACAD_GROUP
350
D
  3
ACAD_MLINESTYLE
350
17
  3
ACAD_LAYOUT
350
1A
  3
ACAD_PLOTSETTINGS
350
19
  3
ACAD_PLOTSTYLENAME
350
E
  0
DICTIONARY
  5
D
102
{ACAD_REACTORS
330
C
102
}
100
AcDbDictionary
280
0
281
1
  0
ACDBDICTIONARYWDFLT
  5
E
102
{ACAD_REACTORS
330
C
102
}
100
AcDbDictionary
281
1
  3
Normal
350
F
100
AcDbDictionaryWithDefault
340
F
  0
DICTIONARY
  5
17
102
{ACAD_REACTORS
330
C
102
}
100
AcDbDictionary
280
0
281
1
  3
Standard
350
18
  0
DICTIONARY
  5
19
102
{ACAD_REACTORS
330
C
102
}
100
AcDbDictionary
281
1
  0
DICTIONARY
  5
1A
102
{ACAD_REACTORS
330
C
102
}
100
AcDbDictionary
281
1
  3
Model
350
52C
  3
Layout1
350
52D
  0
ACDBPLACEHOLDER
  5
F
102
{ACAD_REACTORS
330
E
102
}
  0
MLINESTYLE
  5
18
102
{ACAD_REACTORS
330
17
102
}
100
AcDbMlineStyle
  2
STANDARD
 70
0
  3

 62
256
 51
90.0
 52
90.0
 71
2
 49
0.5
 62
256
  6
BYLAYER
 49
-0.5
 62
256
  6
BYLAYER
  0
LAYOUT
  5
52C
102
{ACAD_REACTORS
330
1A
102
}
100
AcDbPlotSettings
  1

  2
none_device
  4
ISO_A4_(297.00_x_210.00_MM)
  6

 40
0.0
 41
0.0
 42
0.0
 43
0.0
 44
297.0
 45
210.0
 46
0.0
 47
0.0
 48
0.0
 49
0.0
140
0.0
141
0.0
142
1.0
143
1.0
 70
1024
 72
1
 73
0
 74
0
  7

 75
0
147
1.0
148
0.0
149
0.0
100
AcDbLayout
  1
Model
 70
0
 71
0
 10
0.0
 20
0.0
 11
297.0
 21
210.0
 12
0.0
 22
0.0
 32
0.0
 14
0.0
 24
0.0
 34
0.0
 15
0.0
 25
0.0
 35
0.0
146
0.0
 13
0.0
 23
0.0
 33
0.0
 16
1.0
 26
0.0
 36
0.0
 17
0.0
 27
1.0
 37
0.0
 76
0
330
218
345
0
346
0
  0
LAYOUT
  5
52D
102
{ACAD_REACTORS
330
1A
102
}
100
AcDbPlotSettings
  1

  2
none_device
  4
ISO_A4_(297.00_x_210.00_MM)
  6

 40
0.0
 41
0.0
 42
0.0
 43
0.0
 44
297.0
 45
210.0
 46
0.0
 47
0.0
 48
0.0
 49
0.0
140
0.0
141
0.0
142
1.0
143
1.0
 70
0
 72
1
 73
0
 74
0
  7

 75
0
147
1.0
148
0.0
149
0.0
100
AcDbLayout
  1
Layout1
 70
0
 71
1
 10
0.0
 20
0.0
 11
297.0
 21
210.0
 12
0.0
 22
0.0
 32
0.0
 14
0.0
 24
0.0
 34
0.0
 15
0.0
 25
0.0
 35
0.0
146
0.0
 13
0.0
 23
0.0
 33
0.0
 16
1.0
 26
0.0
 36
0.0
 17
0.0
 27
1.0
 37
0.0
 76
0
330
219
345
0
346
0
  0
ENDSEC
  0
EOF
