0
SECTION
2
HEADER
9
$ACADVER
1
AC1014
9
$HANDSEED
5
       428
9
$EXTMAX
10
297.0000000000
20
210.0000000000
9
$EXTMIN
10
0.0000000000
20
0.0000000000
9
$LIMMIN
10
0.0000000000
20
0.0000000000
9
$LIMMAX
10
297.0000000000
20
210.0000000000
9
$VIEWCTR
10
148.5000000000
20
105.0000000000
9
$VIEWSIZE
40
210.0000000000
9
$CLAYER
8
0
9
$LTSCALE
40
16.3350000000
9
$CELTYPE
6
BYLAYER
9
$DIMSCALE
40
1
9
$DIMASZ
40
3.0000000000
9
$DIMEXO
40
1.8562500000
9
$DIMDLI
40
11.2860000000
9
$DIMEXE
40
5.3460000000
9
$DIMCEN
40
2.6730000000
9
$DIMLFAC
40
1.0000000000
9
$DIMTXT
40
3.0000000000
9
$DIMTOL
70
1
9
$DIMLIM
70
0
9
$DIMTFAC
40
1.0000000000
9
$DIMTP
40
0.0100000000
9
$DIMTM
40
0.0100000000
9
$MEASUREMENT
70
1
0
ENDSEC
0
SECTION
2
CLASSES
0
ENDSEC
0
SECTION
2
TABLES
0
TABLE
2
VPORT
5
8
100
AcDbSymbolTable
70
2
0
VPORT
5
1F4
100
AcDbSymbolTableRecord
100
AcDbViewportTableRecord
2
*ACTIVE
70
0
10
0.0
20
0.0
11
1.0
21
1.0
12
148.5000000000
22
105.0000000000
13
0.0
23
0.0
14
1.0
24
1.0
15
0.0
25
0.0
16
0.0
26
0.0
36
1.0
17
0.0
27
0.0
37
0.0
40
210.0000000000
41
1.4142857143
42
50.0
43
0.0
44
0.0
50
0.0
51
0.0
71
0
72
100
73
1
74
1
75
0
76
0
77
0
78
0
0
ENDTAB
0
TABLE
2
LTYPE
5
5
100
AcDbSymbolTable
70
6
0
LTYPE
5
14
100
AcDbSymbolTableRecord
100
AcDbLinetypeTableRecord
2
BYBLOCK
70
0
3

72
65
73
0
40
0.0
0
LTYPE
5
15
100
AcDbSymbolTableRecord
100
AcDbLinetypeTableRecord
2
BYLAYER
70
0
3

72
65
73
0
40
0.0
0
LTYPE
5
16
100
AcDbSymbolTableRecord
100
AcDbLinetypeTableRecord
2
CONTINUOUS
70
64
3
Solid line
72
65
73
0
40
0
0
LTYPE
5
1F5
100
AcDbSymbolTableRecord
100
AcDbLinetypeTableRecord
2
CENTER
70
64
3
____ _ ____ _ ____ _ ____ _ ____ _ ____ _ ____
72
65
73
4
40
0.6
49
0.375
74
0
49
-0.075
74
0
49
0.075
74
0
49
-0.075
74
0
0
LTYPE
5
1F6
100
AcDbSymbolTableRecord
100
AcDbLinetypeTableRecord
2
HIDDEN
70
64
3
- - - - - - - - - - - - - - - - - - - -
72
65
73
2
40
0.2
49
0.1
74
0
49
-0.1
74
0
0
LTYPE
5
1F7
100
AcDbSymbolTableRecord
100
AcDbLinetypeTableRecord
2
PHANTOM
70
64
3
_____ _ _ _____ _ _ _____ _ _ _____
72
65
73
6
40
0.8
49
0.45
74
0
49
-0.05
74
0
49
0.1
74
0
49
-0.05
74
0
49
0.1
74
0
49
-0.05
74
0
0
LTYPE
5
1F8
100
AcDbSymbolTableRecord
100
AcDbLinetypeTableRecord
2
DOT
70
64
3
. . . . . . . . . . . . . . . . . . . .
72
65
73
2
40
0.2
49
0.1
74
0
49
-0.1
74
0
0
LTYPE
5
1F9
100
AcDbSymbolTableRecord
100
AcDbLinetypeTableRecord
2
DASHED
70
64
3
- - - - - - - - - - - - - - - - - - - -
72
65
73
2
40
0.2
49
0.1
74
0
49
-0.1
74
0
0
ENDTAB
0
TABLE
2
LAYER
5
2
100
AcDbSymbolTable
70
36
0
LAYER
5
10
100
AcDbSymbolTableRecord
100
AcDbLayerTableRecord
2
0
70
0
62
7
6
CONTINUOUS
0
LAYER
5
1FA
100
AcDbSymbolTableRecord
100
AcDbLayerTableRecord
2
DEFAULT_1
70
0
62
7
6
CENTER
0
LAYER
5
1FB
100
AcDbSymbolTableRecord
100
AcDbLayerTableRecord
2
DEFAULT_2
70
0
62
8
6
HIDDEN
0
LAYER
5
1FC
100
AcDbSymbolTableRecord
100
AcDbLayerTableRecord
2
DEFAULT_3
70
0
62
7
6
PHANTOM
0
LAYER
5
1FD
100
AcDbSymbolTableRecord
100
AcDbLayerTableRecord
2
_BLACK_HOLE
70
0
62
7
6
CONTINUOUS
0
LAYER
5
1FE
100
AcDbSymbolTableRecord
100
AcDbLayerTableRecord
2
ASSI
70
0
62
7
6
CONTINUOUS
0
LAYER
5
1FF
100
AcDbSymbolTableRecord
100
AcDbLayerTableRecord
2
COORDINATE
70
0
62
7
6
CONTINUOUS
0
LAYER
5
200
100
AcDbSymbolTableRecord
100
AcDbLayerTableRecord
2
COORD_ORIGINE
70
0
62
7
6
CONTINUOUS
0
LAYER
5
201
100
AcDbSymbolTableRecord
100
AcDbLayerTableRecord
2
CURVE
70
0
62
7
6
CONTINUOUS
0
LAYER
5
202
100
AcDbSymbolTableRecord
100
AcDbLayerTableRecord
2
DATA_SHARING
70
0
62
7
6
CONTINUOUS
0
LAYER
5
203
100
AcDbSymbolTableRecord
100
AcDbLayerTableRecord
2
DRAFT
70
0
62
7
6
CONTINUOUS
0
LAYER
5
204
100
AcDbSymbolTableRecord
100
AcDbLayerTableRecord
2
IMPORT_SCRITTE
70
0
62
7
6
CONTINUOUS
0
LAYER
5
205
100
AcDbSymbolTableRecord
100
AcDbLayerTableRecord
2
LAY0001
70
0
62
7
6
CONTINUOUS
0
LAYER
5
206
100
AcDbSymbolTableRecord
100
AcDbLayerTableRecord
2
NOTE
70
0
62
7
6
CONTINUOUS
0
LAYER
5
207
100
AcDbSymbolTableRecord
100
AcDbLayerTableRecord
2
PIANI
70
0
62
7
6
CONTINUOUS
0
LAYER
5
208
100
AcDbSymbolTableRecord
100
AcDbLayerTableRecord
2
PIANI_ORIGINE
70
0
62
7
6
CONTINUOUS
0
LAYER
5
209
100
AcDbSymbolTableRecord
100
AcDbLayerTableRecord
2
PIANI_RIFERIMENTO
70
0
62
7
6
CONTINUOUS
0
LAYER
5
20A
100
AcDbSymbolTableRecord
100
AcDbLayerTableRecord
2
PUNTI
70
0
62
7
6
CONTINUOUS
0
LAYER
5
20B
100
AcDbSymbolTableRecord
100
AcDbLayerTableRecord
2
RACCORDO
70
0
62
7
6
CONTINUOUS
0
LAYER
5
20C
100
AcDbSymbolTableRecord
100
AcDbLayerTableRecord
2
SKELETON
70
0
62
7
6
CONTINUOUS
0
LAYER
5
20D
100
AcDbSymbolTableRecord
100
AcDbLayerTableRecord
2
SMUSSO
70
0
62
7
6
CONTINUOUS
0
LAYER
5
20E
100
AcDbSymbolTableRecord
100
AcDbLayerTableRecord
2
SUPERFICI
70
0
62
7
6
CONTINUOUS
0
LAYER
5
20F
100
AcDbSymbolTableRecord
100
AcDbLayerTableRecord
2
TRASH
70
0
62
7
6
CONTINUOUS
0
LAYER
5
210
100
AcDbSymbolTableRecord
100
AcDbLayerTableRecord
2
XSEC_DATUMS
70
0
62
7
6
CONTINUOUS
0
ENDTAB
0
TABLE
2
STYLE
5
3
100
AcDbSymbolTable
70
1
0
STYLE
5
11
100
AcDbSymbolTableRecord
100
AcDbTextStyleTableRecord
2
STANDARD
70
0
40
0.0
41
0.8000000000
50
0.0
71
0
42
0.2
3
txt
4

0
ENDTAB
0
TABLE
2
VIEW
5
6
100
AcDbSymbolTable
70
0
0
ENDTAB
0
TABLE
2
UCS
5
7
100
AcDbSymbolTable
70
0
0
ENDTAB
0
TABLE
2
APPID
5
9
100
AcDbSymbolTable
70
1
0
APPID
5
211
100
AcDbSymbolTableRecord
100
AcDbRegAppTableRecord
2
ACAD
70
0
0
ENDTAB
0
TABLE
2
DIMSTYLE
5
A
100
AcDbSymbolTable
70
1
0
DIMSTYLE
105
212
100
AcDbSymbolTableRecord
100
AcDbDimStyleTableRecord
2
STANDARD
70
0
3

4

5

6

7

40
1.0
41
3.0000000000
42
0.0625
43
0.38
44
0.18
45
0.0
46
0.0
47
0.0100000000
48
0.0100000000
140
3.0000000000
141
0.09
142
0.0
143
25.4
144
1.0000000000
145
0.0
146
1.0000000000
147
0.09
71
1
72
0
73
0
74
0
75
0
76
0
77
1
78
8
170
0
171
2
172
0
173
0
174
0
175
0
176
0
177
0
178
0
270
2
271
2
272
2
273
2
274
2
340
11
275
0
280
0
281
0
282
0
283
1
284
8
285
0
286
0
287
3
288
0
0
ENDTAB
0
TABLE
2
BLOCK_RECORD
5
1
100
AcDbSymbolTable
70
0
0
BLOCK_RECORD
5
1B
100
AcDbSymbolTableRecord
100
AcDbBlockTableRecord
2
*MODEL_SPACE
0
BLOCK_RECORD
5
1C
100
AcDbSymbolTableRecord
100
AcDbBlockTableRecord
2
*PAPER_SPACE
0
ENDTAB
0
ENDSEC
0
SECTION
2
BLOCKS
0
BLOCK
5
1E
100
AcDbEntity
8
0
100
AcDbBlockBegin
2
*MODEL_SPACE
70
0
10
0.0
20
0.0
30
0.0
3
*MODEL_SPACE
1

0
ENDBLK
5
1F
100
AcDbEntity
8
0
100
AcDbBlockEnd
0
BLOCK
5
20
100
AcDbEntity
8
0
100
AcDbBlockBegin
2
*PAPER_SPACE
70
0
10
0.0
20
0.0
30
0.0
3
*PAPER_SPACE
1

0
ENDBLK
5
21
100
AcDbEntity
8
0
100
AcDbBlockEnd
0
ENDSEC
0
SECTION
2
ENTITIES
0
LINE
5
213
100
AcDbEntity
8
0
100
AcDbLine
62
7
6
CONTINUOUS
10
-12.3763576001
20
21.3636644012
11
-8.3445723771
21
23.7145644694
0
LINE
5
214
100
AcDbEntity
8
0
100
AcDbLine
62
9
6
CONTINUOUS
10
-12.1430435766
20
21.3548736703
11
-8.2374787694
21
23.6321756752
0
LINE
5
215
100
AcDbEntity
8
0
100
AcDbLine
62
7
6
CONTINUOUS
10
-8.8045858292
20
24.7294330164
11
-7.2214141342
21
25.5416300637
0
LINE
5
216
100
AcDbEntity
8
0
100
AcDbLine
62
9
6
CONTINUOUS
10
-8.6915001630
20
24.7229850413
11
-7.1087435599
21
25.5349691386
0
LINE
5
217
100
AcDbEntity
8
0
100
AcDbLine
62
7
6
CONTINUOUS
10
-7.2214121645
20
25.5416310743
11
-7.2196757471
21
25.5424992973
0
LINE
5
218
100
AcDbEntity
8
0
100
AcDbLine
62
7
6
CONTINUOUS
10
-7.2196729831
20
25.5425006437
11
-6.6848057923
21
25.8030513962
0
LINE
5
219
100
AcDbEntity
8
0
100
AcDbLine
62
9
6
CONTINUOUS
10
-7.1087435599
20
25.5349691386
11
-6.5742936812
21
25.7953166052
0
LINE
5
21A
100
AcDbEntity
8
0
100
AcDbLine
62
9
6
CONTINUOUS
10
-8.2328564479
20
23.4156632657
11
-8.3001212049
21
23.3772945306
0
LINE
5
21B
100
AcDbEntity
8
0
100
AcDbLine
62
9
6
CONTINUOUS
10
-6.1249677808
20
22.4561068573
11
-5.2349075981
21
22.9527877786
0
LINE
5
21C
100
AcDbEntity
8
0
100
AcDbLine
62
9
6
CONTINUOUS
10
-5.9769701474
20
22.2157190019
11
-5.0935269087
21
22.7087074651
0
LINE
5
21D
100
AcDbEntity
8
0
100
AcDbLine
62
7
6
CONTINUOUS
10
-3.2550086108
20
23.1750889622
11
-4.3094980422
21
22.6341159235
0
LINE
5
21E
100
AcDbEntity
8
0
100
AcDbLine
62
7
6
CONTINUOUS
10
-3.6439173404
20
22.3013255726
11
-2.7962119545
21
22.7312184693
0
LINE
5
21F
100
AcDbEntity
8
0
100
AcDbLine
62
9
6
CONTINUOUS
10
-7.0129620926
20
23.8837160061
11
-5.4116813018
21
24.6864380096
0
LINE
5
220
100
AcDbEntity
8
0
100
AcDbLine
62
9
6
CONTINUOUS
10
-6.8361883889
20
23.5788264673
11
-5.2349075981
21
24.3815484708
0
LINE
5
221
100
AcDbEntity
8
0
100
AcDbLine
62
9
6
CONTINUOUS
10
-5.4116813018
20
24.6864380096
11
-4.8834141300
21
24.9498768296
0
LINE
5
222
100
AcDbEntity
8
0
100
AcDbLine
62
9
6
CONTINUOUS
10
-5.2349075981
20
24.3815484708
11
-4.7066404264
21
24.6449872908
0
LINE
5
223
100
AcDbEntity
8
0
100
AcDbLine
62
7
6
CONTINUOUS
10
2.5021047231
20
26.6377284150
11
-4.5319146438
21
23.1299697254
0
LINE
5
224
100
AcDbEntity
8
0
100
AcDbLine
62
7
6
CONTINUOUS
10
2.7221005689
20
25.4540895408
11
-1.8761503875
21
23.1877282433
0
LINE
5
225
100
AcDbEntity
8
0
100
AcDbLine
62
7
6
CONTINUOUS
10
2.0812147952
20
25.7745324277
11
-3.2550086108
21
23.1750889622
0
LINE
5
226
100
AcDbEntity
8
0
100
AcDbLine
62
9
6
CONTINUOUS
10
7.5970175663
20
-23.1539773616
11
7.0687503945
21
-23.0454750846
0
LINE
5
227
100
AcDbEntity
8
0
100
AcDbLine
62
9
6
CONTINUOUS
10
7.5076037709
20
-22.8344105556
11
7.0687503945
21
-22.7442732289
0
LINE
5
228
100
AcDbEntity
8
0
100
AcDbLine
62
7
6
CONTINUOUS
10
2.3438129922
20
-24.3141785704
11
-12.5496746242
21
-16.8674347622
0
LINE
5
229
100
AcDbEntity
8
0
100
AcDbLine
62
9
6
CONTINUOUS
10
2.0896219158
20
-23.8973907511
11
-12.7994579436
21
-16.4528508214
0
LINE
5
22A
100
AcDbEntity
8
0
100
AcDbLine
62
9
6
CONTINUOUS
10
-5.2349075981
20
23.6545036183
11
-4.7066404264
21
24.2974557741
0
LINE
5
22B
100
AcDbEntity
8
0
100
AcDbLine
62
7
6
CONTINUOUS
10
-5.2349075981
20
23.5649731520
11
-4.6912798540
21
24.2266206075
0
LINE
5
22C
100
AcDbEntity
8
0
100
AcDbLine
62
7
6
CONTINUOUS
10
-3.6439173404
20
20.8551628069
11
-2.9368105592
21
21.2541026657
0
LINE
5
22D
100
AcDbEntity
8
0
100
AcDbLine
62
9
6
CONTINUOUS
10
-1.1698663577
20
21.9180456709
11
-0.9569115719
21
22.0260404428
0
LINE
5
22E
100
AcDbEntity
8
0
100
AcDbLine
62
9
6
CONTINUOUS
10
-1.0276222500
20
21.6745442190
11
-0.8154902157
21
21.7821217527
0
LINE
5
22F
100
AcDbEntity
8
0
100
AcDbLine
62
7
6
CONTINUOUS
10
0.6503211130
20
21.1830002048
11
0.4375546107
21
21.0751009163
0
LINE
5
230
100
AcDbEntity
8
0
100
AcDbLine
62
9
6
CONTINUOUS
10
0.7401447029
20
21.1775123053
11
0.5271899171
21
21.0695175335
0
LINE
5
231
100
AcDbEntity
8
0
100
AcDbLine
62
7
6
CONTINUOUS
10
-0.1083834345
20
21.7312382889
11
4.5070936732
21
24.0389768427
0
LINE
5
232
100
AcDbEntity
8
0
100
AcDbLine
62
7
6
CONTINUOUS
10
0.6510869332
20
21.1833831068
11
0.6503221476
21
21.1830007295
0
LINE
5
233
100
AcDbEntity
8
0
100
AcDbLine
62
7
6
CONTINUOUS
10
-0.1083834345
20
20.9187079693
11
-0.8154902157
21
20.5696891186
0
LINE
5
234
100
AcDbEntity
8
0
100
AcDbLine
62
7
6
CONTINUOUS
10
-0.4805657020
20
22.4899359006
11
2.7532475085
21
24.0838004315
0
LINE
5
235
100
AcDbEntity
8
0
100
AcDbLine
62
9
6
CONTINUOUS
10
-0.9569115719
20
22.0260404428
11
-0.2498047907
21
22.3745554449
0
LINE
5
236
100
AcDbEntity
8
0
100
AcDbLine
62
7
6
CONTINUOUS
10
5.5525845723
20
25.1124884904
11
-0.1634178859
21
22.2952158208
0
LINE
5
237
100
AcDbEntity
8
0
100
AcDbLine
62
9
6
CONTINUOUS
10
-0.8154902157
20
21.7821217527
11
-0.1083834345
21
22.1306367548
0
LINE
5
238
100
AcDbEntity
8
0
100
AcDbLine
62
7
6
CONTINUOUS
10
1.3581954356
20
21.5318989571
11
0.6510877887
21
21.1833835282
0
LINE
5
239
100
AcDbEntity
8
0
100
AcDbLine
62
9
6
CONTINUOUS
10
1.4472514841
20
21.5260273075
11
0.7401447029
21
21.1775123053
0
LINE
5
23A
100
AcDbEntity
8
0
100
AcDbLine
62
7
6
CONTINUOUS
10
3.7764953550
20
-23.9855474702
11
5.1799209405
21
-24.6872602629
0
LINE
5
23B
100
AcDbEntity
8
0
100
AcDbLine
62
9
6
CONTINUOUS
10
3.8881895697
20
-23.9386627757
11
5.1149476441
21
-24.5520418128
0
LINE
5
23C
100
AcDbEntity
8
0
100
AcDbLine
62
9
6
CONTINUOUS
10
5.1149476441
20
-24.2120678787
11
4.2578231294
21
-23.7835056214
0
LINE
5
23D
100
AcDbEntity
8
0
100
AcDbLine
62
9
6
CONTINUOUS
10
5.2033359917
20
-23.9803737049
11
4.5577802195
21
-23.6575958188
0
LINE
5
23E
100
AcDbEntity
8
0
100
AcDbLine
62
7
6
CONTINUOUS
10
5.8261682522
20
-23.2355714016
11
5.7061440795
21
-23.1755593153
0
LINE
5
23F
100
AcDbEntity
8
0
100
AcDbLine
62
9
6
CONTINUOUS
10
7.0687503945
20
-22.6149838674
11
7.5076037709
21
-22.8344105556
0
LINE
5
240
100
AcDbEntity
8
0
100
AcDbLine
62
7
6
CONTINUOUS
10
7.0687503945
20
-22.6113637179
11
7.5310188222
21
-22.8424979317
0
LINE
5
241
100
AcDbEntity
8
0
100
AcDbLine
62
7
6
CONTINUOUS
10
-12.9466480217
20
20.4519794591
11
-12.9466651365
21
20.4518278563
0
LINE
5
242
100
AcDbEntity
8
0
100
AcDbLine
62
7
6
CONTINUOUS
10
-0.8154902157
20
20.5696891186
11
-1.0276222500
21
20.4500071610
0
LINE
5
243
100
AcDbEntity
8
0
100
AcDbLine
62
7
6
CONTINUOUS
10
2.1535355138
20
20.2563447352
11
1.3058301279
21
19.8264518385
0
LINE
5
244
100
AcDbEntity
8
0
100
AcDbLine
62
7
6
CONTINUOUS
10
3.0382417418
20
20.0284637859
11
1.9714108296
21
19.4936614876
0
LINE
5
245
100
AcDbEntity
8
0
100
AcDbLine
62
7
6
CONTINUOUS
10
8.3127338109
20
22.6587729198
11
3.0382417418
21
20.0284637859
0
LINE
5
246
100
AcDbEntity
8
0
100
AcDbLine
62
7
6
CONTINUOUS
10
7.6718480372
20
22.9792158067
11
3.0735970808
21
20.7128545092
0
LINE
5
247
100
AcDbEntity
8
0
100
AcDbLine
62
7
6
CONTINUOUS
10
8.4763872591
20
22.3411463386
11
9.7952252594
21
22.9911681469
0
LINE
5
248
100
AcDbEntity
8
0
100
AcDbLine
62
9
6
CONTINUOUS
10
13.3319344988
20
-13.7006476202
11
8.4946894220
21
-13.9865703512
0
LINE
5
249
100
AcDbEntity
8
0
100
AcDbLine
62
9
6
CONTINUOUS
10
13.2376533615
20
-13.4436126812
11
8.4946894220
21
-13.7239625872
0
LINE
5
24A
100
AcDbEntity
8
0
100
AcDbLine
62
9
6
CONTINUOUS
10
8.4946894220
20
-13.5959150682
11
13.0881112909
21
-13.3688416459
0
LINE
5
24B
100
AcDbEntity
8
0
100
AcDbLine
62
7
6
CONTINUOUS
10
8.4946894220
20
-13.5802237591
11
13.0298675009
21
-13.3560295882
0
LINE
5
24C
100
AcDbEntity
8
0
100
AcDbLine
62
7
6
CONTINUOUS
10
-12.9457442280
20
-16.2774832781
11
-12.9456718954
21
-16.2780366428
0
LINE
5
24D
100
AcDbEntity
8
0
100
AcDbLine
62
7
6
CONTINUOUS
10
-13.6338087165
20
-6.4898836263
11
-13.6338047351
21
-6.4901278869
0
LINE
5
24E
100
AcDbEntity
8
0
100
AcDbLine
62
9
6
CONTINUOUS
10
4.0708015447
20
17.2638342694
11
4.0035367877
21
17.2254655343
0
LINE
5
24F
100
AcDbEntity
8
0
100
AcDbLine
62
7
6
CONTINUOUS
10
3.0382417418
20
18.6428231399
11
1.9714108296
21
18.0474987218
0
LINE
5
250
100
AcDbEntity
8
0
100
AcDbLine
62
7
6
CONTINUOUS
10
3.4990721635
20
18.5776040201
11
5.0822438584
21
19.3898010674
0
LINE
5
251
100
AcDbEntity
8
0
100
AcDbLine
62
9
6
CONTINUOUS
10
3.6121578296
20
18.5711560450
11
5.1949144328
21
19.3831401423
0
LINE
5
252
100
AcDbEntity
8
0
100
AcDbLine
62
9
6
CONTINUOUS
10
5.2906959000
20
17.7318870098
11
6.8919766909
21
18.5346090133
0
LINE
5
253
100
AcDbEntity
8
0
100
AcDbLine
62
9
6
CONTINUOUS
10
5.4674696037
20
17.4269974709
11
7.0687503945
21
18.2297194744
0
LINE
5
254
100
AcDbEntity
8
0
100
AcDbLine
62
7
6
CONTINUOUS
10
5.0822458282
20
19.3898020780
11
5.0839822456
21
19.3906703010
0
LINE
5
255
100
AcDbEntity
8
0
100
AcDbLine
62
7
6
CONTINUOUS
10
3.0382417418
20
18.6428231399
11
8.3455524079
21
21.2894984099
0
LINE
5
256
100
AcDbEntity
8
0
100
AcDbLine
62
9
6
CONTINUOUS
10
6.8919766909
20
18.5346090133
11
7.4202438626
21
18.7980478333
0
LINE
5
257
100
AcDbEntity
8
0
100
AcDbLine
62
9
6
CONTINUOUS
10
7.0687503945
20
18.2297194744
11
7.5970175663
21
18.4931582945
0
LINE
5
258
100
AcDbEntity
8
0
100
AcDbLine
62
7
6
CONTINUOUS
10
5.0839850095
20
19.3906716474
11
5.6188522004
21
19.6512223999
0
LINE
5
259
100
AcDbEntity
8
0
100
AcDbLine
62
9
6
CONTINUOUS
10
5.1949144328
20
19.3831401423
11
5.7293643115
21
19.6434876089
0
LINE
5
25A
100
AcDbEntity
8
0
100
AcDbLine
62
7
6
CONTINUOUS
10
12.8457051086
20
21.4659282223
11
7.4577373673
21
18.8412784518
0
LINE
5
25B
100
AcDbEntity
8
0
100
AcDbLine
62
9
6
CONTINUOUS
10
-13.4873573084
20
-6.6671732084
11
1.3774194542
21
-14.0995615897
0
LINE
5
25C
100
AcDbEntity
8
0
100
AcDbLine
62
7
6
CONTINUOUS
10
-8.9404717237
20
24.5069965740
11
-8.9404717237
21
24.1670226398
0
LINE
5
25D
100
AcDbEntity
8
0
100
AcDbLine
62
9
6
CONTINUOUS
10
-8.8672484190
20
24.4186082263
11
-8.8672484190
21
24.0786342922
0
LINE
5
25E
100
AcDbEntity
8
0
100
AcDbLine
62
9
6
CONTINUOUS
10
6.1786902118
20
16.3042778610
11
7.0687503945
21
16.8009587823
0
LINE
5
25F
100
AcDbEntity
8
0
100
AcDbLine
62
9
6
CONTINUOUS
10
6.3266878452
20
16.0638900055
11
7.2101310839
21
16.5568784688
0
LINE
5
260
100
AcDbEntity
8
0
100
AcDbLine
62
9
6
CONTINUOUS
10
7.4219557801
20
16.4509661207
11
2.7575949165
21
13.9045544238
0
LINE
5
261
100
AcDbEntity
8
0
100
AcDbLine
62
9
6
CONTINUOUS
10
7.7752564807
20
15.8411220663
11
3.1233973522
21
13.3015354340
0
LINE
5
262
100
AcDbEntity
8
0
100
AcDbLine
62
7
6
CONTINUOUS
10
13.7334409023
20
20.7259519682
11
7.2606063491
21
17.2337092290
0
LINE
5
263
100
AcDbEntity
8
0
100
AcDbLine
62
7
6
CONTINUOUS
10
13.7334409023
20
20.2929392663
11
7.6771557916
21
17.0254345077
0
LINE
5
264
100
AcDbEntity
8
0
100
AcDbLine
62
9
6
CONTINUOUS
10
8.1235527677
20
16.8022360197
11
7.4226168139
21
16.4506356038
0
LINE
5
265
100
AcDbEntity
8
0
100
AcDbLine
62
9
6
CONTINUOUS
10
8.4771016709
20
16.1924635220
11
7.7761657171
21
15.8408631061
0
LINE
5
266
100
AcDbEntity
8
0
100
AcDbLine
62
7
6
CONTINUOUS
10
13.3892844090
20
-15.7125986295
11
13.7273243927
21
-15.8816186214
0
LINE
5
267
100
AcDbEntity
8
0
100
AcDbLine
62
7
6
CONTINUOUS
10
-8.2374787694
20
23.6610176655
11
-8.2374787694
21
23.3742433569
0
LINE
5
268
100
AcDbEntity
8
0
100
AcDbLine
62
7
6
CONTINUOUS
10
-8.2374787691
20
23.3740791384
11
-8.2374787659
21
23.3740480932
0
LINE
5
269
100
AcDbEntity
8
0
100
AcDbLine
62
9
6
CONTINUOUS
10
-8.1642554647
20
23.6244060132
11
-8.1642554647
21
23.2796973534
0
LINE
5
26A
100
AcDbEntity
8
0
100
AcDbLine
62
9
6
CONTINUOUS
10
-7.1887103486
20
23.2393652570
11
-7.1887103486
21
23.5793391911
0
LINE
5
26B
100
AcDbEntity
8
0
100
AcDbLine
62
9
6
CONTINUOUS
10
-6.8361883889
20
23.2388525331
11
-6.8361883889
21
23.5788264673
0
LINE
5
26C
100
AcDbEntity
8
0
100
AcDbLine
62
9
6
CONTINUOUS
10
-6.4774897405
20
22.4363144913
11
-6.4774897405
21
22.9526770738
0
LINE
5
26D
100
AcDbEntity
8
0
100
AcDbLine
62
7
6
CONTINUOUS
10
-6.3309231089
20
-4.4969301087
11
-6.3309231089
21
-4.3690225866
0
LINE
5
26E
100
AcDbEntity
8
0
100
AcDbLine
62
9
6
CONTINUOUS
10
-6.1249677808
20
22.4561068573
11
-6.1249677808
21
23.0903490103
0
LINE
5
26F
100
AcDbEntity
8
0
100
AcDbLine
62
7
6
CONTINUOUS
10
-6.0834357355
20
-4.6206737954
11
-6.0834357355
21
-4.4470853894
0
LINE
5
270
100
AcDbEntity
8
0
100
AcDbLine
62
7
6
CONTINUOUS
10
-7.5541394088
20
-4.9195854911
11
-6.6449511170
21
-5.3741796370
0
LINE
5
271
100
AcDbEntity
8
0
100
AcDbLine
62
7
6
CONTINUOUS
10
-5.5700501121
20
-5.9116301395
11
-4.6608618202
21
-6.3662242854
0
LINE
5
272
100
AcDbEntity
8
0
100
AcDbLine
62
9
6
CONTINUOUS
10
8.4946894220
20
-12.4610178027
11
10.5317038372
21
-13.4795250103
0
LINE
5
273
100
AcDbEntity
8
0
100
AcDbLine
62
7
6
CONTINUOUS
10
8.4946894220
20
-12.4106160857
11
10.6234376450
21
-13.4749901972
0
LINE
5
274
100
AcDbEntity
8
0
100
AcDbLine
62
7
6
CONTINUOUS
10
-7.5590913560
20
-4.0631180177
11
-6.6498629637
21
-4.5177322139
0
LINE
5
275
100
AcDbEntity
8
0
100
AcDbLine
62
7
6
CONTINUOUS
10
-5.5749564775
20
-5.0551854570
11
-4.6657280852
21
-5.5097996531
0
LINE
5
276
100
AcDbEntity
8
0
100
AcDbLine
62
3
6
CONTINUOUS
10
-6.0834357355
20
-4.6206737954
11
-6.3309231089
21
-4.4969301087
0
LINE
5
277
100
AcDbEntity
8
0
100
AcDbLine
62
9
6
CONTINUOUS
10
13.0881112909
20
-13.3688416459
11
13.2376533615
21
-13.4436126812
0
LINE
5
278
100
AcDbEntity
8
0
100
AcDbLine
62
7
6
CONTINUOUS
10
13.1291850575
20
-13.3769002202
11
13.2787271281
21
-13.4516712555
0
LINE
5
279
100
AcDbEntity
8
0
100
AcDbLine
62
7
6
CONTINUOUS
10
-5.4470396325
20
-2.9903146884
11
-5.2767577054
21
-3.0754556519
0
LINE
5
27A
100
AcDbEntity
8
0
100
AcDbLine
62
7
6
CONTINUOUS
10
-5.7650978695
20
-4.1337382691
11
-6.6066441822
21
-3.7129270848
0
LINE
5
27B
100
AcDbEntity
8
0
100
AcDbLine
62
3
6
CONTINUOUS
10
-5.4470396325
20
-2.9903146884
11
-5.4470396325
21
-2.6872057971
0
LINE
5
27C
100
AcDbEntity
8
0
100
AcDbLine
62
7
6
CONTINUOUS
10
-5.2349075981
20
22.9527877786
11
-5.2349075981
21
24.3815484708
0
LINE
5
27D
100
AcDbEntity
8
0
100
AcDbLine
62
9
6
CONTINUOUS
10
-4.7066404264
20
24.6449872908
11
-4.7066404264
21
24.2974557741
0
LINE
5
27E
100
AcDbEntity
8
0
100
AcDbLine
62
7
6
CONTINUOUS
10
-4.6344425694
20
24.7328599230
11
-4.6344425694
21
24.3853284062
0
LINE
5
27F
100
AcDbEntity
8
0
100
AcDbLine
62
7
6
CONTINUOUS
10
-4.3094980422
20
22.6341159235
11
-4.3094980422
21
21.1879531577
0
LINE
5
280
100
AcDbEntity
8
0
100
AcDbLine
62
7
6
CONTINUOUS
10
-3.6439173404
20
20.8551628069
11
-3.6439173404
21
22.3013255726
0
LINE
5
281
100
AcDbEntity
8
0
100
AcDbLine
62
7
6
CONTINUOUS
10
-2.9368105592
20
22.4877170173
11
-2.9368105592
21
21.2541026657
0
LINE
5
282
100
AcDbEntity
8
0
100
AcDbLine
62
9
6
CONTINUOUS
10
7.0687503945
20
17.5026746220
11
7.5970175663
21
18.1456267777
0
LINE
5
283
100
AcDbEntity
8
0
100
AcDbLine
62
7
6
CONTINUOUS
10
7.0687503945
20
17.4131441556
11
7.6123781387
21
18.0747916112
0
LINE
5
284
100
AcDbEntity
8
0
100
AcDbLine
62
9
6
CONTINUOUS
10
13.3276779350
20
18.5105565472
11
13.3277189416
21
18.5105959188
0
LINE
5
285
100
AcDbEntity
8
0
100
AcDbLine
62
9
6
CONTINUOUS
10
8.4946894220
20
13.9483577055
11
13.3319344988
21
18.5848513263
0
LINE
5
286
100
AcDbEntity
8
0
100
AcDbLine
62
7
6
CONTINUOUS
10
8.4946894220
20
13.8781428377
11
13.3276779350
21
18.5105565472
0
LINE
5
287
100
AcDbEntity
8
0
100
AcDbLine
62
3
6
CONTINUOUS
10
-5.8798342535
20
-4.6027235781
11
-6.0834357355
21
-4.6206737954
0
LINE
5
288
100
AcDbEntity
8
0
100
AcDbLine
62
7
6
CONTINUOUS
10
-5.4470396325
20
-2.6872057971
11
-5.0734750866
21
-2.8739880700
0
LINE
5
289
100
AcDbEntity
8
0
100
AcDbLine
62
9
6
CONTINUOUS
10
-4.3651312880
20
-2.9604865492
11
-4.7874469712
21
-2.7493287077
0
LINE
5
28A
100
AcDbEntity
8
0
100
AcDbLine
62
9
6
CONTINUOUS
10
-5.7569535491
20
-2.2645754187
11
-6.9388726316
21
-1.6736158774
0
LINE
5
28B
100
AcDbEntity
8
0
100
AcDbLine
62
9
6
CONTINUOUS
10
-4.7068350005
20
-1.6823220561
11
-4.3638522143
21
-1.8538134492
0
LINE
5
28C
100
AcDbEntity
8
0
100
AcDbLine
62
7
6
CONTINUOUS
10
-7.4736693281
20
-0.2192882423
11
-6.2925388169
21
-0.8098534979
0
LINE
5
28D
100
AcDbEntity
8
0
100
AcDbLine
62
7
6
CONTINUOUS
10
-5.3154866217
20
-1.2983795403
11
-4.3636664084
21
-1.7742897021
0
LINE
5
28E
100
AcDbEntity
8
0
100
AcDbLine
62
7
6
CONTINUOUS
10
-6.6066448274
20
-0.1692234062
11
-5.6248676145
21
-0.6601120125
0
LINE
5
28F
100
AcDbEntity
8
0
100
AcDbLine
62
9
6
CONTINUOUS
10
-1.3104649625
20
20.4409298673
11
-1.3104649625
21
21.6745442190
0
LINE
5
290
100
AcDbEntity
8
0
100
AcDbLine
62
9
6
CONTINUOUS
10
-1.0276222500
20
20.4500071610
11
-1.0276222500
21
21.6745442190
0
LINE
5
291
100
AcDbEntity
8
0
100
AcDbLine
62
7
6
CONTINUOUS
10
-0.1083834345
20
22.1306367548
11
-0.1083834345
21
20.9187079693
0
LINE
5
292
100
AcDbEntity
8
0
100
AcDbLine
62
7
6
CONTINUOUS
10
0.3280126686
20
20.8967267597
11
0.3280126686
21
19.6657712744
0
LINE
5
293
100
AcDbEntity
8
0
100
AcDbLine
62
9
6
CONTINUOUS
10
0.3865913123
20
20.8260160815
11
0.3865913123
21
19.5924017299
0
LINE
5
294
100
AcDbEntity
8
0
100
AcDbLine
62
3
6
CONTINUOUS
10
-5.4470396325
20
-2.6872057971
11
-4.7068350005
21
-1.6823220561
0
LINE
5
295
100
AcDbEntity
8
0
100
AcDbLine
62
7
6
CONTINUOUS
10
-4.7711405480
20
-2.6890747058
11
-4.3643983816
21
-2.1368914687
0
LINE
5
296
100
AcDbEntity
8
0
100
AcDbLine
62
7
6
CONTINUOUS
10
-6.9388726316
20
-1.6736158774
11
-5.5962029703
21
-1.0005356240
0
LINE
5
297
100
AcDbEntity
8
0
100
AcDbLine
62
9
6
CONTINUOUS
10
-4.7753450476
20
-1.7753296239
11
-5.7569535491
21
-2.2645754187
0
LINE
5
298
100
AcDbEntity
8
0
100
AcDbLine
62
7
6
CONTINUOUS
10
1.3058301279
20
19.8264518385
11
1.3058301279
21
18.3802890727
0
LINE
5
299
100
AcDbEntity
8
0
100
AcDbLine
62
7
6
CONTINUOUS
10
1.9714108296
20
18.0474987218
11
1.9714108296
21
19.4936614876
0
LINE
5
29A
100
AcDbEntity
8
0
100
AcDbLine
62
9
6
CONTINUOUS
10
2.7532475085
20
24.0838004315
11
2.7532475085
21
25.4677565345
0
LINE
5
29B
100
AcDbEntity
8
0
100
AcDbLine
62
7
6
CONTINUOUS
10
2.8859406461
20
24.2423636722
11
2.8859406461
21
25.4902275460
0
LINE
5
29C
100
AcDbEntity
8
0
100
AcDbLine
62
7
6
CONTINUOUS
10
3.0382417418
20
18.6428231399
11
3.0382417418
21
20.0284637859
0
LINE
5
29D
100
AcDbEntity
8
0
100
AcDbLine
62
7
6
CONTINUOUS
10
3.3631862689
20
18.3551675777
11
3.3631862689
21
18.0151936435
0
LINE
5
29E
100
AcDbEntity
8
0
100
AcDbLine
62
9
6
CONTINUOUS
10
3.4364095737
20
18.2667792300
11
3.4364095737
21
17.9268052959
0
LINE
5
29F
100
AcDbEntity
8
0
100
AcDbLine
62
7
6
CONTINUOUS
10
-4.8783335406
20
-2.7443854092
11
-4.3648702925
21
-2.4794425922
0
LINE
5
2A0
100
AcDbEntity
8
0
100
AcDbLine
62
9
6
CONTINUOUS
10
-4.7874469712
20
-2.7493287077
11
-4.3649101997
21
-2.5313032055
0
LINE
5
2A1
100
AcDbEntity
8
0
100
AcDbLine
62
7
6
CONTINUOUS
10
-6.3250186197
20
-3.7120322667
11
-5.4044804009
21
-3.2499733081
0
LINE
5
2A2
100
AcDbEntity
8
0
100
AcDbLine
62
7
6
CONTINUOUS
10
-7.5541394088
20
-4.9195854911
11
-6.7018051457
21
-4.4917611228
0
LINE
5
2A3
100
AcDbEntity
8
0
100
AcDbLine
62
9
6
CONTINUOUS
10
-5.1412758011
20
-2.2721082829
11
-5.6159489448
21
-2.5086912374
0
LINE
5
2A4
100
AcDbEntity
8
0
100
AcDbLine
62
9
6
CONTINUOUS
10
-13.4873573084
20
9.7873094635
11
1.3774194542
21
2.3549210822
0
LINE
5
2A5
100
AcDbEntity
8
0
100
AcDbLine
62
7
6
CONTINUOUS
10
4.0661792232
20
17.5091886692
11
4.0661792232
21
17.2224143606
0
LINE
5
2A6
100
AcDbEntity
8
0
100
AcDbLine
62
9
6
CONTINUOUS
10
4.1394025279
20
17.4725770168
11
4.1394025279
21
17.1278683571
0
LINE
5
2A7
100
AcDbEntity
8
0
100
AcDbLine
62
9
6
CONTINUOUS
10
5.1149476441
20
-24.5520418128
11
5.1149476441
21
-24.2120678787
0
LINE
5
2A8
100
AcDbEntity
8
0
100
AcDbLine
62
9
6
CONTINUOUS
10
5.1149476441
20
17.0875362607
11
5.1149476441
21
17.4275101948
0
LINE
5
2A9
100
AcDbEntity
8
0
100
AcDbLine
62
9
6
CONTINUOUS
10
5.4674696037
20
-24.5525545367
11
5.4674696037
21
-24.2125806026
0
LINE
5
2AA
100
AcDbEntity
8
0
100
AcDbLine
62
9
6
CONTINUOUS
10
5.4674696037
20
17.0870235368
11
5.4674696037
21
17.4269974709
0
LINE
5
2AB
100
AcDbEntity
8
0
100
AcDbLine
62
9
6
CONTINUOUS
10
5.8261682522
20
-23.2355714016
11
5.8261682522
21
-23.1251780428
0
LINE
5
2AC
100
AcDbEntity
8
0
100
AcDbLine
62
9
6
CONTINUOUS
10
5.8261682522
20
16.2844854950
11
5.8261682522
21
16.8008483982
0
LINE
5
2AD
100
AcDbEntity
8
0
100
AcDbLine
62
9
6
CONTINUOUS
10
6.1786902118
20
-23.3610841254
11
6.1786902118
21
-22.9772036431
0
LINE
5
2AE
100
AcDbEntity
8
0
100
AcDbLine
62
9
6
CONTINUOUS
10
6.1786902118
20
16.3042778610
11
6.1786902118
21
16.9385200140
0
LINE
5
2AF
100
AcDbEntity
8
0
100
AcDbLine
62
7
6
CONTINUOUS
10
6.2555775962
20
24.5979742545
11
6.2555775962
21
24.1337959408
0
LINE
5
2B0
100
AcDbEntity
8
0
100
AcDbLine
62
7
6
CONTINUOUS
10
7.0687503945
20
-22.6035925314
11
7.0687503945
21
-23.7725199370
0
LINE
5
2B1
100
AcDbEntity
8
0
100
AcDbLine
62
7
6
CONTINUOUS
10
7.0687503945
20
16.8009587823
11
7.0687503945
21
18.2297194744
0
LINE
5
2B2
100
AcDbEntity
8
0
100
AcDbLine
62
9
6
CONTINUOUS
10
7.5970175663
20
18.4931582945
11
7.5970175663
21
18.1456267777
0
LINE
5
2B3
100
AcDbEntity
8
0
100
AcDbLine
62
9
6
CONTINUOUS
10
7.5970175663
20
-23.1539773616
11
7.5970175663
21
-23.5015088784
0
LINE
5
2B4
100
AcDbEntity
8
0
100
AcDbLine
62
7
6
CONTINUOUS
10
7.6692154233
20
18.5810309267
11
7.6692154233
21
18.2334994099
0
LINE
5
2B5
100
AcDbEntity
8
0
100
AcDbLine
62
7
6
CONTINUOUS
10
7.6692154233
20
-23.0661047295
11
7.6692154233
21
-23.4136362462
0
LINE
5
2B6
100
AcDbEntity
8
0
100
AcDbLine
62
7
6
CONTINUOUS
10
7.7761657171
20
15.8408631061
11
7.7761657171
21
15.5810408292
0
LINE
5
2B7
100
AcDbEntity
8
0
100
AcDbLine
62
7
6
CONTINUOUS
10
7.7761657171
20
-22.0910788912
11
7.7761657171
21
-21.8312566143
0
LINE
5
2B8
100
AcDbEntity
8
0
100
AcDbLine
62
9
6
CONTINUOUS
10
8.3455524079
20
21.2894984099
11
8.3455524079
21
21.7638997853
0
LINE
5
2B9
100
AcDbEntity
8
0
100
AcDbLine
62
9
6
CONTINUOUS
10
8.3455524079
20
22.1200756518
11
8.3455524079
21
22.6732463749
0
LINE
5
2BA
100
AcDbEntity
8
0
100
AcDbLine
62
7
6
CONTINUOUS
10
8.4763872591
20
21.4471400599
11
8.4763872591
21
22.6950327551
0
LINE
5
2BB
100
AcDbEntity
8
0
100
AcDbLine
62
7
6
CONTINUOUS
10
8.4771016709
20
16.1924635220
11
8.4771016709
21
15.4376796335
0
LINE
5
2BC
100
AcDbEntity
8
0
100
AcDbLine
62
7
6
CONTINUOUS
10
8.4771016709
20
-21.0041268961
11
8.4771016709
21
-21.7294016985
0
LINE
5
2BD
100
AcDbEntity
8
0
100
AcDbLine
62
7
6
CONTINUOUS
10
8.4946894220
20
15.4288857579
11
8.4946894220
21
-20.9834116856
0
LINE
5
2BE
100
AcDbEntity
8
0
100
AcDbLine
62
9
6
CONTINUOUS
10
7.6692154233
20
-23.4136362285
11
7.6692152783
21
-23.4137708699
0
LINE
5
2BF
100
AcDbEntity
8
0
100
AcDbLine
62
9
6
CONTINUOUS
10
7.6692154233
20
-23.0661047293
11
7.6692151415
21
-23.0662924000
0
LINE
5
2C0
100
AcDbEntity
8
0
100
AcDbLine
62
9
6
CONTINUOUS
10
-12.7994579436
20
20.2851895382
11
2.0896219158
21
12.8406496085
0
LINE
5
2C1
100
AcDbEntity
8
0
100
AcDbLine
62
9
6
CONTINUOUS
10
13.3319344988
20
20.0763173504
11
13.3319344988
21
18.5848513263
0
LINE
5
2C2
100
AcDbEntity
8
0
100
AcDbLine
62
9
6
CONTINUOUS
10
13.3319344988
20
-13.7006476202
11
13.3319344988
21
-15.8211139893
0
LINE
5
2C3
100
AcDbEntity
8
0
100
AcDbLine
62
7
6
CONTINUOUS
10
13.3892844090
20
20.1072589427
11
13.3892844090
21
18.6549422527
0
LINE
5
2C4
100
AcDbEntity
8
0
100
AcDbLine
62
7
6
CONTINUOUS
10
13.3892844090
20
-13.6305566937
11
13.3892844090
21
-15.7531324260
0
LINE
5
2C5
100
AcDbEntity
8
0
100
AcDbLine
62
9
6
CONTINUOUS
10
13.7334409023
20
20.7259519682
11
13.7334409023
21
20.2929392663
0
LINE
5
2C6
100
AcDbEntity
8
0
100
AcDbLine
62
9
6
CONTINUOUS
10
13.7334409023
20
-16.2246335544
11
13.7334409023
21
-16.6576462563
0
LINE
5
2C7
100
AcDbEntity
8
0
100
AcDbLine
62
7
6
CONTINUOUS
10
13.8737710021
20
21.0265883225
11
13.8737710021
21
20.4717519322
0
LINE
5
2C8
100
AcDbEntity
8
0
100
AcDbLine
62
7
6
CONTINUOUS
10
13.8737710021
20
-16.0561170350
11
13.8737710021
21
-16.6109534253
0
LINE
5
2C9
100
AcDbEntity
8
0
100
AcDbLine
62
9
6
CONTINUOUS
10
-12.1430435766
20
21.3548736703
11
2.7575949165
21
13.9045544238
0
LINE
5
2CA
100
AcDbEntity
8
0
100
AcDbLine
62
7
6
CONTINUOUS
10
7.7761657171
20
15.5810408292
11
8.4771016709
21
15.4376796335
0
LINE
5
2CB
100
AcDbEntity
8
0
100
AcDbLine
62
7
6
CONTINUOUS
10
5.2406261102
20
16.9312023760
11
5.8649239960
21
16.8008483982
0
LINE
5
2CC
100
AcDbEntity
8
0
100
AcDbLine
62
9
6
CONTINUOUS
10
5.4674696037
20
17.0870235368
11
6.1786902118
21
16.9385200140
0
LINE
5
2CD
100
AcDbEntity
8
0
100
AcDbLine
62
7
6
CONTINUOUS
10
8.4946894220
20
15.4288857579
11
7.8112125148
21
15.5738727694
0
LINE
5
2CE
100
AcDbEntity
8
0
100
AcDbLine
62
9
6
CONTINUOUS
10
-8.2982753990
20
23.0397196770
11
-6.6115096748
21
22.1963368149
0
LINE
5
2CF
100
AcDbEntity
8
0
100
AcDbLine
62
9
6
CONTINUOUS
10
4.0053825936
20
16.8878906807
11
5.6921483178
21
16.0445078186
0
LINE
5
2D0
100
AcDbEntity
8
0
100
AcDbLine
62
7
6
CONTINUOUS
10
-4.3094980422
20
21.1879531577
11
-3.6439173404
21
20.8551628069
0
LINE
5
2D1
100
AcDbEntity
8
0
100
AcDbLine
62
7
6
CONTINUOUS
10
1.3058301279
20
18.3802890727
11
1.9714108296
21
18.0474987218
0
LINE
5
2D2
100
AcDbEntity
8
0
100
AcDbLine
62
9
6
CONTINUOUS
10
-8.1642554647
20
23.2796973534
11
-6.4774897405
21
22.4363144913
0
LINE
5
2D3
100
AcDbEntity
8
0
100
AcDbLine
62
9
6
CONTINUOUS
10
4.1394025279
20
17.1278683571
11
5.8261682522
21
16.2844854950
0
LINE
5
2D4
100
AcDbEntity
8
0
100
AcDbLine
62
7
6
CONTINUOUS
10
-8.8022751226
20
23.9434158421
11
-7.1237370522
21
23.1041468069
0
LINE
5
2D5
100
AcDbEntity
8
0
100
AcDbLine
62
7
6
CONTINUOUS
10
3.5013828701
20
17.7915868458
11
5.1799209405
21
16.9523178106
0
LINE
5
2D6
100
AcDbEntity
8
0
100
AcDbLine
62
9
6
CONTINUOUS
10
-8.8672484190
20
24.0786342922
11
-7.1887103486
21
23.2393652570
0
LINE
5
2D7
100
AcDbEntity
8
0
100
AcDbLine
62
9
6
CONTINUOUS
10
3.4364095737
20
17.9268052959
11
5.1149476441
21
17.0875362607
0
LINE
5
2D8
100
AcDbEntity
8
0
100
AcDbLine
62
7
6
CONTINUOUS
10
8.4771016709
20
15.4376796335
11
8.4946894220
21
15.4288857579
0
LINE
5
2D9
100
AcDbEntity
8
0
100
AcDbLine
62
7
6
CONTINUOUS
10
1.3058301279
20
19.1327823221
11
0.3865913123
21
19.5924017299
0
LINE
5
2DA
100
AcDbEntity
8
0
100
AcDbLine
62
7
6
CONTINUOUS
10
-1.3104649625
20
20.4409298673
11
-2.9368105592
21
21.2541026657
0
LINE
5
2DB
100
AcDbEntity
8
0
100
AcDbLine
62
9
6
CONTINUOUS
10
5.1149476441
20
17.4275101948
11
3.4364095737
21
18.2667792300
0
LINE
5
2DC
100
AcDbEntity
8
0
100
AcDbLine
62
9
6
CONTINUOUS
10
-7.1887103486
20
23.5793391911
11
-8.8672484190
21
24.4186082263
0
LINE
5
2DD
100
AcDbEntity
8
0
100
AcDbLine
62
7
6
CONTINUOUS
10
-0.8154902157
20
20.5696891186
11
0.3280126686
21
19.9979376765
0
LINE
5
2DE
100
AcDbEntity
8
0
100
AcDbLine
62
7
6
CONTINUOUS
10
7.4226168139
20
16.4506356038
11
7.2101310837
21
16.5568784689
0
LINE
5
2DF
100
AcDbEntity
8
0
100
AcDbLine
62
7
6
CONTINUOUS
10
3.3900573406
20
18.4669153405
11
3.0382417418
21
18.6428231399
0
LINE
5
2E0
100
AcDbEntity
8
0
100
AcDbLine
62
7
6
CONTINUOUS
10
-4.3094980422
20
22.3166930318
11
-5.0935269089
21
22.7087074652
0
LINE
5
2E1
100
AcDbEntity
8
0
100
AcDbLine
62
9
6
CONTINUOUS
10
5.2906959000
20
17.7318870098
11
3.6121578296
21
18.5711560450
0
LINE
5
2E2
100
AcDbEntity
8
0
100
AcDbLine
62
9
6
CONTINUOUS
10
-7.0129620926
20
23.8837160061
11
-8.6915001630
21
24.7229850413
0
LINE
5
2E3
100
AcDbEntity
8
0
100
AcDbLine
62
7
6
CONTINUOUS
10
-4.3094980422
20
22.6341159235
11
-3.6439173404
21
22.3013255726
0
LINE
5
2E4
100
AcDbEntity
8
0
100
AcDbLine
62
7
6
CONTINUOUS
10
1.3058301279
20
19.8264518385
11
1.9714108296
21
19.4936614876
0
LINE
5
2E5
100
AcDbEntity
8
0
100
AcDbLine
62
7
6
CONTINUOUS
10
8.1235527677
20
16.8022360197
11
7.0687503945
21
17.3296372063
0
LINE
5
2E6
100
AcDbEntity
8
0
100
AcDbLine
62
7
6
CONTINUOUS
10
-4.5319146438
20
23.1299697254
11
-5.2349075981
21
23.4814662026
0
LINE
5
2E7
100
AcDbEntity
8
0
100
AcDbLine
62
7
6
CONTINUOUS
10
0.3280126686
20
20.7005099178
11
-0.1083834345
21
20.9187079693
0
LINE
5
2E8
100
AcDbEntity
8
0
100
AcDbLine
62
9
6
CONTINUOUS
10
1.8419548828
20
20.0983342963
11
0.3865913123
21
20.8260160815
0
LINE
5
2E9
100
AcDbEntity
8
0
100
AcDbLine
62
9
6
CONTINUOUS
10
-1.3104649625
20
21.6745442190
11
-2.9368105592
21
22.4877170173
0
LINE
5
2EA
100
AcDbEntity
8
0
100
AcDbLine
62
9
6
CONTINUOUS
10
2.1535355138
20
20.2563447352
11
0.5271899171
21
21.0695175335
0
LINE
5
2EB
100
AcDbEntity
8
0
100
AcDbLine
62
9
6
CONTINUOUS
10
-1.1698663577
20
21.9180456709
11
-2.7962119545
21
22.7312184693
0
LINE
5
2EC
100
AcDbEntity
8
0
100
AcDbLine
62
7
6
CONTINUOUS
10
-3.2550086108
20
23.1750889622
11
-0.9569115719
21
22.0260404428
0
LINE
5
2ED
100
AcDbEntity
8
0
100
AcDbLine
62
7
6
CONTINUOUS
10
0.7401447029
20
21.1775123053
11
3.0382417418
21
20.0284637859
0
LINE
5
2EE
100
AcDbEntity
8
0
100
AcDbLine
62
7
6
CONTINUOUS
10
7.8112125148
20
-21.7884246741
11
7.7761657171
21
-21.8312566143
0
LINE
5
2EF
100
AcDbEntity
8
0
100
AcDbLine
62
9
6
CONTINUOUS
10
5.8256540238
20
-23.2353142874
11
5.2033359917
21
-23.9803737049
0
LINE
5
2F0
100
AcDbEntity
8
0
100
AcDbLine
62
9
6
CONTINUOUS
10
6.1786902118
20
-23.3610841254
11
5.4674696037
21
-24.2125806026
0
LINE
5
2F1
100
AcDbEntity
8
0
100
AcDbLine
62
7
6
CONTINUOUS
10
8.4946894220
20
-20.9834116856
11
7.8112125148
21
-21.7884246741
0
LINE
5
2F2
100
AcDbEntity
8
0
100
AcDbLine
62
7
6
CONTINUOUS
10
13.7334409023
20
-16.2246335544
11
8.4946894220
21
-18.8230929092
0
LINE
5
2F3
100
AcDbEntity
8
0
100
AcDbLine
62
7
6
CONTINUOUS
10
13.3319344988
20
-15.8211139893
11
8.4946894220
21
-18.1780011381
0
LINE
5
2F4
100
AcDbEntity
8
0
100
AcDbLine
62
7
6
CONTINUOUS
10
-7.0630318824
20
23.0830313724
11
-6.4387324602
21
22.9526770738
0
LINE
5
2F5
100
AcDbEntity
8
0
100
AcDbLine
62
9
6
CONTINUOUS
10
-6.8361883889
20
23.2388525331
11
-6.1249677808
21
23.0903490103
0
LINE
5
2F6
100
AcDbEntity
8
0
100
AcDbLine
62
7
6
CONTINUOUS
10
6.8919766909
20
18.5346090133
11
5.1949144328
21
19.3831401423
0
LINE
5
2F7
100
AcDbEntity
8
0
100
AcDbLine
62
7
6
CONTINUOUS
10
-5.4116813018
20
24.6864380096
11
-7.1087435599
21
25.5349691386
0
LINE
5
2F8
100
AcDbEntity
8
0
100
AcDbLine
62
7
6
CONTINUOUS
10
3.0735970808
20
20.7128545092
11
1.4472514841
21
21.5260273075
0
LINE
5
2F9
100
AcDbEntity
8
0
100
AcDbLine
62
7
6
CONTINUOUS
10
-0.2498047907
20
22.3745554449
11
-1.8761503875
21
23.1877282433
0
LINE
5
2FA
100
AcDbEntity
8
0
100
AcDbLine
62
9
6
CONTINUOUS
10
-6.5742936812
20
25.7953166052
11
-4.8834141300
21
24.9498768296
0
LINE
5
2FB
100
AcDbEntity
8
0
100
AcDbLine
62
9
6
CONTINUOUS
10
5.7293643115
20
19.6434876089
11
7.4202438626
21
18.7980478333
0
LINE
5
2FC
100
AcDbEntity
8
0
100
AcDbLine
62
7
6
CONTINUOUS
10
-6.4635187216
20
25.8019064963
11
-4.7726391705
21
24.9564667207
0
LINE
5
2FD
100
AcDbEntity
8
0
100
AcDbLine
62
7
6
CONTINUOUS
10
5.8401392710
20
19.6500775000
11
7.5310188222
21
18.8046377244
0
LINE
5
2FE
100
AcDbEntity
8
0
100
AcDbLine
62
9
6
CONTINUOUS
10
7.7761657171
20
-22.0910788912
11
8.4771016709
21
-21.7294016985
0
LINE
5
2FF
100
AcDbEntity
8
0
100
AcDbLine
62
7
6
CONTINUOUS
10
7.6483605137
20
-22.3604206453
11
8.3492913292
21
-21.9987461039
0
LINE
5
300
100
AcDbEntity
8
0
100
AcDbLine
62
7
6
CONTINUOUS
10
12.8457051086
20
-17.2211066982
11
8.4946894220
21
-19.4022707072
0
LINE
5
301
100
AcDbEntity
8
0
100
AcDbLine
62
7
6
CONTINUOUS
10
13.7334409023
20
-16.6576462563
11
8.4946894220
21
-19.2561056111
0
LINE
5
302
100
AcDbEntity
8
0
100
AcDbLine
62
9
6
CONTINUOUS
10
3.1234276565
20
-24.0430450991
11
7.7752564807
21
-22.0903963096
0
LINE
5
303
100
AcDbEntity
8
0
100
AcDbLine
62
7
6
CONTINUOUS
10
2.9696204111
20
-24.3242407975
11
7.6339440555
21
-22.3663471899
0
LINE
5
304
100
AcDbEntity
8
0
100
AcDbLine
62
7
6
CONTINUOUS
10
6.2555775962
20
24.1337959408
11
4.5070936732
21
24.0389768427
0
LINE
5
305
100
AcDbEntity
8
0
100
AcDbLine
62
7
6
CONTINUOUS
10
4.5070936732
20
24.0389768427
11
7.1454813405
21
22.7197830091
0
LINE
5
306
100
AcDbEntity
8
0
100
AcDbLine
62
9
6
CONTINUOUS
10
8.3127338109
20
22.6587729198
11
7.6718480372
21
22.9792158067
0
LINE
5
307
100
AcDbEntity
8
0
100
AcDbLine
62
9
6
CONTINUOUS
10
2.7221005689
20
25.4540895408
11
2.0812147952
21
25.7745324277
0
LINE
5
308
100
AcDbEntity
8
0
100
AcDbLine
62
7
6
CONTINUOUS
10
8.4713671268
20
22.7034110037
11
7.9561687107
21
22.9610102117
0
LINE
5
309
100
AcDbEntity
8
0
100
AcDbLine
62
7
6
CONTINUOUS
10
2.8808803225
20
25.4986544058
11
2.3656807686
21
25.7562541827
0
LINE
5
30A
100
AcDbEntity
8
0
100
AcDbLine
62
7
6
CONTINUOUS
10
9.1635281542
20
22.6798206618
11
6.2555775962
21
24.1337959408
0
LINE
5
30B
100
AcDbEntity
8
0
100
AcDbLine
62
9
6
CONTINUOUS
10
2.5021047231
20
26.6377284150
11
5.5525845723
21
25.1124884904
0
LINE
5
30C
100
AcDbEntity
8
0
100
AcDbLine
62
9
6
CONTINUOUS
10
9.7952252594
20
22.9911681469
11
12.8457051086
21
21.4659282223
0
LINE
5
30D
100
AcDbEntity
8
0
100
AcDbLine
62
7
6
CONTINUOUS
10
2.7857041070
20
26.7438382066
11
5.9956844105
21
25.1388480549
0
LINE
5
30E
100
AcDbEntity
8
0
100
AcDbLine
62
7
6
CONTINUOUS
10
10.2383250976
20
23.0175277113
11
13.4483054011
21
21.4125375596
0
LINE
5
30F
100
AcDbEntity
8
0
100
AcDbLine
62
9
6
CONTINUOUS
10
7.0687503945
20
-23.7725199370
11
7.5970175663
21
-23.5015088784
0
LINE
5
310
100
AcDbEntity
8
0
100
AcDbLine
62
7
6
CONTINUOUS
10
7.0046472652
20
-23.9072966973
11
7.5333295288
21
-23.6360726887
0
LINE
5
311
100
AcDbEntity
8
0
100
AcDbLine
62
7
6
CONTINUOUS
10
7.0046452915
20
-23.9072977098
11
7.0029088797
21
-23.9081659300
0
LINE
5
312
100
AcDbEntity
8
0
100
AcDbLine
62
9
6
CONTINUOUS
10
5.4013721510
20
-24.6883250068
11
5.4012079999
21
-24.6884051683
0
LINE
5
313
100
AcDbEntity
8
0
100
AcDbLine
62
9
6
CONTINUOUS
10
5.4674696037
20
-24.5525545367
11
7.0687503945
21
-23.7725199370
0
LINE
5
314
100
AcDbEntity
8
0
100
AcDbLine
62
7
6
CONTINUOUS
10
5.4012080111
20
-24.6884051629
11
7.0029061141
21
-23.9081672773
0
SPLINE
5
315
100
AcDbEntity
8
0
100
AcDbSpline
62
7
6
CONTINUOUS
70
0
71
3
72
9
73
5
74
3
42
0.0000001000
43
0.0000001000
44
0.0000000001
12
0.0000000000
22
0.0891005032
32
0.0000000000
13
-0.0387780322
23
0.0807116777
33
0.0000000000
40
0.0000000000
40
0.0000000000
40
0.0000000000
40
0.0000000000
40
0.7480217723
40
1.0000000000
40
1.0000000000
40
1.0000000000
40
1.0000000000
10
13.3892844090
20
-13.6305566937
30
0.0000000000
10
13.3892844090
20
-13.6083403216
30
0.0000000000
10
13.3842457796
20
-13.5784047569
30
0.0000000000
10
13.3728317800
20
-13.5507637184
30
0.0000000000
10
13.3695747067
20
-13.5439845232
30
0.0000000000
11
13.3892844090
21
-13.6305566937
31
0.0000000000
11
13.3781791472
21
-13.5648392846
31
0.0000000000
11
13.3695747067
21
-13.5439845232
31
0.0000000000
0
SPLINE
5
316
100
AcDbEntity
8
0
100
AcDbSpline
62
7
6
CONTINUOUS
70
0
71
3
72
10
73
6
74
4
42
0.0000001000
43
0.0000001000
44
0.0000000001
12
-0.0571600707
22
0.1189716172
32
0.0000000000
13
-0.1182838476
23
0.0589945760
33
0.0000000000
40
0.0000000000
40
0.0000000000
40
0.0000000000
40
0.0000000000
40
0.3431086311
40
0.8589721392
40
1.0000000000
40
1.0000000000
40
1.0000000000
40
1.0000000000
10
13.3695747067
20
-13.5439845232
30
0.0000000000
10
13.3630373355
20
-13.5303777936
30
0.0000000000
10
13.3428285081
20
-13.4981866926
30
0.0000000000
10
13.3095066373
20
-13.4685336644
30
0.0000000000
10
13.2842018913
20
-13.4544138267
30
0.0000000000
10
13.2786414520
20
-13.4516405338
30
0.0000000000
11
13.3695747067
21
-13.5439845232
31
0.0000000000
11
13.3455504333
21
-13.5057330996
31
0.0000000000
11
13.2949097873
21
-13.4607236008
31
0.0000000000
11
13.2786414520
21
-13.4516405338
31
0.0000000000
0
SPLINE
5
317
100
AcDbEntity
8
0
100
AcDbSpline
62
7
6
CONTINUOUS
70
0
71
3
72
9
73
5
74
3
42
0.0000001000
43
0.0000001000
44
0.0000000001
12
-0.0774720224
22
0.0387360112
32
0.0000000000
13
-0.0867835590
23
0.0025651149
33
0.0000000000
40
0.0000000000
40
0.0000000000
40
0.0000000000
40
0.0000000000
40
0.4979762468
40
1.0000000000
40
1.0000000000
40
1.0000000000
40
1.0000000000
10
13.1291850575
20
-13.3769002202
30
0.0000000000
10
13.1163253152
20
-13.3704703491
30
0.0000000000
10
13.0890082120
20
-13.3603221654
30
0.0000000000
10
13.0602069668
20
-13.3563032006
30
0.0000000000
10
13.0456844975
20
-13.3558739511
30
0.0000000000
11
13.1291850575
21
-13.3769002202
31
0.0000000000
11
13.0887507401
21
-13.3618831660
31
0.0000000000
11
13.0456844975
21
-13.3558739511
31
0.0000000000
0
SPLINE
5
318
100
AcDbEntity
8
0
100
AcDbSpline
62
7
6
CONTINUOUS
70
0
71
3
72
8
73
4
74
2
42
0.0000001000
43
0.0000001000
44
0.0000000001
12
-0.0159084877
22
0.0004702169
32
0.0000000000
13
-0.0158993375
23
-0.0007951108
33
0.0000000000
40
0.0000000000
40
0.0000000000
40
0.0000000000
40
0.0000000000
40
1.0000000000
40
1.0000000000
40
1.0000000000
40
1.0000000000
10
13.0456844975
20
-13.3558739511
30
0.0000000000
10
13.0403816682
20
-13.3557172121
30
0.0000000000
10
13.0350703644
20
-13.3557722531
30
0.0000000000
10
13.0297705852
20
-13.3560372901
30
0.0000000000
11
13.0456844975
21
-13.3558739511
31
0.0000000000
11
13.0297705852
21
-13.3560372901
31
0.0000000000
0
SPLINE
5
319
100
AcDbEntity
8
0
100
AcDbSpline
62
7
6
CONTINUOUS
70
0
71
3
72
9
73
5
74
3
42
0.0000001000
43
0.0000001000
44
0.0000000001
12
-0.0000015947
22
-0.1237758790
32
0.0000000000
13
-0.0718764896
23
-0.1008148989
33
0.0000000000
40
0.0000000000
40
0.0000000000
40
0.0000000000
40
0.0000000000
40
0.3400814872
40
1.0000000000
40
1.0000000000
40
1.0000000000
40
1.0000000000
10
13.3892497650
20
18.6550145253
30
0.0000000000
10
13.3892495842
20
18.6409832303
30
0.0000000000
10
13.3849689205
20
18.5996313688
30
0.0000000000
10
13.3680689553
20
18.5611895785
30
0.0000000000
10
13.3522580799
20
18.5390130391
30
0.0000000000
11
13.3892497650
21
18.6550145253
31
0.0000000000
11
13.3848785447
21
18.6131937907
31
0.0000000000
11
13.3522580799
21
18.5390130391
31
0.0000000000
0
SPLINE
5
31A
100
AcDbEntity
8
0
100
AcDbSpline
62
7
6
CONTINUOUS
70
0
71
3
72
8
73
4
74
2
42
0.0000001000
43
0.0000001000
44
0.0000000001
12
-0.0218078414
22
-0.0305879619
32
0.0000000000
13
-0.0271279948
23
-0.0260158451
33
0.0000000000
40
0.0000000000
40
0.0000000000
40
0.0000000000
40
0.0000000000
40
1.0000000000
40
1.0000000000
40
1.0000000000
40
1.0000000000
10
13.3522580799
20
18.5390130391
30
0.0000000000
10
13.3449887995
20
18.5288170518
30
0.0000000000
10
13.3367348366
20
18.5192957815
30
0.0000000000
10
13.3276921717
20
18.5106238331
30
0.0000000000
11
13.3522580799
21
18.5390130391
31
0.0000000000
11
13.3276921717
21
18.5106238331
31
0.0000000000
0
SPLINE
5
31B
100
AcDbEntity
8
0
100
AcDbSpline
62
7
6
CONTINUOUS
70
0
71
3
72
9
73
5
74
3
42
0.0000001000
43
0.0000001000
44
0.0000000001
12
-0.0002007026
22
-0.0304864170
32
0.0000000000
13
0.0243268655
23
0.0228657019
33
0.0000000000
40
0.0000000000
40
0.0000000000
40
0.0000000000
40
0.0000000000
40
0.8958974682
40
1.0000000000
40
1.0000000000
40
1.0000000000
40
1.0000000000
10
4.0661833903
20
17.2221851220
30
0.0000000000
10
4.0661234539
20
17.2130808874
30
0.0000000000
10
4.0545488226
20
17.1901279094
30
0.0000000000
10
4.0619410653
20
17.1967355123
30
0.0000000000
10
4.0627852281
20
17.1975289715
30
0.0000000000
11
4.0661833903
21
17.2221851220
31
0.0000000000
11
4.0606075134
21
17.1956801339
31
0.0000000000
11
4.0627852281
21
17.1975289715
31
0.0000000000
0
SPLINE
5
31C
100
AcDbEntity
8
0
100
AcDbSpline
62
7
6
CONTINUOUS
70
0
71
3
72
9
73
5
74
3
42
0.0000001000
43
0.0000001000
44
0.0000000001
12
-0.0002007026
22
-0.0304864170
32
0.0000000000
13
0.0243268655
23
0.0228657019
33
0.0000000000
40
0.0000000000
40
0.0000000000
40
0.0000000000
40
0.0000000000
40
0.8958974682
40
1.0000000000
40
1.0000000000
40
1.0000000000
40
1.0000000000
10
-8.2374746024
20
23.3740141184
30
0.0000000000
10
-8.2375345387
20
23.3649098838
30
0.0000000000
10
-8.2491091701
20
23.3419569057
30
0.0000000000
10
-8.2417169273
20
23.3485645086
30
0.0000000000
10
-8.2408727646
20
23.3493579678
30
0.0000000000
11
-8.2374746024
21
23.3740141184
31
0.0000000000
11
-8.2430504793
21
23.3475091302
31
0.0000000000
11
-8.2408727646
21
23.3493579678
31
0.0000000000
0
SPLINE
5
31D
100
AcDbEntity
8
0
100
AcDbSpline
62
7
6
CONTINUOUS
70
0
71
3
72
11
73
7
74
5
42
0.0000001000
43
0.0000001000
44
0.0000000001
12
0.5798458563
22
-0.2916671602
32
0.0000000000
13
0.5826474204
23
0.2822344508
33
0.0000000000
40
0.0000000000
40
0.0000000000
40
0.0000000000
40
0.0000000000
40
0.1481490967
40
0.4485922251
40
0.7712654936
40
1.0000000000
40
1.0000000000
40
1.0000000000
40
1.0000000000
10
-6.2938534500
20
-0.8091285588
30
0.0000000000
10
-6.2652189033
20
-0.8235319675
30
0.0000000000
10
-6.1748387137
20
-0.8601340809
30
0.0000000000
10
-6.0076160589
20
-0.8828595583
30
0.0000000000
10
-5.8244010459
20
-0.8521110677
30
0.0000000000
10
-5.7133801702
20
-0.8080676780
30
0.0000000000
10
-5.6689563135
20
-0.7865487587
30
0.0000000000
11
-6.2938534500
21
-0.8091285588
31
0.0000000000
11
-6.2047716033
21
-0.8451574524
31
0.0000000000
11
-6.0126875638
21
-0.8727071861
31
0.0000000000
11
-5.8067908452
21
-0.8404539201
31
0.0000000000
11
-5.6689563135
21
-0.7865487587
31
0.0000000000
0
SPLINE
5
31E
100
AcDbEntity
8
0
100
AcDbSpline
62
7
6
CONTINUOUS
70
0
71
3
72
8
73
4
74
2
42
0.0000001000
43
0.0000001000
44
0.0000000001
12
0.0033584305
22
-0.0803466190
32
0.0000000000
13
0.0089948222
23
-0.0799452720
33
0.0000000000
40
0.0000000000
40
0.0000000000
40
0.0000000000
40
0.0000000000
40
1.0000000000
40
1.0000000000
40
1.0000000000
40
1.0000000000
10
-5.6824273141
20
-0.6316833845
30
0.0000000000
10
-5.6813078373
20
-0.6584655909
30
0.0000000000
10
-5.6792893170
20
-0.6852195397
30
0.0000000000
10
-5.6762910430
20
-0.7118679637
30
0.0000000000
11
-5.6824273141
21
-0.6316833845
31
0.0000000000
11
-5.6762910430
21
-0.7118679637
31
0.0000000000
0
SPLINE
5
31F
100
AcDbEntity
8
0
100
AcDbSpline
62
7
6
CONTINUOUS
70
0
71
3
72
11
73
7
74
5
42
0.0000001000
43
0.0000001000
44
0.0000000001
12
0.0801859467
22
-0.7126863855
32
0.0000000000
13
0.6436023723
23
-0.3224254342
33
0.0000000000
40
0.0000000000
40
0.0000000000
40
0.0000000000
40
0.0000000000
40
0.1309666599
40
0.4946765789
40
0.8253548843
40
1.0000000000
40
1.0000000000
40
1.0000000000
40
1.0000000000
10
-5.6762910430
20
-0.7118679637
30
0.0000000000
10
-5.6727904811
20
-0.7429806822
30
0.0000000000
10
-5.6545240341
20
-0.8599537929
30
0.0000000000
10
-5.5891994384
20
-1.0487693176
30
0.0000000000
10
-5.4553944668
20
-1.2134232462
30
0.0000000000
10
-5.3529160771
20
-1.2795103637
30
0.0000000000
10
-5.3154487402
20
-1.2982803728
30
0.0000000000
11
-5.6762910430
21
-0.7118679637
31
0.0000000000
11
-5.6616543543
21
-0.8046516228
31
0.0000000000
11
-5.5723309428
21
-1.0488388618
31
0.0000000000
11
-5.4208041038
21
-1.2302873059
31
0.0000000000
11
-5.3154487402
21
-1.2982803728
31
0.0000000000
0
SPLINE
5
320
100
AcDbEntity
8
0
100
AcDbSpline
62
7
6
CONTINUOUS
70
0
71
3
72
13
73
9
74
7
42
0.0000001000
43
0.0000001000
44
0.0000000001
12
-1.4889476677
22
-0.7680554256
32
0.0000000000
13
-0.0134658572
23
-1.6731164576
33
0.0000000000
40
0.0000000000
40
0.0000000000
40
0.0000000000
40
0.0000000000
40
0.1174590693
40
0.2901449473
40
0.4719081200
40
0.6571960373
40
0.8394651649
40
1.0000000000
40
1.0000000000
40
1.0000000000
40
1.0000000000
10
-4.8782012696
20
-2.7443169187
30
0.0000000000
10
-4.9364980720
20
-2.7743886106
30
0.0000000000
10
-5.0736063679
20
-2.8629371397
30
0.0000000000
10
-5.2646037367
20
-3.0461340707
30
0.0000000000
10
-5.4412929819
20
-3.2916486837
30
0.0000000000
10
-5.5768977698
20
-3.5678656647
30
0.0000000000
10
-5.6612519668
20
-3.8513810836
30
0.0000000000
10
-5.6827203974
20
-4.0427515060
30
0.0000000000
10
-5.6834409772
20
-4.1322826643
30
0.0000000000
11
-4.8782012696
21
-2.7443169187
31
0.0000000000
11
-5.0442841366
21
-2.8500301718
31
0.0000000000
11
-5.2544203653
21
-3.0482195881
31
0.0000000000
11
-5.4328931775
21
-3.2943618117
31
0.0000000000
11
-5.5695050573
21
-3.5725625018
31
0.0000000000
11
-5.6553126818
21
-3.8651217771
31
0.0000000000
11
-5.6834409772
21
-4.1322826643
31
0.0000000000
0
SPLINE
5
321
100
AcDbEntity
8
0
100
AcDbSpline
62
7
6
CONTINUOUS
70
0
71
3
72
10
73
6
74
4
42
0.0000001000
43
0.0000001000
44
0.0000000001
12
-0.0080280609
22
-2.9290795002
32
0.0000000000
13
0.0080560975
23
-2.9290794328
33
0.0000000000
40
0.0000000000
40
0.0000000000
40
0.0000000000
40
0.0000000000
40
0.2892547548
40
0.7132324485
40
1.0000000000
40
1.0000000000
40
1.0000000000
40
1.0000000000
10
-4.3631619517
20
-1.5583853176
30
0.0000000000
10
-4.3639360033
20
-1.8408020418
30
0.0000000000
10
-4.3652938842
20
-2.5371751759
30
0.0000000000
10
-4.3652891297
20
-3.5135392718
30
0.0000000000
10
-4.3639291739
20
-4.2074839837
30
0.0000000000
10
-4.3631590982
20
-4.4874722961
30
0.0000000000
11
-4.3631619517
21
-1.5583853176
31
0.0000000000
11
-4.3648134985
21
-2.4056370375
31
0.0000000000
11
-4.3648057495
21
-3.6475058205
31
0.0000000000
11
-4.3631590982
21
-4.4874722961
31
0.0000000000
0
SPLINE
5
322
100
AcDbEntity
8
0
100
AcDbSpline
62
7
6
CONTINUOUS
70
0
71
3
72
13
73
9
74
7
42
0.0000001000
43
0.0000001000
44
0.0000000001
12
1.1364110514
22
0.5562610340
32
0.0000000000
13
0.4916032375
23
-1.1557468770
33
0.0000000000
40
0.0000000000
40
0.0000000000
40
0.0000000000
40
0.0000000000
40
0.1137028036
40
0.2535067357
40
0.4152226254
40
0.5978577082
40
0.7956153385
40
1.0000000000
40
1.0000000000
40
1.0000000000
40
1.0000000000
10
-6.5172346776
20
-4.4037012346
30
0.0000000000
10
-6.4741636368
20
-4.3826184215
30
0.0000000000
10
-6.3678275440
20
-4.3566770767
30
0.0000000000
10
-6.1925309573
20
-4.3867934480
30
0.0000000000
10
-6.0109597066
20
-4.4820691530
30
0.0000000000
10
-5.8388304040
20
-4.6325694261
30
0.0000000000
10
-5.6878661493
20
-4.8268897467
30
0.0000000000
10
-5.6084485312
20
-4.9764464789
30
0.0000000000
10
-5.5749564775
20
-5.0551854570
30
0.0000000000
11
-6.5172346776
21
-4.4037012346
31
0.0000000000
11
-6.3786375149
21
-4.3682655432
31
0.0000000000
11
-6.2048378518
21
-4.3932587546
31
0.0000000000
11
-6.0231725480
21
-4.4840914079
31
0.0000000000
11
-5.8488373149
21
-4.6331656450
31
0.0000000000
11
-5.6954771236
21
-4.8285388755
31
0.0000000000
11
-5.5749564775
21
-5.0551854570
31
0.0000000000
0
SPLINE
5
323
100
AcDbEntity
8
0
100
AcDbSpline
62
7
6
CONTINUOUS
70
0
71
3
72
9
73
5
74
3
42
0.0000001000
43
0.0000001000
44
0.0000000001
12
0.0060976647
22
0.0089506850
32
0.0000000000
13
-0.0019800126
23
0.0110475113
33
0.0000000000
40
0.0000000000
40
0.0000000000
40
0.0000000000
40
0.0000000000
40
0.9279168381
40
1.0000000000
40
1.0000000000
40
1.0000000000
40
1.0000000000
10
13.8695127762
20
-16.6206670614
30
0.0000000000
10
13.8713988181
20
-16.6178985643
30
0.0000000000
10
13.8741210964
20
-16.6147014278
30
0.0000000000
10
13.8736762187
20
-16.6110130750
30
0.0000000000
10
13.8736286435
20
-16.6107476285
30
0.0000000000
11
13.8695127762
21
-16.6206670614
31
0.0000000000
11
13.8737238986
21
-16.6115422589
31
0.0000000000
11
13.8736286435
21
-16.6107476285
31
0.0000000000
0
SPLINE
5
324
100
AcDbEntity
8
0
100
AcDbSpline
62
7
6
CONTINUOUS
70
0
71
3
72
10
73
6
74
4
42
0.0000001000
43
0.0000001000
44
0.0000000001
12
0.2124984724
22
-0.1062492362
32
0.0000000000
13
0.0005328102
23
-0.2418900837
33
0.0000000000
40
0.0000000000
40
0.0000000000
40
0.0000000000
40
0.0000000000
40
0.4643171770
40
0.8312587962
40
1.0000000000
40
1.0000000000
40
1.0000000000
40
1.0000000000
10
13.7273243927
20
-15.8816186214
30
0.0000000000
10
13.7602132896
20
-15.8980630699
30
0.0000000000
10
13.8164108786
20
-15.9336540799
30
0.0000000000
10
13.8665863147
20
-15.9993351592
30
0.0000000000
10
13.8732663972
20
-16.0425925399
30
0.0000000000
10
13.8732963662
20
-16.0561981479
30
0.0000000000
11
13.7273243927
21
-15.8816186214
31
0.0000000000
11
13.8184734571
21
-15.9437534981
31
0.0000000000
11
13.8670537408
21
-16.0161412794
31
0.0000000000
11
13.8732963662
21
-16.0561981479
31
0.0000000000
0
SPLINE
5
325
100
AcDbEntity
8
0
100
AcDbSpline
62
7
6
CONTINUOUS
70
0
71
3
72
8
73
4
74
2
42
0.0000001000
43
0.0000001000
44
0.0000000001
12
-0.0137563387
22
-0.0071615707
32
0.0000000000
13
-0.0142993829
23
-0.0060058153
33
0.0000000000
40
0.0000000000
40
0.0000000000
40
0.0000000000
40
0.0000000000
40
1.0000000000
40
1.0000000000
40
1.0000000000
40
1.0000000000
10
7.6480195503
20
-22.3597415744
30
0.0000000000
10
7.6434341041
20
-22.3621287647
30
0.0000000000
10
7.6387497465
20
-22.3643266113
30
0.0000000000
10
7.6339832855
20
-22.3663285497
30
0.0000000000
11
7.6480195503
21
-22.3597415744
31
0.0000000000
11
7.6339832855
21
-22.3663285497
31
0.0000000000
0
SPLINE
5
326
100
AcDbEntity
8
0
100
AcDbSpline
62
7
6
CONTINUOUS
70
0
71
3
72
11
73
7
74
5
42
0.0000001000
43
0.0000001000
44
0.0000000001
12
0.5773696071
22
-0.2890902162
32
0.0000000000
13
0.5958419638
23
0.2498192597
33
0.0000000000
40
0.0000000000
40
0.0000000000
40
0.0000000000
40
0.0000000000
40
0.2118446650
40
0.5036697778
40
0.8097644691
40
1.0000000000
40
1.0000000000
40
1.0000000000
40
1.0000000000
10
2.3432299512
20
-24.3138721765
30
0.0000000000
10
2.3840008415
20
-24.3342862498
30
0.0000000000
10
2.4859599778
20
-24.3734081855
30
0.0000000000
10
2.6602974839
20
-24.3967392030
30
0.0000000000
10
2.8299858517
20
-24.3746933913
30
0.0000000000
10
2.9315352309
20
-24.3402020807
30
0.0000000000
10
2.9693186683
20
-24.3243605809
30
0.0000000000
11
2.3432299512
21
-24.3138721765
31
0.0000000000
11
2.4709153326
21
-24.3628421114
31
0.0000000000
11
2.6572259027
21
-24.3882403744
31
0.0000000000
11
2.8529106718
21
-24.3636145367
31
0.0000000000
11
2.9693186683
21
-24.3243605809
31
0.0000000000
0
SPLINE
5
327
100
AcDbEntity
8
0
100
AcDbSpline
62
7
6
CONTINUOUS
70
0
71
3
72
12
73
8
74
6
42
0.0000001000
43
0.0000001000
44
0.0000000001
12
-0.9615272427
22
-0.5606977746
32
0.0000000000
13
-0.1257340431
23
-1.1051442912
33
0.0000000000
40
0.0000000000
40
0.0000000000
40
0.0000000000
40
0.0000000000
40
0.1431611477
40
0.3729990017
40
0.6095309946
40
0.8472398158
40
1.0000000000
40
1.0000000000
40
1.0000000000
40
1.0000000000
10
-12.3761731120
20
21.3637451924
30
0.0000000000
10
-12.4220575598
20
21.3369884801
30
0.0000000000
10
-12.5359080030
20
21.2569209996
30
0.0000000000
10
-12.6926785479
20
21.0924119546
30
0.0000000000
10
-12.8309940118
20
20.8694804629
30
0.0000000000
10
-12.9131284002
20
20.6509465239
30
0.0000000000
10
-12.9402604666
20
20.5081016115
30
0.0000000000
10
-12.9466628518
20
20.4518275963
30
0.0000000000
11
-12.3761731120
21
21.3637451924
31
0.0000000000
11
-12.5068125170
21
21.2724918779
31
0.0000000000
11
-12.6840757341
21
21.0889251104
31
0.0000000000
11
-12.8230411402
21
20.8660886065
31
0.0000000000
11
-12.9153551063
21
20.6188364990
31
0.0000000000
11
-12.9466628518
21
20.4518275963
31
0.0000000000
0
SPLINE
5
328
100
AcDbEntity
8
0
100
AcDbSpline
62
7
6
CONTINUOUS
70
0
71
3
72
10
73
6
74
4
42
0.0000001000
43
0.0000001000
44
0.0000000001
12
-1.1894429359
22
-10.4473516175
32
0.0000000000
13
-0.1590266497
23
-10.5136428132
33
0.0000000000
40
0.0000000000
40
0.0000000000
40
0.0000000000
40
0.0000000000
40
0.3363492572
40
0.6748239854
40
1.0000000000
40
1.0000000000
40
1.0000000000
40
1.0000000000
10
-12.9466481999
20
20.4519794793
30
0.0000000000
10
-13.0800042825
20
19.2806598272
30
0.0000000000
10
-13.3113828492
20
16.9263135646
30
0.0000000000
10
-13.5414026594
20
13.4283549718
30
0.0000000000
10
-13.6165733492
20
11.1029838059
30
0.0000000000
10
-13.6338105666
20
9.9633889828
30
0.0000000000
11
-12.9466481999
21
20.4519794793
31
0.0000000000
11
-13.2917349070
21
16.9321986335
31
0.0000000000
11
-13.5243069952
21
13.3808095795
31
0.0000000000
11
-13.6338105666
21
9.9633889828
31
0.0000000000
0
SPLINE
5
329
100
AcDbEntity
8
0
100
AcDbSpline
62
7
6
CONTINUOUS
70
0
71
3
72
9
73
5
74
3
42
0.0000001000
43
0.0000001000
44
0.0000000001
12
0.0082445676
22
-0.0748697205
32
0.0000000000
13
-0.0000152667
23
-0.0753627971
33
0.0000000000
40
0.0000000000
40
0.0000000000
40
0.0000000000
40
0.0000000000
40
0.8962716206
40
1.0000000000
40
1.0000000000
40
1.0000000000
40
1.0000000000
10
13.8695127762
20
21.1014179581
30
0.0000000000
10
13.8719759002
20
21.0790500895
30
0.0000000000
10
13.8736182995
20
21.0539499848
30
0.0000000000
10
13.8737717542
20
21.0288288756
30
0.0000000000
10
13.8737712264
20
21.0262231220
30
0.0000000000
11
13.8695127762
21
21.1014179581
31
0.0000000000
11
13.8737238986
21
21.0340401935
31
0.0000000000
11
13.8737712264
21
21.0262231220
31
0.0000000000
0
SPLINE
5
32A
100
AcDbEntity
8
0
100
AcDbSpline
62
7
6
CONTINUOUS
70
0
71
3
72
10
73
6
74
4
42
0.0000001000
43
0.0000001000
44
0.0000000001
12
-0.2488523380
22
-16.4519587049
32
0.0000000000
13
0.2528113333
23
-16.4518986131
33
0.0000000000
40
0.0000000000
40
0.0000000000
40
0.0000000000
40
0.0000000000
40
0.3337153920
40
0.6701796769
40
1.0000000000
40
1.0000000000
40
1.0000000000
40
1.0000000000
10
-13.6338105509
20
9.9633891440
30
0.0000000000
10
-13.6614925027
20
8.1332985278
30
0.0000000000
10
-13.6988216006
20
4.4577380133
30
0.0000000000
10
-13.6989369002
20
-1.0269609327
30
0.0000000000
10
-13.6616028219
20
-4.6811601211
30
0.0000000000
10
-13.6338087167
20
-6.4898836263
30
0.0000000000
11
-13.6338105509
21
9.9633891440
31
0.0000000000
11
-13.6894317720
21
4.4727711940
31
0.0000000000
11
-13.6893974868
21
-1.0633573801
31
0.0000000000
11
-13.6338087167
21
-6.4898836263
31
0.0000000000
0
SPLINE
5
32B
100
AcDbEntity
8
0
100
AcDbSpline
62
7
6
CONTINUOUS
70
0
71
3
72
10
73
6
74
4
42
0.0000001000
43
0.0000001000
44
0.0000000001
12
0.1508256376
22
-9.8152486178
32
0.0000000000
13
1.2565596508
23
-9.7356538793
33
0.0000000000
40
0.0000000000
40
0.0000000000
40
0.0000000000
40
0.0000000000
40
0.3376261997
40
0.6760602212
40
1.0000000000
40
1.0000000000
40
1.0000000000
40
1.0000000000
10
-13.6338087301
20
-6.4898834420
30
0.0000000000
10
-13.6168345012
20
-7.5945118055
30
0.0000000000
10
-13.5442005445
20
-9.8060466845
30
0.0000000000
10
-13.3158424884
20
-13.0709040976
30
0.0000000000
10
-13.0814274617
20
-15.2262280918
30
0.0000000000
10
-12.9457442433
20
-16.2774832800
30
0.0000000000
11
-13.6338087301
21
-6.4898834420
31
0.0000000000
11
-13.5238986863
21
-9.8023330309
31
0.0000000000
11
-13.2908236705
21
-13.1163377363
31
0.0000000000
11
-12.9457442433
21
-16.2774832800
31
0.0000000000
0
SPLINE
5
32C
100
AcDbEntity
8
0
100
AcDbSpline
62
7
6
CONTINUOUS
70
0
71
3
72
9
73
5
74
3
42
0.0000001000
43
0.0000001000
44
0.0000000001
12
0.0345394393
22
-0.2660510760
32
0.0000000000
13
0.1156519663
23
-0.2423827982
33
0.0000000000
40
0.0000000000
40
0.0000000000
40
0.0000000000
40
0.0000000000
40
0.6881002640
40
1.0000000000
40
1.0000000000
40
1.0000000000
40
1.0000000000
10
-12.9456621817
20
-16.2780353817
30
0.0000000000
10
-12.9377399825
20
-16.3390586535
30
0.0000000000
10
-12.9175092526
20
-16.4268082628
30
0.0000000000
10
-12.8832629206
20
-16.5096920221
30
0.0000000000
10
-12.8712389814
20
-16.5348917323
30
0.0000000000
11
-12.9456621817
21
-16.2780353817
31
0.0000000000
11
-12.9032623064
21
-16.4575158199
31
0.0000000000
11
-12.8712389814
21
-16.5348917323
31
0.0000000000
0
SPLINE
5
32D
100
AcDbEntity
8
0
100
AcDbSpline
62
7
6
CONTINUOUS
70
0
71
3
72
10
73
6
74
4
42
0.0000001000
43
0.0000001000
44
0.0000000001
12
0.2034403855
22
-0.4263693174
32
0.0000000000
13
0.4237273912
23
-0.2106507113
33
0.0000000000
40
0.0000000000
40
0.0000000000
40
0.0000000000
40
0.0000000000
40
0.3416423244
40
0.8350062777
40
1.0000000000
40
1.0000000000
40
1.0000000000
40
1.0000000000
10
-12.8712389814
20
-16.5348917323
30
0.0000000000
10
-12.8480710326
20
-16.5834470006
30
0.0000000000
10
-12.7792643382
20
-16.6962070354
30
0.0000000000
10
-12.6622761401
20
-16.8048109265
30
0.0000000000
10
-12.5718855943
20
-16.8563314491
30
0.0000000000
10
-12.5485814745
20
-16.8679167974
30
0.0000000000
11
-12.8712389814
21
-16.5348917323
31
0.0000000000
11
-12.7869321268
21
-16.6720229597
31
0.0000000000
11
-12.6163521218
21
-16.8292530368
31
0.0000000000
11
-12.5485814745
21
-16.8679167974
31
0.0000000000
0
SPLINE
5
32E
100
AcDbEntity
8
0
100
AcDbSpline
62
7
6
CONTINUOUS
70
0
71
3
72
8
73
4
74
2
42
0.0000001000
43
0.0000001000
44
0.0000000001
12
0.0250204794
22
-0.0125102397
32
0.0000000000
13
0.0235571971
23
-0.0153113514
33
0.0000000000
40
0.0000000000
40
0.0000000000
40
0.0000000000
40
0.0000000000
40
1.0000000000
40
1.0000000000
40
1.0000000000
40
1.0000000000
10
7.5310188222
20
-22.8424979317
30
0.0000000000
10
7.5393589819
20
-22.8466680116
30
0.0000000000
10
7.5474840206
20
-22.8513247864
30
0.0000000000
10
7.5553364196
20
-22.8564285702
30
0.0000000000
11
7.5310188222
21
-22.8424979317
31
0.0000000000
11
7.5553364196
21
-22.8564285702
31
0.0000000000
0
SPLINE
5
32F
100
AcDbEntity
8
0
100
AcDbSpline
62
7
6
CONTINUOUS
70
0
71
3
72
9
73
5
74
3
42
0.0000001000
43
0.0000001000
44
0.0000000001
12
0.0951206559
22
-0.0618250881
32
0.0000000000
13
0.0584113929
23
-0.0972789044
33
0.0000000000
40
0.0000000000
40
0.0000000000
40
0.0000000000
40
0.0000000000
40
0.4997353759
40
1.0000000000
40
1.0000000000
40
1.0000000000
40
1.0000000000
10
7.5553364196
20
-22.8564285702
30
0.0000000000
10
7.5711814718
20
-22.8667272980
30
0.0000000000
10
7.6006669331
20
-22.8909778193
30
0.0000000000
10
7.6238148466
20
-22.9212108578
30
0.0000000000
10
7.6335552311
20
-22.9374325893
30
0.0000000000
11
7.5553364196
21
-22.8564285702
31
0.0000000000
11
7.5990686177
21
-22.8924590314
31
0.0000000000
11
7.6335552311
21
-22.9374325893
31
0.0000000000
0
SPLINE
5
330
100
AcDbEntity
8
0
100
AcDbSpline
62
7
6
CONTINUOUS
70
0
71
3
72
10
73
6
74
4
42
0.0000001000
43
0.0000001000
44
0.0000000001
12
0.0696263623
22
-0.1159564239
32
0.0000000000
13
-0.0002054675
23
-0.1356023831
33
0.0000000000
40
0.0000000000
40
0.0000000000
40
0.0000000000
40
0.0000000000
40
0.2127635116
40
0.8635894190
40
1.0000000000
40
1.0000000000
40
1.0000000000
40
1.0000000000
10
7.6335552311
20
-22.9374325893
30
0.0000000000
10
7.6384932142
20
-22.9456563546
30
0.0000000000
10
7.6566169508
20
-22.9801805188
30
0.0000000000
10
7.6679530381
20
-23.0245433986
30
0.0000000000
10
7.6692118986
20
-23.0601265143
30
0.0000000000
10
7.6692025560
20
-23.0662923809
30
0.0000000000
11
7.6335552311
21
-22.9374325893
31
0.0000000000
11
7.6469176816
21
-22.9628977454
31
0.0000000000
11
7.6685454809
21
-23.0478147764
31
0.0000000000
11
7.6692025560
21
-23.0662923809
31
0.0000000000
0
SPLINE
5
331
100
AcDbEntity
8
0
100
AcDbSpline
62
7
6
CONTINUOUS
70
0
71
3
72
9
73
5
74
3
42
0.0000001000
43
0.0000001000
44
0.0000000001
12
0.1084667152
22
0.1320144656
32
0.0000000000
13
-0.0000193479
23
0.1719383266
33
0.0000000000
40
0.0000000000
40
0.0000000000
40
0.0000000000
40
0.0000000000
40
0.5664602204
40
1.0000000000
40
1.0000000000
40
1.0000000000
40
1.0000000000
10
7.6123781387
20
18.0747916112
30
0.0000000000
10
7.6328588318
20
18.0997185923
30
0.0000000000
10
7.6606573188
20
18.1513958191
30
0.0000000000
10
7.6692288043
20
18.2086413401
30
0.0000000000
10
7.6692260083
20
18.2334887082
30
0.0000000000
11
7.6123781387
21
18.0747916112
31
0.0000000000
11
7.6581827999
21
18.1600515174
31
0.0000000000
11
7.6692260083
21
18.2334887082
31
0.0000000000
0
SPLINE
5
332
100
AcDbEntity
8
0
100
AcDbSpline
62
7
6
CONTINUOUS
70
0
71
3
72
9
73
5
74
3
42
0.0000001000
43
0.0000001000
44
0.0000000001
12
0.0576847302
22
-0.0289126726
32
0.0000000000
13
0.0630349060
23
-0.0131537199
33
0.0000000000
40
0.0000000000
40
0.0000000000
40
0.0000000000
40
0.0000000000
40
0.2479298004
40
1.0000000000
40
1.0000000000
40
1.0000000000
40
1.0000000000
10
5.1799242939
20
16.9523306655
30
0.0000000000
10
5.1846915484
20
16.9499412278
30
0.0000000000
10
5.2042255181
20
16.9409201471
30
0.0000000000
10
5.2248237332
20
16.9345074680
30
0.0000000000
10
5.2406259579
20
16.9312099611
30
0.0000000000
11
5.1799242939
21
16.9523306655
31
0.0000000000
11
5.1944430731
21
16.9456283746
31
0.0000000000
11
5.2406259579
21
16.9312099611
31
0.0000000000
0
SPLINE
5
333
100
AcDbEntity
8
0
100
AcDbSpline
62
7
6
CONTINUOUS
70
0
71
3
72
10
73
6
74
4
42
0.0000001000
43
0.0000001000
44
0.0000000001
12
-0.1460265751
22
0.0729651202
32
0.0000000000
13
-0.0715273403
23
0.1474222656
33
0.0000000000
40
0.0000000000
40
0.0000000000
40
0.0000000000
40
0.0000000000
40
0.4755880567
40
0.9809341727
40
1.0000000000
40
1.0000000000
40
1.0000000000
40
1.0000000000
10
3.5014949494
20
17.7915313606
30
0.0000000000
10
3.4783454510
20
17.8030984739
30
0.0000000000
10
3.4340247882
20
17.8346345033
30
0.0000000000
10
3.4014255107
20
17.8793493087
30
0.0000000000
10
3.3887605013
20
17.9050399935
30
0.0000000000
10
3.3883059253
20
17.9059769027
30
0.0000000000
11
3.5014949494
21
17.7915313606
31
0.0000000000
11
3.4382706687
21
17.8365752436
31
0.0000000000
11
3.3896872705
21
17.9031749055
31
0.0000000000
11
3.3883059253
21
17.9059769027
31
0.0000000000
0
SPLINE
5
334
100
AcDbEntity
8
0
100
AcDbSpline
62
7
6
CONTINUOUS
70
0
71
3
72
8
73
4
74
2
42
0.0000001000
43
0.0000001000
44
0.0000000001
12
-0.0356613763
22
0.0735002989
32
0.0000000000
13
-0.0102277664
23
0.0810665125
33
0.0000000000
40
0.0000000000
40
0.0000000000
40
0.0000000000
40
0.0000000000
40
1.0000000000
40
1.0000000000
40
1.0000000000
40
1.0000000000
10
3.3883059253
20
17.9059769027
30
0.0000000000
10
3.3764187999
20
17.9304770023
30
0.0000000000
10
3.3685528783
20
17.9569489532
30
0.0000000000
10
3.3651436229
20
17.9839711240
30
0.0000000000
11
3.3883059253
21
17.9059769027
31
0.0000000000
11
3.3651436229
21
17.9839711240
31
0.0000000000
0
SPLINE
5
335
100
AcDbEntity
8
0
100
AcDbSpline
62
7
6
CONTINUOUS
70
0
71
3
72
8
73
4
74
2
42
0.0000001000
43
0.0000001000
44
0.0000000001
12
-0.0039220505
22
0.0310866460
32
0.0000000000
13
0.0000047161
23
0.0313350237
33
0.0000000000
40
0.0000000000
40
0.0000000000
40
0.0000000000
40
0.0000000000
40
1.0000000000
40
1.0000000000
40
1.0000000000
40
1.0000000000
10
3.3651436229
20
17.9839711240
30
0.0000000000
10
3.3638362727
20
17.9943333394
30
0.0000000000
10
3.3631842749
20
18.0047764645
30
0.0000000000
10
3.3631858469
20
18.0152214724
30
0.0000000000
11
3.3651436229
21
17.9839711240
31
0.0000000000
11
3.3631858469
21
18.0152214724
31
0.0000000000
0
SPLINE
5
336
100
AcDbEntity
8
0
100
AcDbSpline
62
7
6
CONTINUOUS
70
0
71
3
72
9
73
5
74
3
42
0.0000001000
43
0.0000001000
44
0.0000000001
12
0.0819691639
22
0.0997643872
32
0.0000000000
13
0.0217273409
23
0.1280739987
33
0.0000000000
40
0.0000000000
40
0.0000000000
40
0.0000000000
40
0.0000000000
40
0.7495755289
40
1.0000000000
40
1.0000000000
40
1.0000000000
40
1.0000000000
10
-4.6912798540
20
24.2266206075
30
0.0000000000
10
-4.6707991608
20
24.2515475886
30
0.0000000000
10
-4.6497916220
20
24.2906004821
30
0.0000000000
10
-4.6397645193
20
24.3328333982
30
0.0000000000
10
-4.6379508334
20
24.3435243527
30
0.0000000000
11
-4.6912798540
21
24.2266206075
31
0.0000000000
11
-4.6454751927
21
24.3118805137
31
0.0000000000
11
-4.6379508334
21
24.3435243527
31
0.0000000000
0
SPLINE
5
337
100
AcDbEntity
8
0
100
AcDbSpline
62
7
6
CONTINUOUS
70
0
71
3
72
8
73
4
74
2
42
0.0000001000
43
0.0000001000
44
0.0000000001
12
0.0070236331
22
0.0414015123
32
0.0000000000
13
-0.0000047265
23
0.0420031585
33
0.0000000000
40
0.0000000000
40
0.0000000000
40
0.0000000000
40
0.0000000000
40
1.0000000000
40
1.0000000000
40
1.0000000000
40
1.0000000000
10
-4.6379508334
20
24.3435243527
30
0.0000000000
10
-4.6356096223
20
24.3573248568
30
0.0000000000
10
-4.6344304089
20
24.3713166517
30
0.0000000000
10
-4.6344319844
20
24.3853177045
30
0.0000000000
11
-4.6379508334
21
24.3435243527
31
0.0000000000
11
-4.6344319844
21
24.3853177045
31
0.0000000000
0
SPLINE
5
338
100
AcDbEntity
8
0
100
AcDbSpline
62
7
6
CONTINUOUS
70
0
71
3
72
10
73
6
74
4
42
0.0000001000
43
0.0000001000
44
0.0000000001
12
-0.0630753368
22
0.0131701888
32
0.0000000000
13
-0.0576456727
23
0.0288243800
33
0.0000000000
40
0.0000000000
40
0.0000000000
40
0.0000000000
40
0.0000000000
40
0.3622427946
40
0.7258119083
40
1.0000000000
40
1.0000000000
40
1.0000000000
40
1.0000000000
10
-7.0630318824
20
23.0830313724
30
0.0000000000
10
-7.0706480779
20
23.0846216410
30
0.0000000000
10
-7.0857692558
20
23.0885235725
30
0.0000000000
10
-7.1060010330
20
23.0958198072
30
0.0000000000
10
-7.1184763841
20
23.1015163852
30
0.0000000000
10
-7.1237449698
20
23.1041508191
30
0.0000000000
11
-7.0630318824
21
23.0830313724
31
0.0000000000
11
-7.0856328444
21
23.0888636106
31
0.0000000000
11
-7.1076704030
21
23.0968110257
31
0.0000000000
11
-7.1237449698
21
23.1041508191
31
0.0000000000
0
SPLINE
5
339
100
AcDbEntity
8
0
100
AcDbSpline
62
7
6
CONTINUOUS
70
0
71
3
72
10
73
6
74
4
42
0.0000001000
43
0.0000001000
44
0.0000000001
12
-0.2300489362
22
0.1150244681
32
0.0000000000
13
-0.0188332318
23
0.2582029697
33
0.0000000000
40
0.0000000000
40
0.0000000000
40
0.0000000000
40
0.0000000000
40
0.3282272806
40
0.6593035626
40
1.0000000000
40
1.0000000000
40
1.0000000000
40
1.0000000000
10
-8.8022751226
20
23.9434158421
30
0.0000000000
10
-8.8274445682
20
23.9560005649
30
0.0000000000
10
-8.8740664971
20
23.9901828541
30
0.0000000000
10
-8.9231156632
20
24.0624799853
30
0.0000000000
10
-8.9376629763
20
24.1194097428
30
0.0000000000
10
-8.9398017813
20
24.1487326867
30
0.0000000000
11
-8.8022751226
21
23.9434158421
31
0.0000000000
11
-8.8703249181
21
23.9933769417
31
0.0000000000
11
-8.9181739820
21
24.0638156557
31
0.0000000000
11
-8.9398017813
21
24.1487326867
31
0.0000000000
0
SPLINE
5
33A
100
AcDbEntity
8
0
100
AcDbSpline
62
7
6
CONTINUOUS
70
0
71
3
72
8
73
4
74
2
42
0.0000001000
43
0.0000001000
44
0.0000000001
12
-0.0013448556
22
0.0184379253
32
0.0000000000
13
0.0000280279
23
0.0184975999
33
0.0000000000
40
0.0000000000
40
0.0000000000
40
0.0000000000
40
0.0000000000
40
1.0000000000
40
1.0000000000
40
1.0000000000
40
1.0000000000
10
-8.9398017813
20
24.1487326867
30
0.0000000000
10
-8.9402500665
20
24.1548786619
30
0.0000000000
10
-8.9404681990
20
24.1610444247
30
0.0000000000
10
-8.9404588564
20
24.1672102913
30
0.0000000000
11
-8.9398017813
21
24.1487326867
31
0.0000000000
11
-8.9404588564
21
24.1672102913
31
0.0000000000
0
SPLINE
5
33B
100
AcDbEntity
8
0
100
AcDbSpline
62
7
6
CONTINUOUS
70
0
71
3
72
10
73
6
74
4
42
0.0000001000
43
0.0000001000
44
0.0000000001
12
-0.2423056845
22
-0.1243074027
32
0.0000000000
13
-0.0001350977
23
-0.2743587970
33
0.0000000000
40
0.0000000000
40
0.0000000000
40
0.0000000000
40
0.0000000000
40
0.3628437031
40
0.7343496445
40
1.0000000000
40
1.0000000000
40
1.0000000000
40
1.0000000000
10
-8.8045858292
20
24.7294330164
30
0.0000000000
10
-8.8338921931
20
24.7143982970
30
0.0000000000
10
-8.8876961887
20
24.6716089252
30
0.0000000000
10
-8.9319343743
20
24.5895207925
30
0.0000000000
10
-8.9404559400
20
24.5313079960
30
0.0000000000
10
-8.9404679030
20
24.5070134920
30
0.0000000000
11
-8.8045858292
21
24.7294330164
31
0.0000000000
11
-8.8818570909
21
24.6678432128
31
0.0000000000
11
-8.9299317144
21
24.5788221464
31
0.0000000000
11
-8.9404679030
21
24.5070134920
31
0.0000000000
0
SPLINE
5
33C
100
AcDbEntity
8
0
100
AcDbSpline
62
7
6
CONTINUOUS
70
0
71
3
72
9
73
5
74
3
42
0.0000001000
43
0.0000001000
44
0.0000000001
12
0.1398420459
22
0.0681214906
32
0.0000000000
13
0.1541160003
23
-0.0268465772
33
0.0000000000
40
0.0000000000
40
0.0000000000
40
0.0000000000
40
0.0000000000
40
0.5938370469
40
1.0000000000
40
1.0000000000
40
1.0000000000
40
1.0000000000
10
5.6188522004
20
19.6512223999
30
0.0000000000
10
5.6465333295
20
19.6647067548
30
0.0000000000
10
5.6978873139
20
19.6788312245
30
0.0000000000
10
5.7504166768
20
19.6763816167
30
0.0000000000
10
5.7712820800
20
19.6727469217
30
0.0000000000
11
5.6188522004
21
19.6512223999
31
0.0000000000
11
5.7079396147
21
19.6756372985
31
0.0000000000
11
5.7712820800
21
19.6727469217
31
0.0000000000
0
SPLINE
5
33D
100
AcDbEntity
8
0
100
AcDbSpline
62
7
6
CONTINUOUS
70
0
71
3
72
9
73
5
74
3
42
0.0000001000
43
0.0000001000
44
0.0000000001
12
0.0625006415
22
-0.0108874373
32
0.0000000000
13
0.0577537469
23
-0.0262448079
33
0.0000000000
40
0.0000000000
40
0.0000000000
40
0.0000000000
40
0.0000000000
40
0.4989616510
40
1.0000000000
40
1.0000000000
40
1.0000000000
40
1.0000000000
10
5.7712820800
20
19.6727469217
30
0.0000000000
10
5.7816772211
20
19.6709361171
30
0.0000000000
10
5.8022769331
20
19.6659938536
30
0.0000000000
10
5.8220782170
20
19.6584667972
30
0.0000000000
10
5.8317238310
20
19.6540835788
30
0.0000000000
11
5.7712820800
21
19.6727469217
31
0.0000000000
11
5.8020353749
21
19.6653606001
31
0.0000000000
11
5.8317238310
21
19.6540835788
31
0.0000000000
0
SPLINE
5
33E
100
AcDbEntity
8
0
100
AcDbSpline
62
7
6
CONTINUOUS
70
0
71
3
72
8
73
4
74
2
42
0.0000001000
43
0.0000001000
44
0.0000000001
12
0.0086478544
22
-0.0039298104
32
0.0000000000
13
0.0084941549
23
-0.0042547368
33
0.0000000000
40
0.0000000000
40
0.0000000000
40
0.0000000000
40
0.0000000000
40
1.0000000000
40
1.0000000000
40
1.0000000000
40
1.0000000000
10
5.8317238310
20
19.6540835788
30
0.0000000000
10
5.8346064491
20
19.6527736420
30
0.0000000000
10
5.8374644536
20
19.6514090568
30
0.0000000000
10
5.8402958385
20
19.6499908112
30
0.0000000000
11
5.8317238310
21
19.6540835788
31
0.0000000000
11
5.8402958385
21
19.6499908112
31
0.0000000000
0
SPLINE
5
33F
100
AcDbEntity
8
0
100
AcDbSpline
62
7
6
CONTINUOUS
70
0
71
3
72
10
73
6
74
4
42
0.0000001000
43
0.0000001000
44
0.0000000001
12
-0.2423056845
22
-0.1243074027
32
0.0000000000
13
-0.0001350977
23
-0.2743587970
33
0.0000000000
40
0.0000000000
40
0.0000000000
40
0.0000000000
40
0.0000000000
40
0.3628437031
40
0.7343496445
40
1.0000000000
40
1.0000000000
40
1.0000000000
40
1.0000000000
10
3.4990721635
20
18.5776040201
30
0.0000000000
10
3.4697657995
20
18.5625693007
30
0.0000000000
10
3.4159618039
20
18.5197799289
30
0.0000000000
10
3.3717236183
20
18.4376917962
30
0.0000000000
10
3.3632020526
20
18.3794789997
30
0.0000000000
10
3.3631900897
20
18.3551844957
30
0.0000000000
11
3.4990721635
21
18.5776040201
31
0.0000000000
11
3.4218009017
21
18.5160142164
31
0.0000000000
11
3.3737262782
21
18.4269931501
31
0.0000000000
11
3.3631900897
21
18.3551844957
31
0.0000000000
0
SPLINE
5
340
100
AcDbEntity
8
0
100
AcDbSpline
62
7
6
CONTINUOUS
70
0
71
3
72
10
73
6
74
4
42
0.0000001000
43
0.0000001000
44
0.0000000001
12
0.2458564392
22
-0.1229282196
32
0.0000000000
13
0.0001475012
23
-0.2769543424
33
0.0000000000
40
0.0000000000
40
0.0000000000
40
0.0000000000
40
0.0000000000
40
0.3612552928
40
0.7311258029
40
1.0000000000
40
1.0000000000
40
1.0000000000
40
1.0000000000
10
7.5310188222
20
18.8046377244
30
0.0000000000
10
7.5606244688
20
18.7898349011
30
0.0000000000
10
7.6151105080
20
18.7473314747
30
0.0000000000
10
7.6603820160
20
18.6647849839
30
0.0000000000
10
7.6691987839
20
18.6058779003
30
0.0000000000
10
7.6692120036
20
18.5810559415
30
0.0000000000
11
7.5310188222
21
18.8046377244
31
0.0000000000
11
7.6092470178
21
18.7434747418
31
0.0000000000
11
7.6582145107
21
18.6543755667
31
0.0000000000
11
7.6692120036
21
18.5810559415
31
0.0000000000
0
SPLINE
5
341
100
AcDbEntity
8
0
100
AcDbSpline
62
7
6
CONTINUOUS
70
0
71
3
72
9
73
5
74
3
42
0.0000001000
43
0.0000001000
44
0.0000000001
12
0.0305169333
22
0.0150410226
32
0.0000000000
13
0.0317561143
23
0.0122092091
33
0.0000000000
40
0.0000000000
40
0.0000000000
40
0.0000000000
40
0.0000000000
40
0.5062732526
40
1.0000000000
40
1.0000000000
40
1.0000000000
40
1.0000000000
10
7.6718480372
20
22.9792158067
30
0.0000000000
10
7.6769980062
20
22.9817540958
30
0.0000000000
10
7.6872795906
20
22.9865495076
30
0.0000000000
10
7.6977686958
20
22.9908734626
30
0.0000000000
10
7.7029949768
20
22.9928828003
30
0.0000000000
11
7.6718480372
21
22.9792158067
31
0.0000000000
11
7.6874617787
21
22.9864888329
31
0.0000000000
11
7.7029949768
21
22.9928828003
31
0.0000000000
0
SPLINE
5
342
100
AcDbEntity
8
0
100
AcDbSpline
62
7
6
CONTINUOUS
70
0
71
3
72
10
73
6
74
4
42
0.0000001000
43
0.0000001000
44
0.0000000001
12
0.1548432894
22
0.0792643154
32
0.0000000000
13
0.0679947438
23
0.1598056279
33
0.0000000000
40
0.0000000000
40
0.0000000000
40
0.0000000000
40
0.0000000000
40
0.2502119566
40
0.8109766549
40
1.0000000000
40
1.0000000000
40
1.0000000000
40
1.0000000000
10
7.5331427598
20
-23.6361334081
30
0.0000000000
10
7.5460573072
20
-23.6295224483
30
0.0000000000
10
7.5861297110
20
-23.6044662055
30
0.0000000000
10
7.6253519956
20
-23.5604331277
30
0.0000000000
10
7.6449529284
20
-23.5216161429
30
0.0000000000
10
7.6492371264
20
-23.5115471448
30
0.0000000000
11
7.5331427598
21
-23.6361334081
31
0.0000000000
11
7.5699978468
21
-23.6130470301
31
0.0000000000
11
7.6344467255
21
-23.5408191324
31
0.0000000000
11
7.6492371264
21
-23.5115471448
31
0.0000000000
0
SPLINE
5
343
100
AcDbEntity
8
0
100
AcDbSpline
62
7
6
CONTINUOUS
70
0
71
3
72
9
73
5
74
3
42
0.0000001000
43
0.0000001000
44
0.0000000001
12
0.0392784815
22
0.0923148179
32
0.0000000000
13
-0.0000116853
23
0.1005960072
33
0.0000000000
40
0.0000000000
40
0.0000000000
40
0.0000000000
40
0.0000000000
40
0.6582232861
40
1.0000000000
40
1.0000000000
40
1.0000000000
40
1.0000000000
10
7.6492371264
20
-23.5115471448
30
0.0000000000
10
7.6578551301
20
-23.4912925572
30
0.0000000000
10
7.6669075282
20
-23.4587803126
30
0.0000000000
10
7.6691841954
20
-23.4252313313
30
0.0000000000
10
7.6691828641
20
-23.4137708737
30
0.0000000000
11
7.6492371264
21
-23.5115471448
31
0.0000000000
11
7.6668364896
21
-23.4480427499
31
0.0000000000
11
7.6691828641
21
-23.4137708737
31
0.0000000000
0
SPLINE
5
344
100
AcDbEntity
8
0
100
AcDbSpline
62
7
6
CONTINUOUS
70
0
71
3
72
9
73
5
74
3
42
0.0000001000
43
0.0000001000
44
0.0000000001
12
0.0325029986
22
0.0158332403
32
0.0000000000
13
0.0338763334
23
0.0126305366
33
0.0000000000
40
0.0000000000
40
0.0000000000
40
0.0000000000
40
0.0000000000
40
0.5065715547
40
1.0000000000
40
1.0000000000
40
1.0000000000
40
1.0000000000
10
2.0812147952
20
25.7745324277
30
0.0000000000
10
2.0867031600
20
25.7772059841
30
0.0000000000
10
2.0976593312
20
25.7822377808
30
0.0000000000
10
2.1088456440
20
25.7867364104
30
0.0000000000
10
2.1144174928
20
25.7888138324
30
0.0000000000
11
2.0812147952
21
25.7745324277
31
0.0000000000
11
2.0978623871
21
25.7821670957
31
0.0000000000
11
2.1144174928
21
25.7888138324
31
0.0000000000
0
SPLINE
5
345
100
AcDbEntity
8
0
100
AcDbSpline
62
7
6
CONTINUOUS
70
0
71
3
72
10
73
6
74
4
42
0.0000001000
43
0.0000001000
44
0.0000000001
12
-0.1962262671
22
0.0981131335
32
0.0000000000
13
-0.2015218056
23
-0.0898126603
33
0.0000000000
40
0.0000000000
40
0.0000000000
40
0.0000000000
40
0.0000000000
40
0.4224563660
40
0.8553983587
40
1.0000000000
40
1.0000000000
40
1.0000000000
40
1.0000000000
10
-6.4635187216
20
25.8019064963
30
0.0000000000
10
-6.4911510669
20
25.8157226689
30
0.0000000000
10
-6.5529490641
20
25.8333680063
30
0.0000000000
10
-6.6274496243
20
25.8258084230
30
0.0000000000
10
-6.6673364403
20
25.8109882855
30
0.0000000000
10
-6.6770499016
20
25.8066592662
30
0.0000000000
11
-6.4635187216
21
25.8019064963
31
0.0000000000
11
-6.5526621935
21
25.8272706360
31
0.0000000000
11
-6.6471663653
21
25.8177540877
31
0.0000000000
11
-6.6770499016
21
25.8066592662
31
0.0000000000
0
SPLINE
5
346
100
AcDbEntity
8
0
100
AcDbSpline
62
7
6
CONTINUOUS
70
0
71
3
72
8
73
4
74
2
42
0.0000001000
43
0.0000001000
44
0.0000000001
12
-0.0079797705
22
-0.0035563616
32
0.0000000000
13
-0.0078521780
23
-0.0038323458
33
0.0000000000
40
0.0000000000
40
0.0000000000
40
0.0000000000
40
0.0000000000
40
1.0000000000
40
1.0000000000
40
1.0000000000
40
1.0000000000
10
-6.6770499016
20
25.8066592662
30
0.0000000000
10
-6.6797098251
20
25.8054738123
30
0.0000000000
10
-6.6823492663
20
25.8042419823
30
0.0000000000
10
-6.6849666590
20
25.8029645337
30
0.0000000000
11
-6.6770499016
21
25.8066592662
31
0.0000000000
11
-6.6849666590
21
25.8029645337
31
0.0000000000
0
SPLINE
5
347
100
AcDbEntity
8
0
100
AcDbSpline
62
7
6
CONTINUOUS
70
0
71
3
72
10
73
6
74
4
42
0.0000001000
43
0.0000001000
44
0.0000000001
12
0.2458564392
22
-0.1229282196
32
0.0000000000
13
0.0001475012
23
-0.2769543424
33
0.0000000000
40
0.0000000000
40
0.0000000000
40
0.0000000000
40
0.0000000000
40
0.3612552928
40
0.7311258029
40
1.0000000000
40
1.0000000000
40
1.0000000000
40
1.0000000000
10
-4.7726391705
20
24.9564667207
30
0.0000000000
10
-4.7430335238
20
24.9416638974
30
0.0000000000
10
-4.6885474846
20
24.8991604711
30
0.0000000000
10
-4.6432759767
20
24.8166139802
30
0.0000000000
10
-4.6344592088
20
24.7577068966
30
0.0000000000
10
-4.6344459890
20
24.7328849378
30
0.0000000000
11
-4.7726391705
21
24.9564667207
31
0.0000000000
11
-4.6944109749
21
24.8953037382
31
0.0000000000
11
-4.6454434820
21
24.8062045630
31
0.0000000000
11
-4.6344459890
21
24.7328849378
31
0.0000000000
0
SPLINE
5
348
100
AcDbEntity
8
0
100
AcDbSpline
62
7
6
CONTINUOUS
70
0
71
3
72
10
73
6
74
4
42
0.0000001000
43
0.0000001000
44
0.0000000001
12
0.2039963472
22
-0.1019981736
32
0.0000000000
13
0.2061517533
23
0.1006147329
33
0.0000000000
40
0.0000000000
40
0.0000000000
40
0.0000000000
40
0.0000000000
40
0.4063652945
40
0.8228168254
40
1.0000000000
40
1.0000000000
40
1.0000000000
40
1.0000000000
10
5.1799209405
20
-24.6872602629
30
0.0000000000
10
5.2075532857
20
-24.7010764356
30
0.0000000000
10
5.2693512829
20
-24.7187217730
30
0.0000000000
10
5.3468018831
20
-24.7108628486
30
0.0000000000
10
5.3891933371
20
-24.6942607130
30
0.0000000000
10
5.4013688778
20
-24.6883183004
30
0.0000000000
11
5.1799209405
21
-24.6872602629
31
0.0000000000
11
5.2690644124
21
-24.7126244027
31
0.0000000000
11
5.3635685842
21
-24.7031078543
31
0.0000000000
11
5.4013688778
21
-24.6883183004
31
0.0000000000
0
SPLINE
5
349
100
AcDbEntity
8
0
100
AcDbSpline
62
7
6
CONTINUOUS
70
0
71
3
72
8
73
4
74
2
42
0.0000001000
43
0.0000001000
44
0.0000000001
12
0.0217592041
22
0.0081127559
32
0.0000000000
13
0.0225782140
23
0.0055931135
33
0.0000000000
40
0.0000000000
40
0.0000000000
40
0.0000000000
40
0.0000000000
40
1.0000000000
40
1.0000000000
40
1.0000000000
40
1.0000000000
10
2.1144174928
20
25.7888138324
30
0.0000000000
10
2.1216705609
20
25.7915180844
30
0.0000000000
10
2.1290924677
20
25.7937945579
30
0.0000000000
10
2.1366185391
20
25.7956589291
30
0.0000000000
11
2.1144174928
21
25.7888138324
31
0.0000000000
11
2.1366185391
21
25.7956589291
31
0.0000000000
0
SPLINE
5
34A
100
AcDbEntity
8
0
100
AcDbSpline
62
7
6
CONTINUOUS
70
0
71
3
72
10
73
6
74
4
42
0.0000001000
43
0.0000001000
44
0.0000000001
12
0.0734360068
22
0.0181916924
32
0.0000000000
13
0.0754369467
23
-0.0049605799
33
0.0000000000
40
0.0000000000
40
0.0000000000
40
0.0000000000
40
0.0000000000
40
0.1576388969
40
0.6507954607
40
1.0000000000
40
1.0000000000
40
1.0000000000
40
1.0000000000
10
2.1366185391
20
25.7956589291
30
0.0000000000
10
2.1404773294
20
25.7966148352
30
0.0000000000
10
2.1565209850
20
25.8001139405
30
0.0000000000
10
2.1816622049
20
25.8027087443
30
0.0000000000
10
2.2029054553
20
25.8022761977
30
0.0000000000
10
2.2116864300
20
25.8016987787
30
0.0000000000
11
2.1366185391
21
25.7956589291
31
0.0000000000
11
2.1482683427
21
25.7982037539
31
0.0000000000
11
2.1853037036
21
25.8021848555
31
0.0000000000
11
2.2116864300
21
25.8016987787
31
0.0000000000
0
SPLINE
5
34B
100
AcDbEntity
8
0
100
AcDbSpline
62
7
6
CONTINUOUS
70
0
71
3
72
11
73
7
74
5
42
0.0000001000
43
0.0000001000
44
0.0000000001
12
0.1613013358
22
-0.0106068471
32
0.0000000000
13
0.1445183657
23
-0.0722583461
33
0.0000000000
40
0.0000000000
40
0.0000000000
40
0.0000000000
40
0.0000000000
40
0.0851906054
40
0.3571798227
40
0.6606841201
40
1.0000000000
40
1.0000000000
40
1.0000000000
40
1.0000000000
10
2.2116864300
20
25.8016987787
30
0.0000000000
10
2.2162668828
20
25.8013975774
30
0.0000000000
10
2.2354423084
20
25.7996805510
30
0.0000000000
10
2.2705163626
20
25.7932215987
30
0.0000000000
10
2.3176073348
20
25.7784290668
30
0.0000000000
10
2.3493267134
20
25.7644311160
30
0.0000000000
10
2.3656725056
20
25.7562583146
30
0.0000000000
11
2.2116864300
21
25.8016987787
31
0.0000000000
11
2.2254017525
21
25.8004775615
31
0.0000000000
11
2.2686361895
21
25.7927077750
31
0.0000000000
11
2.3154583520
21
25.7782048465
31
0.0000000000
11
2.3656725056
21
25.7562583146
31
0.0000000000
0
SPLINE
5
34C
100
AcDbEntity
8
0
100
AcDbSpline
62
7
6
CONTINUOUS
70
0
71
3
72
8
73
4
74
2
42
0.0000001000
43
0.0000001000
44
0.0000000001
12
0.0217372320
22
0.0083572696
32
0.0000000000
13
0.0225906344
23
0.0058167197
33
0.0000000000
40
0.0000000000
40
0.0000000000
40
0.0000000000
40
0.0000000000
40
1.0000000000
40
1.0000000000
40
1.0000000000
40
1.0000000000
10
7.7029949768
20
22.9928828003
30
0.0000000000
10
7.7102407208
20
22.9956685568
30
0.0000000000
10
7.7176616679
20
22.9980236505
30
0.0000000000
10
7.7251918794
20
22.9999625570
30
0.0000000000
11
7.7029949768
21
22.9928828003
31
0.0000000000
11
7.7251918794
21
22.9999625570
31
0.0000000000
0
SPLINE
5
34D
100
AcDbEntity
8
0
100
AcDbSpline
62
7
6
CONTINUOUS
70
0
71
3
72
10
73
6
74
4
42
0.0000001000
43
0.0000001000
44
0.0000000001
12
0.0733855668
22
0.0188955859
32
0.0000000000
13
0.0755887724
23
-0.0044968257
33
0.0000000000
40
0.0000000000
40
0.0000000000
40
0.0000000000
40
0.0000000000
40
0.1577440686
40
0.6509544780
40
1.0000000000
40
1.0000000000
40
1.0000000000
40
1.0000000000
10
7.7251918794
20
22.9999625570
30
0.0000000000
10
7.7290505920
20
23.0009561126
30
0.0000000000
10
7.7450925450
20
23.0046051886
30
0.0000000000
10
7.7702547501
20
23.0074029450
30
0.0000000000
10
7.7915325967
20
23.0071117283
30
0.0000000000
10
7.8003272375
20
23.0065885294
30
0.0000000000
11
7.7251918794
21
22.9999625570
31
0.0000000000
11
7.7368452183
21
23.0026173176
31
0.0000000000
11
7.7739113454
21
23.0068983878
31
0.0000000000
11
7.8003272375
21
23.0065885294
31
0.0000000000
0
SPLINE
5
34E
100
AcDbEntity
8
0
100
AcDbSpline
62
7
6
CONTINUOUS
70
0
71
3
72
12
73
8
74
6
42
0.0000001000
43
0.0000001000
44
0.0000000001
12
0.1631395543
22
-0.0097052792
32
0.0000000000
13
0.1461095463
23
-0.0730404599
33
0.0000000000
40
0.0000000000
40
0.0000000000
40
0.0000000000
40
0.0000000000
40
0.0843255295
40
0.3533849405
40
0.6535453151
40
0.9902877521
40
1.0000000000
40
1.0000000000
40
1.0000000000
40
1.0000000000
10
7.8003272375
20
23.0065885294
30
0.0000000000
10
7.8049128473
20
23.0063157284
30
0.0000000000
10
7.8241033566
20
23.0047139021
30
0.0000000000
10
7.8592143460
20
22.9984376078
30
0.0000000000
10
7.9064263677
20
22.9838277207
30
0.0000000000
10
7.9387311426
20
22.9696979310
30
0.0000000000
10
7.9556164555
20
22.9612863027
30
0.0000000000
10
7.9560894728
20
22.9610498403
30
0.0000000000
11
7.8003272375
21
23.0065885294
31
0.0000000000
11
7.8140597246
21
23.0054492341
31
0.0000000000
11
7.8573385568
21
22.9979067044
31
0.0000000000
11
7.9042154547
21
22.9836077195
31
0.0000000000
11
7.9546694225
21
22.9617572522
31
0.0000000000
11
7.9560894728
21
22.9610498403
31
0.0000000000
0
SPLINE
5
34F
100
AcDbEntity
8
0
100
AcDbSpline
62
7
6
CONTINUOUS
70
0
71
3
72
10
73
6
74
4
42
0.0000001000
43
0.0000001000
44
0.0000000001
12
-0.0055580209
22
0.8564205050
32
0.0000000000
13
-0.0041750765
23
0.8564283634
33
0.0000000000
40
0.0000000000
40
0.0000000000
40
0.0000000000
40
0.0000000000
40
0.3332417721
40
0.6665751218
40
1.0000000000
40
1.0000000000
40
1.0000000000
40
1.0000000000
10
-4.6608618202
20
-6.3662242854
30
0.0000000000
10
-4.6614792085
20
-6.2710925898
30
0.0000000000
10
-4.6626628925
20
-6.0808027188
30
0.0000000000
10
-4.6642849599
20
-5.7953278013
30
0.0000000000
10
-4.6652640604
20
-5.6049844940
30
0.0000000000
10
-4.6657280852
20
-5.5097996531
30
0.0000000000
11
-4.6608618202
21
-6.3662242854
31
0.0000000000
11
-4.6626371234
21
-6.0808287102
31
0.0000000000
11
-4.6642592119
21
-5.7953537911
31
0.0000000000
11
-4.6657280852
21
-5.5097996531
31
0.0000000000
0
SPLINE
5
350
100
AcDbEntity
8
0
100
AcDbSpline
62
7
6
CONTINUOUS
70
0
71
3
72
17
73
13
74
11
42
0.0000001000
43
0.0000001000
44
0.0000000001
12
0.2633414843
22
-0.1316707422
32
0.0000000000
13
0.0000000000
23
-0.2944247301
33
0.0000000000
40
0.0000000000
40
0.0000000000
40
0.0000000000
40
0.0000000000
40
0.0874874486
40
0.1810702291
40
0.2799098329
40
0.3828096192
40
0.4883428695
40
0.5949243304
40
0.7009123992
40
0.8047106934
40
0.9048294299
40
1.0000000000
40
1.0000000000
40
1.0000000000
40
1.0000000000
10
-0.2498047907
20
22.3745554449
30
0.0000000000
10
-0.2421250992
20
22.3707155992
30
0.0000000000
10
-0.2268476106
20
22.3614977126
30
0.0000000000
10
-0.2053498931
20
22.3442920549
30
0.0000000000
10
-0.1849415546
20
22.3236261460
30
0.0000000000
10
-0.1661151064
20
22.3000014546
30
0.0000000000
10
-0.1493198961
20
22.2739867875
30
0.0000000000
10
-0.1349621121
20
22.2462114759
30
0.0000000000
10
-0.1233889516
20
22.2173482898
30
0.0000000000
10
-0.1148806750
20
22.1880931887
30
0.0000000000
10
-0.1096437349
20
22.1591571972
30
0.0000000000
10
-0.1083834345
20
22.1399769447
30
0.0000000000
10
-0.1083834345
20
22.1306367548
30
0.0000000000
11
-0.2498047907
21
22.3745554449
31
0.0000000000
11
-0.2276819282
21
22.3613615961
31
0.0000000000
11
-0.2061039414
21
22.3442279165
31
0.0000000000
11
-0.1856015857
21
22.3235757654
31
0.0000000000
11
-0.1666805118
21
22.2999145052
31
0.0000000000
11
-0.1498052800
21
22.2738248367
31
0.0000000000
11
-0.1353924681
21
22.2459503157
31
0.0000000000
11
-0.1237975659
21
22.2169789159
31
0.0000000000
11
-0.1153050913
21
22.1876218138
31
0.0000000000
11
-0.1101245846
21
22.1586031759
31
0.0000000000
11
-0.1083834345
21
22.1306367548
31
0.0000000000
0
SPLINE
5
351
100
AcDbEntity
8
0
100
AcDbSpline
62
7
6
CONTINUOUS
70
0
71
3
72
10
73
6
74
4
42
0.0000001000
43
0.0000001000
44
0.0000000001
12
0.0000000000
22
0.2188826785
32
0.0000000000
13
0.1965690954
23
0.0997689057
33
0.0000000000
40
0.0000000000
40
0.0000000000
40
0.0000000000
40
0.0000000000
40
0.3525965293
40
0.7108436838
40
1.0000000000
40
1.0000000000
40
1.0000000000
40
1.0000000000
10
0.3280126686
20
20.8967267597
30
0.0000000000
10
0.3280126686
20
20.9224525172
30
0.0000000000
10
0.3382648033
20
20.9748674427
30
0.0000000000
10
0.3796757149
20
21.0371859548
30
0.0000000000
10
0.4185959277
20
21.0654790702
30
0.0000000000
10
0.4375423262
20
21.0750953400
30
0.0000000000
11
0.3280126686
21
20.8967267597
31
0.0000000000
11
0.3429034971
21
20.9724538661
31
0.0000000000
11
0.3862451967
21
21.0378011511
31
0.0000000000
11
0.4375423262
21
21.0750953400
31
0.0000000000
0
SPLINE
5
352
100
AcDbEntity
8
0
100
AcDbSpline
62
7
6
CONTINUOUS
70
0
71
3
72
12
73
8
74
6
42
0.0000001000
43
0.0000001000
44
0.0000000001
12
0.0830613441
22
0.0409677831
32
0.0000000000
13
0.0826080532
23
-0.0413040266
33
0.0000000000
40
0.0000000000
40
0.0000000000
40
0.0000000000
40
0.0000000000
40
0.0699680866
40
0.2811644663
40
0.5031567930
40
0.7416934967
40
1.0000000000
40
1.0000000000
40
1.0000000000
40
1.0000000000
10
1.3582000730
20
21.5318984448
30
0.0000000000
10
1.3601372874
20
21.5328539239
30
0.0000000000
10
1.3680859834
20
21.5363589320
30
0.0000000000
10
1.3832882760
20
21.5400961819
30
0.0000000000
10
1.4041459513
20
21.5400937901
30
0.0000000000
10
1.4259182947
20
21.5354344892
30
0.0000000000
10
1.4401387517
20
21.5295836738
30
0.0000000000
10
1.4472514841
20
21.5260273075
30
0.0000000000
11
1.3582000730
21
21.5318984448
31
0.0000000000
11
1.3641272052
21
21.5345106467
31
0.0000000000
11
1.3830482790
21
21.5392508330
31
0.0000000000
11
1.4035506348
21
21.5394006284
31
0.0000000000
11
1.4251286215
21
21.5349563212
31
0.0000000000
11
1.4472514841
21
21.5260273075
31
0.0000000000
0
SPLINE
5
353
100
AcDbEntity
8
0
100
AcDbSpline
62
7
6
CONTINUOUS
70
0
71
3
72
9
73
5
74
3
42
0.0000001000
43
0.0000001000
44
0.0000000001
12
-0.0003653793
22
0.0095468576
32
0.0000000000
13
-0.0085030318
23
0.0051307478
33
0.0000000000
40
0.0000000000
40
0.0000000000
40
0.0000000000
40
0.0000000000
40
0.2172331805
40
1.0000000000
40
1.0000000000
40
1.0000000000
40
1.0000000000
10
8.4765091723
20
22.6954417218
30
0.0000000000
10
8.4764827148
20
22.6961330198
30
0.0000000000
10
8.4760138969
20
22.6992697222
30
0.0000000000
10
8.4735914735
20
22.7020718540
30
0.0000000000
10
8.4713728431
20
22.7034105803
30
0.0000000000
11
8.4765091723
21
22.6954417218
31
0.0000000000
11
8.4761868380
21
22.6974800230
31
0.0000000000
11
8.4713728431
21
22.7034105803
31
0.0000000000
0
SPLINE
5
354
100
AcDbEntity
8
0
100
AcDbSpline
62
7
6
CONTINUOUS
70
0
71
3
72
9
73
5
74
3
42
0.0000001000
43
0.0000001000
44
0.0000000001
12
-0.0002915661
22
0.0095821353
32
0.0000000000
13
-0.0085878303
23
0.0051799366
33
0.0000000000
40
0.0000000000
40
0.0000000000
40
0.0000000000
40
0.0000000000
40
0.2397017390
40
1.0000000000
40
1.0000000000
40
1.0000000000
40
1.0000000000
10
2.8860619774
20
25.4906669391
30
0.0000000000
10
2.8860386811
20
25.4914325572
30
0.0000000000
10
2.8855601068
20
25.4945685590
30
0.0000000000
10
2.8830880055
20
25.4973052328
30
0.0000000000
10
2.8809115681
20
25.4986179984
30
0.0000000000
11
2.8860619774
21
25.4906669391
31
0.0000000000
11
2.8856947090
21
25.4929130232
31
0.0000000000
11
2.8809115681
21
25.4986179984
31
0.0000000000
0
SPLINE
5
355
100
AcDbEntity
8
0
100
AcDbSpline
62
7
6
CONTINUOUS
70
0
71
3
72
10
73
6
74
4
42
0.0000001000
43
0.0000001000
44
0.0000000001
12
0.0003762541
22
-0.2405869004
32
0.0000000000
13
-0.2082209675
23
-0.1123399889
33
0.0000000000
40
0.0000000000
40
0.0000000000
40
0.0000000000
40
0.0000000000
40
0.1575647422
40
0.5328082202
40
1.0000000000
40
1.0000000000
40
1.0000000000
40
1.0000000000
10
13.8733554028
20
20.4717971402
30
0.0000000000
10
13.8733751643
20
20.4591611359
30
0.0000000000
10
13.8678154472
20
20.4164513680
30
0.0000000000
10
13.8213961500
20
20.3484704541
30
0.0000000000
10
13.7658672771
20
20.3104340394
30
0.0000000000
10
13.7334409023
20
20.2929392663
30
0.0000000000
11
13.8733554028
21
20.4717971402
31
0.0000000000
11
13.8684101384
21
20.4344679213
31
0.0000000000
11
13.8224057925
21
20.3585371332
31
0.0000000000
11
13.7334409023
21
20.2929392663
31
0.0000000000
0
SPLINE
5
356
100
AcDbEntity
8
0
100
AcDbSpline
62
7
6
CONTINUOUS
70
0
71
3
72
12
73
8
74
6
42
0.0000001000
43
0.0000001000
44
0.0000000001
12
-0.3738995501
22
0.3698499840
32
0.0000000000
13
-0.4705715043
23
0.2352403694
33
0.0000000000
40
0.0000000000
40
0.0000000000
40
0.0000000000
40
0.0000000000
40
0.2782016263
40
0.5360547201
40
0.7729043495
40
0.9890334496
40
1.0000000000
40
1.0000000000
40
1.0000000000
40
1.0000000000
10
13.8695127762
20
21.1014179581
30
0.0000000000
10
13.8348396219
20
21.1357155804
30
0.0000000000
10
13.7657312307
20
21.1995375364
30
0.0000000000
10
13.6596065341
20
21.2839741952
30
0.0000000000
10
13.5563004453
20
21.3538959149
30
0.0000000000
10
13.4853778444
20
21.3939014042
30
0.0000000000
10
13.4497979168
20
21.4117915032
30
0.0000000000
10
13.4480777348
20
21.4126514283
30
0.0000000000
11
13.8695127762
21
21.1014179581
31
0.0000000000
11
13.7618971140
21
21.2005434341
31
0.0000000000
11
13.6556440767
21
21.2848064781
31
0.0000000000
11
13.5523556840
21
21.3544310231
31
0.0000000000
11
13.4532322428
21
21.4100597155
31
0.0000000000
11
13.4480777348
21
21.4126514283
31
0.0000000000
0
SPLINE
5
357
100
AcDbEntity
8
0
100
AcDbSpline
62
7
6
CONTINUOUS
70
0
71
3
72
14
73
10
74
8
42
0.0000001000
43
0.0000001000
44
0.0000000001
12
0.4124812599
22
0.2033015536
32
0.0000000000
13
0.4118176649
23
-0.2059063785
33
0.0000000000
40
0.0000000000
40
0.0000000000
40
0.0000000000
40
0.0000000000
40
0.1741747360
40
0.3394143230
40
0.4961314172
40
0.6457035274
40
0.7893866376
40
0.9296309077
40
1.0000000000
40
1.0000000000
40
1.0000000000
40
1.0000000000
10
9.7952252594
20
22.9911681469
30
0.0000000000
10
9.8191731976
20
23.0029714784
30
0.0000000000
10
9.8670379347
20
23.0236636139
30
0.0000000000
10
9.9399910536
20
23.0457628921
30
0.0000000000
10
10.0114730233
20
23.0578411836
30
0.0000000000
10
10.0806723311
20
23.0597001478
30
0.0000000000
10
10.1468671117
20
23.0512523056
30
0.0000000000
10
10.1991304952
20
23.0355664218
30
0.0000000000
10
10.2286641353
20
23.0223552148
30
0.0000000000
10
10.2383238804
20
23.0175253998
30
0.0000000000
11
9.7952252594
21
22.9911681469
31
0.0000000000
11
9.8688362636
21
23.0227406263
31
0.0000000000
11
9.9416302965
21
23.0445372859
31
0.0000000000
11
10.0127317446
21
23.0563014867
31
0.0000000000
11
10.0814950452
21
23.0579226464
31
0.0000000000
11
10.1470151715
21
23.0493830755
31
0.0000000000
11
10.2087575570
21
23.0307494626
31
0.0000000000
11
10.2383238804
21
23.0175253998
31
0.0000000000
0
SPLINE
5
358
100
AcDbEntity
8
0
100
AcDbSpline
62
7
6
CONTINUOUS
70
0
71
3
72
16
73
12
74
10
42
0.0000001000
43
0.0000001000
44
0.0000000001
12
0.0000000000
22
0.6312910545
32
0.0000000000
13
-0.5653375740
23
0.2826654183
33
0.0000000000
40
0.0000000000
40
0.0000000000
40
0.0000000000
40
0.0000000000
40
0.1399435214
40
0.2734426103
40
0.4001748734
40
0.5204828508
40
0.6345329124
40
0.7434403612
40
0.8480430070
40
0.9501849209
40
1.0000000000
40
1.0000000000
40
1.0000000000
40
1.0000000000
10
6.2555775962
20
24.5979742545
30
0.0000000000
10
6.2555775962
20
24.6274226189
30
0.0000000000
10
6.2531861296
20
24.6850019721
30
0.0000000000
10
6.2418829413
20
24.7685785058
30
0.0000000000
10
6.2230436438
20
24.8465690789
30
0.0000000000
10
6.1968499953
20
24.9180909395
30
0.0000000000
10
6.1635218259
20
24.9824181246
30
0.0000000000
10
6.1233974962
20
25.0387719980
30
0.0000000000
10
6.0768319735
20
25.0865337485
30
0.0000000000
10
6.0331074057
20
25.1186366876
30
0.0000000000
10
6.0050706386
20
25.1341520766
30
0.0000000000
10
5.9956831933
20
25.1388457433
30
0.0000000000
11
6.2555775962
21
24.5979742545
31
0.0000000000
11
6.2517331724
21
24.6862356611
31
0.0000000000
11
6.2402357288
21
24.7697244900
31
0.0000000000
11
6.2212280918
21
24.8474387152
31
0.0000000000
11
6.1948797623
21
24.9186712167
31
0.0000000000
11
6.1615405014
21
24.9824859371
31
0.0000000000
11
6.1214798815
21
25.0383610232
31
0.0000000000
11
6.0752567514
21
25.0855203889
31
0.0000000000
11
6.0232229599
21
25.1236034503
31
0.0000000000
11
5.9956831933
21
25.1388457433
31
0.0000000000
0
SPLINE
5
359
100
AcDbEntity
8
0
100
AcDbSpline
62
7
6
CONTINUOUS
70
0
71
3
72
15
73
11
74
9
42
0.0000001000
43
0.0000001000
44
0.0000000001
12
0.2735530943
22
0.1364167759
32
0.0000000000
13
0.2465681254
23
-0.1675460903
33
0.0000000000
40
0.0000000000
40
0.0000000000
40
0.0000000000
40
0.0000000000
40
0.1952303224
40
0.3726971241
40
0.5315072712
40
0.6713083740
40
0.7900574792
40
0.8860490590
40
0.9568441895
40
1.0000000000
40
1.0000000000
40
1.0000000000
40
1.0000000000
10
2.5021047231
20
26.6377284150
30
0.0000000000
10
2.5199066760
20
26.6466059788
30
0.0000000000
10
2.5540063543
20
26.6633207155
30
0.0000000000
10
2.6030481845
20
26.6863171302
30
0.0000000000
10
2.6473978950
20
26.7059416521
30
0.0000000000
10
2.6868142450
20
26.7220605062
30
0.0000000000
10
2.7206748139
20
26.7342680357
30
0.0000000000
10
2.7489543946
20
26.7426975294
30
0.0000000000
10
2.7693076761
20
26.7458842995
30
0.0000000000
10
2.7823244150
20
26.7462531184
30
0.0000000000
10
2.7858713641
20
26.7438429226
30
0.0000000000
11
2.5021047231
21
26.6377284150
31
0.0000000000
11
2.5557108742
21
26.6639556252
31
0.0000000000
11
2.6048526984
21
26.6869327920
31
0.0000000000
11
2.6492772924
21
26.7065056093
31
0.0000000000
11
2.6888828035
21
26.7225568914
31
0.0000000000
11
2.7230804232
21
26.7347291832
31
0.0000000000
11
2.7513342038
21
26.7426490021
31
0.0000000000
11
2.7727474391
21
26.7457785673
31
0.0000000000
11
2.7858713641
21
26.7438429226
31
0.0000000000
0
SPLINE
5
35A
100
AcDbEntity
8
0
100
AcDbSpline
62
7
6
CONTINUOUS
70
0
71
3
72
19
73
15
74
13
42
0.0000001000
43
0.0000001000
44
0.0000000001
12
1.0614960139
22
0.5321279140
32
0.0000000000
13
0.9953746462
23
0.6474281566
33
0.0000000000
40
0.0000000000
40
0.0000000000
40
0.0000000000
40
0.0000000000
40
0.0555180937
40
0.1157552049
40
0.1807252835
40
0.2509205861
40
0.3263467259
40
0.4074319965
40
0.4941246859
40
0.5864841276
40
0.6841472322
40
0.7864322342
40
0.8922227712
40
1.0000000000
40
1.0000000000
40
1.0000000000
40
1.0000000000
10
12.8457051086
20
-17.2211066982
30
0.0000000000
10
12.8653491870
20
-17.2112591225
30
0.0000000000
10
12.9061577717
20
-17.1904283379
30
0.0000000000
10
12.9694757206
20
-17.1571449823
30
0.0000000000
10
13.0375509087
20
-17.1204358293
30
0.0000000000
10
13.1105343734
20
-17.0801709580
30
0.0000000000
10
13.1887136389
20
-17.0361271748
30
0.0000000000
10
13.2721803634
20
-16.9881726182
30
0.0000000000
10
13.3610372483
20
-16.9361529078
30
0.0000000000
10
13.4551091611
20
-16.8800606184
30
0.0000000000
10
13.5540006963
20
-16.8200080507
30
0.0000000000
10
13.6569146753
20
-16.7563451139
30
0.0000000000
10
13.7626639647
20
-16.6896647698
30
0.0000000000
10
13.8337532026
20
-16.6439263989
30
0.0000000000
10
13.8695127762
20
-16.6206670614
30
0.0000000000
11
12.8457051086
21
-17.2211066982
31
0.0000000000
11
12.9044358736
21
-17.1911654504
31
0.0000000000
11
12.9677604057
21
-17.1579094389
31
0.0000000000
11
13.0356736747
21
-17.1213133248
31
0.0000000000
11
13.1086634712
21
-17.0810669531
31
0.0000000000
11
13.1867020741
21
-17.0371211336
31
0.0000000000
11
13.2701924554
21
-16.9891688716
31
0.0000000000
11
13.3590337257
21
-16.9371711839
31
0.0000000000
11
13.4532322428
21
-16.8810129140
31
0.0000000000
11
13.5523556840
21
-16.8208248038
31
0.0000000000
11
13.6556440767
21
-16.7569299768
31
0.0000000000
11
13.7618971140
21
-16.6899242939
31
0.0000000000
11
13.8695127762
21
-16.6206670614
31
0.0000000000
0
SPLINE
5
35B
100
AcDbEntity
8
0
100
AcDbSpline
62
7
6
CONTINUOUS
70
0
71
3
72
11
73
7
74
5
42
0.0000001000
43
0.0000001000
44
0.0000000001
12
0.0000000000
22
-0.2937718750
32
0.0000000000
13
0.2627575529
23
-0.1313787765
33
0.0000000000
40
0.0000000000
40
0.0000000000
40
0.0000000000
40
0.0000000000
40
0.2473053293
40
0.5130495381
40
0.7715683987
40
1.0000000000
40
1.0000000000
40
1.0000000000
40
1.0000000000
10
7.0687503945
20
16.8009587823
30
0.0000000000
10
7.0687503945
20
16.7767416655
30
0.0000000000
10
7.0771090079
20
16.7264151281
30
0.0000000000
10
7.1073746019
20
16.6564877229
30
0.0000000000
10
7.1517694430
20
16.5968475860
30
0.0000000000
10
7.1901237074
20
16.5668821571
30
0.0000000000
10
7.2101310836
20
16.5568784690
30
0.0000000000
11
7.0687503945
21
16.8009587823
31
0.0000000000
11
7.0795425374
21
16.7291134738
31
0.0000000000
11
7.1103191073
21
16.6573677937
31
0.0000000000
11
7.1562591626
21
16.5968926667
31
0.0000000000
11
7.2101310836
21
16.5568784690
31
0.0000000000
0
SPLINE
5
35C
100
AcDbEntity
8
0
100
AcDbSpline
62
7
6
CONTINUOUS
70
0
71
3
72
11
73
7
74
5
42
0.0000001000
43
0.0000001000
44
0.0000000001
12
0.0000000000
22
-0.2937718750
32
0.0000000000
13
0.2627575529
23
-0.1313787765
33
0.0000000000
40
0.0000000000
40
0.0000000000
40
0.0000000000
40
0.0000000000
40
0.2473053293
40
0.5130495381
40
0.7715683987
40
1.0000000000
40
1.0000000000
40
1.0000000000
40
1.0000000000
10
-5.2349075981
20
22.9527877786
30
0.0000000000
10
-5.2349075981
20
22.9285706618
30
0.0000000000
10
-5.2265489847
20
22.8782441244
30
0.0000000000
10
-5.1962833908
20
22.8083167192
30
0.0000000000
10
-5.1518885496
20
22.7486765823
30
0.0000000000
10
-5.1135342853
20
22.7187111534
30
0.0000000000
10
-5.0935269091
20
22.7087074653
30
0.0000000000
11
-5.2349075981
21
22.9527877786
31
0.0000000000
11
-5.2241154553
21
22.8809424701
31
0.0000000000
11
-5.1933388854
21
22.8091967900
31
0.0000000000
11
-5.1473988301
21
22.7487216630
31
0.0000000000
11
-5.0935269091
21
22.7087074653
31
0.0000000000
0
SPLINE
5
35D
100
AcDbEntity
8
0
100
AcDbSpline
62
7
6
CONTINUOUS
70
0
71
3
72
9
73
5
74
3
42
0.0000001000
43
0.0000001000
44
0.0000000001
12
-0.0996435508
22
-0.1383128734
32
0.0000000000
13
-0.1532055486
23
-0.0775847558
33
0.0000000000
40
0.0000000000
40
0.0000000000
40
0.0000000000
40
0.0000000000
40
0.9361249658
40
1.0000000000
40
1.0000000000
40
1.0000000000
40
1.0000000000
10
-5.5700501121
20
-5.9116301395
30
0.0000000000
10
-5.6011430506
20
-5.9547895174
30
0.0000000000
10
-5.6444666424
20
-5.9951293699
30
0.0000000000
10
-5.6950996807
20
-6.0218565873
30
0.0000000000
10
-5.6983616839
20
-6.0235084969
30
0.0000000000
11
-5.5700501121
21
-5.9116301395
31
0.0000000000
11
-5.6886611293
21
-6.0183866436
31
0.0000000000
11
-5.6983616839
21
-6.0235084969
31
0.0000000000
0
SPLINE
5
35E
100
AcDbEntity
8
0
100
AcDbSpline
62
7
6
CONTINUOUS
70
0
71
3
72
8
73
4
74
2
42
0.0000001000
43
0.0000001000
44
0.0000000001
12
-0.8442193775
22
-0.4318329275
32
0.0000000000
13
-0.8443098997
23
-0.4316559436
33
0.0000000000
40
0.0000000000
40
0.0000000000
40
0.0000000000
40
0.0000000000
40
1.0000000000
40
1.0000000000
40
1.0000000000
40
1.0000000000
10
-4.7257884219
20
-5.4798799400
30
0.0000000000
10
-5.0071948811
20
-5.6238242491
30
0.0000000000
10
-5.2886134788
20
-5.7677448249
30
0.0000000000
10
-5.5700501121
20
-5.9116301395
30
0.0000000000
11
-4.7257884219
21
-5.4798799400
31
0.0000000000
11
-5.5700501121
21
-5.9116301395
31
0.0000000000
0
SPLINE
5
35F
100
AcDbEntity
8
0
100
AcDbSpline
62
7
6
CONTINUOUS
70
0
71
3
72
8
73
4
74
2
42
0.0000001000
43
0.0000001000
44
0.0000000001
12
-0.0392149055
22
-0.0191625730
32
0.0000000000
13
-0.0392147086
23
-0.0191629760
33
0.0000000000
40
0.0000000000
40
0.0000000000
40
0.0000000000
40
0.0000000000
40
1.0000000000
40
1.0000000000
40
1.0000000000
40
1.0000000000
10
-6.3449645742
20
-4.3687263603
30
0.0000000000
10
-6.3580362093
20
-4.3751138846
30
0.0000000000
10
-6.3711078120
20
-4.3815014756
30
0.0000000000
10
-6.3841793815
20
-4.3878891342
30
0.0000000000
11
-6.3449645742
21
-4.3687263603
31
0.0000000000
11
-6.3841793815
21
-4.3878891342
31
0.0000000000
0
SPLINE
5
360
100
AcDbEntity
8
0
100
AcDbSpline
62
7
6
CONTINUOUS
70
0
71
3
72
8
73
4
74
2
42
0.0000001000
43
0.0000001000
44
0.0000000001
12
-0.1136527304
22
-0.0555384604
32
0.0000000000
13
-0.1136510217
23
-0.0555419580
33
0.0000000000
40
0.0000000000
40
0.0000000000
40
0.0000000000
40
0.0000000000
40
1.0000000000
40
1.0000000000
40
1.0000000000
40
1.0000000000
10
-6.3841793815
20
-4.3878891342
30
0.0000000000
10
-6.4220636250
20
-4.4064019543
30
0.0000000000
10
-6.4599475905
20
-4.4249153435
30
0.0000000000
10
-6.4978312644
20
-4.4434293295
30
0.0000000000
11
-6.3841793815
21
-4.3878891342
31
0.0000000000
11
-6.4978312644
21
-4.4434293295
31
0.0000000000
0
SPLINE
5
361
100
AcDbEntity
8
0
100
AcDbSpline
62
7
6
CONTINUOUS
70
0
71
3
72
8
73
4
74
2
42
0.0000001000
43
0.0000001000
44
0.0000000001
12
-0.1520332972
22
-0.0742996136
32
0.0000000000
13
-0.1520300688
23
-0.0743062218
33
0.0000000000
40
0.0000000000
40
0.0000000000
40
0.0000000000
40
0.0000000000
40
1.0000000000
40
1.0000000000
40
1.0000000000
40
1.0000000000
10
-6.4978312644
20
-4.4434293295
30
0.0000000000
10
-6.5485090301
20
-4.4681958673
30
0.0000000000
10
-6.5991862741
20
-4.4929634733
30
0.0000000000
10
-6.6498629637
20
-4.5177322139
30
0.0000000000
11
-6.4978312644
21
-4.4434293295
31
0.0000000000
11
-6.6498629637
21
-4.5177322139
31
0.0000000000
0
SPLINE
5
362
100
AcDbEntity
8
0
100
AcDbSpline
62
7
6
CONTINUOUS
70
0
71
3
72
17
73
13
74
11
42
0.0000001000
43
0.0000001000
44
0.0000000001
12
0.3368359012
22
0.4070400689
32
0.0000000000
13
-0.2179357261
23
0.4812941526
33
0.0000000000
40
0.0000000000
40
0.0000000000
40
0.0000000000
40
0.0000000000
40
0.0779683167
40
0.1606217195
40
0.2486522507
40
0.3423320892
40
0.4415691156
40
0.5459701958
40
0.6549011498
40
0.7675403237
40
0.8829261315
40
1.0000000000
40
1.0000000000
40
1.0000000000
40
1.0000000000
10
8.3106888988
20
21.7071302798
30
0.0000000000
10
8.3194430749
20
21.7177090228
30
0.0000000000
10
8.3354574019
20
21.7412329834
30
0.0000000000
10
8.3539190273
20
21.7811198956
30
0.0000000000
10
8.3672315327
20
21.8258854074
30
0.0000000000
10
8.3752232194
20
21.8748322759
30
0.0000000000
10
8.3778042919
20
21.9272291080
30
0.0000000000
10
8.3749494453
20
21.9822872621
30
0.0000000000
10
8.3667101183
20
22.0391758590
30
0.0000000000
10
8.3532147165
20
22.0970333261
30
0.0000000000
10
8.3346725485
20
22.1549750479
30
0.0000000000
10
8.3191937584
20
22.1929263436
30
0.0000000000
10
8.3106888988
20
22.2117086663
30
0.0000000000
11
8.3106888988
21
21.7071302798
31
0.0000000000
11
8.3340268785
21
21.7410750485
31
0.0000000000
11
8.3525636013
21
21.7806143812
31
0.0000000000
11
8.3660126049
21
21.8251372405
31
0.0000000000
11
8.3741660515
21
21.8739555751
31
0.0000000000
11
8.3768979397
21
21.9263149526
31
0.0000000000
11
8.3741660515
21
21.9814062183
31
0.0000000000
11
8.3660126049
21
22.0383779995
31
0.0000000000
11
8.3525636013
21
22.0963498624
31
0.0000000000
11
8.3340268785
21
22.1544259179
31
0.0000000000
11
8.3106888988
21
22.2117086663
31
0.0000000000
0
SPLINE
5
363
100
AcDbEntity
8
0
100
AcDbSpline
62
7
6
CONTINUOUS
70
0
71
3
72
15
73
11
74
9
42
0.0000001000
43
0.0000001000
44
0.0000000001
12
0.0000000000
22
-0.3131529002
32
0.0000000000
13
-0.2787499539
23
-0.1438123534
33
0.0000000000
40
0.0000000000
40
0.0000000000
40
0.0000000000
40
0.0000000000
40
0.1622423136
40
0.3165130838
40
0.4613817642
40
0.5973510695
40
0.7265006688
40
0.8494910500
40
0.9681360236
40
1.0000000000
40
1.0000000000
40
1.0000000000
40
1.0000000000
10
8.4771016709
20
-21.7294016985
30
0.0000000000
10
8.4771016709
20
-21.7463372489
30
0.0000000000
10
8.4755233957
20
-21.7794068201
30
0.0000000000
10
8.4679920264
20
-21.8270802269
30
0.0000000000
10
8.4554296455
20
-21.8708614828
30
0.0000000000
10
8.4379910142
20
-21.9101122855
30
0.0000000000
10
8.4158518970
20
-21.9442648443
30
0.0000000000
10
8.3892898047
20
-21.9727157018
30
0.0000000000
10
8.3660604925
20
-21.9896218416
30
0.0000000000
10
8.3522681067
20
-21.9972085528
30
0.0000000000
10
8.3493074127
20
-21.9987360306
30
0.0000000000
11
8.4771016709
21
-21.7294016985
31
0.0000000000
11
8.4745408078
21
-21.7801437695
31
0.0000000000
11
8.4668402105
21
-21.8278364279
31
0.0000000000
11
8.4541516938
21
-21.8713919075
31
0.0000000000
11
8.4366891803
21
-21.9102254933
31
0.0000000000
11
8.4145351316
21
-21.9440615778
31
0.0000000000
11
8.3881461513
21
-21.9721152962
31
0.0000000000
11
8.3580628002
21
-21.9939192640
31
0.0000000000
11
8.3493074127
21
-21.9987360306
31
0.0000000000
0
SPLINE
5
364
100
AcDbEntity
8
0
100
AcDbSpline
62
7
6
CONTINUOUS
70
0
71
3
72
20
73
16
74
14
42
0.0000001000
43
0.0000001000
44
0.0000000001
12
0.6584697979
22
-0.3292348990
32
0.0000000000
13
0.0000000000
23
-0.7361916147
33
0.0000000000
40
0.0000000000
40
0.0000000000
40
0.0000000000
40
0.0000000000
40
0.0665289939
40
0.1371219769
40
0.2109079888
40
0.2874236502
40
0.3667701332
40
0.4477219012
40
0.5291918747
40
0.6113730902
40
0.6931639701
40
0.7732277200
40
0.8515463043
40
0.9275128730
40
1.0000000000
40
1.0000000000
40
1.0000000000
40
1.0000000000
10
8.1235527677
20
16.8022360197
30
0.0000000000
10
8.1381552120
20
16.7949347975
30
0.0000000000
10
8.1673601769
20
16.7780541929
30
0.0000000000
10
8.2092670758
20
16.7475445767
30
0.0000000000
10
8.2499188332
20
16.7115710269
30
0.0000000000
10
8.2887559292
20
16.6706446192
30
0.0000000000
10
8.3252300867
20
16.6253238950
30
0.0000000000
10
8.3587623797
20
16.5763100259
30
0.0000000000
10
8.3888823560
20
16.5243260220
30
0.0000000000
10
8.4151804229
20
16.4700786626
30
0.0000000000
10
8.4372567610
20
16.4143501269
30
0.0000000000
10
8.4547776428
20
16.3580166226
30
0.0000000000
10
8.4675120630
20
16.3018704539
30
0.0000000000
10
8.4752734603
20
16.2466996673
30
0.0000000000
10
8.4771016709
20
16.2102516603
30
0.0000000000
10
8.4771016709
20
16.1924635220
30
0.0000000000
11
8.1235527677
21
16.8022360197
31
0.0000000000
11
8.1660334181
21
16.7778588298
31
0.0000000000
11
8.2081264458
21
16.7473784430
31
0.0000000000
11
8.2488761627
21
16.7114591883
31
0.0000000000
11
8.2877101681
21
16.6706546525
31
0.0000000000
11
8.3243809638
21
16.6251851758
31
0.0000000000
11
8.3580628002
21
16.5760199581
31
0.0000000000
11
8.3881461513
21
16.5241326393
31
0.0000000000
11
8.4145351316
21
16.4696899405
31
0.0000000000
11
8.4366891803
21
16.4136998073
31
0.0000000000
11
8.4541516938
21
16.3574037081
31
0.0000000000
11
8.4668402105
21
16.3011597118
31
0.0000000000
11
8.4745408078
21
16.2457664560
31
0.0000000000
11
8.4771016709
21
16.1924635220
31
0.0000000000
0
SPLINE
5
365
100
AcDbEntity
8
0
100
AcDbSpline
62
7
6
CONTINUOUS
70
0
71
3
72
9
73
5
74
3
42
0.0000001000
43
0.0000001000
44
0.0000000001
12
-0.2068414878
22
0.1030522908
32
0.0000000000
13
-0.1358505531
23
0.1850874232
33
0.0000000000
40
0.0000000000
40
0.0000000000
40
0.0000000000
40
0.0000000000
40
0.1919481294
40
1.0000000000
40
1.0000000000
40
1.0000000000
40
1.0000000000
10
-7.4738963309
20
-0.2190929948
30
0.0000000000
10
-7.4871306098
20
-0.2124994300
30
0.0000000000
10
-7.5544002110
20
-0.1748129864
30
0.0000000000
10
-7.6109884206
20
-0.1200199189
30
0.0000000000
10
-7.6475798518
20
-0.0701665060
30
0.0000000000
11
-7.4738963309
21
-0.2190929948
31
0.0000000000
11
-7.5125616119
21
-0.1974014674
31
0.0000000000
11
-7.6475798518
21
-0.0701665060
31
0.0000000000
0
SPLINE
5
366
100
AcDbEntity
8
0
100
AcDbSpline
62
9
6
CONTINUOUS
70
0
71
3
72
12
73
8
74
6
42
0.0000001000
43
0.0000001000
44
0.0000000001
12
0.5857141878
22
-0.2931448574
32
0.0000000000
13
0.5719887086
23
0.3190986282
33
0.0000000000
40
0.0000000000
40
0.0000000000
40
0.0000000000
40
0.0000000000
40
0.1857500211
40
0.3912915380
40
0.6037365690
40
0.8108262050
40
1.0000000000
40
1.0000000000
40
1.0000000000
40
1.0000000000
10
5.6921483178
20
16.0445078186
30
0.0000000000
10
5.7284137921
20
16.0263572641
30
0.0000000000
10
5.8102709726
20
15.9989228990
30
0.0000000000
10
5.9414780380
20
15.9814407582
30
0.0000000000
10
6.0785213595
20
15.9857883687
30
0.0000000000
10
6.2094551624
20
16.0115343010
30
0.0000000000
10
6.2906194203
20
16.0437683060
30
0.0000000000
10
6.3266878452
20
16.0638900055
30
0.0000000000
11
5.6921483178
21
16.0445078186
31
0.0000000000
11
5.8068473138
21
16.0039395357
31
0.0000000000
11
5.9401715463
21
15.9852703976
31
0.0000000000
11
6.0792499451
21
15.9896275119
31
0.0000000000
11
6.2121966348
21
16.0165181856
31
0.0000000000
11
6.3266878452
21
16.0638900055
31
0.0000000000
0
SPLINE
5
367
100
AcDbEntity
8
0
100
AcDbSpline
62
9
6
CONTINUOUS
70
0
71
3
72
12
73
8
74
6
42
0.0000001000
43
0.0000001000
44
0.0000000001
12
0.1033509810
22
0.0503026782
32
0.0000000000
13
0.1023389239
23
-0.0517640491
33
0.0000000000
40
0.0000000000
40
0.0000000000
40
0.0000000000
40
0.0000000000
40
0.1432297931
40
0.3384646758
40
0.5440021168
40
0.7638693775
40
1.0000000000
40
1.0000000000
40
1.0000000000
40
1.0000000000
10
-6.6848051597
20
25.8030501251
30
0.0000000000
10
-6.6798708465
20
25.8054517391
30
0.0000000000
10
-6.6677098842
20
25.8101037913
30
0.0000000000
10
-6.6470128493
20
25.8134771777
30
0.0000000000
10
-6.6231586481
20
25.8122437925
30
0.0000000000
10
-6.5984684929
20
25.8062246700
30
0.0000000000
10
-6.5823487991
20
25.7993909642
30
0.0000000000
10
-6.5742936812
20
25.7953166052
30
0.0000000000
11
-6.6848051597
21
25.8030501251
31
0.0000000000
11
-6.6694501570
21
25.8089317814
31
0.0000000000
11
-6.6473678224
21
25.8126345148
31
0.0000000000
11
-6.6238198784
21
25.8115660550
31
0.0000000000
11
-6.5992845538
21
25.8057484901
31
0.0000000000
11
-6.5742936812
21
25.7953166052
31
0.0000000000
0
SPLINE
5
368
100
AcDbEntity
8
0
100
AcDbSpline
62
7
6
CONTINUOUS
70
0
71
3
72
12
73
8
74
6
42
0.0000001000
43
0.0000001000
44
0.0000000001
12
0.1036858888
22
0.0504661448
32
0.0000000000
13
0.1029116992
23
-0.0514558496
33
0.0000000000
40
0.0000000000
40
0.0000000000
40
0.0000000000
40
0.0000000000
40
0.1428278402
40
0.3379430546
40
0.5435220617
40
0.7634863971
40
1.0000000000
40
1.0000000000
40
1.0000000000
40
1.0000000000
10
-7.2196751353
20
25.5424980405
30
0.0000000000
10
-7.2147387248
20
25.5449006973
30
0.0000000000
10
-7.2025580797
20
25.5495624942
30
0.0000000000
10
-7.1818168862
20
25.5529633124
30
0.0000000000
10
-7.1578836987
20
25.5517776616
30
0.0000000000
10
-7.1330749585
20
25.5458185701
30
0.0000000000
10
-7.1168568988
20
25.5390258081
30
0.0000000000
10
-7.1087435599
20
25.5349691386
30
0.0000000000
11
-7.2196751353
21
25.5424980405
31
0.0000000000
11
-7.2043148927
21
25.5483862042
31
0.0000000000
11
-7.1821781657
21
25.5521218644
31
0.0000000000
11
-7.1585465388
21
25.5511009446
31
0.0000000000
11
-7.1339011006
21
25.5453442850
31
0.0000000000
11
-7.1087435599
21
25.5349691386
31
0.0000000000
0
SPLINE
5
369
100
AcDbEntity
8
0
100
AcDbSpline
62
9
6
CONTINUOUS
70
0
71
3
72
8
73
4
74
2
42
0.0000001000
43
0.0000001000
44
0.0000000001
12
0.0095703014
22
0.0046580352
32
0.0000000000
13
0.0100339070
23
0.0035525161
33
0.0000000000
40
0.0000000000
40
0.0000000000
40
0.0000000000
40
0.0000000000
40
1.0000000000
40
1.0000000000
40
1.0000000000
40
1.0000000000
10
5.6188528244
20
19.6512211179
30
0.0000000000
10
5.6220429248
20
19.6527737962
30
0.0000000000
10
5.6253215924
20
19.6541455035
30
0.0000000000
10
5.6286662281
20
19.6553296755
30
0.0000000000
11
5.6188528244
21
19.6512211179
31
0.0000000000
11
5.6286662281
21
19.6553296755
31
0.0000000000
0
SPLINE
5
36A
100
AcDbEntity
8
0
100
AcDbSpline
62
9
6
CONTINUOUS
70
0
71
3
72
12
73
8
74
6
42
0.0000001000
43
0.0000001000
44
0.0000000001
12
0.0983235724
22
0.0348115721
32
0.0000000000
13
0.0928623200
23
-0.0469706883
33
0.0000000000
40
0.0000000000
40
0.0000000000
40
0.0000000000
40
0.0000000000
40
0.0555968530
40
0.2707195796
40
0.4972005928
40
0.7394675141
40
1.0000000000
40
1.0000000000
40
1.0000000000
40
1.0000000000
10
5.6286662281
20
19.6553296755
30
0.0000000000
10
5.6304883885
20
19.6559748135
30
0.0000000000
10
5.6394564347
20
19.6588451684
30
0.0000000000
10
5.6566205480
20
19.6616467410
30
0.0000000000
10
5.6804713861
20
19.6604188743
30
0.0000000000
10
5.7051707565
20
19.6544029105
30
0.0000000000
10
5.7212997611
20
19.6475667389
30
0.0000000000
10
5.7293643115
20
19.6434876089
30
0.0000000000
11
5.6286662281
21
19.6553296755
31
0.0000000000
11
5.6341877946
21
19.6570970422
31
0.0000000000
11
5.6562656173
21
19.6608040983
31
0.0000000000
11
5.6798105194
21
19.6597410075
31
0.0000000000
11
5.7043432153
21
19.6539294103
31
0.0000000000
11
5.7293643115
21
19.6434876089
31
0.0000000000
0
SPLINE
5
36B
100
AcDbEntity
8
0
100
AcDbSpline
62
7
6
CONTINUOUS
70
0
71
3
72
12
73
8
74
6
42
0.0000001000
43
0.0000001000
44
0.0000000001
12
0.1036858888
22
0.0504661448
32
0.0000000000
13
0.1029116992
23
-0.0514558496
33
0.0000000000
40
0.0000000000
40
0.0000000000
40
0.0000000000
40
0.0000000000
40
0.1428278402
40
0.3379430546
40
0.5435220617
40
0.7634863971
40
1.0000000000
40
1.0000000000
40
1.0000000000
40
1.0000000000
10
5.0839828573
20
19.3906690442
30
0.0000000000
10
5.0889192678
20
19.3930717010
30
0.0000000000
10
5.1010999130
20
19.3977334979
30
0.0000000000
10
5.1218411064
20
19.4011343161
30
0.0000000000
10
5.1457742940
20
19.3999486653
30
0.0000000000
10
5.1705830342
20
19.3939895737
30
0.0000000000
10
5.1868010939
20
19.3871968118
30
0.0000000000
10
5.1949144328
20
19.3831401423
30
0.0000000000
11
5.0839828573
21
19.3906690442
31
0.0000000000
11
5.0993430999
21
19.3965572079
31
0.0000000000
11
5.1214798270
21
19.4002928680
31
0.0000000000
11
5.1451114539
21
19.3992719482
31
0.0000000000
11
5.1697568920
21
19.3935152887
31
0.0000000000
11
5.1949144328
21
19.3831401423
31
0.0000000000
0
SPLINE
5
36C
100
AcDbEntity
8
0
100
AcDbSpline
62
7
6
CONTINUOUS
70
0
71
3
72
14
73
10
74
8
42
0.0000001000
43
0.0000001000
44
0.0000000001
12
-0.4118176649
22
0.2059063785
32
0.0000000000
13
-0.4124812599
23
-0.2033015536
33
0.0000000000
40
0.0000000000
40
0.0000000000
40
0.0000000000
40
0.0000000000
40
0.0703690923
40
0.2106133624
40
0.3542964726
40
0.5038685828
40
0.6605856770
40
0.8258252640
40
1.0000000000
40
1.0000000000
40
1.0000000000
40
1.0000000000
10
5.9956831933
20
25.1388457433
30
0.0000000000
10
5.9860234482
20
25.1436755583
30
0.0000000000
10
5.9564898081
20
25.1568867654
30
0.0000000000
10
5.9042264246
20
25.1725726492
30
0.0000000000
10
5.8380316440
20
25.1810204914
30
0.0000000000
10
5.7688323362
20
25.1791615271
30
0.0000000000
10
5.6973503665
20
25.1670832357
30
0.0000000000
10
5.6243972476
20
25.1449839575
30
0.0000000000
10
5.5765325105
20
25.1242918219
30
0.0000000000
10
5.5525845723
20
25.1124884904
30
0.0000000000
11
5.9956831933
21
25.1388457433
31
0.0000000000
11
5.9661168699
21
25.1520698062
31
0.0000000000
11
5.9043744844
21
25.1707034190
31
0.0000000000
11
5.8388543581
21
25.1792429900
31
0.0000000000
11
5.7700910574
21
25.1776218303
31
0.0000000000
11
5.6989896094
21
25.1658576295
31
0.0000000000
11
5.6261955765
21
25.1440609698
31
0.0000000000
11
5.5525845723
21
25.1124884904
31
0.0000000000
0
SPLINE
5
36D
100
AcDbEntity
8
0
100
AcDbSpline
62
9
6
CONTINUOUS
70
0
71
3
72
8
73
4
74
2
42
0.0000001000
43
0.0000001000
44
0.0000000001
12
-0.0378946176
22
0.0183930207
32
0.0000000000
13
-0.0414102124
23
-0.0022456478
33
0.0000000000
40
0.0000000000
40
0.0000000000
40
0.0000000000
40
0.0000000000
40
1.0000000000
40
1.0000000000
40
1.0000000000
40
1.0000000000
10
13.2786083550
20
-13.4517089885
30
0.0000000000
10
13.2659768158
20
-13.4455779816
30
0.0000000000
10
13.2514567657
20
-13.4428641319
30
0.0000000000
10
13.2376533615
20
-13.4436126812
30
0.0000000000
11
13.2786083550
21
-13.4517089885
31
0.0000000000
11
13.2376533615
21
-13.4436126812
31
0.0000000000
0
SPLINE
5
36E
100
AcDbEntity
8
0
100
AcDbSpline
62
7
6
CONTINUOUS
70
0
71
3
72
15
73
11
74
9
42
0.0000001000
43
0.0000001000
44
0.0000000001
12
-0.5600794601
22
0.2799857150
32
0.0000000000
13
-0.5627365709
23
-0.2741268104
33
0.0000000000
40
0.0000000000
40
0.0000000000
40
0.0000000000
40
0.0000000000
40
0.1559314404
40
0.3060358405
40
0.4430790789
40
0.5687195259
40
0.6853297754
40
0.7945439042
40
0.8988435090
40
1.0000000000
40
1.0000000000
40
1.0000000000
40
1.0000000000
10
13.4480777348
20
21.4126514283
30
0.0000000000
10
13.4189664024
20
21.4272042869
30
0.0000000000
10
13.3607009730
20
21.4535201624
30
0.0000000000
10
13.2732331786
20
21.4838919560
30
0.0000000000
10
13.1893128953
20
21.5039418106
30
0.0000000000
10
13.1106496269
20
21.5139970204
30
0.0000000000
10
13.0371465842
20
21.5148471142
30
0.0000000000
10
12.9685115942
20
21.5071062121
30
0.0000000000
10
12.9046136316
20
21.4912106921
30
0.0000000000
10
12.8646799276
20
21.4751714577
30
0.0000000000
10
12.8457051086
20
21.4659282223
30
0.0000000000
11
13.4480777348
21
21.4126514283
31
0.0000000000
11
13.3590337257
21
21.4526354240
31
0.0000000000
11
13.2701924554
21
21.4832198763
31
0.0000000000
11
13.1867020741
21
21.5029183577
31
0.0000000000
11
13.1086634712
21
21.5126665576
31
0.0000000000
11
13.0356736747
21
21.5133074181
31
0.0000000000
11
12.9677604057
21
21.5054789383
31
0.0000000000
11
12.9044358736
21
21.4895931255
31
0.0000000000
11
12.8457051086
21
21.4659282223
31
0.0000000000
0
SPLINE
5
36F
100
AcDbEntity
8
0
100
AcDbSpline
62
9
6
CONTINUOUS
70
0
71
3
72
9
73
5
74
3
42
0.0000001000
43
0.0000001000
44
0.0000000001
12
-0.0002104389
22
-0.0933538471
32
0.0000000000
13
-0.0837460446
23
-0.0426102970
33
0.0000000000
40
0.0000000000
40
0.0000000000
40
0.0000000000
40
0.0000000000
40
0.4300270399
40
1.0000000000
40
1.0000000000
40
1.0000000000
40
1.0000000000
10
13.3892837042
20
-13.6305566921
30
0.0000000000
10
13.3892535394
20
-13.6439382516
30
0.0000000000
10
13.3748944327
20
-13.6751321209
30
0.0000000000
10
13.3478454925
20
-13.6925520478
30
0.0000000000
10
13.3319344988
20
-13.7006476202
30
0.0000000000
11
13.3892837042
21
-13.6305566921
31
0.0000000000
11
13.3745572858
21
-13.6682195439
31
0.0000000000
11
13.3319344988
21
-13.7006476202
31
0.0000000000
0
SPLINE
5
370
100
AcDbEntity
8
0
100
AcDbSpline
62
9
6
CONTINUOUS
70
0
71
3
72
12
73
8
74
6
42
0.0000001000
43
0.0000001000
44
0.0000000001
12
-0.3865184752
22
-0.2204915382
32
0.0000000000
13
0.3980863589
23
-0.1988474314
33
0.0000000000
40
0.0000000000
40
0.0000000000
40
0.0000000000
40
0.0000000000
40
0.2333647401
40
0.4214768809
40
0.5877661885
40
0.7716867493
40
1.0000000000
40
1.0000000000
40
1.0000000000
40
1.0000000000
10
-8.3001212049
20
23.3772945306
30
0.0000000000
10
-8.3301877994
20
23.3601428804
30
0.0000000000
10
-8.3815161047
20
23.3229557902
30
0.0000000000
10
-8.4313418193
20
23.2473325510
30
0.0000000000
10
-8.4315371408
20
23.1624874784
30
0.0000000000
10
-8.3807018137
20
23.0886841620
30
0.0000000000
10
-8.3285715293
20
23.0548528449
30
0.0000000000
10
-8.2982753990
20
23.0397196770
30
0.0000000000
11
-8.3001212049
21
23.3772945306
31
0.0000000000
11
-8.3822448984
21
23.3137389499
31
0.0000000000
11
-8.4247637747
21
23.2416343724
31
0.0000000000
11
-8.4245639209
21
23.1676381332
31
0.0000000000
11
-8.3814362794
21
23.0980813292
31
0.0000000000
11
-8.2982753990
21
23.0397196770
31
0.0000000000
0
SPLINE
5
371
100
AcDbEntity
8
0
100
AcDbSpline
62
9
6
CONTINUOUS
70
0
71
3
72
12
73
8
74
6
42
0.0000001000
43
0.0000001000
44
0.0000000001
12
-0.1029975786
22
0.0514556913
32
0.0000000000
13
-0.1030457036
23
-0.0507886144
33
0.0000000000
40
0.0000000000
40
0.0000000000
40
0.0000000000
40
0.0000000000
40
0.1465014453
40
0.3409787459
40
0.5457177993
40
0.7646569150
40
1.0000000000
40
1.0000000000
40
1.0000000000
40
1.0000000000
10
-6.4635192728
20
25.8019053931
30
0.0000000000
10
-6.4685490375
20
25.8044181708
30
0.0000000000
10
-6.4807836773
20
25.8092154735
30
0.0000000000
10
-6.5015544883
20
25.8127547126
30
0.0000000000
10
-6.5253616908
20
25.8117268256
30
0.0000000000
10
-6.5500551460
20
25.8059561067
30
0.0000000000
10
-6.5662099832
20
25.7993008549
30
0.0000000000
10
-6.5742936812
20
25.7953166052
30
0.0000000000
11
-6.4635192728
21
25.8019053931
31
0.0000000000
11
-6.4791995086
21
25.8080631377
31
0.0000000000
11
-6.5012067183
21
25.8119161968
31
0.0000000000
11
-6.5247115672
21
25.8110486009
31
0.0000000000
11
-6.5492390962
21
25.8054778815
31
0.0000000000
11
-6.5742936812
21
25.7953166052
31
0.0000000000
0
SPLINE
5
372
100
AcDbEntity
8
0
100
AcDbSpline
62
7
6
CONTINUOUS
70
0
71
3
72
13
73
9
74
7
42
0.0000001000
43
0.0000001000
44
0.0000000001
12
-1.1324437887
22
-0.5734803707
32
0.0000000000
13
-0.4947333821
23
1.1588537331
33
0.0000000000
40
0.0000000000
40
0.0000000000
40
0.0000000000
40
0.0000000000
40
0.1165919722
40
0.2558133151
40
0.4170020113
40
0.5991026204
40
0.7962700953
40
1.0000000000
40
1.0000000000
40
1.0000000000
40
1.0000000000
10
-5.6983616839
20
-6.0235084969
30
0.0000000000
10
-5.7423729688
20
-6.0457962328
30
0.0000000000
10
-5.8500476277
20
-6.0726135060
30
0.0000000000
10
-6.0266312511
20
-6.0421137778
30
0.0000000000
10
-6.2081568861
20
-5.9468605383
30
0.0000000000
10
-6.3804401007
20
-5.7964845990
30
0.0000000000
10
-6.5317006897
20
-5.6023389395
30
0.0000000000
10
-6.6113537887
20
-5.4528773572
30
0.0000000000
10
-6.6449511170
20
-5.3741796370
30
0.0000000000
11
-5.6983616839
21
-6.0235084969
31
0.0000000000
11
-5.8406581159
21
-6.0607839711
31
0.0000000000
11
-6.0142804164
21
-6.0357024504
31
0.0000000000
11
-6.1959424704
21
-5.9448714219
31
0.0000000000
11
-6.3704506183
21
-5.7958877180
31
0.0000000000
11
-6.5241055677
21
-5.6006644221
31
0.0000000000
11
-6.6449511170
21
-5.3741796370
31
0.0000000000
0
SPLINE
5
373
100
AcDbEntity
8
0
100
AcDbSpline
62
9
6
CONTINUOUS
70
0
71
3
72
12
73
8
74
6
42
0.0000001000
43
0.0000001000
44
0.0000000001
12
-0.1029975786
22
0.0514556913
32
0.0000000000
13
-0.1030457036
23
-0.0507886144
33
0.0000000000
40
0.0000000000
40
0.0000000000
40
0.0000000000
40
0.0000000000
40
0.1465014453
40
0.3409787459
40
0.5457177993
40
0.7646569150
40
1.0000000000
40
1.0000000000
40
1.0000000000
40
1.0000000000
10
-4.7726397216
20
24.9564656175
30
0.0000000000
10
-4.7776694863
20
24.9589783952
30
0.0000000000
10
-4.7899041261
20
24.9637756979
30
0.0000000000
10
-4.8106749372
20
24.9673149370
30
0.0000000000
10
-4.8344821396
20
24.9662870501
30
0.0000000000
10
-4.8591755948
20
24.9605163311
30
0.0000000000
10
-4.8753304321
20
24.9538610794
30
0.0000000000
10
-4.8834141300
20
24.9498768296
30
0.0000000000
11
-4.7726397216
21
24.9564656175
31
0.0000000000
11
-4.7883199575
21
24.9626233622
31
0.0000000000
11
-4.8103271671
21
24.9664764212
31
0.0000000000
11
-4.8338320160
21
24.9656088253
31
0.0000000000
11
-4.8583595451
21
24.9600381059
31
0.0000000000
11
-4.8834141300
21
24.9498768296
31
0.0000000000
0
SPLINE
5
374
100
AcDbEntity
8
0
100
AcDbSpline
62
9
6
CONTINUOUS
70
0
71
3
72
12
73
8
74
6
42
0.0000001000
43
0.0000001000
44
0.0000000001
12
0.5857141878
22
-0.2931448574
32
0.0000000000
13
0.5719887086
23
0.3190986282
33
0.0000000000
40
0.0000000000
40
0.0000000000
40
0.0000000000
40
0.0000000000
40
0.1857500211
40
0.3912915380
40
0.6037365690
40
0.8108262050
40
1.0000000000
40
1.0000000000
40
1.0000000000
40
1.0000000000
10
-6.6115096748
20
22.1963368149
30
0.0000000000
10
-6.5752442006
20
22.1781862604
30
0.0000000000
10
-6.4933870200
20
22.1507518953
30
0.0000000000
10
-6.3621799547
20
22.1332697545
30
0.0000000000
10
-6.2251366331
20
22.1376173651
30
0.0000000000
10
-6.0942028302
20
22.1633632973
30
0.0000000000
10
-6.0130385723
20
22.1955973024
30
0.0000000000
10
-5.9769701474
20
22.2157190019
30
0.0000000000
11
-6.6115096748
21
22.1963368149
31
0.0000000000
11
-6.4968106789
21
22.1557685320
31
0.0000000000
11
-6.3634864463
21
22.1370993939
31
0.0000000000
11
-6.2244080476
21
22.1414565082
31
0.0000000000
11
-6.0914613579
21
22.1683471819
31
0.0000000000
11
-5.9769701474
21
22.2157190019
31
0.0000000000
0
SPLINE
5
375
100
AcDbEntity
8
0
100
AcDbSpline
62
7
6
CONTINUOUS
70
0
71
3
72
10
73
6
74
4
42
0.0000001000
43
0.0000001000
44
0.0000000001
12
-0.0056558420
22
0.8564631999
32
0.0000000000
13
-0.0042486195
23
0.8564713367
33
0.0000000000
40
0.0000000000
40
0.0000000000
40
0.0000000000
40
0.0000000000
40
0.3332433883
40
0.6665767368
40
1.0000000000
40
1.0000000000
40
1.0000000000
40
1.0000000000
10
-7.5541394088
20
-4.9195854911
30
0.0000000000
10
-7.5547676661
20
-4.8244485915
30
0.0000000000
10
-7.5559721891
20
-4.6341487611
30
0.0000000000
10
-7.5576228173
20
-4.3486595618
30
0.0000000000
10
-7.5586191598
20
-4.1583071737
30
0.0000000000
10
-7.5590913560
20
-4.0631180177
30
0.0000000000
11
-7.5541394088
21
-4.9195854911
31
0.0000000000
11
-7.5559459704
21
-4.6341742866
31
0.0000000000
11
-7.5575966197
21
-4.3486850873
31
0.0000000000
11
-7.5590913560
21
-4.0631180177
31
0.0000000000
0
SPLINE
5
376
100
AcDbEntity
8
0
100
AcDbSpline
62
9
6
CONTINUOUS
70
0
71
3
72
8
73
4
74
2
42
0.0000001000
43
0.0000001000
44
0.0000000001
12
-0.0379416118
22
0.0184852025
32
0.0000000000
13
-0.0415110724
23
-0.0022511173
33
0.0000000000
40
0.0000000000
40
0.0000000000
40
0.0000000000
40
0.0000000000
40
1.0000000000
40
1.0000000000
40
1.0000000000
40
1.0000000000
10
13.1291504104
20
-13.3769713349
30
0.0000000000
10
13.1165032064
20
-13.3708096007
30
0.0000000000
10
13.1019483151
20
-13.3680912735
30
0.0000000000
10
13.0881112909
20
-13.3688416459
30
0.0000000000
11
13.1291504104
21
-13.3769713349
31
0.0000000000
11
13.0881112909
21
-13.3688416459
31
0.0000000000
0
SPLINE
5
377
100
AcDbEntity
8
0
100
AcDbSpline
62
9
6
CONTINUOUS
70
0
71
3
72
14
73
10
74
8
42
0.0000001000
43
0.0000001000
44
0.0000000001
12
-0.0263079950
22
-0.2344152188
32
0.0000000000
13
0.2103114993
23
-0.1044114567
33
0.0000000000
40
0.0000000000
40
0.0000000000
40
0.0000000000
40
0.0000000000
40
0.0506978128
40
0.1656817239
40
0.2932095396
40
0.4386700999
40
0.6047460649
40
0.7921027585
40
1.0000000000
40
1.0000000000
40
1.0000000000
40
1.0000000000
10
-12.9466524905
20
20.4518264370
30
0.0000000000
10
-12.9470970765
20
20.4478649907
30
0.0000000000
10
-12.9476085622
20
20.4348148901
30
0.0000000000
10
-12.9429342323
20
20.4119834352
30
0.0000000000
10
-12.9288652208
20
20.3847437464
30
0.0000000000
10
-12.9069362714
20
20.3580403874
30
0.0000000000
10
-12.8775696426
20
20.3321133458
30
0.0000000000
10
-12.8412220746
20
20.3072820347
30
0.0000000000
10
-12.8140321184
20
20.2924252251
30
0.0000000000
10
-12.7994577249
20
20.2851896071
30
0.0000000000
11
-12.9466524905
21
20.4518264370
31
0.0000000000
11
-12.9471148969
21
20.4398923964
31
0.0000000000
11
-12.9420263432
21
20.4133776401
31
0.0000000000
11
-12.9287004184
21
20.3865623191
31
0.0000000000
11
-12.9073601580
21
20.3598952380
31
0.0000000000
11
-12.8783627322
21
20.3338227201
31
0.0000000000
11
-12.8421934678
21
20.3087811374
31
0.0000000000
11
-12.7994577249
21
20.2851896071
31
0.0000000000
0
SPLINE
5
378
100
AcDbEntity
8
0
100
AcDbSpline
62
9
6
CONTINUOUS
70
0
71
3
72
9
73
5
74
3
42
0.0000001000
43
0.0000001000
44
0.0000000001
12
-0.0119759497
22
3.5714027888
32
0.0000000000
13
0.0119354592
23
3.5714029244
33
0.0000000000
40
0.0000000000
40
0.0000000000
40
0.0000000000
40
0.0000000000
40
0.4995741222
40
1.0000000000
40
1.0000000000
40
1.0000000000
40
1.0000000000
10
-4.3036034796
20
-4.8783334657
30
0.0000000000
10
-4.3055977711
20
-4.2836066612
30
0.0000000000
10
-4.3075886994
20
-3.0931315239
30
0.0000000000
10
-4.3055944179
20
-1.9026564148
30
0.0000000000
10
-4.3036034803
20
-1.3069156003
30
0.0000000000
11
-4.3036034796
21
-4.8783334657
31
0.0000000000
11
-4.3065923976
21
-3.0941455248
31
0.0000000000
11
-4.3036034803
21
-1.3069156003
31
0.0000000000
0
SPLINE
5
379
100
AcDbEntity
8
0
100
AcDbSpline
62
9
6
CONTINUOUS
70
0
71
3
72
13
73
9
74
7
42
0.0000001000
43
0.0000001000
44
0.0000000001
12
0.2101180833
22
0.1221907246
32
0.0000000000
13
0.2186027856
23
-0.1053633244
33
0.0000000000
40
0.0000000000
40
0.0000000000
40
0.0000000000
40
0.0000000000
40
0.1460064381
40
0.2984068236
40
0.4579178737
40
0.6270824135
40
0.8075271324
40
1.0000000000
40
1.0000000000
40
1.0000000000
40
1.0000000000
10
-12.3761847034
20
21.3637650713
30
0.0000000000
10
-12.3659585058
20
21.3697119488
30
0.0000000000
10
-12.3438314722
20
21.3797576031
30
0.0000000000
10
-12.3075285722
20
21.3881971403
30
0.0000000000
10
-12.2684526127
20
21.3899030108
30
0.0000000000
10
-12.2274099972
20
21.3848795201
30
0.0000000000
10
-12.1849916141
20
21.3732659547
30
0.0000000000
10
-12.1570686116
20
21.3616335307
30
0.0000000000
10
-12.1430435766
20
21.3548736703
30
0.0000000000
11
-12.3761847034
21
21.3637650713
31
0.0000000000
11
-12.3439392745
21
21.3784540504
31
0.0000000000
11
-12.3079472402
21
21.3869577591
31
0.0000000000
11
-12.2692840593
21
21.3888304429
31
0.0000000000
11
-12.2285128411
21
21.3840448444
31
0.0000000000
11
-12.1862273926
21
21.3726706901
31
0.0000000000
11
-12.1430435766
21
21.3548736703
31
0.0000000000
0
SPLINE
5
37A
100
AcDbEntity
8
0
100
AcDbSpline
62
9
6
CONTINUOUS
70
0
71
3
72
9
73
5
74
3
42
0.0000001000
43
0.0000001000
44
0.0000000001
12
-0.0120753275
22
-3.5714025720
32
0.0000000000
13
0.0121158180
23
-3.5714024348
33
0.0000000000
40
0.0000000000
40
0.0000000000
40
0.0000000000
40
0.0000000000
40
0.5004158717
40
1.0000000000
40
1.0000000000
40
1.0000000000
40
1.0000000000
10
-7.9279658673
20
0.5052655932
30
0.0000000000
10
-7.9299800958
20
-0.0904632506
30
0.0000000000
10
-7.9319977087
20
-1.2809384183
30
0.0000000000
10
-7.9299834900
20
-2.4714136148
30
0.0000000000
10
-7.9279658666
20
-3.0661522722
30
0.0000000000
11
-7.9279658673
21
0.5052655932
31
0.0000000000
11
-7.9309897515
21
-1.2819285954
31
0.0000000000
11
-7.9279658666
21
-3.0661522722
31
0.0000000000
0
SPLINE
5
37B
100
AcDbEntity
8
0
100
AcDbSpline
62
9
6
CONTINUOUS
70
0
71
3
72
14
73
10
74
8
42
0.0000001000
43
0.0000001000
44
0.0000000001
12
-0.0037735064
22
-0.2413869327
32
0.0000000000
13
0.2153870210
23
-0.1076046833
33
0.0000000000
40
0.0000000000
40
0.0000000000
40
0.0000000000
40
0.0000000000
40
0.0163790324
40
0.1488513539
40
0.2888041923
40
0.4414372556
40
0.6100545798
40
0.7961980655
40
1.0000000000
40
1.0000000000
40
1.0000000000
40
1.0000000000
10
-13.6338092980
20
9.9633889630
30
0.0000000000
10
-13.6338299001
20
9.9620710682
30
0.0000000000
10
-13.6338168456
20
9.9500916797
30
0.0000000000
10
-13.6302191918
20
9.9269196084
30
0.0000000000
10
-13.6166139875
20
9.8952957436
30
0.0000000000
10
-13.5949316491
20
9.8650095518
30
0.0000000000
10
-13.5656695735
20
9.8364452758
30
0.0000000000
10
-13.5293449248
20
9.8099682383
30
0.0000000000
10
-13.5019894044
20
9.7946194783
30
0.0000000000
10
-13.4873573073
20
9.7873094641
30
0.0000000000
11
-13.6338092980
21
9.9633889630
31
0.0000000000
11
-13.6338047340
21
9.9594351765
31
0.0000000000
11
-13.6290529663
21
9.9278957208
31
0.0000000000
11
-13.6160153844
21
9.8968236324
31
0.0000000000
11
-13.5949101431
21
9.8667388332
31
0.0000000000
11
-13.5660903912
21
9.8381447248
31
0.0000000000
11
-13.5300383626
21
9.8115197654
31
0.0000000000
11
-13.4873573073
21
9.7873094641
31
0.0000000000
0
SPLINE
5
37C
100
AcDbEntity
8
0
100
AcDbSpline
62
7
6
CONTINUOUS
70
0
71
3
72
9
73
5
74
3
42
0.0000001000
43
0.0000001000
44
0.0000000001
12
-0.0004192220
22
-0.0916360909
32
0.0000000000
13
-0.0830493718
23
-0.0404647674
33
0.0000000000
40
0.0000000000
40
0.0000000000
40
0.0000000000
40
0.0000000000
40
0.4272668236
40
1.0000000000
40
1.0000000000
40
1.0000000000
40
1.0000000000
10
13.3892821963
20
-15.7531202251
30
0.0000000000
10
13.3892224898
20
-15.7661712456
30
0.0000000000
10
13.3747696776
20
-15.7968410085
30
0.0000000000
10
13.3477895423
20
-15.8133888177
30
0.0000000000
10
13.3319344988
20
-15.8211139893
30
0.0000000000
11
13.3892821963
21
-15.7531202251
31
0.0000000000
11
13.3745851257
21
-15.7898015293
31
0.0000000000
11
13.3319344988
21
-15.8211139893
31
0.0000000000
0
SPLINE
5
37D
100
AcDbEntity
8
0
100
AcDbSpline
62
9
6
CONTINUOUS
70
0
71
3
72
12
73
8
74
6
42
0.0000001000
43
0.0000001000
44
0.0000000001
12
-0.1029976070
22
0.0514556576
32
0.0000000000
13
-0.1030457206
23
-0.0507886227
33
0.0000000000
40
0.0000000000
40
0.0000000000
40
0.0000000000
40
0.0000000000
40
0.1466831691
40
0.3411931552
40
0.5459608330
40
0.7649342092
40
1.0000000000
40
1.0000000000
40
1.0000000000
40
1.0000000000
10
5.8401387114
20
19.6500764079
30
0.0000000000
10
5.8351027062
20
19.6525923009
30
0.0000000000
10
5.8228596920
20
19.6573912695
30
0.0000000000
10
5.8020788038
20
19.6609273518
30
0.0000000000
10
5.7782681785
20
19.6598939805
30
0.0000000000
10
5.7535839472
20
19.6541200299
30
0.0000000000
10
5.7374384861
20
19.6474671648
30
0.0000000000
10
5.7293643115
20
19.6434876089
30
0.0000000000
11
5.8401387114
21
19.6500764079
31
0.0000000000
11
5.8244383846
21
19.6562400386
31
0.0000000000
11
5.8024266100
21
19.6600888156
31
0.0000000000
11
5.7789186642
21
19.6592158804
31
0.0000000000
11
5.7543884447
21
19.6536392197
31
0.0000000000
11
5.7293643115
21
19.6434876089
31
0.0000000000
0
SPLINE
5
37E
100
AcDbEntity
8
0
100
AcDbSpline
62
9
6
CONTINUOUS
70
0
71
3
72
13
73
9
74
7
42
0.0000001000
43
0.0000001000
44
0.0000000001
12
0.0000104830
22
-0.1197820078
32
0.0000000000
13
-0.1065074733
23
-0.0538770051
33
0.0000000000
40
0.0000000000
40
0.0000000000
40
0.0000000000
40
0.0000000000
40
0.0712762288
40
0.2244083091
40
0.3896427768
40
0.5724464072
40
0.7756749721
40
1.0000000000
40
1.0000000000
40
1.0000000000
40
1.0000000000
10
-4.6344474981
20
24.7328599402
30
0.0000000000
10
-4.6344472491
20
24.7300140703
30
0.0000000000
10
-4.6350501809
20
24.7210543269
30
0.0000000000
10
-4.6394068901
20
24.7059748779
30
0.0000000000
10
-4.6496725706
20
24.6886743227
30
0.0000000000
10
-4.6646173869
20
24.6724474944
30
0.0000000000
10
-4.6838907484
20
24.6575291339
30
0.0000000000
10
-4.6986763290
20
24.6490159444
30
0.0000000000
10
-4.7066404264
20
24.6449872908
30
0.0000000000
11
-4.6344474981
21
24.7328599402
31
0.0000000000
11
-4.6350225583
21
24.7243502507
31
0.0000000000
11
-4.6399567225
21
24.7067511567
31
0.0000000000
11
-4.6498325237
21
24.6896797005
31
0.0000000000
11
-4.6644503764
21
24.6734809809
31
0.0000000000
11
-4.6835148305
21
24.6584824335
31
0.0000000000
11
-4.7066404264
21
24.6449872908
31
0.0000000000
0
SPLINE
5
37F
100
AcDbEntity
8
0
100
AcDbSpline
62
9
6
CONTINUOUS
70
0
71
3
72
9
73
5
74
3
42
0.0000001000
43
0.0000001000
44
0.0000000001
12
0.0523853722
22
0.0548173215
32
0.0000000000
13
-0.0251429602
23
0.0725635332
33
0.0000000000
40
0.0000000000
40
0.0000000000
40
0.0000000000
40
0.0000000000
40
0.3733118293
40
1.0000000000
40
1.0000000000
40
1.0000000000
40
1.0000000000
10
13.3275938536
20
18.5107154573
30
0.0000000000
10
13.3341125466
20
18.5175367755
30
0.0000000000
10
13.3445628944
20
18.5442650289
30
0.0000000000
10
13.3371867641
20
18.5696930903
30
0.0000000000
10
13.3319344988
20
18.5848513263
30
0.0000000000
11
13.3275938536
21
18.5107154573
31
0.0000000000
11
13.3394306948
21
18.5373115249
31
0.0000000000
11
13.3319344988
21
18.5848513263
31
0.0000000000
0
SPLINE
5
380
100
AcDbEntity
8
0
100
AcDbSpline
62
9
6
CONTINUOUS
70
0
71
3
72
9
73
5
74
3
42
0.0000001000
43
0.0000001000
44
0.0000000001
12
-0.0003138724
22
-0.0933377498
32
0.0000000000
13
-0.0837340771
23
-0.0426042079
33
0.0000000000
40
0.0000000000
40
0.0000000000
40
0.0000000000
40
0.0000000000
40
0.4283988264
40
1.0000000000
40
1.0000000000
40
1.0000000000
40
1.0000000000
10
13.3892828324
20
18.6549422288
30
0.0000000000
10
13.3892380116
20
18.6416136347
30
0.0000000000
10
13.3749493507
20
18.6103922489
30
0.0000000000
10
13.3478886644
20
18.5929688647
30
0.0000000000
10
13.3319344988
20
18.5848513263
30
0.0000000000
11
13.3892828324
21
18.6549422288
31
0.0000000000
11
13.3746515274
21
18.6173955105
31
0.0000000000
11
13.3319344988
21
18.5848513263
31
0.0000000000
0
SPLINE
5
381
100
AcDbEntity
8
0
100
AcDbSpline
62
9
6
CONTINUOUS
70
0
71
3
72
13
73
9
74
7
42
0.0000001000
43
0.0000001000
44
0.0000000001
12
0.0041618200
22
-0.2415374861
32
0.0000000000
13
0.2155170547
23
-0.1078446921
33
0.0000000000
40
0.0000000000
40
0.0000000000
40
0.0000000000
40
0.0000000000
40
0.1381732571
40
0.2826080626
40
0.4383947555
40
0.6089495523
40
0.7960284854
40
1.0000000000
40
1.0000000000
40
1.0000000000
40
1.0000000000
10
-13.6338047351
20
-6.4901278869
30
0.0000000000
10
-13.6336130510
20
-6.5012525606
30
0.0000000000
10
-13.6302678090
20
-6.5239549010
30
0.0000000000
10
-13.6167139893
20
-6.5567974979
30
0.0000000000
10
-13.5950481452
20
-6.5880888479
30
0.0000000000
10
-13.5657748952
20
-6.6174003899
30
0.0000000000
10
-13.5294275657
20
-6.6443469210
30
0.0000000000
10
-13.5020104217
20
-6.6598407933
30
0.0000000000
10
-13.4873573083
20
-6.6671732083
30
0.0000000000
11
-13.6338047351
21
-6.4901278869
31
0.0000000000
11
-13.6290529674
21
-6.5230860210
31
0.0000000000
11
-13.6160153856
21
-6.5553600391
31
0.0000000000
11
-13.5949101443
21
-6.5864099078
31
0.0000000000
11
-13.5660903924
21
-6.6157160772
31
0.0000000000
11
-13.5300383638
21
-6.6427881744
31
0.0000000000
11
-13.4873573083
21
-6.6671732083
31
0.0000000000
0
SPLINE
5
382
100
AcDbEntity
8
0
100
AcDbSpline
62
7
6
CONTINUOUS
70
0
71
3
72
17
73
13
74
11
42
0.0000001000
43
0.0000001000
44
0.0000000001
12
0.0000000000
22
0.2935029237
32
0.0000000000
13
0.2617666824
23
0.1327485223
33
0.0000000000
40
0.0000000000
40
0.0000000000
40
0.0000000000
40
0.0000000000
40
0.0951039487
40
0.1951393493
40
0.2988491105
40
0.4047571080
40
0.5112804368
40
0.6167905986
40
0.7197127878
40
0.8186269403
40
0.9123376102
40
1.0000000000
40
1.0000000000
40
1.0000000000
40
1.0000000000
10
-2.9368105592
20
22.4877170173
30
0.0000000000
10
-2.9368105592
20
22.4970214463
30
0.0000000000
10
-2.9355598939
20
22.5161268886
30
0.0000000000
10
-2.9303613471
20
22.5449521717
30
0.0000000000
10
-2.9219141031
20
22.5740996102
30
0.0000000000
10
-2.9104216324
20
22.6028659496
30
0.0000000000
10
-2.8961601920
20
22.6305626327
30
0.0000000000
10
-2.8794721412
20
22.6565236457
30
0.0000000000
10
-2.8607581577
20
22.6801254753
30
0.0000000000
10
-2.8404618134
20
22.7008038948
30
0.0000000000
10
-2.8190695227
20
22.7180607228
30
0.0000000000
10
-2.8038609855
20
22.7273394517
30
0.0000000000
10
-2.7962119545
20
22.7312184693
30
0.0000000000
11
-2.9368105592
21
22.4877170173
31
0.0000000000
11
-2.9350822897
21
22.5155767495
31
0.0000000000
11
-2.9299397808
21
22.5444835701
31
0.0000000000
11
-2.9215085427
21
22.5737317177
31
0.0000000000
11
-2.9099950268
21
22.6026051153
31
0.0000000000
11
-2.8956796677
21
22.6304001687
31
0.0000000000
11
-2.8789128906
21
22.6564359859
31
0.0000000000
11
-2.8601055353
21
22.6800750308
31
0.0000000000
11
-2.8397159580
21
22.7007413930
31
0.0000000000
11
-2.8182433398
21
22.7179290701
31
0.0000000000
11
-2.7962119545
21
22.7312184693
31
0.0000000000
0
SPLINE
5
383
100
AcDbEntity
8
0
100
AcDbSpline
62
9
6
CONTINUOUS
70
0
71
3
72
17
73
13
74
11
42
0.0000001000
43
0.0000001000
44
0.0000000001
12
0.0000000000
22
0.2935029484
32
0.0000000000
13
0.2617667045
23
0.1327485335
33
0.0000000000
40
0.0000000000
40
0.0000000000
40
0.0000000000
40
0.0000000000
40
0.0951248516
40
0.1951845763
40
0.2989176042
40
0.4048508556
40
0.5113920684
40
0.6169163707
40
0.7198562270
40
0.8187741003
40
0.9124874805
40
1.0000000000
40
1.0000000000
40
1.0000000000
40
1.0000000000
10
-1.3104649625
20
21.6745442190
30
0.0000000000
10
-1.3104649625
20
21.6838506938
30
0.0000000000
10
-1.3092137344
20
21.7029605700
30
0.0000000000
10
-1.3040129396
20
21.7317922929
30
0.0000000000
10
-1.2955620828
20
21.7609461384
30
0.0000000000
10
-1.2840650577
20
21.7897176895
30
0.0000000000
10
-1.2697984931
20
21.8174180678
30
0.0000000000
10
-1.2531049655
20
21.8433813708
30
0.0000000000
10
-1.2343856552
20
21.8669834708
30
0.0000000000
10
-1.2140843032
20
21.8876603038
30
0.0000000000
10
-1.1926995340
20
21.9049042143
30
0.0000000000
10
-1.1775023123
20
21.9141732847
30
0.0000000000
10
-1.1698663577
20
21.9180456709
30
0.0000000000
11
-1.3104649625
21
21.6745442190
31
0.0000000000
11
-1.3087359542
21
21.7024100545
31
0.0000000000
11
-1.3035911610
21
21.7313237226
31
0.0000000000
11
-1.2951564090
21
21.7605779668
31
0.0000000000
11
-1.2836379986
21
21.7894573950
31
0.0000000000
11
-1.2693176592
21
21.8172557905
31
0.0000000000
11
-1.2525457622
21
21.8432932499
31
0.0000000000
11
-1.2337319901
21
21.8669338187
31
0.0000000000
11
-1.2133382580
21
21.8875976187
31
0.0000000000
11
-1.1918616316
21
21.9047815641
31
0.0000000000
11
-1.1698663577
21
21.9180456709
31
0.0000000000
0
SPLINE
5
384
100
AcDbEntity
8
0
100
AcDbSpline
62
9
6
CONTINUOUS
70
0
71
3
72
11
73
7
74
5
42
0.0000001000
43
0.0000001000
44
0.0000000001
12
0.0000000000
22
0.1187597617
32
0.0000000000
13
0.0492611365
23
0.1081119530
33
0.0000000000
40
0.0000000000
40
0.0000000000
40
0.0000000000
40
0.0000000000
40
0.2346409787
40
0.4818824824
40
0.7382074695
40
1.0000000000
40
1.0000000000
40
1.0000000000
40
1.0000000000
10
0.3865913123
20
20.8260160815
30
0.0000000000
10
0.3865913123
20
20.8353047171
30
0.0000000000
10
0.3878388776
20
20.8543948576
30
0.0000000000
10
0.3930299275
20
20.8832067208
30
0.0000000000
10
0.4014737805
20
20.9123585371
30
0.0000000000
10
0.4090924823
20
20.9314355813
30
0.0000000000
10
0.4133912148
20
20.9408698819
30
0.0000000000
11
0.3865913123
21
20.8260160815
31
0.0000000000
11
0.3883138834
21
20.8538286957
31
0.0000000000
11
0.3934516856
21
20.8827380388
31
0.0000000000
11
0.4018791116
21
20.9119893416
31
0.0000000000
11
0.4133912148
21
20.9408698819
31
0.0000000000
0
SPLINE
5
385
100
AcDbEntity
8
0
100
AcDbSpline
62
9
6
CONTINUOUS
70
0
71
3
72
13
73
9
74
7
42
0.0000001000
43
0.0000001000
44
0.0000000001
12
0.0690086423
22
0.1514512175
32
0.0000000000
13
0.1445678238
23
0.0825570551
33
0.0000000000
40
0.0000000000
40
0.0000000000
40
0.0000000000
40
0.0000000000
40
0.1879560840
40
0.3741302035
40
0.5557499094
40
0.7302936774
40
0.8956577640
40
1.0000000000
40
1.0000000000
40
1.0000000000
40
1.0000000000
10
0.4133912148
20
20.9408698819
30
0.0000000000
10
0.4177147462
20
20.9503586078
30
0.0000000000
10
0.4272252711
20
20.9688335654
30
0.0000000000
10
0.4439141896
20
20.9948012932
30
0.0000000000
10
0.4626305200
20
21.0184099058
30
0.0000000000
10
0.4829305902
20
21.0390946633
30
0.0000000000
10
0.5021492506
20
21.0545993919
30
0.0000000000
10
0.5147872479
20
21.0626710188
30
0.0000000000
10
0.5198154245
20
21.0655424147
30
0.0000000000
11
0.4133912148
21
20.9408698819
31
0.0000000000
11
0.4277057948
21
20.9686708109
31
0.0000000000
11
0.4444732385
21
20.9947130658
31
0.0000000000
11
0.4632834911
21
21.0183595747
31
0.0000000000
11
0.4836765913
21
21.0390320270
31
0.0000000000
11
0.5051538544
21
21.0562248574
31
0.0000000000
11
0.5198154245
21
21.0655424147
31
0.0000000000
0
SPLINE
5
386
100
AcDbEntity
8
0
100
AcDbSpline
62
9
6
CONTINUOUS
70
0
71
3
72
8
73
4
74
2
42
0.0000001000
43
0.0000001000
44
0.0000000001
12
0.0072782181
22
0.0041563070
32
0.0000000000
13
0.0074700539
23
0.0037882537
33
0.0000000000
40
0.0000000000
40
0.0000000000
40
0.0000000000
40
0.0000000000
40
1.0000000000
40
1.0000000000
40
1.0000000000
40
1.0000000000
10
0.5198154245
20
21.0655424147
30
0.0000000000
10
0.5222414972
20
21.0669278504
30
0.0000000000
10
0.5246998992
20
21.0682547823
30
0.0000000000
10
0.5271899171
20
21.0695175335
30
0.0000000000
11
0.5198154245
21
21.0655424147
31
0.0000000000
11
0.5271899171
21
21.0695175335
31
0.0000000000
0
SPLINE
5
387
100
AcDbEntity
8
0
100
AcDbSpline
62
9
6
CONTINUOUS
70
0
71
3
72
13
73
9
74
7
42
0.0000001000
43
0.0000001000
44
0.0000000001
12
0.0000104830
22
-0.1197820078
32
0.0000000000
13
-0.1065074733
23
-0.0538770051
33
0.0000000000
40
0.0000000000
40
0.0000000000
40
0.0000000000
40
0.0000000000
40
0.0712762288
40
0.2244083091
40
0.3896427768
40
0.5724464072
40
0.7756749721
40
1.0000000000
40
1.0000000000
40
1.0000000000
40
1.0000000000
10
7.6692104945
20
18.5810309439
30
0.0000000000
10
7.6692107436
20
18.5781850740
30
0.0000000000
10
7.6686078117
20
18.5692253306
30
0.0000000000
10
7.6642511026
20
18.5541458816
30
0.0000000000
10
7.6539854220
20
18.5368453264
30
0.0000000000
10
7.6390406058
20
18.5206184981
30
0.0000000000
10
7.6197672443
20
18.5057001376
30
0.0000000000
10
7.6049816636
20
18.4971869480
30
0.0000000000
10
7.5970175663
20
18.4931582945
30
0.0000000000
11
7.6692104945
21
18.5810309439
31
0.0000000000
11
7.6686354343
21
18.5725212544
31
0.0000000000
11
7.6637012701
21
18.5549221604
31
0.0000000000
11
7.6538254690
21
18.5378507041
31
0.0000000000
11
7.6392076163
21
18.5216519846
31
0.0000000000
11
7.6201431621
21
18.5066534372
31
0.0000000000
11
7.5970175663
21
18.4931582945
31
0.0000000000
0
SPLINE
5
388
100
AcDbEntity
8
0
100
AcDbSpline
62
9
6
CONTINUOUS
70
0
71
3
72
13
73
9
74
7
42
0.0000001000
43
0.0000001000
44
0.0000000001
12
0.0311596205
22
-0.2353796296
32
0.0000000000
13
0.2116911910
23
-0.1064305010
33
0.0000000000
40
0.0000000000
40
0.0000000000
40
0.0000000000
40
0.0000000000
40
0.0821838952
40
0.2451782919
40
0.4154575066
40
0.5966513226
40
0.7911249418
40
1.0000000000
40
1.0000000000
40
1.0000000000
40
1.0000000000
10
-12.9456681178
20
-16.2780361427
30
0.0000000000
10
-12.9448145115
20
-16.2844842810
30
0.0000000000
10
-12.9411870569
20
-16.3035780249
30
0.0000000000
10
-12.9296697318
20
-16.3345747106
30
0.0000000000
10
-12.9078500520
20
-16.3691603989
30
0.0000000000
10
-12.8783912861
20
-16.4009403300
30
0.0000000000
10
-12.8418677463
20
-16.4294484524
30
0.0000000000
10
-12.8141969458
20
-16.4454405950
30
0.0000000000
10
-12.7994579425
20
-16.4528508207
30
0.0000000000
11
-12.9456681178
21
-16.2780361427
31
0.0000000000
11
-12.9420265518
21
-16.2971947088
31
0.0000000000
11
-12.9287006454
21
-16.3334427099
31
0.0000000000
11
-12.9073603955
21
-16.3676829113
31
0.0000000000
11
-12.8783629716
21
-16.3993422386
31
0.0000000000
11
-12.8421937002
21
-16.4278908132
31
0.0000000000
11
-12.7994579425
21
-16.4528508207
31
0.0000000000
0
SPLINE
5
389
100
AcDbEntity
8
0
100
AcDbSpline
62
7
6
CONTINUOUS
70
0
71
3
72
12
73
8
74
6
42
0.0000001000
43
0.0000001000
44
0.0000000001
12
-0.0882344620
22
0.0441172310
32
0.0000000000
13
-0.0000088153
23
0.0989577355
33
0.0000000000
40
0.0000000000
40
0.0000000000
40
0.0000000000
40
0.0000000000
40
0.2398059241
40
0.4563658315
40
0.6514132241
40
0.8297886218
40
1.0000000000
40
1.0000000000
40
1.0000000000
40
1.0000000000
10
0.3865913123
20
19.5924017299
30
0.0000000000
10
0.3795382634
20
19.5959282543
30
0.0000000000
10
0.3665112324
20
19.6034999539
30
0.0000000000
10
0.3498617993
20
19.6171495013
30
0.0000000000
10
0.3374776488
20
19.6322873470
30
0.0000000000
10
0.3297673794
20
19.6486533922
30
0.0000000000
10
0.3280131647
20
19.6601563298
30
0.0000000000
10
0.3280126646
20
19.6657709073
30
0.0000000000
11
0.3865913123
21
19.5924017299
31
0.0000000000
11
0.3662239648
21
19.6044353502
31
0.0000000000
11
0.3498324638
21
19.6181362813
31
0.0000000000
11
0.3378212630
21
19.6331681460
31
0.0000000000
11
0.3304868131
21
19.6491633133
31
0.0000000000
11
0.3280126646
21
19.6657709073
31
0.0000000000
0
SPLINE
5
38A
100
AcDbEntity
8
0
100
AcDbSpline
62
9
6
CONTINUOUS
70
0
71
3
72
13
73
9
74
7
42
0.0000001000
43
0.0000001000
44
0.0000000001
12
-0.0862260643
22
0.0431130322
32
0.0000000000
13
-0.0000000000
23
0.0967481053
33
0.0000000000
40
0.0000000000
40
0.0000000000
40
0.0000000000
40
0.0000000000
40
0.2237962451
40
0.4265563558
40
0.6088866355
40
0.7735685378
40
0.9259995157
40
1.0000000000
40
1.0000000000
40
1.0000000000
40
1.0000000000
10
0.3865913123
20
20.8260160815
30
0.0000000000
10
0.3801589559
20
20.8292322598
30
0.0000000000
10
0.3682119501
20
20.8360341329
30
0.0000000000
10
0.3526187890
20
20.8479702775
30
0.0000000000
10
0.3405029521
20
20.8609675814
30
0.0000000000
10
0.3321482991
20
20.8748370636
30
0.0000000000
10
0.3285323339
20
20.8870380191
30
0.0000000000
10
0.3280166936
20
20.8943402908
30
0.0000000000
10
0.3280166936
20
20.8967267597
30
0.0000000000
11
0.3865913123
21
20.8260160815
31
0.0000000000
11
0.3679044204
21
20.8367989930
31
0.0000000000
11
0.3524768707
21
20.8488018610
31
0.0000000000
11
0.3406227236
21
20.8617803417
31
0.0000000000
11
0.3325832954
21
20.8754702307
31
0.0000000000
11
0.3285222456
21
20.8895928413
31
0.0000000000
11
0.3280166936
21
20.8967267597
31
0.0000000000
0
SPLINE
5
38B
100
AcDbEntity
8
0
100
AcDbSpline
62
9
6
CONTINUOUS
70
0
71
3
72
12
73
8
74
6
42
0.0000001000
43
0.0000001000
44
0.0000000001
12
-0.0832315549
22
0.0416157774
32
0.0000000000
13
-0.0831914066
23
-0.0421529975
33
0.0000000000
40
0.0000000000
40
0.0000000000
40
0.0000000000
40
0.0000000000
40
0.2339206868
40
0.4513027418
40
0.6542509927
40
0.8466314457
40
1.0000000000
40
1.0000000000
40
1.0000000000
40
1.0000000000
10
0.5271899171
20
21.0695175335
30
0.0000000000
10
0.5207000563
20
21.0727624639
30
0.0000000000
10
0.5077344428
20
21.0781981135
30
0.0000000000
10
0.4879113661
20
21.0829786336
30
0.0000000000
10
0.4688041988
20
21.0839485985
30
0.0000000000
10
0.4518661688
20
21.0811899156
30
0.0000000000
10
0.4418079124
20
21.0772552522
30
0.0000000000
10
0.4375549305
20
21.0751002708
30
0.0000000000
11
0.5271899171
21
21.0695175335
31
0.0000000000
11
0.5070689929
21
21.0778229060
31
0.0000000000
11
0.4873744580
21
21.0824406117
31
0.0000000000
11
0.4685074759
21
21.0832765740
31
0.0000000000
11
0.4508522483
21
21.0803137895
31
0.0000000000
11
0.4375549305
21
21.0751002708
31
0.0000000000
0
SPLINE
5
38C
100
AcDbEntity
8
0
100
AcDbSpline
62
9
6
CONTINUOUS
70
0
71
3
72
9
73
5
74
3
42
0.0000001000
43
0.0000001000
44
0.0000000001
12
-0.0356807476
22
0.0178411811
32
0.0000000000
13
-0.0335506345
23
0.0215764991
33
0.0000000000
40
0.0000000000
40
0.0000000000
40
0.0000000000
40
0.0000000000
40
0.7924767509
40
1.0000000000
40
1.0000000000
40
1.0000000000
40
1.0000000000
10
-12.5496691126
20
-16.8674352295
30
0.0000000000
10
-12.5590945003
20
-16.8627223224
30
0.0000000000
10
-12.5707338783
20
-16.8562666906
30
0.0000000000
10
-12.5819973936
20
-16.8491988349
30
0.0000000000
10
-12.5843182392
20
-16.8477062931
30
0.0000000000
11
-12.5496691126
21
-16.8674352295
31
0.0000000000
11
-12.5773063242
21
-16.8521059577
31
0.0000000000
11
-12.5843182392
21
-16.8477062931
31
0.0000000000
0
SPLINE
5
38D
100
AcDbEntity
8
0
100
AcDbSpline
62
9
6
CONTINUOUS
70
0
71
3
72
14
73
10
74
8
42
0.0000001000
43
0.0000001000
44
0.0000000001
12
-0.3905396199
22
0.2511570313
32
0.0000000000
13
-0.0598641494
23
0.4599750511
33
0.0000000000
40
0.0000000000
40
0.0000000000
40
0.0000000000
40
0.0000000000
40
0.1112656178
40
0.2435330255
40
0.3806998307
40
0.5241411586
40
0.6748393466
40
0.8333801379
40
1.0000000000
40
1.0000000000
40
1.0000000000
40
1.0000000000
10
-12.5843182392
20
-16.8477062931
30
0.0000000000
10
-12.5988027832
20
-16.8383912457
30
0.0000000000
10
-12.6290910319
20
-16.8158035775
30
0.0000000000
10
-12.6708534448
20
-16.7740037900
30
0.0000000000
10
-12.7090461297
20
-16.7225899625
30
0.0000000000
10
-12.7413791568
20
-16.6640571355
30
0.0000000000
10
-12.7675830356
20
-16.5989850905
30
0.0000000000
10
-12.7874428544
20
-16.5280058574
30
0.0000000000
10
-12.7961330915
20
-16.4783978146
30
0.0000000000
10
-12.7994579436
20
-16.4528508214
30
0.0000000000
11
-12.5843182392
21
-16.8477062931
31
0.0000000000
11
-12.6257332261
21
-16.8168848891
31
0.0000000000
11
-12.6691994982
21
-16.7735853609
31
0.0000000000
11
-12.7072897390
21
-16.7226213956
31
0.0000000000
11
-12.7396404271
21
-16.6644797161
31
0.0000000000
11
-12.7659429309
21
-16.5997150099
31
0.0000000000
11
-12.7859454919
21
-16.5289477673
31
0.0000000000
11
-12.7994579436
21
-16.4528508214
31
0.0000000000
0
SPLINE
5
38E
100
AcDbEntity
8
0
100
AcDbSpline
62
7
6
CONTINUOUS
70
0
71
3
72
13
73
9
74
7
42
0.0000001000
43
0.0000001000
44
0.0000000001
12
-0.0826605977
22
0.0413302989
32
0.0000000000
13
-0.0830397523
23
-0.0409544820
33
0.0000000000
40
0.0000000000
40
0.0000000000
40
0.0000000000
40
0.0000000000
40
0.2166199280
40
0.4192906031
40
0.6095062040
40
0.7899981979
40
0.9646612274
40
1.0000000000
40
1.0000000000
40
1.0000000000
40
1.0000000000
10
0.7401447029
20
21.1775123053
30
0.0000000000
10
0.7341760587
20
21.1804966275
30
0.0000000000
10
0.7222460867
20
21.1855681148
30
0.0000000000
10
0.7040114508
20
21.1903441806
30
0.0000000000
10
0.6863255840
20
21.1919300924
30
0.0000000000
10
0.6694979319
20
21.1902560519
30
0.0000000000
10
0.6579405342
20
21.1866049141
30
0.0000000000
10
0.6520653658
20
21.1838650101
30
0.0000000000
10
0.6510871915
20
21.1833825831
30
0.0000000000
11
0.7401447029
21
21.1775123053
31
0.0000000000
11
0.7216853162
21
21.1852601486
31
0.0000000000
11
0.7035418153
21
21.1899117153
31
0.0000000000
11
0.6860246423
21
21.1913874322
31
0.0000000000
11
0.6694335211
21
21.1896620666
31
0.0000000000
11
0.6540523284
21
21.1847651585
31
0.0000000000
11
0.6510871915
21
21.1833825831
31
0.0000000000
0
SPLINE
5
38F
100
AcDbEntity
8
0
100
AcDbSpline
62
7
6
CONTINUOUS
70
0
71
3
72
19
73
15
74
13
42
0.0000001000
43
0.0000001000
44
0.0000000001
12
0.2633824730
22
-0.1316912365
32
0.0000000000
13
0.0000000000
23
-0.2944705568
33
0.0000000000
40
0.0000000000
40
0.0000000000
40
0.0000000000
40
0.0000000000
40
0.0724762471
40
0.1492586289
40
0.2299202296
40
0.3138455594
40
0.4002771916
40
0.4883572384
40
0.5771652356
40
0.6657538939
40
0.7531839692
40
0.8385593913
40
0.9210638234
40
1.0000000000
40
1.0000000000
40
1.0000000000
40
1.0000000000
10
-0.9569115719
20
22.0260404428
30
0.0000000000
10
-0.9505485809
20
22.0228589472
30
0.0000000000
10
-0.9378670723
20
22.0154380749
30
0.0000000000
10
-0.9197646842
20
22.0018948749
30
0.0000000000
10
-0.9022987146
20
21.9858310967
30
0.0000000000
10
-0.8857640615
20
21.9675198925
30
0.0000000000
10
-0.8704361791
20
21.9472692551
30
0.0000000000
10
-0.8565733521
20
21.9254211495
30
0.0000000000
10
-0.8444094040
20
21.9023447014
30
0.0000000000
10
-0.8341499243
20
21.8784299352
30
0.0000000000
10
-0.8259683846
20
21.8540812421
30
0.0000000000
10
-0.8200032171
20
21.8297083626
30
0.0000000000
10
-0.8163557554
20
21.8057252992
30
0.0000000000
10
-0.8154902157
20
21.7898698793
30
0.0000000000
10
-0.8154902157
20
21.7821217527
30
0.0000000000
11
-0.9569115719
21
22.0260404428
31
0.0000000000
11
-0.9384521852
21
22.0153288993
31
0.0000000000
11
-0.9203086843
21
22.0018369651
31
0.0000000000
11
-0.9027915113
21
21.9857955090
31
0.0000000000
11
-0.8862003901
21
21.9674790222
31
0.0000000000
11
-0.8708191974
21
21.9472009214
31
0.0000000000
11
-0.8569111048
21
21.9253081849
31
0.0000000000
11
-0.8447140751
21
21.9021754144
31
0.0000000000
11
-0.8344367915
21
21.8781984244
31
0.0000000000
11
-0.8262550873
21
21.8537874687
31
0.0000000000
11
-0.8203089383
21
21.8293602202
31
0.0000000000
11
-0.8167000695
21
21.8053346252
31
0.0000000000
11
-0.8154902157
21
21.7821217527
31
0.0000000000
0
SPLINE
5
390
100
AcDbEntity
8
0
100
AcDbSpline
62
9
6
CONTINUOUS
70
0
71
3
72
18
73
14
74
12
42
0.0000001000
43
0.0000001000
44
0.0000000001
12
0.2633031070
22
-0.1316515535
32
0.0000000000
13
0.0014016971
23
-0.2943784859
33
0.0000000000
40
0.0000000000
40
0.0000000000
40
0.0000000000
40
0.0000000000
40
0.0793146232
40
0.1637412334
40
0.2526761866
40
0.3452624229
40
0.4404596569
40
0.5371064943
40
0.6339774122
40
0.7298371586
40
0.8234947706
40
0.9138593500
40
1.0000000000
40
1.0000000000
40
1.0000000000
40
1.0000000000
10
-1.1698663577
20
21.9180456709
30
0.0000000000
10
-1.1629050955
20
21.9145650398
30
0.0000000000
10
-1.1490378273
20
21.9063425762
30
0.0000000000
10
-1.1293542984
20
21.8911842157
30
0.0000000000
10
-1.1104773411
20
21.8730967738
30
0.0000000000
10
-1.0927851888
20
21.8524448526
30
0.0000000000
10
-1.0766278748
20
21.8296407014
30
0.0000000000
10
-1.0623289301
20
21.8051415929
30
0.0000000000
10
-1.0501748802
20
21.7794388744
30
0.0000000000
10
-1.0404097044
20
21.7530486317
30
0.0000000000
10
-1.0332294708
20
21.7264981553
30
0.0000000000
10
-1.0287788616
20
21.7003228216
30
0.0000000000
10
-1.0276624977
20
21.6829968703
30
0.0000000000
10
-1.0276222500
20
21.6745442190
30
0.0000000000
11
-1.1698663577
21
21.9180456709
31
0.0000000000
11
-1.1497316259
21
21.9062237313
31
0.0000000000
11
-1.1299900302
21
21.8911249304
31
0.0000000000
11
-1.1110434528
21
21.8730566362
31
0.0000000000
11
-1.0932775912
21
21.8523866672
31
0.0000000000
11
-1.0770541072
21
21.8295358043
31
0.0000000000
11
-1.0627032641
21
21.8049692252
31
0.0000000000
11
-1.0505172037
21
21.7791870345
31
0.0000000000
11
-1.0407439991
21
21.7527140834
31
0.0000000000
11
-1.0335826045
21
21.7260892848
31
0.0000000000
11
-1.0291788053
21
21.6998546427
31
0.0000000000
11
-1.0276222500
21
21.6745442190
31
0.0000000000
0
SPLINE
5
391
100
AcDbEntity
8
0
100
AcDbSpline
62
9
6
CONTINUOUS
70
0
71
3
72
18
73
14
74
12
42
0.0000001000
43
0.0000001000
44
0.0000000001
12
0.2604604098
22
-0.1302302049
32
0.0000000000
13
0.2604604098
23
0.1302302049
33
0.0000000000
40
0.0000000000
40
0.0000000000
40
0.0000000000
40
0.0000000000
40
0.0807217251
40
0.1673236997
40
0.2587701252
40
0.3538164207
40
0.4510764237
40
0.5490821470
40
0.6463380921
40
0.7413783739
40
0.8328117125
40
0.9193994957
40
1.0000000000
40
1.0000000000
40
1.0000000000
40
1.0000000000
10
-1.3104649625
20
21.6745442190
30
0.0000000000
10
-1.3034566913
20
21.6710400834
30
0.0000000000
10
-1.2884942476
20
21.6646298939
30
0.0000000000
10
-1.2645285069
20
21.6570045379
30
0.0000000000
10
-1.2386444107
20
21.6511462096
30
0.0000000000
10
-1.2113628787
20
21.6471743829
30
0.0000000000
10
-1.1832298320
20
21.6451688454
30
0.0000000000
10
-1.1548115444
20
21.6451704779
30
0.0000000000
10
-1.1266797059
20
21.6471792103
30
0.0000000000
10
-1.0994008716
20
21.6511539941
30
0.0000000000
10
-1.0735206752
20
21.6570148824
30
0.0000000000
10
-1.0495696816
20
21.6646390892
30
0.0000000000
10
-1.0346199968
20
21.6710453456
30
0.0000000000
10
-1.0276222500
20
21.6745442190
30
0.0000000000
11
-1.3104649625
21
21.6745442190
31
0.0000000000
11
-1.2888957727
21
21.6651995128
31
0.0000000000
11
-1.2648859057
21
21.6574849511
31
0.0000000000
11
-1.2389244110
21
21.6515576811
31
0.0000000000
11
-1.2115399774
21
21.6475383959
31
0.0000000000
11
-1.1832903202
21
21.6455089308
31
0.0000000000
11
-1.1547507016
21
21.6455105829
31
0.0000000000
11
-1.1265024606
21
21.6475432666
31
0.0000000000
11
-1.0991202472
21
21.6515656183
31
0.0000000000
11
-1.0731632239
21
21.6574953502
31
0.0000000000
11
-1.0491583381
21
21.6652119048
31
0.0000000000
11
-1.0276222500
21
21.6745442190
31
0.0000000000
0
SPLINE
5
392
100
AcDbEntity
8
0
100
AcDbSpline
62
7
6
CONTINUOUS
70
0
71
3
72
17
73
13
74
11
42
0.0000001000
43
0.0000001000
44
0.0000000001
12
-0.2546551481
22
-0.1436729099
32
0.0000000000
13
-0.2615204000
23
0.1307602000
33
0.0000000000
40
0.0000000000
40
0.0000000000
40
0.0000000000
40
0.0000000000
40
0.0908404133
40
0.1881219793
40
0.2904656387
40
0.3961985535
40
0.5035170354
40
0.6105103721
40
0.7153126918
40
0.8161547060
40
0.9114736163
40
1.0000000000
40
1.0000000000
40
1.0000000000
40
1.0000000000
10
-1.0276222500
20
20.4500071610
30
0.0000000000
10
-1.0353332430
20
20.4456567254
30
0.0000000000
10
-1.0519015121
20
20.4376878415
30
0.0000000000
10
-1.0786246159
20
20.4282116251
30
0.0000000000
10
-1.1075362538
20
20.4209748981
30
0.0000000000
10
-1.1379329024
20
20.4161541751
30
0.0000000000
10
-1.1690773320
20
20.4138647100
30
0.0000000000
10
-1.2002139580
20
20.4141608073
30
0.0000000000
10
-1.2305870716
20
20.4170328250
30
0.0000000000
10
-1.2594675667
20
20.4224103821
30
0.0000000000
10
-1.2861576562
20
20.4301605308
30
0.0000000000
10
-1.3027478108
20
20.4370712914
30
0.0000000000
10
-1.3104649625
20
20.4409298673
30
0.0000000000
11
-1.0276222500
21
20.4500071610
31
0.0000000000
11
-1.0515065715
21
20.4383877589
31
0.0000000000
11
-1.0782859582
21
20.4287998864
31
0.0000000000
11
-1.1073006965
21
20.4214787889
31
0.0000000000
11
-1.1378292222
21
20.4166050752
31
0.0000000000
11
-1.1691229092
21
20.4142966865
31
0.0000000000
11
-1.2004049902
21
20.4146092150
31
0.0000000000
11
-1.2309082105
21
20.4175328828
31
0.0000000000
11
-1.2598831055
21
20.4229940659
31
0.0000000000
11
-1.2866208802
21
20.4308577727
31
0.0000000000
11
-1.3104649625
21
20.4409298673
31
0.0000000000
0
SPLINE
5
393
100
AcDbEntity
8
0
100
AcDbSpline
62
9
6
CONTINUOUS
70
0
71
3
72
10
73
6
74
4
42
0.0000001000
43
0.0000001000
44
0.0000000001
12
-0.0000119958
22
-0.1266370369
32
0.0000000000
13
0.1116820112
23
-0.0558154597
33
0.0000000000
40
0.0000000000
40
0.0000000000
40
0.0000000000
40
0.0000000000
40
0.1734679280
40
0.5464023628
40
1.0000000000
40
1.0000000000
40
1.0000000000
40
1.0000000000
10
4.0663296661
20
17.2222190826
30
0.0000000000
10
4.0663289724
20
17.2148965945
30
0.0000000000
10
4.0693534545
20
17.1918654959
30
0.0000000000
10
4.0932343333
20
17.1555835168
30
0.0000000000
10
4.1225162958
20
17.1363076106
30
0.0000000000
10
4.1394025279
20
17.1278683571
30
0.0000000000
11
4.0663296661
21
17.2222190826
31
0.0000000000
11
4.0692596724
21
17.2005962804
31
0.0000000000
11
4.0932509681
21
17.1606910026
31
0.0000000000
11
4.1394025279
21
17.1278683571
31
0.0000000000
0
SPLINE
5
394
100
AcDbEntity
8
0
100
AcDbSpline
62
9
6
CONTINUOUS
70
0
71
3
72
13
73
9
74
7
42
0.0000001000
43
0.0000001000
44
0.0000000001
12
-0.0003441245
22
-0.1195935754
32
0.0000000000
13
-0.1063406340
23
-0.0537926091
33
0.0000000000
40
0.0000000000
40
0.0000000000
40
0.0000000000
40
0.0000000000
40
0.0699054006
40
0.2232653499
40
0.3887464873
40
0.5718216964
40
0.7753481558
40
1.0000000000
40
1.0000000000
40
1.0000000000
40
1.0000000000
10
7.6692102338
20
-23.0662923859
30
0.0000000000
10
7.6692022151
20
-23.0690791315
30
0.0000000000
10
7.6685893248
20
-23.0779773705
30
0.0000000000
10
7.6642473318
20
-23.0929978821
30
0.0000000000
10
7.6539809069
20
-23.1102960415
30
0.0000000000
10
7.6390365799
20
-23.1265206115
30
0.0000000000
10
7.6197648017
20
-23.1414369785
30
0.0000000000
10
7.6049807728
20
-23.1499491587
30
0.0000000000
10
7.5970175663
20
-23.1539773616
30
0.0000000000
11
7.6692102338
21
-23.0662923859
31
0.0000000000
11
7.6686340335
21
-23.0746246598
31
0.0000000000
11
7.6636977912
21
-23.0922216385
31
0.0000000000
11
7.6538211189
21
-23.1092908603
31
0.0000000000
11
7.6392035750
21
-23.1254874145
31
0.0000000000
11
7.6201406749
21
-23.1404838987
31
0.0000000000
11
7.5970175663
21
-23.1539773616
31
0.0000000000
0
SPLINE
5
395
100
AcDbEntity
8
0
100
AcDbSpline
62
9
6
CONTINUOUS
70
0
71
3
72
9
73
5
74
3
42
0.0000001000
43
0.0000001000
44
0.0000000001
12
-0.0222198959
22
0.0111157836
32
0.0000000000
13
-0.0242799489
23
0.0050285421
33
0.0000000000
40
0.0000000000
40
0.0000000000
40
0.0000000000
40
0.0000000000
40
0.1862442843
40
1.0000000000
40
1.0000000000
40
1.0000000000
40
1.0000000000
10
7.5310185564
20
-22.8424984629
30
0.0000000000
10
7.5296391136
20
-22.8418083792
30
0.0000000000
10
7.5221404153
20
-22.8382855924
30
0.0000000000
10
7.5141897533
20
-22.8357745573
30
0.0000000000
10
7.5076037709
20
-22.8344105556
30
0.0000000000
11
7.5310185564
21
-22.8424984629
31
0.0000000000
11
7.5268302569
21
-22.8405312759
31
0.0000000000
11
7.5076037709
21
-22.8344105556
31
0.0000000000
0
SPLINE
5
396
100
AcDbEntity
8
0
100
AcDbSpline
62
9
6
CONTINUOUS
70
0
71
3
72
14
73
10
74
8
42
0.0000001000
43
0.0000001000
44
0.0000000001
12
0.0007405727
22
-0.1564452422
32
0.0000000000
13
-0.1395231833
23
-0.0715218887
33
0.0000000000
40
0.0000000000
40
0.0000000000
40
0.0000000000
40
0.0000000000
40
0.1910761376
40
0.3697166628
40
0.5359297403
40
0.6908515116
40
0.8368929838
40
0.9776959034
40
1.0000000000
40
1.0000000000
40
1.0000000000
40
1.0000000000
10
7.5970175663
20
-23.5015088784
30
0.0000000000
10
7.5970647349
20
-23.5114731959
30
0.0000000000
10
7.5960646383
20
-23.5307852754
30
0.0000000000
10
7.5909348207
20
-23.5583503589
30
0.0000000000
10
7.5822940875
20
-23.5830634168
30
0.0000000000
10
7.5702639205
20
-23.6044162547
30
0.0000000000
10
7.5550277076
20
-23.6219319326
30
0.0000000000
10
7.5418793719
20
-23.6315103089
30
0.0000000000
10
7.5343665034
20
-23.6355403104
30
0.0000000000
10
7.5333291905
20
-23.6360720541
30
0.0000000000
11
7.5970175663
21
-23.5015088784
31
0.0000000000
11
7.5953528950
21
-23.5313557796
31
0.0000000000
11
7.5901017042
21
-23.5588057892
31
0.0000000000
11
7.5813709321
21
-23.5832998197
31
0.0000000000
11
7.5693383804
21
-23.6043391181
31
0.0000000000
11
7.5542491139
21
-23.6214952743
31
0.0000000000
11
7.5364104334
21
-23.6344190041
31
0.0000000000
11
7.5333291905
21
-23.6360720541
31
0.0000000000
0
SPLINE
5
397
100
AcDbEntity
8
0
100
AcDbSpline
62
7
6
CONTINUOUS
70
0
71
3
72
11
73
7
74
5
42
0.0000001000
43
0.0000001000
44
0.0000000001
12
-0.0411805884
22
0.0248389675
32
0.0000000000
13
-0.0455140504
23
-0.0117630803
33
0.0000000000
40
0.0000000000
40
0.0000000000
40
0.0000000000
40
0.0000000000
40
0.0049185286
40
0.2369771380
40
0.5699633257
40
1.0000000000
40
1.0000000000
40
1.0000000000
40
1.0000000000
10
2.8809115681
20
25.4986179984
30
0.0000000000
10
2.8808440521
20
25.4986587221
30
0.0000000000
10
2.8775773335
20
25.5005852064
30
0.0000000000
10
2.8682677859
20
25.5010032311
30
0.0000000000
10
2.8529367394
20
25.4995133307
30
0.0000000000
10
2.8412460174
20
25.4968183599
30
0.0000000000
10
2.8347217805
20
25.4951321746
30
0.0000000000
11
2.8809115681
21
25.4986179984
31
0.0000000000
11
2.8807081885
21
25.4987379366
31
0.0000000000
11
2.8700046203
21
25.5007166142
31
0.0000000000
11
2.8544443657
21
25.4993629653
31
0.0000000000
11
2.8347217805
21
25.4951321746
31
0.0000000000
0
SPLINE
5
398
100
AcDbEntity
8
0
100
AcDbSpline
62
7
6
CONTINUOUS
70
0
71
3
72
10
73
6
74
4
42
0.0000001000
43
0.0000001000
44
0.0000000001
12
-0.0834376104
22
-0.0215644026
32
0.0000000000
13
-0.0802616271
23
-0.0308580255
33
0.0000000000
40
0.0000000000
40
0.0000000000
40
0.0000000000
40
0.0000000000
40
0.2857859049
40
0.6202419717
40
1.0000000000
40
1.0000000000
40
1.0000000000
40
1.0000000000
10
2.8347217805
20
25.4951321746
30
0.0000000000
10
2.8267733495
20
25.4930779071
30
0.0000000000
10
2.8097309644
20
25.4880805769
30
0.0000000000
10
2.7825857460
20
25.4788207446
30
0.0000000000
10
2.7634075076
20
25.4716627288
30
0.0000000000
10
2.7532475085
20
25.4677565345
30
0.0000000000
11
2.8347217805
21
25.4951321746
31
0.0000000000
11
2.8111119625
21
25.4883143350
31
0.0000000000
11
2.7838613663
21
25.4791208262
31
0.0000000000
11
2.7532475085
21
25.4677565345
31
0.0000000000
0
SPLINE
5
399
100
AcDbEntity
8
0
100
AcDbSpline
62
7
6
CONTINUOUS
70
0
71
3
72
14
73
10
74
8
42
0.0000001000
43
0.0000001000
44
0.0000000001
12
0.0000000000
22
-0.1567540012
32
0.0000000000
13
-0.1397989498
23
-0.0716622433
33
0.0000000000
40
0.0000000000
40
0.0000000000
40
0.0000000000
40
0.0000000000
40
0.1911658276
40
0.3699263789
40
0.5362431835
40
0.6911951393
40
0.8371323080
40
0.9776446192
40
1.0000000000
40
1.0000000000
40
1.0000000000
40
1.0000000000
10
7.0687503945
20
-23.7725199370
30
0.0000000000
10
7.0687503945
20
-23.7825086065
30
0.0000000000
10
7.0676624921
20
-23.8018642332
30
0.0000000000
10
7.0624221566
20
-23.8294800040
30
0.0000000000
10
7.0536988347
20
-23.8542309633
30
0.0000000000
10
7.0416163216
20
-23.8756092560
30
0.0000000000
10
7.0263587216
20
-23.8931392736
30
0.0000000000
10
7.0132029104
20
-23.9027301842
30
0.0000000000
10
7.0056867039
20
-23.9067630332
30
0.0000000000
10
7.0046449509
20
-23.9072970455
30
0.0000000000
11
7.0687503945
21
-23.7725199370
31
0.0000000000
11
7.0669511431
21
-23.8024318803
31
0.0000000000
11
7.0615899779
21
-23.8299356717
31
0.0000000000
11
7.0527759842
21
-23.8544713887
31
0.0000000000
11
7.0406885495
21
-23.8755395143
31
0.0000000000
11
7.0255737183
21
-23.8927111191
31
0.0000000000
11
7.0077391843
21
-23.9056366061
31
0.0000000000
11
7.0046449509
21
-23.9072970455
31
0.0000000000
0
SPLINE
5
39A
100
AcDbEntity
8
0
100
AcDbSpline
62
9
6
CONTINUOUS
70
0
71
3
72
14
73
10
74
8
42
0.0000001000
43
0.0000001000
44
0.0000000001
12
-0.0007569433
22
-0.1588062495
32
0.0000000000
13
-0.1429761102
23
-0.0699340330
33
0.0000000000
40
0.0000000000
40
0.0000000000
40
0.0000000000
40
0.0000000000
40
0.1891923884
40
0.3661408429
40
0.5307607172
40
0.6840648807
40
0.8283202428
40
0.9670294790
40
1.0000000000
40
1.0000000000
40
1.0000000000
40
1.0000000000
10
5.4674696037
20
-24.5525545367
30
0.0000000000
10
5.4674218677
20
-24.5625695146
30
0.0000000000
10
5.4662444998
20
-24.5819723728
30
0.0000000000
10
5.4608893057
20
-24.6096435481
30
0.0000000000
10
5.4520774238
20
-24.6344355108
30
0.0000000000
10
5.4399352561
20
-24.6558403349
30
0.0000000000
10
5.4246480251
20
-24.6733834850
30
0.0000000000
10
5.4110123208
20
-24.6833241819
30
0.0000000000
10
5.4029428864
20
-24.6875551995
30
0.0000000000
10
5.4013715542
20
-24.6883237866
30
0.0000000000
11
5.4674696037
21
-24.5525545367
31
0.0000000000
11
5.4655331248
21
-24.5825373417
31
0.0000000000
11
5.4600575421
21
-24.6100995473
31
0.0000000000
11
5.4511543641
21
-24.6346797807
31
0.0000000000
11
5.4390049030
21
-24.6557775338
31
0.0000000000
11
5.4238566039
21
-24.6729632063
31
0.0000000000
11
5.4060179686
21
-24.6858869136
31
0.0000000000
11
5.4013715542
21
-24.6883237866
31
0.0000000000
0
SPLINE
5
39B
100
AcDbEntity
8
0
100
AcDbSpline
62
9
6
CONTINUOUS
70
0
71
3
72
12
73
8
74
6
42
0.0000001000
43
0.0000001000
44
0.0000000001
12
0.3267083716
22
-0.1634288533
32
0.0000000000
13
0.3119847825
23
0.1900338013
33
0.0000000000
40
0.0000000000
40
0.0000000000
40
0.0000000000
40
0.0000000000
40
0.1843508436
40
0.3885184201
40
0.6004097526
40
0.8083015774
40
1.0000000000
40
1.0000000000
40
1.0000000000
40
1.0000000000
10
5.8261682522
20
16.2844854950
30
0.0000000000
10
5.8462445735
20
16.2744427460
30
0.0000000000
10
5.8917222092
20
16.2595294147
30
0.0000000000
10
5.9646935826
20
16.2510963858
30
0.0000000000
10
6.0409337330
20
16.2554800009
30
0.0000000000
10
6.1138136862
20
16.2722816053
30
0.0000000000
10
6.1587545482
20
16.2921348010
30
0.0000000000
10
6.1786902118
20
16.3042778610
30
0.0000000000
11
5.8261682522
21
16.2844854950
31
0.0000000000
11
5.8897946355
21
16.2624191698
31
0.0000000000
11
5.9638203337
21
16.2533159490
31
0.0000000000
11
6.0411011884
21
16.2576954698
31
0.0000000000
11
6.1150170503
21
16.2751284221
31
0.0000000000
11
6.1786902118
21
16.3042778610
31
0.0000000000
0
SPLINE
5
39C
100
AcDbEntity
8
0
100
AcDbSpline
62
7
6
CONTINUOUS
70
0
71
3
72
10
73
6
74
4
42
0.0000001000
43
0.0000001000
44
0.0000000001
12
-0.0400403124
22
0.0241604109
32
0.0000000000
13
-0.0446378892
23
-0.0113911328
33
0.0000000000
40
0.0000000000
40
0.0000000000
40
0.0000000000
40
0.0000000000
40
0.2321106866
40
0.5668595299
40
1.0000000000
40
1.0000000000
40
1.0000000000
40
1.0000000000
10
8.4713728431
20
22.7034105803
30
0.0000000000
10
8.4682749149
20
22.7052798769
30
0.0000000000
10
8.4591637106
20
22.7057950437
30
0.0000000000
10
8.4440815456
20
22.7044057800
30
0.0000000000
10
8.4325389036
20
22.7017892848
30
0.0000000000
10
8.4260940782
20
22.7001446313
30
0.0000000000
11
8.4713728431
21
22.7034105803
31
0.0000000000
11
8.4609076093
21
22.7054833523
31
0.0000000000
11
8.4455728762
21
22.7042479708
31
0.0000000000
11
8.4260940782
21
22.7001446313
31
0.0000000000
0
SPLINE
5
39D
100
AcDbEntity
8
0
100
AcDbSpline
62
7
6
CONTINUOUS
70
0
71
3
72
10
73
6
74
4
42
0.0000001000
43
0.0000001000
44
0.0000000001
12
-0.0825135484
22
-0.0210566137
32
0.0000000000
13
-0.0793327042
23
-0.0303890289
33
0.0000000000
40
0.0000000000
40
0.0000000000
40
0.0000000000
40
0.0000000000
40
0.2856383134
40
0.6200899467
40
1.0000000000
40
1.0000000000
40
1.0000000000
40
1.0000000000
10
8.4260940782
20
22.7001446313
30
0.0000000000
10
8.4182377346
20
22.6981397727
30
0.0000000000
10
8.4013953398
20
22.6932429767
30
0.0000000000
10
8.3745594822
20
22.6841422354
30
0.0000000000
10
8.3555988386
20
22.6770947407
30
0.0000000000
10
8.3455524079
20
22.6732463749
30
0.0000000000
11
8.4260940782
21
22.7001446313
31
0.0000000000
11
8.4027639778
21
22.6934700556
31
0.0000000000
11
8.3758253992
21
22.6844362003
31
0.0000000000
11
8.3455524079
21
22.6732463749
31
0.0000000000
0
SPLINE
5
39E
100
AcDbEntity
8
0
100
AcDbSpline
62
9
6
CONTINUOUS
70
0
71
3
72
10
73
6
74
4
42
0.0000001000
43
0.0000001000
44
0.0000000001
12
-0.0000119958
22
-0.1266370369
32
0.0000000000
13
0.1116820112
23
-0.0558154597
33
0.0000000000
40
0.0000000000
40
0.0000000000
40
0.0000000000
40
0.0000000000
40
0.1734679280
40
0.5464023628
40
1.0000000000
40
1.0000000000
40
1.0000000000
40
1.0000000000
10
-8.2373283266
20
23.3740480789
30
0.0000000000
10
-8.2373290202
20
23.3667255908
30
0.0000000000
10
-8.2343045382
20
23.3436944922
30
0.0000000000
10
-8.2104236594
20
23.3074125131
30
0.0000000000
10
-8.1811416969
20
23.2881366070
30
0.0000000000
10
-8.1642554647
20
23.2796973534
30
0.0000000000
11
-8.2373283266
21
23.3740480789
31
0.0000000000
11
-8.2343983203
21
23.3524252767
31
0.0000000000
11
-8.2104070245
21
23.3125199989
31
0.0000000000
11
-8.1642554647
21
23.2796973534
31
0.0000000000
0
SPLINE
5
39F
100
AcDbEntity
8
0
100
AcDbSpline
62
9
6
CONTINUOUS
70
0
71
3
72
13
73
9
74
7
42
0.0000001000
43
0.0000001000
44
0.0000000001
12
-0.0000103605
22
-0.1197713150
32
0.0000000000
13
-0.1064979830
23
-0.0538722044
33
0.0000000000
40
0.0000000000
40
0.0000000000
40
0.0000000000
40
0.0000000000
40
0.0713649499
40
0.2245117645
40
0.3897673676
40
0.5725838447
40
0.7758233750
40
1.0000000000
40
1.0000000000
40
1.0000000000
40
1.0000000000
10
7.6692104935
20
18.2334887074
30
0.0000000000
10
7.6692102470
20
18.2306395495
30
0.0000000000
10
7.6686048354
20
18.2216765700
30
0.0000000000
10
7.6642425035
20
18.2065950587
30
0.0000000000
10
7.6539725484
20
18.1892969640
30
0.0000000000
10
7.6390249965
20
18.1730730052
30
0.0000000000
10
7.6197554436
20
18.1581614710
30
0.0000000000
10
7.6049756858
20
18.1496524074
30
0.0000000000
10
7.5970175663
20
18.1456267777
30
0.0000000000
11
7.6692104935
21
18.2334887074
31
0.0000000000
11
7.6686326474
21
18.2249693405
31
0.0000000000
11
7.6636931371
21
18.2073716113
31
0.0000000000
11
7.6538127551
21
18.1903019218
31
0.0000000000
11
7.6391922021
21
18.1741061932
31
0.0000000000
11
7.6201264705
21
18.1591106488
31
0.0000000000
11
7.5970175663
21
18.1456267777
31
0.0000000000
0
SPLINE
5
3A0
100
AcDbEntity
8
0
100
AcDbSpline
62
7
6
CONTINUOUS
70
0
71
3
72
15
73
11
74
9
42
0.0000001000
43
0.0000001000
44
0.0000000001
12
-0.0279770301
22
0.1560982800
32
0.0000000000
13
-0.1370921830
23
-0.0679987334
33
0.0000000000
40
0.0000000000
40
0.0000000000
40
0.0000000000
40
0.0000000000
40
0.0299485458
40
0.0826844627
40
0.1679491385
40
0.2839449247
40
0.4274018815
40
0.5956324241
40
0.7867945012
40
1.0000000000
40
1.0000000000
40
1.0000000000
40
1.0000000000
10
13.8736286435
20
-16.6107476285
30
0.0000000000
10
13.8733493530
20
-16.6091893230
30
0.0000000000
10
13.8711028058
20
-16.6049271384
30
0.0000000000
10
13.8612395223
20
-16.6058103943
30
0.0000000000
10
13.8491296992
20
-16.6080460789
30
0.0000000000
10
13.8321187521
20
-16.6136250758
30
0.0000000000
10
13.8118523193
20
-16.6214064654
30
0.0000000000
10
13.7882483017
20
-16.6315567832
30
0.0000000000
10
13.7617366252
20
-16.6437887817
30
0.0000000000
10
13.7431838380
20
-16.6528136883
30
0.0000000000
10
13.7334409023
20
-16.6576462563
30
0.0000000000
11
13.8736286435
21
-16.6107476285
31
0.0000000000
11
13.8713796213
21
-16.6067179796
31
0.0000000000
11
13.8633725646
21
-16.6057107235
31
0.0000000000
11
13.8505345329
21
-16.6080422484
31
0.0000000000
11
13.8335755869
21
-16.6132848751
31
0.0000000000
11
13.8130557041
21
-16.6210872091
31
0.0000000000
11
13.7893751063
21
-16.6311865580
31
0.0000000000
11
13.7627951766
21
-16.6434043052
31
0.0000000000
11
13.7334409023
21
-16.6576462563
31
0.0000000000
0
SPLINE
5
3A1
100
AcDbEntity
8
0
100
AcDbSpline
62
7
6
CONTINUOUS
70
0
71
3
72
10
73
6
74
4
42
0.0000001000
43
0.0000001000
44
0.0000000001
12
0.0005130378
22
-0.2329136190
32
0.0000000000
13
-0.2049389720
23
-0.1016512409
33
0.0000000000
40
0.0000000000
40
0.0000000000
40
0.0000000000
40
0.0000000000
40
0.1557748385
40
0.5284949735
40
1.0000000000
40
1.0000000000
40
1.0000000000
40
1.0000000000
10
13.8732963662
20
-16.0561981479
30
0.0000000000
10
13.8733230057
20
-16.0682921750
30
0.0000000000
10
13.8678528703
20
-16.1092682935
30
0.0000000000
10
13.8207343934
20
-16.1738797460
30
0.0000000000
10
13.7656508207
20
-16.2086571974
30
0.0000000000
10
13.7334409023
20
-16.2246335544
30
0.0000000000
11
13.8732963662
21
-16.0561981479
31
0.0000000000
11
13.8684101384
21
-16.0918544241
31
0.0000000000
11
13.8224057925
21
-16.1636437701
31
0.0000000000
11
13.7334409023
21
-16.2246335544
31
0.0000000000
0
SPLINE
5
3A2
100
AcDbEntity
8
0
100
AcDbSpline
62
7
6
CONTINUOUS
70
0
71
3
72
15
73
11
74
9
42
0.0000001000
43
0.0000001000
44
0.0000000001
12
-0.0000705175
22
-0.3481038655
32
0.0000000000
13
-0.3061949017
23
-0.1651991741
33
0.0000000000
40
0.0000000000
40
0.0000000000
40
0.0000000000
40
0.0000000000
40
0.1516537254
40
0.3074377997
40
0.4471465916
40
0.5734028731
40
0.6889955620
40
0.7967728278
40
0.8995201727
40
1.0000000000
40
1.0000000000
40
1.0000000000
40
1.0000000000
10
13.8737712264
20
21.0262231220
30
0.0000000000
10
13.8737676616
20
21.0086260393
30
0.0000000000
10
13.8722400089
20
20.9729543065
30
0.0000000000
10
13.8647527241
20
20.9215270946
30
0.0000000000
10
13.8519856059
20
20.8741825247
30
0.0000000000
10
13.8350080056
20
20.8331750508
30
0.0000000000
10
13.8143698634
20
20.7981110957
30
0.0000000000
10
13.7904700439
20
20.7686075885
30
0.0000000000
10
13.7635838575
20
20.7443509367
30
0.0000000000
10
13.7436963725
20
20.7314850297
30
0.0000000000
10
13.7334409023
20
20.7259519682
30
0.0000000000
11
13.8737712264
21
21.0262231220
31
0.0000000000
11
13.8713796213
21
20.9735096369
31
0.0000000000
11
13.8633725646
21
20.9199044555
31
0.0000000000
11
13.8505345329
21
20.8730234509
31
0.0000000000
11
13.8335755869
21
20.8325025026
31
0.0000000000
11
13.8130557041
21
20.7979147559
31
0.0000000000
11
13.7893751063
21
20.7688408289
31
0.0000000000
11
13.7627951766
21
20.7449370029
31
0.0000000000
11
13.7334409023
21
20.7259519682
31
0.0000000000
0
SPLINE
5
3A3
100
AcDbEntity
8
0
100
AcDbSpline
62
9
6
CONTINUOUS
70
0
71
3
72
14
73
10
74
8
42
0.0000001000
43
0.0000001000
44
0.0000000001
12
0.0000000000
22
-0.1577272144
32
0.0000000000
13
0.1414103592
23
-0.0706460082
33
0.0000000000
40
0.0000000000
40
0.0000000000
40
0.0000000000
40
0.0000000000
40
0.1893088629
40
0.3663812135
40
0.5311737743
40
0.6847360083
40
0.8293612095
40
0.9685595038
40
1.0000000000
40
1.0000000000
40
1.0000000000
40
1.0000000000
10
5.1149476441
20
-24.5520418128
30
0.0000000000
10
5.1149476441
20
-24.5619948660
30
0.0000000000
10
5.1160279960
20
-24.5812837955
30
0.0000000000
10
5.1212305277
20
-24.6088114114
30
0.0000000000
10
5.1298909190
20
-24.6334983591
30
0.0000000000
10
5.1418867633
20
-24.6548421374
30
0.0000000000
10
5.1570364682
20
-24.6723725245
30
0.0000000000
10
5.1705030098
20
-24.6822876658
30
0.0000000000
10
5.1784394877
20
-24.6865187779
30
0.0000000000
10
5.1799214916
20
-24.6872591597
30
0.0000000000
11
5.1149476441
21
-24.5520418128
31
0.0000000000
11
5.1167336947
21
-24.5818475075
31
0.0000000000
11
5.1220557560
21
-24.6092648722
31
0.0000000000
11
5.1308062860
21
-24.6337398882
31
0.0000000000
11
5.1428084640
21
-24.6547779923
31
0.0000000000
11
5.1578197636
21
-24.6719540706
31
0.0000000000
11
5.1755368536
21
-24.6849210486
31
0.0000000000
11
5.1799214916
21
-24.6872591597
31
0.0000000000
0
SPLINE
5
3A4
100
AcDbEntity
8
0
100
AcDbSpline
62
9
6
CONTINUOUS
70
0
71
3
72
13
73
9
74
7
42
0.0000001000
43
0.0000001000
44
0.0000000001
12
-0.1019581370
22
0.0509790685
32
0.0000000000
13
-0.0117992671
23
0.1137503596
33
0.0000000000
40
0.0000000000
40
0.0000000000
40
0.0000000000
40
0.0000000000
40
0.2357626044
40
0.4494491163
40
0.6416842755
40
0.8153507739
40
0.9760570233
40
1.0000000000
40
1.0000000000
40
1.0000000000
40
1.0000000000
10
3.4364095737
20
17.9268052959
30
0.0000000000
10
3.4283969350
20
17.9308116152
30
0.0000000000
10
3.4135108131
20
17.9392832602
30
0.0000000000
10
3.3940688514
20
17.9541421576
30
0.0000000000
10
3.3789403216
20
17.9703189208
30
0.0000000000
10
3.3684759764
20
17.9875792978
30
0.0000000000
10
3.3645009694
20
18.0007771653
30
0.0000000000
10
3.3636228450
20
18.0077617346
30
0.0000000000
10
3.3635286752
20
18.0086695753
30
0.0000000000
11
3.4364095737
21
17.9268052959
31
0.0000000000
11
3.4131286959
21
17.9402320409
31
0.0000000000
11
3.3938909311
21
17.9551737410
31
0.0000000000
11
3.3790849384
21
17.9713286033
31
0.0000000000
11
3.3690101737
21
17.9883699855
31
0.0000000000
11
3.3638702501
21
18.0059534765
31
0.0000000000
11
3.3635286752
21
18.0086695753
31
0.0000000000
0
SPLINE
5
3A5
100
AcDbEntity
8
0
100
AcDbSpline
62
9
6
CONTINUOUS
70
0
71
3
72
8
73
4
74
2
42
0.0000001000
43
0.0000001000
44
0.0000000001
12
-0.0006741804
22
0.0064994087
32
0.0000000000
13
-0.0000005379
23
0.0065363351
33
0.0000000000
40
0.0000000000
40
0.0000000000
40
0.0000000000
40
0.0000000000
40
1.0000000000
40
1.0000000000
40
1.0000000000
40
1.0000000000
10
3.3635286752
20
18.0086695753
30
0.0000000000
10
3.3633039484
20
18.0108360449
30
0.0000000000
10
3.3631913781
20
18.0130148731
30
0.0000000000
10
3.3631911987
20
18.0151936514
30
0.0000000000
11
3.3635286752
21
18.0086695753
31
0.0000000000
11
3.3631911987
21
18.0151936514
31
0.0000000000
0
SPLINE
5
3A6
100
AcDbEntity
8
0
100
AcDbSpline
62
9
6
CONTINUOUS
70
0
71
3
72
13
73
9
74
7
42
0.0000001000
43
0.0000001000
44
0.0000000001
12
-0.1077837588
22
0.0538918794
32
0.0000000000
13
-0.0000097653
23
0.1209330093
33
0.0000000000
40
0.0000000000
40
0.0000000000
40
0.0000000000
40
0.0000000000
40
0.2230342452
40
0.4251835925
40
0.6070362850
40
0.7713222798
40
0.9233481615
40
1.0000000000
40
1.0000000000
40
1.0000000000
40
1.0000000000
10
3.4364095737
20
18.2667792300
30
0.0000000000
10
3.4283964172
20
18.2707858082
30
0.0000000000
10
3.4135093787
20
18.2792580415
30
0.0000000000
10
3.3940665124
20
18.2941180735
30
0.0000000000
10
3.3789377358
20
18.3102960834
30
0.0000000000
10
3.3684738523
20
18.3275577020
30
0.0000000000
10
3.3638665630
20
18.3428591620
30
0.0000000000
10
3.3631914499
20
18.3520776841
30
0.0000000000
10
3.3631912004
20
18.3551675966
30
0.0000000000
11
3.4364095737
21
18.2667792300
31
0.0000000000
11
3.4131272481
21
18.2802069410
31
0.0000000000
11
3.3938885374
21
18.2951498616
31
0.0000000000
11
3.3790824343
21
18.3113058785
31
0.0000000000
11
3.3690081979
21
18.3283484165
31
0.0000000000
11
3.3638694282
21
18.3459329566
31
0.0000000000
11
3.3631912004
21
18.3551675966
31
0.0000000000
0
SPLINE
5
3A7
100
AcDbEntity
8
0
100
AcDbSpline
62
9
6
CONTINUOUS
70
0
71
3
72
18
73
14
74
12
42
0.0000001000
43
0.0000001000
44
0.0000000001
12
0.3245465336
22
-0.1622732668
32
0.0000000000
13
0.3252956702
23
0.1607662669
33
0.0000000000
40
0.0000000000
40
0.0000000000
40
0.0000000000
40
0.0000000000
40
0.0805551721
40
0.1670661703
40
0.2584105715
40
0.3533608806
40
0.4505383769
40
0.5484896854
40
0.6457313776
40
0.7408057878
40
0.8323347676
40
0.9190782196
40
1.0000000000
40
1.0000000000
40
1.0000000000
40
1.0000000000
10
5.1149476441
20
17.4275101948
30
0.0000000000
10
5.1236622780
20
17.4231528778
30
0.0000000000
10
5.1422747310
20
17.4151723129
30
0.0000000000
10
5.1720894093
20
17.4056647071
30
0.0000000000
10
5.2043014733
20
17.3983442380
30
0.0000000000
10
5.2382563806
20
17.3933627931
30
0.0000000000
10
5.2732799217
20
17.3908198188
30
0.0000000000
10
5.3086719547
20
17.3907668808
30
0.0000000000
10
5.3437257191
20
17.3932050888
30
0.0000000000
10
5.3777407935
20
17.3980851094
30
0.0000000000
10
5.4100413797
20
17.4053096066
30
0.0000000000
10
5.4399820845
20
17.4147322989
30
0.0000000000
10
5.4586951021
20
17.4226609734
30
0.0000000000
10
5.4674696037
20
17.4269974709
30
0.0000000000
11
5.1149476441
21
17.4275101948
31
0.0000000000
11
5.1417653881
21
17.4158831525
31
0.0000000000
11
5.1716453517
21
17.4062615999
31
0.0000000000
11
5.2039520713
21
17.3988557843
31
0.0000000000
11
5.2380344519
21
17.3938151734
31
0.0000000000
11
5.2732016947
21
17.3912421029
31
0.0000000000
11
5.3087436839
21
17.3911885369
31
0.0000000000
11
5.3439418719
21
17.3936556190
31
0.0000000000
11
5.3780847844
21
17.3985935196
31
0.0000000000
11
5.4104822234
21
17.4059024460
31
0.0000000000
11
5.4404793183
21
17.4154346730
31
0.0000000000
11
5.4674696037
21
17.4269974709
31
0.0000000000
0
SPLINE
5
3A8
100
AcDbEntity
8
0
100
AcDbSpline
62
9
6
CONTINUOUS
70
0
71
3
72
18
73
14
74
12
42
0.0000001000
43
0.0000001000
44
0.0000000001
12
0.3245465248
22
-0.1622732624
32
0.0000000000
13
0.3252956614
23
0.1607662625
33
0.0000000000
40
0.0000000000
40
0.0000000000
40
0.0000000000
40
0.0000000000
40
0.0806542501
40
0.1671652429
40
0.2585077070
40
0.3534491940
40
0.4506168653
40
0.5485559484
40
0.6457840580
40
0.7408442443
40
0.8323592115
40
0.9190895355
40
1.0000000000
40
1.0000000000
40
1.0000000000
40
1.0000000000
10
5.1149476441
20
17.0875362607
30
0.0000000000
10
5.1236729963
20
17.0831735846
30
0.0000000000
10
5.1422971467
20
17.0751895602
30
0.0000000000
10
5.1721239690
20
17.0656814644
30
0.0000000000
10
5.2043353933
20
17.0583640863
30
0.0000000000
10
5.2382881846
20
17.0533854915
30
0.0000000000
10
5.2733081461
20
17.0508449448
30
0.0000000000
10
5.3086958599
20
17.0507938631
30
0.0000000000
10
5.3437446750
20
17.0532332764
30
0.0000000000
10
5.3777545538
20
17.0581138076
30
0.0000000000
10
5.4100500402
20
17.0653381189
30
0.0000000000
10
5.4399861140
20
17.0747599820
30
0.0000000000
10
5.4586963294
20
17.0826876458
30
0.0000000000
10
5.4674696037
20
17.0870235368
30
0.0000000000
11
5.1149476441
21
17.0875362607
31
0.0000000000
11
5.1417990946
21
17.0758965860
31
0.0000000000
11
5.1716800630
21
17.0662781632
31
0.0000000000
11
5.2039867487
21
17.0588753503
31
0.0000000000
11
5.2380663354
21
17.0538377349
31
0.0000000000
11
5.2732301816
21
17.0512671114
31
0.0000000000
11
5.3087677365
21
17.0512154240
31
0.0000000000
11
5.3439608980
21
17.0536837171
31
0.0000000000
11
5.3780985229
21
17.0586221143
31
0.0000000000
11
5.4104907971
21
17.0659308261
31
0.0000000000
11
5.4404831746
21
17.0754621664
31
0.0000000000
11
5.4674696037
21
17.0870235368
31
0.0000000000
0
SPLINE
5
3A9
100
AcDbEntity
8
0
100
AcDbSpline
62
9
6
CONTINUOUS
70
0
71
3
72
18
73
14
74
12
42
0.0000001000
43
0.0000001000
44
0.0000000001
12
0.3245465336
22
-0.1622732668
32
0.0000000000
13
0.3252956701
23
0.1607662669
33
0.0000000000
40
0.0000000000
40
0.0000000000
40
0.0000000000
40
0.0000000000
40
0.0806659212
40
0.1671904826
40
0.2585474575
40
0.3535037071
40
0.4506855134
40
0.5486373666
40
0.6458757671
40
0.7409451719
40
0.8324620195
40
0.9191922409
40
1.0000000000
40
1.0000000000
40
1.0000000000
40
1.0000000000
10
-7.1887103486
20
23.5793391911
30
0.0000000000
10
-7.1799837336
20
23.5749758836
30
0.0000000000
10
-7.1613566934
20
23.5669908044
30
0.0000000000
10
-7.1315250867
20
23.5574818362
30
0.0000000000
10
-7.0993083808
20
23.5501642495
30
0.0000000000
10
-7.0653501951
20
23.5451861670
30
0.0000000000
10
-7.0303250788
20
23.5426468534
30
0.0000000000
10
-6.9949328509
20
23.5425976834
30
0.0000000000
10
-6.9598802846
20
23.5450396049
30
0.0000000000
10
-6.9258681970
20
23.5499230837
30
0.0000000000
10
-6.8935720551
20
23.5571505870
30
0.0000000000
10
-6.8636485952
20
23.5665719656
30
0.0000000000
10
-6.8449505270
20
23.5744960800
30
0.0000000000
10
-6.8361883889
20
23.5788264673
30
0.0000000000
11
-7.1887103486
21
23.5793391911
31
0.0000000000
11
-7.1618549266
21
23.5676980284
31
0.0000000000
11
-7.1319690853
21
23.5580786730
31
0.0000000000
11
-7.0996570515
21
23.5506756214
31
0.0000000000
11
-7.0655719757
21
23.5456385033
31
0.0000000000
11
-7.0304028953
21
23.5430691184
31
0.0000000000
11
-6.9948607030
21
23.5430193651
31
0.0000000000
11
-6.9596639747
21
23.5454901870
31
0.0000000000
11
-6.9255234175
21
23.5504316830
31
0.0000000000
11
-6.8931311416
21
23.5577434908
31
0.0000000000
11
-6.8631398262
21
23.5672780527
31
0.0000000000
11
-6.8361883889
21
23.5788264673
31
0.0000000000
0
SPLINE
5
3AA
100
AcDbEntity
8
0
100
AcDbSpline
62
9
6
CONTINUOUS
70
0
71
3
72
18
73
14
74
12
42
0.0000001000
43
0.0000001000
44
0.0000000001
12
0.3245465297
22
-0.1622732649
32
0.0000000000
13
0.3252956663
23
0.1607662650
33
0.0000000000
40
0.0000000000
40
0.0000000000
40
0.0000000000
40
0.0000000000
40
0.0806602437
40
0.1671780028
40
0.2585287416
40
0.3534787968
40
0.4506549529
40
0.5486020717
40
0.6458367763
40
0.7409024534
40
0.8324161725
40
0.9191443834
40
1.0000000000
40
1.0000000000
40
1.0000000000
40
1.0000000000
10
-7.1887103486
20
23.2393652570
30
0.0000000000
10
-7.1799843479
20
23.2350022566
30
0.0000000000
10
-7.1613587359
20
23.2270177001
30
0.0000000000
10
-7.1315293862
20
23.2175091301
30
0.0000000000
10
-7.0993150574
20
23.2101916084
30
0.0000000000
10
-7.0653591271
20
23.2052132538
30
0.0000000000
10
-7.0303360679
20
23.2026733658
30
0.0000000000
10
-6.9949455490
20
23.2026233565
30
0.0000000000
10
-6.9598943873
20
23.2050642157
30
0.0000000000
10
-6.9258834137
20
23.2099464185
30
0.0000000000
10
-6.8935880416
20
23.2171724279
30
0.0000000000
10
-6.8636592149
20
23.2265939100
30
0.0000000000
10
-6.8449557162
20
23.2345195813
30
0.0000000000
10
-6.8361883889
20
23.2388525331
30
0.0000000000
11
-7.1887103486
21
23.2393652570
31
0.0000000000
11
-7.1618568585
21
23.2277248181
31
0.0000000000
11
-7.1319734583
21
23.2181059357
31
0.0000000000
11
-7.0996637338
21
23.2107029394
31
0.0000000000
11
-7.0655809694
21
23.2056655570
31
0.0000000000
11
-7.0304139873
21
23.2030955952
31
0.0000000000
11
-6.9948735145
21
23.2030449926
31
0.0000000000
11
-6.9596780561
21
23.2055147477
31
0.0000000000
11
-6.9255386771
21
23.2104549387
31
0.0000000000
11
-6.8931472198
21
23.2177652152
31
0.0000000000
11
-6.8631561311
21
23.2272980810
31
0.0000000000
11
-6.8361883889
21
23.2388525331
31
0.0000000000
0
SPLINE
5
3AB
100
AcDbEntity
8
0
100
AcDbSpline
62
9
6
CONTINUOUS
70
0
71
3
72
13
73
9
74
7
42
0.0000001000
43
0.0000001000
44
0.0000000001
12
-0.1042736563
22
0.0521368281
32
0.0000000000
13
-0.0072779220
23
0.1167559839
33
0.0000000000
40
0.0000000000
40
0.0000000000
40
0.0000000000
40
0.0000000000
40
0.2304684800
40
0.4394046403
40
0.6273657146
40
0.7971723098
40
0.9543045993
40
1.0000000000
40
1.0000000000
40
1.0000000000
40
1.0000000000
10
-8.8672484190
20
24.0786342922
30
0.0000000000
10
-8.8752590160
20
24.0826395907
30
0.0000000000
10
-8.8901430556
20
24.0911097894
30
0.0000000000
10
-8.9095835005
20
24.1059661985
30
0.0000000000
10
-8.9247126788
20
24.1221415608
30
0.0000000000
10
-8.9351783502
20
24.1394004329
30
0.0000000000
10
-8.9394078955
20
24.1534368114
30
0.0000000000
10
-8.9402332503
20
24.1613085454
30
0.0000000000
10
-8.9403441061
20
24.1630869492
30
0.0000000000
11
-8.8672484190
21
24.0786342922
31
0.0000000000
11
-8.8905235882
21
24.0920572287
31
0.0000000000
11
-8.9097615433
21
24.1069976971
31
0.0000000000
11
-8.9245681968
21
24.1231511193
31
0.0000000000
11
-8.9346443942
21
24.1401911892
31
0.0000000000
11
-8.9397864011
21
24.1577734288
31
0.0000000000
11
-8.9403441061
21
24.1630869492
31
0.0000000000
0
SPLINE
5
3AC
100
AcDbEntity
8
0
100
AcDbSpline
62
9
6
CONTINUOUS
70
0
71
3
72
8
73
4
74
2
42
0.0000001000
43
0.0000001000
44
0.0000000001
12
-0.0002449943
22
0.0039303181
32
0.0000000000
13
-0.0000003333
23
0.0039383495
33
0.0000000000
40
0.0000000000
40
0.0000000000
40
0.0000000000
40
0.0000000000
40
1.0000000000
40
1.0000000000
40
1.0000000000
40
1.0000000000
10
-8.9403441061
20
24.1630869492
30
0.0000000000
10
-8.9404257709
20
24.1643970552
30
0.0000000000
10
-8.9404666852
20
24.1657098569
30
0.0000000000
10
-8.9404667963
20
24.1670226401
30
0.0000000000
11
-8.9403441061
21
24.1630869492
31
0.0000000000
11
-8.9404667963
21
24.1670226401
31
0.0000000000
0
SPLINE
5
3AD
100
AcDbEntity
8
0
100
AcDbSpline
62
9
6
CONTINUOUS
70
0
71
3
72
13
73
9
74
7
42
0.0000001000
43
0.0000001000
44
0.0000000001
12
-0.0000103605
22
-0.1197713150
32
0.0000000000
13
-0.1064979830
23
-0.0538722044
33
0.0000000000
40
0.0000000000
40
0.0000000000
40
0.0000000000
40
0.0000000000
40
0.0713649499
40
0.2245117645
40
0.3897673676
40
0.5725838447
40
0.7758233750
40
1.0000000000
40
1.0000000000
40
1.0000000000
40
1.0000000000
10
-4.6344474992
20
24.3853177038
30
0.0000000000
10
-4.6344477456
20
24.3824685458
30
0.0000000000
10
-4.6350531572
20
24.3735055663
30
0.0000000000
10
-4.6394154892
20
24.3584240550
30
0.0000000000
10
-4.6496854443
20
24.3411259603
30
0.0000000000
10
-4.6646329962
20
24.3249020015
30
0.0000000000
10
-4.6839025490
20
24.3099904673
30
0.0000000000
10
-4.6986823069
20
24.3014814037
30
0.0000000000
10
-4.7066404264
20
24.2974557741
30
0.0000000000
11
-4.6344474992
21
24.3853177038
31
0.0000000000
11
-4.6350253453
21
24.3767983368
31
0.0000000000
11
-4.6399648555
21
24.3592006076
31
0.0000000000
11
-4.6498452375
21
24.3421309182
31
0.0000000000
11
-4.6644657905
21
24.3259351895
31
0.0000000000
11
-4.6835315221
21
24.3109396452
31
0.0000000000
11
-4.7066404264
21
24.2974557741
31
0.0000000000
0
SPLINE
5
3AE
100
AcDbEntity
8
0
100
AcDbSpline
62
9
6
CONTINUOUS
70
0
71
3
72
13
73
9
74
7
42
0.0000001000
43
0.0000001000
44
0.0000000001
12
-0.1077837588
22
0.0538918794
32
0.0000000000
13
-0.0000097653
23
0.1209330093
33
0.0000000000
40
0.0000000000
40
0.0000000000
40
0.0000000000
40
0.0000000000
40
0.2230342452
40
0.4251835925
40
0.6070362850
40
0.7713222798
40
0.9233481615
40
1.0000000000
40
1.0000000000
40
1.0000000000
40
1.0000000000
10
-8.8672484190
20
24.4186082263
30
0.0000000000
10
-8.8752615754
20
24.4226148045
30
0.0000000000
10
-8.8901486139
20
24.4310870378
30
0.0000000000
10
-8.9095914802
20
24.4459470698
30
0.0000000000
10
-8.9247202568
20
24.4621250797
30
0.0000000000
10
-8.9351841404
20
24.4793866983
30
0.0000000000
10
-8.9397914297
20
24.4946881583
30
0.0000000000
10
-8.9404665427
20
24.5039066804
30
0.0000000000
10
-8.9404667922
20
24.5069965929
30
0.0000000000
11
-8.8672484190
21
24.4186082263
31
0.0000000000
11
-8.8905307445
21
24.4320359373
31
0.0000000000
11
-8.9097694552
21
24.4469788580
31
0.0000000000
11
-8.9245755583
21
24.4631348748
31
0.0000000000
11
-8.9346497947
21
24.4801774128
31
0.0000000000
11
-8.9397885645
21
24.4977619530
31
0.0000000000
11
-8.9404667922
21
24.5069965929
31
0.0000000000
0
SPLINE
5
3AF
100
AcDbEntity
8
0
100
AcDbSpline
62
9
6
CONTINUOUS
70
0
71
3
72
12
73
8
74
6
42
0.0000001000
43
0.0000001000
44
0.0000000001
12
0.1046699958
22
0.0536555175
32
0.0000000000
13
0.1052195208
23
-0.0519968360
33
0.0000000000
40
0.0000000000
40
0.0000000000
40
0.0000000000
40
0.0000000000
40
0.1567768319
40
0.3485859565
40
0.5508368444
40
0.7672930631
40
1.0000000000
40
1.0000000000
40
1.0000000000
40
1.0000000000
10
-8.8045854984
20
24.7294323713
30
0.0000000000
10
-8.7991155550
20
24.7322363520
30
0.0000000000
10
-8.7863373575
20
24.7372752393
30
0.0000000000
10
-8.7648999529
20
24.7408074706
30
0.0000000000
10
-8.7408854289
20
24.7396659722
30
0.0000000000
10
-8.7159683647
20
24.7337660732
30
0.0000000000
10
-8.6996619338
20
24.7270183828
30
0.0000000000
10
-8.6915001630
20
24.7229850413
30
0.0000000000
11
-8.8045854984
21
24.7294323713
31
0.0000000000
11
-8.7874621450
21
24.7362017420
31
0.0000000000
11
-8.7652674012
21
24.7399672588
31
0.0000000000
11
-8.7415500985
21
24.7389903682
31
0.0000000000
11
-8.7167930322
21
24.7332909562
31
0.0000000000
11
-8.6915001630
21
24.7229850413
31
0.0000000000
0
SPLINE
5
3B0
100
AcDbEntity
8
0
100
AcDbSpline
62
9
6
CONTINUOUS
70
0
71
3
72
12
73
8
74
6
42
0.0000001000
43
0.0000001000
44
0.0000000001
12
0.1046699958
22
0.0536555175
32
0.0000000000
13
0.1052195208
23
-0.0519968360
33
0.0000000000
40
0.0000000000
40
0.0000000000
40
0.0000000000
40
0.0000000000
40
0.1567768319
40
0.3485859565
40
0.5508368444
40
0.7672930631
40
1.0000000000
40
1.0000000000
40
1.0000000000
40
1.0000000000
10
3.4990724942
20
18.5776033749
30
0.0000000000
10
3.5045424376
20
18.5804073556
30
0.0000000000
10
3.5173206352
20
18.5854462430
30
0.0000000000
10
3.5387580397
20
18.5889784743
30
0.0000000000
10
3.5627725637
20
18.5878369759
30
0.0000000000
10
3.5876896279
20
18.5819370768
30
0.0000000000
10
3.6039960588
20
18.5751893864
30
0.0000000000
10
3.6121578296
20
18.5711560450
30
0.0000000000
11
3.4990724942
21
18.5776033749
31
0.0000000000
11
3.5161958477
21
18.5843727457
31
0.0000000000
11
3.5383905915
21
18.5881382624
31
0.0000000000
11
3.5621078941
21
18.5871613719
31
0.0000000000
11
3.5868649604
21
18.5814619599
31
0.0000000000
11
3.6121578296
21
18.5711560450
31
0.0000000000
0
SPLINE
5
3B1
100
AcDbEntity
8
0
100
AcDbSpline
62
9
6
CONTINUOUS
70
0
71
3
72
12
73
8
74
6
42
0.0000001000
43
0.0000001000
44
0.0000000001
12
-0.1029975786
22
0.0514556913
32
0.0000000000
13
-0.1030457036
23
-0.0507886144
33
0.0000000000
40
0.0000000000
40
0.0000000000
40
0.0000000000
40
0.0000000000
40
0.1465014453
40
0.3409787459
40
0.5457177993
40
0.7646569150
40
1.0000000000
40
1.0000000000
40
1.0000000000
40
1.0000000000
10
7.5310182710
20
18.8046366212
30
0.0000000000
10
7.5259885063
20
18.8071493989
30
0.0000000000
10
7.5137538665
20
18.8119467016
30
0.0000000000
10
7.4929830555
20
18.8154859407
30
0.0000000000
10
7.4691758530
20
18.8144580537
30
0.0000000000
10
7.4444823978
20
18.8086873348
30
0.0000000000
10
7.4283275605
20
18.8020320830
30
0.0000000000
10
7.4202438626
20
18.7980478333
30
0.0000000000
11
7.5310182710
21
18.8046366212
31
0.0000000000
11
7.5153380352
21
18.8107943659
31
0.0000000000
11
7.4933308255
21
18.8146474249
31
0.0000000000
11
7.4698259766
21
18.8137798290
31
0.0000000000
11
7.4452984476
21
18.8082091096
31
0.0000000000
11
7.4202438626
21
18.7980478333
31
0.0000000000
0
SPLINE
5
3B2
100
AcDbEntity
8
0
100
AcDbSpline
62
7
6
CONTINUOUS
70
0
71
3
72
9
73
5
74
3
42
0.0000001000
43
0.0000001000
44
0.0000000001
12
0.0305169333
22
0.0150410226
32
0.0000000000
13
0.0317561143
23
0.0122092091
33
0.0000000000
40
0.0000000000
40
0.0000000000
40
0.0000000000
40
0.0000000000
40
0.5062732526
40
1.0000000000
40
1.0000000000
40
1.0000000000
40
1.0000000000
10
2.7221005689
20
25.4540895408
30
0.0000000000
10
2.7272505379
20
25.4566278300
30
0.0000000000
10
2.7375321223
20
25.4614232417
30
0.0000000000
10
2.7480212275
20
25.4657471968
30
0.0000000000
10
2.7532475085
20
25.4677565345
30
0.0000000000
11
2.7221005689
21
25.4540895408
31
0.0000000000
11
2.7377143104
21
25.4613625671
31
0.0000000000
11
2.7532475085
21
25.4677565345
31
0.0000000000
0
SPLINE
5
3B3
100
AcDbEntity
8
0
100
AcDbSpline
62
9
6
CONTINUOUS
70
0
71
3
72
18
73
14
74
12
42
0.0000001000
43
0.0000001000
44
0.0000000001
12
0.0000000000
22
0.3669107664
32
0.0000000000
13
0.3272369926
23
0.1659501768
33
0.0000000000
40
0.0000000000
40
0.0000000000
40
0.0000000000
40
0.0000000000
40
0.0862518076
40
0.1766667997
40
0.2703238465
40
0.3661452927
40
0.4629552825
40
0.5595349054
40
0.6546748161
40
0.7472315712
40
0.8361737297
40
0.9206615776
40
1.0000000000
40
1.0000000000
40
1.0000000000
40
1.0000000000
10
3.4364095737
20
18.2667792300
30
0.0000000000
10
3.4364095737
20
18.2773281356
30
0.0000000000
10
3.4376943495
20
18.2989489658
30
0.0000000000
10
3.4430757261
20
18.3316209544
30
0.0000000000
10
3.4518523383
20
18.3647605275
30
0.0000000000
10
3.4638484965
20
18.3977039959
30
0.0000000000
10
3.4788249430
20
18.4297977102
30
0.0000000000
10
3.4964830749
20
18.4604017397
30
0.0000000000
10
3.5164716030
20
18.4889067910
30
0.0000000000
10
3.5383927866
20
18.5147449028
30
0.0000000000
10
3.5618159784
20
18.5374041255
30
0.0000000000
10
3.5862654177
20
18.5564235200
30
0.0000000000
10
3.6035036740
20
18.5667673032
30
0.0000000000
10
3.6121578296
20
18.5711560450
30
0.0000000000
11
3.4364095737
21
18.2667792300
31
0.0000000000
11
3.4381961219
21
18.2983754787
31
0.0000000000
11
3.4435196872
21
18.3311197829
31
0.0000000000
11
3.4522726525
21
18.3643501138
31
0.0000000000
11
3.4642780722
21
18.3973947693
31
0.0000000000
11
3.4792932275
21
18.4295857633
31
0.0000000000
11
3.4970145704
21
18.4602724287
31
0.0000000000
11
3.5170837564
21
18.4888344015
31
0.0000000000
11
3.5390955311
21
18.5146949531
31
0.0000000000
11
3.5626034768
21
18.5373299637
31
0.0000000000
11
3.5871336964
21
18.5562835226
31
0.0000000000
11
3.6121578296
21
18.5711560450
31
0.0000000000
0
SPLINE
5
3B4
100
AcDbEntity
8
0
100
AcDbSpline
62
9
6
CONTINUOUS
70
0
71
3
72
18
73
14
74
12
42
0.0000001000
43
0.0000001000
44
0.0000000001
12
0.0000000000
22
0.3669107486
32
0.0000000000
13
0.3272369767
23
0.1659501687
33
0.0000000000
40
0.0000000000
40
0.0000000000
40
0.0000000000
40
0.0000000000
40
0.0862394810
40
0.1766406970
40
0.2702834467
40
0.3660906775
40
0.4628872984
40
0.5594549994
40
0.6545853859
40
0.7471334945
40
0.8360738167
40
0.9205612840
40
1.0000000000
40
1.0000000000
40
1.0000000000
40
1.0000000000
10
5.1149476441
20
17.4275101948
30
0.0000000000
10
5.1149476441
20
17.4380575923
30
0.0000000000
10
5.1162320477
20
17.4596752240
30
0.0000000000
10
5.1216119125
20
17.4923424319
30
0.0000000000
10
5.1303860945
20
17.5254772762
30
0.0000000000
10
5.1423790404
20
17.5584164422
30
0.0000000000
10
5.1573516692
20
17.5905065847
30
0.0000000000
10
5.1750056202
20
17.6211080872
30
0.0000000000
10
5.1949897482
20
17.6496117042
30
0.0000000000
10
5.2169068529
20
17.6754500296
30
0.0000000000
10
5.2403264970
20
17.6981109907
30
0.0000000000
10
5.2647828120
20
17.7171410125
30
0.0000000000
10
5.2820308050
20
17.7274927203
30
0.0000000000
10
5.2906959000
20
17.7318870098
30
0.0000000000
11
5.1149476441
21
17.4275101948
31
0.0000000000
11
5.1167336947
21
17.4591019401
31
0.0000000000
11
5.1220557560
21
17.4918413662
31
0.0000000000
11
5.1308062860
21
17.5250669121
31
0.0000000000
11
5.1428084640
21
17.5581071942
31
0.0000000000
11
5.1578197636
21
17.5902945721
31
0.0000000000
11
5.1755368536
21
17.6209786401
31
0.0000000000
11
5.1956017275
21
17.6495393698
31
0.0000000000
11
5.2176089371
21
17.6753996384
31
0.0000000000
11
5.2411137860
21
17.6980368914
31
0.0000000000
11
5.2656413151
21
17.7169937011
31
0.0000000000
11
5.2906959000
21
17.7318870098
31
0.0000000000
0
SPLINE
5
3B5
100
AcDbEntity
8
0
100
AcDbSpline
62
9
6
CONTINUOUS
70
0
71
3
72
18
73
14
74
12
42
0.0000001000
43
0.0000001000
44
0.0000000001
12
0.0000000000
22
0.3669107664
32
0.0000000000
13
0.3272369926
23
0.1659501768
33
0.0000000000
40
0.0000000000
40
0.0000000000
40
0.0000000000
40
0.0000000000
40
0.0862518076
40
0.1766667997
40
0.2703238465
40
0.3661452927
40
0.4629552825
40
0.5595349054
40
0.6546748161
40
0.7472315712
40
0.8361737297
40
0.9206615776
40
1.0000000000
40
1.0000000000
40
1.0000000000
40
1.0000000000
10
-8.8672484190
20
24.4186082263
30
0.0000000000
10
-8.8672484190
20
24.4291571319
30
0.0000000000
10
-8.8659636431
20
24.4507779621
30
0.0000000000
10
-8.8605822665
20
24.4834499507
30
0.0000000000
10
-8.8518056544
20
24.5165895238
30
0.0000000000
10
-8.8398094961
20
24.5495329923
30
0.0000000000
10
-8.8248330496
20
24.5816267065
30
0.0000000000
10
-8.8071749177
20
24.6122307360
30
0.0000000000
10
-8.7871863896
20
24.6407357873
30
0.0000000000
10
-8.7652652061
20
24.6665738991
30
0.0000000000
10
-8.7418420143
20
24.6892331218
30
0.0000000000
10
-8.7173925750
20
24.7082525163
30
0.0000000000
10
-8.7001543186
20
24.7185962996
30
0.0000000000
10
-8.6915001630
20
24.7229850413
30
0.0000000000
11
-8.8672484190
21
24.4186082263
31
0.0000000000
11
-8.8654618708
21
24.4502044750
31
0.0000000000
11
-8.8601383055
21
24.4829487792
31
0.0000000000
11
-8.8513853402
21
24.5161791101
31
0.0000000000
11
-8.8393799204
21
24.5492237656
31
0.0000000000
11
-8.8243647651
21
24.5814147596
31
0.0000000000
11
-8.8066434223
21
24.6121014250
31
0.0000000000
11
-8.7865742362
21
24.6406633978
31
0.0000000000
11
-8.7645624616
21
24.6665239494
31
0.0000000000
11
-8.7410545158
21
24.6891589600
31
0.0000000000
11
-8.7165242963
21
24.7081125189
31
0.0000000000
11
-8.6915001630
21
24.7229850413
31
0.0000000000
0
SPLINE
5
3B6
100
AcDbEntity
8
0
100
AcDbSpline
62
9
6
CONTINUOUS
70
0
71
3
72
18
73
14
74
12
42
0.0000001000
43
0.0000001000
44
0.0000000001
12
0.0000000000
22
0.3669107664
32
0.0000000000
13
0.3272369926
23
0.1659501768
33
0.0000000000
40
0.0000000000
40
0.0000000000
40
0.0000000000
40
0.0000000000
40
0.0862518076
40
0.1766667997
40
0.2703238465
40
0.3661452927
40
0.4629552825
40
0.5595349054
40
0.6546748161
40
0.7472315712
40
0.8361737297
40
0.9206615776
40
1.0000000000
40
1.0000000000
40
1.0000000000
40
1.0000000000
10
-7.1887103486
20
23.5793391911
30
0.0000000000
10
-7.1887103486
20
23.5898880967
30
0.0000000000
10
-7.1874255727
20
23.6115089269
30
0.0000000000
10
-7.1820441961
20
23.6441809155
30
0.0000000000
10
-7.1732675840
20
23.6773204886
30
0.0000000000
10
-7.1612714257
20
23.7102639571
30
0.0000000000
10
-7.1462949792
20
23.7423576713
30
0.0000000000
10
-7.1286368473
20
23.7729617008
30
0.0000000000
10
-7.1086483192
20
23.8014667521
30
0.0000000000
10
-7.0867271357
20
23.8273048639
30
0.0000000000
10
-7.0633039439
20
23.8499640866
30
0.0000000000
10
-7.0388545046
20
23.8689834811
30
0.0000000000
10
-7.0216162482
20
23.8793272643
30
0.0000000000
10
-7.0129620926
20
23.8837160061
30
0.0000000000
11
-7.1887103486
21
23.5793391911
31
0.0000000000
11
-7.1869238003
21
23.6109354398
31
0.0000000000
11
-7.1816002351
21
23.6436797440
31
0.0000000000
11
-7.1728472697
21
23.6769100749
31
0.0000000000
11
-7.1608418500
21
23.7099547304
31
0.0000000000
11
-7.1458266947
21
23.7421457244
31
0.0000000000
11
-7.1281053519
21
23.7728323898
31
0.0000000000
11
-7.1080361658
21
23.8013943626
31
0.0000000000
11
-7.0860243912
21
23.8272549142
31
0.0000000000
11
-7.0625164454
21
23.8498899248
31
0.0000000000
11
-7.0379862258
21
23.8688434837
31
0.0000000000
11
-7.0129620926
21
23.8837160061
31
0.0000000000
0
SPLINE
5
3B7
100
AcDbEntity
8
0
100
AcDbSpline
62
9
6
CONTINUOUS
70
0
71
3
72
13
73
9
74
7
42
0.0000001000
43
0.0000001000
44
0.0000000001
12
-0.0002437873
22
-0.1196469686
32
0.0000000000
13
-0.1063877624
23
-0.0538164491
33
0.0000000000
40
0.0000000000
40
0.0000000000
40
0.0000000000
40
0.0000000000
40
0.0702311988
40
0.2235355882
40
0.3889559831
40
0.5719653101
40
0.7754225543
40
1.0000000000
40
1.0000000000
40
1.0000000000
40
1.0000000000
10
7.6692103632
20
-23.4137708599
30
0.0000000000
10
7.6692046561
20
-23.4165718432
30
0.0000000000
10
7.6685952443
20
-23.4254853406
30
0.0000000000
10
7.6642511026
20
-23.4405212912
30
0.0000000000
10
7.6539854220
20
-23.4578218465
30
0.0000000000
10
7.6390406058
20
-23.4740486747
30
0.0000000000
10
7.6197672443
20
-23.4889670352
30
0.0000000000
10
7.6049816636
20
-23.4974802248
30
0.0000000000
10
7.5970175663
20
-23.5015088784
30
0.0000000000
11
7.6692103632
21
-23.4137708599
31
0.0000000000
11
7.6686354343
21
-23.4221459185
31
0.0000000000
11
7.6637012701
21
-23.4397450125
31
0.0000000000
11
7.6538254690
21
-23.4568164687
31
0.0000000000
11
7.6392076163
21
-23.4730151882
31
0.0000000000
11
7.6201431621
21
-23.4880137357
31
0.0000000000
11
7.5970175663
21
-23.5015088784
31
0.0000000000
0
SPLINE
5
3B8
100
AcDbEntity
8
0
100
AcDbSpline
62
9
6
CONTINUOUS
70
0
71
3
72
12
73
8
74
6
42
0.0000001000
43
0.0000001000
44
0.0000000001
12
0.3267083716
22
-0.1634288533
32
0.0000000000
13
0.3119847825
23
0.1900338013
33
0.0000000000
40
0.0000000000
40
0.0000000000
40
0.0000000000
40
0.0000000000
40
0.1843508436
40
0.3885184201
40
0.6004097526
40
0.8083015774
40
1.0000000000
40
1.0000000000
40
1.0000000000
40
1.0000000000
10
-6.4774897405
20
22.4363144913
30
0.0000000000
10
-6.4574134192
20
22.4262717423
30
0.0000000000
10
-6.4119357835
20
22.4113584110
30
0.0000000000
10
-6.3389644100
20
22.4029253821
30
0.0000000000
10
-6.2627242596
20
22.4073089973
30
0.0000000000
10
-6.1898443065
20
22.4241106016
30
0.0000000000
10
-6.1449034444
20
22.4439637973
30
0.0000000000
10
-6.1249677808
20
22.4561068573
30
0.0000000000
11
-6.4774897405
21
22.4363144913
31
0.0000000000
11
-6.4138633571
21
22.4142481662
31
0.0000000000
11
-6.3398376589
21
22.4051449453
31
0.0000000000
11
-6.2625568043
21
22.4095244662
31
0.0000000000
11
-6.1886409424
21
22.4269574184
31
0.0000000000
11
-6.1249677808
21
22.4561068573
31
0.0000000000
0
SPLINE
5
3B9
100
AcDbEntity
8
0
100
AcDbSpline
62
9
6
CONTINUOUS
70
0
71
3
72
8
73
4
74
2
42
0.0000001000
43
0.0000001000
44
0.0000000001
12
0.0042879186
22
0.0020184714
32
0.0000000000
13
0.0041421860
23
0.0022737715
33
0.0000000000
40
0.0000000000
40
0.0000000000
40
0.0000000000
40
0.0000000000
40
1.0000000000
40
1.0000000000
40
1.0000000000
40
1.0000000000
10
-5.6690230039
20
-0.7864062645
30
0.0000000000
10
-5.6675936977
20
-0.7857334407
30
0.0000000000
10
-5.6661870116
20
-0.7850179394
30
0.0000000000
10
-5.6648062829
20
-0.7842600156
30
0.0000000000
11
-5.6690230039
21
-0.7864062645
31
0.0000000000
11
-5.6648062829
21
-0.7842600156
31
0.0000000000
0
SPLINE
5
3BA
100
AcDbEntity
8
0
100
AcDbSpline
62
7
6
CONTINUOUS
70
0
71
3
72
14
73
10
74
8
42
0.0000001000
43
0.0000001000
44
0.0000000001
12
0.1948727826
22
0.0960478531
32
0.0000000000
13
-0.0000942571
23
0.2178239755
33
0.0000000000
40
0.0000000000
40
0.0000000000
40
0.0000000000
40
0.0000000000
40
0.1980921479
40
0.3797759134
40
0.5452342550
40
0.6958855188
40
0.8346654170
40
0.9661340347
40
1.0000000000
40
1.0000000000
40
1.0000000000
40
1.0000000000
10
2.7532475085
20
24.0838004315
30
0.0000000000
10
2.7661150978
20
24.0901425400
30
0.0000000000
10
2.7902307111
20
24.1034931497
30
0.0000000000
10
2.8223959078
20
24.1265722554
30
0.0000000000
10
2.8485694058
20
24.1515685514
30
0.0000000000
10
2.8683170132
20
24.1781737782
30
0.0000000000
10
2.8812303676
20
24.2060610769
30
0.0000000000
10
2.8855486126
20
24.2278919208
30
0.0000000000
10
2.8859387376
20
24.2398954188
30
0.0000000000
10
2.8859376736
20
24.2423543586
30
0.0000000000
11
2.7532475085
21
24.0838004315
31
0.0000000000
11
2.7908070282
21
24.1048113154
31
0.0000000000
11
2.8227431769
21
24.1280088646
31
0.0000000000
11
2.8485540317
21
24.1530285572
31
0.0000000000
11
2.8678340265
21
24.1794773216
31
0.0000000000
11
2.8802801289
21
24.2069395015
31
0.0000000000
11
2.8856967857
21
24.2349836583
31
0.0000000000
11
2.8859376736
21
24.2423543586
31
0.0000000000
0
SPLINE
5
3BB
100
AcDbEntity
8
0
100
AcDbSpline
62
7
6
CONTINUOUS
70
0
71
3
72
10
73
6
74
4
42
0.0000001000
43
0.0000001000
44
0.0000000001
12
5.2665313906
22
2.7420195129
32
0.0000000000
13
5.2768701529
23
2.7220700371
33
0.0000000000
40
0.0000000000
40
0.0000000000
40
0.0000000000
40
0.0000000000
40
0.3227146047
40
0.6560905502
40
1.0000000000
40
1.0000000000
40
1.0000000000
40
1.0000000000
10
3.0382417418
20
19.4810880536
30
0.0000000000
10
3.6047706071
20
19.7760513013
30
0.0000000000
10
4.7571087017
20
20.3746387781
30
0.0000000000
10
6.5147132186
20
21.2846128096
30
0.0000000000
10
7.7057670619
20
21.8996601301
30
0.0000000000
10
8.3106888988
20
22.2117086663
30
0.0000000000
11
3.0382417418
21
19.4810880536
31
0.0000000000
11
4.7385793176
21
20.3645339113
31
0.0000000000
11
6.4963579312
21
21.2747211529
31
0.0000000000
11
8.3106888988
21
22.2117086663
31
0.0000000000
0
SPLINE
5
3BC
100
AcDbEntity
8
0
100
AcDbSpline
62
7
6
CONTINUOUS
70
0
71
3
72
14
73
10
74
8
42
0.0000001000
43
0.0000001000
44
0.0000000001
12
0.1925670800
22
0.0960302798
32
0.0000000000
13
-0.0000962608
23
0.2157335548
33
0.0000000000
40
0.0000000000
40
0.0000000000
40
0.0000000000
40
0.0000000000
40
0.1992421592
40
0.3819034748
40
0.5482197821
40
0.6996881986
40
0.8393488237
40
0.9718773282
40
1.0000000000
40
1.0000000000
40
1.0000000000
40
1.0000000000
10
8.3455524079
20
21.2894984099
30
0.0000000000
10
8.3583415682
20
21.2958761700
30
0.0000000000
10
8.3822950252
20
21.3092934929
30
0.0000000000
10
8.4141922382
20
21.3324680691
30
0.0000000000
10
8.4400768706
20
21.3575456466
30
0.0000000000
10
8.4595165826
20
21.3842178419
30
0.0000000000
10
8.4721030636
20
21.4121551882
30
0.0000000000
10
8.4760772674
20
21.4335567051
30
0.0000000000
10
8.4763859142
20
21.4451084138
30
0.0000000000
10
8.4763850118
20
21.4471307484
30
0.0000000000
11
8.3455524079
21
21.2894984099
31
0.0000000000
11
8.3828632905
21
21.3106181646
31
0.0000000000
11
8.4145256016
21
21.3339083932
31
0.0000000000
11
8.4400417100
21
21.3590031244
31
0.0000000000
11
8.4590106661
21
21.3855081089
31
0.0000000000
11
8.4711343171
21
21.4130068131
31
0.0000000000
11
8.4762221636
21
21.4410672190
31
0.0000000000
11
8.4763850118
21
21.4471307484
31
0.0000000000
0
SPLINE
5
3BD
100
AcDbEntity
8
0
100
AcDbSpline
62
7
6
CONTINUOUS
70
0
71
3
72
9
73
5
74
3
42
0.0000001000
43
0.0000001000
44
0.0000000001
12
0.0321079182
22
0.0160117315
32
0.0000000000
13
0.0335048459
23
0.0128343001
33
0.0000000000
40
0.0000000000
40
0.0000000000
40
0.0000000000
40
0.0000000000
40
0.5067221146
40
1.0000000000
40
1.0000000000
40
1.0000000000
40
1.0000000000
10
8.3127338109
20
22.6587729198
30
0.0000000000
10
8.3181570750
20
22.6614774193
30
0.0000000000
10
8.3289831618
20
22.6665712044
30
0.0000000000
10
8.3400433414
20
22.6711360827
30
0.0000000000
10
8.3455524079
20
22.6732463749
30
0.0000000000
11
8.3127338109
21
22.6587729198
31
0.0000000000
11
8.3291888176
21
22.6665038805
31
0.0000000000
11
8.3455524079
21
22.6732463749
31
0.0000000000
0
SPLINE
5
3BE
100
AcDbEntity
8
0
100
AcDbSpline
62
7
6
CONTINUOUS
70
0
71
3
72
10
73
6
74
4
42
0.0000001000
43
0.0000001000
44
0.0000000001
12
-5.2681459399
22
-2.6122333457
32
0.0000000000
13
-5.2781914313
23
-2.5918757515
33
0.0000000000
40
0.0000000000
40
0.0000000000
40
0.0000000000
40
0.0000000000
40
0.3443158395
40
0.6777179116
40
1.0000000000
40
1.0000000000
40
1.0000000000
40
1.0000000000
10
8.3106888988
20
21.7071302798
30
0.0000000000
10
7.7060535348
20
21.4073191740
30
0.0000000000
10
6.5156923262
20
20.8177152161
30
0.0000000000
10
4.7583268281
20
19.9496306738
30
0.0000000000
10
3.6052639276
20
19.3820347085
30
0.0000000000
10
3.0382417418
20
19.1035963318
30
0.0000000000
11
8.3106888988
21
21.7071302798
31
0.0000000000
11
6.4963587178
21
20.8085527385
31
0.0000000000
11
4.7385816847
21
19.9403895431
31
0.0000000000
11
3.0382417418
21
19.1035963318
31
0.0000000000
0
SPLINE
5
3BF
100
AcDbEntity
8
0
100
AcDbSpline
62
9
6
CONTINUOUS
70
0
71
3
72
14
73
10
74
8
42
0.0000001000
43
0.0000001000
44
0.0000000001
12
-0.6697580618
22
0.3375798765
32
0.0000000000
13
-0.0056830744
23
0.7480658028
33
0.0000000000
40
0.0000000000
40
0.0000000000
40
0.0000000000
40
0.0000000000
40
0.0029457141
40
0.1641839388
40
0.3312317577
40
0.5040712566
40
0.6786759028
40
0.8473417842
40
1.0000000000
40
1.0000000000
40
1.0000000000
40
1.0000000000
10
-6.2938784544
20
-0.8091808849
30
0.0000000000
10
-6.2945360930
20
-0.8088494136
30
0.0000000000
10
-6.3311452004
20
-0.7902842744
30
0.0000000000
10
-6.3998418807
20
-0.7427073403
30
0.0000000000
10
-6.4820910609
20
-0.6470265395
30
0.0000000000
10
-6.5427045510
20
-0.5329669231
30
0.0000000000
10
-6.5818255814
20
-0.4097677545
30
0.0000000000
10
-6.6020909692
20
-0.2874457801
30
0.0000000000
10
-6.6063546615
20
-0.2072900247
30
0.0000000000
10
-6.6066438509
20
-0.1692238944
30
0.0000000000
11
-6.2938784544
21
-0.8091808849
31
0.0000000000
11
-6.2958489178
21
-0.8081816237
31
0.0000000000
11
-6.3952104291
21
-0.7397963718
31
0.0000000000
11
-6.4773378573
21
-0.6456067846
31
0.0000000000
11
-6.5388843280
21
-0.5318954124
31
0.0000000000
11
-6.5791729531
21
-0.4076444995
31
0.0000000000
11
-6.6003020521
21
-0.2832493596
31
0.0000000000
11
-6.6066438509
21
-0.1692238944
31
0.0000000000
0
SPLINE
5
3C0
100
AcDbEntity
8
0
100
AcDbSpline
62
9
6
CONTINUOUS
70
0
71
3
72
14
73
10
74
8
42
0.0000001000
43
0.0000001000
44
0.0000000001
12
-0.6681205697
22
0.3341373465
32
0.0000000000
13
-0.0055801223
23
0.7449829800
33
0.0000000000
40
0.0000000000
40
0.0000000000
40
0.0000000000
40
0.0000000000
40
0.0163041869
40
0.1761786232
40
0.3420299363
40
0.5134662251
40
0.6860022474
40
0.8516252604
40
1.0000000000
40
1.0000000000
40
1.0000000000
40
1.0000000000
10
-5.3154854113
20
-1.2983771200
30
0.0000000000
10
-5.3191164655
20
-1.2965611741
30
0.0000000000
10
-5.3580797438
20
-1.2763959164
30
0.0000000000
10
-5.4276442127
20
-1.2259242664
30
0.0000000000
10
-5.5068487665
20
-1.1296942140
30
0.0000000000
10
-5.5646762169
20
-1.0161477574
30
0.0000000000
10
-5.6016544847
20
-0.8945799686
30
0.0000000000
10
-5.6206145496
20
-0.7749585213
30
0.0000000000
10
-5.6245919616
20
-0.6969573994
30
0.0000000000
10
-5.6248679447
20
-0.6601118475
30
0.0000000000
11
-5.3154854113
21
-1.2983771200
31
0.0000000000
11
-5.3263012487
21
-1.2927788953
31
0.0000000000
11
-5.4229701102
21
-1.2231970977
31
0.0000000000
11
-5.5022168064
21
-1.1283972930
31
0.0000000000
11
-5.5610600276
21
-1.0150392209
31
0.0000000000
11
-5.5991987598
21
-0.8922875603
31
0.0000000000
11
-5.6189888964
21
-0.7704951548
31
0.0000000000
11
-5.6248679447
21
-0.6601118475
31
0.0000000000
0
SPLINE
5
3C1
100
AcDbEntity
8
0
100
AcDbSpline
62
9
6
CONTINUOUS
70
0
71
3
72
9
73
5
74
3
42
0.0000001000
43
0.0000001000
44
0.0000000001
12
0.0842010773
22
0.0420649304
32
0.0000000000
13
0.0835645236
23
-0.0410541875
33
0.0000000000
40
0.0000000000
40
0.0000000000
40
0.0000000000
40
0.0000000000
40
0.3962480684
40
1.0000000000
40
1.0000000000
40
1.0000000000
40
1.0000000000
10
-4.8781475233
20
-2.7444244918
30
0.0000000000
10
-4.8670260186
20
-2.7388684427
30
0.0000000000
10
-4.8352598948
20
-2.7314463766
30
0.0000000000
10
-4.8042643853
20
-2.7410665260
30
0.0000000000
10
-4.7874469712
20
-2.7493287077
30
0.0000000000
11
-4.8781475233
21
-2.7444244918
31
0.0000000000
11
-4.8419724843
21
-2.7356623254
31
0.0000000000
11
-4.7874469712
21
-2.7493287077
31
0.0000000000
0
SPLINE
5
3C2
100
AcDbEntity
8
0
100
AcDbSpline
62
9
6
CONTINUOUS
70
0
71
3
72
18
73
14
74
12
42
0.0000001000
43
0.0000001000
44
0.0000000001
12
0.3302350778
22
-0.1632210745
32
0.0000000000
13
-0.0017354402
23
-0.3683657340
33
0.0000000000
40
0.0000000000
40
0.0000000000
40
0.0000000000
40
0.0000000000
40
0.0793369717
40
0.1637806468
40
0.2526571569
40
0.3451431464
40
0.4402200820
40
0.5367545754
40
0.6335453120
40
0.7293800768
40
0.8230890519
40
0.9136005655
40
1.0000000000
40
1.0000000000
40
1.0000000000
40
1.0000000000
10
7.4202438626
20
18.7980478333
30
0.0000000000
10
7.4289771463
20
18.7937313447
30
0.0000000000
10
7.4463773598
20
18.7835111363
30
0.0000000000
10
7.4710595308
20
18.7646109947
30
0.0000000000
10
7.4946970850
20
18.7420171811
30
0.0000000000
10
7.5168067136
20
18.7161927983
30
0.0000000000
10
7.5369511946
20
18.6876533358
30
0.0000000000
10
7.5547269299
20
18.6569715565
30
0.0000000000
10
7.5697778113
20
18.6247626926
30
0.0000000000
10
7.5818015930
20
18.5916735768
30
0.0000000000
10
7.5905566616
20
18.5583654404
30
0.0000000000
10
7.5958663852
20
18.5255102226
30
0.0000000000
10
7.5970675466
20
18.5037671582
30
0.0000000000
10
7.5970175663
20
18.4931582945
30
0.0000000000
11
7.4202438626
21
18.7980478333
31
0.0000000000
11
7.4455062057
21
18.7833531104
31
0.0000000000
11
7.4702659755
21
18.7645231280
31
0.0000000000
11
7.4939863920
21
18.7419574076
31
0.0000000000
11
7.5161857199
21
18.7161138429
31
0.0000000000
11
7.5364104334
21
18.6875200554
31
0.0000000000
11
7.5542491139
21
18.6567576902
31
0.0000000000
11
7.5693383804
21
18.6244532349
31
0.0000000000
11
7.5813709321
21
18.5912644755
31
0.0000000000
11
7.5901017042
21
18.5578672670
31
0.0000000000
11
7.5953528950
21
18.5249416746
31
0.0000000000
11
7.5970175663
21
18.4931582945
31
0.0000000000
0
SPLINE
5
3C3
100
AcDbEntity
8
0
100
AcDbSpline
62
7
6
CONTINUOUS
70
0
71
3
72
18
73
14
74
12
42
0.0000001000
43
0.0000001000
44
0.0000000001
12
0.3291976587
22
-0.1645988293
32
0.0000000000
13
-0.0000000000
23
-0.3680541714
33
0.0000000000
40
0.0000000000
40
0.0000000000
40
0.0000000000
40
0.0000000000
40
0.0792794165
40
0.1636455452
40
0.2525081052
40
0.3450221634
40
0.4401582221
40
0.5367643443
40
0.6336231642
40
0.7295062953
40
0.8232283081
40
0.9137023846
40
1.0000000000
40
1.0000000000
40
1.0000000000
40
1.0000000000
10
6.8919766909
20
18.5346090133
30
0.0000000000
10
6.9006762236
20
18.5302592469
30
0.0000000000
10
6.9180009820
20
18.5199788969
30
0.0000000000
10
6.9425754609
20
18.5010141126
30
0.0000000000
10
6.9661213067
20
18.4783778654
30
0.0000000000
10
6.9881668266
20
18.4525265306
30
0.0000000000
10
7.0082760074
20
18.4239761464
30
0.0000000000
10
7.0260462527
20
18.3932991998
30
0.0000000000
10
7.0411215180
20
18.3611109308
30
0.0000000000
10
7.0531991996
20
18.3280576487
30
0.0000000000
10
7.0620367845
20
18.2947997959
30
0.0000000000
10
7.0674561976
20
18.2620080339
30
0.0000000000
10
7.0687503945
20
18.2403068736
30
0.0000000000
10
7.0687503945
20
18.2297194744
30
0.0000000000
11
6.8919766909
21
18.5346090133
31
0.0000000000
11
6.9171342316
21
18.5198266189
31
0.0000000000
11
6.9417796698
21
18.5009378403
31
0.0000000000
11
6.9654112967
21
18.4783271332
31
0.0000000000
11
6.9875480237
21
18.4524547460
31
0.0000000000
11
7.0077391843
21
18.4238473537
31
0.0000000000
11
7.0255737183
21
18.3930873327
31
0.0000000000
11
7.0406885495
21
18.3608008968
31
0.0000000000
11
7.0527759842
21
18.3276453365
31
0.0000000000
11
7.0615899779
21
18.2942956258
31
0.0000000000
11
7.0669511431
21
18.2614306692
31
0.0000000000
11
7.0687503945
21
18.2297194744
31
0.0000000000
0
SPLINE
5
3C4
100
AcDbEntity
8
0
100
AcDbSpline
62
9
6
CONTINUOUS
70
0
71
3
72
18
73
14
74
12
42
0.0000001000
43
0.0000001000
44
0.0000000001
12
0.3281370796
22
-0.1660023734
32
0.0000000000
13
0.0017610813
23
-0.3677330956
33
0.0000000000
40
0.0000000000
40
0.0000000000
40
0.0000000000
40
0.0000000000
40
0.0790239223
40
0.1633139850
40
0.2521665569
40
0.3447256299
40
0.4399390534
40
0.5366395780
40
0.6335921752
40
0.7295513444
40
0.8233146865
40
0.9137790332
40
1.0000000000
40
1.0000000000
40
1.0000000000
40
1.0000000000
10
5.2906959000
20
17.7318870098
30
0.0000000000
10
5.2993394597
20
17.7275142902
30
0.0000000000
10
5.3165684532
20
17.7171884650
30
0.0000000000
10
5.3410203720
20
17.6981790736
30
0.0000000000
10
5.3644805314
20
17.6755031813
30
0.0000000000
10
5.3864692126
20
17.6496250460
30
0.0000000000
10
5.4065512861
20
17.6210609993
30
0.0000000000
10
5.4243241678
20
17.5903842868
30
0.0000000000
10
5.4394316490
20
17.5582101461
30
0.0000000000
10
5.4515702994
20
17.5251848690
30
0.0000000000
10
5.4604963173
20
17.4919686141
30
0.0000000000
10
5.4660298312
20
17.4592314400
30
0.0000000000
10
5.4674189897
20
17.4375662386
30
0.0000000000
10
5.4674696037
20
17.4269974709
30
0.0000000000
11
5.2906959000
21
17.7318870098
31
0.0000000000
11
5.3156867727
21
17.7170565516
31
0.0000000000
11
5.3402220972
21
17.6981143467
31
0.0000000000
11
5.3637700412
21
17.6754623899
31
0.0000000000
11
5.3858523758
21
17.6495603286
31
0.0000000000
11
5.4060179686
21
17.6209369807
31
0.0000000000
11
5.4238566039
21
17.5901745929
31
0.0000000000
11
5.4390049030
21
17.5578996540
31
0.0000000000
11
5.4511543641
21
17.5247693492
31
0.0000000000
11
5.4600575421
21
17.4914583437
31
0.0000000000
11
5.4655331248
21
17.4586449473
31
0.0000000000
11
5.4674696037
21
17.4269974709
31
0.0000000000
0
SPLINE
5
3C5
100
AcDbEntity
8
0
100
AcDbSpline
62
9
6
CONTINUOUS
70
0
71
3
72
18
73
14
74
12
42
0.0000001000
43
0.0000001000
44
0.0000000001
12
0.3302350778
22
-0.1632210745
32
0.0000000000
13
-0.0017354402
23
-0.3683657340
33
0.0000000000
40
0.0000000000
40
0.0000000000
40
0.0000000000
40
0.0000000000
40
0.0793369717
40
0.1637806468
40
0.2526571569
40
0.3451431464
40
0.4402200820
40
0.5367545754
40
0.6335453120
40
0.7293800768
40
0.8230890519
40
0.9136005655
40
1.0000000000
40
1.0000000000
40
1.0000000000
40
1.0000000000
10
-4.8834141300
20
24.9498768296
30
0.0000000000
10
-4.8746808464
20
24.9455603410
30
0.0000000000
10
-4.8572806328
20
24.9353401326
30
0.0000000000
10
-4.8325984618
20
24.9164399910
30
0.0000000000
10
-4.8089609076
20
24.8938461775
30
0.0000000000
10
-4.7868512791
20
24.8680217946
30
0.0000000000
10
-4.7667067980
20
24.8394823321
30
0.0000000000
10
-4.7489310627
20
24.8088005528
30
0.0000000000
10
-4.7338801813
20
24.7765916889
30
0.0000000000
10
-4.7218563997
20
24.7435025731
30
0.0000000000
10
-4.7131013311
20
24.7101944368
30
0.0000000000
10
-4.7077916075
20
24.6773392189
30
0.0000000000
10
-4.7065904460
20
24.6555961545
30
0.0000000000
10
-4.7066404264
20
24.6449872908
30
0.0000000000
11
-4.8834141300
21
24.9498768296
31
0.0000000000
11
-4.8581517870
21
24.9351821067
31
0.0000000000
11
-4.8333920171
21
24.9163521244
31
0.0000000000
11
-4.8096716007
21
24.8937864039
31
0.0000000000
11
-4.7874722727
21
24.8679428392
31
0.0000000000
11
-4.7672475592
21
24.8393490517
31
0.0000000000
11
-4.7494088787
21
24.8085866865
31
0.0000000000
11
-4.7343196123
21
24.7762822312
31
0.0000000000
11
-4.7222870606
21
24.7430934718
31
0.0000000000
11
-4.7135562884
21
24.7096962633
31
0.0000000000
11
-4.7083050977
21
24.6767706709
31
0.0000000000
11
-4.7066404264
21
24.6449872908
31
0.0000000000
0
SPLINE
5
3C6
100
AcDbEntity
8
0
100
AcDbSpline
62
7
6
CONTINUOUS
70
0
71
3
72
18
73
14
74
12
42
0.0000001000
43
0.0000001000
44
0.0000000001
12
0.3291976587
22
-0.1645988293
32
0.0000000000
13
-0.0000000000
23
-0.3680541714
33
0.0000000000
40
0.0000000000
40
0.0000000000
40
0.0000000000
40
0.0000000000
40
0.0792794165
40
0.1636455452
40
0.2525081052
40
0.3450221634
40
0.4401582221
40
0.5367643443
40
0.6336231642
40
0.7295062953
40
0.8232283081
40
0.9137023846
40
1.0000000000
40
1.0000000000
40
1.0000000000
40
1.0000000000
10
-5.4116813018
20
24.6864380096
30
0.0000000000
10
-5.4029817690
20
24.6820882432
30
0.0000000000
10
-5.3856570106
20
24.6718078932
30
0.0000000000
10
-5.3610825318
20
24.6528431089
30
0.0000000000
10
-5.3375366859
20
24.6302068617
30
0.0000000000
10
-5.3154911660
20
24.6043555269
30
0.0000000000
10
-5.2953819852
20
24.5758051428
30
0.0000000000
10
-5.2776117400
20
24.5451281961
30
0.0000000000
10
-5.2625364746
20
24.5129399272
30
0.0000000000
10
-5.2504587931
20
24.4798866451
30
0.0000000000
10
-5.2416212082
20
24.4466287923
30
0.0000000000
10
-5.2362017950
20
24.4138370302
30
0.0000000000
10
-5.2349075981
20
24.3921358699
30
0.0000000000
10
-5.2349075981
20
24.3815484708
30
0.0000000000
11
-5.4116813018
21
24.6864380096
31
0.0000000000
11
-5.3865237610
21
24.6716556152
31
0.0000000000
11
-5.3618783229
21
24.6527668366
31
0.0000000000
11
-5.3382466959
21
24.6301561295
31
0.0000000000
11
-5.3161099689
21
24.6042837423
31
0.0000000000
11
-5.2959188083
21
24.5756763501
31
0.0000000000
11
-5.2780842744
21
24.5449163291
31
0.0000000000
11
-5.2629694432
21
24.5126298931
31
0.0000000000
11
-5.2508820085
21
24.4794743328
31
0.0000000000
11
-5.2420680147
21
24.4461246221
31
0.0000000000
11
-5.2367068496
21
24.4132596655
31
0.0000000000
11
-5.2349075981
21
24.3815484708
31
0.0000000000
0
SPLINE
5
3C7
100
AcDbEntity
8
0
100
AcDbSpline
62
9
6
CONTINUOUS
70
0
71
3
72
18
73
14
74
12
42
0.0000001000
43
0.0000001000
44
0.0000000001
12
0.3281370633
22
-0.1660023651
32
0.0000000000
13
0.0017610812
23
-0.3677330773
33
0.0000000000
40
0.0000000000
40
0.0000000000
40
0.0000000000
40
0.0000000000
40
0.0791232075
40
0.1634130412
40
0.2522639082
40
0.3448144854
40
0.4400185060
40
0.5367072129
40
0.6336465280
40
0.7295915586
40
0.8233406740
40
0.9137913189
40
1.0000000000
40
1.0000000000
40
1.0000000000
40
1.0000000000
10
-7.0129620926
20
23.8837160061
30
0.0000000000
10
-7.0043076736
20
23.8793377929
30
0.0000000000
10
-6.9870690049
20
23.8690040902
30
0.0000000000
10
-6.9626102388
20
23.8499841351
30
0.0000000000
10
-6.9391535691
20
23.8273064898
30
0.0000000000
10
-6.9171689153
20
23.8014281236
30
0.0000000000
10
-6.8970911996
20
23.7728654902
30
0.0000000000
10
-6.8793224684
20
23.7421912841
30
0.0000000000
10
-6.8642187864
20
23.7100206942
30
0.0000000000
10
-6.8520833413
20
23.6769996985
30
0.0000000000
10
-6.8431597569
20
23.6437881509
30
0.0000000000
10
-6.8376277680
20
23.6110557401
30
0.0000000000
10
-6.8362389958
20
23.5893937285
30
0.0000000000
10
-6.8361883889
20
23.5788264673
30
0.0000000000
11
-7.0129620926
21
23.8837160061
31
0.0000000000
11
-6.9879409964
21
23.8688649383
31
0.0000000000
11
-6.9634083006
21
23.8499194692
31
0.0000000000
11
-6.9398633984
21
23.8272652574
31
0.0000000000
11
-6.9177855757
21
23.8013634574
31
0.0000000000
11
-6.8976242539
21
23.7727413325
31
0.0000000000
11
-6.8797898418
21
23.7419815216
31
0.0000000000
11
-6.8646453808
21
23.7097101788
31
0.0000000000
11
-6.8524991553
21
23.6765842272
31
0.0000000000
11
-6.8435984169
21
23.6432779868
31
0.0000000000
11
-6.8381243509
21
23.6104694473
31
0.0000000000
11
-6.8361883889
21
23.5788264673
31
0.0000000000
0
SPLINE
5
3C8
100
AcDbEntity
8
0
100
AcDbSpline
62
9
6
CONTINUOUS
70
0
71
3
72
8
73
4
74
2
42
0.0000001000
43
0.0000001000
44
0.0000000001
12
-0.0352691583
22
0.0177863800
32
0.0000000000
13
-0.0396482436
23
0.0054771874
33
0.0000000000
40
0.0000000000
40
0.0000000000
40
0.0000000000
40
0.0000000000
40
1.0000000000
40
1.0000000000
40
1.0000000000
40
1.0000000000
10
13.0881112909
20
-13.3688416459
30
0.0000000000
10
13.0763549048
20
-13.3629128526
30
0.0000000000
10
13.0634268458
20
-13.3587804764
30
0.0000000000
10
13.0502107646
20
-13.3569547472
30
0.0000000000
11
13.0881112909
21
-13.3688416459
31
0.0000000000
11
13.0502107646
21
-13.3569547472
31
0.0000000000
0
SPLINE
5
3C9
100
AcDbEntity
8
0
100
AcDbSpline
62
9
6
CONTINUOUS
70
0
71
3
72
9
73
5
74
3
42
0.0000001000
43
0.0000001000
44
0.0000000001
12
-0.0202356571
22
0.0027954451
32
0.0000000000
13
-0.0203335498
23
-0.0010122053
33
0.0000000000
40
0.0000000000
40
0.0000000000
40
0.0000000000
40
0.0000000000
40
0.9522248347
40
1.0000000000
40
1.0000000000
40
1.0000000000
40
1.0000000000
10
13.0502107646
20
-13.3569547472
30
0.0000000000
10
13.0437877995
20
-13.3560674498
30
0.0000000000
10
13.0369711387
20
-13.3557077815
30
0.0000000000
10
13.0301913183
20
-13.3560135586
30
0.0000000000
10
13.0298675054
20
-13.3560296780
30
0.0000000000
11
13.0502107646
21
-13.3569547472
31
0.0000000000
11
13.0308392164
21
-13.3559858603
31
0.0000000000
11
13.0298675054
21
-13.3560296780
31
0.0000000000
0
SPLINE
5
3CA
100
AcDbEntity
8
0
100
AcDbSpline
62
9
6
CONTINUOUS
70
0
71
3
72
14
73
10
74
8
42
0.0000001000
43
0.0000001000
44
0.0000000001
12
0.0000000000
22
-0.1577506519
32
0.0000000000
13
0.1413592682
23
-0.0707335874
33
0.0000000000
40
0.0000000000
40
0.0000000000
40
0.0000000000
40
0.0000000000
40
0.1746337545
40
0.3389393269
40
0.4927930518
40
0.6368233309
40
0.7725428439
40
0.9023589725
40
1.0000000000
40
1.0000000000
40
1.0000000000
40
1.0000000000
10
-7.1887103486
20
23.2393652570
30
0.0000000000
10
-7.1887103486
20
23.2301823941
30
0.0000000000
10
-7.1877875492
20
23.2123397420
30
0.0000000000
10
-7.1833688565
20
23.1867384534
30
0.0000000000
10
-7.1760115634
20
23.1634856040
30
0.0000000000
10
-7.1658090000
20
23.1429785997
30
0.0000000000
10
-7.1528962640
20
23.1255853554
30
0.0000000000
10
-7.1386188641
20
23.1126971165
30
0.0000000000
10
-7.1283455423
20
23.1064534832
30
0.0000000000
10
-7.1237447209
20
23.1041513165
30
0.0000000000
11
-7.1887103486
21
23.2393652570
31
0.0000000000
11
-7.1871976077
21
23.2118582333
31
0.0000000000
11
-7.1826852746
21
23.1863347238
31
0.0000000000
11
-7.1752503634
21
23.1632310336
31
0.0000000000
11
-7.1650203508
21
23.1429434809
31
0.0000000000
11
-7.1521701314
21
23.1258188442
31
0.0000000000
11
-7.1369203011
21
23.1121508205
31
0.0000000000
11
-7.1237447209
21
23.1041513165
31
0.0000000000
0
SPLINE
5
3CB
100
AcDbEntity
8
0
100
AcDbSpline
62
9
6
CONTINUOUS
70
0
71
3
72
9
73
5
74
3
42
0.0000001000
43
0.0000001000
44
0.0000000001
12
0.0256002334
22
0.0999342275
32
0.0000000000
13
-0.0153939261
23
0.1024093794
33
0.0000000000
40
0.0000000000
40
0.0000000000
40
0.0000000000
40
0.0000000000
40
0.7480724580
40
1.0000000000
40
1.0000000000
40
1.0000000000
40
1.0000000000
10
13.3319344988
20
-13.7006476202
30
0.0000000000
10
13.3383181086
20
-13.6757282724
30
0.0000000000
10
13.3415597549
20
-13.6408855133
30
0.0000000000
10
13.3381228744
20
-13.6064753616
30
0.0000000000
10
13.3368301564
20
-13.5978754472
30
0.0000000000
11
13.3319344988
21
-13.7006476202
31
0.0000000000
11
13.3394306948
21
-13.6238405480
31
0.0000000000
11
13.3368301564
21
-13.5978754472
31
0.0000000000
0
SPLINE
5
3CC
100
AcDbEntity
8
0
100
AcDbSpline
62
9
6
CONTINUOUS
70
0
71
3
72
8
73
4
74
2
42
0.0000001000
43
0.0000001000
44
0.0000000001
12
-0.0038559651
22
0.0256521299
32
0.0000000000
13
-0.0063968371
23
0.0251207897
33
0.0000000000
40
0.0000000000
40
0.0000000000
40
0.0000000000
40
0.0000000000
40
1.0000000000
40
1.0000000000
40
1.0000000000
40
1.0000000000
10
13.3368301564
20
-13.5978754472
30
0.0000000000
10
13.3355448347
20
-13.5893247372
30
0.0000000000
10
13.3338375106
20
-13.5808421910
30
0.0000000000
10
13.3317052316
20
-13.5724685945
30
0.0000000000
11
13.3368301564
21
-13.5978754472
31
0.0000000000
11
13.3317052316
21
-13.5724685945
31
0.0000000000
0
SPLINE
5
3CD
100
AcDbEntity
8
0
100
AcDbSpline
62
9
6
CONTINUOUS
70
0
71
3
72
9
73
5
74
3
42
0.0000001000
43
0.0000001000
44
0.0000000001
12
-0.0184908855
22
0.0726148937
32
0.0000000000
13
-0.0406200064
23
0.0631015179
33
0.0000000000
40
0.0000000000
40
0.0000000000
40
0.0000000000
40
0.0000000000
40
0.3411623691
40
1.0000000000
40
1.0000000000
40
1.0000000000
40
1.0000000000
10
13.3317052316
20
-13.5724685945
30
0.0000000000
10
13.3296024335
20
-13.5642107714
30
0.0000000000
10
13.3222274014
20
-13.5403163856
30
0.0000000000
10
13.3112772273
20
-13.5176684386
30
0.0000000000
10
13.3023565644
20
-13.5038105537
30
0.0000000000
11
13.3317052316
21
-13.5724685945
31
0.0000000000
11
13.3241541496
21
-13.5480521161
31
0.0000000000
11
13.3023565644
21
-13.5038105537
31
0.0000000000
0
SPLINE
5
3CE
100
AcDbEntity
8
0
100
AcDbSpline
62
9
6
CONTINUOUS
70
0
71
3
72
9
73
5
74
3
42
0.0000001000
43
0.0000001000
44
0.0000000001
12
-0.0368296898
22
0.0572134161
32
0.0000000000
13
-0.0557492642
23
0.0390903359
33
0.0000000000
40
0.0000000000
40
0.0000000000
40
0.0000000000
40
0.0000000000
40
0.3463286810
40
1.0000000000
40
1.0000000000
40
1.0000000000
40
1.0000000000
10
13.3023565644
20
-13.5038105537
30
0.0000000000
10
13.2981048384
20
-13.4972056714
30
0.0000000000
10
13.2847091024
20
-13.4788320560
30
0.0000000000
10
13.2679424385
20
-13.4629440410
30
0.0000000000
10
13.2557952068
20
-13.4544266305
30
0.0000000000
11
13.3023565644
21
-13.5038105537
31
0.0000000000
11
13.2884218622
21
-13.4847771832
31
0.0000000000
11
13.2557952068
21
-13.4544266305
31
0.0000000000
0
SPLINE
5
3CF
100
AcDbEntity
8
0
100
AcDbSpline
62
9
6
CONTINUOUS
70
0
71
3
72
8
73
4
74
2
42
0.0000001000
43
0.0000001000
44
0.0000000001
12
-0.0173607769
22
0.0121730503
32
0.0000000000
13
-0.0188955583
23
0.0093676952
33
0.0000000000
40
0.0000000000
40
0.0000000000
40
0.0000000000
40
0.0000000000
40
1.0000000000
40
1.0000000000
40
1.0000000000
40
1.0000000000
10
13.2557952068
20
-13.4544266305
30
0.0000000000
10
13.2500082812
20
-13.4503689470
30
0.0000000000
10
13.2439518809
20
-13.4467352463
30
0.0000000000
10
13.2376533615
20
-13.4436126812
30
0.0000000000
11
13.2557952068
21
-13.4544266305
31
0.0000000000
11
13.2376533615
21
-13.4436126812
31
0.0000000000
0
SPLINE
5
3D0
100
AcDbEntity
8
0
100
AcDbSpline
62
9
6
CONTINUOUS
70
0
71
3
72
14
73
10
74
8
42
0.0000001000
43
0.0000001000
44
0.0000000001
12
0.0000000000
22
-0.1577595609
32
0.0000000000
13
0.1413741542
23
-0.0707242065
33
0.0000000000
40
0.0000000000
40
0.0000000000
40
0.0000000000
40
0.0000000000
40
0.1746019291
40
0.3388789790
40
0.4927038383
40
0.6367102002
40
0.7724064306
40
0.9022039386
40
1.0000000000
40
1.0000000000
40
1.0000000000
40
1.0000000000
10
-8.8672484190
20
24.0786342922
30
0.0000000000
10
-8.8672484190
20
24.0694525843
30
0.0000000000
10
-8.8663258471
20
24.0516121077
30
0.0000000000
10
-8.8619083126
20
24.0260139235
30
0.0000000000
10
-8.8545530068
20
24.0027635372
30
0.0000000000
10
-8.8443532885
20
23.9822582071
30
0.0000000000
10
-8.8314439629
20
23.9648653170
30
0.0000000000
10
-8.8171633463
20
23.9519701358
30
0.0000000000
10
-8.8068834687
20
23.9457218896
30
0.0000000000
10
-8.8022748568
20
23.9434163733
30
0.0000000000
11
-8.8672484190
21
24.0786342922
31
0.0000000000
11
-8.8657360699
21
24.0511307172
31
0.0000000000
11
-8.8612248992
21
24.0256100851
31
0.0000000000
11
-8.8537920943
21
24.0025090610
31
0.0000000000
11
-8.8435648326
21
23.9822229099
31
0.0000000000
11
-8.8307181054
21
23.9650987334
31
0.0000000000
11
-8.8154717237
21
23.9514295309
31
0.0000000000
11
-8.8022748568
21
23.9434163733
31
0.0000000000
0
SPLINE
5
3D1
100
AcDbEntity
8
0
100
AcDbSpline
62
9
6
CONTINUOUS
70
0
71
3
72
9
73
5
74
3
42
0.0000001000
43
0.0000001000
44
0.0000000001
12
0.0569146923
22
-0.0281079648
32
0.0000000000
13
0.0644677058
23
0.0067702147
33
0.0000000000
40
0.0000000000
40
0.0000000000
40
0.0000000000
40
0.0000000000
40
0.8766807744
40
1.0000000000
40
1.0000000000
40
1.0000000000
40
1.0000000000
10
4.0035367877
20
17.2254655343
30
0.0000000000
10
4.0201687932
20
17.2172516302
30
0.0000000000
10
4.0411436356
20
17.2104033087
30
0.0000000000
10
4.0627059091
20
17.2116531278
30
0.0000000000
10
4.0653559450
20
17.2119314270
30
0.0000000000
11
4.0035367877
21
17.2254655343
31
0.0000000000
11
4.0573967568
21
17.2114680279
31
0.0000000000
11
4.0653559450
21
17.2119314270
31
0.0000000000
0
SPLINE
5
3D2
100
AcDbEntity
8
0
100
AcDbSpline
62
9
6
CONTINUOUS
70
0
71
3
72
10
73
6
74
4
42
0.0000001000
43
0.0000001000
44
0.0000000001
12
0.2479914693
22
0.1399133545
32
0.0000000000
13
-0.0000000001
23
0.2847376260
33
0.0000000000
40
0.0000000000
40
0.0000000000
40
0.0000000000
40
0.0000000000
40
0.3169366885
40
0.6680615800
40
1.0000000000
40
1.0000000000
40
1.0000000000
40
1.0000000000
10
4.0053825936
20
16.8878906807
30
0.0000000000
10
4.0315817920
20
16.9026719058
30
0.0000000000
10
4.0790579297
20
16.9475207459
30
0.0000000000
10
4.1254806696
20
17.0313921406
30
0.0000000000
10
4.1394025279
20
17.0963632379
30
0.0000000000
10
4.1394025279
20
17.1278683571
30
0.0000000000
11
4.0053825936
21
16.8878906807
31
0.0000000000
11
4.0729230727
21
16.9477423905
31
0.0000000000
11
4.1216710769
21
17.0350311421
31
0.0000000000
11
4.1394025279
21
17.1278683571
31
0.0000000000
0
SPLINE
5
3D3
100
AcDbEntity
8
0
100
AcDbSpline
62
9
6
CONTINUOUS
70
0
71
3
72
17
73
13
74
11
42
0.0000001000
43
0.0000001000
44
0.0000000001
12
-0.1071215747
22
-0.2788736077
32
0.0000000000
13
-0.2928427406
23
0.0611333747
33
0.0000000000
40
0.0000000000
40
0.0000000000
40
0.0000000000
40
0.0000000000
40
0.1174001578
40
0.2325962789
40
0.3448722947
40
0.4537009878
40
0.5587962401
40
0.6601587203
40
0.7581072288
40
0.8532839516
40
0.9466201971
40
1.0000000000
40
1.0000000000
40
1.0000000000
40
1.0000000000
10
-6.8361883889
20
23.2388525331
30
0.0000000000
10
-6.8403804189
20
23.2279392646
30
0.0000000000
10
-6.8499027272
20
23.2067604174
30
0.0000000000
10
-6.8675494227
20
23.1772095415
30
0.0000000000
10
-6.8881194957
20
23.1506721094
30
0.0000000000
10
-6.9112078065
20
23.1276884330
30
0.0000000000
10
-6.9363633831
20
23.1087257502
30
0.0000000000
10
-6.9630929267
20
23.0941796336
30
0.0000000000
10
-6.9908671437
20
23.0843656014
30
0.0000000000
10
-7.0191230570
20
23.0795106603
30
0.0000000000
10
-7.0433438645
20
23.0797103677
30
0.0000000000
10
-7.0578211236
20
23.0819442307
30
0.0000000000
10
-7.0630317528
20
23.0830319932
30
0.0000000000
11
-6.8361883889
21
23.2388525331
31
0.0000000000
11
-6.8505991253
21
23.2068777997
31
0.0000000000
11
-6.8682820352
21
23.1773546594
31
0.0000000000
11
-6.8888784754
21
23.1508818980
31
0.0000000000
11
-6.9119707105
21
23.1279964339
31
0.0000000000
11
-6.9370903857
21
23.1091624282
31
0.0000000000
11
-6.9637280258
21
23.0947618706
31
0.0000000000
11
-6.9913433686
21
23.0850868322
31
0.0000000000
11
-7.0193763217
21
23.0803335411
31
0.0000000000
11
-7.0472583233
21
23.0805984032
31
0.0000000000
11
-7.0630317528
21
23.0830319932
31
0.0000000000
0
SPLINE
5
3D4
100
AcDbEntity
8
0
100
AcDbSpline
62
9
6
CONTINUOUS
70
0
71
3
72
10
73
6
74
4
42
0.0000001000
43
0.0000001000
44
0.0000000001
12
0.2479914696
22
0.1399133546
32
0.0000000000
13
0.0000000000
23
0.2847376263
33
0.0000000000
40
0.0000000000
40
0.0000000000
40
0.0000000000
40
0.0000000000
40
0.3169360159
40
0.6680609736
40
1.0000000000
40
1.0000000000
40
1.0000000000
40
1.0000000000
10
5.6921483178
20
16.0445078186
30
0.0000000000
10
5.7183474606
20
16.0592890123
30
0.0000000000
10
5.7658235710
20
16.1041377855
30
0.0000000000
10
5.8122463566
20
16.1880091571
30
0.0000000000
10
5.8261682522
20
16.2529803182
30
0.0000000000
10
5.8261682522
20
16.2844854950
30
0.0000000000
11
5.6921483178
21
16.0445078186
31
0.0000000000
11
5.7596886764
21
16.1043593758
31
0.0000000000
11
5.8084367405
21
16.1916481157
31
0.0000000000
11
5.8261682522
21
16.2844854950
31
0.0000000000
0
SPLINE
5
3D5
100
AcDbEntity
8
0
100
AcDbSpline
62
9
6
CONTINUOUS
70
0
71
3
72
11
73
7
74
5
42
0.0000001000
43
0.0000001000
44
0.0000000001
12
-0.2612648764
22
0.1322549790
32
0.0000000000
13
-0.0128644534
23
0.2925495187
33
0.0000000000
40
0.0000000000
40
0.0000000000
40
0.0000000000
40
0.0000000000
40
0.2306959006
40
0.4907914877
40
0.7559042310
40
1.0000000000
40
1.0000000000
40
1.0000000000
40
1.0000000000
10
6.3266878452
20
16.0638900055
30
0.0000000000
10
6.3065969332
20
16.0740602327
30
0.0000000000
10
6.2680399054
20
16.1039778531
30
0.0000000000
10
6.2224595000
20
16.1627120051
30
0.0000000000
10
6.1901412869
20
16.2311213015
30
0.0000000000
10
6.1797369314
20
16.2804744944
30
0.0000000000
10
6.1786902118
20
16.3042778610
30
0.0000000000
11
6.3266878452
21
16.0638900055
31
0.0000000000
11
6.2723298432
21
16.1040012508
31
0.0000000000
11
6.2251178193
21
16.1637677648
31
0.0000000000
11
6.1922366262
21
16.2340941193
31
0.0000000000
11
6.1786902118
21
16.3042778610
31
0.0000000000
0
SPLINE
5
3D6
100
AcDbEntity
8
0
100
AcDbSpline
62
9
6
CONTINUOUS
70
0
71
3
72
12
73
8
74
6
42
0.0000001000
43
0.0000001000
44
0.0000000001
12
0.0388152697
22
-0.0631894887
32
0.0000000000
13
-0.0412266856
23
-0.0624729094
33
0.0000000000
40
0.0000000000
40
0.0000000000
40
0.0000000000
40
0.0000000000
40
0.2989687631
40
0.5493217573
40
0.7517111555
40
0.9129241476
40
1.0000000000
40
1.0000000000
40
1.0000000000
40
1.0000000000
10
-4.7066404264
20
24.2974557741
30
0.0000000000
10
-4.7027722420
20
24.2911585463
30
0.0000000000
10
-4.6961229848
20
24.2792904664
30
0.0000000000
10
-4.6889946118
20
24.2620609062
30
0.0000000000
10
-4.6856771200
20
24.2471510979
30
0.0000000000
10
-4.6862629208
20
24.2357838699
30
0.0000000000
10
-4.6889014252
20
24.2300653321
30
0.0000000000
10
-4.6900980415
20
24.2282520382
30
0.0000000000
11
-4.7066404264
21
24.2974557741
31
0.0000000000
11
-4.6959610907
21
24.2780260766
31
0.0000000000
11
-4.6891045208
21
24.2607726762
31
0.0000000000
11
-4.6862097811
21
24.2460455048
31
0.0000000000
11
-4.6873355823
21
24.2341432576
31
0.0000000000
11
-4.6900980415
21
24.2282520382
31
0.0000000000
0
SPLINE
5
3D7
100
AcDbEntity
8
0
100
AcDbSpline
62
9
6
CONTINUOUS
70
0
71
3
72
8
73
4
74
2
42
0.0000001000
43
0.0000001000
44
0.0000000001
12
-0.0011115853
22
-0.0016844421
32
0.0000000000
13
-0.0012664445
23
-0.0015626989
33
0.0000000000
40
0.0000000000
40
0.0000000000
40
0.0000000000
40
0.0000000000
40
1.0000000000
40
1.0000000000
40
1.0000000000
40
1.0000000000
10
-4.6900980415
20
24.2282520382
30
0.0000000000
10
-4.6904685699
20
24.2276905575
30
0.0000000000
10
-4.6908651092
20
24.2271475070
30
0.0000000000
10
-4.6912872573
20
24.2266266073
30
0.0000000000
11
-4.6900980415
21
24.2282520382
31
0.0000000000
11
-4.6912872573
21
24.2266266073
31
0.0000000000
0
SPLINE
5
3D8
100
AcDbEntity
8
0
100
AcDbSpline
62
9
6
CONTINUOUS
70
0
71
3
72
9
73
5
74
3
42
0.0000001000
43
0.0000001000
44
0.0000000001
12
0.0569146923
22
-0.0281079648
32
0.0000000000
13
0.0644677058
23
0.0067702147
33
0.0000000000
40
0.0000000000
40
0.0000000000
40
0.0000000000
40
0.0000000000
40
0.8766807744
40
1.0000000000
40
1.0000000000
40
1.0000000000
40
1.0000000000
10
-8.3001212049
20
23.3772945306
30
0.0000000000
10
-8.2834891994
20
23.3690806265
30
0.0000000000
10
-8.2625143571
20
23.3622323050
30
0.0000000000
10
-8.2409520835
20
23.3634821241
30
0.0000000000
10
-8.2383020477
20
23.3637604234
30
0.0000000000
11
-8.3001212049
21
23.3772945306
31
0.0000000000
11
-8.2462612358
21
23.3632970242
31
0.0000000000
11
-8.2383020477
21
23.3637604234
31
0.0000000000
0
SPLINE
5
3D9
100
AcDbEntity
8
0
100
AcDbSpline
62
9
6
CONTINUOUS
70
0
71
3
72
10
73
6
74
4
42
0.0000001000
43
0.0000001000
44
0.0000000001
12
0.2479914693
22
0.1399133545
32
0.0000000000
13
-0.0000000001
23
0.2847376260
33
0.0000000000
40
0.0000000000
40
0.0000000000
40
0.0000000000
40
0.0000000000
40
0.3169366885
40
0.6680615800
40
1.0000000000
40
1.0000000000
40
1.0000000000
40
1.0000000000
10
-8.2982753990
20
23.0397196770
30
0.0000000000
10
-8.2720762007
20
23.0545009021
30
0.0000000000
10
-8.2246000630
20
23.0993497423
30
0.0000000000
10
-8.1781773230
20
23.1832211370
30
0.0000000000
10
-8.1642554647
20
23.2481922342
30
0.0000000000
10
-8.1642554647
20
23.2796973534
30
0.0000000000
11
-8.2982753990
21
23.0397196770
31
0.0000000000
11
-8.2307349199
21
23.0995713868
31
0.0000000000
11
-8.1819869158
21
23.1868601385
31
0.0000000000
11
-8.1642554647
21
23.2796973534
31
0.0000000000
0
SPLINE
5
3DA
100
AcDbEntity
8
0
100
AcDbSpline
62
9
6
CONTINUOUS
70
0
71
3
72
10
73
6
74
4
42
0.0000001000
43
0.0000001000
44
0.0000000001
12
0.2479914696
22
0.1399133546
32
0.0000000000
13
0.0000000000
23
0.2847376263
33
0.0000000000
40
0.0000000000
40
0.0000000000
40
0.0000000000
40
0.0000000000
40
0.3169360159
40
0.6680609736
40
1.0000000000
40
1.0000000000
40
1.0000000000
40
1.0000000000
10
-6.6115096748
20
22.1963368149
30
0.0000000000
10
-6.5853105320
20
22.2111180087
30
0.0000000000
10
-6.5378344217
20
22.2559667818
30
0.0000000000
10
-6.4914116361
20
22.3398381534
30
0.0000000000
10
-6.4774897405
20
22.4048093145
30
0.0000000000
10
-6.4774897405
20
22.4363144913
30
0.0000000000
11
-6.6115096748
21
22.1963368149
31
0.0000000000
11
-6.5439693162
21
22.2561883722
31
0.0000000000
11
-6.4952212522
21
22.3434771120
31
0.0000000000
11
-6.4774897405
21
22.4363144913
31
0.0000000000
0
SPLINE
5
3DB
100
AcDbEntity
8
0
100
AcDbSpline
62
9
6
CONTINUOUS
70
0
71
3
72
11
73
7
74
5
42
0.0000001000
43
0.0000001000
44
0.0000000001
12
-0.2612648764
22
0.1322549790
32
0.0000000000
13
-0.0128644534
23
0.2925495187
33
0.0000000000
40
0.0000000000
40
0.0000000000
40
0.0000000000
40
0.0000000000
40
0.2306959006
40
0.4907914877
40
0.7559042310
40
1.0000000000
40
1.0000000000
40
1.0000000000
40
1.0000000000
10
-5.9769701474
20
22.2157190019
30
0.0000000000
10
-5.9970610594
20
22.2258892290
30
0.0000000000
10
-6.0356180872
20
22.2558068494
30
0.0000000000
10
-6.0811984927
20
22.3145410015
30
0.0000000000
10
-6.1135167057
20
22.3829502979
30
0.0000000000
10
-6.1239210613
20
22.4323034907
30
0.0000000000
10
-6.1249677808
20
22.4561068573
30
0.0000000000
11
-5.9769701474
21
22.2157190019
31
0.0000000000
11
-6.0313281495
21
22.2558302471
31
0.0000000000
11
-6.0785401733
21
22.3155967611
31
0.0000000000
11
-6.1114213664
21
22.3859231156
31
0.0000000000
11
-6.1249677808
21
22.4561068573
31
0.0000000000
0
SPLINE
5
3DC
100
AcDbEntity
8
0
100
AcDbSpline
62
9
6
CONTINUOUS
70
0
71
3
72
11
73
7
74
5
42
0.0000001000
43
0.0000001000
44
0.0000000001
12
-0.0014086318
22
0.2933039524
32
0.0000000000
13
-0.2614084316
23
0.1330218953
33
0.0000000000
40
0.0000000000
40
0.0000000000
40
0.0000000000
40
0.0000000000
40
0.2468099768
40
0.5120978197
40
0.7707699118
40
1.0000000000
40
1.0000000000
40
1.0000000000
40
1.0000000000
10
-5.6159489448
20
-2.5086912374
30
0.0000000000
10
-5.6160648329
20
-2.4845611235
30
0.0000000000
10
-5.6245625094
20
-2.4344533763
30
0.0000000000
10
-5.6547222284
20
-2.3647201662
30
0.0000000000
10
-5.6988319885
20
-2.3049847207
30
0.0000000000
10
-5.7369793232
20
-2.2747396256
30
0.0000000000
10
-5.7569535491
20
-2.2645754187
30
0.0000000000
11
-5.6159489448
21
-2.5086912374
31
0.0000000000
11
-5.6269365363
21
-2.4371387723
31
0.0000000000
11
-5.6575915265
21
-2.3656209207
31
0.0000000000
11
-5.7032472740
21
-2.3050249336
31
0.0000000000
11
-5.7569535491
21
-2.2645754187
31
0.0000000000
0
SPLINE
5
3DD
100
AcDbEntity
8
0
100
AcDbSpline
62
7
6
CONTINUOUS
70
0
71
3
72
10
73
6
74
4
42
0.0000001000
43
0.0000001000
44
0.0000000001
12
-0.0859674278
22
0.0429837139
32
0.0000000000
13
0.0009482259
23
0.0955641895
33
0.0000000000
40
0.0000000000
40
0.0000000000
40
0.0000000000
40
0.0000000000
40
0.5613973864
40
0.9914173586
40
1.0000000000
40
1.0000000000
40
1.0000000000
40
1.0000000000
10
-5.6248678127
20
-4.2038152697
30
0.0000000000
10
-5.6409551091
20
-4.1957716215
30
0.0000000000
10
-5.6684596851
20
-4.1782513897
30
0.0000000000
10
-5.6834527218
20
-4.1465275929
30
0.0000000000
10
-5.6834414056
20
-4.1325560728
30
0.0000000000
10
-5.6834386928
20
-4.1322826751
30
0.0000000000
11
-5.6248678127
21
-4.2038152697
31
0.0000000000
11
-5.6680513933
21
-4.1714626683
31
0.0000000000
11
-5.6834393261
21
-4.1331028444
31
0.0000000000
11
-5.6834386928
21
-4.1322826751
31
0.0000000000
0
SPLINE
5
3DE
100
AcDbEntity
8
0
100
AcDbSpline
62
9
6
CONTINUOUS
70
0
71
3
72
14
73
10
74
8
42
0.0000001000
43
0.0000001000
44
0.0000000001
12
0.0000000000
22
-0.1577567877
32
0.0000000000
13
0.1413696471
23
-0.0707271728
33
0.0000000000
40
0.0000000000
40
0.0000000000
40
0.0000000000
40
0.0000000000
40
0.1744511310
40
0.3387585213
40
0.4926109093
40
0.6366463928
40
0.7723670359
40
0.9021877439
40
1.0000000000
40
1.0000000000
40
1.0000000000
40
1.0000000000
10
5.1149476441
20
17.0875362607
30
0.0000000000
10
5.1149476441
20
17.0783626440
30
0.0000000000
10
5.1158690648
20
17.0605288801
30
0.0000000000
10
5.1202829027
20
17.0349354803
30
0.0000000000
10
5.1276369457
20
17.0116803319
30
0.0000000000
10
5.1378362877
20
16.9911704650
30
0.0000000000
10
5.1507462584
20
16.9737734478
30
0.0000000000
10
5.1650282778
20
16.9608752283
30
0.0000000000
10
5.1753095077
20
16.9546255720
30
0.0000000000
10
5.1799187357
20
16.9523195772
30
0.0000000000
11
5.1149476441
21
17.0875362607
31
0.0000000000
11
5.1164572500
21
17.0600568452
31
0.0000000000
11
5.1209663983
21
17.0345314578
31
0.0000000000
11
5.1283979147
21
17.0114259053
31
0.0000000000
11
5.1386250063
21
16.9911349709
31
0.0000000000
11
5.1514723154
21
16.9740068869
31
0.0000000000
11
5.1667202447
21
16.9603344672
31
0.0000000000
11
5.1799187357
21
16.9523195772
31
0.0000000000
0
SPLINE
5
3DF
100
AcDbEntity
8
0
100
AcDbSpline
62
9
6
CONTINUOUS
70
0
71
3
72
14
73
10
74
8
42
0.0000001000
43
0.0000001000
44
0.0000000001
12
0.0000000000
22
-0.1490361386
32
0.0000000000
13
0.1267771939
23
-0.0788611239
33
0.0000000000
40
0.0000000000
40
0.0000000000
40
0.0000000000
40
0.0000000000
40
0.1848450240
40
0.3587579515
40
0.5216078861
40
0.6740599734
40
0.8177153436
40
0.9551221438
40
1.0000000000
40
1.0000000000
40
1.0000000000
40
1.0000000000
10
3.4364095737
20
17.9268052959
30
0.0000000000
10
3.4364095737
20
17.9176224330
30
0.0000000000
10
3.4373323730
20
17.8997797809
30
0.0000000000
10
3.4417510657
20
17.8741784922
30
0.0000000000
10
3.4491083588
20
17.8509256429
30
0.0000000000
10
3.4593109222
20
17.8304186386
30
0.0000000000
10
3.4722236582
20
17.8130253943
30
0.0000000000
10
3.4843293415
20
17.8020975685
30
0.0000000000
10
3.4918627672
20
17.7970341346
30
0.0000000000
10
3.4937592634
20
17.7958544285
30
0.0000000000
11
3.4364095737
21
17.9268052959
31
0.0000000000
11
3.4379223146
21
17.8992982722
31
0.0000000000
11
3.4424346476
21
17.8737747626
31
0.0000000000
11
3.4498695588
21
17.8506710725
31
0.0000000000
11
3.4600995714
21
17.8303835198
31
0.0000000000
11
3.4729497908
21
17.8132588831
31
0.0000000000
11
3.4881996211
21
17.7995908594
31
0.0000000000
11
3.4937592634
21
17.7958544285
31
0.0000000000
0
SPLINE
5
3E0
100
AcDbEntity
8
0
100
AcDbSpline
62
9
6
CONTINUOUS
70
0
71
3
72
8
73
4
74
2
42
0.0000001000
43
0.0000001000
44
0.0000000001
12
0.0074217264
22
-0.0046166480
32
0.0000000000
13
0.0078186642
23
-0.0039112417
33
0.0000000000
40
0.0000000000
40
0.0000000000
40
0.0000000000
40
0.0000000000
40
1.0000000000
40
1.0000000000
40
1.0000000000
40
1.0000000000
10
3.4937592634
20
17.7958544285
30
0.0000000000
10
3.4962331722
20
17.7943155458
30
0.0000000000
10
3.4987781964
20
17.7928904915
30
0.0000000000
10
3.5013844178
20
17.7915867443
30
0.0000000000
11
3.4937592634
21
17.7958544285
31
0.0000000000
11
3.5013844178
21
17.7915867443
31
0.0000000000
0
SPLINE
5
3E1
100
AcDbEntity
8
0
100
AcDbSpline
62
7
6
CONTINUOUS
70
0
71
3
72
21
73
17
74
15
42
0.0000001000
43
0.0000001000
44
0.0000000001
12
-0.2294421987
22
-0.2746997681
32
0.0000000000
13
-0.3506308322
23
0.0730922906
33
0.0000000000
40
0.0000000000
40
0.0000000000
40
0.0000000000
40
0.0000000000
40
0.0745833692
40
0.1507491057
40
0.2281482373
40
0.3064038866
40
0.3851180399
40
0.4638795582
40
0.5422714814
40
0.6198805498
40
0.6963092492
40
0.7711917554
40
0.8442154395
40
0.9151497249
40
0.9838856802
40
1.0000000000
40
1.0000000000
40
1.0000000000
40
1.0000000000
10
6.1786902118
20
16.9385200140
30
0.0000000000
10
6.1729860211
20
16.9316906692
30
0.0000000000
10
6.1609941324
20
16.9182666804
30
0.0000000000
10
6.1415735589
20
16.8991694533
30
0.0000000000
10
6.1206322232
20
16.8810733744
30
0.0000000000
10
6.0983211175
20
16.8641866213
30
0.0000000000
10
6.0748101566
20
16.8487150640
30
0.0000000000
10
6.0502897600
20
16.8348628638
30
0.0000000000
10
6.0249704946
20
16.8228305783
30
0.0000000000
10
5.9990835443
20
16.8128138645
30
0.0000000000
10
5.9728810108
20
16.8050017210
30
0.0000000000
10
5.9466362395
20
16.7995742858
30
0.0000000000
10
5.9206436136
20
16.7967005618
30
0.0000000000
10
5.8952185555
20
16.7965342649
30
0.0000000000
10
5.8766961648
20
16.7985586278
30
0.0000000000
10
5.8667463350
20
16.8004680554
30
0.0000000000
10
5.8648629425
20
16.8008606663
30
0.0000000000
11
6.1786902118
21
16.9385200140
31
0.0000000000
11
6.1609143273
21
16.9186047534
31
0.0000000000
11
6.1414816681
21
16.8994859317
31
0.0000000000
11
6.1205224645
21
16.8813714901
31
0.0000000000
11
6.0981876539
21
16.8644701182
31
0.0000000000
11
6.0746487631
21
16.8489897907
31
0.0000000000
11
6.0500976978
21
16.8351362491
31
0.0000000000
11
6.0247472099
21
16.8231117939
31
0.0000000000
11
5.9988314121
21
16.8131137251
31
0.0000000000
11
5.9726064437
21
16.8053324018
31
0.0000000000
11
5.9463511027
21
16.7999486894
31
0.0000000000
11
5.9203671492
21
16.7971305807
31
0.0000000000
11
5.8949788550
21
16.7970288494
31
0.0000000000
11
5.8705305750
21
16.7997718989
31
0.0000000000
11
5.8648629425
21
16.8008606663
31
0.0000000000
0
SPLINE
5
3E2
100
AcDbEntity
8
0
100
AcDbSpline
62
9
6
CONTINUOUS
70
0
71
3
72
17
73
13
74
11
42
0.0000001000
43
0.0000001000
44
0.0000000001
12
-0.1071215768
22
-0.2788736131
32
0.0000000000
13
-0.2928428155
23
0.0611334054
33
0.0000000000
40
0.0000000000
40
0.0000000000
40
0.0000000000
40
0.0000000000
40
0.1173242883
40
0.2325238537
40
0.3448036063
40
0.4536426182
40
0.5587477059
40
0.6601200320
40
0.7580776417
40
0.8532627790
40
0.9466069026
40
1.0000000000
40
1.0000000000
40
1.0000000000
40
1.0000000000
10
5.4674696037
20
17.0870235368
30
0.0000000000
10
5.4632802828
20
17.0761173208
30
0.0000000000
10
5.4537617362
20
17.0549448063
30
0.0000000000
10
5.4361208012
20
17.0253984615
30
0.0000000000
10
5.4155517402
20
16.9988580439
30
0.0000000000
10
5.3924635176
20
16.9758708843
30
0.0000000000
10
5.3673069191
20
16.9569045641
30
0.0000000000
10
5.3405758008
20
16.9423552951
30
0.0000000000
10
5.3127995532
20
16.9325387461
30
0.0000000000
10
5.2845413420
20
16.9276820505
30
0.0000000000
10
5.2603175438
20
16.9278809682
30
0.0000000000
10
5.2458381533
20
16.9301149660
30
0.0000000000
10
5.2406262250
20
16.9312030000
30
0.0000000000
11
5.4674696037
21
17.0870235368
31
0.0000000000
11
5.4530693698
21
17.0550689301
31
0.0000000000
11
5.4353881875
21
17.0255435550
31
0.0000000000
11
5.4147931408
21
16.9990682943
31
0.0000000000
11
5.3917004911
21
16.9761788686
31
0.0000000000
11
5.3665798289
21
16.9573412804
31
0.0000000000
11
5.3399405486
21
16.9429375706
31
0.0000000000
11
5.3123231914
21
16.9332600574
31
0.0000000000
11
5.2842879789
21
16.9285050512
31
0.0000000000
11
5.2564036146
21
16.9287690097
31
0.0000000000
11
5.2406262250
21
16.9312030000
31
0.0000000000
0
SPLINE
5
3E3
100
AcDbEntity
8
0
100
AcDbSpline
62
7
6
CONTINUOUS
70
0
71
3
72
11
73
7
74
5
42
0.0000001000
43
0.0000001000
44
0.0000000001
12
-0.1099877315
22
0.3809610020
32
0.0000000000
13
-0.0010984630
23
0.3966585981
33
0.0000000000
40
0.0000000000
40
0.0000000000
40
0.0000000000
40
0.0000000000
40
0.3190565707
40
0.6173826629
40
0.8958541515
40
1.0000000000
40
1.0000000000
40
1.0000000000
40
1.0000000000
10
-4.3036034803
20
-4.8783334653
30
0.0000000000
10
-4.3153009164
20
-4.8378174284
30
0.0000000000
10
-4.3350356333
20
-4.7585387439
30
0.0000000000
10
-4.3545624915
20
-4.6416295284
30
0.0000000000
10
-4.3620644643
20
-4.5518308248
30
0.0000000000
10
-4.3631221252
20
-4.5012430066
30
0.0000000000
10
-4.3631602587
20
-4.4874728912
30
0.0000000000
11
-4.3036034803
21
-4.8783334653
31
0.0000000000
11
-4.3340217007
21
-4.7555322225
31
0.0000000000
11
-4.3533319502
21
-4.6388265420
31
0.0000000000
11
-4.3623124017
21
-4.5287726570
31
0.0000000000
11
-4.3631602587
21
-4.4874728912
31
0.0000000000
0
SPLINE
5
3E4
100
AcDbEntity
8
0
100
AcDbSpline
62
7
6
CONTINUOUS
70
0
71
3
72
14
73
10
74
8
42
0.0000001000
43
0.0000001000
44
0.0000000001
12
-0.2497947667
22
-0.5872339473
32
0.0000000000
13
-0.2350394316
23
-0.5932938563
33
0.0000000000
40
0.0000000000
40
0.0000000000
40
0.0000000000
40
0.0000000000
40
0.1299178746
40
0.2654730713
40
0.4061259733
40
0.5509639754
40
0.6989272814
40
0.8489723672
40
1.0000000000
40
1.0000000000
40
1.0000000000
40
1.0000000000
10
-7.6475797943
20
-2.4931531129
30
0.0000000000
10
-7.6583973961
20
-2.5185838417
30
0.0000000000
10
-7.6819552597
20
-2.5699315274
30
0.0000000000
10
-7.7206127940
20
-2.6471969175
30
0.0000000000
10
-7.7621332201
20
-2.7265580528
30
0.0000000000
10
-7.8052472444
20
-2.8080596676
30
0.0000000000
10
-7.8485679173
20
-2.8917142981
30
0.0000000000
10
-7.8904813198
20
-2.9775575964
30
0.0000000000
10
-7.9161333836
20
-3.0362843499
30
0.0000000000
10
-7.9279658666
20
-3.0661522722
30
0.0000000000
11
-7.6475797943
21
-2.4931531129
31
0.0000000000
11
-7.6818648982
21
-2.5686396276
31
0.0000000000
11
-7.7203555155
21
-2.6461097141
31
0.0000000000
11
-7.7617796684
21
-2.7257375245
31
0.0000000000
11
-7.8048186746
21
-2.8075346365
31
0.0000000000
11
-7.8480349719
21
-2.8914878306
31
0.0000000000
11
-7.8897810202
21
-2.9776603438
31
0.0000000000
11
-7.9279658666
21
-3.0661522722
31
0.0000000000
0
SPLINE
5
3E5
100
AcDbEntity
8
0
100
AcDbSpline
62
7
6
CONTINUOUS
70
0
71
3
72
14
73
10
74
8
42
0.0000001000
43
0.0000001000
44
0.0000000001
12
0.1746959058
22
-0.6192386920
32
0.0000000000
13
0.3807069807
23
-0.5186881645
33
0.0000000000
40
0.0000000000
40
0.0000000000
40
0.0000000000
40
0.0000000000
40
0.1538160821
40
0.3042806131
40
0.4519021805
40
0.5957483019
40
0.7359509509
40
0.8721318342
40
1.0000000000
40
1.0000000000
40
1.0000000000
40
1.0000000000
10
-7.9279658666
20
0.5052655929
30
0.0000000000
10
-7.9190088534
20
0.4735159697
30
0.0000000000
10
-7.8994705792
20
0.4112072089
30
0.0000000000
10
-7.8654612390
20
0.3204053261
30
0.0000000000
10
-7.8276343217
20
0.2334539361
30
0.0000000000
10
-7.7864510123
20
0.1504953700
30
0.0000000000
10
-7.7423878634
20
0.0718317294
30
0.0000000000
10
-7.6962795581
20
-0.0016332249
30
0.0000000000
10
-7.6638065655
20
-0.0480586542
30
0.0000000000
10
-7.6475797977
20
-0.0701665556
30
0.0000000000
11
-7.9279658666
21
0.5052655929
31
0.0000000000
11
-7.8983964241
21
0.4108195872
31
0.0000000000
11
-7.8644622508
21
0.3201515393
31
0.0000000000
11
-7.8265776903
21
0.2330529707
31
0.0000000000
11
-7.7854149893
21
0.1501585452
31
0.0000000000
11
-7.7413115969
21
0.0714673023
31
0.0000000000
11
-7.6947047593
21
-0.0027288535
31
0.0000000000
11
-7.6475797977
21
-0.0701665556
31
0.0000000000
0
SPLINE
5
3E6
100
AcDbEntity
8
0
100
AcDbSpline
62
9
6
CONTINUOUS
70
0
71
3
72
12
73
8
74
6
42
0.0000001000
43
0.0000001000
44
0.0000000001
12
0.0398618365
22
-0.0648932518
32
0.0000000000
13
-0.0482365783
23
-0.0595203730
33
0.0000000000
40
0.0000000000
40
0.0000000000
40
0.0000000000
40
0.0000000000
40
0.2911193810
40
0.5348993931
40
0.7319750866
40
0.8889554546
40
1.0000000000
40
1.0000000000
40
1.0000000000
40
1.0000000000
10
7.5970175663
20
18.1456267777
30
0.0000000000
10
7.6008857507
20
18.1393295500
30
0.0000000000
10
7.6075350078
20
18.1274614700
30
0.0000000000
10
7.6146633808
20
18.1102319098
30
0.0000000000
10
7.6179808726
20
18.0953221015
30
0.0000000000
10
7.6173600251
20
18.0832748056
30
0.0000000000
10
7.6141562049
20
18.0770007486
30
0.0000000000
10
7.6123707353
20
18.0747976110
30
0.0000000000
11
7.5970175663
21
18.1456267777
31
0.0000000000
11
7.6076969019
21
18.1261970803
31
0.0000000000
11
7.6145534718
21
18.1089436799
31
0.0000000000
11
7.6174482116
21
18.0942165084
31
0.0000000000
11
7.6163224103
21
18.0823142613
31
0.0000000000
11
7.6123707353
21
18.0747976110
31
0.0000000000
0
SPLINE
5
3E7
100
AcDbEntity
8
0
100
AcDbSpline
62
9
6
CONTINUOUS
70
0
71
3
72
17
73
13
74
11
42
0.0000001000
43
0.0000001000
44
0.0000000001
12
0.0115498584
22
1.5534673700
32
0.0000000000
13
1.2358853350
23
0.9425183765
33
0.0000000000
40
0.0000000000
40
0.0000000000
40
0.0000000000
40
0.0000000000
40
0.0739442464
40
0.1645924304
40
0.2696227388
40
0.3857494291
40
0.5086418626
40
0.6333334716
40
0.7547437096
40
0.8680936070
40
0.9694303836
40
1.0000000000
40
1.0000000000
40
1.0000000000
40
1.0000000000
10
-5.6248679443
20
-4.2038152039
30
0.0000000000
10
-5.6245832624
20
-4.1655252125
30
0.0000000000
10
-5.6201812937
20
-4.0802924029
30
0.0000000000
10
-5.6008684234
20
-3.9418287651
30
0.0000000000
10
-5.5639411998
20
-3.7843985506
30
0.0000000000
10
-5.5070461456
20
-3.6152815141
30
0.0000000000
10
-5.4301188820
20
-3.4430431450
30
0.0000000000
10
-5.3354971731
20
-3.2766811561
30
0.0000000000
10
-5.2276817174
20
-3.1245562323
30
0.0000000000
10
-5.1128293204
20
-2.9933668780
30
0.0000000000
10
-5.0193642184
20
-2.9070116243
30
0.0000000000
10
-4.9657959345
20
-2.8645552935
30
0.0000000000
10
-4.9532024210
20
-2.8549511517
30
0.0000000000
11
-5.6248679443
21
-4.2038152039
31
0.0000000000
11
-5.6191369718
21
-4.0890851020
31
0.0000000000
11
-5.5999332892
21
-3.9495777389
31
0.0000000000
11
-5.5629140502
21
-3.7906670387
31
0.0000000000
11
-5.5055618992
21
-3.6196221976
31
0.0000000000
11
-5.4277590298
21
-3.4452802301
31
0.0000000000
11
-5.3319067147
21
-3.2769478760
31
0.0000000000
11
-5.2226407323
21
-3.1232096157
31
0.0000000000
11
-5.1063681490
21
-2.9909656866
31
0.0000000000
11
-4.9904478525
21
-2.8844482044
31
0.0000000000
11
-4.9532024210
21
-2.8549511517
31
0.0000000000
0
SPLINE
5
3E8
100
AcDbEntity
8
0
100
AcDbSpline
62
9
6
CONTINUOUS
70
0
71
3
72
9
73
5
74
3
42
0.0000001000
43
0.0000001000
44
0.0000000001
12
0.1004665985
22
0.0766184472
32
0.0000000000
13
0.1081253795
23
0.0653996382
33
0.0000000000
40
0.0000000000
40
0.0000000000
40
0.0000000000
40
0.0000000000
40
0.6897903090
40
1.0000000000
40
1.0000000000
40
1.0000000000
40
1.0000000000
10
-4.9532024210
20
-2.8549511517
30
0.0000000000
10
-4.9301021256
20
-2.8373342643
30
0.0000000000
10
-4.8957404357
20
-2.8129421026
30
0.0000000000
10
-4.8600912881
20
-2.7904857605
30
0.0000000000
10
-4.8489107746
20
-2.7837232267
30
0.0000000000
11
-4.9532024210
21
-2.8549511517
31
0.0000000000
11
-4.8820848181
21
-2.8046043944
31
0.0000000000
11
-4.8489107746
21
-2.7837232267
31
0.0000000000
0
SPLINE
5
3E9
100
AcDbEntity
8
0
100
AcDbSpline
62
9
6
CONTINUOUS
70
0
71
3
72
8
73
4
74
2
42
0.0000001000
43
0.0000001000
44
0.0000000001
12
0.0312492641
22
0.0189011181
32
0.0000000000
13
0.0318785327
23
0.0177984620
33
0.0000000000
40
0.0000000000
40
0.0000000000
40
0.0000000000
40
0.0000000000
40
1.0000000000
40
1.0000000000
40
1.0000000000
40
1.0000000000
10
-4.8489107746
20
-2.7837232267
30
0.0000000000
10
-4.8384943532
20
-2.7774228540
30
0.0000000000
10
-4.8279722088
20
-2.7712992392
30
0.0000000000
10
-4.8173460312
20
-2.7653664185
30
0.0000000000
11
-4.8489107746
21
-2.7837232267
31
0.0000000000
11
-4.8173460312
21
-2.7653664185
31
0.0000000000
0
SPLINE
5
3EA
100
AcDbEntity
8
0
100
AcDbSpline
62
9
6
CONTINUOUS
70
0
71
3
72
8
73
4
74
2
42
0.0000001000
43
0.0000001000
44
0.0000000001
12
0.0296307782
22
0.0165434929
32
0.0000000000
13
0.0301659850
23
0.0155206574
33
0.0000000000
40
0.0000000000
40
0.0000000000
40
0.0000000000
40
0.0000000000
40
1.0000000000
40
1.0000000000
40
1.0000000000
40
1.0000000000
10
-4.8173460312
20
-2.7653664185
30
0.0000000000
10
-4.8074691052
20
-2.7598519209
30
0.0000000000
10
-4.7975022995
20
-2.7545022601
30
0.0000000000
10
-4.7874469712
20
-2.7493287077
30
0.0000000000
11
-4.8173460312
21
-2.7653664185
31
0.0000000000
11
-4.7874469712
21
-2.7493287077
31
0.0000000000
0
SPLINE
5
3EB
100
AcDbEntity
8
0
100
AcDbSpline
62
7
6
CONTINUOUS
70
0
71
3
72
9
73
5
74
3
42
0.0000001000
43
0.0000001000
44
0.0000000001
12
-0.0754632582
22
0.0377316291
32
0.0000000000
13
-0.0754754638
23
0.0377072114
33
0.0000000000
40
0.0000000000
40
0.0000000000
40
0.0000000000
40
0.0000000000
40
0.9290272661
40
1.0000000000
40
1.0000000000
40
1.0000000000
40
1.0000000000
10
-5.6248678127
20
-4.2038152697
30
0.0000000000
10
-5.6482369542
20
-4.1921306989
30
0.0000000000
10
-5.6733954660
20
-4.1795616762
30
0.0000000000
10
-5.6985539778
20
-4.1669926536
30
0.0000000000
10
-5.7003395445
20
-4.1661005923
30
0.0000000000
11
-5.6248678127
21
-4.2038152697
31
0.0000000000
11
-5.6949828411
21
-4.1687767694
31
0.0000000000
11
-5.7003395445
21
-4.1661005923
31
0.0000000000
0
SPLINE
5
3EC
100
AcDbEntity
8
0
100
AcDbSpline
62
7
6
CONTINUOUS
70
0
71
3
72
8
73
4
74
2
42
0.0000001000
43
0.0000001000
44
0.0000000001
12
-0.0647620638
22
0.0323548436
32
0.0000000000
13
-0.0647515907
23
0.0323757954
33
0.0000000000
40
0.0000000000
40
0.0000000000
40
0.0000000000
40
0.0000000000
40
1.0000000000
40
1.0000000000
40
1.0000000000
40
1.0000000000
10
-5.7003395445
20
-4.1661005923
30
0.0000000000
10
-5.7219268991
20
-4.1553156444
30
0.0000000000
10
-5.7435140059
20
-4.1445302009
30
0.0000000000
10
-5.7650978695
20
-4.1337382691
30
0.0000000000
11
-5.7003395445
21
-4.1661005923
31
0.0000000000
11
-5.7650978695
21
-4.1337382691
31
0.0000000000
0
SPLINE
5
3ED
100
AcDbEntity
8
0
100
AcDbSpline
62
9
6
CONTINUOUS
70
0
71
3
72
10
73
6
74
4
42
0.0000001000
43
0.0000001000
44
0.0000000001
12
-1.4029226457
22
0.7014613229
32
0.0000000000
13
-1.3989525883
23
0.7092904792
33
0.0000000000
40
0.0000000000
40
0.0000000000
40
0.0000000000
40
0.0000000000
40
0.3472422699
40
0.6944905567
40
1.0000000000
40
1.0000000000
40
1.0000000000
40
1.0000000000
10
-4.3036034803
20
-4.8783334653
30
0.0000000000
10
-4.4659881616
20
-4.7971411247
30
0.0000000000
10
-4.7903900118
20
-4.6340247342
30
0.0000000000
10
-5.2596306153
20
-4.4033590260
30
0.0000000000
10
-5.5613508469
20
-4.2437578141
30
0.0000000000
10
-5.7038152557
20
-4.1715261676
30
0.0000000000
11
-4.3036034803
21
-4.8783334653
31
0.0000000000
11
-4.7907575242
21
-4.6347564434
31
0.0000000000
11
-5.2779200096
21
-4.3911752007
31
0.0000000000
11
-5.7038152557
21
-4.1715261676
31
0.0000000000
0
SPLINE
5
3EE
100
AcDbEntity
8
0
100
AcDbSpline
62
9
6
CONTINUOUS
70
0
71
3
72
8
73
4
74
2
42
0.0000001000
43
0.0000001000
44
0.0000000001
12
-0.0611883112
22
0.0310234149
32
0.0000000000
13
-0.0613619562
23
0.0306809781
33
0.0000000000
40
0.0000000000
40
0.0000000000
40
0.0000000000
40
0.0000000000
40
1.0000000000
40
1.0000000000
40
1.0000000000
40
1.0000000000
10
-5.7038152557
20
-4.1715261676
30
0.0000000000
10
-5.7242113594
20
-4.1611850293
30
0.0000000000
10
-5.7446330970
20
-4.1508944423
30
0.0000000000
10
-5.7650870824
20
-4.1406674496
30
0.0000000000
11
-5.7038152557
21
-4.1715261676
31
0.0000000000
11
-5.7650870824
21
-4.1406674496
31
0.0000000000
0
SPLINE
5
3EF
100
AcDbEntity
8
0
100
AcDbSpline
62
9
6
CONTINUOUS
70
0
71
3
72
18
73
14
74
12
42
0.0000001000
43
0.0000001000
44
0.0000000001
12
-1.5680096157
22
-0.7837835050
32
0.0000000000
13
-0.0132224383
23
-1.7529392188
33
0.0000000000
40
0.0000000000
40
0.0000000000
40
0.0000000000
40
0.0000000000
40
0.0622826101
40
0.1382850528
40
0.2269564361
40
0.3262334090
40
0.4330223381
40
0.5434843500
40
0.6531540902
40
0.7573563586
40
0.8519093801
40
0.9335658738
40
1.0000000000
40
1.0000000000
40
1.0000000000
40
1.0000000000
10
-5.7569535491
20
-2.2645754187
30
0.0000000000
10
-5.7895067929
20
-2.2808474461
30
0.0000000000
10
-5.8598181568
20
-2.3210045353
30
0.0000000000
10
-5.9676166592
20
-2.3986679405
30
0.0000000000
10
-6.0826419672
20
-2.5018642848
30
0.0000000000
10
-6.1982229547
20
-2.6299670836
30
0.0000000000
10
-6.3075528610
20
-2.7795500612
30
0.0000000000
10
-6.4043952766
20
-2.9445825191
30
0.0000000000
10
-6.4838418816
20
-3.1169845779
30
0.0000000000
10
-6.5430179334
20
-3.2875184965
30
0.0000000000
10
-6.5815835457
20
-3.4470329019
30
0.0000000000
10
-6.6017617223
20
-3.5875738985
30
0.0000000000
10
-6.6063510451
20
-3.6741089215
30
0.0000000000
10
-6.6066438522
20
-3.7129272499
30
0.0000000000
11
-5.7569535491
21
-2.2645754187
31
0.0000000000
11
-5.8519031635
21
-2.3184735058
31
0.0000000000
11
-5.9602244982
21
-2.3960435285
31
0.0000000000
11
-6.0761948514
21
-2.4995445458
31
0.0000000000
11
-6.1930413582
21
-2.6285167888
31
0.0000000000
11
-6.3037027453
21
-2.7795063008
31
0.0000000000
11
-6.4017879173
21
-2.9464651151
31
0.0000000000
11
-6.4821956754
21
-3.1210921469
31
0.0000000000
11
-6.5419010355
21
-3.2937245097
31
0.0000000000
11
-6.5805985630
21
-3.4548943001
31
0.0000000000
11
-6.6006786659
21
-3.5966218254
31
0.0000000000
11
-6.6066438522
21
-3.7129272499
31
0.0000000000
0
SPLINE
5
3F0
100
AcDbEntity
8
0
100
AcDbSpline
62
7
6
CONTINUOUS
70
0
71
3
72
11
73
7
74
5
42
0.0000001000
43
0.0000001000
44
0.0000000001
12
0.4318151621
22
1.0151394504
32
0.0000000000
13
0.9861872010
23
0.4943756088
33
0.0000000000
40
0.0000000000
40
0.0000000000
40
0.0000000000
40
0.0000000000
40
0.2661262314
40
0.5276079693
40
0.7778657268
40
1.0000000000
40
1.0000000000
40
1.0000000000
40
1.0000000000
10
-7.6475798423
20
-2.4931532054
30
0.0000000000
10
-7.6092740617
20
-2.4031014600
30
0.0000000000
10
-7.5196968527
20
-2.2300402340
30
0.0000000000
10
-7.3508528790
20
-1.9977533072
30
0.0000000000
10
-7.1577658567
20
-1.8073704563
30
0.0000000000
10
-7.0118946240
20
-1.7102217996
30
0.0000000000
10
-6.9388726316
20
-1.6736158774
30
0.0000000000
11
-7.6475798423
21
-2.4931532054
31
0.0000000000
11
-7.5125616118
21
-2.2324619616
31
0.0000000000
11
-7.3422644597
21
-1.9996389162
31
0.0000000000
11
-7.1443093881
21
-1.8072032395
31
0.0000000000
11
-6.9388726316
21
-1.6736158774
31
0.0000000000
0
SPLINE
5
3F1
100
AcDbEntity
8
0
100
AcDbSpline
62
9
6
CONTINUOUS
70
0
71
3
72
11
73
7
74
5
42
0.0000001000
43
0.0000001000
44
0.0000000001
12
-1.4561316608
22
0.7280658304
32
0.0000000000
13
-1.4561316608
23
0.7280658304
33
0.0000000000
40
0.0000000000
40
0.0000000000
40
0.0000000000
40
0.0000000000
40
0.2472409947
40
0.4981622001
40
0.7490830537
40
1.0000000000
40
1.0000000000
40
1.0000000000
40
1.0000000000
10
-6.4664512246
20
-3.7830235637
30
0.0000000000
10
-6.5864563714
20
-3.7230209903
30
0.0000000000
10
-6.8361739230
20
-3.6185952771
30
0.0000000000
10
-7.1965362170
20
-3.4300934301
30
0.0000000000
10
-7.5627923055
20
-3.2492458059
30
0.0000000000
10
-7.8061764967
20
-3.1270469571
30
0.0000000000
10
-7.9279658666
20
-3.0661522722
30
0.0000000000
11
-6.4664512246
21
-3.7830235637
31
0.0000000000
11
-6.8318496461
21
-3.6142103824
31
0.0000000000
11
-7.1972239575
21
-3.4315232267
31
0.0000000000
11
-7.5625977569
21
-3.2488363270
31
0.0000000000
11
-7.9279658666
21
-3.0661522722
31
0.0000000000
0
SPLINE
5
3F2
100
AcDbEntity
8
0
100
AcDbSpline
62
9
6
CONTINUOUS
70
0
71
3
72
10
73
6
74
4
42
0.0000001000
43
0.0000001000
44
0.0000000001
12
1.4642793177
22
-0.7321396588
32
0.0000000000
13
1.4642793177
23
-0.7321396588
33
0.0000000000
40
0.0000000000
40
0.0000000000
40
0.0000000000
40
0.0000000000
40
0.3326920090
40
0.6653898169
40
1.0000000000
40
1.0000000000
40
1.0000000000
40
1.0000000000
10
-7.9279658666
20
0.5052655929
30
0.0000000000
10
-7.7655811906
20
0.4240732549
30
0.0000000000
10
-7.4411798240
20
0.2609559093
30
0.0000000000
10
-6.9514148256
20
0.0202063538
30
0.0000000000
10
-6.6298121305
20
-0.1507444324
30
0.0000000000
10
-6.4664912070
20
-0.2324048942
30
0.0000000000
11
-7.9279658666
21
0.5052655929
31
0.0000000000
11
-7.4408118386
21
0.2616885789
31
0.0000000000
11
-6.9536493195
21
0.0181073193
31
0.0000000000
11
-6.4664912070
21
-0.2324048942
31
0.0000000000
0
SPLINE
5
3F3
100
AcDbEntity
8
0
100
AcDbSpline
62
9
6
CONTINUOUS
70
0
71
3
72
8
73
4
74
2
42
0.0000001000
43
0.0000001000
44
0.0000000001
12
0.0813568337
22
-0.0406784169
32
0.0000000000
13
0.0823356531
23
-0.0386431730
33
0.0000000000
40
0.0000000000
40
0.0000000000
40
0.0000000000
40
0.0000000000
40
1.0000000000
40
1.0000000000
40
1.0000000000
40
1.0000000000
10
-5.7650605722
20
-0.5900155338
30
0.0000000000
10
-5.7379416276
20
-0.6035750061
30
0.0000000000
10
-5.7106226944
20
-0.6167186449
30
0.0000000000
10
-5.6831774767
20
-0.6295997026
30
0.0000000000
11
-5.7650605722
21
-0.5900155338
31
0.0000000000
11
-5.6831774767
21
-0.6295997026
31
0.0000000000
0
SPLINE
5
3F4
100
AcDbEntity
8
0
100
AcDbSpline
62
9
6
CONTINUOUS
70
0
71
3
72
8
73
4
74
2
42
0.0000001000
43
0.0000001000
44
0.0000000001
12
0.0385303811
22
-0.0180837356
32
0.0000000000
13
0.0386736537
23
-0.0177858311
33
0.0000000000
40
0.0000000000
40
0.0000000000
40
0.0000000000
40
0.0000000000
40
1.0000000000
40
1.0000000000
40
1.0000000000
40
1.0000000000
10
-5.6831774767
20
-0.6295997026
30
0.0000000000
10
-5.6703340163
20
-0.6356276145
30
0.0000000000
10
-5.6574629005
20
-0.6415980228
30
0.0000000000
10
-5.6445716826
20
-0.6475266332
30
0.0000000000
11
-5.6831774767
21
-0.6295997026
31
0.0000000000
11
-5.6445716826
21
-0.6475266332
31
0.0000000000
0
SPLINE
5
3F5
100
AcDbEntity
8
0
100
AcDbSpline
62
9
6
CONTINUOUS
70
0
71
3
72
11
73
7
74
5
42
0.0000001000
43
0.0000001000
44
0.0000000001
12
1.3577783586
22
-0.6244358693
32
0.0000000000
13
1.3366665699
23
-0.6683332850
33
0.0000000000
40
0.0000000000
40
0.0000000000
40
0.0000000000
40
0.0000000000
40
0.1799628543
40
0.4533102522
40
0.7266572672
40
1.0000000000
40
1.0000000000
40
1.0000000000
40
1.0000000000
10
-5.6445716826
20
-0.6475266332
30
0.0000000000
10
-5.5631217930
20
-0.6849850536
30
0.0000000000
10
-5.3559354666
20
-0.7751364309
30
0.0000000000
10
-5.0350304693
20
-0.9429686796
30
0.0000000000
10
-4.6687777966
20
-1.1238237156
30
0.0000000000
10
-4.4253928446
20
-1.2460209182
30
0.0000000000
10
-4.3036034803
20
-1.3069156003
30
0.0000000000
11
-5.6445716826
21
-0.6475266332
31
0.0000000000
11
-5.3997197190
21
-0.7588574810
31
0.0000000000
11
-5.0343453903
21
-0.9415446453
31
0.0000000000
11
-4.6689715733
21
-1.1242315538
31
0.0000000000
11
-4.3036034803
21
-1.3069156003
31
0.0000000000
0
SPLINE
5
3F6
100
AcDbEntity
8
0
100
AcDbSpline
62
9
6
CONTINUOUS
70
0
71
3
72
11
73
7
74
5
42
0.0000001000
43
0.0000001000
44
0.0000000001
12
0.0501450437
22
0.1323657729
32
0.0000000000
13
-0.0127858339
23
0.1410495762
33
0.0000000000
40
0.0000000000
40
0.0000000000
40
0.0000000000
40
0.0000000000
40
0.2507046888
40
0.5022377312
40
0.7526361462
40
1.0000000000
40
1.0000000000
40
1.0000000000
40
1.0000000000
10
7.5970175663
20
-23.1539773616
30
0.0000000000
10
7.6012080988
20
-23.1429157883
30
0.0000000000
10
7.6083486463
20
-23.1202587611
30
0.0000000000
10
7.6152014040
20
-23.0853443575
30
0.0000000000
10
7.6181118665
20
-23.0500354742
30
0.0000000000
10
7.6173763988
20
-23.0265098157
30
0.0000000000
10
7.6163221478
20
-23.0148796268
30
0.0000000000
11
7.5970175663
21
-23.1539773616
31
0.0000000000
11
7.6076970676
21
-23.1201362779
31
0.0000000000
11
7.6145536561
21
-23.0851992895
31
0.0000000000
11
7.6174482662
21
-23.0498748358
31
0.0000000000
11
7.6163221478
21
-23.0148796268
31
0.0000000000
0
SPLINE
5
3F7
100
AcDbEntity
8
0
100
AcDbSpline
62
9
6
CONTINUOUS
70
0
71
3
72
9
73
5
74
3
42
0.0000001000
43
0.0000001000
44
0.0000000001
12
-0.0041191722
22
0.0454415022
32
0.0000000000
13
-0.0113717548
23
0.0441925292
33
0.0000000000
40
0.0000000000
40
0.0000000000
40
0.0000000000
40
0.0000000000
40
0.7530613320
40
1.0000000000
40
1.0000000000
40
1.0000000000
40
1.0000000000
10
7.6163221478
20
-23.0148796268
30
0.0000000000
10
7.6152881513
20
-23.0034728807
30
0.0000000000
10
7.6130352878
20
-22.9884035432
30
0.0000000000
10
7.6095535258
20
-22.9735930842
30
0.0000000000
10
7.6086174838
20
-22.9699554695
30
0.0000000000
11
7.6163221478
21
-23.0148796268
31
0.0000000000
11
7.6111981525
21
-22.9809234203
31
0.0000000000
11
7.6086174838
21
-22.9699554695
31
0.0000000000
0
SPLINE
5
3F8
100
AcDbEntity
8
0
100
AcDbSpline
62
9
6
CONTINUOUS
70
0
71
3
72
9
73
5
74
3
42
0.0000001000
43
0.0000001000
44
0.0000000001
12
-0.0109615648
22
0.0425984628
32
0.0000000000
13
-0.0181635487
23
0.0400636285
33
0.0000000000
40
0.0000000000
40
0.0000000000
40
0.0000000000
40
0.0000000000
40
0.5051728933
40
1.0000000000
40
1.0000000000
40
1.0000000000
40
1.0000000000
10
7.6086174838
20
-22.9699554695
30
0.0000000000
10
7.6067716553
20
-22.9627822732
30
0.0000000000
10
7.6025307835
20
-22.9487341211
30
0.0000000000
10
7.5970881268
20
-22.9351019489
30
0.0000000000
10
7.5940921881
20
-22.9284937591
30
0.0000000000
11
7.6086174838
21
-22.9699554695
31
0.0000000000
11
7.6021802133
21
-22.9486949398
31
0.0000000000
11
7.5940921881
21
-22.9284937591
31
0.0000000000
0
SPLINE
5
3F9
100
AcDbEntity
8
0
100
AcDbSpline
62
9
6
CONTINUOUS
70
0
71
3
72
12
73
8
74
6
42
0.0000001000
43
0.0000001000
44
0.0000000001
12
-0.0498894692
22
0.1100419967
32
0.0000000000
13
-0.1048051150
23
0.0602108041
33
0.0000000000
40
0.0000000000
40
0.0000000000
40
0.0000000000
40
0.0000000000
40
0.0886008355
40
0.3483288028
40
0.5991382361
40
0.8419125615
40
1.0000000000
40
1.0000000000
40
1.0000000000
40
1.0000000000
10
7.5940921881
20
-22.9284937591
30
0.0000000000
10
7.5926187719
20
-22.9252438215
30
0.0000000000
10
7.5865382254
20
-22.9125975229
30
0.0000000000
10
7.5741057303
20
-22.8918411447
30
0.0000000000
10
7.5547608838
20
-22.8683395393
30
0.0000000000
10
7.5350013760
20
-22.8509236771
30
0.0000000000
10
7.5214563803
20
-22.8420498406
30
0.0000000000
10
7.5159335895
20
-22.8388769833
30
0.0000000000
11
7.5940921881
21
-22.9284937591
31
0.0000000000
11
7.5894512373
21
-22.9188478559
31
0.0000000000
11
7.5732693695
21
-22.8919875030
31
0.0000000000
11
7.5539629967
21
-22.8686589029
31
0.0000000000
11
7.5319235950
21
-22.8493350113
31
0.0000000000
11
7.5159335895
21
-22.8388769833
31
0.0000000000
0
SPLINE
5
3FA
100
AcDbEntity
8
0
100
AcDbSpline
62
9
6
CONTINUOUS
70
0
71
3
72
8
73
4
74
2
42
0.0000001000
43
0.0000001000
44
0.0000000001
12
-0.0082009990
22
0.0047114947
32
0.0000000000
13
-0.0084543728
23
0.0042164286
33
0.0000000000
40
0.0000000000
40
0.0000000000
40
0.0000000000
40
0.0000000000
40
1.0000000000
40
1.0000000000
40
1.0000000000
40
1.0000000000
10
7.5159335895
20
-22.8388769833
30
0.0000000000
10
7.5131999232
20
-22.8373064851
30
0.0000000000
10
7.5104218952
20
-22.8358160318
30
0.0000000000
10
7.5076037709
20
-22.8344105556
30
0.0000000000
11
7.5159335895
21
-22.8388769833
31
0.0000000000
11
7.5076037709
21
-22.8344105556
31
0.0000000000
0
SPLINE
5
3FB
100
AcDbEntity
8
0
100
AcDbSpline
62
9
6
CONTINUOUS
70
0
71
3
72
18
73
14
74
12
42
0.0000001000
43
0.0000001000
44
0.0000000001
12
0.3245465297
22
-0.1622732649
32
0.0000000000
13
0.3252956663
23
0.1607662650
33
0.0000000000
40
0.0000000000
40
0.0000000000
40
0.0000000000
40
0.0000000000
40
0.0806602437
40
0.1671780028
40
0.2585287416
40
0.3534787968
40
0.4506549529
40
0.5486020717
40
0.6458367763
40
0.7409024534
40
0.8324161725
40
0.9191443834
40
1.0000000000
40
1.0000000000
40
1.0000000000
40
1.0000000000
10
5.1149476441
20
-24.2120678787
30
0.0000000000
10
5.1236736448
20
-24.2164308791
30
0.0000000000
10
5.1422992568
20
-24.2244154356
30
0.0000000000
10
5.1721286065
20
-24.2339240056
30
0.0000000000
10
5.2043429353
20
-24.2412415273
30
0.0000000000
10
5.2382988655
20
-24.2462198819
30
0.0000000000
10
5.2733219248
20
-24.2487597699
30
0.0000000000
10
5.3087124437
20
-24.2488097793
30
0.0000000000
10
5.3437636053
20
-24.2463689200
30
0.0000000000
10
5.3777745789
20
-24.2414867172
30
0.0000000000
10
5.4100699511
20
-24.2342607078
30
0.0000000000
10
5.4399987778
20
-24.2248392257
30
0.0000000000
10
5.4587022765
20
-24.2169135544
30
0.0000000000
10
5.4674696037
20
-24.2125806026
30
0.0000000000
11
5.1149476441
21
-24.2120678787
31
0.0000000000
11
5.1418011341
21
-24.2237083176
31
0.0000000000
11
5.1716845343
21
-24.2333272000
31
0.0000000000
11
5.2039942589
21
-24.2407301963
31
0.0000000000
11
5.2380770233
21
-24.2457675787
31
0.0000000000
11
5.2732440053
21
-24.2483375405
31
0.0000000000
11
5.3087844781
21
-24.2483881431
31
0.0000000000
11
5.3439799365
21
-24.2459183880
31
0.0000000000
11
5.3781193155
21
-24.2409781970
31
0.0000000000
11
5.4105107729
21
-24.2336679205
31
0.0000000000
11
5.4405018615
21
-24.2241350547
31
0.0000000000
11
5.4674696037
21
-24.2125806026
31
0.0000000000
0
SPLINE
5
3FC
100
AcDbEntity
8
0
100
AcDbSpline
62
9
6
CONTINUOUS
70
0
71
3
72
18
73
14
74
12
42
0.0000001000
43
0.0000001000
44
0.0000000001
12
0.3245465336
22
-0.1622732668
32
0.0000000000
13
0.3252956702
23
0.1607662669
33
0.0000000000
40
0.0000000000
40
0.0000000000
40
0.0000000000
40
0.0000000000
40
0.0805551721
40
0.1670661703
40
0.2584105715
40
0.3533608806
40
0.4505383769
40
0.5484896854
40
0.6457313776
40
0.7408057878
40
0.8323347676
40
0.9190782196
40
1.0000000000
40
1.0000000000
40
1.0000000000
40
1.0000000000
10
5.1149476441
20
-24.5520418128
30
0.0000000000
10
5.1236622780
20
-24.5563991298
30
0.0000000000
10
5.1422747310
20
-24.5643796947
30
0.0000000000
10
5.1720894093
20
-24.5738873005
30
0.0000000000
10
5.2043014733
20
-24.5812077696
30
0.0000000000
10
5.2382563806
20
-24.5861892145
30
0.0000000000
10
5.2732799217
20
-24.5887321888
30
0.0000000000
10
5.3086719547
20
-24.5887851269
30
0.0000000000
10
5.3437257191
20
-24.5863469188
30
0.0000000000
10
5.3777407935
20
-24.5814668983
30
0.0000000000
10
5.4100413797
20
-24.5742424010
30
0.0000000000
10
5.4399820845
20
-24.5648197087
30
0.0000000000
10
5.4586951021
20
-24.5568910342
30
0.0000000000
10
5.4674696037
20
-24.5525545367
30
0.0000000000
11
5.1149476441
21
-24.5520418128
31
0.0000000000
11
5.1417653881
21
-24.5636688552
31
0.0000000000
11
5.1716453517
21
-24.5732904078
31
0.0000000000
11
5.2039520713
21
-24.5806962234
31
0.0000000000
11
5.2380344519
21
-24.5857368342
31
0.0000000000
11
5.2732016947
21
-24.5883099047
31
0.0000000000
11
5.3087436839
21
-24.5883634707
31
0.0000000000
11
5.3439418719
21
-24.5858963886
31
0.0000000000
11
5.3780847844
21
-24.5809584880
31
0.0000000000
11
5.4104822234
21
-24.5736495617
31
0.0000000000
11
5.4404793183
21
-24.5641173346
31
0.0000000000
11
5.4674696037
21
-24.5525545367
31
0.0000000000
0
SPLINE
5
3FD
100
AcDbEntity
8
0
100
AcDbSpline
62
9
6
CONTINUOUS
70
0
71
3
72
18
73
14
74
12
42
0.0000001000
43
0.0000001000
44
0.0000000001
12
-0.1868959021
22
0.3018192785
32
0.0000000000
13
-0.3165685944
23
0.1606526692
33
0.0000000000
40
0.0000000000
40
0.0000000000
40
0.0000000000
40
0.0000000000
40
0.0724312684
40
0.1534121140
40
0.2416012311
40
0.3354422156
40
0.4332240419
40
0.5331331639
40
0.6333021542
40
0.7318570661
40
0.8269646634
40
0.9168805534
40
1.0000000000
40
1.0000000000
40
1.0000000000
40
1.0000000000
10
5.4674696037
20
-24.2125806026
30
0.0000000000
10
5.4629572346
20
-24.2052935515
30
0.0000000000
10
5.4527005018
20
-24.1902894944
30
0.0000000000
10
5.4350411760
20
-24.1677874894
30
0.0000000000
10
5.4145136621
20
-24.1443755694
30
0.0000000000
10
5.3915270570
20
-24.1205286811
30
0.0000000000
10
5.3665403429
20
-24.0967284722
30
0.0000000000
10
5.3400562944
20
-24.0734567189
30
0.0000000000
10
5.3126090172
20
-24.0511837704
30
0.0000000000
10
5.2847531532
20
-24.0303591537
30
0.0000000000
10
5.2570513328
20
-24.0114013173
30
0.0000000000
10
5.2300647773
20
-23.9946906446
30
0.0000000000
10
5.2121069938
20
-23.9848248252
30
0.0000000000
10
5.2033359917
20
-23.9803737049
30
0.0000000000
11
5.4674696037
21
-24.2125806026
31
0.0000000000
11
5.4530588673
21
-24.1912852048
31
0.0000000000
11
5.4353759574
21
-24.1686186343
31
0.0000000000
11
5.4147795173
21
-24.1450406127
31
0.0000000000
11
5.3916872822
21
-24.1210293473
31
0.0000000000
11
5.3665676070
21
-24.0970718328
31
0.0000000000
11
5.3399299668
21
-24.0736539734
31
0.0000000000
11
5.3123146241
21
-24.0512507283
31
0.0000000000
11
5.2842816709
21
-24.0303164781
31
0.0000000000
11
5.2563996693
21
-24.0112758096
31
0.0000000000
11
5.2292341198
21
-23.9945149041
31
0.0000000000
11
5.2033359917
21
-23.9803737049
31
0.0000000000
0
SPLINE
5
3FE
100
AcDbEntity
8
0
100
AcDbSpline
62
7
6
CONTINUOUS
70
0
71
3
72
22
73
18
74
16
42
0.0000001000
43
0.0000001000
44
0.0000000001
12
-0.3676327130
22
0.0767686124
32
0.0000000000
13
-0.3359133597
23
0.1679566799
33
0.0000000000
40
0.0000000000
40
0.0000000000
40
0.0000000000
40
0.0000000000
40
0.0484860306
40
0.1017719328
40
0.1595328658
40
0.2213818258
40
0.2868708470
40
0.3554921096
40
0.4266769445
40
0.4997945492
40
0.5741501667
40
0.6489832730
40
0.7234666436
40
0.7967075626
40
0.8677548451
40
0.9356080525
40
1.0000000000
40
1.0000000000
40
1.0000000000
40
1.0000000000
10
6.1786902118
20
-23.3610841254
30
0.0000000000
10
6.1727485282
20
-23.3598433903
30
0.0000000000
10
6.1603129472
20
-23.3570653606
30
0.0000000000
10
6.1409222884
20
-23.3522783522
30
0.0000000000
10
6.1200119199
20
-23.3466846220
30
0.0000000000
10
6.0977327211
20
-23.3403104409
30
0.0000000000
10
6.0742559306
20
-23.3331908318
30
0.0000000000
10
6.0497734907
20
-23.3253699955
30
0.0000000000
10
6.0244981844
20
-23.3169015630
30
0.0000000000
10
5.9986641856
20
-23.3078491218
30
0.0000000000
10
5.9725276705
20
-23.2982867414
30
0.0000000000
10
5.9463671979
20
-23.2882999319
30
0.0000000000
10
5.9204843245
20
-23.2779853331
30
0.0000000000
10
5.8952008754
20
-23.2674548431
30
0.0000000000
10
5.8708634113
20
-23.2568224009
30
0.0000000000
10
5.8477290716
20
-23.2462108645
30
0.0000000000
10
5.8328640623
20
-23.2389193066
30
0.0000000000
10
5.8256540238
20
-23.2353142874
30
0.0000000000
11
6.1786902118
21
-23.3610841254
31
0.0000000000
11
6.1609143273
21
-23.3571337857
31
0.0000000000
11
6.1414816681
21
-23.3523526263
31
0.0000000000
11
6.1205224645
21
-23.3467587687
31
0.0000000000
11
6.0981876539
21
-23.3403788515
31
0.0000000000
11
6.0746487631
21
-23.3332482368
31
0.0000000000
11
6.0500976978
21
-23.3254111870
31
0.0000000000
11
6.0247472099
21
-23.3169212706
31
0.0000000000
11
5.9988314121
21
-23.3078418489
31
0.0000000000
11
5.9726064437
21
-23.2982466928
31
0.0000000000
11
5.9463511027
21
-23.2882206921
31
0.0000000000
11
5.9203671492
21
-23.2778605708
31
0.0000000000
11
5.8949788550
21
-23.2672754579
31
0.0000000000
11
5.8705305750
21
-23.2565867710
31
0.0000000000
11
5.8473836961
21
-23.2459278970
31
0.0000000000
11
5.8256540238
21
-23.2353142874
31
0.0000000000
0
SPLINE
5
3FF
100
AcDbEntity
8
0
100
AcDbSpline
62
9
6
CONTINUOUS
70
0
71
3
72
15
73
11
74
9
42
0.0000001000
43
0.0000001000
44
0.0000000001
12
0.0000000000
22
0.2525633806
32
0.0000000000
13
0.1611233069
23
0.1944930364
33
0.0000000000
40
0.0000000000
40
0.0000000000
40
0.0000000000
40
0.0000000000
40
0.1150569247
40
0.2353154471
40
0.3597619254
40
0.4872014800
40
0.6163302140
40
0.7457729725
40
0.8741534281
40
1.0000000000
40
1.0000000000
40
1.0000000000
40
1.0000000000
10
5.1149476441
20
-24.2120678787
30
0.0000000000
10
5.1149476441
20
-24.2023814901
30
0.0000000000
10
5.1160298814
20
-24.1825596506
30
0.0000000000
10
5.1205905121
20
-24.1525767459
30
0.0000000000
10
5.1280491038
20
-24.1221065210
30
0.0000000000
10
5.1382789956
20
-24.0916665784
30
0.0000000000
10
5.1511066581
20
-24.0617700867
30
0.0000000000
10
5.1663156394
20
-24.0329218727
30
0.0000000000
10
5.1836407857
20
-24.0056214122
30
0.0000000000
10
5.1965770531
20
-23.9885324655
30
0.0000000000
10
5.2033359917
20
-23.9803737049
30
0.0000000000
11
5.1149476441
21
-24.2120678787
31
0.0000000000
11
5.1164603850
21
-24.1830481141
31
0.0000000000
11
5.1209727180
21
-24.1530122715
31
0.0000000000
11
5.1284076292
21
-24.1224736701
31
0.0000000000
11
5.1386376418
21
-24.0919561048
31
0.0000000000
11
5.1514878612
21
-24.0619812487
31
0.0000000000
11
5.1667376915
21
-24.0330633948
31
0.0000000000
11
5.1841265729
21
-24.0056963403
31
0.0000000000
11
5.2033359917
21
-23.9803737049
31
0.0000000000
0
SPLINE
5
400
100
AcDbEntity
8
0
100
AcDbSpline
62
7
6
CONTINUOUS
70
0
71
3
72
11
73
7
74
5
42
0.0000001000
43
0.0000001000
44
0.0000000001
12
0.2589031221
22
-0.1294515611
32
0.0000000000
13
0.2587016067
23
0.1298538100
33
0.0000000000
40
0.0000000000
40
0.0000000000
40
0.0000000000
40
0.0000000000
40
0.2347834871
40
0.4988149044
40
0.7634765094
40
1.0000000000
40
1.0000000000
40
1.0000000000
40
1.0000000000
10
-6.6066441822
20
-3.7129270848
30
0.0000000000
10
-6.5863821229
20
-3.7230581145
30
0.0000000000
10
-6.5397884057
20
-3.7374728287
30
0.0000000000
10
-6.4660267219
20
-3.7441812190
30
0.0000000000
10
-6.3921415843
20
-3.7369719754
30
0.0000000000
10
-6.3454149554
20
-3.7222700921
30
0.0000000000
10
-6.3250186197
20
-3.7120322667
30
0.0000000000
11
-6.6066441822
21
-3.7129270848
31
0.0000000000
11
-6.5421663432
21
-3.7344051563
31
0.0000000000
11
-6.4660953005
21
-3.7417748290
31
0.0000000000
11
-6.3898890430
21
-3.7339238268
31
0.0000000000
11
-6.3250186197
21
-3.7120322667
31
0.0000000000
0
SPLINE
5
401
100
AcDbEntity
8
0
100
AcDbSpline
62
9
6
CONTINUOUS
70
0
71
3
72
18
73
14
74
12
42
0.0000001000
43
0.0000001000
44
0.0000000001
12
-1.3049034039
22
-0.6503919215
32
0.0000000000
13
-0.0152613623
23
-1.4579264851
33
0.0000000000
40
0.0000000000
40
0.0000000000
40
0.0000000000
40
0.0000000000
40
0.0622265023
40
0.1380968088
40
0.2265713408
40
0.3255951294
40
0.4321122521
40
0.5423253429
40
0.6518460761
40
0.7560674276
40
0.8508194468
40
0.9328643971
40
1.0000000000
40
1.0000000000
40
1.0000000000
40
1.0000000000
10
-5.6159489448
20
-2.5086912374
30
0.0000000000
10
-5.6430154697
20
-2.5221817756
30
0.0000000000
10
-5.7014606038
20
-2.5554551904
30
0.0000000000
10
-5.7910775148
20
-2.6197847263
30
0.0000000000
10
-5.8867100332
20
-2.7052300979
30
0.0000000000
10
-5.9828512564
20
-2.8112922797
30
0.0000000000
10
-6.0738775155
20
-2.9351670750
30
0.0000000000
10
-6.1546377962
20
-3.0719228622
30
0.0000000000
10
-6.2210684392
20
-3.2149472268
30
0.0000000000
10
-6.2707428044
20
-3.3566582765
30
0.0000000000
10
-6.3033532260
20
-3.4895079337
30
0.0000000000
10
-6.3205562817
20
-3.6069662887
30
0.0000000000
10
-6.3247660700
20
-3.6794506704
30
0.0000000000
10
-6.3251075969
20
-3.7120769282
30
0.0000000000
11
-5.6159489448
21
-2.5086912374
31
0.0000000000
11
-5.6949100665
21
-2.5533730430
31
0.0000000000
11
-5.7849564868
21
-2.6176248253
31
0.0000000000
11
-5.8813715547
21
-2.7033232133
31
0.0000000000
11
-5.9785541747
21
-2.8100956208
31
0.0000000000
11
-6.0706791856
21
-2.9351231902
31
0.0000000000
11
-6.1524609274
21
-3.0734469722
31
0.0000000000
11
-6.2196837464
21
-3.2182896798
31
0.0000000000
11
-6.2698121786
21
-3.3617385621
31
0.0000000000
11
-6.3025162492
21
-3.4959607766
31
0.0000000000
11
-6.3196988728
21
-3.6143423397
31
0.0000000000
11
-6.3251075969
21
-3.7120769282
31
0.0000000000
0
SPLINE
5
402
100
AcDbEntity
8
0
100
AcDbSpline
62
9
6
CONTINUOUS
70
0
71
3
72
8
73
4
74
2
42
0.0000001000
43
0.0000001000
44
0.0000000001
12
-0.0148289417
22
-0.0056380743
32
0.0000000000
13
-0.0149544385
23
-0.0053012217
33
0.0000000000
40
0.0000000000
40
0.0000000000
40
0.0000000000
40
0.0000000000
40
1.0000000000
40
1.0000000000
40
1.0000000000
40
1.0000000000
10
-5.6768004145
20
-0.7041765117
30
0.0000000000
10
-5.6817433950
20
-0.7060558698
30
0.0000000000
10
-5.6867075684
20
-0.7078801354
30
0.0000000000
10
-5.6916923812
20
-0.7096472093
30
0.0000000000
11
-5.6768004145
21
-0.7041765117
31
0.0000000000
11
-5.6916923812
21
-0.7096472093
31
0.0000000000
0
SPLINE
5
403
100
AcDbEntity
8
0
100
AcDbSpline
62
9
6
CONTINUOUS
70
0
71
3
72
8
73
4
74
2
42
0.0000001000
43
0.0000001000
44
0.0000000001
12
-0.0278771478
22
-0.0098822126
32
0.0000000000
13
-0.0282887463
23
-0.0086402724
33
0.0000000000
40
0.0000000000
40
0.0000000000
40
0.0000000000
40
0.0000000000
40
1.0000000000
40
1.0000000000
40
1.0000000000
40
1.0000000000
10
-5.6916923812
20
-0.7096472093
30
0.0000000000
10
-5.7009847638
20
-0.7129412801
30
0.0000000000
10
-5.7103488688
20
-0.7160366091
30
0.0000000000
10
-5.7197784509
20
-0.7189167000
30
0.0000000000
11
-5.6916923812
21
-0.7096472093
31
0.0000000000
11
-5.7197784509
21
-0.7189167000
31
0.0000000000
0
SPLINE
5
404
100
AcDbEntity
8
0
100
AcDbSpline
62
9
6
CONTINUOUS
70
0
71
3
72
8
73
4
74
2
42
0.0000001000
43
0.0000001000
44
0.0000000001
12
-0.0589562829
22
-0.0180071022
32
0.0000000000
13
-0.0604930584
23
-0.0119498907
33
0.0000000000
40
0.0000000000
40
0.0000000000
40
0.0000000000
40
0.0000000000
40
1.0000000000
40
1.0000000000
40
1.0000000000
40
1.0000000000
10
-5.7197784509
20
-0.7189167000
30
0.0000000000
10
-5.7394305451
20
-0.7249190673
30
0.0000000000
10
-5.7593670348
20
-0.7299865627
30
0.0000000000
10
-5.7795313876
20
-0.7339698596
30
0.0000000000
11
-5.7197784509
21
-0.7189167000
31
0.0000000000
11
-5.7795313876
21
-0.7339698596
31
0.0000000000
0
SPLINE
5
405
100
AcDbEntity
8
0
100
AcDbSpline
62
9
6
CONTINUOUS
70
0
71
3
72
15
73
11
74
9
42
0.0000001000
43
0.0000001000
44
0.0000000001
12
-0.7523212208
22
-0.1486146774
32
0.0000000000
13
-0.1287116828
23
0.7555917502
33
0.0000000000
40
0.0000000000
40
0.0000000000
40
0.0000000000
40
0.0000000000
40
0.1249803114
40
0.2520359276
40
0.3802150765
40
0.5110176989
40
0.6464526437
40
0.7866127215
40
0.9283566668
40
1.0000000000
40
1.0000000000
40
1.0000000000
40
1.0000000000
10
-5.7795313876
20
-0.7339698596
30
0.0000000000
10
-5.8108731678
20
-0.7401611625
30
0.0000000000
10
-5.8751872896
20
-0.7473644536
30
0.0000000000
10
-5.9726657823
20
-0.7382290311
30
0.0000000000
10
-6.0667240440
20
-0.7052947883
30
0.0000000000
10
-6.1507804180
20
-0.6477407945
30
0.0000000000
10
-6.2195587118
20
-0.5687095563
30
0.0000000000
10
-6.2704626377
20
-0.4742740530
30
0.0000000000
10
-6.2983781480
20
-0.3880056258
30
0.0000000000
10
-6.3093255067
20
-0.3345707406
30
0.0000000000
10
-6.3123992847
20
-0.3165263701
30
0.0000000000
11
-5.7795313876
21
-0.7339698596
31
0.0000000000
11
-5.8747320164
21
-0.7440447653
31
0.0000000000
11
-5.9715728008
21
-0.7343797600
31
0.0000000000
11
-6.0641476815
21
-0.7016736020
31
0.0000000000
11
-6.1469735300
21
-0.6452970235
31
0.0000000000
11
-6.2156131592
21
-0.5675111260
31
0.0000000000
11
-6.2672719432
21
-0.4733970503
31
0.0000000000
11
-6.3013092833
21
-0.3702974878
31
0.0000000000
11
-6.3123992847
21
-0.3165263701
31
0.0000000000
0
SPLINE
5
406
100
AcDbEntity
8
0
100
AcDbSpline
62
7
6
CONTINUOUS
70
0
71
3
72
9
73
5
74
3
42
0.0000001000
43
0.0000001000
44
0.0000000001
12
0.1025675630
22
0.1420954366
32
0.0000000000
13
0.1585658524
23
0.0776162859
33
0.0000000000
40
0.0000000000
40
0.0000000000
40
0.0000000000
40
0.0000000000
40
0.9125894753
40
1.0000000000
40
1.0000000000
40
1.0000000000
40
1.0000000000
10
-6.6498629637
20
-4.5177322139
30
0.0000000000
10
-6.6186622709
20
-4.4745072806
30
0.0000000000
10
-6.5741015488
20
-4.4330784543
30
0.0000000000
10
-6.5218547857
20
-4.4059627280
30
0.0000000000
10
-6.5172346776
20
-4.4037012346
30
0.0000000000
11
-6.6498629637
21
-4.5177322139
31
0.0000000000
11
-6.5309298937
21
-4.4108124884
31
0.0000000000
11
-6.5172346776
21
-4.4037012346
31
0.0000000000
0
SPLINE
5
407
100
AcDbEntity
8
0
100
AcDbSpline
62
7
6
CONTINUOUS
70
0
71
3
72
8
73
4
74
2
42
0.0000001000
43
0.0000001000
44
0.0000000001
12
-0.9780546629
22
-0.4986400620
32
0.0000000000
13
-0.9779376668
23
-0.4988695075
33
0.0000000000
40
0.0000000000
40
0.0000000000
40
0.0000000000
40
0.0000000000
40
1.0000000000
40
1.0000000000
40
1.0000000000
40
1.0000000000
10
-5.6669504075
20
-4.8754337659
30
0.0000000000
10
-5.9929686285
20
-5.0416471199
30
0.0000000000
10
-6.3189718947
20
-5.2078898011
30
0.0000000000
10
-6.6449511170
20
-5.3741796370
30
0.0000000000
11
-5.6669504075
21
-4.8754337659
31
0.0000000000
11
-6.6449511170
21
-5.3741796370
31
0.0000000000
0
SPLINE
5
408
100
AcDbEntity
8
0
100
AcDbSpline
62
7
6
CONTINUOUS
70
0
71
3
72
15
73
11
74
9
42
0.0000001000
43
0.0000001000
44
0.0000000001
12
0.1708106307
22
0.3465374803
32
0.0000000000
13
-0.1211274767
23
0.3668686839
33
0.0000000000
40
0.0000000000
40
0.0000000000
40
0.0000000000
40
0.0000000000
40
0.1045967298
40
0.2153592470
40
0.3324738237
40
0.4558021131
40
0.5849344065
40
0.7192395231
40
0.8579095852
40
1.0000000000
40
1.0000000000
40
1.0000000000
40
1.0000000000
10
3.0382417418
20
19.1035963318
30
0.0000000000
10
3.0441971529
20
19.1156785609
30
0.0000000000
10
3.0546525018
20
19.1414747367
30
0.0000000000
10
3.0656224541
20
19.1829599364
30
0.0000000000
10
3.0722095991
20
19.2277952807
30
0.0000000000
10
3.0743423364
20
19.2754150341
30
0.0000000000
10
3.0720049640
20
19.3252326791
30
0.0000000000
10
3.0652304243
20
19.3766298058
30
0.0000000000
10
3.0541063531
20
19.4289631750
30
0.0000000000
10
3.0439787596
20
19.4637118791
30
0.0000000000
10
3.0382417418
20
19.4810880536
30
0.0000000000
11
3.0382417418
21
19.1035963318
31
0.0000000000
11
3.0535630298
21
19.1409899511
31
0.0000000000
11
3.0646462698
21
19.1823226098
31
0.0000000000
11
3.0713523372
21
19.2270698358
31
0.0000000000
11
3.0735970808
21
19.2746645232
31
0.0000000000
11
3.0713523372
21
19.3245039542
31
0.0000000000
11
3.0646462698
21
19.3759572476
31
0.0000000000
11
3.0535630298
21
19.4283731463
31
0.0000000000
11
3.0382417418
21
19.4810880536
31
0.0000000000
0
SPLINE
5
409
100
AcDbEntity
8
0
100
AcDbSpline
62
9
6
CONTINUOUS
70
0
71
3
72
12
73
8
74
6
42
0.0000001000
43
0.0000001000
44
0.0000000001
12
-0.3865184752
22
-0.2204915382
32
0.0000000000
13
0.3980863589
23
-0.1988474314
33
0.0000000000
40
0.0000000000
40
0.0000000000
40
0.0000000000
40
0.0000000000
40
0.2333647401
40
0.4214768809
40
0.5877661885
40
0.7716867493
40
1.0000000000
40
1.0000000000
40
1.0000000000
40
1.0000000000
10
4.0035367877
20
17.2254655343
30
0.0000000000
10
3.9734701932
20
17.2083138841
30
0.0000000000
10
3.9221418880
20
17.1711267939
30
0.0000000000
10
3.8723161734
20
17.0955035546
30
0.0000000000
10
3.8721208518
20
17.0106584820
30
0.0000000000
10
3.9229561790
20
16.9368551656
30
0.0000000000
10
3.9750864634
20
16.9030238485
30
0.0000000000
10
4.0053825936
20
16.8878906807
30
0.0000000000
11
4.0035367877
21
17.2254655343
31
0.0000000000
11
3.9214130942
21
17.1619099536
31
0.0000000000
11
3.8788942180
21
17.0898053760
31
0.0000000000
11
3.8790940718
21
17.0158091368
31
0.0000000000
11
3.9222217132
21
16.9462523329
31
0.0000000000
11
4.0053825936
21
16.8878906807
31
0.0000000000
0
SPLINE
5
40A
100
AcDbEntity
8
0
100
AcDbSpline
62
7
6
CONTINUOUS
70
0
71
3
72
11
73
7
74
5
42
0.0000001000
43
0.0000001000
44
0.0000000001
12
0.0006871391
22
0.2600999263
32
0.0000000000
13
0.0970469704
23
0.2410349844
33
0.0000000000
40
0.0000000000
40
0.0000000000
40
0.0000000000
40
0.0000000000
40
0.2257895148
40
0.4682639028
40
0.7248113750
40
1.0000000000
40
1.0000000000
40
1.0000000000
40
1.0000000000
10
-4.3631621213
20
-1.5583802681
30
0.0000000000
10
-4.3631104050
20
-1.5388043227
30
0.0000000000
10
-4.3599266290
20
-1.4982537936
30
0.0000000000
10
-4.3476624457
20
-1.4365703350
30
0.0000000000
10
-4.3286254464
20
-1.3722020991
30
0.0000000000
10
-4.3125055544
20
-1.3290256290
30
0.0000000000
10
-4.3036034803
20
-1.3069156003
30
0.0000000000
11
-4.3631621213
21
-1.5583802681
31
0.0000000000
11
-4.3589381313
21
-1.4998614082
31
0.0000000000
11
-4.3469970926
21
-1.4379991866
31
0.0000000000
11
-4.3283749835
21
-1.3739922374
31
0.0000000000
11
-4.3036034803
21
-1.3069156003
31
0.0000000000
0
SPLINE
5
40B
100
AcDbEntity
8
0
100
AcDbSpline
62
7
6
CONTINUOUS
70
0
71
3
72
21
73
17
74
15
42
0.0000001000
43
0.0000001000
44
0.0000000001
12
0.3505791315
22
-0.0732522915
32
0.0000000000
13
0.2294504071
23
0.2747095956
33
0.0000000000
40
0.0000000000
40
0.0000000000
40
0.0000000000
40
0.0000000000
40
0.0164580666
40
0.0852500179
40
0.1561791722
40
0.2291427435
40
0.3039209954
40
0.3802154819
40
0.4576770501
40
0.5359263103
40
0.6145684867
40
0.6932044110
40
0.7714391372
40
0.8488892033
40
0.9251895078
40
1.0000000000
40
1.0000000000
40
1.0000000000
40
1.0000000000
10
-6.4388066046
20
22.9526942924
30
0.0000000000
10
-6.4368833197
20
22.9522924287
30
0.0000000000
10
-6.4268874553
20
22.9503726594
30
0.0000000000
10
-6.4083145612
20
22.9483580332
30
0.0000000000
10
-6.3828905048
20
22.9485372301
30
0.0000000000
10
-6.3569183174
20
22.9514208870
30
0.0000000000
10
-6.3307093538
20
22.9568490978
30
0.0000000000
10
-6.3045513100
20
22.9646521955
30
0.0000000000
10
-6.2787107858
20
22.9746509003
30
0.0000000000
10
-6.2534332694
20
22.9866592593
30
0.0000000000
10
-6.2289441406
20
23.0004861379
30
0.0000000000
10
-6.2054493713
20
23.0159366092
30
0.0000000000
10
-6.1831362697
20
23.0328128289
30
0.0000000000
10
-6.1621733531
20
23.0509155393
30
0.0000000000
10
-6.1427120753
20
23.0700431024
30
0.0000000000
10
-6.1306895468
20
23.0834986236
30
0.0000000000
10
-6.1249677808
20
23.0903490103
30
0.0000000000
11
-6.4388066046
21
22.9526942924
31
0.0000000000
11
-6.4330184910
21
22.9515817464
31
0.0000000000
11
-6.4085477765
21
22.9488510414
31
0.0000000000
11
-6.3831604721
21
22.9489671240
31
0.0000000000
11
-6.3571982649
21
22.9517948391
31
0.0000000000
11
-6.3309802024
21
22.9571793511
31
0.0000000000
11
-6.3048015342
21
22.9649512781
31
0.0000000000
11
-6.2789340899
21
22.9749307656
31
0.0000000000
11
-6.2536272733
21
22.9869304821
31
0.0000000000
11
-6.2291092625
21
23.0007577323
31
0.0000000000
11
-6.2055881273
21
23.0162159315
31
0.0000000000
11
-6.1832526750
21
23.0331057026
31
0.0000000000
11
-6.1622729642
21
23.0512258102
31
0.0000000000
11
-6.1428004304
21
23.0703741701
31
0.0000000000
11
-6.1249677808
21
23.0903490103
31
0.0000000000
0
SPLINE
5
40C
100
AcDbEntity
8
0
100
AcDbSpline
62
9
6
CONTINUOUS
70
0
71
3
72
9
73
5
74
3
42
0.0000001000
43
0.0000001000
44
0.0000000001
12
-0.0055632314
22
-2.4229819129
32
0.0000000000
13
0.0055758853
23
-2.4229818838
33
0.0000000000
40
0.0000000000
40
0.0000000000
40
0.0000000000
40
0.0000000000
40
0.5002851087
40
1.0000000000
40
1.0000000000
40
1.0000000000
40
1.0000000000
10
-7.6475798518
20
-0.0701665060
30
0.0000000000
10
-7.6485075857
20
-0.4742270959
30
0.0000000000
10
-7.6494362612
20
-1.2818901262
30
0.0000000000
10
-7.6485086266
20
-2.0895531625
30
0.0000000000
10
-7.6475798423
20
-2.4931532054
30
0.0000000000
11
-7.6475798518
21
-0.0701665060
31
0.0000000000
11
-7.6489721838
21
-1.2823506712
31
0.0000000000
11
-7.6475798423
21
-2.4931532054
31
0.0000000000
0
SPLINE
5
40D
100
AcDbEntity
8
0
100
AcDbSpline
62
9
6
CONTINUOUS
70
0
71
3
72
12
73
8
74
6
42
0.0000001000
43
0.0000001000
44
0.0000000001
12
-1.2564681582
22
9.7340729961
32
0.0000000000
13
-0.1508189464
23
9.8136712280
33
0.0000000000
40
0.0000000000
40
0.0000000000
40
0.0000000000
40
0.0000000000
40
0.1951905539
40
0.3928177634
40
0.5928524154
40
0.7952597573
40
1.0000000000
40
1.0000000000
40
1.0000000000
40
1.0000000000
10
-12.7994579436
20
-16.4528508214
30
0.0000000000
10
-12.8812081822
20
-15.8195177881
30
0.0000000000
10
-13.0303415330
20
-14.5429096268
30
0.0000000000
10
-13.2102572443
20
-12.6115264606
30
0.0000000000
10
-13.3476709666
20
-10.6529776108
30
0.0000000000
10
-13.4424880588
20
-8.6686253451
30
0.0000000000
10
-13.4770644058
20
-7.3369243514
30
0.0000000000
10
-13.4873573084
20
-6.6671732084
30
0.0000000000
11
-12.7994579436
21
-16.4528508214
31
0.0000000000
11
-13.0220282010
21
-14.5500615599
31
0.0000000000
11
-13.2022117366
21
-12.6187711590
31
0.0000000000
11
-13.3398855915
21
-10.6602980746
31
0.0000000000
11
-13.4349557364
21
-8.6759805440
31
0.0000000000
11
-13.4873573084
21
-6.6671732084
31
0.0000000000
0
SPLINE
5
40E
100
AcDbEntity
8
0
100
AcDbSpline
62
9
6
CONTINUOUS
70
0
71
3
72
11
73
7
74
5
42
0.0000001000
43
0.0000001000
44
0.0000000001
12
-0.2528347807
22
16.4531376263
32
0.0000000000
13
0.2488755006
23
16.4531979919
33
0.0000000000
40
0.0000000000
40
0.0000000000
40
0.0000000000
40
0.0000000000
40
0.2485237736
40
0.4980270152
40
0.7485167525
40
1.0000000000
40
1.0000000000
40
1.0000000000
40
1.0000000000
10
-13.4873573084
20
-6.6671732084
30
0.0000000000
10
-13.5083024597
20
-5.3041745916
30
0.0000000000
10
-13.5396773360
20
-2.5726313171
30
0.0000000000
10
-13.5552919542
20
1.5330119369
30
0.0000000000
10
-13.5395536108
20
5.6548873194
30
0.0000000000
10
-13.5082199814
20
8.4080749092
30
0.0000000000
10
-13.4873573084
20
9.7873094635
30
0.0000000000
11
-13.4873573084
21
-6.6671732084
31
0.0000000000
11
-13.5343898318
21
-2.5779650576
31
0.0000000000
11
-13.5500665502
21
1.5276008539
31
0.0000000000
11
-13.5343898292
21
5.6493997491
31
0.0000000000
11
-13.4873573084
21
9.7873094635
31
0.0000000000
0
SPLINE
5
40F
100
AcDbEntity
8
0
100
AcDbSpline
62
9
6
CONTINUOUS
70
0
71
3
72
12
73
8
74
6
42
0.0000001000
43
0.0000001000
44
0.0000000001
12
0.1591909341
22
10.5232466278
32
0.0000000000
13
1.1906499875
23
10.4568835678
33
0.0000000000
40
0.0000000000
40
0.0000000000
40
0.0000000000
40
0.0000000000
40
0.1960886783
40
0.3941907173
40
0.5942502573
40
0.7962076689
40
1.0000000000
40
1.0000000000
40
1.0000000000
40
1.0000000000
10
-13.4873573084
20
9.7873094635
30
0.0000000000
10
-13.4769521285
20
10.4751393043
30
0.0000000000
10
-13.4416888150
20
11.8576841089
30
0.0000000000
10
-13.3464124792
20
13.9403565083
30
0.0000000000
10
-13.2085445790
20
16.0412840013
30
0.0000000000
10
-13.0281808693
20
18.1590118633
30
0.0000000000
10
-12.8803397225
20
19.5748453120
30
0.0000000000
10
-12.7994579436
20
20.2851895382
30
0.0000000000
11
-13.4873573084
21
9.7873094635
31
0.0000000000
11
-13.4349557364
21
11.8503696891
31
0.0000000000
11
-13.3398855916
21
13.9331161389
31
0.0000000000
11
-13.2022117367
21
16.0341270178
31
0.0000000000
11
-13.0220282010
21
18.1519667375
31
0.0000000000
11
-12.7994579436
21
20.2851895382
31
0.0000000000
0
SPLINE
5
410
100
AcDbEntity
8
0
100
AcDbSpline
62
9
6
CONTINUOUS
70
0
71
3
72
21
73
17
74
15
42
0.0000001000
43
0.0000001000
44
0.0000000001
12
0.1479716397
22
1.2876000777
32
0.0000000000
13
1.1242745878
23
0.6448381328
33
0.0000000000
40
0.0000000000
40
0.0000000000
40
0.0000000000
40
0.0000000000
40
0.0701016222
40
0.1420828296
40
0.2155616664
40
0.2901238514
40
0.3653320109
40
0.4407358745
40
0.5158809492
40
0.5903180990
40
0.6636126660
40
0.7353539852
40
0.8051655878
40
0.8727157232
40
0.9377291130
40
1.0000000000
40
1.0000000000
40
1.0000000000
40
1.0000000000
10
-12.7994579436
20
20.2851895382
30
0.0000000000
10
-12.7960002596
20
20.3152771563
30
0.0000000000
10
-12.7868019835
20
20.3760254428
30
0.0000000000
10
-12.7667513235
20
20.4670324109
30
0.0000000000
10
-12.7404310279
20
20.5584360303
30
0.0000000000
10
-12.7080917259
20
20.6493642250
30
0.0000000000
10
-12.6700400059
20
20.7389567994
30
0.0000000000
10
-12.6266369236
20
20.8263634226
30
0.0000000000
10
-12.5782941448
20
20.9107549941
30
0.0000000000
10
-12.5254700508
20
20.9913308615
30
0.0000000000
10
-12.4686651800
20
21.0673268292
30
0.0000000000
10
-12.4084168792
20
21.1380226418
30
0.0000000000
10
-12.3452948569
20
21.2027481995
30
0.0000000000
10
-12.2798912077
20
21.2608918944
30
0.0000000000
10
-12.2128281221
20
21.3118982795
30
0.0000000000
10
-12.1663799716
20
21.3414887243
30
0.0000000000
10
-12.1430434463
20
21.3548736052
30
0.0000000000
11
-12.7994579436
21
20.2851895382
31
0.0000000000
11
-12.7859456433
21
20.3750360785
31
0.0000000000
11
-12.7659427868
21
20.4661594745
31
0.0000000000
11
-12.7396404058
21
20.5576893105
31
0.0000000000
11
-12.7072895692
21
20.6487516918
31
0.0000000000
11
-12.6691992519
21
20.7384767139
31
0.0000000000
11
-12.6257330975
21
20.8260076130
31
0.0000000000
11
-12.5773062320
21
20.9105082493
31
0.0000000000
11
-12.5243810958
21
20.9911715544
31
0.0000000000
11
-12.4674631163
21
21.0672270455
31
0.0000000000
11
-12.4070959420
21
21.1379481632
31
0.0000000000
11
-12.3438561022
21
21.2026593920
31
0.0000000000
11
-12.2783476624
21
21.2607425246
31
0.0000000000
11
-12.2111963823
21
21.3116426749
31
0.0000000000
11
-12.1430434463
21
21.3548736052
31
0.0000000000
0
SPLINE
5
411
100
AcDbEntity
8
0
100
AcDbSpline
62
7
6
CONTINUOUS
70
0
71
3
72
15
73
11
74
9
42
0.0000001000
43
0.0000001000
44
0.0000000001
12
0.0000674075
22
-0.3127807077
32
0.0000000000
13
-0.2778856767
23
-0.1446677039
33
0.0000000000
40
0.0000000000
40
0.0000000000
40
0.0000000000
40
0.0000000000
40
0.1627179293
40
0.3173945810
40
0.4625978013
40
0.5988387787
40
0.7281965839
40
0.8513337027
40
0.9700758404
40
1.0000000000
40
1.0000000000
40
1.0000000000
40
1.0000000000
10
7.7752400460
20
-22.0904032082
30
0.0000000000
10
7.7752437021
20
-22.1073682179
30
0.0000000000
10
7.7736590254
20
-22.1404904403
30
0.0000000000
10
7.7661248475
20
-22.1882334796
30
0.0000000000
10
7.7535574274
20
-22.2320670017
30
0.0000000000
10
7.7361174408
20
-22.2713543364
30
0.0000000000
10
7.7139824868
20
-22.3055299870
30
0.0000000000
10
7.6874325626
20
-22.3339936210
30
0.0000000000
10
7.6643825679
20
-22.3507857585
30
0.0000000000
10
7.6507913821
20
-22.3582985546
30
0.0000000000
10
7.6480195503
20
-22.3597415744
30
0.0000000000
11
7.7752400460
21
-22.0904032082
31
0.0000000000
11
7.7726767372
21
-22.1412336475
31
0.0000000000
11
7.7649709186
21
-22.1889958976
31
0.0000000000
11
7.7522775620
21
-22.2326027942
31
0.0000000000
11
7.7348127652
21
-22.2714730340
31
0.0000000000
11
7.7126622504
21
-22.3053318145
31
0.0000000000
11
7.6862853518
21
-22.3333970595
31
0.0000000000
11
7.6562229059
21
-22.3552064056
31
0.0000000000
11
7.6480195503
21
-22.3597415744
31
0.0000000000
0
SPLINE
5
412
100
AcDbEntity
8
0
100
AcDbSpline
62
9
6
CONTINUOUS
70
0
71
3
72
15
73
11
74
9
42
0.0000001000
43
0.0000001000
44
0.0000000001
12
-0.0143888491
22
-0.3375400728
32
0.0000000000
13
-0.3119809967
23
-0.1310093268
33
0.0000000000
40
0.0000000000
40
0.0000000000
40
0.0000000000
40
0.0000000000
40
0.1542078618
40
0.3006639771
40
0.4390962336
40
0.5696912070
40
0.6931677608
40
0.8108228217
40
0.9245122905
40
1.0000000000
40
1.0000000000
40
1.0000000000
40
1.0000000000
10
3.1234276565
20
-24.0430450991
30
0.0000000000
10
3.1226880319
20
-24.0603955434
30
0.0000000000
10
3.1196480155
20
-24.0941861144
30
0.0000000000
10
3.1099966465
20
-24.1427857126
30
0.0000000000
10
3.0954824728
20
-24.1873975262
30
0.0000000000
10
3.0762824843
20
-24.2273745686
30
0.0000000000
10
3.0526303246
20
-24.2621267240
30
0.0000000000
10
3.0248246831
20
-24.2911076455
30
0.0000000000
10
2.9966091236
20
-24.3114061427
30
0.0000000000
10
2.9774699753
20
-24.3209426484
30
0.0000000000
10
2.9696197317
20
-24.3242391797
30
0.0000000000
11
3.1234276565
21
-24.0430450991
31
0.0000000000
11
3.1186308912
21
-24.0949224130
31
0.0000000000
11
3.1088450321
21
-24.1434247640
31
0.0000000000
11
3.0942126133
21
-24.1878456997
31
0.0000000000
11
3.0749467605
21
-24.2275382152
31
0.0000000000
11
3.0513280872
21
-24.2619241763
31
0.0000000000
11
3.0237006068
21
-24.2905027405
31
0.0000000000
11
2.9924667224
21
-24.3128576519
31
0.0000000000
11
2.9696197317
21
-24.3242391797
31
0.0000000000
0
SPLINE
5
413
100
AcDbEntity
8
0
100
AcDbSpline
62
9
6
CONTINUOUS
70
0
71
3
72
21
73
17
74
15
42
0.0000001000
43
0.0000001000
44
0.0000000001
12
0.0621764296
22
-0.4662155426
32
0.0000000000
13
0.4336885534
23
0.1820359284
33
0.0000000000
40
0.0000000000
40
0.0000000000
40
0.0000000000
40
0.0000000000
40
0.0823645189
40
0.1609734316
40
0.2359126021
40
0.3074918440
40
0.3762066886
40
0.4427314044
40
0.5078944194
40
0.5726301782
40
0.6379074840
40
0.7046504579
40
0.7736722506
40
0.8456274703
40
0.9209870349
40
1.0000000000
40
1.0000000000
40
1.0000000000
40
1.0000000000
10
2.7865514977
20
-23.8378550457
30
0.0000000000
10
2.7882585416
20
-23.8506549187
30
0.0000000000
10
2.7927243852
20
-23.8755407938
30
0.0000000000
10
2.8029204231
20
-23.9111638546
30
0.0000000000
10
2.8163766653
20
-23.9438814374
30
0.0000000000
10
2.8329795153
20
-23.9733651216
30
0.0000000000
10
2.8525879128
20
-23.9993218082
30
0.0000000000
10
2.8750270349
20
-24.0214804236
30
0.0000000000
10
2.9000821212
20
-24.0395993956
30
0.0000000000
10
2.9274965495
20
-24.0534778688
30
0.0000000000
10
2.9569781118
20
-24.0629687074
30
0.0000000000
10
2.9882129691
20
-24.0679849800
30
0.0000000000
10
3.0208791874
20
-24.0684970408
30
0.0000000000
10
3.0546555104
20
-24.0645227382
30
0.0000000000
10
3.0892097407
20
-24.0561249813
30
0.0000000000
10
3.1120053170
20
-24.0478394986
30
0.0000000000
10
3.1234276565
20
-24.0430450991
30
0.0000000000
11
2.7865514977
21
-23.8378550457
31
0.0000000000
11
2.7934808166
21
-23.8759698887
31
0.0000000000
11
2.8037451491
21
-23.9114897326
31
0.0000000000
11
2.8172431573
21
-23.9440499006
31
0.0000000000
11
2.8338458109
21
-23.9733382354
31
0.0000000000
11
2.8533947028
21
-23.9990752772
31
0.0000000000
11
2.8757033007
21
-24.0210151155
31
0.0000000000
11
2.9005584192
21
-24.0389478679
31
0.0000000000
11
2.9277227711
21
-24.0527021628
31
0.0000000000
11
2.9569368777
21
-24.0621464476
31
0.0000000000
11
2.9879211330
21
-24.0671903177
31
0.0000000000
11
3.0203796123
21
-24.0677857002
31
0.0000000000
11
3.0540025589
21
-24.0639268685
31
0.0000000000
11
3.0884677511
21
-24.0556510491
31
0.0000000000
11
3.1234276565
21
-24.0430450991
31
0.0000000000
0
SPLINE
5
414
100
AcDbEntity
8
0
100
AcDbSpline
62
9
6
CONTINUOUS
70
0
71
3
72
15
73
11
74
9
42
0.0000001000
43
0.0000001000
44
0.0000000001
12
0.0665374639
22
-0.5029777272
32
0.0000000000
13
0.4538839192
23
-0.2279216680
33
0.0000000000
40
0.0000000000
40
0.0000000000
40
0.0000000000
40
0.0000000000
40
0.1526458705
40
0.2981159633
40
0.4366600090
40
0.5688398007
40
0.6955673530
40
0.8180952584
40
0.9379732176
40
1.0000000000
40
1.0000000000
40
1.0000000000
40
1.0000000000
10
2.0896219158
20
-23.8973907511
30
0.0000000000
10
2.0930074721
20
-23.9229832421
30
0.0000000000
10
2.1018613491
20
-23.9727089294
30
0.0000000000
10
2.1220805686
20
-24.0438722704
30
0.0000000000
10
2.1487577938
20
-24.1091809337
30
0.0000000000
10
2.1816724982
20
-24.1679983479
30
0.0000000000
10
2.2205470637
20
-24.2197404684
30
0.0000000000
10
2.2650367822
20
-24.2638668589
30
0.0000000000
10
2.3068873522
20
-24.2942163725
30
0.0000000000
10
2.3338399061
20
-24.3091689618
30
0.0000000000
10
2.3432242258
20
-24.3138813777
30
0.0000000000
11
2.0896219158
21
-23.8973907511
31
0.0000000000
11
2.1033722996
21
-23.9736066631
31
0.0000000000
11
2.1237270686
21
-24.0445500097
31
0.0000000000
11
2.1504927286
21
-24.1095462940
31
0.0000000000
11
2.1834130662
21
-24.1679727982
31
0.0000000000
11
2.2221740301
21
-24.2192721250
31
0.0000000000
11
2.2664056906
21
-24.2629543474
31
0.0000000000
11
2.3156853354
21
-24.2986017874
31
0.0000000000
11
2.3432242258
21
-24.3138813777
31
0.0000000000
0
SPLINE
5
415
100
AcDbEntity
8
0
100
AcDbSpline
62
9
6
CONTINUOUS
70
0
71
3
72
19
73
15
74
13
42
0.0000001000
43
0.0000001000
44
0.0000000001
12
-0.6055310300
22
-0.4023321491
32
0.0000000000
13
-0.6509731303
23
0.3236865307
33
0.0000000000
40
0.0000000000
40
0.0000000000
40
0.0000000000
40
0.0000000000
40
0.0781082636
40
0.1600267065
40
0.2450379479
40
0.3323037570
40
0.4209038011
40
0.5098712501
40
0.5982267234
40
0.6850118050
40
0.7693232832
40
0.8503493892
40
0.9274096079
40
1.0000000000
40
1.0000000000
40
1.0000000000
40
1.0000000000
10
2.7865514977
20
-23.8378550457
30
0.0000000000
10
2.7707858386
20
-23.8483302009
30
0.0000000000
10
2.7373301438
20
-23.8680885743
30
0.0000000000
10
2.6835568351
20
-23.8934496611
30
0.0000000000
10
2.6257402811
20
-23.9149127836
30
0.0000000000
10
2.5648408766
20
-23.9321209040
30
0.0000000000
10
2.5018624921
20
-23.9447916423
30
0.0000000000
10
2.4378474412
20
-23.9527151342
30
0.0000000000
10
2.3738548942
20
-23.9557603928
30
0.0000000000
10
2.3109428684
20
-23.9538767426
30
0.0000000000
10
2.2501507611
20
-23.9470950590
30
0.0000000000
10
2.1924761367
20
-23.9355235576
30
0.0000000000
10
2.1388749247
20
-23.9193524491
30
0.0000000000
10
2.1053735553
20
-23.9052228090
30
0.0000000000
10
2.0896220903
20
-23.8973906316
30
0.0000000000
11
2.7865514977
21
-23.8378550457
31
0.0000000000
11
2.7377307647
21
-23.8668567693
31
0.0000000000
11
2.6839139328
21
-23.8923632170
31
0.0000000000
11
2.6260017281
21
-23.9139474902
31
0.0000000000
11
2.5649634203
21
-23.9312483357
31
0.0000000000
11
2.5018206003
21
-23.9439761912
31
0.0000000000
11
2.4376300819
21
-23.9519180320
31
0.0000000000
11
2.3734662145
21
-23.9549409366
31
0.0000000000
11
2.3104029009
21
-23.9529943110
31
0.0000000000
11
2.2494956245
21
-23.9461107355
31
0.0000000000
11
2.1917637831
21
-23.9344054198
31
0.0000000000
11
2.1381736276
21
-23.9180742743
31
0.0000000000
11
2.0896220903
21
-23.8973906316
31
0.0000000000
0
SPLINE
5
416
100
AcDbEntity
8
0
100
AcDbSpline
62
9
6
CONTINUOUS
70
0
71
3
72
12
73
8
74
6
42
0.0000001000
43
0.0000001000
44
0.0000000001
12
0.1554766347
22
-9.7732177736
32
0.0000000000
13
1.2919628042
23
-9.6886939650
33
0.0000000000
40
0.0000000000
40
0.0000000000
40
0.0000000000
40
0.0000000000
40
0.2045428221
40
0.4068451596
40
0.6068732986
40
0.8045992171
40
1.0000000000
40
1.0000000000
40
1.0000000000
40
1.0000000000
10
2.0782382079
20
-14.0944245142
30
0.0000000000
10
2.0888387511
20
-14.7607716957
30
0.0000000000
10
2.1244554311
20
-16.0859858885
30
0.0000000000
10
2.2220985448
20
-18.0610212452
30
0.0000000000
10
2.3636046341
20
-20.0111501972
30
0.0000000000
10
2.5488759911
20
-21.9350110151
30
0.0000000000
10
2.7024013166
20
-23.2067955838
30
0.0000000000
10
2.7865514977
20
-23.8378550457
30
0.0000000000
11
2.0782382079
21
-14.0944245142
31
0.0000000000
11
2.1321946764
21
-16.0929907851
31
0.0000000000
11
2.2300861382
21
-18.0679611983
31
0.0000000000
11
2.3718456987
21
-20.0179812002
31
0.0000000000
11
2.5573765397
21
-21.9417183113
31
0.0000000000
11
2.7865514977
21
-23.8378550457
31
0.0000000000
0
SPLINE
5
417
100
AcDbEntity
8
0
100
AcDbSpline
62
9
6
CONTINUOUS
70
0
71
3
72
12
73
8
74
6
42
0.0000001000
43
0.0000001000
44
0.0000000001
12
0.1563293162
22
-9.8277772743
32
0.0000000000
13
1.2990621941
23
-9.7427964375
33
0.0000000000
40
0.0000000000
40
0.0000000000
40
0.0000000000
40
0.0000000000
40
0.2045437926
40
0.4068462044
40
0.6068741462
40
0.8045995788
40
1.0000000000
40
1.0000000000
40
1.0000000000
40
1.0000000000
10
1.3774194542
20
-14.0995615897
30
0.0000000000
10
1.3880781846
20
-14.7696318686
30
0.0000000000
10
1.4238904868
20
-16.1022475942
30
0.0000000000
10
1.5220697441
20
-18.0883118326
30
0.0000000000
10
1.6643526373
20
-20.0493263561
30
0.0000000000
10
1.8506411570
20
-21.9839253583
30
0.0000000000
10
2.0050094825
20
-23.2628085753
30
0.0000000000
10
2.0896219158
20
-23.8973907511
30
0.0000000000
11
1.3774194542
21
-14.0995615897
31
0.0000000000
11
1.4316723441
21
-16.1092945842
31
0.0000000000
11
1.5301012637
21
-18.0952915022
31
0.0000000000
11
1.6726390583
21
-20.0561965564
31
0.0000000000
11
1.8591883766
21
-21.9906698487
31
0.0000000000
11
2.0896219158
21
-23.8973907511
31
0.0000000000
0
SPLINE
5
418
100
AcDbEntity
8
0
100
AcDbSpline
62
9
6
CONTINUOUS
70
0
71
3
72
19
73
15
74
13
42
0.0000001000
43
0.0000001000
44
0.0000000001
12
-0.6442674664
22
-0.3258230796
32
0.0000000000
13
-0.6458532043
23
0.3226683837
33
0.0000000000
40
0.0000000000
40
0.0000000000
40
0.0000000000
40
0.0000000000
40
0.0747914861
40
0.1543050694
40
0.2377738713
40
0.3242879970
40
0.4128366672
40
0.5023454418
40
0.5917107644
40
0.6798333933
40
0.7656519929
40
0.8481782023
40
0.9265348812
40
1.0000000000
40
1.0000000000
40
1.0000000000
40
1.0000000000
10
2.0782382079
20
-14.0944245142
30
0.0000000000
10
2.0621763008
20
-14.1025474450
30
0.0000000000
10
2.0281457455
20
-14.1175763821
30
0.0000000000
10
1.9739084317
20
-14.1360057961
30
0.0000000000
10
1.9156506661
20
-14.1507797173
30
0.0000000000
10
1.8543383923
20
-14.1616510377
30
0.0000000000
10
1.7909818391
20
-14.1684403895
30
0.0000000000
10
1.7266302834
20
-14.1710344273
30
0.0000000000
10
1.6623498064
20
-14.1693900798
30
0.0000000000
10
1.5992051460
20
-14.1635348086
30
0.0000000000
10
1.5382416635
20
-14.1535665670
30
0.0000000000
10
1.4804628111
20
-14.1396495726
30
0.0000000000
10
1.4268259062
20
-14.1220164540
30
0.0000000000
10
1.3932353500
20
-14.1074632125
30
0.0000000000
10
1.3774194559
20
-14.0995615888
30
0.0000000000
11
2.0782382079
21
-14.0944245142
31
0.0000000000
11
2.0289129605
21
-14.1163954437
31
0.0000000000
11
1.9746012856
21
-14.1349896044
31
0.0000000000
11
1.9162119674
21
-14.1498958647
31
0.0000000000
11
1.8547220200
21
-14.1608648019
31
0.0000000000
11
1.7911603398
21
-14.1677128753
31
0.0000000000
11
1.7265904890
21
-14.1703254979
31
0.0000000000
11
1.6620928993
21
-14.1686589531
31
0.0000000000
11
1.5987467930
21
-14.1627411270
31
0.0000000000
11
1.5376121252
21
-14.1526710411
31
0.0000000000
11
1.4797118475
21
-14.1386171956
31
0.0000000000
11
1.4260147911
21
-14.1208147502
31
0.0000000000
11
1.3774194559
21
-14.0995615888
31
0.0000000000
0
SPLINE
5
419
100
AcDbEntity
8
0
100
AcDbSpline
62
9
6
CONTINUOUS
70
0
71
3
72
11
73
7
74
5
42
0.0000001000
43
0.0000001000
44
0.0000000001
12
-0.2575234754
22
-16.4366509584
32
0.0000000000
13
0.2614786872
23
-16.4365885135
33
0.0000000000
40
0.0000000000
40
0.0000000000
40
0.0000000000
40
0.0000000000
40
0.2514329847
40
0.5019053018
40
0.7514249579
40
1.0000000000
40
1.0000000000
40
1.0000000000
40
1.0000000000
10
2.0782382079
20
2.3436036750
30
0.0000000000
10
2.0566549092
20
0.9660316053
30
0.0000000000
10
2.0242402289
20
-1.7840284696
30
0.0000000000
10
2.0079613972
20
-5.9015124600
30
0.0000000000
10
2.0241166258
20
-10.0033368812
30
0.0000000000
10
2.0565725160
20
-12.7325159539
30
0.0000000000
10
2.0782382079
20
-14.0944245142
30
0.0000000000
11
2.0782382079
21
2.3436036750
31
0.0000000000
11
2.0295841786
21
-1.7893333678
31
0.0000000000
11
2.0133669768
21
-5.9067327511
31
0.0000000000
11
2.0295841740
21
-10.0084715354
31
0.0000000000
11
2.0782382079
21
-14.0944245142
31
0.0000000000
0
SPLINE
5
41A
100
AcDbEntity
8
0
100
AcDbSpline
62
9
6
CONTINUOUS
70
0
71
3
72
11
73
7
74
5
42
0.0000001000
43
0.0000001000
44
0.0000000001
12
-0.2577768527
22
-16.4531041094
32
0.0000000000
13
0.2617360269
23
-16.4530416031
33
0.0000000000
40
0.0000000000
40
0.0000000000
40
0.0000000000
40
0.0000000000
40
0.2514330396
40
0.5019053433
40
0.7514249692
40
1.0000000000
40
1.0000000000
40
1.0000000000
40
1.0000000000
10
1.3774194542
20
2.3549210822
30
0.0000000000
10
1.3558149150
20
0.9759697565
30
0.0000000000
10
1.3233683521
20
-1.7768433608
30
0.0000000000
10
1.3070735031
20
-5.8984490129
30
0.0000000000
10
1.3232446268
20
-10.0043790575
30
0.0000000000
10
1.3557324405
20
-12.7362898154
30
0.0000000000
10
1.3774194542
20
-14.0995615897
30
0.0000000000
11
1.3774194542
21
2.3549210822
31
0.0000000000
11
1.3287175539
21
-1.7821539424
31
0.0000000000
11
1.3124844010
21
-5.9036746217
31
0.0000000000
11
1.3287175512
21
-10.0095187491
31
0.0000000000
11
1.3774194542
21
-14.0995615897
31
0.0000000000
0
SPLINE
5
41B
100
AcDbEntity
8
0
100
AcDbSpline
62
9
6
CONTINUOUS
70
0
71
3
72
19
73
15
74
13
42
0.0000001000
43
0.0000001000
44
0.0000000001
12
-0.6543381511
22
-0.3009709133
32
0.0000000000
13
-0.6440936230
23
0.3223124438
33
0.0000000000
40
0.0000000000
40
0.0000000000
40
0.0000000000
40
0.0000000000
40
0.0738205089
40
0.1526338216
40
0.2356547121
40
0.3219499779
40
0.4104813312
40
0.5001428912
40
0.5897957453
40
0.6783012324
40
0.7645542365
40
0.8475177777
40
0.9262605659
40
1.0000000000
40
1.0000000000
40
1.0000000000
40
1.0000000000
10
2.0782382079
20
2.3436036750
30
0.0000000000
10
2.0621370161
20
2.3361977330
30
0.0000000000
10
2.0280363815
20
2.3226092309
30
0.0000000000
10
1.9738109060
20
2.3062721299
30
0.0000000000
10
1.9155654424
20
2.2935172151
30
0.0000000000
10
1.8542654124
20
2.2845586807
30
0.0000000000
10
1.7909209858
20
2.2795449739
30
0.0000000000
10
1.7265816471
20
2.2785603681
30
0.0000000000
10
1.6623138308
20
2.2816214363
30
0.0000000000
10
1.5991827676
20
2.2886771781
30
0.0000000000
10
1.5382343432
20
2.2996094814
30
0.0000000000
10
1.4804728445
20
2.3142373855
30
0.0000000000
10
1.4268555362
20
2.3323156640
30
0.0000000000
10
1.3932511540
20
2.3469987032
30
0.0000000000
10
1.3774194543
20
2.3549210823
30
0.0000000000
11
2.0782382079
21
2.3436036750
31
0.0000000000
11
2.0289129605
21
2.3237570845
31
0.0000000000
11
1.9746012857
21
2.3072517167
31
0.0000000000
11
1.9162119673
21
2.2943637519
31
0.0000000000
11
1.8547220198
21
2.2853088413
31
0.0000000000
11
1.7911603395
21
2.2802384986
31
0.0000000000
11
1.7265904886
21
2.2792375646
31
0.0000000000
11
1.6620928986
21
2.2823227876
31
0.0000000000
11
1.5987467921
21
2.2894425434
31
0.0000000000
11
1.5376121241
21
2.3004776987
31
0.0000000000
11
1.4797118462
21
2.3152436051
31
0.0000000000
11
1.4260147897
21
2.3334931883
31
0.0000000000
11
1.3774194543
21
2.3549210823
31
0.0000000000
0
SPLINE
5
41C
100
AcDbEntity
8
0
100
AcDbSpline
62
9
6
CONTINUOUS
70
0
71
3
72
12
73
8
74
6
42
0.0000001000
43
0.0000001000
44
0.0000000001
12
-1.2266665913
22
-10.3836028307
32
0.0000000000
13
-0.1637987390
23
-10.4545247929
33
0.0000000000
40
0.0000000000
40
0.0000000000
40
0.0000000000
40
0.0000000000
40
0.2036965841
40
0.4056006985
40
0.6056545655
40
0.8038044439
40
1.0000000000
40
1.0000000000
40
1.0000000000
40
1.0000000000
10
2.7865514977
20
12.7710443996
30
0.0000000000
10
2.7032622329
20
12.0660095906
30
0.0000000000
10
2.5510200164
20
10.6604957958
30
0.0000000000
10
2.3653056288
20
8.5576780482
30
0.0000000000
10
2.2233492986
20
6.4708148780
30
0.0000000000
10
2.1252500946
20
4.4013566226
30
0.0000000000
10
2.0889504028
20
3.0273141102
30
0.0000000000
10
2.0782382079
20
2.3436036750
30
0.0000000000
11
2.7865514977
21
12.7710443996
31
0.0000000000
11
2.5573767298
21
10.6535979238
31
0.0000000000
11
2.3718458509
21
8.5506957605
31
0.0000000000
11
2.2300862487
21
6.4637801265
31
0.0000000000
11
2.1321947472
21
4.3942769995
31
0.0000000000
11
2.0782382079
21
2.3436036750
31
0.0000000000
0
SPLINE
5
41D
100
AcDbEntity
8
0
100
AcDbSpline
62
9
6
CONTINUOUS
70
0
71
3
72
12
73
8
74
6
42
0.0000001000
43
0.0000001000
44
0.0000000001
12
-1.2334004738
22
-10.4416544372
32
0.0000000000
13
-0.1646979575
23
-10.5129586082
33
0.0000000000
40
0.0000000000
40
0.0000000000
40
0.0000000000
40
0.0000000000
40
0.2036972673
40
0.4056013116
40
0.6056549794
40
0.8038045143
40
1.0000000000
40
1.0000000000
40
1.0000000000
40
1.0000000000
10
2.0896219158
20
12.8406496085
30
0.0000000000
10
2.0058751471
20
12.1316707836
30
0.0000000000
10
1.8527970458
20
10.7182973695
30
0.0000000000
10
1.6660629899
20
8.6037232779
30
0.0000000000
10
1.5233273797
20
6.5051972062
30
0.0000000000
10
1.4246895518
20
4.4241738328
30
0.0000000000
10
1.3881904528
20
3.0424527556
30
0.0000000000
10
1.3774194542
20
2.3549210822
30
0.0000000000
11
2.0896219158
21
12.8406496085
31
0.0000000000
11
1.8591883766
21
10.7113584487
31
0.0000000000
11
1.6726390583
21
8.5967016204
31
0.0000000000
11
1.5301012637
21
6.4981227113
31
0.0000000000
11
1.4316723442
21
4.4170556488
31
0.0000000000
11
1.3774194542
21
2.3549210822
31
0.0000000000
0
SPLINE
5
41E
100
AcDbEntity
8
0
100
AcDbSpline
62
9
6
CONTINUOUS
70
0
71
3
72
19
73
15
74
13
42
0.0000001000
43
0.0000001000
44
0.0000000001
12
-0.6834792098
22
-0.2059048009
32
0.0000000000
13
-0.6375552581
23
0.3210356837
33
0.0000000000
40
0.0000000000
40
0.0000000000
40
0.0000000000
40
0.0000000000
40
0.0705400571
40
0.1470054504
40
0.2285331660
40
0.3141019359
40
0.4025760981
40
0.4927428664
40
0.5833461912
40
0.6731190451
40
0.7608153458
40
0.8452425846
40
0.9252965060
40
1.0000000000
40
1.0000000000
40
1.0000000000
40
1.0000000000
10
2.7865514977
20
12.7710443996
30
0.0000000000
10
2.7704806102
20
12.7662028875
30
0.0000000000
10
2.7364831727
20
12.7577565376
30
0.0000000000
10
2.6828023687
20
12.7488138014
30
0.0000000000
10
2.6250810148
20
12.7431950405
30
0.0000000000
10
2.5642760178
20
12.7409985929
30
0.0000000000
10
2.5013912224
20
12.7422637272
30
0.0000000000
10
2.4374707340
20
12.7469717652
30
0.0000000000
10
2.3735765619
20
12.7550454204
30
0.0000000000
10
2.3107705809
20
12.7663503799
30
0.0000000000
10
2.2500962303
20
12.7806973408
30
0.0000000000
10
2.1925574281
20
12.7978465505
30
0.0000000000
10
2.1391094222
20
12.8175088547
30
0.0000000000
10
2.1054977859
20
12.8326554466
30
0.0000000000
10
2.0896219174
20
12.8406496090
30
0.0000000000
11
2.7865514977
21
12.7710443996
31
0.0000000000
11
2.7377307591
21
12.7587172562
31
0.0000000000
11
2.6839139180
21
12.7496063083
31
0.0000000000
11
2.6260017009
21
12.7438640448
31
0.0000000000
11
2.5649633781
21
12.7415865733
31
0.0000000000
11
2.5018205411
21
12.7428120117
31
0.0000000000
11
2.4376300046
21
12.7475198498
31
0.0000000000
11
2.3734661184
21
12.7556312932
31
0.0000000000
11
2.3104027863
21
12.7670105814
31
0.0000000000
11
2.2494954923
21
12.7814672607
31
0.0000000000
11
2.1917636349
21
12.7987593712
31
0.0000000000
11
2.1381734657
21
12.8185974968
31
0.0000000000
11
2.0896219174
21
12.8406496090
31
0.0000000000
0
SPLINE
5
41F
100
AcDbEntity
8
0
100
AcDbSpline
62
9
6
CONTINUOUS
70
0
71
3
72
21
73
17
74
15
42
0.0000001000
43
0.0000001000
44
0.0000000001
12
-0.5703751918
22
-0.3114681958
32
0.0000000000
13
-0.0762436140
23
-0.6453891909
33
0.0000000000
40
0.0000000000
40
0.0000000000
40
0.0000000000
40
0.0000000000
40
0.0629264491
40
0.1284412826
40
0.1963631392
40
0.2664223169
40
0.3382950565
40
0.4116148781
40
0.4859828108
40
0.5609773864
40
0.6361640059
40
0.7111039536
40
0.7853638889
40
0.8585244600
40
0.9301893498
40
1.0000000000
40
1.0000000000
40
1.0000000000
40
1.0000000000
10
3.1233973522
20
13.3015354340
30
0.0000000000
10
3.1114334570
20
13.2950022382
30
0.0000000000
10
3.0876207289
20
13.2805299631
30
0.0000000000
10
3.0531990322
20
13.2554664989
30
0.0000000000
10
3.0196330836
20
13.2268265661
30
0.0000000000
10
2.9872384619
20
13.1948808995
30
0.0000000000
10
2.9563189156
20
13.1599315058
30
0.0000000000
10
2.9271666611
20
13.1223095694
30
0.0000000000
10
2.9000572926
20
13.0823714929
30
0.0000000000
10
2.8752475448
20
13.0404958034
30
0.0000000000
10
2.8529725544
20
12.9970794911
30
0.0000000000
10
2.8334435491
20
12.9525340398
30
0.0000000000
10
2.8168458795
20
12.9072818891
30
0.0000000000
10
2.8033370691
20
12.8617509547
30
0.0000000000
10
2.7930459485
20
12.8163750272
30
0.0000000000
10
2.7883257031
20
12.7860627460
30
0.0000000000
10
2.7865514977
20
12.7710443996
30
0.0000000000
11
3.1233973522
21
13.3015354340
31
0.0000000000
11
3.0884120352
21
13.2803603421
31
0.0000000000
11
3.0539538825
21
13.2553523044
31
0.0000000000
11
3.0203393348
21
13.2267432522
31
0.0000000000
11
2.9878892723
21
13.1948064176
31
0.0000000000
11
2.9569134491
21
13.1598467590
31
0.0000000000
11
2.9277075105
21
13.1221980071
31
0.0000000000
11
2.9005502614
21
13.0822195804
31
0.0000000000
11
2.8757009384
21
13.0402930771
31
0.0000000000
11
2.8533967619
21
12.9968186578
31
0.0000000000
11
2.8338507273
21
12.9522113283
31
0.0000000000
11
2.8172494751
21
12.9068967608
31
0.0000000000
11
2.8037516585
21
12.8613075914
31
0.0000000000
11
2.7934864163
21
12.8158795833
31
0.0000000000
11
2.7865514977
21
12.7710443996
31
0.0000000000
0
SPLINE
5
420
100
AcDbEntity
8
0
100
AcDbSpline
62
9
6
CONTINUOUS
70
0
71
3
72
21
73
17
74
15
42
0.0000001000
43
0.0000001000
44
0.0000000001
12
-1.1354065740
22
-0.6301260340
32
0.0000000000
13
-0.1509801350
23
-1.2897332692
33
0.0000000000
40
0.0000000000
40
0.0000000000
40
0.0000000000
40
0.0000000000
40
0.0626916638
40
0.1280386340
40
0.1958367798
40
0.2658144970
40
0.3376452477
40
0.4109590491
40
0.4853528148
40
0.5604004338
40
0.6356622031
40
0.7106938883
40
0.7850562592
40
0.8583237364
40
0.9300945608
40
1.0000000000
40
1.0000000000
40
1.0000000000
40
1.0000000000
10
2.7575947862
20
13.9045544889
30
0.0000000000
10
2.7338679438
20
13.8913866058
30
0.0000000000
10
2.6866373264
20
13.8622311498
30
0.0000000000
10
2.6183865228
20
13.8118168883
30
0.0000000000
10
2.5518243867
20
13.7542489409
30
0.0000000000
10
2.4875842206
20
13.6900779063
30
0.0000000000
10
2.4262688089
20
13.6199103684
30
0.0000000000
10
2.3684579495
20
13.5444116123
30
0.0000000000
10
2.3146984766
20
13.4642972711
30
0.0000000000
10
2.2654997624
20
13.3803271724
30
0.0000000000
10
2.2213282578
20
13.2932979391
30
0.0000000000
10
2.1826028816
20
13.2040350087
30
0.0000000000
10
2.1496910821
20
13.1133854851
30
0.0000000000
10
2.1229049155
20
13.0222067096
30
0.0000000000
10
2.1024995710
20
12.9313686960
30
0.0000000000
10
2.0931400266
20
12.8707027320
30
0.0000000000
10
2.0896219158
20
12.8406496085
30
0.0000000000
11
2.7575947862
21
13.9045544889
31
0.0000000000
11
2.6882420601
21
13.8619234537
31
0.0000000000
11
2.6199083437
21
13.8116145215
31
0.0000000000
11
2.5532463890
21
13.7541081464
31
0.0000000000
11
2.4888929729
21
13.6899537058
31
0.0000000000
11
2.4274627970
21
13.6197640889
31
0.0000000000
11
2.3695425428
21
13.5442097350
31
0.0000000000
11
2.3156854340
21
13.4640124163
31
0.0000000000
11
2.2664058143
21
13.3799381571
31
0.0000000000
11
2.2221742706
21
13.2927899526
31
0.0000000000
11
2.1834132346
21
13.2034002899
31
0.0000000000
11
2.1504927495
21
13.1126227328
31
0.0000000000
11
2.1237272273
21
13.0213244674
31
0.0000000000
11
2.1033721552
21
12.9303771793
31
0.0000000000
11
2.0896219158
21
12.8406496085
31
0.0000000000
0
SPLINE
5
421
100
AcDbEntity
8
0
100
AcDbSpline
62
9
6
CONTINUOUS
70
0
71
3
72
20
73
16
74
14
42
0.0000001000
43
0.0000001000
44
0.0000000001
12
-0.0325576622
22
0.7321455622
32
0.0000000000
13
-0.6504734593
23
0.3376113214
33
0.0000000000
40
0.0000000000
40
0.0000000000
40
0.0000000000
40
0.0000000000
40
0.0716722978
40
0.1467762551
40
0.2247417761
40
0.3049011985
40
0.3865172390
40
0.4688085029
40
0.5509737899
40
0.6322156540
40
0.7117639266
40
0.7889001811
40
0.8629839469
40
0.9334816960
40
1.0000000000
40
1.0000000000
40
1.0000000000
40
1.0000000000
10
3.1233849142
20
13.3015286438
30
0.0000000000
10
3.1226070868
20
13.3190201620
30
0.0000000000
10
3.1192435945
20
13.3547781493
30
0.0000000000
10
3.1093763515
20
13.4088458160
30
0.0000000000
10
3.0947018072
20
13.4639585659
30
0.0000000000
10
3.0754324094
20
13.5193186081
30
0.0000000000
10
3.0518462866
20
13.5741316636
30
0.0000000000
10
3.0242834321
20
13.6276071771
30
0.0000000000
10
2.9931409021
20
13.6789737674
30
0.0000000000
10
2.9588677436
20
13.7274904476
30
0.0000000000
10
2.9219576223
20
13.7724582861
30
0.0000000000
10
2.8829416961
20
13.8132299280
30
0.0000000000
10
2.8423758633
20
13.8492210098
30
0.0000000000
10
2.8008451267
20
13.8799108510
30
0.0000000000
10
2.7720177136
20
13.8970686463
30
0.0000000000
10
2.7575949165
20
13.9045544238
30
0.0000000000
11
3.1233849142
21
13.3015286438
31
0.0000000000
11
3.1185876537
21
13.3538355298
31
0.0000000000
11
3.1088013130
21
13.4079999088
31
0.0000000000
11
3.0941687715
21
13.4632330454
31
0.0000000000
11
3.0749035744
21
13.5187306803
31
0.0000000000
11
3.0512867791
21
13.5736847209
31
0.0000000000
11
3.0236623713
21
13.6272947424
31
0.0000000000
11
2.9924323681
21
13.6787797089
31
0.0000000000
11
2.9580514879
21
13.7273896386
31
0.0000000000
11
2.9210205671
21
13.7724165491
31
0.0000000000
11
2.8818790139
21
13.8132046313
31
0.0000000000
11
2.8411969099
21
13.8491597786
31
0.0000000000
11
2.7995667695
21
13.8797582744
31
0.0000000000
11
2.7575949165
21
13.9045544238
31
0.0000000000
0
SPLINE
5
422
100
AcDbEntity
8
0
100
AcDbSpline
62
7
6
CONTINUOUS
70
0
71
3
72
20
73
16
74
14
42
0.0000001000
43
0.0000001000
44
0.0000000001
12
0.6584462673
22
-0.3291553711
32
0.0000000000
13
-0.0001586118
23
-0.7361349876
33
0.0000000000
40
0.0000000000
40
0.0000000000
40
0.0000000000
40
0.0000000000
40
0.0664710672
40
0.1369971241
40
0.2107121406
40
0.2871563889
40
0.3664396232
40
0.4473448591
40
0.5287886075
40
0.6109683070
40
0.6927879165
40
0.7729092631
40
0.8513098661
40
0.9273839153
40
1.0000000000
40
1.0000000000
40
1.0000000000
40
1.0000000000
10
7.4219557801
20
16.4509661207
30
0.0000000000
10
7.4365449888
20
16.4436730178
30
0.0000000000
10
7.4657200619
20
16.4268069122
30
0.0000000000
10
7.5075837363
20
16.3963266043
30
0.0000000000
10
7.5481906463
20
16.3603861110
30
0.0000000000
10
7.5869851802
20
16.3194949203
30
0.0000000000
10
7.6234221181
20
16.2742070632
30
0.0000000000
10
7.6569249653
20
16.2252190315
30
0.0000000000
10
7.6870243133
20
16.1732494810
30
0.0000000000
10
7.7133106192
20
16.1190013105
30
0.0000000000
10
7.7353830705
20
16.0632537806
30
0.0000000000
10
7.7529053745
20
16.0068822529
30
0.0000000000
10
7.7656450305
20
15.9506794732
30
0.0000000000
10
7.7734088161
20
15.8954347529
30
0.0000000000
10
7.7752438852
20
15.8589315077
30
0.0000000000
10
7.7752400460
20
15.8411130942
30
0.0000000000
11
7.4219557801
21
16.4509661207
31
0.0000000000
11
7.4643958179
21
16.4266113997
31
0.0000000000
11
7.5064441737
21
16.3961601365
31
0.0000000000
11
7.5471484681
21
16.3602747042
31
0.0000000000
11
7.5859384992
21
16.3195068697
31
0.0000000000
11
7.6225708573
21
16.2740719794
31
0.0000000000
11
7.6562229059
21
16.2249334317
31
0.0000000000
11
7.6862853517
21
16.1730616398
31
0.0000000000
11
7.7126622504
21
16.1186194961
31
0.0000000000
11
7.7348127652
21
16.0626102008
31
0.0000000000
11
7.7522775620
21
16.0062751642
31
0.0000000000
11
7.7649709185
21
15.9499749110
31
0.0000000000
11
7.7726767372
21
15.8945068422
31
0.0000000000
11
7.7752400460
21
15.8411130942
31
0.0000000000
0
SPLINE
5
423
100
AcDbEntity
8
0
100
AcDbSpline
62
3
6
CONTINUOUS
70
0
71
3
72
8
73
4
74
2
42
0.0000001000
43
0.0000001000
44
0.0000000001
12
-0.0453977426
22
-0.0566855164
32
0.0000000000
13
-0.0430393017
23
-0.0584291054
33
0.0000000000
40
0.0000000000
40
0.0000000000
40
0.0000000000
40
0.0000000000
40
1.0000000000
40
1.0000000000
40
1.0000000000
40
1.0000000000
10
-4.6626172280
20
-1.6247475872
30
0.0000000000
10
-4.6777498089
20
-1.6436427593
30
0.0000000000
10
-4.6924885666
20
-1.6628456877
30
0.0000000000
10
-4.7068350005
20
-1.6823220561
30
0.0000000000
11
-4.6626172280
21
-1.6247475872
31
0.0000000000
11
-4.7068350005
21
-1.6823220561
31
0.0000000000
0
ENDSEC
0
SECTION
2
OBJECTS
0
DICTIONARY
5
424
100
AcDbDictionary
3
ACAD_GROUP
350
425
3
ACAD_MLINESTYLE
350
426
0
DICTIONARY
5
425
102
{ACAD_REACTORS
330
424
102
}
100
AcDbDictionary
0
DICTIONARY
5
426
102
{ACAD_REACTORS
330
424
102
}
100
AcDbDictionary
3
STANDARD
350
427
0
MLINESTYLE
5
427
102
{ACAD_REACTORS
330
426
102
}
100
AcDbMlineStyle
2
STANDARD
70
0
3

62
256
51
90.0
52
90.0
71
2
49
0.5
62
256
6
BYLAYER
49
-0.5
62
256
6
BYLAYER
0
ENDSEC
0
EOF
