  0
SECTION
  2
HEADER
  9
$ACADVER
  1
AC1021
  9
$DWGCODEPAGE
  3
ANSI_1252
  9
$EXTMAX
 10
558.8
 20
431.8
 30
0.0
  9
$EXTMIN
 10
0.0
 20
0.0
 30
0.0
  9
$LIMMIN
 10
0.0
 20
0.0
  9
$LIMMAX
 10
558.8
 20
431.8
  9
$VIEWCTR
 10
279.4
 20
215.9
  9
$VIEWSIZE
 40
431.8
  9
$CLAYER
  8
0
  9
$LTSCALE
 40
30.734
  9
$CELTYPE
  6
BYLAYER
  9
$DIMSCALE
 40
1.0
  9
$DIMASZ
 40
3.0
  9
$DIMEXO
 40
0.5
  9
$DIMDLI
 40
21.2344
  9
$DIMEXE
 40
1.5
  9
$DIMCEN
 40
5.0292
  9
$DIMLFAC
 40
1.0
  9
$DIMBLK
  1
_FILLED
  9
$DIMALT
 70
0
  9
$DIMALTF
 40
25.4
  9
$DIMTXT
 40
3.0
  9
$DIMTOL
 70
1
  9
$DIMLIM
 70
0
  9
$DIMTFAC
 40
1.0
  9
$DIMTP
 40
0.01
  9
$DIMTM
 40
0.01
  9
$DIMGAP
 40
0.625
  9
$DIMDSEP
 70
44
  9
$AUNITS
 70
0
  9
$PDMODE
 70
3
  9
$PDSIZE
 40
3.0
  9
$HANDSEED
  5
4D1
  9
$TILEMODE
 70
1
  9
$MEASUREMENT
 70
1
  9
$INSUNITS
 70
4
  0
ENDSEC
  0
SECTION
  2
CLASSES
  0
CLASS
  1
ACDBDICTIONARYWDFLT
  2
AcDbDictionaryWithDefault
  3
AutoCAD 2000
 90
0
 91
1
280
0
281
0
  0
CLASS
  1
ACDBPLACEHOLDER
  2
AcDbPlaceHolder
  3
AutoCAD 2000
 90
0
 91
1
280
0
281
0
  0
CLASS
  1
LAYOUT
  2
AcDbLayout
  3
AutoCAD 2000
 90
0
 91
0
280
0
281
0
  0
ENDSEC
  0
SECTION
  2
TABLES
  0
TABLE
  2
VPORT
  5
8
100
AcDbSymbolTable
 70
2
  0
VPORT
  5
1F4
100
AcDbSymbolTableRecord
100
AcDbViewportTableRecord
  2
*ACTIVE
 70
0
 10
0.0
 20
0.0
 11
1.0
 21
1.0
 12
279.4
 22
215.9
 13
0.0
 23
0.0
 14
1.0
 24
1.0
 15
0.0
 25
0.0
 16
0.0
 26
0.0
 36
1.0
 17
0.0
 27
0.0
 37
0.0
 40
431.8
 41
1.2941176471
 42
50.0
 43
0.0
 44
0.0
 50
0.0
 51
0.0
 71
0
 72
100
 73
1
 74
1
 75
0
 76
0
 77
0
 78
0
  0
ENDTAB
  0
TABLE
  2
LTYPE
  5
5
100
AcDbSymbolTable
 70
6
  0
LTYPE
  5
14
100
AcDbSymbolTableRecord
100
AcDbLinetypeTableRecord
  2
BYBLOCK
 70
0
  3

 72
65
 73
0
 40
0.0
  0
LTYPE
  5
15
100
AcDbSymbolTableRecord
100
AcDbLinetypeTableRecord
  2
BYLAYER
 70
0
  3

 72
65
 73
0
 40
0.0
  0
LTYPE
  5
16
100
AcDbSymbolTableRecord
100
AcDbLinetypeTableRecord
  2
CONTINUOUS
 70
64
  3
Solid line
 72
65
 73
0
 40
0.0
  0
LTYPE
  5
1F5
100
AcDbSymbolTableRecord
100
AcDbLinetypeTableRecord
  2
CENTER
 70
64
  3
____ _ ____ _ ____ _ ____ _ ____ _ ____ _ ____
 72
65
 73
4
 40
0.6
 49
0.375
 74
0
 49
-0.075
 74
0
 49
0.075
 74
0
 49
-0.075
 74
0
  0
LTYPE
  5
1F6
100
AcDbSymbolTableRecord
100
AcDbLinetypeTableRecord
  2
HIDDEN
 70
64
  3
- - - - - - - - - - - - - - - - - - - -
 72
65
 73
2
 40
0.2
 49
0.1
 74
0
 49
-0.1
 74
0
  0
LTYPE
  5
1F7
100
AcDbSymbolTableRecord
100
AcDbLinetypeTableRecord
  2
PHANTOM
 70
64
  3
_____ _ _ _____ _ _ _____ _ _ _____
 72
65
 73
6
 40
0.8
 49
0.45
 74
0
 49
-0.05
 74
0
 49
0.1
 74
0
 49
-0.05
 74
0
 49
0.1
 74
0
 49
-0.05
 74
0
  0
LTYPE
  5
1F8
100
AcDbSymbolTableRecord
100
AcDbLinetypeTableRecord
  2
DOT
 70
64
  3
. . . . . . . . . . . . . . . . . . . .
 72
65
 73
2
 40
0.2
 49
0.1
 74
0
 49
-0.1
 74
0
  0
LTYPE
  5
1F9
100
AcDbSymbolTableRecord
100
AcDbLinetypeTableRecord
  2
DASHED
 70
64
  3
- - - - - - - - - - - - - - - - - - - -
 72
65
 73
2
 40
0.2
 49
0.1
 74
0
 49
-0.1
 74
0
  0
ENDTAB
  0
TABLE
  2
LAYER
  5
2
100
AcDbSymbolTable
 70
36
  0
LAYER
  5
10
100
AcDbSymbolTableRecord
100
AcDbLayerTableRecord
  2
0
 70
0
 62
7
  6
CONTINUOUS
370
-3
390
F
  0
LAYER
  5
1FA
100
AcDbSymbolTableRecord
100
AcDbLayerTableRecord
  2
DEFAULT_1
 70
0
 62
7
  6
CENTER
370
-3
390
F
  0
LAYER
  5
1FB
100
AcDbSymbolTableRecord
100
AcDbLayerTableRecord
  2
DEFAULT_2
 70
0
 62
7
  6
HIDDEN
370
-3
390
F
  0
LAYER
  5
1FC
100
AcDbSymbolTableRecord
100
AcDbLayerTableRecord
  2
DEFAULT_3
 70
0
 62
7
  6
PHANTOM
370
-3
390
F
  0
LAYER
  5
1FD
100
AcDbSymbolTableRecord
100
AcDbLayerTableRecord
  2
ASSI
 70
0
 62
7
  6
CONTINUOUS
370
-3
390
F
  0
LAYER
  5
1FE
100
AcDbSymbolTableRecord
100
AcDbLayerTableRecord
  2
COORDINATE
 70
0
 62
7
  6
CONTINUOUS
370
-3
390
F
  0
LAYER
  5
1FF
100
AcDbSymbolTableRecord
100
AcDbLayerTableRecord
  2
COORD_ORIGINE
 70
0
 62
7
  6
CONTINUOUS
370
-3
390
F
  0
LAYER
  5
200
100
AcDbSymbolTableRecord
100
AcDbLayerTableRecord
  2
COPY_PUBLISH
 70
0
 62
7
  6
CONTINUOUS
370
-3
390
F
  0
LAYER
  5
201
100
AcDbSymbolTableRecord
100
AcDbLayerTableRecord
  2
COSMETICI
 70
0
 62
7
  6
CONTINUOUS
370
-3
390
F
  0
LAYER
  5
202
100
AcDbSymbolTableRecord
100
AcDbLayerTableRecord
  2
CURVE
 70
0
 62
7
  6
CONTINUOUS
370
-3
390
F
  0
LAYER
  5
203
100
AcDbSymbolTableRecord
100
AcDbLayerTableRecord
  2
DRAFT
 70
0
 62
7
  6
CONTINUOUS
370
-3
390
F
  0
LAYER
  5
204
100
AcDbSymbolTableRecord
100
AcDbLayerTableRecord
  2
IMPORT_IGES
 70
0
 62
7
  6
CONTINUOUS
370
-3
390
F
  0
LAYER
  5
205
100
AcDbSymbolTableRecord
100
AcDbLayerTableRecord
  2
NOTE
 70
0
 62
7
  6
CONTINUOUS
370
-3
390
F
  0
LAYER
  5
206
100
AcDbSymbolTableRecord
100
AcDbLayerTableRecord
  2
PIANI
 70
0
 62
7
  6
CONTINUOUS
370
-3
390
F
  0
LAYER
  5
207
100
AcDbSymbolTableRecord
100
AcDbLayerTableRecord
  2
PIANI_ORIGINE
 70
0
 62
7
  6
CONTINUOUS
370
-3
390
F
  0
LAYER
  5
208
100
AcDbSymbolTableRecord
100
AcDbLayerTableRecord
  2
PIANI_SFORMI
 70
0
 62
7
  6
CONTINUOUS
370
-3
390
F
  0
LAYER
  5
209
100
AcDbSymbolTableRecord
100
AcDbLayerTableRecord
  2
PUNTI
 70
0
 62
7
  6
CONTINUOUS
370
-3
390
F
  0
LAYER
  5
20A
100
AcDbSymbolTableRecord
100
AcDbLayerTableRecord
  2
RACCORDO
 70
0
 62
7
  6
CONTINUOUS
370
-3
390
F
  0
LAYER
  5
20B
100
AcDbSymbolTableRecord
100
AcDbLayerTableRecord
  2
SIMBOLI
 70
0
 62
7
  6
CONTINUOUS
370
-3
390
F
  0
LAYER
  5
20C
100
AcDbSymbolTableRecord
100
AcDbLayerTableRecord
  2
SMUSSO
 70
0
 62
7
  6
CONTINUOUS
370
-3
390
F
  0
LAYER
  5
20D
100
AcDbSymbolTableRecord
100
AcDbLayerTableRecord
  2
SUPERFICI
 70
0
 62
7
  6
CONTINUOUS
370
-3
390
F
  0
LAYER
  5
20E
100
AcDbSymbolTableRecord
100
AcDbLayerTableRecord
  2
TRASH
 70
0
 62
7
  6
CONTINUOUS
370
-3
390
F
  0
LAYER
  5
20F
100
AcDbSymbolTableRecord
100
AcDbLayerTableRecord
  2
XSEC_DATUMS
 70
0
 62
7
  6
CONTINUOUS
370
-3
390
F
  0
ENDTAB
  0
TABLE
  2
STYLE
  5
3
100
AcDbSymbolTable
 70
1
  0
STYLE
  5
11
100
AcDbSymbolTableRecord
100
AcDbTextStyleTableRecord
  2
STANDARD
 70
0
 40
0.0
 41
0.8
 50
0.0
 71
0
 42
0.2
  3
txt
  4

  0
STYLE
  5
210
100
AcDbSymbolTableRecord
100
AcDbTextStyleTableRecord
  2
TEXTSTYLE_1
 70
0
 40
0.0
 41
0.8
 50
0.0
 71
0
 42
0.2
  3
gdt
  4

  0
ENDTAB
  0
TABLE
  2
VIEW
  5
6
100
AcDbSymbolTable
 70
0
  0
ENDTAB
  0
TABLE
  2
UCS
  5
7
100
AcDbSymbolTable
 70
0
  0
ENDTAB
  0
TABLE
  2
APPID
  5
9
100
AcDbSymbolTable
 70
1
  0
APPID
  5
211
100
AcDbSymbolTableRecord
100
AcDbRegAppTableRecord
  2
ACAD
 70
0
  0
ENDTAB
  0
TABLE
  2
BLOCK_RECORD
  5
1
100
AcDbSymbolTable
 70
0
  0
BLOCK_RECORD
  5
212
100
AcDbSymbolTableRecord
100
AcDbBlockTableRecord
  2
*Model_Space
  0
BLOCK_RECORD
  5
213
100
AcDbSymbolTableRecord
100
AcDbBlockTableRecord
  2
*Paper_Space
  0
ENDTAB
  0
TABLE
  2
DIMSTYLE
  5
A
100
AcDbSymbolTable
 70
1
100
AcDbDimStyleTable
 71
0
  0
DIMSTYLE
105
214
100
AcDbSymbolTableRecord
100
AcDbDimStyleTableRecord
  2
STANDARD
 70
0
  3

  4

 40
1.0
 41
3.0
 42
0.5
 43
0.38
 44
1.5
 45
0.0
 46
0.0
 47
0.01
 48
0.01
140
3.0
141
0.09
142
0.0
143
25.4
144
1.0
145
0.0
146
1.0
147
0.625
 71
1.0
 72
0.0
 73
0
 74
0
 75
0
 76
0
 77
1
 78
8
170
0
171
1
172
0
173
0
174
0
175
0
176
0
177
0
178
0
270
2
271
2
272
2
273
2
274
2
275
0
280
0
281
0
282
0
283
1
284
8
285
0
286
0
287
3
288
0
340
11
278
44
  0
ENDTAB
  0
ENDSEC
  0
SECTION
  2
BLOCKS
  0
BLOCK
  5
20
100
AcDbEntity
  8
0
100
AcDbBlockBegin
  2
*Model_Space
 70
0
 10
0.0
 20
0.0
 30
0.0
  3
*Model_Space
  1

  0
ENDBLK
  5
21
100
AcDbEntity
  8
0
100
AcDbBlockEnd
  0
BLOCK
  5
1C
100
AcDbEntity
  8
0
100
AcDbBlockBegin
  2
*Paper_Space
 70
0
 10
0.0
 20
0.0
 30
0.0
  3
*Paper_Space
  1

  0
ENDBLK
  5
1D
100
AcDbEntity
  8
0
100
AcDbBlockEnd
  0
ENDSEC
  0
SECTION
  2
ENTITIES
  0
LINE
  5
215
100
AcDbEntity
  8
0
100
AcDbLine
 62
7
  6
CONTINUOUS
 10
-5.9700288268
 20
23.6822042881
 11
-5.9685745838
 21
23.6830439498
  0
LINE
  5
216
100
AcDbEntity
  8
0
100
AcDbLine
 62
7
  6
CONTINUOUS
 10
-5.9685745979
 20
23.6830439418
 11
-5.4336962964
 21
23.9847309565
  0
LINE
  5
217
100
AcDbEntity
  8
0
100
AcDbLine
 62
253
  6
CONTINUOUS
 10
-5.8442995475
 20
23.6702420608
 11
-5.3098496688
 21
23.9716874325
  0
LWPOLYLINE
  5
218
100
AcDbEntity
  8
0
100
AcDbPolyline
 62
253
  6
CONTINUOUS
 90
18
 70
0
 10
-7.5532089099
 20
22.7466999932
 10
-7.5494530826
 20
22.74879059
 10
-7.5432227214
 20
22.7517318796
 10
-7.5367268628
 20
22.7541740812
 10
-7.5299802107
 20
22.7561116759
 10
-7.522998008
 20
22.7575402866
 10
-7.5157960047
 20
22.7584566784
 10
-7.5083905813
 20
22.7588587546
 10
-7.50079868
 20
22.7587456079
 10
-7.4930376166
 20
22.758117535
 10
-7.4851248834
 20
22.7569759895
 10
-7.4770782635
 20
22.7553235504
 10
-7.4689147606
 20
22.7531636012
 10
-7.4606540663
 20
22.7505012453
 10
-7.4523184937
 20
22.7473439769
 10
-7.44392821
 20
22.7437001348
 10
-7.4355010681
 20
22.7395781673
 10
-7.4270561506
 20
22.7349880007
  0
LWPOLYLINE
  5
219
100
AcDbEntity
  8
0
100
AcDbPolyline
 62
7
  6
CONTINUOUS
 90
18
 70
0
 10
-5.9685745838
 20
23.6830439498
 10
-5.9662877127
 20
23.6842871569
 10
-5.9600620409
 20
23.6872273485
 10
-5.9535741084
 20
23.6896666794
 10
-5.9468386196
 20
23.6915996202
 10
-5.9398708803
 20
23.6930217669
 10
-5.9326866233
 20
23.6939299282
 10
-5.9253021077
 20
23.6943220568
 10
-5.9177341533
 20
23.6941972158
 10
-5.9099998318
 20
23.6935557308
 10
-5.9021166259
 20
23.6923990779
 10
-5.8941025264
 20
23.6907298061
 10
-5.885975596
 20
23.6885517507
 10
-5.877754185
 20
23.6858698813
 10
-5.8694570882
 20
23.6826901798
 10
-5.8611030949
 20
23.6790198552
 10
-5.8527109457
 20
23.6748673265
 10
-5.8442995475
 20
23.6702420608
  0
LWPOLYLINE
  5
21A
100
AcDbEntity
  8
0
100
AcDbPolyline
 62
253
  6
CONTINUOUS
 90
3
 70
0
 10
-5.4336962964
 20
23.9847309565
 10
-5.4313954945
 20
23.9859814399
 10
-5.4251717373
 20
23.9889189164
  0
LINE
  5
21B
100
AcDbEntity
  8
0
100
AcDbLine
 62
7
  6
CONTINUOUS
 10
-5.4062023368
 20
23.9980925588
 11
-5.4337390327
 21
23.9847068354
  0
LWPOLYLINE
  5
21C
100
AcDbEntity
  8
0
100
AcDbPolyline
 62
253
  6
CONTINUOUS
 90
16
 70
0
 10
-5.4251717373
 20
23.9889189164
 10
-5.4186890565
 20
23.9913535093
 10
-5.4119621262
 20
23.9932797169
 10
-5.4050061446
 20
23.9946931879
 10
-5.3978368027
 20
23.9955907213
 10
-5.390470407
 20
23.9959702635
 10
-5.38292381
 20
23.9958309586
 10
-5.3752142239
 20
23.9951731634
 10
-5.3673590247
 20
23.9939983984
 10
-5.359375866
 20
23.9923093177
 10
-5.3512816184
 20
23.9901093813
 10
-5.3430958077
 20
23.9874037886
 10
-5.3348405415
 20
23.9842001522
 10
-5.3265357858
 20
23.9805069274
 10
-5.3181992043
 20
23.9763326714
 10
-5.3098496688
 20
23.9716874325
  0
LWPOLYLINE
  5
21D
100
AcDbEntity
  8
RACCORDO
100
AcDbPolyline
 62
253
  6
CONTINUOUS
 90
16
 70
0
 10
-7.0356771925
 20
21.5761129052
 10
-7.0674407284
 20
21.5532162081
 10
-7.0948073421
 20
21.5292069278
 10
-7.1177770335
 20
21.5040850644
 10
-7.1364654377
 20
21.477570508
 10
-7.1507569196
 20
21.4499433684
 10
-7.1603045742
 20
21.4220439754
 10
-7.1650018983
 20
21.3938855008
 10
-7.1649553951
 20
21.3654547727
 10
-7.1601376692
 20
21.3375526057
 10
-7.1504340133
 20
21.3101587705
 10
-7.1359591348
 20
21.2832934963
 10
-7.1170297602
 20
21.2578182849
 10
-7.0937514651
 20
21.2340203036
 10
-7.0660186739
 20
21.211612385
 10
-7.0338313867
 20
21.1905945292
  0
LWPOLYLINE
  5
21E
100
AcDbEntity
  8
0
100
AcDbPolyline
 62
7
  6
CONTINUOUS
 90
15
 70
0
 10
-11.135173257
 20
19.3116397163
 10
-11.1659530823
 20
19.2905303409
 10
-11.2294775682
 20
19.2415347161
 10
-11.2894490242
 20
19.1879529342
 10
-11.3460531206
 20
19.1299827483
 10
-11.3992035923
 20
19.0679517916
 10
-11.4485001948
 20
19.0025482077
 10
-11.4938923887
 20
18.9340260484
 10
-11.5352785666
 20
18.8625937522
 10
-11.5722016962
 20
18.7890629779
 10
-11.6045471949
 20
18.7136473727
 10
-11.6321419306
 20
18.6365300161
 10
-11.6546039013
 20
18.5584360142
 10
-11.6717165868
 20
18.4796311367
 10
-11.6819325138
 20
18.4116944594
  0
LINE
  5
21F
100
AcDbEntity
  8
0
100
AcDbLine
 62
7
  6
CONTINUOUS
 10
-11.1353689863
 20
19.3115109571
 11
-7.2930468633
 21
21.8454862615
  0
LINE
  5
220
100
AcDbEntity
  8
0
100
AcDbLine
 62
253
  6
CONTINUOUS
 10
-10.8785995643
 20
19.2911004732
 11
-7.1396384485
 21
21.7569101655
  0
LINE
  5
221
100
AcDbEntity
  8
RACCORDO
100
AcDbLine
 62
253
  6
CONTINUOUS
 10
-6.9686981332
 20
21.6193152373
 11
-7.0356771925
 21
21.5761129052
  0
LWPOLYLINE
  5
222
100
AcDbEntity
  8
0
100
AcDbPolyline
 62
253
  6
CONTINUOUS
 90
22
 70
0
 10
-11.1351733075
 20
19.311639793
 10
-11.1321861264
 20
19.3135546492
 10
-11.1224715703
 20
19.3191484285
 10
-11.1123319349
 20
19.324053593
 10
-11.1017836475
 20
19.3282621957
 10
-11.0908437976
 20
19.3317674182
 10
-11.0795301089
 20
19.3345635815
 10
-11.0678609112
 20
19.3366461556
 10
-11.0558551097
 20
19.3380117665
 10
-11.0435321554
 20
19.3386582017
 10
-11.0309120128
 20
19.338584414
 10
-11.0180151281
 20
19.3377905228
 10
-11.0048623958
 20
19.3362778143
 10
-10.9914751249
 20
19.3340487394
 10
-10.9778750043
 20
19.3311069093
 10
-10.9640840678
 20
19.3274570902
 10
-10.9501246583
 20
19.3231051953
 10
-10.9360193918
 20
19.3180582751
 10
-10.9217911205
 20
19.3123245063
 10
-10.9074628958
 20
19.3059131781
 10
-10.8930579311
 20
19.2988346778
 10
-10.8785995643
 20
19.2911004732
  0
LINE
  5
223
100
AcDbEntity
  8
RACCORDO
100
AcDbLine
 62
253
  6
CONTINUOUS
 10
-10.2819645094
 20
18.9466108701
 11
-8.8551258376
 21
19.8270442317
  0
LINE
  5
224
100
AcDbEntity
  8
0
100
AcDbLine
 62
7
  6
CONTINUOUS
 10
-7.5532089099
 20
22.7466999932
 11
-5.9700288409
 21
23.6822042801
  0
LINE
  5
225
100
AcDbEntity
  8
0
100
AcDbLine
 62
253
  6
CONTINUOUS
 10
-7.4270561506
 20
22.7349880007
 11
-5.8442995475
 21
23.6702420608
  0
LINE
  5
226
100
AcDbEntity
  8
0
100
AcDbLine
 62
253
  6
CONTINUOUS
 10
-5.7485180802
 20
21.7658211559
 11
-3.6189701176
 21
22.9953947713
  0
LWPOLYLINE
  5
227
100
AcDbEntity
  8
0
100
AcDbPolyline
 62
7
  6
CONTINUOUS
 90
7
 70
0
 10
3.4010520305
 20
24.0722693365
 10
3.4126936174
 20
24.075692915
 10
3.4246781835
 20
24.0785128128
 10
3.437001625
 20
24.0807195494
 10
3.4496754731
 20
24.0822988679
 10
3.4626801921
 20
24.0832438305
 10
3.4760129064
 20
24.0835440849
  0
LINE
  5
228
100
AcDbEntity
  8
0
100
AcDbLine
 62
253
  6
CONTINUOUS
 10
8.8614615787
 20
-23.678795276
 11
8.3331944069
 21
-23.633152333
  0
LINE
  5
229
100
AcDbEntity
  8
0
100
AcDbLine
 62
253
  6
CONTINUOUS
 10
8.7720477833
 20
-23.3495168385
 11
8.3774041354
 21
-23.3154191348
  0
LWPOLYLINE
  5
22A
100
AcDbEntity
  8
0
100
AcDbPolyline
 62
7
  6
CONTINUOUS
 90
40
 70
0
 10
7.4431342242
 20
-24.0239551085
 10
7.4373955409
 20
-24.0233895655
 10
7.4314698213
 20
-24.0227111579
 10
7.4253583397
 20
-24.0219230642
 10
7.4190597633
 20
-24.0210324857
 10
7.4125787081
 20
-24.0200391452
 10
7.4059256805
 20
-24.0189352546
 10
7.3991027958
 20
-24.0177249067
 10
7.3921125935
 20
-24.0164119925
 10
7.3849664769
 20
-24.0149886435
 10
7.3776672925
 20
-24.0134594682
 10
7.3702182748
 20
-24.0118289046
 10
7.3626316663
 20
-24.0100890482
 10
7.3549110709
 20
-24.0082450227
 10
7.3470604354
 20
-24.0063018089
 10
7.3390927755
 20
-24.0042515108
 10
7.3310124511
 20
-24.0020997571
 10
7.3228241643
 20
-23.9998520749
 10
7.3145417102
 20
-23.9975006443
 10
7.3061702321
 20
-23.9950515927
 10
7.297715209
 20
-23.9925109931
 10
7.2891912223
 20
-23.9898711867
 10
7.2806042222
 20
-23.9871387854
 10
7.2719604928
 20
-23.9843204108
 10
7.2632754245
 20
-23.9814086765
 10
7.2545558021
 20
-23.9784106572
 10
7.2458087379
 20
-23.9753335234
 10
7.2370504561
 20
-23.9721703051
 10
7.2282886047
 20
-23.9689285065
 10
7.2195311378
 20
-23.9656158402
 10
7.2107951151
 20
-23.9622259316
 10
7.2020890765
 20
-23.9587666654
 10
7.1934218115
 20
-23.9552462756
 10
7.1848111616
 20
-23.951659191
 10
7.1762666077
 20
-23.9480136267
 10
7.1677977128
 20
-23.9443182772
 10
7.1594228673
 20
-23.9405685534
 10
7.151152464
 20
-23.9367729122
 10
7.1429968081
 20
-23.9329404453
 10
7.1402835472
 20
-23.9316306289
  0
LWPOLYLINE
  5
22B
100
AcDbEntity
  8
RACCORDO
100
AcDbPolyline
 62
253
  6
CONTINUOUS
 90
6
 70
0
 10
-10.1697786108
 20
18.7011827195
 10
-10.1443674231
 20
18.7221324662
 10
-10.1196798756
 20
18.7414369207
 10
-10.0960052268
 20
18.7590002822
 10
-10.073468509
 20
18.7748701547
 10
-10.052026062
 20
18.7892081445
  0
LWPOLYLINE
  5
22C
100
AcDbEntity
  8
RACCORDO
100
AcDbPolyline
 62
253
  6
CONTINUOUS
 90
10
 70
0
 10
-7.0338313867
 20
21.1905945292
 10
-7.0102221281
 20
21.2079766353
 10
-6.9874934907
 20
21.2293745432
 10
-6.9662909075
 20
21.2541806091
 10
-6.9472164756
 20
21.2816904064
 10
-6.9308118583
 20
21.3111227299
 10
-6.9175429034
 20
21.3416417795
 10
-6.9077864138
 20
21.3723808952
 10
-6.9018194481
 20
21.4024671675
 10
-6.8998114523
 20
21.4310462261
  0
LWPOLYLINE
  5
22D
100
AcDbEntity
  8
RACCORDO
100
AcDbPolyline
 62
7
  6
CONTINUOUS
 90
10
 70
0
 10
-10.1103176665
 20
18.7887236487
 10
-10.1663367835
 20
18.7489301432
 10
-10.2211984674
 20
18.7048467149
 10
-10.2746400052
 20
18.6567461297
 10
-10.3263915705
 20
18.6049207002
 10
-10.3761640343
 20
18.5497048865
 10
-10.4237001968
 20
18.4914268163
 10
-10.4687500809
 20
18.4304243263
 10
-10.511046531
 20
18.3670939517
 10
-10.5503553858
 20
18.3018169527
  0
LINE
  5
22E
100
AcDbEntity
  8
RACCORDO
100
AcDbLine
 62
7
  6
CONTINUOUS
 10
-10.0804944969
 20
18.807834316
 11
-10.1103176665
 21
18.7887236487
  0
LINE
  5
22F
100
AcDbEntity
  8
RACCORDO
100
AcDbLine
 62
253
  6
CONTINUOUS
 10
-10.052026062
 20
18.7892081445
 11
-10.0317069317
 21
18.8021152812
  0
LINE
  5
230
100
AcDbEntity
  8
RACCORDO
100
AcDbLine
 62
253
  6
CONTINUOUS
 10
-4.8605237684
 20
20.475679962
 11
-3.9704635857
 21
21.0371934437
  0
LINE
  5
231
100
AcDbEntity
  8
RACCORDO
100
AcDbLine
 62
253
  6
CONTINUOUS
 10
-4.712526135
 20
20.2347546005
 11
-3.8290828964
 21
20.7920936417
  0
LINE
  5
232
100
AcDbEntity
  8
RACCORDO
100
AcDbLine
 62
7
  6
CONTINUOUS
 10
-10.0805188344
 20
18.8078193328
 11
-8.6557282442
 21
19.686988922
  0
LINE
  5
233
100
AcDbEntity
  8
RACCORDO
100
AcDbLine
 62
253
  6
CONTINUOUS
 10
-10.0317069317
 20
18.8021152812
 11
-8.6048682599
 21
19.6825486428
  0
LINE
  5
234
100
AcDbEntity
  8
0
100
AcDbLine
 62
253
  6
CONTINUOUS
 10
-5.5717443765
 20
21.45964012
 11
-3.442196414
 21
22.6892137354
  0
LINE
  5
235
100
AcDbEntity
  8
DRAFT
100
AcDbLine
 62
7
  6
CONTINUOUS
 10
3.8538681839
 20
25.290566924
 11
-3.2674706314
 21
21.2796248602
  0
LWPOLYLINE
  5
236
100
AcDbEntity
  8
RACCORDO
100
AcDbPolyline
 62
253
  6
CONTINUOUS
 90
6
 70
0
 10
-10.0804945047
 20
18.8078343287
 10
-10.0755157342
 20
18.8102758254
 10
-10.0659635055
 20
18.8122799522
 10
-10.0552566257
 20
18.8115595931
 10
-10.0437207954
 20
18.8081366612
 10
-10.0317069317
 20
18.8021152812
  0
LWPOLYLINE
  5
237
100
AcDbEntity
  8
0
100
AcDbPolyline
 62
7
  6
CONTINUOUS
 90
7
 70
0
 10
4.0176915209
 20
23.6928418754
 10
4.0125227375
 20
23.6903767129
 10
4.0073450048
 20
23.6878185176
 10
4.0021583228
 20
23.6851672894
 10
3.9969626916
 20
23.6824230284
 10
3.9917581111
 20
23.6795857346
 10
3.9865445813
 20
23.6766554079
  0
LINE
  5
238
100
AcDbEntity
  8
0
100
AcDbLine
 62
7
  6
CONTINUOUS
 10
4.0577194355
 20
23.7115179828
 11
4.0176915209
 21
23.6928418754
  0
LINE
  5
239
100
AcDbEntity
  8
0
100
AcDbLine
 62
7
  6
CONTINUOUS
 10
4.0754695773
 20
23.7197039423
 11
4.0577194355
 21
23.7115179828
  0
LINE
  5
23A
100
AcDbEntity
  8
0
100
AcDbLine
 62
7
  6
CONTINUOUS
 10
4.0916042908
 20
23.7270441624
 11
4.0754695773
 21
23.7197039423
  0
LWPOLYLINE
  5
23B
100
AcDbEntity
  8
0
100
AcDbPolyline
 62
7
  6
CONTINUOUS
 90
3
 70
0
 10
3.3788615052
 20
24.0636377352
 10
3.3897713321
 20
24.0682482172
 10
3.4010520305
 20
24.0722693365
  0
LWPOLYLINE
  5
23C
100
AcDbEntity
  8
0
100
AcDbPolyline
 62
7
  6
CONTINUOUS
 90
11
 70
0
 10
3.5542432871
 20
-25.3619142561
 10
3.6062953367
 20
-25.3890964913
 10
3.6756497444
 20
-25.4169828121
 10
3.7490619691
 20
-25.4374082346
 10
3.8255499409
 20
-25.4497677893
 10
3.9044287207
 20
-25.4536874685
 10
3.9847350103
 20
-25.4489080518
 10
4.0652658948
 20
-25.4354223038
 10
4.1453405544
 20
-25.4133631104
 10
4.2245741977
 20
-25.3828388808
 10
4.2631172444
 20
-25.3647506463
  0
LINE
  5
23D
100
AcDbEntity
  8
0
100
AcDbLine
 62
7
  6
CONTINUOUS
 10
3.5549808964
 20
-25.362341741
 11
-11.3375756329
 21
-16.7635662485
  0
LINE
  5
23E
100
AcDbEntity
  8
0
100
AcDbLine
 62
253
  6
CONTINUOUS
 10
3.3540659282
 20
-25.0207876679
 11
-11.5350139312
 21
-16.4240195611
  0
LWPOLYLINE
  5
23F
100
AcDbEntity
  8
0
100
AcDbPolyline
 62
253
  6
CONTINUOUS
 90
20
 70
0
 10
-11.3456760421
 20
-16.758732354
 10
-11.3612890851
 20
-16.7484844538
 10
-11.3763505624
 20
-16.7373302172
 10
-11.3908443221
 20
-16.7252815854
 10
-11.4047552395
 20
-16.7123512062
 10
-11.4180684262
 20
-16.6985528869
 10
-11.4307696116
 20
-16.6839013616
 10
-11.4428455568
 20
-16.6684120448
 10
-11.4542833497
 20
-16.6521014347
 10
-11.465070715
 20
-16.634986934
 10
-11.4751963935
 20
-16.6170866153
 10
-11.4846495544
 20
-16.598419546
 10
-11.4934200611
 20
-16.5790056051
 10
-11.5014987744
 20
-16.5588652971
 10
-11.5088770642
 20
-16.5380200322
 10
-11.5155470034
 20
-16.5164920093
 10
-11.5215016309
 20
-16.4943040306
 10
-11.5267346312
 20
-16.4714796605
 10
-11.5312403395
 20
-16.4480431993
 10
-11.5350139312
 20
-16.4240195611
  0
LWPOLYLINE
  5
240
100
AcDbEntity
  8
RACCORDO
100
AcDbPolyline
 62
253
  6
CONTINUOUS
 90
4
 70
0
 10
-10.54966348
 20
18.2144205294
 10
-10.5290930021
 20
18.2532199401
 10
-10.5074534935
 20
18.2916025447
 10
-10.4847817811
 20
18.3294910694
  0
LINE
  5
241
100
AcDbEntity
  8
RACCORDO
100
AcDbLine
 62
7
  6
CONTINUOUS
 10
-10.5503553858
 20
18.3018169527
 11
-10.5842901238
 21
18.2392245968
  0
LWPOLYLINE
  5
242
100
AcDbEntity
  8
RACCORDO
100
AcDbPolyline
 62
253
  6
CONTINUOUS
 90
13
 70
0
 10
-10.4847817811
 20
18.3294910694
 10
-10.461057122
 20
18.3668985675
 10
-10.4363764485
 20
18.4036551355
 10
-10.410975779
 20
18.4394259827
 10
-10.3849132442
 20
18.4741607702
 10
-10.3582564504
 20
18.5078011192
 10
-10.3312914455
 20
18.5400439496
 10
-10.3040931324
 20
18.5708702272
 10
-10.2767353893
 20
18.6002648091
 10
-10.2495274534
 20
18.6279867479
 10
-10.2225463532
 20
18.6540591356
 10
-10.1958605393
 20
18.6785134671
 10
-10.1697786108
 20
18.7011827195
  0
LWPOLYLINE
  5
243
100
AcDbEntity
  8
RACCORDO
100
AcDbPolyline
 62
253
  6
CONTINUOUS
 90
10
 70
0
 10
-5.3470656624
 20
20.2166771401
 10
-5.3234565697
 20
20.2340591074
 10
-5.3007280381
 20
20.2554568683
 10
-5.279525498
 20
20.280262811
 10
-5.2604510482
 20
20.3077725407
 10
-5.2440463699
 20
20.3372048642
 10
-5.2307773372
 20
20.3677239695
 10
-5.2210207719
 20
20.3984631874
 10
-5.2150537474
 20
20.4285496055
 10
-5.2130457281
 20
20.4571288371
  0
LINE
  5
244
100
AcDbEntity
  8
0
100
AcDbLine
 62
7
  6
CONTINUOUS
 10
-1.9905645984
 20
21.0369086614
 11
-3.0450540298
 21
20.4138087356
  0
LINE
  5
245
100
AcDbEntity
  8
0
100
AcDbLine
 62
7
  6
CONTINUOUS
 10
-2.379473328
 20
20.0295107801
 11
-1.5317679421
 21
20.5246598209
  0
LINE
  5
246
100
AcDbEntity
  8
0
100
AcDbLine
 62
7
  6
CONTINUOUS
 10
3.9865445813
 20
23.6766554079
 11
-0.6117063751
 21
21.052572306
  0
LINE
  5
247
100
AcDbEntity
  8
0
100
AcDbLine
 62
7
  6
CONTINUOUS
 10
3.3456588076
 20
24.0466948215
 11
-1.9905645984
 21
21.0369086614
  0
LWPOLYLINE
  5
248
100
AcDbEntity
  8
0
100
AcDbPolyline
 62
253
  6
CONTINUOUS
 90
15
 70
0
 10
1.2798641253
 20
-22.1709776083
 10
1.3035167202
 20
-22.1831675963
 10
1.3279188299
 20
-22.1918888259
 10
1.3528930593
 20
-22.1970467515
 10
1.3783320442
 20
-22.1985767526
 10
1.4039599267
 20
-22.1963366731
 10
1.4294019069
 20
-22.1901403043
 10
1.4549219744
 20
-22.1795049179
 10
1.479977405
 20
-22.1647503887
 10
1.5033081088
 20
-22.1470550068
 10
1.5250146775
 20
-22.1264422612
 10
1.5453666649
 20
-22.1030558969
 10
1.5637099656
 20
-22.0784355361
 10
1.5801448075
 20
-22.0529846563
 10
1.5958576722
 20
-22.0251684778
  0
LWPOLYLINE
  5
249
100
AcDbEntity
  8
0
100
AcDbPolyline
 62
253
  6
CONTINUOUS
 90
31
 70
0
 10
1.2285826162
 20
-22.3936584492
 10
1.2665371702
 20
-22.4141325799
 10
1.304115457
 20
-22.4306014183
 10
1.341318405
 20
-22.4430642911
 10
1.3785081266
 20
-22.4517129694
 10
1.415326392
 20
-22.4563528687
 10
1.4506945901
 20
-22.4564030786
 10
1.4847447462
 20
-22.4513346997
 10
1.5173531599
 20
-22.4416706117
 10
1.5470561496
 20
-22.4284086482
 10
1.5733325799
 20
-22.411249843
 10
1.5967091511
 20
-22.3904891599
 10
1.6172888588
 20
-22.3680189991
 10
1.6348497038
 20
-22.3440704917
 10
1.6496135329
 20
-22.3184126393
 10
1.662345013
 20
-22.2922476021
 10
1.6730819022
 20
-22.2658074001
 10
1.6817841214
 20
-22.238861702
 10
1.689098217
 20
-22.2119201219
 10
1.6950982526
 20
-22.1850841313
 10
1.6997077726
 20
-22.1582539899
 10
1.7033474417
 20
-22.1316375658
 10
1.7060669327
 20
-22.1052927305
 10
1.7078144925
 20
-22.0791631133
 10
1.7088588895
 20
-22.0532850434
 10
1.7092354179
 20
-22.0276953353
 10
1.7089071629
 20
-22.0023583412
 10
1.7080349515
 20
-21.9772014308
 10
1.7066721008
 20
-21.9522006043
 10
1.7047642052
 20
-21.9273806449
 10
1.6587967678
 20
-21.4825012794
  0
LWPOLYLINE
  5
24A
100
AcDbEntity
  8
0
100
AcDbPolyline
 62
253
  6
CONTINUOUS
 90
34
 70
0
 10
6.3793916565
 20
-25.221171856
 10
6.3879718594
 20
-25.2258963851
 10
6.3969303827
 20
-25.2303807219
 10
6.4062470784
 20
-25.2346147789
 10
6.4159009993
 20
-25.2385890343
 10
6.425870427
 20
-25.2422945451
 10
6.4361329197
 20
-25.2457229694
 10
6.4466653887
 20
-25.2488665945
 10
6.4574441491
 20
-25.2517183522
 10
6.4684449535
 20
-25.2542718277
 10
6.4796430601
 20
-25.2565212789
 10
6.4910132799
 20
-25.2584616464
 10
6.5025300294
 20
-25.2600885656
 10
6.5141674028
 20
-25.2613983783
 10
6.5258992266
 20
-25.2623881403
 10
6.5376991097
 20
-25.2630556268
 10
6.5495405179
 20
-25.2633993383
 10
6.5613968115
 20
-25.2634185031
 10
6.573241302
 20
-25.2631130807
 10
6.5850473167
 20
-25.2624837639
 10
6.5967883362
 20
-25.2615319712
 10
6.6084380303
 20
-25.2602598375
 10
6.6199703041
 20
-25.2586702049
 10
6.6313591088
 20
-25.2567666564
 10
6.6425785875
 20
-25.2545535218
 10
6.65360337
 20
-25.2520358318
 10
6.6644088256
 20
-25.2492192378
 10
6.6749708634
 20
-25.2461100294
 10
6.6852672573
 20
-25.2427146671
 10
6.6952732381
 20
-25.2390412346
 10
6.7049621788
 20
-25.2350997563
 10
6.7143113991
 20
-25.2309000587
 10
6.7233017757
 20
-25.2264513529
 10
6.7319136161
 20
-25.2217639366
  0
LWPOLYLINE
  5
24B
100
AcDbEntity
  8
0
100
AcDbPolyline
 62
253
  6
CONTINUOUS
 90
34
 70
0
 10
6.3793916565
 20
-24.9006516831
 10
6.3879683092
 20
-24.9053743482
 10
6.3969236171
 20
-24.9098573213
 10
6.4062375294
 20
-24.9140904741
 10
6.4158894134
 20
-24.918064327
 10
6.4258574213
 20
-24.921769786
 10
6.4361184662
 20
-24.9251982283
 10
6.4466492146
 20
-24.9283418711
 10
6.4574262325
 20
-24.9311937323
 10
6.4684253106
 20
-24.9337474044
 10
6.479621736
 20
-24.9359971466
 10
6.4909903146
 20
-24.9379378934
 10
6.5025054505
 20
-24.9395652745
 10
6.5141412362
 20
-24.9408756298
 10
6.5258715195
 20
-24.9418660153
 10
6.5376699296
 20
-24.9425342049
 10
6.5495099374
 20
-24.9428786961
 10
6.561364917
 20
-24.9428987143
 10
6.5732082125
 20
-24.9425942144
 10
6.5850131928
 20
-24.941965881
 10
6.5967533118
 20
-24.9410151269
 10
6.6084021699
 20
-24.93974409
 10
6.6199335711
 20
-24.9381556284
 10
6.6313215867
 20
-24.936253314
 10
6.6425406134
 20
-24.9340414232
 10
6.6535654331
 20
-24.9315249268
 10
6.6643712439
 20
-24.9287094852
 10
6.6749337218
 20
-24.9256014365
 10
6.6852291025
 20
-24.9222077762
 10
6.6952342517
 20
-24.9185361329
 10
6.7049266903
 20
-24.9145947569
 10
6.7142846287
 20
-24.9103925084
 10
6.7232870184
 20
-24.9059388391
 10
6.7319136161
 20
-24.9012437638
  0
LINE
  5
24C
100
AcDbEntity
  8
0
100
AcDbLine
 62
253
  6
CONTINUOUS
 10
-9.8022831703
 20
-16.0245747933
 11
1.2285826162
 21
-22.3936584492
  0
LINE
  5
24D
100
AcDbEntity
  8
0
100
AcDbLine
 62
7
  6
CONTINUOUS
 10
5.4541543683
 20
-24.7714939295
 11
6.4311623117
 21
-25.3356060712
  0
LINE
  5
24E
100
AcDbEntity
  8
0
100
AcDbLine
 62
253
  6
CONTINUOUS
 10
5.5327627952
 20
-24.7323389622
 11
6.3793916565
 21
-25.221171856
  0
LINE
  5
24F
100
AcDbEntity
  8
0
100
AcDbLine
 62
253
  6
CONTINUOUS
 10
-9.7510016612
 20
-15.8018939524
 11
1.2798641253
 21
-22.1709776083
  0
LINE
  5
250
100
AcDbEntity
  8
0
100
AcDbLine
 62
253
  6
CONTINUOUS
 10
6.3793916565
 20
-24.9006516831
 11
5.8307855673
 21
-24.5838934029
  0
LINE
  5
251
100
AcDbEntity
  8
0
100
AcDbLine
 62
253
  6
CONTINUOUS
 10
6.4677800041
 20
-24.6728463587
 11
6.0900533829
 21
-24.4547517416
  0
LWPOLYLINE
  5
252
100
AcDbEntity
  8
0
100
AcDbPolyline
 62
7
  6
CONTINUOUS
 90
7
 70
0
 10
-11.5710231628
 20
-16.5376514665
 10
-11.533763955
 20
-16.5911463612
 10
-11.4924007874
 20
-16.6400594042
 10
-11.4475580733
 20
-16.6840021653
 10
-11.399867389
 20
-16.7227586167
 10
-11.3498677905
 20
-16.7562897315
 10
-11.3369544555
 20
-16.7639236563
  0
LWPOLYLINE
  5
253
100
AcDbEntity
  8
RACCORDO
100
AcDbPolyline
 62
7
  6
CONTINUOUS
 90
5
 70
0
 10
-10.6431130569
 20
18.105190414
 10
-10.667673742
 20
18.0369497718
 10
-10.6887229793
 20
17.9684864948
 10
-10.7061046032
 20
17.9001872106
 10
-10.7196903401
 20
17.8324049488
  0
LWPOLYLINE
  5
254
100
AcDbEntity
  8
RACCORDO
100
AcDbPolyline
 62
253
  6
CONTINUOUS
 90
3
 70
0
 10
-10.5839282888
 20
18.140635983
 10
-10.5673819043
 20
18.1774034219
 10
-10.54966348
 20
18.2144205294
  0
LWPOLYLINE
  5
255
100
AcDbEntity
  8
RACCORDO
100
AcDbPolyline
 62
7
  6
CONTINUOUS
 90
3
 70
0
 10
-10.5842942523
 20
18.2392164308
 10
-10.6152069325
 20
18.1728399464
 10
-10.6431130569
 20
18.105190414
  0
LINE
  5
256
100
AcDbEntity
  8
0
100
AcDbLine
 62
7
  6
CONTINUOUS
 10
-3.4069495114
 20
22.3322360535
 11
-3.4244839453
 21
22.3072403019
  0
LINE
  5
257
100
AcDbEntity
  8
0
100
AcDbLine
 62
253
  6
CONTINUOUS
 10
-3.9704635857
 20
21.6987561685
 11
-3.442196414
 21
22.3615684349
  0
LINE
  5
258
100
AcDbEntity
  8
0
100
AcDbLine
 62
7
  6
CONTINUOUS
 10
-3.9704635857
 20
21.6222043257
 11
-3.4244964134
 21
22.3072246302
  0
LWPOLYLINE
  5
259
100
AcDbEntity
  8
0
100
AcDbPolyline
 62
7
  6
CONTINUOUS
 90
37
 70
0
 10
-4.8605237684
 20
21.0736299343
 10
-4.8662624517
 20
21.066718807
 10
-4.8721881714
 20
21.0598933506
 10
-4.878299653
 20
21.0531619996
 10
-4.8845982293
 20
21.0465337508
 10
-4.8910792846
 20
21.040016567
 10
-4.8977323122
 20
21.033617417
 10
-4.9045551968
 20
21.0273449422
 10
-4.9115453991
 20
21.0212076345
 10
-4.9186915158
 20
21.0152123493
 10
-4.9259907001
 20
21.0093677566
 10
-4.9334397179
 20
21.0036823524
 10
-4.9410263264
 20
20.9981628419
 10
-4.9487469218
 20
20.9928178571
 10
-4.9565975573
 20
20.9876558259
 10
-4.9645652171
 20
20.9826832653
 10
-4.9726455415
 20
20.9779086838
 10
-4.9808338284
 20
20.973340385
 10
-4.9891162825
 20
20.968984705
 10
-4.9974877605
 20
20.9648499514
 10
-5.0059427836
 20
20.9609442192
 10
-5.0144667704
 20
20.9572736506
 10
-5.0230537704
 20
20.95384626
 10
-5.0316974999
 20
20.9506698394
 10
-5.0403825681
 20
20.9477503097
 10
-5.0491021905
 20
20.9450952838
 10
-5.0578492548
 20
20.9427121362
 10
-5.0666075365
 20
20.940606507
 10
-5.0753693879
 20
20.9387854794
 10
-5.0841268549
 20
20.9372558694
 10
-5.0928628775
 20
20.9360229317
 10
-5.1015689162
 20
20.9350930655
 10
-5.1102361812
 20
20.9344723581
 10
-5.118846831
 20
20.9341655181
 10
-5.127391385
 20
20.9341780775
 10
-5.1358602799
 20
20.9345151952
 10
-5.1426545458
 20
20.9350291337
  0
LINE
  5
25A
100
AcDbEntity
  8
0
100
AcDbLine
 62
7
  6
CONTINUOUS
 10
-1.6723665469
 20
19.1171633612
 11
-2.379473328
 21
18.6660993738
  0
LINE
  5
25B
100
AcDbEntity
  8
DRAFT
100
AcDbLine
 62
7
  6
CONTINUOUS
 10
-3.3694228217
 20
17.6049405011
 11
-4.1608171353
 21
17.1166092205
  0
LINE
  5
25C
100
AcDbEntity
  8
0
100
AcDbLine
 62
253
  6
CONTINUOUS
 10
0.0945776547
 20
19.5856282562
 11
0.3075324405
 21
19.7100162331
  0
LINE
  5
25D
100
AcDbEntity
  8
0
100
AcDbLine
 62
253
  6
CONTINUOUS
 10
0.2368217623
 20
19.341157092
 11
0.4489537967
 21
19.4650644956
  0
LINE
  5
25E
100
AcDbEntity
  8
0
100
AcDbLine
 62
7
  6
CONTINUOUS
 10
1.1560605779
 20
19.7918526444
 11
5.7715376856
 21
22.4567712809
  0
LINE
  5
25F
100
AcDbEntity
  8
0
100
AcDbLine
 62
7
  6
CONTINUOUS
 10
0.4489537967
 20
18.3220088716
 11
1.1560605779
 21
18.7260083975
  0
LINE
  5
260
100
AcDbEntity
  8
0
100
AcDbLine
 62
7
  6
CONTINUOUS
 10
0.5261744987
 20
20.3955741505
 11
4.0176915209
 21
22.3880775839
  0
LINE
  5
261
100
AcDbEntity
  8
0
100
AcDbLine
 62
7
  6
CONTINUOUS
 10
6.8170285847
 20
23.5796752457
 11
0.8797278893
 21
20.1914368538
  0
LINE
  5
262
100
AcDbEntity
  8
0
100
AcDbLine
 62
253
  6
CONTINUOUS
 10
0.3075324405
 20
19.7100162331
 11
1.0146392217
 21
20.1135407413
  0
LINE
  5
263
100
AcDbEntity
  8
0
100
AcDbLine
 62
253
  6
CONTINUOUS
 10
0.4489537967
 20
19.4650644956
 11
1.1560605779
 21
19.8685890038
  0
LINE
  5
264
100
AcDbEntity
  8
SMUSSO
100
AcDbLine
 62
7
  6
CONTINUOUS
 10
-3.3694228217
 20
16.8523071364
 11
-3.5421692613
 21
16.7594096915
  0
LWPOLYLINE
  5
265
100
AcDbEntity
  8
0
100
AcDbPolyline
 62
7
  6
CONTINUOUS
 90
3
 70
0
 10
8.9674389892
 20
20.8349197221
 10
8.9783447918
 20
20.8396554214
 10
8.9896253172
 20
20.8437967949
  0
LWPOLYLINE
  5
266
100
AcDbEntity
  8
0
100
AcDbPolyline
 62
7
  6
CONTINUOUS
 90
8
 70
0
 10
8.9896253172
 20
20.8437967949
 10
9.0012703387
 20
20.8473356196
 10
9.0132619556
 20
20.8502656038
 10
9.0255955751
 20
20.8525773449
 10
9.0382817075
 20
20.8542569364
 10
9.0513009337
 20
20.8552972785
 10
9.0646497394
 20
20.855688232
 10
9.0783660202
 20
20.8554073851
  0
LWPOLYLINE
  5
267
100
AcDbEntity
  8
0
100
AcDbPolyline
 62
253
  6
CONTINUOUS
 90
7
 70
0
 10
8.8084323246
 20
-23.3606851821
 10
8.8030728133
 20
-23.3578670088
 10
8.7972721274
 20
-23.3553438481
 10
8.7912572022
 20
-23.3532440861
 10
8.7850404373
 20
-23.3515714455
 10
8.7786331748
 20
-23.350328392
 10
8.7720477833
 20
-23.3495168385
  0
LINE
  5
268
100
AcDbEntity
  8
0
100
AcDbLine
 62
253
  6
CONTINUOUS
 10
8.8086654757
 20
-23.3608192993
 11
8.8084323246
 21
-23.3606851821
  0
LINE
  5
269
100
AcDbEntity
  8
0
100
AcDbLine
 62
253
  6
CONTINUOUS
 10
8.5575683369
 20
-23.2256790942
 11
8.7720477833
 21
-23.3495168385
  0
LINE
  5
26A
100
AcDbEntity
  8
0
100
AcDbLine
 62
7
  6
CONTINUOUS
 10
8.5667177908
 20
-23.2211217384
 11
8.8086654757
 21
-23.3608192993
  0
LWPOLYLINE
  5
26B
100
AcDbEntity
  8
0
100
AcDbPolyline
 62
253
  6
CONTINUOUS
 90
7
 70
0
 10
-14.9237262717
 20
-4.898983956
 10
-14.9514648131
 20
-4.8177954435
 10
-14.9720776086
 20
-4.7301578182
 10
-14.9854207094
 20
-4.6366830954
 10
-14.9914009343
 20
-4.5380240531
 10
-14.9899765207
 20
-4.4348696738
 10
-14.9811574158
 20
-4.3279403331
  0
LWPOLYLINE
  5
26C
100
AcDbEntity
  8
0
100
AcDbPolyline
 62
253
  6
CONTINUOUS
 90
9
 70
0
 10
-15.1278540703
 20
-4.1262081154
 10
-15.1278258725
 20
-4.1542193472
 10
-15.1221226489
 20
-4.1803462917
 10
-15.1110400675
 20
-4.2065066702
 10
-15.0946995513
 20
-4.2324138641
 10
-15.0732801305
 20
-4.2577840289
 10
-15.0470164806
 20
-4.2823392036
 10
-15.0161963518
 20
-4.3058103566
 10
-14.9811574158
 20
-4.3279403331
  0
LWPOLYLINE
  5
26D
100
AcDbEntity
  8
0
100
AcDbPolyline
 62
7
  6
CONTINUOUS
 90
10
 70
0
 10
-11.6818998538
 20
18.4119725077
 10
-11.8042730203
 20
17.3385536906
 10
-11.922400369
 20
16.1938983653
 10
-12.0270449103
 20
15.0552828008
 10
-12.1181823682
 20
13.9229494789
 10
-12.1957913316
 20
12.7971365203
 10
-12.259852706
 20
11.6780829874
 10
-12.3103500253
 20
10.5660242665
 10
-12.3472692421
 20
9.4611977803
 10
-12.3693596156
 20
8.4435022884
  0
LWPOLYLINE
  5
26E
100
AcDbEntity
  8
0
100
AcDbPolyline
 62
253
  6
CONTINUOUS
 90
37
 70
0
 10
-14.9811574158
 20
-4.3279403331
 10
-14.9392554156
 20
-3.9863853333
 10
-14.893001987
 20
-3.6499313251
 10
-14.8427449365
 20
-3.3188281401
 10
-14.7890442274
 20
-2.9945818806
 10
-14.7320484579
 20
-2.6761451047
 10
-14.6713163854
 20
-2.3598620254
 10
-14.6068170866
 20
-2.0449614334
 10
-14.5388792406
 20
-1.7324838682
 10
-14.4673934828
 20
-1.4214202682
 10
-14.3924557575
 20
-1.1118120622
 10
-14.314195485
 20
-0.8038405632
 10
-14.2324729825
 20
-0.4966830103
 10
-14.1473706115
 20
-0.1904513463
 10
-14.0589626181
 20
0.114775211
 10
-13.9670269851
 20
0.4198824327
 10
-13.8715987602
 20
0.7248099681
 10
-13.7727302064
 20
1.0294445632
 10
-13.6701591178
 20
1.3345992181
 10
-13.5638894662
 20
1.6402190277
 10
-13.4539469931
 20
1.9461882571
 10
-13.340044374
 20
2.2532283013
 10
-13.2221678116
 20
2.5612616302
 10
-13.1003138595
 20
2.870185514
 10
-12.9741589559
 20
3.1806770535
 10
-12.8436608723
 20
3.4926650649
 10
-12.708802583
 20
3.8060187811
 10
-12.5692520209
 20
4.1213138195
 10
-12.4251052276
 20
4.4381252994
 10
-12.2761819128
 20
4.7566450825
 10
-12.1216621917
 20
5.0783474805
 10
-11.9621274114
 20
5.4017367543
 10
-11.7968446623
 20
5.7280163939
 10
-11.6227835121
 20
6.0626101002
 10
-11.438667071
 20
6.4071116854
 10
-11.2451845416
 20
6.7593634411
 10
-11.0420692871
 20
7.1190520879
  0
LWPOLYLINE
  5
26F
100
AcDbEntity
  8
0
100
AcDbPolyline
 62
253
  6
CONTINUOUS
 90
43
 70
0
 10
-11.5350139312
 20
18.2118212008
 10
-11.5312402685
 20
18.2402798914
 10
-11.5267345038
 20
18.2690112758
 10
-11.5215014795
 20
18.2979848617
 10
-11.5155469091
 20
18.327169799
 10
-11.5088771014
 20
18.3565352276
 10
-11.5014989185
 20
18.386050318
 10
-11.4934202021
 20
18.4156840166
 10
-11.4846496262
 20
18.4454046557
 10
-11.4751964147
 20
18.4751803046
 10
-11.4650707613
 20
18.5049792771
 10
-11.4542834599
 20
18.5347700994
 10
-11.4428457266
 20
18.5645211261
 10
-11.4307698197
 20
18.5942008579
 10
-11.4180686628
 20
18.6237778075
 10
-11.4047554858
 20
18.6532204652
 10
-11.3908445437
 20
18.6824976816
 10
-11.3763507341
 20
18.7115783907
 10
-11.3612892137
 20
18.7404314761
 10
-11.345676152
 20
18.7690263523
 10
-11.3295282414
 20
18.7973327617
 10
-11.3128623118
 20
18.8253204964
 10
-11.2956962286
 20
18.8529599321
 10
-11.278048367
 20
18.8802217973
 10
-11.2599371218
 20
18.9070769706
 10
-11.2413818823
 20
18.9334970662
 10
-11.2224025342
 20
18.9594540823
 10
-11.2030189331
 20
18.984920172
 10
-11.1832518844
 20
19.0098683689
 10
-11.1631225291
 20
19.0342723137
 10
-11.142651844
 20
19.0581059002
 10
-11.1218617807
 20
19.0813439158
 10
-11.1007745914
 20
19.1039618041
 10
-11.0794122126
 20
19.1259353858
 10
-11.0577974449
 20
19.1472415288
 10
-11.0359535241
 20
19.1678576123
 10
-11.0139034481
 20
19.1877613025
 10
-10.9916710313
 20
19.2069314359
 10
-10.9692799114
 20
19.2253479569
 10
-10.9467531134
 20
19.2429913497
 10
-10.9241144453
 20
19.2598429416
 10
-10.9013884801
 20
19.275884962
 10
-10.8785995643
 20
19.2911004732
  0
LWPOLYLINE
  5
270
100
AcDbEntity
  8
RACCORDO
100
AcDbPolyline
 62
253
  6
CONTINUOUS
 90
3
 70
0
 10
-10.68762947
 20
17.8074973657
 10
-10.6820007577
 20
17.8362475492
 10
-10.675415987
 20
17.8663230752
  0
LWPOLYLINE
  5
271
100
AcDbEntity
  8
RACCORDO
100
AcDbPolyline
 62
253
  6
CONTINUOUS
 90
9
 70
0
 10
-10.675415987
 20
17.8663230752
 10
-10.6678489347
 20
17.8975219643
 10
-10.6592337272
 20
17.9298305384
 10
-10.6495089572
 20
17.9632099197
 10
-10.6386874415
 20
17.9974051185
 10
-10.6267268735
 20
18.0323707447
 10
-10.6135856094
 20
18.0680562844
 10
-10.5993149931
 20
18.1041889495
 10
-10.5839282888
 20
18.140635983
  0
LINE
  5
272
100
AcDbEntity
  8
0
100
AcDbLine
 62
7
  6
CONTINUOUS
 10
0.2368217623
 20
18.1866896753
 11
0.4489537967
 21
18.3220088716
  0
LINE
  5
273
100
AcDbEntity
  8
0
100
AcDbLine
 62
253
  6
CONTINUOUS
 10
1.7842596105
 20
18.6012396244
 11
1.7916339295
 21
18.6057692323
  0
LINE
  5
274
100
AcDbEntity
  8
0
100
AcDbLine
 62
7
  6
CONTINUOUS
 10
1.904295143
 20
18.7398969489
 11
1.6915830485
 21
18.6156507292
  0
LINE
  5
275
100
AcDbEntity
  8
0
100
AcDbLine
 62
253
  6
CONTINUOUS
 10
2.0045887153
 20
18.7301572091
 11
1.7916339295
 21
18.6057692323
  0
LINE
  5
276
100
AcDbEntity
  8
0
100
AcDbLine
 62
7
  6
CONTINUOUS
 10
1.9048768495
 20
18.7402328075
 11
1.9042951475
 21
18.7398969515
  0
LINE
  5
277
100
AcDbEntity
  8
0
100
AcDbLine
 62
7
  6
CONTINUOUS
 10
2.6119836352
 20
19.1437573183
 11
1.904876854
 21
18.7402328101
  0
LINE
  5
278
100
AcDbEntity
  8
0
100
AcDbLine
 62
253
  6
CONTINUOUS
 10
2.7116954965
 20
19.1336817173
 11
2.0045887153
 21
18.7301572091
  0
LINE
  5
279
100
AcDbEntity
  8
0
100
AcDbLine
 62
7
  6
CONTINUOUS
 10
8.9362920496
 20
20.8187332546
 11
4.3380410932
 21
18.1946501527
  0
LWPOLYLINE
  5
27A
100
AcDbEntity
  8
0
100
AcDbPolyline
 62
7
  6
CONTINUOUS
 90
7
 70
0
 10
8.9674389892
 20
20.8349197221
 10
8.9622702058
 20
20.8324545596
 10
8.9570924731
 20
20.8298963643
 10
8.9519057911
 20
20.8272451361
 10
8.9467101599
 20
20.8245008751
 10
8.9415055794
 20
20.8216635813
 10
8.9362920496
 20
20.8187332546
  0
LINE
  5
27B
100
AcDbEntity
  8
0
100
AcDbLine
 62
7
  6
CONTINUOUS
 10
9.6495783072
 20
20.4843185989
 11
9.6099964203
 21
20.4658585297
  0
LINE
  5
27C
100
AcDbEntity
  8
0
100
AcDbLine
 62
7
  6
CONTINUOUS
 10
9.6671251301
 20
20.4924039184
 11
9.6495783072
 21
20.4843185989
  0
LWPOLYLINE
  5
27D
100
AcDbEntity
  8
0
100
AcDbPolyline
 62
253
  6
CONTINUOUS
 90
13
 70
0
 10
-7.2098829556
 20
-12.5584711562
 10
-7.1811439774
 20
-12.5721209855
 10
-7.149968408
 20
-12.581495482
 10
-7.1168800178
 20
-12.5864371477
 10
-7.0824347139
 20
-12.5868629595
 10
-7.0472112005
 20
-12.5827657634
 10
-7.0118012562
 20
-12.5742143951
 10
-6.9767997918
 20
-12.5613525232
 10
-6.9427948554
 20
-12.5443962358
 10
-6.9103577525
 20
-12.52363041
 10
-6.8800334484
 20
-12.4994039254
 10
-6.8523314116
 20
-12.4721238033
 10
-6.8277170548
 20
-12.4422483679
  0
LWPOLYLINE
  5
27E
100
AcDbEntity
  8
0
100
AcDbPolyline
 62
253
  6
CONTINUOUS
 90
28
 70
0
 10
1.3905422304
 20
-16.3327423705
 10
1.4084749077
 20
-16.3420814314
 10
1.4260007973
 20
-16.3488926416
 10
1.4431081574
 20
-16.3530850914
 10
1.4598850501
 20
-16.3545912422
 10
1.4762026928
 20
-16.353281213
 10
1.4916837889
 20
-16.3490324983
 10
1.5061240354
 20
-16.3417796117
 10
1.5195847407
 20
-16.3315528722
 10
1.5320525565
 20
-16.3184494537
 10
1.5434188094
 20
-16.3024739936
 10
1.5536369556
 20
-16.2836199019
 10
1.5627838772
 20
-16.2619705001
 10
1.5707774469
 20
-16.2375136558
 10
1.5775383027
 20
-16.2102590219
 10
1.5831453042
 20
-16.1803093795
 10
1.587503604
 20
-16.1476900271
 10
1.5905331871
 20
-16.1123882794
 10
1.5923265275
 20
-16.0744305584
 10
1.5927802586
 20
-16.0338704908
 10
1.59179668
 20
-15.9906674432
 10
1.5894503142
 20
-15.9446653576
 10
1.5855974743
 20
-15.8958798091
 10
1.5801148514
 20
-15.8442922322
 10
1.5730488487
 20
-15.7896397682
 10
1.564268717
 20
-15.7318179648
 10
1.5535018387
 20
-15.6709258659
 10
1.540530798
 20
-15.6069946711
  0
LWPOLYLINE
  5
27F
100
AcDbEntity
  8
0
100
AcDbPolyline
 62
253
  6
CONTINUOUS
 90
28
 70
0
 10
1.428760578
 20
-16.442103847
 10
1.4578406761
 20
-16.4576489265
 10
1.4871117461
 20
-16.4698369756
 10
1.5165744113
 20
-16.4786676078
 10
1.5464861474
 20
-16.4842701497
 10
1.5765921084
 20
-16.486513645
 10
1.6061250926
 20
-16.4850068772
 10
1.6349397693
 20
-16.4796017089
 10
1.6631867833
 20
-16.470442991
 10
1.6905433012
 20
-16.4575787405
 10
1.7169688809
 20
-16.4409975804
 10
1.742511267
 20
-16.4207063873
 10
1.7669799998
 20
-16.3967805064
 10
1.7903889638
 20
-16.3692066352
 10
1.8127332748
 20
-16.3379925563
 10
1.83379418
 20
-16.3032453381
 10
1.8535728779
 20
-16.2649906998
 10
1.8720782033
 20
-16.2231968078
 10
1.8891026018
 20
-16.1778845709
 10
1.9046691272
 20
-16.1291317215
 10
1.9187657455
 20
-16.076853862
 10
1.9311325153
 20
-16.0208285727
 10
1.9418392947
 20
-15.9611054152
 10
1.9508291953
 20
-15.8976270437
 10
1.957653007
 20
-15.8300101799
 10
1.9621662229
 20
-15.7581239501
 10
1.9645287107
 20
-15.6820900871
 10
1.964748561
 20
-15.6019038008
  0
LINE
  5
280
100
AcDbEntity
  8
0
100
AcDbLine
 62
7
  6
CONTINUOUS
 10
1.315106638
 20
-18.0722859646
 11
-8.0797781079
 21
-12.6477972579
  0
LINE
  5
281
100
AcDbEntity
  8
0
100
AcDbLine
 62
253
  6
CONTINUOUS
 10
-8.0714301245
 20
-12.6428089856
 11
-7.385886163
 21
-13.0386334771
  0
LINE
  5
282
100
AcDbEntity
  8
0
100
AcDbLine
 62
253
  6
CONTINUOUS
 10
-7.9013639494
 20
-12.1592186967
 11
-7.2098829556
 21
-12.5584711562
  0
LWPOLYLINE
  5
283
100
AcDbEntity
  8
0
100
AcDbPolyline
 62
7
  6
CONTINUOUS
 90
16
 70
0
 10
-8.0797781079
 20
-12.6477972579
 10
-8.1155529598
 20
-12.6260658163
 10
-8.1528769471
 20
-12.6012758762
 10
-8.1914136623
 20
-12.5736250828
 10
-8.2307750231
 20
-12.5432676617
 10
-8.2705637747
 20
-12.5104980144
 10
-8.3103734951
 20
-12.4757493619
 10
-8.3496631926
 20
-12.4392398582
 10
-8.388005303
 20
-12.4012774179
 10
-8.4251261961
 20
-12.362445109
 10
-8.4604744838
 20
-12.3229463802
 10
-8.493532841
 20
-12.2831385003
 10
-8.5240612082
 20
-12.2438402349
 10
-8.5516199058
 20
-12.2055052668
 10
-8.5755793768
 20
-12.168216674
 10
-8.5954298802
 20
-12.1322232592
  0
LINE
  5
284
100
AcDbEntity
  8
0
100
AcDbLine
 62
253
  6
CONTINUOUS
 10
8.7803803757
 20
-23.3546247533
 11
8.7720477833
 21
-23.3495168385
  0
LWPOLYLINE
  5
285
100
AcDbEntity
  8
0
100
AcDbPolyline
 62
253
  6
CONTINUOUS
 90
31
 70
0
 10
-10.8395420756
 20
-9.3585396527
 10
-10.8282649383
 20
-9.3656632541
 10
-10.8163081652
 20
-9.3744997738
 10
-10.8036936741
 20
-9.385025971
 10
-10.7903981844
 20
-9.3972804252
 10
-10.7764930693
 20
-9.4111758022
 10
-10.7621596784
 20
-9.4265142718
 10
-10.747469441
 20
-9.4433313475
 10
-10.7324390729
 20
-9.4615802935
 10
-10.7171857176
 20
-9.4809618736
 10
-10.7017865285
 20
-9.5014562553
 10
-10.6862549721
 20
-9.5230928825
 10
-10.6706137523
 20
-9.5456523352
 10
-10.6549258364
 20
-9.5690883091
 10
-10.6392073001
 20
-9.5934589892
 10
-10.6234065119
 20
-9.6186928847
 10
-10.6075600666
 20
-9.6447659905
 10
-10.5917027269
 20
-9.6717029727
 10
-10.5757794889
 20
-9.6994905403
 10
-10.5598284667
 20
-9.728109319
 10
-10.5438862385
 20
-9.757569456
 10
-10.527900552
 20
-9.7878871279
 10
-10.5119069895
 20
-9.8190706203
 10
-10.4959591608
 20
-9.8510929692
 10
-10.4800417631
 20
-9.8839052223
 10
-10.4642260798
 20
-9.9174773079
 10
-10.4485512615
 20
-9.9518204781
 10
-10.4329722519
 20
-9.9869341525
 10
-10.4175302317
 20
-10.0228049135
 10
-10.4023410517
 20
-10.0594187398
 10
-10.3874887978
 20
-10.0967685571
  0
LINE
  5
286
100
AcDbEntity
  8
0
100
AcDbLine
 62
7
  6
CONTINUOUS
 10
8.8084323246
 20
-23.3606851821
 11
8.8285282282
 21
-23.3735765788
  0
LWPOLYLINE
  5
287
100
AcDbEntity
  8
0
100
AcDbPolyline
 62
253
  6
CONTINUOUS
 90
19
 70
0
 10
-8.1406288295
 20
-11.972710482
 10
-8.1288491324
 20
-11.9847804674
 10
-8.1164954959
 20
-11.99688385
 10
-8.1035679202
 20
-12.0090206298
 10
-8.0898780914
 20
-12.0213127728
 10
-8.0756143233
 20
-12.033638313
 10
-8.061341557
 20
-12.0456313519
 10
-8.0471425092
 20
-12.057224309
 10
-8.0329344632
 20
-12.0684847648
 10
-8.0190342099
 20
-12.0792495617
 10
-8.005607451
 20
-12.0894074474
 10
-7.9924884848
 20
-12.0990696742
 10
-7.9794969977
 20
-12.1084068428
 10
-7.9666654985
 20
-12.1174286396
 10
-7.9539614784
 20
-12.1261253781
 10
-7.9411070974
 20
-12.1346385989
 10
-7.9280097423
 20
-12.1430154824
 10
-7.9147620263
 20
-12.1512088484
 10
-7.9013639494
 20
-12.1592186967
  0
LWPOLYLINE
  5
288
100
AcDbEntity
  8
0
100
AcDbPolyline
 62
253
  6
CONTINUOUS
 90
4
 70
0
 10
-14.8758812963
 20
-5.0381827942
 10
-14.8671127665
 20
-5.0472201368
 10
-14.8353035002
 20
-5.0748967184
 10
-14.7999336429
 20
-5.098433643
  0
LWPOLYLINE
  5
289
100
AcDbEntity
  8
0
100
AcDbPolyline
 62
253
  6
CONTINUOUS
 90
22
 70
0
 10
-10.0015883738
 20
-9.9784268112
 10
-10.0412555733
 20
-9.9368091273
 10
-10.081796791
 20
-9.8954090482
 10
-10.123212027
 20
-9.8542265739
 10
-10.1656432922
 20
-9.8131764694
 10
-10.2089485757
 20
-9.7723439698
 10
-10.2527018442
 20
-9.7319847795
 10
-10.296864606
 20
-9.6921089385
 10
-10.3414753529
 20
-9.652706407
 10
-10.3862235267
 20
-9.6140027698
 10
-10.4311341463
 20
-9.5759623155
 10
-10.4761821927
 20
-9.5386207555
 10
-10.5209820512
 20
-9.5023108099
 10
-10.5656774767
 20
-9.4669198872
 10
-10.6101247143
 20
-9.4325605789
 10
-10.6535068851
 20
-9.3999033789
 10
-10.6959975974
 20
-9.3688705729
 10
-10.7374232429
 20
-9.3395398753
 10
-10.7764461185
 20
-9.3128149232
 10
-10.8126203233
 20
-9.2889969288
 10
-10.8463917582
 20
-9.2677846798
 10
-10.8777604232
 20
-9.2491781763
  0
LWPOLYLINE
  5
28A
100
AcDbEntity
  8
0
100
AcDbPolyline
 62
253
  6
CONTINUOUS
 90
6
 70
0
 10
-11.0742577681
 20
-9.1121648055
 10
-11.0669196197
 20
-9.1198994847
 10
-11.0453886749
 20
-9.1410857526
 10
-11.0244584371
 20
-9.1593980399
 10
-11.0039233401
 20
-9.1750338789
 10
-10.9838264404
 20
-9.1879369873
  0
LINE
  5
28B
100
AcDbEntity
  8
0
100
AcDbLine
 62
253
  6
CONTINUOUS
 10
-7.2098829556
 20
-12.5584711562
 11
-13.197842023
 21
-6.1922920694
  0
LINE
  5
28C
100
AcDbEntity
  8
0
100
AcDbLine
 62
253
  6
CONTINUOUS
 10
-10.3875005292
 20
-10.0967559851
 11
-8.5265292535
 21
-12.0910522278
  0
LINE
  5
28D
100
AcDbEntity
  8
0
100
AcDbLine
 62
7
  6
CONTINUOUS
 10
-11.0742471853
 20
-9.1121761559
 11
-14.8758812964
 21
-5.0381827941
  0
LINE
  5
28E
100
AcDbEntity
  8
0
100
AcDbLine
 62
253
  6
CONTINUOUS
 10
-10.9838264404
 20
-9.1879369873
 11
-14.7999336439
 21
-5.098433642
  0
LINE
  5
28F
100
AcDbEntity
  8
0
100
AcDbLine
 62
253
  6
CONTINUOUS
 10
-10.0015883738
 20
-9.9784268112
 11
-8.1406288295
 21
-11.972710482
  0
LWPOLYLINE
  5
290
100
AcDbEntity
  8
0
100
AcDbPolyline
 62
253
  6
CONTINUOUS
 90
6
 70
0
 10
-11.1018430564
 20
-9.1628324157
 10
-11.0710444896
 20
-9.1964611623
 10
-11.0399330837
 20
-9.2268637783
 10
-11.0088011992
 20
-9.2535662411
 10
-10.9773593052
 20
-9.2770443267
 10
-10.9456080928
 20
-9.2972984637
  0
LWPOLYLINE
  5
291
100
AcDbEntity
  8
0
100
AcDbPolyline
 62
253
  6
CONTINUOUS
 90
19
 70
0
 10
-13.197842023
 20
-6.1922920694
 10
-13.2249502627
 20
-6.1625567617
 10
-13.2486895916
 20
-6.1353303867
 10
-13.2690600096
 20
-6.1106129446
 10
-13.2858576913
 20
-6.0885237503
 10
-13.2992864621
 20
-6.0689434887
 10
-13.3099577989
 20
-6.0515142147
 10
-13.317914024
 20
-6.0362102328
 10
-13.3231128149
 20
-6.0230572384
 10
-13.3260386817
 20
-6.0117743733
 10
-13.3267118398
 20
-6.0023584204
 10
-13.3251120737
 20
-5.9948125968
 10
-13.3216632463
 20
-5.9888656947
 10
-13.3163933185
 20
-5.9845065326
 10
-13.3092743294
 20
-5.9817462919
 10
-13.30064626
 20
-5.9803473095
 10
-13.2906224372
 20
-5.9802303642
 10
-13.279089534
 20
-5.9814746771
 10
-13.2660475504
 20
-5.9840802482
  0
LWPOLYLINE
  5
292
100
AcDbEntity
  8
0
100
AcDbPolyline
 62
253
  6
CONTINUOUS
 90
10
 70
0
 10
-10.8777604137
 20
-9.2491781818
 10
-10.8703595093
 20
-9.2579768187
 10
-10.8636952895
 20
-9.2677182656
 10
-10.8577947997
 20
-9.2783628821
 10
-10.8526819998
 20
-9.2898673266
 10
-10.8483776036
 20
-9.3021848294
 10
-10.8448990146
 20
-9.3152654014
 10
-10.8422603311
 20
-9.3290558992
 10
-10.8404722703
 20
-9.343500223
 10
-10.8395420745
 20
-9.3585396534
  0
LWPOLYLINE
  5
293
100
AcDbEntity
  8
0
100
AcDbPolyline
 62
7
  6
CONTINUOUS
 90
10
 70
0
 10
-14.8758812964
 20
-5.038182794
 10
-14.9350909537
 20
-4.9675976332
 10
-14.9884403406
 20
-4.8884091943
 10
-15.0350077774
 20
-4.8007463449
 10
-15.0740951315
 20
-4.704275341
 10
-15.1045735827
 20
-4.5997807359
 10
-15.12544638
 20
-4.4892202615
 10
-15.1364227814
 20
-4.3734778744
 10
-15.1373351476
 20
-4.2523578398
 10
-15.1278540703
 20
-4.1262081154
  0
LINE
  5
294
100
AcDbEntity
  8
0
100
AcDbLine
 62
253
  6
CONTINUOUS
 10
-14.7999336439
 20
-5.098433642
 11
-14.8476952067
 21
-5.0397947291
  0
LWPOLYLINE
  5
295
100
AcDbEntity
  8
0
100
AcDbPolyline
 62
253
  6
CONTINUOUS
 90
4
 70
0
 10
-13.0410423153
 20
-6.0715859135
 10
-13.027633658
 20
-6.0884252217
 10
-13.0117988441
 20
-6.1018577692
 10
-13.0051934655
 20
-6.1060264188
  0
LWPOLYLINE
  5
296
100
AcDbEntity
  8
0
100
AcDbPolyline
 62
253
  6
CONTINUOUS
 90
5
 70
0
 10
-11.212283243
 20
-9.0117126752
 10
-11.1863225309
 20
-9.0519962656
 10
-11.1594838682
 20
-9.0906010748
 10
-11.1314551442
 20
-9.1274017409
 10
-11.1018430564
 20
-9.1628324157
  0
LWPOLYLINE
  5
297
100
AcDbEntity
  8
0
100
AcDbPolyline
 62
253
  6
CONTINUOUS
 90
3
 70
0
 10
-14.8476952067
 20
-5.0397947291
 10
-14.8890556959
 20
-4.9731563781
 10
-14.9237262717
 20
-4.898983956
  0
LWPOLYLINE
  5
298
100
AcDbEntity
  8
0
100
AcDbPolyline
 62
253
  6
CONTINUOUS
 90
4
 70
0
 10
-11.2790988265
 20
-8.8926483944
 10
-11.2616605555
 20
-8.926272279
 10
-11.2374130165
 20
-8.9698331875
 10
-11.212283243
 20
-9.0117126752
  0
LWPOLYLINE
  5
299
100
AcDbEntity
  8
0
100
AcDbPolyline
 62
7
  6
CONTINUOUS
 90
6
 70
0
 10
-11.6805985772
 20
-16.2305087284
 10
-11.6712142609
 20
-16.2849782931
 10
-11.6541688858
 20
-16.3529202412
 10
-11.6316411397
 20
-16.4179904846
 10
-11.6037919653
 20
-16.4797942544
 10
-11.5710231628
 20
-16.5376514665
  0
LWPOLYLINE
  5
29A
100
AcDbEntity
  8
0
100
AcDbPolyline
 62
253
  6
CONTINUOUS
 90
18
 70
0
 10
-11.6805987805
 20
-16.2305087568
 10
-11.6802010454
 20
-16.2332098205
 10
-11.6775825388
 20
-16.2471833428
 10
-11.6740476309
 20
-16.2609969329
 10
-11.6696029034
 20
-16.2746248704
 10
-11.6642566324
 20
-16.2880417805
 10
-11.6580187724
 20
-16.3012226814
 10
-11.650900938
 20
-16.3141430308
 10
-11.6429163825
 20
-16.3267787714
 10
-11.6340799728
 20
-16.3391063759
 10
-11.624408162
 20
-16.3511028908
 10
-11.6139189586
 20
-16.3627459789
 10
-11.6026318932
 20
-16.3740139612
 10
-11.5905679819
 20
-16.3848858572
 10
-11.5777496873
 20
-16.3953414238
 10
-11.5642008765
 20
-16.405361193
 10
-11.5499467771
 20
-16.4149265085
 10
-11.5350139296
 20
-16.4240195599
  0
LINE
  5
29B
100
AcDbEntity
  8
0
100
AcDbLine
 62
7
  6
CONTINUOUS
 10
-11.6806528069
 20
-16.230122601
 11
-11.6805987805
 21
-16.2305087568
  0
LWPOLYLINE
  5
29C
100
AcDbEntity
  8
0
100
AcDbPolyline
 62
253
  6
CONTINUOUS
 90
16
 70
0
 10
-11.5350139312
 20
-16.4240195611
 10
-11.6139047126
 20
-15.8377692774
 10
-11.6880967076
 20
-15.2479264688
 10
-11.7575841886
 20
-14.6545359603
 10
-11.8223617085
 20
-14.0576429118
 10
-11.88242435
 20
-13.4572926068
 10
-11.9377677243
 20
-12.8535304473
 10
-11.9883875802
 20
-12.2464022453
 10
-12.0342799861
 20
-11.6359541711
 10
-12.0754415792
 20
-11.0222325412
 10
-12.1118691993
 20
-10.4052839994
 10
-12.1435600193
 20
-9.7851553659
 10
-12.170511724
 20
-9.1618935845
 10
-12.1927222757
 20
-8.5355459294
 10
-12.2101899158
 20
-7.9061600027
 10
-12.2104224573
 20
-7.894602244
  0
LWPOLYLINE
  5
29D
100
AcDbEntity
  8
0
100
AcDbPolyline
 62
7
  6
CONTINUOUS
 90
10
 70
0
 10
-12.3543945004
 20
-7.7403156581
 10
-12.347070316
 20
-8.0683912043
 10
-12.3100360929
 20
-9.1298811303
 10
-12.2594000317
 20
-10.1825960493
 10
-12.195170513
 20
-11.2263114559
 10
-12.117358265
 20
-12.260808788
 10
-12.0259764369
 20
-13.285870558
 10
-11.9210404764
 20
-14.301281863
 10
-11.8025688205
 20
-15.306825136
 10
-11.6806528069
 20
-16.230122601
  0
LWPOLYLINE
  5
29E
100
AcDbEntity
  8
0
100
AcDbPolyline
 62
253
  6
CONTINUOUS
 90
20
 70
0
 10
-12.3693596156
 20
8.4435022884
 10
-12.3693607211
 20
8.4384396024
 10
-12.3687052299
 20
8.4262243248
 10
-12.3671203239
 20
8.4140263059
 10
-12.3646089533
 20
8.4018682522
 10
-12.3611757931
 20
8.3897727961
 10
-12.3568272342
 20
8.3777624533
 10
-12.3515713714
 20
8.3658595812
 10
-12.3454179885
 20
8.3540863369
 10
-12.3383785401
 20
8.3424646364
 10
-12.3304661301
 20
8.3310161136
 10
-12.3216954875
 20
8.31976208
 10
-12.3120829389
 20
8.308723485
 10
-12.3016463782
 20
8.2979208769
 10
-12.290405233
 20
8.2873743649
 10
-12.2783804287
 20
8.2771035814
 10
-12.2655943497
 20
8.2671276454
 10
-12.2520707972
 20
8.2574651273
 10
-12.2378349453
 20
8.2481340139
 10
-12.2229132943
 20
8.239151675
  0
LWPOLYLINE
  5
29F
100
AcDbEntity
  8
0
100
AcDbPolyline
 62
253
  6
CONTINUOUS
 90
4
 70
0
 10
-12.2611966242
 20
5.2656848327
 10
-12.2577524208
 20
5.6329017145
 10
-12.2420749309
 20
6.9350045739
 10
-12.222913296
 20
8.239151674
  0
LINE
  5
2A0
100
AcDbEntity
  8
0
100
AcDbLine
 62
253
  6
CONTINUOUS
 10
-11.5611177585
 20
6.6722963147
 11
-11.5617413188
 21
6.6212208541
  0
LWPOLYLINE
  5
2A1
100
AcDbEntity
  8
0
100
AcDbPolyline
 62
7
  6
CONTINUOUS
 90
3
 70
0
 10
-12.3693596128
 20
8.443502559
 10
-12.3934320745
 20
6.7610526452
 10
-12.412748367
 20
4.9561142121
  0
LWPOLYLINE
  5
2A2
100
AcDbEntity
  8
0
100
AcDbPolyline
 62
253
  6
CONTINUOUS
 90
16
 70
0
 10
-12.222913296
 20
8.239151674
 10
-12.2101899158
 20
8.8867399315
 10
-12.1927222757
 20
9.5370096697
 10
-12.170511724
 20
10.1899115509
 10
-12.1435600193
 20
10.8453960405
 10
-12.1118691993
 20
11.503413413
 10
-12.0754415792
 20
12.1639137571
 10
-12.0342799861
 20
12.8268470317
 10
-11.9883875802
 20
13.4921628998
 10
-11.9377677242
 20
14.1598107355
 10
-11.88242435
 20
14.8297398718
 10
-11.8223617085
 20
15.5018995441
 10
-11.7575841886
 20
16.1762387249
 10
-11.6880967076
 20
16.8527062667
 10
-11.6139047126
 20
17.531250905
 10
-11.5350139312
 20
18.2118212008
  0
LWPOLYLINE
  5
2A3
100
AcDbEntity
  8
RACCORDO
100
AcDbPolyline
 62
7
  6
CONTINUOUS
 90
3
 70
0
 10
-11.1662024647
 20
13.2675249332
 10
-11.1674082886
 20
13.24412694
 10
-11.1667812474
 20
13.1982821902
  0
LWPOLYLINE
  5
2A4
100
AcDbEntity
  8
RACCORDO
100
AcDbPolyline
 62
253
  6
CONTINUOUS
 90
10
 70
0
 10
-11.1369005658
 20
13.2268105737
 10
-11.0986754879
 20
13.7222825255
 10
-11.0578528131
 20
14.2190074271
 10
-11.0144342746
 20
14.7169645626
 10
-10.968421752
 20
15.2161331867
 10
-10.9198171629
 20
15.7164924631
 10
-10.8686224634
 20
16.2180214649
 10
-10.8148397914
 20
16.7206992596
 10
-10.7584714667
 20
17.224504909
 10
-10.6995198829
 20
17.7294174085
  0
LWPOLYLINE
  5
2A5
100
AcDbEntity
  8
RACCORDO
100
AcDbPolyline
 62
253
  6
CONTINUOUS
 90
10
 70
0
 10
-11.4067219525
 20
13.376901859
 10
-11.367116738
 20
13.8722299162
 10
-11.3248167774
 20
14.3687389211
 10
-11.2798241652
 20
14.8664079152
 10
-11.2321425258
 20
15.3652010567
 10
-11.1817729119
 20
15.8651120683
 10
-11.1287130199
 20
16.3661645819
 10
-11.0729630256
 20
16.868352704
 10
-11.0145263681
 20
17.3716406736
 10
-10.9534051002
 20
17.876007551
  0
LWPOLYLINE
  5
2A6
100
AcDbEntity
  8
0
100
AcDbPolyline
 62
253
  6
CONTINUOUS
 90
21
 70
0
 10
-11.6819325138
 20
18.4116944594
 10
-11.6825178377
 20
18.405030297
 10
-11.6826709157
 20
18.3945599841
 10
-11.681898118
 20
18.3840119165
 10
-11.6802008837
 20
18.3734057343
 10
-11.677582373
 20
18.3627611859
 10
-11.6740474613
 20
18.352098091
 10
-11.6696027306
 20
18.3414363039
 10
-11.6642564568
 20
18.3307956766
 10
-11.6580185945
 20
18.3201960214
 10
-11.6509007584
 20
18.3096570745
 10
-11.6429162015
 20
18.2991984591
 10
-11.6340797909
 20
18.2888396488
 10
-11.6244079797
 20
18.2785999312
 10
-11.6139187763
 20
18.2684983724
 10
-11.6026317114
 20
18.2585537811
 10
-11.5905678011
 20
18.2487846738
 10
-11.5777495078
 20
18.2392092402
 10
-11.5642006988
 20
18.2298453094
 10
-11.5499466016
 20
18.2207103167
 10
-11.5350137567
 20
18.2118212712
  0
LWPOLYLINE
  5
2A7
100
AcDbEntity
  8
RACCORDO
100
AcDbPolyline
 62
7
  6
CONTINUOUS
 90
10
 70
0
 10
-10.7288970686
 20
17.7694476457
 10
-10.7822478807
 20
17.3134138516
 10
-10.8404738728
 20
16.7948513595
 10
-10.8959618267
 20
16.2774773149
 10
-10.9487088416
 20
15.7613176309
 10
-10.9987127291
 20
15.2463938095
 10
-11.0459715195
 20
14.7327256694
 10
-11.0904831407
 20
14.2203346381
 10
-11.1322454026
 20
13.7092462854
 10
-11.166208629
 20
13.2674456871
  0
LWPOLYLINE
  5
2A8
100
AcDbEntity
  8
RACCORDO
100
AcDbPolyline
 62
253
  6
CONTINUOUS
 90
4
 70
0
 10
-10.6995198829
 20
17.7294174085
 10
-10.6963070824
 20
17.7541153544
 10
-10.6923682917
 20
17.780140491
 10
-10.68762947
 20
17.8074973657
  0
LWPOLYLINE
  5
2A9
100
AcDbEntity
  8
RACCORDO
100
AcDbPolyline
 62
253
  6
CONTINUOUS
 90
8
 70
0
 10
-10.9560744569
 20
12.4932162047
 10
-10.952245416
 20
12.5218541262
 10
-10.9447250916
 20
12.5515445554
 10
-10.9337159655
 20
12.5814880949
 10
-10.9195144536
 20
12.6108785323
 10
-10.902502924
 20
12.6389245492
 10
-10.8831394019
 20
12.6648710258
 10
-10.8719710423
 20
12.67706915
  0
LINE
  5
2AA
100
AcDbEntity
  8
RACCORDO
100
AcDbLine
 62
7
  6
CONTINUOUS
 10
-10.7196903401
 20
17.8324049488
 11
-10.728901089
 21
17.7694130115
  0
LWPOLYLINE
  5
2AB
100
AcDbEntity
  8
RACCORDO
100
AcDbPolyline
 62
253
  6
CONTINUOUS
 90
19
 70
0
 10
-10.9534051002
 20
17.876007551
 10
-10.9432604799
 20
17.9425394422
 10
-10.9290953153
 20
18.0102936159
 10
-10.9109876001
 20
18.0788801528
 10
-10.8890476682
 20
18.1478686256
 10
-10.8633916144
 20
18.2168959338
 10
-10.8341229199
 20
18.285667884
 10
-10.8013543651
 20
18.3538531314
 10
-10.7652867249
 20
18.4209779734
 10
-10.72618659
 20
18.4865411763
 10
-10.6842774543
 20
18.5501582985
 10
-10.6398009248
 20
18.6114569904
 10
-10.5931020504
 20
18.6699897006
 10
-10.5445082342
 20
18.7253734822
 10
-10.4942599367
 20
18.7773619468
 10
-10.442590507
 20
18.8257410603
 10
-10.3897739251
 20
18.8702546573
 10
-10.3361302494
 20
18.9106217618
 10
-10.2819645094
 20
18.9466108701
  0
LWPOLYLINE
  5
2AC
100
AcDbEntity
  8
0
100
AcDbPolyline
 62
253
  6
CONTINUOUS
 90
8
 70
0
 10
-11.5374068538
 20
6.9223832305
 10
-11.5438528425
 20
6.8849669135
 10
-11.5491515753
 20
6.8482294147
 10
-11.5532264189
 20
6.8120893622
 10
-11.5564254622
 20
6.7764370966
 10
-11.5588648527
 20
6.7412359991
 10
-11.560428879
 20
6.7065224455
 10
-11.5611177585
 20
6.6722963147
  0
LWPOLYLINE
  5
2AD
100
AcDbEntity
  8
0
100
AcDbPolyline
 62
253
  6
CONTINUOUS
 90
27
 70
0
 10
-5.5717443765
 20
21.1391199472
 10
-5.5761608639
 20
21.1284398219
 10
-5.5809644662
 20
21.1180127606
 10
-5.5861446104
 20
21.1078624444
 10
-5.591690287
 20
21.0980112367
 10
-5.5975888511
 20
21.0884823388
 10
-5.6038257928
 20
21.0792994888
 10
-5.6103864893
 20
21.0704841134
 10
-5.6172566245
 20
21.0620553514
 10
-5.6244208395
 20
21.0540320691
 10
-5.6318630829
 20
21.0464323015
 10
-5.6395664779
 20
21.0392733394
 10
-5.6475134891
 20
21.0325714996
 10
-5.6556861162
 20
21.0263419545
 10
-5.6640659692
 20
21.0205987147
 10
-5.6726341514
 20
21.0153547332
 10
-5.6813713357
 20
21.0106218442
 10
-5.6902577886
 20
21.0064107423
 10
-5.6992734316
 20
21.0027309443
 10
-5.7083979071
 20
20.9995907587
 10
-5.7176106247
 20
20.996997271
 10
-5.7268907888
 20
20.9949563353
 10
-5.7362174515
 20
20.9934725588
 10
-5.7455695593
 20
20.9925492909
 10
-5.7549260013
 20
20.9921886158
 10
-5.7642656681
 20
20.9923913482
 10
-5.7704118877
 20
20.9928337529
  0
LWPOLYLINE
  5
2AE
100
AcDbEntity
  8
0
100
AcDbPolyline
 62
7
  6
CONTINUOUS
 90
16
 70
0
 10
-11.3992682615
 20
6.9168181907
 10
-11.6331010181
 20
6.4913917157
 10
-12.0231096453
 20
5.7480379154
 10
-12.3937657805
 20
4.9971059231
 10
-12.7444043637
 20
4.2399237856
 10
-13.0744081842
 20
3.4777985718
 10
-13.3832058901
 20
2.712009781
 10
-13.6702381125
 20
1.9438895216
 10
-13.9349784205
 20
1.1747802377
 10
-14.1769523741
 20
0.4059746942
 10
-14.3957062311
 20
-0.3611960816
 10
-14.5908184489
 20
-1.1253866126
 10
-14.7619150531
 20
-1.8852977133
 10
-14.9086532008
 20
-2.6396199864
 10
-15.0307226184
 20
-3.3870262071
 10
-15.1278540703
 20
-4.1262081154
  0
LINE
  5
2AF
100
AcDbEntity
  8
0
100
AcDbLine
 62
7
  6
CONTINUOUS
 10
-11.3992549401
 20
6.9168420215
 11
-11.3995507217
 21
6.916312337
  0
LINE
  5
2B0
100
AcDbEntity
  8
DRAFT
100
AcDbLine
 62
7
  6
CONTINUOUS
 10
0.8732178654
 20
15.1552929411
 11
0.1089772604
 21
14.6512834495
  0
LINE
  5
2B1
100
AcDbEntity
  8
0
100
AcDbLine
 62
7
  6
CONTINUOUS
 10
3.4179795262
 20
17.6667376676
 11
2.5702741403
 21
17.1715886268
  0
LINE
  5
2B2
100
AcDbEntity
  8
0
100
AcDbLine
 62
7
  6
CONTINUOUS
 10
3.235854842
 20
16.7872906713
 11
9.5771778233
 21
20.4486938411
  0
LINE
  5
2B3
100
AcDbEntity
  8
0
100
AcDbLine
 62
7
  6
CONTINUOUS
 10
4.3026857542
 20
16.0969123379
 11
9.6099964203
 21
19.1612904662
  0
LINE
  5
2B4
100
AcDbEntity
  8
0
100
AcDbLine
 62
7
  6
CONTINUOUS
 10
9.7408312715
 20
20.3774066253
 11
11.0596692718
 21
21.1300276858
  0
LWPOLYLINE
  5
2B5
100
AcDbEntity
  8
0
100
AcDbPolyline
 62
7
  6
CONTINUOUS
 90
24
 70
0
 10
11.0596692718
 20
21.1300276858
 10
11.0842970478
 20
21.1435841856
 10
11.1088340492
 20
21.1561070153
 10
11.133280276
 20
21.1675961748
 10
11.1576681584
 20
21.1780640629
 10
11.1819652661
 20
21.1874982808
 10
11.2060743089
 20
21.1958616322
 10
11.2299867663
 20
21.2031481138
 10
11.2537111587
 20
21.2093637289
 10
11.2771757569
 20
21.2144892905
 10
11.3003901708
 20
21.2185225735
 10
11.3233447906
 20
21.2214658029
 10
11.3459390576
 20
21.2233064668
 10
11.3681592511
 20
21.2240401643
 10
11.390019092
 20
21.2236712962
 10
11.4114591839
 20
21.2222005525
 10
11.4324915264
 20
21.2196224097
 10
11.4531041199
 20
21.2159423912
 10
11.4732015694
 20
21.2111777573
 10
11.492768225
 20
21.2053284296
 10
11.5118197365
 20
21.1983944863
 10
11.5303076594
 20
21.1903934232
 10
11.5482431921
 20
21.1813151012
 10
11.5555766006
 20
21.1772021248
  0
LWPOLYLINE
  5
2B6
100
AcDbEntity
  8
0
100
AcDbPolyline
 62
7
  6
CONTINUOUS
 90
6
 70
0
 10
6.8699616962
 20
16.8807530326
 10
6.8985050197
 20
16.8945439309
 10
6.9289963499
 20
16.9047274741
 10
6.9608804927
 20
16.9109580916
 10
6.9935715991
 20
16.9130002944
 10
7.0263574108
 20
16.9107364002
  0
LWPOLYLINE
  5
2B7
100
AcDbEntity
  8
0
100
AcDbPolyline
 62
253
  6
CONTINUOUS
 90
16
 70
0
 10
6.8784704852
 20
16.8849343232
 10
6.8849517492
 20
16.8873699096
 10
6.891677268
 20
16.8892972514
 10
6.898631807
 20
16.8907119829
 10
6.9057996124
 20
16.8916108993
 10
6.9131644476
 20
16.8919919644
 10
6.9207096297
 20
16.8918543149
 10
6.928418067
 20
16.8911982628
 10
6.9362722982
 20
16.8900252941
 10
6.9442545318
 20
16.8883380658
 10
6.9523466862
 20
16.8861403999
 10
6.9605304308
 20
16.8834372746
 10
6.9687872277
 20
16.8802348131
 10
6.9770983733
 20
16.8765402696
 10
6.985445041
 20
16.8723620132
 10
6.9938083239
 20
16.8677095086
  0
LWPOLYLINE
  5
2B8
100
AcDbEntity
  8
0
100
AcDbPolyline
 62
253
  6
CONTINUOUS
 90
13
 70
0
 10
1.964748561
 20
-15.6019038008
 10
1.9352453515
 20
-15.5870080492
 10
1.9026181045
 20
-15.5745499817
 10
1.8674250812
 20
-15.5647427593
 10
1.8302684439
 20
-15.5577541862
 10
1.7917839532
 20
-15.5537038389
 10
1.7526300893
 20
-15.55266102
 10
1.7134767855
 20
-15.5546435724
 10
1.6749939659
 20
-15.5596175741
 10
1.6378400822
 20
-15.5674979184
 10
1.6026508475
 20
-15.5781497706
 10
1.5700283595
 20
-15.5913908745
 10
1.540530798
 20
-15.6069946711
  0
LWPOLYLINE
  5
2B9
100
AcDbEntity
  8
0
100
AcDbPolyline
 62
253
  6
CONTINUOUS
 90
13
 70
0
 10
1.9623448456
 20
-15.464173853
 10
1.9328415676
 20
-15.4492741737
 10
1.9002141161
 20
-15.4368043904
 10
1.8650207559
 20
-15.4269778645
 10
1.8278636551
 20
-15.4199627307
 10
1.7893785821
 20
-15.4158790197
 10
1.7502240271
 20
-15.414796605
 10
1.7110699354
 20
-15.4167340071
 10
1.6725862444
 20
-15.4216580763
 10
1.6354314206
 20
-15.4294845607
 10
1.6002411935
 20
-15.4400795468
 10
1.5676176776
 20
-15.4532617514
 10
1.5381190702
 20
-15.4688056235
  0
LINE
  5
2BA
100
AcDbEntity
  8
0
100
AcDbLine
 62
253
  6
CONTINUOUS
 10
-13.0747820234
 20
-6.0527812566
 11
-13.0410423153
 21
-6.0715859135
  0
LINE
  5
2BB
100
AcDbEntity
  8
0
100
AcDbLine
 62
7
  6
CONTINUOUS
 10
-13.0324405844
 20
-6.0907315362
 11
-13.0051934655
 21
-6.1060264188
  0
LWPOLYLINE
  5
2BC
100
AcDbEntity
  8
0
100
AcDbPolyline
 62
253
  6
CONTINUOUS
 90
19
 70
0
 10
1.2844762132
 20
-16.2715011815
 10
1.2590442773
 20
-16.2571803341
 10
1.2353906508
 20
-16.2448079845
 10
1.2135153335
 20
-16.2343841327
 10
1.1931936457
 20
-16.2257986009
 10
1.1746502672
 20
-16.219161567
 10
1.1585592375
 20
-16.2148035643
 10
1.1451088052
 20
-16.2128559263
 10
1.1341107217
 20
-16.2131873196
 10
1.1256742803
 20
-16.2157342777
 10
1.1198476422
 20
-16.2205131135
 10
1.1165826462
 20
-16.2275075141
 10
1.1158441024
 20
-16.2366050752
 10
1.1176121846
 20
-16.247780544
 10
1.121906719
 20
-16.2610591733
 10
1.1287519946
 20
-16.2764043169
 10
1.1381060578
 20
-16.2937815656
 10
1.1500108622
 20
-16.3132253286
 10
1.1646165582
 20
-16.3348021884
  0
LINE
  5
2BD
100
AcDbEntity
  8
0
100
AcDbLine
 62
253
  6
CONTINUOUS
 10
-10.9456080928
 20
-9.2972984637
 11
-10.8395420756
 21
-9.3585396527
  0
LINE
  5
2BE
100
AcDbEntity
  8
0
100
AcDbLine
 62
253
  6
CONTINUOUS
 10
1.3226945608
 20
-16.380862658
 11
1.428760578
 21
-16.442103847
  0
LINE
  5
2BF
100
AcDbEntity
  8
0
100
AcDbLine
 62
253
  6
CONTINUOUS
 10
-10.9838264404
 20
-9.1879369873
 11
-10.8777604232
 21
-9.2491781763
  0
LINE
  5
2C0
100
AcDbEntity
  8
0
100
AcDbLine
 62
253
  6
CONTINUOUS
 10
1.2844762132
 20
-16.2715011815
 11
1.3905422304
 21
-16.3327423705
  0
LINE
  5
2C1
100
AcDbEntity
  8
0
100
AcDbLine
 62
253
  6
CONTINUOUS
 10
2.6418634666
 20
-15.8565193883
 11
1.9623448456
 21
-15.464173853
  0
LINE
  5
2C2
100
AcDbEntity
  8
0
100
AcDbLine
 62
253
  6
CONTINUOUS
 10
-2.4255649731
 20
-12.2432390252
 11
-3.9594510665
 21
-11.357592419
  0
LINE
  5
2C3
100
AcDbEntity
  8
0
100
AcDbLine
 62
253
  6
CONTINUOUS
 10
-13.2660475504
 20
-5.9840802482
 11
-14.7999336439
 21
-5.098433642
  0
LINE
  5
2C4
100
AcDbEntity
  8
0
100
AcDbLine
 62
7
  6
CONTINUOUS
 10
-13.0051657175
 20
-6.1060424461
 11
-4.2697338086
 21
-11.1497713496
  0
LINE
  5
2C5
100
AcDbEntity
  8
0
100
AcDbLine
 62
253
  6
CONTINUOUS
 10
-13.0410423153
 20
-6.0715859135
 11
-4.3056108635
 21
-11.1153145531
  0
LWPOLYLINE
  5
2C6
100
AcDbEntity
  8
0
100
AcDbPolyline
 62
253
  6
CONTINUOUS
 90
5
 70
0
 10
-4.3056108635
 20
-11.1153145531
 10
-4.2868396757
 20
-11.1263451379
 10
-4.2676685676
 20
-11.1380067828
 10
-4.2480946852
 20
-11.1502960192
 10
-4.2282455198
 20
-11.1631028224
  0
LINE
  5
2C7
100
AcDbEntity
  8
0
100
AcDbLine
 62
7
  6
CONTINUOUS
 10
-4.2696744667
 20
-11.1498055858
 11
-4.2482474998
 21
-11.1624274953
  0
LINE
  5
2C8
100
AcDbEntity
  8
0
100
AcDbLine
 62
7
  6
CONTINUOUS
 10
-4.2482474998
 20
-11.1624274953
 11
-4.2140713036
 21
-11.1835045848
  0
LINE
  5
2C9
100
AcDbEntity
  8
0
100
AcDbLine
 62
7
  6
CONTINUOUS
 10
-4.2140713036
 20
-11.1835045848
 11
-4.1773408192
 21
-11.207276076
  0
LWPOLYLINE
  5
2CA
100
AcDbEntity
  8
0
100
AcDbPolyline
 62
253
  6
CONTINUOUS
 90
5
 70
0
 10
-4.2282455198
 20
-11.1631028224
 10
-4.2079825178
 20
-11.1765236869
 10
-4.1868990792
 20
-11.1908591329
 10
-4.1647779116
 20
-11.2062227269
 10
-4.1418072182
 20
-11.2224645284
  0
LWPOLYLINE
  5
2CB
100
AcDbEntity
  8
0
100
AcDbPolyline
 62
7
  6
CONTINUOUS
 90
4
 70
0
 10
-4.1773408192
 20
-11.207276076
 10
-4.1385338339
 20
-11.2334278864
 10
-4.097789021
 20
-11.261780088
 10
-4.0552386104
 20
-11.2920814278
  0
LWPOLYLINE
  5
2CC
100
AcDbEntity
  8
0
100
AcDbPolyline
 62
253
  6
CONTINUOUS
 90
3
 70
0
 10
-3.3444840122
 20
-11.8814974933
 10
-3.3706186791
 20
-11.8634639676
 10
-3.3908836283
 20
-11.8444527827
  0
LWPOLYLINE
  5
2CD
100
AcDbEntity
  8
0
100
AcDbPolyline
 62
253
  6
CONTINUOUS
 90
5
 70
0
 10
-13.266047547
 20
-5.9840802483
 10
-13.2390627327
 20
-6.003013463
 10
-13.2101012943
 20
-6.0184476057
 10
-13.179553449
 20
-6.0301750197
 10
-13.1588307498
 20
-6.0357811306
  0
LWPOLYLINE
  5
2CE
100
AcDbEntity
  8
0
100
AcDbPolyline
 62
7
  6
CONTINUOUS
 90
5
 70
0
 10
8.8285282282
 20
-23.3735765788
 10
8.8542676659
 20
-23.3945864062
 10
8.8771384992
 20
-23.4190001746
 10
8.8965776396
 20
-23.4463039543
 10
8.9122289708
 20
-23.4760504141
  0
LINE
  5
2CF
100
AcDbEntity
  8
0
100
AcDbLine
 62
253
  6
CONTINUOUS
 10
-6.8277170548
 20
-12.4422483679
 11
-12.5287494448
 21
-6.381119231
  0
LINE
  5
2D0
100
AcDbEntity
  8
0
100
AcDbLine
 62
7
  6
CONTINUOUS
 10
-9.8789058817
 20
-7.911105694
 11
-5.915007234
 21
-12.1253777672
  0
LWPOLYLINE
  5
2D1
100
AcDbEntity
  8
0
100
AcDbPolyline
 62
253
  6
CONTINUOUS
 90
19
 70
0
 10
-8.5265292535
 20
-12.0910522278
 10
-8.5134095089
 20
-12.1296109566
 10
-8.4970779849
 20
-12.1688659736
 10
-8.4779802819
 20
-12.2081770846
 10
-8.4565614956
 20
-12.2469313541
 10
-8.4332888802
 20
-12.2847210936
 10
-8.4086130244
 20
-12.3213420247
 10
-8.3829843876
 20
-12.3564768155
 10
-8.3567310273
 20
-12.3898991951
 10
-8.330030063
 20
-12.4216303019
 10
-8.3034059012
 20
-12.4512747526
 10
-8.2769271226
 20
-12.4790238961
 10
-8.2499051468
 20
-12.5057065147
 10
-8.2225252375
 20
-12.5310192508
 10
-8.1948875106
 20
-12.5549652128
 10
-8.1659687602
 20
-12.5784802911
 10
-8.1354600208
 20
-12.6014704112
 10
-8.103882469
 20
-12.6230803058
 10
-8.0714301245
 20
-12.6428089856
  0
LWPOLYLINE
  5
2D2
100
AcDbEntity
  8
0
100
AcDbPolyline
 62
253
  6
CONTINUOUS
 90
22
 70
0
 10
-10.4599259195
 20
-14.8804189411
 10
-10.4496294855
 20
-14.9532847183
 10
-10.4363150935
 20
-15.0250055774
 10
-10.4199909504
 20
-15.0955872971
 10
-10.4004210771
 20
-15.1652058751
 10
-10.3778567349
 20
-15.2336961164
 10
-10.3530366778
 20
-15.3005518122
 10
-10.3259901363
 20
-15.3658287985
 10
-10.2967013523
 20
-15.4294808332
 10
-10.2658418552
 20
-15.4908487942
 10
-10.2334711964
 20
-15.5498493659
 10
-10.1995421509
 20
-15.6065747
 10
-10.1645661823
 20
-15.6606289605
 10
-10.1288738467
 20
-15.7117329185
 10
-10.0921444258
 20
-15.7601728895
 10
-10.0539116934
 20
-15.8064008011
 10
-10.0136479119
 20
-15.8510784439
 10
-9.9718871008
 20
-15.8935485674
 10
-9.9297555345
 20
-15.9322844447
 10
-9.8876304663
 20
-15.966778492
 10
-9.8451392947
 20
-15.9975416634
 10
-9.8022831703
 20
-16.0245747933
  0
LINE
  5
2D3
100
AcDbEntity
  8
RACCORDO
100
AcDbLine
 62
7
  6
CONTINUOUS
 10
-11.1667812474
 20
13.1982821902
 11
-11.162363509
 21
13.1516308207
  0
LWPOLYLINE
  5
2D4
100
AcDbEntity
  8
RACCORDO
100
AcDbPolyline
 62
253
  6
CONTINUOUS
 90
6
 70
0
 10
-11.1356711805
 20
13.1486816621
 10
-11.1370583833
 20
13.1661199667
 10
-11.137858186
 20
13.1826741551
 10
-11.1381257501
 20
13.1982707092
 10
-11.1378064623
 20
13.2129828872
 10
-11.1369005658
 20
13.2268105737
  0
LWPOLYLINE
  5
2D5
100
AcDbEntity
  8
0
100
AcDbPolyline
 62
253
  6
CONTINUOUS
 90
10
 70
0
 10
-10.9456080928
 20
-9.2972984637
 10
-10.9465390539
 20
-9.282257923
 10
-10.9483277708
 20
-9.2678127903
 10
-10.9509669738
 20
-9.2540217722
 10
-10.9544459361
 20
-9.2409409176
 10
-10.9587505191
 20
-9.228623388
 10
-10.9638632299
 20
-9.2171192412
 10
-10.9697632905
 20
-9.2064752312
 10
-10.9764267218
 20
-9.1967346171
 10
-10.983826443
 20
-9.1879369861
  0
LWPOLYLINE
  5
2D6
100
AcDbEntity
  8
RACCORDO
100
AcDbPolyline
 62
253
  6
CONTINUOUS
 90
6
 70
0
 10
-11.166208629
 20
13.2674456871
 10
-11.1658133563
 20
13.2603269635
 10
-11.1626747651
 20
13.2513033933
 10
-11.1566776819
 20
13.2425383934
 10
-11.1480003248
 20
13.2342924376
 10
-11.1369005632
 20
13.226810575
  0
LWPOLYLINE
  5
2D7
100
AcDbEntity
  8
RACCORDO
100
AcDbPolyline
 62
253
  6
CONTINUOUS
 90
6
 70
0
 10
-10.728901089
 20
17.7694130115
 10
-10.7285576788
 20
17.7617366272
 10
-10.7253693959
 20
17.7532142862
 10
-10.7193342902
 20
17.7448225635
 10
-10.7106315746
 20
17.7368108848
 10
-10.6995197907
 20
17.7294174427
  0
LWPOLYLINE
  5
2D8
100
AcDbEntity
  8
0
100
AcDbPolyline
 62
253
  6
CONTINUOUS
 90
16
 70
0
 10
-10.3875005292
 20
-10.0967559851
 10
-10.3754122074
 20
-10.3745884014
 10
-10.3619362495
 20
-10.6577669769
 10
-10.3470726555
 20
-10.9462917117
 10
-10.3308832227
 20
-11.2402991845
 10
-10.3133061539
 20
-11.5396528166
 10
-10.2941560571
 20
-11.8439428714
 10
-10.2734789055
 20
-12.1526569799
 10
-10.2512287259
 20
-12.4663075112
 10
-10.2270822077
 20
-12.7860218355
 10
-10.2011042038
 20
-13.1114672161
 10
-10.1732298612
 20
-13.4429763898
 10
-10.14294131
 20
-13.7826749376
 10
-10.1100659269
 20
-14.1312713867
 10
-10.0747763353
 20
-14.4880572099
 10
-10.0370725351
 20
-14.8530324074
  0
LWPOLYLINE
  5
2D9
100
AcDbEntity
  8
0
100
AcDbPolyline
 62
253
  6
CONTINUOUS
 90
19
 70
0
 10
-10.8395420756
 20
-9.3585396527
 10
-10.8305080501
 20
-9.6217462982
 10
-10.8204222544
 20
-9.889560354
 10
-10.8092339396
 20
-10.1619462142
 10
-10.7969034194
 20
-10.4386080502
 10
-10.7833678598
 20
-10.7197684922
 10
-10.7685322022
 20
-11.0061628006
 10
-10.7523150087
 20
-11.2980673508
 10
-10.7346681554
 20
-11.5951120696
 10
-10.7155386842
 20
-11.8970566211
 10
-10.6948964647
 20
-12.2033579
 10
-10.6726454372
 20
-12.5144637742
 10
-10.6486187374
 20
-12.8316093233
 10
-10.622760098
 20
-13.154395834
 10
-10.5949591717
 20
-13.4830951806
 10
-10.5649205353
 20
-13.8199147367
 10
-10.5324516434
 20
-14.1655193389
 10
-10.4974954841
 20
-14.5190535616
 10
-10.4599259195
 20
-14.8804189411
  0
LINE
  5
2DA
100
AcDbEntity
  8
0
100
AcDbLine
 62
7
  6
CONTINUOUS
 10
-9.51546698
 20
-8.2975006425
 11
-9.5156806168
 21
-8.2807121606
  0
LWPOLYLINE
  5
2DB
100
AcDbEntity
  8
RACCORDO
100
AcDbPolyline
 62
253
  6
CONTINUOUS
 90
7
 70
0
 10
-10.5843400452
 20
18.239123495
 10
-10.5843528733
 20
18.2383812061
 10
-10.5823791245
 20
18.2359167614
 10
-10.5777662808
 20
18.2321914739
 10
-10.570651726
 20
18.2272445788
 10
-10.5611958093
 20
18.2212648856
 10
-10.5496633963
 20
18.2144205643
  0
LWPOLYLINE
  5
2DC
100
AcDbEntity
  8
0
100
AcDbPolyline
 62
253
  6
CONTINUOUS
 90
10
 70
0
 10
-10.9809004534
 20
7.3219568373
 10
-10.9819890972
 20
7.3006685163
 10
-10.9845844048
 20
7.2786906243
 10
-10.9886677597
 20
7.2561801196
 10
-10.9942099112
 20
7.2332977938
 10
-11.0011712157
 20
7.2102069884
 10
-11.0095019478
 20
7.1870724256
 10
-11.0191426018
 20
7.1640592187
 10
-11.0300242906
 20
7.1413316953
 10
-11.0420692871
 20
7.1190520879
  0
LWPOLYLINE
  5
2DD
100
AcDbEntity
  8
0
100
AcDbPolyline
 62
253
  6
CONTINUOUS
 90
8
 70
0
 10
1.7343732742
 20
18.5583022028
 10
1.7411771488
 20
18.565525818
 10
1.7481206036
 20
18.5724158157
 10
1.7551847455
 20
18.5789534463
 10
1.7623503417
 20
18.5851209091
 10
1.7695978668
 20
18.5909013993
 10
1.7769075859
 20
18.5962791805
 10
1.7842596105
 20
18.6012396244
  0
LWPOLYLINE
  5
2DE
100
AcDbEntity
  8
0
100
AcDbPolyline
 62
7
  6
CONTINUOUS
 90
9
 70
0
 10
4.7504490827
 20
15.6427220693
 10
4.7242358859
 20
15.6248973868
 10
4.7001728218
 20
15.6035823435
 10
4.6788366769
 20
15.5790849638
 10
4.6607241985
 20
15.5517947673
 10
4.6462934252
 20
15.5222697655
 10
4.6358691168
 20
15.4911414732
 10
4.6295867239
 20
15.4587042657
 10
4.6276302935
 20
15.4274447924
  0
LINE
  5
2DF
100
AcDbEntity
  8
0
100
AcDbLine
 62
7
  6
CONTINUOUS
 10
4.3026857542
 20
16.0969123379
 11
3.235854842
 21
15.423879265
  0
LINE
  5
2E0
100
AcDbEntity
  8
0
100
AcDbLine
 62
7
  6
CONTINUOUS
 10
4.7504490827
 20
15.6427220693
 11
6.3336291517
 21
16.5782263562
  0
LINE
  5
2E1
100
AcDbEntity
  8
0
100
AcDbLine
 62
253
  6
CONTINUOUS
 10
4.876601842
 20
15.6310100768
 11
6.4593584452
 21
16.5662641369
  0
LINE
  5
2E2
100
AcDbEntity
  8
DRAFT
100
AcDbLine
 62
7
  6
CONTINUOUS
 10
14.0228296725
 20
19.4191360075
 11
8.3750807099
 21
16.1535581979
  0
LINE
  5
2E3
100
AcDbEntity
  8
0
100
AcDbLine
 62
7
  6
CONTINUOUS
 10
6.3336291658
 20
16.5782263642
 11
6.3350834089
 21
16.5790660259
  0
LINE
  5
2E4
100
AcDbEntity
  8
0
100
AcDbLine
 62
7
  6
CONTINUOUS
 10
6.3350833948
 20
16.5790660179
 11
6.8699616962
 21
16.8807530326
  0
LINE
  5
2E5
100
AcDbEntity
  8
0
100
AcDbLine
 62
253
  6
CONTINUOUS
 10
6.4593584452
 20
16.5662641369
 11
6.9938083239
 21
16.8677095086
  0
LWPOLYLINE
  5
2E6
100
AcDbEntity
  8
0
100
AcDbPolyline
 62
253
  6
CONTINUOUS
 90
18
 70
0
 10
4.7504490827
 20
15.6427220693
 10
4.7541905617
 20
15.6448051552
 10
4.7604194766
 20
15.6477472723
 10
4.7669139001
 20
15.6501904568
 10
4.7736591211
 20
15.6521291744
 10
4.78063986
 20
15.6535590334
 10
4.787840304
 20
15.6544767949
 10
4.7952441424
 20
15.6548803799
 10
4.8028346039
 20
15.6547688743
 10
4.8105944943
 20
15.6541425305
 10
4.8185062358
 20
15.6530027675
 10
4.8265519065
 20
15.651352167
 10
4.8347132812
 20
15.6491944681
 10
4.8429718725
 20
15.6465345583
 10
4.8513089728
 20
15.643378463
 10
4.8597056968
 20
15.6397333314
 10
4.868143024
 20
15.6356074207
 10
4.876601842
 20
15.6310100768
  0
LWPOLYLINE
  5
2E7
100
AcDbEntity
  8
0
100
AcDbPolyline
 62
253
  6
CONTINUOUS
 90
3
 70
0
 10
6.8699616962
 20
16.8807530326
 10
6.8722481576
 20
16.8819960095
 10
6.8784704852
 20
16.8849343232
  0
LWPOLYLINE
  5
2E8
100
AcDbEntity
  8
0
100
AcDbPolyline
 62
7
  6
CONTINUOUS
 90
18
 70
0
 10
6.3350834089
 20
16.5790660259
 10
6.3373702799
 20
16.580309233
 10
6.3435959517
 20
16.5832494246
 10
6.3500838842
 20
16.5856887555
 10
6.3568193731
 20
16.5876216963
 10
6.3637871123
 20
16.589043843
 10
6.3709713693
 20
16.5899520043
 10
6.378355885
 20
16.5903441329
 10
6.3859238393
 20
16.5902192919
 10
6.3936581609
 20
16.5895778069
 10
6.4015413668
 20
16.588421154
 10
6.4095554663
 20
16.5867518821
 10
6.4176823966
 20
16.5845738268
 10
6.4259038077
 20
16.5818919574
 10
6.4342009044
 20
16.5787122559
 10
6.4425548978
 20
16.5750419313
 10
6.4509470469
 20
16.5708894026
 10
6.4593584452
 20
16.5662641369
  0
LINE
  5
2E9
100
AcDbEntity
  8
0
100
AcDbLine
 62
253
  6
CONTINUOUS
 10
-13.1366069426
 20
-6.0223357612
 11
-13.1066476522
 21
-6.0363776883
  0
LWPOLYLINE
  5
2EA
100
AcDbEntity
  8
0
100
AcDbPolyline
 62
253
  6
CONTINUOUS
 90
10
 70
0
 10
-13.197842023
 20
-6.1922920694
 10
-13.1691029602
 20
-6.205941932
 10
-13.1379273246
 20
-6.2153164305
 10
-13.1048388959
 20
-6.2202580788
 10
-13.0703935969
 20
-6.2206838669
 10
-13.0351701256
 20
-6.2165866559
 10
-12.9997602315
 20
-6.2080352858
 10
-12.9647588232
 20
-6.1951734267
 10
-12.9307539452
 20
-6.1782171676
 10
-12.9067633879
 20
-6.162858718
  0
LINE
  5
2EB
100
AcDbEntity
  8
0
100
AcDbLine
 62
253
  6
CONTINUOUS
 10
-13.1066476522
 20
-6.0363776883
 11
-13.0747820234
 21
-6.0527812566
  0
LINE
  5
2EC
100
AcDbEntity
  8
0
100
AcDbLine
 62
253
  6
CONTINUOUS
 10
-2.6067887451
 20
-11.4727457164
 11
-14.9811574158
 21
-4.3279403331
  0
LWPOLYLINE
  5
2ED
100
AcDbEntity
  8
0
100
AcDbPolyline
 62
253
  6
CONTINUOUS
 90
4
 70
0
 10
-4.1418072182
 20
-11.2224645284
 10
-4.1181809293
 20
-11.2394798863
 10
-4.0940183315
 20
-11.2571308923
 10
-4.0691511978
 20
-11.2754917188
  0
LWPOLYLINE
  5
2EE
100
AcDbEntity
  8
0
100
AcDbPolyline
 62
7
  6
CONTINUOUS
 90
12
 70
0
 10
-4.0552386104
 20
-11.2920814278
 10
-3.9409277954
 20
-11.37477941
 10
-3.8867119473
 20
-11.4148597045
 10
-3.8326131776
 20
-11.4559214556
 10
-3.7791158993
 20
-11.4975915874
 10
-3.726586103
 20
-11.5395801108
 10
-3.6753846073
 20
-11.5816086073
 10
-3.6258772875
 20
-11.6233758751
 10
-3.578512612
 20
-11.6645028335
 10
-3.5335841262
 20
-11.7047385283
 10
-3.4914580664
 20
-11.7437608935
 10
-3.4528073455
 20
-11.7809397526
  0
LWPOLYLINE
  5
2EF
100
AcDbEntity
  8
0
100
AcDbPolyline
 62
253
  6
CONTINUOUS
 90
15
 70
0
 10
-3.9594510665
 20
-11.357592419
 10
-3.9155579364
 20
-11.3897560241
 10
-3.8738428983
 20
-11.4207735098
 10
-3.8343059523
 20
-11.450644876
 10
-3.7970373632
 20
-11.4793654287
 10
-3.7619468661
 20
-11.5069398619
 10
-3.728763667
 20
-11.5333822577
 10
-3.6974948815
 20
-11.5586645393
 10
-3.6681333941
 20
-11.5828147834
 10
-3.640387064
 20
-11.605931302
 10
-3.6142438798
 20
-11.6280091083
 10
-3.5897158531
 20
-11.649053189
 10
-3.5665468772
 20
-11.6691768161
 10
-3.5447258801
 20
-11.688379151
 10
-3.5242639338
 20
-11.7066610322
  0
LINE
  5
2F0
100
AcDbEntity
  8
0
100
AcDbLine
 62
253
  6
CONTINUOUS
 10
-4.0691511978
 20
-11.2754917188
 11
-3.9594510665
 21
-11.357592419
  0
LWPOLYLINE
  5
2F1
100
AcDbEntity
  8
0
100
AcDbPolyline
 62
253
  6
CONTINUOUS
 90
13
 70
0
 10
-3.5242639338
 20
-11.7066610322
 10
-3.504938148
 20
-11.7241382475
 10
-3.4867389079
 20
-11.7408115543
 10
-3.4696758284
 20
-11.756680195
 10
-3.4535548637
 20
-11.7718576843
 10
-3.4383671177
 20
-11.7863459377
 10
-3.4241214865
 20
-11.8001430395
 10
-3.4106506127
 20
-11.8133567577
 10
-3.3979459902
 20
-11.8259899057
 10
-3.3860161252
 20
-11.8380396701
 10
-3.3747191787
 20
-11.8496053783
 10
-3.3640078712
 20
-11.8607201394
 10
-3.3539294824
 20
-11.8713508444
  0
LWPOLYLINE
  5
2F2
100
AcDbEntity
  8
0
100
AcDbPolyline
 62
7
  6
CONTINUOUS
 90
3
 70
0
 10
-3.4528073455
 20
-11.7809397526
 10
-3.4181432936
 20
-11.8157466817
 10
-3.3913644093
 20
-11.8439314542
  0
LINE
  5
2F3
100
AcDbEntity
  8
0
100
AcDbLine
 62
253
  6
CONTINUOUS
 10
-2.4255649731
 20
-12.2432390252
 11
1.3905422304
 21
-16.3327423705
  0
LINE
  5
2F4
100
AcDbEntity
  8
0
100
AcDbLine
 62
253
  6
CONTINUOUS
 10
-3.3539294824
 20
-11.8713508444
 11
1.2565172655
 21
-16.8525260167
  0
LINE
  5
2F5
100
AcDbEntity
  8
0
100
AcDbLine
 62
7
  6
CONTINUOUS
 10
1.2570345049
 20
-16.8661713653
 11
-3.3913644092
 21
-11.8439314543
  0
LWPOLYLINE
  5
2F6
100
AcDbEntity
  8
0
100
AcDbPolyline
 62
253
  6
CONTINUOUS
 90
4
 70
0
 10
-4.3056108635
 20
-11.1153145531
 10
-4.2922020488
 20
-11.1321539181
 10
-4.2763671391
 20
-11.1455865383
 10
-4.2697338086
 20
-11.1497713496
  0
LINE
  5
2F7
100
AcDbEntity
  8
0
100
AcDbLine
 62
7
  6
CONTINUOUS
 10
-5.0145188396
 20
-11.5646956386
 11
-5.3761176296
 21
-10.938388163
  0
LINE
  5
2F8
100
AcDbEntity
  8
0
100
AcDbLine
 62
253
  6
CONTINUOUS
 10
-9.5858455207
 20
-8.0803150736
 11
-9.5858455207
 21
-8.2226767519
  0
LINE
  5
2F9
100
AcDbEntity
  8
0
100
AcDbLine
 62
7
  6
CONTINUOUS
 10
-9.5156804708
 20
-8.120827494
 11
-9.5156804708
 21
-8.2807113614
  0
LINE
  5
2FA
100
AcDbEntity
  8
0
100
AcDbLine
 62
7
  6
CONTINUOUS
 10
-7.6760277113
 20
22.5314676938
 11
-7.6760277113
 21
22.210947521
  0
LWPOLYLINE
  5
2FB
100
AcDbEntity
  8
0
100
AcDbPolyline
 62
253
  6
CONTINUOUS
 90
34
 70
0
 10
-7.6028044066
 20
22.4293990455
 10
-7.6026056587
 20
22.4391901605
 10
-7.6020098619
 20
22.4491887686
 10
-7.601018356
 20
22.4593723871
 10
-7.5996333703
 20
22.4697181173
 10
-7.5978580192
 20
22.4802026961
 10
-7.5956962946
 20
22.4908025481
 10
-7.5931530574
 20
22.5014938388
 10
-7.5902340262
 20
22.512252528
 10
-7.5869457646
 20
22.523054424
 10
-7.5832956667
 20
22.5338752378
 10
-7.5792919398
 20
22.544690638
 10
-7.5749435867
 20
22.5554763055
 10
-7.570260385
 20
22.5662079878
 10
-7.5652528652
 20
22.5768615539
 10
-7.5599322871
 20
22.5874130485
 10
-7.5543106144
 20
22.5978387457
 10
-7.548400488
 20
22.6081152026
 10
-7.542215197
 20
22.6182193118
 10
-7.5357686498
 20
22.6281283534
 10
-7.5290753417
 20
22.6378200461
 10
-7.5221503232
 20
22.6472725976
 10
-7.5150091657
 20
22.656464753
 10
-7.5076679267
 20
22.665375843
 10
-7.5001431136
 20
22.6739858304
 10
-7.4924516463
 20
22.682275355
 10
-7.4846108197
 20
22.6902257771
 10
-7.4766382647
 20
22.6978192197
 10
-7.4685519079
 20
22.7050386083
 10
-7.4603699323
 20
22.7118677096
 10
-7.4521107356
 20
22.7182911677
 10
-7.4437928893
 20
22.7242945392
 10
-7.4354350966
 20
22.7298643249
 10
-7.4270561506
 20
22.7349880007
  0
LWPOLYLINE
  5
2FC
100
AcDbEntity
  8
0
100
AcDbPolyline
 62
7
  6
CONTINUOUS
 90
9
 70
0
 10
-7.6760277112
 20
22.5314633194
 10
-7.6741176906
 20
22.562311853
 10
-7.668095521
 20
22.593943093
 10
-7.6580170662
 20
22.6246392518
 10
-7.6439831897
 20
22.6539234386
 10
-7.6261522224
 20
22.6813015353
 10
-7.6047876243
 20
22.7062386682
 10
-7.5802462988
 20
22.7282331056
 10
-7.5532131875
 20
22.7466974654
  0
LWPOLYLINE
  5
2FD
100
AcDbEntity
  8
0
100
AcDbPolyline
 62
253
  6
CONTINUOUS
 90
22
 70
0
 10
-10.0370725351
 20
-14.8530324074
 10
-10.0421045317
 20
-14.9187209037
 10
-10.044129463
 20
-14.983177459
 10
-10.0434939778
 20
-15.0462207446
 10
-10.040642055
 20
-15.1076426313
 10
-10.03577977
 20
-15.1673033362
 10
-10.0288212101
 20
-15.2251657463
 10
-10.0199437354
 20
-15.2812011869
 10
-10.0094132049
 20
-15.3352014049
 10
-9.9972041255
 20
-15.3869028417
 10
-9.9834910365
 20
-15.4361509707
 10
-9.9684668711
 20
-15.482899522
 10
-9.9521058537
 20
-15.5270645434
 10
-9.9347496533
 20
-15.5683638391
 10
-9.9163594168
 20
-15.606910664
 10
-9.8963402247
 20
-15.6432257935
 10
-9.8746132653
 20
-15.6777351834
 10
-9.8516305559
 20
-15.7098311261
 10
-9.8276043901
 20
-15.7384823552
 10
-9.8027105028
 20
-15.7632852825
 10
-9.7771184079
 20
-15.7844544047
 10
-9.7510016612
 20
-15.8018939524
  0
LWPOLYLINE
  5
2FE
100
AcDbEntity
  8
RACCORDO
100
AcDbPolyline
 62
7
  6
CONTINUOUS
 90
4
 70
0
 10
-6.9730301854
 20
21.5387004171
 10
-6.9734700704
 20
21.5334096306
 10
-6.9741920791
 20
21.5304969998
 10
-6.9743078864
 20
21.530184483
  0
LINE
  5
2FF
100
AcDbEntity
  8
0
100
AcDbLine
 62
253
  6
CONTINUOUS
 10
-9.5156804708
 20
-8.2807121602
 11
-9.5172403557
 21
-8.2956152543
  0
LWPOLYLINE
  5
300
100
AcDbEntity
  8
0
100
AcDbPolyline
 62
253
  6
CONTINUOUS
 90
15
 70
0
 10
-3.3716685626
 20
22.4463850065
 10
-3.3733153256
 20
22.4396065624
 10
-3.3755167745
 20
22.4328808137
 10
-3.3782679593
 20
22.4262228836
 10
-3.3815626936
 20
22.4196477431
 10
-3.3853935689
 20
22.4131701769
 10
-3.3897519714
 20
22.4068047502
 10
-3.3946281007
 20
22.4005657762
 10
-3.4000109925
 20
22.3944672838
 10
-3.405888543
 20
22.3885229857
 10
-3.4122475362
 20
22.3827462483
 10
-3.4190736731
 20
22.3771500609
 10
-3.426351605
 20
22.371747007
 10
-3.4340649666
 20
22.3665492358
 10
-3.442196414
 20
22.3615684349
  0
LWPOLYLINE
  5
301
100
AcDbEntity
  8
RACCORDO
100
AcDbPolyline
 62
253
  6
CONTINUOUS
 90
10
 70
0
 10
5.269826606
 20
14.0866166053
 10
5.2934358645
 20
14.1039987114
 10
5.3161645019
 20
14.1253966193
 10
5.3373670851
 20
14.1502026852
 10
5.356441517
 20
14.1777124825
 10
5.3728461343
 20
14.207144806
 10
5.3861150893
 20
14.2376638556
 10
5.3958715788
 20
14.2684029713
 10
5.4018385445
 20
14.2984892436
 10
5.4038465403
 20
14.3270683022
  0
LWPOLYLINE
  5
302
100
AcDbEntity
  8
RACCORDO
100
AcDbPolyline
 62
253
  6
CONTINUOUS
 90
16
 70
0
 10
5.2679808001
 20
14.4721349813
 10
5.2362172642
 20
14.4492382842
 10
5.2088506506
 20
14.4252290039
 10
5.1858809591
 20
14.4001071405
 10
5.167192555
 20
14.3735925841
 10
5.152901073
 20
14.3459654445
 10
5.1433534184
 20
14.3180660515
 10
5.1386560943
 20
14.2899075769
 10
5.1387025976
 20
14.2614768488
 10
5.1435203235
 20
14.2335746818
 10
5.1532239793
 20
14.2061808466
 10
5.1676988578
 20
14.1793155724
 10
5.1866282324
 20
14.153840361
 10
5.2099065275
 20
14.1300423796
 10
5.2376393187
 20
14.1076344611
 10
5.269826606
 20
14.0866166053
  0
LINE
  5
303
100
AcDbEntity
  8
RACCORDO
100
AcDbLine
 62
253
  6
CONTINUOUS
 10
5.3349598595
 20
14.5153373134
 11
5.2679808001
 21
14.4721349813
  0
LINE
  5
304
100
AcDbEntity
  8
DRAFT
100
AcDbLine
 62
7
  6
CONTINUOUS
 10
14.9978849146
 20
18.546482508
 11
8.3839404204
 21
14.5522461453
  0
LINE
  5
305
100
AcDbEntity
  8
0
100
AcDbLine
 62
7
  6
CONTINUOUS
 10
14.9978849146
 20
18.0943739905
 11
8.7348022431
 21
14.3496629262
  0
LINE
  5
306
100
AcDbEntity
  8
0
100
AcDbLine
 62
253
  6
CONTINUOUS
 10
6.5551399124
 20
14.661843232
 11
8.684687875
 21
15.8914168474
  0
LINE
  5
307
100
AcDbEntity
  8
0
100
AcDbLine
 62
253
  6
CONTINUOUS
 10
6.7319136161
 20
14.3556621961
 11
8.8614615787
 21
15.5852358115
  0
LWPOLYLINE
  5
308
100
AcDbEntity
  8
RACCORDO
100
AcDbPolyline
 62
253
  6
CONTINUOUS
 90
10
 70
0
 10
2.6579577962
 20
10.0841189553
 10
2.6447083038
 20
10.080015697
 10
2.6297879408
 20
10.0772688696
 10
2.6136401725
 20
10.0759601146
 10
2.5967449453
 20
10.0761283311
 10
2.5796044217
 20
10.0777685194
 10
2.5627280549
 20
10.0808319294
 10
2.5466174468
 20
10.0852275101
 10
2.5317514392
 20
10.0908246153
 10
2.518571882
 20
10.0974568871
  0
LINE
  5
309
100
AcDbEntity
  8
0
100
AcDbLine
 62
7
  6
CONTINUOUS
 10
-13.1588307498
 20
-6.0357811306
 11
-13.158660465
 21
-6.0358197945
  0
LWPOLYLINE
  5
30A
100
AcDbEntity
  8
0
100
AcDbPolyline
 62
7
  6
CONTINUOUS
 90
9
 70
0
 10
-13.158660465
 20
-6.0358197945
 10
-13.1561071896
 20
-6.036461108
 10
-13.149182181
 20
-6.0384415163
 10
-13.138264827
 20
-6.0420168798
 10
-13.123525001
 20
-6.0474562029
 10
-13.1053921772
 20
-6.0548829044
 10
-13.0840723457
 20
-6.064464793
 10
-13.059649415
 20
-6.0764026495
 10
-13.0324405844
 20
-6.0907315362
  0
LINE
  5
30B
100
AcDbEntity
  8
0
100
AcDbLine
 62
253
  6
CONTINUOUS
 10
-1.7823975998
 20
-12.0460027822
 11
1.540530798
 21
-15.6069946711
  0
LWPOLYLINE
  5
30C
100
AcDbEntity
  8
0
100
AcDbPolyline
 62
253
  6
CONTINUOUS
 90
5
 70
0
 10
1.1646165582
 20
-16.3348021884
 10
1.1818676269
 20
-16.3584740146
 10
1.2018195872
 20
-16.3842789375
 10
1.2247891464
 20
-16.4123979307
 10
1.2372610986
 20
-16.4269733359
  0
LWPOLYLINE
  5
30D
100
AcDbEntity
  8
0
100
AcDbPolyline
 62
253
  6
CONTINUOUS
 90
34
 70
0
 10
6.7319136161
 20
-24.9012437638
 10
6.7274930037
 20
-24.8951418678
 10
6.722685707
 20
-24.8888220361
 10
6.7175025764
 20
-24.8822985325
 10
6.7119553135
 20
-24.8755860847
 10
6.7060564357
 20
-24.8686998393
 10
6.6998192463
 20
-24.8616553266
 10
6.6932578125
 20
-24.8544684364
 10
6.68638695
 20
-24.8471553981
 10
6.6792221813
 20
-24.8397327335
 10
6.6717796848
 20
-24.8322172025
 10
6.6640762526
 20
-24.824625762
 10
6.656129269
 20
-24.8169755429
 10
6.6479566696
 20
-24.8092838112
 10
6.6395769015
 20
-24.8015679285
 10
6.6310088779
 20
-24.7938453096
 10
6.6222719376
 20
-24.786133385
 10
6.6133858
 20
-24.7784495607
 10
6.6043705203
 20
-24.7708111782
 10
6.5952464479
 20
-24.763235479
 10
6.5860341747
 20
-24.7557395605
 10
6.5767544871
 20
-24.7483403365
 10
6.5674283181
 20
-24.7410544987
 10
6.5580767288
 20
-24.7338985009
 10
6.5487208549
 20
-24.7268885163
 10
6.53938183
 20
-24.720040378
 10
6.5300807153
 20
-24.7133695282
 10
6.5208384804
 20
-24.706891006
 10
6.511675754
 20
-24.7006192772
 10
6.5026134529
 20
-24.6945686648
 10
6.4936726852
 20
-24.6887532451
 10
6.4848738136
 20
-24.6831862224
 10
6.4762364371
 20
-24.6778799562
 10
6.4677800041
 20
-24.6728463587
  0
LWPOLYLINE
  5
30E
100
AcDbEntity
  8
RACCORDO
100
AcDbPolyline
 62
7
  6
CONTINUOUS
 90
10
 70
0
 10
-11.162363509
 20
13.1516308207
 10
-11.1542644789
 20
13.1045584214
 10
-11.1426332977
 20
13.0575646094
 10
-11.1276374731
 20
13.0110821101
 10
-11.1094269513
 20
12.9654425599
 10
-11.0881740449
 20
12.9210381033
 10
-11.0640505806
 20
12.8782328161
 10
-11.0372544107
 20
12.8374178908
 10
-11.0080140943
 20
12.7990028201
 10
-10.9764628522
 20
12.7632606563
  0
LINE
  5
30F
100
AcDbEntity
  8
0
100
AcDbLine
 62
7
  6
CONTINUOUS
 10
-7.673434443
 20
22.1750322171
 11
-7.6760273974
 21
22.2111762853
  0
LWPOLYLINE
  5
310
100
AcDbEntity
  8
RACCORDO
100
AcDbPolyline
 62
253
  6
CONTINUOUS
 90
9
 70
0
 10
-6.9730347554
 20
21.5387400391
 10
-6.9726772661
 20
21.5303278692
 10
-6.9699580416
 20
21.514218194
 10
-6.9645710248
 20
21.498469164
 10
-6.956556806
 20
21.4832521701
 10
-6.9459712583
 20
21.4687447588
 10
-6.9328991724
 20
21.45511059
 10
-6.9174632307
 20
21.4424958444
 10
-6.8998114523
 20
21.4310462261
  0
LWPOLYLINE
  5
311
100
AcDbEntity
  8
0
100
AcDbPolyline
 62
253
  6
CONTINUOUS
 90
17
 70
0
 10
-7.6028044066
 20
22.1088788726
 10
-7.6026361107
 20
22.1000714073
 10
-7.6021315435
 20
22.0914750556
 10
-7.6012916657
 20
22.0831061852
 10
-7.6001180799
 20
22.0749807525
 10
-7.598613019
 20
22.0671142058
 10
-7.5967793326
 20
22.0595214637
 10
-7.5946204886
 20
22.0522169416
 10
-7.5921406012
 20
22.0452146078
 10
-7.5893444214
 20
22.0385278842
 10
-7.5862372989
 20
22.0321695392
 10
-7.5828251368
 20
22.0261516308
 10
-7.5791144088
 20
22.0204855745
 10
-7.5751121481
 20
22.0151821247
 10
-7.5708259989
 20
22.0102514251
 10
-7.5662641894
 20
22.0057029316
 10
-7.5614354599
 20
22.0015453265
  0
LINE
  5
312
100
AcDbEntity
  8
0
100
AcDbLine
 62
253
  6
CONTINUOUS
 10
-7.6028044066
 20
22.4293990455
 11
-7.6028044066
 21
22.1088788726
  0
LINE
  5
313
100
AcDbEntity
  8
0
100
AcDbLine
 62
7
  6
CONTINUOUS
 10
-6.973034757
 20
21.6607152821
 11
-6.973034757
 21
21.5387564542
  0
LINE
  5
314
100
AcDbEntity
  8
RACCORDO
100
AcDbLine
 62
253
  6
CONTINUOUS
 10
-6.8998114523
 20
21.6184370636
 11
-6.8998114523
 21
21.4310462261
  0
LINE
  5
315
100
AcDbEntity
  8
0
100
AcDbLine
 62
253
  6
CONTINUOUS
 10
-5.9242663362
 20
21.1397120278
 11
-5.9242663362
 21
21.4602322006
  0
LINE
  5
316
100
AcDbEntity
  8
0
100
AcDbLine
 62
7
  6
CONTINUOUS
 10
-5.915007234
 20
-12.1253777672
 11
-5.915007234
 21
-12.4343475454
  0
LWPOLYLINE
  5
317
100
AcDbEntity
  8
0
100
AcDbPolyline
 62
253
  6
CONTINUOUS
 90
34
 70
0
 10
-5.9242663362
 20
21.4602322006
 10
-5.9240675883
 20
21.4700233157
 10
-5.9234717915
 20
21.4800219238
 10
-5.9224802856
 20
21.4902055422
 10
-5.9210952999
 20
21.5005512725
 10
-5.9193199488
 20
21.5110358513
 10
-5.9171582242
 20
21.5216357033
 10
-5.914614987
 20
21.532326994
 10
-5.9116959558
 20
21.5430856832
 10
-5.9084076942
 20
21.5538875791
 10
-5.9047575962
 20
21.5647083929
 10
-5.9007538694
 20
21.5755237932
 10
-5.8964055163
 20
21.5863094607
 10
-5.8917223146
 20
21.597041143
 10
-5.8867147948
 20
21.6076947091
 10
-5.8813942167
 20
21.6182462037
 10
-5.875772544
 20
21.6286719009
 10
-5.8698624176
 20
21.6389483578
 10
-5.8636771266
 20
21.6490524669
 10
-5.8572305793
 20
21.6589615085
 10
-5.8505372713
 20
21.6686532013
 10
-5.8436122528
 20
21.6781057528
 10
-5.8364710953
 20
21.6872979081
 10
-5.8291298563
 20
21.6962089982
 10
-5.8216050431
 20
21.7048189856
 10
-5.8139135759
 20
21.7131085102
 10
-5.8060727493
 20
21.7210589323
 10
-5.7981001943
 20
21.7286523749
 10
-5.7900138375
 20
21.7358717635
 10
-5.7818318619
 20
21.7427008647
 10
-5.7735726652
 20
21.7491243229
 10
-5.7652548188
 20
21.7551276944
 10
-5.7568970261
 20
21.76069748
 10
-5.7485180802
 20
21.7658211559
  0
LINE
  5
318
100
AcDbEntity
  8
0
100
AcDbLine
 62
253
  6
CONTINUOUS
 10
-3.3705801883
 20
22.453200904
 11
-3.3716685626
 21
22.4463850065
  0
LWPOLYLINE
  5
319
100
AcDbEntity
  8
0
100
AcDbPolyline
 62
253
  6
CONTINUOUS
 90
11
 70
0
 10
1.6778352272
 20
18.4724205206
 10
1.6823113078
 20
18.4817770635
 10
1.6870871531
 20
18.4910279101
 10
1.6921498072
 20
18.5001479622
 10
1.6974855167
 20
18.5091124298
 10
1.7030797446
 20
18.5178968758
 10
1.7089172509
 20
18.5264773623
 10
1.7149821447
 20
18.5348305278
 10
1.7212579241
 20
18.5429336411
 10
1.7277275034
 20
18.5507646381
 10
1.7343732742
 20
18.5583022028
  0
LWPOLYLINE
  5
31A
100
AcDbEntity
  8
0
100
AcDbPolyline
 62
7
  6
CONTINUOUS
 90
31
 70
0
 10
9.5751329112
 20
19.5512861666
 10
9.5834457108
 20
19.5604864449
 10
9.5912250373
 20
19.5703293188
 10
9.5984708909
 20
19.5808147882
 10
9.6051938812
 20
19.5919630645
 10
9.6113833985
 20
19.6037539364
 10
9.6170076137
 20
19.6161267696
 10
9.6220636147
 20
19.6290845618
 10
9.6265543136
 20
19.6426243153
 10
9.6304566173
 20
19.6566764023
 10
9.6337674948
 20
19.671243462
 10
9.6364899771
 20
19.6863228552
 10
9.6386100639
 20
19.7018370367
 10
9.6401246523
 20
19.7177882462
 10
9.6410368454
 20
19.734174244
 10
9.6413419521
 20
19.7509107658
 10
9.6410368454
 20
19.7679996173
 10
9.6401246523
 20
19.7854389927
 10
9.6386100639
 20
19.8031392109
 10
9.6364899771
 20
19.8211016156
 10
9.6337674948
 20
19.8393248631
 10
9.6304566173
 20
19.8577152411
 10
9.6265543136
 20
19.8762736106
 10
9.6220636147
 20
19.8949991106
 10
9.6170076137
 20
19.9137954461
 10
9.6113833985
 20
19.932662982
 10
9.6051938812
 20
19.9516013533
 10
9.5984708909
 20
19.9705131703
 10
9.5912250373
 20
19.9893659698
 10
9.5834457108
 20
20.008192215
 10
9.5751329112
 20
20.0269919059
  0
LWPOLYLINE
  5
31B
100
AcDbEntity
  8
RACCORDO
100
AcDbPolyline
 62
253
  6
CONTINUOUS
 90
10
 70
0
 10
6.9565923302
 20
13.1126992162
 10
6.980201423
 20
13.1300811835
 10
7.0029299545
 20
13.1514789444
 10
7.0241324947
 20
13.1762848871
 10
7.0432069445
 20
13.2037946168
 10
7.0596116228
 20
13.2332269403
 10
7.0728806554
 20
13.2637460456
 10
7.0826372208
 20
13.2944852635
 10
7.0886042453
 20
13.3245716816
 10
7.0906122645
 20
13.3531509132
  0
LWPOLYLINE
  5
31C
100
AcDbEntity
  8
RACCORDO
100
AcDbPolyline
 62
253
  6
CONTINUOUS
 90
4
 70
0
 10
3.425403874
 20
11.0321481593
 10
3.3727438128
 20
10.9952896908
 10
3.3205748514
 20
10.9540711048
 10
3.2692020193
 20
10.9087239047
  0
LWPOLYLINE
  5
31D
100
AcDbEntity
  8
RACCORDO
100
AcDbPolyline
 62
7
  6
CONTINUOUS
 90
15
 70
0
 10
3.3227956827
 20
11.0403603365
 10
3.288638371
 20
11.0168363977
 10
3.2211055407
 20
10.9642881512
 10
3.1562924657
 20
10.9057952135
 10
3.0945517947
 20
10.8420009612
 10
3.0361499168
 20
10.7734316416
 10
2.9813704428
 20
10.7005927587
 10
2.9305677903
 20
10.6241027394
 10
2.8841116027
 20
10.5445566404
 10
2.8423176468
 20
10.4625515396
 10
2.8055189737
 20
10.378722046
 10
2.7740442715
 20
10.293675901
 10
2.7481545141
 20
10.2079215701
 10
2.7281665944
 20
10.1219804963
 10
2.7137016156
 20
10.0308074447
  0
LWPOLYLINE
  5
31E
100
AcDbEntity
  8
RACCORDO
100
AcDbPolyline
 62
253
  6
CONTINUOUS
 90
22
 70
0
 10
3.1751462963
 20
11.1766437482
 10
3.1554347563
 20
11.1633568743
 10
3.134676039
 20
11.1486503393
 10
3.1128987378
 20
11.1324275494
 10
3.0900713547
 20
11.1145365076
 10
3.0663046845
 20
11.0949302813
 10
3.0418479375
 20
11.0736928705
 10
3.0167536505
 20
11.0507519859
 10
2.9910861391
 20
11.0260437117
 10
2.9651120026
 20
10.9997162861
 10
2.9388994623
 20
10.9717365545
 10
2.9125244585
 20
10.9420793056
 10
2.8862558197
 20
10.9109594642
 10
2.8601684002
 20
10.8783869757
 10
2.8343398119
 20
10.8443765093
 10
2.8090227235
 20
10.8092011911
 10
2.7842843455
 20
10.7729063179
 10
2.7601951031
 20
10.7355439906
 10
2.7369805869
 20
10.6974396452
 10
2.7147403557
 20
10.6587580011
 10
2.6934684765
 20
10.619485569
 10
2.6732112927
 20
10.5796986921
  0
LWPOLYLINE
  5
31F
100
AcDbEntity
  8
RACCORDO
100
AcDbPolyline
 62
253
  6
CONTINUOUS
 90
22
 70
0
 10
3.2507809873
 20
11.0571366553
 10
3.2329495753
 20
11.0452595123
 10
3.2142341757
 20
11.031918599
 10
3.1946347886
 20
11.0171139153
 10
3.1740460854
 20
11.0008691423
 10
3.1525733947
 20
10.9831605989
 10
3.1305327024
 20
10.963917242
 10
3.1079090698
 20
10.9430987985
 10
3.0847174357
 20
10.9207455414
 10
3.0613186019
 20
10.8969072471
 10
3.0377070734
 20
10.871539647
 10
3.0138883452
 20
10.8446870096
 10
2.9902397049
 20
10.8165319164
 10
2.9667675651
 20
10.7870337425
 10
2.9434655132
 20
10.7562331127
 10
2.920691598
 20
10.7244344826
 10
2.8984624493
 20
10.691605996
 10
2.8767614375
 20
10.657779509
 10
2.8558967217
 20
10.6233550462
 10
2.8359710218
 20
10.5884659489
 10
2.816881618
 20
10.5529788758
 10
2.7986285103
 20
10.5168938268
  0
LINE
  5
320
100
AcDbEntity
  8
RACCORDO
100
AcDbLine
 62
253
  6
CONTINUOUS
 10
4.553028385
 20
12.0853440272
 11
3.1751462963
 21
11.1766437482
  0
LINE
  5
321
100
AcDbEntity
  8
RACCORDO
100
AcDbLine
 62
253
  6
CONTINUOUS
 10
4.6238144305
 20
11.9626392982
 11
3.2507809873
 21
11.0571366553
  0
LINE
  5
322
100
AcDbEntity
  8
RACCORDO
100
AcDbLine
 62
7
  6
CONTINUOUS
 10
4.7000403362
 20
11.9486579197
 11
3.3226961094
 21
11.0403123556
  0
LINE
  5
323
100
AcDbEntity
  8
RACCORDO
100
AcDbLine
 62
253
  6
CONTINUOUS
 10
4.8032859627
 20
11.9408484383
 11
3.425403874
 21
11.0321481593
  0
LWPOLYLINE
  5
324
100
AcDbEntity
  8
0
100
AcDbPolyline
 62
253
  6
CONTINUOUS
 90
43
 70
0
 10
4.0220389289
 20
10.6876585562
 10
3.9988480117
 20
10.6726751554
 10
3.9757220142
 20
10.6568641087
 10
3.9526852827
 20
10.6402423537
 10
3.9297619794
 20
10.6228278981
 10
3.9069763231
 20
10.6046391774
 10
3.8843525712
 20
10.585694996
 10
3.8619143582
 20
10.5660154112
 10
3.8396855016
 20
10.5456215847
 10
3.8176902422
 20
10.5245351329
 10
3.7959518384
 20
10.5027786633
 10
3.7744930682
 20
10.4803753212
 10
3.7533370423
 20
10.4573486079
 10
3.7325060276
 20
10.4337230712
 10
3.7120219611
 20
10.4095239322
 10
3.6919069496
 20
10.3847766446
 10
3.6721821562
 20
10.3595075551
 10
3.6528683641
 20
10.3337436428
 10
3.6339864931
 20
10.3075121401
 10
3.615556454
 20
10.2808410344
 10
3.597597611
 20
10.2537587259
 10
3.5801293477
 20
10.2262937653
 10
3.5631700676
 20
10.1984754074
 10
3.5467376079
 20
10.1703332931
 10
3.530849703
 20
10.141897108
 10
3.5155230763
 20
10.1131970915
 10
3.5007738665
 20
10.0842638474
 10
3.4866180425
 20
10.0551280227
 10
3.4730705354
 20
10.0258206643
 10
3.4601455668
 20
9.9963729407
 10
3.4478570785
 20
9.9668159507
 10
3.436218031
 20
9.9371811604
 10
3.4252406457
 20
9.9075000902
 10
3.414936741
 20
9.8778040377
 10
3.4053171465
 20
9.8481244562
 10
3.3963920202
 20
9.8184930526
 10
3.388171081
 20
9.7889414716
 10
3.3806630447
 20
9.759501357
 10
3.373875711
 20
9.7302037865
 10
3.367816312
 20
9.7010793759
 10
3.3624912797
 20
9.6721589142
 10
3.3579062043
 20
9.6434733228
 10
3.3540659282
 20
9.615053094
  0
LWPOLYLINE
  5
325
100
AcDbEntity
  8
0
100
AcDbPolyline
 62
253
  6
CONTINUOUS
 90
43
 70
0
 10
4.3878716689
 20
10.0829977178
 10
4.376163399
 20
10.0755548111
 10
4.3645100972
 20
10.0677139807
 10
4.3529117635
 20
10.0594752267
 10
4.3413555264
 20
10.0508285455
 10
4.3298542574
 20
10.0417839407
 10
4.3184465713
 20
10.0323714222
 10
4.3071334054
 20
10.0225902067
 10
4.2959138224
 20
10.0124410775
 10
4.2848236246
 20
10.0019563956
 10
4.2738632738
 20
9.9911351287
 10
4.2630323083
 20
9.979978309
 10
4.2523651454
 20
9.9685213941
 10
4.2418622975
 20
9.9567634241
 10
4.2315232522
 20
9.944705359
 10
4.2213808901
 20
9.9323855356
 10
4.2114358156
 20
9.9198030878
 10
4.2016874243
 20
9.9069588817
 10
4.1921667835
 20
9.8938938523
 10
4.1828746387
 20
9.8806073176
 10
4.1738102444
 20
9.8670999596
 10
4.1650024316
 20
9.8534147586
 10
4.1564520222
 20
9.8395511565
 10
4.1481581942
 20
9.8255097114
 10
4.1401473131
 20
9.8113350774
 10
4.1324202713
 20
9.797026814
 10
4.1249761762
 20
9.7825853617
 10
4.1178387152
 20
9.7680566967
 10
4.1110088753
 20
9.7534405608
 10
4.1044856694
 20
9.7387372122
 10
4.0982898233
 20
9.7239934018
 10
4.0924223787
 20
9.709209013
 10
4.0868822939
 20
9.6943841623
 10
4.0816871697
 20
9.67956595
 10
4.0768380941
 20
9.6647543363
 10
4.0723339792
 20
9.649949361
 10
4.0681891615
 20
9.6351982436
 10
4.0644046668
 20
9.6205001892
 10
4.0609794694
 20
9.6058559926
 10
4.057924829
 20
9.5913152589
 10
4.055244499
 20
9.5768945229
 10
4.052934726
 20
9.5625772497
 10
4.0509955101
 20
9.5483634393
  0
LINE
  5
326
100
AcDbEntity
  8
RACCORDO
100
AcDbLine
 62
253
  6
CONTINUOUS
 10
7.4431342242
 20
13.3717020381
 11
8.3331944069
 21
13.9332155198
  0
LINE
  5
327
100
AcDbEntity
  8
RACCORDO
100
AcDbLine
 62
253
  6
CONTINUOUS
 10
7.5911318576
 20
13.1307766766
 11
8.4745750963
 21
13.6881157178
  0
LWPOLYLINE
  5
328
100
AcDbEntity
  8
0
100
AcDbPolyline
 62
7
  6
CONTINUOUS
 90
21
 70
0
 10
14.9978849146
 20
18.0943739905
 10
15.0114624937
 20
18.1028259997
 10
15.0244086413
 20
18.1115542781
 10
15.0367233576
 20
18.1205588255
 10
15.048424154
 20
18.1298547852
 10
15.0594935189
 20
18.139427014
 10
15.0698789179
 20
18.1492300826
 10
15.0795770998
 20
18.1592650885
 10
15.0885913156
 20
18.1695309342
 10
15.0968787846
 20
18.1799788986
 10
15.1044360521
 20
18.1906098475
 10
15.1112665726
 20
18.2014229152
 10
15.117337929
 20
18.2123667835
 10
15.1226465126
 20
18.2234420741
 10
15.127195932
 20
18.2346481653
 10
15.130964596
 20
18.2459318735
 10
15.1339487932
 20
18.2572935679
 10
15.136152235
 20
18.2687328794
 10
15.1375644639
 20
18.2801955176
 10
15.138181719
 20
18.2916815936
 10
15.1382127291
 20
18.2949175089
  0
LINE
  5
329
100
AcDbEntity
  8
0
100
AcDbLine
 62
253
  6
CONTINUOUS
 10
8.6863997924
 20
13.5658107931
 11
4.0220389289
 21
10.6876585562
  0
LINE
  5
32A
100
AcDbEntity
  8
0
100
AcDbLine
 62
253
  6
CONTINUOUS
 10
9.0397004931
 20
12.9534170373
 11
4.3878716689
 21
10.0829977178
  0
LINE
  5
32B
100
AcDbEntity
  8
0
100
AcDbLine
 62
253
  6
CONTINUOUS
 10
9.3879967801
 20
13.972516587
 11
8.6870608263
 21
13.5654291204
  0
LINE
  5
32C
100
AcDbEntity
  8
0
100
AcDbLine
 62
253
  6
CONTINUOUS
 10
9.7415456833
 20
13.3601605601
 11
9.0406097295
 21
12.9530730935
  0
LWPOLYLINE
  5
32D
100
AcDbEntity
  8
0
100
AcDbPolyline
 62
253
  6
CONTINUOUS
 90
37
 70
0
 10
4.0509955101
 20
9.5483634393
 10
4.0353293689
 20
9.5426285921
 10
4.0190456828
 20
9.5372910952
 10
4.0021747715
 20
9.5323608867
 10
3.9847480479
 20
9.5278471466
 10
3.9667979601
 20
9.5237582793
 10
3.9483579304
 20
9.5201018981
 10
3.9294622936
 20
9.516884811
 10
3.9101462326
 20
9.5141130083
 10
3.8904457133
 20
9.5117916508
 10
3.8703974173
 20
9.5099250608
 10
3.8500386739
 20
9.508516714
 10
3.8294073904
 20
9.5075692325
 10
3.8085419814
 20
9.5070843805
 10
3.7874812977
 20
9.5070630609
 10
3.7662645534
 20
9.5075053133
 10
3.7449312534
 20
9.5084103143
 10
3.7235211196
 20
9.5097763787
 10
3.7020740168
 20
9.5116009631
 10
3.6806298789
 20
9.5138806701
 10
3.659228634
 20
9.5166112549
 10
3.6379101306
 20
9.5197876334
 10
3.6167140629
 20
9.5234038912
 10
3.5956798972
 20
9.527453295
 10
3.5748467984
 20
9.5319283048
 10
3.5542535571
 20
9.5368205885
 10
3.5339385171
 20
9.5421210368
 10
3.5139395043
 20
9.5478197803
 10
3.4942937562
 20
9.5539062083
 10
3.4750378524
 20
9.5603689881
 10
3.4562076468
 20
9.5671960861
 10
3.4378382006
 20
9.5743747905
 10
3.4199637169
 20
9.5818917349
 10
3.4026174776
 20
9.5897329229
 10
3.3858317806
 20
9.5978837546
 10
3.3696378803
 20
9.6063290534
 10
3.3540659293
 20
9.6150530944
  0
LWPOLYLINE
  5
32E
100
AcDbEntity
  8
0
100
AcDbPolyline
 62
253
  6
CONTINUOUS
 90
7
 70
0
 10
-13.2660475504
 20
-5.9840802482
 10
-13.2519112505
 20
-5.9853424945
 10
-13.23466098
 20
-5.9884560123
 10
-13.214409704
 20
-5.9935822212
 10
-13.1910302188
 20
-6.0009226082
 10
-13.164837443
 20
-6.0105304581
 10
-13.1366069426
 20
-6.0223357612
  0
LINE
  5
32F
100
AcDbEntity
  8
0
100
AcDbLine
 62
253
  6
CONTINUOUS
 10
9.7591334343
 20
-13.4401456977
 11
10.0044141691
 21
-13.5817677199
  0
LINE
  5
330
100
AcDbEntity
  8
0
100
AcDbLine
 62
253
  6
CONTINUOUS
 10
9.7591334343
 20
-12.9545523889
 11
10.2092058329
 21
-13.2144185511
  0
LINE
  5
331
100
AcDbEntity
  8
0
100
AcDbLine
 62
253
  6
CONTINUOUS
 10
9.7591334343
 20
-12.9247937489
 11
10.2092058329
 21
-13.1846599111
  0
LINE
  5
332
100
AcDbEntity
  8
0
100
AcDbLine
 62
253
  6
CONTINUOUS
 10
9.7591334343
 20
-12.8286026907
 11
10.1715118281
 21
-13.0667048069
  0
LINE
  5
333
100
AcDbEntity
  8
0
100
AcDbLine
 62
7
  6
CONTINUOUS
 10
14.9917684051
 20
-15.6294027643
 11
14.6865928171
 21
-15.4531982045
  0
LWPOLYLINE
  5
334
100
AcDbEntity
  8
0
100
AcDbPolyline
 62
7
  6
CONTINUOUS
 90
10
 70
0
 10
1.2252388574
 20
-16.3864406417
 10
1.2239465611
 20
-16.3842539503
 10
1.2235430169
 20
-16.3835388811
 10
1.2246777029
 20
-16.3858660252
 10
1.2270162228
 20
-16.3912735641
 10
1.230453571
 20
-16.4005925202
 10
1.234435244
 20
-16.4140052246
 10
1.2382179689
 20
-16.431364503
 10
1.2410678457
 20
-16.4530240493
 10
1.2418671816
 20
-16.4661052601
  0
LWPOLYLINE
  5
335
100
AcDbEntity
  8
0
100
AcDbPolyline
 62
253
  6
CONTINUOUS
 90
19
 70
0
 10
-5.9242663362
 20
21.1397120278
 10
-5.924098504
 20
21.130916563
 10
-5.9235950973
 20
21.1223287188
 10
-5.9227567302
 20
21.1139650365
 10
-5.9215845036
 20
21.1058407506
 10
-5.920080385
 20
21.0979725426
 10
-5.9182475819
 20
21.090378207
 10
-5.916089857
 20
21.0830730464
 10
-5.9136111229
 20
21.0760700618
 10
-5.9108160656
 20
21.0693825119
 10
-5.9077099686
 20
21.0630230885
 10
-5.9042987584
 20
21.0570039694
 10
-5.900588974
 20
21.0513367044
 10
-5.8965877108
 20
21.0460321173
 10
-5.8923025649
 20
21.0411002646
 10
-5.8877416648
 20
21.036550503
 10
-5.8829136588
 20
21.0323914746
 10
-5.8778277657
 20
21.0286311349
 10
-5.8724994072
 20
21.0252799641
  0
LINE
  5
336
100
AcDbEntity
  8
CURVE
100
AcDbLine
 62
252
  6
CONTINUOUS
 10
-4.801952299
 20
-10.8431843906
 11
-4.7970667727
 21
-11.1606935464
  0
LINE
  5
337
100
AcDbEntity
  8
0
100
AcDbLine
 62
253
  6
CONTINUOUS
 10
-5.5717443765
 20
21.1391199472
 11
-5.5717443765
 21
21.45964012
  0
LINE
  5
338
100
AcDbEntity
  8
0
100
AcDbLine
 62
7
  6
CONTINUOUS
 10
-5.3761176296
 20
-10.938388163
 11
-5.3761176296
 21
-10.5109591976
  0
LINE
  5
339
100
AcDbEntity
  8
RACCORDO
100
AcDbLine
 62
253
  6
CONTINUOUS
 10
-5.2130457281
 20
20.4571288371
 11
-5.2130457281
 21
20.9415108349
  0
LINE
  5
33A
100
AcDbEntity
  8
RACCORDO
100
AcDbLine
 62
253
  6
CONTINUOUS
 10
-4.8605237684
 20
20.475679962
 11
-4.8605237684
 21
21.0736299343
  0
LINE
  5
33B
100
AcDbEntity
  8
0
100
AcDbLine
 62
7
  6
CONTINUOUS
 10
-3.9704635857
 20
22.3841985462
 11
-3.9704635857
 21
21.6987561685
  0
LINE
  5
33C
100
AcDbEntity
  8
RACCORDO
100
AcDbLine
 62
7
  6
CONTINUOUS
 10
-3.9704635857
 20
21.0371934437
 11
-3.9704635857
 21
21.6987561685
  0
LWPOLYLINE
  5
33D
100
AcDbEntity
  8
0
100
AcDbPolyline
 62
253
  6
CONTINUOUS
 90
3
 70
0
 10
-3.369998557
 20
22.463041548
 10
-3.3700526502
 20
22.460038929
 10
-3.3705801883
 20
22.453200904
  0
LWPOLYLINE
  5
33E
100
AcDbEntity
  8
0
100
AcDbPolyline
 62
253
  6
CONTINUOUS
 90
18
 70
0
 10
-3.369998557
 20
22.7906868485
 10
-3.3700532365
 20
22.7876680013
 10
-3.3705822095
 20
22.780829141
 10
-3.371672148
 20
22.774012496
 10
-3.3733205951
 20
22.7672333785
 10
-3.3755238534
 20
22.7605069912
 10
-3.3782770005
 20
22.7538484008
 10
-3.3815738308
 20
22.7472726477
 10
-3.3854068454
 20
22.7407946613
 10
-3.3897673314
 20
22.7344290901
 10
-3.394645501
 20
22.7281901555
 10
-3.4000304611
 20
22.7220917672
 10
-3.4059110221
 20
22.7161467584
 10
-3.4122731839
 20
22.7103694305
 10
-3.4190995848
 20
22.7047751576
 10
-3.4263732059
 20
22.699377035
 10
-3.4340780939
 20
22.6941861041
 10
-3.442196414
 20
22.6892137354
  0
LWPOLYLINE
  5
33F
100
AcDbEntity
  8
0
100
AcDbPolyline
 62
7
  6
CONTINUOUS
 90
5
 70
0
 10
-3.369998557
 20
22.463041548
 10
-3.3722967205
 20
22.4292296067
 10
-3.3792560762
 20
22.3956419909
 10
-3.3908614183
 20
22.3630606914
 10
-3.4069495114
 20
22.3322360535
  0
LWPOLYLINE
  5
340
100
AcDbEntity
  8
0
100
AcDbPolyline
 62
7
  6
CONTINUOUS
 90
25
 70
0
 10
4.3026857542
 20
16.5313194742
 10
4.3082637444
 20
16.5420668929
 10
4.3133708404
 20
16.5532768524
 10
4.3180070422
 20
16.5649493528
 10
4.3221775025
 20
16.5771021612
 10
4.3258770686
 20
16.5897175105
 10
4.3290902822
 20
16.602742099
 10
4.3318151072
 20
16.6161776312
 10
4.3340535797
 20
16.6300224028
 10
4.3357963496
 20
16.6442179985
 10
4.3370413432
 20
16.6587658817
 10
4.3377906342
 20
16.6736645891
 10
4.3380410932
 20
16.6888513159
 10
4.3377906342
 20
16.7043272664
 10
4.3370413432
 20
16.7200912362
 10
4.3357963496
 20
16.7360768069
 10
4.3340535797
 20
16.7522849096
 10
4.3318151072
 20
16.768714613
 10
4.3290902822
 20
16.785296705
 10
4.3258770686
 20
16.802031832
 10
4.3221775025
 20
16.8189193474
 10
4.3180070422
 20
16.8358880989
 10
4.3133708404
 20
16.8529143688
 10
4.3082637444
 20
16.8700218749
 10
4.3026857542
 20
16.8872106169
  0
LWPOLYLINE
  5
341
100
AcDbEntity
  8
RACCORDO
100
AcDbPolyline
 62
253
  6
CONTINUOUS
 90
13
 70
0
 10
3.2692020193
 20
10.9087239047
 10
3.2189528185
 20
10.8595247689
 10
3.1700937854
 20
10.8067341604
 10
3.1228359379
 20
10.7505790073
 10
3.0774201878
 20
10.6913054372
 10
3.0341734869
 20
10.6292966577
 10
2.9934171987
 20
10.5650138958
 10
2.9553910713
 20
10.4988305743
 10
2.9203204577
 20
10.4311300617
 10
2.88845384
 20
10.3624240472
 10
2.8599894043
 20
10.293187728
 10
2.8350425198
 20
10.2237509543
 10
2.8137063248
 20
10.1544138914
  0
LINE
  5
342
100
AcDbEntity
  8
0
100
AcDbLine
 62
7
  6
CONTINUOUS
 10
9.5772790531
 20
13.7997793411
 11
14.6464985091
 21
17.7864905947
  0
LINE
  5
343
100
AcDbEntity
  8
0
100
AcDbLine
 62
253
  6
CONTINUOUS
 10
9.5309245692
 20
13.8550692973
 11
14.6865928171
 21
17.8900891228
  0
LINE
  5
344
100
AcDbEntity
  8
RACCORDO
100
AcDbLine
 62
253
  6
CONTINUOUS
 10
2.2055490161
 20
5.59547265
 11
2.284863754
 21
5.6389111802
  0
LINE
  5
345
100
AcDbEntity
  8
RACCORDO
100
AcDbLine
 62
7
  6
CONTINUOUS
 10
2.0801085072
 20
5.3545881724
 11
2.2657834214
 21
5.4562772858
  0
LWPOLYLINE
  5
346
100
AcDbEntity
  8
RACCORDO
100
AcDbPolyline
 62
253
  6
CONTINUOUS
 90
7
 70
0
 10
1.9643169206
 20
5.410353192
 10
1.9523065115
 20
5.4041372104
 10
1.9399750376
 20
5.3989915981
 10
1.9273178199
 20
5.3949541508
 10
1.9143389042
 20
5.3919867722
 10
1.9012613276
 20
5.3900176386
 10
1.8880726185
 20
5.3890803428
  0
LWPOLYLINE
  5
347
100
AcDbEntity
  8
RACCORDO
100
AcDbPolyline
 62
253
  6
CONTINUOUS
 90
10
 70
0
 10
2.2055489206
 20
5.5954727071
 10
2.1922141098
 20
5.5905120806
 10
2.1772112287
 20
5.5869331489
 10
2.1609861247
 20
5.5848422687
 10
2.1440209663
 20
5.5843015755
 10
2.1268199149
 20
5.5853271374
 10
2.1098941418
 20
5.5878884774
 10
2.0937466378
 20
5.5919094788
 10
2.0788572655
 20
5.5972706479
 10
2.065668499
 20
5.6038126644
  0
LINE
  5
348
100
AcDbEntity
  8
0
100
AcDbLine
 62
7
  6
CONTINUOUS
 10
14.2032000808
 20
-14.4392700478
 11
11.0516223091
 21
-12.619588541
  0
LINE
  5
349
100
AcDbEntity
  8
0
100
AcDbLine
 62
7
  6
CONTINUOUS
 10
10.3404413708
 20
-11.5410532187
 11
9.7591334343
 21
-11.2054133017
  0
LWPOLYLINE
  5
34A
100
AcDbEntity
  8
0
100
AcDbPolyline
 62
253
  6
CONTINUOUS
 90
4
 70
0
 10
-7.674187234
 20
22.1934644868
 10
-7.6753437302
 20
22.2002772077
 10
-7.6759395286
 20
22.2071139306
 10
-7.6760277113
 20
22.210947521
  0
LINE
  5
34B
100
AcDbEntity
  8
0
100
AcDbLine
 62
253
  6
CONTINUOUS
 10
-3.442196414
 20
22.6892137354
 11
-3.442196414
 21
22.3615684349
  0
LINE
  5
34C
100
AcDbEntity
  8
0
100
AcDbLine
 62
7
  6
CONTINUOUS
 10
-3.369998557
 20
22.7906868485
 11
-3.369998557
 21
22.463041548
  0
LINE
  5
34D
100
AcDbEntity
  8
DRAFT
100
AcDbLine
 62
7
  6
CONTINUOUS
 10
-3.3694228217
 20
16.8523071364
 11
-3.3694228217
 21
17.6049405011
  0
LINE
  5
34E
100
AcDbEntity
  8
0
100
AcDbLine
 62
7
  6
CONTINUOUS
 10
-3.0450540298
 20
20.4138087356
 11
-3.0450540298
 21
19.0503973293
  0
LINE
  5
34F
100
AcDbEntity
  8
0
100
AcDbLine
 62
7
  6
CONTINUOUS
 10
-2.379473328
 20
18.6660993738
 11
-2.379473328
 21
20.0295107801
  0
LWPOLYLINE
  5
350
100
AcDbEntity
  8
0
100
AcDbPolyline
 62
7
  6
CONTINUOUS
 90
31
 70
0
 10
-1.6723665469
 20
20.2801886567
 10
-1.672169817
 20
20.2888550109
 10
-1.6715937271
 20
20.2976712624
 10
-1.6706382774
 20
20.3066374112
 10
-1.6692988191
 20
20.3157785936
 10
-1.667580001
 20
20.3250696734
 10
-1.6654957684
 20
20.3344352414
 10
-1.6630431237
 20
20.3438759758
 10
-1.6602250647
 20
20.3533911984
 10
-1.6570645303
 20
20.3629034666
 10
-1.6535587805
 20
20.3724126348
 10
-1.6497105554
 20
20.3819188484
 10
-1.6455510144
 20
20.3913451011
 10
-1.6410775653
 20
20.4006908747
 10
-1.6362928002
 20
20.4099566872
 10
-1.6312356553
 20
20.4190670859
 10
-1.6259038931
 20
20.4280207939
 10
-1.6202997511
 20
20.4368190882
 10
-1.6144688782
 20
20.445390346
 10
-1.6084095145
 20
20.453732602
 10
-1.60212342
 20
20.4618478215
 10
-1.5956615229
 20
20.4696702778
 10
-1.5890223114
 20
20.47719769
 10
-1.5822072974
 20
20.484432339
 10
-1.5752719456
 20
20.4913153403
 10
-1.5682153265
 20
20.4978437751
 10
-1.5610383696
 20
20.5040205622
 10
-1.5537993274
 20
20.5097955731
 10
-1.5465176176
 20
20.5151520985
 10
-1.5391738224
 20
20.5201068477
 10
-1.5317679421
 20
20.5246598209
  0
LWPOLYLINE
  5
351
100
AcDbEntity
  8
0
100
AcDbPolyline
 62
253
  6
CONTINUOUS
 90
13
 70
0
 10
-6.8038178695
 20
-12.9474826933
 10
-6.7860421079
 20
-12.8967843945
 10
-6.7717982116
 20
-12.8469762304
 10
-6.7610861805
 20
-12.798058201
 10
-6.7538286226
 20
-12.7496465336
 10
-6.75010293
 20
-12.7021250009
 10
-6.7501412784
 20
-12.6566449206
 10
-6.7541011905
 20
-12.6130970728
 10
-6.7618251435
 20
-12.5715906775
 10
-6.7730727456
 20
-12.5336047116
 10
-6.7877638663
 20
-12.4996321675
 10
-6.805978636
 20
-12.469180053
 10
-6.8277170548
 20
-12.4422483679
  0
LWPOLYLINE
  5
352
100
AcDbEntity
  8
RACCORDO
100
AcDbPolyline
 62
253
  6
CONTINUOUS
 90
13
 70
0
 10
2.7986285103
 20
10.5207954321
 10
2.7776472099
 20
10.4780281442
 10
2.7584680271
 20
10.4362093579
 10
2.7410909618
 20
10.3953390731
 10
2.7255857482
 20
10.3553061956
 10
2.7118826522
 20
10.3162218197
 10
2.6997724711
 20
10.2784192278
 10
2.6892664486
 20
10.2418268753
 10
2.6803533411
 20
10.2065163068
 10
2.6727902154
 20
10.173035439
 10
2.6664960939
 20
10.1415669105
 10
2.6615519541
 20
10.1119280826
 10
2.6579577962
 20
10.0841189553
  0
LWPOLYLINE
  5
353
100
AcDbEntity
  8
0
100
AcDbPolyline
 62
253
  6
CONTINUOUS
 90
10
 70
0
 10
-9.7510016612
 20
-15.8018939524
 10
-9.7635182659
 20
-15.8271665934
 10
-9.7745055962
 20
-15.8528384957
 10
-9.7838657629
 20
-15.8786809415
 10
-9.791515374
 20
-15.9044636936
 10
-9.797386277
 20
-15.9299570467
 10
-9.8014261665
 20
-15.9549338738
 10
-9.8035990501
 20
-15.9791716497
 10
-9.8038855689
 20
-16.0024544337
 10
-9.8022831703
 20
-16.0245747933
  0
LWPOLYLINE
  5
354
100
AcDbEntity
  8
RACCORDO
100
AcDbPolyline
 62
253
  6
CONTINUOUS
 90
16
 70
0
 10
2.6732112927
 20
10.5796986921
 10
2.6549899498
 20
10.5431351224
 10
2.6379516036
 20
10.5067605114
 10
2.6220870093
 20
10.4706443283
 10
2.6073522192
 20
10.4347706443
 10
2.5937678704
 20
10.3992808385
 10
2.5813979545
 20
10.3644749679
 10
2.5702027962
 20
10.3304027269
 10
2.5601404584
 20
10.297110987
 10
2.5512294703
 20
10.2648855235
 10
2.5434085778
 20
10.2337670778
 10
2.5366092545
 20
10.2037675057
 10
2.5308028317
 20
10.1751132341
 10
2.5259198805
 20
10.1478796444
 10
2.5218683344
 20
10.1219960369
 10
2.5185718799
 20
10.0974568863
  0
LINE
  5
355
100
AcDbEntity
  8
0
100
AcDbLine
 62
253
  6
CONTINUOUS
 10
-10.0370725351
 20
-14.8530324074
 11
-8.5954298802
 21
-12.1322232592
  0
LINE
  5
356
100
AcDbEntity
  8
0
100
AcDbLine
 62
253
  6
CONTINUOUS
 10
8.8792012949
 20
15.2032968231
 11
8.8791615792
 21
15.2032467063
  0
LINE
  5
357
100
AcDbEntity
  8
0
100
AcDbLine
 62
253
  6
CONTINUOUS
 10
8.3331944069
 20
14.5947782446
 11
8.8614615787
 21
15.257590511
  0
LINE
  5
358
100
AcDbEntity
  8
0
100
AcDbLine
 62
7
  6
CONTINUOUS
 10
8.3331944069
 20
14.5182264018
 11
8.8791615792
 21
15.2032467063
  0
LWPOLYLINE
  5
359
100
AcDbEntity
  8
0
100
AcDbPolyline
 62
253
  6
CONTINUOUS
 90
13
 70
0
 10
-10.3874887978
 20
-10.0967685571
 10
-10.3629925959
 20
-10.0663824923
 10
-10.3352858791
 20
-10.0386120602
 10
-10.3048427191
 20
-10.0139324226
 10
-10.2721840033
 20
-9.9927658534
 10
-10.2378685389
 20
-9.9754745247
 10
-10.2024834941
 20
-9.962354303
 10
-10.1666343101
 20
-9.9536296712
 10
-10.1309343884
 20
-9.9494499082
 10
-10.0959946111
 20
-9.9498865204
 10
-10.0624128152
 20
-9.9549320083
 10
-10.0307635661
 20
-9.9645000166
 10
-10.0015883738
 20
-9.9784268112
  0
LINE
  5
35A
100
AcDbEntity
  8
RACCORDO
100
AcDbLine
 62
7
  6
CONTINUOUS
 10
2.2111176236
 20
5.3513493073
 11
2.2009316427
 21
5.344015166
  0
LINE
  5
35B
100
AcDbEntity
  8
RACCORDO
100
AcDbLine
 62
7
  6
CONTINUOUS
 10
2.2010079523
 20
5.3440582631
 11
2.2009159445
 21
5.3440023407
  0
LWPOLYLINE
  5
35C
100
AcDbEntity
  8
RACCORDO
100
AcDbPolyline
 62
253
  6
CONTINUOUS
 90
9
 70
0
 10
2.2009159445
 20
5.3440023407
 10
2.1913849014
 20
5.338551844
 10
2.1688775727
 20
5.3281632897
 10
2.1461411987
 20
5.3208013953
 10
2.1233181867
 20
5.316179726
 10
2.1006520206
 20
5.3140635814
 10
2.0783252635
 20
5.3142081759
 10
2.0563353841
 20
5.316351982
 10
2.0348249653
 20
5.3202835798
  0
LINE
  5
35D
100
AcDbEntity
  8
0
100
AcDbLine
 62
7
  6
CONTINUOUS
 10
9.7591334343
 20
-8.6083085647
 11
9.0691273419
 21
-8.2099076948
  0
LWPOLYLINE
  5
35E
100
AcDbEntity
  8
0
100
AcDbPolyline
 62
253
  6
CONTINUOUS
 90
12
 70
0
 10
8.8538974054
 20
-23.4406780419
 10
8.8488725678
 20
-23.4309089254
 10
8.843474854
 20
-23.421470255
 10
8.8377164463
 20
-23.4123833331
 10
8.8316103409
 20
-23.4036686684
 10
8.8251703191
 20
-23.3953459294
 10
8.8184109156
 20
-23.3874339
 10
8.811347386
 20
-23.3799504372
 10
8.8039956722
 20
-23.3729124307
 10
8.7963723666
 20
-23.3663357649
 10
8.7884946747
 20
-23.360235283
 10
8.7803803757
 20
-23.3546247533
  0
LWPOLYLINE
  5
35F
100
AcDbEntity
  8
0
100
AcDbPolyline
 62
253
  6
CONTINUOUS
 90
7
 70
0
 10
1.6147467975
 20
-21.7849013489
 10
1.6167177785
 20
-21.7972094836
 10
1.6244760056
 20
-21.8214221262
 10
1.6371715072
 20
-21.8444618749
 10
1.65458706
 20
-21.865934513
 10
1.6764246791
 20
-21.8854726377
 10
1.702310717
 20
-21.9027419463
  0
LINE
  5
360
100
AcDbEntity
  8
0
100
AcDbLine
 62
7
  6
CONTINUOUS
 10
1.6147208093
 20
-21.7846597229
 11
1.6147467975
 21
-21.7849013489
  0
LWPOLYLINE
  5
361
100
AcDbEntity
  8
0
100
AcDbPolyline
 62
253
  6
CONTINUOUS
 90
14
 70
0
 10
1.6587967678
 20
-21.4825012794
 10
1.6185956441
 20
-21.0707399195
 10
1.5815434814
 20
-20.6675882762
 10
1.5475239718
 20
-20.2736951508
 10
1.5163318483
 20
-19.8886615953
 10
1.4876990969
 20
-19.5110232056
 10
1.4614665794
 20
-19.1403900789
 10
1.4375488431
 20
-18.7773385652
 10
1.4158178572
 20
-18.4218313315
 10
1.3962954146
 20
-18.0764948927
 10
1.3787086542
 20
-17.7388845542
 10
1.3625922471
 20
-17.4012866146
 10
1.3478273899
 20
-17.0611116473
 10
1.3345319764
 20
-16.7209653232
  0
LWPOLYLINE
  5
362
100
AcDbEntity
  8
0
100
AcDbPolyline
 62
7
  6
CONTINUOUS
 90
9
 70
0
 10
1.6147467975
 20
-21.7849013489
 10
1.6190736687
 20
-21.8414709793
 10
1.6197707628
 20
-21.8885700771
 10
1.6177702406
 20
-21.9288696475
 10
1.6137434185
 20
-21.9623884385
 10
1.6084651418
 20
-21.9889203193
 10
1.6028476332
 20
-22.0083919106
 10
1.5978360021
 20
-22.021144048
 10
1.596072603
 20
-22.0247642771
  0
LINE
  5
363
100
AcDbEntity
  8
0
100
AcDbLine
 62
7
  6
CONTINUOUS
 10
-1.6723665469
 20
20.2801886567
 11
-1.6723665469
 21
19.1171633612
  0
LINE
  5
364
100
AcDbEntity
  8
0
100
AcDbLine
 62
253
  6
CONTINUOUS
 10
-0.0460209501
 20
18.1781317965
 11
-0.0460209501
 21
19.341157092
  0
LINE
  5
365
100
AcDbEntity
  8
0
100
AcDbLine
 62
253
  6
CONTINUOUS
 10
0.2368217623
 20
18.1866896753
 11
0.2368217623
 21
19.341157092
  0
LWPOLYLINE
  5
366
100
AcDbEntity
  8
0
100
AcDbPolyline
 62
253
  6
CONTINUOUS
 90
31
 70
0
 10
-0.0460209501
 20
19.341157092
 10
-0.0458284899
 20
19.3497845089
 10
-0.0452516313
 20
19.3586107119
 10
-0.0442919418
 20
19.367611679
 10
-0.0429520295
 20
19.3767629217
 10
-0.0412355396
 20
19.3860395235
 10
-0.0391471486
 20
19.395416207
 10
-0.0366925437
 20
19.4048674426
 10
-0.0338784053
 20
19.4143675127
 10
-0.0307123966
 20
19.4238905523
 10
-0.0272031363
 20
19.4334106416
 10
-0.0233601778
 20
19.4429018684
 10
-0.0191939862
 20
19.4523383912
 10
-0.0147159001
 20
19.4616945327
 10
-0.0099381131
 20
19.4709448216
 10
-0.0048736468
 20
19.4800640547
 10
0.0004636888
 20
19.4890273796
 10
0.0060593818
 20
19.4978104393
 10
0.0118982502
 20
19.5063894057
 10
0.0179644861
 20
19.5147410362
 10
0.0242415053
 20
19.5228424826
 10
0.0307120223
 20
19.5306714545
 10
0.0373582793
 20
19.5382065229
 10
0.0441623005
 20
19.5454273637
 10
0.0511057543
 20
19.5523145419
 10
0.0581712134
 20
19.5588506251
 10
0.0653380255
 20
19.5650163648
 10
0.0725823808
 20
19.5707916813
 10
0.0798830102
 20
19.5761605519
 10
0.0872214203
 20
19.5811103012
 10
0.0945776547
 20
19.5856282562
  0
LWPOLYLINE
  5
367
100
AcDbEntity
  8
0
100
AcDbPolyline
 62
253
  6
CONTINUOUS
 90
10
 70
0
 10
-1.9032134478
 20
-11.5323405762
 10
-1.9090807658
 20
-11.6041524491
 10
-1.9100404229
 20
-11.6726397789
 10
-1.9060924193
 20
-11.7378025655
 10
-1.8971236408
 20
-11.8001208497
 10
-1.8832472015
 20
-11.8591145908
 10
-1.8648024435
 20
-11.9133436668
 10
-1.841902481
 20
-11.962328037
 10
-1.8144341997
 20
-12.0065477421
 10
-1.7823975998
 20
-12.0460027822
  0
LWPOLYLINE
  5
368
100
AcDbEntity
  8
0
100
AcDbPolyline
 62
253
  6
CONTINUOUS
 90
10
 70
0
 10
-2.6067887451
 20
-11.4727457164
 10
-2.6156078499
 20
-11.5796750571
 10
-2.6170322635
 20
-11.6828294364
 10
-2.6110520386
 20
-11.7814884786
 10
-2.5977089378
 20
-11.8749632015
 10
-2.5770961423
 20
-11.9626008267
 10
-2.5493576009
 20
-12.0437893392
 10
-2.5146870252
 20
-12.1179617613
 10
-2.4733265359
 20
-12.1846001123
 10
-2.4255649731
 20
-12.2432390252
  0
LWPOLYLINE
  5
369
100
AcDbEntity
  8
0
100
AcDbPolyline
 62
253
  6
CONTINUOUS
 90
10
 70
0
 10
1.6527578957
 20
18.3877017967
 10
1.6540949309
 20
18.3968476988
 10
1.6558093135
 20
18.4061244737
 10
1.657895698
 20
18.4155015061
 10
1.6603478617
 20
18.4249513147
 10
1.6631595231
 20
18.4344501073
 10
1.666323124
 20
18.4439723019
 10
1.6698301561
 20
18.4534921724
 10
1.6736710439
 20
18.4629836212
 10
1.6778352272
 20
18.4724205206
  0
LWPOLYLINE
  5
36A
100
AcDbEntity
  8
RACCORDO
100
AcDbPolyline
 62
253
  6
CONTINUOUS
 90
3
 70
0
 10
2.8137063248
 20
10.1544138914
 10
2.7960934662
 20
10.0855416304
 10
2.7823177257
 20
10.0175626081
  0
LWPOLYLINE
  5
36B
100
AcDbEntity
  8
RACCORDO
100
AcDbPolyline
 62
253
  6
CONTINUOUS
 90
19
 70
0
 10
2.3023601557
 20
5.2859958367
 10
2.2837386274
 20
5.242448271
 10
2.2614276787
 20
5.2033632451
 10
2.2368851423
 20
5.1693683325
 10
2.2101340589
 20
5.1408704085
 10
2.1811405681
 20
5.1174574738
 10
2.151275272
 20
5.0985278862
 10
2.1206769581
 20
5.0842188899
 10
2.089198562
 20
5.0743892961
 10
2.0577827807
 20
5.0680202246
 10
2.0265677336
 20
5.0650965334
 10
1.995410491
 20
5.0656310627
 10
1.9648334819
 20
5.0686475277
 10
1.9349242408
 20
5.074082024
 10
1.9055929884
 20
5.0819973792
 10
1.8770970723
 20
5.0916078329
 10
1.8495220916
 20
5.1026513769
 10
1.8227817019
 20
5.1153896615
 10
1.7968757256
 20
5.1298226013
  0
LWPOLYLINE
  5
36C
100
AcDbEntity
  8
RACCORDO
100
AcDbPolyline
 62
253
  6
CONTINUOUS
 90
10
 70
0
 10
2.1735369312
 20
5.4596546486
 10
2.1654611746
 20
5.4434784904
 10
2.1564083435
 20
5.4280027981
 10
2.1463559565
 20
5.4133134364
 10
2.1354082271
 20
5.3996344677
 10
2.1235806446
 20
5.3870284862
 10
2.1108843931
 20
5.3755484088
 10
2.0974683964
 20
5.3653386117
 10
2.0833840154
 20
5.3564242864
 10
2.0803161844
 20
5.3547020795
  0
LINE
  5
36D
100
AcDbEntity
  8
0
100
AcDbLine
 62
253
  6
CONTINUOUS
 10
-9.7510016612
 20
-15.8018939524
 11
-8.0797781079
 21
-12.6477972579
  0
LWPOLYLINE
  5
36E
100
AcDbEntity
  8
RACCORDO
100
AcDbPolyline
 62
253
  6
CONTINUOUS
 90
7
 70
0
 10
2.0241047582
 20
5.4684882063
 10
2.0158210827
 20
5.4565483268
 10
2.0068405891
 20
5.4454596547
 10
1.99713413
 20
5.435262061
 10
1.9867304174
 20
5.4259154694
 10
1.9757962681
 20
5.4175975057
 10
1.9643169206
 20
5.410353192
  0
LINE
  5
36F
100
AcDbEntity
  8
0
100
AcDbLine
 62
7
  6
CONTINUOUS
 10
8.8973276853
 20
15.2292719483
 11
8.8792012949
 21
15.2032968231
  0
LWPOLYLINE
  5
370
100
AcDbEntity
  8
0
100
AcDbPolyline
 62
253
  6
CONTINUOUS
 90
13
 70
0
 10
1.9446217622
 20
-1.1257484179
 10
1.915118397
 20
-1.1107751394
 10
1.8824906777
 20
-1.0980858148
 10
1.8472968732
 20
-1.087897562
 10
1.8101391589
 20
-1.080384705
 10
1.7716533135
 20
-1.0756757911
 10
1.7324978408
 20
-1.0738513916
 10
1.6933427019
 20
-1.0749427224
 10
1.6548578521
 20
-1.0789311108
 10
1.6177017785
 20
-1.0857483144
 10
1.5825102322
 20
-1.0952776888
 10
1.54988535
 20
-1.1073561838
 10
1.5203853529
 20
-1.1217771331
  0
LINE
  5
371
100
AcDbEntity
  8
0
100
AcDbLine
 62
253
  6
CONTINUOUS
 10
-11.5611177585
 20
6.6722963147
 11
-11.5409512152
 21
6.6590455825
  0
LINE
  5
372
100
AcDbEntity
  8
0
100
AcDbLine
 62
7
  6
CONTINUOUS
 10
9.7591334343
 20
-12.6211616232
 11
10.1715118281
 21
-13.0667048069
  0
LINE
  5
373
100
AcDbEntity
  8
0
100
AcDbLine
 62
7
  6
CONTINUOUS
 10
10.8660097395
 20
-12.1088894774
 11
10.3404413708
 21
-11.5410532187
  0
LWPOLYLINE
  5
374
100
AcDbEntity
  8
0
100
AcDbPolyline
 62
253
  6
CONTINUOUS
 90
43
 70
0
 10
4.0509955101
 20
-24.9657260234
 10
4.052936947
 20
-24.9777864357
 10
4.0552483626
 20
-24.9895342297
 10
4.0579297571
 20
-25.0009694055
 10
4.0609847496
 20
-25.0121033663
 10
4.064409721
 20
-25.0229247089
 10
4.0681938131
 20
-25.0333992234
 10
4.0723381884
 20
-25.043525876
 10
4.0768416843
 20
-25.0533057005
 10
4.0816899563
 20
-25.0627075881
 10
4.086884097
 20
-25.071730323
 10
4.0924230137
 20
-25.080375121
 10
4.0982890833
 20
-25.0886145213
 10
4.1044833419
 20
-25.0964472314
 10
4.1110047534
 20
-25.1038745437
 10
4.1178325858
 20
-25.1108728751
 10
4.124967815
 20
-25.1174408649
 10
4.1324094651
 20
-25.1235798739
 10
4.1401338767
 20
-25.1292704004
 10
4.148141947
 20
-25.1345110181
 10
4.1564327787
 20
-25.1393031533
 10
4.1649800218
 20
-25.1436315845
 10
4.1737844913
 20
-25.1474948379
 10
4.1828453722
 20
-25.1508943872
 10
4.1921338684
 20
-25.1538194312
 10
4.2016507046
 20
-25.1562684619
 10
4.2113951563
 20
-25.1582429873
 10
4.2213362536
 20
-25.1597367301
 10
4.2314746203
 20
-25.1607481622
 10
4.2418096326
 20
-25.1612788118
 10
4.2523084503
 20
-25.1613269861
 10
4.2629715959
 20
-25.1608911517
 10
4.2737985467
 20
-25.1599728419
 10
4.284754895
 20
-25.1585749643
 10
4.295841053
 20
-25.1566959941
 10
4.3070566085
 20
-25.1543374561
 10
4.3183659174
 20
-25.1515068317
 10
4.3297688137
 20
-25.1482028466
 10
4.3412654634
 20
-25.1444267752
 10
4.3528207213
 20
-25.1401899226
 10
4.364422872
 20
-25.1354960574
 10
4.3760836309
 20
-25.130341411
 10
4.3878029978
 20
-25.1247259835
  0
LWPOLYLINE
  5
375
100
AcDbEntity
  8
0
100
AcDbPolyline
 62
253
  6
CONTINUOUS
 90
21
 70
0
 10
3.3540659282
 20
-25.0207876679
 10
3.3579061355
 20
-25.0448497691
 10
3.3624911569
 20
-25.0683320247
 10
3.3678161676
 20
-25.0912095205
 10
3.373875627
 20
-25.1134580278
 10
3.3806630955
 20
-25.1350539107
 10
3.3881712397
 20
-25.1559741519
 10
3.396392172
 20
-25.1761965754
 10
3.4053172227
 20
-25.195699748
 10
3.4149367619
 20
-25.2144628819
 10
3.4252406904
 20
-25.23246612
 10
3.4362181399
 20
-25.249690373
 10
3.447857247
 20
-25.2661172194
 10
3.4601457721
 20
-25.2817292771
 10
3.4730707674
 20
-25.2965100274
 10
3.486618283
 20
-25.3104436454
 10
3.5007740817
 20
-25.3235154159
 10
3.5155232418
 20
-25.3357115127
 10
3.5308498267
 20
-25.3470188191
 10
3.5467377156
 20
-25.3574254119
 10
3.5542422313
 20
-25.3619140048
  0
LWPOLYLINE
  5
376
100
AcDbEntity
  8
0
100
AcDbPolyline
 62
253
  6
CONTINUOUS
 90
8
 70
0
 10
2.884674907
 20
-20.8339221222
 10
2.9370830706
 20
-21.4420828706
 10
2.9943816619
 20
-22.0469739479
 10
3.0565663919
 20
-22.6485495202
 10
3.123632389
 20
-23.2467639067
 10
3.1955745751
 20
-23.8415717312
 10
3.2723876641
 20
-24.4329279266
 10
3.3540659282
 20
-25.0207876679
  0
LWPOLYLINE
  5
377
100
AcDbEntity
  8
0
100
AcDbPolyline
 62
253
  6
CONTINUOUS
 90
10
 70
0
 10
1.3226945582
 20
-16.3808626565
 10
1.3217628624
 20
-16.3658228688
 10
1.3199737186
 20
-16.3513782473
 10
1.3173343488
 20
-16.3375875209
 10
1.3138554368
 20
-16.3245068137
 10
1.3095510762
 20
-16.3121892699
 10
1.3044386793
 20
-16.3006848705
 10
1.2985389367
 20
-16.2900404124
 10
1.2918757681
 20
-16.280299285
 10
1.284476192
 20
-16.2715011693
  0
LWPOLYLINE
  5
378
100
AcDbEntity
  8
0
100
AcDbPolyline
 62
253
  6
CONTINUOUS
 90
10
 70
0
 10
1.428760578
 20
-16.442103847
 10
1.4278296569
 20
-16.4270617207
 10
1.426040803
 20
-16.4126155596
 10
1.4234013684
 20
-16.3988240262
 10
1.419922174
 20
-16.3857431551
 10
1.4156174311
 20
-16.3734259946
 10
1.4105046563
 20
-16.3619224171
 10
1.4046046571
 20
-16.3512790837
 10
1.397941474
 20
-16.3415392286
 10
1.3905422304
 20
-16.3327423705
  0
LWPOLYLINE
  5
379
100
AcDbEntity
  8
0
100
AcDbPolyline
 62
7
  6
CONTINUOUS
 90
10
 70
0
 10
1.2418731992
 20
-16.4661993154
 10
1.2577722139
 20
-16.8856329464
 10
1.285527919
 20
-17.5090536178
 10
1.3181066975
 20
-18.1294125279
 10
1.3555064661
 20
-18.7466631524
 10
1.3977247577
 20
-19.3607586943
 10
1.4447587037
 20
-19.9716521233
 10
1.4966051019
 20
-20.5792971541
 10
1.553260434
 20
-21.1836482132
 10
1.6147208093
 20
-21.7846597229
  0
LINE
  5
37A
100
AcDbEntity
  8
0
100
AcDbLine
 62
253
  6
CONTINUOUS
 10
1.3345319764
 20
-16.7209653232
 11
1.3226945608
 21
-16.380862658
  0
LWPOLYLINE
  5
37B
100
AcDbEntity
  8
0
100
AcDbPolyline
 62
253
  6
CONTINUOUS
 90
16
 70
0
 10
1.2418701289
 20
-16.4661120037
 10
1.2416559528
 20
-16.4534252939
 10
1.2420923004
 20
-16.4383884384
 10
1.2433390694
 20
-16.4247347903
 10
1.2454092524
 20
-16.4124004503
 10
1.2483099478
 20
-16.4014031414
 10
1.2520626991
 20
-16.3919622106
 10
1.2566883045
 20
-16.3840528733
 10
1.2621818521
 20
-16.3776467248
 10
1.2685126597
 20
-16.3729596655
 10
1.2756630763
 20
-16.3700248139
 10
1.2836197814
 20
-16.368762329
 10
1.292333601
 20
-16.3692258145
 10
1.3017656358
 20
-16.3714218772
 10
1.3118961661
 20
-16.3753067288
 10
1.3226945608
 20
-16.380862658
  0
LWPOLYLINE
  5
37C
100
AcDbEntity
  8
0
100
AcDbPolyline
 62
253
  6
CONTINUOUS
 90
10
 70
0
 10
1.540530798
 20
-15.6069946711
 10
1.5145652021
 20
-13.8872906186
 10
1.4964071738
 20
-12.3025991969
 10
1.4836449856
 20
-10.7147313583
 10
1.4762786054
 20
-9.1236516384
 10
1.4743080651
 20
-7.5293955017
 10
1.4777334602
 20
-5.9320693411
 10
1.4865548225
 20
-4.331708621
 10
1.5007721201
 20
-2.728277877
 10
1.5203853531
 20
-1.1217771092
  0
LWPOLYLINE
  5
37D
100
AcDbEntity
  8
0
100
AcDbPolyline
 62
253
  6
CONTINUOUS
 90
10
 70
0
 10
1.964748561
 20
-15.6019038008
 10
1.9388053131
 20
-13.8836189027
 10
1.9206579979
 20
-12.2998565584
 10
1.9079031767
 20
-10.7129109776
 10
1.9005410442
 20
-9.1228063664
 10
1.8985717126
 20
-7.5295669791
 10
1.9019952119
 20
-5.9332171175
 10
1.91081149
 20
-4.3337811313
 10
1.9250204123
 20
-2.731283417
 10
1.9446217622
 20
-1.1257484179
  0
LWPOLYLINE
  5
37E
100
AcDbEntity
  8
0
100
AcDbPolyline
 62
253
  6
CONTINUOUS
 90
25
 70
0
 10
1.9446217622
 20
-1.1257484179
 10
1.9437385465
 20
-1.0507444296
 10
1.9403443986
 20
-0.977087244
 10
1.9344380775
 20
-0.9047775561
 10
1.925872192
 20
-0.8337775101
 10
1.9147917853
 20
-0.7641262759
 10
1.9016343941
 20
-0.6959400163
 10
1.8864500016
 20
-0.6291772746
 10
1.8691866914
 20
-0.563880588
 10
1.8501292451
 20
-0.5002920582
 10
1.8292381718
 20
-0.4382852293
 10
1.8065512501
 20
-0.3779875126
 10
1.7824690967
 20
-0.3200218496
 10
1.7570958385
 20
-0.2645942756
 10
1.7303256853
 20
-0.2114996821
 10
1.7022443652
 20
-0.1607443015
 10
1.6729587459
 20
-0.1123225289
 10
1.6423607117
 20
-0.066240664
 10
1.6102135869
 20
-0.0225227566
 10
1.5760987053
 20
0.019301846
 10
1.5404338089
 20
0.058761977
 10
1.504236807
 20
0.0944208417
 10
1.4678467502
 20
0.1257993684
 10
1.4309239396
 20
0.1533762685
 10
1.3934682174
 20
0.1771514541
  0
LINE
  5
37F
100
AcDbEntity
  8
0
100
AcDbLine
 62
7
  6
CONTINUOUS
 10
1.1560605779
 20
18.7260083975
 11
1.1560605779
 21
19.8685890038
  0
LINE
  5
380
100
AcDbEntity
  8
0
100
AcDbLine
 62
7
  6
CONTINUOUS
 10
1.592456681
 20
18.4429529867
 11
1.592456681
 21
17.2824342359
  0
LINE
  5
381
100
AcDbEntity
  8
0
100
AcDbLine
 62
253
  6
CONTINUOUS
 10
1.6510353247
 20
18.3612980681
 11
1.6510353247
 21
17.1982727725
  0
LWPOLYLINE
  5
382
100
AcDbEntity
  8
0
100
AcDbPolyline
 62
253
  6
CONTINUOUS
 90
4
 70
0
 10
1.6510353247
 20
18.3612980681
 10
1.6512268414
 20
18.3699040518
 10
1.6518013251
 20
18.3787131471
 10
1.6527578957
 20
18.3877017967
  0
LWPOLYLINE
  5
383
100
AcDbEntity
  8
0
100
AcDbPolyline
 62
253
  6
CONTINUOUS
 90
10
 70
0
 10
1.3934682174
 20
0.1771514541
 10
1.3923794633
 20
0.1558647758
 10
1.3897842505
 20
0.1338881574
 10
1.3857011074
 20
0.1113784984
 10
1.380159185
 20
0.0884965037
 10
1.3731980491
 20
0.0654055367
 10
1.3648673981
 20
0.0422704525
 10
1.3552267076
 20
0.0192564214
 10
1.3443448061
 20
-0.0034722507
 10
1.3322993836
 20
-0.0257532953
  0
LWPOLYLINE
  5
384
100
AcDbEntity
  8
0
100
AcDbPolyline
 62
7
  6
CONTINUOUS
 90
9
 70
0
 10
1.592456681
 20
18.4429529867
 10
1.5940777555
 20
18.4683605838
 10
1.5990043056
 20
18.4937074114
 10
1.6072591658
 20
18.5184637832
 10
1.6187729456
 20
18.5421192513
 10
1.6333448161
 20
18.5641280941
 10
1.6506728069
 20
18.5840108935
 10
1.6706070028
 20
18.6015487745
 10
1.691612799
 20
18.6156680963
  0
LINE
  5
385
100
AcDbEntity
  8
RACCORDO
100
AcDbLine
 62
7
  6
CONTINUOUS
 10
2.2760134673
 20
5.5238058121
 11
2.2760325928
 21
5.5240721741
  0
LINE
  5
386
100
AcDbEntity
  8
RACCORDO
100
AcDbLine
 62
253
  6
CONTINUOUS
 10
2.3729092824
 20
5.938911095
 11
2.334660129
 21
5.4428000651
  0
LWPOLYLINE
  5
387
100
AcDbEntity
  8
RACCORDO
100
AcDbPolyline
 62
253
  6
CONTINUOUS
 90
9
 70
0
 10
2.2450903451
 20
6.0896424304
 10
2.2042357305
 20
5.5792328515
 10
2.2022996333
 20
5.5625800906
 10
2.1996645414
 20
5.5455929714
 10
2.1962377592
 20
5.5283028733
 10
2.1919499596
 20
5.5108673935
 10
2.1867784642
 20
5.4935520344
 10
2.1806582132
 20
5.476441025
 10
2.1735369312
 20
5.4596546486
  0
LWPOLYLINE
  5
388
100
AcDbEntity
  8
RACCORDO
100
AcDbPolyline
 62
253
  6
CONTINUOUS
 90
11
 70
0
 10
2.0656684975
 20
5.6038126637
 10
2.0645344992
 20
5.5905851473
 10
2.0627683949
 20
5.5771599903
 10
2.0603704277
 20
5.563537308
 10
2.0573821373
 20
5.5495941655
 10
2.0537625307
 20
5.5354537566
 10
2.0493879221
 20
5.5214853286
 10
2.0442245435
 20
5.507684824
 10
2.0383064359
 20
5.4940564306
 10
2.0316112998
 20
5.4809816097
 10
2.0241047582
 20
5.4684882063
  0
LWPOLYLINE
  5
389
100
AcDbEntity
  8
RACCORDO
100
AcDbPolyline
 62
7
  6
CONTINUOUS
 90
8
 70
0
 10
2.2760134673
 20
5.5238058121
 10
2.2721019051
 20
5.4888509679
 10
2.2657282291
 20
5.4559927528
 10
2.2570995077
 20
5.4262733148
 10
2.2465886949
 20
5.4004064725
 10
2.2349295766
 20
5.3792781281
 10
2.2229217807
 20
5.3630886413
 10
2.2111176236
 20
5.3513493073
  0
LWPOLYLINE
  5
38A
100
AcDbEntity
  8
RACCORDO
100
AcDbPolyline
 62
253
  6
CONTINUOUS
 90
9
 70
0
 10
2.7724570971
 20
9.9508667437
 10
2.713428505
 20
9.4452915815
 10
2.6569924782
 20
8.9408484729
 10
2.603151069
 20
8.4375583576
 10
2.5519077381
 20
7.9354569845
 10
2.5032626399
 20
7.434550259
 10
2.4572134079
 20
6.934814586
 10
2.4137610735
 20
6.4362562547
 10
2.3729092824
 20
5.938911095
  0
LWPOLYLINE
  5
38B
100
AcDbEntity
  8
RACCORDO
100
AcDbPolyline
 62
7
  6
CONTINUOUS
 90
10
 70
0
 10
2.7137027236
 20
10.0309272081
 10
2.6622552054
 20
9.5914608569
 10
2.6035461165
 20
9.0692547345
 10
2.5476132009
 20
8.5482486051
 10
2.4944594775
 20
8.0284689516
 10
2.4440872379
 20
7.5099377744
 10
2.3964985396
 20
6.9926753057
 10
2.3516955413
 20
6.4767032959
 10
2.3096805165
 20
5.9620476944
 10
2.2760440964
 20
5.5240713247
  0
LWPOLYLINE
  5
38C
100
AcDbEntity
  8
0
100
AcDbPolyline
 62
253
  6
CONTINUOUS
 90
6
 70
0
 10
3.3540659282
 20
9.615053094
 10
3.2723876641
 20
8.9360922558
 10
3.1955745751
 20
8.2590610042
 10
3.123632389
 20
7.5840107784
 10
3.0565663919
 20
6.9109929357
 10
2.994381662
 20
6.2400585307
  0
LWPOLYLINE
  5
38D
100
AcDbEntity
  8
RACCORDO
100
AcDbPolyline
 62
253
  6
CONTINUOUS
 90
10
 70
0
 10
2.5185718799
 20
10.0974568863
 10
2.4575279613
 20
9.5937524747
 10
2.3991591454
 20
9.0911018837
 10
2.3434678259
 20
8.5895261183
 10
2.2904562505
 20
8.0890461578
 10
2.2401266292
 20
7.5896828934
 10
2.1924811338
 20
7.0914571273
 10
2.147521754
 20
6.5943896542
 10
2.1052502975
 20
6.0985012611
 10
2.0656684975
 20
5.6038126637
  0
LWPOLYLINE
  5
38E
100
AcDbEntity
  8
RACCORDO
100
AcDbPolyline
 62
253
  6
CONTINUOUS
 90
9
 70
0
 10
2.6579577962
 20
10.0841189553
 10
2.596977007
 20
9.5809425458
 10
2.5386728587
 20
9.0788592733
 10
2.4830453514
 20
8.5778691376
 10
2.4300922907
 20
8.0779503445
 10
2.379815871
 20
7.5791246882
 10
2.3322226754
 20
7.0814575523
 10
2.2873148982
 20
6.5849707312
 10
2.2450903451
 20
6.0896424304
  0
LWPOLYLINE
  5
38F
100
AcDbEntity
  8
RACCORDO
100
AcDbPolyline
 62
253
  6
CONTINUOUS
 90
4
 70
0
 10
2.334660129
 20
5.4428000651
 10
2.327573145
 20
5.3860649008
 10
2.3168078283
 20
5.3337974491
 10
2.3023601557
 20
5.2859958367
  0
LWPOLYLINE
  5
390
100
AcDbEntity
  8
RACCORDO
100
AcDbPolyline
 62
253
  6
CONTINUOUS
 90
8
 70
0
 10
1.7968757256
 20
5.1298226013
 10
1.8007047632
 20
5.1584605067
 10
1.8082250818
 20
5.1881509235
 10
1.8192342015
 20
5.2180944556
 10
1.8334357085
 20
5.2474848918
 10
1.8504472359
 20
5.2755309127
 10
1.8698107589
 20
5.3014773965
 10
1.8910049265
 20
5.3246257501
  0
LINE
  5
391
100
AcDbEntity
  8
RACCORDO
100
AcDbLine
 62
253
  6
CONTINUOUS
 10
2.7823177257
 20
10.0175626081
 11
2.7724570971
 21
9.9508667437
  0
LWPOLYLINE
  5
392
100
AcDbEntity
  8
0
100
AcDbPolyline
 62
253
  6
CONTINUOUS
 90
25
 70
0
 10
1.5203853529
 20
-1.1217771331
 10
1.5321563991
 20
-1.052904292
 10
1.5415040118
 20
-0.985553123
 10
1.5486265718
 20
-0.9198621164
 10
1.5537630189
 20
-0.856081629
 10
1.5570492413
 20
-0.7942327752
 10
1.5584773674
 20
-0.7340765973
 10
1.5581663304
 20
-0.6756257321
 10
1.5562416576
 20
-0.6190544826
 10
1.5526479519
 20
-0.5643252737
 10
1.5474609286
 20
-0.5113952709
 10
1.5408035416
 20
-0.4604629167
 10
1.532674241
 20
-0.4118412603
 10
1.5232059984
 20
-0.3657680065
 10
1.5124554369
 20
-0.3221564769
 10
1.500300431
 20
-0.2808272315
 10
1.486924289
 20
-0.2418258283
 10
1.4723248645
 20
-0.205241441
 10
1.4561145936
 20
-0.1709617526
 10
1.4381987259
 20
-0.1387112966
 10
1.4189307941
 20
-0.1089346405
 10
1.3985904919
 20
-0.0825958962
 10
1.3773266803
 20
-0.0600549595
 10
1.3551951787
 20
-0.0410862131
 10
1.3322993836
 20
-0.0257532953
  0
LWPOLYLINE
  5
393
100
AcDbEntity
  8
0
100
AcDbPolyline
 62
253
  6
CONTINUOUS
 90
27
 70
0
 10
6.7319136161
 20
14.0351420232
 10
6.7274930906
 20
14.0244526541
 10
6.7226858953
 20
14.0140191094
 10
6.7175028797
 20
14.003864937
 10
6.7119557416
 20
13.9940130544
 10
6.7060570006
 20
13.9844856967
 10
6.6998199698
 20
13.9753043665
 10
6.6932587257
 20
13.9664897855
 10
6.6863880768
 20
13.9580618478
 10
6.6792235296
 20
13.9500395747
 10
6.6717812542
 20
13.942441072
 10
6.6640780473
 20
13.9352834891
 10
6.6561312946
 20
13.9285829802
 10
6.6479589314
 20
13.922354668
 10
6.6395794023
 20
13.9166126093
 10
6.6310116194
 20
13.9113697638
 10
6.6222749196
 20
13.9066379641
 10
6.6133890212
 20
13.9024278897
 10
6.6043739792
 20
13.8987490425
 10
6.5952501399
 20
13.8956097253
 10
6.5860380953
 20
13.8930170236
 10
6.5767586365
 20
13.8909767887
 10
6.5674327066
 20
13.8894936255
 10
6.5580813537
 20
13.8885708813
 10
6.5487256833
 20
13.8882106387
 10
6.5393868106
 20
13.8884137108
 10
6.5332450413
 20
13.8888559269
  0
LWPOLYLINE
  5
394
100
AcDbEntity
  8
0
100
AcDbPolyline
 62
253
  6
CONTINUOUS
 90
34
 70
0
 10
1.5203853531
 20
-1.1217771092
 10
1.3530437767
 20
-1.4363980763
 10
1.1905159138
 20
-1.7494711714
 10
1.0328017643
 20
-2.0609963947
 10
0.8800550254
 20
-2.3708456018
 10
0.7321219999
 20
-2.679146937
 10
0.5885415964
 20
-2.9862848331
 10
0.449274316
 20
-3.2922732445
 10
0.3143596575
 20
-3.5970982169
 10
0.1834550259
 20
-3.9011023195
 10
0.0565550283
 20
-4.2042207106
 10
-0.0663349423
 20
-4.5065182319
 10
-0.1855413026
 20
-4.8085319785
 10
-0.3010920064
 20
-5.1102388119
 10
-0.4129590999
 20
-5.4116618704
 10
-0.5213851384
 20
-5.7134076638
 10
-0.6263953834
 20
-6.0154310558
 10
-0.7279645733
 20
-6.3177771827
 10
-0.826259479
 20
-6.6211879627
 10
-0.921323601
 20
-6.925653113
 10
-1.0131134387
 20
-7.2311829164
 10
-1.1016652615
 20
-7.5385501394
 10
-1.1870345818
 20
-7.8477724664
 10
-1.2691658872
 20
-8.158832213
 10
-1.3479289097
 20
-8.4724490917
 10
-1.4232495895
 20
-8.7878260319
 10
-1.4952019865
 20
-9.1057601043
 10
-1.5638780123
 20
-9.4293622329
 10
-1.6294601837
 20
-9.7583318167
 10
-1.691765984
 20
-10.0929694567
 10
-1.7503397744
 20
-10.4372878799
 10
-1.8050296754
 20
-10.7926246621
 10
-1.8559875665
 20
-11.1576422275
 10
-1.9032134478
 20
-11.5323405762
  0
LWPOLYLINE
  5
395
100
AcDbEntity
  8
0
100
AcDbPolyline
 62
253
  6
CONTINUOUS
 90
37
 70
0
 10
1.3322993836
 20
-0.0257532953
 10
1.1489453033
 20
-0.3500038441
 10
0.9713830992
 20
-0.6719980881
 10
0.799539381
 20
-0.9915601709
 10
0.6336121494
 20
-1.3079909804
 10
0.473233591
 20
-1.6216587709
 10
0.3175278347
 20
-1.9340214079
 10
0.1663025364
 20
-2.2452804631
 10
0.0196835117
 20
-2.554990072
 10
-0.1226594878
 20
-2.8636700246
 10
-0.2607388239
 20
-3.1711907488
 10
-0.3945891797
 20
-3.4774703342
 10
-0.5245336586
 20
-3.7831157051
 10
-0.6505672728
 20
-4.0880084474
 10
-0.7727071198
 20
-4.3920808516
 10
-0.8912626595
 20
-4.6960267523
 10
-1.0062077743
 20
-4.9997344283
 10
-1.1175372493
 20
-5.3031440868
 10
-1.2255383135
 20
-5.6070329659
 10
-1.3301518262
 20
-5.9112685051
 10
-1.4313533777
 20
-6.2158147379
 10
-1.5294187539
 20
-6.5215930949
 10
-1.6242769125
 20
-6.8285329769
 10
-1.7158456151
 20
-7.1365257212
 10
-1.8043140066
 20
-7.4464277809
 10
-1.8895467173
 20
-7.7580499684
 10
-1.9714574516
 20
-8.0713769431
 10
-2.0502270482
 20
-8.3875087504
 10
-2.1255150869
 20
-8.7055442549
 10
-2.1973590607
 20
-9.0261377239
 10
-2.266314801
 20
-9.3526712408
 10
-2.3319947493
 20
-9.6845788531
 10
-2.394161207
 20
-10.0220476926
 10
-2.4532355265
 20
-10.3694705708
 10
-2.5088892723
 20
-10.7280672901
 10
-2.5602723424
 20
-11.0959515988
 10
-2.6067887451
 20
-11.4727457164
  0
LWPOLYLINE
  5
396
100
AcDbEntity
  8
0
100
AcDbPolyline
 62
253
  6
CONTINUOUS
 90
13
 70
0
 10
-8.5265292535
 20
-12.0910522278
 10
-8.502033345
 20
-12.0606661707
 10
-8.4743268937
 20
-12.0328957099
 10
-8.4438839539
 20
-12.0082160117
 10
-8.4112253929
 20
-11.9870493544
 10
-8.3769100123
 20
-11.9697579281
 10
-8.3415249914
 20
-11.9566376226
 10
-8.3056757782
 20
-11.947912934
 10
-8.2699757665
 20
-11.9437331456
 10
-8.2350358351
 20
-11.9441697727
 10
-8.2014538259
 20
-11.9492153293
 10
-8.1698043165
 20
-11.9587834736
 10
-8.1406288295
 20
-11.972710482
  0
LINE
  5
397
100
AcDbEntity
  8
0
100
AcDbLine
 62
7
  6
CONTINUOUS
 10
-9.8157511144
 20
-7.9475704652
 11
-9.8339953231
 21
-7.9588529575
  0
LWPOLYLINE
  5
398
100
AcDbEntity
  8
0
100
AcDbPolyline
 62
253
  6
CONTINUOUS
 90
37
 70
0
 10
3.3426822202
 20
-0.354909043
 10
3.3268473409
 20
-0.3630300338
 10
3.3103953833
 20
-0.3707493307
 10
3.2933569729
 20
-0.3780525643
 10
3.2757638268
 20
-0.3849261394
 10
3.2576486947
 20
-0.391357261
 10
3.239045298
 20
-0.3973339575
 10
3.2199882671
 20
-0.4028451031
 10
3.2005130766
 20
-0.407880439
 10
3.1806559797
 20
-0.4124305917
 10
3.1604539406
 20
-0.4164870912
 10
3.1399445653
 20
-0.4200423863
 10
3.1191660322
 20
-0.4230898587
 10
3.0981570207
 20
-0.4256238356
 10
3.076956639
 20
-0.4276396
 10
3.0556043519
 20
-0.4291333995
 10
3.0341399067
 20
-0.4301024534
 10
3.0126032595
 20
-0.4305449579
 10
2.991034501
 20
-0.430460089
 10
2.9694737814
 20
-0.429848005
 10
2.9479612361
 20
-0.4287098451
 10
2.926536911
 20
-0.4270477281
 10
2.9052406873
 20
-0.424864748
 10
2.8841122082
 20
-0.4221649684
 10
2.8631908045
 20
-0.4189534149
 10
2.8425154213
 20
-0.415236066
 10
2.8221245461
 20
-0.4110198414
 10
2.8020561365
 20
-0.4063125897
 10
2.78234755
 20
-0.4011230734
 10
2.7630354742
 20
-0.3954609529
 10
2.7441558586
 20
-0.3893367682
 10
2.7257438477
 20
-0.3827619195
 10
2.7078337156
 20
-0.375748646
 10
2.690458802
 20
-0.3683100028
 10
2.6736514505
 20
-0.360459837
 10
2.657442948
 20
-0.3522127619
 10
2.6418634667
 20
-0.3435841292
  0
LWPOLYLINE
  5
399
100
AcDbEntity
  8
0
100
AcDbPolyline
 62
253
  6
CONTINUOUS
 90
15
 70
0
 10
-11.0420692871
 20
7.1190520879
 10
-11.0659171714
 20
7.1310588375
 10
-11.0910681863
 20
7.1389301306
 10
-11.1173362821
 20
7.1425644207
 10
-11.1445397691
 20
7.1419493437
 10
-11.1724505699
 20
7.1368839559
 10
-11.2008415249
 20
7.1270057721
 10
-11.2297809189
 20
7.1119444919
 10
-11.2588406174
 20
7.0919106444
 10
-11.2872229544
 20
7.0675119644
 10
-11.3152192701
 20
7.0382819232
 10
-11.3424813288
 20
7.0047052077
 10
-11.36764685
 20
6.9690167571
 10
-11.3908528885
 20
6.9315608543
 10
-11.3992549401
 20
6.9168420215
  0
LWPOLYLINE
  5
39A
100
AcDbEntity
  8
0
100
AcDbPolyline
 62
253
  6
CONTINUOUS
 90
21
 70
0
 10
-10.9809004534
 20
7.3219568373
 10
-11.0191274915
 20
7.3422279325
 10
-11.0575889521
 20
7.357712784
 10
-11.0962846323
 20
7.3684115049
 10
-11.1355486901
 20
7.3745738448
 10
-11.1750461205
 20
7.3759505251
 10
-11.2137727308
 20
7.371793252
 10
-11.251822309
 20
7.3617126097
 10
-11.289099184
 20
7.3460990618
 10
-11.3243149783
 20
7.3253741325
 10
-11.3573830969
 20
7.2988486664
 10
-11.3883879321
 20
7.2672130458
 10
-11.4162986388
 20
7.2329575164
 10
-11.4406408801
 20
7.1961161156
 10
-11.4618885345
 20
7.1566550629
 10
-11.4804346855
 20
7.1169619835
 10
-11.4961123814
 20
7.0776000249
 10
-11.5090895107
 20
7.0380055189
 10
-11.5202621348
 20
6.9988754664
 10
-11.5297363217
 20
6.9603973583
 10
-11.5374068538
 20
6.9223832305
  0
LINE
  5
39B
100
AcDbEntity
  8
0
100
AcDbLine
 62
253
  6
CONTINUOUS
 10
1.3322993836
 20
-0.0257532953
 11
-11.0420692871
 21
7.1190520879
  0
LINE
  5
39C
100
AcDbEntity
  8
0
100
AcDbLine
 62
253
  6
CONTINUOUS
 10
1.3934682174
 20
0.1771514541
 11
-10.9809004534
 21
7.3219568373
  0
LINE
  5
39D
100
AcDbEntity
  8
0
100
AcDbLine
 62
253
  6
CONTINUOUS
 10
2.6418634666
 20
-0.3435841293
 11
-12.222913296
 21
8.239151674
  0
LWPOLYLINE
  5
39E
100
AcDbEntity
  8
RACCORDO
100
AcDbPolyline
 62
7
  6
CONTINUOUS
 90
4
 70
0
 10
-10.9764628522
 20
12.7632606563
 10
-10.942875555
 20
12.7306289448
 10
-10.907702687
 20
12.7016315657
 10
-10.8712407582
 20
12.6765671429
  0
LWPOLYLINE
  5
39F
100
AcDbEntity
  8
0
100
AcDbPolyline
 62
7
  6
CONTINUOUS
 90
4
 70
0
 10
8.9122289708
 20
-23.4760504141
 10
8.923834947
 20
-23.507926747
 10
8.9310661674
 20
-23.5414068591
 10
8.9336591217
 20
-23.5775509273
  0
LWPOLYLINE
  5
3A0
100
AcDbEntity
  8
0
100
AcDbPolyline
 62
7
  6
CONTINUOUS
 90
3
 70
0
 10
-7.6545972464
 20
22.1096757722
 10
-7.6662032227
 20
22.141552105
 10
-7.673434443
 20
22.1750322171
  0
LWPOLYLINE
  5
3A1
100
AcDbEntity
  8
0
100
AcDbPolyline
 62
253
  6
CONTINUOUS
 90
9
 70
0
 10
2.6418634666
 20
-15.8565193883
 10
2.6550364575
 20
-16.4891554057
 10
2.6731212037
 20
-17.1188976416
 10
2.6961163565
 20
-17.7456983156
 10
2.7240202425
 20
-18.3695098745
 10
2.7568307389
 20
-18.9902849951
 10
2.794545276
 20
-19.6079765867
 10
2.8371610648
 20
-20.2225378509
 10
2.884674907
 20
-20.8339221222
  0
LWPOLYLINE
  5
3A2
100
AcDbEntity
  8
0
100
AcDbPolyline
 62
253
  6
CONTINUOUS
 90
16
 70
0
 10
3.3426822202
 20
-15.8523313668
 10
3.3557860709
 20
-16.4815310987
 10
3.373771584
 20
-17.1077592038
 10
3.3966387596
 20
-17.731015682
 10
3.4243900739
 20
-18.3513475141
 10
3.4570230508
 20
-18.9687077194
 10
3.4945302611
 20
-19.5829553558
 10
3.5369128145
 20
-20.1940896025
 10
3.5841696013
 20
-20.8021112802
 10
3.6362898633
 20
-21.4068819091
 10
3.6932747324
 20
-22.0084009097
 10
3.7551230768
 20
-22.6066688615
 10
3.8218207422
 20
-23.2015490229
 10
3.8933630105
 20
-23.7929958135
 10
3.9697545998
 20
-24.3810548136
 10
4.0509955101
 20
-24.9657260234
  0
LINE
  5
3A3
100
AcDbEntity
  8
0
100
AcDbLine
 62
7
  6
CONTINUOUS
 10
2.5702741403
 20
17.1715886268
 11
2.5702741403
 21
15.8081772205
  0
LINE
  5
3A4
100
AcDbEntity
  8
RACCORDO
100
AcDbLine
 62
7
  6
CONTINUOUS
 10
2.7986285103
 20
10.3601036856
 11
2.7986285103
 21
10.5207954321
  0
LINE
  5
3A5
100
AcDbEntity
  8
0
100
AcDbLine
 62
7
  6
CONTINUOUS
 10
3.235854842
 20
15.423879265
 11
3.235854842
 21
16.7872906713
  0
LINE
  5
3A6
100
AcDbEntity
  8
0
100
AcDbLine
 62
253
  6
CONTINUOUS
 10
4.0176915209
 20
23.6928418754
 11
4.0176915209
 21
22.3880775839
  0
LINE
  5
3A7
100
AcDbEntity
  8
0
100
AcDbLine
 62
7
  6
CONTINUOUS
 10
4.1503846584
 20
23.7483585114
 11
4.1503846584
 21
22.5715217243
  0
LWPOLYLINE
  5
3A8
100
AcDbEntity
  8
0
100
AcDbPolyline
 62
253
  6
CONTINUOUS
 90
13
 70
0
 10
2.6418634666
 20
-0.3435841293
 10
2.622021711
 20
-1.6473385362
 10
2.6057877612
 20
-2.9491201027
 10
2.5931615636
 20
-4.2489158907
 10
2.5841430779
 20
-5.5467043058
 10
2.5787320828
 20
-6.8424811582
 10
2.5769284134
 20
-8.1362595275
 10
2.5787320841
 20
-9.4280264317
 10
2.5841430801
 20
-10.7177689246
 10
2.5931615663
 20
-12.0054999231
 10
2.6057877638
 20
-13.2912149917
 10
2.6220217127
 20
-14.5748924801
 10
2.6418634666
 20
-15.8565193883
  0
LWPOLYLINE
  5
3A9
100
AcDbEntity
  8
0
100
AcDbPolyline
 62
253
  6
CONTINUOUS
 90
13
 70
0
 10
3.3426822202
 20
-0.354909043
 10
3.322860116
 20
-1.6573808671
 10
3.3066421047
 20
-2.9578561081
 10
3.2940281863
 20
-4.2563347661
 10
3.2850184513
 20
-5.5528211215
 10
3.2796128092
 20
-6.8473108939
 10
3.2778109892
 20
-8.1397912417
 10
3.2796128111
 20
-9.4302622684
 10
3.285018455
 20
-10.7187238706
 10
3.294028191
 20
-12.0051628967
 10
3.3066421088
 20
-13.2895749628
 10
3.3228601185
 20
-14.5719644529
 10
3.3426822202
 20
-15.8523313668
  0
LWPOLYLINE
  5
3AA
100
AcDbEntity
  8
RACCORDO
100
AcDbPolyline
 62
7
  6
CONTINUOUS
 90
4
 70
0
 10
5.3306278072
 20
14.4347224932
 10
5.3301879223
 20
14.4294317067
 10
5.3294659135
 20
14.4265190759
 10
5.3293501063
 20
14.4262065591
  0
LWPOLYLINE
  5
3AB
100
AcDbEntity
  8
0
100
AcDbPolyline
 62
253
  6
CONTINUOUS
 90
11
 70
0
 10
2.994381662
 20
6.2400585307
 10
2.9370830707
 20
5.5712583122
 10
2.884674907
 20
4.904643023
 10
2.8371610649
 20
4.2402633518
 10
2.7945452761
 20
3.5781697116
 10
2.7568307389
 20
2.9184124172
 10
2.7240202425
 20
2.2610415319
 10
2.6961163565
 20
1.6061068198
 10
2.6731212037
 20
0.9536579575
 10
2.6550364575
 20
0.3037445285
 10
2.6418634666
 20
-0.3435841293
  0
LWPOLYLINE
  5
3AC
100
AcDbEntity
  8
0
100
AcDbPolyline
 62
253
  6
CONTINUOUS
 90
12
 70
0
 10
3.7551228823
 20
6.8593612016
 10
3.6932745589
 20
6.1921229413
 10
3.6362897111
 20
5.5270571535
 10
3.5841694628
 20
4.8641644531
 10
3.5369126901
 20
4.2034442253
 10
3.4945301506
 20
3.5450469467
 10
3.4570229526
 20
2.888972969
 10
3.4243899877
 20
2.2352219406
 10
3.3966386888
 20
1.5839432831
 10
3.3737715334
 20
0.9351868036
 10
3.3557860439
 20
0.2889026949
 10
3.3426822202
 20
-0.354909043
  0
LWPOLYLINE
  5
3AD
100
AcDbEntity
  8
0
100
AcDbPolyline
 62
253
  6
CONTINUOUS
 90
5
 70
0
 10
4.0509955101
 20
9.5483634393
 10
3.9697545111
 20
8.8730953457
 10
3.8933628584
 20
8.1998474038
 10
3.821820552
 20
7.5286196137
 10
3.7551228823
 20
6.8593612016
  0
LINE
  5
3AE
100
AcDbEntity
  8
0
100
AcDbLine
 62
253
  6
CONTINUOUS
 10
-3.9594510606
 20
-11.3575924233
 11
-3.9613081656
 21
-11.3599874963
  0
LWPOLYLINE
  5
3AF
100
AcDbEntity
  8
RACCORDO
100
AcDbPolyline
 62
253
  6
CONTINUOUS
 90
6
 70
0
 10
-10.8585062594
 20
12.6689332585
 10
-10.8649712098
 20
12.6737872577
 10
-10.8717810825
 20
12.6825585233
 10
-10.8764722979
 20
12.6937731749
 10
-10.8788877853
 20
12.7070557214
 10
-10.87894667
 20
12.7219614343
  0
LWPOLYLINE
  5
3B0
100
AcDbEntity
  8
0
100
AcDbPolyline
 62
253
  6
CONTINUOUS
 90
6
 70
0
 10
8.8730623548
 20
-23.4936853503
 10
8.8700543246
 20
-23.4826078706
 10
8.8666256121
 20
-23.4717441555
 10
8.8627839557
 20
-23.4611187236
 10
8.8585380258
 20
-23.4507555561
 10
8.8538974054
 20
-23.4406780419
  0
LINE
  5
3B1
100
AcDbEntity
  8
0
100
AcDbLine
 62
7
  6
CONTINUOUS
 10
4.6302235496
 20
15.0710542932
 11
4.6276305953
 21
15.1071983614
  0
LWPOLYLINE
  5
3B2
100
AcDbEntity
  8
0
100
AcDbPolyline
 62
253
  6
CONTINUOUS
 90
40
 70
0
 10
4.3878716689
 20
10.0829977178
 10
4.3868329148
 20
10.0991495428
 10
4.3852331295
 20
10.1156116482
 10
4.3830749048
 20
10.1323573634
 10
4.3803617372
 20
10.1493595583
 10
4.3770980224
 20
10.1665906875
 10
4.373289048
 20
10.1840228344
 10
4.3689409849
 20
10.201627757
 10
4.3640608775
 20
10.2193769332
 10
4.3586566322
 20
10.2372416073
 10
4.3527370044
 20
10.2551928363
 10
4.3463115846
 20
10.2732015373
 10
4.3393907827
 20
10.2912385339
 10
4.3319858113
 20
10.309274604
 10
4.3241086672
 20
10.3272805273
 10
4.3157721124
 20
10.3452271318
 10
4.306989653
 20
10.363085342
 10
4.2977755176
 20
10.3808262255
 10
4.2881446343
 20
10.3984210399
 10
4.2781126061
 20
10.4158412795
 10
4.2676956862
 20
10.4330587216
 10
4.2569107512
 20
10.4500454717
 10
4.2457752739
 20
10.4667740094
 10
4.2343072951
 20
10.4832172325
 10
4.2225253943
 20
10.4993485008
 10
4.2104486596
 20
10.5151416799
 10
4.1980966567
 20
10.530571183
 10
4.1854893973
 20
10.5456120124
 10
4.1726473067
 20
10.5602398001
 10
4.1595911905
 20
10.5744308475
 10
4.1463422013
 20
10.5881621633
 10
4.1329218039
 20
10.6014115011
 10
4.119351741
 20
10.6141573955
 10
4.1056539978
 20
10.6263791965
 10
4.0918507661
 20
10.6380571034
 10
4.0779644088
 20
10.6491721966
 10
4.0640174235
 20
10.6597064684
 10
4.0500324061
 20
10.6696428518
 10
4.0360320137
 20
10.6789652489
 10
4.0220389289
 20
10.6876585562
  0
LWPOLYLINE
  5
3B3
100
AcDbEntity
  8
RACCORDO
100
AcDbPolyline
 62
253
  6
CONTINUOUS
 90
9
 70
0
 10
5.3306232373
 20
14.4347621152
 10
5.3309807265
 20
14.4263499453
 10
5.333699951
 20
14.4102402701
 10
5.3390869679
 20
14.3944912401
 10
5.3471011867
 20
14.3792742462
 10
5.3576867344
 20
14.3647668349
 10
5.3707588202
 20
14.3511326661
 10
5.386194762
 20
14.3385179205
 10
5.4038465403
 20
14.3270683022
  0
LWPOLYLINE
  5
3B4
100
AcDbEntity
  8
0
100
AcDbPolyline
 62
253
  6
CONTINUOUS
 90
18
 70
0
 10
6.3793916565
 20
-25.221171856
 10
6.3795904592
 20
-25.2307347652
 10
6.3801864215
 20
-25.2400466066
 10
6.3811782047
 20
-25.2490864349
 10
6.3825635807
 20
-25.2578339217
 10
6.3843394348
 20
-25.2662693848
 10
6.38650177
 20
-25.2743738346
 10
6.3890457206
 20
-25.2821290386
 10
6.3919655653
 20
-25.2895175587
 10
6.3952547353
 20
-25.2965227747
 10
6.3989058323
 20
-25.3031289325
 10
6.4029106428
 20
-25.309321173
 10
6.407260155
 20
-25.3150855653
 10
6.4119445837
 20
-25.3204091453
 10
6.4169533918
 20
-25.3252799421
 10
6.4222753103
 20
-25.3296870012
 10
6.4278983707
 20
-25.3336204148
 10
6.4311234507
 20
-25.3355836194
  0
LWPOLYLINE
  5
3B5
100
AcDbEntity
  8
0
100
AcDbPolyline
 62
253
  6
CONTINUOUS
 90
17
 70
0
 10
4.700853586
 20
15.0049009487
 10
4.7010218819
 20
14.9960934834
 10
4.7015264491
 20
14.9874971317
 10
4.702366327
 20
14.9791282613
 10
4.7035399127
 20
14.9710028286
 10
4.7050449736
 20
14.9631362819
 10
4.70687866
 20
14.9555435398
 10
4.709037504
 20
14.9482390177
 10
4.7115173915
 20
14.9412366839
 10
4.7143135712
 20
14.9345499603
 10
4.7174206937
 20
14.9281916153
 10
4.7208328558
 20
14.9221737069
 10
4.7245435838
 20
14.9165076506
 10
4.7285458446
 20
14.9112042008
 10
4.7328319937
 20
14.9062735012
 10
4.7373938032
 20
14.9017250077
 10
4.7422225327
 20
14.8975674026
  0
LINE
  5
3B6
100
AcDbEntity
  8
0
100
AcDbLine
 62
7
  6
CONTINUOUS
 10
4.3026857542
 20
16.0969123379
 11
4.3026857542
 21
17.4032647808
  0
LINE
  5
3B7
100
AcDbEntity
  8
RACCORDO
100
AcDbLine
 62
7
  6
CONTINUOUS
 10
4.6238144305
 20
11.8983876518
 11
4.6238144305
 21
11.9626392982
  0
LINE
  5
3B8
100
AcDbEntity
  8
0
100
AcDbLine
 62
7
  6
CONTINUOUS
 10
4.6276302813
 20
15.4274897699
 11
4.6276302813
 21
15.1069695971
  0
LINE
  5
3B9
100
AcDbEntity
  8
0
100
AcDbLine
 62
253
  6
CONTINUOUS
 10
4.700853586
 20
15.3254211216
 11
4.700853586
 21
15.0049009487
  0
LINE
  5
3BA
100
AcDbEntity
  8
0
100
AcDbLine
 62
7
  6
CONTINUOUS
 10
5.3306232356
 20
14.5567373582
 11
5.3306232356
 21
14.4347785303
  0
LINE
  5
3BB
100
AcDbEntity
  8
RACCORDO
100
AcDbLine
 62
253
  6
CONTINUOUS
 10
5.4038465403
 20
14.5144591397
 11
5.4038465403
 21
14.3270683022
  0
LWPOLYLINE
  5
3BC
100
AcDbEntity
  8
0
100
AcDbPolyline
 62
253
  6
CONTINUOUS
 90
34
 70
0
 10
4.700853586
 20
15.3254211216
 10
4.7010523888
 20
15.3352136033
 10
4.7016483511
 20
15.345213647
 10
4.7026401343
 20
15.3553987616
 10
4.7040255103
 20
15.3657460459
 10
4.7058013644
 20
15.3762322209
 10
4.7079636996
 20
15.3868336811
 10
4.7105076502
 20
15.3975265755
 10
4.7134274949
 20
15.4082868591
 10
4.7167166649
 20
15.4190903262
 10
4.7203677618
 20
15.4299126792
 10
4.7243725724
 20
15.4407295746
 10
4.7287220846
 20
15.4515166746
 10
4.7334065133
 20
15.4622497153
 10
4.7384153214
 20
15.4729045581
 10
4.7437372399
 20
15.4834572354
 10
4.7493603003
 20
15.4938840182
 10
4.755271851
 20
15.5041614502
 10
4.7614585828
 20
15.5142663982
 10
4.7679065594
 20
15.5241761093
 10
4.7746012926
 20
15.533868326
 10
4.7815277688
 20
15.5433213132
 10
4.7886704793
 20
15.5525138925
 10
4.7960132968
 20
15.5614252964
 10
4.8035395434
 20
15.5700352966
 10
4.8112321777
 20
15.5783244365
 10
4.8190739903
 20
15.5862742107
 10
4.8270474892
 20
15.5938669001
 10
4.8351359667
 20
15.6010864857
 10
4.843320038
 20
15.607915558
 10
4.8515777088
 20
15.6143360686
 10
4.8598891294
 20
15.6203332878
 10
4.8682367618
 20
15.6258952594
 10
4.876601842
 20
15.6310100768
  0
LWPOLYLINE
  5
3BD
100
AcDbEntity
  8
0
100
AcDbPolyline
 62
253
  6
CONTINUOUS
 90
34
 70
0
 10
6.3793916565
 20
14.3562542767
 10
6.3795904592
 20
14.3660467584
 10
6.3801864215
 20
14.3760468022
 10
6.3811782047
 20
14.3862319168
 10
6.3825635807
 20
14.3965792011
 10
6.3843394348
 20
14.4070653761
 10
6.38650177
 20
14.4176668362
 10
6.3890457206
 20
14.4283597307
 10
6.3919655653
 20
14.4391200142
 10
6.3952547353
 20
14.4499234814
 10
6.3989058323
 20
14.4607458343
 10
6.4029106428
 20
14.4715627297
 10
6.407260155
 20
14.4823498297
 10
6.4119445837
 20
14.4930828705
 10
6.4169533918
 20
14.5037377133
 10
6.4222753103
 20
14.5142903906
 10
6.4278983707
 20
14.5247171734
 10
6.4338099214
 20
14.5349946054
 10
6.4399966532
 20
14.5450995534
 10
6.4464446298
 20
14.5550092644
 10
6.4531393631
 20
14.5647014812
 10
6.4600658392
 20
14.5741544683
 10
6.4672085497
 20
14.5833470477
 10
6.4745513672
 20
14.5922584515
 10
6.4820776139
 20
14.6008684517
 10
6.4897702481
 20
14.6091575917
 10
6.4976120607
 20
14.6171073659
 10
6.5055855596
 20
14.6247000553
 10
6.5136740371
 20
14.6319196409
 10
6.5218581084
 20
14.6387487132
 10
6.5301157792
 20
14.6451692237
 10
6.5384271999
 20
14.651166443
 10
6.5467748322
 20
14.6567284146
 10
6.5551399124
 20
14.661843232
  0
LWPOLYLINE
  5
3BE
100
AcDbEntity
  8
0
100
AcDbPolyline
 62
253
  6
CONTINUOUS
 90
22
 70
0
 10
4.387790512
 20
-25.1247322028
 10
4.3867514407
 20
-25.141392349
 10
4.3851513408
 20
-25.1576890554
 10
4.382992804
 20
-25.1735959195
 10
4.3802793025
 20
-25.1890871829
 10
4.3770152562
 20
-25.2041377358
 10
4.373206026
 20
-25.2187231585
 10
4.3688577775
 20
-25.2328198236
 10
4.3639775602
 20
-25.2464048904
 10
4.3585733693
 20
-25.2594563053
 10
4.3526539585
 20
-25.2719529243
 10
4.3462289198
 20
-25.2838745003
 10
4.3393087573
 20
-25.2952016718
 10
4.3319047166
 20
-25.3059160703
 10
4.3240287613
 20
-25.316000353
 10
4.3156936476
 20
-25.3254381839
 10
4.3069129069
 20
-25.334214259
 10
4.2977007427
 20
-25.342314371
 10
4.2880720013
 20
-25.3497254358
 10
4.2780422737
 20
-25.3564354509
 10
4.2676278252
 20
-25.3624335372
 10
4.2634023926
 20
-25.364609153
  0
LWPOLYLINE
  5
3BF
100
AcDbEntity
  8
0
100
AcDbPolyline
 62
253
  6
CONTINUOUS
 90
15
 70
0
 10
8.9319898107
 20
15.3424089744
 10
8.9303431624
 20
15.3356303768
 10
8.9281418036
 20
15.3289044721
 10
8.9253906848
 20
15.3222463856
 10
8.9220959918
 20
15.3156710881
 10
8.9182651313
 20
15.3091933627
 10
8.9139067126
 20
15.3028277699
 10
8.9090305388
 20
15.2965886302
 10
8.9036475874
 20
15.2904899879
 10
8.897769974
 20
15.2845455641
 10
8.8914109109
 20
15.2787687163
 10
8.8845846873
 20
15.2731724238
 10
8.8773066483
 20
15.2677692674
 10
8.8695931638
 20
15.2625714004
 10
8.8614615787
 20
15.257590511
  0
LWPOLYLINE
  5
3C0
100
AcDbEntity
  8
0
100
AcDbPolyline
 62
253
  6
CONTINUOUS
 90
16
 70
0
 10
-1.7823975998
 20
-12.0460027822
 10
-1.8146073068
 20
-12.086839456
 10
-1.8503377225
 20
-12.1249921437
 10
-1.8891973769
 20
-12.1600428366
 10
-1.9307605155
 20
-12.1916075118
 10
-1.9745717639
 20
-12.2193403401
 10
-2.0201511169
 20
-12.242937475
 10
-2.0669991975
 20
-12.2621403812
 10
-2.1146027284
 20
-12.2767386677
 10
-2.1624401553
 20
-12.2865723927
 10
-2.2099873614
 20
-12.2915338157
 10
-2.2567234095
 20
-12.2915685783
 10
-2.3021362497
 20
-12.2866762998
 10
-2.3457283295
 20
-12.2769105809
 10
-2.3870220448
 20
-12.2623784169
 10
-2.4255649731
 20
-12.2432390252
  0
LWPOLYLINE
  5
3C1
100
AcDbEntity
  8
0
100
AcDbPolyline
 62
253
  6
CONTINUOUS
 90
16
 70
0
 10
-8.0714301245
 20
-12.6428089856
 10
-8.0409728045
 20
-12.622064018
 10
-8.011225341
 20
-12.5967052748
 10
-7.9828059103
 20
-12.5672597294
 10
-7.9563050894
 20
-12.534339281
 10
-7.932273589
 20
-12.4986280429
 10
-7.9112108085
 20
-12.4608681273
 10
-7.8935544497
 20
-12.4218442178
 10
-7.8796714237
 20
-12.3823672604
 10
-7.8698502313
 20
-12.3432576168
 10
-7.8642949641
 20
-12.3053280168
 10
-7.8631210639
 20
-12.2693666664
 10
-7.8663529253
 20
-12.236120868
 10
-7.8739233886
 20
-12.2062814949
 10
-7.8856751333
 20
-12.1804686338
 10
-7.9013639494
 20
-12.1592186967
  0
LINE
  5
3C2
100
AcDbEntity
  8
0
100
AcDbLine
 62
253
  6
CONTINUOUS
 10
-8.5265292535
 20
-12.0910522278
 11
-8.5954298802
 21
-12.1322232592
  0
LINE
  5
3C3
100
AcDbEntity
  8
0
100
AcDbLine
 62
7
  6
CONTINUOUS
 10
9.7591334343
 20
-0.4436057968
 11
8.3202346824
 21
-1.2744051478
  0
LWPOLYLINE
  5
3C4
100
AcDbEntity
  8
RACCORDO
100
AcDbPolyline
 62
253
  6
CONTINUOUS
 90
11
 70
0
 10
1.8880726185
 20
5.3890803428
 10
1.8747847343
 20
5.3891410475
 10
1.8616573825
 20
5.390026797
 10
1.8487145445
 20
5.3917607908
 10
1.8359318922
 20
5.3943196643
 10
1.8234967311
 20
5.3974606461
 10
1.811452943
 20
5.4011750231
 10
1.7997564739
 20
5.4054714263
 10
1.7884627864
 20
5.4101331298
 10
1.7775903547
 20
5.4150878852
 10
1.7671206494
 20
5.4204079145
  0
LWPOLYLINE
  5
3C5
100
AcDbEntity
  8
RACCORDO
100
AcDbPolyline
 62
253
  6
CONTINUOUS
 90
3
 70
0
 10
2.0348249653
 20
5.3202835798
 10
2.0139281564
 20
5.3257981609
 10
2.0066218011
 20
5.3282789585
  0
LWPOLYLINE
  5
3C6
100
AcDbEntity
  8
RACCORDO
100
AcDbPolyline
 62
7
  6
CONTINUOUS
 90
11
 70
0
 10
1.7775129317
 20
5.3730541877
 10
1.7855087465
 20
5.3685475845
 10
1.8215424629
 20
5.350906894
 10
1.8576228146
 20
5.3375117231
 10
1.8935390606
 20
5.3283571408
 10
1.929022391
 20
5.323442852
 10
1.9636870492
 20
5.3227349436
 10
1.9970806094
 20
5.3261049241
 10
2.0290577327
 20
5.3333911591
 10
2.059597197
 20
5.3445114693
 10
2.0803061957
 20
5.3546968266
  0
LINE
  5
3C7
100
AcDbEntity
  8
RACCORDO
100
AcDbLine
 62
253
  6
CONTINUOUS
 10
1.7671206494
 20
5.4204079145
 11
1.7570536575
 21
5.4260932115
  0
LINE
  5
3C8
100
AcDbEntity
  8
RACCORDO
100
AcDbLine
 62
253
  6
CONTINUOUS
 10
1.7968757256
 20
5.1298226013
 11
-10.9560744569
 21
12.4932162047
  0
LINE
  5
3C9
100
AcDbEntity
  8
RACCORDO
100
AcDbLine
 62
7
  6
CONTINUOUS
 10
1.7774940681
 20
5.3730650357
 11
-10.8585062594
 21
12.6689332585
  0
LINE
  5
3CA
100
AcDbEntity
  8
RACCORDO
100
AcDbLine
 62
253
  6
CONTINUOUS
 10
1.7570536575
 20
5.4260932115
 11
-10.87894667
 21
12.7219614343
  0
LWPOLYLINE
  5
3CB
100
AcDbEntity
  8
RACCORDO
100
AcDbPolyline
 62
253
  6
CONTINUOUS
 90
29
 70
0
 10
-10.87894667
 20
12.7219614343
 10
-10.8887578616
 20
12.7277372121
 10
-10.8989222173
 20
12.7343024854
 10
-10.9094397249
 20
12.74165726
 10
-10.9203570286
 20
12.7497724764
 10
-10.9316274315
 20
12.7586772192
 10
-10.9431108823
 20
12.7684587244
 10
-10.9548263706
 20
12.7791451896
 10
-10.9667547455
 20
12.7907084941
 10
-10.9786986909
 20
12.8031514218
 10
-10.9906607401
 20
12.8164967546
 10
-11.0026380442
 20
12.8307218609
 10
-11.0144251508
 20
12.8457614341
 10
-11.0260210772
 20
12.8616397054
 10
-11.0374263193
 20
12.8783326752
 10
-11.0484375989
 20
12.8957027109
 10
-11.0590523396
 20
12.9137834924
 10
-11.069272488
 20
12.9325416389
 10
-11.0789015679
 20
12.951738919
 10
-11.087926455
 20
12.9714132609
 10
-11.0963596058
 20
12.9915270527
 10
-11.1040430547
 20
13.0117286866
 10
-11.1109441103
 20
13.0320308389
 10
-11.1170949566
 20
13.0524210725
 10
-11.1224352262
 20
13.0725099743
 10
-11.1269253908
 20
13.0922885642
 10
-11.1306048068
 20
13.1117659022
 10
-11.1335318142
 20
13.1305794534
 10
-11.1356711805
 20
13.1486816621
  0
LWPOLYLINE
  5
3CC
100
AcDbEntity
  8
RACCORDO
100
AcDbPolyline
 62
253
  6
CONTINUOUS
 90
22
 70
0
 10
-10.9560744569
 20
12.4932162047
 10
-10.9819101197
 20
12.5086582431
 10
-11.0082885425
 20
12.5265900974
 10
-11.0352095476
 20
12.5470118529
 10
-11.0627873165
 20
12.5697776392
 10
-11.0909069225
 20
12.5950336847
 10
-11.1192241352
 20
12.6232184101
 10
-11.1478283491
 20
12.6543724432
 10
-11.176627925
 20
12.6884562331
 10
-11.2050061918
 20
12.7257883586
 10
-11.233092509
 20
12.7665131933
 10
-11.2607527068
 20
12.8104886655
 10
-11.2869735143
 20
12.857604309
 10
-11.3118637461
 20
12.9081490578
 10
-11.3353063107
 20
12.9618379226
 10
-11.3559482067
 20
13.0176999625
 10
-11.3737535331
 20
13.0761459926
 10
-11.3887473712
 20
13.1367703219
 10
-11.3996700715
 20
13.1973763469
 10
-11.4061002419
 20
13.2572325646
 10
-11.40845221
 20
13.3170737775
 10
-11.4067219525
 20
13.376901859
  0
LINE
  5
3CD
100
AcDbEntity
  8
RACCORDO
100
AcDbLine
 62
7
  6
CONTINUOUS
 10
-10.8712407582
 20
12.6765671429
 11
-10.8584349278
 21
12.6688922665
  0
LWPOLYLINE
  5
3CE
100
AcDbEntity
  8
RACCORDO
100
AcDbPolyline
 62
253
  6
CONTINUOUS
 90
8
 70
0
 10
2.3346723148
 20
5.4428058113
 10
2.317587785
 20
5.4538665311
 10
2.3031458007
 20
5.4658536375
 10
2.291588088
 20
5.4785664931
 10
2.2831080972
 20
5.4917923131
 10
2.277847764
 20
5.5053097268
 10
2.2758951346
 20
5.518892483
 10
2.2760134673
 20
5.5238058121
  0
LWPOLYLINE
  5
3CF
100
AcDbEntity
  8
RACCORDO
100
AcDbPolyline
 62
253
  6
CONTINUOUS
 90
6
 70
0
 10
1.7774940681
 20
5.3730650357
 10
1.7710291265
 20
5.3779190265
 10
1.7642192511
 20
5.3866902898
 10
1.7595280326
 20
5.3979049417
 10
1.7571125428
 20
5.4111874916
 10
1.7570536575
 20
5.4260932115
  0
LWPOLYLINE
  5
3D0
100
AcDbEntity
  8
0
100
AcDbPolyline
 62
253
  6
CONTINUOUS
 90
4
 70
0
 10
8.8794992997
 20
-23.527948292
 10
8.8777901776
 20
-23.5163811726
 10
8.8756429139
 20
-23.5049515934
 10
8.8730623548
 20
-23.4936853503
  0
LWPOLYLINE
  5
3D1
100
AcDbEntity
  8
RACCORDO
100
AcDbPolyline
 62
253
  6
CONTINUOUS
 90
10
 70
0
 10
3.2507809873
 20
11.0571366553
 10
3.249055447
 20
11.0715349106
 10
3.2451943308
 20
11.0867154094
 10
3.239314997
 20
11.1022164217
 10
3.2315961883
 20
11.1175664636
 10
3.2222726425
 20
11.1322985518
 10
3.2116279849
 20
11.1459644251
 10
3.1999860268
 20
11.1581483044
 10
3.18770089
 20
11.1684795268
 10
3.175146297
 20
11.1766437486
  0
LWPOLYLINE
  5
3D2
100
AcDbEntity
  8
0
100
AcDbPolyline
 62
253
  6
CONTINUOUS
 90
19
 70
0
 10
6.3793916565
 20
14.0357341039
 10
6.3795599523
 20
14.0269266386
 10
6.3800645195
 20
14.0183302868
 10
6.3809043974
 20
14.0099614165
 10
6.3820779831
 20
14.0018359837
 10
6.383583044
 20
13.993969437
 10
6.3854167304
 20
13.986376695
 10
6.3875755745
 20
13.9790721729
 10
6.3900554619
 20
13.9720698391
 10
6.3928516416
 20
13.9653831155
 10
6.3959587641
 20
13.9590247704
 10
6.3993709263
 20
13.9530068621
 10
6.4030816542
 20
13.9473408058
 10
6.407083915
 20
13.9420373559
 10
6.4113700641
 20
13.9371066564
 10
6.4159318736
 20
13.9325581629
 10
6.4207606032
 20
13.9284005578
 10
6.4258470889
 20
13.9246417006
 10
6.4311116797
 20
13.9213291466
  0
LWPOLYLINE
  5
3D3
100
AcDbEntity
  8
0
100
AcDbPolyline
 62
7
  6
CONTINUOUS
 90
24
 70
0
 10
7.5200216086
 20
23.1691181476
 10
7.5195904695
 20
23.1973093808
 10
7.5183089949
 20
23.2249105374
 10
7.5161771848
 20
23.2519216172
 10
7.5131897492
 20
23.2783770481
 10
7.5093519782
 20
23.3042424023
 10
7.5046797412
 20
23.3294143966
 10
7.4991720503
 20
23.3538826287
 10
7.4928298935
 20
23.3776575008
 10
7.4856721041
 20
23.4006669363
 10
7.477692006
 20
23.4229182213
 10
7.4688962754
 20
23.4444040696
 10
7.4593237747
 20
23.4650305455
 10
7.4489774737
 20
23.4847835008
 10
7.4378544026
 20
23.5036770836
 10
7.4259845138
 20
23.5216598032
 10
7.4133570934
 20
23.5387394011
 10
7.3999828553
 20
23.5549081357
 10
7.3859238939
 20
23.5700912915
 10
7.3711878758
 20
23.5842751727
 10
7.3557671343
 20
23.597473475
 10
7.3397007638
 20
23.60965257
 10
7.3229744489
 20
23.6208172192
 10
7.3129359134
 20
23.6268496848
  0
LINE
  5
3D4
100
AcDbEntity
  8
0
100
AcDbLine
 62
253
  6
CONTINUOUS
 10
6.3793916565
 20
-25.221171856
 11
6.3793916565
 21
-24.9006516831
  0
LINE
  5
3D5
100
AcDbEntity
  8
0
100
AcDbLine
 62
253
  6
CONTINUOUS
 10
6.3793916565
 20
14.0357341039
 11
6.3793916565
 21
14.3562542767
  0
LINE
  5
3D6
100
AcDbEntity
  8
0
100
AcDbLine
 62
253
  6
CONTINUOUS
 10
6.7319136161
 20
-25.2217639366
 11
6.7319136161
 21
-24.9012437638
  0
LINE
  5
3D7
100
AcDbEntity
  8
0
100
AcDbLine
 62
253
  6
CONTINUOUS
 10
6.7319136161
 20
14.0351420232
 11
6.7319136161
 21
14.3556621961
  0
LINE
  5
3D8
100
AcDbEntity
  8
RACCORDO
100
AcDbLine
 62
253
  6
CONTINUOUS
 10
7.0906122645
 20
13.3531509132
 11
7.0906122645
 21
13.837532911
  0
LINE
  5
3D9
100
AcDbEntity
  8
RACCORDO
100
AcDbLine
 62
253
  6
CONTINUOUS
 10
7.4431342242
 20
-24.0239551085
 11
7.4431342242
 21
-23.7807802833
  0
LINE
  5
3DA
100
AcDbEntity
  8
RACCORDO
100
AcDbLine
 62
253
  6
CONTINUOUS
 10
7.4431342242
 20
13.3717020381
 11
7.4431342242
 21
13.9696520104
  0
LINE
  5
3DB
100
AcDbEntity
  8
0
100
AcDbLine
 62
7
  6
CONTINUOUS
 10
7.5200216086
 20
23.1691181476
 11
7.5200216086
 21
22.7315007353
  0
LWPOLYLINE
  5
3DC
100
AcDbEntity
  8
0
100
AcDbPolyline
 62
253
  6
CONTINUOUS
 90
25
 70
0
 10
6.3793916565
 20
-24.9006516831
 10
6.3795599087
 20
-24.8916510531
 10
6.3800643451
 20
-24.8824732628
 10
6.3809040056
 20
-24.8731357826
 10
6.3820772917
 20
-24.8636563871
 10
6.38358197
 20
-24.8540531207
 10
6.3854151763
 20
-24.8443442639
 10
6.3875734209
 20
-24.834548298
 10
6.3900525957
 20
-24.8246838702
 10
6.3928479811
 20
-24.8147697579
 10
6.3959542562
 20
-24.8048248333
 10
6.399365508
 20
-24.7948680271
 10
6.4030752428
 20
-24.7849182926
 10
6.4070763991
 20
-24.7749945697
 10
6.4113613604
 20
-24.7651157488
 10
6.41592197
 20
-24.7553006348
 10
6.4207495466
 20
-24.7455679113
 10
6.4258349006
 20
-24.7359361051
 10
6.4311683517
 20
-24.7264235508
 10
6.4367397475
 20
-24.7170483563
 10
6.4425384823
 20
-24.7078283677
 10
6.4485535181
 20
-24.6987811357
 10
6.4547734048
 20
-24.6899238823
 10
6.4611863026
 20
-24.6812734678
 10
6.4677800041
 20
-24.6728463587
  0
LWPOLYLINE
  5
3DD
100
AcDbEntity
  8
0
100
AcDbPolyline
 62
253
  6
CONTINUOUS
 90
18
 70
0
 10
6.7319136161
 20
-25.2217639366
 10
6.7316653478
 20
-25.2313876819
 10
6.7310195395
 20
-25.2407570778
 10
6.7299776541
 20
-25.2498509004
 10
6.7285420517
 20
-25.2586485501
 10
6.7267159842
 20
-25.2671300984
 10
6.7245035882
 20
-25.2752763327
 10
6.7219098751
 20
-25.2830687998
 10
6.7189407203
 20
-25.2904898481
 10
6.7156028497
 20
-25.2975226673
 10
6.7119038242
 20
-25.3041513264
 10
6.707852023
 20
-25.3103608101
 10
6.7034566242
 20
-25.3161370525
 10
6.6987275846
 20
-25.321466969
 10
6.6936756163
 20
-25.3263384863
 10
6.6883121633
 20
-25.3307405693
 10
6.6826493749
 20
-25.3346632463
 10
6.6789865401
 20
-25.3368546545
  0
LWPOLYLINE
  5
3DE
100
AcDbEntity
  8
0
100
AcDbPolyline
 62
253
  6
CONTINUOUS
 90
3
 70
0
 10
8.9335032192
 20
15.3547379974
 10
8.9330780459
 20
15.349225022
 10
8.9319898107
 20
15.3424089744
  0
LWPOLYLINE
  5
3DF
100
AcDbEntity
  8
0
100
AcDbPolyline
 62
253
  6
CONTINUOUS
 90
13
 70
0
 10
-10.0370725351
 20
-14.8530324074
 10
-10.0663929409
 20
-14.8715468849
 10
-10.098841325
 20
-14.8876486507
 10
-10.1338624165
 20
-14.9010622229
 10
-10.1708569523
 20
-14.911558127
 10
-10.2091918879
 20
-14.9189568082
 10
-10.2482112258
 20
-14.9231317139
 10
-10.2872473099
 20
-14.9240114699
 10
-10.3256322424
 20
-14.9215810856
 10
-10.3627092652
 20
-14.9158822072
 10
-10.3978440266
 20
-14.9070124039
 10
-10.4304354325
 20
-14.895123493
 10
-10.4599259193
 20
-14.8804189422
  0
LWPOLYLINE
  5
3E0
100
AcDbEntity
  8
0
100
AcDbPolyline
 62
253
  6
CONTINUOUS
 90
25
 70
0
 10
-7.385886163
 20
-13.0386334771
 10
-7.3663287021
 20
-13.0267572042
 10
-7.3469778822
 20
-13.0130444681
 10
-7.3279819778
 20
-12.9976101388
 10
-7.3094918415
 20
-12.9805952862
 10
-7.2916420078
 20
-12.9621289466
 10
-7.2745535022
 20
-12.9423190723
 10
-7.2583514718
 20
-12.9213080639
 10
-7.2431737841
 20
-12.8992737281
 10
-7.2291546833
 20
-12.8763855439
 10
-7.2164068795
 20
-12.8528247332
 10
-7.2050331595
 20
-12.8287820958
 10
-7.1951379574
 20
-12.8044511274
 10
-7.18680993
 20
-12.7800500704
 10
-7.1801075621
 20
-12.7557557058
 10
-7.1750834246
 20
-12.7317034937
 10
-7.1717941849
 20
-12.7080911172
 10
-7.1702827091
 20
-12.6851217666
 10
-7.1705843201
 20
-12.6629455227
 10
-7.1727394771
 20
-12.6416813308
 10
-7.1767590346
 20
-12.6216208476
 10
-7.1825709583
 20
-12.6031313063
 10
-7.1900773032
 20
-12.5864001222
 10
-7.1992125757
 20
-12.5714807006
 10
-7.2098829556
 20
-12.5584711562
  0
LINE
  5
3E1
100
AcDbEntity
  8
0
100
AcDbLine
 62
253
  6
CONTINUOUS
 10
-8.0714301245
 20
-12.6428089856
 11
-8.0797781079
 21
-12.6477972579
  0
LINE
  5
3E2
100
AcDbEntity
  8
0
100
AcDbLine
 62
7
  6
CONTINUOUS
 10
-5.3761176296
 20
-10.938388163
 11
-6.4410760921
 21
-11.5660805968
  0
LINE
  5
3E3
100
AcDbEntity
  8
0
100
AcDbLine
 62
7
  6
CONTINUOUS
 10
-4.002566515
 20
-11.3301178283
 11
-6.8038178695
 21
-12.9474826933
  0
LINE
  5
3E4
100
AcDbEntity
  8
0
100
AcDbLine
 62
7
  6
CONTINUOUS
 10
-5.9570664384
 20
-12.0806619593
 11
-4.2666942286
 21
-11.1553239384
  0
LINE
  5
3E5
100
AcDbEntity
  8
0
100
AcDbLine
 62
253
  6
CONTINUOUS
 10
-5.915007234
 20
-12.2192944248
 11
-4.127759552
 21
-11.2409251502
  0
LWPOLYLINE
  5
3E6
100
AcDbEntity
  8
RACCORDO
100
AcDbPolyline
 62
253
  6
CONTINUOUS
 90
12
 70
0
 10
-11.4067219472
 20
13.3769018615
 10
-11.3872901886
 20
13.3668816096
 10
-11.3658269159
 20
13.3581401884
 10
-11.342691301
 20
13.350823879
 10
-11.3182705013
 20
13.3450551145
 10
-11.2929731808
 20
13.3409304307
 10
-11.2672226711
 20
13.3385188511
 10
-11.2414498877
 20
13.3378607316
 10
-11.2160861192
 20
13.3389670854
 10
-11.1915558094
 20
13.341819399
 10
-11.1682694548
 20
13.346369941
 10
-11.1599592442
 20
13.3487389634
  0
LWPOLYLINE
  5
3E7
100
AcDbEntity
  8
0
100
AcDbPolyline
 62
253
  6
CONTINUOUS
 90
4
 70
0
 10
4.6294707587
 20
15.0894865629
 10
4.6283142625
 20
15.0962992838
 10
4.627718464
 20
15.1031360067
 10
4.6276302813
 20
15.1069695971
  0
LINE
  5
3E8
100
AcDbEntity
  8
0
100
AcDbLine
 62
7
  6
CONTINUOUS
 10
8.3202346824
 20
-9.3821017489
 11
8.3202346824
 21
-1.2744051478
  0
LINE
  5
3E9
100
AcDbEntity
  8
0
100
AcDbLine
 62
7
  6
CONTINUOUS
 10
8.3331944069
 20
15.2802206223
 11
8.3331944069
 21
14.5947782446
  0
LINE
  5
3EA
100
AcDbEntity
  8
RACCORDO
100
AcDbLine
 62
7
  6
CONTINUOUS
 10
8.3331944069
 20
-23.633152333
 11
8.3331944069
 21
-23.3374400623
  0
LINE
  5
3EB
100
AcDbEntity
  8
0
100
AcDbLine
 62
7
  6
CONTINUOUS
 10
8.3331944069
 20
-23.633152333
 11
8.3331944069
 21
-24.3185947107
  0
LINE
  5
3EC
100
AcDbEntity
  8
RACCORDO
100
AcDbLine
 62
7
  6
CONTINUOUS
 10
8.3331944069
 20
13.9332155198
 11
8.3331944069
 21
14.5947782446
  0
LINE
  5
3ED
100
AcDbEntity
  8
0
100
AcDbLine
 62
253
  6
CONTINUOUS
 10
8.8614615787
 20
15.5852358115
 11
8.8614615787
 21
15.257590511
  0
LINE
  5
3EE
100
AcDbEntity
  8
0
100
AcDbLine
 62
253
  6
CONTINUOUS
 10
8.8614615787
 20
-23.678795276
 11
8.8614615787
 21
-24.0064405765
  0
LINE
  5
3EF
100
AcDbEntity
  8
0
100
AcDbLine
 62
7
  6
CONTINUOUS
 10
8.9336594357
 20
15.6867089246
 11
8.9336594357
 21
15.3590636241
  0
LINE
  5
3F0
100
AcDbEntity
  8
0
100
AcDbLine
 62
7
  6
CONTINUOUS
 10
8.9336594357
 20
-23.577322163
 11
8.9336594357
 21
-23.9049674635
  0
LINE
  5
3F1
100
AcDbEntity
  8
0
100
AcDbLine
 62
7
  6
CONTINUOUS
 10
9.0406097295
 20
12.9530730935
 11
9.0406097295
 21
12.7081181933
  0
LINE
  5
3F2
100
AcDbEntity
  8
0
100
AcDbLine
 62
7
  6
CONTINUOUS
 10
9.0406097295
 20
-22.8083526644
 11
9.0406097295
 21
-22.5633977642
  0
LINE
  5
3F3
100
AcDbEntity
  8
0
100
AcDbLine
 62
253
  6
CONTINUOUS
 10
9.6099964203
 20
20.4658585297
 11
9.6099964203
 21
19.9369067876
  0
LINE
  5
3F4
100
AcDbEntity
  8
0
100
AcDbLine
 62
253
  6
CONTINUOUS
 10
9.6099964203
 20
19.6011117785
 11
9.6099964203
 21
19.1612904662
  0
LINE
  5
3F5
100
AcDbEntity
  8
0
100
AcDbLine
 62
7
  6
CONTINUOUS
 10
9.7408312715
 20
20.5205047018
 11
9.7408312715
 21
19.3436679147
  0
LINE
  5
3F6
100
AcDbEntity
  8
0
100
AcDbLine
 62
7
  6
CONTINUOUS
 10
9.7415456833
 20
-22.3917650275
 11
9.7415456833
 21
-21.7116559874
  0
LINE
  5
3F7
100
AcDbEntity
  8
0
100
AcDbLine
 62
7
  6
CONTINUOUS
 10
9.7415456833
 20
12.6485664109
 11
9.7415456833
 21
13.3601605601
  0
LINE
  5
3F8
100
AcDbEntity
  8
0
100
AcDbLine
 62
7
  6
CONTINUOUS
 10
9.7591334343
 20
-21.6903258254
 11
9.7591334343
 21
-8.6083085647
  0
LINE
  5
3F9
100
AcDbEntity
  8
0
100
AcDbLine
 62
7
  6
CONTINUOUS
 10
9.7591334343
 20
-0.4436057968
 11
9.7591334343
 21
12.6384114639
  0
LINE
  5
3FA
100
AcDbEntity
  8
0
100
AcDbLine
 62
7
  6
CONTINUOUS
 10
9.7800411405
 20
-16.5937018561
 11
9.7800411405
 21
-15.0851769302
  0
LINE
  5
3FB
100
AcDbEntity
  8
0
100
AcDbLine
 62
253
  6
CONTINUOUS
 10
8.9336594357
 20
-23.577322163
 11
8.9336591217
 21
-23.5775509273
  0
LWPOLYLINE
  5
3FC
100
AcDbEntity
  8
0
100
AcDbPolyline
 62
253
  6
CONTINUOUS
 90
18
 70
0
 10
8.8614615787
 20
-24.0064405765
 10
8.8613087968
 20
-24.0160104624
 10
8.8607534874
 20
-24.0253287535
 10
8.8597969073
 20
-24.0343743351
 10
8.8584412216
 20
-24.0431267149
 10
8.8566895007
 20
-24.0515660547
 10
8.8545457166
 20
-24.0596732171
 10
8.8520147285
 20
-24.0674298292
 10
8.8491022708
 20
-24.0748183199
 10
8.8458149444
 20
-24.0818219463
 10
8.8421601982
 20
-24.0884248408
 10
8.8381463146
 20
-24.0946120422
 10
8.8337823928
 20
-24.1003695278
 10
8.8290783229
 20
-24.1056842533
 10
8.8240447646
 20
-24.1105441792
 10
8.8186931263
 20
-24.1149382945
 10
8.8130355326
 20
-24.1188566473
 10
8.8108449119
 20
-24.1201972351
  0
LWPOLYLINE
  5
3FD
100
AcDbEntity
  8
0
100
AcDbPolyline
 62
7
  6
CONTINUOUS
 90
21
 70
0
 10
9.0396840584
 20
-22.8076175254
 10
9.0394020056
 20
-22.8238365418
 10
9.0385476806
 20
-22.8397293163
 10
9.0371207496
 20
-22.8552676733
 10
9.0351209263
 20
-22.8704364611
 10
9.0325496417
 20
-22.8851947872
 10
9.0294149309
 20
-22.8994801015
 10
9.025728074
 20
-22.9132572698
 10
9.0214951037
 20
-22.9265183375
 10
9.0167215744
 20
-22.9392462813
 10
9.0114222185
 20
-22.9514109927
 10
9.0056038108
 20
-22.9630048718
 10
8.9992567776
 20
-22.9740410783
 10
8.9923768811
 20
-22.98451551
 10
8.9849841667
 20
-22.9943870479
 10
8.9771062628
 20
-23.0036145011
 10
8.9687603139
 20
-23.0121806217
 10
8.9599589466
 20
-23.0200753979
 10
8.9507293642
 20
-23.0272779134
 10
8.9411067356
 20
-23.0337694725
 10
8.9384485159
 20
-23.0353971139
  0
LWPOLYLINE
  5
3FE
100
AcDbEntity
  8
0
100
AcDbPolyline
 62
253
  6
CONTINUOUS
 90
3
 70
0
 10
8.9336594357
 20
-23.9049674635
 10
8.9336058741
 20
-23.9079552913
 10
8.9330794467
 20
-23.9147942197
  0
LWPOLYLINE
  5
3FF
100
AcDbEntity
  8
0
100
AcDbPolyline
 62
253
  6
CONTINUOUS
 90
18
 70
0
 10
8.9336594272
 20
15.6866712358
 10
8.9336058741
 20
15.6837210967
 10
8.9330794467
 20
15.6768821684
 10
8.9319920344
 20
15.6700653324
 10
8.9303460798
 20
15.6632859181
 10
8.9281452825
 20
15.6565591757
 10
8.9253945897
 20
15.6499002343
 10
8.9221001858
 20
15.6433240723
 10
8.9182694814
 20
15.636845486
 10
8.9139110917
 20
15.6304790481
 10
8.9090348181
 20
15.6242390773
 10
8.9036516287
 20
15.6181396107
 10
8.8977736275
 20
15.6121943643
 10
8.8914140373
 20
15.6064167136
 10
8.8845871745
 20
15.6008196641
 10
8.8773084004
 20
15.5954158069
 10
8.8695940843
 20
15.5902172922
 10
8.8614615787
 20
15.5852358115
  0
LWPOLYLINE
  5
400
100
AcDbEntity
  8
0
100
AcDbPolyline
 62
253
  6
CONTINUOUS
 90
18
 70
0
 10
8.9336591217
 20
-23.5775509273
 10
8.9336050128
 20
-23.580333917
 10
8.9330766597
 20
-23.5871724733
 10
8.9319873877
 20
-23.5939888523
 10
8.9303396497
 20
-23.6007677345
 10
8.9281371495
 20
-23.6074938899
 10
8.9253848179
 20
-23.6141522409
 10
8.9220888589
 20
-23.6207277631
 10
8.9182567675
 20
-23.6272055394
 10
8.9138972555
 20
-23.6335709238
 10
8.9090201098
 20
-23.6398096974
 10
8.9036362145
 20
-23.6459079609
 10
8.8977571795
 20
-23.6518524772
 10
8.8913966426
 20
-23.6576293766
 10
8.8845704829
 20
-23.6632244396
 10
8.8772949105
 20
-23.6686248192
 10
8.8695860769
 20
-23.673818939
 10
8.8614615787
 20
-23.678795276
  0
LWPOLYLINE
  5
401
100
AcDbEntity
  8
0
100
AcDbPolyline
 62
7
  6
CONTINUOUS
 90
18
 70
0
 10
8.3331944069
 20
-24.3185947107
 10
8.3329940281
 20
-24.3281913477
 10
8.3323938591
 20
-24.3375349246
 10
8.3313951554
 20
-24.3466043355
 10
8.3299999971
 20
-24.355379142
 10
8.3282115362
 20
-24.363839469
 10
8.3260339903
 20
-24.3719660498
 10
8.3234722317
 20
-24.3797405094
 10
8.3205319708
 20
-24.3871452885
 10
8.3172199965
 20
-24.3941635335
 10
8.3135437726
 20
-24.4007793673
 10
8.3095115537
 20
-24.4069778442
 10
8.3051325619
 20
-24.4127448674
 10
8.3004167007
 20
-24.4180673813
 10
8.2953746011
 20
-24.4229333582
 10
8.2900177307
 20
-24.4273317462
 10
8.2843582313
 20
-24.4312525771
 10
8.2821500107
 20
-24.4326041157
  0
LWPOLYLINE
  5
402
100
AcDbEntity
  8
0
100
AcDbPolyline
 62
7
  6
CONTINUOUS
 90
6
 70
0
 10
8.9336590831
 20
15.3593060521
 10
8.9330610432
 20
15.3417787164
 10
8.9292577183
 20
15.3123572696
 10
8.9219768036
 20
15.2835333111
 10
8.9112984364
 20
15.2557172166
 10
8.8973276853
 20
15.2292719483
  0
LWPOLYLINE
  5
403
100
AcDbEntity
  8
0
100
AcDbPolyline
 62
7
  6
CONTINUOUS
 90
16
 70
0
 10
-6.8038101594
 20
-12.9474782428
 10
-6.8295777198
 20
-12.9612294176
 10
-6.857730841
 20
-12.9738945021
 10
-6.8882695232
 20
-12.9854734963
 10
-6.9214323024
 20
-12.9960256762
 10
-6.9569806425
 20
-13.0054917658
 10
-6.9941989353
 20
-13.0136939364
 10
-7.0330438509
 20
-13.0205166145
 10
-7.0735587191
 20
-13.0260753737
 10
-7.1151579209
 20
-13.030539106
 10
-7.1576635364
 20
-13.0338170809
 10
-7.2012534853
 20
-13.0360000289
 10
-7.2458759084
 20
-13.0375290341
 10
-7.2915135192
 20
-13.0385511246
 10
-7.338183604
 20
-13.0389192722
 10
-7.385886163
 20
-13.0386334771
  0
LINE
  5
404
100
AcDbEntity
  8
RACCORDO
100
AcDbLine
 62
253
  6
CONTINUOUS
 10
-11.5350139312
 20
18.2118212008
 11
-10.9534051002
 21
17.876007551
  0
LINE
  5
405
100
AcDbEntity
  8
RACCORDO
100
AcDbLine
 62
253
  6
CONTINUOUS
 10
-10.6995198829
 20
17.7294174085
 11
2.5185718799
 21
10.0974568863
  0
LINE
  5
406
100
AcDbEntity
  8
RACCORDO
100
AcDbLine
 62
253
  6
CONTINUOUS
 10
2.7724570971
 20
9.9508667437
 11
3.3540659282
 21
9.615053094
  0
LWPOLYLINE
  5
407
100
AcDbEntity
  8
RACCORDO
100
AcDbPolyline
 62
253
  6
CONTINUOUS
 90
8
 70
0
 10
2.7724571003
 20
9.950866745
 10
2.7553627971
 20
9.9618219341
 10
2.7408950886
 20
9.9735375892
 10
2.729296119
 20
9.9858176266
 10
2.7207600191
 20
9.9984565167
 10
2.7154296565
 20
10.0112427239
 10
2.7133942449
 20
10.0239622466
 10
2.7136887833
 20
10.0308089591
  0
LWPOLYLINE
  5
408
100
AcDbEntity
  8
RACCORDO
100
AcDbPolyline
 62
253
  6
CONTINUOUS
 90
11
 70
0
 10
-10.2819645094
 20
18.9466108701
 10
-10.2637766331
 20
18.9343987709
 10
-10.2457731024
 20
18.9196814787
 10
-10.228261605
 20
18.902710518
 10
-10.2115414199
 20
18.8837759296
 10
-10.1958983018
 20
18.8632013134
 10
-10.1815995973
 20
18.8413382987
 10
-10.1688896771
 20
18.8185605335
 10
-10.1579857592
 20
18.795257299
 10
-10.1490741957
 20
18.7718268572
 10
-10.1465008917
 20
18.7630206843
  0
LWPOLYLINE
  5
409
100
AcDbEntity
  8
0
100
AcDbPolyline
 62
253
  6
CONTINUOUS
 90
15
 70
0
 10
-3.442196414
 20
22.3615684349
 10
-3.4382269979
 20
22.3557302252
 10
-3.4346663653
 20
22.3501325684
 10
-3.4315228181
 20
22.3447882472
 10
-3.4288035405
 20
22.3397091205
 10
-3.4265152033
 20
22.3349072369
 10
-3.4246636249
 20
22.3303945969
 10
-3.4232530812
 20
22.3261817157
 10
-3.4222865882
 20
22.3222777247
 10
-3.4217663211
 20
22.318691366
 10
-3.4216934831
 20
22.3154307122
 10
-3.4220682755
 20
22.3125031934
 10
-3.4228898583
 20
22.3099154867
 10
-3.4241563658
 20
22.3076734485
 10
-3.4244839453
 20
22.3072403019
  0
LWPOLYLINE
  5
40A
100
AcDbEntity
  8
0
100
AcDbPolyline
 62
7
  6
CONTINUOUS
 90
3
 70
0
 10
4.6490607462
 20
15.0056978483
 10
4.63745477
 20
15.0375741811
 10
4.6302235496
 20
15.0710542932
  0
LINE
  5
40B
100
AcDbEntity
  8
0
100
AcDbLine
 62
7
  6
CONTINUOUS
 10
10.2092058329
 20
-13.1846599111
 11
10.2092058329
 21
-13.2144185511
  0
LWPOLYLINE
  5
40C
100
AcDbEntity
  8
0
100
AcDbPolyline
 62
7
  6
CONTINUOUS
 90
6
 70
0
 10
8.9336594356
 20
-23.9049630891
 10
8.931749415
 20
-23.9358116226
 10
8.9257272454
 20
-23.9674428626
 10
8.9156487905
 20
-23.9981390215
 10
8.9016149141
 20
-24.0274232082
 10
8.8837839468
 20
-24.0548013049
  0
LWPOLYLINE
  5
40D
100
AcDbEntity
  8
0
100
AcDbPolyline
 62
253
  6
CONTINUOUS
 90
10
 70
0
 10
1.2798641253
 20
-22.1709776083
 10
1.267347716
 20
-22.1962501765
 10
1.2563605173
 20
-22.221922019
 10
1.2470004235
 20
-22.247764422
 10
1.2393508338
 20
-22.2735471476
 10
1.2334799061
 20
-22.2990404942
 10
1.229439952
 20
-22.3240173427
 10
1.2272669739
 20
-22.3482551666
 10
1.2269803411
 20
-22.3715380158
 10
1.2285826162
 20
-22.3936584492
  0
LINE
  5
40E
100
AcDbEntity
  8
0
100
AcDbLine
 62
7
  6
CONTINUOUS
 10
1.5958576722
 20
-22.0251684778
 11
1.5960814439
 21
-22.02474578
  0
LINE
  5
40F
100
AcDbEntity
  8
0
100
AcDbLine
 62
253
  6
CONTINUOUS
 10
1.5936635993
 20
-21.5787445214
 11
1.2798641253
 21
-22.1709776083
  0
LINE
  5
410
100
AcDbEntity
  8
0
100
AcDbLine
 62
7
  6
CONTINUOUS
 10
9.0691273419
 20
-8.2099076948
 11
8.3202346824
 21
-8.6126379319
  0
LWPOLYLINE
  5
411
100
AcDbEntity
  8
0
100
AcDbPolyline
 62
253
  6
CONTINUOUS
 90
16
 70
0
 10
-1.9032134478
 20
-11.5323405762
 10
-1.9417375023
 20
-11.5463310895
 10
-1.983713084
 20
-11.5579317489
 10
-2.0286802998
 20
-11.5670154551
 10
-2.0761464795
 20
-11.5734826852
 10
-2.1255915735
 20
-11.5772625827
 10
-2.1764738513
 20
-11.5783137344
 10
-2.2282358358
 20
-11.5766246237
 10
-2.280310412
 20
-11.5722137567
 10
-2.33212704
 20
-11.5651294598
 10
-2.3831180058
 20
-11.5554493502
 10
-2.4327246418
 20
-11.5432794851
 10
-2.4804034473
 20
-11.5287531999
 10
-2.5256320432
 20
-11.5120296475
 10
-2.5679148957
 20
-11.4932920548
 10
-2.6067887449
 20
-11.4727457147
  0
LWPOLYLINE
  5
412
100
AcDbEntity
  8
RACCORDO
100
AcDbPolyline
 62
253
  6
CONTINUOUS
 90
3
 70
0
 10
2.7986286975
 20
10.5169541271
 10
2.788236523
 20
10.5217508332
 10
2.7758850895
 20
10.5275520191
  0
LWPOLYLINE
  5
413
100
AcDbEntity
  8
RACCORDO
100
AcDbPolyline
 62
253
  6
CONTINUOUS
 90
7
 70
0
 10
2.7758850895
 20
10.5275520191
 10
2.746983589
 20
10.541331953
 10
2.7313652737
 20
10.5488615987
 10
2.715704048
 20
10.5566834794
 10
2.7005070644
 20
10.5646140408
 10
2.6862031835
 20
10.5723610869
 10
2.6732119609
 20
10.5796983677
  0
LWPOLYLINE
  5
414
100
AcDbEntity
  8
RACCORDO
100
AcDbPolyline
 62
253
  6
CONTINUOUS
 90
8
 70
0
 10
3.425403874
 20
11.0321481593
 10
3.4066992865
 20
11.0412371389
 10
3.3884410498
 20
11.0474565257
 10
3.3709412204
 20
11.0507000856
 10
3.3544988527
 20
11.0509124478
 10
3.3393949763
 20
11.048090045
 10
3.325887769
 20
11.0422812242
 10
3.3227876182
 20
11.0403725887
  0
LWPOLYLINE
  5
415
100
AcDbEntity
  8
RACCORDO
100
AcDbPolyline
 62
253
  6
CONTINUOUS
 90
11
 70
0
 10
-10.95339039
 20
17.8760134794
 10
-10.9339709799
 20
17.8658859272
 10
-10.9125363613
 20
17.8568715581
 10
-10.8894452429
 20
17.8491212278
 10
-10.8650840544
 20
17.842764638
 10
-10.8398604806
 20
17.8379081663
 10
-10.8141966381
 20
17.8346330853
 10
-10.7885220113
 20
17.8329942037
 10
-10.7632662654
 20
17.833018948
 10
-10.7388520552
 20
17.8347069042
 10
-10.7186480441
 20
17.8376051954
  0
LINE
  5
416
100
AcDbEntity
  8
RACCORDO
100
AcDbLine
 62
253
  6
CONTINUOUS
 10
-10.8785995643
 20
19.2911004732
 11
-10.2819645094
 21
18.9466108701
  0
LINE
  5
417
100
AcDbEntity
  8
RACCORDO
100
AcDbLine
 62
253
  6
CONTINUOUS
 10
-10.0317069317
 20
18.8021152812
 11
3.1751462963
 21
11.1766437482
  0
LINE
  5
418
100
AcDbEntity
  8
RACCORDO
100
AcDbLine
 62
253
  6
CONTINUOUS
 10
3.425403874
 20
11.0321481593
 11
4.0220389289
 21
10.6876585562
  0
LWPOLYLINE
  5
419
100
AcDbEntity
  8
0
100
AcDbPolyline
 62
7
  6
CONTINUOUS
 90
7
 70
0
 10
14.6865928171
 20
17.8900891228
 10
14.6851483942
 20
17.8649843158
 10
14.6809099197
 20
17.8425495186
 10
14.6738773936
 20
17.8227847314
 10
14.6637280363
 20
17.805337462
 10
14.6507846273
 20
17.7905602026
 10
14.6463655854
 20
17.7866943758
  0
LWPOLYLINE
  5
41A
100
AcDbEntity
  8
0
100
AcDbPolyline
 62
253
  6
CONTINUOUS
 90
16
 70
0
 10
8.9330794467
 20
-23.9147942197
 10
8.9319920344
 20
-23.9216110556
 10
8.9303460798
 20
-23.92839047
 10
8.9281452825
 20
-23.9351172123
 10
8.9253945897
 20
-23.9417761537
 10
8.9221001858
 20
-23.9483523157
 10
8.9182694814
 20
-23.9548309021
 10
8.9139110917
 20
-23.9611973399
 10
8.9090348181
 20
-23.9674373107
 10
8.9036516287
 20
-23.9735367773
 10
8.8977736275
 20
-23.9794820237
 10
8.8914140373
 20
-23.9852596744
 10
8.8845871745
 20
-23.990856724
 10
8.8773084004
 20
-23.9962605811
 10
8.8695940843
 20
-24.0014590958
 10
8.8614615787
 20
-24.0064405765
  0
LINE
  5
41B
100
AcDbEntity
  8
0
100
AcDbLine
 62
7
  6
CONTINUOUS
 10
9.7591334343
 20
-8.6083085647
 11
8.3202346824
 21
-9.3821017489
  0
LINE
  5
41C
100
AcDbEntity
  8
0
100
AcDbLine
 62
7
  6
CONTINUOUS
 10
9.7415456833
 20
12.6485664109
 11
9.0406097295
 21
12.7081181933
  0
LINE
  5
41D
100
AcDbEntity
  8
0
100
AcDbLine
 62
7
  6
CONTINUOUS
 10
9.7591334343
 20
12.6384114639
 11
9.0756565272
 21
12.7051406042
  0
LINE
  5
41E
100
AcDbEntity
  8
RACCORDO
100
AcDbLine
 62
7
  6
CONTINUOUS
 10
-8.8551258376
 20
19.8270442317
 11
4.8032859627
 21
11.9408484383
  0
LINE
  5
41F
100
AcDbEntity
  8
DRAFT
100
AcDbLine
 62
7
  6
CONTINUOUS
 10
-3.3694228217
 20
17.6049405011
 11
0.8732178654
 21
15.1552929411
  0
LWPOLYLINE
  5
420
100
AcDbEntity
  8
0
100
AcDbPolyline
 62
253
  6
CONTINUOUS
 90
3
 70
0
 10
-7.5614354599
 20
22.0015453265
 10
-7.5563489741
 20
21.9977864693
 10
-7.5510337513
 20
21.9944446574
  0
LWPOLYLINE
  5
421
100
AcDbEntity
  8
0
100
AcDbPolyline
 62
7
  6
CONTINUOUS
 90
3
 70
0
 10
4.1503846584
 20
23.7483564707
 10
4.1501395966
 20
23.7489324464
 10
4.1499849707
 20
23.7490437817
  0
LWPOLYLINE
  5
422
100
AcDbEntity
  8
0
100
AcDbPolyline
 62
7
  6
CONTINUOUS
 90
21
 70
0
 10
15.1382127291
 20
-15.833540061
 10
15.1380077613
 20
-15.8252665736
 10
15.1370434162
 20
-15.8137884669
 10
15.1352849269
 20
-15.8023418052
 10
15.1327360502
 20
-15.7909264397
 10
15.1294088832
 20
-15.7795965469
 10
15.1252997261
 20
-15.7683525333
 10
15.1204122786
 20
-15.7571939924
 10
15.1147697362
 20
-15.7461738822
 10
15.1083685096
 20
-15.7352928606
 10
15.1012121881
 20
-15.7245502696
 10
15.0933347351
 20
-15.7139970929
 10
15.0847327229
 20
-15.7036342309
 10
15.0754095793
 20
-15.6934607832
 10
15.0654095514
 20
-15.6835250324
 10
15.0547294216
 20
-15.6738281084
 10
15.0433724075
 20
-15.6643688813
 10
15.0313924088
 20
-15.655192244
 10
15.0188073922
 20
-15.6463131609
 10
15.0055993909
 20
-15.6377166677
 10
14.9917684051
 20
-15.6294027643
  0
LINE
  5
423
100
AcDbEntity
  8
0
100
AcDbLine
 62
7
  6
CONTINUOUS
 10
14.6865928171
 20
-15.4531982045
 11
14.6865928171
 21
-14.6680279619
  0
LINE
  5
424
100
AcDbEntity
  8
0
100
AcDbLine
 62
7
  6
CONTINUOUS
 10
14.6865928171
 20
17.8900891228
 11
14.6865928171
 21
17.9082517527
  0
LINE
  5
425
100
AcDbEntity
  8
DRAFT
100
AcDbLine
 62
253
  6
CONTINUOUS
 10
14.9978849146
 20
-16.4861920969
 11
14.9978849146
 21
-16.0340835795
  0
LINE
  5
426
100
AcDbEntity
  8
DRAFT
100
AcDbLine
 62
253
  6
CONTINUOUS
 10
14.9978849146
 20
18.0943739905
 11
14.9978849146
 21
18.546482508
  0
LINE
  5
427
100
AcDbEntity
  8
0
100
AcDbLine
 62
7
  6
CONTINUOUS
 10
15.1382150145
 20
-16.4016810223
 11
15.1382150145
 21
-15.833540061
  0
LINE
  5
428
100
AcDbEntity
  8
0
100
AcDbLine
 62
7
  6
CONTINUOUS
 10
15.1382150145
 20
18.294917509
 11
15.1382150145
 21
18.8630584703
  0
LINE
  5
429
100
AcDbEntity
  8
0
100
AcDbLine
 62
7
  6
CONTINUOUS
 10
9.7591334343
 20
-11.8886185273
 11
10.3404413708
 21
-11.5410532187
  0
LWPOLYLINE
  5
42A
100
AcDbEntity
  8
0
100
AcDbPolyline
 62
253
  6
CONTINUOUS
 90
37
 70
0
 10
3.3426822202
 20
-15.8523313668
 10
3.3268473408
 20
-15.8611216117
 10
3.3103953833
 20
-15.869508917
 10
3.2933569729
 20
-15.8774776695
 10
3.2757638268
 20
-15.8850130355
 10
3.2576486947
 20
-15.8921009878
 10
3.239045298
 20
-15.8987283321
 10
3.2199882671
 20
-15.9048827317
 10
3.2005130766
 20
-15.91055273
 10
3.1806559798
 20
-15.9157277724
 10
3.1604539406
 20
-15.9203982255
 10
3.1399445654
 20
-15.9245553952
 10
3.1191660323
 20
-15.9281915429
 10
3.0981570208
 20
-15.9312998999
 10
3.0769566392
 20
-15.93387468
 10
3.0556043521
 20
-15.9359110903
 10
3.0341399069
 20
-15.9374053399
 10
3.0126032598
 20
-15.9383546473
 10
2.9910345013
 20
-15.9387572454
 10
2.9694737817
 20
-15.9386123847
 10
2.9479612365
 20
-15.9379203348
 10
2.9265369114
 20
-15.9366823841
 10
2.9052406878
 20
-15.9349008369
 10
2.8841122088
 20
-15.9325790097
 10
2.8631908051
 20
-15.9297212245
 10
2.842515422
 20
-15.9263328012
 10
2.8221245468
 20
-15.9224200472
 10
2.8020561372
 20
-15.9179902461
 10
2.7823475508
 20
-15.9130516442
 10
2.763035475
 20
-15.9076134346
 10
2.7441558594
 20
-15.9016857405
 10
2.7257438486
 20
-15.8952795965
 10
2.7078337165
 20
-15.8884069275
 10
2.690458803
 20
-15.881080527
 10
2.6736514515
 20
-15.8733140333
 10
2.657442949
 20
-15.8651219036
 10
2.6418634677
 20
-15.8565193876
  0
LWPOLYLINE
  5
42B
100
AcDbEntity
  8
0
100
AcDbPolyline
 62
7
  6
CONTINUOUS
 90
37
 70
0
 10
7.1610041977
 20
13.831050171
 10
7.1679323563
 20
13.8305278507
 10
7.1763985116
 20
13.8301992114
 10
7.1849415329
 20
13.8301898776
 10
7.19354821
 20
13.8304995673
 10
7.202205663
 20
13.8311274448
 10
7.2109037401
 20
13.8320585063
 10
7.2196300188
 20
13.8332916877
 10
7.2283724177
 20
13.8348255786
 10
7.2371218026
 20
13.8366445853
 10
7.2458666104
 20
13.8387469949
 10
7.2545955722
 20
13.8411309014
 10
7.2633004708
 20
13.8437804094
 10
7.2719706206
 20
13.8466932737
 10
7.2805955765
 20
13.8498671585
 10
7.2891679151
 20
13.8532860595
 10
7.2976778228
 20
13.8569472944
 10
7.306115678
 20
13.8608481547
 10
7.3144747317
 20
13.8649726444
 10
7.3227460247
 20
13.8693177191
 10
7.3309207524
 20
13.8738803473
 10
7.3389927425
 20
13.8786446082
 10
7.3469538677
 20
13.8836071516
 10
7.3547961332
 20
13.8887646691
 10
7.3625138778
 20
13.894101354
 10
7.3700997847
 20
13.8996135944
 10
7.3775466632
 20
13.9052978469
 10
7.38484933
 20
13.9111384519
 10
7.3920012595
 20
13.9171315673
 10
7.398996063
 20
13.9232734584
 10
7.4058290409
 20
13.9295486588
 10
7.4124944449
 20
13.9359531264
 10
7.4189866854
 20
13.942482976
 10
7.4253015747
 20
13.9491230014
 10
7.4314344234
 20
13.9558654219
 10
7.4373801272
 20
13.9627098207
 10
7.4431342242
 20
13.9696520104
  0
LINE
  5
42C
100
AcDbEntity
  8
0
100
AcDbLine
 62
7
  6
CONTINUOUS
 10
6.5332450413
 20
13.8888559269
 11
7.1610039927
 21
13.8310511595
  0
LINE
  5
42D
100
AcDbEntity
  8
0
100
AcDbLine
 62
253
  6
CONTINUOUS
 10
6.7319136161
 20
14.0351420232
 11
7.4431342242
 21
13.9696520104
  0
LWPOLYLINE
  5
42E
100
AcDbEntity
  8
0
100
AcDbPolyline
 62
7
  6
CONTINUOUS
 90
9
 70
0
 10
6.5332450413
 20
13.8888559269
 10
6.5198589354
 20
13.8904535789
 10
6.5064891199
 20
13.892788537
 10
6.4931913463
 20
13.8958649569
 10
6.479967057
 20
13.8996990738
 10
6.4669375738
 20
13.9042693109
 10
6.4543183234
 20
13.909490309
 10
6.4421926115
 20
13.9152953901
 10
6.4311116797
 20
13.9213291466
  0
LWPOLYLINE
  5
42F
100
AcDbEntity
  8
RACCORDO
100
AcDbPolyline
 62
253
  6
CONTINUOUS
 90
5
 70
0
 10
5.2679808001
 20
14.4721349813
 10
5.2864801676
 20
14.462905303
 10
5.3045364729
 20
14.4565495882
 10
5.3218408852
 20
14.4531765201
 10
5.3306232356
 20
14.4529967544
  0
LWPOLYLINE
  5
430
100
AcDbEntity
  8
RACCORDO
100
AcDbPolyline
 62
253
  6
CONTINUOUS
 90
16
 70
0
 10
6.9565923302
 20
13.1126992162
 10
6.9927841327
 20
13.0942358447
 10
7.0310417565
 20
13.0785417257
 10
7.0713652018
 20
13.0656168593
 10
7.1142323164
 20
13.0554115509
 10
7.1591652525
 20
13.047975495
 10
7.2047304663
 20
13.0434577758
 10
7.2508889558
 20
13.041926915
 10
7.2976797231
 20
13.0433143909
 10
7.343786231
 20
13.0475637228
 10
7.3892248522
 20
13.0547401227
 10
7.433979214
 20
13.0647783788
 10
7.476683661
 20
13.0774263738
 10
7.5168829746
 20
13.092600069
 10
7.5550323735
 20
13.1103835033
 10
7.5911318576
 20
13.1307766766
  0
LWPOLYLINE
  5
431
100
AcDbEntity
  8
RACCORDO
100
AcDbPolyline
 62
253
  6
CONTINUOUS
 90
16
 70
0
 10
-5.3470656624
 20
20.2166771401
 10
-5.31087386
 20
20.1982137686
 10
-5.2726162361
 20
20.1825196496
 10
-5.2322927908
 20
20.1695947832
 10
-5.1894256762
 20
20.1593894748
 10
-5.1444927402
 20
20.1519534189
 10
-5.0989275263
 20
20.1474356997
 10
-5.0527690368
 20
20.1459048389
 10
-5.0059782695
 20
20.1472923148
 10
-4.9598717616
 20
20.1515416467
 10
-4.9144331404
 20
20.1587180467
 10
-4.8696787787
 20
20.1687563027
 10
-4.8269743317
 20
20.1814042977
 10
-4.786775018
 20
20.1965779929
 10
-4.7486256191
 20
20.2143614272
 10
-4.712526135
 20
20.2347546005
  0
LWPOLYLINE
  5
432
100
AcDbEntity
  8
RACCORDO
100
AcDbPolyline
 62
253
  6
CONTINUOUS
 90
16
 70
0
 10
7.0906122645
 20
13.3531509132
 10
7.1102343587
 20
13.3430790653
 10
7.1315326859
 20
13.3344839046
 10
7.1542548959
 20
13.3274508957
 10
7.1781283713
 20
13.3220620984
 10
7.2028891044
 20
13.3183552452
 10
7.2282879172
 20
13.3163289225
 10
7.2540241679
 20
13.3160087631
 10
7.27984204
 20
13.3173950489
 10
7.3055613834
 20
13.320445299
 10
7.3309204136
 20
13.3251555716
 10
7.3556299159
 20
13.3314949074
 10
7.379467047
 20
13.3393816741
 10
7.4021772817
 20
13.3487528602
 10
7.4234830244
 20
13.3595543837
 10
7.4431342242
 20
13.3717020381
  0
LWPOLYLINE
  5
433
100
AcDbEntity
  8
RACCORDO
100
AcDbPolyline
 62
253
  6
CONTINUOUS
 90
16
 70
0
 10
-5.2130457281
 20
20.4571288371
 10
-5.1934236339
 20
20.4470569892
 10
-5.1721253067
 20
20.4384618285
 10
-5.1494030968
 20
20.4314288196
 10
-5.1255296213
 20
20.4260400223
 10
-5.1007688883
 20
20.4223331691
 10
-5.0753700755
 20
20.4203068464
 10
-5.0496338247
 20
20.419986687
 10
-5.0238159526
 20
20.4213729728
 10
-4.9980966093
 20
20.4244232229
 10
-4.972737579
 20
20.4291334955
 10
-4.9480280768
 20
20.4354728313
 10
-4.9241909457
 20
20.443359598
 10
-4.901480711
 20
20.4527307841
 10
-4.8801749682
 20
20.4635323076
 10
-4.8605237684
 20
20.475679962
  0
LWPOLYLINE
  5
434
100
AcDbEntity
  8
0
100
AcDbPolyline
 62
253
  6
CONTINUOUS
 90
34
 70
0
 10
6.3793916565
 20
14.0357341039
 10
6.3879712769
 20
14.0310098806
 10
6.3969291554
 20
14.0265258235
 10
6.4062451465
 20
14.0222920169
 10
6.4158982882
 20
14.0183179866
 10
6.4258668822
 20
14.0146126647
 10
6.4361285467
 20
14.0111843726
 10
6.446660232
 20
14.0080408161
 10
6.457438232
 20
14.0051890762
 10
6.4684382712
 20
14.0026355779
 10
6.479635598
 20
14.0003860664
 10
6.4910050427
 20
13.9984455974
 10
6.5025210357
 20
13.9968185351
 10
6.5141576778
 20
13.9955085386
 10
6.5258887992
 20
13.994518554
 10
6.5376880177
 20
13.9938508076
 10
6.5495288061
 20
13.993506801
 10
6.5613845266
 20
13.9934873086
 10
6.5732284905
 20
13.993792373
 10
6.5850340447
 20
13.994421305
 10
6.5967746567
 20
13.9953726883
 10
6.6084239489
 20
13.9966443843
 10
6.6199558082
 20
13.9982335461
 10
6.6313442131
 20
14.0001365915
 10
6.6425633279
 20
14.002349193
 10
6.6535877869
 20
14.0048663206
 10
6.6643929635
 20
14.0076823235
 10
6.6749547853
 20
14.0107909171
 10
6.6852503261
 20
14.0141853982
 10
6.6952555649
 20
14.0178578925
 10
6.7049458739
 20
14.0217992316
 10
6.7142990031
 20
14.0260000559
 10
6.7232949029
 20
14.0304510398
 10
6.7319136161
 20
14.0351420232
  0
LWPOLYLINE
  5
435
100
AcDbEntity
  8
0
100
AcDbPolyline
 62
253
  6
CONTINUOUS
 90
34
 70
0
 10
6.3793916565
 20
14.3562542767
 10
6.3879718594
 20
14.3515297476
 10
6.3969303827
 20
14.3470454108
 10
6.4062470784
 20
14.3428113538
 10
6.4159009993
 20
14.3388370984
 10
6.425870427
 20
14.3351315876
 10
6.4361329197
 20
14.3317031633
 10
6.4466653887
 20
14.3285595382
 10
6.4574441491
 20
14.3257077805
 10
6.4684449535
 20
14.3231543049
 10
6.4796430601
 20
14.3209048538
 10
6.4910132799
 20
14.3189644863
 10
6.5025300294
 20
14.3173375671
 10
6.5141674028
 20
14.3160277544
 10
6.5258992266
 20
14.3150379924
 10
6.5376991097
 20
14.3143705059
 10
6.5495405179
 20
14.3140267944
 10
6.5613968115
 20
14.3140076296
 10
6.573241302
 20
14.314313052
 10
6.5850473167
 20
14.3149423688
 10
6.5967883362
 20
14.3158941615
 10
6.6084380303
 20
14.3171662952
 10
6.6199703041
 20
14.3187559278
 10
6.6313591088
 20
14.3206594763
 10
6.6425785875
 20
14.3228726109
 10
6.65360337
 20
14.3253903009
 10
6.6644088256
 20
14.3282068949
 10
6.6749708634
 20
14.3313161033
 10
6.6852672573
 20
14.3347114656
 10
6.6952732381
 20
14.3383848981
 10
6.7049621788
 20
14.3423263764
 10
6.7143113991
 20
14.346526074
 10
6.7233017757
 20
14.3509747798
 10
6.7319136161
 20
14.3556621961
  0
LWPOLYLINE
  5
436
100
AcDbEntity
  8
0
100
AcDbPolyline
 62
253
  6
CONTINUOUS
 90
34
 70
0
 10
-5.9242663362
 20
21.1397120278
 10
-5.9156873443
 20
21.1349881345
 10
-5.9067301471
 20
21.1305043723
 10
-5.8974148857
 20
21.1262708233
 10
-5.8877625059
 20
21.1222970069
 10
-5.877794712
 20
21.1185918586
 10
-5.8675339173
 20
21.1151637097
 10
-5.8570031939
 20
21.1120202686
 10
-5.8462262211
 20
21.1091686036
 10
-5.8352272315
 20
21.1066151269
 10
-5.8240309574
 20
21.1043655802
 10
-5.8126625743
 20
21.1024250217
 10
-5.8011476449
 20
21.100797815
 10
-5.7895120614
 20
21.0994876189
 10
-5.7777819874
 20
21.0984973794
 10
-5.7659837987
 20
21.0978293234
 10
-5.7541440245
 20
21.0974849528
 10
-5.7422892874
 20
21.0974650421
 10
-5.7304462437
 20
21.097769636
 10
-5.7186415234
 20
21.0983980497
 10
-5.7069016703
 20
21.09934887
 10
-5.6952530822
 20
21.100619959
 10
-5.6837219521
 20
21.1022084586
 10
-5.6723342084
 20
21.1041107969
 10
-5.6611154573
 20
21.1063226963
 10
-5.6500909252
 20
21.1088391833
 10
-5.6392854015
 20
21.1116545992
 10
-5.6287231831
 20
21.1147626135
 10
-5.6184280202
 20
21.1181562375
 10
-5.6084230621
 20
21.1218278404
 10
-5.5987308057
 20
21.1257691664
 10
-5.5893730448
 20
21.129971353
 10
-5.580370821
 20
21.1344249513
 10
-5.5717443765
 20
21.1391199472
  0
LWPOLYLINE
  5
437
100
AcDbEntity
  8
0
100
AcDbPolyline
 62
253
  6
CONTINUOUS
 90
34
 70
0
 10
-5.9242663362
 20
21.4602322006
 10
-5.9157014045
 20
21.4555156904
 10
-5.9067556212
 20
21.4510366997
 10
-5.8974485922
 20
21.4468055836
 10
-5.8877994072
 20
21.442831625
 10
-5.87783062
 20
21.4391246962
 10
-5.8675686286
 20
21.4356948558
 10
-5.8570380671
 20
21.4325502552
 10
-5.8462611464
 20
21.4296974473
 10
-5.8352619089
 20
21.4271428056
 10
-5.8240649388
 20
21.4248920647
 10
-5.812695546
 20
21.4229503366
 10
-5.8011795283
 20
21.4213220345
 10
-5.789542892
 20
21.4200108282
 10
-5.7778117081
 20
21.4190196481
 10
-5.7660122856
 20
21.4183507173
 10
-5.7541711298
 20
21.4180055432
 10
-5.7423149046
 20
21.417984908
 10
-5.7304702964
 20
21.4182888606
 10
-5.7186639509
 20
21.4189167188
 10
-5.7069224173
 20
21.4198670724
 10
-5.6952721084
 20
21.4211377851
 10
-5.6837392266
 20
21.4227260007
 10
-5.6723497136
 20
21.4246281482
 10
-5.6611291959
 20
21.4268399489
 10
-5.6501029124
 20
21.4293564285
 10
-5.6392956623
 20
21.4321719278
 10
-5.6287317568
 20
21.4352801139
 10
-5.6184349515
 20
21.4386739981
 10
-5.6084284116
 20
21.4423459457
 10
-5.5987346619
 20
21.4462876908
 10
-5.5893755098
 20
21.4504903637
 10
-5.5803719984
 20
21.4549445132
 10
-5.5717443765
 20
21.45964012
  0
LINE
  5
438
100
AcDbEntity
  8
RACCORDO
100
AcDbLine
 62
253
  6
CONTINUOUS
 10
-7.0338313867
 20
21.1905945292
 11
-5.3470656624
 21
20.2166771401
  0
LINE
  5
439
100
AcDbEntity
  8
RACCORDO
100
AcDbLine
 62
253
  6
CONTINUOUS
 10
5.269826606
 20
14.0866166053
 11
6.9565923302
 21
13.1126992162
  0
LINE
  5
43A
100
AcDbEntity
  8
0
100
AcDbLine
 62
7
  6
CONTINUOUS
 10
3.235854842
 20
15.423879265
 11
2.5702741403
 21
15.8081772205
  0
LINE
  5
43B
100
AcDbEntity
  8
0
100
AcDbLine
 62
7
  6
CONTINUOUS
 10
-2.379473328
 20
18.6660993738
 11
-3.0450540298
 21
19.0503973293
  0
LINE
  5
43C
100
AcDbEntity
  8
RACCORDO
100
AcDbLine
 62
253
  6
CONTINUOUS
 10
-6.8998114523
 20
21.4310462261
 11
-5.2130457281
 21
20.4571288371
  0
LINE
  5
43D
100
AcDbEntity
  8
RACCORDO
100
AcDbLine
 62
253
  6
CONTINUOUS
 10
5.4038465403
 20
14.3270683022
 11
7.0906122645
 21
13.3531509132
  0
LINE
  5
43E
100
AcDbEntity
  8
0
100
AcDbLine
 62
7
  6
CONTINUOUS
 10
-7.5510337513
 20
21.9944446574
 11
-5.8724956809
 21
21.0252778125
  0
LINE
  5
43F
100
AcDbEntity
  8
0
100
AcDbLine
 62
7
  6
CONTINUOUS
 10
4.7526242413
 20
14.8904667334
 11
6.4311623117
 21
13.9212998886
  0
LINE
  5
440
100
AcDbEntity
  8
0
100
AcDbLine
 62
253
  6
CONTINUOUS
 10
-7.6028044066
 20
22.1088788726
 11
-5.9242663362
 21
21.1397120278
  0
LINE
  5
441
100
AcDbEntity
  8
0
100
AcDbLine
 62
253
  6
CONTINUOUS
 10
4.700853586
 20
15.0049009487
 11
6.3793916565
 21
14.0357341039
  0
LINE
  5
442
100
AcDbEntity
  8
0
100
AcDbLine
 62
253
  6
CONTINUOUS
 10
6.3793916565
 20
14.3562542767
 11
4.700853586
 21
15.3254211216
  0
LINE
  5
443
100
AcDbEntity
  8
0
100
AcDbLine
 62
253
  6
CONTINUOUS
 10
-5.9242663362
 20
21.4602322006
 11
-7.6028044066
 21
22.4293990455
  0
LINE
  5
444
100
AcDbEntity
  8
0
100
AcDbLine
 62
7
  6
CONTINUOUS
 10
-1.6723665469
 20
19.1171633612
 11
-0.0460209501
 21
18.1781317965
  0
LINE
  5
445
100
AcDbEntity
  8
0
100
AcDbLine
 62
7
  6
CONTINUOUS
 10
1.6510353247
 20
17.1982727725
 11
2.5702741403
 21
16.6675158012
  0
LINE
  5
446
100
AcDbEntity
  8
0
100
AcDbLine
 62
7
  6
CONTINUOUS
 10
9.7591334343
 20
12.6384114639
 11
9.7415456833
 21
12.6485664109
  0
LINE
  5
447
100
AcDbEntity
  8
0
100
AcDbLine
 62
253
  6
CONTINUOUS
 10
6.5551399124
 20
14.661843232
 11
4.876601842
 21
15.6310100768
  0
LINE
  5
448
100
AcDbEntity
  8
0
100
AcDbLine
 62
253
  6
CONTINUOUS
 10
-5.7485180802
 20
21.7658211559
 11
-7.4270561506
 21
22.7349880007
  0
LINE
  5
449
100
AcDbEntity
  8
0
100
AcDbLine
 62
253
  6
CONTINUOUS
 10
6.4311116797
 20
13.9213291466
 11
6.4311623117
 21
13.9212998886
  0
LWPOLYLINE
  5
44A
100
AcDbEntity
  8
0
100
AcDbPolyline
 62
253
  6
CONTINUOUS
 90
15
 70
0
 10
-7.6028044066
 20
22.1088788726
 10
-7.6109864743
 20
22.1138326379
 10
-7.6187525886
 20
22.1190048047
 10
-7.6260852844
 20
22.1243837413
 10
-7.6329680633
 20
22.1299573443
 10
-7.6393854556
 20
22.1357130855
 10
-7.6453230492
 20
22.141638042
 10
-7.650767498
 20
22.1477189051
 10
-7.6557065381
 20
22.1539419872
 10
-7.6601290419
 20
22.160293272
 10
-7.6640250592
 20
22.1667584681
 10
-7.6673858335
 20
22.173323043
 10
-7.6702038065
 20
22.179972233
 10
-7.6724726408
 20
22.1866910844
 10
-7.674187234
 20
22.1934644868
  0
LWPOLYLINE
  5
44B
100
AcDbEntity
  8
0
100
AcDbPolyline
 62
253
  6
CONTINUOUS
 90
18
 70
0
 10
-7.6028044066
 20
22.4293990455
 10
-7.6109731157
 20
22.4343443297
 10
-7.6187304553
 20
22.4395095129
 10
-7.6260584913
 20
22.4448832748
 10
-7.6329411461
 20
22.4504545933
 10
-7.6393613213
 20
22.456210446
 10
-7.6453015965
 20
22.4621355913
 10
-7.6507478535
 20
22.4682158055
 10
-7.6556887435
 20
22.4744382644
 10
-7.6601132277
 20
22.4807890863
 10
-7.6640113741
 20
22.4872540765
 10
-7.6673743291
 20
22.4938186214
 10
-7.6701944494
 20
22.5004678257
 10
-7.672465379
 20
22.5071866737
 10
-7.6741820428
 20
22.5139601122
 10
-7.6753405903
 20
22.5207729509
 10
-7.6759384108
 20
22.5276098858
 10
-7.6760277112
 20
22.5314633194
  0
LWPOLYLINE
  5
44C
100
AcDbEntity
  8
0
100
AcDbPolyline
 62
253
  6
CONTINUOUS
 90
15
 70
0
 10
4.700853586
 20
15.0049009487
 10
4.6926715183
 20
15.009854714
 10
4.684905404
 20
15.0150268808
 10
4.6775727083
 20
15.0204058174
 10
4.6706899294
 20
15.0259794204
 10
4.6642725371
 20
15.0317351616
 10
4.6583349435
 20
15.0376601181
 10
4.6528904947
 20
15.0437409812
 10
4.6479514546
 20
15.0499640633
 10
4.6435289508
 20
15.0563153481
 10
4.6396329334
 20
15.0627805442
 10
4.6362721591
 20
15.0693451191
 10
4.6334541861
 20
15.0759943091
 10
4.6311853518
 20
15.0827131605
 10
4.6294707587
 20
15.0894865629
  0
LWPOLYLINE
  5
44D
100
AcDbEntity
  8
0
100
AcDbPolyline
 62
253
  6
CONTINUOUS
 90
18
 70
0
 10
4.700853586
 20
15.3254211216
 10
4.6926709887
 20
15.3303752232
 10
4.68490439
 20
15.3355477623
 10
4.6775712605
 20
15.3409271057
 10
4.6706880917
 20
15.3465011586
 10
4.6642703722
 20
15.3522573812
 10
4.6583325498
 20
15.3581828158
 10
4.6528879821
 20
15.3642641314
 10
4.6479489112
 20
15.3704876526
 10
4.6435264467
 20
15.3768393792
 10
4.639630534
 20
15.3833050256
 10
4.6362699354
 20
15.389870048
 10
4.6334522103
 20
15.3965196748
 10
4.6311836943
 20
15.4032389483
 10
4.6294694866
 20
15.4100127564
 10
4.6283134406
 20
15.416825861
 10
4.6277181531
 20
15.4236629417
 10
4.6276302935
 20
15.4274447924
  0
LWPOLYLINE
  5
44E
100
AcDbEntity
  8
0
100
AcDbPolyline
 62
253
  6
CONTINUOUS
 90
34
 70
0
 10
-5.7485180802
 20
21.7658211559
 10
-5.7401685447
 20
21.7607144158
 10
-5.7318319633
 20
21.7551572195
 10
-5.7235272076
 20
21.7491615551
 10
-5.7152719414
 20
21.7427394812
 10
-5.7070861306
 20
21.7359058312
 10
-5.698991883
 20
21.728678759
 10
-5.6910087243
 20
21.7210758048
 10
-5.6831535251
 20
21.7131131437
 10
-5.6754439391
 20
21.7048086575
 10
-5.6678973421
 20
21.696181025
 10
-5.6605309463
 20
21.6872498856
 10
-5.6533616045
 20
21.6780356593
 10
-5.6464056228
 20
21.6685593156
 10
-5.6396786925
 20
21.6588422433
 10
-5.6331960117
 20
21.6489063956
 10
-5.6269722545
 20
21.6387742542
 10
-5.6210215439
 20
21.6284688017
 10
-5.6153573764
 20
21.6180134058
 10
-5.60999259
 20
21.6074317613
 10
-5.6049393393
 20
21.5967478383
 10
-5.6002090772
 20
21.5859858478
 10
-5.5958125227
 20
21.5751701729
 10
-5.5917596398
 20
21.5643253217
 10
-5.5880596162
 20
21.5534758752
 10
-5.5847208368
 20
21.5426464184
 10
-5.5817508671
 20
21.5318614878
 10
-5.5791564382
 20
21.5211455242
 10
-5.5769434283
 20
21.5105228035
 10
-5.5751168536
 20
21.5000174007
 10
-5.5736808555
 20
21.4896531376
 10
-5.5726386868
 20
21.4794535036
 10
-5.5719927064
 20
21.4694416028
 10
-5.5717443765
 20
21.45964012
  0
LWPOLYLINE
  5
44F
100
AcDbEntity
  8
0
100
AcDbPolyline
 62
253
  6
CONTINUOUS
 90
34
 70
0
 10
6.5551399124
 20
14.661843232
 10
6.5635031952
 20
14.6567277057
 10
6.571849863
 20
14.6511627481
 10
6.5801610086
 20
14.6451609651
 10
6.5884178055
 20
14.6387359522
 10
6.5966015501
 20
14.6319022632
 10
6.6046937045
 20
14.6246753782
 10
6.6126759381
 20
14.6170716677
 10
6.6205301693
 20
14.6091083556
 10
6.6282386066
 20
14.6008034808
 10
6.6357837886
 20
14.5921758556
 10
6.6431486239
 20
14.5832450235
 10
6.6503164293
 20
14.5740312149
 10
6.6572709682
 20
14.5645553011
 10
6.6639964871
 20
14.5548387471
 10
6.6704777511
 20
14.5449035632
 10
6.6767000787
 20
14.5347722548
 10
6.6826493749
 20
14.5244677715
 10
6.6883121633
 20
14.5140134553
 10
6.6936756163
 20
14.5034329875
 10
6.6987275846
 20
14.4927503354
 10
6.7034566242
 20
14.4819896975
 10
6.707852023
 20
14.471175449
 10
6.7119038242
 20
14.4603320867
 10
6.7156028497
 20
14.4494841732
 10
6.7189407203
 20
14.4386562814
 10
6.7219098751
 20
14.427872939
 10
6.7245035882
 20
14.4171585726
 10
6.7267159842
 20
14.4065374527
 10
6.7285420517
 20
14.3960336386
 10
6.7299776541
 20
14.3856709235
 10
6.7310195395
 20
14.3754727816
 10
6.7316653478
 20
14.3654623138
 10
6.7319136161
 20
14.3556621961
  0
LWPOLYLINE
  5
450
100
AcDbEntity
  8
0
100
AcDbPolyline
 62
7
  6
CONTINUOUS
 90
6
 70
0
 10
-7.5508006002
 20
21.9943105401
 10
-7.5708965038
 20
22.0072019368
 10
-7.5966359416
 20
22.0282117643
 10
-7.6195067748
 20
22.0526255326
 10
-7.6389459152
 20
22.0799293123
 10
-7.6545972464
 20
22.1096757722
  0
LWPOLYLINE
  5
451
100
AcDbEntity
  8
0
100
AcDbPolyline
 62
7
  6
CONTINUOUS
 90
6
 70
0
 10
4.7528573924
 20
14.8903326162
 10
4.7327614888
 20
14.9032240129
 10
4.7070220511
 20
14.9242338403
 10
4.6841512179
 20
14.9486476087
 10
4.6647120774
 20
14.9759513884
 10
4.6490607462
 20
15.0056978483
  0
LWPOLYLINE
  5
452
100
AcDbEntity
  8
RACCORDO
100
AcDbPolyline
 62
253
  6
CONTINUOUS
 90
13
 70
0
 10
-4.712526135
 20
20.2347546005
 10
-4.7309376769
 20
20.2468367786
 10
-4.7491609056
 20
20.2614283124
 10
-4.7668841371
 20
20.2782796334
 10
-4.7838042395
 20
20.2971025225
 10
-4.7996318173
 20
20.3175750395
 10
-4.8140961609
 20
20.3393470295
 10
-4.8269498773
 20
20.362046112
 10
-4.8379731209
 20
20.3852840497
 10
-4.846977354
 20
20.4086633889
 10
-4.8538085714
 20
20.4317842575
 10
-4.8583499341
 20
20.4542512042
 10
-4.8605237684
 20
20.475679962
  0
LWPOLYLINE
  5
453
100
AcDbEntity
  8
RACCORDO
100
AcDbPolyline
 62
253
  6
CONTINUOUS
 90
13
 70
0
 10
7.5911318576
 20
13.1307766766
 10
7.5727203157
 20
13.1428588547
 10
7.5544970871
 20
13.1574503885
 10
7.5367738555
 20
13.1743017095
 10
7.5198537531
 20
13.1931245986
 10
7.5040261754
 20
13.2135971156
 10
7.4895618317
 20
13.2353691056
 10
7.4767081153
 20
13.2580681881
 10
7.4656848717
 20
13.2813061258
 10
7.4566806386
 20
13.304685465
 10
7.4498494213
 20
13.3278063336
 10
7.4453080585
 20
13.3502732803
 10
7.4431342242
 20
13.3717020381
  0
LWPOLYLINE
  5
454
100
AcDbEntity
  8
0
100
AcDbPolyline
 62
253
  6
CONTINUOUS
 90
3
 70
0
 10
4.7422225327
 20
14.8975674026
 10
4.7473090185
 20
14.8938085454
 10
4.7526242413
 20
14.8904667334
  0
LWPOLYLINE
  5
455
100
AcDbEntity
  8
0
100
AcDbPolyline
 62
253
  6
CONTINUOUS
 90
15
 70
0
 10
8.8614615787
 20
15.257590511
 10
8.8654343634
 20
15.2517471852
 10
8.8689968774
 20
15.2461460753
 10
8.87214108
 20
15.2407998232
 10
8.8748598733
 20
15.2357204984
 10
8.8771471227
 20
15.2309195619
 10
8.8789976685
 20
15.2264078423
 10
8.8804073334
 20
15.2221955189
 10
8.8813729309
 20
15.2182921066
 10
8.8818922786
 20
15.2147064247
 10
8.8819642051
 20
15.2114465686
 10
8.8815885496
 20
15.2085198919
 10
8.8807661602
 20
15.205932999
 10
8.879498893
 20
15.2036917279
 10
8.8792012949
 20
15.2032968231
  0
LWPOLYLINE
  5
456
100
AcDbEntity
  8
0
100
AcDbPolyline
 62
253
  6
CONTINUOUS
 90
14
 70
0
 10
8.8614615787
 20
-23.678795276
 10
8.8654342924
 20
-23.6678473459
 10
8.8689967511
 20
-23.6566951058
 10
8.8721409143
 20
-23.6453637257
 10
8.874859686
 20
-23.6338787798
 10
8.87714693
 20
-23.622266189
 10
8.8789974842
 20
-23.6105521621
 10
8.8804071719
 20
-23.5987631371
 10
8.8813728117
 20
-23.5869257211
 10
8.881892224
 20
-23.5750666304
 10
8.8819642366
 20
-23.5632126304
 10
8.881588687
 20
-23.5513904747
 10
8.8807664227
 20
-23.5396268453
 10
8.8794992997
 20
-23.527948292
  0
LINE
  5
457
100
AcDbEntity
  8
0
100
AcDbLine
 62
7
  6
CONTINUOUS
 10
9.7591334343
 20
-13.7334530055
 11
10.0044141691
 21
-13.5817677199
  0
LINE
  5
458
100
AcDbEntity
  8
0
100
AcDbLine
 62
7
  6
CONTINUOUS
 10
10.0305214445
 20
-14.5354108421
 11
9.7591334343
 21
-14.7032412585
  0
LINE
  5
459
100
AcDbEntity
  8
0
100
AcDbLine
 62
253
  6
CONTINUOUS
 10
9.7800411405
 20
-15.0851769302
 11
9.7591334343
 21
-15.0970362327
  0
LWPOLYLINE
  5
45A
100
AcDbEntity
  8
0
100
AcDbPolyline
 62
7
  6
CONTINUOUS
 90
21
 70
0
 10
14.4157861217
 20
-14.3604834988
 10
14.4235235228
 20
-14.3580527326
 10
14.4398016396
 20
-14.3553347071
 10
14.4571014214
 20
-14.3556104983
 10
14.4754071513
 20
-14.3588018117
 10
14.4940265687
 20
-14.3647097637
 10
14.5129580742
 20
-14.373404548
 10
14.5322032672
 20
-14.3848159708
 10
14.551074685
 20
-14.3985345674
 10
14.5695850035
 20
-14.4146576246
 10
14.5877215467
 20
-14.4330878556
 10
14.6047588236
 20
-14.453123935
 10
14.6206635736
 20
-14.4748666894
 10
14.6354690573
 20
-14.4982152922
 10
14.6485495649
 20
-14.5221659384
 10
14.6598062995
 20
-14.546697995
 10
14.669338058
 20
-14.5718320951
 10
14.676815521
 20
-14.5966263325
 10
14.6821289153
 20
-14.6207667383
 10
14.6853880139
 20
-14.6445672815
 10
14.6865928171
 20
-14.6680279619
  0
LWPOLYLINE
  5
45B
100
AcDbEntity
  8
0
100
AcDbPolyline
 62
7
  6
CONTINUOUS
 90
3
 70
0
 10
7.0263574108
 20
16.9107364002
 10
7.0585287743
 20
16.9042008467
 10
7.0897629024
 20
16.8934234713
  0
LWPOLYLINE
  5
45C
100
AcDbEntity
  8
0
100
AcDbPolyline
 62
7
  6
CONTINUOUS
 90
5
 70
0
 10
-5.8724994072
 20
21.0252799641
 10
-5.8448228316
 20
21.0115063832
 10
-5.8144182944
 20
21.0009061127
 10
-5.7827954182
 20
20.9942862275
 10
-5.7704118877
 20
20.9928337529
  0
LWPOLYLINE
  5
45D
100
AcDbEntity
  8
RACCORDO
100
AcDbPolyline
 62
253
  6
CONTINUOUS
 90
5
 70
0
 10
-7.0356771925
 20
21.5761129052
 10
-7.017177825
 20
21.5668832269
 10
-6.9991215197
 20
21.5605275121
 10
-6.9818171075
 20
21.557154444
 10
-6.973034757
 20
21.5569746783
  0
LWPOLYLINE
  5
45E
100
AcDbEntity
  8
0
100
AcDbPolyline
 62
253
  6
CONTINUOUS
 90
18
 70
0
 10
1.7916339295
 20
18.6057692323
 10
1.7849047827
 20
18.6094706262
 10
1.7781927381
 20
18.6127946989
 10
1.7715130053
 20
18.6157339165
 10
1.7648807162
 20
18.6182816184
 10
1.7583109044
 20
18.6204320276
 10
1.7518184704
 20
18.6221802664
 10
1.7454181295
 20
18.623522373
 10
1.7391243811
 20
18.6244553081
 10
1.7329514883
 20
18.624976958
 10
1.7269134373
 20
18.6250861416
 10
1.7210239113
 20
18.6247826121
 10
1.7152962607
 20
18.6240670591
 10
1.7097434647
 20
18.6229411063
 10
1.7043781036
 20
18.6214073069
 10
1.6992123346
 20
18.6194691386
 10
1.6942578585
 20
18.6171309934
 10
1.691612799
 20
18.6156680963
  0
LWPOLYLINE
  5
45F
100
AcDbEntity
  8
0
100
AcDbPolyline
 62
253
  6
CONTINUOUS
 90
34
 70
0
 10
-0.0460209501
 20
19.341157092
 10
-0.0391306421
 20
19.3373637431
 10
-0.0319354779
 20
19.333764013
 10
-0.0244517603
 20
19.3303660596
 10
-0.0166964409
 20
19.3271775816
 10
-0.008687097
 20
19.3242058073
 10
-0.0004418933
 20
19.3214574772
 10
0.0080204812
 20
19.3189388199
 10
0.0166808551
 20
19.316655541
 10
0.0255196013
 20
19.3146128143
 10
0.0345166929
 20
19.3128152679
 10
0.0436517403
 20
19.311266975
 10
0.052904035
 20
19.3099714445
 10
0.0622526086
 20
19.3089316109
 10
0.0716762793
 20
19.308149829
 10
0.0811536922
 20
19.3076278691
 10
0.0906633788
 20
19.3073669125
 10
0.1001837832
 20
19.3073675496
 10
0.1096933107
 20
19.3076297768
 10
0.1191703857
 20
19.3081529949
 10
0.1285935628
 20
19.3089360155
 10
0.1379415518
 20
19.3099770691
 10
0.1471932545
 20
19.3112738115
 10
0.1563276205
 20
19.3128232982
 10
0.1653237652
 20
19.3146219799
 10
0.1741611979
 20
19.3166657393
 10
0.1828200233
 20
19.3189499544
 10
0.1912807885
 20
19.3214694858
 10
0.1995256226
 20
19.3242190823
 10
0.2075344717
 20
19.3271921287
 10
0.2152856743
 20
19.3303803695
 10
0.2227609151
 20
19.3337757541
 10
0.2299448853
 20
19.3373707933
 10
0.2368217623
 20
19.341157092
  0
LWPOLYLINE
  5
460
100
AcDbEntity
  8
0
100
AcDbPolyline
 62
7
  6
CONTINUOUS
 90
19
 70
0
 10
2.0045887153
 20
18.7301572091
 10
1.9984199204
 20
18.7335635537
 10
1.9922628862
 20
18.7366525684
 10
1.9861293286
 20
18.739418371
 10
1.9800309027
 20
18.741855685
 10
1.9739792203
 20
18.7439598732
 10
1.9679858276
 20
18.7457269461
 10
1.9620621086
 20
18.7471535261
 10
1.956219329
 20
18.7482368922
 10
1.9504686546
 20
18.7489750081
 10
1.9448209992
 20
18.7493664503
 10
1.939287094
 20
18.7494104629
 10
1.9338775335
 20
18.7491069981
 10
1.9286025742
 20
18.7484566104
 10
1.9234722295
 20
18.7474605225
 10
1.9184963408
 20
18.7461206753
 10
1.9136843324
 20
18.7444395923
 10
1.9090453281
 20
18.7424204533
 10
1.9048768495
 20
18.7402328075
  0
LINE
  5
461
100
AcDbEntity
  8
RACCORDO
100
AcDbLine
 62
7
  6
CONTINUOUS
 10
-3.8290828964
 20
20.7920936417
 11
-3.0450540298
 21
20.3394052004
  0
LINE
  5
462
100
AcDbEntity
  8
RACCORDO
100
AcDbLine
 62
7
  6
CONTINUOUS
 10
4.3026857542
 20
16.0969123379
 11
4.9179224171
 21
15.7416823995
  0
LINE
  5
463
100
AcDbEntity
  8
RACCORDO
100
AcDbLine
 62
7
  6
CONTINUOUS
 10
8.4745750963
 20
13.6881157178
 11
8.6863997924
 21
13.5658107931
  0
LINE
  5
464
100
AcDbEntity
  8
0
100
AcDbLine
 62
7
  6
CONTINUOUS
 10
1.592456681
 20
17.6617646377
 11
0.4489537967
 21
18.3220088716
  0
LINE
  5
465
100
AcDbEntity
  8
0
100
AcDbLine
 62
7
  6
CONTINUOUS
 10
-3.0450540298
 20
20.4138087356
 11
-2.379473328
 21
20.0295107801
  0
LINE
  5
466
100
AcDbEntity
  8
0
100
AcDbLine
 62
7
  6
CONTINUOUS
 10
2.5702741403
 20
17.1715886268
 11
3.235854842
 21
16.7872906713
  0
LINE
  5
467
100
AcDbEntity
  8
0
100
AcDbLine
 62
253
  6
CONTINUOUS
 10
3.1376066291
 20
17.502970428
 11
1.6510353247
 21
18.3612980681
  0
LINE
  5
468
100
AcDbEntity
  8
0
100
AcDbLine
 62
253
  6
CONTINUOUS
 10
-0.0460209501
 20
19.341157092
 11
-1.6723665469
 21
20.2801886567
  0
LINE
  5
469
100
AcDbEntity
  8
DRAFT
100
AcDbLine
 62
7
  6
CONTINUOUS
 10
-3.9359018332
 20
21.6655686586
 11
-3.2674706314
 21
21.2796248602
  0
LINE
  5
46A
100
AcDbEntity
  8
DRAFT
100
AcDbLine
 62
7
  6
CONTINUOUS
 10
8.3677561595
 20
14.5615907347
 11
9.3879967801
 21
13.972516587
  0
LINE
  5
46B
100
AcDbEntity
  8
0
100
AcDbLine
 62
7
  6
CONTINUOUS
 10
1.1560605779
 20
18.7260083975
 11
1.5949064709
 21
18.4726242788
  0
LINE
  5
46C
100
AcDbEntity
  8
0
100
AcDbLine
 62
253
  6
CONTINUOUS
 10
3.4179795262
 20
17.6667376676
 11
1.7916339295
 21
18.6057692323
  0
LINE
  5
46D
100
AcDbEntity
  8
0
100
AcDbLine
 62
253
  6
CONTINUOUS
 10
0.0945776547
 20
19.5856282562
 11
-1.5317679421
 21
20.5246598209
  0
LINE
  5
46E
100
AcDbEntity
  8
0
100
AcDbLine
 62
7
  6
CONTINUOUS
 10
-1.9905645984
 20
21.0369086614
 11
0.3075324405
 21
19.7100162331
  0
LINE
  5
46F
100
AcDbEntity
  8
0
100
AcDbLine
 62
7
  6
CONTINUOUS
 10
2.0045887153
 20
18.7301572091
 11
4.3026857542
 21
17.4032647808
  0
LINE
  5
470
100
AcDbEntity
  8
0
100
AcDbLine
 62
7
  6
CONTINUOUS
 10
8.1564207033
 20
15.5864016582
 11
6.4593584452
 21
16.5662641369
  0
LINE
  5
471
100
AcDbEntity
  8
0
100
AcDbLine
 62
7
  6
CONTINUOUS
 10
-4.1472372894
 20
22.6903795821
 11
-5.8442995475
 21
23.6702420608
  0
LINE
  5
472
100
AcDbEntity
  8
0
100
AcDbLine
 62
7
  6
CONTINUOUS
 10
-0.6117063751
 20
21.052572306
 11
1.0146392217
 21
20.1135407413
  0
LINE
  5
473
100
AcDbEntity
  8
0
100
AcDbLine
 62
7
  6
CONTINUOUS
 10
2.7116954965
 20
19.1336817173
 11
4.3380410932
 21
18.1946501527
  0
LWPOLYLINE
  5
474
100
AcDbEntity
  8
0
100
AcDbPolyline
 62
253
  6
CONTINUOUS
 90
34
 70
0
 10
-3.6189701176
 20
22.9953947713
 10
-3.6105112997
 20
22.9903344059
 10
-3.6020739725
 20
22.9848217939
 10
-3.5936772485
 20
22.9788694228
 10
-3.5853401481
 20
22.9724907761
 10
-3.5770815568
 20
22.9657003027
 10
-3.5689201821
 20
22.9585133846
 10
-3.5608745114
 20
22.9509463018
 10
-3.5529627699
 20
22.9430161955
 10
-3.5452028795
 20
22.934741029
 10
-3.5376124181
 20
22.9261395476
 10
-3.5302085797
 20
22.9172312355
 10
-3.5230081357
 20
22.9080362719
 10
-3.5160273967
 20
22.8985754857
 10
-3.5092821758
 20
22.8888703075
 10
-3.5027877522
 20
22.8789427218
 10
-3.4965588374
 20
22.8688152167
 10
-3.4906095411
 20
22.8585107334
 10
-3.48495334
 20
22.8480526138
 10
-3.4796030466
 20
22.8374645479
 10
-3.4745707804
 20
22.82677052
 10
-3.4698679408
 20
22.8159947545
 10
-3.4655051806
 20
22.805161661
 10
-3.4614923825
 20
22.7942957787
 10
-3.4578386364
 20
22.7834217214
 10
-3.4545522189
 20
22.7725641213
 10
-3.4516405744
 20
22.7617475732
 10
-3.4491102984
 20
22.750996579
 10
-3.4469671227
 20
22.7403354922
 10
-3.4452159019
 20
22.7297884625
 10
-3.4438606029
 20
22.7193793812
 10
-3.4429042959
 20
22.7091318274
 10
-3.4423491471
 20
22.699069014
 10
-3.442196414
 20
22.6892137354
  0
LWPOLYLINE
  5
475
100
AcDbEntity
  8
0
100
AcDbPolyline
 62
7
  6
CONTINUOUS
 90
40
 70
0
 10
8.6863997924
 20
13.5658107931
 10
8.7005522211
 20
13.5573127372
 10
8.7147063853
 20
13.5481556632
 10
8.7288398303
 20
13.5383511168
 10
8.7429427015
 20
13.5279022776
 10
8.7569791843
 20
13.5168314632
 10
8.7708881861
 20
13.5051852683
 10
8.7846344535
 20
13.4929954891
 10
8.7982093048
 20
13.4802729968
 10
8.8115924805
 20
13.4670386689
 10
8.8247505494
 20
13.4533280377
 10
8.8376751729
 20
13.439152101
 10
8.8503825116
 20
13.4244919534
 10
8.8628723273
 20
13.4093411694
 10
8.8750998575
 20
13.3937475584
 10
8.8870148697
 20
13.3777739464
 10
8.8985938746
 20
13.3614515684
 10
8.9098221706
 20
13.3448023679
 10
8.9206669183
 20
13.3278801176
 10
8.9310937101
 20
13.3107441608
 10
8.9411067355
 20
13.2933933884
 10
8.9507293641
 20
13.2757899355
 10
8.9599589465
 20
13.2579294224
 10
8.9687603139
 20
13.2398701197
 10
8.9771062627
 20
13.2216671419
 10
8.9849841667
 20
13.2033427166
 10
8.9923768811
 20
13.1849329124
 10
8.9992567776
 20
13.1665148598
 10
9.0056038108
 20
13.1481501849
 10
9.0114222185
 20
13.129835848
 10
9.0167215744
 20
13.1115521531
 10
9.0214951037
 20
13.093312495
 10
9.025728074
 20
13.075161784
 10
9.0294149309
 20
13.0571280034
 10
9.0325496417
 20
13.0392233817
 10
9.0351209263
 20
13.0214940694
 10
9.0371207496
 20
13.0040170889
 10
9.0385476806
 20
12.9868347111
 10
9.0394020056
 20
12.9699563327
 10
9.0396840584
 20
12.9534068963
  0
LWPOLYLINE
  5
476
100
AcDbEntity
  8
0
100
AcDbPolyline
 62
7
  6
CONTINUOUS
 90
37
 70
0
 10
0.3075324405
 20
19.7100162331
 10
0.3137012106
 20
19.7062990223
 10
0.3198582478
 20
19.7022780464
 10
0.3259918272
 20
19.6979609579
 10
0.3320902522
 20
19.6933559631
 10
0.3381419169
 20
19.6884718303
 10
0.3441353281
 20
19.6833178729
 10
0.3500590523
 20
19.6779038877
 10
0.3559018028
 20
19.6722401751
 10
0.3616525011
 20
19.6663375426
 10
0.3673001678
 20
19.6602072074
 10
0.3728340327
 20
19.6538608283
 10
0.3782436223
 20
19.6473105217
 10
0.3835185986
 20
19.6405687335
 10
0.3886488928
 20
19.6336482812
 10
0.393624815
 20
19.6265623832
 10
0.3984368459
 20
19.6193245004
 10
0.4030757903
 20
19.6119483902
 10
0.4075329076
 20
19.6044481463
 10
0.4117996604
 20
19.5968380149
 10
0.4158678841
 20
19.5891324572
 10
0.4197299373
 20
19.5813462014
 10
0.4233784102
 20
19.5734940348
 10
0.4268063085
 20
19.5655908756
 10
0.4300072209
 20
19.5576518339
 10
0.4329749918
 20
19.5496919853
 10
0.4357039172
 20
19.5417264495
 10
0.4381889251
 20
19.5337704602
 10
0.4404252198
 20
19.5258391233
 10
0.4424084846
 20
19.5179475012
 10
0.4441350741
 20
19.5101106907
 10
0.445601634
 20
19.5023435695
 10
0.4468053093
 20
19.4946608851
 10
0.4477439428
 20
19.4870773388
 10
0.4484157478
 20
19.4796073655
 10
0.448819311
 20
19.4722651058
 10
0.4489537967
 20
19.4650644956
  0
LWPOLYLINE
  5
477
100
AcDbEntity
  8
0
100
AcDbPolyline
 62
253
  6
CONTINUOUS
 90
34
 70
0
 10
0.0945776547
 20
19.5856282562
 10
0.1013076856
 20
19.5815585432
 10
0.1080243347
 20
19.5771292182
 10
0.1147123865
 20
19.5723503151
 10
0.1213566905
 20
19.5672326596
 10
0.1279421951
 20
19.5617878449
 10
0.1344539822
 20
19.5560282053
 10
0.1408773003
 20
19.5499667881
 10
0.1471975986
 20
19.5436173244
 10
0.1534005596
 20
19.5369941979
 10
0.1594721316
 20
19.530112412
 10
0.1653985606
 20
19.5229875562
 10
0.1711664212
 20
19.5156357705
 10
0.1767626474
 20
19.5080737091
 10
0.182174562
 20
19.5003185026
 10
0.1873899052
 20
19.492387719
 10
0.1923968626
 20
19.484299324
 10
0.1971840918
 20
19.4760716405
 10
0.2017407483
 20
19.4677233067
 10
0.2060565096
 20
19.4592732345
 10
0.2101215993
 20
19.4507405658
 10
0.2139268086
 20
19.44214463
 10
0.2174635175
 20
19.4335048996
 10
0.2207237142
 20
19.4248409463
 10
0.2237000133
 20
19.4161723969
 10
0.2263856725
 20
19.4075188883
 10
0.2287746079
 20
19.3989000235
 10
0.2308614079
 20
19.3903353271
 10
0.2326413451
 20
19.3818442009
 10
0.2341103875
 20
19.3734458799
 10
0.2352652071
 20
19.365159389
 10
0.236103188
 20
19.3570034999
 10
0.2366224318
 20
19.3489966883
 10
0.2368217623
 20
19.341157092
  0
LWPOLYLINE
  5
478
100
AcDbEntity
  8
0
100
AcDbPolyline
 62
7
  6
CONTINUOUS
 90
34
 70
0
 10
-4.1472372894
 20
22.6903795821
 10
-4.138826214
 20
22.6852917624
 10
-4.1304339964
 20
22.6797532081
 10
-4.1220797486
 20
22.6737764037
 10
-4.1137825747
 20
22.6673747812
 10
-4.1055612763
 20
22.6605628364
 10
-4.0974343105
 20
22.6533560957
 10
-4.0894201451
 20
22.6457708483
 10
-4.0815370258
 20
22.6378242226
 10
-4.0738026836
 20
22.629534295
 10
-4.066234676
 20
22.6209198214
 10
-4.0588502191
 20
22.6120002731
 10
-4.0516659565
 20
22.6027959086
 10
-4.0446981779
 20
22.5933275686
 10
-4.0379627187
 20
22.5836166712
 10
-4.0314747959
 20
22.5736852441
 10
-4.0252490993
 20
22.5635557884
 10
-4.0192997614
 20
22.5532512329
 10
-4.013640262
 20
22.5427949252
 10
-4.0082833916
 20
22.5322105688
 10
-4.0032412919
 20
22.5215221359
 10
-3.9985254308
 20
22.5107538182
 10
-3.994146439
 20
22.4999300386
 10
-3.99011422
 20
22.4890753242
 10
-3.9864379961
 20
22.4782142177
 10
-3.9831260218
 20
22.4673713639
 10
-3.9801857609
 20
22.4565713452
 10
-3.9776240023
 20
22.445838555
 10
-3.9754464564
 20
22.4351973578
 10
-3.9736579955
 20
22.424671891
 10
-3.9722628372
 20
22.4142859015
 10
-3.9712641336
 20
22.404062919
 10
-3.9706639646
 20
22.3940262029
 10
-3.9704635857
 20
22.3841985462
  0
LWPOLYLINE
  5
479
100
AcDbEntity
  8
0
100
AcDbPolyline
 62
7
  6
CONTINUOUS
 90
34
 70
0
 10
8.1564207033
 20
15.5864016582
 10
8.1648317787
 20
15.5813138385
 10
8.1732239963
 20
15.5757752842
 10
8.181578244
 20
15.5697984798
 10
8.189875418
 20
15.5633968573
 10
8.1980967164
 20
15.5565849125
 10
8.2062236822
 20
15.5493781718
 10
8.2142378475
 20
15.5417929244
 10
8.2221209669
 20
15.5338462987
 10
8.2298553091
 20
15.5255563711
 10
8.2374233166
 20
15.5169418974
 10
8.2448077736
 20
15.5080223492
 10
8.2519920361
 20
15.4988179847
 10
8.2589598148
 20
15.4893496447
 10
8.265695274
 20
15.4796387473
 10
8.2721831967
 20
15.4697073202
 10
8.2784088933
 20
15.4595778645
 10
8.2843582313
 20
15.449273309
 10
8.2900177307
 20
15.4388170013
 10
8.2953746011
 20
15.4282326449
 10
8.3004167007
 20
15.417544212
 10
8.3051325619
 20
15.4067758943
 10
8.3095115537
 20
15.3959521147
 10
8.3135437726
 20
15.3850974003
 10
8.3172199965
 20
15.3742362938
 10
8.3205319708
 20
15.36339344
 10
8.3234722317
 20
15.3525934213
 10
8.3260339903
 20
15.3418606311
 10
8.3282115362
 20
15.3312194339
 10
8.3299999971
 20
15.3206939671
 10
8.3313951554
 20
15.3103079776
 10
8.3323938591
 20
15.3000849951
 10
8.3329940281
 20
15.290048279
 10
8.3331944069
 20
15.2802206223
  0
LWPOLYLINE
  5
47A
100
AcDbEntity
  8
0
100
AcDbPolyline
 62
253
  6
CONTINUOUS
 90
18
 70
0
 10
1.6510353247
 20
18.3612980681
 10
1.6444664081
 20
18.3652758529
 10
1.638232737
 20
18.3694296013
 10
1.6323484328
 20
18.3737499039
 10
1.6268268252
 20
18.3782269738
 10
1.6216804226
 20
18.3828506689
 10
1.616920883
 20
18.387610515
 10
1.6125589886
 20
18.3924957297
 10
1.6086046202
 20
18.3974952462
 10
1.605066736
 20
18.4025977392
 10
1.6019533502
 20
18.4077916498
 10
1.5992715157
 20
18.4130652121
 10
1.5970273078
 20
18.4184064799
 10
1.5952258102
 20
18.4238033534
 10
1.593871104
 20
18.4292436069
 10
1.592966258
 20
18.4347149167
 10
1.592513322
 20
18.4402048883
 10
1.592456681
 20
18.4429529867
  0
LWPOLYLINE
  5
47B
100
AcDbEntity
  8
0
100
AcDbPolyline
 62
7
  6
CONTINUOUS
 90
3
 70
0
 10
9.7408312715
 20
20.5205028458
 10
9.7406320737
 20
20.5210342899
 10
9.7404315845
 20
20.5211900001
  0
LINE
  5
47C
100
AcDbEntity
  8
0
100
AcDbLine
 62
253
  6
CONTINUOUS
 10
14.6865928171
 20
-14.6680279619
 11
9.7800411405
 21
-16.5937018561
  0
LINE
  5
47D
100
AcDbEntity
  8
0
100
AcDbLine
 62
7
  6
CONTINUOUS
 10
14.4157637661
 20
-14.3604390434
 11
9.7800411405
 21
-16.0796352009
  0
LWPOLYLINE
  5
47E
100
AcDbEntity
  8
0
100
AcDbPolyline
 62
253
  6
CONTINUOUS
 90
16
 70
0
 10
7.1089515831
 20
16.8839303796
 10
7.1025036065
 20
16.8863941289
 10
7.0958088732
 20
16.8883554355
 10
7.088882397
 20
16.8898099015
 10
7.0817396866
 20
16.8907542579
 10
7.0743968691
 20
16.8911863602
 10
7.0668706224
 20
16.8911052394
 10
7.0591779882
 20
16.8905111181
 10
7.0513361756
 20
16.8894053637
 10
7.0433626766
 20
16.8877904563
 10
7.0352741992
 20
16.885669671
 10
7.0270901279
 20
16.8830479828
 10
7.0188324571
 20
16.8799327421
 10
7.0105210364
 20
16.8763321411
 10
7.0021734041
 20
16.8722544761
 10
6.9938083239
 20
16.8677095086
  0
LWPOLYLINE
  5
47F
100
AcDbEntity
  8
0
100
AcDbPolyline
 62
7
  6
CONTINUOUS
 90
6
 70
0
 10
-5.1858720681
 20
23.9834823732
 10
-5.2143637848
 20
23.9975973464
 10
-5.2448517452
 20
24.0081024233
 10
-5.2767787033
 20
24.0146430527
 10
-5.309553341
 20
24.0169759616
 10
-5.3424592034
 20
24.0149767325
  0
LINE
  5
480
100
AcDbEntity
  8
0
100
AcDbLine
 62
7
  6
CONTINUOUS
 10
7.0897629024
 20
16.8934234713
 11
7.1178247856
 21
16.8794819975
  0
LWPOLYLINE
  5
481
100
AcDbEntity
  8
0
100
AcDbPolyline
 62
253
  6
CONTINUOUS
 90
3
 70
0
 10
7.1177859246
 20
16.8795044493
 10
7.1151383149
 20
16.8809697144
 10
7.1089515831
 20
16.8839303796
  0
LWPOLYLINE
  5
482
100
AcDbEntity
  8
0
100
AcDbPolyline
 62
253
  6
CONTINUOUS
 90
18
 70
0
 10
-3.4949955368
 20
23.0071914557
 10
-3.4976401266
 20
23.0086549771
 10
-3.5038268584
 20
23.0116156424
 10
-3.510274835
 20
23.0140793917
 10
-3.5169695683
 20
23.0160406982
 10
-3.5238960445
 20
23.0174951643
 10
-3.5310387549
 20
23.0184395207
 10
-3.5383815724
 20
23.0188716229
 10
-3.5459078191
 20
23.0187905021
 10
-3.5536004533
 20
23.0181963809
 10
-3.5614422659
 20
23.0170906265
 10
-3.5694157649
 20
23.0154757191
 10
-3.5775042423
 20
23.0133549337
 10
-3.5856883136
 20
23.0107332456
 10
-3.5939459844
 20
23.0076180049
 10
-3.6022574051
 20
23.0040174039
 10
-3.6106050374
 20
22.9999397389
 10
-3.6189701176
 20
22.9953947713
  0
LWPOLYLINE
  5
483
100
AcDbEntity
  8
0
100
AcDbPolyline
 62
253
  6
CONTINUOUS
 90
18
 70
0
 10
8.8086654757
 20
15.9032117882
 10
8.8060322123
 20
15.9046694485
 10
8.7998469214
 20
15.9076309387
 10
8.7934003741
 20
15.9100956691
 10
8.786707066
 20
15.9120580975
 10
8.7797820476
 20
15.9135138112
 10
8.7726408901
 20
15.9144595369
 10
8.7652996511
 20
15.9148931482
 10
8.7577748379
 20
15.9148136699
 10
8.7500833706
 20
15.9142212809
 10
8.7422425441
 20
15.9131173131
 10
8.734269989
 20
15.9115042489
 10
8.7261836323
 20
15.9093857154
 10
8.7180016567
 20
15.9067664763
 10
8.70974246
 20
15.9036524212
 10
8.7014246136
 20
15.9000505521
 10
8.6930668209
 20
15.8959689683
 10
8.684687875
 20
15.8914168474
  0
LWPOLYLINE
  5
484
100
AcDbEntity
  8
0
100
AcDbPolyline
 62
253
  6
CONTINUOUS
 90
3
 70
0
 10
-5.1858720681
 20
23.9834823732
 10
-5.1885053315
 20
23.9849400335
 10
-5.1946906224
 20
23.9879015238
  0
LINE
  5
485
100
AcDbEntity
  8
0
100
AcDbLine
 62
253
  6
CONTINUOUS
 10
-5.3098496688
 20
23.9716874325
 11
-3.6189701176
 21
22.9953947713
  0
LINE
  5
486
100
AcDbEntity
  8
0
100
AcDbLine
 62
253
  6
CONTINUOUS
 10
6.9938083239
 20
16.8677095086
 11
8.684687875
 21
15.8914168474
  0
LINE
  5
487
100
AcDbEntity
  8
0
100
AcDbLine
 62
7
  6
CONTINUOUS
 10
-5.1858720681
 20
23.9834823732
 11
-3.4949925169
 21
23.0071897121
  0
LINE
  5
488
100
AcDbEntity
  8
0
100
AcDbLine
 62
7
  6
CONTINUOUS
 10
7.1177859246
 20
16.8795044493
 11
8.8086654757
 21
15.9032117882
  0
LWPOLYLINE
  5
489
100
AcDbEntity
  8
0
100
AcDbPolyline
 62
253
  6
CONTINUOUS
 90
34
 70
0
 10
8.684687875
 20
15.8914168474
 10
8.6931327925
 20
15.8863651797
 10
8.7015599344
 20
15.8808602719
 10
8.709950218
 20
15.8749139903
 10
8.7182857907
 20
15.8685382842
 10
8.726546485
 20
15.8617478711
 10
8.7347099879
 20
15.854560786
 10
8.7427566077
 20
15.8469944735
 10
8.750669341
 20
15.8390650319
 10
8.7584304044
 20
15.830790268
 10
8.7660223057
 20
15.8221887937
 10
8.773427729
 20
15.8132801883
 10
8.7806297323
 20
15.8040848203
 10
8.7876119351
 20
15.7946236163
 10
8.7943585871
 20
15.7849179312
 10
8.8008544458
 20
15.7749896922
 10
8.807084807
 20
15.7648613639
 10
8.8130355326
 20
15.7545559201
 10
8.8186931263
 20
15.7440967285
 10
8.8240447646
 20
15.7335074924
 10
8.8290783229
 20
15.7228121993
 10
8.8337823928
 20
15.7120350858
 10
8.8381463146
 20
15.7012005691
 10
8.8421601982
 20
15.6903332002
 10
8.8458149444
 20
15.6794576111
 10
8.8491022708
 20
15.668598446
 10
8.8520147285
 20
15.6577803087
 10
8.8545457166
 20
15.6470277152
 10
8.8566895007
 20
15.6363650244
 10
8.8584412216
 20
15.6258164019
 10
8.8597969073
 20
15.6154057675
 10
8.8607534874
 20
15.6051567156
 10
8.8613087968
 20
15.5950924625
 10
8.8614615787
 20
15.5852358115
  0
LWPOLYLINE
  5
48A
100
AcDbEntity
  8
0
100
AcDbPolyline
 62
7
  6
CONTINUOUS
 90
9
 70
0
 10
8.8086654757
 20
15.9032117882
 10
8.8351783365
 20
15.8855596773
 10
8.8595557991
 20
15.8643608538
 10
8.8812082661
 20
15.8399226955
 10
8.8996237524
 20
15.8126430155
 10
8.9143378116
 20
15.7830804675
 10
8.9250215
 20
15.7518576307
 10
8.9315289786
 20
15.7192763853
 10
8.9336594272
 20
15.6866712358
  0
LINE
  5
48B
100
AcDbEntity
  8
0
100
AcDbLine
 62
7
  6
CONTINUOUS
 10
9.0406097295
 20
-22.5633977642
 11
9.0756565272
 21
-22.5192364199
  0
LINE
  5
48C
100
AcDbEntity
  8
0
100
AcDbLine
 62
253
  6
CONTINUOUS
 10
7.0201910365
 20
-23.9914488763
 11
6.4677800041
 21
-24.6728463587
  0
LINE
  5
48D
100
AcDbEntity
  8
0
100
AcDbLine
 62
253
  6
CONTINUOUS
 10
7.4431342242
 20
-24.0239551085
 11
6.7319136161
 21
-24.9012437638
  0
LINE
  5
48E
100
AcDbEntity
  8
0
100
AcDbLine
 62
7
  6
CONTINUOUS
 10
9.7591334343
 20
-21.6903258254
 11
9.0756565272
 21
-22.5192364199
  0
LWPOLYLINE
  5
48F
100
AcDbEntity
  8
0
100
AcDbPolyline
 62
7
  6
CONTINUOUS
 90
21
 70
0
 10
14.9978849146
 20
-16.0340835795
 10
15.0114624937
 20
-16.0256315702
 10
15.0244086413
 20
-16.0169032919
 10
15.0367233576
 20
-16.0078987444
 10
15.048424154
 20
-15.9986027847
 10
15.0594935189
 20
-15.9890305559
 10
15.0698789179
 20
-15.9792274873
 10
15.0795770998
 20
-15.9691924815
 10
15.0885913156
 20
-15.9589266358
 10
15.0968787846
 20
-15.9484786713
 10
15.1044360521
 20
-15.9378477224
 10
15.1112665726
 20
-15.9270346547
 10
15.117337929
 20
-15.9160907864
 10
15.1226465126
 20
-15.9050154959
 10
15.127195932
 20
-15.8938094047
 10
15.130964596
 20
-15.8825256964
 10
15.1339487932
 20
-15.871164002
 10
15.136152235
 20
-15.8597246906
 10
15.1375644639
 20
-15.8482620523
 10
15.138181719
 20
-15.8367759763
 10
15.1382127291
 20
-15.833540061
  0
LINE
  5
490
100
AcDbEntity
  8
0
100
AcDbLine
 62
7
  6
CONTINUOUS
 10
14.9978849146
 20
-16.0340835795
 11
9.7591334343
 21
-19.1663447454
  0
LINE
  5
491
100
AcDbEntity
  8
DRAFT
100
AcDbLine
 62
7
  6
CONTINUOUS
 10
14.9978849146
 20
-16.4861920969
 11
9.7591334343
 21
-19.5869727804
  0
LINE
  5
492
100
AcDbEntity
  8
0
100
AcDbLine
 62
7
  6
CONTINUOUS
 10
14.6865928171
 20
-15.4531982045
 11
9.7591334343
 21
-18.3483454679
  0
LINE
  5
493
100
AcDbEntity
  8
0
100
AcDbLine
 62
7
  6
CONTINUOUS
 10
5.7715376856
 20
22.4567712809
 11
7.5200216086
 21
22.7315007353
  0
LWPOLYLINE
  5
494
100
AcDbEntity
  8
0
100
AcDbPolyline
 62
7
  6
CONTINUOUS
 90
13
 70
0
 10
9.0783660202
 20
20.8554073851
 10
9.0924298502
 20
20.8544493016
 10
9.1068391162
 20
20.8527970347
 10
9.1216637017
 20
20.8504032228
 10
9.1369105056
 20
20.8472518325
 10
9.1525511669
 20
20.8433255242
 10
9.1686052446
 20
20.8385679087
 10
9.185063453
 20
20.8329579242
 10
9.2019044131
 20
20.826479161
 10
9.2191280654
 20
20.8190788963
 10
9.2367165904
 20
20.8107330033
 10
9.2546444263
 20
20.8014260367
 10
9.2687624975
 20
20.7935258063
  0
LINE
  5
495
100
AcDbEntity
  8
0
100
AcDbLine
 62
7
  6
CONTINUOUS
 10
-5.7704129513
 20
20.9928338508
 11
-5.142654
 21
20.9350290834
  0
LINE
  5
496
100
AcDbEntity
  8
0
100
AcDbLine
 62
253
  6
CONTINUOUS
 10
-5.5717443765
 20
21.1391199472
 11
-4.8605237684
 21
21.0736299343
  0
LWPOLYLINE
  5
497
100
AcDbEntity
  8
0
100
AcDbPolyline
 62
253
  6
CONTINUOUS
 90
16
 70
0
 10
-5.1946906224
 20
23.9879015238
 10
-5.2011371697
 20
23.9903662541
 10
-5.2078304778
 20
23.9923286825
 10
-5.2147554962
 20
23.9937843962
 10
-5.2218966537
 20
23.9947301219
 10
-5.2292378927
 20
23.9951637332
 10
-5.2367627059
 20
23.9950842549
 10
-5.2444541732
 20
23.9944918659
 10
-5.2522949997
 20
23.9933878981
 10
-5.2602675548
 20
23.991774834
 10
-5.2683539115
 20
23.9896563005
 10
-5.2765358871
 20
23.9870370614
 10
-5.2847950838
 20
23.9839230062
 10
-5.2931129302
 20
23.9803211372
 10
-5.3014707229
 20
23.9762395533
 10
-5.3098496688
 20
23.9716874325
  0
LWPOLYLINE
  5
498
100
AcDbEntity
  8
0
100
AcDbPolyline
 62
7
  6
CONTINUOUS
 90
4
 70
0
 10
8.8837839468
 20
-24.0548013049
 10
8.8624193487
 20
-24.0797384379
 10
8.8378780232
 20
-24.1017328752
 10
8.8108449119
 20
-24.1201972351
  0
LWPOLYLINE
  5
499
100
AcDbEntity
  8
0
100
AcDbPolyline
 62
253
  6
CONTINUOUS
 90
37
 70
0
 10
4.0509955101
 20
-24.9657260234
 10
4.0353293687
 20
-24.9767140523
 10
4.0190456826
 20
-24.9872949494
 10
4.0021747715
 20
-24.9974490136
 10
3.9847480483
 20
-25.0071573384
 10
3.9667979611
 20
-25.0164018471
 10
3.9483579324
 20
-25.0251653268
 10
3.9294622969
 20
-25.0334314603
 10
3.9101462376
 20
-25.0411848561
 10
3.8904457204
 20
-25.0484110779
 10
3.8703974271
 20
-25.0550966707
 10
3.8500386868
 20
-25.061229186
 10
3.8294074069
 20
-25.0667972055
 10
3.8085420022
 20
-25.0717903617
 10
3.7874813233
 20
-25.0761993574
 10
3.7662645845
 20
-25.0800159835
 10
3.7449312906
 20
-25.0832331334
 10
3.7235211634
 20
-25.085844817
 10
3.7020740679
 20
-25.0878461715
 10
3.6806299378
 20
-25.0892334705
 10
3.6592287013
 20
-25.0900041308
 10
3.6379102067
 20
-25.0901567176
 10
3.6167141482
 20
-25.0896909469
 10
3.5956799922
 20
-25.0886076859
 10
3.5748469034
 20
-25.0869089516
 10
3.5542536723
 20
-25.084597907
 10
3.5339386426
 20
-25.0816788553
 10
3.5139396402
 20
-25.0781572317
 10
3.4942939025
 20
-25.0740395933
 10
3.475038009
 20
-25.0693336069
 10
3.4562078135
 20
-25.0640480351
 10
3.437838377
 20
-25.0581927194
 10
3.4199639027
 20
-25.0517785621
 10
3.4026176723
 20
-25.0448175061
 10
3.3858319835
 20
-25.0373225127
 10
3.3696380909
 20
-25.0293075373
 10
3.3540661469
 20
-25.0207875035
  0
LWPOLYLINE
  5
49A
100
AcDbEntity
  8
0
100
AcDbPolyline
 62
7
  6
CONTINUOUS
 90
15
 70
0
 10
9.7404315845
 20
20.5211900001
 10
9.7397255974
 20
20.5213968798
 10
9.7381174499
 20
20.5213532635
 10
9.7358404222
 20
20.5209332171
 10
9.7329284151
 20
20.5201468882
 10
9.7294148834
 20
20.5190091562
 10
9.7253291743
 20
20.517555123
 10
9.7207045534
 20
20.5157936813
 10
9.7155718953
 20
20.5137336932
 10
9.7099518045
 20
20.5114092739
 10
9.7038797954
 20
20.5088330518
 10
9.6973782188
 20
20.5060047099
 10
9.6904364766
 20
20.5029402103
 10
9.6830705119
 20
20.4996495272
 10
9.6671251301
 20
20.4924039184
  0
LINE
  5
49B
100
AcDbEntity
  8
0
100
AcDbLine
 62
7
  6
CONTINUOUS
 10
5.7715376856
 20
22.4567712809
 11
8.7714470719
 21
20.7246611989
  0
LINE
  5
49C
100
AcDbEntity
  8
0
100
AcDbLine
 62
253
  6
CONTINUOUS
 10
3.3456588076
 20
24.0466948215
 11
3.9865445813
 21
23.6766554079
  0
LINE
  5
49D
100
AcDbEntity
  8
0
100
AcDbLine
 62
253
  6
CONTINUOUS
 10
8.9362920496
 20
20.8187332546
 11
9.5771778233
 21
20.4486938411
  0
LINE
  5
49E
100
AcDbEntity
  8
0
100
AcDbLine
 62
7
  6
CONTINUOUS
 10
3.6783154671
 20
24.0213791426
 11
4.1499849536
 21
23.7490430926
  0
LINE
  5
49F
100
AcDbEntity
  8
0
100
AcDbLine
 62
7
  6
CONTINUOUS
 10
9.2687620801
 20
20.793525333
 11
9.7404315666
 21
20.521189283
  0
LINE
  5
4A0
100
AcDbEntity
  8
0
100
AcDbLine
 62
7
  6
CONTINUOUS
 10
7.5200216086
 20
22.7315007353
 11
10.6744314014
 21
20.9101840549
  0
LINE
  5
4A1
100
AcDbEntity
  8
DRAFT
100
AcDbLine
 62
253
  6
CONTINUOUS
 10
3.8538681839
 20
25.290566924
 11
6.8170285847
 21
23.5796752457
  0
LINE
  5
4A2
100
AcDbEntity
  8
DRAFT
100
AcDbLine
 62
253
  6
CONTINUOUS
 10
11.0596692718
 20
21.1300276858
 11
14.0228296725
 21
19.4191360075
  0
LINE
  5
4A3
100
AcDbEntity
  8
0
100
AcDbLine
 62
253
  6
CONTINUOUS
 10
9.0406097295
 20
-22.8083526644
 11
9.7415456833
 21
-22.3917650275
  0
LINE
  5
4A4
100
AcDbEntity
  8
0
100
AcDbLine
 62
7
  6
CONTINUOUS
 10
8.9388935198
 20
-23.0361461517
 11
9.6398232292
 21
-22.6195622261
  0
LINE
  5
4A5
100
AcDbEntity
  8
0
100
AcDbLine
 62
253
  6
CONTINUOUS
 10
8.3331944069
 20
-24.3185947107
 11
8.8614615787
 21
-24.0064405765
  0
LINE
  5
4A6
100
AcDbEntity
  8
0
100
AcDbLine
 62
7
  6
CONTINUOUS
 10
8.2821499967
 20
-24.4326041239
 11
8.8108406343
 21
-24.1201997629
  0
LINE
  5
4A7
100
AcDbEntity
  8
0
100
AcDbLine
 62
7
  6
CONTINUOUS
 10
8.2821500107
 20
-24.4326041157
 11
8.2806957676
 21
-24.4334437774
  0
LWPOLYLINE
  5
4A8
100
AcDbEntity
  8
0
100
AcDbPolyline
 62
7
  6
CONTINUOUS
 90
3
 70
0
 10
8.9384485159
 20
-23.0353971139
 10
8.9310937101
 20
-23.0395565779
 10
8.927055976
 20
-23.0416367847
  0
LINE
  5
4A9
100
AcDbEntity
  8
0
100
AcDbLine
 62
253
  6
CONTINUOUS
 10
6.7319136161
 20
-25.2217639366
 11
8.3331944069
 21
-24.3185947107
  0
LINE
  5
4AA
100
AcDbEntity
  8
0
100
AcDbLine
 62
7
  6
CONTINUOUS
 10
6.6789865401
 20
-25.3368546545
 11
8.2806957537
 21
-24.4334437857
  0
LINE
  5
4AB
100
AcDbEntity
  8
0
100
AcDbLine
 62
253
  6
CONTINUOUS
 10
4.3878029978
 20
-25.1247259835
 11
9.0397004931
 21
-22.8076093393
  0
LINE
  5
4AC
100
AcDbEntity
  8
0
100
AcDbLine
 62
7
  6
CONTINUOUS
 10
4.2634023926
 20
-25.364609153
 11
8.927055976
 21
-23.0416367847
  0
LWPOLYLINE
  5
4AD
100
AcDbEntity
  8
0
100
AcDbPolyline
 62
7
  6
CONTINUOUS
 90
9
 70
0
 10
6.6789865401
 20
-25.3368546545
 10
6.6504432165
 20
-25.3506455528
 10
6.6199518864
 20
-25.360829096
 10
6.5880677435
 20
-25.3670597135
 10
6.5553766372
 20
-25.3691019163
 10
6.5225908255
 20
-25.3668380221
 10
6.490419462
 20
-25.3603024686
 10
6.4591853339
 20
-25.3495250933
 10
6.4311234507
 20
-25.3355836194
  0
LWPOLYLINE
  5
4AE
100
AcDbEntity
  8
0
100
AcDbPolyline
 62
7
  6
CONTINUOUS
 90
3
 70
0
 10
-5.3424592034
 20
24.0149767325
 10
-5.3747845312
 20
24.0086734671
 10
-5.4062023368
 20
23.9980925588
  0
LWPOLYLINE
  5
4AF
100
AcDbEntity
  8
0
100
AcDbPolyline
 62
7
  6
CONTINUOUS
 90
14
 70
0
 10
3.4760129064
 20
24.0835440849
 10
3.4897137613
 20
24.0831761481
 10
3.5037649175
 20
24.0821342523
 10
3.5181628442
 20
24.0804013649
 10
3.5329742521
 20
24.0779295108
 10
3.5482058329
 20
24.0747022854
 10
3.5638295367
 20
24.0707027651
 10
3.5798622012
 20
24.0658755171
 10
3.5962939835
 20
24.0601996306
 10
3.6131040102
 20
24.053658967
 10
3.6302909742
 20
24.0462022106
 10
3.6478366645
 20
24.037805692
 10
3.6657159806
 20
24.0284541405
 10
3.678315903
 20
24.021379637
  0
LWPOLYLINE
  5
4B0
100
AcDbEntity
  8
0
100
AcDbPolyline
 62
7
  6
CONTINUOUS
 90
13
 70
0
 10
4.1499849707
 20
23.7490437817
 10
4.1491700094
 20
23.7492626461
 10
4.1474955854
 20
23.7491845937
 10
4.1451496348
 20
23.7487288868
 10
4.1421666941
 20
23.7479057556
 10
4.1385806882
 20
23.746730036
 10
4.1344210538
 20
23.7452374523
 10
4.1297215671
 20
23.743437147
 10
4.1245133115
 20
23.7413377041
 10
4.1188160603
 20
23.7389731381
 10
4.1126655821
 20
23.736356559
 10
4.1060840665
 20
23.7334872237
 10
4.0916042908
 20
23.7270441624
  0
LWPOLYLINE
  5
4B1
100
AcDbEntity
  8
0
100
AcDbPolyline
 62
7
  6
CONTINUOUS
 90
24
 70
0
 10
7.3129359134
 20
23.6268496848
 10
7.305602505
 20
23.6309626611
 10
7.2876669723
 20
23.6400409832
 10
7.2691790494
 20
23.6480420463
 10
7.2501275378
 20
23.6549759895
 10
7.2305608823
 20
23.6608253173
 10
7.2104634327
 20
23.6655899512
 10
7.1898508392
 20
23.6692699697
 10
7.1688184968
 20
23.6718481125
 10
7.1473784049
 20
23.6733188562
 10
7.125518564
 20
23.6736877243
 10
7.1032983705
 20
23.6729540267
 10
7.0807041034
 20
23.6711133629
 10
7.0577494837
 20
23.6681701334
 10
7.0345350698
 20
23.6641368504
 10
7.0110704716
 20
23.6590112889
 10
6.9873460792
 20
23.6527956738
 10
6.9634336218
 20
23.6455091922
 10
6.939324579
 20
23.6371458408
 10
6.9150274712
 20
23.6277116229
 10
6.8906395889
 20
23.6172437348
 10
6.8661933621
 20
23.6057545753
 10
6.8416563607
 20
23.5932317456
 10
6.8170285847
 20
23.5796752457
  0
LINE
  5
4B2
100
AcDbEntity
  8
0
100
AcDbLine
 62
7
  6
CONTINUOUS
 10
4.1487799658
 20
25.4538007717
 11
7.3129389875
 21
23.6268550087
  0
LINE
  5
4B3
100
AcDbEntity
  8
0
100
AcDbLine
 62
7
  6
CONTINUOUS
 10
11.5555796746
 20
21.1772074488
 11
14.7197386964
 21
19.3502616858
  0
ARC
  5
4B4
100
AcDbEntity
  8
0
100
AcDbCircle
 62
7
  6
CONTINUOUS
 10
-3.619998557
 20
22.7906868485
 40
0.25
100
AcDbArc
 50
0.0007993011
 51
59.999200789
  0
ELLIPSE
  5
4B5
100
AcDbEntity
  8
RACCORDO
100
AcDbEllipse
 62
7
  6
CONTINUOUS
 10
-8.6049328561
 20
19.6008268642
 30
0.0
 11
-0.0499260605
 21
0.0866804662
 31
0.0
 40
0.5778584463
 41
-0.7846820092
 42
0.0175093263
  0
ELLIPSE
  5
4B6
100
AcDbEntity
  8
RACCORDO
100
AcDbEllipse
 62
7
  6
CONTINUOUS
 10
4.5530929812
 20
12.0035476545
 30
0.0
 11
-0.0499720045
 21
0.08675949
 31
0.0
 40
0.5768037941
 41
-2.355482613
 42
-0.7837728977
  0
ELLIPSE
  5
4B7
100
AcDbEntity
  8
0
100
AcDbEllipse
 62
7
  6
CONTINUOUS
 10
3.3435899623
 20
23.6372858851
 30
0.0
 11
0.2522054935
 21
0.4317367776
 31
0.0
 40
0.580680601
 41
0.689040114
 42
0.7825716451
  0
ELLIPSE
  5
4B8
100
AcDbEntity
  8
0
100
AcDbEllipse
 62
7
  6
CONTINUOUS
 10
1.0146392217
 20
19.9502439225
 30
0.0
 11
-0.1000031398
 21
0.1732052219
 31
0.0
 40
0.5773316701
 41
-2.3562258892
 42
-0.7854295624
  0
ELLIPSE
  5
4B9
100
AcDbEntity
  8
0
100
AcDbEllipse
 62
7
  6
CONTINUOUS
 10
2.7116954965
 20
18.9703848985
 30
0.0
 11
-0.1000031398
 21
0.1732052219
 31
0.0
 40
0.5773316701
 41
-0.7854295624
 42
-0.0029086502
  0
ELLIPSE
  5
4BA
100
AcDbEntity
  8
DRAFT
100
AcDbEllipse
 62
7
  6
CONTINUOUS
 10
3.1426088414
 20
24.8800322309
 30
0.0
 11
1.0061852078
 21
0.5737549327
 31
0.0
 40
0.0052693892
 41
0.003079628
 42
0.7827085602
  0
ELLIPSE
  5
4BB
100
AcDbEntity
  8
RACCORDO
100
AcDbEllipse
 62
7
  6
CONTINUOUS
 10
-3.8290398361
 20
20.9555869306
 30
0.0
 11
-0.0998556708
 21
0.1734136355
 31
0.0
 40
0.5775064956
 41
0.7868572898
 42
2.3573491378
  0
ELLIPSE
  5
4BC
100
AcDbEntity
  8
RACCORDO
100
AcDbEllipse
 62
7
  6
CONTINUOUS
 10
8.4746181565
 20
13.8516090067
 30
0.0
 11
-0.0998556708
 21
0.1734136355
 31
0.0
 40
0.5775064956
 41
0.7868572898
 42
2.3573491378
  0
ELLIPSE
  5
4BD
100
AcDbEntity
  8
0
100
AcDbEllipse
 62
7
  6
CONTINUOUS
 10
9.3879788299
 20
-22.1875992317
 30
0.0
 11
-0.2500332324
 21
0.4330240487
 31
0.0
 40
0.5773023583
 41
-3.1343210675
 42
-2.3562893423
  0
ELLIPSE
  5
4BE
100
AcDbEntity
  8
0
100
AcDbEllipse
 62
7
  6
CONTINUOUS
 10
9.3879788299
 20
13.5642849041
 30
0.0
 11
-0.2500205442
 21
0.4330020622
 31
0.0
 40
0.577360979
 41
-2.3562385877
 42
-0.7854930296
  0
ELLIPSE
  5
4BF
100
AcDbEntity
  8
0
100
AcDbEllipse
 62
7
  6
CONTINUOUS
 10
10.0123334841
 20
-13.3217665775
 30
0.0
 11
0.7307083665
 21
1.3101153486
 31
0.0
 40
0.5671693725
 41
-2.347120172
 42
-0.1829118995
  0
ELLIPSE
  5
4C0
100
AcDbEntity
  8
0
100
AcDbEllipse
 62
7
  6
CONTINUOUS
 10
9.4264742872
 20
-14.8810940436
 30
0.0
 11
-0.2499739954
 21
0.4330387087
 31
0.0
 40
0.577419602
 41
-2.3560524088
 42
-2.0135755186
  0
ELLIPSE
  5
4C1
100
AcDbEntity
  8
DRAFT
100
AcDbEllipse
 62
7
  6
CONTINUOUS
 10
14.6382150145
 20
-16.693909471
 30
0.0
 11
0.4999975532
 21
0.2922382515
 31
0.0
 40
0.0053525714
 41
-0.7710733282
 42
-0.0031285684
  0
ELLIPSE
  5
4C2
100
AcDbEntity
  8
0
100
AcDbEllipse
 62
7
  6
CONTINUOUS
 10
0.0954004061
 20
18.268344594
 30
0.0
 11
0.1999154856
 21
0.0095814127
 31
0.0
 40
0.6067642562
 41
-2.385266879
 42
-0.8144705522
  0
ELLIPSE
  5
4C3
100
AcDbEntity
  8
0
100
AcDbEllipse
 62
7
  6
CONTINUOUS
 10
1.792456681
 20
17.28848557
 30
0.0
 11
0.1999154856
 21
0.0095814127
 31
0.0
 40
0.6067642562
 41
3.1125202648
 42
3.8979184282
  0
ELLIPSE
  5
4C4
100
AcDbEntity
  8
DRAFT
100
AcDbEllipse
 62
7
  6
CONTINUOUS
 10
14.7258615005
 20
18.1920073177
 30
0.0
 11
-0.7006352283
 21
1.22850495
 31
0.0
 40
0.5737642108
 41
5.0913839874
 42
6.2865911274
  0
ELLIPSE
  5
4C5
100
AcDbEntity
  8
0
100
AcDbEllipse
 62
7
  6
CONTINUOUS
 10
9.2877885615
 20
19.3451896024
 30
0.0
 11
0.4530408369
 21
-0.002269484
 31
0.0
 40
0.5740189913
 41
-0.7767048895
 42
0.0028755094
  0
ELLIPSE
  5
4C6
100
AcDbEntity
  8
0
100
AcDbEllipse
 62
7
  6
CONTINUOUS
 10
3.6973419485
 20
22.573043412
 30
0.0
 11
0.4530408369
 21
-0.002269484
 31
0.0
 40
0.5740189913
 41
-0.7825226537
 42
0.0028755093
  0
ELLIPSE
  5
4C7
100
AcDbEntity
  8
RACCORDO
100
AcDbEllipse
 62
7
  6
CONTINUOUS
 10
4.803415155
 20
11.777255693
 30
0.0
 11
-0.0999440089
 21
0.17351898
 31
0.0
 40
0.5768037941
 41
-0.7837728977
 42
0.034893124
  0
ELLIPSE
  5
4C8
100
AcDbEntity
  8
RACCORDO
100
AcDbEllipse
 62
7
  6
CONTINUOUS
 10
-8.8552550299
 20
19.6636006744
 30
0.0
 11
-0.099852121
 21
0.1733609324
 31
0.0
 40
0.5778584463
 41
-1.992275079
 42
-0.7846820092
  0
ELLIPSE
  5
4C9
100
AcDbEntity
  8
0
100
AcDbEllipse
 62
7
  6
CONTINUOUS
 10
10.000776577
 20
-13.309280227
 30
0.0
 11
0.1461416733
 21
0.2620230697
 31
0.0
 40
0.5671693725
 41
-0.7937771377
 42
-0.1829118995
  0
ELLIPSE
  5
4CA
100
AcDbEntity
  8
0
100
AcDbEllipse
 62
7
  6
CONTINUOUS
 10
10.000776577
 20
-13.3390388669
 30
0.0
 11
0.1461416733
 21
0.2620230697
 31
0.0
 40
0.5671693725
 41
-2.347120172
 42
-0.7937771377
  0
ELLIPSE
  5
4CB
100
AcDbEntity
  8
0
100
AcDbEllipse
 62
7
  6
CONTINUOUS
 10
58.6780868407
 20
48.4723872831
 30
0.0
 11
60.4168506882
 21
35.2934066151
 31
0.0
 40
0.0050378458
 41
2.5166802681
 42
2.6876229173
  0
ELLIPSE
  5
4CC
100
AcDbEntity
  8
0
100
AcDbEllipse
 62
7
  6
CONTINUOUS
 10
9.5751329112
 20
20.039271086
 30
0.0
 11
0.247841934
 21
0.4342563559
 31
0.0
 40
0.5739631936
 41
0.6832219561
 42
0.7767534872
  0
ELLIPSE
  5
4CD
100
AcDbEntity
  8
0
100
AcDbEllipse
 62
7
  6
CONTINUOUS
 10
58.6780868407
 20
48.4723872831
 30
0.0
 11
60.4168506882
 21
35.2934066151
 31
0.0
 40
0.0050378458
 41
-2.6935087662
 42
-2.5225661169
  0
ELLIPSE
  5
4CE
100
AcDbEntity
  8
DRAFT
100
AcDbEllipse
 62
7
  6
CONTINUOUS
 10
14.6382150145
 20
19.1552869191
 30
0.0
 11
-0.3567823072
 21
0.610519958
 31
0.0
 40
0.573764555
 41
-3.1333143349
 42
-2.1059759599
  0
ENDSEC
  0
SECTION
  2
OBJECTS
  0
DICTIONARY
  5
C
100
AcDbDictionary
280
0
281
1
  3
ACAD_GROUP
350
D
  3
ACAD_MLINESTYLE
350
17
  3
ACAD_LAYOUT
350
1A
  3
ACAD_PLOTSETTINGS
350
19
  3
ACAD_PLOTSTYLENAME
350
E
  0
DICTIONARY
  5
D
102
{ACAD_REACTORS
330
C
102
}
100
AcDbDictionary
280
0
281
1
  0
ACDBDICTIONARYWDFLT
  5
E
102
{ACAD_REACTORS
330
C
102
}
100
AcDbDictionary
281
1
  3
Normal
350
F
100
AcDbDictionaryWithDefault
340
F
  0
DICTIONARY
  5
17
102
{ACAD_REACTORS
330
C
102
}
100
AcDbDictionary
280
0
281
1
  3
Standard
350
18
  0
DICTIONARY
  5
19
102
{ACAD_REACTORS
330
C
102
}
100
AcDbDictionary
281
1
  0
DICTIONARY
  5
1A
102
{ACAD_REACTORS
330
C
102
}
100
AcDbDictionary
281
1
  3
Model
350
4CF
  3
Layout1
350
4D0
  0
ACDBPLACEHOLDER
  5
F
102
{ACAD_REACTORS
330
E
102
}
  0
MLINESTYLE
  5
18
102
{ACAD_REACTORS
330
17
102
}
100
AcDbMlineStyle
  2
STANDARD
 70
0
  3

 62
256
 51
90.0
 52
90.0
 71
2
 49
0.5
 62
256
  6
BYLAYER
 49
-0.5
 62
256
  6
BYLAYER
  0
LAYOUT
  5
4CF
102
{ACAD_REACTORS
330
1A
102
}
100
AcDbPlotSettings
  1

  2
none_device
  4
ANSI_C_(22.00_x_17.00_Inches)
  6

 40
0.0
 41
0.0
 42
0.0
 43
0.0
 44
558.8
 45
431.8
 46
0.0
 47
0.0
 48
0.0
 49
0.0
140
0.0
141
0.0
142
1.0
143
1.0
 70
1024
 72
1
 73
0
 74
0
  7

 75
0
147
1.0
148
0.0
149
0.0
100
AcDbLayout
  1
Model
 70
0
 71
0
 10
0.0
 20
0.0
 11
558.8
 21
431.8
 12
0.0
 22
0.0
 32
0.0
 14
0.0
 24
0.0
 34
0.0
 15
0.0
 25
0.0
 35
0.0
146
0.0
 13
0.0
 23
0.0
 33
0.0
 16
1.0
 26
0.0
 36
0.0
 17
0.0
 27
1.0
 37
0.0
 76
0
330
212
345
0
346
0
  0
LAYOUT
  5
4D0
102
{ACAD_REACTORS
330
1A
102
}
100
AcDbPlotSettings
  1

  2
none_device
  4
ANSI_C_(22.00_x_17.00_Inches)
  6

 40
0.0
 41
0.0
 42
0.0
 43
0.0
 44
558.8
 45
431.8
 46
0.0
 47
0.0
 48
0.0
 49
0.0
140
0.0
141
0.0
142
1.0
143
1.0
 70
0
 72
1
 73
0
 74
0
  7

 75
0
147
1.0
148
0.0
149
0.0
100
AcDbLayout
  1
Layout1
 70
0
 71
1
 10
0.0
 20
0.0
 11
558.8
 21
431.8
 12
0.0
 22
0.0
 32
0.0
 14
0.0
 24
0.0
 34
0.0
 15
0.0
 25
0.0
 35
0.0
146
0.0
 13
0.0
 23
0.0
 33
0.0
 16
1.0
 26
0.0
 36
0.0
 17
0.0
 27
1.0
 37
0.0
 76
0
330
213
345
0
346
0
  0
ENDSEC
  0
EOF
