  0
SECTION
  2
HEADER
  9
$ACADVER
  1
AC1021
  9
$DWGCODEPAGE
  3
ANSI_1252
  9
$EXTMAX
 10
558.8
 20
431.8
 30
0.0
  9
$EXTMIN
 10
0.0
 20
0.0
 30
0.0
  9
$LIMMIN
 10
0.0
 20
0.0
  9
$LIMMAX
 10
558.8
 20
431.8
  9
$VIEWCTR
 10
279.4
 20
215.9
  9
$VIEWSIZE
 40
431.8
  9
$CLAYER
  8
0
  9
$LTSCALE
 40
30.734
  9
$CELTYPE
  6
BYLAYER
  9
$DIMSCALE
 40
1.0
  9
$DIMASZ
 40
3.0
  9
$DIMEXO
 40
0.5
  9
$DIMDLI
 40
21.2344
  9
$DIMEXE
 40
1.5
  9
$DIMCEN
 40
5.0292
  9
$DIMLFAC
 40
1.0
  9
$DIMBLK
  1
_FILLED
  9
$DIMALT
 70
0
  9
$DIMALTF
 40
25.4
  9
$DIMTXT
 40
3.0
  9
$DIMTOL
 70
1
  9
$DIMLIM
 70
0
  9
$DIMTFAC
 40
1.0
  9
$DIMTP
 40
0.01
  9
$DIMTM
 40
0.01
  9
$DIMGAP
 40
0.625
  9
$DIMDSEP
 70
44
  9
$AUNITS
 70
0
  9
$PDMODE
 70
3
  9
$PDSIZE
 40
3.0
  9
$HANDSEED
  5
560
  9
$TILEMODE
 70
1
  9
$MEASUREMENT
 70
1
  9
$INSUNITS
 70
4
  0
ENDSEC
  0
SECTION
  2
CLASSES
  0
CLASS
  1
ACDBDICTIONARYWDFLT
  2
AcDbDictionaryWithDefault
  3
AutoCAD 2000
 90
0
 91
1
280
0
281
0
  0
CLASS
  1
ACDBPLACEHOLDER
  2
AcDbPlaceHolder
  3
AutoCAD 2000
 90
0
 91
1
280
0
281
0
  0
CLASS
  1
LAYOUT
  2
AcDbLayout
  3
AutoCAD 2000
 90
0
 91
0
280
0
281
0
  0
ENDSEC
  0
SECTION
  2
TABLES
  0
TABLE
  2
VPORT
  5
8
100
AcDbSymbolTable
 70
2
  0
VPORT
  5
1F4
100
AcDbSymbolTableRecord
100
AcDbViewportTableRecord
  2
*ACTIVE
 70
0
 10
0.0
 20
0.0
 11
1.0
 21
1.0
 12
279.4
 22
215.9
 13
0.0
 23
0.0
 14
1.0
 24
1.0
 15
0.0
 25
0.0
 16
0.0
 26
0.0
 36
1.0
 17
0.0
 27
0.0
 37
0.0
 40
431.8
 41
1.2941176471
 42
50.0
 43
0.0
 44
0.0
 50
0.0
 51
0.0
 71
0
 72
100
 73
1
 74
1
 75
0
 76
0
 77
0
 78
0
  0
ENDTAB
  0
TABLE
  2
LTYPE
  5
5
100
AcDbSymbolTable
 70
6
  0
LTYPE
  5
14
100
AcDbSymbolTableRecord
100
AcDbLinetypeTableRecord
  2
BYBLOCK
 70
0
  3

 72
65
 73
0
 40
0.0
  0
LTYPE
  5
15
100
AcDbSymbolTableRecord
100
AcDbLinetypeTableRecord
  2
BYLAYER
 70
0
  3

 72
65
 73
0
 40
0.0
  0
LTYPE
  5
16
100
AcDbSymbolTableRecord
100
AcDbLinetypeTableRecord
  2
CONTINUOUS
 70
64
  3
Solid line
 72
65
 73
0
 40
0.0
  0
LTYPE
  5
1F5
100
AcDbSymbolTableRecord
100
AcDbLinetypeTableRecord
  2
CENTER
 70
64
  3
____ _ ____ _ ____ _ ____ _ ____ _ ____ _ ____
 72
65
 73
4
 40
0.6
 49
0.375
 74
0
 49
-0.075
 74
0
 49
0.075
 74
0
 49
-0.075
 74
0
  0
LTYPE
  5
1F6
100
AcDbSymbolTableRecord
100
AcDbLinetypeTableRecord
  2
HIDDEN
 70
64
  3
- - - - - - - - - - - - - - - - - - - -
 72
65
 73
2
 40
0.2
 49
0.1
 74
0
 49
-0.1
 74
0
  0
LTYPE
  5
1F7
100
AcDbSymbolTableRecord
100
AcDbLinetypeTableRecord
  2
PHANTOM
 70
64
  3
_____ _ _ _____ _ _ _____ _ _ _____
 72
65
 73
6
 40
0.8
 49
0.45
 74
0
 49
-0.05
 74
0
 49
0.1
 74
0
 49
-0.05
 74
0
 49
0.1
 74
0
 49
-0.05
 74
0
  0
LTYPE
  5
1F8
100
AcDbSymbolTableRecord
100
AcDbLinetypeTableRecord
  2
DOT
 70
64
  3
. . . . . . . . . . . . . . . . . . . .
 72
65
 73
2
 40
0.2
 49
0.1
 74
0
 49
-0.1
 74
0
  0
LTYPE
  5
1F9
100
AcDbSymbolTableRecord
100
AcDbLinetypeTableRecord
  2
DASHED
 70
64
  3
- - - - - - - - - - - - - - - - - - - -
 72
65
 73
2
 40
0.2
 49
0.1
 74
0
 49
-0.1
 74
0
  0
ENDTAB
  0
TABLE
  2
LAYER
  5
2
100
AcDbSymbolTable
 70
36
  0
LAYER
  5
10
100
AcDbSymbolTableRecord
100
AcDbLayerTableRecord
  2
0
 70
0
 62
7
  6
CONTINUOUS
370
-3
390
F
  0
LAYER
  5
1FA
100
AcDbSymbolTableRecord
100
AcDbLayerTableRecord
  2
DEFAULT_1
 70
0
 62
7
  6
CENTER
370
-3
390
F
  0
LAYER
  5
1FB
100
AcDbSymbolTableRecord
100
AcDbLayerTableRecord
  2
DEFAULT_2
 70
0
 62
7
  6
HIDDEN
370
-3
390
F
  0
LAYER
  5
1FC
100
AcDbSymbolTableRecord
100
AcDbLayerTableRecord
  2
DEFAULT_3
 70
0
 62
7
  6
PHANTOM
370
-3
390
F
  0
LAYER
  5
1FD
100
AcDbSymbolTableRecord
100
AcDbLayerTableRecord
  2
ASSI
 70
0
 62
7
  6
CONTINUOUS
370
-3
390
F
  0
LAYER
  5
1FE
100
AcDbSymbolTableRecord
100
AcDbLayerTableRecord
  2
COORDINATE
 70
0
 62
7
  6
CONTINUOUS
370
-3
390
F
  0
LAYER
  5
1FF
100
AcDbSymbolTableRecord
100
AcDbLayerTableRecord
  2
COORD_ORIGINE
 70
0
 62
7
  6
CONTINUOUS
370
-3
390
F
  0
LAYER
  5
200
100
AcDbSymbolTableRecord
100
AcDbLayerTableRecord
  2
COPY_PUBLISH
 70
0
 62
7
  6
CONTINUOUS
370
-3
390
F
  0
LAYER
  5
201
100
AcDbSymbolTableRecord
100
AcDbLayerTableRecord
  2
COSMETICI
 70
0
 62
7
  6
CONTINUOUS
370
-3
390
F
  0
LAYER
  5
202
100
AcDbSymbolTableRecord
100
AcDbLayerTableRecord
  2
CURVE
 70
0
 62
7
  6
CONTINUOUS
370
-3
390
F
  0
LAYER
  5
203
100
AcDbSymbolTableRecord
100
AcDbLayerTableRecord
  2
DRAFT
 70
0
 62
7
  6
CONTINUOUS
370
-3
390
F
  0
LAYER
  5
204
100
AcDbSymbolTableRecord
100
AcDbLayerTableRecord
  2
IMPORT_IGES
 70
0
 62
7
  6
CONTINUOUS
370
-3
390
F
  0
LAYER
  5
205
100
AcDbSymbolTableRecord
100
AcDbLayerTableRecord
  2
NOTE
 70
0
 62
7
  6
CONTINUOUS
370
-3
390
F
  0
LAYER
  5
206
100
AcDbSymbolTableRecord
100
AcDbLayerTableRecord
  2
PIANI
 70
0
 62
7
  6
CONTINUOUS
370
-3
390
F
  0
LAYER
  5
207
100
AcDbSymbolTableRecord
100
AcDbLayerTableRecord
  2
PIANI_ORIGINE
 70
0
 62
7
  6
CONTINUOUS
370
-3
390
F
  0
LAYER
  5
208
100
AcDbSymbolTableRecord
100
AcDbLayerTableRecord
  2
PIANI_SFORMI
 70
0
 62
7
  6
CONTINUOUS
370
-3
390
F
  0
LAYER
  5
209
100
AcDbSymbolTableRecord
100
AcDbLayerTableRecord
  2
PUNTI
 70
0
 62
7
  6
CONTINUOUS
370
-3
390
F
  0
LAYER
  5
20A
100
AcDbSymbolTableRecord
100
AcDbLayerTableRecord
  2
RACCORDO
 70
0
 62
7
  6
CONTINUOUS
370
-3
390
F
  0
LAYER
  5
20B
100
AcDbSymbolTableRecord
100
AcDbLayerTableRecord
  2
SIMBOLI
 70
0
 62
7
  6
CONTINUOUS
370
-3
390
F
  0
LAYER
  5
20C
100
AcDbSymbolTableRecord
100
AcDbLayerTableRecord
  2
SMUSSO
 70
0
 62
7
  6
CONTINUOUS
370
-3
390
F
  0
LAYER
  5
20D
100
AcDbSymbolTableRecord
100
AcDbLayerTableRecord
  2
SUPERFICI
 70
0
 62
7
  6
CONTINUOUS
370
-3
390
F
  0
LAYER
  5
20E
100
AcDbSymbolTableRecord
100
AcDbLayerTableRecord
  2
TRASH
 70
0
 62
7
  6
CONTINUOUS
370
-3
390
F
  0
LAYER
  5
20F
100
AcDbSymbolTableRecord
100
AcDbLayerTableRecord
  2
XSEC_DATUMS
 70
0
 62
7
  6
CONTINUOUS
370
-3
390
F
  0
ENDTAB
  0
TABLE
  2
STYLE
  5
3
100
AcDbSymbolTable
 70
1
  0
STYLE
  5
11
100
AcDbSymbolTableRecord
100
AcDbTextStyleTableRecord
  2
STANDARD
 70
0
 40
0.0
 41
0.8
 50
0.0
 71
0
 42
0.2
  3
txt
  4

  0
STYLE
  5
210
100
AcDbSymbolTableRecord
100
AcDbTextStyleTableRecord
  2
TEXTSTYLE_1
 70
0
 40
0.0
 41
0.8
 50
0.0
 71
0
 42
0.2
  3
gdt
  4

  0
ENDTAB
  0
TABLE
  2
VIEW
  5
6
100
AcDbSymbolTable
 70
0
  0
ENDTAB
  0
TABLE
  2
UCS
  5
7
100
AcDbSymbolTable
 70
0
  0
ENDTAB
  0
TABLE
  2
APPID
  5
9
100
AcDbSymbolTable
 70
1
  0
APPID
  5
211
100
AcDbSymbolTableRecord
100
AcDbRegAppTableRecord
  2
ACAD
 70
0
  0
ENDTAB
  0
TABLE
  2
BLOCK_RECORD
  5
1
100
AcDbSymbolTable
 70
0
  0
BLOCK_RECORD
  5
212
100
AcDbSymbolTableRecord
100
AcDbBlockTableRecord
  2
*Model_Space
  0
BLOCK_RECORD
  5
213
100
AcDbSymbolTableRecord
100
AcDbBlockTableRecord
  2
*Paper_Space
  0
ENDTAB
  0
TABLE
  2
DIMSTYLE
  5
A
100
AcDbSymbolTable
 70
1
100
AcDbDimStyleTable
 71
0
  0
DIMSTYLE
105
214
100
AcDbSymbolTableRecord
100
AcDbDimStyleTableRecord
  2
STANDARD
 70
0
  3

  4

 40
1.0
 41
3.0
 42
0.5
 43
0.38
 44
1.5
 45
0.0
 46
0.0
 47
0.01
 48
0.01
140
3.0
141
0.09
142
0.0
143
25.4
144
1.0
145
0.0
146
1.0
147
0.625
 71
1.0
 72
0.0
 73
0
 74
0
 75
0
 76
0
 77
1
 78
8
170
0
171
1
172
0
173
0
174
0
175
0
176
0
177
0
178
0
270
2
271
2
272
2
273
2
274
2
275
0
280
0
281
0
282
0
283
1
284
8
285
0
286
0
287
3
288
0
340
11
278
44
  0
ENDTAB
  0
ENDSEC
  0
SECTION
  2
BLOCKS
  0
BLOCK
  5
20
100
AcDbEntity
  8
0
100
AcDbBlockBegin
  2
*Model_Space
 70
0
 10
0.0
 20
0.0
 30
0.0
  3
*Model_Space
  1

  0
ENDBLK
  5
21
100
AcDbEntity
  8
0
100
AcDbBlockEnd
  0
BLOCK
  5
1C
100
AcDbEntity
  8
0
100
AcDbBlockBegin
  2
*Paper_Space
 70
0
 10
0.0
 20
0.0
 30
0.0
  3
*Paper_Space
  1

  0
ENDBLK
  5
1D
100
AcDbEntity
  8
0
100
AcDbBlockEnd
  0
ENDSEC
  0
SECTION
  2
ENTITIES
  0
LINE
  5
215
100
AcDbEntity
  8
0
100
AcDbLine
 62
7
  6
CONTINUOUS
 10
-9.6134606592
 20
22.7466999932
 11
-8.0302805903
 21
23.6822042801
  0
LINE
  5
216
100
AcDbEntity
  8
0
100
AcDbLine
 62
253
  6
CONTINUOUS
 10
-9.4873078999
 20
22.7349880007
 11
-7.9045512968
 21
23.6702420608
  0
LINE
  5
217
100
AcDbEntity
  8
0
100
AcDbLine
 62
7
  6
CONTINUOUS
 10
-8.0302805761
 20
23.6822042881
 11
-8.0288263331
 21
23.6830439498
  0
LINE
  5
218
100
AcDbEntity
  8
0
100
AcDbLine
 62
7
  6
CONTINUOUS
 10
-8.0288263472
 20
23.6830439418
 11
-7.4939480457
 21
23.9847309565
  0
LINE
  5
219
100
AcDbEntity
  8
0
100
AcDbLine
 62
253
  6
CONTINUOUS
 10
-7.9045512968
 20
23.6702420608
 11
-7.3701014181
 21
23.9716874325
  0
LWPOLYLINE
  5
21A
100
AcDbEntity
  8
0
100
AcDbPolyline
 62
253
  6
CONTINUOUS
 90
18
 70
0
 10
-9.6134606592
 20
22.7466999932
 10
-9.6097048319
 20
22.74879059
 10
-9.6034744707
 20
22.7517318796
 10
-9.5969786121
 20
22.7541740812
 10
-9.59023196
 20
22.7561116759
 10
-9.5832497573
 20
22.7575402866
 10
-9.576047754
 20
22.7584566784
 10
-9.5686423306
 20
22.7588587546
 10
-9.5610504293
 20
22.7587456079
 10
-9.5532893659
 20
22.758117535
 10
-9.5453766327
 20
22.7569759895
 10
-9.5373300128
 20
22.7553235504
 10
-9.5291665099
 20
22.7531636012
 10
-9.5209058156
 20
22.7505012453
 10
-9.512570243
 20
22.7473439769
 10
-9.5041799593
 20
22.7437001348
 10
-9.4957528174
 20
22.7395781673
 10
-9.4873078999
 20
22.7349880007
  0
LWPOLYLINE
  5
21B
100
AcDbEntity
  8
0
100
AcDbPolyline
 62
7
  6
CONTINUOUS
 90
18
 70
0
 10
-8.0288263331
 20
23.6830439498
 10
-8.026539462
 20
23.6842871569
 10
-8.0203137902
 20
23.6872273485
 10
-8.0138258577
 20
23.6896666794
 10
-8.0070903689
 20
23.6915996202
 10
-8.0001226296
 20
23.6930217669
 10
-7.9929383726
 20
23.6939299282
 10
-7.985553857
 20
23.6943220568
 10
-7.9779859026
 20
23.6941972158
 10
-7.9702515811
 20
23.6935557308
 10
-7.9623683752
 20
23.6923990779
 10
-7.9543542757
 20
23.6907298061
 10
-7.9462273453
 20
23.6885517507
 10
-7.9380059343
 20
23.6858698813
 10
-7.9297088375
 20
23.6826901798
 10
-7.9213548442
 20
23.6790198552
 10
-7.912962695
 20
23.6748673265
 10
-7.9045512968
 20
23.6702420608
  0
LWPOLYLINE
  5
21C
100
AcDbEntity
  8
0
100
AcDbPolyline
 62
253
  6
CONTINUOUS
 90
3
 70
0
 10
-7.4939480457
 20
23.9847309565
 10
-7.4916472438
 20
23.9859814399
 10
-7.4854234866
 20
23.9889189164
  0
LINE
  5
21D
100
AcDbEntity
  8
0
100
AcDbLine
 62
7
  6
CONTINUOUS
 10
-7.4664540861
 20
23.9980925588
 11
-7.493990782
 21
23.9847068354
  0
LWPOLYLINE
  5
21E
100
AcDbEntity
  8
0
100
AcDbPolyline
 62
253
  6
CONTINUOUS
 90
16
 70
0
 10
-7.4854234866
 20
23.9889189164
 10
-7.4789408058
 20
23.9913535093
 10
-7.4722138755
 20
23.9932797169
 10
-7.4652578939
 20
23.9946931879
 10
-7.458088552
 20
23.9955907213
 10
-7.4507221563
 20
23.9959702635
 10
-7.4431755593
 20
23.9958309586
 10
-7.4354659732
 20
23.9951731634
 10
-7.427610774
 20
23.9939983984
 10
-7.4196276153
 20
23.9923093177
 10
-7.4115333677
 20
23.9901093813
 10
-7.403347557
 20
23.9874037886
 10
-7.3950922908
 20
23.9842001522
 10
-7.3867875351
 20
23.9805069274
 10
-7.3784509536
 20
23.9763326714
 10
-7.3701014181
 20
23.9716874325
  0
LWPOLYLINE
  5
21F
100
AcDbEntity
  8
RACCORDO
100
AcDbPolyline
 62
253
  6
CONTINUOUS
 90
10
 70
0
 10
-9.094083136
 20
21.1905945292
 10
-9.0704738774
 20
21.2079766353
 10
-9.04774524
 20
21.2293745432
 10
-9.0265426568
 20
21.2541806091
 10
-9.0074682249
 20
21.2816904064
 10
-8.9910636076
 20
21.3111227299
 10
-8.9777946527
 20
21.3416417795
 10
-8.9680381631
 20
21.3723808952
 10
-8.9620711974
 20
21.4024671675
 10
-8.9600632016
 20
21.4310462261
  0
LWPOLYLINE
  5
220
100
AcDbEntity
  8
RACCORDO
100
AcDbPolyline
 62
253
  6
CONTINUOUS
 90
16
 70
0
 10
-9.0959289418
 20
21.5761129052
 10
-9.1276924777
 20
21.5532162081
 10
-9.1550590914
 20
21.5292069278
 10
-9.1780287828
 20
21.5040850644
 10
-9.196717187
 20
21.477570508
 10
-9.2110086689
 20
21.4499433684
 10
-9.2205563235
 20
21.4220439754
 10
-9.2252536476
 20
21.3938855008
 10
-9.2252071444
 20
21.3654547727
 10
-9.2203894185
 20
21.3375526057
 10
-9.2106857626
 20
21.3101587705
 10
-9.1962108841
 20
21.2832934963
 10
-9.1772815095
 20
21.2578182849
 10
-9.1540032144
 20
21.2340203036
 10
-9.1262704232
 20
21.211612385
 10
-9.094083136
 20
21.1905945292
  0
LWPOLYLINE
  5
221
100
AcDbEntity
  8
RACCORDO
100
AcDbPolyline
 62
7
  6
CONTINUOUS
 90
10
 70
0
 10
-12.1705694158
 20
18.7887236487
 10
-12.2265885328
 20
18.7489301432
 10
-12.2814502167
 20
18.7048467149
 10
-12.3348917545
 20
18.6567461297
 10
-12.3866433198
 20
18.6049207002
 10
-12.4364157836
 20
18.5497048865
 10
-12.4839519461
 20
18.4914268163
 10
-12.5290018302
 20
18.4304243263
 10
-12.5712982803
 20
18.3670939517
 10
-12.6106071351
 20
18.3018169527
  0
LWPOLYLINE
  5
222
100
AcDbEntity
  8
0
100
AcDbPolyline
 62
7
  6
CONTINUOUS
 90
15
 70
0
 10
-13.1954250063
 20
19.3116397163
 10
-13.2262048316
 20
19.2905303409
 10
-13.2897293175
 20
19.2415347161
 10
-13.3497007735
 20
19.1879529342
 10
-13.4063048699
 20
19.1299827483
 10
-13.4594553416
 20
19.0679517916
 10
-13.5087519441
 20
19.0025482077
 10
-13.554144138
 20
18.9340260484
 10
-13.5955303159
 20
18.8625937522
 10
-13.6324534455
 20
18.7890629779
 10
-13.6647989442
 20
18.7136473727
 10
-13.6923936799
 20
18.6365300161
 10
-13.7148556506
 20
18.5584360142
 10
-13.7319683361
 20
18.4796311367
 10
-13.7421842631
 20
18.4116944594
  0
LINE
  5
223
100
AcDbEntity
  8
0
100
AcDbLine
 62
7
  6
CONTINUOUS
 10
-13.1956207356
 20
19.3115109571
 11
-9.3532986126
 21
21.8454862615
  0
LINE
  5
224
100
AcDbEntity
  8
0
100
AcDbLine
 62
253
  6
CONTINUOUS
 10
-12.9388513136
 20
19.2911004732
 11
-9.1998901978
 21
21.7569101655
  0
LINE
  5
225
100
AcDbEntity
  8
RACCORDO
100
AcDbLine
 62
253
  6
CONTINUOUS
 10
-9.0289498825
 20
21.6193152373
 11
-9.0959289418
 21
21.5761129052
  0
LWPOLYLINE
  5
226
100
AcDbEntity
  8
0
100
AcDbPolyline
 62
253
  6
CONTINUOUS
 90
22
 70
0
 10
-13.1954250568
 20
19.311639793
 10
-13.1924378757
 20
19.3135546492
 10
-13.1827233196
 20
19.3191484285
 10
-13.1725836842
 20
19.324053593
 10
-13.1620353968
 20
19.3282621957
 10
-13.1510955469
 20
19.3317674182
 10
-13.1397818582
 20
19.3345635815
 10
-13.1281126605
 20
19.3366461556
 10
-13.116106859
 20
19.3380117665
 10
-13.1037839047
 20
19.3386582017
 10
-13.0911637621
 20
19.338584414
 10
-13.0782668774
 20
19.3377905228
 10
-13.0651141451
 20
19.3362778143
 10
-13.0517268742
 20
19.3340487394
 10
-13.0381267536
 20
19.3311069093
 10
-13.0243358171
 20
19.3274570902
 10
-13.0103764076
 20
19.3231051953
 10
-12.9962711411
 20
19.3180582751
 10
-12.9820428698
 20
19.3123245063
 10
-12.9677146451
 20
19.3059131781
 10
-12.9533096804
 20
19.2988346778
 10
-12.9388513136
 20
19.2911004732
  0
LINE
  5
227
100
AcDbEntity
  8
RACCORDO
100
AcDbLine
 62
7
  6
CONTINUOUS
 10
-12.1407462462
 20
18.807834316
 11
-12.1705694158
 21
18.7887236487
  0
LINE
  5
228
100
AcDbEntity
  8
RACCORDO
100
AcDbLine
 62
253
  6
CONTINUOUS
 10
-12.1122778113
 20
18.7892081445
 11
-12.091958681
 21
18.8021152812
  0
LINE
  5
229
100
AcDbEntity
  8
RACCORDO
100
AcDbLine
 62
253
  6
CONTINUOUS
 10
-12.3422162587
 20
18.9466108701
 11
-10.9153775869
 21
19.8270442317
  0
LINE
  5
22A
100
AcDbEntity
  8
RACCORDO
100
AcDbLine
 62
7
  6
CONTINUOUS
 10
-12.1407705837
 20
18.8078193328
 11
-10.7159799935
 21
19.686988922
  0
LINE
  5
22B
100
AcDbEntity
  8
RACCORDO
100
AcDbLine
 62
253
  6
CONTINUOUS
 10
-12.091958681
 20
18.8021152812
 11
-10.6651200092
 21
19.6825486428
  0
LINE
  5
22C
100
AcDbEntity
  8
0
100
AcDbLine
 62
253
  6
CONTINUOUS
 10
-7.8087698295
 20
21.7658211559
 11
-5.6792218669
 21
22.9953947713
  0
LINE
  5
22D
100
AcDbEntity
  8
0
100
AcDbLine
 62
253
  6
CONTINUOUS
 10
-7.6319961258
 20
21.45964012
 11
-5.5024481633
 21
22.6892137354
  0
LWPOLYLINE
  5
22E
100
AcDbEntity
  8
0
100
AcDbPolyline
 62
7
  6
CONTINUOUS
 90
7
 70
0
 10
1.3408002812
 20
24.0722693365
 10
1.3524418681
 20
24.075692915
 10
1.3644264342
 20
24.0785128128
 10
1.3767498757
 20
24.0807195494
 10
1.3894237238
 20
24.0822988679
 10
1.4024284428
 20
24.0832438305
 10
1.4157611571
 20
24.0835440849
  0
LINE
  5
22F
100
AcDbEntity
  8
0
100
AcDbLine
 62
253
  6
CONTINUOUS
 10
6.8012098294
 20
-23.678795276
 11
6.2729426576
 21
-23.633152333
  0
LINE
  5
230
100
AcDbEntity
  8
0
100
AcDbLine
 62
253
  6
CONTINUOUS
 10
6.711796034
 20
-23.3495168385
 11
6.3171523861
 21
-23.3154191348
  0
LWPOLYLINE
  5
231
100
AcDbEntity
  8
0
100
AcDbPolyline
 62
7
  6
CONTINUOUS
 90
40
 70
0
 10
5.3828824749
 20
-24.0239551085
 10
5.3771437916
 20
-24.0233895655
 10
5.371218072
 20
-24.0227111579
 10
5.3651065904
 20
-24.0219230642
 10
5.358808014
 20
-24.0210324857
 10
5.3523269588
 20
-24.0200391452
 10
5.3456739312
 20
-24.0189352546
 10
5.3388510465
 20
-24.0177249067
 10
5.3318608442
 20
-24.0164119925
 10
5.3247147276
 20
-24.0149886435
 10
5.3174155432
 20
-24.0134594682
 10
5.3099665255
 20
-24.0118289046
 10
5.302379917
 20
-24.0100890482
 10
5.2946593216
 20
-24.0082450227
 10
5.2868086861
 20
-24.0063018089
 10
5.2788410262
 20
-24.0042515108
 10
5.2707607018
 20
-24.0020997571
 10
5.262572415
 20
-23.9998520749
 10
5.2542899609
 20
-23.9975006443
 10
5.2459184828
 20
-23.9950515927
 10
5.2374634597
 20
-23.9925109931
 10
5.228939473
 20
-23.9898711867
 10
5.2203524729
 20
-23.9871387854
 10
5.2117087435
 20
-23.9843204108
 10
5.2030236752
 20
-23.9814086765
 10
5.1943040528
 20
-23.9784106572
 10
5.1855569886
 20
-23.9753335234
 10
5.1767987068
 20
-23.9721703051
 10
5.1680368554
 20
-23.9689285065
 10
5.1592793885
 20
-23.9656158402
 10
5.1505433658
 20
-23.9622259316
 10
5.1418373272
 20
-23.9587666654
 10
5.1331700622
 20
-23.9552462756
 10
5.1245594123
 20
-23.951659191
 10
5.1160148584
 20
-23.9480136267
 10
5.1075459635
 20
-23.9443182772
 10
5.099171118
 20
-23.9405685534
 10
5.0909007147
 20
-23.9367729122
 10
5.0827450588
 20
-23.9329404453
 10
5.0800317979
 20
-23.9316306289
  0
LWPOLYLINE
  5
232
100
AcDbEntity
  8
RACCORDO
100
AcDbPolyline
 62
253
  6
CONTINUOUS
 90
13
 70
0
 10
-12.5450335304
 20
18.3294910694
 10
-12.5213088713
 20
18.3668985675
 10
-12.4966281978
 20
18.4036551355
 10
-12.4712275283
 20
18.4394259827
 10
-12.4451649935
 20
18.4741607702
 10
-12.4185081997
 20
18.5078011192
 10
-12.3915431948
 20
18.5400439496
 10
-12.3643448817
 20
18.5708702272
 10
-12.3369871386
 20
18.6002648091
 10
-12.3097792027
 20
18.6279867479
 10
-12.2827981025
 20
18.6540591356
 10
-12.2561122886
 20
18.6785134671
 10
-12.2300303601
 20
18.7011827195
  0
LWPOLYLINE
  5
233
100
AcDbEntity
  8
RACCORDO
100
AcDbPolyline
 62
253
  6
CONTINUOUS
 90
6
 70
0
 10
-12.2300303601
 20
18.7011827195
 10
-12.2046191724
 20
18.7221324662
 10
-12.1799316249
 20
18.7414369207
 10
-12.1562569761
 20
18.7590002822
 10
-12.1337202583
 20
18.7748701547
 10
-12.1122778113
 20
18.7892081445
  0
LWPOLYLINE
  5
234
100
AcDbEntity
  8
RACCORDO
100
AcDbPolyline
 62
253
  6
CONTINUOUS
 90
10
 70
0
 10
-7.4073174117
 20
20.2166771401
 10
-7.383708319
 20
20.2340591074
 10
-7.3609797874
 20
20.2554568683
 10
-7.3397772473
 20
20.280262811
 10
-7.3207027975
 20
20.3077725407
 10
-7.3042981192
 20
20.3372048642
 10
-7.2910290865
 20
20.3677239695
 10
-7.2812725212
 20
20.3984631874
 10
-7.2753054967
 20
20.4285496055
 10
-7.2732974774
 20
20.4571288371
  0
LINE
  5
235
100
AcDbEntity
  8
RACCORDO
100
AcDbLine
 62
253
  6
CONTINUOUS
 10
-6.9207755177
 20
20.475679962
 11
-6.030715335
 21
21.0371934437
  0
LINE
  5
236
100
AcDbEntity
  8
RACCORDO
100
AcDbLine
 62
253
  6
CONTINUOUS
 10
-6.7727778843
 20
20.2347546005
 11
-5.8893346457
 21
20.7920936417
  0
LINE
  5
237
100
AcDbEntity
  8
0
100
AcDbLine
 62
7
  6
CONTINUOUS
 10
1.2854070583
 20
24.0466948215
 11
-4.0508163477
 21
21.0369086614
  0
LINE
  5
238
100
AcDbEntity
  8
DRAFT
100
AcDbLine
 62
7
  6
CONTINUOUS
 10
1.7936164346
 20
25.290566924
 11
-5.3277223807
 21
21.2796248602
  0
LWPOLYLINE
  5
239
100
AcDbEntity
  8
RACCORDO
100
AcDbPolyline
 62
253
  6
CONTINUOUS
 90
6
 70
0
 10
-12.140746254
 20
18.8078343287
 10
-12.1357674835
 20
18.8102758254
 10
-12.1262152548
 20
18.8122799522
 10
-12.115508375
 20
18.8115595931
 10
-12.1039725447
 20
18.8081366612
 10
-12.091958681
 20
18.8021152812
  0
LWPOLYLINE
  5
23A
100
AcDbEntity
  8
0
100
AcDbPolyline
 62
7
  6
CONTINUOUS
 90
7
 70
0
 10
1.9574397716
 20
23.6928418754
 10
1.9522709882
 20
23.6903767129
 10
1.9470932555
 20
23.6878185176
 10
1.9419065735
 20
23.6851672894
 10
1.9367109423
 20
23.6824230284
 10
1.9315063618
 20
23.6795857346
 10
1.926292832
 20
23.6766554079
  0
LINE
  5
23B
100
AcDbEntity
  8
0
100
AcDbLine
 62
7
  6
CONTINUOUS
 10
1.9974676862
 20
23.7115179828
 11
1.9574397716
 21
23.6928418754
  0
LINE
  5
23C
100
AcDbEntity
  8
0
100
AcDbLine
 62
7
  6
CONTINUOUS
 10
2.015217828
 20
23.7197039423
 11
1.9974676862
 21
23.7115179828
  0
LINE
  5
23D
100
AcDbEntity
  8
0
100
AcDbLine
 62
7
  6
CONTINUOUS
 10
2.0313525415
 20
23.7270441624
 11
2.015217828
 21
23.7197039423
  0
LWPOLYLINE
  5
23E
100
AcDbEntity
  8
0
100
AcDbPolyline
 62
7
  6
CONTINUOUS
 90
3
 70
0
 10
1.3186097559
 20
24.0636377352
 10
1.3295195828
 20
24.0682482172
 10
1.3408002812
 20
24.0722693365
  0
LWPOLYLINE
  5
23F
100
AcDbEntity
  8
0
100
AcDbPolyline
 62
7
  6
CONTINUOUS
 90
11
 70
0
 10
1.4939915378
 20
-25.3619142561
 10
1.5460435874
 20
-25.3890964913
 10
1.6153979951
 20
-25.4169828121
 10
1.6888102198
 20
-25.4374082346
 10
1.7652981916
 20
-25.4497677893
 10
1.8441769714
 20
-25.4536874685
 10
1.924483261
 20
-25.4489080518
 10
2.0050141455
 20
-25.4354223038
 10
2.0850888051
 20
-25.4133631104
 10
2.1643224484
 20
-25.3828388808
 10
2.2028654951
 20
-25.3647506463
  0
LINE
  5
240
100
AcDbEntity
  8
0
100
AcDbLine
 62
7
  6
CONTINUOUS
 10
1.4947291471
 20
-25.362341741
 11
-13.3978273822
 21
-16.7635662485
  0
LINE
  5
241
100
AcDbEntity
  8
0
100
AcDbLine
 62
253
  6
CONTINUOUS
 10
1.2938141789
 20
-25.0207876679
 11
-13.5952656805
 21
-16.4240195611
  0
LWPOLYLINE
  5
242
100
AcDbEntity
  8
0
100
AcDbPolyline
 62
253
  6
CONTINUOUS
 90
20
 70
0
 10
-13.4059277914
 20
-16.758732354
 10
-13.4215408344
 20
-16.7484844538
 10
-13.4366023117
 20
-16.7373302172
 10
-13.4510960714
 20
-16.7252815854
 10
-13.4650069888
 20
-16.7123512062
 10
-13.4783201755
 20
-16.6985528869
 10
-13.4910213609
 20
-16.6839013616
 10
-13.5030973061
 20
-16.6684120448
 10
-13.514535099
 20
-16.6521014347
 10
-13.5253224643
 20
-16.634986934
 10
-13.5354481428
 20
-16.6170866153
 10
-13.5449013037
 20
-16.598419546
 10
-13.5536718104
 20
-16.5790056051
 10
-13.5617505237
 20
-16.5588652971
 10
-13.5691288135
 20
-16.5380200322
 10
-13.5757987527
 20
-16.5164920093
 10
-13.5817533802
 20
-16.4943040306
 10
-13.5869863805
 20
-16.4714796605
 10
-13.5914920888
 20
-16.4480431993
 10
-13.5952656805
 20
-16.4240195611
  0
LWPOLYLINE
  5
243
100
AcDbEntity
  8
0
100
AcDbPolyline
 62
7
  6
CONTINUOUS
 90
7
 70
0
 10
-13.6312749121
 20
-16.5376514665
 10
-13.5940157043
 20
-16.5911463612
 10
-13.5526525367
 20
-16.6400594042
 10
-13.5078098226
 20
-16.6840021653
 10
-13.4601191383
 20
-16.7227586167
 10
-13.4101195398
 20
-16.7562897315
 10
-13.3972062048
 20
-16.7639236563
  0
LWPOLYLINE
  5
244
100
AcDbEntity
  8
RACCORDO
100
AcDbPolyline
 62
253
  6
CONTINUOUS
 90
3
 70
0
 10
-12.6441800381
 20
18.140635983
 10
-12.6276336536
 20
18.1774034219
 10
-12.6099152293
 20
18.2144205294
  0
LWPOLYLINE
  5
245
100
AcDbEntity
  8
RACCORDO
100
AcDbPolyline
 62
7
  6
CONTINUOUS
 90
3
 70
0
 10
-12.6445460016
 20
18.2392164308
 10
-12.6754586818
 20
18.1728399464
 10
-12.7033648062
 20
18.105190414
  0
LWPOLYLINE
  5
246
100
AcDbEntity
  8
RACCORDO
100
AcDbPolyline
 62
253
  6
CONTINUOUS
 90
4
 70
0
 10
-12.6099152293
 20
18.2144205294
 10
-12.5893447514
 20
18.2532199401
 10
-12.5677052428
 20
18.2916025447
 10
-12.5450335304
 20
18.3294910694
  0
LINE
  5
247
100
AcDbEntity
  8
RACCORDO
100
AcDbLine
 62
7
  6
CONTINUOUS
 10
-12.6106071351
 20
18.3018169527
 11
-12.6445418731
 21
18.2392245968
  0
LINE
  5
248
100
AcDbEntity
  8
0
100
AcDbLine
 62
253
  6
CONTINUOUS
 10
-6.030715335
 20
21.6987561685
 11
-5.5024481633
 21
22.3615684349
  0
LINE
  5
249
100
AcDbEntity
  8
0
100
AcDbLine
 62
7
  6
CONTINUOUS
 10
-6.030715335
 20
21.6222043257
 11
-5.4847481627
 21
22.3072246302
  0
LWPOLYLINE
  5
24A
100
AcDbEntity
  8
0
100
AcDbPolyline
 62
7
  6
CONTINUOUS
 90
37
 70
0
 10
-6.9207755177
 20
21.0736299343
 10
-6.926514201
 20
21.066718807
 10
-6.9324399207
 20
21.0598933506
 10
-6.9385514023
 20
21.0531619996
 10
-6.9448499786
 20
21.0465337508
 10
-6.9513310339
 20
21.040016567
 10
-6.9579840615
 20
21.033617417
 10
-6.9648069461
 20
21.0273449422
 10
-6.9717971484
 20
21.0212076345
 10
-6.9789432651
 20
21.0152123493
 10
-6.9862424494
 20
21.0093677566
 10
-6.9936914672
 20
21.0036823524
 10
-7.0012780757
 20
20.9981628419
 10
-7.0089986711
 20
20.9928178571
 10
-7.0168493066
 20
20.9876558259
 10
-7.0248169664
 20
20.9826832653
 10
-7.0328972908
 20
20.9779086838
 10
-7.0410855777
 20
20.973340385
 10
-7.0493680318
 20
20.968984705
 10
-7.0577395098
 20
20.9648499514
 10
-7.0661945329
 20
20.9609442192
 10
-7.0747185197
 20
20.9572736506
 10
-7.0833055197
 20
20.95384626
 10
-7.0919492492
 20
20.9506698394
 10
-7.1006343174
 20
20.9477503097
 10
-7.1093539398
 20
20.9450952838
 10
-7.1181010041
 20
20.9427121362
 10
-7.1268592858
 20
20.940606507
 10
-7.1356211372
 20
20.9387854794
 10
-7.1443786042
 20
20.9372558694
 10
-7.1531146268
 20
20.9360229317
 10
-7.1618206655
 20
20.9350930655
 10
-7.1704879305
 20
20.9344723581
 10
-7.1790985803
 20
20.9341655181
 10
-7.1876431343
 20
20.9341780775
 10
-7.1961120292
 20
20.9345151952
 10
-7.2029062952
 20
20.9350291337
  0
LINE
  5
24B
100
AcDbEntity
  8
0
100
AcDbLine
 62
7
  6
CONTINUOUS
 10
-4.0508163477
 20
21.0369086614
 11
-5.1053057791
 21
20.4138087356
  0
LINE
  5
24C
100
AcDbEntity
  8
0
100
AcDbLine
 62
7
  6
CONTINUOUS
 10
-4.4397250773
 20
20.0295107801
 11
-3.5920196914
 21
20.5246598209
  0
LINE
  5
24D
100
AcDbEntity
  8
0
100
AcDbLine
 62
7
  6
CONTINUOUS
 10
1.926292832
 20
23.6766554079
 11
-2.6719581244
 21
21.052572306
  0
LINE
  5
24E
100
AcDbEntity
  8
0
100
AcDbLine
 62
7
  6
CONTINUOUS
 10
-1.5340772506
 20
20.3955741505
 11
1.9574397716
 21
22.3880775839
  0
LWPOLYLINE
  5
24F
100
AcDbEntity
  8
0
100
AcDbPolyline
 62
253
  6
CONTINUOUS
 90
15
 70
0
 10
-0.780387624
 20
-22.1709776083
 10
-0.7567350291
 20
-22.1831675963
 10
-0.7323329194
 20
-22.1918888259
 10
-0.70735869
 20
-22.1970467515
 10
-0.6819197051
 20
-22.1985767526
 10
-0.6562918226
 20
-22.1963366731
 10
-0.6308498424
 20
-22.1901403043
 10
-0.6053297749
 20
-22.1795049179
 10
-0.5802743443
 20
-22.1647503887
 10
-0.5569436405
 20
-22.1470550068
 10
-0.5352370718
 20
-22.1264422612
 10
-0.5148850844
 20
-22.1030558969
 10
-0.4965417837
 20
-22.0784355361
 10
-0.4801069418
 20
-22.0529846563
 10
-0.4643940771
 20
-22.0251684778
  0
LWPOLYLINE
  5
250
100
AcDbEntity
  8
0
100
AcDbPolyline
 62
253
  6
CONTINUOUS
 90
31
 70
0
 10
-0.8316691331
 20
-22.3936584492
 10
-0.7937145791
 20
-22.4141325799
 10
-0.7561362923
 20
-22.4306014183
 10
-0.7189333443
 20
-22.4430642911
 10
-0.6817436227
 20
-22.4517129694
 10
-0.6449253573
 20
-22.4563528687
 10
-0.6095571592
 20
-22.4564030786
 10
-0.5755070031
 20
-22.4513346997
 10
-0.5428985894
 20
-22.4416706117
 10
-0.5131955997
 20
-22.4284086482
 10
-0.4869191694
 20
-22.411249843
 10
-0.4635425982
 20
-22.3904891599
 10
-0.4429628905
 20
-22.3680189991
 10
-0.4254020455
 20
-22.3440704917
 10
-0.4106382164
 20
-22.3184126393
 10
-0.3979067363
 20
-22.2922476021
 10
-0.3871698471
 20
-22.2658074001
 10
-0.3784676279
 20
-22.238861702
 10
-0.3711535323
 20
-22.2119201219
 10
-0.3651534967
 20
-22.1850841313
 10
-0.3605439767
 20
-22.1582539899
 10
-0.3569043076
 20
-22.1316375658
 10
-0.3541848166
 20
-22.1052927305
 10
-0.3524372568
 20
-22.0791631133
 10
-0.3513928598
 20
-22.0532850434
 10
-0.3510163314
 20
-22.0276953353
 10
-0.3513445864
 20
-22.0023583412
 10
-0.3522167978
 20
-21.9772014308
 10
-0.3535796485
 20
-21.9522006043
 10
-0.3554875441
 20
-21.9273806449
 10
-0.4014549815
 20
-21.4825012794
  0
LWPOLYLINE
  5
251
100
AcDbEntity
  8
0
100
AcDbPolyline
 62
253
  6
CONTINUOUS
 90
34
 70
0
 10
4.3191399072
 20
-25.221171856
 10
4.3277201101
 20
-25.2258963851
 10
4.3366786334
 20
-25.2303807219
 10
4.3459953291
 20
-25.2346147789
 10
4.35564925
 20
-25.2385890343
 10
4.3656186777
 20
-25.2422945451
 10
4.3758811704
 20
-25.2457229694
 10
4.3864136394
 20
-25.2488665945
 10
4.3971923998
 20
-25.2517183522
 10
4.4081932042
 20
-25.2542718277
 10
4.4193913108
 20
-25.2565212789
 10
4.4307615306
 20
-25.2584616464
 10
4.4422782801
 20
-25.2600885656
 10
4.4539156535
 20
-25.2613983783
 10
4.4656474773
 20
-25.2623881403
 10
4.4774473604
 20
-25.2630556268
 10
4.4892887686
 20
-25.2633993383
 10
4.5011450622
 20
-25.2634185031
 10
4.5129895527
 20
-25.2631130807
 10
4.5247955674
 20
-25.2624837639
 10
4.5365365869
 20
-25.2615319712
 10
4.548186281
 20
-25.2602598375
 10
4.5597185548
 20
-25.2586702049
 10
4.5711073595
 20
-25.2567666564
 10
4.5823268382
 20
-25.2545535218
 10
4.5933516207
 20
-25.2520358318
 10
4.6041570763
 20
-25.2492192378
 10
4.6147191141
 20
-25.2461100294
 10
4.625015508
 20
-25.2427146671
 10
4.6350214888
 20
-25.2390412346
 10
4.6447104295
 20
-25.2350997563
 10
4.6540596498
 20
-25.2309000587
 10
4.6630500264
 20
-25.2264513529
 10
4.6716618668
 20
-25.2217639366
  0
LWPOLYLINE
  5
252
100
AcDbEntity
  8
0
100
AcDbPolyline
 62
253
  6
CONTINUOUS
 90
34
 70
0
 10
4.3191399072
 20
-24.9006516831
 10
4.3277165599
 20
-24.9053743482
 10
4.3366718678
 20
-24.9098573213
 10
4.3459857801
 20
-24.9140904741
 10
4.3556376641
 20
-24.918064327
 10
4.365605672
 20
-24.921769786
 10
4.3758667169
 20
-24.9251982283
 10
4.3863974653
 20
-24.9283418711
 10
4.3971744832
 20
-24.9311937323
 10
4.4081735613
 20
-24.9337474044
 10
4.4193699867
 20
-24.9359971466
 10
4.4307385653
 20
-24.9379378934
 10
4.4422537012
 20
-24.9395652745
 10
4.4538894869
 20
-24.9408756298
 10
4.4656197702
 20
-24.9418660153
 10
4.4774181803
 20
-24.9425342049
 10
4.4892581881
 20
-24.9428786961
 10
4.5011131677
 20
-24.9428987143
 10
4.5129564632
 20
-24.9425942144
 10
4.5247614435
 20
-24.941965881
 10
4.5365015625
 20
-24.9410151269
 10
4.5481504206
 20
-24.93974409
 10
4.5596818218
 20
-24.9381556284
 10
4.5710698374
 20
-24.936253314
 10
4.5822888641
 20
-24.9340414232
 10
4.5933136838
 20
-24.9315249268
 10
4.6041194946
 20
-24.9287094852
 10
4.6146819725
 20
-24.9256014365
 10
4.6249773532
 20
-24.9222077762
 10
4.6349825024
 20
-24.9185361329
 10
4.644674941
 20
-24.9145947569
 10
4.6540328794
 20
-24.9103925084
 10
4.6630352691
 20
-24.9059388391
 10
4.6716618668
 20
-24.9012437638
  0
LINE
  5
253
100
AcDbEntity
  8
0
100
AcDbLine
 62
253
  6
CONTINUOUS
 10
-11.8625349196
 20
-16.0245747933
 11
-0.8316691331
 21
-22.3936584492
  0
LINE
  5
254
100
AcDbEntity
  8
0
100
AcDbLine
 62
7
  6
CONTINUOUS
 10
3.393902619
 20
-24.7714939295
 11
4.3709105624
 21
-25.3356060712
  0
LINE
  5
255
100
AcDbEntity
  8
0
100
AcDbLine
 62
253
  6
CONTINUOUS
 10
3.4725110459
 20
-24.7323389622
 11
4.3191399072
 21
-25.221171856
  0
LINE
  5
256
100
AcDbEntity
  8
0
100
AcDbLine
 62
253
  6
CONTINUOUS
 10
-11.8112534105
 20
-15.8018939524
 11
-0.780387624
 21
-22.1709776083
  0
LINE
  5
257
100
AcDbEntity
  8
0
100
AcDbLine
 62
253
  6
CONTINUOUS
 10
4.3191399072
 20
-24.9006516831
 11
3.770533818
 21
-24.5838934029
  0
LINE
  5
258
100
AcDbEntity
  8
0
100
AcDbLine
 62
253
  6
CONTINUOUS
 10
4.4075282548
 20
-24.6728463587
 11
4.0298016336
 21
-24.4547517416
  0
LWPOLYLINE
  5
259
100
AcDbEntity
  8
0
100
AcDbPolyline
 62
253
  6
CONTINUOUS
 90
9
 70
0
 10
-17.1881058196
 20
-4.1262081154
 10
-17.1880776218
 20
-4.1542193472
 10
-17.1823743982
 20
-4.1803462917
 10
-17.1712918168
 20
-4.2065066702
 10
-17.1549513006
 20
-4.2324138641
 10
-17.1335318798
 20
-4.2577840289
 10
-17.1072682299
 20
-4.2823392036
 10
-17.0764481011
 20
-4.3058103566
 10
-17.0414091651
 20
-4.3279403331
  0
LWPOLYLINE
  5
25A
100
AcDbEntity
  8
0
100
AcDbPolyline
 62
253
  6
CONTINUOUS
 90
37
 70
0
 10
-17.0414091651
 20
-4.3279403331
 10
-16.9995071649
 20
-3.9863853333
 10
-16.9532537363
 20
-3.6499313251
 10
-16.9029966858
 20
-3.3188281401
 10
-16.8492959767
 20
-2.9945818806
 10
-16.7923002073
 20
-2.6761451047
 10
-16.7315681347
 20
-2.3598620254
 10
-16.6670688359
 20
-2.0449614334
 10
-16.5991309899
 20
-1.7324838682
 10
-16.5276452321
 20
-1.4214202682
 10
-16.4527075068
 20
-1.1118120622
 10
-16.3744472343
 20
-0.8038405632
 10
-16.2927247318
 20
-0.4966830103
 10
-16.2076223609
 20
-0.1904513463
 10
-16.1192143674
 20
0.114775211
 10
-16.0272787344
 20
0.4198824327
 10
-15.9318505095
 20
0.7248099681
 10
-15.8329819557
 20
1.0294445632
 10
-15.7304108671
 20
1.3345992181
 10
-15.6241412155
 20
1.6402190277
 10
-15.5141987424
 20
1.9461882571
 10
-15.4002961233
 20
2.2532283013
 10
-15.2824195609
 20
2.5612616302
 10
-15.1605656088
 20
2.870185514
 10
-15.0344107052
 20
3.1806770535
 10
-14.9039126216
 20
3.4926650649
 10
-14.7690543323
 20
3.8060187811
 10
-14.6295037702
 20
4.1213138195
 10
-14.4853569769
 20
4.4381252994
 10
-14.3364336621
 20
4.7566450825
 10
-14.181913941
 20
5.0783474805
 10
-14.0223791607
 20
5.4017367543
 10
-13.8570964116
 20
5.7280163939
 10
-13.6830352614
 20
6.0626101002
 10
-13.4989188203
 20
6.4071116854
 10
-13.3054362909
 20
6.7593634411
 10
-13.1023210364
 20
7.1190520879
  0
LWPOLYLINE
  5
25B
100
AcDbEntity
  8
RACCORDO
100
AcDbPolyline
 62
253
  6
CONTINUOUS
 90
9
 70
0
 10
-12.7356677363
 20
17.8663230752
 10
-12.728100684
 20
17.8975219643
 10
-12.7194854765
 20
17.9298305384
 10
-12.7097607065
 20
17.9632099197
 10
-12.6989391908
 20
17.9974051185
 10
-12.6869786228
 20
18.0323707447
 10
-12.6738373587
 20
18.0680562844
 10
-12.6595667424
 20
18.1041889495
 10
-12.6441800381
 20
18.140635983
  0
LWPOLYLINE
  5
25C
100
AcDbEntity
  8
RACCORDO
100
AcDbPolyline
 62
7
  6
CONTINUOUS
 90
5
 70
0
 10
-12.7033648062
 20
18.105190414
 10
-12.7279254913
 20
18.0369497718
 10
-12.7489747286
 20
17.9684864948
 10
-12.7663563525
 20
17.9001872106
 10
-12.7799420894
 20
17.8324049488
  0
LINE
  5
25D
100
AcDbEntity
  8
0
100
AcDbLine
 62
7
  6
CONTINUOUS
 10
-5.4672012607
 20
22.3322360535
 11
-5.4847356946
 21
22.3072403019
  0
LINE
  5
25E
100
AcDbEntity
  8
0
100
AcDbLine
 62
7
  6
CONTINUOUS
 10
-3.7326182962
 20
19.1171633612
 11
-4.4397250773
 21
18.6660993738
  0
LINE
  5
25F
100
AcDbEntity
  8
0
100
AcDbLine
 62
7
  6
CONTINUOUS
 10
-1.823429987
 20
18.1866896753
 11
-1.6112979526
 21
18.3220088716
  0
LINE
  5
260
100
AcDbEntity
  8
DRAFT
100
AcDbLine
 62
7
  6
CONTINUOUS
 10
-5.429674571
 20
17.6049405011
 11
-6.2210688846
 21
17.1166092205
  0
LINE
  5
261
100
AcDbEntity
  8
0
100
AcDbLine
 62
253
  6
CONTINUOUS
 10
-1.9656740947
 20
19.5856282562
 11
-1.7527193088
 21
19.7100162331
  0
LINE
  5
262
100
AcDbEntity
  8
0
100
AcDbLine
 62
253
  6
CONTINUOUS
 10
-1.823429987
 20
19.341157092
 11
-1.6112979526
 21
19.4650644956
  0
LINE
  5
263
100
AcDbEntity
  8
0
100
AcDbLine
 62
7
  6
CONTINUOUS
 10
-0.1559566063
 20
18.7398969489
 11
-0.3686687008
 21
18.6156507292
  0
LINE
  5
264
100
AcDbEntity
  8
0
100
AcDbLine
 62
253
  6
CONTINUOUS
 10
-0.055663034
 20
18.7301572091
 11
-0.2686178198
 21
18.6057692323
  0
LINE
  5
265
100
AcDbEntity
  8
0
100
AcDbLine
 62
7
  6
CONTINUOUS
 10
-0.9041911714
 20
19.7918526444
 11
3.7112859363
 21
22.4567712809
  0
LINE
  5
266
100
AcDbEntity
  8
0
100
AcDbLine
 62
7
  6
CONTINUOUS
 10
-0.1553748998
 20
18.7402328075
 11
-0.1559566018
 21
18.7398969515
  0
LINE
  5
267
100
AcDbEntity
  8
0
100
AcDbLine
 62
7
  6
CONTINUOUS
 10
-1.6112979526
 20
18.3220088716
 11
-0.9041911714
 21
18.7260083975
  0
LINE
  5
268
100
AcDbEntity
  8
0
100
AcDbLine
 62
7
  6
CONTINUOUS
 10
4.7567768354
 20
23.5796752457
 11
-1.18052386
 21
20.1914368538
  0
LINE
  5
269
100
AcDbEntity
  8
0
100
AcDbLine
 62
253
  6
CONTINUOUS
 10
-1.7527193088
 20
19.7100162331
 11
-1.0456125276
 21
20.1135407413
  0
LINE
  5
26A
100
AcDbEntity
  8
0
100
AcDbLine
 62
253
  6
CONTINUOUS
 10
-1.6112979526
 20
19.4650644956
 11
-0.9041911714
 21
19.8685890038
  0
LINE
  5
26B
100
AcDbEntity
  8
0
100
AcDbLine
 62
7
  6
CONTINUOUS
 10
0.5517318859
 20
19.1437573183
 11
-0.1553748953
 21
18.7402328101
  0
LINE
  5
26C
100
AcDbEntity
  8
0
100
AcDbLine
 62
253
  6
CONTINUOUS
 10
0.6514437472
 20
19.1336817173
 11
-0.055663034
 21
18.7301572091
  0
LINE
  5
26D
100
AcDbEntity
  8
SMUSSO
100
AcDbLine
 62
7
  6
CONTINUOUS
 10
-5.429674571
 20
16.8523071364
 11
-5.6024210106
 21
16.7594096915
  0
LWPOLYLINE
  5
26E
100
AcDbEntity
  8
0
100
AcDbPolyline
 62
7
  6
CONTINUOUS
 90
3
 70
0
 10
6.9071872399
 20
20.8349197221
 10
6.9180930425
 20
20.8396554214
 10
6.9293735679
 20
20.8437967949
  0
LWPOLYLINE
  5
26F
100
AcDbEntity
  8
0
100
AcDbPolyline
 62
7
  6
CONTINUOUS
 90
8
 70
0
 10
6.9293735679
 20
20.8437967949
 10
6.9410185894
 20
20.8473356196
 10
6.9530102063
 20
20.8502656038
 10
6.9653438258
 20
20.8525773449
 10
6.9780299582
 20
20.8542569364
 10
6.9910491844
 20
20.8552972785
 10
7.0043979901
 20
20.855688232
 10
7.0181142709
 20
20.8554073851
  0
LWPOLYLINE
  5
270
100
AcDbEntity
  8
0
100
AcDbPolyline
 62
253
  6
CONTINUOUS
 90
7
 70
0
 10
6.7481805753
 20
-23.3606851821
 10
6.742821064
 20
-23.3578670088
 10
6.7370203781
 20
-23.3553438481
 10
6.7310054529
 20
-23.3532440861
 10
6.724788688
 20
-23.3515714455
 10
6.7183814255
 20
-23.350328392
 10
6.711796034
 20
-23.3495168385
  0
LINE
  5
271
100
AcDbEntity
  8
0
100
AcDbLine
 62
253
  6
CONTINUOUS
 10
6.7484137264
 20
-23.3608192993
 11
6.7481805753
 21
-23.3606851821
  0
LINE
  5
272
100
AcDbEntity
  8
0
100
AcDbLine
 62
253
  6
CONTINUOUS
 10
6.4973165876
 20
-23.2256790942
 11
6.711796034
 21
-23.3495168385
  0
LINE
  5
273
100
AcDbEntity
  8
0
100
AcDbLine
 62
7
  6
CONTINUOUS
 10
6.5064660415
 20
-23.2211217384
 11
6.7484137264
 21
-23.3608192993
  0
LINE
  5
274
100
AcDbEntity
  8
0
100
AcDbLine
 62
253
  6
CONTINUOUS
 10
6.7201286264
 20
-23.3546247533
 11
6.711796034
 21
-23.3495168385
  0
LWPOLYLINE
  5
275
100
AcDbEntity
  8
0
100
AcDbPolyline
 62
7
  6
CONTINUOUS
 90
30
 70
0
 10
-10.769164637
 20
-13.5336387586
 10
-10.7208583837
 20
-13.58363911
 10
-10.6670809451
 20
-13.6363073816
 10
-10.6078323212
 20
-13.6916435733
 10
-10.5425810231
 20
-13.7501070962
 10
-10.4718585398
 20
-13.8112385393
 10
-10.3972593379
 20
-13.8736596696
 10
-10.3186953535
 20
-13.9373997839
 10
-10.2362546506
 20
-14.0024295854
 10
-10.1517958878
 20
-14.0672829512
 10
-10.0652732228
 20
-14.1319558734
 10
-9.976732498
 20
-14.1964523599
 10
-9.8881698996
 20
-14.2593183116
 10
-9.7995849306
 20
-14.3205166889
 10
-9.710978088
 20
-14.3800845314
 10
-9.6243470485
 20
-14.4366788581
 10
-9.5397366948
 20
-14.4902321224
 10
-9.4571021443
 20
-14.5408118708
 10
-9.378306426
 20
-14.5872777628
 10
-9.3034367433
 20
-14.6295363474
 10
-9.2324058929
 20
-14.6676810756
 10
-9.1668152938
 20
-14.7008519591
 10
-9.1067885273
 20
-14.7289360114
 10
-9.0522020121
 20
-14.7520462191
 10
-9.0042864231
 20
-14.7696615532
 10
-8.9631932977
 20
-14.7816571915
 10
-8.9287710986
 20
-14.7881579563
 10
-8.9017958878
 20
-14.789017285
 10
-8.8824368322
 20
-14.7841070264
 10
-8.8717106166
 20
-14.7753311462
  0
LWPOLYLINE
  5
276
100
AcDbEntity
  8
0
100
AcDbPolyline
 62
7
  6
CONTINUOUS
 90
30
 70
0
 10
-9.0013976841
 20
-14.5543252419
 10
-9.0497039374
 20
-14.5043248905
 10
-9.103481376
 20
-14.4516566189
 10
-9.1627299999
 20
-14.3963204272
 10
-9.227981298
 20
-14.3378569043
 10
-9.2987037813
 20
-14.2767254612
 10
-9.3733029832
 20
-14.2143043309
 10
-9.4518669676
 20
-14.1505642166
 10
-9.5343076706
 20
-14.0855344151
 10
-9.6187664333
 20
-14.0206810493
 10
-9.7052890983
 20
-13.9560081271
 10
-9.7938298231
 20
-13.8915116406
 10
-9.8823924216
 20
-13.8286456889
 10
-9.9709773905
 20
-13.7674473116
 10
-10.0595842332
 20
-13.7078794691
 10
-10.1462152726
 20
-13.6512851424
 10
-10.2308256263
 20
-13.5977318781
 10
-10.3134601769
 20
-13.5471521297
 10
-10.3922558952
 20
-13.5006862377
 10
-10.4671255778
 20
-13.458427653
 10
-10.5381564282
 20
-13.4202829249
 10
-10.6037470273
 20
-13.3871120414
 10
-10.6637737938
 20
-13.359027989
 10
-10.718360309
 20
-13.3359177814
 10
-10.766275898
 20
-13.3183024473
 10
-10.8073690234
 20
-13.306306809
 10
-10.8417912226
 20
-13.2998060442
 10
-10.8687664333
 20
-13.2989467154
 10
-10.8881254889
 20
-13.3038569741
 10
-10.8988517045
 20
-13.3126328543
  0
LWPOLYLINE
  5
277
100
AcDbEntity
  8
ASSI
100
AcDbPolyline
 62
7
  6
CONTINUOUS
 90
33
 70
0
 10
-11.8298248088
 20
-12.9212268686
 10
-11.7324848846
 20
-13.0222570515
 10
-11.6246767865
 20
-13.1284795293
 10
-11.5064005146
 20
-13.2398943021
 10
-11.376757121
 20
-13.3572878738
 10
-11.2366455535
 20
-13.4798737404
 10
-11.0887626561
 20
-13.6052923899
 10
-10.9329578815
 20
-13.7335986992
 10
-10.7693817769
 20
-13.8647377914
 10
-10.6011828275
 20
-13.9961855232
 10
-10.4282714791
 20
-14.1279478739
 10
-10.250737286
 20
-14.2600188642
 10
-10.0719973963
 20
-14.3898564141
 10
-9.8920284531
 20
-14.5174172571
 10
-9.7108538134
 20
-14.6427446598
 10
-9.5319606961
 20
-14.7634263413
 10
-9.355393299
 20
-14.8793723042
 10
-9.1811074243
 20
-14.990672546
 10
-9.012457697
 20
-15.0951847784
 10
-8.8495533013
 20
-15.1927775033
 10
-8.6922850531
 20
-15.2835822187
 10
-8.5436800251
 20
-15.365851131
 10
-8.4039060421
 20
-15.4394188834
 10
-8.2727952793
 20
-15.5044508326
 10
-8.1528713346
 20
-15.5596952545
 10
-8.0443509202
 20
-15.6049625441
 10
-7.9470173239
 20
-15.6404423065
 10
-7.8627440061
 20
-15.6654516331
 10
-7.7917839724
 20
-15.6797876895
 10
-7.7338842173
 20
-15.6836533102
 10
-7.6901591855
 20
-15.6769740905
 10
-7.6608834716
 20
-15.6595457542
 10
-7.6553788245
 20
-15.6529841847
  0
LWPOLYLINE
  5
278
100
AcDbEntity
  8
ASSI
100
AcDbPolyline
 62
7
  6
CONTINUOUS
 90
33
 70
0
 10
-7.9407375123
 20
-15.1667371319
 10
-8.0380774366
 20
-15.065706949
 10
-8.1458855346
 20
-14.9594844711
 10
-8.2641618065
 20
-14.8480696984
 10
-8.3938052001
 20
-14.7306761267
 10
-8.5339167676
 20
-14.6080902601
 10
-8.681799665
 20
-14.4826716106
 10
-8.8376044396
 20
-14.3543653013
 10
-9.0011805443
 20
-14.2232262091
 10
-9.1693794936
 20
-14.0917784772
 10
-9.342290842
 20
-13.9600161266
 10
-9.5198250352
 20
-13.8279451363
 10
-9.6985649249
 20
-13.6981075864
 10
-9.878533868
 20
-13.5705467433
 10
-10.0597085077
 20
-13.4452193407
 10
-10.2386016251
 20
-13.3245376592
 10
-10.4151690221
 20
-13.2085916963
 10
-10.5894548969
 20
-13.0972914545
 10
-10.7581046241
 20
-12.9927792221
 10
-10.9210090198
 20
-12.8951864972
 10
-11.078277268
 20
-12.8043817817
 10
-11.2268822961
 20
-12.7221128695
 10
-11.366656279
 20
-12.6485451171
 10
-11.4977670418
 20
-12.5835131679
 10
-11.6176909865
 20
-12.528268746
 10
-11.7262114009
 20
-12.4830014564
 10
-11.8235449973
 20
-12.447521694
 10
-11.907818315
 20
-12.4225123674
 10
-11.9787783488
 20
-12.408176311
 10
-12.0366781039
 20
-12.4043106902
 10
-12.0804031356
 20
-12.41098991
 10
-12.1096788496
 20
-12.4284182463
 10
-12.1151834967
 20
-12.4349798157
  0
LWPOLYLINE
  5
279
100
AcDbEntity
  8
0
100
AcDbPolyline
 62
7
  6
CONTINUOUS
 90
10
 70
0
 10
-16.9361330457
 20
-5.038182794
 10
-16.995342703
 20
-4.9675976332
 10
-17.0486920899
 20
-4.8884091943
 10
-17.0952595267
 20
-4.8007463449
 10
-17.1343468808
 20
-4.704275341
 10
-17.164825332
 20
-4.5997807359
 10
-17.1856981293
 20
-4.4892202615
 10
-17.1966745307
 20
-4.3734778744
 10
-17.1975868969
 20
-4.2523578398
 10
-17.1881058196
 20
-4.1262081154
  0
LINE
  5
27A
100
AcDbEntity
  8
0
100
AcDbLine
 62
253
  6
CONTINUOUS
 10
-16.8601853932
 20
-5.098433642
 11
-16.907946956
 21
-5.0397947291
  0
LWPOLYLINE
  5
27B
100
AcDbEntity
  8
0
100
AcDbPolyline
 62
253
  6
CONTINUOUS
 90
3
 70
0
 10
-16.907946956
 20
-5.0397947291
 10
-16.9493074452
 20
-4.9731563781
 10
-16.983978021
 20
-4.898983956
  0
LWPOLYLINE
  5
27C
100
AcDbEntity
  8
0
100
AcDbPolyline
 62
253
  6
CONTINUOUS
 90
7
 70
0
 10
-16.983978021
 20
-4.898983956
 10
-17.0117165624
 20
-4.8177954435
 10
-17.0323293579
 20
-4.7301578182
 10
-17.0456724587
 20
-4.6366830954
 10
-17.0516526836
 20
-4.5380240531
 10
-17.05022827
 20
-4.4348696738
 10
-17.0414091651
 20
-4.3279403331
  0
LWPOLYLINE
  5
27D
100
AcDbEntity
  8
0
100
AcDbPolyline
 62
7
  6
CONTINUOUS
 90
6
 70
0
 10
-13.7408503265
 20
-16.2305087284
 10
-13.7314660102
 20
-16.2849782931
 10
-13.7144206351
 20
-16.3529202412
 10
-13.691892889
 20
-16.4179904846
 10
-13.6640437146
 20
-16.4797942544
 10
-13.6312749121
 20
-16.5376514665
  0
LWPOLYLINE
  5
27E
100
AcDbEntity
  8
0
100
AcDbPolyline
 62
7
  6
CONTINUOUS
 90
10
 70
0
 10
-14.4146462497
 20
-7.7403156581
 10
-14.4073220653
 20
-8.0683912043
 10
-14.3702878422
 20
-9.1298811303
 10
-14.319651781
 20
-10.1825960493
 10
-14.2554222623
 20
-11.2263114559
 10
-14.1776100143
 20
-12.260808788
 10
-14.0862281862
 20
-13.285870558
 10
-13.9812922257
 20
-14.301281863
 10
-13.8628205698
 20
-15.306825136
 10
-13.7409045562
 20
-16.230122601
  0
LWPOLYLINE
  5
27F
100
AcDbEntity
  8
0
100
AcDbPolyline
 62
253
  6
CONTINUOUS
 90
20
 70
0
 10
-14.4296113649
 20
8.4435022884
 10
-14.4296124704
 20
8.4384396024
 10
-14.4289569792
 20
8.4262243248
 10
-14.4273720732
 20
8.4140263059
 10
-14.4248607026
 20
8.4018682522
 10
-14.4214275424
 20
8.3897727961
 10
-14.4170789835
 20
8.3777624533
 10
-14.4118231207
 20
8.3658595812
 10
-14.4056697378
 20
8.3540863369
 10
-14.3986302894
 20
8.3424646364
 10
-14.3907178794
 20
8.3310161136
 10
-14.3819472368
 20
8.31976208
 10
-14.3723346882
 20
8.308723485
 10
-14.3618981275
 20
8.2979208769
 10
-14.3506569823
 20
8.2873743649
 10
-14.338632178
 20
8.2771035814
 10
-14.325846099
 20
8.2671276454
 10
-14.3123225465
 20
8.2574651273
 10
-14.2980866946
 20
8.2481340139
 10
-14.2831650436
 20
8.239151675
  0
LWPOLYLINE
  5
280
100
AcDbEntity
  8
0
100
AcDbPolyline
 62
253
  6
CONTINUOUS
 90
4
 70
0
 10
-14.3214483735
 20
5.2656848327
 10
-14.3180041701
 20
5.6329017145
 10
-14.3023266802
 20
6.9350045739
 10
-14.2831650453
 20
8.239151674
  0
LWPOLYLINE
  5
281
100
AcDbEntity
  8
0
100
AcDbPolyline
 62
7
  6
CONTINUOUS
 90
3
 70
0
 10
-14.4296113621
 20
8.443502559
 10
-14.4536838238
 20
6.7610526452
 10
-14.4730001163
 20
4.9561142121
  0
LWPOLYLINE
  5
282
100
AcDbEntity
  8
0
100
AcDbPolyline
 62
253
  6
CONTINUOUS
 90
16
 70
0
 10
-14.2831650453
 20
8.239151674
 10
-14.2704416651
 20
8.8867399315
 10
-14.252974025
 20
9.5370096697
 10
-14.2307634733
 20
10.1899115509
 10
-14.2038117686
 20
10.8453960405
 10
-14.1721209486
 20
11.503413413
 10
-14.1356933285
 20
12.1639137571
 10
-14.0945317354
 20
12.8268470317
 10
-14.0486393295
 20
13.4921628998
 10
-13.9980194735
 20
14.1598107355
 10
-13.9426760993
 20
14.8297398718
 10
-13.8826134578
 20
15.5018995441
 10
-13.8178359379
 20
16.1762387249
 10
-13.7483484569
 20
16.8527062667
 10
-13.6741564619
 20
17.531250905
 10
-13.5952656805
 20
18.2118212008
  0
LWPOLYLINE
  5
283
100
AcDbEntity
  8
RACCORDO
100
AcDbPolyline
 62
253
  6
CONTINUOUS
 90
10
 70
0
 10
-13.1971523151
 20
13.2268105737
 10
-13.1589272372
 20
13.7222825255
 10
-13.1181045624
 20
14.2190074271
 10
-13.0746860239
 20
14.7169645626
 10
-13.0286735013
 20
15.2161331867
 10
-12.9800689122
 20
15.7164924631
 10
-12.9288742127
 20
16.2180214649
 10
-12.8750915407
 20
16.7206992596
 10
-12.818723216
 20
17.224504909
 10
-12.7597716322
 20
17.7294174085
  0
LWPOLYLINE
  5
284
100
AcDbEntity
  8
RACCORDO
100
AcDbPolyline
 62
253
  6
CONTINUOUS
 90
10
 70
0
 10
-13.4669737018
 20
13.376901859
 10
-13.4273684873
 20
13.8722299162
 10
-13.3850685267
 20
14.3687389211
 10
-13.3400759145
 20
14.8664079152
 10
-13.2923942751
 20
15.3652010567
 10
-13.2420246612
 20
15.8651120683
 10
-13.1889647693
 20
16.3661645819
 10
-13.1332147749
 20
16.868352704
 10
-13.0747781175
 20
17.3716406736
 10
-13.0136568495
 20
17.876007551
  0
LWPOLYLINE
  5
285
100
AcDbEntity
  8
0
100
AcDbPolyline
 62
253
  6
CONTINUOUS
 90
21
 70
0
 10
-13.7421842631
 20
18.4116944594
 10
-13.742769587
 20
18.405030297
 10
-13.742922665
 20
18.3945599841
 10
-13.7421498673
 20
18.3840119165
 10
-13.740452633
 20
18.3734057343
 10
-13.7378341223
 20
18.3627611859
 10
-13.7342992106
 20
18.352098091
 10
-13.7298544799
 20
18.3414363039
 10
-13.7245082061
 20
18.3307956766
 10
-13.7182703438
 20
18.3201960214
 10
-13.7111525077
 20
18.3096570745
 10
-13.7031679508
 20
18.2991984591
 10
-13.6943315402
 20
18.2888396488
 10
-13.684659729
 20
18.2785999312
 10
-13.6741705256
 20
18.2684983724
 10
-13.6628834607
 20
18.2585537811
 10
-13.6508195504
 20
18.2487846738
 10
-13.6380012571
 20
18.2392092402
 10
-13.6244524481
 20
18.2298453094
 10
-13.6101983509
 20
18.2207103167
 10
-13.595265506
 20
18.2118212712
  0
LWPOLYLINE
  5
286
100
AcDbEntity
  8
0
100
AcDbPolyline
 62
7
  6
CONTINUOUS
 90
10
 70
0
 10
-13.7421516031
 20
18.4119725077
 10
-13.8645247696
 20
17.3385536906
 10
-13.9826521183
 20
16.1938983653
 10
-14.0872966596
 20
15.0552828008
 10
-14.1784341175
 20
13.9229494789
 10
-14.2560430809
 20
12.7971365203
 10
-14.3201044553
 20
11.6780829874
 10
-14.3706017746
 20
10.5660242665
 10
-14.4075209914
 20
9.4611977803
 10
-14.4296113649
 20
8.4435022884
  0
LWPOLYLINE
  5
287
100
AcDbEntity
  8
RACCORDO
100
AcDbPolyline
 62
7
  6
CONTINUOUS
 90
10
 70
0
 10
-12.7891488179
 20
17.7694476457
 10
-12.84249963
 20
17.3134138516
 10
-12.9007256221
 20
16.7948513595
 10
-12.956213576
 20
16.2774773149
 10
-13.0089605909
 20
15.7613176309
 10
-13.0589644784
 20
15.2463938095
 10
-13.1062232688
 20
14.7327256694
 10
-13.15073489
 20
14.2203346381
 10
-13.1924971519
 20
13.7092462854
 10
-13.2264603783
 20
13.2674456871
  0
LWPOLYLINE
  5
288
100
AcDbEntity
  8
RACCORDO
100
AcDbPolyline
 62
253
  6
CONTINUOUS
 90
4
 70
0
 10
-12.7597716322
 20
17.7294174085
 10
-12.7565588317
 20
17.7541153544
 10
-12.752620041
 20
17.780140491
 10
-12.7478812193
 20
17.8074973657
  0
LWPOLYLINE
  5
289
100
AcDbEntity
  8
0
100
AcDbPolyline
 62
253
  6
CONTINUOUS
 90
43
 70
0
 10
-13.5952656805
 20
18.2118212008
 10
-13.5914920178
 20
18.2402798914
 10
-13.5869862531
 20
18.2690112758
 10
-13.5817532288
 20
18.2979848617
 10
-13.5757986584
 20
18.327169799
 10
-13.5691288507
 20
18.3565352276
 10
-13.5617506678
 20
18.386050318
 10
-13.5536719514
 20
18.4156840166
 10
-13.5449013755
 20
18.4454046557
 10
-13.535448164
 20
18.4751803046
 10
-13.5253225106
 20
18.5049792771
 10
-13.5145352092
 20
18.5347700994
 10
-13.5030974759
 20
18.5645211261
 10
-13.491021569
 20
18.5942008579
 10
-13.4783204121
 20
18.6237778075
 10
-13.4650072351
 20
18.6532204652
 10
-13.451096293
 20
18.6824976816
 10
-13.4366024834
 20
18.7115783907
 10
-13.421540963
 20
18.7404314761
 10
-13.4059279013
 20
18.7690263523
 10
-13.3897799907
 20
18.7973327617
 10
-13.3731140611
 20
18.8253204964
 10
-13.3559479779
 20
18.8529599321
 10
-13.3383001163
 20
18.8802217973
 10
-13.3201888711
 20
18.9070769706
 10
-13.3016336316
 20
18.9334970662
 10
-13.2826542835
 20
18.9594540823
 10
-13.2632706824
 20
18.984920172
 10
-13.2435036337
 20
19.0098683689
 10
-13.2233742784
 20
19.0342723137
 10
-13.2029035933
 20
19.0581059002
 10
-13.18211353
 20
19.0813439158
 10
-13.1610263407
 20
19.1039618041
 10
-13.1396639619
 20
19.1259353858
 10
-13.1180491942
 20
19.1472415288
 10
-13.0962052734
 20
19.1678576123
 10
-13.0741551974
 20
19.1877613025
 10
-13.0519227806
 20
19.2069314359
 10
-13.0295316607
 20
19.2253479569
 10
-13.0070048627
 20
19.2429913497
 10
-12.9843661946
 20
19.2598429416
 10
-12.9616402294
 20
19.275884962
 10
-12.9388513136
 20
19.2911004732
  0
LWPOLYLINE
  5
28A
100
AcDbEntity
  8
RACCORDO
100
AcDbPolyline
 62
253
  6
CONTINUOUS
 90
8
 70
0
 10
-13.0163262062
 20
12.4932162047
 10
-13.0124971653
 20
12.5218541262
 10
-13.0049768409
 20
12.5515445554
 10
-12.9939677148
 20
12.5814880949
 10
-12.9797662029
 20
12.6108785323
 10
-12.9627546733
 20
12.6389245492
 10
-12.9433911512
 20
12.6648710258
 10
-12.9322227916
 20
12.67706915
  0
LINE
  5
28B
100
AcDbEntity
  8
RACCORDO
100
AcDbLine
 62
7
  6
CONTINUOUS
 10
-12.7799420894
 20
17.8324049488
 11
-12.7891528383
 21
17.7694130115
  0
LWPOLYLINE
  5
28C
100
AcDbEntity
  8
RACCORDO
100
AcDbPolyline
 62
253
  6
CONTINUOUS
 90
19
 70
0
 10
-13.0136568495
 20
17.876007551
 10
-13.0035122293
 20
17.9425394422
 10
-12.9893470646
 20
18.0102936159
 10
-12.9712393494
 20
18.0788801528
 10
-12.9492994175
 20
18.1478686256
 10
-12.9236433637
 20
18.2168959338
 10
-12.8943746692
 20
18.285667884
 10
-12.8616061144
 20
18.3538531314
 10
-12.8255384742
 20
18.4209779734
 10
-12.7864383393
 20
18.4865411763
 10
-12.7445292036
 20
18.5501582985
 10
-12.7000526741
 20
18.6114569904
 10
-12.6533537997
 20
18.6699897006
 10
-12.6047599835
 20
18.7253734822
 10
-12.554511686
 20
18.7773619468
 10
-12.5028422563
 20
18.8257410603
 10
-12.4500256744
 20
18.8702546573
 10
-12.3963819987
 20
18.9106217618
 10
-12.3422162587
 20
18.9466108701
  0
LWPOLYLINE
  5
28D
100
AcDbEntity
  8
0
100
AcDbPolyline
 62
253
  6
CONTINUOUS
 90
8
 70
0
 10
-13.5976586031
 20
6.9223832305
 10
-13.6041045918
 20
6.8849669135
 10
-13.6094033246
 20
6.8482294147
 10
-13.6134781682
 20
6.8120893622
 10
-13.6166772115
 20
6.7764370966
 10
-13.619116602
 20
6.7412359991
 10
-13.6206806283
 20
6.7065224455
 10
-13.6213695078
 20
6.6722963147
  0
LWPOLYLINE
  5
28E
100
AcDbEntity
  8
RACCORDO
100
AcDbPolyline
 62
253
  6
CONTINUOUS
 90
3
 70
0
 10
-12.7478812193
 20
17.8074973657
 10
-12.7422525071
 20
17.8362475492
 10
-12.7356677363
 20
17.8663230752
  0
LWPOLYLINE
  5
28F
100
AcDbEntity
  8
0
100
AcDbPolyline
 62
253
  6
CONTINUOUS
 90
27
 70
0
 10
-7.6319961258
 20
21.1391199472
 10
-7.6364126132
 20
21.1284398219
 10
-7.6412162155
 20
21.1180127606
 10
-7.6463963597
 20
21.1078624444
 10
-7.6519420363
 20
21.0980112367
 10
-7.6578406004
 20
21.0884823388
 10
-7.6640775421
 20
21.0792994888
 10
-7.6706382386
 20
21.0704841134
 10
-7.6775083738
 20
21.0620553514
 10
-7.6846725888
 20
21.0540320691
 10
-7.6921148322
 20
21.0464323015
 10
-7.6998182272
 20
21.0392733394
 10
-7.7077652384
 20
21.0325714996
 10
-7.7159378655
 20
21.0263419545
 10
-7.7243177185
 20
21.0205987147
 10
-7.7328859007
 20
21.0153547332
 10
-7.741623085
 20
21.0106218442
 10
-7.7505095379
 20
21.0064107423
 10
-7.7595251809
 20
21.0027309443
 10
-7.7686496564
 20
20.9995907587
 10
-7.777862374
 20
20.996997271
 10
-7.7871425381
 20
20.9949563353
 10
-7.7964692008
 20
20.9934725588
 10
-7.8058213086
 20
20.9925492909
 10
-7.8151777506
 20
20.9921886158
 10
-7.8245174174
 20
20.9923913482
 10
-7.830663637
 20
20.9928337529
  0
LWPOLYLINE
  5
290
100
AcDbEntity
  8
0
100
AcDbPolyline
 62
7
  6
CONTINUOUS
 90
16
 70
0
 10
-13.4595200108
 20
6.9168181907
 10
-13.6933527674
 20
6.4913917157
 10
-14.0833613946
 20
5.7480379154
 10
-14.4540175298
 20
4.9971059231
 10
-14.804656113
 20
4.2399237856
 10
-15.1346599335
 20
3.4777985718
 10
-15.4434576394
 20
2.712009781
 10
-15.7304898618
 20
1.9438895216
 10
-15.9952301698
 20
1.1747802377
 10
-16.2372041234
 20
0.4059746942
 10
-16.4559579804
 20
-0.3611960816
 10
-16.6510701982
 20
-1.1253866126
 10
-16.8221668024
 20
-1.8852977133
 10
-16.9689049501
 20
-2.6396199864
 10
-17.0909743677
 20
-3.3870262071
 10
-17.1881058196
 20
-4.1262081154
  0
LINE
  5
291
100
AcDbEntity
  8
0
100
AcDbLine
 62
7
  6
CONTINUOUS
 10
-13.4595066894
 20
6.9168420215
 11
-13.459802471
 21
6.916312337
  0
LINE
  5
292
100
AcDbEntity
  8
0
100
AcDbLine
 62
253
  6
CONTINUOUS
 10
-0.2759921388
 20
18.6012396244
 11
-0.2686178198
 21
18.6057692323
  0
LINE
  5
293
100
AcDbEntity
  8
0
100
AcDbLine
 62
7
  6
CONTINUOUS
 10
1.3577277769
 20
17.6667376676
 11
0.510022391
 21
17.1715886268
  0
LINE
  5
294
100
AcDbEntity
  8
0
100
AcDbLine
 62
7
  6
CONTINUOUS
 10
6.8760403003
 20
20.8187332546
 11
2.2777893439
 21
18.1946501527
  0
LWPOLYLINE
  5
295
100
AcDbEntity
  8
0
100
AcDbPolyline
 62
7
  6
CONTINUOUS
 90
24
 70
0
 10
8.9994175225
 20
21.1300276858
 10
9.0240452985
 20
21.1435841856
 10
9.0485822999
 20
21.1561070153
 10
9.0730285267
 20
21.1675961748
 10
9.0974164091
 20
21.1780640629
 10
9.1217135168
 20
21.1874982808
 10
9.1458225596
 20
21.1958616322
 10
9.169735017
 20
21.2031481138
 10
9.1934594094
 20
21.2093637289
 10
9.2169240076
 20
21.2144892905
 10
9.2401384215
 20
21.2185225735
 10
9.2630930413
 20
21.2214658029
 10
9.2856873083
 20
21.2233064668
 10
9.3079075018
 20
21.2240401643
 10
9.3297673427
 20
21.2236712962
 10
9.3512074346
 20
21.2222005525
 10
9.3722397771
 20
21.2196224097
 10
9.3928523706
 20
21.2159423912
 10
9.4129498201
 20
21.2111777573
 10
9.4325164757
 20
21.2053284296
 10
9.4515679872
 20
21.1983944863
 10
9.4700559101
 20
21.1903934232
 10
9.4879914428
 20
21.1813151012
 10
9.4953248513
 20
21.1772021248
  0
LWPOLYLINE
  5
296
100
AcDbEntity
  8
0
100
AcDbPolyline
 62
7
  6
CONTINUOUS
 90
7
 70
0
 10
6.9071872399
 20
20.8349197221
 10
6.9020184565
 20
20.8324545596
 10
6.8968407238
 20
20.8298963643
 10
6.8916540418
 20
20.8272451361
 10
6.8864584106
 20
20.8245008751
 10
6.8812538301
 20
20.8216635813
 10
6.8760403003
 20
20.8187332546
  0
LINE
  5
297
100
AcDbEntity
  8
0
100
AcDbLine
 62
7
  6
CONTINUOUS
 10
7.5893265579
 20
20.4843185989
 11
7.549744671
 21
20.4658585297
  0
LINE
  5
298
100
AcDbEntity
  8
0
100
AcDbLine
 62
7
  6
CONTINUOUS
 10
7.6068733808
 20
20.4924039184
 11
7.5893265579
 21
20.4843185989
  0
LWPOLYLINE
  5
299
100
AcDbEntity
  8
0
100
AcDbPolyline
 62
253
  6
CONTINUOUS
 90
16
 70
0
 10
4.8182187359
 20
16.8849343232
 10
4.8246999999
 20
16.8873699096
 10
4.8314255187
 20
16.8892972514
 10
4.8383800577
 20
16.8907119829
 10
4.8455478631
 20
16.8916108993
 10
4.8529126983
 20
16.8919919644
 10
4.8604578804
 20
16.8918543149
 10
4.8681663177
 20
16.8911982628
 10
4.8760205489
 20
16.8900252941
 10
4.8840027825
 20
16.8883380658
 10
4.8920949369
 20
16.8861403999
 10
4.9002786815
 20
16.8834372746
 10
4.9085354784
 20
16.8802348131
 10
4.916846624
 20
16.8765402696
 10
4.9251932917
 20
16.8723620132
 10
4.9335565746
 20
16.8677095086
  0
LWPOLYLINE
  5
29A
100
AcDbEntity
  8
0
100
AcDbPolyline
 62
253
  6
CONTINUOUS
 90
28
 70
0
 10
-0.6697095189
 20
-16.3327423705
 10
-0.6517768416
 20
-16.3420814314
 10
-0.634250952
 20
-16.3488926416
 10
-0.6171435919
 20
-16.3530850914
 10
-0.6003666992
 20
-16.3545912422
 10
-0.5840490565
 20
-16.353281213
 10
-0.5685679604
 20
-16.3490324983
 10
-0.5541277139
 20
-16.3417796117
 10
-0.5406670086
 20
-16.3315528722
 10
-0.5281991928
 20
-16.3184494537
 10
-0.5168329399
 20
-16.3024739936
 10
-0.5066147937
 20
-16.2836199019
 10
-0.4974678721
 20
-16.2619705001
 10
-0.4894743024
 20
-16.2375136558
 10
-0.4827134466
 20
-16.2102590219
 10
-0.4771064451
 20
-16.1803093795
 10
-0.4727481453
 20
-16.1476900271
 10
-0.4697185622
 20
-16.1123882794
 10
-0.4679252218
 20
-16.0744305584
 10
-0.4674714907
 20
-16.0338704908
 10
-0.4684550693
 20
-15.9906674432
 10
-0.4708014351
 20
-15.9446653576
 10
-0.474654275
 20
-15.8958798091
 10
-0.4801368979
 20
-15.8442922322
 10
-0.4872029006
 20
-15.7896397682
 10
-0.4959830323
 20
-15.7318179648
 10
-0.5067499106
 20
-15.6709258659
 10
-0.5197209514
 20
-15.6069946711
  0
LWPOLYLINE
  5
29B
100
AcDbEntity
  8
0
100
AcDbPolyline
 62
253
  6
CONTINUOUS
 90
28
 70
0
 10
-0.6314911713
 20
-16.442103847
 10
-0.6024110732
 20
-16.4576489265
 10
-0.5731400032
 20
-16.4698369756
 10
-0.543677338
 20
-16.4786676078
 10
-0.5137656019
 20
-16.4842701497
 10
-0.4836596409
 20
-16.486513645
 10
-0.4541266567
 20
-16.4850068772
 10
-0.42531198
 20
-16.4796017089
 10
-0.397064966
 20
-16.470442991
 10
-0.3697084481
 20
-16.4575787405
 10
-0.3432828684
 20
-16.4409975804
 10
-0.3177404824
 20
-16.4207063873
 10
-0.2932717495
 20
-16.3967805064
 10
-0.2698627855
 20
-16.3692066352
 10
-0.2475184745
 20
-16.3379925563
 10
-0.2264575693
 20
-16.3032453381
 10
-0.2066788714
 20
-16.2649906998
 10
-0.188173546
 20
-16.2231968078
 10
-0.1711491475
 20
-16.1778845709
 10
-0.1555826221
 20
-16.1291317215
 10
-0.1414860038
 20
-16.076853862
 10
-0.129119234
 20
-16.0208285727
 10
-0.1184124546
 20
-15.9611054152
 10
-0.109422554
 20
-15.8976270437
 10
-0.1025987423
 20
-15.8300101799
 10
-0.0980855264
 20
-15.7581239501
 10
-0.0957230386
 20
-15.6820900871
 10
-0.0955031883
 20
-15.6019038008
  0
LWPOLYLINE
  5
29C
100
AcDbEntity
  8
0
100
AcDbPolyline
 62
253
  6
CONTINUOUS
 90
19
 70
0
 10
-0.7757755361
 20
-16.2715011815
 10
-0.801207472
 20
-16.2571803341
 10
-0.8248610985
 20
-16.2448079845
 10
-0.8467364158
 20
-16.2343841327
 10
-0.8670581036
 20
-16.2257986009
 10
-0.8856014821
 20
-16.219161567
 10
-0.9016925118
 20
-16.2148035643
 10
-0.9151429441
 20
-16.2128559263
 10
-0.9261410276
 20
-16.2131873196
 10
-0.934577469
 20
-16.2157342777
 10
-0.9404041071
 20
-16.2205131135
 10
-0.9436691031
 20
-16.2275075141
 10
-0.9444076469
 20
-16.2366050752
 10
-0.9426395647
 20
-16.247780544
 10
-0.9383450303
 20
-16.2610591733
 10
-0.9314997547
 20
-16.2764043169
 10
-0.9221456915
 20
-16.2937815656
 10
-0.9102408871
 20
-16.3132253286
 10
-0.8956351911
 20
-16.3348021884
  0
LINE
  5
29D
100
AcDbEntity
  8
0
100
AcDbLine
 62
7
  6
CONTINUOUS
 10
-0.7451451113
 20
-18.0722859646
 11
-2.5221890908
 21
-17.0462430424
  0
LINE
  5
29E
100
AcDbEntity
  8
0
100
AcDbLine
 62
7
  6
CONTINUOUS
 10
-6.7564662063
 20
-13.0403421711
 11
-5.6965835563
 21
-13.6523051297
  0
LINE
  5
29F
100
AcDbEntity
  8
0
100
AcDbLine
 62
7
  6
CONTINUOUS
 10
-2.3016934848
 20
-15.612472109
 11
-1.5755239216
 21
-16.0317533138
  0
LINE
  5
2A0
100
AcDbEntity
  8
0
100
AcDbLine
 62
253
  6
CONTINUOUS
 10
-13.0058598421
 20
-9.2972984637
 11
-12.8997938249
 21
-9.3585396527
  0
LINE
  5
2A1
100
AcDbEntity
  8
0
100
AcDbLine
 62
253
  6
CONTINUOUS
 10
-0.7375571885
 20
-16.380862658
 11
-0.6314911713
 21
-16.442103847
  0
LINE
  5
2A2
100
AcDbEntity
  8
0
100
AcDbLine
 62
7
  6
CONTINUOUS
 10
-6.6747824789
 20
-12.9271373925
 11
-5.614899829
 21
-13.5391003511
  0
LINE
  5
2A3
100
AcDbEntity
  8
0
100
AcDbLine
 62
7
  6
CONTINUOUS
 10
-2.2200097575
 20
-15.4992673304
 11
-1.8943242145
 21
-15.6873140811
  0
LINE
  5
2A4
100
AcDbEntity
  8
0
100
AcDbLine
 62
253
  6
CONTINUOUS
 10
-13.0440781897
 20
-9.1879369873
 11
-12.9380121725
 21
-9.2491781763
  0
LINE
  5
2A5
100
AcDbEntity
  8
0
100
AcDbLine
 62
253
  6
CONTINUOUS
 10
-0.7757755361
 20
-16.2715011815
 11
-0.6697095189
 21
-16.3327423705
  0
LINE
  5
2A6
100
AcDbEntity
  8
0
100
AcDbLine
 62
7
  6
CONTINUOUS
 10
-5.8120186088
 20
-13.2649184991
 11
-6.1655719994
 21
-13.0607812024
  0
LWPOLYLINE
  5
2A7
100
AcDbEntity
  8
SMUSSO
100
AcDbPolyline
 62
7
  6
CONTINUOUS
 90
19
 70
0
 10
-9.3457363116
 20
-11.6930895695
 10
-9.2259153911
 20
-11.7673223652
 10
-9.1028576774
 20
-11.8459079304
 10
-8.9773612512
 20
-11.9283366045
 10
-8.8502400061
 20
-12.0140738051
 10
-8.7223183729
 20
-12.1025634926
 10
-8.5944259763
 20
-12.1932317747
 10
-8.4673922481
 20
-12.2854906318
 10
-8.342041051
 20
-12.3787417294
 10
-8.2191853389
 20
-12.4723802953
 10
-8.0996218772
 20
-12.5657990477
 10
-7.9841260804
 20
-12.6583921299
 10
-7.8734469859
 20
-12.749559037
 10
-7.7683023873
 20
-12.8387085183
 10
-7.6693741858
 20
-12.9252624055
 10
-7.5773039713
 20
-13.00865936
 10
-7.4926888515
 20
-13.0883585214
 10
-7.4160775807
 20
-13.163843015
 10
-7.3479670066
 20
-13.2346232982
  0
LWPOLYLINE
  5
2A8
100
AcDbEntity
  8
0
100
AcDbPolyline
 62
253
  6
CONTINUOUS
 90
31
 70
0
 10
-12.8997938249
 20
-9.3585396527
 10
-12.8885166876
 20
-9.3656632541
 10
-12.8765599145
 20
-9.3744997738
 10
-12.8639454234
 20
-9.385025971
 10
-12.8506499337
 20
-9.3972804252
 10
-12.8367448186
 20
-9.4111758022
 10
-12.8224114277
 20
-9.4265142718
 10
-12.8077211903
 20
-9.4433313475
 10
-12.7926908222
 20
-9.4615802935
 10
-12.7774374669
 20
-9.4809618736
 10
-12.7620382778
 20
-9.5014562553
 10
-12.7465067214
 20
-9.5230928825
 10
-12.7308655016
 20
-9.5456523352
 10
-12.7151775857
 20
-9.5690883091
 10
-12.6994590494
 20
-9.5934589892
 10
-12.6836582612
 20
-9.6186928847
 10
-12.6678118159
 20
-9.6447659905
 10
-12.6519544762
 20
-9.6717029727
 10
-12.6360312382
 20
-9.6994905403
 10
-12.620080216
 20
-9.728109319
 10
-12.6041379878
 20
-9.757569456
 10
-12.5881523013
 20
-9.7878871279
 10
-12.5721587388
 20
-9.8190706203
 10
-12.5562109101
 20
-9.8510929692
 10
-12.5402935124
 20
-9.8839052223
 10
-12.5244778291
 20
-9.9174773079
 10
-12.5088030108
 20
-9.9518204781
 10
-12.4932240012
 20
-9.9869341525
 10
-12.477781981
 20
-10.0228049135
 10
-12.462592801
 20
-10.0594187398
 10
-12.4477405471
 20
-10.0967685571
  0
LINE
  5
2A9
100
AcDbEntity
  8
0
100
AcDbLine
 62
7
  6
CONTINUOUS
 10
6.7481805753
 20
-23.3606851821
 11
6.7682764789
 21
-23.3735765788
  0
LWPOLYLINE
  5
2AA
100
AcDbEntity
  8
0
100
AcDbPolyline
 62
253
  6
CONTINUOUS
 90
4
 70
0
 10
-16.9361330456
 20
-5.0381827942
 10
-16.9273645158
 20
-5.0472201368
 10
-16.8955552496
 20
-5.0748967184
 10
-16.8601853922
 20
-5.098433643
  0
LWPOLYLINE
  5
2AB
100
AcDbEntity
  8
0
100
AcDbPolyline
 62
7
  6
CONTINUOUS
 90
30
 70
0
 10
-6.3143919156
 20
-16.1057686965
 10
-6.2660856622
 20
-16.155769048
 10
-6.2123082236
 20
-16.2084373195
 10
-6.1530595998
 20
-16.2637735113
 10
-6.0878083017
 20
-16.3222370342
 10
-6.0170858183
 20
-16.3833684772
 10
-5.9424866164
 20
-16.4457896076
 10
-5.863922632
 20
-16.5095297218
 10
-5.7814819291
 20
-16.5745595234
 10
-5.6970231664
 20
-16.6394128892
 10
-5.6105005014
 20
-16.7040858114
 10
-5.5219597766
 20
-16.7685822979
 10
-5.4333971781
 20
-16.8314482495
 10
-5.3448122091
 20
-16.8926466269
 10
-5.2562053665
 20
-16.9522144694
 10
-5.169574327
 20
-17.0088087961
 10
-5.0849639733
 20
-17.0623620603
 10
-5.0023294228
 20
-17.1129418088
 10
-4.9235337045
 20
-17.1594077008
 10
-4.8486640218
 20
-17.2016662854
 10
-4.7776331714
 20
-17.2398110136
 10
-4.7120425723
 20
-17.2729818971
 10
-4.6520158058
 20
-17.3010659494
 10
-4.5974292906
 20
-17.3241761571
 10
-4.5495137016
 20
-17.3417914912
 10
-4.5084205763
 20
-17.3537871295
 10
-4.4739983771
 20
-17.3602878942
 10
-4.4470231664
 20
-17.361147223
 10
-4.4276641107
 20
-17.3562369644
 10
-4.4169378951
 20
-17.3474610841
  0
LWPOLYLINE
  5
2AC
100
AcDbEntity
  8
0
100
AcDbPolyline
 62
7
  6
CONTINUOUS
 90
30
 70
0
 10
-4.5466249626
 20
-17.1264551799
 10
-4.5949312159
 20
-17.0764548285
 10
-4.6487086545
 20
-17.0237865569
 10
-4.7079572784
 20
-16.9684503651
 10
-4.7732085765
 20
-16.9099868422
 10
-4.8439310599
 20
-16.8488553992
 10
-4.9185302618
 20
-16.7864342689
 10
-4.9970942462
 20
-16.7226941546
 10
-5.0795349491
 20
-16.6576643531
 10
-5.1639937118
 20
-16.5928109872
 10
-5.2505163768
 20
-16.528138065
 10
-5.3390571016
 20
-16.4636415785
 10
-5.4276197001
 20
-16.4007756269
 10
-5.5162046691
 20
-16.3395772495
 10
-5.6048115117
 20
-16.2800094071
 10
-5.6914425511
 20
-16.2234150803
 10
-5.7760529049
 20
-16.1698618161
 10
-5.8586874554
 20
-16.1192820676
 10
-5.9374831737
 20
-16.0728161757
 10
-6.0123528563
 20
-16.030557591
 10
-6.0833837067
 20
-15.9924128628
 10
-6.1489743059
 20
-15.9592419794
 10
-6.2090010723
 20
-15.931157927
 10
-6.2635875875
 20
-15.9080477193
 10
-6.3115031766
 20
-15.8904323852
 10
-6.3525963019
 20
-15.8784367469
 10
-6.3870185011
 20
-15.8719359822
 10
-6.4139937118
 20
-15.8710766534
 10
-6.4333527674
 20
-15.8759869121
 10
-6.4440789831
 20
-15.8847627923
  0
LWPOLYLINE
  5
2AD
100
AcDbEntity
  8
ASSI
100
AcDbPolyline
 62
7
  6
CONTINUOUS
 90
33
 70
0
 10
-7.3750520874
 20
-15.4933568066
 10
-7.2777121631
 20
-15.5943869895
 10
-7.169904065
 20
-15.7006094673
 10
-7.0516277931
 20
-15.8120242401
 10
-6.9219843995
 20
-15.9294178118
 10
-6.7818728321
 20
-16.0520036784
 10
-6.6339899346
 20
-16.1774223278
 10
-6.47818516
 20
-16.3057286372
 10
-6.3146090554
 20
-16.4368677293
 10
-6.146410106
 20
-16.5683154612
 10
-5.9734987576
 20
-16.7000778118
 10
-5.7959645645
 20
-16.8321488022
 10
-5.6172246748
 20
-16.9619863521
 10
-5.4372557316
 20
-17.0895471951
 10
-5.2560810919
 20
-17.2148745977
 10
-5.0771879746
 20
-17.3355562792
 10
-4.9006205775
 20
-17.4515022421
 10
-4.7263347028
 20
-17.5628024839
 10
-4.5576849755
 20
-17.6673147163
 10
-4.3947805798
 20
-17.7649074412
 10
-4.2375123316
 20
-17.8557121567
 10
-4.0889073036
 20
-17.937981069
 10
-3.9491333206
 20
-18.0115488214
 10
-3.8180225579
 20
-18.0765807705
 10
-3.6980986131
 20
-18.1318251925
 10
-3.5895781987
 20
-18.1770924821
 10
-3.4922446024
 20
-18.2125722444
 10
-3.4079712847
 20
-18.2375815711
 10
-3.3370112509
 20
-18.2519176275
 10
-3.2791114958
 20
-18.2557832482
 10
-3.235386464
 20
-18.2491040284
 10
-3.2061107501
 20
-18.2316756922
 10
-3.200606103
 20
-18.2251141227
  0
LWPOLYLINE
  5
2AE
100
AcDbEntity
  8
ASSI
100
AcDbPolyline
 62
7
  6
CONTINUOUS
 90
33
 70
0
 10
-3.4859647908
 20
-17.7388670699
 10
-3.5833047151
 20
-17.6378368869
 10
-3.6911128131
 20
-17.5316144091
 10
-3.809389085
 20
-17.4201996364
 10
-3.9390324787
 20
-17.3028060647
 10
-4.0791440461
 20
-17.180220198
 10
-4.2270269436
 20
-17.0548015486
 10
-4.3828317182
 20
-16.9264952393
 10
-4.5464078228
 20
-16.7953561471
 10
-4.7146067721
 20
-16.6639084152
 10
-4.8875181205
 20
-16.5321460646
 10
-5.0650523137
 20
-16.4000750743
 10
-5.2437922034
 20
-16.2702375243
 10
-5.4237611465
 20
-16.1426766813
 10
-5.6049357862
 20
-16.0173492787
 10
-5.7838289036
 20
-15.8966675972
 10
-5.9603963007
 20
-15.7807216343
 10
-6.1346821754
 20
-15.6694213925
 10
-6.3033319027
 20
-15.5649091601
 10
-6.4662362983
 20
-15.4673164352
 10
-6.6235045465
 20
-15.3765117197
 10
-6.7721095746
 20
-15.2942428075
 10
-6.9118835575
 20
-15.2206750551
 10
-7.0429943203
 20
-15.1556431059
 10
-7.1629182651
 20
-15.1003986839
 10
-7.2714386794
 20
-15.0551313943
 10
-7.3687722758
 20
-15.019651632
 10
-7.4530455935
 20
-14.9946423053
 10
-7.5240056273
 20
-14.9803062489
 10
-7.5819053824
 20
-14.9764406282
 10
-7.6256304142
 20
-14.983119848
 10
-7.6549061281
 20
-15.0005481842
 10
-7.6604107752
 20
-15.0071097537
  0
LWPOLYLINE
  5
2AF
100
AcDbEntity
  8
0
100
AcDbPolyline
 62
253
  6
CONTINUOUS
 90
22
 70
0
 10
-12.0618401231
 20
-9.9784268112
 10
-12.1015073226
 20
-9.9368091273
 10
-12.1420485403
 20
-9.8954090482
 10
-12.1834637763
 20
-9.8542265739
 10
-12.2258950415
 20
-9.8131764694
 10
-12.269200325
 20
-9.7723439698
 10
-12.3129535935
 20
-9.7319847795
 10
-12.3571163553
 20
-9.6921089385
 10
-12.4017271022
 20
-9.652706407
 10
-12.446475276
 20
-9.6140027698
 10
-12.4913858956
 20
-9.5759623155
 10
-12.536433942
 20
-9.5386207555
 10
-12.5812338005
 20
-9.5023108099
 10
-12.625929226
 20
-9.4669198872
 10
-12.6703764636
 20
-9.4325605789
 10
-12.7137586344
 20
-9.3999033789
 10
-12.7562493467
 20
-9.3688705729
 10
-12.7976749922
 20
-9.3395398753
 10
-12.8366978678
 20
-9.3128149232
 10
-12.8728720726
 20
-9.2889969288
 10
-12.9066435075
 20
-9.2677846798
 10
-12.9380121725
 20
-9.2491781763
  0
LWPOLYLINE
  5
2B0
100
AcDbEntity
  8
0
100
AcDbPolyline
 62
253
  6
CONTINUOUS
 90
6
 70
0
 10
-13.1345095174
 20
-9.1121648055
 10
-13.127171369
 20
-9.1198994847
 10
-13.1056404242
 20
-9.1410857526
 10
-13.0847101864
 20
-9.1593980399
 10
-13.0641750894
 20
-9.1750338789
 10
-13.0440781897
 20
-9.1879369873
  0
LINE
  5
2B1
100
AcDbEntity
  8
0
100
AcDbLine
 62
253
  6
CONTINUOUS
 10
-10.4496105722
 20
-11.3044955503
 11
-15.2580937723
 21
-6.1922920694
  0
LINE
  5
2B2
100
AcDbEntity
  8
0
100
AcDbLine
 62
253
  6
CONTINUOUS
 10
-10.1590677503
 20
-11.0908624554
 11
-14.5890011941
 21
-6.381119231
  0
LINE
  5
2B3
100
AcDbEntity
  8
0
100
AcDbLine
 62
7
  6
CONTINUOUS
 10
-11.939157631
 20
-7.911105694
 11
-11.4912976118
 21
-8.3872540872
  0
LINE
  5
2B4
100
AcDbEntity
  8
0
100
AcDbLine
 62
253
  6
CONTINUOUS
 10
-12.4477522785
 20
-10.0967559851
 11
-11.2130183851
 21
-11.4199495221
  0
LINE
  5
2B5
100
AcDbEntity
  8
0
100
AcDbLine
 62
7
  6
CONTINUOUS
 10
-13.1344989346
 20
-9.1121761559
 11
-16.9361330457
 21
-5.0381827941
  0
LINE
  5
2B6
100
AcDbEntity
  8
0
100
AcDbLine
 62
253
  6
CONTINUOUS
 10
-13.0440781897
 20
-9.1879369873
 11
-16.8601853932
 21
-5.098433642
  0
LINE
  5
2B7
100
AcDbEntity
  8
0
100
AcDbLine
 62
253
  6
CONTINUOUS
 10
-12.0618401231
 20
-9.9784268112
 11
-10.7780696374
 21
-11.3541700532
  0
LINE
  5
2B8
100
AcDbEntity
  8
ASSI
100
AcDbLine
 62
7
  6
CONTINUOUS
 10
-9.9658444412
 20
-10.8230759251
 11
-11.7841076027
 21
-8.8745475203
  0
LINE
  5
2B9
100
AcDbEntity
  8
ASSI
100
AcDbLine
 62
7
  6
CONTINUOUS
 10
-10.9002241262
 20
-9.3848907619
 11
-9.7880792532
 21
-10.5767126726
  0
LWPOLYLINE
  5
2BA
100
AcDbEntity
  8
0
100
AcDbPolyline
 62
253
  6
CONTINUOUS
 90
6
 70
0
 10
-13.1620948057
 20
-9.1628324157
 10
-13.1312962389
 20
-9.1964611623
 10
-13.100184833
 20
-9.2268637783
 10
-13.0690529485
 20
-9.2535662411
 10
-13.0376110545
 20
-9.2770443267
 10
-13.0058598421
 20
-9.2972984637
  0
LWPOLYLINE
  5
2BB
100
AcDbEntity
  8
0
100
AcDbPolyline
 62
253
  6
CONTINUOUS
 90
19
 70
0
 10
-15.2580937723
 20
-6.1922920694
 10
-15.285202012
 20
-6.1625567617
 10
-15.3089413409
 20
-6.1353303867
 10
-15.3293117589
 20
-6.1106129446
 10
-15.3461094406
 20
-6.0885237503
 10
-15.3595382114
 20
-6.0689434887
 10
-15.3702095482
 20
-6.0515142147
 10
-15.3781657733
 20
-6.0362102328
 10
-15.3833645642
 20
-6.0230572384
 10
-15.386290431
 20
-6.0117743733
 10
-15.3869635891
 20
-6.0023584204
 10
-15.385363823
 20
-5.9948125968
 10
-15.3819149956
 20
-5.9888656947
 10
-15.3766450678
 20
-5.9845065326
 10
-15.3695260787
 20
-5.9817462919
 10
-15.3608980093
 20
-5.9803473095
 10
-15.3508741865
 20
-5.9802303642
 10
-15.3393412833
 20
-5.9814746771
 10
-15.3262992998
 20
-5.9840802482
  0
LWPOLYLINE
  5
2BC
100
AcDbEntity
  8
SMUSSO
100
AcDbPolyline
 62
7
  6
CONTINUOUS
 90
3
 70
0
 10
-7.2456639539
 20
-14.2034406365
 10
-7.1677525447
 20
-14.289621183
 10
-7.1544257853
 20
-14.3055129001
  0
LWPOLYLINE
  5
2BD
100
AcDbEntity
  8
SMUSSO
100
AcDbPolyline
 62
7
  6
CONTINUOUS
 90
7
 70
0
 10
-7.3479670066
 20
-13.2346232982
 10
-7.2887988373
 20
-13.3002403483
 10
-7.2389567897
 20
-13.3602686275
 10
-7.1987641137
 20
-13.4143188265
 10
-7.1684814788
 20
-13.4620404072
 10
-7.1483052864
 20
-13.5031238719
 10
-7.1386382867
 20
-13.5356487499
  0
LWPOLYLINE
  5
2BE
100
AcDbEntity
  8
0
100
AcDbPolyline
 62
253
  6
CONTINUOUS
 90
10
 70
0
 10
-12.938012163
 20
-9.2491781818
 10
-12.9306112586
 20
-9.2579768187
 10
-12.9239470388
 20
-9.2677182656
 10
-12.918046549
 20
-9.2783628821
 10
-12.9129337491
 20
-9.2898673266
 10
-12.9086293529
 20
-9.3021848294
 10
-12.9051507639
 20
-9.3152654014
 10
-12.9025120804
 20
-9.3290558992
 10
-12.9007240196
 20
-9.343500223
 10
-12.8997938238
 20
-9.3585396534
  0
LWPOLYLINE
  5
2BF
100
AcDbEntity
  8
0
100
AcDbPolyline
 62
253
  6
CONTINUOUS
 90
4
 70
0
 10
-15.1012940646
 20
-6.0715859135
 10
-15.0878854073
 20
-6.0884252217
 10
-15.0720505934
 20
-6.1018577692
 10
-15.0654452148
 20
-6.1060264188
  0
LWPOLYLINE
  5
2C0
100
AcDbEntity
  8
0
100
AcDbPolyline
 62
253
  6
CONTINUOUS
 90
5
 70
0
 10
-13.2725349923
 20
-9.0117126752
 10
-13.2465742802
 20
-9.0519962656
 10
-13.2197356175
 20
-9.0906010748
 10
-13.1917068935
 20
-9.1274017409
 10
-13.1620948057
 20
-9.1628324157
  0
LWPOLYLINE
  5
2C1
100
AcDbEntity
  8
0
100
AcDbPolyline
 62
253
  6
CONTINUOUS
 90
4
 70
0
 10
-13.3393505758
 20
-8.8926483944
 10
-13.3219123048
 20
-8.926272279
 10
-13.2976647658
 20
-8.9698331875
 10
-13.2725349923
 20
-9.0117126752
  0
LWPOLYLINE
  5
2C2
100
AcDbEntity
  8
0
100
AcDbPolyline
 62
253
  6
CONTINUOUS
 90
18
 70
0
 10
-13.7408505298
 20
-16.2305087568
 10
-13.7404527947
 20
-16.2332098205
 10
-13.7378342881
 20
-16.2471833428
 10
-13.7342993802
 20
-16.2609969329
 10
-13.7298546527
 20
-16.2746248704
 10
-13.7245083817
 20
-16.2880417805
 10
-13.7182705217
 20
-16.3012226814
 10
-13.7111526873
 20
-16.3141430308
 10
-13.7031681318
 20
-16.3267787714
 10
-13.6943317221
 20
-16.3391063759
 10
-13.6846599113
 20
-16.3511028908
 10
-13.6741707079
 20
-16.3627459789
 10
-13.6628836425
 20
-16.3740139612
 10
-13.6508197312
 20
-16.3848858572
 10
-13.6380014366
 20
-16.3953414238
 10
-13.6244526258
 20
-16.405361193
 10
-13.6101985264
 20
-16.4149265085
 10
-13.5952656789
 20
-16.4240195599
  0
LWPOLYLINE
  5
2C3
100
AcDbEntity
  8
0
100
AcDbPolyline
 62
253
  6
CONTINUOUS
 90
22
 70
0
 10
-12.5201776688
 20
-14.8804189411
 10
-12.5098812348
 20
-14.9532847183
 10
-12.4965668428
 20
-15.0250055774
 10
-12.4802426997
 20
-15.0955872971
 10
-12.4606728264
 20
-15.1652058751
 10
-12.4381084842
 20
-15.2336961164
 10
-12.4132884272
 20
-15.3005518122
 10
-12.3862418856
 20
-15.3658287985
 10
-12.3569531016
 20
-15.4294808332
 10
-12.3260936045
 20
-15.4908487942
 10
-12.2937229457
 20
-15.5498493659
 10
-12.2597939002
 20
-15.6065747
 10
-12.2248179316
 20
-15.6606289605
 10
-12.189125596
 20
-15.7117329185
 10
-12.1523961751
 20
-15.7601728895
 10
-12.1141634427
 20
-15.8064008011
 10
-12.0738996612
 20
-15.8510784439
 10
-12.0321388501
 20
-15.8935485674
 10
-11.9900072838
 20
-15.9322844447
 10
-11.9478822156
 20
-15.966778492
 10
-11.905391044
 20
-15.9975416634
 10
-11.8625349196
 20
-16.0245747933
  0
LINE
  5
2C4
100
AcDbEntity
  8
0
100
AcDbLine
 62
7
  6
CONTINUOUS
 10
-13.7409045562
 20
-16.230122601
 11
-13.7408505298
 21
-16.2305087568
  0
LWPOLYLINE
  5
2C5
100
AcDbEntity
  8
0
100
AcDbPolyline
 62
253
  6
CONTINUOUS
 90
16
 70
0
 10
-13.5952656805
 20
-16.4240195611
 10
-13.6741564619
 20
-15.8377692774
 10
-13.7483484569
 20
-15.2479264688
 10
-13.8178359379
 20
-14.6545359603
 10
-13.8826134578
 20
-14.0576429118
 10
-13.9426760993
 20
-13.4572926068
 10
-13.9980194736
 20
-12.8535304473
 10
-14.0486393295
 20
-12.2464022453
 10
-14.0945317354
 20
-11.6359541711
 10
-14.1356933285
 20
-11.0222325412
 10
-14.1721209486
 20
-10.4052839994
 10
-14.2038117686
 20
-9.7851553659
 10
-14.2307634733
 20
-9.1618935845
 10
-14.252974025
 20
-8.5355459294
 10
-14.2704416652
 20
-7.9061600027
 10
-14.2706742066
 20
-7.894602244
  0
LWPOLYLINE
  5
2C6
100
AcDbEntity
  8
RACCORDO
100
AcDbPolyline
 62
253
  6
CONTINUOUS
 90
6
 70
0
 10
-13.1959229298
 20
13.1486816621
 10
-13.1973101326
 20
13.1661199667
 10
-13.1981099353
 20
13.1826741551
 10
-13.1983774994
 20
13.1982707092
 10
-13.1980582116
 20
13.2129828872
 10
-13.1971523151
 20
13.2268105737
  0
LWPOLYLINE
  5
2C7
100
AcDbEntity
  8
0
100
AcDbPolyline
 62
253
  6
CONTINUOUS
 90
10
 70
0
 10
-13.0058598421
 20
-9.2972984637
 10
-13.0067908032
 20
-9.282257923
 10
-13.0085795201
 20
-9.2678127903
 10
-13.0112187231
 20
-9.2540217722
 10
-13.0146976854
 20
-9.2409409176
 10
-13.0190022684
 20
-9.228623388
 10
-13.0241149792
 20
-9.2171192412
 10
-13.0300150398
 20
-9.2064752312
 10
-13.0366784711
 20
-9.1967346171
 10
-13.0440781923
 20
-9.1879369861
  0
LWPOLYLINE
  5
2C8
100
AcDbEntity
  8
RACCORDO
100
AcDbPolyline
 62
253
  6
CONTINUOUS
 90
6
 70
0
 10
-13.2264603783
 20
13.2674456871
 10
-13.2260651056
 20
13.2603269635
 10
-13.2229265144
 20
13.2513033933
 10
-13.2169294312
 20
13.2425383934
 10
-13.2082520741
 20
13.2342924376
 10
-13.1971523125
 20
13.226810575
  0
LWPOLYLINE
  5
2C9
100
AcDbEntity
  8
0
100
AcDbPolyline
 62
253
  6
CONTINUOUS
 90
16
 70
0
 10
-12.4477522785
 20
-10.0967559851
 10
-12.4356639567
 20
-10.3745884014
 10
-12.4221879988
 20
-10.6577669769
 10
-12.4073244048
 20
-10.9462917117
 10
-12.391134972
 20
-11.2402991845
 10
-12.3735579032
 20
-11.5396528166
 10
-12.3544078064
 20
-11.8439428714
 10
-12.3337306548
 20
-12.1526569799
 10
-12.3114804752
 20
-12.4663075112
 10
-12.287333957
 20
-12.7860218355
 10
-12.2613559531
 20
-13.1114672161
 10
-12.2334816105
 20
-13.4429763898
 10
-12.2031930593
 20
-13.7826749376
 10
-12.1703176762
 20
-14.1312713867
 10
-12.1350280846
 20
-14.4880572099
 10
-12.0973242844
 20
-14.8530324074
  0
LWPOLYLINE
  5
2CA
100
AcDbEntity
  8
0
100
AcDbPolyline
 62
253
  6
CONTINUOUS
 90
19
 70
0
 10
-12.8997938249
 20
-9.3585396527
 10
-12.8907597994
 20
-9.6217462982
 10
-12.8806740037
 20
-9.889560354
 10
-12.8694856889
 20
-10.1619462142
 10
-12.8571551687
 20
-10.4386080502
 10
-12.8436196091
 20
-10.7197684922
 10
-12.8287839515
 20
-11.0061628006
 10
-12.812566758
 20
-11.2980673508
 10
-12.7949199047
 20
-11.5951120696
 10
-12.7757904335
 20
-11.8970566211
 10
-12.755148214
 20
-12.2033579
 10
-12.7328971865
 20
-12.5144637742
 10
-12.7088704867
 20
-12.8316093233
 10
-12.6830118473
 20
-13.154395834
 10
-12.655210921
 20
-13.4830951806
 10
-12.6251722846
 20
-13.8199147367
 10
-12.5927033927
 20
-14.1655193389
 10
-12.5577472334
 20
-14.5190535616
 10
-12.5201776688
 20
-14.8804189411
  0
LINE
  5
2CB
100
AcDbEntity
  8
0
100
AcDbLine
 62
253
  6
CONTINUOUS
 10
-13.6213695078
 20
6.6722963147
 11
-13.6219930681
 21
6.6212208541
  0
LWPOLYLINE
  5
2CC
100
AcDbEntity
  8
RACCORDO
100
AcDbPolyline
 62
253
  6
CONTINUOUS
 90
7
 70
0
 10
-12.6445917945
 20
18.239123495
 10
-12.6446046226
 20
18.2383812061
 10
-12.6426308738
 20
18.2359167614
 10
-12.6380180301
 20
18.2321914739
 10
-12.6309034753
 20
18.2272445788
 10
-12.6214475586
 20
18.2212648856
 10
-12.6099151456
 20
18.2144205643
  0
LWPOLYLINE
  5
2CD
100
AcDbEntity
  8
0
100
AcDbPolyline
 62
253
  6
CONTINUOUS
 90
10
 70
0
 10
-13.0411522027
 20
7.3219568373
 10
-13.0422408465
 20
7.3006685163
 10
-13.0448361541
 20
7.2786906243
 10
-13.048919509
 20
7.2561801196
 10
-13.0544616605
 20
7.2332977938
 10
-13.061422965
 20
7.2102069884
 10
-13.0697536971
 20
7.1870724256
 10
-13.0793943511
 20
7.1640592187
 10
-13.0902760399
 20
7.1413316953
 10
-13.1023210364
 20
7.1190520879
  0
LWPOLYLINE
  5
2CE
100
AcDbEntity
  8
RACCORDO
100
AcDbPolyline
 62
7
  6
CONTINUOUS
 90
3
 70
0
 10
-13.226454214
 20
13.2675249332
 10
-13.2276600379
 20
13.24412694
 10
-13.2270329967
 20
13.1982821902
  0
LWPOLYLINE
  5
2CF
100
AcDbEntity
  8
0
100
AcDbPolyline
 62
253
  6
CONTINUOUS
 90
8
 70
0
 10
-0.3258784751
 20
18.5583022028
 10
-0.3190746005
 20
18.565525818
 10
-0.3121311457
 20
18.5724158157
 10
-0.3050670038
 20
18.5789534463
 10
-0.2979014076
 20
18.5851209091
 10
-0.2906538825
 20
18.5909013993
 10
-0.2833441634
 20
18.5962791805
 10
-0.2759921388
 20
18.6012396244
  0
LINE
  5
2D0
100
AcDbEntity
  8
DRAFT
100
AcDbLine
 62
7
  6
CONTINUOUS
 10
-1.1870338839
 20
15.1552929411
 11
-1.9512744889
 21
14.6512834495
  0
LINE
  5
2D1
100
AcDbEntity
  8
0
100
AcDbLine
 62
7
  6
CONTINUOUS
 10
2.2424340049
 20
16.0969123379
 11
1.1756030927
 21
15.423879265
  0
LINE
  5
2D2
100
AcDbEntity
  8
0
100
AcDbLine
 62
7
  6
CONTINUOUS
 10
2.6901973334
 20
15.6427220693
 11
4.2733774024
 21
16.5782263562
  0
LINE
  5
2D3
100
AcDbEntity
  8
0
100
AcDbLine
 62
253
  6
CONTINUOUS
 10
2.8163500927
 20
15.6310100768
 11
4.3991066959
 21
16.5662641369
  0
LINE
  5
2D4
100
AcDbEntity
  8
0
100
AcDbLine
 62
7
  6
CONTINUOUS
 10
1.1756030927
 20
16.7872906713
 11
7.516926074
 21
20.4486938411
  0
LINE
  5
2D5
100
AcDbEntity
  8
0
100
AcDbLine
 62
7
  6
CONTINUOUS
 10
2.2424340049
 20
16.0969123379
 11
7.549744671
 21
19.1612904662
  0
LINE
  5
2D6
100
AcDbEntity
  8
0
100
AcDbLine
 62
7
  6
CONTINUOUS
 10
4.2733774165
 20
16.5782263642
 11
4.2748316596
 21
16.5790660259
  0
LINE
  5
2D7
100
AcDbEntity
  8
0
100
AcDbLine
 62
7
  6
CONTINUOUS
 10
7.6805795222
 20
20.3774066253
 11
8.9994175225
 21
21.1300276858
  0
LINE
  5
2D8
100
AcDbEntity
  8
0
100
AcDbLine
 62
7
  6
CONTINUOUS
 10
4.2748316455
 20
16.5790660179
 11
4.8097099469
 21
16.8807530326
  0
LINE
  5
2D9
100
AcDbEntity
  8
0
100
AcDbLine
 62
253
  6
CONTINUOUS
 10
4.3991066959
 20
16.5662641369
 11
4.9335565746
 21
16.8677095086
  0
LWPOLYLINE
  5
2DA
100
AcDbEntity
  8
0
100
AcDbPolyline
 62
253
  6
CONTINUOUS
 90
18
 70
0
 10
2.6901973334
 20
15.6427220693
 10
2.6939388124
 20
15.6448051552
 10
2.7001677273
 20
15.6477472723
 10
2.7066621508
 20
15.6501904568
 10
2.7134073718
 20
15.6521291744
 10
2.7203881107
 20
15.6535590334
 10
2.7275885547
 20
15.6544767949
 10
2.7349923931
 20
15.6548803799
 10
2.7425828546
 20
15.6547688743
 10
2.750342745
 20
15.6541425305
 10
2.7582544865
 20
15.6530027675
 10
2.7663001572
 20
15.651352167
 10
2.7744615319
 20
15.6491944681
 10
2.7827201232
 20
15.6465345583
 10
2.7910572235
 20
15.643378463
 10
2.7994539475
 20
15.6397333314
 10
2.8078912747
 20
15.6356074207
 10
2.8163500927
 20
15.6310100768
  0
LWPOLYLINE
  5
2DB
100
AcDbEntity
  8
0
100
AcDbPolyline
 62
253
  6
CONTINUOUS
 90
3
 70
0
 10
4.8097099469
 20
16.8807530326
 10
4.8119964083
 20
16.8819960095
 10
4.8182187359
 20
16.8849343232
  0
LWPOLYLINE
  5
2DC
100
AcDbEntity
  8
0
100
AcDbPolyline
 62
7
  6
CONTINUOUS
 90
18
 70
0
 10
4.2748316596
 20
16.5790660259
 10
4.2771185306
 20
16.580309233
 10
4.2833442024
 20
16.5832494246
 10
4.2898321349
 20
16.5856887555
 10
4.2965676238
 20
16.5876216963
 10
4.303535363
 20
16.589043843
 10
4.31071962
 20
16.5899520043
 10
4.3181041357
 20
16.5903441329
 10
4.32567209
 20
16.5902192919
 10
4.3334064116
 20
16.5895778069
 10
4.3412896175
 20
16.588421154
 10
4.349303717
 20
16.5867518821
 10
4.3574306473
 20
16.5845738268
 10
4.3656520584
 20
16.5818919574
 10
4.3739491551
 20
16.5787122559
 10
4.3823031485
 20
16.5750419313
 10
4.3906952976
 20
16.5708894026
 10
4.3991066959
 20
16.5662641369
  0
LWPOLYLINE
  5
2DD
100
AcDbEntity
  8
0
100
AcDbPolyline
 62
7
  6
CONTINUOUS
 90
6
 70
0
 10
4.8097099469
 20
16.8807530326
 10
4.8382532704
 20
16.8945439309
 10
4.8687446006
 20
16.9047274741
 10
4.9006287434
 20
16.9109580916
 10
4.9333198498
 20
16.9130002944
 10
4.9661056615
 20
16.9107364002
  0
LINE
  5
2DE
100
AcDbEntity
  8
SMUSSO
100
AcDbLine
 62
7
  6
CONTINUOUS
 10
-5.8139210044
 20
-13.849264531
 11
-6.9098648109
 21
-14.01500958
  0
LWPOLYLINE
  5
2DF
100
AcDbEntity
  8
SMUSSO
100
AcDbPolyline
 62
7
  6
CONTINUOUS
 90
31
 70
0
 10
-5.8139210044
 20
-13.849264531
 10
-5.7976063443
 20
-13.8478664394
 10
-5.7567252219
 20
-13.8505957997
 10
-5.7062154192
 20
-13.8608483521
 10
-5.6464045102
 20
-13.8785576062
 10
-5.5776803902
 20
-13.903608712
 10
-5.5004887622
 20
-13.9358392038
 10
-5.4153302431
 20
-13.9750400551
 10
-5.3227571181
 20
-14.0209570338
 10
-5.2233697621
 20
-14.0732923497
 10
-5.1178127405
 20
-14.1317065881
 10
-5.0067706318
 20
-14.1958209101
 10
-4.8909635901
 20
-14.2652195075
 10
-4.7711426696
 20
-14.3394523032
 10
-4.6480849559
 20
-14.4180378683
 10
-4.5225885297
 20
-14.5004665424
 10
-4.3954672846
 20
-14.586203743
 10
-4.2675456514
 20
-14.6746934306
 10
-4.1396532549
 20
-14.7653617126
 10
-4.0126195266
 20
-14.8576205698
 10
-3.8872683296
 20
-14.9508716674
 10
-3.7644126174
 20
-15.0445102333
 10
-3.6448491557
 20
-15.1379289857
 10
-3.5293533589
 20
-15.2305220679
 10
-3.4186742645
 20
-15.321688975
 10
-3.3135296658
 20
-15.4108384562
 10
-3.2146014643
 20
-15.4973923435
 10
-3.1225312498
 20
-15.580789298
 10
-3.0379161301
 20
-15.6604884594
 10
-2.9613048592
 20
-15.7359729529
 10
-2.8931942851
 20
-15.8067532362
  0
LWPOLYLINE
  5
2E0
100
AcDbEntity
  8
SMUSSO
100
AcDbPolyline
 62
7
  6
CONTINUOUS
 90
33
 70
0
 10
-6.9098648109
 20
-14.01500958
 10
-6.8756675254
 20
-14.012967238
 10
-6.819851312
 20
-14.0183041506
 10
-6.7523781385
 20
-14.0327819785
 10
-6.6736253403
 20
-14.0563197486
 10
-6.5840333122
 20
-14.0887858338
 10
-6.484103071
 20
-14.12999868
 10
-6.3743934826
 20
-14.1797278047
 10
-6.255518109
 20
-14.2376950929
 10
-6.1281417653
 20
-14.3035763595
 10
-5.9929767899
 20
-14.3770031695
 10
-5.8507790792
 20
-14.4575648908
 10
-5.702343866
 20
-14.5448109865
 10
-5.5485012663
 20
-14.6382535374
 10
-5.3901116287
 20
-14.7373699761
 10
-5.228060727
 20
-14.8416060073
 10
-5.0632548326
 20
-14.9503786905
 10
-4.8966156399
 20
-15.0630797029
 10
-4.729075099
 20
-15.1790787486
 10
-4.5615701426
 20
-15.2977271276
 10
-4.3950374734
 20
-15.418361348
 10
-4.2304083702
 20
-15.5403068063
 10
-4.0686035634
 20
-15.6628814943
 10
-3.9105280214
 20
-15.7853998563
 10
-3.7570656452
 20
-15.9071768154
 10
-3.609074796
 20
-16.0275312378
 10
-3.4673835175
 20
-16.145789696
 10
-3.3327843252
 20
-16.2612907028
 10
-3.2060296696
 20
-16.3733885325
 10
-3.0878281868
 20
-16.4814564614
 10
-2.9788407987
 20
-16.5848902081
 10
-2.8796769846
 20
-16.6831113273
 10
-2.7908912324
 20
-16.7755705745
  0
LWPOLYLINE
  5
2E1
100
AcDbEntity
  8
0
100
AcDbPolyline
 62
253
  6
CONTINUOUS
 90
10
 70
0
 10
-15.2580937723
 20
-6.1922920694
 10
-15.2293547095
 20
-6.205941932
 10
-15.1981790739
 20
-6.2153164305
 10
-15.1650906452
 20
-6.2202580788
 10
-15.1306453462
 20
-6.2206838669
 10
-15.0954218749
 20
-6.2165866559
 10
-15.0600119808
 20
-6.2080352858
 10
-15.0250105725
 20
-6.1951734267
 10
-14.9910056945
 20
-6.1782171676
 10
-14.9670151372
 20
-6.162858718
  0
LWPOLYLINE
  5
2E2
100
AcDbEntity
  8
0
100
AcDbPolyline
 62
253
  6
CONTINUOUS
 90
13
 70
0
 10
-0.0955031883
 20
-15.6019038008
 10
-0.1250063978
 20
-15.5870080492
 10
-0.1576336448
 20
-15.5745499817
 10
-0.1928266681
 20
-15.5647427593
 10
-0.2299833054
 20
-15.5577541862
 10
-0.2684677961
 20
-15.5537038389
 10
-0.3076216601
 20
-15.55266102
 10
-0.3467749638
 20
-15.5546435724
 10
-0.3852577834
 20
-15.5596175741
 10
-0.4224116671
 20
-15.5674979184
 10
-0.4576009018
 20
-15.5781497706
 10
-0.4902233898
 20
-15.5913908745
 10
-0.5197209514
 20
-15.6069946711
  0
LWPOLYLINE
  5
2E3
100
AcDbEntity
  8
0
100
AcDbPolyline
 62
253
  6
CONTINUOUS
 90
13
 70
0
 10
-0.0979069037
 20
-15.464173853
 10
-0.1274101817
 20
-15.4492741737
 10
-0.1600376332
 20
-15.4368043904
 10
-0.1952309934
 20
-15.4269778645
 10
-0.2323880942
 20
-15.4199627307
 10
-0.2708731672
 20
-15.4158790197
 10
-0.3100277222
 20
-15.414796605
 10
-0.3491818139
 20
-15.4167340071
 10
-0.3876655049
 20
-15.4216580763
 10
-0.4248203287
 20
-15.4294845607
 10
-0.4600105558
 20
-15.4400795468
 10
-0.4926340717
 20
-15.4532617514
 10
-0.5221326791
 20
-15.4688056235
  0
LINE
  5
2E4
100
AcDbEntity
  8
0
100
AcDbLine
 62
253
  6
CONTINUOUS
 10
-15.1668994015
 20
-6.0363776883
 11
-15.1350337727
 21
-6.0527812566
  0
LINE
  5
2E5
100
AcDbEntity
  8
0
100
AcDbLine
 62
253
  6
CONTINUOUS
 10
-15.1350337727
 20
-6.0527812566
 11
-15.1012940646
 21
-6.0715859135
  0
LINE
  5
2E6
100
AcDbEntity
  8
0
100
AcDbLine
 62
7
  6
CONTINUOUS
 10
-15.0926923337
 20
-6.0907315362
 11
-15.0654452148
 21
-6.1060264188
  0
LINE
  5
2E7
100
AcDbEntity
  8
ASSI
100
AcDbLine
 62
7
  6
CONTINUOUS
 10
-6.4454514048
 20
-11.9570206999
 11
-8.0717970015
 21
-11.0179891352
  0
LINE
  5
2E8
100
AcDbEntity
  8
ASSI
100
AcDbLine
 62
7
  6
CONTINUOUS
 10
-10.9002241262
 20
-9.3848907619
 11
-11.7841076027
 21
-8.8745475203
  0
LINE
  5
2E9
100
AcDbEntity
  8
0
100
AcDbLine
 62
253
  6
CONTINUOUS
 10
0.5816117173
 20
-15.8565193883
 11
-0.0979069037
 21
-15.464173853
  0
LINE
  5
2EA
100
AcDbEntity
  8
ASSI
100
AcDbLine
 62
7
  6
CONTINUOUS
 10
-6.1242816351
 20
-11.4122416484
 11
-6.4778350257
 21
-11.2081043518
  0
LINE
  5
2EB
100
AcDbEntity
  8
ASSI
100
AcDbLine
 62
7
  6
CONTINUOUS
 10
-7.3970738412
 20
-10.6773473804
 11
-7.7506272318
 21
-10.4732100838
  0
LINE
  5
2EC
100
AcDbEntity
  8
ASSI
100
AcDbLine
 62
7
  6
CONTINUOUS
 10
-10.5790543566
 20
-8.8401117105
 11
-10.9326077472
 21
-8.6359744138
  0
LINE
  5
2ED
100
AcDbEntity
  8
0
100
AcDbLine
 62
253
  6
CONTINUOUS
 10
-4.4858167224
 20
-12.2432390252
 11
-6.0197028158
 21
-11.357592419
  0
LINE
  5
2EE
100
AcDbEntity
  8
0
100
AcDbLine
 62
253
  6
CONTINUOUS
 10
-15.3262992998
 20
-5.9840802482
 11
-16.8601853932
 21
-5.098433642
  0
LINE
  5
2EF
100
AcDbEntity
  8
0
100
AcDbLine
 62
7
  6
CONTINUOUS
 10
-15.0654174668
 20
-6.1060424461
 11
-6.3299855579
 21
-11.1497713496
  0
LINE
  5
2F0
100
AcDbEntity
  8
0
100
AcDbLine
 62
253
  6
CONTINUOUS
 10
-15.1012940646
 20
-6.0715859135
 11
-6.3658626128
 21
-11.1153145531
  0
LINE
  5
2F1
100
AcDbEntity
  8
0
100
AcDbLine
 62
253
  6
CONTINUOUS
 10
-4.6670404944
 20
-11.4727457164
 11
-17.0414091651
 21
-4.3279403331
  0
LWPOLYLINE
  5
2F2
100
AcDbEntity
  8
0
100
AcDbPolyline
 62
253
  6
CONTINUOUS
 90
5
 70
0
 10
-6.3658626128
 20
-11.1153145531
 10
-6.347091425
 20
-11.1263451379
 10
-6.3279203169
 20
-11.1380067828
 10
-6.3083464345
 20
-11.1502960192
 10
-6.2884972691
 20
-11.1631028224
  0
LINE
  5
2F3
100
AcDbEntity
  8
0
100
AcDbLine
 62
7
  6
CONTINUOUS
 10
-6.329926216
 20
-11.1498055858
 11
-6.3084992491
 21
-11.1624274953
  0
LINE
  5
2F4
100
AcDbEntity
  8
0
100
AcDbLine
 62
7
  6
CONTINUOUS
 10
-6.3084992491
 20
-11.1624274953
 11
-6.2743230529
 21
-11.1835045848
  0
LINE
  5
2F5
100
AcDbEntity
  8
0
100
AcDbLine
 62
7
  6
CONTINUOUS
 10
-6.2743230529
 20
-11.1835045848
 11
-6.2375925685
 21
-11.207276076
  0
LWPOLYLINE
  5
2F6
100
AcDbEntity
  8
0
100
AcDbPolyline
 62
253
  6
CONTINUOUS
 90
5
 70
0
 10
-6.2884972691
 20
-11.1631028224
 10
-6.2682342671
 20
-11.1765236869
 10
-6.2471508285
 20
-11.1908591329
 10
-6.2250296609
 20
-11.2062227269
 10
-6.2020589675
 20
-11.2224645284
  0
LWPOLYLINE
  5
2F7
100
AcDbEntity
  8
0
100
AcDbPolyline
 62
7
  6
CONTINUOUS
 90
4
 70
0
 10
-6.2375925685
 20
-11.207276076
 10
-6.1987855832
 20
-11.2334278864
 10
-6.1580407703
 20
-11.261780088
 10
-6.1154903597
 20
-11.2920814278
  0
LWPOLYLINE
  5
2F8
100
AcDbEntity
  8
0
100
AcDbPolyline
 62
253
  6
CONTINUOUS
 90
3
 70
0
 10
-5.4047357615
 20
-11.8814974933
 10
-5.4308704284
 20
-11.8634639676
 10
-5.4511353776
 20
-11.8444527827
  0
LWPOLYLINE
  5
2F9
100
AcDbEntity
  8
0
100
AcDbPolyline
 62
253
  6
CONTINUOUS
 90
5
 70
0
 10
-15.3262992963
 20
-5.9840802483
 10
-15.299314482
 20
-6.003013463
 10
-15.2703530436
 20
-6.0184476057
 10
-15.2398051983
 20
-6.0301750197
 10
-15.2190824991
 20
-6.0357811306
  0
LWPOLYLINE
  5
2FA
100
AcDbEntity
  8
0
100
AcDbPolyline
 62
253
  6
CONTINUOUS
 90
4
 70
0
 10
-6.2020589675
 20
-11.2224645284
 10
-6.1784326786
 20
-11.2394798863
 10
-6.1542700808
 20
-11.2571308923
 10
-6.1294029471
 20
-11.2754917188
  0
LWPOLYLINE
  5
2FB
100
AcDbEntity
  8
0
100
AcDbPolyline
 62
7
  6
CONTINUOUS
 90
12
 70
0
 10
-6.1154903597
 20
-11.2920814278
 10
-6.0011795447
 20
-11.37477941
 10
-5.9469636966
 20
-11.4148597045
 10
-5.8928649269
 20
-11.4559214556
 10
-5.8393676486
 20
-11.4975915874
 10
-5.7868378523
 20
-11.5395801108
 10
-5.7356363566
 20
-11.5816086073
 10
-5.6861290368
 20
-11.6233758751
 10
-5.6387643613
 20
-11.6645028335
 10
-5.5938358755
 20
-11.7047385283
 10
-5.5517098157
 20
-11.7437608935
 10
-5.5130590948
 20
-11.7809397526
  0
LWPOLYLINE
  5
2FC
100
AcDbEntity
  8
0
100
AcDbPolyline
 62
253
  6
CONTINUOUS
 90
15
 70
0
 10
-6.0197028158
 20
-11.357592419
 10
-5.9758096857
 20
-11.3897560241
 10
-5.9340946476
 20
-11.4207735098
 10
-5.8945577016
 20
-11.450644876
 10
-5.8572891125
 20
-11.4793654287
 10
-5.8221986154
 20
-11.5069398619
 10
-5.7890154163
 20
-11.5333822577
 10
-5.7577466308
 20
-11.5586645393
 10
-5.7283851434
 20
-11.5828147834
 10
-5.7006388133
 20
-11.605931302
 10
-5.6744956291
 20
-11.6280091083
 10
-5.6499676024
 20
-11.649053189
 10
-5.6267986265
 20
-11.6691768161
 10
-5.6049776294
 20
-11.688379151
 10
-5.5845156831
 20
-11.7066610322
  0
LINE
  5
2FD
100
AcDbEntity
  8
0
100
AcDbLine
 62
253
  6
CONTINUOUS
 10
-6.1294029471
 20
-11.2754917188
 11
-6.0197028158
 21
-11.357592419
  0
LWPOLYLINE
  5
2FE
100
AcDbEntity
  8
0
100
AcDbPolyline
 62
7
  6
CONTINUOUS
 90
5
 70
0
 10
6.7682764789
 20
-23.3735765788
 10
6.7940159166
 20
-23.3945864062
 10
6.8168867499
 20
-23.4190001746
 10
6.8363258903
 20
-23.4463039543
 10
6.8519772215
 20
-23.4760504141
  0
LWPOLYLINE
  5
2FF
100
AcDbEntity
  8
0
100
AcDbPolyline
 62
253
  6
CONTINUOUS
 90
13
 70
0
 10
-5.5845156831
 20
-11.7066610322
 10
-5.5651898973
 20
-11.7241382475
 10
-5.5469906573
 20
-11.7408115543
 10
-5.5299275777
 20
-11.756680195
 10
-5.513806613
 20
-11.7718576843
 10
-5.498618867
 20
-11.7863459377
 10
-5.4843732358
 20
-11.8001430395
 10
-5.470902362
 20
-11.8133567577
 10
-5.4581977395
 20
-11.8259899057
 10
-5.4462678745
 20
-11.8380396701
 10
-5.434970928
 20
-11.8496053783
 10
-5.4242596205
 20
-11.8607201394
 10
-5.4141812317
 20
-11.8713508444
  0
LWPOLYLINE
  5
300
100
AcDbEntity
  8
0
100
AcDbPolyline
 62
7
  6
CONTINUOUS
 90
3
 70
0
 10
-5.5130590948
 20
-11.7809397526
 10
-5.4783950429
 20
-11.8157466817
 10
-5.4516161586
 20
-11.8439314542
  0
LINE
  5
301
100
AcDbEntity
  8
ASSI
100
AcDbLine
 62
7
  6
CONTINUOUS
 10
-6.1655719994
 20
-13.0607812024
 11
-8.0717970015
 21
-11.0179891352
  0
LINE
  5
302
100
AcDbEntity
  8
0
100
AcDbLine
 62
7
  6
CONTINUOUS
 10
-5.5892884024
 20
-13.5036056941
 11
-5.8120186088
 21
-13.2649184991
  0
LINE
  5
303
100
AcDbEntity
  8
ASSI
100
AcDbLine
 62
7
  6
CONTINUOUS
 10
-6.4454514048
 20
-11.9570206999
 11
-5.3333065317
 21
-13.1488426106
  0
LINE
  5
304
100
AcDbEntity
  8
0
100
AcDbLine
 62
253
  6
CONTINUOUS
 10
-5.4141812317
 20
-11.8713508444
 11
-0.8037344838
 21
-16.8525260167
  0
LINE
  5
305
100
AcDbEntity
  8
0
100
AcDbLine
 62
7
  6
CONTINUOUS
 10
-0.8032172444
 20
-16.8661713653
 11
-5.4516161585
 21
-11.8439314543
  0
LWPOLYLINE
  5
306
100
AcDbEntity
  8
SMUSSO
100
AcDbPolyline
 62
7
  6
CONTINUOUS
 90
8
 70
0
 10
-2.7908912324
 20
-16.7755705745
 10
-2.7129798232
 20
-16.8617511209
 10
-2.6463783464
 20
-16.9411711663
 10
-2.5914593288
 20
-17.0133865275
 10
-2.5485299824
 20
-17.0779932869
 10
-2.5178304379
 20
-17.1346301195
 10
-2.4995324441
 20
-17.1829802868
 10
-2.4956840634
 20
-17.2000936473
  0
LWPOLYLINE
  5
307
100
AcDbEntity
  8
SMUSSO
100
AcDbPolyline
 62
7
  6
CONTINUOUS
 90
7
 70
0
 10
-2.8931942851
 20
-15.8067532362
 10
-2.8340261158
 20
-15.8723702863
 10
-2.7841840683
 20
-15.9323985654
 10
-2.7439913922
 20
-15.9864487645
 10
-2.7137087573
 20
-16.0341703451
 10
-2.6935325649
 20
-16.0752538098
 10
-2.6838655653
 20
-16.1077786878
  0
LINE
  5
308
100
AcDbEntity
  8
RACCORDO
100
AcDbLine
 62
7
  6
CONTINUOUS
 10
-13.2270329967
 20
13.1982821902
 11
-13.2226152583
 21
13.1516308207
  0
LWPOLYLINE
  5
309
100
AcDbEntity
  8
RACCORDO
100
AcDbPolyline
 62
253
  6
CONTINUOUS
 90
6
 70
0
 10
-12.7891528383
 20
17.7694130115
 10
-12.7888094281
 20
17.7617366272
 10
-12.7856211452
 20
17.7532142862
 10
-12.7795860395
 20
17.7448225635
 10
-12.7708833239
 20
17.7368108848
 10
-12.75977154
 20
17.7294174427
  0
LINE
  5
30A
100
AcDbEntity
  8
0
100
AcDbLine
 62
7
  6
CONTINUOUS
 10
-11.5757187293
 20
-8.2975006425
 11
-11.5759323661
 21
-8.2807121606
  0
LINE
  5
30B
100
AcDbEntity
  8
0
100
AcDbLine
 62
253
  6
CONTINUOUS
 10
-11.64609727
 20
-8.0803150736
 11
-11.64609727
 21
-8.2226767519
  0
LINE
  5
30C
100
AcDbEntity
  8
0
100
AcDbLine
 62
7
  6
CONTINUOUS
 10
-11.5759322201
 20
-8.120827494
 11
-11.5759322201
 21
-8.2807113614
  0
LWPOLYLINE
  5
30D
100
AcDbEntity
  8
0
100
AcDbPolyline
 62
253
  6
CONTINUOUS
 90
34
 70
0
 10
-9.6630561559
 20
22.4293990455
 10
-9.662857408
 20
22.4391901605
 10
-9.6622616112
 20
22.4491887686
 10
-9.6612701053
 20
22.4593723871
 10
-9.6598851196
 20
22.4697181173
 10
-9.6581097685
 20
22.4802026961
 10
-9.6559480439
 20
22.4908025481
 10
-9.6534048067
 20
22.5014938388
 10
-9.6504857755
 20
22.512252528
 10
-9.6471975139
 20
22.523054424
 10
-9.643547416
 20
22.5338752378
 10
-9.6395436891
 20
22.544690638
 10
-9.635195336
 20
22.5554763055
 10
-9.6305121343
 20
22.5662079878
 10
-9.6255046145
 20
22.5768615539
 10
-9.6201840364
 20
22.5874130485
 10
-9.6145623637
 20
22.5978387457
 10
-9.6086522373
 20
22.6081152026
 10
-9.6024669463
 20
22.6182193118
 10
-9.5960203991
 20
22.6281283534
 10
-9.589327091
 20
22.6378200461
 10
-9.5824020725
 20
22.6472725976
 10
-9.575260915
 20
22.656464753
 10
-9.567919676
 20
22.665375843
 10
-9.5603948629
 20
22.6739858304
 10
-9.5527033956
 20
22.682275355
 10
-9.544862569
 20
22.6902257771
 10
-9.536890014
 20
22.6978192197
 10
-9.5288036572
 20
22.7050386083
 10
-9.5206216816
 20
22.7118677096
 10
-9.5123624849
 20
22.7182911677
 10
-9.5040446386
 20
22.7242945392
 10
-9.4956868459
 20
22.7298643249
 10
-9.4873078999
 20
22.7349880007
  0
LWPOLYLINE
  5
30E
100
AcDbEntity
  8
0
100
AcDbPolyline
 62
7
  6
CONTINUOUS
 90
9
 70
0
 10
-9.7362794605
 20
22.5314633194
 10
-9.7343694399
 20
22.562311853
 10
-9.7283472703
 20
22.593943093
 10
-9.7182688155
 20
22.6246392518
 10
-9.704234939
 20
22.6539234386
 10
-9.6864039717
 20
22.6813015353
 10
-9.6650393736
 20
22.7062386682
 10
-9.6404980481
 20
22.7282331056
 10
-9.6134649368
 20
22.7466974654
  0
LWPOLYLINE
  5
30F
100
AcDbEntity
  8
0
100
AcDbPolyline
 62
253
  6
CONTINUOUS
 90
22
 70
0
 10
-12.0973242844
 20
-14.8530324074
 10
-12.102356281
 20
-14.9187209037
 10
-12.1043812123
 20
-14.983177459
 10
-12.1037457271
 20
-15.0462207446
 10
-12.1008938043
 20
-15.1076426313
 10
-12.0960315193
 20
-15.1673033362
 10
-12.0890729594
 20
-15.2251657463
 10
-12.0801954847
 20
-15.2812011869
 10
-12.0696649542
 20
-15.3352014049
 10
-12.0574558748
 20
-15.3869028417
 10
-12.0437427858
 20
-15.4361509707
 10
-12.0287186204
 20
-15.482899522
 10
-12.012357603
 20
-15.5270645434
 10
-11.9950014026
 20
-15.5683638391
 10
-11.9766111661
 20
-15.606910664
 10
-11.956591974
 20
-15.6432257935
 10
-11.9348650146
 20
-15.6777351834
 10
-11.9118823052
 20
-15.7098311261
 10
-11.8878561394
 20
-15.7384823552
 10
-11.8629622521
 20
-15.7632852825
 10
-11.8373701572
 20
-15.7844544047
 10
-11.8112534105
 20
-15.8018939524
  0
LWPOLYLINE
  5
310
100
AcDbEntity
  8
RACCORDO
100
AcDbPolyline
 62
7
  6
CONTINUOUS
 90
4
 70
0
 10
-9.0332819347
 20
21.5387004171
 10
-9.0337218197
 20
21.5334096306
 10
-9.0344438284
 20
21.5304969998
 10
-9.0345596357
 20
21.530184483
  0
LINE
  5
311
100
AcDbEntity
  8
0
100
AcDbLine
 62
253
  6
CONTINUOUS
 10
-11.5759322201
 20
-8.2807121602
 11
-11.577492105
 21
-8.2956152543
  0
LWPOLYLINE
  5
312
100
AcDbEntity
  8
0
100
AcDbPolyline
 62
253
  6
CONTINUOUS
 90
15
 70
0
 10
-5.4319203119
 20
22.4463850065
 10
-5.4335670749
 20
22.4396065624
 10
-5.4357685238
 20
22.4328808137
 10
-5.4385197086
 20
22.4262228836
 10
-5.4418144429
 20
22.4196477431
 10
-5.4456453182
 20
22.4131701769
 10
-5.4500037207
 20
22.4068047502
 10
-5.45487985
 20
22.4005657762
 10
-5.4602627418
 20
22.3944672838
 10
-5.4661402924
 20
22.3885229857
 10
-5.4724992855
 20
22.3827462483
 10
-5.4793254224
 20
22.3771500609
 10
-5.4866033543
 20
22.371747007
 10
-5.4943167159
 20
22.3665492358
 10
-5.5024481633
 20
22.3615684349
  0
LWPOLYLINE
  5
313
100
AcDbEntity
  8
0
100
AcDbPolyline
 62
7
  6
CONTINUOUS
 90
9
 70
0
 10
2.6901973334
 20
15.6427220693
 10
2.6639841366
 20
15.6248973868
 10
2.6399210725
 20
15.6035823435
 10
2.6185849276
 20
15.5790849638
 10
2.6004724492
 20
15.5517947673
 10
2.5860416759
 20
15.5222697655
 10
2.5756173675
 20
15.4911414732
 10
2.5693349746
 20
15.4587042657
 10
2.5673785442
 20
15.4274447924
  0
LINE
  5
314
100
AcDbEntity
  8
RACCORDO
100
AcDbLine
 62
253
  6
CONTINUOUS
 10
3.2747081102
 20
14.5153373134
 11
3.2077290508
 21
14.4721349813
  0
LINE
  5
315
100
AcDbEntity
  8
DRAFT
100
AcDbLine
 62
7
  6
CONTINUOUS
 10
11.9625779232
 20
19.4191360075
 11
6.3148289606
 21
16.1535581979
  0
LINE
  5
316
100
AcDbEntity
  8
0
100
AcDbLine
 62
253
  6
CONTINUOUS
 10
4.4948881631
 20
14.661843232
 11
6.6244361257
 21
15.8914168474
  0
LINE
  5
317
100
AcDbEntity
  8
0
100
AcDbLine
 62
253
  6
CONTINUOUS
 10
4.6716618668
 20
14.3556621961
 11
6.8012098294
 21
15.5852358115
  0
LWPOLYLINE
  5
318
100
AcDbEntity
  8
SMUSSO
100
AcDbPolyline
 62
7
  6
CONTINUOUS
 90
13
 70
0
 10
-10.2686937258
 20
-11.2771345931
 10
-10.2523790657
 20
-11.2757365014
 10
-10.2114979433
 20
-11.2784658618
 10
-10.1609881407
 20
-11.2887184142
 10
-10.1011772317
 20
-11.3064276683
 10
-10.0324531117
 20
-11.3314787741
 10
-9.9552614837
 20
-11.3637092659
 10
-9.8701029645
 20
-11.4029101171
 10
-9.7775298396
 20
-11.4488270958
 10
-9.6781424836
 20
-11.5011624118
 10
-9.572585462
 20
-11.5595766502
 10
-9.4615433533
 20
-11.6236909721
 10
-9.3457363116
 20
-11.6930895695
  0
LWPOLYLINE
  5
319
100
AcDbEntity
  8
SMUSSO
100
AcDbPolyline
 62
7
  6
CONTINUOUS
 90
33
 70
0
 10
-11.3646375323
 20
-11.442879642
 10
-11.3304402469
 20
-11.4408373001
 10
-11.2746240335
 20
-11.4461742126
 10
-11.20715086
 20
-11.4606520405
 10
-11.1283980617
 20
-11.4841898106
 10
-11.0388060336
 20
-11.5166558958
 10
-10.9388757924
 20
-11.5578687421
 10
-10.8291662041
 20
-11.6075978667
 10
-10.7102908305
 20
-11.665565155
 10
-10.5829144867
 20
-11.7314464215
 10
-10.4477495114
 20
-11.8048732315
 10
-10.3055518007
 20
-11.8854349528
 10
-10.1571165874
 20
-11.9726810485
 10
-10.0032739878
 20
-12.0661235994
 10
-9.8448843502
 20
-12.1652400381
 10
-9.6828334485
 20
-12.2694760693
 10
-9.5180275541
 20
-12.3782487525
 10
-9.3513883614
 20
-12.4909497649
 10
-9.1838478204
 20
-12.6069488107
 10
-9.016342864
 20
-12.7255971896
 10
-8.8498101949
 20
-12.8462314101
 10
-8.6851810917
 20
-12.9681768683
 10
-8.5233762849
 20
-13.0907515563
 10
-8.3653007429
 20
-13.2132699183
 10
-8.2118383667
 20
-13.3350468774
 10
-8.0638475174
 20
-13.4554012998
 10
-7.922156239
 20
-13.5736597581
 10
-7.7875570466
 20
-13.6891607649
 10
-7.6608023911
 20
-13.8012585945
 10
-7.5426009082
 20
-13.9093265234
 10
-7.4336135201
 20
-14.0127602701
 10
-7.3344497061
 20
-14.1109813893
 10
-7.2456639539
 20
-14.2034406365
  0
LINE
  5
31A
100
AcDbEntity
  8
0
100
AcDbLine
 62
253
  6
CONTINUOUS
 10
-15.1968586919
 20
-6.0223357612
 11
-15.1668994015
 21
-6.0363776883
  0
LINE
  5
31B
100
AcDbEntity
  8
0
100
AcDbLine
 62
253
  6
CONTINUOUS
 10
-4.4858167224
 20
-12.2432390252
 11
-0.6697095189
 21
-16.3327423705
  0
LINE
  5
31C
100
AcDbEntity
  8
0
100
AcDbLine
 62
253
  6
CONTINUOUS
 10
-3.8426493491
 20
-12.0460027822
 11
-0.5197209514
 21
-15.6069946711
  0
LWPOLYLINE
  5
31D
100
AcDbEntity
  8
0
100
AcDbPolyline
 62
253
  6
CONTINUOUS
 90
4
 70
0
 10
-6.3658626128
 20
-11.1153145531
 10
-6.3524537981
 20
-11.1321539181
 10
-6.3366188884
 20
-11.1455865383
 10
-6.3299855579
 20
-11.1497713496
  0
LWPOLYLINE
  5
31E
100
AcDbEntity
  8
0
100
AcDbPolyline
 62
253
  6
CONTINUOUS
 90
5
 70
0
 10
-0.8956351911
 20
-16.3348021884
 10
-0.8783841224
 20
-16.3584740146
 10
-0.8584321621
 20
-16.3842789375
 10
-0.8354626029
 20
-16.4123979307
 10
-0.8229906507
 20
-16.4269733359
  0
LWPOLYLINE
  5
31F
100
AcDbEntity
  8
0
100
AcDbPolyline
 62
253
  6
CONTINUOUS
 90
34
 70
0
 10
4.6716618668
 20
-24.9012437638
 10
4.6672412544
 20
-24.8951418678
 10
4.6624339577
 20
-24.8888220361
 10
4.6572508271
 20
-24.8822985325
 10
4.6517035642
 20
-24.8755860847
 10
4.6458046864
 20
-24.8686998393
 10
4.639567497
 20
-24.8616553266
 10
4.6330060632
 20
-24.8544684364
 10
4.6261352007
 20
-24.8471553981
 10
4.618970432
 20
-24.8397327335
 10
4.6115279355
 20
-24.8322172025
 10
4.6038245033
 20
-24.824625762
 10
4.5958775197
 20
-24.8169755429
 10
4.5877049203
 20
-24.8092838112
 10
4.5793251522
 20
-24.8015679285
 10
4.5707571286
 20
-24.7938453096
 10
4.5620201883
 20
-24.786133385
 10
4.5531340507
 20
-24.7784495607
 10
4.544118771
 20
-24.7708111782
 10
4.5349946986
 20
-24.763235479
 10
4.5257824254
 20
-24.7557395605
 10
4.5165027378
 20
-24.7483403365
 10
4.5071765688
 20
-24.7410544987
 10
4.4978249795
 20
-24.7338985009
 10
4.4884691056
 20
-24.7268885163
 10
4.4791300807
 20
-24.720040378
 10
4.469828966
 20
-24.7133695282
 10
4.4605867311
 20
-24.706891006
 10
4.4514240047
 20
-24.7006192772
 10
4.4423617036
 20
-24.6945686648
 10
4.4334209359
 20
-24.6887532451
 10
4.4246220643
 20
-24.6831862224
 10
4.4159846878
 20
-24.6778799562
 10
4.4075282548
 20
-24.6728463587
  0
LWPOLYLINE
  5
320
100
AcDbEntity
  8
RACCORDO
100
AcDbPolyline
 62
7
  6
CONTINUOUS
 90
10
 70
0
 10
-13.2226152583
 20
13.1516308207
 10
-13.2145162282
 20
13.1045584214
 10
-13.202885047
 20
13.0575646094
 10
-13.1878892224
 20
13.0110821101
 10
-13.1696787006
 20
12.9654425599
 10
-13.1484257942
 20
12.9210381033
 10
-13.1243023299
 20
12.8782328161
 10
-13.09750616
 20
12.8374178908
 10
-13.0682658436
 20
12.7990028201
 10
-13.0367146015
 20
12.7632606563
  0
LINE
  5
321
100
AcDbEntity
  8
0
100
AcDbLine
 62
7
  6
CONTINUOUS
 10
-9.7336861923
 20
22.1750322171
 11
-9.7362791467
 21
22.2111762853
  0
LWPOLYLINE
  5
322
100
AcDbEntity
  8
RACCORDO
100
AcDbPolyline
 62
253
  6
CONTINUOUS
 90
9
 70
0
 10
-9.0332865047
 20
21.5387400391
 10
-9.0329290154
 20
21.5303278692
 10
-9.0302097909
 20
21.514218194
 10
-9.0248227741
 20
21.498469164
 10
-9.0168085553
 20
21.4832521701
 10
-9.0062230076
 20
21.4687447588
 10
-8.9931509217
 20
21.45511059
 10
-8.97771498
 20
21.4424958444
 10
-8.9600632016
 20
21.4310462261
  0
LWPOLYLINE
  5
323
100
AcDbEntity
  8
0
100
AcDbPolyline
 62
253
  6
CONTINUOUS
 90
17
 70
0
 10
-9.6630561559
 20
22.1088788726
 10
-9.66288786
 20
22.1000714073
 10
-9.6623832928
 20
22.0914750556
 10
-9.661543415
 20
22.0831061852
 10
-9.6603698292
 20
22.0749807525
 10
-9.6588647683
 20
22.0671142058
 10
-9.6570310819
 20
22.0595214637
 10
-9.6548722379
 20
22.0522169416
 10
-9.6523923505
 20
22.0452146078
 10
-9.6495961707
 20
22.0385278842
 10
-9.6464890482
 20
22.0321695392
 10
-9.6430768861
 20
22.0261516308
 10
-9.6393661581
 20
22.0204855745
 10
-9.6353638974
 20
22.0151821247
 10
-9.6310777482
 20
22.0102514251
 10
-9.6265159387
 20
22.0057029316
 10
-9.6216872092
 20
22.0015453265
  0
LINE
  5
324
100
AcDbEntity
  8
0
100
AcDbLine
 62
7
  6
CONTINUOUS
 10
-9.7362794606
 20
22.5314676938
 11
-9.7362794606
 21
22.210947521
  0
LINE
  5
325
100
AcDbEntity
  8
0
100
AcDbLine
 62
253
  6
CONTINUOUS
 10
-9.6630561559
 20
22.4293990455
 11
-9.6630561559
 21
22.1088788726
  0
LINE
  5
326
100
AcDbEntity
  8
0
100
AcDbLine
 62
7
  6
CONTINUOUS
 10
-9.0332865063
 20
21.6607152821
 11
-9.0332865063
 21
21.5387564542
  0
LINE
  5
327
100
AcDbEntity
  8
RACCORDO
100
AcDbLine
 62
253
  6
CONTINUOUS
 10
-8.9600632016
 20
21.6184370636
 11
-8.9600632016
 21
21.4310462261
  0
LINE
  5
328
100
AcDbEntity
  8
0
100
AcDbLine
 62
253
  6
CONTINUOUS
 10
-7.9845180855
 20
21.1397120278
 11
-7.9845180855
 21
21.4602322006
  0
LWPOLYLINE
  5
329
100
AcDbEntity
  8
0
100
AcDbPolyline
 62
253
  6
CONTINUOUS
 90
34
 70
0
 10
-7.9845180855
 20
21.4602322006
 10
-7.9843193376
 20
21.4700233157
 10
-7.9837235408
 20
21.4800219238
 10
-7.9827320349
 20
21.4902055422
 10
-7.9813470492
 20
21.5005512725
 10
-7.9795716981
 20
21.5110358513
 10
-7.9774099735
 20
21.5216357033
 10
-7.9748667363
 20
21.532326994
 10
-7.9719477051
 20
21.5430856832
 10
-7.9686594435
 20
21.5538875791
 10
-7.9650093455
 20
21.5647083929
 10
-7.9610056187
 20
21.5755237932
 10
-7.9566572656
 20
21.5863094607
 10
-7.9519740639
 20
21.597041143
 10
-7.9469665441
 20
21.6076947091
 10
-7.941645966
 20
21.6182462037
 10
-7.9360242933
 20
21.6286719009
 10
-7.9301141669
 20
21.6389483578
 10
-7.9239288759
 20
21.6490524669
 10
-7.9174823286
 20
21.6589615085
 10
-7.9107890206
 20
21.6686532013
 10
-7.9038640021
 20
21.6781057528
 10
-7.8967228446
 20
21.6872979081
 10
-7.8893816056
 20
21.6962089982
 10
-7.8818567924
 20
21.7048189856
 10
-7.8741653252
 20
21.7131085102
 10
-7.8663244986
 20
21.7210589323
 10
-7.8583519436
 20
21.7286523749
 10
-7.8502655868
 20
21.7358717635
 10
-7.8420836112
 20
21.7427008647
 10
-7.8338244145
 20
21.7491243229
 10
-7.8255065681
 20
21.7551276944
 10
-7.8171487754
 20
21.76069748
 10
-7.8087698295
 20
21.7658211559
  0
LINE
  5
32A
100
AcDbEntity
  8
0
100
AcDbLine
 62
253
  6
CONTINUOUS
 10
-5.4308319376
 20
22.453200904
 11
-5.4319203119
 21
22.4463850065
  0
LWPOLYLINE
  5
32B
100
AcDbEntity
  8
0
100
AcDbPolyline
 62
253
  6
CONTINUOUS
 90
11
 70
0
 10
-0.3824165221
 20
18.4724205206
 10
-0.3779404415
 20
18.4817770635
 10
-0.3731645962
 20
18.4910279101
 10
-0.3681019421
 20
18.5001479622
 10
-0.3627662326
 20
18.5091124298
 10
-0.3571720047
 20
18.5178968758
 10
-0.3513344984
 20
18.5264773623
 10
-0.3452696046
 20
18.5348305278
 10
-0.3389938252
 20
18.5429336411
 10
-0.3325242459
 20
18.5507646381
 10
-0.3258784751
 20
18.5583022028
  0
LWPOLYLINE
  5
32C
100
AcDbEntity
  8
RACCORDO
100
AcDbPolyline
 62
253
  6
CONTINUOUS
 90
10
 70
0
 10
3.2095748567
 20
14.0866166053
 10
3.2331841152
 20
14.1039987114
 10
3.2559127526
 20
14.1253966193
 10
3.2771153358
 20
14.1502026852
 10
3.2961897677
 20
14.1777124825
 10
3.312594385
 20
14.207144806
 10
3.32586334
 20
14.2376638556
 10
3.3356198295
 20
14.2684029713
 10
3.3415867952
 20
14.2984892436
 10
3.343594791
 20
14.3270683022
  0
LWPOLYLINE
  5
32D
100
AcDbEntity
  8
RACCORDO
100
AcDbPolyline
 62
253
  6
CONTINUOUS
 90
16
 70
0
 10
3.2077290508
 20
14.4721349813
 10
3.1759655149
 20
14.4492382842
 10
3.1485989013
 20
14.4252290039
 10
3.1256292098
 20
14.4001071405
 10
3.1069408057
 20
14.3735925841
 10
3.0926493237
 20
14.3459654445
 10
3.0831016691
 20
14.3180660515
 10
3.078404345
 20
14.2899075769
 10
3.0784508483
 20
14.2614768488
 10
3.0832685742
 20
14.2335746818
 10
3.09297223
 20
14.2061808466
 10
3.1074471085
 20
14.1793155724
 10
3.1263764831
 20
14.153840361
 10
3.1496547782
 20
14.1300423796
 10
3.1773875694
 20
14.1076344611
 10
3.2095748567
 20
14.0866166053
  0
LWPOLYLINE
  5
32E
100
AcDbEntity
  8
RACCORDO
100
AcDbPolyline
 62
253
  6
CONTINUOUS
 90
4
 70
0
 10
1.3651521247
 20
11.0321481593
 10
1.3124920635
 20
10.9952896908
 10
1.2603231021
 20
10.9540711048
 10
1.20895027
 20
10.9087239047
  0
LWPOLYLINE
  5
32F
100
AcDbEntity
  8
RACCORDO
100
AcDbPolyline
 62
7
  6
CONTINUOUS
 90
15
 70
0
 10
1.2625439334
 20
11.0403603365
 10
1.2283866217
 20
11.0168363977
 10
1.1608537914
 20
10.9642881512
 10
1.0960407164
 20
10.9057952135
 10
1.0343000454
 20
10.8420009612
 10
0.9758981675
 20
10.7734316416
 10
0.9211186935
 20
10.7005927587
 10
0.870316041
 20
10.6241027394
 10
0.8238598534
 20
10.5445566404
 10
0.7820658975
 20
10.4625515396
 10
0.7452672244
 20
10.378722046
 10
0.7137925222
 20
10.293675901
 10
0.6879027648
 20
10.2079215701
 10
0.6679148451
 20
10.1219804963
 10
0.6534498663
 20
10.0308074447
  0
LWPOLYLINE
  5
330
100
AcDbEntity
  8
RACCORDO
100
AcDbPolyline
 62
253
  6
CONTINUOUS
 90
22
 70
0
 10
1.114894547
 20
11.1766437482
 10
1.095183007
 20
11.1633568743
 10
1.0744242897
 20
11.1486503393
 10
1.0526469885
 20
11.1324275494
 10
1.0298196054
 20
11.1145365076
 10
1.0060529352
 20
11.0949302813
 10
0.9815961882
 20
11.0736928705
 10
0.9565019012
 20
11.0507519859
 10
0.9308343898
 20
11.0260437117
 10
0.9048602533
 20
10.9997162861
 10
0.878647713
 20
10.9717365545
 10
0.8522727092
 20
10.9420793056
 10
0.8260040704
 20
10.9109594642
 10
0.7999166509
 20
10.8783869757
 10
0.7740880626
 20
10.8443765093
 10
0.7487709742
 20
10.8092011911
 10
0.7240325962
 20
10.7729063179
 10
0.6999433538
 20
10.7355439906
 10
0.6767288376
 20
10.6974396452
 10
0.6544886064
 20
10.6587580011
 10
0.6332167272
 20
10.619485569
 10
0.6129595434
 20
10.5796986921
  0
LWPOLYLINE
  5
331
100
AcDbEntity
  8
RACCORDO
100
AcDbPolyline
 62
253
  6
CONTINUOUS
 90
22
 70
0
 10
1.190529238
 20
11.0571366553
 10
1.1726978259
 20
11.0452595123
 10
1.1539824264
 20
11.031918599
 10
1.1343830393
 20
11.0171139153
 10
1.1137943361
 20
11.0008691423
 10
1.0923216454
 20
10.9831605989
 10
1.0702809531
 20
10.963917242
 10
1.0476573205
 20
10.9430987985
 10
1.0244656864
 20
10.9207455414
 10
1.0010668526
 20
10.8969072471
 10
0.9774553241
 20
10.871539647
 10
0.9536365959
 20
10.8446870096
 10
0.9299879556
 20
10.8165319164
 10
0.9065158158
 20
10.7870337425
 10
0.8832137639
 20
10.7562331127
 10
0.8604398487
 20
10.7244344826
 10
0.8382107
 20
10.691605996
 10
0.8165096882
 20
10.657779509
 10
0.7956449724
 20
10.6233550462
 10
0.7757192725
 20
10.5884659489
 10
0.7566298687
 20
10.5529788758
 10
0.738376761
 20
10.5168938268
  0
LINE
  5
332
100
AcDbEntity
  8
RACCORDO
100
AcDbLine
 62
253
  6
CONTINUOUS
 10
2.4927766357
 20
12.0853440272
 11
1.114894547
 21
11.1766437482
  0
LINE
  5
333
100
AcDbEntity
  8
RACCORDO
100
AcDbLine
 62
253
  6
CONTINUOUS
 10
2.5635626812
 20
11.9626392982
 11
1.190529238
 21
11.0571366553
  0
LINE
  5
334
100
AcDbEntity
  8
RACCORDO
100
AcDbLine
 62
7
  6
CONTINUOUS
 10
2.6397885869
 20
11.9486579197
 11
1.2624443601
 21
11.0403123556
  0
LINE
  5
335
100
AcDbEntity
  8
RACCORDO
100
AcDbLine
 62
253
  6
CONTINUOUS
 10
2.7430342134
 20
11.9408484383
 11
1.3651521247
 21
11.0321481593
  0
LINE
  5
336
100
AcDbEntity
  8
RACCORDO
100
AcDbLine
 62
253
  6
CONTINUOUS
 10
5.3828824749
 20
13.3717020381
 11
6.2729426576
 21
13.9332155198
  0
LINE
  5
337
100
AcDbEntity
  8
RACCORDO
100
AcDbLine
 62
253
  6
CONTINUOUS
 10
5.5308801083
 20
13.1307766766
 11
6.414323347
 21
13.6881157178
  0
LWPOLYLINE
  5
338
100
AcDbEntity
  8
0
100
AcDbPolyline
 62
7
  6
CONTINUOUS
 90
21
 70
0
 10
12.9376331653
 20
18.0943739905
 10
12.9512107444
 20
18.1028259997
 10
12.964156892
 20
18.1115542781
 10
12.9764716083
 20
18.1205588255
 10
12.9881724047
 20
18.1298547852
 10
12.9992417696
 20
18.139427014
 10
13.0096271686
 20
18.1492300826
 10
13.0193253505
 20
18.1592650885
 10
13.0283395663
 20
18.1695309342
 10
13.0366270353
 20
18.1799788986
 10
13.0441843028
 20
18.1906098475
 10
13.0510148233
 20
18.2014229152
 10
13.0570861797
 20
18.2123667835
 10
13.0623947633
 20
18.2234420741
 10
13.0669441827
 20
18.2346481653
 10
13.0707128467
 20
18.2459318735
 10
13.0736970439
 20
18.2572935679
 10
13.0759004857
 20
18.2687328794
 10
13.0773127146
 20
18.2801955176
 10
13.0779299697
 20
18.2916815936
 10
13.0779609798
 20
18.2949175089
  0
LINE
  5
339
100
AcDbEntity
  8
0
100
AcDbLine
 62
253
  6
CONTINUOUS
 10
6.6261480431
 20
13.5658107931
 11
1.9617871796
 21
10.6876585562
  0
LINE
  5
33A
100
AcDbEntity
  8
DRAFT
100
AcDbLine
 62
7
  6
CONTINUOUS
 10
12.9376331653
 20
18.546482508
 11
6.3236886711
 21
14.5522461453
  0
LINE
  5
33B
100
AcDbEntity
  8
0
100
AcDbLine
 62
7
  6
CONTINUOUS
 10
12.9376331653
 20
18.0943739905
 11
6.6745504938
 21
14.3496629262
  0
LINE
  5
33C
100
AcDbEntity
  8
0
100
AcDbLine
 62
253
  6
CONTINUOUS
 10
7.3277450308
 20
13.972516587
 11
6.626809077
 21
13.5654291204
  0
LWPOLYLINE
  5
33D
100
AcDbEntity
  8
0
100
AcDbPolyline
 62
253
  6
CONTINUOUS
 90
37
 70
0
 10
1.9907437608
 20
9.5483634393
 10
1.9750776196
 20
9.5426285921
 10
1.9587939335
 20
9.5372910952
 10
1.9419230222
 20
9.5323608867
 10
1.9244962986
 20
9.5278471466
 10
1.9065462108
 20
9.5237582793
 10
1.8881061811
 20
9.5201018981
 10
1.8692105443
 20
9.516884811
 10
1.8498944833
 20
9.5141130083
 10
1.830193964
 20
9.5117916508
 10
1.810145668
 20
9.5099250608
 10
1.7897869246
 20
9.508516714
 10
1.7691556411
 20
9.5075692325
 10
1.7482902321
 20
9.5070843805
 10
1.7272295484
 20
9.5070630609
 10
1.7060128041
 20
9.5075053133
 10
1.6846795041
 20
9.5084103143
 10
1.6632693703
 20
9.5097763787
 10
1.6418222675
 20
9.5116009631
 10
1.6203781296
 20
9.5138806701
 10
1.5989768847
 20
9.5166112549
 10
1.5776583813
 20
9.5197876334
 10
1.5564623136
 20
9.5234038912
 10
1.5354281479
 20
9.527453295
 10
1.5145950491
 20
9.5319283048
 10
1.4940018078
 20
9.5368205885
 10
1.4736867678
 20
9.5421210368
 10
1.453687755
 20
9.5478197803
 10
1.4340420069
 20
9.5539062083
 10
1.4147861031
 20
9.5603689881
 10
1.3959558975
 20
9.5671960861
 10
1.3775864513
 20
9.5743747905
 10
1.3597119676
 20
9.5818917349
 10
1.3423657283
 20
9.5897329229
 10
1.3255800313
 20
9.5978837546
 10
1.309386131
 20
9.6063290534
 10
1.29381418
 20
9.6150530944
  0
LWPOLYLINE
  5
33E
100
AcDbEntity
  8
RACCORDO
100
AcDbPolyline
 62
253
  6
CONTINUOUS
 90
10
 70
0
 10
0.5977060469
 20
10.0841189553
 10
0.5844565545
 20
10.080015697
 10
0.5695361915
 20
10.0772688696
 10
0.5533884232
 20
10.0759601146
 10
0.536493196
 20
10.0761283311
 10
0.5193526724
 20
10.0777685194
 10
0.5024763056
 20
10.0808319294
 10
0.4863656975
 20
10.0852275101
 10
0.4714996899
 20
10.0908246153
 10
0.4583201327
 20
10.0974568871
  0
LINE
  5
33F
100
AcDbEntity
  8
SMUSSO
100
AcDbLine
 62
7
  6
CONTINUOUS
 10
-10.2686937258
 20
-11.2771345931
 11
-11.3646375323
 21
-11.442879642
  0
LINE
  5
340
100
AcDbEntity
  8
SMUSSO
100
AcDbLine
 62
7
  6
CONTINUOUS
 10
9.3991994386
 20
-7.8692989338
 11
9.8514899288
 21
-7.8297559087
  0
LINE
  5
341
100
AcDbEntity
  8
0
100
AcDbLine
 62
7
  6
CONTINUOUS
 10
-15.2190824991
 20
-6.0357811306
 11
-15.2189122143
 21
-6.0358197945
  0
LWPOLYLINE
  5
342
100
AcDbEntity
  8
0
100
AcDbPolyline
 62
7
  6
CONTINUOUS
 90
9
 70
0
 10
-15.2189122143
 20
-6.0358197945
 10
-15.2163589389
 20
-6.036461108
 10
-15.2094339303
 20
-6.0384415163
 10
-15.1985165763
 20
-6.0420168798
 10
-15.1837767503
 20
-6.0474562029
 10
-15.1656439265
 20
-6.0548829044
 10
-15.144324095
 20
-6.064464793
 10
-15.1199011643
 20
-6.0764026495
 10
-15.0926923337
 20
-6.0907315362
  0
LWPOLYLINE
  5
343
100
AcDbEntity
  8
0
100
AcDbPolyline
 62
7
  6
CONTINUOUS
 90
10
 70
0
 10
-0.8350128919
 20
-16.3864406417
 10
-0.8363051882
 20
-16.3842539503
 10
-0.8367087324
 20
-16.3835388811
 10
-0.8355740464
 20
-16.3858660252
 10
-0.8332355265
 20
-16.3912735641
 10
-0.8297981783
 20
-16.4005925202
 10
-0.8258165053
 20
-16.4140052246
 10
-0.8220337804
 20
-16.431364503
 10
-0.8191839036
 20
-16.4530240493
 10
-0.8183845677
 20
-16.4661052601
  0
LINE
  5
344
100
AcDbEntity
  8
SMUSSO
100
AcDbLine
 62
7
  6
CONTINUOUS
 10
-7.1386382867
 20
-13.5356487499
 11
-7.0346139278
 21
-14.1394666722
  0
LWPOLYLINE
  5
345
100
AcDbEntity
  8
0
100
AcDbPolyline
 62
253
  6
CONTINUOUS
 90
19
 70
0
 10
-7.9845180855
 20
21.1397120278
 10
-7.9843502533
 20
21.130916563
 10
-7.9838468466
 20
21.1223287188
 10
-7.9830084795
 20
21.1139650365
 10
-7.9818362529
 20
21.1058407506
 10
-7.9803321344
 20
21.0979725426
 10
-7.9784993312
 20
21.090378207
 10
-7.9763416063
 20
21.0830730464
 10
-7.9738628722
 20
21.0760700618
 10
-7.9710678149
 20
21.0693825119
 10
-7.9679617179
 20
21.0630230885
 10
-7.9645505077
 20
21.0570039694
 10
-7.9608407233
 20
21.0513367044
 10
-7.9568394601
 20
21.0460321173
 10
-7.9525543142
 20
21.0411002646
 10
-7.9479934141
 20
21.036550503
 10
-7.9431654081
 20
21.0323914746
 10
-7.938079515
 20
21.0286311349
 10
-7.9327511565
 20
21.0252799641
  0
LINE
  5
346
100
AcDbEntity
  8
0
100
AcDbLine
 62
253
  6
CONTINUOUS
 10
-7.6319961258
 20
21.1391199472
 11
-7.6319961258
 21
21.45964012
  0
LINE
  5
347
100
AcDbEntity
  8
RACCORDO
100
AcDbLine
 62
253
  6
CONTINUOUS
 10
-7.2732974774
 20
20.4571288371
 11
-7.2732974774
 21
20.9415108349
  0
LINE
  5
348
100
AcDbEntity
  8
RACCORDO
100
AcDbLine
 62
253
  6
CONTINUOUS
 10
-6.9207755177
 20
20.475679962
 11
-6.9207755177
 21
21.0736299343
  0
LINE
  5
349
100
AcDbEntity
  8
0
100
AcDbLine
 62
7
  6
CONTINUOUS
 10
-6.030715335
 20
22.3841985462
 11
-6.030715335
 21
21.6987561685
  0
LINE
  5
34A
100
AcDbEntity
  8
RACCORDO
100
AcDbLine
 62
7
  6
CONTINUOUS
 10
-6.030715335
 20
21.0371934437
 11
-6.030715335
 21
21.6987561685
  0
LWPOLYLINE
  5
34B
100
AcDbEntity
  8
0
100
AcDbPolyline
 62
7
  6
CONTINUOUS
 90
5
 70
0
 10
-5.4302503063
 20
22.463041548
 10
-5.4325484698
 20
22.4292296067
 10
-5.4395078255
 20
22.3956419909
 10
-5.4511131676
 20
22.3630606914
 10
-5.4672012607
 20
22.3322360535
  0
LWPOLYLINE
  5
34C
100
AcDbEntity
  8
ASSI
100
AcDbPolyline
 62
7
  6
CONTINUOUS
 90
7
 70
0
 10
-11.411967401
 20
-8.2154987256
 10
-11.4168940818
 20
-8.2276407893
 10
-11.4788580419
 20
-8.3629345338
 10
-11.5466643712
 20
-8.495496966
 10
-11.6199697458
 20
-8.6245784632
 10
-11.6991174896
 20
-8.7509286479
 10
-11.7841076027
 20
-8.8745475203
  0
LWPOLYLINE
  5
34D
100
AcDbEntity
  8
ASSI
100
AcDbPolyline
 62
7
  6
CONTINUOUS
 90
9
 70
0
 10
-12.1151834967
 20
-12.4349798157
 10
-12.1247798401
 20
-12.456391423
 10
-12.125415446
 20
-12.4943710173
 10
-12.1113054421
 20
-12.5425508746
 10
-12.0827300534
 20
-12.6007371495
 10
-12.0402392943
 20
-12.6678098823
 10
-11.9840165029
 20
-12.7433957531
 10
-11.9138783411
 20
-12.8278680819
 10
-11.8298248088
 20
-12.9212268686
  0
LINE
  5
34E
100
AcDbEntity
  8
ASSI
100
AcDbLine
 62
7
  6
CONTINUOUS
 10
-10.8814103344
 20
-8.5218357264
 11
-10.9326077472
 21
-8.6359744138
  0
LWPOLYLINE
  5
34F
100
AcDbEntity
  8
0
100
AcDbPolyline
 62
7
  6
CONTINUOUS
 90
31
 70
0
 10
7.5148811619
 20
19.5512861666
 10
7.5231939615
 20
19.5604864449
 10
7.530973288
 20
19.5703293188
 10
7.5382191416
 20
19.5808147882
 10
7.5449421319
 20
19.5919630645
 10
7.5511316492
 20
19.6037539364
 10
7.5567558644
 20
19.6161267696
 10
7.5618118654
 20
19.6290845618
 10
7.5663025643
 20
19.6426243153
 10
7.570204868
 20
19.6566764023
 10
7.5735157455
 20
19.671243462
 10
7.5762382278
 20
19.6863228552
 10
7.5783583146
 20
19.7018370367
 10
7.579872903
 20
19.7177882462
 10
7.5807850961
 20
19.734174244
 10
7.5810902028
 20
19.7509107658
 10
7.5807850961
 20
19.7679996173
 10
7.579872903
 20
19.7854389927
 10
7.5783583146
 20
19.8031392109
 10
7.5762382278
 20
19.8211016156
 10
7.5735157455
 20
19.8393248631
 10
7.570204868
 20
19.8577152411
 10
7.5663025643
 20
19.8762736106
 10
7.5618118654
 20
19.8949991106
 10
7.5567558644
 20
19.9137954461
 10
7.5511316492
 20
19.932662982
 10
7.5449421319
 20
19.9516013533
 10
7.5382191416
 20
19.9705131703
 10
7.530973288
 20
19.9893659698
 10
7.5231939615
 20
20.008192215
 10
7.5148811619
 20
20.0269919059
  0
LWPOLYLINE
  5
350
100
AcDbEntity
  8
RACCORDO
100
AcDbPolyline
 62
253
  6
CONTINUOUS
 90
13
 70
0
 10
1.20895027
 20
10.9087239047
 10
1.1587010692
 20
10.8595247689
 10
1.1098420361
 20
10.8067341604
 10
1.0625841886
 20
10.7505790073
 10
1.0171684385
 20
10.6913054372
 10
0.9739217376
 20
10.6292966577
 10
0.9331654494
 20
10.5650138958
 10
0.895139322
 20
10.4988305743
 10
0.8600687084
 20
10.4311300617
 10
0.8282020907
 20
10.3624240472
 10
0.799737655
 20
10.293187728
 10
0.7747907705
 20
10.2237509543
 10
0.7534545755
 20
10.1544138914
  0
LINE
  5
351
100
AcDbEntity
  8
0
100
AcDbLine
 62
7
  6
CONTINUOUS
 10
7.5170273038
 20
13.7997793411
 11
12.5862467598
 21
17.7864905947
  0
LINE
  5
352
100
AcDbEntity
  8
0
100
AcDbLine
 62
253
  6
CONTINUOUS
 10
7.4706728198
 20
13.8550692973
 11
12.6263410678
 21
17.8900891228
  0
LWPOLYLINE
  5
353
100
AcDbEntity
  8
RACCORDO
100
AcDbPolyline
 62
253
  6
CONTINUOUS
 90
10
 70
0
 10
4.8963405809
 20
13.1126992162
 10
4.9199496737
 20
13.1300811835
 10
4.9426782052
 20
13.1514789444
 10
4.9638807454
 20
13.1762848871
 10
4.9829551952
 20
13.2037946168
 10
4.9993598735
 20
13.2332269403
 10
5.0126289061
 20
13.2637460456
 10
5.0223854715
 20
13.2944852635
 10
5.028352496
 20
13.3245716816
 10
5.0303605152
 20
13.3531509132
  0
LWPOLYLINE
  5
354
100
AcDbEntity
  8
0
100
AcDbPolyline
 62
253
  6
CONTINUOUS
 90
43
 70
0
 10
1.9617871796
 20
10.6876585562
 10
1.9385962624
 20
10.6726751554
 10
1.9154702649
 20
10.6568641087
 10
1.8924335334
 20
10.6402423537
 10
1.8695102301
 20
10.6228278981
 10
1.8467245738
 20
10.6046391774
 10
1.8241008219
 20
10.585694996
 10
1.8016626089
 20
10.5660154112
 10
1.7794337523
 20
10.5456215847
 10
1.7574384929
 20
10.5245351329
 10
1.7357000891
 20
10.5027786633
 10
1.7142413189
 20
10.4803753212
 10
1.693085293
 20
10.4573486079
 10
1.6722542783
 20
10.4337230712
 10
1.6517702118
 20
10.4095239322
 10
1.6316552003
 20
10.3847766446
 10
1.6119304069
 20
10.3595075551
 10
1.5926166148
 20
10.3337436428
 10
1.5737347438
 20
10.3075121401
 10
1.5553047047
 20
10.2808410344
 10
1.5373458617
 20
10.2537587259
 10
1.5198775984
 20
10.2262937653
 10
1.5029183183
 20
10.1984754074
 10
1.4864858586
 20
10.1703332931
 10
1.4705979537
 20
10.141897108
 10
1.455271327
 20
10.1131970915
 10
1.4405221172
 20
10.0842638474
 10
1.4263662932
 20
10.0551280227
 10
1.4128187861
 20
10.0258206643
 10
1.3998938175
 20
9.9963729407
 10
1.3876053292
 20
9.9668159507
 10
1.3759662817
 20
9.9371811604
 10
1.3649888964
 20
9.9075000902
 10
1.3546849917
 20
9.8778040377
 10
1.3450653972
 20
9.8481244562
 10
1.3361402709
 20
9.8184930526
 10
1.3279193317
 20
9.7889414716
 10
1.3204112954
 20
9.759501357
 10
1.3136239617
 20
9.7302037865
 10
1.3075645627
 20
9.7010793759
 10
1.3022395304
 20
9.6721589142
 10
1.297654455
 20
9.6434733228
 10
1.2938141789
 20
9.615053094
  0
LWPOLYLINE
  5
355
100
AcDbEntity
  8
0
100
AcDbPolyline
 62
253
  6
CONTINUOUS
 90
43
 70
0
 10
2.3276199196
 20
10.0829977178
 10
2.3159116497
 20
10.0755548111
 10
2.3042583479
 20
10.0677139807
 10
2.2926600142
 20
10.0594752267
 10
2.2811037771
 20
10.0508285455
 10
2.2696025081
 20
10.0417839407
 10
2.258194822
 20
10.0323714222
 10
2.2468816561
 20
10.0225902067
 10
2.2356620731
 20
10.0124410775
 10
2.2245718753
 20
10.0019563956
 10
2.2136115245
 20
9.9911351287
 10
2.202780559
 20
9.979978309
 10
2.1921133961
 20
9.9685213941
 10
2.1816105482
 20
9.9567634241
 10
2.1712715029
 20
9.944705359
 10
2.1611291408
 20
9.9323855356
 10
2.1511840663
 20
9.9198030878
 10
2.141435675
 20
9.9069588817
 10
2.1319150342
 20
9.8938938523
 10
2.1226228894
 20
9.8806073176
 10
2.1135584951
 20
9.8670999596
 10
2.1047506823
 20
9.8534147586
 10
2.0962002729
 20
9.8395511565
 10
2.0879064449
 20
9.8255097114
 10
2.0798955638
 20
9.8113350774
 10
2.072168522
 20
9.797026814
 10
2.0647244269
 20
9.7825853617
 10
2.0575869659
 20
9.7680566967
 10
2.050757126
 20
9.7534405608
 10
2.0442339201
 20
9.7387372122
 10
2.038038074
 20
9.7239934018
 10
2.0321706294
 20
9.709209013
 10
2.0266305446
 20
9.6943841623
 10
2.0214354204
 20
9.67956595
 10
2.0165863448
 20
9.6647543363
 10
2.0120822299
 20
9.649949361
 10
2.0079374122
 20
9.6351982436
 10
2.0041529175
 20
9.6205001892
 10
2.0007277201
 20
9.6058559926
 10
1.9976730797
 20
9.5913152589
 10
1.9949927497
 20
9.5768945229
 10
1.9926829767
 20
9.5625772497
 10
1.9907437608
 20
9.5483634393
  0
LINE
  5
356
100
AcDbEntity
  8
0
100
AcDbLine
 62
253
  6
CONTINUOUS
 10
6.9794487438
 20
12.9534170373
 11
2.3276199196
 21
10.0829977178
  0
LINE
  5
357
100
AcDbEntity
  8
0
100
AcDbLine
 62
253
  6
CONTINUOUS
 10
7.681293934
 20
13.3601605601
 11
6.9803579802
 21
12.9530730935
  0
LWPOLYLINE
  5
358
100
AcDbEntity
  8
0
100
AcDbPolyline
 62
253
  6
CONTINUOUS
 90
7
 70
0
 10
-15.3262992998
 20
-5.9840802482
 10
-15.3121629998
 20
-5.9853424945
 10
-15.2949127293
 20
-5.9884560123
 10
-15.2746614533
 20
-5.9935822212
 10
-15.2512819681
 20
-6.0009226082
 10
-15.2250891923
 20
-6.0105304581
 10
-15.1968586919
 20
-6.0223357612
  0
LINE
  5
359
100
AcDbEntity
  8
0
100
AcDbLine
 62
253
  6
CONTINUOUS
 10
7.698881685
 20
-13.4401456977
 11
7.9441624198
 21
-13.5817677199
  0
LINE
  5
35A
100
AcDbEntity
  8
0
100
AcDbLine
 62
253
  6
CONTINUOUS
 10
7.9181061413
 20
-13.0811298424
 11
8.1489540836
 21
-13.2144185511
  0
LINE
  5
35B
100
AcDbEntity
  8
0
100
AcDbLine
 62
253
  6
CONTINUOUS
 10
7.9309924255
 20
-13.0588115814
 11
8.1489540836
 21
-13.1846599111
  0
LINE
  5
35C
100
AcDbEntity
  8
0
100
AcDbLine
 62
253
  6
CONTINUOUS
 10
7.984189136
 20
-12.9933356372
 11
8.1112600788
 21
-13.0667048069
  0
LINE
  5
35D
100
AcDbEntity
  8
0
100
AcDbLine
 62
7
  6
CONTINUOUS
 10
12.9315166558
 20
-15.6294027643
 11
12.6263410678
 21
-15.4531982045
  0
LINE
  5
35E
100
AcDbEntity
  8
0
100
AcDbLine
 62
7
  6
CONTINUOUS
 10
12.1429483315
 20
-14.4392700478
 11
8.9913705598
 21
-12.619588541
  0
LWPOLYLINE
  5
35F
100
AcDbEntity
  8
0
100
AcDbPolyline
 62
253
  6
CONTINUOUS
 90
4
 70
0
 10
-9.7344389833
 20
22.1934644868
 10
-9.7355954795
 20
22.2002772077
 10
-9.7361912779
 20
22.2071139306
 10
-9.7362794606
 20
22.210947521
  0
LWPOLYLINE
  5
360
100
AcDbEntity
  8
SMUSSO
100
AcDbPolyline
 62
7
  6
CONTINUOUS
 90
4
 70
0
 10
-2.4956840634
 20
-17.2000936473
 10
-2.4937384492
 20
-17.2227733641
 10
-2.5004810078
 20
-17.2537866587
 10
-2.5053633347
 20
-17.2619397076
  0
LINE
  5
361
100
AcDbEntity
  8
0
100
AcDbLine
 62
253
  6
CONTINUOUS
 10
-5.5024481633
 20
22.6892137354
 11
-5.5024481633
 21
22.3615684349
  0
LINE
  5
362
100
AcDbEntity
  8
0
100
AcDbLine
 62
7
  6
CONTINUOUS
 10
-5.4302503063
 20
22.7906868485
 11
-5.4302503063
 21
22.463041548
  0
LINE
  5
363
100
AcDbEntity
  8
DRAFT
100
AcDbLine
 62
7
  6
CONTINUOUS
 10
-5.429674571
 20
16.8523071364
 11
-5.429674571
 21
17.6049405011
  0
LINE
  5
364
100
AcDbEntity
  8
0
100
AcDbLine
 62
7
  6
CONTINUOUS
 10
-5.1053057791
 20
20.4138087356
 11
-5.1053057791
 21
19.0503973293
  0
LINE
  5
365
100
AcDbEntity
  8
0
100
AcDbLine
 62
7
  6
CONTINUOUS
 10
-4.4397250773
 20
18.6660993738
 11
-4.4397250773
 21
20.0295107801
  0
LWPOLYLINE
  5
366
100
AcDbEntity
  8
0
100
AcDbPolyline
 62
253
  6
CONTINUOUS
 90
3
 70
0
 10
-5.4302503063
 20
22.463041548
 10
-5.4303043995
 20
22.460038929
 10
-5.4308319376
 20
22.453200904
  0
LWPOLYLINE
  5
367
100
AcDbEntity
  8
0
100
AcDbPolyline
 62
253
  6
CONTINUOUS
 90
18
 70
0
 10
-5.4302503063
 20
22.7906868485
 10
-5.4303049858
 20
22.7876680013
 10
-5.4308339588
 20
22.780829141
 10
-5.4319238973
 20
22.774012496
 10
-5.4335723444
 20
22.7672333785
 10
-5.4357756027
 20
22.7605069912
 10
-5.4385287498
 20
22.7538484008
 10
-5.4418255801
 20
22.7472726477
 10
-5.4456585947
 20
22.7407946613
 10
-5.4500190807
 20
22.7344290901
 10
-5.4548972503
 20
22.7281901555
 10
-5.4602822104
 20
22.7220917672
 10
-5.4661627714
 20
22.7161467584
 10
-5.4725249332
 20
22.7103694305
 10
-5.4793513341
 20
22.7047751576
 10
-5.4866249552
 20
22.699377035
 10
-5.4943298432
 20
22.6941861041
 10
-5.5024481633
 20
22.6892137354
  0
LWPOLYLINE
  5
368
100
AcDbEntity
  8
0
100
AcDbPolyline
 62
7
  6
CONTINUOUS
 90
31
 70
0
 10
-3.7326182962
 20
20.2801886567
 10
-3.7324215663
 20
20.2888550109
 10
-3.7318454764
 20
20.2976712624
 10
-3.7308900267
 20
20.3066374112
 10
-3.7295505684
 20
20.3157785936
 10
-3.7278317503
 20
20.3250696734
 10
-3.7257475177
 20
20.3344352414
 10
-3.723294873
 20
20.3438759758
 10
-3.720476814
 20
20.3533911984
 10
-3.7173162796
 20
20.3629034666
 10
-3.7138105298
 20
20.3724126348
 10
-3.7099623047
 20
20.3819188484
 10
-3.7058027637
 20
20.3913451011
 10
-3.7013293146
 20
20.4006908747
 10
-3.6965445495
 20
20.4099566872
 10
-3.6914874046
 20
20.4190670859
 10
-3.6861556424
 20
20.4280207939
 10
-3.6805515004
 20
20.4368190882
 10
-3.6747206275
 20
20.445390346
 10
-3.6686612638
 20
20.453732602
 10
-3.6623751693
 20
20.4618478215
 10
-3.6559132722
 20
20.4696702778
 10
-3.6492740607
 20
20.47719769
 10
-3.6424590467
 20
20.484432339
 10
-3.6355236949
 20
20.4913153403
 10
-3.6284670758
 20
20.4978437751
 10
-3.6212901189
 20
20.5040205622
 10
-3.6140510767
 20
20.5097955731
 10
-3.6067693669
 20
20.5151520985
 10
-3.5994255717
 20
20.5201068477
 10
-3.5920196914
 20
20.5246598209
  0
LWPOLYLINE
  5
369
100
AcDbEntity
  8
ASSI
100
AcDbPolyline
 62
7
  6
CONTINUOUS
 90
7
 70
0
 10
-10.5790543566
 20
-8.8401117105
 10
-10.6254670199
 20
-8.9347284945
 10
-10.6747259359
 20
-9.0278171683
 10
-10.7268311046
 20
-9.1193777319
 10
-10.7817825258
 20
-9.2094101854
 10
-10.8395801997
 20
-9.2979145288
 10
-10.9002241262
 20
-9.3848907619
  0
LWPOLYLINE
  5
36A
100
AcDbEntity
  8
RACCORDO
100
AcDbPolyline
 62
253
  6
CONTINUOUS
 90
13
 70
0
 10
0.738376761
 20
10.5207954321
 10
0.7173954606
 20
10.4780281442
 10
0.6982162778
 20
10.4362093579
 10
0.6808392125
 20
10.3953390731
 10
0.6653339989
 20
10.3553061956
 10
0.6516309029
 20
10.3162218197
 10
0.6395207218
 20
10.2784192278
 10
0.6290146993
 20
10.2418268753
 10
0.6201015918
 20
10.2065163068
 10
0.6125384661
 20
10.173035439
 10
0.6062443446
 20
10.1415669105
 10
0.6013002048
 20
10.1119280826
 10
0.5977060469
 20
10.0841189553
  0
LWPOLYLINE
  5
36B
100
AcDbEntity
  8
RACCORDO
100
AcDbPolyline
 62
253
  6
CONTINUOUS
 90
16
 70
0
 10
0.6129595434
 20
10.5796986921
 10
0.5947382005
 20
10.5431351224
 10
0.5776998543
 20
10.5067605114
 10
0.56183526
 20
10.4706443283
 10
0.5471004699
 20
10.4347706443
 10
0.5335161211
 20
10.3992808385
 10
0.5211462052
 20
10.3644749679
 10
0.5099510469
 20
10.3304027269
 10
0.4998887091
 20
10.297110987
 10
0.490977721
 20
10.2648855235
 10
0.4831568285
 20
10.2337670778
 10
0.4763575052
 20
10.2037675057
 10
0.4705510824
 20
10.1751132341
 10
0.4656681312
 20
10.1478796444
 10
0.4616165851
 20
10.1219960369
 10
0.4583201306
 20
10.0974568863
  0
LWPOLYLINE
  5
36C
100
AcDbEntity
  8
0
100
AcDbPolyline
 62
7
  6
CONTINUOUS
 90
25
 70
0
 10
2.2424340049
 20
16.5313194742
 10
2.2480119951
 20
16.5420668929
 10
2.2531190911
 20
16.5532768524
 10
2.2577552929
 20
16.5649493528
 10
2.2619257532
 20
16.5771021612
 10
2.2656253193
 20
16.5897175105
 10
2.2688385329
 20
16.602742099
 10
2.2715633579
 20
16.6161776312
 10
2.2738018304
 20
16.6300224028
 10
2.2755446003
 20
16.6442179985
 10
2.2767895939
 20
16.6587658817
 10
2.2775388849
 20
16.6736645891
 10
2.2777893439
 20
16.6888513159
 10
2.2775388849
 20
16.7043272664
 10
2.2767895939
 20
16.7200912362
 10
2.2755446003
 20
16.7360768069
 10
2.2738018304
 20
16.7522849096
 10
2.2715633579
 20
16.768714613
 10
2.2688385329
 20
16.785296705
 10
2.2656253193
 20
16.802031832
 10
2.2619257532
 20
16.8189193474
 10
2.2577552929
 20
16.8358880989
 10
2.2531190911
 20
16.8529143688
 10
2.2480119951
 20
16.8700218749
 10
2.2424340049
 20
16.8872106169
  0
LINE
  5
36D
100
AcDbEntity
  8
0
100
AcDbLine
 62
253
  6
CONTINUOUS
 10
6.8189495456
 20
15.2032968231
 11
6.8189098299
 21
15.2032467063
  0
LINE
  5
36E
100
AcDbEntity
  8
0
100
AcDbLine
 62
253
  6
CONTINUOUS
 10
6.2729426576
 20
14.5947782446
 11
6.8012098294
 21
15.257590511
  0
LINE
  5
36F
100
AcDbEntity
  8
0
100
AcDbLine
 62
7
  6
CONTINUOUS
 10
6.2729426576
 20
14.5182264018
 11
6.8189098299
 21
15.2032467063
  0
LINE
  5
370
100
AcDbEntity
  8
RACCORDO
100
AcDbLine
 62
7
  6
CONTINUOUS
 10
0.1508658743
 20
5.3513493073
 11
0.1406798934
 21
5.344015166
  0
LINE
  5
371
100
AcDbEntity
  8
RACCORDO
100
AcDbLine
 62
7
  6
CONTINUOUS
 10
0.140756203
 20
5.3440582631
 11
0.1406641952
 21
5.3440023407
  0
LWPOLYLINE
  5
372
100
AcDbEntity
  8
RACCORDO
100
AcDbPolyline
 62
253
  6
CONTINUOUS
 90
9
 70
0
 10
0.1406641952
 20
5.3440023407
 10
0.1311331521
 20
5.338551844
 10
0.1086258234
 20
5.3281632897
 10
0.0858894494
 20
5.3208013953
 10
0.0630664374
 20
5.316179726
 10
0.0404002713
 20
5.3140635814
 10
0.0180735142
 20
5.3142081759
 10
-0.0039163652
 20
5.316351982
 10
-0.025426784
 20
5.3202835798
  0
LINE
  5
373
100
AcDbEntity
  8
RACCORDO
100
AcDbLine
 62
253
  6
CONTINUOUS
 10
0.1452972668
 20
5.59547265
 11
0.2246120047
 21
5.6389111802
  0
LINE
  5
374
100
AcDbEntity
  8
RACCORDO
100
AcDbLine
 62
7
  6
CONTINUOUS
 10
0.0198567579
 20
5.3545881724
 11
0.2055316721
 21
5.4562772858
  0
LWPOLYLINE
  5
375
100
AcDbEntity
  8
RACCORDO
100
AcDbPolyline
 62
253
  6
CONTINUOUS
 90
7
 70
0
 10
-0.0959348287
 20
5.410353192
 10
-0.1079452378
 20
5.4041372104
 10
-0.1202767117
 20
5.3989915981
 10
-0.1329339294
 20
5.3949541508
 10
-0.1459128451
 20
5.3919867722
 10
-0.1589904217
 20
5.3900176386
 10
-0.1721791308
 20
5.3890803428
  0
LWPOLYLINE
  5
376
100
AcDbEntity
  8
RACCORDO
100
AcDbPolyline
 62
253
  6
CONTINUOUS
 90
10
 70
0
 10
0.1452971713
 20
5.5954727071
 10
0.1319623605
 20
5.5905120806
 10
0.1169594794
 20
5.5869331489
 10
0.1007343754
 20
5.5848422687
 10
0.083769217
 20
5.5843015755
 10
0.0665681656
 20
5.5853271374
 10
0.0496423925
 20
5.5878884774
 10
0.0334948885
 20
5.5919094788
 10
0.0186055162
 20
5.5972706479
 10
0.0054167497
 20
5.6038126644
  0
LINE
  5
377
100
AcDbEntity
  8
0
100
AcDbLine
 62
7
  6
CONTINUOUS
 10
9.1751717279
 20
-10.6858609804
 11
8.0084455389
 21
-10.0122079014
  0
LWPOLYLINE
  5
378
100
AcDbEntity
  8
0
100
AcDbPolyline
 62
253
  6
CONTINUOUS
 90
12
 70
0
 10
6.7936456561
 20
-23.4406780419
 10
6.7886208185
 20
-23.4309089254
 10
6.7832231047
 20
-23.421470255
 10
6.777464697
 20
-23.4123833331
 10
6.7713585916
 20
-23.4036686684
 10
6.7649185698
 20
-23.3953459294
 10
6.7581591663
 20
-23.3874339
 10
6.7510956367
 20
-23.3799504372
 10
6.7437439229
 20
-23.3729124307
 10
6.7361206173
 20
-23.3663357649
 10
6.7282429254
 20
-23.360235283
 10
6.7201286264
 20
-23.3546247533
  0
LINE
  5
379
100
AcDbEntity
  8
SMUSSO
100
AcDbLine
 62
7
  6
CONTINUOUS
 10
-2.6838655653
 20
-16.1077786878
 11
-2.4956840634
 21
-17.2000936473
  0
LWPOLYLINE
  5
37A
100
AcDbEntity
  8
0
100
AcDbPolyline
 62
253
  6
CONTINUOUS
 90
7
 70
0
 10
-0.4455049518
 20
-21.7849013489
 10
-0.4435339708
 20
-21.7972094836
 10
-0.4357757437
 20
-21.8214221262
 10
-0.4230802421
 20
-21.8444618749
 10
-0.4056646893
 20
-21.865934513
 10
-0.3838270702
 20
-21.8854726377
 10
-0.3579410323
 20
-21.9027419463
  0
LINE
  5
37B
100
AcDbEntity
  8
0
100
AcDbLine
 62
7
  6
CONTINUOUS
 10
-0.44553094
 20
-21.7846597229
 11
-0.4455049518
 21
-21.7849013489
  0
LWPOLYLINE
  5
37C
100
AcDbEntity
  8
0
100
AcDbPolyline
 62
253
  6
CONTINUOUS
 90
14
 70
0
 10
-0.4014549815
 20
-21.4825012794
 10
-0.4416561052
 20
-21.0707399195
 10
-0.4787082679
 20
-20.6675882762
 10
-0.5127277775
 20
-20.2736951508
 10
-0.543919901
 20
-19.8886615953
 10
-0.5725526524
 20
-19.5110232056
 10
-0.5987851699
 20
-19.1403900789
 10
-0.6227029062
 20
-18.7773385652
 10
-0.6444338921
 20
-18.4218313315
 10
-0.6639563347
 20
-18.0764948927
 10
-0.6815430951
 20
-17.7388845542
 10
-0.6976595022
 20
-17.4012866146
 10
-0.7124243594
 20
-17.0611116473
 10
-0.7257197729
 20
-16.7209653232
  0
LWPOLYLINE
  5
37D
100
AcDbEntity
  8
0
100
AcDbPolyline
 62
7
  6
CONTINUOUS
 90
9
 70
0
 10
-0.4455049518
 20
-21.7849013489
 10
-0.4411780806
 20
-21.8414709793
 10
-0.4404809865
 20
-21.8885700771
 10
-0.4424815087
 20
-21.9288696475
 10
-0.4465083308
 20
-21.9623884385
 10
-0.4517866075
 20
-21.9889203193
 10
-0.4574041161
 20
-22.0083919106
 10
-0.4624157472
 20
-22.021144048
 10
-0.4641791463
 20
-22.0247642771
  0
LINE
  5
37E
100
AcDbEntity
  8
0
100
AcDbLine
 62
7
  6
CONTINUOUS
 10
-3.7326182962
 20
20.2801886567
 11
-3.7326182962
 21
19.1171633612
  0
LINE
  5
37F
100
AcDbEntity
  8
0
100
AcDbLine
 62
253
  6
CONTINUOUS
 10
-2.1062726994
 20
18.1781317965
 11
-2.1062726994
 21
19.341157092
  0
LINE
  5
380
100
AcDbEntity
  8
0
100
AcDbLine
 62
253
  6
CONTINUOUS
 10
-1.823429987
 20
18.1866896753
 11
-1.823429987
 21
19.341157092
  0
LWPOLYLINE
  5
381
100
AcDbEntity
  8
0
100
AcDbPolyline
 62
253
  6
CONTINUOUS
 90
31
 70
0
 10
-2.1062726994
 20
19.341157092
 10
-2.1060802392
 20
19.3497845089
 10
-2.1055033806
 20
19.3586107119
 10
-2.1045436911
 20
19.367611679
 10
-2.1032037788
 20
19.3767629217
 10
-2.1014872889
 20
19.3860395235
 10
-2.0993988979
 20
19.395416207
 10
-2.096944293
 20
19.4048674426
 10
-2.0941301546
 20
19.4143675127
 10
-2.0909641459
 20
19.4238905523
 10
-2.0874548856
 20
19.4334106416
 10
-2.0836119271
 20
19.4429018684
 10
-2.0794457355
 20
19.4523383912
 10
-2.0749676494
 20
19.4616945327
 10
-2.0701898624
 20
19.4709448216
 10
-2.0651253961
 20
19.4800640547
 10
-2.0597880605
 20
19.4890273796
 10
-2.0541923675
 20
19.4978104393
 10
-2.0483534991
 20
19.5063894057
 10
-2.0422872632
 20
19.5147410362
 10
-2.036010244
 20
19.5228424826
 10
-2.029539727
 20
19.5306714545
 10
-2.02289347
 20
19.5382065229
 10
-2.0160894488
 20
19.5454273637
 10
-2.009145995
 20
19.5523145419
 10
-2.0020805359
 20
19.5588506251
 10
-1.9949137238
 20
19.5650163648
 10
-1.9876693685
 20
19.5707916813
 10
-1.9803687391
 20
19.5761605519
 10
-1.973030329
 20
19.5811103012
 10
-1.9656740947
 20
19.5856282562
  0
LWPOLYLINE
  5
382
100
AcDbEntity
  8
0
100
AcDbPolyline
 62
253
  6
CONTINUOUS
 90
10
 70
0
 10
-3.9634651971
 20
-11.5323405762
 10
-3.9693325151
 20
-11.6041524491
 10
-3.9702921722
 20
-11.6726397789
 10
-3.9663441686
 20
-11.7378025655
 10
-3.9573753901
 20
-11.8001208497
 10
-3.9434989508
 20
-11.8591145908
 10
-3.9250541928
 20
-11.9133436668
 10
-3.9021542303
 20
-11.962328037
 10
-3.874685949
 20
-12.0065477421
 10
-3.8426493491
 20
-12.0460027822
  0
LWPOLYLINE
  5
383
100
AcDbEntity
  8
0
100
AcDbPolyline
 62
253
  6
CONTINUOUS
 90
10
 70
0
 10
-4.6670404944
 20
-11.4727457164
 10
-4.6758595992
 20
-11.5796750571
 10
-4.6772840128
 20
-11.6828294364
 10
-4.6713037879
 20
-11.7814884786
 10
-4.6579606871
 20
-11.8749632015
 10
-4.6373478916
 20
-11.9626008267
 10
-4.6096093502
 20
-12.0437893392
 10
-4.5749387745
 20
-12.1179617613
 10
-4.5335782853
 20
-12.1846001123
 10
-4.4858167224
 20
-12.2432390252
  0
LWPOLYLINE
  5
384
100
AcDbEntity
  8
0
100
AcDbPolyline
 62
253
  6
CONTINUOUS
 90
10
 70
0
 10
-0.4074938536
 20
18.3877017967
 10
-0.4061568184
 20
18.3968476988
 10
-0.4044424358
 20
18.4061244737
 10
-0.4023560513
 20
18.4155015061
 10
-0.3999038876
 20
18.4249513147
 10
-0.3970922262
 20
18.4344501073
 10
-0.3939286253
 20
18.4439723019
 10
-0.3904215932
 20
18.4534921724
 10
-0.3865807054
 20
18.4629836212
 10
-0.3824165221
 20
18.4724205206
  0
LWPOLYLINE
  5
385
100
AcDbEntity
  8
RACCORDO
100
AcDbPolyline
 62
253
  6
CONTINUOUS
 90
3
 70
0
 10
0.7534545755
 20
10.1544138914
 10
0.7358417169
 20
10.0855416304
 10
0.7220659764
 20
10.0175626081
  0
LWPOLYLINE
  5
386
100
AcDbEntity
  8
RACCORDO
100
AcDbPolyline
 62
253
  6
CONTINUOUS
 90
19
 70
0
 10
0.2421084064
 20
5.2859958367
 10
0.2234868781
 20
5.242448271
 10
0.2011759294
 20
5.2033632451
 10
0.176633393
 20
5.1693683325
 10
0.1498823096
 20
5.1408704085
 10
0.1208888188
 20
5.1174574738
 10
0.0910235227
 20
5.0985278862
 10
0.0604252088
 20
5.0842188899
 10
0.0289468127
 20
5.0743892961
 10
-0.0024689686
 20
5.0680202246
 10
-0.0336840157
 20
5.0650965334
 10
-0.0648412583
 20
5.0656310627
 10
-0.0954182674
 20
5.0686475277
 10
-0.1253275085
 20
5.074082024
 10
-0.1546587609
 20
5.0819973792
 10
-0.183154677
 20
5.0916078329
 10
-0.2107296577
 20
5.1026513769
 10
-0.2374700474
 20
5.1153896615
 10
-0.2633760237
 20
5.1298226013
  0
LINE
  5
387
100
AcDbEntity
  8
ASSI
100
AcDbLine
 62
7
  6
CONTINUOUS
 10
-7.3458764285
 20
-10.563208693
 11
-7.3970738412
 21
-10.6773473804
  0
LWPOLYLINE
  5
388
100
AcDbEntity
  8
ASSI
100
AcDbPolyline
 62
7
  6
CONTINUOUS
 90
7
 70
0
 10
-7.7506272318
 20
-10.4732100838
 10
-7.7970398952
 20
-10.5678268678
 10
-7.8462988112
 20
-10.6609155416
 10
-7.8984039798
 20
-10.7524761053
 10
-7.9533554011
 20
-10.8425085587
 10
-8.011153075
 20
-10.9310129021
 10
-8.0717970015
 20
-11.0179891352
  0
LWPOLYLINE
  5
389
100
AcDbEntity
  8
0
100
AcDbPolyline
 62
253
  6
CONTINUOUS
 90
10
 70
0
 10
-11.8112534105
 20
-15.8018939524
 10
-11.8237700152
 20
-15.8271665934
 10
-11.8347573455
 20
-15.8528384957
 10
-11.8441175122
 20
-15.8786809415
 10
-11.8517671233
 20
-15.9044636936
 10
-11.8576380263
 20
-15.9299570467
 10
-11.8616779158
 20
-15.9549338738
 10
-11.8638507994
 20
-15.9791716497
 10
-11.8641373182
 20
-16.0024544337
 10
-11.8625349196
 20
-16.0245747933
  0
LWPOLYLINE
  5
38A
100
AcDbEntity
  8
RACCORDO
100
AcDbPolyline
 62
253
  6
CONTINUOUS
 90
10
 70
0
 10
0.1132851819
 20
5.4596546486
 10
0.1052094253
 20
5.4434784904
 10
0.0961565942
 20
5.4280027981
 10
0.0861042072
 20
5.4133134364
 10
0.0751564778
 20
5.3996344677
 10
0.0633288953
 20
5.3870284862
 10
0.0506326438
 20
5.3755484088
 10
0.0372166471
 20
5.3653386117
 10
0.0231322661
 20
5.3564242864
 10
0.0200644351
 20
5.3547020795
  0
LINE
  5
38B
100
AcDbEntity
  8
0
100
AcDbLine
 62
253
  6
CONTINUOUS
 10
-12.0973242844
 20
-14.8530324074
 11
-11.3275865488
 21
-13.4003079992
  0
LINE
  5
38C
100
AcDbEntity
  8
0
100
AcDbLine
 62
253
  6
CONTINUOUS
 10
-11.8112534105
 20
-15.8018939524
 11
-10.7802281861
 21
-13.8560422165
  0
LWPOLYLINE
  5
38D
100
AcDbEntity
  8
RACCORDO
100
AcDbPolyline
 62
253
  6
CONTINUOUS
 90
7
 70
0
 10
-0.0361469911
 20
5.4684882063
 10
-0.0444306666
 20
5.4565483268
 10
-0.0534111602
 20
5.4454596547
 10
-0.0631176193
 20
5.435262061
 10
-0.0735213319
 20
5.4259154694
 10
-0.0844554812
 20
5.4175975057
 10
-0.0959348287
 20
5.410353192
  0
LINE
  5
38E
100
AcDbEntity
  8
0
100
AcDbLine
 62
7
  6
CONTINUOUS
 10
6.837075936
 20
15.2292719483
 11
6.8189495456
 21
15.2032968231
  0
LINE
  5
38F
100
AcDbEntity
  8
ASSI
100
AcDbLine
 62
7
  6
CONTINUOUS
 10
-10.859414157
 20
-8.5345360436
 11
-10.9326077472
 21
-8.6359744138
  0
LINE
  5
390
100
AcDbEntity
  8
ASSI
100
AcDbLine
 62
7
  6
CONTINUOUS
 10
-10.5058607664
 20
-8.7386733403
 11
-10.5790543566
 21
-8.8401117105
  0
LINE
  5
391
100
AcDbEntity
  8
ASSI
100
AcDbLine
 62
7
  6
CONTINUOUS
 10
-11.4202791482
 20
-11.47156124
 11
-12.1153527066
 21
-12.4348577354
  0
LWPOLYLINE
  5
392
100
AcDbEntity
  8
0
100
AcDbPolyline
 62
253
  6
CONTINUOUS
 90
13
 70
0
 10
-12.4477405471
 20
-10.0967685571
 10
-12.4232443452
 20
-10.0663824923
 10
-12.3955376284
 20
-10.0386120602
 10
-12.3650944684
 20
-10.0139324226
 10
-12.3324357526
 20
-9.9927658534
 10
-12.2981202882
 20
-9.9754745247
 10
-12.2627352434
 20
-9.962354303
 10
-12.2268860594
 20
-9.9536296712
 10
-12.1911861377
 20
-9.9494499082
 10
-12.1562463604
 20
-9.9498865204
 10
-12.1226645645
 20
-9.9549320083
 10
-12.0910153154
 20
-9.9645000166
 10
-12.0618401231
 20
-9.9784268112
  0
LWPOLYLINE
  5
393
100
AcDbEntity
  8
ASSI
100
AcDbPolyline
 62
7
  6
CONTINUOUS
 90
11
 70
0
 10
8.7929272498
 20
11.7602365602
 10
8.7060518847
 20
11.683288084
 10
8.6185731393
 20
11.612459222
 10
8.5304910137
 20
11.547749974
 10
8.4414523848
 20
11.4889474622
 10
8.3518103756
 20
11.4362645644
 10
8.2626243553
 20
11.3903399149
 10
8.1738811109
 20
11.3512510536
 10
8.0855938554
 20
11.3189204406
 10
7.9988615974
 20
11.2937540894
 10
7.9253541345
 20
11.278296547
  0
LWPOLYLINE
  5
394
100
AcDbEntity
  8
ASSI
100
AcDbPolyline
 62
7
  6
CONTINUOUS
 90
11
 70
0
 10
9.7121660654
 20
11.2294795888
 10
9.6252907002
 20
11.1525311127
 10
9.5378119549
 20
11.0817022506
 10
9.4497298292
 20
11.0169930027
 10
9.3606912003
 20
10.9581904908
 10
9.2710491911
 20
10.9055075931
 10
9.1818631709
 20
10.8595829435
 10
9.0931199265
 20
10.8204940823
 10
9.004832671
 20
10.7881634692
 10
8.9181004129
 20
10.7629971181
 10
8.84459295
 20
10.7475395756
  0
LINE
  5
395
100
AcDbEntity
  8
0
100
AcDbLine
 62
7
  6
CONTINUOUS
 10
7.698881685
 20
-8.6083085647
 11
7.0088755926
 21
-8.2099076948
  0
LINE
  5
396
100
AcDbEntity
  8
SMUSSO
100
AcDbLine
 62
7
  6
CONTINUOUS
 10
8.9749353699
 20
-7.6243341778
 11
9.3991994386
 21
-7.8692989338
  0
LINE
  5
397
100
AcDbEntity
  8
0
100
AcDbLine
 62
253
  6
CONTINUOUS
 10
-13.6213695078
 20
6.6722963147
 11
-13.6012029645
 21
6.6590455825
  0
LINE
  5
398
100
AcDbEntity
  8
ASSI
100
AcDbLine
 62
7
  6
CONTINUOUS
 10
7.698881685
 20
-12.4498605048
 11
8.080923293
 21
-12.8592725969
  0
LINE
  5
399
100
AcDbEntity
  8
0
100
AcDbLine
 62
7
  6
CONTINUOUS
 10
8.0101068449
 20
-12.9574165063
 11
8.1112600788
 21
-13.0667048069
  0
LWPOLYLINE
  5
39A
100
AcDbEntity
  8
0
100
AcDbPolyline
 62
253
  6
CONTINUOUS
 90
43
 70
0
 10
1.9907437608
 20
-24.9657260234
 10
1.9926851977
 20
-24.9777864357
 10
1.9949966133
 20
-24.9895342297
 10
1.9976780078
 20
-25.0009694055
 10
2.0007330003
 20
-25.0121033663
 10
2.0041579717
 20
-25.0229247089
 10
2.0079420638
 20
-25.0333992234
 10
2.0120864391
 20
-25.043525876
 10
2.016589935
 20
-25.0533057005
 10
2.021438207
 20
-25.0627075881
 10
2.0266323477
 20
-25.071730323
 10
2.0321712644
 20
-25.080375121
 10
2.038037334
 20
-25.0886145213
 10
2.0442315926
 20
-25.0964472314
 10
2.0507530041
 20
-25.1038745437
 10
2.0575808365
 20
-25.1108728751
 10
2.0647160657
 20
-25.1174408649
 10
2.0721577158
 20
-25.1235798739
 10
2.0798821274
 20
-25.1292704004
 10
2.0878901976
 20
-25.1345110181
 10
2.0961810294
 20
-25.1393031533
 10
2.1047282725
 20
-25.1436315845
 10
2.113532742
 20
-25.1474948379
 10
2.1225936229
 20
-25.1508943872
 10
2.1318821191
 20
-25.1538194312
 10
2.1413989553
 20
-25.1562684619
 10
2.151143407
 20
-25.1582429873
 10
2.1610845043
 20
-25.1597367301
 10
2.171222871
 20
-25.1607481622
 10
2.1815578833
 20
-25.1612788118
 10
2.192056701
 20
-25.1613269861
 10
2.2027198466
 20
-25.1608911517
 10
2.2135467974
 20
-25.1599728419
 10
2.2245031457
 20
-25.1585749643
 10
2.2355893037
 20
-25.1566959941
 10
2.2468048592
 20
-25.1543374561
 10
2.2581141681
 20
-25.1515068317
 10
2.2695170644
 20
-25.1482028466
 10
2.2810137141
 20
-25.1444267752
 10
2.292568972
 20
-25.1401899226
 10
2.3041711227
 20
-25.1354960574
 10
2.3158318816
 20
-25.130341411
 10
2.3275512485
 20
-25.1247259835
  0
LWPOLYLINE
  5
39B
100
AcDbEntity
  8
0
100
AcDbPolyline
 62
253
  6
CONTINUOUS
 90
21
 70
0
 10
1.2938141789
 20
-25.0207876679
 10
1.2976543862
 20
-25.0448497691
 10
1.3022394076
 20
-25.0683320247
 10
1.3075644183
 20
-25.0912095205
 10
1.3136238777
 20
-25.1134580278
 10
1.3204113462
 20
-25.1350539107
 10
1.3279194904
 20
-25.1559741519
 10
1.3361404227
 20
-25.1761965754
 10
1.3450654734
 20
-25.195699748
 10
1.3546850126
 20
-25.2144628819
 10
1.3649889411
 20
-25.23246612
 10
1.3759663906
 20
-25.249690373
 10
1.3876054977
 20
-25.2661172194
 10
1.3998940228
 20
-25.2817292771
 10
1.4128190181
 20
-25.2965100274
 10
1.4263665337
 20
-25.3104436454
 10
1.4405223324
 20
-25.3235154159
 10
1.4552714925
 20
-25.3357115127
 10
1.4705980774
 20
-25.3470188191
 10
1.4864859663
 20
-25.3574254119
 10
1.493990482
 20
-25.3619140048
  0
LWPOLYLINE
  5
39C
100
AcDbEntity
  8
0
100
AcDbPolyline
 62
253
  6
CONTINUOUS
 90
8
 70
0
 10
0.8244231577
 20
-20.8339221222
 10
0.8768313213
 20
-21.4420828706
 10
0.9341299126
 20
-22.0469739479
 10
0.9963146426
 20
-22.6485495202
 10
1.0633806397
 20
-23.2467639067
 10
1.1353228258
 20
-23.8415717312
 10
1.2121359148
 20
-24.4329279266
 10
1.2938141789
 20
-25.0207876679
  0
LWPOLYLINE
  5
39D
100
AcDbEntity
  8
0
100
AcDbPolyline
 62
253
  6
CONTINUOUS
 90
10
 70
0
 10
-0.7375571911
 20
-16.3808626565
 10
-0.7384888869
 20
-16.3658228688
 10
-0.7402780307
 20
-16.3513782473
 10
-0.7429174005
 20
-16.3375875209
 10
-0.7463963125
 20
-16.3245068137
 10
-0.7507006731
 20
-16.3121892699
 10
-0.75581307
 20
-16.3006848705
 10
-0.7617128126
 20
-16.2900404124
 10
-0.7683759812
 20
-16.280299285
 10
-0.7757755573
 20
-16.2715011693
  0
LWPOLYLINE
  5
39E
100
AcDbEntity
  8
0
100
AcDbPolyline
 62
253
  6
CONTINUOUS
 90
10
 70
0
 10
-0.6314911713
 20
-16.442103847
 10
-0.6324220924
 20
-16.4270617207
 10
-0.6342109463
 20
-16.4126155596
 10
-0.6368503809
 20
-16.3988240262
 10
-0.6403295753
 20
-16.3857431551
 10
-0.6446343182
 20
-16.3734259946
 10
-0.649747093
 20
-16.3619224171
 10
-0.6556470922
 20
-16.3512790837
 10
-0.6623102753
 20
-16.3415392286
 10
-0.6697095189
 20
-16.3327423705
  0
LWPOLYLINE
  5
39F
100
AcDbEntity
  8
0
100
AcDbPolyline
 62
7
  6
CONTINUOUS
 90
10
 70
0
 10
-0.8183785501
 20
-16.4661993154
 10
-0.8024795354
 20
-16.8856329464
 10
-0.7747238303
 20
-17.5090536178
 10
-0.7421450518
 20
-18.1294125279
 10
-0.7047452832
 20
-18.7466631524
 10
-0.6625269916
 20
-19.3607586943
 10
-0.6154930456
 20
-19.9716521233
 10
-0.5636466474
 20
-20.5792971541
 10
-0.5069913153
 20
-21.1836482132
 10
-0.44553094
 20
-21.7846597229
  0
LINE
  5
3A0
100
AcDbEntity
  8
0
100
AcDbLine
 62
253
  6
CONTINUOUS
 10
-0.7257197729
 20
-16.7209653232
 11
-0.7375571885
 21
-16.380862658
  0
LWPOLYLINE
  5
3A1
100
AcDbEntity
  8
0
100
AcDbPolyline
 62
253
  6
CONTINUOUS
 90
9
 70
0
 10
0.5816117173
 20
-15.8565193883
 10
0.5947847082
 20
-16.4891554057
 10
0.6128694544
 20
-17.1188976416
 10
0.6358646072
 20
-17.7456983156
 10
0.6637684932
 20
-18.3695098745
 10
0.6965789896
 20
-18.9902849951
 10
0.7342935267
 20
-19.6079765867
 10
0.7769093155
 20
-20.2225378509
 10
0.8244231577
 20
-20.8339221222
  0
LWPOLYLINE
  5
3A2
100
AcDbEntity
  8
0
100
AcDbPolyline
 62
253
  6
CONTINUOUS
 90
16
 70
0
 10
-0.8183816204
 20
-16.4661120037
 10
-0.8185957965
 20
-16.4534252939
 10
-0.8181594489
 20
-16.4383884384
 10
-0.8169126799
 20
-16.4247347903
 10
-0.8148424969
 20
-16.4124004503
 10
-0.8119418015
 20
-16.4014031414
 10
-0.8081890502
 20
-16.3919622106
 10
-0.8035634448
 20
-16.3840528733
 10
-0.7980698972
 20
-16.3776467248
 10
-0.7917390896
 20
-16.3729596655
 10
-0.784588673
 20
-16.3700248139
 10
-0.7766319679
 20
-16.368762329
 10
-0.7679181483
 20
-16.3692258145
 10
-0.7584861135
 20
-16.3714218772
 10
-0.7483555832
 20
-16.3753067288
 10
-0.7375571885
 20
-16.380862658
  0
LWPOLYLINE
  5
3A3
100
AcDbEntity
  8
0
100
AcDbPolyline
 62
253
  6
CONTINUOUS
 90
10
 70
0
 10
-0.5197209514
 20
-15.6069946711
 10
-0.5456865472
 20
-13.8872906186
 10
-0.5638445755
 20
-12.3025991969
 10
-0.5766067637
 20
-10.7147313583
 10
-0.5839731439
 20
-9.1236516384
 10
-0.5859436842
 20
-7.5293955017
 10
-0.5825182891
 20
-5.9320693411
 10
-0.5736969268
 20
-4.331708621
 10
-0.5594796292
 20
-2.728277877
 10
-0.5398663962
 20
-1.1217771092
  0
LWPOLYLINE
  5
3A4
100
AcDbEntity
  8
0
100
AcDbPolyline
 62
253
  6
CONTINUOUS
 90
10
 70
0
 10
-0.0955031883
 20
-15.6019038008
 10
-0.1214464362
 20
-13.8836189027
 10
-0.1395937514
 20
-12.2998565584
 10
-0.1523485726
 20
-10.7129109776
 10
-0.1597107051
 20
-9.1228063664
 10
-0.1616800368
 20
-7.5295669791
 10
-0.1582565374
 20
-5.9332171175
 10
-0.1494402593
 20
-4.3337811313
 10
-0.135231337
 20
-2.731283417
 10
-0.1156299871
 20
-1.1257484179
  0
LWPOLYLINE
  5
3A5
100
AcDbEntity
  8
0
100
AcDbPolyline
 62
253
  6
CONTINUOUS
 90
25
 70
0
 10
-0.1156299871
 20
-1.1257484179
 10
-0.1165132028
 20
-1.0507444296
 10
-0.1199073507
 20
-0.977087244
 10
-0.1258136718
 20
-0.9047775561
 10
-0.1343795573
 20
-0.8337775101
 10
-0.145459964
 20
-0.7641262759
 10
-0.1586173552
 20
-0.6959400163
 10
-0.1738017477
 20
-0.6291772746
 10
-0.1910650579
 20
-0.563880588
 10
-0.2101225042
 20
-0.5002920582
 10
-0.2310135775
 20
-0.4382852293
 10
-0.2537004992
 20
-0.3779875126
 10
-0.2777826526
 20
-0.3200218496
 10
-0.3031559108
 20
-0.2645942756
 10
-0.329926064
 20
-0.2114996821
 10
-0.3580073841
 20
-0.1607443015
 10
-0.3872930034
 20
-0.1123225289
 10
-0.4178910376
 20
-0.066240664
 10
-0.4500381624
 20
-0.0225227566
 10
-0.484153044
 20
0.019301846
 10
-0.5198179404
 20
0.058761977
 10
-0.5560149423
 20
0.0944208417
 10
-0.5924049991
 20
0.1257993684
 10
-0.6293278097
 20
0.1533762685
 10
-0.6667835319
 20
0.1771514541
  0
LINE
  5
3A6
100
AcDbEntity
  8
0
100
AcDbLine
 62
7
  6
CONTINUOUS
 10
-0.9041911714
 20
18.7260083975
 11
-0.9041911714
 21
19.8685890038
  0
LINE
  5
3A7
100
AcDbEntity
  8
0
100
AcDbLine
 62
7
  6
CONTINUOUS
 10
-0.4677950683
 20
18.4429529867
 11
-0.4677950683
 21
17.2824342359
  0
LINE
  5
3A8
100
AcDbEntity
  8
0
100
AcDbLine
 62
253
  6
CONTINUOUS
 10
-0.4092164246
 20
18.3612980681
 11
-0.4092164246
 21
17.1982727725
  0
LWPOLYLINE
  5
3A9
100
AcDbEntity
  8
0
100
AcDbPolyline
 62
253
  6
CONTINUOUS
 90
4
 70
0
 10
-0.4092164246
 20
18.3612980681
 10
-0.4090249079
 20
18.3699040518
 10
-0.4084504242
 20
18.3787131471
 10
-0.4074938536
 20
18.3877017967
  0
LWPOLYLINE
  5
3AA
100
AcDbEntity
  8
0
100
AcDbPolyline
 62
253
  6
CONTINUOUS
 90
10
 70
0
 10
-0.6667835319
 20
0.1771514541
 10
-0.667872286
 20
0.1558647758
 10
-0.6704674988
 20
0.1338881574
 10
-0.6745506419
 20
0.1113784984
 10
-0.6800925643
 20
0.0884965037
 10
-0.6870537002
 20
0.0654055367
 10
-0.6953843512
 20
0.0422704525
 10
-0.7050250418
 20
0.0192564214
 10
-0.7159069432
 20
-0.0034722507
 10
-0.7279523657
 20
-0.0257532953
  0
LWPOLYLINE
  5
3AB
100
AcDbEntity
  8
0
100
AcDbPolyline
 62
7
  6
CONTINUOUS
 90
9
 70
0
 10
-0.4677950683
 20
18.4429529867
 10
-0.4661739938
 20
18.4683605838
 10
-0.4612474437
 20
18.4937074114
 10
-0.4529925835
 20
18.5184637832
 10
-0.4414788037
 20
18.5421192513
 10
-0.4269069332
 20
18.5641280941
 10
-0.4095789424
 20
18.5840108935
 10
-0.3896447465
 20
18.6015487745
 10
-0.3686389503
 20
18.6156680963
  0
LINE
  5
3AC
100
AcDbEntity
  8
RACCORDO
100
AcDbLine
 62
7
  6
CONTINUOUS
 10
0.215761718
 20
5.5238058121
 11
0.2157808435
 21
5.5240721741
  0
LINE
  5
3AD
100
AcDbEntity
  8
RACCORDO
100
AcDbLine
 62
253
  6
CONTINUOUS
 10
0.3126575331
 20
5.938911095
 11
0.2744083797
 21
5.4428000651
  0
LWPOLYLINE
  5
3AE
100
AcDbEntity
  8
RACCORDO
100
AcDbPolyline
 62
253
  6
CONTINUOUS
 90
9
 70
0
 10
0.1848385958
 20
6.0896424304
 10
0.1439839812
 20
5.5792328515
 10
0.142047884
 20
5.5625800906
 10
0.1394127921
 20
5.5455929714
 10
0.1359860099
 20
5.5283028733
 10
0.1316982103
 20
5.5108673935
 10
0.1265267149
 20
5.4935520344
 10
0.1204064639
 20
5.476441025
 10
0.1132851819
 20
5.4596546486
  0
LWPOLYLINE
  5
3AF
100
AcDbEntity
  8
RACCORDO
100
AcDbPolyline
 62
253
  6
CONTINUOUS
 90
11
 70
0
 10
0.0054167482
 20
5.6038126637
 10
0.0042827499
 20
5.5905851473
 10
0.0025166456
 20
5.5771599903
 10
0.0001186784
 20
5.563537308
 10
-0.002869612
 20
5.5495941655
 10
-0.0064892186
 20
5.5354537566
 10
-0.0108638272
 20
5.5214853286
 10
-0.0160272058
 20
5.507684824
 10
-0.0219453134
 20
5.4940564306
 10
-0.0286404495
 20
5.4809816097
 10
-0.0361469911
 20
5.4684882063
  0
LWPOLYLINE
  5
3B0
100
AcDbEntity
  8
RACCORDO
100
AcDbPolyline
 62
7
  6
CONTINUOUS
 90
8
 70
0
 10
0.215761718
 20
5.5238058121
 10
0.2118501558
 20
5.4888509679
 10
0.2054764798
 20
5.4559927528
 10
0.1968477584
 20
5.4262733148
 10
0.1863369456
 20
5.4004064725
 10
0.1746778273
 20
5.3792781281
 10
0.1626700314
 20
5.3630886413
 10
0.1508658743
 20
5.3513493073
  0
LWPOLYLINE
  5
3B1
100
AcDbEntity
  8
RACCORDO
100
AcDbPolyline
 62
253
  6
CONTINUOUS
 90
9
 70
0
 10
0.7122053478
 20
9.9508667437
 10
0.6531767557
 20
9.4452915815
 10
0.5967407289
 20
8.9408484729
 10
0.5428993197
 20
8.4375583576
 10
0.4916559887
 20
7.9354569845
 10
0.4430108906
 20
7.434550259
 10
0.3969616586
 20
6.934814586
 10
0.3535093242
 20
6.4362562547
 10
0.3126575331
 20
5.938911095
  0
LWPOLYLINE
  5
3B2
100
AcDbEntity
  8
RACCORDO
100
AcDbPolyline
 62
7
  6
CONTINUOUS
 90
10
 70
0
 10
0.6534509743
 20
10.0309272081
 10
0.6020034561
 20
9.5914608569
 10
0.5432943672
 20
9.0692547345
 10
0.4873614516
 20
8.5482486051
 10
0.4342077282
 20
8.0284689516
 10
0.3838354886
 20
7.5099377744
 10
0.3362467903
 20
6.9926753057
 10
0.291443792
 20
6.4767032959
 10
0.2494287672
 20
5.9620476944
 10
0.2157923471
 20
5.5240713247
  0
LWPOLYLINE
  5
3B3
100
AcDbEntity
  8
0
100
AcDbPolyline
 62
253
  6
CONTINUOUS
 90
6
 70
0
 10
1.2938141789
 20
9.615053094
 10
1.2121359148
 20
8.9360922558
 10
1.1353228258
 20
8.2590610042
 10
1.0633806397
 20
7.5840107784
 10
0.9963146426
 20
6.9109929357
 10
0.9341299127
 20
6.2400585307
  0
LWPOLYLINE
  5
3B4
100
AcDbEntity
  8
RACCORDO
100
AcDbPolyline
 62
253
  6
CONTINUOUS
 90
10
 70
0
 10
0.4583201306
 20
10.0974568863
 10
0.397276212
 20
9.5937524747
 10
0.3389073961
 20
9.0911018837
 10
0.2832160766
 20
8.5895261183
 10
0.2302045012
 20
8.0890461578
 10
0.1798748799
 20
7.5896828934
 10
0.1322293845
 20
7.0914571273
 10
0.0872700047
 20
6.5943896542
 10
0.0449985482
 20
6.0985012611
 10
0.0054167482
 20
5.6038126637
  0
LWPOLYLINE
  5
3B5
100
AcDbEntity
  8
RACCORDO
100
AcDbPolyline
 62
253
  6
CONTINUOUS
 90
9
 70
0
 10
0.5977060469
 20
10.0841189553
 10
0.5367252577
 20
9.5809425458
 10
0.4784211094
 20
9.0788592733
 10
0.4227936021
 20
8.5778691376
 10
0.3698405414
 20
8.0779503445
 10
0.3195641217
 20
7.5791246882
 10
0.2719709261
 20
7.0814575523
 10
0.2270631489
 20
6.5849707312
 10
0.1848385958
 20
6.0896424304
  0
LWPOLYLINE
  5
3B6
100
AcDbEntity
  8
RACCORDO
100
AcDbPolyline
 62
253
  6
CONTINUOUS
 90
4
 70
0
 10
0.2744083797
 20
5.4428000651
 10
0.2673213957
 20
5.3860649008
 10
0.256556079
 20
5.3337974491
 10
0.2421084064
 20
5.2859958367
  0
LWPOLYLINE
  5
3B7
100
AcDbEntity
  8
RACCORDO
100
AcDbPolyline
 62
253
  6
CONTINUOUS
 90
8
 70
0
 10
-0.2633760237
 20
5.1298226013
 10
-0.2595469861
 20
5.1584605067
 10
-0.2520266675
 20
5.1881509235
 10
-0.2410175478
 20
5.2180944556
 10
-0.2268160408
 20
5.2474848918
 10
-0.2098045134
 20
5.2755309127
 10
-0.1904409904
 20
5.3014773965
 10
-0.1692468228
 20
5.3246257501
  0
LINE
  5
3B8
100
AcDbEntity
  8
RACCORDO
100
AcDbLine
 62
253
  6
CONTINUOUS
 10
0.7220659764
 20
10.0175626081
 11
0.7122053478
 21
9.9508667437
  0
LWPOLYLINE
  5
3B9
100
AcDbEntity
  8
0
100
AcDbPolyline
 62
253
  6
CONTINUOUS
 90
25
 70
0
 10
-0.5398663964
 20
-1.1217771331
 10
-0.5280953502
 20
-1.052904292
 10
-0.5187477375
 20
-0.985553123
 10
-0.5116251775
 20
-0.9198621164
 10
-0.5064887304
 20
-0.856081629
 10
-0.503202508
 20
-0.7942327752
 10
-0.5017743819
 20
-0.7340765973
 10
-0.5020854189
 20
-0.6756257321
 10
-0.5040100917
 20
-0.6190544826
 10
-0.5076037974
 20
-0.5643252737
 10
-0.5127908207
 20
-0.5113952709
 10
-0.5194482077
 20
-0.4604629167
 10
-0.5275775083
 20
-0.4118412603
 10
-0.5370457509
 20
-0.3657680065
 10
-0.5477963124
 20
-0.3221564769
 10
-0.5599513183
 20
-0.2808272315
 10
-0.5733274603
 20
-0.2418258283
 10
-0.5879268848
 20
-0.205241441
 10
-0.6041371557
 20
-0.1709617526
 10
-0.6220530234
 20
-0.1387112966
 10
-0.6413209552
 20
-0.1089346405
 10
-0.6616612574
 20
-0.0825958962
 10
-0.682925069
 20
-0.0600549595
 10
-0.7050565706
 20
-0.0410862131
 10
-0.7279523657
 20
-0.0257532953
  0
LWPOLYLINE
  5
3BA
100
AcDbEntity
  8
0
100
AcDbPolyline
 62
253
  6
CONTINUOUS
 90
27
 70
0
 10
4.6716618668
 20
14.0351420232
 10
4.6672413413
 20
14.0244526541
 10
4.662434146
 20
14.0140191094
 10
4.6572511304
 20
14.003864937
 10
4.6517039923
 20
13.9940130544
 10
4.6458052513
 20
13.9844856967
 10
4.6395682205
 20
13.9753043665
 10
4.6330069764
 20
13.9664897855
 10
4.6261363275
 20
13.9580618478
 10
4.6189717803
 20
13.9500395747
 10
4.6115295049
 20
13.942441072
 10
4.603826298
 20
13.9352834891
 10
4.5958795453
 20
13.9285829802
 10
4.5877071821
 20
13.922354668
 10
4.579327653
 20
13.9166126093
 10
4.5707598701
 20
13.9113697638
 10
4.5620231703
 20
13.9066379641
 10
4.5531372719
 20
13.9024278897
 10
4.5441222299
 20
13.8987490425
 10
4.5349983906
 20
13.8956097253
 10
4.525786346
 20
13.8930170236
 10
4.5165068872
 20
13.8909767887
 10
4.5071809573
 20
13.8894936255
 10
4.4978296044
 20
13.8885708813
 10
4.488473934
 20
13.8882106387
 10
4.4791350613
 20
13.8884137108
 10
4.472993292
 20
13.8888559269
  0
LWPOLYLINE
  5
3BB
100
AcDbEntity
  8
ASSI
100
AcDbPolyline
 62
7
  6
CONTINUOUS
 90
9
 70
0
 10
-7.6604107752
 20
-15.0071097537
 10
-7.6700071187
 20
-15.028521361
 10
-7.6706427246
 20
-15.0665009553
 10
-7.6565327206
 20
-15.1146808126
 10
-7.6279573319
 20
-15.1728670875
 10
-7.5854665728
 20
-15.2399398203
 10
-7.5292437814
 20
-15.3155256911
 10
-7.4591056196
 20
-15.3999980199
 10
-7.3750520874
 20
-15.4933568066
  0
LWPOLYLINE
  5
3BC
100
AcDbEntity
  8
ASSI
100
AcDbPolyline
 62
7
  6
CONTINUOUS
 90
9
 70
0
 10
-7.6553788245
 20
-15.6529841847
 10
-7.645782481
 20
-15.6315725775
 10
-7.6451468751
 20
-15.5935929832
 10
-7.6592568791
 20
-15.5454131258
 10
-7.6878322677
 20
-15.487226851
 10
-7.7303230268
 20
-15.4201541182
 10
-7.7865458182
 20
-15.3445682474
 10
-7.85668398
 20
-15.2600959186
 10
-7.9407375123
 20
-15.1667371319
  0
LINE
  5
3BD
100
AcDbEntity
  8
ASSI
100
AcDbLine
 62
7
  6
CONTINUOUS
 10
-6.4263214067
 20
-11.0932607193
 11
-6.4778350257
 21
-11.2081043518
  0
LWPOLYLINE
  5
3BE
100
AcDbEntity
  8
ASSI
100
AcDbPolyline
 62
7
  6
CONTINUOUS
 90
7
 70
0
 10
-6.1242816351
 20
-11.4122416484
 10
-6.1706942985
 20
-11.5068584324
 10
-6.2199532145
 20
-11.5999471062
 10
-6.2720583831
 20
-11.6915076699
 10
-6.3270098043
 20
-11.7815401234
 10
-6.3848074782
 20
-11.8700444667
 10
-6.4454514048
 20
-11.9570206999
  0
LWPOLYLINE
  5
3BF
100
AcDbEntity
  8
0
100
AcDbPolyline
 62
253
  6
CONTINUOUS
 90
34
 70
0
 10
-0.5398663962
 20
-1.1217771092
 10
-0.7072079726
 20
-1.4363980763
 10
-0.8697358355
 20
-1.7494711714
 10
-1.027449985
 20
-2.0609963947
 10
-1.1801967239
 20
-2.3708456018
 10
-1.3281297494
 20
-2.679146937
 10
-1.4717101529
 20
-2.9862848331
 10
-1.6109774333
 20
-3.2922732445
 10
-1.7458920918
 20
-3.5970982169
 10
-1.8767967234
 20
-3.9011023195
 10
-2.003696721
 20
-4.2042207106
 10
-2.1265866916
 20
-4.5065182319
 10
-2.2457930519
 20
-4.8085319785
 10
-2.3613437557
 20
-5.1102388119
 10
-2.4732108492
 20
-5.4116618704
 10
-2.5816368877
 20
-5.7134076638
 10
-2.6866471327
 20
-6.0154310558
 10
-2.7882163226
 20
-6.3177771827
 10
-2.8865112283
 20
-6.6211879627
 10
-2.9815753503
 20
-6.925653113
 10
-3.073365188
 20
-7.2311829164
 10
-3.1619170108
 20
-7.5385501394
 10
-3.2472863311
 20
-7.8477724664
 10
-3.3294176365
 20
-8.158832213
 10
-3.408180659
 20
-8.4724490917
 10
-3.4835013388
 20
-8.7878260319
 10
-3.5554537358
 20
-9.1057601043
 10
-3.6241297616
 20
-9.4293622329
 10
-3.689711933
 20
-9.7583318167
 10
-3.7520177333
 20
-10.0929694567
 10
-3.8105915237
 20
-10.4372878799
 10
-3.8652814247
 20
-10.7926246621
 10
-3.9162393158
 20
-11.1576422275
 10
-3.9634651971
 20
-11.5323405762
  0
LWPOLYLINE
  5
3C0
100
AcDbEntity
  8
0
100
AcDbPolyline
 62
253
  6
CONTINUOUS
 90
37
 70
0
 10
-0.7279523657
 20
-0.0257532953
 10
-0.911306446
 20
-0.3500038441
 10
-1.0888686501
 20
-0.6719980881
 10
-1.2607123683
 20
-0.9915601709
 10
-1.4266395999
 20
-1.3079909804
 10
-1.5870181583
 20
-1.6216587709
 10
-1.7427239146
 20
-1.9340214079
 10
-1.8939492129
 20
-2.2452804631
 10
-2.0405682376
 20
-2.554990072
 10
-2.1829112371
 20
-2.8636700246
 10
-2.3209905732
 20
-3.1711907488
 10
-2.454840929
 20
-3.4774703342
 10
-2.5847854079
 20
-3.7831157051
 10
-2.7108190221
 20
-4.0880084474
 10
-2.8329588691
 20
-4.3920808516
 10
-2.9515144088
 20
-4.6960267523
 10
-3.0664595236
 20
-4.9997344283
 10
-3.1777889986
 20
-5.3031440868
 10
-3.2857900628
 20
-5.6070329659
 10
-3.3904035755
 20
-5.9112685051
 10
-3.491605127
 20
-6.2158147379
 10
-3.5896705032
 20
-6.5215930949
 10
-3.6845286618
 20
-6.8285329769
 10
-3.7760973644
 20
-7.1365257212
 10
-3.8645657559
 20
-7.4464277809
 10
-3.9497984666
 20
-7.7580499684
 10
-4.0317092009
 20
-8.0713769431
 10
-4.1104787975
 20
-8.3875087504
 10
-4.1857668362
 20
-8.7055442549
 10
-4.25761081
 20
-9.0261377239
 10
-4.3265665503
 20
-9.3526712408
 10
-4.3922464986
 20
-9.6845788531
 10
-4.4544129563
 20
-10.0220476926
 10
-4.5134872758
 20
-10.3694705708
 10
-4.5691410216
 20
-10.7280672901
 10
-4.6205240917
 20
-11.0959515988
 10
-4.6670404944
 20
-11.4727457164
  0
LWPOLYLINE
  5
3C1
100
AcDbEntity
  8
0
100
AcDbPolyline
 62
7
  6
CONTINUOUS
 90
9
 70
0
 10
-10.8988517045
 20
-13.3126328543
 10
-10.9000375561
 20
-13.3144086687
 10
-10.9042340725
 20
-13.330363907
 10
-10.9005397707
 20
-13.3518454367
 10
-10.8891299182
 20
-13.37873051
 10
-10.8702617546
 20
-13.4104129924
 10
-10.8440210265
 20
-13.4466908388
 10
-10.8103219873
 20
-13.4877660942
 10
-10.769164637
 20
-13.5336387586
  0
LINE
  5
3C2
100
AcDbEntity
  8
ASSI
100
AcDbLine
 62
7
  6
CONTINUOUS
 10
7.7637638288
 20
13.7482364271
 11
7.6396712291
 21
13.5762575554
  0
LINE
  5
3C3
100
AcDbEntity
  8
ASSI
100
AcDbLine
 62
7
  6
CONTINUOUS
 10
-9.0629651205
 20
-9.5717832024
 11
-10.2965091043
 21
-11.2813412515
  0
LINE
  5
3C4
100
AcDbEntity
  8
ASSI
100
AcDbLine
 62
7
  6
CONTINUOUS
 10
8.4393738592
 20
11.9643738568
 11
7.9477240654
 21
11.2830006157
  0
LINE
  5
3C5
100
AcDbEntity
  8
ASSI
100
AcDbLine
 62
7
  6
CONTINUOUS
 10
-7.6774336416
 20
-10.3717717136
 11
-7.7506272318
 21
-10.4732100838
  0
LWPOLYLINE
  5
3C6
100
AcDbEntity
  8
ASSI
100
AcDbPolyline
 62
7
  6
CONTINUOUS
 90
7
 70
0
 10
8.8416595864
 20
12.4222255863
 10
8.7786308837
 20
12.3378049811
 10
8.7139946136
 20
12.2566291693
 10
8.6477507761
 20
12.178698151
 10
8.5798993712
 20
12.1040119262
 10
8.5104403989
 20
12.0325704948
 10
8.4393738592
 20
11.9643738568
  0
LWPOLYLINE
  5
3C7
100
AcDbEntity
  8
0
100
AcDbPolyline
 62
253
  6
CONTINUOUS
 90
13
 70
0
 10
-0.1156299871
 20
-1.1257484179
 10
-0.1451333523
 20
-1.1107751394
 10
-0.1777610716
 20
-1.0980858148
 10
-0.2129548761
 20
-1.087897562
 10
-0.2501125904
 20
-1.080384705
 10
-0.2885984358
 20
-1.0756757911
 10
-0.3277539085
 20
-1.0738513916
 10
-0.3669090474
 20
-1.0749427224
 10
-0.4053938972
 20
-1.0789311108
 10
-0.4425499708
 20
-1.0857483144
 10
-0.4777415172
 20
-1.0952776888
 10
-0.5103663993
 20
-1.1073561838
 10
-0.5398663964
 20
-1.1217771331
  0
LWPOLYLINE
  5
3C8
100
AcDbEntity
  8
ASSI
100
AcDbPolyline
 62
7
  6
CONTINUOUS
 90
11
 70
0
 10
7.6261167911
 20
-6.1439335019
 10
7.7022754672
 20
-6.18678495
 10
7.7723434991
 20
-6.2241286732
 10
7.8363208869
 20
-6.2559646717
 10
7.8946738763
 20
-6.2824803627
 10
7.9469362216
 20
-6.3034883289
 10
7.9917091853
 20
-6.318426318
 10
8.0287905193
 20
-6.3271304121
 10
8.0583824717
 20
-6.329764529
 10
8.0796930506
 20
-6.3262581699
 10
8.0921657837
 20
-6.3169288421
  0
LINE
  5
3C9
100
AcDbEntity
  8
ASSI
100
AcDbLine
 62
7
  6
CONTINUOUS
 10
6.6932832795
 20
-5.1442692989
 11
6.6246186092
 21
-5.1056344288
  0
LINE
  5
3CA
100
AcDbEntity
  8
0
100
AcDbLine
 62
253
  6
CONTINUOUS
 10
-0.7279523657
 20
-0.0257532953
 11
-13.1023210364
 21
7.1190520879
  0
LINE
  5
3CB
100
AcDbEntity
  8
0
100
AcDbLine
 62
253
  6
CONTINUOUS
 10
-0.6667835319
 20
0.1771514541
 11
-13.0411522027
 21
7.3219568373
  0
LINE
  5
3CC
100
AcDbEntity
  8
0
100
AcDbLine
 62
253
  6
CONTINUOUS
 10
0.5816117173
 20
-0.3435841293
 11
-14.2831650453
 21
8.239151674
  0
LINE
  5
3CD
100
AcDbEntity
  8
ASSI
100
AcDbLine
 62
7
  6
CONTINUOUS
 10
7.5533601052
 20
-6.1009134533
 11
7.6261167911
 21
-6.1439335019
  0
LWPOLYLINE
  5
3CE
100
AcDbEntity
  8
RACCORDO
100
AcDbPolyline
 62
7
  6
CONTINUOUS
 90
4
 70
0
 10
-13.0367146015
 20
12.7632606563
 10
-13.0031273043
 20
12.7306289448
 10
-12.9679544363
 20
12.7016315657
 10
-12.9314925075
 20
12.6765671429
  0
LINE
  5
3CF
100
AcDbEntity
  8
0
100
AcDbLine
 62
7
  6
CONTINUOUS
 10
8.0084455389
 20
-10.0122079014
 11
7.698881685
 21
-9.6804660639
  0
LINE
  5
3D0
100
AcDbEntity
  8
0
100
AcDbLine
 62
7
  6
CONTINUOUS
 10
6.5545984054
 20
-8.454203265
 11
6.2599829331
 21
-8.1384807511
  0
LINE
  5
3D1
100
AcDbEntity
  8
0
100
AcDbLine
 62
7
  6
CONTINUOUS
 10
6.2599829331
 20
-7.5618202518
 11
6.9129038625
 21
-8.2615181855
  0
LINE
  5
3D2
100
AcDbEntity
  8
0
100
AcDbLine
 62
7
  6
CONTINUOUS
 10
7.698881685
 20
-9.1038055645
 11
9.1751717279
 21
-10.6858609804
  0
LINE
  5
3D3
100
AcDbEntity
  8
0
100
AcDbLine
 62
7
  6
CONTINUOUS
 10
8.8057579902
 20
-12.1088894774
 11
8.298569966
 21
-11.5609117693
  0
LWPOLYLINE
  5
3D4
100
AcDbEntity
  8
0
100
AcDbPolyline
 62
7
  6
CONTINUOUS
 90
4
 70
0
 10
6.8519772215
 20
-23.4760504141
 10
6.8635831977
 20
-23.507926747
 10
6.8708144181
 20
-23.5414068591
 10
6.8734073724
 20
-23.5775509273
  0
LWPOLYLINE
  5
3D5
100
AcDbEntity
  8
0
100
AcDbPolyline
 62
7
  6
CONTINUOUS
 90
3
 70
0
 10
-9.7148489957
 20
22.1096757722
 10
-9.726454972
 20
22.141552105
 10
-9.7336861923
 20
22.1750322171
  0
LWPOLYLINE
  5
3D6
100
AcDbEntity
  8
0
100
AcDbPolyline
 62
253
  6
CONTINUOUS
 90
16
 70
0
 10
1.2824304709
 20
-15.8523313668
 10
1.2955343216
 20
-16.4815310987
 10
1.3135198347
 20
-17.1077592038
 10
1.3363870103
 20
-17.731015682
 10
1.3641383246
 20
-18.3513475141
 10
1.3967713015
 20
-18.9687077194
 10
1.4342785118
 20
-19.5829553558
 10
1.4766610652
 20
-20.1940896025
 10
1.523917852
 20
-20.8021112802
 10
1.576038114
 20
-21.4068819091
 10
1.6330229831
 20
-22.0084009097
 10
1.6948713275
 20
-22.6066688615
 10
1.7615689929
 20
-23.2015490229
 10
1.8331112612
 20
-23.7929958135
 10
1.9095028505
 20
-24.3810548136
 10
1.9907437608
 20
-24.9657260234
  0
LINE
  5
3D7
100
AcDbEntity
  8
0
100
AcDbLine
 62
7
  6
CONTINUOUS
 10
0.510022391
 20
17.1715886268
 11
0.510022391
 21
15.8081772205
  0
LINE
  5
3D8
100
AcDbEntity
  8
RACCORDO
100
AcDbLine
 62
7
  6
CONTINUOUS
 10
0.738376761
 20
10.3601036856
 11
0.738376761
 21
10.5207954321
  0
LINE
  5
3D9
100
AcDbEntity
  8
0
100
AcDbLine
 62
7
  6
CONTINUOUS
 10
1.1756030927
 20
15.423879265
 11
1.1756030927
 21
16.7872906713
  0
LINE
  5
3DA
100
AcDbEntity
  8
0
100
AcDbLine
 62
253
  6
CONTINUOUS
 10
1.9574397716
 20
23.6928418754
 11
1.9574397716
 21
22.3880775839
  0
LINE
  5
3DB
100
AcDbEntity
  8
0
100
AcDbLine
 62
7
  6
CONTINUOUS
 10
2.0901329091
 20
23.7483585114
 11
2.0901329091
 21
22.5715217243
  0
LINE
  5
3DC
100
AcDbEntity
  8
0
100
AcDbLine
 62
7
  6
CONTINUOUS
 10
2.2424340049
 20
16.0969123379
 11
2.2424340049
 21
17.4032647808
  0
LWPOLYLINE
  5
3DD
100
AcDbEntity
  8
0
100
AcDbPolyline
 62
253
  6
CONTINUOUS
 90
13
 70
0
 10
0.5816117173
 20
-0.3435841293
 10
0.5617699617
 20
-1.6473385362
 10
0.5455360119
 20
-2.9491201027
 10
0.5329098143
 20
-4.2489158907
 10
0.5238913286
 20
-5.5467043058
 10
0.5184803335
 20
-6.8424811582
 10
0.5166766641
 20
-8.1362595275
 10
0.5184803348
 20
-9.4280264317
 10
0.5238913308
 20
-10.7177689246
 10
0.532909817
 20
-12.0054999231
 10
0.5455360145
 20
-13.2912149917
 10
0.5617699634
 20
-14.5748924801
 10
0.5816117173
 20
-15.8565193883
  0
LWPOLYLINE
  5
3DE
100
AcDbEntity
  8
0
100
AcDbPolyline
 62
253
  6
CONTINUOUS
 90
13
 70
0
 10
1.2824304709
 20
-0.354909043
 10
1.2626083667
 20
-1.6573808671
 10
1.2463903554
 20
-2.9578561081
 10
1.233776437
 20
-4.2563347661
 10
1.224766702
 20
-5.5528211215
 10
1.2193610599
 20
-6.8473108939
 10
1.2175592399
 20
-8.1397912417
 10
1.2193610618
 20
-9.4302622684
 10
1.2247667057
 20
-10.7187238706
 10
1.2337764416
 20
-12.0051628967
 10
1.2463903595
 20
-13.2895749628
 10
1.2626083692
 20
-14.5719644529
 10
1.2824304709
 20
-15.8523313668
  0
LWPOLYLINE
  5
3DF
100
AcDbEntity
  8
RACCORDO
100
AcDbPolyline
 62
7
  6
CONTINUOUS
 90
4
 70
0
 10
3.2703760579
 20
14.4347224932
 10
3.269936173
 20
14.4294317067
 10
3.2692141642
 20
14.4265190759
 10
3.269098357
 20
14.4262065591
  0
LWPOLYLINE
  5
3E0
100
AcDbEntity
  8
0
100
AcDbPolyline
 62
253
  6
CONTINUOUS
 90
11
 70
0
 10
0.9341299127
 20
6.2400585307
 10
0.8768313214
 20
5.5712583122
 10
0.8244231577
 20
4.904643023
 10
0.7769093156
 20
4.2402633518
 10
0.7342935268
 20
3.5781697116
 10
0.6965789896
 20
2.9184124172
 10
0.6637684932
 20
2.2610415319
 10
0.6358646072
 20
1.6061068198
 10
0.6128694544
 20
0.9536579575
 10
0.5947847082
 20
0.3037445285
 10
0.5816117173
 20
-0.3435841293
  0
LWPOLYLINE
  5
3E1
100
AcDbEntity
  8
0
100
AcDbPolyline
 62
253
  6
CONTINUOUS
 90
12
 70
0
 10
1.694871133
 20
6.8593612016
 10
1.6330228096
 20
6.1921229413
 10
1.5760379618
 20
5.5270571535
 10
1.5239177135
 20
4.8641644531
 10
1.4766609408
 20
4.2034442253
 10
1.4342784013
 20
3.5450469467
 10
1.3967712033
 20
2.888972969
 10
1.3641382384
 20
2.2352219406
 10
1.3363869395
 20
1.5839432831
 10
1.3135197841
 20
0.9351868036
 10
1.2955342946
 20
0.2889026949
 10
1.2824304709
 20
-0.354909043
  0
LWPOLYLINE
  5
3E2
100
AcDbEntity
  8
0
100
AcDbPolyline
 62
253
  6
CONTINUOUS
 90
5
 70
0
 10
1.9907437608
 20
9.5483634393
 10
1.9095027618
 20
8.8730953457
 10
1.8331111091
 20
8.1998474038
 10
1.7615688027
 20
7.5286196137
 10
1.694871133
 20
6.8593612016
  0
LWPOLYLINE
  5
3E3
100
AcDbEntity
  8
0
100
AcDbPolyline
 62
7
  6
CONTINUOUS
 90
9
 70
0
 10
-8.8717106166
 20
-14.7753311462
 10
-8.870524765
 20
-14.7735553318
 10
-8.8663282486
 20
-14.7576000934
 10
-8.8700225504
 20
-14.7361185638
 10
-8.8814324029
 20
-14.7092334905
 10
-8.9003005665
 20
-14.6775510081
 10
-8.9265412946
 20
-14.6412731617
 10
-8.9602403338
 20
-14.6001979063
 10
-9.0013976841
 20
-14.5543252419
  0
LINE
  5
3E4
100
AcDbEntity
  8
ASSI
100
AcDbLine
 62
7
  6
CONTINUOUS
 10
9.7121660654
 20
11.2294795888
 11
9.2115413947
 21
10.5356681426
  0
LINE
  5
3E5
100
AcDbEntity
  8
ASSI
100
AcDbLine
 62
7
  6
CONTINUOUS
 10
-6.4046414355
 20
-11.1066659816
 11
-6.4778350257
 21
-11.2081043518
  0
LINE
  5
3E6
100
AcDbEntity
  8
ASSI
100
AcDbLine
 62
7
  6
CONTINUOUS
 10
10.065719456
 20
11.0253422922
 11
9.5650947853
 21
10.331530846
  0
LINE
  5
3E7
100
AcDbEntity
  8
ASSI
100
AcDbLine
 62
7
  6
CONTINUOUS
 10
-6.0643163538
 20
-11.3291362784
 11
-6.1242816351
 21
-11.4122416484
  0
LINE
  5
3E8
100
AcDbEntity
  8
ASSI
100
AcDbLine
 62
7
  6
CONTINUOUS
 10
10.9264107486
 20
11.4662056515
 11
10.7334292579
 21
11.1987542553
  0
LINE
  5
3E9
100
AcDbEntity
  8
ASSI
100
AcDbLine
 62
7
  6
CONTINUOUS
 10
-6.5071152759
 20
-12.6947688508
 11
-7.1338621845
 21
-13.5633720271
  0
LWPOLYLINE
  5
3EA
100
AcDbEntity
  8
ASSI
100
AcDbPolyline
 62
7
  6
CONTINUOUS
 90
7
 70
0
 10
10.4680051832
 20
11.4831940216
 10
10.4049764804
 20
11.3987734164
 10
10.3403402103
 20
11.3175976047
 10
10.2740963728
 20
11.2396665864
 10
10.2062449679
 20
11.1649803615
 10
10.1367859956
 20
11.0935389301
 10
10.065719456
 20
11.0253422922
  0
LINE
  5
3EB
100
AcDbEntity
  8
0
100
AcDbLine
 62
253
  6
CONTINUOUS
 10
-6.0197028099
 20
-11.3575924233
 11
-6.0215599149
 21
-11.3599874963
  0
LWPOLYLINE
  5
3EC
100
AcDbEntity
  8
SMUSSO
100
AcDbPolyline
 62
7
  6
CONTINUOUS
 90
4
 70
0
 10
-11.4202791482
 20
-11.47156124
 10
-11.4059200273
 20
-11.4576543542
 10
-11.3742873225
 20
-11.4446711611
 10
-11.3646375323
 20
-11.442879642
  0
LWPOLYLINE
  5
3ED
100
AcDbEntity
  8
ASSI
100
AcDbPolyline
 62
7
  6
CONTINUOUS
 90
14
 70
0
 10
13.2476999713
 20
9.1881066222
 10
13.1608246062
 20
9.111158146
 10
13.0733458608
 20
9.040329284
 10
12.9852637352
 20
8.975620036
 10
12.8962251062
 20
8.9168175242
 10
12.8065830971
 20
8.8641346264
 10
12.7173970768
 20
8.8182099769
 10
12.6286538324
 20
8.7791211156
 10
12.5403665769
 20
8.7467905026
 10
12.4536343189
 20
8.7216241514
 10
12.3684906635
 20
8.7037196882
 10
12.2849020056
 20
8.6929794869
 10
12.203866538
 20
8.6895166829
 10
12.1269242088
 20
8.6933094793
  0
LINE
  5
3EE
100
AcDbEntity
  8
0
100
AcDbLine
 62
7
  6
CONTINUOUS
 10
-11.8760028637
 20
-7.9475704652
 11
-11.8942470724
 21
-7.9588529575
  0
LWPOLYLINE
  5
3EF
100
AcDbEntity
  8
0
100
AcDbPolyline
 62
253
  6
CONTINUOUS
 90
37
 70
0
 10
1.2824304709
 20
-0.354909043
 10
1.2665955916
 20
-0.3630300338
 10
1.250143634
 20
-0.3707493307
 10
1.2331052236
 20
-0.3780525643
 10
1.2155120775
 20
-0.3849261394
 10
1.1973969454
 20
-0.391357261
 10
1.1787935487
 20
-0.3973339575
 10
1.1597365178
 20
-0.4028451031
 10
1.1402613273
 20
-0.407880439
 10
1.1204042304
 20
-0.4124305917
 10
1.1002021913
 20
-0.4164870912
 10
1.079692816
 20
-0.4200423863
 10
1.0589142829
 20
-0.4230898587
 10
1.0379052714
 20
-0.4256238356
 10
1.0167048897
 20
-0.4276396
 10
0.9953526026
 20
-0.4291333995
 10
0.9738881574
 20
-0.4301024534
 10
0.9523515102
 20
-0.4305449579
 10
0.9307827517
 20
-0.430460089
 10
0.9092220321
 20
-0.429848005
 10
0.8877094868
 20
-0.4287098451
 10
0.8662851617
 20
-0.4270477281
 10
0.844988938
 20
-0.424864748
 10
0.8238604589
 20
-0.4221649684
 10
0.8029390552
 20
-0.4189534149
 10
0.782263672
 20
-0.415236066
 10
0.7618727968
 20
-0.4110198414
 10
0.7418043872
 20
-0.4063125897
 10
0.7220958007
 20
-0.4011230734
 10
0.7027837249
 20
-0.3954609529
 10
0.6839041093
 20
-0.3893367682
 10
0.6654920984
 20
-0.3827619195
 10
0.6475819663
 20
-0.375748646
 10
0.6302070527
 20
-0.3683100028
 10
0.6133997012
 20
-0.360459837
 10
0.5971911987
 20
-0.3522127619
 10
0.5816117174
 20
-0.3435841292
  0
LWPOLYLINE
  5
3F0
100
AcDbEntity
  8
0
100
AcDbPolyline
 62
253
  6
CONTINUOUS
 90
15
 70
0
 10
-13.1023210364
 20
7.1190520879
 10
-13.1261689207
 20
7.1310588375
 10
-13.1513199356
 20
7.1389301306
 10
-13.1775880314
 20
7.1425644207
 10
-13.2047915184
 20
7.1419493437
 10
-13.2327023192
 20
7.1368839559
 10
-13.2610932742
 20
7.1270057721
 10
-13.2900326682
 20
7.1119444919
 10
-13.3190923667
 20
7.0919106444
 10
-13.3474747037
 20
7.0675119644
 10
-13.3754710194
 20
7.0382819232
 10
-13.4027330781
 20
7.0047052077
 10
-13.4278985993
 20
6.9690167571
 10
-13.4511046378
 20
6.9315608543
 10
-13.4595066894
 20
6.9168420215
  0
LWPOLYLINE
  5
3F1
100
AcDbEntity
  8
0
100
AcDbPolyline
 62
253
  6
CONTINUOUS
 90
21
 70
0
 10
-13.0411522027
 20
7.3219568373
 10
-13.0793792408
 20
7.3422279325
 10
-13.1178407014
 20
7.357712784
 10
-13.1565363816
 20
7.3684115049
 10
-13.1958004394
 20
7.3745738448
 10
-13.2352978698
 20
7.3759505251
 10
-13.2740244801
 20
7.371793252
 10
-13.3120740583
 20
7.3617126097
 10
-13.3493509333
 20
7.3460990618
 10
-13.3845667276
 20
7.3253741325
 10
-13.4176348462
 20
7.2988486664
 10
-13.4486396814
 20
7.2672130458
 10
-13.4765503881
 20
7.2329575164
 10
-13.5008926294
 20
7.1961161156
 10
-13.5221402838
 20
7.1566550629
 10
-13.5406864348
 20
7.1169619835
 10
-13.5563641307
 20
7.0776000249
 10
-13.56934126
 20
7.0380055189
 10
-13.5805138841
 20
6.9988754664
 10
-13.589988071
 20
6.9603973583
 10
-13.5976586031
 20
6.9223832305
  0
LINE
  5
3F2
100
AcDbEntity
  8
SMUSSO
100
AcDbLine
 62
7
  6
CONTINUOUS
 10
7.2963372665
 20
-5.0915452654
 11
6.2599829331
 21
-4.3064592379
  0
LINE
  5
3F3
100
AcDbEntity
  8
0
100
AcDbLine
 62
7
  6
CONTINUOUS
 10
6.2599829331
 20
-4.7148752762
 11
9.0154933486
 21
-7.6677978388
  0
LINE
  5
3F4
100
AcDbEntity
  8
SMUSSO
100
AcDbLine
 62
7
  6
CONTINUOUS
 10
9.8514899288
 20
-7.8297559087
 11
7.2963372665
 21
-5.0915452654
  0
LWPOLYLINE
  5
3F5
100
AcDbEntity
  8
0
100
AcDbPolyline
 62
253
  6
CONTINUOUS
 90
6
 70
0
 10
6.8128106055
 20
-23.4936853503
 10
6.8098025753
 20
-23.4826078706
 10
6.8063738628
 20
-23.4717441555
 10
6.8025322064
 20
-23.4611187236
 10
6.7982862765
 20
-23.4507555561
 10
6.7936456561
 20
-23.4406780419
  0
LINE
  5
3F6
100
AcDbEntity
  8
0
100
AcDbLine
 62
7
  6
CONTINUOUS
 10
2.5699718003
 20
15.0710542932
 11
2.567378846
 21
15.1071983614
  0
LWPOLYLINE
  5
3F7
100
AcDbEntity
  8
0
100
AcDbPolyline
 62
253
  6
CONTINUOUS
 90
40
 70
0
 10
2.3276199196
 20
10.0829977178
 10
2.3265811655
 20
10.0991495428
 10
2.3249813802
 20
10.1156116482
 10
2.3228231554
 20
10.1323573634
 10
2.3201099879
 20
10.1493595583
 10
2.3168462731
 20
10.1665906875
 10
2.3130372987
 20
10.1840228344
 10
2.3086892356
 20
10.201627757
 10
2.3038091282
 20
10.2193769332
 10
2.2984048829
 20
10.2372416073
 10
2.2924852551
 20
10.2551928363
 10
2.2860598353
 20
10.2732015373
 10
2.2791390334
 20
10.2912385339
 10
2.271734062
 20
10.309274604
 10
2.2638569179
 20
10.3272805273
 10
2.2555203631
 20
10.3452271318
 10
2.2467379037
 20
10.363085342
 10
2.2375237683
 20
10.3808262255
 10
2.227892885
 20
10.3984210399
 10
2.2178608568
 20
10.4158412795
 10
2.2074439369
 20
10.4330587216
 10
2.1966590019
 20
10.4500454717
 10
2.1855235246
 20
10.4667740094
 10
2.1740555458
 20
10.4832172325
 10
2.162273645
 20
10.4993485008
 10
2.1501969103
 20
10.5151416799
 10
2.1378449074
 20
10.530571183
 10
2.125237648
 20
10.5456120124
 10
2.1123955574
 20
10.5602398001
 10
2.0993394412
 20
10.5744308475
 10
2.086090452
 20
10.5881621633
 10
2.0726700546
 20
10.6014115011
 10
2.0590999917
 20
10.6141573955
 10
2.0454022485
 20
10.6263791965
 10
2.0315990168
 20
10.6380571034
 10
2.0177126595
 20
10.6491721966
 10
2.0037656742
 20
10.6597064684
 10
1.9897806568
 20
10.6696428518
 10
1.9757802644
 20
10.6789652489
 10
1.9617871796
 20
10.6876585562
  0
LWPOLYLINE
  5
3F8
100
AcDbEntity
  8
RACCORDO
100
AcDbPolyline
 62
253
  6
CONTINUOUS
 90
9
 70
0
 10
3.270371488
 20
14.4347621152
 10
3.2707289772
 20
14.4263499453
 10
3.2734482017
 20
14.4102402701
 10
3.2788352186
 20
14.3944912401
 10
3.2868494374
 20
14.3792742462
 10
3.2974349851
 20
14.3647668349
 10
3.3105070709
 20
14.3511326661
 10
3.3259430127
 20
14.3385179205
 10
3.343594791
 20
14.3270683022
  0
LWPOLYLINE
  5
3F9
100
AcDbEntity
  8
0
100
AcDbPolyline
 62
253
  6
CONTINUOUS
 90
18
 70
0
 10
4.3191399072
 20
-25.221171856
 10
4.3193387099
 20
-25.2307347652
 10
4.3199346722
 20
-25.2400466066
 10
4.3209264554
 20
-25.2490864349
 10
4.3223118314
 20
-25.2578339217
 10
4.3240876855
 20
-25.2662693848
 10
4.3262500207
 20
-25.2743738346
 10
4.3287939713
 20
-25.2821290386
 10
4.331713816
 20
-25.2895175587
 10
4.335002986
 20
-25.2965227747
 10
4.3386540829
 20
-25.3031289325
 10
4.3426588935
 20
-25.309321173
 10
4.3470084057
 20
-25.3150855653
 10
4.3516928344
 20
-25.3204091453
 10
4.3567016425
 20
-25.3252799421
 10
4.362023561
 20
-25.3296870012
 10
4.3676466214
 20
-25.3336204148
 10
4.3708717014
 20
-25.3355836194
  0
LWPOLYLINE
  5
3FA
100
AcDbEntity
  8
0
100
AcDbPolyline
 62
253
  6
CONTINUOUS
 90
17
 70
0
 10
2.6406018367
 20
15.0049009487
 10
2.6407701326
 20
14.9960934834
 10
2.6412746998
 20
14.9874971317
 10
2.6421145777
 20
14.9791282613
 10
2.6432881634
 20
14.9710028286
 10
2.6447932243
 20
14.9631362819
 10
2.6466269107
 20
14.9555435398
 10
2.6487857547
 20
14.9482390177
 10
2.6512656422
 20
14.9412366839
 10
2.6540618219
 20
14.9345499603
 10
2.6571689444
 20
14.9281916153
 10
2.6605811065
 20
14.9221737069
 10
2.6642918345
 20
14.9165076506
 10
2.6682940953
 20
14.9112042008
 10
2.6725802444
 20
14.9062735012
 10
2.6771420539
 20
14.9017250077
 10
2.6819707834
 20
14.8975674026
  0
LINE
  5
3FB
100
AcDbEntity
  8
RACCORDO
100
AcDbLine
 62
7
  6
CONTINUOUS
 10
2.5635626812
 20
11.8983876518
 11
2.5635626812
 21
11.9626392982
  0
LINE
  5
3FC
100
AcDbEntity
  8
0
100
AcDbLine
 62
7
  6
CONTINUOUS
 10
2.567378532
 20
15.4274897699
 11
2.567378532
 21
15.1069695971
  0
LINE
  5
3FD
100
AcDbEntity
  8
0
100
AcDbLine
 62
253
  6
CONTINUOUS
 10
2.6406018367
 20
15.3254211216
 11
2.6406018367
 21
15.0049009487
  0
LINE
  5
3FE
100
AcDbEntity
  8
0
100
AcDbLine
 62
7
  6
CONTINUOUS
 10
3.2703714863
 20
14.5567373582
 11
3.2703714863
 21
14.4347785303
  0
LINE
  5
3FF
100
AcDbEntity
  8
RACCORDO
100
AcDbLine
 62
253
  6
CONTINUOUS
 10
3.343594791
 20
14.5144591397
 11
3.343594791
 21
14.3270683022
  0
LINE
  5
400
100
AcDbEntity
  8
0
100
AcDbLine
 62
253
  6
CONTINUOUS
 10
4.3191399072
 20
-25.221171856
 11
4.3191399072
 21
-24.9006516831
  0
LINE
  5
401
100
AcDbEntity
  8
0
100
AcDbLine
 62
253
  6
CONTINUOUS
 10
4.3191399072
 20
14.0357341039
 11
4.3191399072
 21
14.3562542767
  0
LWPOLYLINE
  5
402
100
AcDbEntity
  8
0
100
AcDbPolyline
 62
253
  6
CONTINUOUS
 90
34
 70
0
 10
2.6406018367
 20
15.3254211216
 10
2.6408006395
 20
15.3352136033
 10
2.6413966018
 20
15.345213647
 10
2.642388385
 20
15.3553987616
 10
2.643773761
 20
15.3657460459
 10
2.6455496151
 20
15.3762322209
 10
2.6477119503
 20
15.3868336811
 10
2.6502559009
 20
15.3975265755
 10
2.6531757456
 20
15.4082868591
 10
2.6564649156
 20
15.4190903262
 10
2.6601160125
 20
15.4299126792
 10
2.6641208231
 20
15.4407295746
 10
2.6684703353
 20
15.4515166746
 10
2.673154764
 20
15.4622497153
 10
2.6781635721
 20
15.4729045581
 10
2.6834854906
 20
15.4834572354
 10
2.689108551
 20
15.4938840182
 10
2.6950201017
 20
15.5041614502
 10
2.7012068335
 20
15.5142663982
 10
2.7076548101
 20
15.5241761093
 10
2.7143495433
 20
15.533868326
 10
2.7212760195
 20
15.5433213132
 10
2.72841873
 20
15.5525138925
 10
2.7357615475
 20
15.5614252964
 10
2.7432877941
 20
15.5700352966
 10
2.7509804284
 20
15.5783244365
 10
2.758822241
 20
15.5862742107
 10
2.7667957399
 20
15.5938669001
 10
2.7748842174
 20
15.6010864857
 10
2.7830682887
 20
15.607915558
 10
2.7913259595
 20
15.6143360686
 10
2.7996373801
 20
15.6203332878
 10
2.8079850125
 20
15.6258952594
 10
2.8163500927
 20
15.6310100768
  0
LWPOLYLINE
  5
403
100
AcDbEntity
  8
0
100
AcDbPolyline
 62
253
  6
CONTINUOUS
 90
34
 70
0
 10
4.3191399072
 20
14.3562542767
 10
4.3193387099
 20
14.3660467584
 10
4.3199346722
 20
14.3760468022
 10
4.3209264554
 20
14.3862319168
 10
4.3223118314
 20
14.3965792011
 10
4.3240876855
 20
14.4070653761
 10
4.3262500207
 20
14.4176668362
 10
4.3287939713
 20
14.4283597307
 10
4.331713816
 20
14.4391200142
 10
4.335002986
 20
14.4499234814
 10
4.3386540829
 20
14.4607458343
 10
4.3426588935
 20
14.4715627297
 10
4.3470084057
 20
14.4823498297
 10
4.3516928344
 20
14.4930828705
 10
4.3567016425
 20
14.5037377133
 10
4.362023561
 20
14.5142903906
 10
4.3676466214
 20
14.5247171734
 10
4.3735581721
 20
14.5349946054
 10
4.3797449039
 20
14.5450995534
 10
4.3861928805
 20
14.5550092644
 10
4.3928876137
 20
14.5647014812
 10
4.3998140899
 20
14.5741544683
 10
4.4069568004
 20
14.5833470477
 10
4.4142996179
 20
14.5922584515
 10
4.4218258645
 20
14.6008684517
 10
4.4295184988
 20
14.6091575917
 10
4.4373603114
 20
14.6171073659
 10
4.4453338103
 20
14.6247000553
 10
4.4534222878
 20
14.6319196409
 10
4.4616063591
 20
14.6387487132
 10
4.4698640299
 20
14.6451692237
 10
4.4781754506
 20
14.651166443
 10
4.4865230829
 20
14.6567284146
 10
4.4948881631
 20
14.661843232
  0
LWPOLYLINE
  5
404
100
AcDbEntity
  8
0
100
AcDbPolyline
 62
253
  6
CONTINUOUS
 90
22
 70
0
 10
2.3275387627
 20
-25.1247322028
 10
2.3264996914
 20
-25.141392349
 10
2.3248995915
 20
-25.1576890554
 10
2.3227410547
 20
-25.1735959195
 10
2.3200275532
 20
-25.1890871829
 10
2.3167635069
 20
-25.2041377358
 10
2.3129542767
 20
-25.2187231585
 10
2.3086060282
 20
-25.2328198236
 10
2.3037258109
 20
-25.2464048904
 10
2.29832162
 20
-25.2594563053
 10
2.2924022092
 20
-25.2719529243
 10
2.2859771705
 20
-25.2838745003
 10
2.279057008
 20
-25.2952016718
 10
2.2716529673
 20
-25.3059160703
 10
2.263777012
 20
-25.316000353
 10
2.2554418983
 20
-25.3254381839
 10
2.2466611576
 20
-25.334214259
 10
2.2374489934
 20
-25.342314371
 10
2.227820252
 20
-25.3497254358
 10
2.2177905244
 20
-25.3564354509
 10
2.2073760759
 20
-25.3624335372
 10
2.2031506433
 20
-25.364609153
  0
LWPOLYLINE
  5
405
100
AcDbEntity
  8
0
100
AcDbPolyline
 62
253
  6
CONTINUOUS
 90
15
 70
0
 10
6.8717380614
 20
15.3424089744
 10
6.8700914131
 20
15.3356303768
 10
6.8678900543
 20
15.3289044721
 10
6.8651389355
 20
15.3222463856
 10
6.8618442425
 20
15.3156710881
 10
6.858013382
 20
15.3091933627
 10
6.8536549633
 20
15.3028277699
 10
6.8487787895
 20
15.2965886302
 10
6.8433958381
 20
15.2904899879
 10
6.8375182247
 20
15.2845455641
 10
6.8311591616
 20
15.2787687163
 10
6.824332938
 20
15.2731724238
 10
6.817054899
 20
15.2677692674
 10
6.8093414145
 20
15.2625714004
 10
6.8012098294
 20
15.257590511
  0
LWPOLYLINE
  5
406
100
AcDbEntity
  8
SMUSSO
100
AcDbPolyline
 62
7
  6
CONTINUOUS
 90
4
 70
0
 10
12.0331708364
 20
12.2864130298
 10
12.0282824003
 20
12.2782474987
 10
12.0215457364
 20
12.2472305674
 10
12.0234915652
 20
12.2245669694
  0
LWPOLYLINE
  5
407
100
AcDbEntity
  8
SMUSSO
100
AcDbPolyline
 62
7
  6
CONTINUOUS
 90
10
 70
0
 10
12.038541207
 20
11.6402944381
 10
12.0434296432
 20
11.6484599692
 10
12.0501663071
 20
11.6794769005
 10
12.0443669293
 20
11.719272764
 10
12.0260644973
 20
11.7676246085
 10
11.9953618958
 20
11.8242617109
 10
11.9524314623
 20
11.8888668454
 10
11.8975139117
 20
11.961078307
 10
11.8309168801
 20
12.0404920069
 10
11.7530133092
 20
12.1266635713
  0
LWPOLYLINE
  5
408
100
AcDbEntity
  8
0
100
AcDbPolyline
 62
7
  6
CONTINUOUS
 90
9
 70
0
 10
-6.4440789831
 20
-15.8847627923
 10
-6.4452648346
 20
-15.8865386067
 10
-6.449461351
 20
-15.902493845
 10
-6.4457670493
 20
-15.9239753746
 10
-6.4343571967
 20
-15.950860448
 10
-6.4154890332
 20
-15.9825429303
 10
-6.389248305
 20
-16.0188207768
 10
-6.3555492658
 20
-16.0598960322
 10
-6.3143919156
 20
-16.1057686965
  0
LINE
  5
409
100
AcDbEntity
  8
ASSI
100
AcDbLine
 62
7
  6
CONTINUOUS
 10
12.7282443949
 20
13.2497095252
 11
12.0331708364
 21
12.2864130298
  0
LINE
  5
40A
100
AcDbEntity
  8
ASSI
100
AcDbLine
 62
7
  6
CONTINUOUS
 10
-6.9655064267
 20
-14.043691178
 11
-7.6605799851
 21
-15.0069876734
  0
LINE
  5
40B
100
AcDbEntity
  8
ASSI
100
AcDbLine
 62
7
  6
CONTINUOUS
 10
12.1076487081
 20
11.7360699323
 11
12.038541207
 21
11.6402944381
  0
LINE
  5
40C
100
AcDbEntity
  8
ASSI
100
AcDbLine
 62
7
  6
CONTINUOUS
 10
-7.4663136178
 20
-15.3913169199
 11
-7.6552096146
 21
-15.6531062651
  0
LINE
  5
40D
100
AcDbEntity
  8
ASSI
100
AcDbLine
 62
7
  6
CONTINUOUS
 10
12.2185365503
 20
11.1761064892
 11
11.0079904311
 21
9.4984209838
  0
LINE
  5
40E
100
AcDbEntity
  8
ASSI
100
AcDbLine
 62
7
  6
CONTINUOUS
 10
-4.8560418755
 20
-12.4874056085
 11
-5.8417363828
 21
-13.8534711895
  0
LINE
  5
40F
100
AcDbEntity
  8
ASSI
100
AcDbLine
 62
7
  6
CONTINUOUS
 10
7.698881685
 20
3.3473668627
 11
11.8051204907
 21
9.0381680778
  0
LINE
  5
410
100
AcDbEntity
  8
0
100
AcDbLine
 62
7
  6
CONTINUOUS
 10
7.698881685
 20
-0.4436057968
 11
6.2599829331
 21
-1.2744051478
  0
LINE
  5
411
100
AcDbEntity
  8
SMUSSO
100
AcDbLine
 62
7
  6
CONTINUOUS
 10
7.770450885
 20
-0.8570142662
 11
7.3766665795
 21
-0.6296481435
  0
LINE
  5
412
100
AcDbEntity
  8
RACCORDO
100
AcDbLine
 62
253
  6
CONTINUOUS
 10
-0.2633760237
 20
5.1298226013
 11
-13.0163262062
 21
12.4932162047
  0
LWPOLYLINE
  5
413
100
AcDbEntity
  8
RACCORDO
100
AcDbPolyline
 62
253
  6
CONTINUOUS
 90
22
 70
0
 10
-13.0163262062
 20
12.4932162047
 10
-13.042161869
 20
12.5086582431
 10
-13.0685402918
 20
12.5265900974
 10
-13.0954612969
 20
12.5470118529
 10
-13.1230390658
 20
12.5697776392
 10
-13.1511586718
 20
12.5950336847
 10
-13.1794758845
 20
12.6232184101
 10
-13.2080800984
 20
12.6543724432
 10
-13.2368796743
 20
12.6884562331
 10
-13.2652579411
 20
12.7257883586
 10
-13.2933442583
 20
12.7665131933
 10
-13.3210044561
 20
12.8104886655
 10
-13.3472252636
 20
12.857604309
 10
-13.3721154954
 20
12.9081490578
 10
-13.39555806
 20
12.9618379226
 10
-13.416199956
 20
13.0176999625
 10
-13.4340052824
 20
13.0761459926
 10
-13.4489991205
 20
13.1367703219
 10
-13.4599218208
 20
13.1973763469
 10
-13.4663519912
 20
13.2572325646
 10
-13.4687039593
 20
13.3170737775
 10
-13.4669737018
 20
13.376901859
  0
LINE
  5
414
100
AcDbEntity
  8
RACCORDO
100
AcDbLine
 62
7
  6
CONTINUOUS
 10
-12.9314925075
 20
12.6765671429
 11
-12.9186866771
 21
12.6688922665
  0
LWPOLYLINE
  5
415
100
AcDbEntity
  8
RACCORDO
100
AcDbPolyline
 62
253
  6
CONTINUOUS
 90
6
 70
0
 10
-12.9187580087
 20
12.6689332585
 10
-12.9252229591
 20
12.6737872577
 10
-12.9320328318
 20
12.6825585233
 10
-12.9367240472
 20
12.6937731749
 10
-12.9391395346
 20
12.7070557214
 10
-12.9391984193
 20
12.7219614343
  0
LWPOLYLINE
  5
416
100
AcDbEntity
  8
RACCORDO
100
AcDbPolyline
 62
253
  6
CONTINUOUS
 90
6
 70
0
 10
-0.2827576812
 20
5.3730650357
 10
-0.2892226228
 20
5.3779190265
 10
-0.2960324982
 20
5.3866902898
 10
-0.3007237167
 20
5.3979049417
 10
-0.3031392065
 20
5.4111874916
 10
-0.3031980918
 20
5.4260932115
  0
LINE
  5
417
100
AcDbEntity
  8
SMUSSO
100
AcDbLine
 62
7
  6
CONTINUOUS
 10
7.770450885
 20
-0.8570142662
 11
9.4394807383
 21
-2.1213810713
  0
LWPOLYLINE
  5
418
100
AcDbEntity
  8
0
100
AcDbPolyline
 62
253
  6
CONTINUOUS
 90
4
 70
0
 10
6.8192475504
 20
-23.527948292
 10
6.8175384283
 20
-23.5163811726
 10
6.8153911646
 20
-23.5049515934
 10
6.8128106055
 20
-23.4936853503
  0
LWPOLYLINE
  5
419
100
AcDbEntity
  8
RACCORDO
100
AcDbPolyline
 62
253
  6
CONTINUOUS
 90
10
 70
0
 10
1.190529238
 20
11.0571366553
 10
1.1888036977
 20
11.0715349106
 10
1.1849425815
 20
11.0867154094
 10
1.1790632477
 20
11.1022164217
 10
1.171344439
 20
11.1175664636
 10
1.1620208932
 20
11.1322985518
 10
1.1513762356
 20
11.1459644251
 10
1.1397342775
 20
11.1581483044
 10
1.1274491407
 20
11.1684795268
 10
1.1148945477
 20
11.1766437486
  0
LWPOLYLINE
  5
41A
100
AcDbEntity
  8
0
100
AcDbPolyline
 62
253
  6
CONTINUOUS
 90
19
 70
0
 10
4.3191399072
 20
14.0357341039
 10
4.319308203
 20
14.0269266386
 10
4.3198127702
 20
14.0183302868
 10
4.3206526481
 20
14.0099614165
 10
4.3218262338
 20
14.0018359837
 10
4.3233312947
 20
13.993969437
 10
4.3251649811
 20
13.986376695
 10
4.3273238252
 20
13.9790721729
 10
4.3298037126
 20
13.9720698391
 10
4.3325998923
 20
13.9653831155
 10
4.3357070148
 20
13.9590247704
 10
4.339119177
 20
13.9530068621
 10
4.3428299049
 20
13.9473408058
 10
4.3468321657
 20
13.9420373559
 10
4.3511183148
 20
13.9371066564
 10
4.3556801243
 20
13.9325581629
 10
4.3605088539
 20
13.9284005578
 10
4.3655953396
 20
13.9246417006
 10
4.3708599304
 20
13.9213291466
  0
LWPOLYLINE
  5
41B
100
AcDbEntity
  8
0
100
AcDbPolyline
 62
7
  6
CONTINUOUS
 90
24
 70
0
 10
5.4597698593
 20
23.1691181476
 10
5.4593387202
 20
23.1973093808
 10
5.4580572456
 20
23.2249105374
 10
5.4559254355
 20
23.2519216172
 10
5.4529379999
 20
23.2783770481
 10
5.4491002289
 20
23.3042424023
 10
5.4444279919
 20
23.3294143966
 10
5.438920301
 20
23.3538826287
 10
5.4325781442
 20
23.3776575008
 10
5.4254203548
 20
23.4006669363
 10
5.4174402567
 20
23.4229182213
 10
5.4086445261
 20
23.4444040696
 10
5.3990720254
 20
23.4650305455
 10
5.3887257244
 20
23.4847835008
 10
5.3776026533
 20
23.5036770836
 10
5.3657327645
 20
23.5216598032
 10
5.3531053441
 20
23.5387394011
 10
5.339731106
 20
23.5549081357
 10
5.3256721446
 20
23.5700912915
 10
5.3109361265
 20
23.5842751727
 10
5.295515385
 20
23.597473475
 10
5.2794490145
 20
23.60965257
 10
5.2627226996
 20
23.6208172192
 10
5.2526841641
 20
23.6268496848
  0
LINE
  5
41C
100
AcDbEntity
  8
0
100
AcDbLine
 62
253
  6
CONTINUOUS
 10
4.6716618668
 20
-25.2217639366
 11
4.6716618668
 21
-24.9012437638
  0
LINE
  5
41D
100
AcDbEntity
  8
0
100
AcDbLine
 62
253
  6
CONTINUOUS
 10
4.6716618668
 20
14.0351420232
 11
4.6716618668
 21
14.3556621961
  0
LINE
  5
41E
100
AcDbEntity
  8
RACCORDO
100
AcDbLine
 62
253
  6
CONTINUOUS
 10
5.0303605152
 20
13.3531509132
 11
5.0303605152
 21
13.837532911
  0
LINE
  5
41F
100
AcDbEntity
  8
RACCORDO
100
AcDbLine
 62
253
  6
CONTINUOUS
 10
5.3828824749
 20
-24.0239551085
 11
5.3828824749
 21
-23.7807802833
  0
LINE
  5
420
100
AcDbEntity
  8
RACCORDO
100
AcDbLine
 62
253
  6
CONTINUOUS
 10
5.3828824749
 20
13.3717020381
 11
5.3828824749
 21
13.9696520104
  0
LINE
  5
421
100
AcDbEntity
  8
0
100
AcDbLine
 62
7
  6
CONTINUOUS
 10
5.4597698593
 20
23.1691181476
 11
5.4597698593
 21
22.7315007353
  0
LINE
  5
422
100
AcDbEntity
  8
0
100
AcDbLine
 62
7
  6
CONTINUOUS
 10
6.2599829331
 20
-9.3821017489
 11
6.2599829331
 21
-1.2744051478
  0
LINE
  5
423
100
AcDbEntity
  8
0
100
AcDbLine
 62
7
  6
CONTINUOUS
 10
6.2729426576
 20
15.2802206223
 11
6.2729426576
 21
14.5947782446
  0
LINE
  5
424
100
AcDbEntity
  8
RACCORDO
100
AcDbLine
 62
7
  6
CONTINUOUS
 10
6.2729426576
 20
-23.633152333
 11
6.2729426576
 21
-23.3374400623
  0
LINE
  5
425
100
AcDbEntity
  8
0
100
AcDbLine
 62
7
  6
CONTINUOUS
 10
6.2729426576
 20
-23.633152333
 11
6.2729426576
 21
-24.3185947107
  0
LINE
  5
426
100
AcDbEntity
  8
RACCORDO
100
AcDbLine
 62
7
  6
CONTINUOUS
 10
6.2729426576
 20
13.9332155198
 11
6.2729426576
 21
14.5947782446
  0
LWPOLYLINE
  5
427
100
AcDbEntity
  8
0
100
AcDbPolyline
 62
253
  6
CONTINUOUS
 90
25
 70
0
 10
4.3191399072
 20
-24.9006516831
 10
4.3193081594
 20
-24.8916510531
 10
4.3198125958
 20
-24.8824732628
 10
4.3206522563
 20
-24.8731357826
 10
4.3218255424
 20
-24.8636563871
 10
4.3233302207
 20
-24.8540531207
 10
4.325163427
 20
-24.8443442639
 10
4.3273216716
 20
-24.834548298
 10
4.3298008463
 20
-24.8246838702
 10
4.3325962318
 20
-24.8147697579
 10
4.3357025069
 20
-24.8048248333
 10
4.3391137587
 20
-24.7948680271
 10
4.3428234935
 20
-24.7849182926
 10
4.3468246498
 20
-24.7749945697
 10
4.3511096111
 20
-24.7651157488
 10
4.3556702207
 20
-24.7553006348
 10
4.3604977973
 20
-24.7455679113
 10
4.3655831513
 20
-24.7359361051
 10
4.3709166024
 20
-24.7264235508
 10
4.3764879982
 20
-24.7170483563
 10
4.382286733
 20
-24.7078283677
 10
4.3883017688
 20
-24.6987811357
 10
4.3945216555
 20
-24.6899238823
 10
4.4009345533
 20
-24.6812734678
 10
4.4075282548
 20
-24.6728463587
  0
LWPOLYLINE
  5
428
100
AcDbEntity
  8
0
100
AcDbPolyline
 62
253
  6
CONTINUOUS
 90
18
 70
0
 10
4.6716618668
 20
-25.2217639366
 10
4.6714135985
 20
-25.2313876819
 10
4.6707677902
 20
-25.2407570778
 10
4.6697259048
 20
-25.2498509004
 10
4.6682903024
 20
-25.2586485501
 10
4.6664642349
 20
-25.2671300984
 10
4.6642518389
 20
-25.2752763327
 10
4.6616581258
 20
-25.2830687998
 10
4.658688971
 20
-25.2904898481
 10
4.6553511004
 20
-25.2975226673
 10
4.6516520749
 20
-25.3041513264
 10
4.6476002737
 20
-25.3103608101
 10
4.6432048749
 20
-25.3161370525
 10
4.6384758353
 20
-25.321466969
 10
4.633423867
 20
-25.3263384863
 10
4.628060414
 20
-25.3307405693
 10
4.6223976256
 20
-25.3346632463
 10
4.6187347908
 20
-25.3368546545
  0
LWPOLYLINE
  5
429
100
AcDbEntity
  8
0
100
AcDbPolyline
 62
7
  6
CONTINUOUS
 90
6
 70
0
 10
6.8734073338
 20
15.3593060521
 10
6.8728092939
 20
15.3417787164
 10
6.869005969
 20
15.3123572696
 10
6.8617250543
 20
15.2835333111
 10
6.8510466871
 20
15.2557172166
 10
6.837075936
 20
15.2292719483
  0
LWPOLYLINE
  5
42A
100
AcDbEntity
  8
0
100
AcDbPolyline
 62
253
  6
CONTINUOUS
 90
3
 70
0
 10
6.8732514699
 20
15.3547379974
 10
6.8728262966
 20
15.349225022
 10
6.8717380614
 20
15.3424089744
  0
LWPOLYLINE
  5
42B
100
AcDbEntity
  8
SMUSSO
100
AcDbPolyline
 62
7
  6
CONTINUOUS
 90
9
 70
0
 10
10.9264107486
 20
11.4662056515
 10
10.9331832478
 20
11.4813533932
 10
10.933546131
 20
11.5084060728
 10
10.9236072397
 20
11.5425849899
 10
10.9034310382
 20
11.5836684762
 10
10.8731483905
 20
11.6313900749
 10
10.8329557067
 20
11.6854402811
 10
10.7831136619
 20
11.7454685545
 10
10.723945512
 20
11.8110855823
  0
LWPOLYLINE
  5
42C
100
AcDbEntity
  8
ASSI
100
AcDbPolyline
 62
7
  6
CONTINUOUS
 90
9
 70
0
 10
-3.200606103
 20
-18.2251141227
 10
-3.1910097595
 20
-18.2037025154
 10
-3.1903741536
 20
-18.1657229212
 10
-3.2044841576
 20
-18.1175430638
 10
-3.2330595463
 20
-18.0593567889
 10
-3.2755503053
 20
-17.9922840562
 10
-3.3317730967
 20
-17.9166981853
 10
-3.4019112586
 20
-17.8322258566
 10
-3.4859647908
 20
-17.7388670699
  0
LWPOLYLINE
  5
42D
100
AcDbEntity
  8
0
100
AcDbPolyline
 62
7
  6
CONTINUOUS
 90
9
 70
0
 10
-4.4169378951
 20
-17.3474610841
 10
-4.4157520436
 20
-17.3456852698
 10
-4.4115555272
 20
-17.3297300314
 10
-4.4152498289
 20
-17.3082485018
 10
-4.4266596814
 20
-17.2813634284
 10
-4.445527845
 20
-17.2496809461
 10
-4.4717685731
 20
-17.2134030997
 10
-4.5054676123
 20
-17.1723278443
 10
-4.5466249626
 20
-17.1264551799
  0
LINE
  5
42E
100
AcDbEntity
  8
ASSI
100
AcDbLine
 62
7
  6
CONTINUOUS
 10
12.8941465807
 20
9.3922439189
 11
12.4024967869
 21
8.7108706777
  0
LINE
  5
42F
100
AcDbEntity
  8
0
100
AcDbLine
 62
7
  6
CONTINUOUS
 10
7.698881685
 20
1.9519502297
 11
11.7937042281
 21
7.6269297442
  0
LINE
  5
430
100
AcDbEntity
  8
0
100
AcDbLine
 62
7
  6
CONTINUOUS
 10
7.0160148548
 20
-0.969959389
 11
6.2599829331
 21
-2.0177375583
  0
LWPOLYLINE
  5
431
100
AcDbEntity
  8
ASSI
100
AcDbPolyline
 62
7
  6
CONTINUOUS
 90
7
 70
0
 10
13.2964323079
 20
9.8500956483
 10
13.2334036052
 20
9.7656750431
 10
13.168767335
 20
9.6844992314
 10
13.1025234975
 20
9.6065682131
 10
13.0346720927
 20
9.5318819882
 10
12.9652131204
 20
9.4604405568
 10
12.8941465807
 20
9.3922439189
  0
LWPOLYLINE
  5
432
100
AcDbEntity
  8
ASSI
100
AcDbPolyline
 62
7
  6
CONTINUOUS
 90
20
 70
0
 10
14.1803157844
 20
9.3397524067
 10
14.0905796114
 20
9.2212196146
 10
13.9978735581
 20
9.1093990929
 10
13.9021976246
 20
9.0042908415
 10
13.8029856514
 20
8.9053840376
 10
13.7008037979
 20
8.8131895041
 10
13.5973505425
 20
8.7292397089
 10
13.4926046342
 20
8.6536724606
 10
13.3865873239
 20
8.5863499506
 10
13.2810608437
 20
8.5283912213
 10
13.1760333974
 20
8.4799527859
 10
13.0714967811
 20
8.4408781312
 10
12.9691886143
 20
8.4118167606
 10
12.8691461449
 20
8.3929360434
 10
12.7713321249
 20
8.3840686103
 10
12.6773724302
 20
8.3853618569
 10
12.5873314848
 20
8.3969856159
 10
12.5011448646
 20
8.4187700546
 10
12.4202451735
 20
8.4503530695
 10
12.3691229051
 20
8.4770287055
  0
LWPOLYLINE
  5
433
100
AcDbEntity
  8
0
100
AcDbPolyline
 62
253
  6
CONTINUOUS
 90
16
 70
0
 10
-3.8426493491
 20
-12.0460027822
 10
-3.8748590561
 20
-12.086839456
 10
-3.9105894718
 20
-12.1249921437
 10
-3.9494491262
 20
-12.1600428366
 10
-3.9910122648
 20
-12.1916075118
 10
-4.0348235132
 20
-12.2193403401
 10
-4.0804028662
 20
-12.242937475
 10
-4.1272509468
 20
-12.2621403812
 10
-4.1748544777
 20
-12.2767386677
 10
-4.2226919046
 20
-12.2865723927
 10
-4.2702391107
 20
-12.2915338157
 10
-4.3169751588
 20
-12.2915685783
 10
-4.362387999
 20
-12.2866762998
 10
-4.4059800788
 20
-12.2769105809
 10
-4.4472737941
 20
-12.2623784169
 10
-4.4858167224
 20
-12.2432390252
  0
LWPOLYLINE
  5
434
100
AcDbEntity
  8
SMUSSO
100
AcDbPolyline
 62
7
  6
CONTINUOUS
 90
4
 70
0
 10
-6.9655064267
 20
-14.043691178
 10
-6.9511473059
 20
-14.0297842922
 10
-6.919514601
 20
-14.0168010991
 10
-6.9098648109
 20
-14.01500958
  0
LWPOLYLINE
  5
435
100
AcDbEntity
  8
0
100
AcDbPolyline
 62
253
  6
CONTINUOUS
 90
13
 70
0
 10
-12.0973242844
 20
-14.8530324074
 10
-12.1266446902
 20
-14.8715468849
 10
-12.1590930743
 20
-14.8876486507
 10
-12.1941141658
 20
-14.9010622229
 10
-12.2311087016
 20
-14.911558127
 10
-12.2694436372
 20
-14.9189568082
 10
-12.3084629751
 20
-14.9231317139
 10
-12.3474990592
 20
-14.9240114699
 10
-12.3858839917
 20
-14.9215810856
 10
-12.4229610145
 20
-14.9158822072
 10
-12.4580957759
 20
-14.9070124039
 10
-12.4906871818
 20
-14.895123493
 10
-12.5201776686
 20
-14.8804189422
  0
LWPOLYLINE
  5
436
100
AcDbEntity
  8
SMUSSO
100
AcDbPolyline
 62
7
  6
CONTINUOUS
 90
4
 70
0
 10
16.4376723126
 20
9.0394829022
 10
16.4473398596
 20
9.0412783788
 10
16.4789669031
 20
9.0542659479
 10
16.4933139285
 20
9.0681645001
  0
LWPOLYLINE
  5
437
100
AcDbEntity
  8
RACCORDO
100
AcDbPolyline
 62
253
  6
CONTINUOUS
 90
11
 70
0
 10
-0.1721791308
 20
5.3890803428
 10
-0.185467015
 20
5.3891410475
 10
-0.1985943669
 20
5.390026797
 10
-0.2115372048
 20
5.3917607908
 10
-0.2243198571
 20
5.3943196643
 10
-0.2367550182
 20
5.3974606461
 10
-0.2487988063
 20
5.4011750231
 10
-0.2604952754
 20
5.4054714263
 10
-0.2717889629
 20
5.4101331298
 10
-0.2826613946
 20
5.4150878852
 10
-0.2931310999
 20
5.4204079145
  0
LWPOLYLINE
  5
438
100
AcDbEntity
  8
RACCORDO
100
AcDbPolyline
 62
253
  6
CONTINUOUS
 90
3
 70
0
 10
-0.025426784
 20
5.3202835798
 10
-0.0463235929
 20
5.3257981609
 10
-0.0536299482
 20
5.3282789585
  0
LWPOLYLINE
  5
439
100
AcDbEntity
  8
RACCORDO
100
AcDbPolyline
 62
253
  6
CONTINUOUS
 90
12
 70
0
 10
-13.4669736965
 20
13.3769018615
 10
-13.4475419379
 20
13.3668816096
 10
-13.4260786652
 20
13.3581401884
 10
-13.4029430503
 20
13.350823879
 10
-13.3785222506
 20
13.3450551145
 10
-13.3532249301
 20
13.3409304307
 10
-13.3274744204
 20
13.3385188511
 10
-13.301701637
 20
13.3378607316
 10
-13.2763378685
 20
13.3389670854
 10
-13.2518075587
 20
13.341819399
 10
-13.2285212041
 20
13.346369941
 10
-13.2202109935
 20
13.3487389634
  0
LWPOLYLINE
  5
43A
100
AcDbEntity
  8
RACCORDO
100
AcDbPolyline
 62
7
  6
CONTINUOUS
 90
11
 70
0
 10
-0.2827388176
 20
5.3730541877
 10
-0.2747430028
 20
5.3685475845
 10
-0.2387092864
 20
5.350906894
 10
-0.2026289347
 20
5.3375117231
 10
-0.1667126887
 20
5.3283571408
 10
-0.1312293583
 20
5.323442852
 10
-0.0965647001
 20
5.3227349436
 10
-0.0631711399
 20
5.3261049241
 10
-0.0311940166
 20
5.3333911591
 10
-0.0006545523
 20
5.3445114693
 10
0.0200544464
 20
5.3546968266
  0
LINE
  5
43B
100
AcDbEntity
  8
RACCORDO
100
AcDbLine
 62
253
  6
CONTINUOUS
 10
-0.2931310999
 20
5.4204079145
 11
-0.3031980918
 21
5.4260932115
  0
LINE
  5
43C
100
AcDbEntity
  8
RACCORDO
100
AcDbLine
 62
7
  6
CONTINUOUS
 10
-0.2827576812
 20
5.3730650357
 11
-12.9187580087
 21
12.6689332585
  0
LINE
  5
43D
100
AcDbEntity
  8
RACCORDO
100
AcDbLine
 62
253
  6
CONTINUOUS
 10
-0.3031980918
 20
5.4260932115
 11
-12.9391984193
 21
12.7219614343
  0
LINE
  5
43E
100
AcDbEntity
  8
0
100
AcDbLine
 62
7
  6
CONTINUOUS
 10
13.7972185522
 20
-2.6854439809
 11
10.8774374538
 21
-0.9995989681
  0
LINE
  5
43F
100
AcDbEntity
  8
0
100
AcDbLine
 62
7
  6
CONTINUOUS
 10
10.5201840819
 20
-0.6167510077
 11
10.1666306913
 21
-0.412613711
  0
LWPOLYLINE
  5
440
100
AcDbEntity
  8
RACCORDO
100
AcDbPolyline
 62
253
  6
CONTINUOUS
 90
29
 70
0
 10
-12.9391984193
 20
12.7219614343
 10
-12.9490096109
 20
12.7277372121
 10
-12.9591739666
 20
12.7343024854
 10
-12.9696914742
 20
12.74165726
 10
-12.9806087779
 20
12.7497724764
 10
-12.9918791808
 20
12.7586772192
 10
-13.0033626316
 20
12.7684587244
 10
-13.0150781199
 20
12.7791451896
 10
-13.0270064948
 20
12.7907084941
 10
-13.0389504402
 20
12.8031514218
 10
-13.0509124894
 20
12.8164967546
 10
-13.0628897935
 20
12.8307218609
 10
-13.0746769001
 20
12.8457614341
 10
-13.0862728265
 20
12.8616397054
 10
-13.0976780686
 20
12.8783326752
 10
-13.1086893482
 20
12.8957027109
 10
-13.1193040889
 20
12.9137834924
 10
-13.1295242373
 20
12.9325416389
 10
-13.1391533172
 20
12.951738919
 10
-13.1481782043
 20
12.9714132609
 10
-13.1566113551
 20
12.9915270527
 10
-13.164294804
 20
13.0117286866
 10
-13.1711958596
 20
13.0320308389
 10
-13.1773467059
 20
13.0524210725
 10
-13.1826869755
 20
13.0725099743
 10
-13.1871771401
 20
13.0922885642
 10
-13.1908565561
 20
13.1117659022
 10
-13.1937835635
 20
13.1305794534
 10
-13.1959229298
 20
13.1486816621
  0
LWPOLYLINE
  5
441
100
AcDbEntity
  8
RACCORDO
100
AcDbPolyline
 62
253
  6
CONTINUOUS
 90
8
 70
0
 10
0.2744205655
 20
5.4428058113
 10
0.2573360357
 20
5.4538665311
 10
0.2428940514
 20
5.4658536375
 10
0.2313363387
 20
5.4785664931
 10
0.2228563479
 20
5.4917923131
 10
0.2175960147
 20
5.5053097268
 10
0.2156433853
 20
5.518892483
 10
0.215761718
 20
5.5238058121
  0
LINE
  5
442
100
AcDbEntity
  8
0
100
AcDbLine
 62
7
  6
CONTINUOUS
 10
6.9359215322
 20
-0.8841279662
 11
7.0160148548
 21
-0.969959389
  0
LINE
  5
443
100
AcDbEntity
  8
0
100
AcDbLine
 62
7
  6
CONTINUOUS
 10
11.4063739022
 20
-5.6748555184
 11
11.5382294874
 21
-5.8161575909
  0
LINE
  5
444
100
AcDbEntity
  8
SMUSSO
100
AcDbLine
 62
7
  6
CONTINUOUS
 10
11.9946334006
 20
-4.8595917145
 11
9.4394807383
 21
-2.1213810713
  0
LWPOLYLINE
  5
445
100
AcDbEntity
  8
0
100
AcDbPolyline
 62
253
  6
CONTINUOUS
 90
4
 70
0
 10
2.5692190093
 20
15.0894865629
 10
2.5680625132
 20
15.0962992838
 10
2.5674667147
 20
15.1031360067
 10
2.567378532
 20
15.1069695971
  0
LINE
  5
446
100
AcDbEntity
  8
0
100
AcDbLine
 62
253
  6
CONTINUOUS
 10
6.8012098294
 20
15.5852358115
 11
6.8012098294
 21
15.257590511
  0
LINE
  5
447
100
AcDbEntity
  8
0
100
AcDbLine
 62
253
  6
CONTINUOUS
 10
6.8012098294
 20
-23.678795276
 11
6.8012098294
 21
-24.0064405765
  0
LINE
  5
448
100
AcDbEntity
  8
0
100
AcDbLine
 62
7
  6
CONTINUOUS
 10
6.8734076864
 20
15.6867089246
 11
6.8734076864
 21
15.3590636241
  0
LINE
  5
449
100
AcDbEntity
  8
0
100
AcDbLine
 62
7
  6
CONTINUOUS
 10
6.8734076864
 20
-23.577322163
 11
6.8734076864
 21
-23.9049674635
  0
LINE
  5
44A
100
AcDbEntity
  8
0
100
AcDbLine
 62
7
  6
CONTINUOUS
 10
6.9803579802
 20
12.9530730935
 11
6.9803579802
 21
12.7081181933
  0
LINE
  5
44B
100
AcDbEntity
  8
0
100
AcDbLine
 62
7
  6
CONTINUOUS
 10
6.9803579802
 20
-22.8083526644
 11
6.9803579802
 21
-22.5633977642
  0
LINE
  5
44C
100
AcDbEntity
  8
0
100
AcDbLine
 62
253
  6
CONTINUOUS
 10
7.549744671
 20
20.4658585297
 11
7.549744671
 21
19.9369067876
  0
LINE
  5
44D
100
AcDbEntity
  8
0
100
AcDbLine
 62
253
  6
CONTINUOUS
 10
7.549744671
 20
19.6011117785
 11
7.549744671
 21
19.1612904662
  0
LINE
  5
44E
100
AcDbEntity
  8
0
100
AcDbLine
 62
7
  6
CONTINUOUS
 10
7.6805795222
 20
20.5205047018
 11
7.6805795222
 21
19.3436679147
  0
LINE
  5
44F
100
AcDbEntity
  8
0
100
AcDbLine
 62
7
  6
CONTINUOUS
 10
7.681293934
 20
-22.3917650275
 11
7.681293934
 21
-21.7116559874
  0
LINE
  5
450
100
AcDbEntity
  8
0
100
AcDbLine
 62
7
  6
CONTINUOUS
 10
7.681293934
 20
12.6485664109
 11
7.681293934
 21
13.3601605601
  0
LINE
  5
451
100
AcDbEntity
  8
0
100
AcDbLine
 62
7
  6
CONTINUOUS
 10
7.698881685
 20
-21.6903258254
 11
7.698881685
 21
-8.6083085647
  0
LINE
  5
452
100
AcDbEntity
  8
0
100
AcDbLine
 62
7
  6
CONTINUOUS
 10
7.698881685
 20
-0.4436057968
 11
7.698881685
 21
12.6384114639
  0
LINE
  5
453
100
AcDbEntity
  8
0
100
AcDbLine
 62
7
  6
CONTINUOUS
 10
7.7197893912
 20
-16.5937018561
 11
7.7197893912
 21
-15.0851769302
  0
LINE
  5
454
100
AcDbEntity
  8
0
100
AcDbLine
 62
7
  6
CONTINUOUS
 10
8.1489540836
 20
-13.1846599111
 11
8.1489540836
 21
-13.2144185511
  0
LINE
  5
455
100
AcDbEntity
  8
0
100
AcDbLine
 62
253
  6
CONTINUOUS
 10
6.8734076864
 20
-23.577322163
 11
6.8734073724
 21
-23.5775509273
  0
LWPOLYLINE
  5
456
100
AcDbEntity
  8
0
100
AcDbPolyline
 62
253
  6
CONTINUOUS
 90
18
 70
0
 10
6.8012098294
 20
-24.0064405765
 10
6.8010570475
 20
-24.0160104624
 10
6.8005017381
 20
-24.0253287535
 10
6.799545158
 20
-24.0343743351
 10
6.7981894723
 20
-24.0431267149
 10
6.7964377514
 20
-24.0515660547
 10
6.7942939673
 20
-24.0596732171
 10
6.7917629792
 20
-24.0674298292
 10
6.7888505215
 20
-24.0748183199
 10
6.7855631951
 20
-24.0818219463
 10
6.7819084489
 20
-24.0884248408
 10
6.7778945653
 20
-24.0946120422
 10
6.7735306435
 20
-24.1003695278
 10
6.7688265736
 20
-24.1056842533
 10
6.7637930153
 20
-24.1105441792
 10
6.758441377
 20
-24.1149382945
 10
6.7527837833
 20
-24.1188566473
 10
6.7505931626
 20
-24.1201972351
  0
LWPOLYLINE
  5
457
100
AcDbEntity
  8
0
100
AcDbPolyline
 62
7
  6
CONTINUOUS
 90
21
 70
0
 10
6.9794323091
 20
-22.8076175254
 10
6.9791502563
 20
-22.8238365418
 10
6.9782959313
 20
-22.8397293163
 10
6.9768690003
 20
-22.8552676733
 10
6.974869177
 20
-22.8704364611
 10
6.9722978924
 20
-22.8851947872
 10
6.9691631816
 20
-22.8994801015
 10
6.9654763247
 20
-22.9132572698
 10
6.9612433544
 20
-22.9265183375
 10
6.9564698251
 20
-22.9392462813
 10
6.9511704692
 20
-22.9514109927
 10
6.9453520615
 20
-22.9630048718
 10
6.9390050283
 20
-22.9740410783
 10
6.9321251318
 20
-22.98451551
 10
6.9247324174
 20
-22.9943870479
 10
6.9168545135
 20
-23.0036145011
 10
6.9085085646
 20
-23.0121806217
 10
6.8997071973
 20
-23.0200753979
 10
6.8904776148
 20
-23.0272779134
 10
6.8808549863
 20
-23.0337694725
 10
6.8781967666
 20
-23.0353971139
  0
LWPOLYLINE
  5
458
100
AcDbEntity
  8
0
100
AcDbPolyline
 62
253
  6
CONTINUOUS
 90
3
 70
0
 10
6.8734076864
 20
-23.9049674635
 10
6.8733541248
 20
-23.9079552913
 10
6.8728276974
 20
-23.9147942197
  0
LWPOLYLINE
  5
459
100
AcDbEntity
  8
0
100
AcDbPolyline
 62
253
  6
CONTINUOUS
 90
18
 70
0
 10
6.8734076779
 20
15.6866712358
 10
6.8733541248
 20
15.6837210967
 10
6.8728276974
 20
15.6768821684
 10
6.8717402851
 20
15.6700653324
 10
6.8700943305
 20
15.6632859181
 10
6.8678935332
 20
15.6565591757
 10
6.8651428404
 20
15.6499002343
 10
6.8618484365
 20
15.6433240723
 10
6.8580177321
 20
15.636845486
 10
6.8536593424
 20
15.6304790481
 10
6.8487830688
 20
15.6242390773
 10
6.8433998794
 20
15.6181396107
 10
6.8375218782
 20
15.6121943643
 10
6.831162288
 20
15.6064167136
 10
6.8243354252
 20
15.6008196641
 10
6.8170566511
 20
15.5954158069
 10
6.809342335
 20
15.5902172922
 10
6.8012098294
 20
15.5852358115
  0
LWPOLYLINE
  5
45A
100
AcDbEntity
  8
0
100
AcDbPolyline
 62
253
  6
CONTINUOUS
 90
18
 70
0
 10
6.8734073724
 20
-23.5775509273
 10
6.8733532635
 20
-23.580333917
 10
6.8728249104
 20
-23.5871724733
 10
6.8717356384
 20
-23.5939888523
 10
6.8700879004
 20
-23.6007677345
 10
6.8678854002
 20
-23.6074938899
 10
6.8651330686
 20
-23.6141522409
 10
6.8618371096
 20
-23.6207277631
 10
6.8580050182
 20
-23.6272055394
 10
6.8536455062
 20
-23.6335709238
 10
6.8487683604
 20
-23.6398096974
 10
6.8433844652
 20
-23.6459079609
 10
6.8375054302
 20
-23.6518524772
 10
6.8311448933
 20
-23.6576293766
 10
6.8243187336
 20
-23.6632244396
 10
6.8170431612
 20
-23.6686248192
 10
6.8093343276
 20
-23.673818939
 10
6.8012098294
 20
-23.678795276
  0
LWPOLYLINE
  5
45B
100
AcDbEntity
  8
0
100
AcDbPolyline
 62
7
  6
CONTINUOUS
 90
18
 70
0
 10
6.2729426576
 20
-24.3185947107
 10
6.2727422788
 20
-24.3281913477
 10
6.2721421098
 20
-24.3375349246
 10
6.2711434061
 20
-24.3466043355
 10
6.2697482478
 20
-24.355379142
 10
6.2679597869
 20
-24.363839469
 10
6.265782241
 20
-24.3719660498
 10
6.2632204824
 20
-24.3797405094
 10
6.2602802215
 20
-24.3871452885
 10
6.2569682472
 20
-24.3941635335
 10
6.2532920233
 20
-24.4007793673
 10
6.2492598044
 20
-24.4069778442
 10
6.2448808126
 20
-24.4127448674
 10
6.2401649514
 20
-24.4180673813
 10
6.2351228518
 20
-24.4229333582
 10
6.2297659814
 20
-24.4273317462
 10
6.224106482
 20
-24.4312525771
 10
6.2218982614
 20
-24.4326041157
  0
LWPOLYLINE
  5
45C
100
AcDbEntity
  8
0
100
AcDbPolyline
 62
7
  6
CONTINUOUS
 90
6
 70
0
 10
6.8734076863
 20
-23.9049630891
 10
6.8714976657
 20
-23.9358116226
 10
6.8654754961
 20
-23.9674428626
 10
6.8553970412
 20
-23.9981390215
 10
6.8413631648
 20
-24.0274232082
 10
6.8235321975
 20
-24.0548013049
  0
LINE
  5
45D
100
AcDbEntity
  8
SMUSSO
100
AcDbLine
 62
7
  6
CONTINUOUS
 10
6.2599829331
 20
-2.9503588724
 11
7.770450885
 21
-0.8570142662
  0
LINE
  5
45E
100
AcDbEntity
  8
ASSI
100
AcDbLine
 62
7
  6
CONTINUOUS
 10
15.3811834701
 20
8.8940757136
 11
15.0388792215
 21
8.4196791852
  0
LINE
  5
45F
100
AcDbEntity
  8
ASSI
100
AcDbLine
 62
7
  6
CONTINUOUS
 10
-2.1535821156
 20
-15.4072058301
 11
-2.679089463
 21
-16.1355019651
  0
LINE
  5
460
100
AcDbEntity
  8
ASSI
100
AcDbLine
 62
7
  6
CONTINUOUS
 10
17.1883874869
 20
10.0314609955
 11
16.4933139285
 21
9.0681645001
  0
LINE
  5
461
100
AcDbEntity
  8
ASSI
100
AcDbLine
 62
7
  6
CONTINUOUS
 10
-2.5053633347
 20
-17.2619397076
 11
-3.2004368931
 21
-18.225236203
  0
LINE
  5
462
100
AcDbEntity
  8
SMUSSO
100
AcDbLine
 62
7
  6
CONTINUOUS
 10
15.3695438846
 20
8.8779445116
 11
16.4376723126
 21
9.0394829022
  0
LINE
  5
463
100
AcDbEntity
  8
0
100
AcDbLine
 62
7
  6
CONTINUOUS
 10
13.404907646
 20
1.9857460563
 11
12.797512032
 21
2.3364486713
  0
LINE
  5
464
100
AcDbEntity
  8
0
100
AcDbLine
 62
7
  6
CONTINUOUS
 10
11.0879957847
 20
-1.2252422618
 11
10.5201840819
 21
-0.6167510077
  0
LINE
  5
465
100
AcDbEntity
  8
0
100
AcDbLine
 62
7
  6
CONTINUOUS
 10
13.7972185522
 20
-2.6854439809
 11
14.4461462125
 21
-3.3808625569
  0
LWPOLYLINE
  5
466
100
AcDbEntity
  8
0
100
AcDbPolyline
 62
253
  6
CONTINUOUS
 90
15
 70
0
 10
-5.5024481633
 20
22.3615684349
 10
-5.4984787472
 20
22.3557302252
 10
-5.4949181146
 20
22.3501325684
 10
-5.4917745674
 20
22.3447882472
 10
-5.4890552898
 20
22.3397091205
 10
-5.4867669526
 20
22.3349072369
 10
-5.4849153742
 20
22.3303945969
 10
-5.4835048305
 20
22.3261817157
 10
-5.4825383375
 20
22.3222777247
 10
-5.4820180704
 20
22.318691366
 10
-5.4819452324
 20
22.3154307122
 10
-5.4823200248
 20
22.3125031934
 10
-5.4831416076
 20
22.3099154867
 10
-5.4844081151
 20
22.3076734485
 10
-5.4847356946
 20
22.3072403019
  0
LWPOLYLINE
  5
467
100
AcDbEntity
  8
0
100
AcDbPolyline
 62
7
  6
CONTINUOUS
 90
3
 70
0
 10
2.5888089969
 20
15.0056978483
 10
2.5772030207
 20
15.0375741811
 10
2.5699718003
 20
15.0710542932
  0
LWPOLYLINE
  5
468
100
AcDbEntity
  8
ASSI
100
AcDbPolyline
 62
7
  6
CONTINUOUS
 90
24
 70
0
 10
8.0921657837
 20
-6.3169288421
 10
8.0970228156
 20
-6.3004923803
 10
8.0931445531
 20
-6.2788257373
 10
8.0806369268
 20
-6.2512912927
 10
8.0597268423
 20
-6.218043338
 10
8.0309739322
 20
-6.1799717137
 10
7.9941664037
 20
-6.1369461583
 10
7.9495160497
 20
-6.0890969333
 10
7.8982178819
 20
-6.0377046644
 10
7.8400923782
 20
-5.9826736727
 10
7.7753190608
 20
-5.924099637
 10
7.7056315078
 20
-5.8635502194
 10
7.6308970116
 20
-5.8009720751
 10
7.5512482798
 20
-5.7364185488
 10
7.4688170125
 20
-5.6716173362
 10
7.3835280683
 20
-5.6065617484
 10
7.2954565886
 20
-5.5412584743
 10
7.2069596981
 20
-5.4774552755
 10
7.1180259088
 20
-5.4151926611
 10
7.0286667088
 20
-5.354430122
 10
6.9412736869
 20
-5.2967938928
 10
6.8566440396
 20
-5.2428260516
 10
6.7739805704
 20
-5.1919845203
 10
6.6932832795
 20
-5.1442692989
  0
LWPOLYLINE
  5
469
100
AcDbEntity
  8
SMUSSO
100
AcDbPolyline
 62
7
  6
CONTINUOUS
 90
9
 70
0
 10
15.3811834701
 20
8.8940757136
 10
15.3879559693
 20
8.9092234552
 10
15.3883188524
 20
8.9362761349
 10
15.3783799612
 20
8.970455052
 10
15.3582037597
 20
9.0115385383
 10
15.327921112
 20
9.0592601369
 10
15.2877284282
 20
9.1133103432
 10
15.2378863834
 20
9.1733386166
 10
15.1787182335
 20
9.2389556444
  0
LWPOLYLINE
  5
46A
100
AcDbEntity
  8
0
100
AcDbPolyline
 62
253
  6
CONTINUOUS
 90
10
 70
0
 10
-0.780387624
 20
-22.1709776083
 10
-0.7929040333
 20
-22.1962501765
 10
-0.803891232
 20
-22.221922019
 10
-0.8132513258
 20
-22.247764422
 10
-0.8209009155
 20
-22.2735471476
 10
-0.8267718432
 20
-22.2990404942
 10
-0.8308117973
 20
-22.3240173427
 10
-0.8329847754
 20
-22.3482551666
 10
-0.8332714082
 20
-22.3715380158
 10
-0.8316691331
 20
-22.3936584492
  0
LINE
  5
46B
100
AcDbEntity
  8
0
100
AcDbLine
 62
7
  6
CONTINUOUS
 10
-0.4643940771
 20
-22.0251684778
 11
-0.4641703054
 21
-22.02474578
  0
LINE
  5
46C
100
AcDbEntity
  8
0
100
AcDbLine
 62
253
  6
CONTINUOUS
 10
-0.46658815
 20
-21.5787445214
 11
-0.780387624
 21
-22.1709776083
  0
LWPOLYLINE
  5
46D
100
AcDbEntity
  8
SMUSSO
100
AcDbPolyline
 62
7
  6
CONTINUOUS
 90
10
 70
0
 10
16.4933139285
 20
9.0681645001
 10
16.4982023646
 20
9.0763300313
 10
16.5049390285
 20
9.1073469625
 10
16.4991396508
 20
9.147142826
 10
16.4808372188
 20
9.1954946706
 10
16.4501346173
 20
9.252131773
 10
16.4072041837
 20
9.3167369074
 10
16.3522866332
 20
9.388948369
 10
16.2856896016
 20
9.4683620689
 10
16.2077860307
 20
9.5545336333
  0
LINE
  5
46E
100
AcDbEntity
  8
0
100
AcDbLine
 62
7
  6
CONTINUOUS
 10
14.0764194574
 20
5.0059290756
 11
12.4835425527
 21
2.798374607
  0
LINE
  5
46F
100
AcDbEntity
  8
0
100
AcDbLine
 62
7
  6
CONTINUOUS
 10
10.1666306913
 20
-0.412613711
 11
9.1124282817
 21
-1.8736238075
  0
LINE
  5
470
100
AcDbEntity
  8
0
100
AcDbLine
 62
7
  6
CONTINUOUS
 10
14.429972848
 20
4.801791779
 11
12.8370959433
 21
2.5942373103
  0
LINE
  5
471
100
AcDbEntity
  8
0
100
AcDbLine
 62
7
  6
CONTINUOUS
 10
10.5201840819
 20
-0.6167510077
 11
9.4362101725
 21
-2.1190211709
  0
LINE
  5
472
100
AcDbEntity
  8
SMUSSO
100
AcDbLine
 62
7
  6
CONTINUOUS
 10
7.2963372665
 20
-5.0915452654
 11
9.4394807383
 21
-2.1213810713
  0
LINE
  5
473
100
AcDbEntity
  8
0
100
AcDbLine
 62
7
  6
CONTINUOUS
 10
12.8485643616
 20
2.4072016579
 11
10.6027585754
 21
-0.7052413591
  0
LINE
  5
474
100
AcDbEntity
  8
0
100
AcDbLine
 62
7
  6
CONTINUOUS
 10
10.0044877803
 20
-2.7268667312
 11
11.0879957847
 21
-1.2252422618
  0
LINE
  5
475
100
AcDbEntity
  8
0
100
AcDbLine
 62
7
  6
CONTINUOUS
 10
13.404907646
 20
1.9857460563
 11
16.7354684467
 21
6.6015417634
  0
LWPOLYLINE
  5
476
100
AcDbEntity
  8
0
100
AcDbPolyline
 62
253
  6
CONTINUOUS
 90
16
 70
0
 10
-3.9634651971
 20
-11.5323405762
 10
-4.0019892516
 20
-11.5463310895
 10
-4.0439648333
 20
-11.5579317489
 10
-4.0889320491
 20
-11.5670154551
 10
-4.1363982288
 20
-11.5734826852
 10
-4.1858433228
 20
-11.5772625827
 10
-4.2367256006
 20
-11.5783137344
 10
-4.2884875851
 20
-11.5766246237
 10
-4.3405621613
 20
-11.5722137567
 10
-4.3923787893
 20
-11.5651294598
 10
-4.4433697551
 20
-11.5554493502
 10
-4.4929763911
 20
-11.5432794851
 10
-4.5406551966
 20
-11.5287531999
 10
-4.5858837925
 20
-11.5120296475
 10
-4.628166645
 20
-11.4932920548
 10
-4.6670404942
 20
-11.4727457147
  0
LWPOLYLINE
  5
477
100
AcDbEntity
  8
SMUSSO
100
AcDbPolyline
 62
7
  6
CONTINUOUS
 90
4
 70
0
 10
11.9828995912
 20
11.6116128401
 10
11.9925671381
 20
11.6134083168
 10
12.0241941816
 20
11.6263958859
 10
12.038541207
 20
11.6402944381
  0
LINE
  5
478
100
AcDbEntity
  8
SMUSSO
100
AcDbLine
 62
7
  6
CONTINUOUS
 10
10.9147711631
 20
11.4500744496
 11
11.9828995912
 21
11.6116128401
  0
LWPOLYLINE
  5
479
100
AcDbEntity
  8
RACCORDO
100
AcDbPolyline
 62
253
  6
CONTINUOUS
 90
3
 70
0
 10
0.7383769482
 20
10.5169541271
 10
0.7279847737
 20
10.5217508332
 10
0.7156333402
 20
10.5275520191
  0
LWPOLYLINE
  5
47A
100
AcDbEntity
  8
RACCORDO
100
AcDbPolyline
 62
253
  6
CONTINUOUS
 90
7
 70
0
 10
0.7156333402
 20
10.5275520191
 10
0.6867318397
 20
10.541331953
 10
0.6711135244
 20
10.5488615987
 10
0.6554522987
 20
10.5566834794
 10
0.6402553151
 20
10.5646140408
 10
0.6259514342
 20
10.5723610869
 10
0.6129602116
 20
10.5796983677
  0
LWPOLYLINE
  5
47B
100
AcDbEntity
  8
RACCORDO
100
AcDbPolyline
 62
253
  6
CONTINUOUS
 90
11
 70
0
 10
-13.0136421393
 20
17.8760134794
 10
-12.9942227292
 20
17.8658859272
 10
-12.9727881106
 20
17.8568715581
 10
-12.9496969922
 20
17.8491212278
 10
-12.9253358037
 20
17.842764638
 10
-12.9001122299
 20
17.8379081663
 10
-12.8744483874
 20
17.8346330853
 10
-12.8487737606
 20
17.8329942037
 10
-12.8235180147
 20
17.833018948
 10
-12.7991038045
 20
17.8347069042
 10
-12.7788997934
 20
17.8376051954
  0
LINE
  5
47C
100
AcDbEntity
  8
0
100
AcDbLine
 62
7
  6
CONTINUOUS
 10
12.8370959433
 20
2.5942373103
 11
12.4835425527
 21
2.798374607
  0
LINE
  5
47D
100
AcDbEntity
  8
RACCORDO
100
AcDbLine
 62
253
  6
CONTINUOUS
 10
-13.5952656805
 20
18.2118212008
 11
-13.0136568495
 21
17.876007551
  0
LINE
  5
47E
100
AcDbEntity
  8
RACCORDO
100
AcDbLine
 62
253
  6
CONTINUOUS
 10
-12.7597716322
 20
17.7294174085
 11
0.4583201306
 21
10.0974568863
  0
LINE
  5
47F
100
AcDbEntity
  8
RACCORDO
100
AcDbLine
 62
253
  6
CONTINUOUS
 10
0.7122053478
 20
9.9508667437
 11
1.2938141789
 21
9.615053094
  0
LINE
  5
480
100
AcDbEntity
  8
RACCORDO
100
AcDbLine
 62
253
  6
CONTINUOUS
 10
-12.9388513136
 20
19.2911004732
 11
-12.3422162587
 21
18.9466108701
  0
LINE
  5
481
100
AcDbEntity
  8
RACCORDO
100
AcDbLine
 62
253
  6
CONTINUOUS
 10
-12.091958681
 20
18.8021152812
 11
1.114894547
 21
11.1766437482
  0
LINE
  5
482
100
AcDbEntity
  8
RACCORDO
100
AcDbLine
 62
253
  6
CONTINUOUS
 10
1.3651521247
 20
11.0321481593
 11
1.9617871796
 21
10.6876585562
  0
LWPOLYLINE
  5
483
100
AcDbEntity
  8
RACCORDO
100
AcDbPolyline
 62
253
  6
CONTINUOUS
 90
8
 70
0
 10
0.712205351
 20
9.950866745
 10
0.6951110478
 20
9.9618219341
 10
0.6806433393
 20
9.9735375892
 10
0.6690443697
 20
9.9858176266
 10
0.6605082698
 20
9.9984565167
 10
0.6551779072
 20
10.0112427239
 10
0.6531424956
 20
10.0239622466
 10
0.653437034
 20
10.0308089591
  0
LWPOLYLINE
  5
484
100
AcDbEntity
  8
RACCORDO
100
AcDbPolyline
 62
253
  6
CONTINUOUS
 90
11
 70
0
 10
-12.3422162587
 20
18.9466108701
 10
-12.3240283824
 20
18.9343987709
 10
-12.3060248517
 20
18.9196814787
 10
-12.2885133543
 20
18.902710518
 10
-12.2717931692
 20
18.8837759296
 10
-12.2561500511
 20
18.8632013134
 10
-12.2418513466
 20
18.8413382987
 10
-12.2291414264
 20
18.8185605335
 10
-12.2182375085
 20
18.795257299
 10
-12.209325945
 20
18.7718268572
 10
-12.206752641
 20
18.7630206843
  0
LINE
  5
485
100
AcDbEntity
  8
SMUSSO
100
AcDbLine
 62
7
  6
CONTINUOUS
 10
7.7521242433
 20
13.7321052252
 11
7.7138044445
 21
13.9545356399
  0
LWPOLYLINE
  5
486
100
AcDbEntity
  8
0
100
AcDbPolyline
 62
7
  6
CONTINUOUS
 90
7
 70
0
 10
12.6263410678
 20
17.8900891228
 10
12.6248966449
 20
17.8649843158
 10
12.6206581704
 20
17.8425495186
 10
12.6136256443
 20
17.8227847314
 10
12.603476287
 20
17.805337462
 10
12.590532878
 20
17.7905602026
 10
12.5861138361
 20
17.7866943758
  0
LWPOLYLINE
  5
487
100
AcDbEntity
  8
0
100
AcDbPolyline
 62
253
  6
CONTINUOUS
 90
16
 70
0
 10
6.8728276974
 20
-23.9147942197
 10
6.8717402851
 20
-23.9216110556
 10
6.8700943305
 20
-23.92839047
 10
6.8678935332
 20
-23.9351172123
 10
6.8651428404
 20
-23.9417761537
 10
6.8618484365
 20
-23.9483523157
 10
6.8580177321
 20
-23.9548309021
 10
6.8536593424
 20
-23.9611973399
 10
6.8487830688
 20
-23.9674373107
 10
6.8433998794
 20
-23.9735367773
 10
6.8375218782
 20
-23.9794820237
 10
6.831162288
 20
-23.9852596744
 10
6.8243354252
 20
-23.990856724
 10
6.8170566511
 20
-23.9962605811
 10
6.809342335
 20
-24.0014590958
 10
6.8012098294
 20
-24.0064405765
  0
LWPOLYLINE
  5
488
100
AcDbEntity
  8
ASSI
100
AcDbPolyline
 62
7
  6
CONTINUOUS
 90
9
 70
0
 10
17.188218277
 20
10.0315830759
 10
17.1978146204
 20
10.0529946832
 10
17.1984502263
 20
10.0909742774
 10
17.1843402224
 20
10.1391541348
 10
17.1557648337
 20
10.1973404096
 10
17.1132740746
 20
10.2644131424
 10
17.0570512832
 20
10.3399990133
 10
16.9869131214
 20
10.424471342
 10
16.9028595891
 20
10.5178301287
  0
LINE
  5
489
100
AcDbEntity
  8
0
100
AcDbLine
 62
7
  6
CONTINUOUS
 10
9.0154933486
 20
-7.6677978388
 11
9.0257038145
 21
-7.6536472414
  0
LINE
  5
48A
100
AcDbEntity
  8
0
100
AcDbLine
 62
7
  6
CONTINUOUS
 10
7.698881685
 20
-10.4412297969
 11
8.0084455389
 21
-10.0122079014
  0
LINE
  5
48B
100
AcDbEntity
  8
0
100
AcDbLine
 62
7
  6
CONTINUOUS
 10
7.0088755926
 20
-8.2099076948
 11
6.2599829331
 21
-8.6126379319
  0
LINE
  5
48C
100
AcDbEntity
  8
0
100
AcDbLine
 62
7
  6
CONTINUOUS
 10
7.698881685
 20
-8.6083085647
 11
6.2599829331
 21
-9.3821017489
  0
LWPOLYLINE
  5
48D
100
AcDbEntity
  8
RACCORDO
100
AcDbPolyline
 62
253
  6
CONTINUOUS
 90
8
 70
0
 10
1.3651521247
 20
11.0321481593
 10
1.3464475372
 20
11.0412371389
 10
1.3281893005
 20
11.0474565257
 10
1.3106894711
 20
11.0507000856
 10
1.2942471034
 20
11.0509124478
 10
1.279143227
 20
11.048090045
 10
1.2656360197
 20
11.0422812242
 10
1.2625358689
 20
11.0403725887
  0
LINE
  5
48E
100
AcDbEntity
  8
0
100
AcDbLine
 62
7
  6
CONTINUOUS
 10
14.429972848
 20
4.801791779
 11
14.0764194574
 21
5.0059290756
  0
LINE
  5
48F
100
AcDbEntity
  8
RACCORDO
100
AcDbLine
 62
7
  6
CONTINUOUS
 10
-10.9153775869
 20
19.8270442317
 11
2.7430342134
 21
11.9408484383
  0
LINE
  5
490
100
AcDbEntity
  8
DRAFT
100
AcDbLine
 62
7
  6
CONTINUOUS
 10
-5.429674571
 20
17.6049405011
 11
-1.1870338839
 21
15.1552929411
  0
LWPOLYLINE
  5
491
100
AcDbEntity
  8
0
100
AcDbPolyline
 62
253
  6
CONTINUOUS
 90
3
 70
0
 10
-9.6216872092
 20
22.0015453265
 10
-9.6166007234
 20
21.9977864693
 10
-9.6112855006
 20
21.9944446574
  0
LINE
  5
492
100
AcDbEntity
  8
0
100
AcDbLine
 62
7
  6
CONTINUOUS
 10
12.4835425527
 20
2.798374607
 11
12.8485643616
 21
2.4072016579
  0
LINE
  5
493
100
AcDbEntity
  8
0
100
AcDbLine
 62
7
  6
CONTINUOUS
 10
13.404907646
 20
1.9857460563
 11
12.8370959433
 21
2.5942373103
  0
LWPOLYLINE
  5
494
100
AcDbEntity
  8
0
100
AcDbPolyline
 62
7
  6
CONTINUOUS
 90
3
 70
0
 10
2.0901329091
 20
23.7483564707
 10
2.0898878473
 20
23.7489324464
 10
2.0897332214
 20
23.7490437817
  0
LWPOLYLINE
  5
495
100
AcDbEntity
  8
0
100
AcDbPolyline
 62
7
  6
CONTINUOUS
 90
21
 70
0
 10
13.0779609798
 20
-15.833540061
 10
13.077756012
 20
-15.8252665736
 10
13.0767916669
 20
-15.8137884669
 10
13.0750331776
 20
-15.8023418052
 10
13.0724843009
 20
-15.7909264397
 10
13.0691571339
 20
-15.7795965469
 10
13.0650479768
 20
-15.7683525333
 10
13.0601605293
 20
-15.7571939924
 10
13.0545179869
 20
-15.7461738822
 10
13.0481167603
 20
-15.7352928606
 10
13.0409604388
 20
-15.7245502696
 10
13.0330829858
 20
-15.7139970929
 10
13.0244809736
 20
-15.7036342309
 10
13.01515783
 20
-15.6934607832
 10
13.0051578021
 20
-15.6835250324
 10
12.9944776723
 20
-15.6738281084
 10
12.9831206582
 20
-15.6643688813
 10
12.9711406595
 20
-15.655192244
 10
12.9585556429
 20
-15.6463131609
 10
12.9453476416
 20
-15.6377166677
 10
12.9315166558
 20
-15.6294027643
  0
LINE
  5
496
100
AcDbEntity
  8
0
100
AcDbLine
 62
7
  6
CONTINUOUS
 10
12.6263410678
 20
-15.4531982045
 11
12.6263410678
 21
-14.6680279619
  0
LINE
  5
497
100
AcDbEntity
  8
0
100
AcDbLine
 62
7
  6
CONTINUOUS
 10
12.6263410678
 20
17.8900891228
 11
12.6263410678
 21
17.9082517527
  0
LINE
  5
498
100
AcDbEntity
  8
DRAFT
100
AcDbLine
 62
253
  6
CONTINUOUS
 10
12.9376331653
 20
-16.4861920969
 11
12.9376331653
 21
-16.0340835795
  0
LINE
  5
499
100
AcDbEntity
  8
DRAFT
100
AcDbLine
 62
253
  6
CONTINUOUS
 10
12.9376331653
 20
18.0943739905
 11
12.9376331653
 21
18.546482508
  0
LINE
  5
49A
100
AcDbEntity
  8
0
100
AcDbLine
 62
7
  6
CONTINUOUS
 10
13.0779632652
 20
-16.4016810223
 11
13.0779632652
 21
-15.833540061
  0
LINE
  5
49B
100
AcDbEntity
  8
0
100
AcDbLine
 62
7
  6
CONTINUOUS
 10
13.0779632652
 20
18.294917509
 11
13.0779632652
 21
18.8630584703
  0
LWPOLYLINE
  5
49C
100
AcDbEntity
  8
0
100
AcDbPolyline
 62
253
  6
CONTINUOUS
 90
14
 70
0
 10
6.8012098294
 20
-23.678795276
 10
6.8051825431
 20
-23.6678473459
 10
6.8087450018
 20
-23.6566951058
 10
6.811889165
 20
-23.6453637257
 10
6.8146079367
 20
-23.6338787798
 10
6.8168951807
 20
-23.622266189
 10
6.8187457349
 20
-23.6105521621
 10
6.8201554226
 20
-23.5987631371
 10
6.8211210624
 20
-23.5869257211
 10
6.8216404747
 20
-23.5750666304
 10
6.8217124873
 20
-23.5632126304
 10
6.8213369377
 20
-23.5513904747
 10
6.8205146734
 20
-23.5396268453
 10
6.8192475504
 20
-23.527948292
  0
LINE
  5
49D
100
AcDbEntity
  8
SMUSSO
100
AcDbLine
 62
7
  6
CONTINUOUS
 10
11.9946334006
 20
-4.8595917145
 11
9.8514899288
 21
-7.8297559087
  0
LINE
  5
49E
100
AcDbEntity
  8
ASSI
100
AcDbLine
 62
7
  6
CONTINUOUS
 10
7.698881685
 20
-11.0464343005
 11
8.3167076514
 21
-10.1901945817
  0
LINE
  5
49F
100
AcDbEntity
  8
0
100
AcDbLine
 62
7
  6
CONTINUOUS
 10
11.5382294874
 20
-5.8161575909
 11
13.7972185522
 21
-2.6854439809
  0
LINE
  5
4A0
100
AcDbEntity
  8
ASSI
100
AcDbLine
 62
7
  6
CONTINUOUS
 10
9.0020816546
 20
-10.5859209415
 11
7.698881685
 21
-12.3920146251
  0
LINE
  5
4A1
100
AcDbEntity
  8
0
100
AcDbLine
 62
7
  6
CONTINUOUS
 10
14.4461462125
 20
-3.3808625569
 11
9.1751717279
 21
-10.6858609804
  0
LINE
  5
4A2
100
AcDbEntity
  8
ASSI
100
AcDbLine
 62
7
  6
CONTINUOUS
 10
8.080923293
 20
-12.8592725969
 11
7.9071549034
 21
-13.1000967208
  0
LWPOLYLINE
  5
4A3
100
AcDbEntity
  8
0
100
AcDbPolyline
 62
253
  6
CONTINUOUS
 90
37
 70
0
 10
1.2824304709
 20
-15.8523313668
 10
1.2665955915
 20
-15.8611216117
 10
1.250143634
 20
-15.869508917
 10
1.2331052236
 20
-15.8774776695
 10
1.2155120775
 20
-15.8850130355
 10
1.1973969454
 20
-15.8921009878
 10
1.1787935487
 20
-15.8987283321
 10
1.1597365178
 20
-15.9048827317
 10
1.1402613273
 20
-15.91055273
 10
1.1204042305
 20
-15.9157277724
 10
1.1002021913
 20
-15.9203982255
 10
1.0796928161
 20
-15.9245553952
 10
1.058914283
 20
-15.9281915429
 10
1.0379052715
 20
-15.9312998999
 10
1.0167048899
 20
-15.93387468
 10
0.9953526028
 20
-15.9359110903
 10
0.9738881576
 20
-15.9374053399
 10
0.9523515105
 20
-15.9383546473
 10
0.930782752
 20
-15.9387572454
 10
0.9092220324
 20
-15.9386123847
 10
0.8877094872
 20
-15.9379203348
 10
0.8662851621
 20
-15.9366823841
 10
0.8449889385
 20
-15.9349008369
 10
0.8238604595
 20
-15.9325790097
 10
0.8029390558
 20
-15.9297212245
 10
0.7822636727
 20
-15.9263328012
 10
0.7618727975
 20
-15.9224200472
 10
0.7418043879
 20
-15.9179902461
 10
0.7220958015
 20
-15.9130516442
 10
0.7027837257
 20
-15.9076134346
 10
0.6839041101
 20
-15.9016857405
 10
0.6654920993
 20
-15.8952795965
 10
0.6475819672
 20
-15.8884069275
 10
0.6302070537
 20
-15.881080527
 10
0.6133997022
 20
-15.8733140333
 10
0.5971911997
 20
-15.8651219036
 10
0.5816117184
 20
-15.8565193876
  0
LWPOLYLINE
  5
4A4
100
AcDbEntity
  8
0
100
AcDbPolyline
 62
7
  6
CONTINUOUS
 90
37
 70
0
 10
5.1007524484
 20
13.831050171
 10
5.107680607
 20
13.8305278507
 10
5.1161467623
 20
13.8301992114
 10
5.1246897836
 20
13.8301898776
 10
5.1332964607
 20
13.8304995673
 10
5.1419539137
 20
13.8311274448
 10
5.1506519908
 20
13.8320585063
 10
5.1593782695
 20
13.8332916877
 10
5.1681206684
 20
13.8348255786
 10
5.1768700533
 20
13.8366445853
 10
5.1856148611
 20
13.8387469949
 10
5.1943438229
 20
13.8411309014
 10
5.2030487215
 20
13.8437804094
 10
5.2117188713
 20
13.8466932737
 10
5.2203438272
 20
13.8498671585
 10
5.2289161658
 20
13.8532860595
 10
5.2374260735
 20
13.8569472944
 10
5.2458639286
 20
13.8608481547
 10
5.2542229824
 20
13.8649726444
 10
5.2624942754
 20
13.8693177191
 10
5.2706690031
 20
13.8738803473
 10
5.2787409932
 20
13.8786446082
 10
5.2867021184
 20
13.8836071516
 10
5.2945443839
 20
13.8887646691
 10
5.3022621285
 20
13.894101354
 10
5.3098480354
 20
13.8996135944
 10
5.3172949139
 20
13.9052978469
 10
5.3245975807
 20
13.9111384519
 10
5.3317495102
 20
13.9171315673
 10
5.3387443137
 20
13.9232734584
 10
5.3455772916
 20
13.9295486588
 10
5.3522426956
 20
13.9359531264
 10
5.3587349361
 20
13.942482976
 10
5.3650498254
 20
13.9491230014
 10
5.3711826741
 20
13.9558654219
 10
5.3771283779
 20
13.9627098207
 10
5.3828824749
 20
13.9696520104
  0
LINE
  5
4A5
100
AcDbEntity
  8
0
100
AcDbLine
 62
7
  6
CONTINUOUS
 10
7.681293934
 20
12.6485664109
 11
6.9803579802
 21
12.7081181933
  0
LINE
  5
4A6
100
AcDbEntity
  8
0
100
AcDbLine
 62
7
  6
CONTINUOUS
 10
4.472993292
 20
13.8888559269
 11
5.1007522434
 21
13.8310511595
  0
LINE
  5
4A7
100
AcDbEntity
  8
0
100
AcDbLine
 62
253
  6
CONTINUOUS
 10
4.6716618668
 20
14.0351420232
 11
5.3828824749
 21
13.9696520104
  0
LINE
  5
4A8
100
AcDbEntity
  8
0
100
AcDbLine
 62
7
  6
CONTINUOUS
 10
7.698881685
 20
12.6384114639
 11
7.0154047779
 21
12.7051406042
  0
LWPOLYLINE
  5
4A9
100
AcDbEntity
  8
0
100
AcDbPolyline
 62
7
  6
CONTINUOUS
 90
9
 70
0
 10
4.472993292
 20
13.8888559269
 10
4.4596071861
 20
13.8904535789
 10
4.4462373706
 20
13.892788537
 10
4.432939597
 20
13.8958649569
 10
4.4197153077
 20
13.8996990738
 10
4.4066858245
 20
13.9042693109
 10
4.3940665741
 20
13.909490309
 10
4.3819408622
 20
13.9152953901
 10
4.3708599304
 20
13.9213291466
  0
LWPOLYLINE
  5
4AA
100
AcDbEntity
  8
RACCORDO
100
AcDbPolyline
 62
253
  6
CONTINUOUS
 90
5
 70
0
 10
3.2077290508
 20
14.4721349813
 10
3.2262284183
 20
14.462905303
 10
3.2442847236
 20
14.4565495882
 10
3.2615891359
 20
14.4531765201
 10
3.2703714863
 20
14.4529967544
  0
LWPOLYLINE
  5
4AB
100
AcDbEntity
  8
RACCORDO
100
AcDbPolyline
 62
253
  6
CONTINUOUS
 90
16
 70
0
 10
4.8963405809
 20
13.1126992162
 10
4.9325323834
 20
13.0942358447
 10
4.9707900072
 20
13.0785417257
 10
5.0111134525
 20
13.0656168593
 10
5.0539805671
 20
13.0554115509
 10
5.0989135032
 20
13.047975495
 10
5.144478717
 20
13.0434577758
 10
5.1906372065
 20
13.041926915
 10
5.2374279738
 20
13.0433143909
 10
5.2835344817
 20
13.0475637228
 10
5.3289731029
 20
13.0547401227
 10
5.3737274647
 20
13.0647783788
 10
5.4164319116
 20
13.0774263738
 10
5.4566312253
 20
13.092600069
 10
5.4947806242
 20
13.1103835033
 10
5.5308801083
 20
13.1307766766
  0
LWPOLYLINE
  5
4AC
100
AcDbEntity
  8
RACCORDO
100
AcDbPolyline
 62
253
  6
CONTINUOUS
 90
16
 70
0
 10
5.0303605152
 20
13.3531509132
 10
5.0499826094
 20
13.3430790653
 10
5.0712809366
 20
13.3344839046
 10
5.0940031466
 20
13.3274508957
 10
5.117876622
 20
13.3220620984
 10
5.1426373551
 20
13.3183552452
 10
5.1680361679
 20
13.3163289225
 10
5.1937724186
 20
13.3160087631
 10
5.2195902907
 20
13.3173950489
 10
5.2453096341
 20
13.320445299
 10
5.2706686643
 20
13.3251555716
 10
5.2953781666
 20
13.3314949074
 10
5.3192152977
 20
13.3393816741
 10
5.3419255324
 20
13.3487528602
 10
5.3632312751
 20
13.3595543837
 10
5.3828824749
 20
13.3717020381
  0
LWPOLYLINE
  5
4AD
100
AcDbEntity
  8
0
100
AcDbPolyline
 62
253
  6
CONTINUOUS
 90
34
 70
0
 10
4.3191399072
 20
14.0357341039
 10
4.3277195276
 20
14.0310098806
 10
4.3366774061
 20
14.0265258235
 10
4.3459933972
 20
14.0222920169
 10
4.3556465389
 20
14.0183179866
 10
4.3656151329
 20
14.0146126647
 10
4.3758767974
 20
14.0111843726
 10
4.3864084827
 20
14.0080408161
 10
4.3971864827
 20
14.0051890762
 10
4.4081865219
 20
14.0026355779
 10
4.4193838487
 20
14.0003860664
 10
4.4307532934
 20
13.9984455974
 10
4.4422692864
 20
13.9968185351
 10
4.4539059285
 20
13.9955085386
 10
4.4656370499
 20
13.994518554
 10
4.4774362684
 20
13.9938508076
 10
4.4892770568
 20
13.993506801
 10
4.5011327773
 20
13.9934873086
 10
4.5129767412
 20
13.993792373
 10
4.5247822954
 20
13.994421305
 10
4.5365229074
 20
13.9953726883
 10
4.5481721996
 20
13.9966443843
 10
4.5597040589
 20
13.9982335461
 10
4.5710924638
 20
14.0001365915
 10
4.5823115786
 20
14.002349193
 10
4.5933360376
 20
14.0048663206
 10
4.6041412142
 20
14.0076823235
 10
4.614703036
 20
14.0107909171
 10
4.6249985768
 20
14.0141853982
 10
4.6350038156
 20
14.0178578925
 10
4.6446941246
 20
14.0217992316
 10
4.6540472538
 20
14.0260000559
 10
4.6630431536
 20
14.0304510398
 10
4.6716618668
 20
14.0351420232
  0
LINE
  5
4AE
100
AcDbEntity
  8
ASSI
100
AcDbLine
 62
7
  6
CONTINUOUS
 10
7.698881685
 20
11.4090589009
 11
11.8051204907
 21
9.0381680778
  0
LINE
  5
4AF
100
AcDbEntity
  8
RACCORDO
100
AcDbLine
 62
253
  6
CONTINUOUS
 10
-9.094083136
 20
21.1905945292
 11
-7.4073174117
 21
20.2166771401
  0
LINE
  5
4B0
100
AcDbEntity
  8
RACCORDO
100
AcDbLine
 62
253
  6
CONTINUOUS
 10
3.2095748567
 20
14.0866166053
 11
4.8963405809
 21
13.1126992162
  0
LINE
  5
4B1
100
AcDbEntity
  8
0
100
AcDbLine
 62
7
  6
CONTINUOUS
 10
1.1756030927
 20
15.423879265
 11
0.510022391
 21
15.8081772205
  0
LINE
  5
4B2
100
AcDbEntity
  8
0
100
AcDbLine
 62
7
  6
CONTINUOUS
 10
-4.4397250773
 20
18.6660993738
 11
-5.1053057791
 21
19.0503973293
  0
LINE
  5
4B3
100
AcDbEntity
  8
RACCORDO
100
AcDbLine
 62
253
  6
CONTINUOUS
 10
-8.9600632016
 20
21.4310462261
 11
-7.2732974774
 21
20.4571288371
  0
LINE
  5
4B4
100
AcDbEntity
  8
RACCORDO
100
AcDbLine
 62
253
  6
CONTINUOUS
 10
3.343594791
 20
14.3270683022
 11
5.0303605152
 21
13.3531509132
  0
LINE
  5
4B5
100
AcDbEntity
  8
0
100
AcDbLine
 62
7
  6
CONTINUOUS
 10
-9.6112855006
 20
21.9944446574
 11
-7.9327474302
 21
21.0252778125
  0
LINE
  5
4B6
100
AcDbEntity
  8
0
100
AcDbLine
 62
7
  6
CONTINUOUS
 10
2.692372492
 20
14.8904667334
 11
4.3709105624
 21
13.9212998886
  0
LINE
  5
4B7
100
AcDbEntity
  8
0
100
AcDbLine
 62
253
  6
CONTINUOUS
 10
-9.6630561559
 20
22.1088788726
 11
-7.9845180855
 21
21.1397120278
  0
LINE
  5
4B8
100
AcDbEntity
  8
0
100
AcDbLine
 62
253
  6
CONTINUOUS
 10
2.6406018367
 20
15.0049009487
 11
4.3191399072
 21
14.0357341039
  0
LINE
  5
4B9
100
AcDbEntity
  8
ASSI
100
AcDbLine
 62
7
  6
CONTINUOUS
 10
13.2476999713
 20
9.1881066222
 11
12.8941465807
 21
9.3922439189
  0
LINE
  5
4BA
100
AcDbEntity
  8
ASSI
100
AcDbLine
 62
7
  6
CONTINUOUS
 10
10.065719456
 20
11.0253422922
 11
9.7121660654
 21
11.2294795888
  0
LINE
  5
4BB
100
AcDbEntity
  8
ASSI
100
AcDbLine
 62
7
  6
CONTINUOUS
 10
8.7929272498
 20
11.7602365602
 11
8.4393738592
 21
11.9643738568
  0
LINE
  5
4BC
100
AcDbEntity
  8
0
100
AcDbLine
 62
253
  6
CONTINUOUS
 10
4.3191399072
 20
14.3562542767
 11
2.6406018367
 21
15.3254211216
  0
LINE
  5
4BD
100
AcDbEntity
  8
0
100
AcDbLine
 62
253
  6
CONTINUOUS
 10
-7.9845180855
 20
21.4602322006
 11
-9.6630561559
 21
22.4293990455
  0
LINE
  5
4BE
100
AcDbEntity
  8
0
100
AcDbLine
 62
253
  6
CONTINUOUS
 10
4.3708599304
 20
13.9213291466
 11
4.3709105624
 21
13.9212998886
  0
LWPOLYLINE
  5
4BF
100
AcDbEntity
  8
0
100
AcDbPolyline
 62
253
  6
CONTINUOUS
 90
15
 70
0
 10
-9.6630561559
 20
22.1088788726
 10
-9.6712382236
 20
22.1138326379
 10
-9.6790043379
 20
22.1190048047
 10
-9.6863370337
 20
22.1243837413
 10
-9.6932198126
 20
22.1299573443
 10
-9.6996372049
 20
22.1357130855
 10
-9.7055747985
 20
22.141638042
 10
-9.7110192473
 20
22.1477189051
 10
-9.7159582874
 20
22.1539419872
 10
-9.7203807912
 20
22.160293272
 10
-9.7242768085
 20
22.1667584681
 10
-9.7276375828
 20
22.173323043
 10
-9.7304555558
 20
22.179972233
 10
-9.7327243901
 20
22.1866910844
 10
-9.7344389833
 20
22.1934644868
  0
LWPOLYLINE
  5
4C0
100
AcDbEntity
  8
0
100
AcDbPolyline
 62
253
  6
CONTINUOUS
 90
18
 70
0
 10
-9.6630561559
 20
22.4293990455
 10
-9.671224865
 20
22.4343443297
 10
-9.6789822046
 20
22.4395095129
 10
-9.6863102406
 20
22.4448832748
 10
-9.6931928954
 20
22.4504545933
 10
-9.6996130706
 20
22.456210446
 10
-9.7055533458
 20
22.4621355913
 10
-9.7109996028
 20
22.4682158055
 10
-9.7159404928
 20
22.4744382644
 10
-9.720364977
 20
22.4807890863
 10
-9.7242631234
 20
22.4872540765
 10
-9.7276260784
 20
22.4938186214
 10
-9.7304461987
 20
22.5004678257
 10
-9.7327171283
 20
22.5071866737
 10
-9.7344337921
 20
22.5139601122
 10
-9.7355923396
 20
22.5207729509
 10
-9.7361901601
 20
22.5276098858
 10
-9.7362794605
 20
22.5314633194
  0
LWPOLYLINE
  5
4C1
100
AcDbEntity
  8
0
100
AcDbPolyline
 62
253
  6
CONTINUOUS
 90
15
 70
0
 10
2.6406018367
 20
15.0049009487
 10
2.632419769
 20
15.009854714
 10
2.6246536547
 20
15.0150268808
 10
2.617320959
 20
15.0204058174
 10
2.6104381801
 20
15.0259794204
 10
2.6040207878
 20
15.0317351616
 10
2.5980831942
 20
15.0376601181
 10
2.5926387454
 20
15.0437409812
 10
2.5876997053
 20
15.0499640633
 10
2.5832772015
 20
15.0563153481
 10
2.5793811841
 20
15.0627805442
 10
2.5760204098
 20
15.0693451191
 10
2.5732024368
 20
15.0759943091
 10
2.5709336025
 20
15.0827131605
 10
2.5692190093
 20
15.0894865629
  0
LWPOLYLINE
  5
4C2
100
AcDbEntity
  8
0
100
AcDbPolyline
 62
253
  6
CONTINUOUS
 90
18
 70
0
 10
2.6406018367
 20
15.3254211216
 10
2.6324192394
 20
15.3303752232
 10
2.6246526407
 20
15.3355477623
 10
2.6173195112
 20
15.3409271057
 10
2.6104363424
 20
15.3465011586
 10
2.6040186229
 20
15.3522573812
 10
2.5980808005
 20
15.3581828158
 10
2.5926362328
 20
15.3642641314
 10
2.5876971619
 20
15.3704876526
 10
2.5832746974
 20
15.3768393792
 10
2.5793787847
 20
15.3833050256
 10
2.5760181861
 20
15.389870048
 10
2.573200461
 20
15.3965196748
 10
2.570931945
 20
15.4032389483
 10
2.5692177373
 20
15.4100127564
 10
2.5680616913
 20
15.416825861
 10
2.5674664038
 20
15.4236629417
 10
2.5673785442
 20
15.4274447924
  0
LWPOLYLINE
  5
4C3
100
AcDbEntity
  8
ASSI
100
AcDbPolyline
 62
7
  6
CONTINUOUS
 90
4
 70
0
 10
12.3691229051
 20
8.4770287055
 10
12.345109946
 20
8.4916139594
 10
12.2752616477
 20
8.5426734255
 10
12.2107002784
 20
8.6035314678
  0
LWPOLYLINE
  5
4C4
100
AcDbEntity
  8
0
100
AcDbPolyline
 62
253
  6
CONTINUOUS
 90
34
 70
0
 10
-7.8087698295
 20
21.7658211559
 10
-7.800420294
 20
21.7607144158
 10
-7.7920837126
 20
21.7551572195
 10
-7.7837789569
 20
21.7491615551
 10
-7.7755236907
 20
21.7427394812
 10
-7.7673378799
 20
21.7359058312
 10
-7.7592436323
 20
21.728678759
 10
-7.7512604736
 20
21.7210758048
 10
-7.7434052744
 20
21.7131131437
 10
-7.7356956884
 20
21.7048086575
 10
-7.7281490914
 20
21.696181025
 10
-7.7207826956
 20
21.6872498856
 10
-7.7136133538
 20
21.6780356593
 10
-7.7066573721
 20
21.6685593156
 10
-7.6999304418
 20
21.6588422433
 10
-7.693447761
 20
21.6489063956
 10
-7.6872240038
 20
21.6387742542
 10
-7.6812732932
 20
21.6284688017
 10
-7.6756091257
 20
21.6180134058
 10
-7.6702443393
 20
21.6074317613
 10
-7.6651910886
 20
21.5967478383
 10
-7.6604608265
 20
21.5859858478
 10
-7.656064272
 20
21.5751701729
 10
-7.6520113891
 20
21.5643253217
 10
-7.6483113655
 20
21.5534758752
 10
-7.6449725861
 20
21.5426464184
 10
-7.6420026164
 20
21.5318614878
 10
-7.6394081875
 20
21.5211455242
 10
-7.6371951776
 20
21.5105228035
 10
-7.6353686029
 20
21.5000174007
 10
-7.6339326048
 20
21.4896531376
 10
-7.6328904361
 20
21.4794535036
 10
-7.6322444557
 20
21.4694416028
 10
-7.6319961258
 20
21.45964012
  0
LWPOLYLINE
  5
4C5
100
AcDbEntity
  8
0
100
AcDbPolyline
 62
7
  6
CONTINUOUS
 90
6
 70
0
 10
-9.6110523495
 20
21.9943105401
 10
-9.6311482531
 20
22.0072019368
 10
-9.6568876909
 20
22.0282117643
 10
-9.6797585241
 20
22.0526255326
 10
-9.6991976645
 20
22.0799293123
 10
-9.7148489957
 20
22.1096757722
  0
LWPOLYLINE
  5
4C6
100
AcDbEntity
  8
0
100
AcDbPolyline
 62
7
  6
CONTINUOUS
 90
6
 70
0
 10
2.6926056431
 20
14.8903326162
 10
2.6725097395
 20
14.9032240129
 10
2.6467703018
 20
14.9242338403
 10
2.6238994686
 20
14.9486476087
 10
2.6044603281
 20
14.9759513884
 10
2.5888089969
 20
15.0056978483
  0
LWPOLYLINE
  5
4C7
100
AcDbEntity
  8
RACCORDO
100
AcDbPolyline
 62
253
  6
CONTINUOUS
 90
13
 70
0
 10
-6.7727778843
 20
20.2347546005
 10
-6.7911894262
 20
20.2468367786
 10
-6.8094126549
 20
20.2614283124
 10
-6.8271358864
 20
20.2782796334
 10
-6.8440559888
 20
20.2971025225
 10
-6.8598835666
 20
20.3175750395
 10
-6.8743479102
 20
20.3393470295
 10
-6.8872016266
 20
20.362046112
 10
-6.8982248702
 20
20.3852840497
 10
-6.9072291033
 20
20.4086633889
 10
-6.9140603207
 20
20.4317842575
 10
-6.9186016834
 20
20.4542512042
 10
-6.9207755177
 20
20.475679962
  0
LWPOLYLINE
  5
4C8
100
AcDbEntity
  8
RACCORDO
100
AcDbPolyline
 62
253
  6
CONTINUOUS
 90
13
 70
0
 10
5.5308801083
 20
13.1307766766
 10
5.5124685664
 20
13.1428588547
 10
5.4942453378
 20
13.1574503885
 10
5.4765221062
 20
13.1743017095
 10
5.4596020038
 20
13.1931245986
 10
5.4437744261
 20
13.2135971156
 10
5.4293100824
 20
13.2353691056
 10
5.416456366
 20
13.2580681881
 10
5.4054331224
 20
13.2813061258
 10
5.3964288893
 20
13.304685465
 10
5.389597672
 20
13.3278063336
 10
5.3850563092
 20
13.3502732803
 10
5.3828824749
 20
13.3717020381
  0
LWPOLYLINE
  5
4C9
100
AcDbEntity
  8
0
100
AcDbPolyline
 62
253
  6
CONTINUOUS
 90
3
 70
0
 10
2.6819707834
 20
14.8975674026
 10
2.6870572692
 20
14.8938085454
 10
2.692372492
 20
14.8904667334
  0
LINE
  5
4CA
100
AcDbEntity
  8
0
100
AcDbLine
 62
7
  6
CONTINUOUS
 10
11.7225981529
 20
7.5283844432
 11
14.0764194574
 21
5.0059290756
  0
LINE
  5
4CB
100
AcDbEntity
  8
0
100
AcDbLine
 62
7
  6
CONTINUOUS
 10
11.7937042281
 20
7.6269297442
 11
14.429972848
 21
4.801791779
  0
LWPOLYLINE
  5
4CC
100
AcDbEntity
  8
0
100
AcDbPolyline
 62
253
  6
CONTINUOUS
 90
15
 70
0
 10
6.8012098294
 20
15.257590511
 10
6.8051826141
 20
15.2517471852
 10
6.8087451281
 20
15.2461460753
 10
6.8118893307
 20
15.2407998232
 10
6.814608124
 20
15.2357204984
 10
6.8168953734
 20
15.2309195619
 10
6.8187459192
 20
15.2264078423
 10
6.8201555841
 20
15.2221955189
 10
6.8211211816
 20
15.2182921066
 10
6.8216405293
 20
15.2147064247
 10
6.8217124558
 20
15.2114465686
 10
6.8213368003
 20
15.2085198919
 10
6.8205144109
 20
15.205932999
 10
6.8192471437
 20
15.2036917279
 10
6.8189495456
 20
15.2032968231
  0
LWPOLYLINE
  5
4CD
100
AcDbEntity
  8
0
100
AcDbPolyline
 62
7
  6
CONTINUOUS
 90
3
 70
0
 10
7.6805795222
 20
20.5205028458
 10
7.6803803244
 20
20.5210342899
 10
7.6801798352
 20
20.5211900001
  0
LINE
  5
4CE
100
AcDbEntity
  8
SMUSSO
100
AcDbLine
 62
7
  6
CONTINUOUS
 10
12.2068969648
 20
11.1599752872
 11
12.0234915652
 21
12.2245669694
  0
LINE
  5
4CF
100
AcDbEntity
  8
ASSI
100
AcDbLine
 62
7
  6
CONTINUOUS
 10
7.9071549034
 20
-13.1000967208
 11
7.698881685
 21
-13.2720223056
  0
LINE
  5
4D0
100
AcDbEntity
  8
0
100
AcDbLine
 62
7
  6
CONTINUOUS
 10
7.698881685
 20
-13.7334530055
 11
7.9441624198
 21
-13.5817677199
  0
LINE
  5
4D1
100
AcDbEntity
  8
0
100
AcDbLine
 62
7
  6
CONTINUOUS
 10
7.9702696952
 20
-14.5354108421
 11
7.698881685
 21
-14.7032412585
  0
LWPOLYLINE
  5
4D2
100
AcDbEntity
  8
0
100
AcDbPolyline
 62
7
  6
CONTINUOUS
 90
5
 70
0
 10
-7.9327511565
 20
21.0252799641
 10
-7.9050745809
 20
21.0115063832
 10
-7.8746700437
 20
21.0009061127
 10
-7.8430471675
 20
20.9942862275
 10
-7.830663637
 20
20.9928337529
  0
LWPOLYLINE
  5
4D3
100
AcDbEntity
  8
RACCORDO
100
AcDbPolyline
 62
253
  6
CONTINUOUS
 90
5
 70
0
 10
-9.0959289418
 20
21.5761129052
 10
-9.0774295743
 20
21.5668832269
 10
-9.059373269
 20
21.5605275121
 10
-9.0420688568
 20
21.557154444
 10
-9.0332865063
 20
21.5569746783
  0
LWPOLYLINE
  5
4D4
100
AcDbEntity
  8
RACCORDO
100
AcDbPolyline
 62
253
  6
CONTINUOUS
 90
16
 70
0
 10
-7.4073174117
 20
20.2166771401
 10
-7.3711256093
 20
20.1982137686
 10
-7.3328679854
 20
20.1825196496
 10
-7.2925445401
 20
20.1695947832
 10
-7.2496774255
 20
20.1593894748
 10
-7.2047444895
 20
20.1519534189
 10
-7.1591792756
 20
20.1474356997
 10
-7.1130207861
 20
20.1459048389
 10
-7.0662300188
 20
20.1472923148
 10
-7.0201235109
 20
20.1515416467
 10
-6.9746848897
 20
20.1587180467
 10
-6.929930528
 20
20.1687563027
 10
-6.887226081
 20
20.1814042977
 10
-6.8470267673
 20
20.1965779929
 10
-6.8088773684
 20
20.2143614272
 10
-6.7727778843
 20
20.2347546005
  0
LWPOLYLINE
  5
4D5
100
AcDbEntity
  8
RACCORDO
100
AcDbPolyline
 62
253
  6
CONTINUOUS
 90
16
 70
0
 10
-7.2732974774
 20
20.4571288371
 10
-7.2536753832
 20
20.4470569892
 10
-7.232377056
 20
20.4384618285
 10
-7.2096548461
 20
20.4314288196
 10
-7.1857813706
 20
20.4260400223
 10
-7.1610206376
 20
20.4223331691
 10
-7.1356218248
 20
20.4203068464
 10
-7.109885574
 20
20.419986687
 10
-7.0840677019
 20
20.4213729728
 10
-7.0583483586
 20
20.4244232229
 10
-7.0329893284
 20
20.4291334955
 10
-7.0082798261
 20
20.4354728313
 10
-6.984442695
 20
20.443359598
 10
-6.9617324603
 20
20.4527307841
 10
-6.9404267175
 20
20.4635323076
 10
-6.9207755177
 20
20.475679962
  0
LWPOLYLINE
  5
4D6
100
AcDbEntity
  8
0
100
AcDbPolyline
 62
253
  6
CONTINUOUS
 90
18
 70
0
 10
-0.2686178198
 20
18.6057692323
 10
-0.2753469666
 20
18.6094706262
 10
-0.2820590112
 20
18.6127946989
 10
-0.288738744
 20
18.6157339165
 10
-0.2953710331
 20
18.6182816184
 10
-0.3019408449
 20
18.6204320276
 10
-0.3084332789
 20
18.6221802664
 10
-0.3148336198
 20
18.623522373
 10
-0.3211273682
 20
18.6244553081
 10
-0.327300261
 20
18.624976958
 10
-0.333338312
 20
18.6250861416
 10
-0.339227838
 20
18.6247826121
 10
-0.3449554886
 20
18.6240670591
 10
-0.3505082846
 20
18.6229411063
 10
-0.3558736457
 20
18.6214073069
 10
-0.3610394147
 20
18.6194691386
 10
-0.3659938908
 20
18.6171309934
 10
-0.3686389503
 20
18.6156680963
  0
LWPOLYLINE
  5
4D7
100
AcDbEntity
  8
0
100
AcDbPolyline
 62
253
  6
CONTINUOUS
 90
34
 70
0
 10
4.3191399072
 20
14.3562542767
 10
4.3277201101
 20
14.3515297476
 10
4.3366786334
 20
14.3470454108
 10
4.3459953291
 20
14.3428113538
 10
4.35564925
 20
14.3388370984
 10
4.3656186777
 20
14.3351315876
 10
4.3758811704
 20
14.3317031633
 10
4.3864136394
 20
14.3285595382
 10
4.3971923998
 20
14.3257077805
 10
4.4081932042
 20
14.3231543049
 10
4.4193913108
 20
14.3209048538
 10
4.4307615306
 20
14.3189644863
 10
4.4422782801
 20
14.3173375671
 10
4.4539156535
 20
14.3160277544
 10
4.4656474773
 20
14.3150379924
 10
4.4774473604
 20
14.3143705059
 10
4.4892887686
 20
14.3140267944
 10
4.5011450622
 20
14.3140076296
 10
4.5129895527
 20
14.314313052
 10
4.5247955674
 20
14.3149423688
 10
4.5365365869
 20
14.3158941615
 10
4.548186281
 20
14.3171662952
 10
4.5597185548
 20
14.3187559278
 10
4.5711073595
 20
14.3206594763
 10
4.5823268382
 20
14.3228726109
 10
4.5933516207
 20
14.3253903009
 10
4.6041570763
 20
14.3282068949
 10
4.6147191141
 20
14.3313161033
 10
4.625015508
 20
14.3347114656
 10
4.6350214888
 20
14.3383848981
 10
4.6447104295
 20
14.3423263764
 10
4.6540596498
 20
14.346526074
 10
4.6630500264
 20
14.3509747798
 10
4.6716618668
 20
14.3556621961
  0
LWPOLYLINE
  5
4D8
100
AcDbEntity
  8
0
100
AcDbPolyline
 62
253
  6
CONTINUOUS
 90
34
 70
0
 10
-7.9845180855
 20
21.1397120278
 10
-7.9759390936
 20
21.1349881345
 10
-7.9669818964
 20
21.1305043723
 10
-7.957666635
 20
21.1262708233
 10
-7.9480142552
 20
21.1222970069
 10
-7.9380464613
 20
21.1185918586
 10
-7.9277856666
 20
21.1151637097
 10
-7.9172549432
 20
21.1120202686
 10
-7.9064779704
 20
21.1091686036
 10
-7.8954789808
 20
21.1066151269
 10
-7.8842827067
 20
21.1043655802
 10
-7.8729143236
 20
21.1024250217
 10
-7.8613993942
 20
21.100797815
 10
-7.8497638107
 20
21.0994876189
 10
-7.8380337367
 20
21.0984973794
 10
-7.826235548
 20
21.0978293234
 10
-7.8143957738
 20
21.0974849528
 10
-7.8025410367
 20
21.0974650421
 10
-7.790697993
 20
21.097769636
 10
-7.7788932727
 20
21.0983980497
 10
-7.7671534196
 20
21.09934887
 10
-7.7555048315
 20
21.100619959
 10
-7.7439737014
 20
21.1022084586
 10
-7.7325859577
 20
21.1041107969
 10
-7.7213672066
 20
21.1063226963
 10
-7.7103426745
 20
21.1088391833
 10
-7.6995371508
 20
21.1116545992
 10
-7.6889749325
 20
21.1147626135
 10
-7.6786797695
 20
21.1181562375
 10
-7.6686748114
 20
21.1218278404
 10
-7.658982555
 20
21.1257691664
 10
-7.6496247941
 20
21.129971353
 10
-7.6406225703
 20
21.1344249513
 10
-7.6319961258
 20
21.1391199472
  0
LWPOLYLINE
  5
4D9
100
AcDbEntity
  8
0
100
AcDbPolyline
 62
253
  6
CONTINUOUS
 90
34
 70
0
 10
-7.9845180855
 20
21.4602322006
 10
-7.9759531538
 20
21.4555156904
 10
-7.9670073705
 20
21.4510366997
 10
-7.9577003415
 20
21.4468055836
 10
-7.9480511565
 20
21.442831625
 10
-7.9380823693
 20
21.4391246962
 10
-7.9278203779
 20
21.4356948558
 10
-7.9172898164
 20
21.4325502552
 10
-7.9065128957
 20
21.4296974473
 10
-7.8955136582
 20
21.4271428056
 10
-7.8843166881
 20
21.4248920647
 10
-7.8729472953
 20
21.4229503366
 10
-7.8614312776
 20
21.4213220345
 10
-7.8497946413
 20
21.4200108282
 10
-7.8380634574
 20
21.4190196481
 10
-7.8262640349
 20
21.4183507173
 10
-7.8144228791
 20
21.4180055432
 10
-7.8025666539
 20
21.417984908
 10
-7.7907220457
 20
21.4182888606
 10
-7.7789157002
 20
21.4189167188
 10
-7.7671741666
 20
21.4198670724
 10
-7.7555238577
 20
21.4211377851
 10
-7.7439909759
 20
21.4227260007
 10
-7.7326014629
 20
21.4246281482
 10
-7.7213809452
 20
21.4268399489
 10
-7.7103546617
 20
21.4293564285
 10
-7.6995474116
 20
21.4321719278
 10
-7.6889835061
 20
21.4352801139
 10
-7.6786867008
 20
21.4386739981
 10
-7.6686801609
 20
21.4423459457
 10
-7.6589864112
 20
21.4462876908
 10
-7.6496272591
 20
21.4504903637
 10
-7.6406237477
 20
21.4549445132
 10
-7.6319961258
 20
21.45964012
  0
LWPOLYLINE
  5
4DA
100
AcDbEntity
  8
0
100
AcDbPolyline
 62
253
  6
CONTINUOUS
 90
34
 70
0
 10
-2.1062726994
 20
19.341157092
 10
-2.0993823914
 20
19.3373637431
 10
-2.0921872272
 20
19.333764013
 10
-2.0847035096
 20
19.3303660596
 10
-2.0769481902
 20
19.3271775816
 10
-2.0689388463
 20
19.3242058073
 10
-2.0606936426
 20
19.3214574772
 10
-2.0522312681
 20
19.3189388199
 10
-2.0435708942
 20
19.316655541
 10
-2.034732148
 20
19.3146128143
 10
-2.0257350564
 20
19.3128152679
 10
-2.016600009
 20
19.311266975
 10
-2.0073477143
 20
19.3099714445
 10
-1.9979991407
 20
19.3089316109
 10
-1.98857547
 20
19.308149829
 10
-1.9790980571
 20
19.3076278691
 10
-1.9695883705
 20
19.3073669125
 10
-1.9600679661
 20
19.3073675496
 10
-1.9505584386
 20
19.3076297768
 10
-1.9410813636
 20
19.3081529949
 10
-1.9316581866
 20
19.3089360155
 10
-1.9223101975
 20
19.3099770691
 10
-1.9130584948
 20
19.3112738115
 10
-1.9039241288
 20
19.3128232982
 10
-1.8949279841
 20
19.3146219799
 10
-1.8860905514
 20
19.3166657393
 10
-1.877431726
 20
19.3189499544
 10
-1.8689709608
 20
19.3214694858
 10
-1.8607261267
 20
19.3242190823
 10
-1.8527172776
 20
19.3271921287
 10
-1.844966075
 20
19.3303803695
 10
-1.8374908342
 20
19.3337757541
 10
-1.830306864
 20
19.3373707933
 10
-1.823429987
 20
19.341157092
  0
LWPOLYLINE
  5
4DB
100
AcDbEntity
  8
0
100
AcDbPolyline
 62
7
  6
CONTINUOUS
 90
19
 70
0
 10
-0.055663034
 20
18.7301572091
 10
-0.0618318289
 20
18.7335635537
 10
-0.0679888631
 20
18.7366525684
 10
-0.0741224207
 20
18.739418371
 10
-0.0802208466
 20
18.741855685
 10
-0.086272529
 20
18.7439598732
 10
-0.0922659217
 20
18.7457269461
 10
-0.0981896407
 20
18.7471535261
 10
-0.1040324203
 20
18.7482368922
 10
-0.1097830947
 20
18.7489750081
 10
-0.1154307501
 20
18.7493664503
 10
-0.1209646553
 20
18.7494104629
 10
-0.1263742158
 20
18.7491069981
 10
-0.1316491751
 20
18.7484566104
 10
-0.1367795198
 20
18.7474605225
 10
-0.1417554085
 20
18.7461206753
 10
-0.1465674169
 20
18.7444395923
 10
-0.1512064212
 20
18.7424204533
 10
-0.1553748998
 20
18.7402328075
  0
LINE
  5
4DC
100
AcDbEntity
  8
0
100
AcDbLine
 62
7
  6
CONTINUOUS
 10
-3.7326182962
 20
19.1171633612
 11
-2.1062726994
 21
18.1781317965
  0
LINE
  5
4DD
100
AcDbEntity
  8
0
100
AcDbLine
 62
7
  6
CONTINUOUS
 10
-0.4092164246
 20
17.1982727725
 11
0.510022391
 21
16.6675158012
  0
LINE
  5
4DE
100
AcDbEntity
  8
0
100
AcDbLine
 62
7
  6
CONTINUOUS
 10
7.698881685
 20
12.6384114639
 11
7.681293934
 21
12.6485664109
  0
LINE
  5
4DF
100
AcDbEntity
  8
0
100
AcDbLine
 62
253
  6
CONTINUOUS
 10
4.4948881631
 20
14.661843232
 11
2.8163500927
 21
15.6310100768
  0
LINE
  5
4E0
100
AcDbEntity
  8
0
100
AcDbLine
 62
253
  6
CONTINUOUS
 10
-7.8087698295
 20
21.7658211559
 11
-9.4873078999
 21
22.7349880007
  0
LINE
  5
4E1
100
AcDbEntity
  8
RACCORDO
100
AcDbLine
 62
7
  6
CONTINUOUS
 10
-5.8893346457
 20
20.7920936417
 11
-5.1053057791
 21
20.3394052004
  0
LINE
  5
4E2
100
AcDbEntity
  8
RACCORDO
100
AcDbLine
 62
7
  6
CONTINUOUS
 10
2.2424340049
 20
16.0969123379
 11
2.8576706678
 21
15.7416823995
  0
LINE
  5
4E3
100
AcDbEntity
  8
RACCORDO
100
AcDbLine
 62
7
  6
CONTINUOUS
 10
6.414323347
 20
13.6881157178
 11
6.6261480431
 21
13.5658107931
  0
LINE
  5
4E4
100
AcDbEntity
  8
0
100
AcDbLine
 62
7
  6
CONTINUOUS
 10
-0.4677950683
 20
17.6617646377
 11
-1.6112979526
 21
18.3220088716
  0
LINE
  5
4E5
100
AcDbEntity
  8
0
100
AcDbLine
 62
7
  6
CONTINUOUS
 10
-5.1053057791
 20
20.4138087356
 11
-4.4397250773
 21
20.0295107801
  0
LINE
  5
4E6
100
AcDbEntity
  8
0
100
AcDbLine
 62
7
  6
CONTINUOUS
 10
0.510022391
 20
17.1715886268
 11
1.1756030927
 21
16.7872906713
  0
LINE
  5
4E7
100
AcDbEntity
  8
ASSI
100
AcDbLine
 62
7
  6
CONTINUOUS
 10
14.1803157844
 20
9.3397524067
 11
13.2964323079
 21
9.8500956483
  0
LINE
  5
4E8
100
AcDbEntity
  8
ASSI
100
AcDbLine
 62
7
  6
CONTINUOUS
 10
10.4680051832
 20
11.4831940216
 11
8.8416595864
 21
12.4222255863
  0
LINE
  5
4E9
100
AcDbEntity
  8
0
100
AcDbLine
 62
253
  6
CONTINUOUS
 10
1.0773548798
 20
17.502970428
 11
-0.4092164246
 21
18.3612980681
  0
LINE
  5
4EA
100
AcDbEntity
  8
0
100
AcDbLine
 62
253
  6
CONTINUOUS
 10
-2.1062726994
 20
19.341157092
 11
-3.7326182962
 21
20.2801886567
  0
LINE
  5
4EB
100
AcDbEntity
  8
DRAFT
100
AcDbLine
 62
7
  6
CONTINUOUS
 10
-5.9961535825
 20
21.6655686586
 11
-5.3277223807
 21
21.2796248602
  0
LINE
  5
4EC
100
AcDbEntity
  8
DRAFT
100
AcDbLine
 62
7
  6
CONTINUOUS
 10
6.3075044102
 20
14.5615907347
 11
7.3277450308
 21
13.972516587
  0
LINE
  5
4ED
100
AcDbEntity
  8
0
100
AcDbLine
 62
7
  6
CONTINUOUS
 10
-0.9041911714
 20
18.7260083975
 11
-0.4653452784
 21
18.4726242788
  0
LINE
  5
4EE
100
AcDbEntity
  8
0
100
AcDbLine
 62
253
  6
CONTINUOUS
 10
1.3577277769
 20
17.6667376676
 11
-0.2686178198
 21
18.6057692323
  0
LINE
  5
4EF
100
AcDbEntity
  8
0
100
AcDbLine
 62
253
  6
CONTINUOUS
 10
-1.9656740947
 20
19.5856282562
 11
-3.5920196914
 21
20.5246598209
  0
LINE
  5
4F0
100
AcDbEntity
  8
0
100
AcDbLine
 62
7
  6
CONTINUOUS
 10
-4.0508163477
 20
21.0369086614
 11
-1.7527193088
 21
19.7100162331
  0
LINE
  5
4F1
100
AcDbEntity
  8
0
100
AcDbLine
 62
7
  6
CONTINUOUS
 10
-0.055663034
 20
18.7301572091
 11
2.2424340049
 21
17.4032647808
  0
LINE
  5
4F2
100
AcDbEntity
  8
0
100
AcDbLine
 62
7
  6
CONTINUOUS
 10
6.096168954
 20
15.5864016582
 11
4.3991066959
 21
16.5662641369
  0
LINE
  5
4F3
100
AcDbEntity
  8
0
100
AcDbLine
 62
7
  6
CONTINUOUS
 10
-6.2074890387
 20
22.6903795821
 11
-7.9045512968
 21
23.6702420608
  0
LWPOLYLINE
  5
4F4
100
AcDbEntity
  8
0
100
AcDbPolyline
 62
7
  6
CONTINUOUS
 90
40
 70
0
 10
6.6261480431
 20
13.5658107931
 10
6.6403004718
 20
13.5573127372
 10
6.654454636
 20
13.5481556632
 10
6.668588081
 20
13.5383511168
 10
6.6826909522
 20
13.5279022776
 10
6.696727435
 20
13.5168314632
 10
6.7106364368
 20
13.5051852683
 10
6.7243827042
 20
13.4929954891
 10
6.7379575555
 20
13.4802729968
 10
6.7513407312
 20
13.4670386689
 10
6.7644988001
 20
13.4533280377
 10
6.7774234236
 20
13.439152101
 10
6.7901307623
 20
13.4244919534
 10
6.802620578
 20
13.4093411694
 10
6.8148481082
 20
13.3937475584
 10
6.8267631204
 20
13.3777739464
 10
6.8383421253
 20
13.3614515684
 10
6.8495704213
 20
13.3448023679
 10
6.860415169
 20
13.3278801176
 10
6.8708419608
 20
13.3107441608
 10
6.8808549862
 20
13.2933933884
 10
6.8904776148
 20
13.2757899355
 10
6.8997071972
 20
13.2579294224
 10
6.9085085646
 20
13.2398701197
 10
6.9168545134
 20
13.2216671419
 10
6.9247324174
 20
13.2033427166
 10
6.9321251318
 20
13.1849329124
 10
6.9390050283
 20
13.1665148598
 10
6.9453520615
 20
13.1481501849
 10
6.9511704692
 20
13.129835848
 10
6.9564698251
 20
13.1115521531
 10
6.9612433544
 20
13.093312495
 10
6.9654763247
 20
13.075161784
 10
6.9691631816
 20
13.0571280034
 10
6.9722978924
 20
13.0392233817
 10
6.974869177
 20
13.0214940694
 10
6.9768690003
 20
13.0040170889
 10
6.9782959313
 20
12.9868347111
 10
6.9791502563
 20
12.9699563327
 10
6.9794323091
 20
12.9534068963
  0
LWPOLYLINE
  5
4F5
100
AcDbEntity
  8
0
100
AcDbPolyline
 62
7
  6
CONTINUOUS
 90
37
 70
0
 10
-1.7527193088
 20
19.7100162331
 10
-1.7465505387
 20
19.7062990223
 10
-1.7403935015
 20
19.7022780464
 10
-1.7342599221
 20
19.6979609579
 10
-1.7281614971
 20
19.6933559631
 10
-1.7221098324
 20
19.6884718303
 10
-1.7161164212
 20
19.6833178729
 10
-1.710192697
 20
19.6779038877
 10
-1.7043499465
 20
19.6722401751
 10
-1.6985992482
 20
19.6663375426
 10
-1.6929515815
 20
19.6602072074
 10
-1.6874177166
 20
19.6538608283
 10
-1.682008127
 20
19.6473105217
 10
-1.6767331507
 20
19.6405687335
 10
-1.6716028565
 20
19.6336482812
 10
-1.6666269343
 20
19.6265623832
 10
-1.6618149034
 20
19.6193245004
 10
-1.657175959
 20
19.6119483902
 10
-1.6527188417
 20
19.6044481463
 10
-1.6484520889
 20
19.5968380149
 10
-1.6443838652
 20
19.5891324572
 10
-1.640521812
 20
19.5813462014
 10
-1.6368733391
 20
19.5734940348
 10
-1.6334454408
 20
19.5655908756
 10
-1.6302445284
 20
19.5576518339
 10
-1.6272767575
 20
19.5496919853
 10
-1.6245478321
 20
19.5417264495
 10
-1.6220628242
 20
19.5337704602
 10
-1.6198265295
 20
19.5258391233
 10
-1.6178432647
 20
19.5179475012
 10
-1.6161166752
 20
19.5101106907
 10
-1.6146501153
 20
19.5023435695
 10
-1.61344644
 20
19.4946608851
 10
-1.6125078065
 20
19.4870773388
 10
-1.6118360016
 20
19.4796073655
 10
-1.6114324383
 20
19.4722651058
 10
-1.6112979526
 20
19.4650644956
  0
LWPOLYLINE
  5
4F6
100
AcDbEntity
  8
0
100
AcDbPolyline
 62
253
  6
CONTINUOUS
 90
34
 70
0
 10
-1.9656740947
 20
19.5856282562
 10
-1.9589440637
 20
19.5815585432
 10
-1.9522274146
 20
19.5771292182
 10
-1.9455393628
 20
19.5723503151
 10
-1.9388950588
 20
19.5672326596
 10
-1.9323095542
 20
19.5617878449
 10
-1.9257977672
 20
19.5560282053
 10
-1.919374449
 20
19.5499667881
 10
-1.9130541507
 20
19.5436173244
 10
-1.9068511897
 20
19.5369941979
 10
-1.9007796177
 20
19.530112412
 10
-1.8948531887
 20
19.5229875562
 10
-1.8890853281
 20
19.5156357705
 10
-1.8834891019
 20
19.5080737091
 10
-1.8780771873
 20
19.5003185026
 10
-1.8728618441
 20
19.492387719
 10
-1.8678548867
 20
19.484299324
 10
-1.8630676575
 20
19.4760716405
 10
-1.858511001
 20
19.4677233067
 10
-1.8541952397
 20
19.4592732345
 10
-1.85013015
 20
19.4507405658
 10
-1.8463249407
 20
19.44214463
 10
-1.8427882318
 20
19.4335048996
 10
-1.8395280351
 20
19.4248409463
 10
-1.836551736
 20
19.4161723969
 10
-1.8338660768
 20
19.4075188883
 10
-1.8314771414
 20
19.3989000235
 10
-1.8293903414
 20
19.3903353271
 10
-1.8276104042
 20
19.3818442009
 10
-1.8261413618
 20
19.3734458799
 10
-1.8249865422
 20
19.365159389
 10
-1.8241485613
 20
19.3570034999
 10
-1.8236293175
 20
19.3489966883
 10
-1.823429987
 20
19.341157092
  0
LWPOLYLINE
  5
4F7
100
AcDbEntity
  8
0
100
AcDbPolyline
 62
7
  6
CONTINUOUS
 90
34
 70
0
 10
-6.2074890387
 20
22.6903795821
 10
-6.1990779633
 20
22.6852917624
 10
-6.1906857457
 20
22.6797532081
 10
-6.1823314979
 20
22.6737764037
 10
-6.174034324
 20
22.6673747812
 10
-6.1658130256
 20
22.6605628364
 10
-6.1576860598
 20
22.6533560957
 10
-6.1496718944
 20
22.6457708483
 10
-6.1417887751
 20
22.6378242226
 10
-6.1340544329
 20
22.629534295
 10
-6.1264864253
 20
22.6209198214
 10
-6.1191019684
 20
22.6120002731
 10
-6.1119177058
 20
22.6027959086
 10
-6.1049499272
 20
22.5933275686
 10
-6.098214468
 20
22.5836166712
 10
-6.0917265452
 20
22.5736852441
 10
-6.0855008486
 20
22.5635557884
 10
-6.0795515107
 20
22.5532512329
 10
-6.0738920113
 20
22.5427949252
 10
-6.0685351409
 20
22.5322105688
 10
-6.0634930412
 20
22.5215221359
 10
-6.0587771801
 20
22.5107538182
 10
-6.0543981883
 20
22.4999300386
 10
-6.0503659693
 20
22.4890753242
 10
-6.0466897454
 20
22.4782142177
 10
-6.0433777711
 20
22.4673713639
 10
-6.0404375102
 20
22.4565713452
 10
-6.0378757516
 20
22.445838555
 10
-6.0356982057
 20
22.4351973578
 10
-6.0339097448
 20
22.424671891
 10
-6.0325145865
 20
22.4142859015
 10
-6.0315158829
 20
22.404062919
 10
-6.0309157139
 20
22.3940262029
 10
-6.030715335
 20
22.3841985462
  0
LWPOLYLINE
  5
4F8
100
AcDbEntity
  8
0
100
AcDbPolyline
 62
7
  6
CONTINUOUS
 90
34
 70
0
 10
6.096168954
 20
15.5864016582
 10
6.1045800294
 20
15.5813138385
 10
6.112972247
 20
15.5757752842
 10
6.1213264947
 20
15.5697984798
 10
6.1296236687
 20
15.5633968573
 10
6.1378449671
 20
15.5565849125
 10
6.1459719329
 20
15.5493781718
 10
6.1539860982
 20
15.5417929244
 10
6.1618692176
 20
15.5338462987
 10
6.1696035598
 20
15.5255563711
 10
6.1771715673
 20
15.5169418974
 10
6.1845560243
 20
15.5080223492
 10
6.1917402868
 20
15.4988179847
 10
6.1987080655
 20
15.4893496447
 10
6.2054435247
 20
15.4796387473
 10
6.2119314474
 20
15.4697073202
 10
6.218157144
 20
15.4595778645
 10
6.224106482
 20
15.449273309
 10
6.2297659814
 20
15.4388170013
 10
6.2351228518
 20
15.4282326449
 10
6.2401649514
 20
15.417544212
 10
6.2448808126
 20
15.4067758943
 10
6.2492598044
 20
15.3959521147
 10
6.2532920233
 20
15.3850974003
 10
6.2569682472
 20
15.3742362938
 10
6.2602802215
 20
15.36339344
 10
6.2632204824
 20
15.3525934213
 10
6.265782241
 20
15.3418606311
 10
6.2679597869
 20
15.3312194339
 10
6.2697482478
 20
15.3206939671
 10
6.2711434061
 20
15.3103079776
 10
6.2721421098
 20
15.3000849951
 10
6.2727422788
 20
15.290048279
 10
6.2729426576
 20
15.2802206223
  0
LWPOLYLINE
  5
4F9
100
AcDbEntity
  8
0
100
AcDbPolyline
 62
253
  6
CONTINUOUS
 90
18
 70
0
 10
-0.4092164246
 20
18.3612980681
 10
-0.4157853412
 20
18.3652758529
 10
-0.4220190123
 20
18.3694296013
 10
-0.4279033165
 20
18.3737499039
 10
-0.4334249241
 20
18.3782269738
 10
-0.4385713267
 20
18.3828506689
 10
-0.4433308663
 20
18.387610515
 10
-0.4476927607
 20
18.3924957297
 10
-0.4516471291
 20
18.3974952462
 10
-0.4551850133
 20
18.4025977392
 10
-0.4582983991
 20
18.4077916498
 10
-0.4609802336
 20
18.4130652121
 10
-0.4632244415
 20
18.4184064799
 10
-0.4650259391
 20
18.4238033534
 10
-0.4663806453
 20
18.4292436069
 10
-0.4672854913
 20
18.4347149167
 10
-0.4677384273
 20
18.4402048883
 10
-0.4677950683
 20
18.4429529867
  0
LWPOLYLINE
  5
4FA
100
AcDbEntity
  8
0
100
AcDbPolyline
 62
253
  6
CONTINUOUS
 90
34
 70
0
 10
4.4948881631
 20
14.661843232
 10
4.5032514459
 20
14.6567277057
 10
4.5115981137
 20
14.6511627481
 10
4.5199092593
 20
14.6451609651
 10
4.5281660562
 20
14.6387359522
 10
4.5363498008
 20
14.6319022632
 10
4.5444419552
 20
14.6246753782
 10
4.5524241888
 20
14.6170716677
 10
4.56027842
 20
14.6091083556
 10
4.5679868573
 20
14.6008034808
 10
4.5755320393
 20
14.5921758556
 10
4.5828968746
 20
14.5832450235
 10
4.59006468
 20
14.5740312149
 10
4.5970192189
 20
14.5645553011
 10
4.6037447378
 20
14.5548387471
 10
4.6102260018
 20
14.5449035632
 10
4.6164483294
 20
14.5347722548
 10
4.6223976256
 20
14.5244677715
 10
4.628060414
 20
14.5140134553
 10
4.633423867
 20
14.5034329875
 10
4.6384758353
 20
14.4927503354
 10
4.6432048749
 20
14.4819896975
 10
4.6476002737
 20
14.471175449
 10
4.6516520749
 20
14.4603320867
 10
4.6553511004
 20
14.4494841732
 10
4.658688971
 20
14.4386562814
 10
4.6616581258
 20
14.427872939
 10
4.6642518389
 20
14.4171585726
 10
4.6664642349
 20
14.4065374527
 10
4.6682903024
 20
14.3960336386
 10
4.6697259048
 20
14.3856709235
 10
4.6707677902
 20
14.3754727816
 10
4.6714135985
 20
14.3654623138
 10
4.6716618668
 20
14.3556621961
  0
LWPOLYLINE
  5
4FB
100
AcDbEntity
  8
SMUSSO
100
AcDbPolyline
 62
7
  6
CONTINUOUS
 90
33
 70
0
 10
10.723945512
 20
11.8110855823
 10
10.6558349644
 20
11.8818658389
 10
10.5792237081
 20
11.9573503197
 10
10.4946085852
 20
12.0370494855
 10
10.4025383408
 20
12.1204464679
 10
10.3036100819
 20
12.2070004048
 10
10.1984654094
 20
12.2961499466
 10
10.087786224
 20
12.3873169247
 10
9.9722903198
 20
12.4799100873
 10
9.8527267521
 20
12.5733289152
 10
9.7298709378
 20
12.6669675501
 10
9.6045196446
 20
12.7602187088
 10
9.4774858463
 20
12.8524776053
 10
9.3495934075
 20
12.9431459049
 10
9.2216717611
 20
13.0316355888
 10
9.0945505499
 20
13.1173727537
 10
8.9690542086
 20
13.19980136
 10
8.8459966214
 20
13.2783868337
 10
8.7261758643
 20
13.3526195199
 10
8.6103690415
 20
13.4220179814
 10
8.4993271714
 20
13.4861321654
 10
8.3937703301
 20
13.5445463094
 10
8.2943830766
 20
13.5968815812
 10
8.2018100048
 20
13.6427985475
 10
8.1166514951
 20
13.6819994122
 10
8.0394598363
 20
13.7142299379
 10
7.9707356576
 20
13.739281089
 10
7.9109246791
 20
13.75699039
 10
7.8604148021
 20
13.7672429866
 10
7.8195336065
 20
13.7699723836
 10
7.7885462312
 20
13.7651608783
 10
7.7676536403
 20
13.752839676
 10
7.7637638288
 20
13.7482364271
  0
LINE
  5
4FC
100
AcDbEntity
  8
ASSI
100
AcDbLine
 62
7
  6
CONTINUOUS
 10
11.8051204907
 20
9.0381680778
 11
12.2107002784
 21
8.6035314678
  0
LINE
  5
4FD
100
AcDbEntity
  8
ASSI
100
AcDbLine
 62
7
  6
CONTINUOUS
 10
10.4680051832
 20
11.4831940216
 11
11.5801500562
 21
10.291372111
  0
LINE
  5
4FE
100
AcDbEntity
  8
0
100
AcDbLine
 62
253
  6
CONTINUOUS
 10
7.7197893912
 20
-15.0851769302
 11
7.698881685
 21
-15.0970362327
  0
LINE
  5
4FF
100
AcDbEntity
  8
0
100
AcDbLine
 62
253
  6
CONTINUOUS
 10
12.6263410678
 20
-14.6680279619
 11
7.7197893912
 21
-16.5937018561
  0
LINE
  5
500
100
AcDbEntity
  8
0
100
AcDbLine
 62
7
  6
CONTINUOUS
 10
12.3555120168
 20
-14.3604390434
 11
7.7197893912
 21
-16.0796352009
  0
LWPOLYLINE
  5
501
100
AcDbEntity
  8
0
100
AcDbPolyline
 62
7
  6
CONTINUOUS
 90
21
 70
0
 10
12.3555343724
 20
-14.3604834988
 10
12.3632717735
 20
-14.3580527326
 10
12.3795498903
 20
-14.3553347071
 10
12.3968496721
 20
-14.3556104983
 10
12.415155402
 20
-14.3588018117
 10
12.4337748194
 20
-14.3647097637
 10
12.4527063249
 20
-14.373404548
 10
12.4719515179
 20
-14.3848159708
 10
12.4908229357
 20
-14.3985345674
 10
12.5093332542
 20
-14.4146576246
 10
12.5274697974
 20
-14.4330878556
 10
12.5445070742
 20
-14.453123935
 10
12.5604118243
 20
-14.4748666894
 10
12.575217308
 20
-14.4982152922
 10
12.5882978156
 20
-14.5221659384
 10
12.5995545502
 20
-14.546697995
 10
12.6090863087
 20
-14.5718320951
 10
12.6165637717
 20
-14.5966263325
 10
12.6218771659
 20
-14.6207667383
 10
12.6251362646
 20
-14.6445672815
 10
12.6263410678
 20
-14.6680279619
  0
LWPOLYLINE
  5
502
100
AcDbEntity
  8
0
100
AcDbPolyline
 62
7
  6
CONTINUOUS
 90
3
 70
0
 10
4.9661056615
 20
16.9107364002
 10
4.998277025
 20
16.9042008467
 10
5.0295111531
 20
16.8934234713
  0
LWPOLYLINE
  5
503
100
AcDbEntity
  8
0
100
AcDbPolyline
 62
253
  6
CONTINUOUS
 90
16
 70
0
 10
5.0486998338
 20
16.8839303796
 10
5.0422518572
 20
16.8863941289
 10
5.0355571239
 20
16.8883554355
 10
5.0286306477
 20
16.8898099015
 10
5.0214879373
 20
16.8907542579
 10
5.0141451198
 20
16.8911863602
 10
5.0066188731
 20
16.8911052394
 10
4.9989262389
 20
16.8905111181
 10
4.9910844263
 20
16.8894053637
 10
4.9831109273
 20
16.8877904563
 10
4.9750224499
 20
16.885669671
 10
4.9668383786
 20
16.8830479828
 10
4.9585807078
 20
16.8799327421
 10
4.9502692871
 20
16.8763321411
 10
4.9419216548
 20
16.8722544761
 10
4.9335565746
 20
16.8677095086
  0
LWPOLYLINE
  5
504
100
AcDbEntity
  8
0
100
AcDbPolyline
 62
7
  6
CONTINUOUS
 90
6
 70
0
 10
-7.2461238174
 20
23.9834823732
 10
-7.2746155341
 20
23.9975973464
 10
-7.3051034945
 20
24.0081024233
 10
-7.3370304526
 20
24.0146430527
 10
-7.3698050903
 20
24.0169759616
 10
-7.4027109527
 20
24.0149767325
  0
LINE
  5
505
100
AcDbEntity
  8
0
100
AcDbLine
 62
7
  6
CONTINUOUS
 10
5.0295111531
 20
16.8934234713
 11
5.0575730363
 21
16.8794819975
  0
LWPOLYLINE
  5
506
100
AcDbEntity
  8
0
100
AcDbPolyline
 62
253
  6
CONTINUOUS
 90
3
 70
0
 10
5.0575341753
 20
16.8795044493
 10
5.0548865656
 20
16.8809697144
 10
5.0486998338
 20
16.8839303796
  0
LWPOLYLINE
  5
507
100
AcDbEntity
  8
0
100
AcDbPolyline
 62
253
  6
CONTINUOUS
 90
18
 70
0
 10
-5.5552472861
 20
23.0071914557
 10
-5.5578918759
 20
23.0086549771
 10
-5.5640786077
 20
23.0116156424
 10
-5.5705265843
 20
23.0140793917
 10
-5.5772213176
 20
23.0160406982
 10
-5.5841477938
 20
23.0174951643
 10
-5.5912905042
 20
23.0184395207
 10
-5.5986333217
 20
23.0188716229
 10
-5.6061595684
 20
23.0187905021
 10
-5.6138522026
 20
23.0181963809
 10
-5.6216940152
 20
23.0170906265
 10
-5.6296675142
 20
23.0154757191
 10
-5.6377559916
 20
23.0133549337
 10
-5.6459400629
 20
23.0107332456
 10
-5.6541977337
 20
23.0076180049
 10
-5.6625091544
 20
23.0040174039
 10
-5.6708567867
 20
22.9999397389
 10
-5.6792218669
 20
22.9953947713
  0
LWPOLYLINE
  5
508
100
AcDbEntity
  8
0
100
AcDbPolyline
 62
253
  6
CONTINUOUS
 90
18
 70
0
 10
6.7484137264
 20
15.9032117882
 10
6.745780463
 20
15.9046694485
 10
6.7395951721
 20
15.9076309387
 10
6.7331486248
 20
15.9100956691
 10
6.7264553167
 20
15.9120580975
 10
6.7195302983
 20
15.9135138112
 10
6.7123891408
 20
15.9144595369
 10
6.7050479018
 20
15.9148931482
 10
6.6975230886
 20
15.9148136699
 10
6.6898316213
 20
15.9142212809
 10
6.6819907948
 20
15.9131173131
 10
6.6740182397
 20
15.9115042489
 10
6.665931883
 20
15.9093857154
 10
6.6577499074
 20
15.9067664763
 10
6.6494907107
 20
15.9036524212
 10
6.6411728643
 20
15.9000505521
 10
6.6328150716
 20
15.8959689683
 10
6.6244361257
 20
15.8914168474
  0
LWPOLYLINE
  5
509
100
AcDbEntity
  8
0
100
AcDbPolyline
 62
253
  6
CONTINUOUS
 90
3
 70
0
 10
-7.2461238174
 20
23.9834823732
 10
-7.2487570808
 20
23.9849400335
 10
-7.2549423717
 20
23.9879015238
  0
LINE
  5
50A
100
AcDbEntity
  8
0
100
AcDbLine
 62
7
  6
CONTINUOUS
 10
-2.6719581244
 20
21.052572306
 11
-1.0456125276
 21
20.1135407413
  0
LINE
  5
50B
100
AcDbEntity
  8
0
100
AcDbLine
 62
7
  6
CONTINUOUS
 10
0.6514437472
 20
19.1336817173
 11
2.2777893439
 21
18.1946501527
  0
LINE
  5
50C
100
AcDbEntity
  8
0
100
AcDbLine
 62
253
  6
CONTINUOUS
 10
-7.3701014181
 20
23.9716874325
 11
-5.6792218669
 21
22.9953947713
  0
LINE
  5
50D
100
AcDbEntity
  8
0
100
AcDbLine
 62
253
  6
CONTINUOUS
 10
4.9335565746
 20
16.8677095086
 11
6.6244361257
 21
15.8914168474
  0
LINE
  5
50E
100
AcDbEntity
  8
0
100
AcDbLine
 62
7
  6
CONTINUOUS
 10
-7.2461238174
 20
23.9834823732
 11
-5.5552442662
 21
23.0071897121
  0
LINE
  5
50F
100
AcDbEntity
  8
0
100
AcDbLine
 62
7
  6
CONTINUOUS
 10
5.0575341753
 20
16.8795044493
 11
6.7484137264
 21
15.9032117882
  0
LWPOLYLINE
  5
510
100
AcDbEntity
  8
0
100
AcDbPolyline
 62
253
  6
CONTINUOUS
 90
34
 70
0
 10
-5.6792218669
 20
22.9953947713
 10
-5.670763049
 20
22.9903344059
 10
-5.6623257218
 20
22.9848217939
 10
-5.6539289978
 20
22.9788694228
 10
-5.6455918974
 20
22.9724907761
 10
-5.6373333061
 20
22.9657003027
 10
-5.6291719314
 20
22.9585133846
 10
-5.6211262607
 20
22.9509463018
 10
-5.6132145192
 20
22.9430161955
 10
-5.6054546288
 20
22.934741029
 10
-5.5978641674
 20
22.9261395476
 10
-5.590460329
 20
22.9172312355
 10
-5.583259885
 20
22.9080362719
 10
-5.576279146
 20
22.8985754857
 10
-5.5695339251
 20
22.8888703075
 10
-5.5630395015
 20
22.8789427218
 10
-5.5568105867
 20
22.8688152167
 10
-5.5508612904
 20
22.8585107334
 10
-5.5452050893
 20
22.8480526138
 10
-5.5398547959
 20
22.8374645479
 10
-5.5348225297
 20
22.82677052
 10
-5.5301196901
 20
22.8159947545
 10
-5.5257569299
 20
22.805161661
 10
-5.5217441318
 20
22.7942957787
 10
-5.5180903857
 20
22.7834217214
 10
-5.5148039682
 20
22.7725641213
 10
-5.5118923237
 20
22.7617475732
 10
-5.5093620477
 20
22.750996579
 10
-5.507218872
 20
22.7403354922
 10
-5.5054676512
 20
22.7297884625
 10
-5.5041123522
 20
22.7193793812
 10
-5.5031560452
 20
22.7091318274
 10
-5.5026008964
 20
22.699069014
 10
-5.5024481633
 20
22.6892137354
  0
LWPOLYLINE
  5
511
100
AcDbEntity
  8
0
100
AcDbPolyline
 62
253
  6
CONTINUOUS
 90
34
 70
0
 10
6.6244361257
 20
15.8914168474
 10
6.6328810431
 20
15.8863651797
 10
6.6413081851
 20
15.8808602719
 10
6.6496984687
 20
15.8749139903
 10
6.6580340414
 20
15.8685382842
 10
6.6662947357
 20
15.8617478711
 10
6.6744582386
 20
15.854560786
 10
6.6825048584
 20
15.8469944735
 10
6.6904175917
 20
15.8390650319
 10
6.6981786551
 20
15.830790268
 10
6.7057705564
 20
15.8221887937
 10
6.7131759797
 20
15.8132801883
 10
6.720377983
 20
15.8040848203
 10
6.7273601858
 20
15.7946236163
 10
6.7341068378
 20
15.7849179312
 10
6.7406026965
 20
15.7749896922
 10
6.7468330577
 20
15.7648613639
 10
6.7527837833
 20
15.7545559201
 10
6.758441377
 20
15.7440967285
 10
6.7637930153
 20
15.7335074924
 10
6.7688265736
 20
15.7228121993
 10
6.7735306435
 20
15.7120350858
 10
6.7778945653
 20
15.7012005691
 10
6.7819084489
 20
15.6903332002
 10
6.7855631951
 20
15.6794576111
 10
6.7888505215
 20
15.668598446
 10
6.7917629792
 20
15.6577803087
 10
6.7942939673
 20
15.6470277152
 10
6.7964377514
 20
15.6363650244
 10
6.7981894723
 20
15.6258164019
 10
6.799545158
 20
15.6154057675
 10
6.8005017381
 20
15.6051567156
 10
6.8010570475
 20
15.5950924625
 10
6.8012098294
 20
15.5852358115
  0
LWPOLYLINE
  5
512
100
AcDbEntity
  8
0
100
AcDbPolyline
 62
7
  6
CONTINUOUS
 90
9
 70
0
 10
6.7484137264
 20
15.9032117882
 10
6.7749265872
 20
15.8855596773
 10
6.7993040498
 20
15.8643608538
 10
6.8209565168
 20
15.8399226955
 10
6.8393720031
 20
15.8126430155
 10
6.8540860623
 20
15.7830804675
 10
6.8647697507
 20
15.7518576307
 10
6.8712772293
 20
15.7192763853
 10
6.8734076779
 20
15.6866712358
  0
LWPOLYLINE
  5
513
100
AcDbEntity
  8
ASSI
100
AcDbPolyline
 62
7
  6
CONTINUOUS
 90
20
 70
0
 10
12.4480868677
 20
13.0899600667
 10
12.3507469434
 20
13.1909902496
 10
12.2429388453
 20
13.2972127274
 10
12.1246625735
 20
13.4086275002
 10
11.9950191798
 20
13.5260210719
 10
11.8549076124
 20
13.6486069385
 10
11.7070247149
 20
13.774025588
 10
11.5512199403
 20
13.9023318973
 10
11.3876438357
 20
14.0334709894
 10
11.2194448863
 20
14.1649187213
 10
11.0465335379
 20
14.2966810719
 10
10.8689993448
 20
14.4287520623
 10
10.6902594551
 20
14.5585896122
 10
10.5102905119
 20
14.6861504552
 10
10.3291158722
 20
14.8114778579
 10
10.1502227549
 20
14.9321595394
 10
9.9736553578
 20
15.0481055023
 10
9.7993694831
 20
15.1594057441
 10
9.6307197558
 20
15.2639179765
 10
9.4876813457
 20
15.3496093916
  0
LWPOLYLINE
  5
514
100
AcDbEntity
  8
SMUSSO
100
AcDbPolyline
 62
7
  6
CONTINUOUS
 90
33
 70
0
 10
15.1787182335
 20
9.2389556444
 10
15.1106076858
 20
9.3097359009
 10
15.0339964295
 20
9.3852203817
 10
14.9493813067
 20
9.4649195476
 10
14.8573110623
 20
9.5483165299
 10
14.7583828034
 20
9.6348704669
 10
14.6532381308
 20
9.7240200086
 10
14.5425589455
 20
9.8151869867
 10
14.4270630413
 20
9.9077801494
 10
14.3074994735
 20
10.0011989773
 10
14.1846436592
 20
10.0948376121
 10
14.0592923661
 20
10.1880887708
 10
13.9322585678
 20
10.2803476673
 10
13.804366129
 20
10.3710159669
 10
13.6764444826
 20
10.4595056508
 10
13.5493232713
 20
10.5452428157
 10
13.4238269301
 20
10.627671422
 10
13.3007693429
 20
10.7062568958
 10
13.1809485857
 20
10.780489582
 10
13.0651417629
 20
10.8498880434
 10
12.9540998929
 20
10.9140022275
 10
12.8485430515
 20
10.9724163714
 10
12.749155798
 20
11.0247516433
 10
12.6565827263
 20
11.0706686096
 10
12.5714242166
 20
11.1098694742
 10
12.4942325577
 20
11.1421
 10
12.425508379
 20
11.167151151
 10
12.3656974006
 20
11.1848604521
 10
12.3151875235
 20
11.1951130486
 10
12.274306328
 20
11.1978424456
 10
12.2433189527
 20
11.1930309403
 10
12.2224263618
 20
11.1807097381
 10
12.2185365503
 20
11.1761064892
  0
LWPOLYLINE
  5
515
100
AcDbEntity
  8
SMUSSO
100
AcDbPolyline
 62
7
  6
CONTINUOUS
 90
24
 70
0
 10
11.7530133092
 20
12.1266635713
 10
11.6642377353
 20
12.2191124923
 10
11.5650847479
 20
12.3173235882
 10
11.4561082233
 20
12.4207480163
 10
11.3379169177
 20
12.5288078226
 10
11.2111713431
 20
12.6408989193
 10
11.0765801439
 20
12.7563944303
 10
10.9348955222
 20
12.8746487271
 10
10.7869095965
 20
12.9950005428
 10
10.6334503814
 20
13.1167763702
 10
10.4753760057
 20
13.2392951649
 10
10.3135703045
 20
13.3618718087
 10
10.1489385966
 20
13.4838204022
 10
9.9824016164
 20
13.6044588679
 10
9.8148906899
 20
13.7231125028
 10
9.6473430288
 20
13.8391174002
 10
9.4806956973
 20
13.9518247255
 10
9.3158807897
 20
14.0606040422
 10
9.1538205578
 20
14.1648466261
 10
8.9954214412
 20
14.2639694051
 10
8.8415694012
 20
14.3574179435
 10
8.6931253334
 20
14.4446693294
 10
8.550919502
 20
14.5252355564
 10
8.4849995814
 20
14.5610456476
  0
LWPOLYLINE
  5
516
100
AcDbEntity
  8
SMUSSO
100
AcDbPolyline
 62
7
  6
CONTINUOUS
 90
35
 70
0
 10
16.2077860307
 20
9.5545336333
 10
16.1190104568
 20
9.6469825543
 10
16.0198574694
 20
9.7451936503
 10
15.9108809447
 20
9.8486180783
 10
15.7926896392
 20
9.9566778846
 10
15.6659440646
 20
10.0687689813
 10
15.5313528653
 20
10.1842644924
 10
15.3896682436
 20
10.3025187892
 10
15.2416823179
 20
10.4228706048
 10
15.0882231029
 20
10.5446464322
 10
14.9301487272
 20
10.6671652269
 10
14.768343026
 20
10.7897418708
 10
14.603711318
 20
10.9116904642
 10
14.4371743379
 20
11.0323289299
 10
14.2696634114
 20
11.1509825648
 10
14.1021157503
 20
11.2669874622
 10
13.9354684188
 20
11.3796947875
 10
13.7706535112
 20
11.4884741042
 10
13.6085932793
 20
11.5927166882
 10
13.4501941627
 20
11.6918394672
 10
13.2963421226
 20
11.7852880055
 10
13.1478980549
 20
11.8725393915
 10
13.0056922234
 20
11.9531056185
 10
12.8705199979
 20
12.0265360728
 10
12.7431377023
 20
12.0924199037
 10
12.6242577299
 20
12.1503886766
 10
12.5145449271
 20
12.2001182228
 10
12.4146130949
 20
12.2413303694
 10
12.3250210122
 20
12.273794742
 10
12.2462695868
 20
12.297329908
 10
12.1787992303
 20
12.311804351
 10
12.1229870324
 20
12.3171373112
 10
12.0791449054
 20
12.3132991511
 10
12.0475178619
 20
12.300311582
 10
12.0331708364
 20
12.2864130298
  0
LINE
  5
517
100
AcDbEntity
  8
ASSI
100
AcDbLine
 62
7
  6
CONTINUOUS
 10
16.7354684467
 20
6.6015417634
 11
14.1803157844
 21
9.3397524067
  0
LWPOLYLINE
  5
518
100
AcDbEntity
  8
ASSI
100
AcDbPolyline
 62
7
  6
CONTINUOUS
 90
3
 70
0
 10
12.5393483981
 20
12.9879201801
 10
12.5321403999
 20
12.99660128
 10
12.4480868677
 20
13.0899600667
  0
LINE
  5
519
100
AcDbEntity
  8
0
100
AcDbLine
 62
7
  6
CONTINUOUS
 10
6.9803579802
 20
-22.5633977642
 11
7.0154047779
 21
-22.5192364199
  0
LINE
  5
51A
100
AcDbEntity
  8
0
100
AcDbLine
 62
253
  6
CONTINUOUS
 10
4.9599392872
 20
-23.9914488763
 11
4.4075282548
 21
-24.6728463587
  0
LINE
  5
51B
100
AcDbEntity
  8
0
100
AcDbLine
 62
253
  6
CONTINUOUS
 10
5.3828824749
 20
-24.0239551085
 11
4.6716618668
 21
-24.9012437638
  0
LINE
  5
51C
100
AcDbEntity
  8
0
100
AcDbLine
 62
7
  6
CONTINUOUS
 10
7.698881685
 20
-21.6903258254
 11
7.0154047779
 21
-22.5192364199
  0
LWPOLYLINE
  5
51D
100
AcDbEntity
  8
0
100
AcDbPolyline
 62
7
  6
CONTINUOUS
 90
21
 70
0
 10
12.9376331653
 20
-16.0340835795
 10
12.9512107444
 20
-16.0256315702
 10
12.964156892
 20
-16.0169032919
 10
12.9764716083
 20
-16.0078987444
 10
12.9881724047
 20
-15.9986027847
 10
12.9992417696
 20
-15.9890305559
 10
13.0096271686
 20
-15.9792274873
 10
13.0193253505
 20
-15.9691924815
 10
13.0283395663
 20
-15.9589266358
 10
13.0366270353
 20
-15.9484786713
 10
13.0441843028
 20
-15.9378477224
 10
13.0510148233
 20
-15.9270346547
 10
13.0570861797
 20
-15.9160907864
 10
13.0623947633
 20
-15.9050154959
 10
13.0669441827
 20
-15.8938094047
 10
13.0707128467
 20
-15.8825256964
 10
13.0736970439
 20
-15.871164002
 10
13.0759004857
 20
-15.8597246906
 10
13.0773127146
 20
-15.8482620523
 10
13.0779299697
 20
-15.8367759763
 10
13.0779609798
 20
-15.833540061
  0
LINE
  5
51E
100
AcDbEntity
  8
0
100
AcDbLine
 62
7
  6
CONTINUOUS
 10
12.9376331653
 20
-16.0340835795
 11
7.698881685
 21
-19.1663447454
  0
LINE
  5
51F
100
AcDbEntity
  8
0
100
AcDbLine
 62
7
  6
CONTINUOUS
 10
12.6263410678
 20
-15.4531982045
 11
7.698881685
 21
-18.3483454679
  0
LINE
  5
520
100
AcDbEntity
  8
0
100
AcDbLine
 62
7
  6
CONTINUOUS
 10
-7.8306647006
 20
20.9928338508
 11
-7.2029057493
 21
20.9350290834
  0
LINE
  5
521
100
AcDbEntity
  8
0
100
AcDbLine
 62
253
  6
CONTINUOUS
 10
-7.6319961258
 20
21.1391199472
 11
-6.9207755177
 21
21.0736299343
  0
LWPOLYLINE
  5
522
100
AcDbEntity
  8
0
100
AcDbPolyline
 62
253
  6
CONTINUOUS
 90
16
 70
0
 10
-7.2549423717
 20
23.9879015238
 10
-7.261388919
 20
23.9903662541
 10
-7.2680822271
 20
23.9923286825
 10
-7.2750072455
 20
23.9937843962
 10
-7.282148403
 20
23.9947301219
 10
-7.289489642
 20
23.9951637332
 10
-7.2970144552
 20
23.9950842549
 10
-7.3047059225
 20
23.9944918659
 10
-7.312546749
 20
23.9933878981
 10
-7.3205193041
 20
23.991774834
 10
-7.3286056608
 20
23.9896563005
 10
-7.3367876364
 20
23.9870370614
 10
-7.3450468331
 20
23.9839230062
 10
-7.3533646795
 20
23.9803211372
 10
-7.3617224722
 20
23.9762395533
 10
-7.3701014181
 20
23.9716874325
  0
LWPOLYLINE
  5
523
100
AcDbEntity
  8
ASSI
100
AcDbPolyline
 62
7
  6
CONTINUOUS
 90
33
 70
0
 10
16.9028595891
 20
10.5178301287
 10
16.8055196649
 20
10.6188603116
 10
16.6977115668
 20
10.7250827895
 10
16.5794352949
 20
10.8364975622
 10
16.4497919013
 20
10.9538911339
 10
16.3096803338
 20
11.0764770005
 10
16.1617974364
 20
11.20189565
 10
16.0059926618
 20
11.3302019593
 10
15.8424165572
 20
11.4613410515
 10
15.6742176078
 20
11.5927887834
 10
15.5013062594
 20
11.724551134
 10
15.3237720663
 20
11.8566221243
 10
15.1450321766
 20
11.9864596742
 10
14.9650632334
 20
12.1140205173
 10
14.7838885937
 20
12.2393479199
 10
14.6049954764
 20
12.3600296014
 10
14.4284280793
 20
12.4759755643
 10
14.2541422046
 20
12.5872758061
 10
14.0854924773
 20
12.6917880385
 10
13.9225880816
 20
12.7893807634
 10
13.7653198334
 20
12.8801854789
 10
13.6167148054
 20
12.9624543911
 10
13.4769408224
 20
13.0360221435
 10
13.3458300596
 20
13.1010540927
 10
13.2259061149
 20
13.1562985147
 10
13.1173857005
 20
13.2015658042
 10
13.0200521042
 20
13.2370455666
 10
12.9357787864
 20
13.2620548932
 10
12.8648187527
 20
13.2763909497
 10
12.8069189976
 20
13.2802565704
 10
12.7631939658
 20
13.2735773506
 10
12.7339182519
 20
13.2561490143
 10
12.7284136048
 20
13.2495874449
  0
LWPOLYLINE
  5
524
100
AcDbEntity
  8
0
100
AcDbPolyline
 62
7
  6
CONTINUOUS
 90
4
 70
0
 10
6.8235321975
 20
-24.0548013049
 10
6.8021675994
 20
-24.0797384379
 10
6.7776262739
 20
-24.1017328752
 10
6.7505931626
 20
-24.1201972351
  0
LWPOLYLINE
  5
525
100
AcDbEntity
  8
0
100
AcDbPolyline
 62
253
  6
CONTINUOUS
 90
37
 70
0
 10
1.9907437608
 20
-24.9657260234
 10
1.9750776194
 20
-24.9767140523
 10
1.9587939333
 20
-24.9872949494
 10
1.9419230222
 20
-24.9974490136
 10
1.924496299
 20
-25.0071573384
 10
1.9065462118
 20
-25.0164018471
 10
1.8881061831
 20
-25.0251653268
 10
1.8692105476
 20
-25.0334314603
 10
1.8498944883
 20
-25.0411848561
 10
1.8301939711
 20
-25.0484110779
 10
1.8101456778
 20
-25.0550966707
 10
1.7897869375
 20
-25.061229186
 10
1.7691556576
 20
-25.0667972055
 10
1.7482902529
 20
-25.0717903617
 10
1.727229574
 20
-25.0761993574
 10
1.7060128352
 20
-25.0800159835
 10
1.6846795413
 20
-25.0832331334
 10
1.6632694141
 20
-25.085844817
 10
1.6418223186
 20
-25.0878461715
 10
1.6203781885
 20
-25.0892334705
 10
1.598976952
 20
-25.0900041308
 10
1.5776584574
 20
-25.0901567176
 10
1.5564623989
 20
-25.0896909469
 10
1.5354282429
 20
-25.0886076859
 10
1.5145951541
 20
-25.0869089516
 10
1.494001923
 20
-25.084597907
 10
1.4736868933
 20
-25.0816788553
 10
1.4536878909
 20
-25.0781572317
 10
1.4340421532
 20
-25.0740395933
 10
1.4147862597
 20
-25.0693336069
 10
1.3959560642
 20
-25.0640480351
 10
1.3775866277
 20
-25.0581927194
 10
1.3597121534
 20
-25.0517785621
 10
1.342365923
 20
-25.0448175061
 10
1.3255802342
 20
-25.0373225127
 10
1.3093863416
 20
-25.0293075373
 10
1.2938143976
 20
-25.0207875035
  0
LINE
  5
526
100
AcDbEntity
  8
DRAFT
100
AcDbLine
 62
7
  6
CONTINUOUS
 10
12.9376331653
 20
-16.4861920969
 11
7.698881685
 21
-19.5869727804
  0
LINE
  5
527
100
AcDbEntity
  8
0
100
AcDbLine
 62
7
  6
CONTINUOUS
 10
3.7112859363
 20
22.4567712809
 11
5.4597698593
 21
22.7315007353
  0
LWPOLYLINE
  5
528
100
AcDbEntity
  8
0
100
AcDbPolyline
 62
7
  6
CONTINUOUS
 90
13
 70
0
 10
7.0181142709
 20
20.8554073851
 10
7.0321781009
 20
20.8544493016
 10
7.0465873669
 20
20.8527970347
 10
7.0614119524
 20
20.8504032228
 10
7.0766587563
 20
20.8472518325
 10
7.0922994176
 20
20.8433255242
 10
7.1083534953
 20
20.8385679087
 10
7.1248117037
 20
20.8329579242
 10
7.1416526638
 20
20.826479161
 10
7.1588763161
 20
20.8190788963
 10
7.1764648411
 20
20.8107330033
 10
7.194392677
 20
20.8014260367
 10
7.2085107482
 20
20.7935258063
  0
LWPOLYLINE
  5
529
100
AcDbEntity
  8
0
100
AcDbPolyline
 62
7
  6
CONTINUOUS
 90
15
 70
0
 10
7.6801798352
 20
20.5211900001
 10
7.6794738481
 20
20.5213968798
 10
7.6778657006
 20
20.5213532635
 10
7.6755886729
 20
20.5209332171
 10
7.6726766658
 20
20.5201468882
 10
7.6691631341
 20
20.5190091562
 10
7.665077425
 20
20.517555123
 10
7.6604528041
 20
20.5157936813
 10
7.655320146
 20
20.5137336932
 10
7.6497000552
 20
20.5114092739
 10
7.6436280461
 20
20.5088330518
 10
7.6371264695
 20
20.5060047099
 10
7.6301847273
 20
20.5029402103
 10
7.6228187626
 20
20.4996495272
 10
7.6068733808
 20
20.4924039184
  0
LINE
  5
52A
100
AcDbEntity
  8
0
100
AcDbLine
 62
7
  6
CONTINUOUS
 10
3.7112859363
 20
22.4567712809
 11
6.7111953226
 21
20.7246611989
  0
LINE
  5
52B
100
AcDbEntity
  8
0
100
AcDbLine
 62
253
  6
CONTINUOUS
 10
1.2854070583
 20
24.0466948215
 11
1.926292832
 21
23.6766554079
  0
LINE
  5
52C
100
AcDbEntity
  8
0
100
AcDbLine
 62
253
  6
CONTINUOUS
 10
6.8760403003
 20
20.8187332546
 11
7.516926074
 21
20.4486938411
  0
LINE
  5
52D
100
AcDbEntity
  8
0
100
AcDbLine
 62
7
  6
CONTINUOUS
 10
1.6180637178
 20
24.0213791426
 11
2.0897332043
 21
23.7490430926
  0
LINE
  5
52E
100
AcDbEntity
  8
0
100
AcDbLine
 62
7
  6
CONTINUOUS
 10
7.2085103308
 20
20.793525333
 11
7.6801798173
 21
20.521189283
  0
LINE
  5
52F
100
AcDbEntity
  8
0
100
AcDbLine
 62
7
  6
CONTINUOUS
 10
5.4597698593
 20
22.7315007353
 11
8.6141796521
 21
20.9101840549
  0
LINE
  5
530
100
AcDbEntity
  8
DRAFT
100
AcDbLine
 62
253
  6
CONTINUOUS
 10
1.7936164346
 20
25.290566924
 11
4.7567768354
 21
23.5796752457
  0
LINE
  5
531
100
AcDbEntity
  8
DRAFT
100
AcDbLine
 62
253
  6
CONTINUOUS
 10
8.9994175225
 20
21.1300276858
 11
11.9625779232
 21
19.4191360075
  0
LINE
  5
532
100
AcDbEntity
  8
0
100
AcDbLine
 62
253
  6
CONTINUOUS
 10
6.9803579802
 20
-22.8083526644
 11
7.681293934
 21
-22.3917650275
  0
LINE
  5
533
100
AcDbEntity
  8
0
100
AcDbLine
 62
7
  6
CONTINUOUS
 10
6.8786417705
 20
-23.0361461517
 11
7.5795714799
 21
-22.6195622261
  0
LINE
  5
534
100
AcDbEntity
  8
0
100
AcDbLine
 62
253
  6
CONTINUOUS
 10
6.2729426576
 20
-24.3185947107
 11
6.8012098294
 21
-24.0064405765
  0
LINE
  5
535
100
AcDbEntity
  8
0
100
AcDbLine
 62
7
  6
CONTINUOUS
 10
6.2218982474
 20
-24.4326041239
 11
6.750588885
 21
-24.1201997629
  0
LINE
  5
536
100
AcDbEntity
  8
0
100
AcDbLine
 62
7
  6
CONTINUOUS
 10
6.2218982614
 20
-24.4326041157
 11
6.2204440183
 21
-24.4334437774
  0
LWPOLYLINE
  5
537
100
AcDbEntity
  8
0
100
AcDbPolyline
 62
7
  6
CONTINUOUS
 90
3
 70
0
 10
6.8781967666
 20
-23.0353971139
 10
6.8708419608
 20
-23.0395565779
 10
6.8668042267
 20
-23.0416367847
  0
LINE
  5
538
100
AcDbEntity
  8
0
100
AcDbLine
 62
253
  6
CONTINUOUS
 10
4.6716618668
 20
-25.2217639366
 11
6.2729426576
 21
-24.3185947107
  0
LINE
  5
539
100
AcDbEntity
  8
0
100
AcDbLine
 62
7
  6
CONTINUOUS
 10
4.6187347908
 20
-25.3368546545
 11
6.2204440044
 21
-24.4334437857
  0
LINE
  5
53A
100
AcDbEntity
  8
0
100
AcDbLine
 62
253
  6
CONTINUOUS
 10
2.3275512485
 20
-25.1247259835
 11
6.9794487438
 21
-22.8076093393
  0
LINE
  5
53B
100
AcDbEntity
  8
0
100
AcDbLine
 62
7
  6
CONTINUOUS
 10
2.2031506433
 20
-25.364609153
 11
6.8668042267
 21
-23.0416367847
  0
LWPOLYLINE
  5
53C
100
AcDbEntity
  8
0
100
AcDbPolyline
 62
7
  6
CONTINUOUS
 90
9
 70
0
 10
4.6187347908
 20
-25.3368546545
 10
4.5901914672
 20
-25.3506455528
 10
4.5597001371
 20
-25.360829096
 10
4.5278159942
 20
-25.3670597135
 10
4.4951248879
 20
-25.3691019163
 10
4.4623390762
 20
-25.3668380221
 10
4.4301677127
 20
-25.3603024686
 10
4.3989335846
 20
-25.3495250933
 10
4.3708717014
 20
-25.3355836194
  0
LWPOLYLINE
  5
53D
100
AcDbEntity
  8
0
100
AcDbPolyline
 62
7
  6
CONTINUOUS
 90
14
 70
0
 10
1.4157611571
 20
24.0835440849
 10
1.429462012
 20
24.0831761481
 10
1.4435131682
 20
24.0821342523
 10
1.4579110949
 20
24.0804013649
 10
1.4727225028
 20
24.0779295108
 10
1.4879540836
 20
24.0747022854
 10
1.5035777874
 20
24.0707027651
 10
1.5196104519
 20
24.0658755171
 10
1.5360422342
 20
24.0601996306
 10
1.5528522609
 20
24.053658967
 10
1.5700392249
 20
24.0462022106
 10
1.5875849152
 20
24.037805692
 10
1.6054642313
 20
24.0284541405
 10
1.6180641537
 20
24.021379637
  0
LWPOLYLINE
  5
53E
100
AcDbEntity
  8
0
100
AcDbPolyline
 62
7
  6
CONTINUOUS
 90
13
 70
0
 10
2.0897332214
 20
23.7490437817
 10
2.0889182601
 20
23.7492626461
 10
2.0872438361
 20
23.7491845937
 10
2.0848978855
 20
23.7487288868
 10
2.0819149448
 20
23.7479057556
 10
2.0783289389
 20
23.746730036
 10
2.0741693045
 20
23.7452374523
 10
2.0694698178
 20
23.743437147
 10
2.0642615622
 20
23.7413377041
 10
2.058564311
 20
23.7389731381
 10
2.0524138328
 20
23.736356559
 10
2.0458323172
 20
23.7334872237
 10
2.0313525415
 20
23.7270441624
  0
LWPOLYLINE
  5
53F
100
AcDbEntity
  8
0
100
AcDbPolyline
 62
7
  6
CONTINUOUS
 90
24
 70
0
 10
5.2526841641
 20
23.6268496848
 10
5.2453507557
 20
23.6309626611
 10
5.227415223
 20
23.6400409832
 10
5.2089273001
 20
23.6480420463
 10
5.1898757885
 20
23.6549759895
 10
5.170309133
 20
23.6608253173
 10
5.1502116834
 20
23.6655899512
 10
5.1295990899
 20
23.6692699697
 10
5.1085667475
 20
23.6718481125
 10
5.0871266556
 20
23.6733188562
 10
5.0652668147
 20
23.6736877243
 10
5.0430466212
 20
23.6729540267
 10
5.0204523541
 20
23.6711133629
 10
4.9974977344
 20
23.6681701334
 10
4.9742833205
 20
23.6641368504
 10
4.9508187223
 20
23.6590112889
 10
4.9270943299
 20
23.6527956738
 10
4.9031818725
 20
23.6455091922
 10
4.8790728297
 20
23.6371458408
 10
4.8547757219
 20
23.6277116229
 10
4.8303878396
 20
23.6172437348
 10
4.8059416128
 20
23.6057545753
 10
4.7814046114
 20
23.5932317456
 10
4.7567768354
 20
23.5796752457
  0
LINE
  5
540
100
AcDbEntity
  8
0
100
AcDbLine
 62
7
  6
CONTINUOUS
 10
2.0885282165
 20
25.4538007717
 11
5.2526872382
 21
23.6268550087
  0
LINE
  5
541
100
AcDbEntity
  8
0
100
AcDbLine
 62
7
  6
CONTINUOUS
 10
9.4953279253
 20
21.1772074488
 11
12.6594869471
 21
19.3502616858
  0
LWPOLYLINE
  5
542
100
AcDbEntity
  8
0
100
AcDbPolyline
 62
7
  6
CONTINUOUS
 90
3
 70
0
 10
-7.4027109527
 20
24.0149767325
 10
-7.4350362805
 20
24.0086734671
 10
-7.4664540861
 20
23.9980925588
  0
ARC
  5
543
100
AcDbEntity
  8
0
100
AcDbCircle
 62
7
  6
CONTINUOUS
 10
-5.6802503063
 20
22.7906868485
 40
0.25
100
AcDbArc
 50
0.0007993011
 51
59.999200789
  0
ELLIPSE
  5
544
100
AcDbEntity
  8
RACCORDO
100
AcDbEllipse
 62
7
  6
CONTINUOUS
 10
-10.6651846054
 20
19.6008268642
 30
0.0
 11
-0.0499260605
 21
0.0866804662
 31
0.0
 40
0.5778584463
 41
-0.7846820092
 42
0.0175093263
  0
ELLIPSE
  5
545
100
AcDbEntity
  8
RACCORDO
100
AcDbEllipse
 62
7
  6
CONTINUOUS
 10
2.4928412319
 20
12.0035476545
 30
0.0
 11
-0.0499720045
 21
0.08675949
 31
0.0
 40
0.5768037941
 41
-2.355482613
 42
-0.7837728977
  0
ELLIPSE
  5
546
100
AcDbEntity
  8
0
100
AcDbEllipse
 62
7
  6
CONTINUOUS
 10
1.283338213
 20
23.6372858851
 30
0.0
 11
0.2522054935
 21
0.4317367776
 31
0.0
 40
0.580680601
 41
0.689040114
 42
0.7825716451
  0
ELLIPSE
  5
547
100
AcDbEntity
  8
0
100
AcDbEllipse
 62
7
  6
CONTINUOUS
 10
-1.0456125276
 20
19.9502439225
 30
0.0
 11
-0.1000031398
 21
0.1732052219
 31
0.0
 40
0.5773316701
 41
-2.3562258892
 42
-0.7854295624
  0
ELLIPSE
  5
548
100
AcDbEntity
  8
0
100
AcDbEllipse
 62
7
  6
CONTINUOUS
 10
0.6514437472
 20
18.9703848985
 30
0.0
 11
-0.1000031398
 21
0.1732052219
 31
0.0
 40
0.5773316701
 41
-0.7854295624
 42
-0.0029086502
  0
ELLIPSE
  5
549
100
AcDbEntity
  8
DRAFT
100
AcDbEllipse
 62
7
  6
CONTINUOUS
 10
1.0823570921
 20
24.8800322309
 30
0.0
 11
1.0061852078
 21
0.5737549327
 31
0.0
 40
0.0052693892
 41
0.003079628
 42
0.7827085602
  0
ELLIPSE
  5
54A
100
AcDbEntity
  8
RACCORDO
100
AcDbEllipse
 62
7
  6
CONTINUOUS
 10
-5.8892915854
 20
20.9555869306
 30
0.0
 11
-0.0998556708
 21
0.1734136355
 31
0.0
 40
0.5775064956
 41
0.7868572898
 42
2.3573491378
  0
ELLIPSE
  5
54B
100
AcDbEntity
  8
RACCORDO
100
AcDbEllipse
 62
7
  6
CONTINUOUS
 10
6.4143664072
 20
13.8516090067
 30
0.0
 11
-0.0998556708
 21
0.1734136355
 31
0.0
 40
0.5775064956
 41
0.7868572898
 42
2.3573491378
  0
ELLIPSE
  5
54C
100
AcDbEntity
  8
0
100
AcDbEllipse
 62
7
  6
CONTINUOUS
 10
7.3277270806
 20
-22.1875992317
 30
0.0
 11
-0.2500332324
 21
0.4330240487
 31
0.0
 40
0.5773023583
 41
-3.1343210675
 42
-2.3562893423
  0
ELLIPSE
  5
54D
100
AcDbEntity
  8
0
100
AcDbEllipse
 62
7
  6
CONTINUOUS
 10
7.3277270806
 20
13.5642849041
 30
0.0
 11
-0.2500205442
 21
0.4330020622
 31
0.0
 40
0.577360979
 41
-2.3562385877
 42
-0.7854930296
  0
ELLIPSE
  5
54E
100
AcDbEntity
  8
0
100
AcDbEllipse
 62
7
  6
CONTINUOUS
 10
7.9520817348
 20
-13.3217665775
 30
0.0
 11
0.7307083665
 21
1.3101153486
 31
0.0
 40
0.5671693725
 41
-2.347120172
 42
-0.1829118995
  0
ELLIPSE
  5
54F
100
AcDbEntity
  8
0
100
AcDbEllipse
 62
7
  6
CONTINUOUS
 10
7.3662225379
 20
-14.8810940436
 30
0.0
 11
-0.2499739954
 21
0.4330387087
 31
0.0
 40
0.577419602
 41
-2.3560524088
 42
-2.0135755186
  0
ELLIPSE
  5
550
100
AcDbEntity
  8
DRAFT
100
AcDbEllipse
 62
7
  6
CONTINUOUS
 10
12.5779632652
 20
-16.693909471
 30
0.0
 11
0.4999975532
 21
0.2922382515
 31
0.0
 40
0.0053525714
 41
-0.7710733282
 42
-0.0031285684
  0
ELLIPSE
  5
551
100
AcDbEntity
  8
0
100
AcDbEllipse
 62
7
  6
CONTINUOUS
 10
-1.9648513432
 20
18.268344594
 30
0.0
 11
0.1999154856
 21
0.0095814127
 31
0.0
 40
0.6067642562
 41
-2.385266879
 42
-0.8144705522
  0
ELLIPSE
  5
552
100
AcDbEntity
  8
0
100
AcDbEllipse
 62
7
  6
CONTINUOUS
 10
-0.2677950683
 20
17.28848557
 30
0.0
 11
0.1999154856
 21
0.0095814127
 31
0.0
 40
0.6067642562
 41
3.1125202648
 42
3.8979184282
  0
ELLIPSE
  5
553
100
AcDbEntity
  8
DRAFT
100
AcDbEllipse
 62
7
  6
CONTINUOUS
 10
12.6656097512
 20
18.1920073177
 30
0.0
 11
-0.7006352283
 21
1.22850495
 31
0.0
 40
0.5737642108
 41
5.0913839874
 42
6.2865911274
  0
ELLIPSE
  5
554
100
AcDbEntity
  8
0
100
AcDbEllipse
 62
7
  6
CONTINUOUS
 10
7.2275368122
 20
19.3451896024
 30
0.0
 11
0.4530408369
 21
-0.002269484
 31
0.0
 40
0.5740189913
 41
-0.7767048895
 42
0.0028755094
  0
ELLIPSE
  5
555
100
AcDbEntity
  8
0
100
AcDbEllipse
 62
7
  6
CONTINUOUS
 10
1.6370901992
 20
22.573043412
 30
0.0
 11
0.4530408369
 21
-0.002269484
 31
0.0
 40
0.5740189913
 41
-0.7825226537
 42
0.0028755093
  0
ELLIPSE
  5
556
100
AcDbEntity
  8
RACCORDO
100
AcDbEllipse
 62
7
  6
CONTINUOUS
 10
2.7431634057
 20
11.777255693
 30
0.0
 11
-0.0999440089
 21
0.17351898
 31
0.0
 40
0.5768037941
 41
-0.7837728977
 42
0.034893124
  0
ELLIPSE
  5
557
100
AcDbEntity
  8
RACCORDO
100
AcDbEllipse
 62
7
  6
CONTINUOUS
 10
-10.9155067792
 20
19.6636006744
 30
0.0
 11
-0.099852121
 21
0.1733609324
 31
0.0
 40
0.5778584463
 41
-1.992275079
 42
-0.7846820092
  0
ELLIPSE
  5
558
100
AcDbEntity
  8
0
100
AcDbEllipse
 62
7
  6
CONTINUOUS
 10
7.9405248277
 20
-13.309280227
 30
0.0
 11
0.1461416733
 21
0.2620230697
 31
0.0
 40
0.5671693725
 41
-0.7937771377
 42
-0.1829118995
  0
ELLIPSE
  5
559
100
AcDbEntity
  8
0
100
AcDbEllipse
 62
7
  6
CONTINUOUS
 10
7.9405248277
 20
-13.3390388669
 30
0.0
 11
0.1461416733
 21
0.2620230697
 31
0.0
 40
0.5671693725
 41
-2.347120172
 42
-0.7937771377
  0
ELLIPSE
  5
55A
100
AcDbEntity
  8
0
100
AcDbEllipse
 62
7
  6
CONTINUOUS
 10
56.6178350914
 20
48.4723872831
 30
0.0
 11
60.4168506882
 21
35.2934066151
 31
0.0
 40
0.0050378458
 41
2.5166802681
 42
2.6876229173
  0
ELLIPSE
  5
55B
100
AcDbEntity
  8
0
100
AcDbEllipse
 62
7
  6
CONTINUOUS
 10
7.5148811619
 20
20.039271086
 30
0.0
 11
0.247841934
 21
0.4342563559
 31
0.0
 40
0.5739631936
 41
0.6832219561
 42
0.7767534872
  0
ELLIPSE
  5
55C
100
AcDbEntity
  8
0
100
AcDbEllipse
 62
7
  6
CONTINUOUS
 10
56.6178350914
 20
48.4723872831
 30
0.0
 11
60.4168506882
 21
35.2934066151
 31
0.0
 40
0.0050378458
 41
-2.6935087662
 42
-2.5225661169
  0
ELLIPSE
  5
55D
100
AcDbEntity
  8
DRAFT
100
AcDbEllipse
 62
7
  6
CONTINUOUS
 10
12.5779632652
 20
19.1552869191
 30
0.0
 11
-0.3567823072
 21
0.610519958
 31
0.0
 40
0.573764555
 41
-3.1333143349
 42
-2.1059759599
  0
ENDSEC
  0
SECTION
  2
OBJECTS
  0
DICTIONARY
  5
C
100
AcDbDictionary
280
0
281
1
  3
ACAD_GROUP
350
D
  3
ACAD_MLINESTYLE
350
17
  3
ACAD_LAYOUT
350
1A
  3
ACAD_PLOTSETTINGS
350
19
  3
ACAD_PLOTSTYLENAME
350
E
  0
DICTIONARY
  5
D
102
{ACAD_REACTORS
330
C
102
}
100
AcDbDictionary
280
0
281
1
  0
ACDBDICTIONARYWDFLT
  5
E
102
{ACAD_REACTORS
330
C
102
}
100
AcDbDictionary
281
1
  3
Normal
350
F
100
AcDbDictionaryWithDefault
340
F
  0
DICTIONARY
  5
17
102
{ACAD_REACTORS
330
C
102
}
100
AcDbDictionary
280
0
281
1
  3
Standard
350
18
  0
DICTIONARY
  5
19
102
{ACAD_REACTORS
330
C
102
}
100
AcDbDictionary
281
1
  0
DICTIONARY
  5
1A
102
{ACAD_REACTORS
330
C
102
}
100
AcDbDictionary
281
1
  3
Model
350
55E
  3
Layout1
350
55F
  0
ACDBPLACEHOLDER
  5
F
102
{ACAD_REACTORS
330
E
102
}
  0
MLINESTYLE
  5
18
102
{ACAD_REACTORS
330
17
102
}
100
AcDbMlineStyle
  2
STANDARD
 70
0
  3

 62
256
 51
90.0
 52
90.0
 71
2
 49
0.5
 62
256
  6
BYLAYER
 49
-0.5
 62
256
  6
BYLAYER
  0
LAYOUT
  5
55E
102
{ACAD_REACTORS
330
1A
102
}
100
AcDbPlotSettings
  1

  2
none_device
  4
ANSI_C_(22.00_x_17.00_Inches)
  6

 40
0.0
 41
0.0
 42
0.0
 43
0.0
 44
558.8
 45
431.8
 46
0.0
 47
0.0
 48
0.0
 49
0.0
140
0.0
141
0.0
142
1.0
143
1.0
 70
1024
 72
1
 73
0
 74
0
  7

 75
0
147
1.0
148
0.0
149
0.0
100
AcDbLayout
  1
Model
 70
0
 71
0
 10
0.0
 20
0.0
 11
558.8
 21
431.8
 12
0.0
 22
0.0
 32
0.0
 14
0.0
 24
0.0
 34
0.0
 15
0.0
 25
0.0
 35
0.0
146
0.0
 13
0.0
 23
0.0
 33
0.0
 16
1.0
 26
0.0
 36
0.0
 17
0.0
 27
1.0
 37
0.0
 76
0
330
212
345
0
346
0
  0
LAYOUT
  5
55F
102
{ACAD_REACTORS
330
1A
102
}
100
AcDbPlotSettings
  1

  2
none_device
  4
ANSI_C_(22.00_x_17.00_Inches)
  6

 40
0.0
 41
0.0
 42
0.0
 43
0.0
 44
558.8
 45
431.8
 46
0.0
 47
0.0
 48
0.0
 49
0.0
140
0.0
141
0.0
142
1.0
143
1.0
 70
0
 72
1
 73
0
 74
0
  7

 75
0
147
1.0
148
0.0
149
0.0
100
AcDbLayout
  1
Layout1
 70
0
 71
1
 10
0.0
 20
0.0
 11
558.8
 21
431.8
 12
0.0
 22
0.0
 32
0.0
 14
0.0
 24
0.0
 34
0.0
 15
0.0
 25
0.0
 35
0.0
146
0.0
 13
0.0
 23
0.0
 33
0.0
 16
1.0
 26
0.0
 36
0.0
 17
0.0
 27
1.0
 37
0.0
 76
0
330
213
345
0
346
0
  0
ENDSEC
  0
EOF
