  0
SECTION
  2
HEADER
  9
$ACADVER
  1
AC1015
  9
$DWGCODEPAGE
  3
ANSI_1252
  9
$EXTMAX
 10
297.0
 20
210.0
 30
0.0
  9
$EXTMIN
 10
0.0
 20
0.0
 30
0.0
  9
$LIMMIN
 10
0.0
 20
0.0
  9
$LIMMAX
 10
297.0
 20
210.0
  9
$VIEWCTR
 10
148.5
 20
105.0
  9
$VIEWSIZE
 40
210.0
  9
$CLAYER
  8
0
  9
$LTSCALE
 40
16.335
  9
$CELTYPE
  6
BYLAYER
  9
$DIMSCALE
 40
1.0
  9
$DIMASZ
 40
3.0
  9
$DIMEXO
 40
0.5
  9
$DIMDLI
 40
11.286
  9
$DIMEXE
 40
1.5
  9
$DIMCEN
 40
2.673
  9
$DIMLFAC
 40
1.0
  9
$DIMBLK
  1
_FILLED
  9
$DIMALT
 70
0
  9
$DIMALTF
 40
0.0393700787
  9
$DIMTXT
 40
3.0
  9
$DIMTOL
 70
1
  9
$DIMLIM
 70
0
  9
$DIMTFAC
 40
1.0
  9
$DIMTP
 40
0.01
  9
$DIMTM
 40
0.01
  9
$DIMGAP
 40
0.625
  9
$DIMDSEP
 70
44
  9
$AUNITS
 70
0
  9
$PDMODE
 70
3
  9
$PDSIZE
 40
3.0
  9
$HANDSEED
  5
4F3
  9
$TILEMODE
 70
1
  9
$MEASUREMENT
 70
1
  9
$INSUNITS
 70
4
  0
ENDSEC
  0
SECTION
  2
CLASSES
  0
CLASS
  1
ACDBDICTIONARYWDFLT
  2
AcDbDictionaryWithDefault
  3
AutoCAD 2000
 90
0
280
0
281
0
  0
CLASS
  1
ACDBPLACEHOLDER
  2
AcDbPlaceHolder
  3
AutoCAD 2000
 90
0
280
0
281
0
  0
CLASS
  1
LAYOUT
  2
AcDbLayout
  3
AutoCAD 2000
 90
0
280
0
281
0
  0
ENDSEC
  0
SECTION
  2
TABLES
  0
TABLE
  2
VPORT
  5
8
100
AcDbSymbolTable
 70
2
  0
VPORT
  5
1F4
100
AcDbSymbolTableRecord
100
AcDbViewportTableRecord
  2
*ACTIVE
 70
0
 10
0.0
 20
0.0
 11
1.0
 21
1.0
 12
148.5
 22
105.0
 13
0.0
 23
0.0
 14
1.0
 24
1.0
 15
0.0
 25
0.0
 16
0.0
 26
0.0
 36
1.0
 17
0.0
 27
0.0
 37
0.0
 40
210.0
 41
1.4142857143
 42
50.0
 43
0.0
 44
0.0
 50
0.0
 51
0.0
 71
0
 72
100
 73
1
 74
1
 75
0
 76
0
 77
0
 78
0
  0
ENDTAB
  0
TABLE
  2
LTYPE
  5
5
100
AcDbSymbolTable
 70
6
  0
LTYPE
  5
14
100
AcDbSymbolTableRecord
100
AcDbLinetypeTableRecord
  2
BYBLOCK
 70
0
  3

 72
65
 73
0
 40
0.0
  0
LTYPE
  5
15
100
AcDbSymbolTableRecord
100
AcDbLinetypeTableRecord
  2
BYLAYER
 70
0
  3

 72
65
 73
0
 40
0.0
  0
LTYPE
  5
16
100
AcDbSymbolTableRecord
100
AcDbLinetypeTableRecord
  2
CONTINUOUS
 70
64
  3
Solid line
 72
65
 73
0
 40
0.0
  0
LTYPE
  5
1F5
100
AcDbSymbolTableRecord
100
AcDbLinetypeTableRecord
  2
CENTER
 70
64
  3
____ _ ____ _ ____ _ ____ _ ____ _ ____ _ ____
 72
65
 73
4
 40
0.6
 49
0.375
 74
0
 49
-0.075
 74
0
 49
0.075
 74
0
 49
-0.075
 74
0
  0
LTYPE
  5
1F6
100
AcDbSymbolTableRecord
100
AcDbLinetypeTableRecord
  2
HIDDEN
 70
64
  3
- - - - - - - - - - - - - - - - - - - -
 72
65
 73
2
 40
0.2
 49
0.1
 74
0
 49
-0.1
 74
0
  0
LTYPE
  5
1F7
100
AcDbSymbolTableRecord
100
AcDbLinetypeTableRecord
  2
PHANTOM
 70
64
  3
_____ _ _ _____ _ _ _____ _ _ _____
 72
65
 73
6
 40
0.8
 49
0.45
 74
0
 49
-0.05
 74
0
 49
0.1
 74
0
 49
-0.05
 74
0
 49
0.1
 74
0
 49
-0.05
 74
0
  0
LTYPE
  5
1F8
100
AcDbSymbolTableRecord
100
AcDbLinetypeTableRecord
  2
DOT
 70
64
  3
. . . . . . . . . . . . . . . . . . . .
 72
65
 73
2
 40
0.2
 49
0.1
 74
0
 49
-0.1
 74
0
  0
LTYPE
  5
1F9
100
AcDbSymbolTableRecord
100
AcDbLinetypeTableRecord
  2
DASHED
 70
64
  3
- - - - - - - - - - - - - - - - - - - -
 72
65
 73
2
 40
0.2
 49
0.1
 74
0
 49
-0.1
 74
0
  0
ENDTAB
  0
TABLE
  2
LAYER
  5
2
100
AcDbSymbolTable
 70
36
  0
LAYER
  5
10
100
AcDbSymbolTableRecord
100
AcDbLayerTableRecord
  2
0
 70
0
 62
7
  6
CONTINUOUS
370
-3
390
F
  0
LAYER
  5
1FA
100
AcDbSymbolTableRecord
100
AcDbLayerTableRecord
  2
DEFAULT_1
 70
0
 62
7
  6
CENTER
370
-3
390
F
  0
LAYER
  5
1FB
100
AcDbSymbolTableRecord
100
AcDbLayerTableRecord
  2
DEFAULT_2
 70
0
 62
7
  6
HIDDEN
370
-3
390
F
  0
LAYER
  5
1FC
100
AcDbSymbolTableRecord
100
AcDbLayerTableRecord
  2
DEFAULT_3
 70
0
 62
7
  6
PHANTOM
370
-3
390
F
  0
LAYER
  5
1FD
100
AcDbSymbolTableRecord
100
AcDbLayerTableRecord
  2
ASSI
 70
0
 62
7
  6
CONTINUOUS
370
-3
390
F
  0
LAYER
  5
1FE
100
AcDbSymbolTableRecord
100
AcDbLayerTableRecord
  2
COORDINATE
 70
0
 62
7
  6
CONTINUOUS
370
-3
390
F
  0
LAYER
  5
1FF
100
AcDbSymbolTableRecord
100
AcDbLayerTableRecord
  2
COORD_ORIGINE
 70
0
 62
7
  6
CONTINUOUS
370
-3
390
F
  0
LAYER
  5
200
100
AcDbSymbolTableRecord
100
AcDbLayerTableRecord
  2
COPY_ESTETICA
 70
0
 62
7
  6
CONTINUOUS
370
-3
390
F
  0
LAYER
  5
201
100
AcDbSymbolTableRecord
100
AcDbLayerTableRecord
  2
COPY_GEOM
 70
0
 62
7
  6
CONTINUOUS
370
-3
390
F
  0
LAYER
  5
202
100
AcDbSymbolTableRecord
100
AcDbLayerTableRecord
  2
COSMETICHE
 70
0
 62
7
  6
CONTINUOUS
370
-3
390
F
  0
LAYER
  5
203
100
AcDbSymbolTableRecord
100
AcDbLayerTableRecord
  2
COSMETICI
 70
0
 62
7
  6
CONTINUOUS
370
-3
390
F
  0
LAYER
  5
204
100
AcDbSymbolTableRecord
100
AcDbLayerTableRecord
  2
CURVE
 70
0
 62
7
  6
CONTINUOUS
370
-3
390
F
  0
LAYER
  5
205
100
AcDbSymbolTableRecord
100
AcDbLayerTableRecord
  2
DRAFT
 70
0
 62
7
  6
CONTINUOUS
370
-3
390
F
  0
LAYER
  5
206
100
AcDbSymbolTableRecord
100
AcDbLayerTableRecord
  2
IMPORT
 70
0
 62
7
  6
CONTINUOUS
370
-3
390
F
  0
LAYER
  5
207
100
AcDbSymbolTableRecord
100
AcDbLayerTableRecord
  2
NOTE
 70
0
 62
7
  6
CONTINUOUS
370
-3
390
F
  0
LAYER
  5
208
100
AcDbSymbolTableRecord
100
AcDbLayerTableRecord
  2
PIANI
 70
0
 62
7
  6
CONTINUOUS
370
-3
390
F
  0
LAYER
  5
209
100
AcDbSymbolTableRecord
100
AcDbLayerTableRecord
  2
PIANI_ORIGINE
 70
0
 62
7
  6
CONTINUOUS
370
-3
390
F
  0
LAYER
  5
20A
100
AcDbSymbolTableRecord
100
AcDbLayerTableRecord
  2
PIANI_SFORMI
 70
0
 62
7
  6
CONTINUOUS
370
-3
390
F
  0
LAYER
  5
20B
100
AcDbSymbolTableRecord
100
AcDbLayerTableRecord
  2
PIANI_SFORMO
 70
0
 62
7
  6
CONTINUOUS
370
-3
390
F
  0
LAYER
  5
20C
100
AcDbSymbolTableRecord
100
AcDbLayerTableRecord
  2
PUNTI
 70
0
 62
7
  6
CONTINUOUS
370
-3
390
F
  0
LAYER
  5
20D
100
AcDbSymbolTableRecord
100
AcDbLayerTableRecord
  2
RACCORDO
 70
0
 62
7
  6
CONTINUOUS
370
-3
390
F
  0
LAYER
  5
20E
100
AcDbSymbolTableRecord
100
AcDbLayerTableRecord
  2
SIMBOLI
 70
0
 62
7
  6
CONTINUOUS
370
-3
390
F
  0
LAYER
  5
20F
100
AcDbSymbolTableRecord
100
AcDbLayerTableRecord
  2
SMUSSO
 70
0
 62
7
  6
CONTINUOUS
370
-3
390
F
  0
LAYER
  5
210
100
AcDbSymbolTableRecord
100
AcDbLayerTableRecord
  2
SUPERFICI
 70
0
 62
7
  6
CONTINUOUS
370
-3
390
F
  0
LAYER
  5
211
100
AcDbSymbolTableRecord
100
AcDbLayerTableRecord
  2
SUP_ARANCIONE
 70
0
 62
7
  6
CONTINUOUS
370
-3
390
F
  0
LAYER
  5
212
100
AcDbSymbolTableRecord
100
AcDbLayerTableRecord
  2
SUP_DIFF
 70
0
 62
7
  6
CONTINUOUS
370
-3
390
F
  0
LAYER
  5
213
100
AcDbSymbolTableRecord
100
AcDbLayerTableRecord
  2
SUP_ROSSA
 70
0
 62
7
  6
CONTINUOUS
370
-3
390
F
  0
LAYER
  5
214
100
AcDbSymbolTableRecord
100
AcDbLayerTableRecord
  2
SUP_VERDE
 70
0
 62
7
  6
CONTINUOUS
370
-3
390
F
  0
LAYER
  5
215
100
AcDbSymbolTableRecord
100
AcDbLayerTableRecord
  2
TRASH
 70
0
 62
7
  6
CONTINUOUS
370
-3
390
F
  0
LAYER
  5
216
100
AcDbSymbolTableRecord
100
AcDbLayerTableRecord
  2
XSEC_DATUMS
 70
0
 62
7
  6
CONTINUOUS
370
-3
390
F
  0
ENDTAB
  0
TABLE
  2
STYLE
  5
3
100
AcDbSymbolTable
 70
1
  0
STYLE
  5
11
100
AcDbSymbolTableRecord
100
AcDbTextStyleTableRecord
  2
STANDARD
 70
0
 40
0.0
 41
0.8
 50
0.0
 71
0
 42
0.2
  3
txt
  4

  0
STYLE
  5
217
100
AcDbSymbolTableRecord
100
AcDbTextStyleTableRecord
  2
TEXTSTYLE_1
 70
0
 40
0.0
 41
0.8
 50
0.0
 71
0
 42
0.2
  3
gdt
  4

  0
ENDTAB
  0
TABLE
  2
VIEW
  5
6
100
AcDbSymbolTable
 70
0
  0
ENDTAB
  0
TABLE
  2
UCS
  5
7
100
AcDbSymbolTable
 70
0
  0
ENDTAB
  0
TABLE
  2
APPID
  5
9
100
AcDbSymbolTable
 70
1
  0
APPID
  5
218
100
AcDbSymbolTableRecord
100
AcDbRegAppTableRecord
  2
ACAD
 70
0
  0
ENDTAB
  0
TABLE
  2
BLOCK_RECORD
  5
1
100
AcDbSymbolTable
 70
0
  0
BLOCK_RECORD
  5
219
100
AcDbSymbolTableRecord
100
AcDbBlockTableRecord
  2
*Model_Space
  0
BLOCK_RECORD
  5
21A
100
AcDbSymbolTableRecord
100
AcDbBlockTableRecord
  2
*Paper_Space
  0
ENDTAB
  0
TABLE
  2
DIMSTYLE
  5
A
100
AcDbSymbolTable
 70
1
100
AcDbDimStyleTable
 71
0
  0
DIMSTYLE
105
21B
100
AcDbSymbolTableRecord
100
AcDbDimStyleTableRecord
  2
STANDARD
 70
0
  3

  4

 40
1.0
 41
3.0
 42
0.5
 43
0.38
 44
1.5
 45
0.0
 46
0.0
 47
0.01
 48
0.01
140
3.0
141
0.09
142
0.0
143
25.4
144
1.0
145
0.0
146
1.0
147
0.625
 71
1.0
 72
0.0
 73
0
 74
0
 75
0
 76
0
 77
1
 78
8
170
0
171
2
172
0
173
0
174
0
175
0
176
0
177
0
178
0
270
2
271
2
272
2
273
2
274
2
275
0
280
0
281
0
282
0
283
1
284
8
285
0
286
0
287
3
288
0
340
11
278
44
  0
ENDTAB
  0
ENDSEC
  0
SECTION
  2
BLOCKS
  0
BLOCK
  5
20
100
AcDbEntity
  8
0
100
AcDbBlockBegin
  2
*Model_Space
 70
0
 10
0.0
 20
0.0
 30
0.0
  3
*Model_Space
  1

  0
ENDBLK
  5
21
100
AcDbEntity
  8
0
100
AcDbBlockEnd
  0
BLOCK
  5
1C
100
AcDbEntity
  8
0
100
AcDbBlockBegin
  2
*Paper_Space
 70
0
 10
0.0
 20
0.0
 30
0.0
  3
*Paper_Space
  1

  0
ENDBLK
  5
1D
100
AcDbEntity
  8
0
100
AcDbBlockEnd
  0
ENDSEC
  0
SECTION
  2
ENTITIES
  0
LWPOLYLINE
  5
21C
100
AcDbEntity
  8
RACCORDO
100
AcDbPolyline
 62
7
  6
CONTINUOUS
 90
15
 70
0
 10
-17.3556251734
 20
18.1321765206
 10
-17.3907599373
 20
18.1079376478
 10
-17.4531556373
 20
18.0593746543
 10
-17.5120209455
 20
18.0064498417
 10
-17.5675095057
 20
17.9494049502
 10
-17.6195929033
 20
17.8885453022
 10
-17.6679596183
 20
17.8244462192
 10
-17.7125739807
 20
17.757365627
 10
-17.7533292816
 20
17.6874971758
 10
-17.7898340118
 20
17.615538952
 10
-17.8219818532
 20
17.5416976281
 10
-17.8495859988
 20
17.4661431916
 10
-17.87231053
 20
17.3894775833
 10
-17.8899209859
 20
17.3119132405
 10
-17.9023321425
 20
17.2321443659
  0
LINE
  5
21D
100
AcDbEntity
  8
0
100
AcDbLine
 62
7
  6
CONTINUOUS
 10
-13.8918419461
 20
20.4329498384
 11
-13.5103498268
 21
20.6845403033
  0
LINE
  5
21E
100
AcDbEntity
  8
RACCORDO
100
AcDbLine
 62
7
  6
CONTINUOUS
 10
-17.3557650748
 20
18.1320964808
 11
-13.8926781687
 21
20.4159697262
  0
LINE
  5
21F
100
AcDbEntity
  8
0
100
AcDbLine
 62
253
  6
CONTINUOUS
 10
-13.6337278797
 20
20.4134261348
 11
-13.3569414119
 21
20.5959642072
  0
LINE
  5
220
100
AcDbEntity
  8
RACCORDO
100
AcDbLine
 62
253
  6
CONTINUOUS
 10
-17.0989956533
 20
18.1116859966
 11
-13.6345641024
 21
20.3964460226
  0
LINE
  5
221
100
AcDbEntity
  8
0
100
AcDbLine
 62
7
  6
CONTINUOUS
 10
-13.7698947436
 20
21.585397712
 11
-12.1867146747
 21
22.5209019989
  0
LINE
  5
222
100
AcDbEntity
  8
0
100
AcDbLine
 62
253
  6
CONTINUOUS
 10
-13.6437419844
 20
21.5736857195
 11
-12.0609853812
 21
22.5089397795
  0
LINE
  5
223
100
AcDbEntity
  8
0
100
AcDbLine
 62
7
  6
CONTINUOUS
 10
-12.1867146605
 20
22.5209020068
 11
-12.1852604175
 21
22.5217416685
  0
LINE
  5
224
100
AcDbEntity
  8
0
100
AcDbLine
 62
253
  6
CONTINUOUS
 10
-11.9652039139
 20
20.6045188746
 11
-9.8356559514
 21
21.8340924901
  0
LINE
  5
225
100
AcDbEntity
  8
0
100
AcDbLine
 62
7
  6
CONTINUOUS
 10
-12.1852604316
 20
22.5217416606
 11
-11.6503821302
 21
22.8234286753
  0
LINE
  5
226
100
AcDbEntity
  8
0
100
AcDbLine
 62
253
  6
CONTINUOUS
 10
-12.0609853812
 20
22.5089397795
 11
-11.5265355025
 21
22.8103851512
  0
LWPOLYLINE
  5
227
100
AcDbEntity
  8
0
100
AcDbPolyline
 62
253
  6
CONTINUOUS
 90
18
 70
0
 10
-13.7698947436
 20
21.585397712
 10
-13.7661389163
 20
21.5874883088
 10
-13.7599085551
 20
21.5904295983
 10
-13.7534126965
 20
21.5928718
 10
-13.7466660444
 20
21.5948093947
 10
-13.7396838417
 20
21.5962380054
 10
-13.7324818384
 20
21.5971543971
 10
-13.7250764151
 20
21.5975564734
 10
-13.7174845137
 20
21.5974433266
 10
-13.7097234503
 20
21.5968152538
 10
-13.7018107171
 20
21.5956737082
 10
-13.6937640972
 20
21.5940212692
 10
-13.6856005943
 20
21.59186132
 10
-13.6773399
 20
21.5891989641
 10
-13.6690043274
 20
21.5860416956
 10
-13.6606140438
 20
21.5823978536
 10
-13.6521869018
 20
21.5782758861
 10
-13.6437419844
 20
21.5736857195
  0
LWPOLYLINE
  5
228
100
AcDbEntity
  8
RACCORDO
100
AcDbPolyline
 62
253
  6
CONTINUOUS
 90
9
 70
0
 10
-17.3556307381
 20
18.1321849745
 10
-17.334789178
 20
18.1437135707
 10
-17.3067582579
 20
18.153556774
 10
-17.2762511978
 20
18.1585972905
 10
-17.2436018514
 20
18.1587799596
 10
-17.2091675163
 20
18.154102782
 10
-17.1733250242
 20
18.1446169423
 10
-17.1364666168
 20
18.1304262486
 10
-17.0989956533
 20
18.1116859966
  0
LWPOLYLINE
  5
229
100
AcDbEntity
  8
0
100
AcDbPolyline
 62
7
  6
CONTINUOUS
 90
3
 70
0
 10
-12.1852604175
 20
22.5217416685
 10
-12.1829735464
 20
22.5229848756
 10
-12.1767478747
 20
22.5259250673
  0
LWPOLYLINE
  5
22A
100
AcDbEntity
  8
0
100
AcDbPolyline
 62
253
  6
CONTINUOUS
 90
18
 70
0
 10
-11.6503797861
 20
22.8234299973
 10
-11.6480813282
 20
22.8246791587
 10
-11.641857571
 20
22.8276166351
 10
-11.6353748902
 20
22.8300512281
 10
-11.6286479599
 20
22.8319774356
 10
-11.6216919783
 20
22.8333909066
 10
-11.6145226364
 20
22.8342884401
 10
-11.6071562407
 20
22.8346679823
 10
-11.5996096437
 20
22.8345286774
 10
-11.5919000576
 20
22.8338708821
 10
-11.5840448584
 20
22.8326961172
 10
-11.5760616997
 20
22.8310070364
 10
-11.5679674521
 20
22.8288071001
 10
-11.5597816414
 20
22.8261015074
 10
-11.5515263752
 20
22.822897871
 10
-11.5432216195
 20
22.8192046462
 10
-11.534885038
 20
22.8150303902
 10
-11.5265355025
 20
22.8103851512
  0
LWPOLYLINE
  5
22B
100
AcDbEntity
  8
0
100
AcDbPolyline
 62
7
  6
CONTINUOUS
 90
16
 70
0
 10
-12.1767478747
 20
22.5259250673
 10
-12.1702599422
 20
22.5283643982
 10
-12.1635244533
 20
22.530297339
 10
-12.1565567141
 20
22.5317194856
 10
-12.149372457
 20
22.532627647
 10
-12.1419879414
 20
22.5330197756
 10
-12.134419987
 20
22.5328949346
 10
-12.1266856655
 20
22.5322534495
 10
-12.1188024596
 20
22.5310967967
 10
-12.1107883601
 20
22.5294275248
 10
-12.1026614297
 20
22.5272494695
 10
-12.0944400187
 20
22.5245676001
 10
-12.086142922
 20
22.5213878985
 10
-12.0777889286
 20
22.5177175739
 10
-12.0693967795
 20
22.5135650453
 10
-12.0609853812
 20
22.5089397795
  0
LINE
  5
22C
100
AcDbEntity
  8
0
100
AcDbLine
 62
253
  6
CONTINUOUS
 10
2.644775745
 20
-24.8400975572
 11
2.1165085732
 21
-24.7944546143
  0
LINE
  5
22D
100
AcDbEntity
  8
0
100
AcDbLine
 62
253
  6
CONTINUOUS
 10
2.5553619496
 20
-24.5108191197
 11
2.1618538246
 21
-24.4768195266
  0
LWPOLYLINE
  5
22E
100
AcDbEntity
  8
0
100
AcDbPolyline
 62
7
  6
CONTINUOUS
 90
42
 70
0
 10
1.2264483905
 20
-25.1852573897
 10
1.2207097072
 20
-25.1846918467
 10
1.2147839875
 20
-25.1840134391
 10
1.208672506
 20
-25.1832253455
 10
1.2023739296
 20
-25.182334767
 10
1.1958928744
 20
-25.1813414264
 10
1.1892398468
 20
-25.1802375358
 10
1.1824169621
 20
-25.1790271879
 10
1.1754267598
 20
-25.1777142738
 10
1.1682806432
 20
-25.1762909247
 10
1.1609814588
 20
-25.1747617494
 10
1.1535324411
 20
-25.1731311858
 10
1.1459458326
 20
-25.1713913294
 10
1.1382252372
 20
-25.1695473039
 10
1.1303746017
 20
-25.1676040902
 10
1.1224069418
 20
-25.165553792
 10
1.1143266174
 20
-25.1634020384
 10
1.1061383306
 20
-25.1611543561
 10
1.0978558764
 20
-25.1588029255
 10
1.0894843984
 20
-25.1563538739
 10
1.0810293753
 20
-25.1538132743
 10
1.0725053886
 20
-25.1511734679
 10
1.0639183885
 20
-25.1484410666
 10
1.055274659
 20
-25.145622692
 10
1.0465895908
 20
-25.1427109577
 10
1.0378699684
 20
-25.1397129384
 10
1.0291229042
 20
-25.1366358046
 10
1.0203646224
 20
-25.1334725864
 10
1.011602771
 20
-25.1302307878
 10
1.002845304
 20
-25.1269181215
 10
0.9941092814
 20
-25.1235282128
 10
0.9854032427
 20
-25.1200689466
 10
0.9767359777
 20
-25.1165485569
 10
0.9681253279
 20
-25.1129614722
 10
0.9595807739
 20
-25.1093159079
 10
0.9511118791
 20
-25.1056205585
 10
0.9427370336
 20
-25.1018708347
 10
0.9344666303
 20
-25.0980751935
 10
0.9263109743
 20
-25.0942427265
 10
0.9182887537
 20
-25.0903700298
 10
0.9104215396
 20
-25.0864724132
 10
0.9075636765
 20
-25.085019614
  0
LWPOLYLINE
  5
22F
100
AcDbEntity
  8
RACCORDO
100
AcDbPolyline
 62
7
  6
CONTINUOUS
 90
12
 70
0
 10
-2.6633699932
 20
-26.5077283309
 10
-2.6552356175
 20
-26.5123656842
 10
-2.5908102094
 20
-26.544099016
 10
-2.5237173278
 20
-26.5687055801
 10
-2.4544036466
 20
-26.5861780146
 10
-2.3824775091
 20
-26.5965475184
 10
-2.3084923696
 20
-26.5994916592
 10
-2.2332393896
 20
-26.5947938244
 10
-2.1563981132
 20
-26.5821609415
 10
-2.0781485211
 20
-26.5611298353
 10
-1.9994063865
 20
-26.5314625293
 10
-1.9544837952
 20
-26.5105964869
  0
LINE
  5
230
100
AcDbEntity
  8
RACCORDO
100
AcDbLine
 62
7
  6
CONTINUOUS
 10
-17.5574162312
 20
-17.9080968612
 11
-17.5579724382
 21
-17.9077764405
  0
LINE
  5
231
100
AcDbEntity
  8
ASSI
100
AcDbLine
 62
7
  6
CONTINUOUS
 10
-2.662588059
 20
-26.5081846981
 11
-17.5579723394
 21
-17.9077764976
  0
LINE
  5
232
100
AcDbEntity
  8
RACCORDO
100
AcDbLine
 62
253
  6
CONTINUOUS
 10
-2.8635296789
 20
-26.1664472657
 11
-17.755435604
 21
-17.5680474239
  0
LINE
  5
233
100
AcDbEntity
  8
RACCORDO
100
AcDbLine
 62
7
  6
CONTINUOUS
 10
-2.6634432706
 20
-26.5076892463
 11
-2.662587961
 21
-26.5081847546
  0
LWPOLYLINE
  5
234
100
AcDbEntity
  8
RACCORDO
100
AcDbPolyline
 62
253
  6
CONTINUOUS
 90
10
 70
0
 10
-17.5579724382
 20
-17.9077764405
 10
-17.5714009473
 20
-17.89958715
 10
-17.6065346669
 20
-17.8735547765
 10
-17.6385244649
 20
-17.8426977945
 10
-17.6671844176
 20
-17.8071944631
 10
-17.6923462283
 20
-17.7672512557
 10
-17.7138664365
 20
-17.7230980348
 10
-17.7316206386
 20
-17.6749901348
 10
-17.7455040476
 20
-17.6232066836
 10
-17.755435604
 20
-17.5680474239
  0
LWPOLYLINE
  5
235
100
AcDbEntity
  8
RACCORDO
100
AcDbPolyline
 62
7
  6
CONTINUOUS
 90
7
 70
0
 10
-17.7893237411
 20
-17.6851681675
 10
-17.7535640637
 20
-17.7361319377
 10
-17.7141232768
 20
-17.7828289112
 10
-17.6710189886
 20
-17.8254432379
 10
-17.6244944905
 20
-17.8638023421
 10
-17.5751060975
 20
-17.8975292311
 10
-17.5573491933
 20
-17.9081327948
  0
LINE
  5
236
100
AcDbEntity
  8
0
100
AcDbLine
 62
7
  6
CONTINUOUS
 10
-10.1871494194
 20
19.7124227986
 11
-11.0772096022
 21
19.1509093169
  0
LINE
  5
237
100
AcDbEntity
  8
0
100
AcDbLine
 62
253
  6
CONTINUOUS
 10
-11.7884302103
 20
20.2983378387
 11
-9.6588822477
 21
21.5279114542
  0
LINE
  5
238
100
AcDbEntity
  8
0
100
AcDbLine
 62
7
  6
CONTINUOUS
 10
-9.3503376891
 20
20.1956518394
 11
-9.4841841686
 21
20.1183705596
  0
LINE
  5
239
100
AcDbEntity
  8
0
100
AcDbLine
 62
7
  6
CONTINUOUS
 10
-2.3628176498
 20
24.1292646427
 11
-9.4841564652
 21
20.1183225789
  0
LINE
  5
23A
100
AcDbEntity
  8
RACCORDO
100
AcDbLine
 62
7
  6
CONTINUOUS
 10
2.5940504465
 20
26.5995396796
 11
-0.3230107667
 21
24.9740576568
  0
LINE
  5
23B
100
AcDbEntity
  8
RACCORDO
100
AcDbLine
 62
7
  6
CONTINUOUS
 10
2.2158434822
 20
26.4906594157
 11
-1.9312005369
 21
24.2135665456
  0
LWPOLYLINE
  5
23C
100
AcDbEntity
  8
0
100
AcDbPolyline
 62
7
  6
CONTINUOUS
 90
22
 70
0
 10
-2.8378243285
 20
22.902335454
 10
-2.8269753556
 20
22.9069237359
 10
-2.8157502102
 20
22.9109303568
 10
-2.8041579183
 20
22.9143467264
 10
-2.7922125393
 20
22.9171672994
 10
-2.779920112
 20
22.9193809524
 10
-2.7672775581
 20
22.92097013
 10
-2.7543037371
 20
22.9219267183
 10
-2.7410019043
 20
22.9222415065
 10
-2.7273432734
 20
22.9218923693
 10
-2.713349157
 20
22.9208736227
 10
-2.699020552
 20
22.9191696627
 10
-2.6842937796
 20
22.9167367776
 10
-2.6691705551
 20
22.9135622553
 10
-2.6536712445
 20
22.9096277908
 10
-2.6377570952
 20
22.9048735063
 10
-2.6214314184
 20
22.8992776399
 10
-2.6047201621
 20
22.8928239805
 10
-2.5876192804
 20
22.8854562485
 10
-2.5701477588
 20
22.8771513758
 10
-2.5523287023
 20
22.8678920215
 10
-2.5383697026
 20
22.8600776143
  0
LWPOLYLINE
  5
23D
100
AcDbEntity
  8
0
100
AcDbPolyline
 62
253
  6
CONTINUOUS
 90
34
 70
0
 10
0.1627058227
 20
-26.3824741372
 10
0.1712860256
 20
-26.3871986664
 10
0.1802445489
 20
-26.3916830031
 10
0.1895612447
 20
-26.3959170602
 10
0.1992151656
 20
-26.3998913155
 10
0.2091845933
 20
-26.4035968264
 10
0.219447086
 20
-26.4070252506
 10
0.2299795549
 20
-26.4101688758
 10
0.2407583153
 20
-26.4130206334
 10
0.2517591198
 20
-26.415574109
 10
0.2629572264
 20
-26.4178235601
 10
0.2743274461
 20
-26.4197639277
 10
0.2858441957
 20
-26.4213908468
 10
0.297481569
 20
-26.4227006595
 10
0.3092133928
 20
-26.4236904216
 10
0.321013276
 20
-26.4243579081
 10
0.3328546842
 20
-26.4247016195
 10
0.3447109778
 20
-26.4247207843
 10
0.3565554683
 20
-26.424415362
 10
0.368361483
 20
-26.4237860451
 10
0.3801025025
 20
-26.4228342524
 10
0.3917521966
 20
-26.4215621187
 10
0.4032844704
 20
-26.4199724861
 10
0.414673275
 20
-26.4180689376
 10
0.4258927538
 20
-26.415855803
 10
0.4369175362
 20
-26.413338113
 10
0.4477229918
 20
-26.410521519
 10
0.4582850297
 20
-26.4074123106
 10
0.4685814236
 20
-26.4040169484
 10
0.4785874043
 20
-26.4003435158
 10
0.4882763451
 20
-26.3964020376
 10
0.4976255653
 20
-26.3922023399
 10
0.506615942
 20
-26.3877536341
 10
0.5152277824
 20
-26.3830662179
  0
LWPOLYLINE
  5
23E
100
AcDbEntity
  8
0
100
AcDbPolyline
 62
253
  6
CONTINUOUS
 90
34
 70
0
 10
0.1627058227
 20
-26.0619539644
 10
0.1712824754
 20
-26.0666766294
 10
0.1802377833
 20
-26.0711596026
 10
0.1895516957
 20
-26.0753927554
 10
0.1992035797
 20
-26.0793666082
 10
0.2091715876
 20
-26.0830720673
 10
0.2194326325
 20
-26.0865005095
 10
0.2299633809
 20
-26.0896441524
 10
0.2407403988
 20
-26.0924960136
 10
0.2517394768
 20
-26.0950496857
 10
0.2629359022
 20
-26.0972994279
 10
0.2743044809
 20
-26.0992401747
 10
0.2858196168
 20
-26.1008675558
 10
0.2974554025
 20
-26.102177911
 10
0.3091856858
 20
-26.1031682965
 10
0.3209840959
 20
-26.1038364861
 10
0.3328241037
 20
-26.1041809774
 10
0.3446790833
 20
-26.1042009955
 10
0.3565223788
 20
-26.1038964956
 10
0.3683273591
 20
-26.1032681622
 10
0.3800674781
 20
-26.1023174082
 10
0.3917163362
 20
-26.1010463712
 10
0.4032477374
 20
-26.0994579097
 10
0.4146357529
 20
-26.0975555952
 10
0.4258547796
 20
-26.0953437044
 10
0.4368795994
 20
-26.0928272081
 10
0.4476854102
 20
-26.0900117664
 10
0.4582478881
 20
-26.0869037177
 10
0.4685432688
 20
-26.0835100574
 10
0.478548418
 20
-26.0798384141
 10
0.4882408565
 20
-26.0758970381
 10
0.497598795
 20
-26.0716947896
 10
0.5066011847
 20
-26.0672411203
 10
0.5152277824
 20
-26.062546045
  0
LINE
  5
23F
100
AcDbEntity
  8
0
100
AcDbLine
 62
7
  6
CONTINUOUS
 10
-0.7773153212
 20
-25.9242601977
 11
0.214476478
 21
-26.4969083525
  0
LINE
  5
240
100
AcDbEntity
  8
0
100
AcDbLine
 62
253
  6
CONTINUOUS
 10
-0.6987068943
 20
-25.8851052304
 11
0.1627058227
 21
-26.3824741372
  0
LINE
  5
241
100
AcDbEntity
  8
0
100
AcDbLine
 62
253
  6
CONTINUOUS
 10
0.1627058227
 20
-26.0619539644
 11
-0.4006841222
 21
-25.7366596711
  0
LINE
  5
242
100
AcDbEntity
  8
0
100
AcDbLine
 62
253
  6
CONTINUOUS
 10
0.2510941704
 20
-25.8341486399
 11
-0.1414163067
 21
-25.6075180098
  0
LWPOLYLINE
  5
243
100
AcDbEntity
  8
RACCORDO
100
AcDbPolyline
 62
253
  6
CONTINUOUS
 90
10
 70
0
 10
-17.9023321425
 20
17.2321443659
 10
-17.9027800991
 20
17.2275240125
 10
-17.9020363108
 20
17.2022981133
 10
-17.8959746808
 20
17.1767612737
 10
-17.8846601694
 20
17.1511871627
 10
-17.8682140302
 20
17.1258498487
 10
-17.8468125103
 20
17.1010208625
 10
-17.8206849621
 20
17.0769662874
 10
-17.7901113849
 20
17.0539439073
 10
-17.7554194245
 20
17.0322004447
  0
LWPOLYLINE
  5
244
100
AcDbEntity
  8
RACCORDO
100
AcDbPolyline
 62
7
  6
CONTINUOUS
 90
10
 70
0
 10
-17.9023193367
 20
17.2323614758
 10
-18.0252051561
 20
16.1523828133
 10
-18.1425678795
 20
15.0126114355
 10
-18.246562336
 20
13.8788180166
 10
-18.3371588663
 20
12.7512786761
 10
-18.4143379683
 20
11.6302204205
 10
-18.4780827021
 20
10.5158512355
 10
-18.5283761055
 20
9.4083960937
 10
-18.5652050767
 20
8.3081223646
 10
-18.5874987759
 20
7.2830392388
  0
LWPOLYLINE
  5
245
100
AcDbEntity
  8
RACCORDO
100
AcDbPolyline
 62
253
  6
CONTINUOUS
 90
19
 70
0
 10
-17.755435604
 20
17.0321939177
 10
-17.7455040476
 20
17.0990273048
 10
-17.7316206386
 20
17.1671246731
 10
-17.7138664365
 20
17.2360926742
 10
-17.6923462283
 20
17.3055341045
 10
-17.6671844176
 20
17.3750470419
 10
-17.6385244649
 20
17.4442271706
 10
-17.6065346669
 20
17.5126748117
 10
-17.5714009473
 20
17.5799958668
 10
-17.5333221277
 20
17.6458008274
 10
-17.4925207143
 20
17.7097106452
 10
-17.4492341477
 20
17.771356766
 10
-17.4037069821
 20
17.8303816211
 10
-17.3562040458
 20
17.8864460115
 10
-17.3070026971
 20
17.9392258661
 10
-17.2563834736
 20
17.9884119347
 10
-17.2046395045
 20
18.0337194872
 10
-17.1520746965
 20
18.0748897168
 10
-17.0989956533
 20
18.1116859966
  0
LINE
  5
246
100
AcDbEntity
  8
0
100
AcDbLine
 62
253
  6
CONTINUOUS
 10
-10.1871494194
 20
20.5374538873
 11
-9.6588822477
 21
21.2002661537
  0
LINE
  5
247
100
AcDbEntity
  8
0
100
AcDbLine
 62
7
  6
CONTINUOUS
 10
-10.1871494194
 20
20.4609020444
 11
-9.6411822472
 21
21.1459223489
  0
LWPOLYLINE
  5
248
100
AcDbEntity
  8
0
100
AcDbPolyline
 62
7
  6
CONTINUOUS
 90
37
 70
0
 10
-11.0772096022
 20
19.912327653
 10
-11.0829482854
 20
19.9054165258
 10
-11.0888740051
 20
19.8985910694
 10
-11.0949854867
 20
19.8918597184
 10
-11.101284063
 20
19.8852314696
 10
-11.1077651183
 20
19.8787142857
 10
-11.1144181459
 20
19.8723151358
 10
-11.1212410305
 20
19.8660426609
 10
-11.1282312328
 20
19.8599053533
 10
-11.1353773495
 20
19.853910068
 10
-11.1426765338
 20
19.8480654753
 10
-11.1501255516
 20
19.8423800712
 10
-11.1577121601
 20
19.8368605607
 10
-11.1654327555
 20
19.8315155758
 10
-11.173283391
 20
19.8263535446
 10
-11.1812510508
 20
19.8213809841
 10
-11.1893313753
 20
19.8166064025
 10
-11.1975196621
 20
19.8120381038
 10
-11.2058021162
 20
19.8076824238
 10
-11.2141735943
 20
19.8035476702
 10
-11.2226286173
 20
19.7996419379
 10
-11.2311526041
 20
19.7959713693
 10
-11.2397396041
 20
19.7925439787
 10
-11.2483833336
 20
19.7893675582
 10
-11.2570684018
 20
19.7864480284
 10
-11.2657880243
 20
19.7837930026
 10
-11.2745350885
 20
19.7814098549
 10
-11.2832933703
 20
19.7793042258
 10
-11.2920552217
 20
19.7774831982
 10
-11.3008126886
 20
19.7759535881
 10
-11.3095487113
 20
19.7747206505
 10
-11.3182547499
 20
19.7737907842
 10
-11.3269220149
 20
19.7731700769
 10
-11.3355326648
 20
19.7728632369
 10
-11.3440772187
 20
19.7728757962
 10
-11.3525461136
 20
19.7732129139
 10
-11.3593403796
 20
19.7737268525
  0
LWPOLYLINE
  5
249
100
AcDbEntity
  8
ASSI
100
AcDbPolyline
 62
7
  6
CONTINUOUS
 90
12
 70
0
 10
-0.0198165182
 20
23.8840609142
 10
-0.1280780058
 20
23.8070538935
 10
-0.1529060938
 20
23.7895842241
 10
-0.1767754308
 20
23.773043791
 10
-0.1996925753
 20
23.7574507495
 10
-0.2213642089
 20
23.7430140866
 10
-0.2417928836
 20
23.7298127796
 10
-0.2610120594
 20
23.717804792
 10
-0.2787657865
 20
23.7070078915
 10
-0.2949705258
 20
23.6974297391
 10
-0.309718259
 20
23.6890710449
 10
-0.3230098219
 20
23.6819326318
  0
LWPOLYLINE
  5
24A
100
AcDbEntity
  8
ASSI
100
AcDbPolyline
 62
7
  6
CONTINUOUS
 90
6
 70
0
 10
0.1256579457
 20
23.9837370623
 10
0.0993460861
 20
23.966315689
 10
0.0688106253
 20
23.9457044655
 10
0.038631887
 20
23.9249792033
 10
0.009098188
 20
23.9044173298
 10
-0.0198165182
 20
23.8840609142
  0
LINE
  5
24B
100
AcDbEntity
  8
0
100
AcDbLine
 62
7
  6
CONTINUOUS
 10
-7.8890523806
 20
17.9558610799
 11
-8.6023299892
 21
17.508360051
  0
LINE
  5
24C
100
AcDbEntity
  8
0
100
AcDbLine
 62
7
  6
CONTINUOUS
 10
-8.2072504321
 20
19.8756063802
 11
-9.2617398635
 21
19.2525064544
  0
LINE
  5
24D
100
AcDbEntity
  8
ASSI
100
AcDbLine
 62
7
  6
CONTINUOUS
 10
1.9397318779
 20
25.0815769588
 11
3.0003920497
 21
25.704676691
  0
LINE
  5
24E
100
AcDbEntity
  8
0
100
AcDbLine
 62
7
  6
CONTINUOUS
 10
-8.6023299892
 20
18.8717714572
 11
-7.7472267904
 21
19.3626490936
  0
LINE
  5
24F
100
AcDbEntity
  8
0
100
AcDbLine
 62
7
  6
CONTINUOUS
 10
-6.8671980573
 20
19.8974221604
 11
-2.2545552014
 21
22.5294494348
  0
LINE
  5
250
100
AcDbEntity
  8
0
100
AcDbLine
 62
7
  6
CONTINUOUS
 10
-2.5295959335
 20
21.0548210084
 11
-2.1181303648
 21
21.289608013
  0
LINE
  5
251
100
AcDbEntity
  8
ASSI
100
AcDbLine
 62
7
  6
CONTINUOUS
 10
1.9397318779
 20
25.0815769588
 11
0.4966445327
 21
24.2628978175
  0
LINE
  5
252
100
AcDbEntity
  8
0
100
AcDbLine
 62
7
  6
CONTINUOUS
 10
-2.8710270262
 20
22.8853925403
 11
-8.2072504321
 21
19.8756063802
  0
LINE
  5
253
100
AcDbEntity
  8
ASSI
100
AcDbLine
 62
253
  6
CONTINUOUS
 10
-0.5764009981
 20
23.4313222715
 11
-0.3415223041
 21
23.5622452909
  0
LWPOLYLINE
  5
254
100
AcDbEntity
  8
RACCORDO
100
AcDbPolyline
 62
253
  6
CONTINUOUS
 90
3
 70
0
 10
-6.6357574055
 20
-19.2155772366
 10
-6.658154438
 20
-19.2130991931
 10
-6.6686151003
 20
-19.2107262634
  0
LWPOLYLINE
  5
255
100
AcDbEntity
  8
0
100
AcDbPolyline
 62
253
  6
CONTINUOUS
 90
7
 70
0
 10
2.5919297354
 20
-24.5220927881
 10
2.5863869796
 20
-24.51916929
 10
2.5805862936
 20
-24.5166461293
 10
2.5745713685
 20
-24.5145463673
 10
2.5683546036
 20
-24.5128737267
 10
2.5619473411
 20
-24.5116306732
 10
2.5553619496
 20
-24.5108191197
  0
LWPOLYLINE
  5
256
100
AcDbEntity
  8
RACCORDO
100
AcDbPolyline
 62
7
  6
CONTINUOUS
 90
20
 70
0
 10
-7.015193407
 20
-19.2054162664
 10
-7.0064265391
 20
-19.2103613718
 10
-6.9863744533
 20
-19.2208017956
 10
-6.9664029732
 20
-19.230002749
 10
-6.9465018872
 20
-19.2379846724
 10
-6.9267152022
 20
-19.2447443545
 10
-6.9071515889
 20
-19.2502650795
 10
-6.8878362437
 20
-19.2545678289
 10
-6.8687829025
 20
-19.2576756141
 10
-6.8500961414
 20
-19.2596010418
 10
-6.8318480679
 20
-19.2603784265
 10
-6.8140232045
 20
-19.2600504326
 10
-6.7966119407
 20
-19.2586498593
 10
-6.779661363
 20
-19.2562114387
 10
-6.7631987607
 20
-19.2527725062
 10
-6.747202546
 20
-19.2483555539
 10
-6.7317201112
 20
-19.2429958684
 10
-6.7167875725
 20
-19.236730776
 10
-6.7023802424
 20
-19.2295697359
 10
-6.6987099279
 20
-19.2275565044
  0
LINE
  5
257
100
AcDbEntity
  8
0
100
AcDbLine
 62
253
  6
CONTINUOUS
 10
2.591979642
 20
-24.5221215806
 11
2.5919297354
 21
-24.5220927881
  0
LINE
  5
258
100
AcDbEntity
  8
RACCORDO
100
AcDbLine
 62
7
  6
CONTINUOUS
 10
-7.0151900951
 20
-19.2054185538
 11
-14.8791939854
 21
-14.6648412666
  0
LINE
  5
259
100
AcDbEntity
  8
RACCORDO
100
AcDbLine
 62
253
  6
CONTINUOUS
 10
-6.8260402188
 20
-19.3037298955
 11
-6.930350546
 21
-19.2435024199
  0
LINE
  5
25A
100
AcDbEntity
  8
RACCORDO
100
AcDbLine
 62
253
  6
CONTINUOUS
 10
-7.0459495471
 20
-19.1458328028
 11
-14.9099534371
 21
-14.6052555158
  0
LINE
  5
25B
100
AcDbEntity
  8
0
100
AcDbLine
 62
253
  6
CONTINUOUS
 10
2.3414996329
 20
-24.3873376984
 11
2.5553619496
 21
-24.5108191197
  0
LINE
  5
25C
100
AcDbEntity
  8
0
100
AcDbLine
 62
7
  6
CONTINUOUS
 10
2.3506490868
 20
-24.3827803426
 11
2.591979642
 21
-24.5221215806
  0
LWPOLYLINE
  5
25D
100
AcDbEntity
  8
0
100
AcDbPolyline
 62
7
  6
CONTINUOUS
 90
21
 70
0
 10
2.5919297354
 20
-24.5220927881
 10
2.5954038535
 20
-24.5241351406
 10
2.6066101179
 20
-24.5312560819
 10
2.6174303387
 20
-24.5389678131
 10
2.627815105
 20
-24.5472347631
 10
2.6377410522
 20
-24.5560361699
 10
2.6472055483
 20
-24.5653718958
 10
2.6561787341
 20
-24.5752187599
 10
2.6646256272
 20
-24.585543822
 10
2.6725321189
 20
-24.5963370726
 10
2.6798710845
 20
-24.6075723102
 10
2.6866121541
 20
-24.6192137814
 10
2.6927348403
 20
-24.6312379308
 10
2.6982138418
 20
-24.6436089117
 10
2.7030272651
 20
-24.656291777
 10
2.7071591156
 20
-24.6692636552
 10
2.7105902033
 20
-24.6824911073
 10
2.7133008415
 20
-24.6959291166
 10
2.7152755573
 20
-24.7095359765
 10
2.7165012615
 20
-24.7232638741
 10
2.7169687907
 20
-24.7370735032
  0
LWPOLYLINE
  5
25E
100
AcDbEntity
  8
RACCORDO
100
AcDbPolyline
 62
253
  6
CONTINUOUS
 90
31
 70
0
 10
-14.9099534371
 20
-14.6052555158
 10
-14.9212344681
 20
-14.5984662573
 10
-14.9324894738
 20
-14.5911511014
 10
-14.9437184361
 20
-14.583310036
 10
-14.9549457281
 20
-14.5749240605
 10
-14.9661469034
 20
-14.5660121267
 10
-14.977248697
 20
-14.55663114
 10
-14.9882492773
 20
-14.5467787499
 10
-14.9991503347
 20
-14.536457213
 10
-15.0098838756
 20
-14.5257303377
 10
-15.0204485344
 20
-14.5145957562
 10
-15.0308454776
 20
-14.5030557042
 10
-15.0410105059
 20
-14.491180893
 10
-15.0509421966
 20
-14.4789690629
 10
-15.0606417301
 20
-14.4664223128
 10
-15.070048818
 20
-14.4536178969
 10
-15.0791615909
 20
-14.4405540198
 10
-15.0879816507
 20
-14.4272322994
 10
-15.0964539332
 20
-14.4137351218
 10
-15.1045761022
 20
-14.4000614045
 10
-15.1123502209
 20
-14.386212049
 10
-15.1197278555
 20
-14.3722724381
 10
-15.1267065696
 20
-14.3582415471
 10
-15.1332885409
 20
-14.3441202297
 10
-15.1394323
 20
-14.3299967146
 10
-15.1451352771
 20
-14.3158694748
 10
-15.1503998175
 20
-14.3017398891
 10
-15.1551918815
 20
-14.2877005823
 10
-15.1595000812
 20
-14.2737824024
 10
-15.1633356434
 20
-14.2599543956
 10
-15.1666984819
 20
-14.2462165051
  0
LWPOLYLINE
  5
25F
100
AcDbEntity
  8
RACCORDO
100
AcDbPolyline
 62
253
  6
CONTINUOUS
 90
11
 70
0
 10
-14.8791939854
 20
-14.6648412666
 10
-14.8844428438
 20
-14.661353199
 10
-14.8891467343
 20
-14.6573149128
 10
-14.8934251342
 20
-14.6526637312
 10
-14.8972566159
 20
-14.6474229492
 10
-14.9006219904
 20
-14.6416188149
 10
-14.9035044033
 20
-14.6352803977
 10
-14.9058894187
 20
-14.6284394428
 10
-14.9077650922
 20
-14.6211302124
 10
-14.9091220302
 20
-14.6133893137
 10
-14.9099534371
 20
-14.6052555158
  0
LWPOLYLINE
  5
260
100
AcDbEntity
  8
RACCORDO
100
AcDbPolyline
 62
253
  6
CONTINUOUS
 90
11
 70
0
 10
-7.0151935694
 20
-19.2054165476
 10
-7.020438899
 20
-19.2019305274
 10
-7.0251427954
 20
-19.197892247
 10
-7.0294212019
 20
-19.1932410695
 10
-7.033252691
 20
-19.1880002894
 10
-7.0366180732
 20
-19.1821961545
 10
-7.0395004935
 20
-19.1758577337
 10
-7.0418855159
 20
-19.1690167719
 10
-7.0437611953
 20
-19.1617075311
 10
-7.0451181377
 20
-19.1539666184
 10
-7.0459495471
 20
-19.1458328028
  0
LWPOLYLINE
  5
261
100
AcDbEntity
  8
RACCORDO
100
AcDbPolyline
 62
253
  6
CONTINUOUS
 90
8
 70
0
 10
-17.9010036238
 20
-17.3746547044
 10
-17.8959901457
 20
-17.3995381937
 10
-17.8846763505
 20
-17.432082387
 10
-17.8682306822
 20
-17.4632690159
 10
-17.8468293888
 20
-17.4927638537
 10
-17.8207018278
 20
-17.5202508046
 10
-17.7901280078
 20
-17.5454352913
 10
-17.7554355881
 20
-17.568047412
  0
LWPOLYLINE
  5
262
100
AcDbEntity
  8
RACCORDO
100
AcDbPolyline
 62
7
  6
CONTINUOUS
 90
6
 70
0
 10
-17.9009881639
 20
-17.37465253
 10
-17.8888464111
 20
-17.4420288556
 10
-17.8710368378
 20
-17.5086674084
 10
-17.8483287626
 20
-17.5713640215
 10
-17.8210415436
 20
-17.6301322268
 10
-17.7893237411
 20
-17.6851681675
  0
LINE
  5
263
100
AcDbEntity
  8
RACCORDO
100
AcDbLine
 62
7
  6
CONTINUOUS
 10
-17.9010784441
 20
-17.3741203118
 11
-17.9010036238
 21
-17.3746547044
  0
LWPOLYLINE
  5
264
100
AcDbEntity
  8
RACCORDO
100
AcDbPolyline
 62
253
  6
CONTINUOUS
 90
10
 70
0
 10
-17.755435604
 20
-17.5680474239
 10
-17.8838605338
 20
-16.590641698
 10
-17.9992717
 20
-15.6033796136
 10
-18.1016444441
 20
-14.606468774
 10
-18.1909566095
 20
-13.6001189705
 10
-18.2671894016
 20
-12.5845415698
 10
-18.3303273879
 20
-11.5599494674
 10
-18.3803573632
 20
-10.5265578019
 10
-18.4172683558
 20
-9.4845839114
 10
-18.4410524821
 20
-8.4342467188
  0
LWPOLYLINE
  5
265
100
AcDbEntity
  8
RACCORDO
100
AcDbPolyline
 62
253
  6
CONTINUOUS
 90
9
 70
0
 10
-18.5874962713
 20
-8.230553008
 10
-18.5866017201
 20
-8.2455358396
 10
-18.5807984891
 20
-8.2757394047
 10
-18.5697105593
 20
-8.3053713634
 10
-18.5534567307
 20
-8.3341142287
 10
-18.5322111525
 20
-8.3616600393
 10
-18.5062014572
 20
-8.3877136598
 10
-18.4757063219
 20
-8.4119959426
 10
-18.4410524821
 20
-8.4342467188
  0
LWPOLYLINE
  5
266
100
AcDbEntity
  8
RACCORDO
100
AcDbPolyline
 62
253
  6
CONTINUOUS
 90
7
 70
0
 10
-18.5036094926
 20
-0.3329991928
 10
-18.502150113
 20
-0.3585222698
 10
-18.4977536724
 20
-0.3819110254
 10
-18.4904938237
 20
-0.4027736316
 10
-18.48049219
 20
-0.4207605807
 10
-18.467916327
 20
-0.4355705401
 10
-18.4519684864
 20
-0.4475495756
  0
LWPOLYLINE
  5
267
100
AcDbEntity
  8
RACCORDO
100
AcDbPolyline
 62
253
  6
CONTINUOUS
 90
9
 70
0
 10
-18.6500569028
 20
-0.1300544135
 10
-18.6491370315
 20
-0.1472619249
 10
-18.6433308109
 20
-0.1767058398
 10
-18.6322616933
 20
-0.2056775113
 10
-18.6160262762
 20
-0.2338640551
 10
-18.5947943779
 20
-0.2609659733
 10
-18.568798823
 20
-0.2867029028
 10
-18.5382806315
 20
-0.3107988485
 10
-18.5035916922
 20
-0.3329889358
  0
LWPOLYLINE
  5
268
100
AcDbEntity
  8
RACCORDO
100
AcDbPolyline
 62
253
  6
CONTINUOUS
 90
9
 70
0
 10
-18.5874987759
 20
7.2830392388
 10
-18.5866016928
 20
7.2633194838
 10
-18.5807984603
 20
7.2341388949
 10
-18.5697105296
 20
7.2053964548
 10
-18.5534567006
 20
7.17740012
 10
-18.5322111225
 20
7.150449853
 10
-18.5062014279
 20
7.1248344083
 10
-18.4757062937
 20
7.1008282389
 10
-18.4410524554
 20
7.0786885551
  0
LWPOLYLINE
  5
269
100
AcDbEntity
  8
RACCORDO
100
AcDbPolyline
 62
7
  6
CONTINUOUS
 90
10
 70
0
 10
-18.5874962486
 20
-8.230552773
 10
-18.5650330582
 20
-9.2350326511
 10
-18.528102127
 20
-10.2920758237
 10
-18.4776832631
 20
-11.3404297423
 10
-18.4137838787
 20
-12.3798389588
 10
-18.336415173
 20
-13.4100960368
 10
-18.2455881097
 20
-14.4310118772
 10
-18.1413162352
 20
-15.4423801973
 10
-18.023623372
 20
-16.4439561066
 10
-17.9010784441
 20
-17.3741203118
  0
LWPOLYLINE
  5
26A
100
AcDbEntity
  8
RACCORDO
100
AcDbPolyline
 62
253
  6
CONTINUOUS
 90
10
 70
0
 10
-18.4410524821
 20
-8.4342467188
 10
-18.4536013068
 20
-7.6224575728
 10
-18.4647506603
 20
-6.80980744
 10
-18.4745005161
 20
-5.9962996066
 10
-18.4828508312
 20
-5.1819396834
 10
-18.4898016209
 20
-4.3667286463
 10
-18.4953529184
 20
-3.5506628123
 10
-18.499504694
 20
-2.7337431307
 10
-18.5022568949
 20
-1.9159752066
 10
-18.5036094926
 20
-1.097362325
  0
LWPOLYLINE
  5
26B
100
AcDbEntity
  8
RACCORDO
100
AcDbPolyline
 62
7
  6
CONTINUOUS
 90
12
 70
0
 10
-18.6500569065
 20
-0.1300591153
 10
-18.6499299225
 20
-0.1392430835
 10
-18.646725024
 20
-0.1768754887
 10
-18.639166862
 20
-0.214321728
 10
-18.6272543348
 20
-0.2511191706
 10
-18.6110730733
 20
-0.2867599099
 10
-18.5906805811
 20
-0.3209331239
 10
-18.5661768587
 20
-0.3533265235
 10
-18.5377745076
 20
-0.3835689278
 10
-18.5055853613
 20
-0.4114478872
 10
-18.4696478221
 20
-0.4368073375
 10
-18.4519608841
 20
-0.4475364308
  0
LWPOLYLINE
  5
26C
100
AcDbEntity
  8
RACCORDO
100
AcDbPolyline
 62
7
  6
CONTINUOUS
 90
9
 70
0
 10
-18.6488264541
 20
-1.6618118196
 10
-18.6460994431
 20
-2.494279968
 10
-18.6419223105
 20
-3.3258751085
 10
-18.6362950646
 20
-4.1565934051
 10
-18.6292177229
 20
-4.9864316426
 10
-18.6206903029
 20
-5.8153867826
 10
-18.6107128286
 20
-6.6434555124
 10
-18.5992853442
 20
-7.470633899
 10
-18.5874962713
 20
-8.230553008
  0
LINE
  5
26D
100
AcDbEntity
  8
RACCORDO
100
AcDbLine
 62
7
  6
CONTINUOUS
 10
-18.6488264541
 20
-1.6618118196
 11
-18.6500568847
 21
-0.8920098473
  0
LWPOLYLINE
  5
26E
100
AcDbEntity
  8
RACCORDO
100
AcDbPolyline
 62
253
  6
CONTINUOUS
 90
10
 70
0
 10
-18.5036094926
 20
-0.3329991928
 10
-18.5022568949
 20
0.487231077
 10
-18.499504694
 20
1.3082899798
 10
-18.4953529184
 20
2.1301741978
 10
-18.4898016209
 20
2.9528780653
 10
-18.4828508312
 20
3.7764005981
 10
-18.4745005161
 20
4.6007455168
 10
-18.4647506603
 20
5.4259118631
 10
-18.4536013068
 20
6.2518939764
 10
-18.4410524821
 20
7.0786885403
  0
LWPOLYLINE
  5
26F
100
AcDbEntity
  8
RACCORDO
100
AcDbPolyline
 62
7
  6
CONTINUOUS
 90
10
 70
0
 10
-18.587498799
 20
7.2830394227
 10
-18.5993679587
 20
6.5034741632
 10
-18.6107852358
 20
5.6626778883
 10
-18.6207526311
 20
4.8227202195
 10
-18.6292700839
 20
3.9836051501
 10
-18.6363375542
 20
3.1453360282
 10
-18.6419550081
 20
2.3079159241
 10
-18.6461224118
 20
1.4713480858
 10
-18.648839741
 20
0.6356363718
 10
-18.6500569028
 20
-0.1300544135
  0
LWPOLYLINE
  5
270
100
AcDbEntity
  8
RACCORDO
100
AcDbPolyline
 62
253
  6
CONTINUOUS
 90
10
 70
0
 10
-18.4410524821
 20
7.0786885403
 10
-18.4172683558
 20
8.1574621057
 10
-18.3803573632
 20
9.2435656554
 10
-18.3303273879
 20
10.336771163
 10
-18.2671894016
 20
11.4368492732
 10
-18.1909566095
 20
12.5435689455
 10
-18.1016444441
 20
13.6566975052
 10
-17.9992717
 20
14.776001229
 10
-17.8838605338
 20
15.9012453926
 10
-17.755435604
 20
17.0321939177
  0
LWPOLYLINE
  5
271
100
AcDbEntity
  8
RACCORDO
100
AcDbPolyline
 62
253
  6
CONTINUOUS
 90
13
 70
0
 10
-18.5036094926
 20
-1.097362325
 10
-18.5021499766
 20
-1.0701527965
 10
-18.4977531895
 20
-1.0416860475
 10
-18.4904928527
 20
-1.0124390317
 10
-18.4804906507
 20
-0.9829017344
 10
-18.4679142143
 20
-0.9535690384
 10
-18.4529743316
 20
-0.9249324296
 10
-18.4359213619
 20
-0.897471647
 10
-18.4170410378
 20
-0.8716466834
 10
-18.3966497223
 20
-0.8478901468
 10
-18.3750890637
 20
-0.8265999476
 10
-18.3527202644
 20
-0.8081326424
 10
-18.3299180532
 20
-0.7927974926
  0
LWPOLYLINE
  5
272
100
AcDbEntity
  8
RACCORDO
100
AcDbPolyline
 62
253
  6
CONTINUOUS
 90
31
 70
0
 10
-15.1666984819
 20
9.1433072071
 10
-15.1633360164
 20
9.1550109507
 10
-15.1595007725
 20
9.166235163
 10
-15.1551928362
 20
9.176979801
 10
-15.1504009574
 20
9.1872665922
 10
-15.1451365472
 20
9.1970737291
 10
-15.1394337151
 20
9.2063358516
 10
-15.133290141
 20
9.2150480738
 10
-15.1267083697
 20
9.2232151704
 10
-15.1197298648
 20
9.2307862441
 10
-15.112352449
 20
9.2377572574
 10
-15.1045785584
 20
9.2441321202
 10
-15.0964566204
 20
9.2498718349
 10
-15.0879846025
 20
9.2549724293
 10
-15.0791648102
 20
9.2594377412
 10
-15.0700522088
 20
9.2632404731
 10
-15.0606451371
 20
9.2663764228
 10
-15.0509455239
 20
9.268849661
 10
-15.0410137376
 20
9.2706452898
 10
-15.0308486202
 20
9.2717590602
 10
-15.0204515719
 20
9.2721951022
 10
-15.0098868053
 20
9.2719510843
 10
-14.9991531553
 20
9.2710226864
 10
-14.988251986
 20
9.2694141308
 10
-14.9772512991
 20
9.2671359009
 10
-14.9661494847
 20
9.2641831085
 10
-14.9549482942
 20
9.2605605725
 10
-14.9437207596
 20
9.2562933422
 10
-14.9324912501
 20
9.2513897552
 10
-14.9212354698
 20
9.2458414381
 10
-14.9099534371
 20
9.2396483819
  0
LWPOLYLINE
  5
273
100
AcDbEntity
  8
RACCORDO
100
AcDbPolyline
 62
253
  6
CONTINUOUS
 90
15
 70
0
 10
-15.184578572
 20
9.4443757738
 10
-15.1738915097
 20
9.4766951318
 10
-15.1607204145
 20
9.506021543
 10
-15.1450670707
 20
9.5323541244
 10
-15.1267407718
 20
9.5558882171
 10
-15.105935361
 20
9.5764269308
 10
-15.0832302464
 20
9.5933806468
 10
-15.0586219119
 20
9.6066162617
 10
-15.0321183437
 20
9.6162646883
 10
-15.0043172389
 20
9.6221318284
 10
-14.9751829461
 20
9.6241464785
 10
-14.9447549164
 20
9.6223779877
 10
-14.9137436742
 20
9.616843004
 10
-14.8823868785
 20
9.6075466788
 10
-14.8504491146
 20
9.5944827681
  0
LWPOLYLINE
  5
274
100
AcDbEntity
  8
0
100
AcDbPolyline
 62
253
  6
CONTINUOUS
 90
27
 70
0
 10
-11.7884302103
 20
19.9778176659
 10
-11.7928466977
 20
19.9671375406
 10
-11.7976503
 20
19.9567104794
 10
-11.8028304442
 20
19.9465601631
 10
-11.8083761208
 20
19.9367089555
 10
-11.8142746849
 20
19.9271800576
 10
-11.8205116265
 20
19.9179972076
 10
-11.827072323
 20
19.9091818322
 10
-11.8339424582
 20
19.9007530702
 10
-11.8411066732
 20
19.8927297878
 10
-11.8485489166
 20
19.8851300203
 10
-11.8562523117
 20
19.8779710582
 10
-11.8641993229
 20
19.8712692184
 10
-11.8723719499
 20
19.8650396733
 10
-11.8807518029
 20
19.8592964334
 10
-11.8893199851
 20
19.854052452
 10
-11.8980571695
 20
19.8493195629
 10
-11.9069436223
 20
19.8451084611
 10
-11.9159592653
 20
19.8414286631
 10
-11.9250837408
 20
19.8382884775
 10
-11.9342964584
 20
19.8356949897
 10
-11.9435766226
 20
19.8336540541
 10
-11.9529032852
 20
19.8321702776
 10
-11.962255393
 20
19.8312470097
 10
-11.9716118351
 20
19.8308863346
 10
-11.9809515018
 20
19.8310890669
 10
-11.9870987851
 20
19.8315315696
  0
LWPOLYLINE
  5
275
100
AcDbEntity
  8
RACCORDO
100
AcDbPolyline
 62
253
  6
CONTINUOUS
 90
3
 70
0
 10
-15.035457921
 20
9.4498992437
 10
-15.0257199375
 20
9.4709187426
 10
-15.012616374
 20
9.4924524107
  0
LWPOLYLINE
  5
276
100
AcDbEntity
  8
RACCORDO
100
AcDbPolyline
 62
253
  6
CONTINUOUS
 90
5
 70
0
 10
-15.012616374
 20
9.4924524107
 10
-14.997531802
 20
9.5115562826
 10
-14.9805879382
 20
9.5280362372
 10
-14.9619762725
 20
9.5417096457
 10
-14.954844022
 20
9.5459604786
  0
LWPOLYLINE
  5
277
100
AcDbEntity
  8
RACCORDO
100
AcDbPolyline
 62
7
  6
CONTINUOUS
 90
15
 70
0
 10
-0.6873937807
 20
23.4954081131
 10
-0.6855167163
 20
23.4970111149
 10
-0.6613347882
 20
23.5165170366
 10
-0.6362990194
 20
23.5356823583
 10
-0.6103999311
 20
23.5546125597
 10
-0.5838098884
 20
23.5732440497
 10
-0.5565476184
 20
23.5916350753
 10
-0.5286324611
 20
23.6098543678
 10
-0.5002404365
 20
23.6278544777
 10
-0.4713662828
 20
23.6456883916
 10
-0.4420473373
 20
23.6633920413
 10
-0.4125210517
 20
23.6808825478
 10
-0.3828722794
 20
23.6981464917
 10
-0.3530335733
 20
23.7152411595
 10
-0.3230098219
 20
23.7321785482
  0
LWPOLYLINE
  5
278
100
AcDbEntity
  8
0
100
AcDbPolyline
 62
253
  6
CONTINUOUS
 90
3
 70
0
 10
-6.1386910802
 20
18.4159079735
 10
-6.1313390946
 20
18.4208683876
 10
-6.1239648124
 20
18.4253979718
  0
LINE
  5
279
100
AcDbEntity
  8
0
100
AcDbLine
 62
7
  6
CONTINUOUS
 10
-5.9829602081
 20
17.0256752549
 11
-5.767732037
 21
17.1607065903
  0
LINE
  5
27A
100
AcDbEntity
  8
0
100
AcDbLine
 62
7
  6
CONTINUOUS
 10
-4.312829493
 20
17.5783401975
 11
-4.5245540546
 21
17.4525058266
  0
LINE
  5
27B
100
AcDbEntity
  8
0
100
AcDbLine
 62
253
  6
CONTINUOUS
 10
-4.2120989134
 20
17.5688559642
 11
-4.4231952709
 21
17.4433949542
  0
LINE
  5
27C
100
AcDbEntity
  8
0
100
AcDbLine
 62
7
  6
CONTINUOUS
 10
-5.767732037
 20
17.1607065903
 11
-5.0710461315
 21
17.5657978642
  0
LINE
  5
27D
100
AcDbEntity
  8
0
100
AcDbLine
 62
253
  6
CONTINUOUS
 10
-5.9091515983
 20
18.5487129155
 11
-5.2222498129
 21
18.9476496601
  0
LINE
  5
27E
100
AcDbEntity
  8
0
100
AcDbLine
 62
253
  6
CONTINUOUS
 10
-5.767732037
 20
18.3037705047
 11
-5.0796068359
 21
18.7034177811
  0
LINE
  5
27F
100
AcDbEntity
  8
0
100
AcDbLine
 62
7
  6
CONTINUOUS
 10
-1.5370311103
 20
20.6650294618
 11
-0.4451481482
 21
21.2954689997
  0
LINE
  5
280
100
AcDbEntity
  8
RACCORDO
100
AcDbLine
 62
7
  6
CONTINUOUS
 10
-3.2456197075
 20
19.5828833182
 11
-3.1854052622
 21
19.6176503843
  0
LINE
  5
281
100
AcDbEntity
  8
RACCORDO
100
AcDbLine
 62
253
  6
CONTINUOUS
 10
-3.1514369466
 20
19.5696134918
 11
-3.0854004302
 21
19.6077421488
  0
LINE
  5
282
100
AcDbEntity
  8
0
100
AcDbLine
 62
7
  6
CONTINUOUS
 10
-4.3113752665
 20
17.5791798852
 11
-4.3128294983
 21
17.5783401943
  0
LINE
  5
283
100
AcDbEntity
  8
0
100
AcDbLine
 62
253
  6
CONTINUOUS
 10
-6.1239648124
 20
18.4253979718
 11
-5.9091515983
 21
18.5487129155
  0
LINE
  5
284
100
AcDbEntity
  8
0
100
AcDbLine
 62
253
  6
CONTINUOUS
 10
-5.9829602081
 20
18.1802173522
 11
-5.767732037
 21
18.3037705047
  0
LINE
  5
285
100
AcDbEntity
  8
0
100
AcDbLine
 62
7
  6
CONTINUOUS
 10
0.5964182897
 20
22.4206388992
 11
-1.5387173141
 21
21.2023058699
  0
LINE
  5
286
100
AcDbEntity
  8
RACCORDO
100
AcDbLine
 62
7
  6
CONTINUOUS
 10
5.7804362897
 20
24.4325082035
 11
3.1782910518
 21
22.9524509404
  0
LWPOLYLINE
  5
287
100
AcDbEntity
  8
RACCORDO
100
AcDbPolyline
 62
253
  6
CONTINUOUS
 90
55
 70
0
 10
-3.0854004302
 20
19.6077421488
 10
-3.0696493242
 20
19.6165966486
 10
-3.0535199194
 20
19.6251940176
 10
-3.0370122157
 20
19.6335342557
 10
-3.0201128583
 20
19.6416233739
 10
-3.0028352021
 20
19.6494553611
 10
-2.9852193114
 20
19.6570121845
 10
-2.9672647123
 20
19.6642929791
 10
-2.9489718787
 20
19.6712986099
 10
-2.9303822975
 20
19.6780136384
 10
-2.9114953853
 20
19.684437322
 10
-2.8923117255
 20
19.6905704033
 10
-2.8728745544
 20
19.6963996727
 10
-2.853183394
 20
19.7019243849
 10
-2.8332387222
 20
19.7071452852
 10
-2.8130852098
 20
19.7120513996
 10
-2.7927223977
 20
19.7166419909
 10
-2.7721507449
 20
19.7209177964
 10
-2.7514162989
 20
19.7248700541
 10
-2.7305188281
 20
19.7284979925
 10
-2.709458564
 20
19.7318023831
 10
-2.6882822482
 20
19.7347767787
 10
-2.6669897232
 20
19.7374204181
 10
-2.6455811464
 20
19.7397340624
 10
-2.6241037322
 20
19.7417135482
 10
-2.602557495
 20
19.7433581183
 10
-2.5809424203
 20
19.7446685298
 10
-2.5593056792
 20
19.7456428907
 10
-2.537647324
 20
19.7462804626
 10
-2.5159673023
 20
19.7465819839
 10
-2.494312628
 20
19.7465477774
 10
-2.4726835154
 20
19.7461771222
 10
-2.4510797501
 20
19.7454707393
 10
-2.4295477028
 20
19.7444311141
 10
-2.4080876144
 20
19.7430575453
 10
-2.386699244
 20
19.7413507342
 10
-2.3654282399
 20
19.7393152706
 10
-2.3442749988
 20
19.7369504837
 10
-2.323239124
 20
19.7342570442
 10
-2.3023650735
 20
19.731241554
 10
-2.2816533204
 20
19.7279033789
 10
-2.2611033917
 20
19.724243153
 10
-2.2407583262
 20
19.720269381
 10
-2.2206186637
 20
19.7159814652
 10
-2.2006838644
 20
19.7113800033
 10
-2.1809953481
 20
19.7064752927
 10
-2.1615535881
 20
19.7012667321
 10
-2.142358111
 20
19.6957549229
 10
-2.1234489165
 20
19.6899519661
 10
-2.1048265185
 20
19.6838572408
 10
-2.0864904029
 20
19.677471368
 10
-2.0684790272
 20
19.6708083122
 10
-2.0508052104
 20
19.6638727281
 10
-2.0334561335
 20
19.6566599611
 10
-2.0164317963
 20
19.649170011
  0
LINE
  5
288
100
AcDbEntity
  8
0
100
AcDbLine
 62
7
  6
CONTINUOUS
 10
-3.612020618
 20
17.9713343081
 11
-4.3113752713
 21
17.5791798824
  0
LINE
  5
289
100
AcDbEntity
  8
0
100
AcDbLine
 62
253
  6
CONTINUOUS
 10
-3.5131025783
 20
17.9608094675
 11
-4.2120989134
 21
17.5688559642
  0
LWPOLYLINE
  5
28A
100
AcDbEntity
  8
RACCORDO
100
AcDbPolyline
 62
7
  6
CONTINUOUS
 90
22
 70
0
 10
-3.245619628
 20
19.5828833642
 10
-3.2425641793
 20
19.5845080668
 10
-3.2391254948
 20
19.5860317204
 10
-3.2355343171
 20
19.5873206079
 10
-3.231796126
 20
19.5883723404
 10
-3.2279167685
 20
19.5891847714
 10
-3.2239003319
 20
19.5897572408
 10
-3.2197528258
 20
19.5900884209
 10
-3.2154806147
 20
19.5901772286
 10
-3.2110885668
 20
19.5900239185
 10
-3.2065831511
 20
19.5896282503
 10
-3.201971167
 20
19.5889902245
 10
-3.1972581834
 20
19.5881110093
 10
-3.1924510447
 20
19.5869914598
 10
-3.1875569012
 20
19.5856326623
 10
-3.1825819409
 20
19.5840366774
 10
-3.1775333011
 20
19.5822054489
 10
-3.1724183888
 20
19.5801411355
 10
-3.1672439097
 20
19.5778466474
 10
-3.1620170727
 20
19.5753250217
 10
-3.1567455801
 20
19.5725794282
 10
-3.1514369466
 20
19.5696134918
  0
LWPOLYLINE
  5
28B
100
AcDbEntity
  8
RACCORDO
100
AcDbPolyline
 62
253
  6
CONTINUOUS
 90
19
 70
0
 10
-3.185400426
 20
19.6176531764
 10
-3.1809433091
 20
19.6200063653
 10
-3.1763043211
 20
19.6220253689
 10
-3.1714922923
 20
19.6237063441
 10
-3.1665163828
 20
19.6250460911
 10
-3.1613860645
 20
19.6260420595
 10
-3.1561111033
 20
19.6266923534
 10
-3.1507015404
 20
19.6269957351
 10
-3.1451676731
 20
19.626951627
 10
-3.1395200356
 20
19.626560113
 10
-3.1337693784
 20
19.6258219386
 10
-3.1279266481
 20
19.6247385087
 10
-3.1220029669
 20
19.6233118859
 10
-3.1160096107
 20
19.6215447857
 10
-3.1099579883
 20
19.619440572
 10
-3.1038596192
 20
19.6170032502
 10
-3.0977261121
 20
19.61423746
 10
-3.0915691424
 20
19.6111484661
 10
-3.0854004302
 20
19.6077421488
  0
LWPOLYLINE
  5
28C
100
AcDbEntity
  8
RACCORDO
100
AcDbPolyline
 62
253
  6
CONTINUOUS
 90
5
 70
0
 10
-6.6466383248
 20
-16.0723915625
 10
-6.6573812051
 20
-16.0678644176
 10
-6.6656980252
 20
-16.0621818234
 10
-6.6713409653
 20
-16.0555131064
 10
-6.6740465258
 20
-16.0485700886
  0
LINE
  5
28D
100
AcDbEntity
  8
RACCORDO
100
AcDbLine
 62
253
  6
CONTINUOUS
 10
-15.0640058425
 20
-11.2766992429
 11
-7.2021979188
 21
-15.8160086064
  0
LINE
  5
28E
100
AcDbEntity
  8
RACCORDO
100
AcDbLine
 62
253
  6
CONTINUOUS
 10
-14.9589103447
 20
-11.0899881683
 11
-7.097102421
 21
-15.6292975318
  0
LINE
  5
28F
100
AcDbEntity
  8
RACCORDO
100
AcDbLine
 62
253
  6
CONTINUOUS
 10
-14.9736741999
 20
-10.9846231249
 11
-14.973349381
 21
-10.9848131242
  0
LWPOLYLINE
  5
290
100
AcDbEntity
  8
RACCORDO
100
AcDbPolyline
 62
253
  6
CONTINUOUS
 90
31
 70
0
 10
-7.2021979188
 20
-15.8160086064
 10
-7.1909182503
 20
-15.8228113315
 10
-7.1796882884
 20
-15.8301539701
 10
-7.1685080149
 20
-15.8380365111
 10
-7.1573530813
 20
-15.8464781962
 10
-7.1462477628
 20
-15.8554597389
 10
-7.1352649599
 20
-15.8649233261
 10
-7.124406588
 20
-15.8748712876
 10
-7.1136705906
 20
-15.8853012072
 10
-7.103123899
 20
-15.8961481461
 10
-7.0927678441
 20
-15.9074144319
 10
-7.0826008964
 20
-15.9190976156
 10
-7.0726856924
 20
-15.9311255912
 10
-7.063023577
 20
-15.9435005411
 10
-7.0536129639
 20
-15.9562201352
 10
-7.0445120992
 20
-15.9692055027
 10
-7.0357227687
 20
-15.9824582792
 10
-7.0272429203
 20
-15.9959766659
 10
-7.0191250605
 20
-16.0096766519
 10
-7.0113714101
 20
-16.0235591072
 10
-7.003979477
 20
-16.0376229954
 10
-6.9969947302
 20
-16.0517814645
 10
-6.9904194646
 20
-16.0660353556
 10
-6.9842511287
 20
-16.0803836699
 10
-6.9785279652
 20
-16.0947368226
 10
-6.9732524356
 20
-16.1090961896
 10
-6.968421856
 20
-16.1234602579
 10
-6.9640668079
 20
-16.1377351442
 10
-6.9601974442
 20
-16.1518895286
 10
-6.9568034524
 20
-16.1659546323
 10
-6.9538847472
 20
-16.1799304025
  0
LWPOLYLINE
  5
291
100
AcDbEntity
  8
RACCORDO
100
AcDbPolyline
 62
253
  6
CONTINUOUS
 90
31
 70
0
 10
-7.0971024174
 20
-15.6292980114
 10
-7.0810536966
 20
-15.6390171185
 10
-7.0650184993
 20
-15.6495512589
 10
-7.0490343813
 20
-15.6608772155
 10
-7.0331363099
 20
-15.6729702389
 10
-7.0173553825
 20
-15.6858053928
 10
-7.0017214272
 20
-15.6993586395
 10
-6.986265492
 20
-15.7136032003
 10
-6.9710204436
 20
-15.7285080956
 10
-6.9560189273
 20
-15.7440419557
 10
-6.9412925473
 20
-15.7601725048
 10
-6.9268709533
 20
-15.7768659902
 10
-6.9127835987
 20
-15.7940883371
 10
-6.8990596867
 20
-15.8118045309
 10
-6.8857271804
 20
-15.8299771874
 10
-6.8728136113
 20
-15.8485685666
 10
-6.8603460939
 20
-15.8675406489
 10
-6.8483497963
 20
-15.8868537252
 10
-6.8368493232
 20
-15.9064674926
 10
-6.825869086
 20
-15.9263415665
 10
-6.8154310792
 20
-15.9464348305
 10
-6.8055562515
 20
-15.9667058515
 10
-6.7962655061
 20
-15.9871134661
 10
-6.7875778808
 20
-16.0076147247
 10
-6.7795111748
 20
-16.028165401
 10
-6.772083154
 20
-16.048721714
 10
-6.7653083239
 20
-16.0692429645
 10
-6.759198929
 20
-16.0896898531
 10
-6.7537679504
 20
-16.1100218773
 10
-6.7490274517
 20
-16.1301946852
 10
-6.7449875523
 20
-16.150161572
  0
LWPOLYLINE
  5
292
100
AcDbEntity
  8
RACCORDO
100
AcDbPolyline
 62
253
  6
CONTINUOUS
 90
5
 70
0
 10
-15.3313161929
 20
-11.0579613687
 10
-15.3183090482
 20
-11.0671498912
 10
-15.3035827903
 20
-11.0747743838
 10
-15.2875763266
 20
-11.0806076029
 10
-15.2707667201
 20
-11.084475693
  0
LWPOLYLINE
  5
293
100
AcDbEntity
  8
RACCORDO
100
AcDbPolyline
 62
253
  6
CONTINUOUS
 90
6
 70
0
 10
-6.5019057835
 20
-19.1950007814
 10
-6.51307087
 20
-19.1843826756
 10
-6.5217310738
 20
-19.1726552689
 10
-6.5276207494
 20
-19.160178291
 10
-6.5305592352
 20
-19.1473344643
 10
-6.5303401309
 20
-19.133668351
  0
LWPOLYLINE
  5
294
100
AcDbEntity
  8
RACCORDO
100
AcDbPolyline
 62
253
  6
CONTINUOUS
 90
12
 70
0
 10
-15.2071510201
 20
-14.2096397559
 10
-15.2069250449
 20
-14.2105718179
 10
-15.205451039
 20
-14.215059971
 10
-15.2033765097
 20
-14.2193869424
 10
-15.2007100758
 20
-14.2235347547
 10
-15.1974628158
 20
-14.2274861749
 10
-15.1936482212
 20
-14.231224786
 10
-15.1892821404
 20
-14.2347350551
 10
-15.1843827133
 20
-14.2380023979
 10
-15.1789702957
 20
-14.2410132397
 10
-15.1730673747
 20
-14.2437550711
 10
-15.1666984753
 20
-14.2462165007
  0
LWPOLYLINE
  5
295
100
AcDbEntity
  8
RACCORDO
100
AcDbPolyline
 62
7
  6
CONTINUOUS
 90
28
 70
0
 10
-15.2071540705
 20
-14.2096252565
 10
-15.2051430992
 20
-14.2181455206
 10
-15.1995031443
 20
-14.2395803114
 10
-15.1930849575
 20
-14.2608879669
 10
-15.1859280999
 20
-14.2820264606
 10
-15.178063109
 20
-14.3029821933
 10
-15.1695088385
 20
-14.3237575588
 10
-15.1602936456
 20
-14.3443242929
 10
-15.1504453121
 20
-14.3646532082
 10
-15.1399783265
 20
-14.3847358145
 10
-15.1289179186
 20
-14.4045414253
 10
-15.1172873415
 20
-14.4240405414
 10
-15.1050968116
 20
-14.443221903
 10
-15.0923667791
 20
-14.4620564639
 10
-15.0791194284
 20
-14.4805095545
 10
-15.0653666812
 20
-14.4985604774
 10
-15.0511262695
 20
-14.5161792005
 10
-15.0364190865
 20
-14.5333288376
 10
-15.021259356
 20
-14.5499813719
 10
-15.0056637316
 20
-14.5661035654
 10
-14.9896499965
 20
-14.5816588596
 10
-14.9732279301
 20
-14.5966189435
 10
-14.9564119959
 20
-14.6109468008
 10
-14.939215683
 20
-14.6246044898
 10
-14.9216345844
 20
-14.6375656578
 10
-14.9036687666
 20
-14.6497932654
 10
-14.8853370726
 20
-14.6612362379
 10
-14.8791726698
 20
-14.6648531486
  0
LWPOLYLINE
  5
296
100
AcDbEntity
  8
RACCORDO
100
AcDbPolyline
 62
253
  6
CONTINUOUS
 90
19
 70
0
 10
-15.1666984819
 20
-14.2462165051
 10
-15.204489004
 20
-14.073278975
 10
-15.2387507353
 20
-13.9014749092
 10
-15.2694804169
 20
-13.7308029763
 10
-15.2966920891
 20
-13.561150066
 10
-15.3203647397
 20
-13.3926263814
 10
-15.3404444193
 20
-13.2255668134
 10
-15.3569193595
 20
-13.059993766
 10
-15.3697986203
 20
-12.8958847716
 10
-15.3790630038
 20
-12.7335096907
 10
-15.384706363
 20
-12.5728733518
 10
-15.3867352844
 20
-12.4139728994
 10
-15.3851528808
 20
-12.2570687136
 10
-15.3799520488
 20
-12.1021517182
 10
-15.3711434694
 20
-11.9492349192
 10
-15.3587604208
 20
-11.7986140025
 10
-15.3428172947
 20
-11.6503901289
 10
-15.3233074965
 20
-11.5044686202
 10
-15.3002346964
 20
-11.3608525461
  0
LWPOLYLINE
  5
297
100
AcDbEntity
  8
RACCORDO
100
AcDbPolyline
 62
253
  6
CONTINUOUS
 90
6
 70
0
 10
-14.9940333813
 20
-10.9411640574
 10
-14.9926920564
 20
-10.9542195155
 10
-14.9893361394
 20
-10.9656478599
 10
-14.9840631251
 20
-10.9751170779
 10
-14.9770262038
 20
-10.9823520727
 10
-14.9736741999
 20
-10.9846231249
  0
LINE
  5
298
100
AcDbEntity
  8
RACCORDO
100
AcDbLine
 62
253
  6
CONTINUOUS
 10
-15.4298244014
 20
7.2977793219
 11
-15.4305407073
 21
7.3142057681
  0
LWPOLYLINE
  5
299
100
AcDbEntity
  8
RACCORDO
100
AcDbPolyline
 62
253
  6
CONTINUOUS
 90
6
 70
0
 10
-15.4305407073
 20
7.3142057681
 10
-15.4306287784
 20
7.6902904709
 10
-15.4141936171
 20
8.0604170731
 10
-15.3813362418
 20
8.4212433679
 10
-15.3321207922
 20
8.7716339696
 10
-15.2665288313
 20
9.1126839284
  0
LWPOLYLINE
  5
29A
100
AcDbEntity
  8
RACCORDO
100
AcDbPolyline
 62
253
  6
CONTINUOUS
 90
4
 70
0
 10
-15.4306228773
 20
-12.357682923
 10
-15.4305438175
 20
-12.0238542731
 10
-15.4139342753
 20
-11.6924370286
 10
-15.3808528267
 20
-11.3704664924
  0
LINE
  5
29B
100
AcDbEntity
  8
RACCORDO
100
AcDbLine
 62
253
  6
CONTINUOUS
 10
-14.9940333813
 20
5.628972544
 11
-14.9934276025
 21
5.6355676642
  0
LWPOLYLINE
  5
29C
100
AcDbEntity
  8
RACCORDO
100
AcDbPolyline
 62
253
  6
CONTINUOUS
 90
16
 70
0
 10
-15.206028094
 20
9.2334758845
 10
-15.2067308835
 20
9.2304865849
 10
-15.2076949572
 20
9.2243503186
 10
-15.2080491853
 20
9.218094255
 10
-15.2077920962
 20
9.2117443862
 10
-15.2069247581
 20
9.2053270941
 10
-15.2054507743
 20
9.1988690406
 10
-15.203376269
 20
9.1923970571
 10
-15.2007098611
 20
9.1859380327
 10
-15.1974626287
 20
9.1795188029
 10
-15.1936480631
 20
9.1731660376
 10
-15.1892820128
 20
9.1669061308
 10
-15.1843826174
 20
9.1607650905
 10
-15.1789702324
 20
9.154768431
 10
-15.1730673448
 20
9.1489410666
 10
-15.1666984793
 20
9.1433072084
  0
LINE
  5
29D
100
AcDbEntity
  8
RACCORDO
100
AcDbLine
 62
253
  6
CONTINUOUS
 10
-15.2665288313
 20
9.1126839284
 11
-15.184578572
 21
9.4443757738
  0
LWPOLYLINE
  5
29E
100
AcDbEntity
  8
RACCORDO
100
AcDbPolyline
 62
7
  6
CONTINUOUS
 90
19
 70
0
 10
-15.2060284697
 20
9.2334759828
 10
-15.2422794749
 20
9.0878269058
 10
-15.2778036873
 20
8.9286256223
 10
-15.309662623
 20
8.7670693321
 10
-15.3378346608
 20
8.6032502408
 10
-15.3623047964
 20
8.4372573749
 10
-15.3830593478
 20
8.2691822788
 10
-15.4000868162
 20
8.0991102818
 10
-15.4133796322
 20
7.9271328417
 10
-15.4229308559
 20
7.7533512278
 10
-15.4287358627
 20
7.5778555769
 10
-15.4307951796
 20
7.4007409161
 10
-15.429111012
 20
7.2221166188
 10
-15.4236873263
 20
7.0420797002
 10
-15.4145324651
 20
6.8607185384
 10
-15.4016563302
 20
6.6781301012
 10
-15.3850703179
 20
6.494410299
 10
-15.3647922069
 20
6.3096630357
 10
-15.3428341969
 20
6.1384573604
  0
LINE
  5
29F
100
AcDbEntity
  8
RACCORDO
100
AcDbLine
 62
7
  6
CONTINUOUS
 10
-3.2540354667
 20
19.5767401195
 11
-5.0737384255
 21
17.9235730062
  0
LINE
  5
2A0
100
AcDbEntity
  8
0
100
AcDbLine
 62
253
  6
CONTINUOUS
 10
-3.1514369466
 20
19.5696134918
 11
-5.0729885172
 21
17.8239187631
  0
LWPOLYLINE
  5
2A1
100
AcDbEntity
  8
RACCORDO
100
AcDbPolyline
 62
7
  6
CONTINUOUS
 90
4
 70
0
 10
-3.254035214
 20
19.5767402698
 10
-3.2519250972
 20
19.5785507758
 10
-3.2489690522
 20
19.5807643027
 10
-3.245619628
 20
19.5828833642
  0
LWPOLYLINE
  5
2A2
100
AcDbEntity
  8
RACCORDO
100
AcDbPolyline
 62
253
  6
CONTINUOUS
 90
22
 70
0
 10
-14.8051159499
 20
9.4133964186
 10
-14.812614895
 20
9.4086843594
 10
-14.8200716472
 20
9.4033852261
 10
-14.8274488605
 20
9.3975255586
 10
-14.8347095875
 20
9.3911347039
 10
-14.841817464
 20
9.3842446697
 10
-14.8487368913
 20
9.3768899637
 10
-14.8554332146
 20
9.3691074205
 10
-14.8618728965
 20
9.3609360178
 10
-14.8680236849
 20
9.3524166808
 10
-14.8738547746
 20
9.3435920771
 10
-14.8793369615
 20
9.3345064033
 10
-14.8844427889
 20
9.3252051635
 10
-14.8891466853
 20
9.3157349415
 10
-14.8934250919
 20
9.3061431673
 10
-14.897256581
 20
9.2964778797
 10
-14.9006219632
 20
9.2867874857
 10
-14.9035043835
 20
9.2771205181
 10
-14.9058894059
 20
9.2675253924
 10
-14.9077650853
 20
9.258050164
 10
-14.9091220277
 20
9.2487422882
 10
-14.9099534371
 20
9.2396483819
  0
LWPOLYLINE
  5
2A3
100
AcDbEntity
  8
RACCORDO
100
AcDbPolyline
 62
7
  6
CONTINUOUS
 90
17
 70
0
 10
-15.0628347598
 20
9.4335884437
 10
-15.0728373599
 20
9.4273471636
 10
-15.0856533232
 20
9.4184709552
 10
-15.0981200111
 20
9.4087914832
 10
-15.1101749015
 20
9.3983302697
 10
-15.1217772939
 20
9.3870973579
 10
-15.1328884888
 20
9.3751039932
 10
-15.1434588385
 20
9.3623814219
 10
-15.1534576838
 20
9.3489468696
 10
-15.1628545255
 20
9.3348197631
 10
-15.1716111387
 20
9.3200373835
 10
-15.1797055025
 20
9.3046213037
 10
-15.1871186958
 20
9.2885899748
 10
-15.1938270509
 20
9.2719746745
 10
-15.1998140309
 20
9.254798935
 10
-15.2050670834
 20
9.2370814759
 10
-15.2060261493
 20
9.233483317
  0
LINE
  5
2A4
100
AcDbEntity
  8
RACCORDO
100
AcDbLine
 62
7
  6
CONTINUOUS
 10
-14.8629476415
 20
9.5526767065
 11
-15.0628602152
 21
9.4335736179
  0
LINE
  5
2A5
100
AcDbEntity
  8
RACCORDO
100
AcDbLine
 62
7
  6
CONTINUOUS
 10
-15.0628596541
 20
9.4335736185
 11
-15.0628282746
 21
9.4335923079
  0
LINE
  5
2A6
100
AcDbEntity
  8
RACCORDO
100
AcDbLine
 62
253
  6
CONTINUOUS
 10
-14.8051159499
 20
9.4133964186
 11
-14.7059217303
 21
9.4724942446
  0
LINE
  5
2A7
100
AcDbEntity
  8
0
100
AcDbLine
 62
7
  6
CONTINUOUS
 10
-2.7999332929
 20
16.5061438324
 11
-3.6402408661
 21
16.0067233872
  0
LINE
  5
2A8
100
AcDbEntity
  8
0
100
AcDbLine
 62
7
  6
CONTINUOUS
 10
-2.9808309917
 20
15.62598839
 11
3.3604919896
 21
19.2873915598
  0
LWPOLYLINE
  5
2A9
100
AcDbEntity
  8
RACCORDO
100
AcDbPolyline
 62
253
  6
CONTINUOUS
 90
19
 70
0
 10
-15.0628282746
 20
9.4335923079
 10
-15.0574250737
 20
9.4366873232
 10
-15.0450963489
 20
9.4428851873
 10
-15.0323073174
 20
9.4481570863
 10
-15.019084762
 20
9.4524909112
 10
-15.0054574072
 20
9.4558786206
 10
-14.9914523951
 20
9.4583141552
 10
-14.9770990016
 20
9.4597911816
 10
-14.9624278827
 20
9.460307405
 10
-14.9474680959
 20
9.4598627013
 10
-14.9322503225
 20
9.4584565831
 10
-14.9168073943
 20
9.4560925918
 10
-14.9011716102
 20
9.4527770081
 10
-14.8853766428
 20
9.4485161232
 10
-14.8694542516
 20
9.4433186202
 10
-14.8534336429
 20
9.4371948199
 10
-14.8373460834
 20
9.4301552598
 10
-14.8212275784
 20
9.4222155804
 10
-14.8051159466
 20
9.413395982
  0
LINE
  5
2AA
100
AcDbEntity
  8
0
100
AcDbLine
 62
7
  6
CONTINUOUS
 10
2.7440201648
 20
19.6433346652
 11
-1.8681543339
 21
17.0110369672
  0
LINE
  5
2AB
100
AcDbEntity
  8
0
100
AcDbLine
 62
7
  6
CONTINUOUS
 10
3.5241454377
 20
19.2115217319
 11
4.8469078993
 21
19.9664594698
  0
LINE
  5
2AC
100
AcDbEntity
  8
RACCORDO
100
AcDbLine
 62
7
  6
CONTINUOUS
 10
-14.954844022
 20
9.5459604786
 11
-14.9546189637
 21
9.5460866319
  0
LWPOLYLINE
  5
2AD
100
AcDbEntity
  8
RACCORDO
100
AcDbPolyline
 62
7
  6
CONTINUOUS
 90
3
 70
0
 10
-14.9548312165
 20
9.5459676417
 10
-14.9485638269
 20
9.5491916822
 10
-14.9322607969
 20
9.5550465075
  0
LINE
  5
2AE
100
AcDbEntity
  8
0
100
AcDbLine
 62
7
  6
CONTINUOUS
 10
3.4327343151
 20
19.3229422973
 11
3.3933105866
 21
19.3045562485
  0
LINE
  5
2AF
100
AcDbEntity
  8
0
100
AcDbLine
 62
7
  6
CONTINUOUS
 10
3.4502603724
 20
19.3310197119
 11
3.4327343151
 21
19.3229422973
  0
LWPOLYLINE
  5
2B0
100
AcDbEntity
  8
RACCORDO
100
AcDbPolyline
 62
253
  6
CONTINUOUS
 90
3
 70
0
 10
-15.0885664615
 20
-10.901182366
 10
-15.0579347897
 20
-10.9108980901
 10
-15.0264235751
 20
-10.9242252063
  0
LINE
  5
2B1
100
AcDbEntity
  8
RACCORDO
100
AcDbLine
 62
253
  6
CONTINUOUS
 10
-15.0264235751
 20
-10.9242252063
 11
-14.9940333813
 21
-10.9411640574
  0
LINE
  5
2B2
100
AcDbEntity
  8
RACCORDO
100
AcDbLine
 62
7
  6
CONTINUOUS
 10
-14.9836799036
 20
-10.9790612522
 11
-14.9736749764
 21
-10.98462447
  0
LINE
  5
2B3
100
AcDbEntity
  8
RACCORDO
100
AcDbLine
 62
7
  6
CONTINUOUS
 10
-14.973349381
 20
-10.9848131242
 11
-6.9790092455
 21
-15.6006449257
  0
LINE
  5
2B4
100
AcDbEntity
  8
RACCORDO
100
AcDbLine
 62
253
  6
CONTINUOUS
 10
-14.9940333813
 20
-10.9411640574
 11
-6.999693243
 21
-15.5569958607
  0
LINE
  5
2B5
100
AcDbEntity
  8
RACCORDO
100
AcDbLine
 62
253
  6
CONTINUOUS
 10
-3.5733690148
 20
-17.018660817
 11
-18.4410524821
 21
-8.4342467188
  0
LWPOLYLINE
  5
2B6
100
AcDbEntity
  8
RACCORDO
100
AcDbPolyline
 62
253
  6
CONTINUOUS
 90
3
 70
0
 10
-6.999693243
 20
-15.5569958607
 10
-6.9676725099
 20
-15.5771360957
 10
-6.9362517563
 20
-15.6000475807
  0
LINE
  5
2B7
100
AcDbEntity
  8
RACCORDO
100
AcDbLine
 62
7
  6
CONTINUOUS
 10
-6.9789164752
 20
-15.600708451
 11
-6.950963907
 21
-15.6183956874
  0
LWPOLYLINE
  5
2B8
100
AcDbEntity
  8
RACCORDO
100
AcDbPolyline
 62
7
  6
CONTINUOUS
 90
3
 70
0
 10
-6.950963907
 20
-15.6183956874
 10
-6.9231482126
 20
-15.6390406213
 10
-6.8952586121
 20
-15.6628100488
  0
LWPOLYLINE
  5
2B9
100
AcDbEntity
  8
RACCORDO
100
AcDbPolyline
 62
253
  6
CONTINUOUS
 90
3
 70
0
 10
-6.9362517563
 20
-15.6000475807
 10
-6.9054304274
 20
-15.6257299785
 10
-6.8749275578
 20
-15.6544700648
  0
LWPOLYLINE
  5
2BA
100
AcDbEntity
  8
RACCORDO
100
AcDbPolyline
 62
7
  6
CONTINUOUS
 90
10
 70
0
 10
-6.8952586121
 20
-15.6628100488
 10
-6.8677005164
 20
-15.6894449707
 10
-6.8408306725
 20
-15.718675768
 10
-6.8149790834
 20
-15.7501890923
 10
-6.7904271007
 20
-15.7836773056
 10
-6.7674706989
 20
-15.8187768712
 10
-6.746372553
 20
-15.8551005558
 10
-6.7273315631
 20
-15.89230033
 10
-6.7105686446
 20
-15.9299454847
 10
-6.6962675646
 20
-15.9676002
  0
LWPOLYLINE
  5
2BB
100
AcDbEntity
  8
RACCORDO
100
AcDbPolyline
 62
253
  6
CONTINUOUS
 90
9
 70
0
 10
-6.8749275578
 20
-15.6544700648
 10
-6.8450218713
 20
-15.6859797008
 10
-6.8165520031
 20
-15.7193959682
 10
-6.7896094924
 20
-15.7547046385
 10
-6.7640990232
 20
-15.7919176391
 10
-6.7405791441
 20
-15.8302114031
 10
-6.7190729741
 20
-15.8696278286
 10
-6.6995530255
 20
-15.9101223471
 10
-6.6825028055
 20
-15.9507422191
  0
LWPOLYLINE
  5
2BC
100
AcDbEntity
  8
0
100
AcDbPolyline
 62
253
  6
CONTINUOUS
 90
34
 70
0
 10
0.5152277824
 20
-26.062546045
 10
0.5108071699
 20
-26.0564441491
 10
0.5059998733
 20
-26.0501243173
 10
0.5008167427
 20
-26.0436008138
 10
0.4952694797
 20
-26.036888366
 10
0.4893706019
 20
-26.0300021205
 10
0.4831334126
 20
-26.0229576079
 10
0.4765719788
 20
-26.0157707177
 10
0.4697011163
 20
-26.0084576794
 10
0.4625363476
 20
-26.0010350147
 10
0.455093851
 20
-25.9935194838
 10
0.4473904189
 20
-25.9859280432
 10
0.4394434353
 20
-25.9782778241
 10
0.4312708359
 20
-25.9705860924
 10
0.4228910677
 20
-25.9628702097
 10
0.4143230441
 20
-25.9551475908
 10
0.4055861039
 20
-25.9474356663
 10
0.3966999663
 20
-25.9397518419
 10
0.3876846866
 20
-25.9321134594
 10
0.3785606142
 20
-25.9245377603
 10
0.3693483409
 20
-25.9170418417
 10
0.3600686534
 20
-25.9096426178
 10
0.3507424844
 20
-25.9023567799
 10
0.3413908951
 20
-25.8952007822
 10
0.3320350212
 20
-25.8881907976
 10
0.3226959963
 20
-25.8813426593
 10
0.3133948815
 20
-25.8746718094
 10
0.3041526467
 20
-25.8681932872
 10
0.2949899203
 20
-25.8619215585
 10
0.2859276192
 20
-25.855870946
 10
0.2769868515
 20
-25.8500555263
 10
0.2681879799
 20
-25.8444885036
 10
0.2595506034
 20
-25.8391822374
 10
0.2510941704
 20
-25.8341486399
  0
LWPOLYLINE
  5
2BD
100
AcDbEntity
  8
0
100
AcDbPolyline
 62
253
  6
CONTINUOUS
 90
19
 70
0
 10
-13.8194902403
 20
20.9475765914
 10
-13.8193219444
 20
20.9387691261
 10
-13.8188173772
 20
20.9301727743
 10
-13.8179774994
 20
20.921803904
 10
-13.8168039137
 20
20.9136784712
 10
-13.8152988528
 20
20.9058119245
 10
-13.8134651664
 20
20.8982191825
 10
-13.8113063223
 20
20.8909146604
 10
-13.8088264349
 20
20.8839123266
 10
-13.8060302552
 20
20.877225603
 10
-13.8029231326
 20
20.8708672579
 10
-13.7995109705
 20
20.8648493496
 10
-13.7958002425
 20
20.8591832933
 10
-13.7917979818
 20
20.8538798434
 10
-13.7875118326
 20
20.8489491439
 10
-13.7829500231
 20
20.8444006504
 10
-13.7781212936
 20
20.8402430453
 10
-13.7730348078
 20
20.8364841881
 10
-13.7677195851
 20
20.8331423761
  0
LWPOLYLINE
  5
2BE
100
AcDbEntity
  8
RACCORDO
100
AcDbPolyline
 62
253
  6
CONTINUOUS
 90
6
 70
0
 10
-14.8179309449
 20
9.5776509983
 10
-14.817769983
 20
9.5628812996
 10
-14.8152781055
 20
9.5497374257
 10
-14.8105378985
 20
9.5386549912
 10
-14.8037064617
 20
9.5300012902
 10
-14.7974937037
 20
9.525366818
  0
LINE
  5
2BF
100
AcDbEntity
  8
0
100
AcDbLine
 62
7
  6
CONTINUOUS
 10
-13.892713545
 20
21.3701654126
 11
-13.8927087338
 21
21.0480942988
  0
LINE
  5
2C0
100
AcDbEntity
  8
0
100
AcDbLine
 62
253
  6
CONTINUOUS
 10
-13.8194902403
 20
21.2680967642
 11
-13.8194902403
 21
20.9475765914
  0
LINE
  5
2C1
100
AcDbEntity
  8
0
100
AcDbLine
 62
7
  6
CONTINUOUS
 10
-13.1897205908
 20
20.4994130008
 11
-13.1897205908
 21
20.2199855016
  0
LINE
  5
2C2
100
AcDbEntity
  8
0
100
AcDbLine
 62
253
  6
CONTINUOUS
 10
-13.1164972861
 20
20.4571347824
 11
-13.1164972861
 21
20.1147836724
  0
LWPOLYLINE
  5
2C3
100
AcDbEntity
  8
0
100
AcDbPolyline
 62
253
  6
CONTINUOUS
 90
34
 70
0
 10
-13.8194902403
 20
21.2680967642
 10
-13.8192914924
 20
21.2778878793
 10
-13.8186956957
 20
21.2878864874
 10
-13.8177041897
 20
21.2980701058
 10
-13.8163192041
 20
21.308415836
 10
-13.8145438529
 20
21.3189004149
 10
-13.8123821283
 20
21.3295002669
 10
-13.8098388911
 20
21.3401915576
 10
-13.8069198599
 20
21.3509502468
 10
-13.8036315983
 20
21.3617521427
 10
-13.7999815004
 20
21.3725729565
 10
-13.7959777735
 20
21.3833883568
 10
-13.7916294204
 20
21.3941740243
 10
-13.7869462187
 20
21.4049057066
 10
-13.7819386989
 20
21.4155592727
 10
-13.7766181208
 20
21.4261107673
 10
-13.7709964482
 20
21.4365364645
 10
-13.7650863217
 20
21.4468129214
 10
-13.7589010308
 20
21.4569170305
 10
-13.7524544835
 20
21.4668260721
 10
-13.7457611754
 20
21.4765177649
 10
-13.7388361569
 20
21.4859703164
 10
-13.7316949995
 20
21.4951624717
 10
-13.7243537605
 20
21.5040735617
 10
-13.7168289473
 20
21.5126835492
 10
-13.70913748
 20
21.5209730738
 10
-13.7012966535
 20
21.5289234959
 10
-13.6933240984
 20
21.5365169385
 10
-13.6852377416
 20
21.5437363271
 10
-13.677055766
 20
21.5505654283
 10
-13.6687965693
 20
21.5569888865
 10
-13.660478723
 20
21.5629922579
 10
-13.6521209303
 20
21.5685620436
 10
-13.6437419844
 20
21.5736857195
  0
LWPOLYLINE
  5
2C4
100
AcDbEntity
  8
0
100
AcDbPolyline
 62
7
  6
CONTINUOUS
 90
21
 70
0
 10
-13.892713545
 20
21.3701653856
 10
-13.8924409016
 20
21.3818379169
 10
-13.8915126533
 20
21.3946399653
 10
-13.8899266189
 20
21.4073903519
 10
-13.8876831784
 20
21.4200640973
 10
-13.8847844627
 20
21.4326287683
 10
-13.8812351198
 20
21.445048377
 10
-13.8770400423
 20
21.4572922895
 10
-13.8722062877
 20
21.4693273058
 10
-13.8667434379
 20
21.4811185879
 10
-13.8606622587
 20
21.492633197
 10
-13.8539756089
 20
21.5038379241
 10
-13.8466981226
 20
21.5147001562
 10
-13.8388457385
 20
21.5251885162
 10
-13.8304352353
 20
21.5352731562
 10
-13.8214876927
 20
21.5449218262
 10
-13.812028641
 20
21.5541012663
 10
-13.8020822605
 20
21.5627832013
 10
-13.7916737135
 20
21.5709410789
 10
-13.7808333811
 20
21.5785470598
 10
-13.7698947574
 20
21.5853977039
  0
LWPOLYLINE
  5
2C5
100
AcDbEntity
  8
RACCORDO
100
AcDbPolyline
 62
253
  6
CONTINUOUS
 90
15
 70
0
 10
-15.341983607
 20
-11.2698766424
 10
-15.3427101768
 20
-11.2751471914
 10
-15.343086932
 20
-11.2820367869
 10
-15.3428279572
 20
-11.2889847346
 10
-15.3419343582
 20
-11.2959613629
 10
-15.3404099512
 20
-11.3029368777
 10
-15.3382612464
 20
-11.3098814897
 10
-15.3354974197
 20
-11.3167655414
 10
-15.3321302744
 20
-11.3235596343
 10
-15.32817419
 20
-11.3302347538
 10
-15.3236460612
 20
-11.3367623934
 10
-15.3185652256
 20
-11.3431146765
 10
-15.3129533811
 20
-11.3492644752
 10
-15.3068344935
 20
-11.3551855266
 10
-15.3002346938
 20
-11.3608525445
  0
LINE
  5
2C6
100
AcDbEntity
  8
RACCORDO
100
AcDbLine
 62
253
  6
CONTINUOUS
 10
-15.3808528267
 20
-11.3704664924
 11
-15.3313217459
 21
-11.0579647698
  0
LWPOLYLINE
  5
2C7
100
AcDbEntity
  8
RACCORDO
100
AcDbPolyline
 62
7
  6
CONTINUOUS
 90
19
 70
0
 10
-15.341983978
 20
-11.2698765775
 10
-15.3642423053
 20
-11.4073955165
 10
-15.3846544032
 20
-11.5578616669
 10
-15.4013535551
 20
-11.7106585159
 10
-15.4143251425
 20
-11.8657003768
 10
-15.4235607514
 20
-12.0229045734
 10
-15.4290533755
 20
-12.1821855661
 10
-15.4307975789
 20
-12.3434660824
 10
-15.4287922055
 20
-12.506659092
 10
-15.4230379079
 20
-12.6716630669
 10
-15.4135369686
 20
-12.8383905013
 10
-15.4002967374
 20
-13.0067561464
 10
-15.3833271354
 20
-13.1766603311
 10
-15.3626385226
 20
-13.3480146822
 10
-15.3382451432
 20
-13.5207349562
 10
-15.3101639678
 20
-13.6947264793
 10
-15.2784131364
 20
-13.8698980904
 10
-15.2430169629
 20
-14.0461542844
 10
-15.2071510201
 20
-14.2096397559
  0
LWPOLYLINE
  5
2C8
100
AcDbEntity
  8
RACCORDO
100
AcDbPolyline
 62
253
  6
CONTINUOUS
 90
31
 70
0
 10
-15.3002346964
 20
-11.3608525461
 10
-15.2980228286
 20
-11.3498401835
 10
-15.2953211678
 20
-11.3392954615
 10
-15.2921297992
 20
-11.3292184329
 10
-15.2884399939
 20
-11.3195887883
 10
-15.2842606401
 20
-11.3104269356
 10
-15.2796182806
 20
-11.3017940225
 10
-15.2745103104
 20
-11.2936946997
 10
-15.268939557
 20
-11.2861244537
 10
-15.2629407682
 20
-11.2791307199
 10
-15.2565115261
 20
-11.2727173679
 10
-15.2496545052
 20
-11.2668806858
 10
-15.2424121363
 20
-11.2616567635
 10
-15.2347821087
 20
-11.2570494277
 10
-15.2267670045
 20
-11.2530550181
 10
-15.2184166236
 20
-11.2496984124
 10
-15.2097289818
 20
-11.246983689
 10
-15.2007063296
 20
-11.2449069326
 10
-15.1914048376
 20
-11.2434810421
 10
-15.1818230256
 20
-11.2427101471
 10
-15.1719626151
 20
-11.2425902658
 10
-15.1618845862
 20
-11.243122134
 10
-15.1515874514
 20
-11.2443099426
 10
-15.1410728967
 20
-11.2461496222
 10
-15.1304066582
 20
-11.2486295155
 10
-15.1195867266
 20
-11.2517543903
 10
-15.1086152523
 20
-11.2555195652
 10
-15.0975641991
 20
-11.2598992025
 10
-15.0864575798
 20
-11.264884705
 10
-15.0752714549
 20
-11.2704847148
 10
-15.0640058425
 20
-11.2766992429
  0
LINE
  5
2C9
100
AcDbEntity
  8
0
100
AcDbLine
 62
7
  6
CONTINUOUS
 10
-1.9140000796
 20
14.9356100567
 11
-2.9808309917
 21
14.2625769838
  0
LWPOLYLINE
  5
2CA
100
AcDbEntity
  8
0
100
AcDbPolyline
 62
7
  6
CONTINUOUS
 90
19
 70
0
 10
-1.466236751
 20
14.4814197881
 10
-1.4781332374
 20
14.4739310684
 10
-1.4896674606
 20
14.4657270873
 10
-1.5007851935
 20
14.456827262
 10
-1.5114383351
 20
14.4472514998
 10
-1.521570324
 20
14.4370334954
 10
-1.5311204658
 20
14.4262220756
 10
-1.5400396013
 20
14.4148663774
 10
-1.5482969833
 20
14.4030013163
 10
-1.5558669764
 20
14.3906575911
 10
-1.5627116845
 20
14.3778921639
 10
-1.568809111
 20
14.3647435748
 10
-1.5741543429
 20
14.3512084196
 10
-1.5787296265
 20
14.3372954203
 10
-1.5824934639
 20
14.3230907679
 10
-1.5854145266
 20
14.3086993205
 10
-1.5874856287
 20
14.2941606358
 10
-1.5886994997
 20
14.2795253875
 10
-1.5890555524
 20
14.2661892451
  0
LINE
  5
2CB
100
AcDbEntity
  8
0
100
AcDbLine
 62
7
  6
CONTINUOUS
 10
-1.466236751
 20
14.4814197881
 11
0.116943318
 21
15.4169240749
  0
LINE
  5
2CC
100
AcDbEntity
  8
0
100
AcDbLine
 62
253
  6
CONTINUOUS
 10
-1.3400839917
 20
14.4697077956
 11
0.2426726114
 21
15.4049618556
  0
LINE
  5
2CD
100
AcDbEntity
  8
0
100
AcDbLine
 62
7
  6
CONTINUOUS
 10
-1.9140000796
 20
14.9356100567
 11
3.3933105866
 21
17.999988185
  0
LINE
  5
2CE
100
AcDbEntity
  8
0
100
AcDbLine
 62
7
  6
CONTINUOUS
 10
0.1169433321
 20
15.4169240829
 11
0.1183975752
 21
15.4177637446
  0
LINE
  5
2CF
100
AcDbEntity
  8
0
100
AcDbLine
 62
7
  6
CONTINUOUS
 10
0.118397561
 20
15.4177637367
 11
0.6532758625
 21
15.7194507513
  0
LINE
  5
2D0
100
AcDbEntity
  8
0
100
AcDbLine
 62
253
  6
CONTINUOUS
 10
0.2426726114
 20
15.4049618556
 11
0.7771224901
 21
15.7064072273
  0
LWPOLYLINE
  5
2D1
100
AcDbEntity
  8
0
100
AcDbPolyline
 62
253
  6
CONTINUOUS
 90
18
 70
0
 10
-1.466236751
 20
14.4814197881
 10
-1.462495272
 20
14.4835028739
 10
-1.4562663572
 20
14.486444991
 10
-1.4497719336
 20
14.4888881756
 10
-1.4430267126
 20
14.4908268932
 10
-1.4360459737
 20
14.4922567522
 10
-1.4288455297
 20
14.4931745137
 10
-1.4214416913
 20
14.4935780987
 10
-1.4138512298
 20
14.493466593
 10
-1.4060913394
 20
14.4928402493
 10
-1.3981795979
 20
14.4917004863
 10
-1.3901339272
 20
14.4900498858
 10
-1.3819725525
 20
14.4878921868
 10
-1.3737139613
 20
14.4852322771
 10
-1.3653768609
 20
14.4820761818
 10
-1.3569801369
 20
14.4784310502
 10
-1.3485428097
 20
14.4743051394
 10
-1.3400839917
 20
14.4697077956
  0
LINE
  5
2D2
100
AcDbEntity
  8
0
100
AcDbLine
 62
253
  6
CONTINUOUS
 10
0.6532758625
 20
15.7194507513
 11
0.6555623239
 21
15.7206937283
  0
LWPOLYLINE
  5
2D3
100
AcDbEntity
  8
0
100
AcDbPolyline
 62
7
  6
CONTINUOUS
 90
3
 70
0
 10
0.1183975752
 20
15.4177637446
 10
0.1206844462
 20
15.4190069517
 10
0.126910118
 20
15.4219471434
  0
LWPOLYLINE
  5
2D4
100
AcDbEntity
  8
0
100
AcDbPolyline
 62
7
  6
CONTINUOUS
 90
19
 70
0
 10
0.6532758625
 20
15.7194507513
 10
0.6657096369
 20
15.7260099787
 10
0.6785817474
 20
15.7318978036
 10
0.6918482591
 20
15.7370769724
 10
0.705467864
 20
15.7415157794
 10
0.7193831082
 20
15.7451820941
 10
0.7335213918
 20
15.7480477745
 10
0.7478155817
 20
15.7500948118
 10
0.762220056
 20
15.7513140319
 10
0.7766954259
 20
15.7516985812
 10
0.7911734027
 20
15.7512441162
 10
0.8056096061
 20
15.7499508539
 10
0.8200045469
 20
15.7478128318
 10
0.8343417909
 20
15.7448190292
 10
0.848525926
 20
15.7409765984
 10
0.8624504716
 20
15.7363108314
 10
0.8760775577
 20
15.7308352862
 10
0.8893596551
 20
15.7245690038
 10
0.9010985823
 20
15.7182030391
  0
LWPOLYLINE
  5
2D5
100
AcDbEntity
  8
0
100
AcDbPolyline
 62
253
  6
CONTINUOUS
 90
17
 70
0
 10
0.6555623239
 20
15.7206937283
 10
0.6617846515
 20
15.723632042
 10
0.6682659154
 20
15.7260676283
 10
0.6749914343
 20
15.7279949702
 10
0.6819459733
 20
15.7294097016
 10
0.6891137787
 20
15.730308618
 10
0.6964786139
 20
15.7306896831
 10
0.7040237959
 20
15.7305520337
 10
0.7117322333
 20
15.7298959816
 10
0.7195864645
 20
15.7287230128
 10
0.7275686981
 20
15.7270357846
 10
0.7356608525
 20
15.7248381187
 10
0.7438445971
 20
15.7221349934
 10
0.752101394
 20
15.7189325319
 10
0.7604125396
 20
15.7152379884
 10
0.7687592073
 20
15.711059732
 10
0.7771224901
 20
15.7064072273
  0
LWPOLYLINE
  5
2D6
100
AcDbEntity
  8
0
100
AcDbPolyline
 62
7
  6
CONTINUOUS
 90
16
 70
0
 10
0.126910118
 20
15.4219471434
 10
0.1333980505
 20
15.4243864743
 10
0.1401335393
 20
15.4263194151
 10
0.1471012786
 20
15.4277415617
 10
0.1542855356
 20
15.4286497231
 10
0.1616700513
 20
15.4290418516
 10
0.1692380056
 20
15.4289170106
 10
0.1769723271
 20
15.4282755256
 10
0.1848555331
 20
15.4271188728
 10
0.1928696325
 20
15.4254496009
 10
0.2009965629
 20
15.4232715456
 10
0.2092179739
 20
15.4205896761
 10
0.2175150707
 20
15.4174099746
 10
0.225869064
 20
15.41373965
 10
0.2342612132
 20
15.4095871214
 10
0.2426726114
 20
15.4049618556
  0
LWPOLYLINE
  5
2D7
100
AcDbEntity
  8
RACCORDO
100
AcDbPolyline
 62
253
  6
CONTINUOUS
 90
12
 70
0
 10
-15.3428341969
 20
6.1384573604
 10
-15.3419346524
 20
6.1343020319
 10
-15.3404102229
 20
6.1302944129
 10
-15.3382614934
 20
6.126408641
 10
-15.3354976402
 20
6.1226613106
 10
-15.3321304666
 20
6.1190684249
 10
-15.3281743523
 20
6.1156453277
 10
-15.3236461921
 20
6.1124066374
 10
-15.3185653239
 20
6.1093661851
 10
-15.3129534458
 20
6.1065369553
 10
-15.3068345238
 20
6.1039310305
 10
-15.3002346892
 20
6.1015595393
  0
LWPOLYLINE
  5
2D8
100
AcDbEntity
  8
RACCORDO
100
AcDbPolyline
 62
7
  6
CONTINUOUS
 90
28
 70
0
 10
-15.3428351079
 20
6.1384660182
 10
-15.3415518806
 20
6.1296085058
 10
-15.3376805129
 20
6.107119549
 10
-15.3329527498
 20
6.0846788476
 10
-15.327394691
 20
6.0623261903
 10
-15.3210309734
 20
6.0400906562
 10
-15.3138830443
 20
6.0180008773
 10
-15.3059732883
 20
5.9960897389
 10
-15.2973243121
 20
5.9743928776
 10
-15.2879582799
 20
5.9529491631
 10
-15.2778975874
 20
5.9317937924
 10
-15.2671627174
 20
5.9109609773
 10
-15.255775699
 20
5.8904892063
 10
-15.243757326
 20
5.8704123157
 10
-15.231127505
 20
5.8507664529
 10
-15.2179092639
 20
5.8315910669
 10
-15.2041213294
 20
5.8129189391
 10
-15.1897831401
 20
5.7947870919
 10
-15.1749185276
 20
5.777235593
 10
-15.1595452688
 20
5.7602987634
 10
-15.1436802313
 20
5.7440117461
 10
-15.1273416446
 20
5.7284099693
 10
-15.1105446593
 20
5.7135295194
 10
-15.0933030781
 20
5.6994065169
 10
-15.075623847
 20
5.6860733846
 10
-15.0575137977
 20
5.6735678174
 10
-15.0389913491
 20
5.6619354536
 10
-15.0329728093
 20
5.6584010407
  0
LWPOLYLINE
  5
2D9
100
AcDbEntity
  8
RACCORDO
100
AcDbPolyline
 62
253
  6
CONTINUOUS
 90
19
 70
0
 10
-15.3002346964
 20
6.1015595354
 10
-15.3233076589
 20
6.2826392036
 10
-15.3428175547
 20
6.4626725793
 10
-15.3587607163
 20
6.6416608294
 10
-15.3711437179
 20
6.8197234835
 10
-15.3799521942
 20
6.9967435302
 10
-15.3851529369
 20
7.172366308
 10
-15.3867352897
 20
7.3465691582
 10
-15.3847063317
 20
7.5193749408
 10
-15.379062942
 20
7.6904954278
 10
-15.3697985343
 20
7.8599264795
 10
-15.3569192539
 20
8.0276707711
 10
-15.3404442867
 20
8.1934486358
 10
-15.3203645514
 20
8.3572710817
 10
-15.2966918367
 20
8.5191240374
 10
-15.2694801447
 20
8.6786884421
 10
-15.2387505064
 20
8.8358558707
 10
-15.2044888655
 20
8.9907296033
 10
-15.1666984819
 20
9.1433072071
  0
LWPOLYLINE
  5
2DA
100
AcDbEntity
  8
0
100
AcDbPolyline
 62
253
  6
CONTINUOUS
 90
19
 70
0
 10
-12.1409521699
 20
19.9784097466
 10
-12.1407843377
 20
19.9696142818
 10
-12.140280931
 20
19.9610264375
 10
-12.139442564
 20
19.9526627552
 10
-12.1382703373
 20
19.9445384694
 10
-12.1367662188
 20
19.9366702614
 10
-12.1349334156
 20
19.9290759258
 10
-12.1327756907
 20
19.9217707652
 10
-12.1302969566
 20
19.9147677805
 10
-12.1275018993
 20
19.9080802307
 10
-12.1243958024
 20
19.9017208072
 10
-12.1209845921
 20
19.8957016882
 10
-12.1172748077
 20
19.8900344231
 10
-12.1132735445
 20
19.8847298361
 10
-12.1089883986
 20
19.8797979834
 10
-12.1044274986
 20
19.8752482218
 10
-12.0995994925
 20
19.8710891934
 10
-12.0945135994
 20
19.8673288537
 10
-12.0891815375
 20
19.8639755445
  0
LINE
  5
2DB
100
AcDbEntity
  8
0
100
AcDbLine
 62
253
  6
CONTINUOUS
 10
-12.1409521699
 20
19.9784097466
 11
-12.1409521699
 21
20.2989299194
  0
LINE
  5
2DC
100
AcDbEntity
  8
0
100
AcDbLine
 62
253
  6
CONTINUOUS
 10
-11.7884302103
 20
19.9778176659
 11
-11.7884302103
 21
20.2983378387
  0
LINE
  5
2DD
100
AcDbEntity
  8
0
100
AcDbLine
 62
253
  6
CONTINUOUS
 10
-11.4297315618
 20
19.1408662834
 11
-11.4297315618
 21
19.7802085536
  0
LINE
  5
2DE
100
AcDbEntity
  8
0
100
AcDbLine
 62
253
  6
CONTINUOUS
 10
-11.0772096022
 20
19.1509093169
 11
-11.0772096022
 21
19.912327653
  0
LWPOLYLINE
  5
2DF
100
AcDbEntity
  8
0
100
AcDbPolyline
 62
253
  6
CONTINUOUS
 90
34
 70
0
 10
-12.1409521699
 20
20.2989299194
 10
-12.140753422
 20
20.3087210345
 10
-12.1401576253
 20
20.3187196425
 10
-12.1391661193
 20
20.328903261
 10
-12.1377811336
 20
20.3392489912
 10
-12.1360057825
 20
20.34973357
 10
-12.1338440579
 20
20.3603334221
 10
-12.1313008207
 20
20.3710247128
 10
-12.1283817895
 20
20.381783402
 10
-12.1250935279
 20
20.3925852979
 10
-12.12144343
 20
20.4034061117
 10
-12.1174397031
 20
20.414221512
 10
-12.11309135
 20
20.4250071794
 10
-12.1084081483
 20
20.4357388617
 10
-12.1034006285
 20
20.4463924279
 10
-12.0980800504
 20
20.4569439224
 10
-12.0924583778
 20
20.4673696197
 10
-12.0865482513
 20
20.4776460765
 10
-12.0803629604
 20
20.4877501857
 10
-12.0739164131
 20
20.4976592273
 10
-12.067223105
 20
20.5073509201
 10
-12.0602980865
 20
20.5168034715
 10
-12.053156929
 20
20.5259956269
 10
-12.0458156901
 20
20.5349067169
 10
-12.0382908769
 20
20.5435167043
 10
-12.0305994096
 20
20.5518062289
 10
-12.0227585831
 20
20.5597566511
 10
-12.014786028
 20
20.5673500937
 10
-12.0066996712
 20
20.5745694823
 10
-11.9985176956
 20
20.5813985835
 10
-11.9902584989
 20
20.5878220417
 10
-11.9819406526
 20
20.5938254131
 10
-11.9735828599
 20
20.5993951988
 10
-11.9652039139
 20
20.6045188746
  0
LWPOLYLINE
  5
2E0
100
AcDbEntity
  8
0
100
AcDbPolyline
 62
253
  6
CONTINUOUS
 90
17
 70
0
 10
-9.5867714552
 20
21.2983092694
 10
-9.5872660221
 20
21.2918986228
 10
-9.5883543963
 20
21.2850827252
 10
-9.5900011593
 20
21.2783042812
 10
-9.5922026083
 20
21.2715785324
 10
-9.594953793
 20
21.2649206024
 10
-9.5982485273
 20
21.2583454619
 10
-9.6020794026
 20
21.2518678957
 10
-9.6064378051
 20
21.245502469
 10
-9.6113139344
 20
21.239263495
 10
-9.6166968262
 20
21.2331650025
 10
-9.6225743768
 20
21.2272207045
 10
-9.6289333699
 20
21.221443967
 10
-9.6357595069
 20
21.2158477797
 10
-9.6430374387
 20
21.2104447258
 10
-9.6507508003
 20
21.2052469546
 10
-9.6588822477
 20
21.2002661537
  0
LWPOLYLINE
  5
2E1
100
AcDbEntity
  8
RACCORDO
100
AcDbPolyline
 62
253
  6
CONTINUOUS
 90
4
 70
0
 10
-15.1875279311
 20
-11.0524578629
 10
-15.1865922899
 20
-11.0484489361
 10
-15.1787313317
 20
-11.0264291728
 10
-15.1686862501
 20
-11.0066163124
  0
LWPOLYLINE
  5
2E2
100
AcDbEntity
  8
RACCORDO
100
AcDbPolyline
 62
253
  6
CONTINUOUS
 90
13
 70
0
 10
-15.3313217459
 20
-11.0579647698
 10
-15.3239201067
 20
-11.0275160097
 10
-15.3139038351
 20
-10.9999776681
 10
-15.3012747075
 20
-10.9753508392
 10
-15.2858699281
 20
-10.9534549872
 10
-15.267855416
 20
-10.9344725692
 10
-15.2477268154
 20
-10.9189496515
 10
-15.2254698233
 20
-10.9070117583
 10
-15.2011031941
 20
-10.8985360866
 10
-15.1751731922
 20
-10.8936968405
 10
-15.1476379323
 20
-10.8925628497
 10
-15.1185430924
 20
-10.8950675953
 10
-15.0885664615
 20
-10.901182366
  0
LINE
  5
2E3
100
AcDbEntity
  8
0
100
AcDbLine
 62
7
  6
CONTINUOUS
 10
7.8061438388
 20
18.2578337263
 11
2.1583948761
 21
14.9922559167
  0
LINE
  5
2E4
100
AcDbEntity
  8
0
100
AcDbLine
 62
253
  6
CONTINUOUS
 10
0.3384540787
 20
13.5005409507
 11
2.4680020413
 21
14.7301145662
  0
LINE
  5
2E5
100
AcDbEntity
  8
0
100
AcDbLine
 62
253
  6
CONTINUOUS
 10
0.5152277824
 20
13.1943599148
 11
2.644775745
 21
14.4239335303
  0
LINE
  5
2E6
100
AcDbEntity
  8
RACCORDO
100
AcDbLine
 62
7
  6
CONTINUOUS
 10
10.1421705397
 20
18.1515572595
 11
13.4613314065
 21
20.0679991451
  0
LINE
  5
2E7
100
AcDbEntity
  8
RACCORDO
100
AcDbLine
 62
7
  6
CONTINUOUS
 10
12.407265876
 20
20.606259854
 11
9.7521395033
 21
19.1567932342
  0
LWPOLYLINE
  5
2E8
100
AcDbEntity
  8
RACCORDO
100
AcDbPolyline
 62
253
  6
CONTINUOUS
 90
5
 70
0
 10
-15.253654971
 20
-11.086263368
 10
-15.2367510847
 20
-11.0859173477
 10
-15.2205588714
 20
-11.0834479449
 10
-15.2055609304
 20
-11.0789287586
 10
-15.2029622614
 20
-11.0776769072
  0
LINE
  5
2E9
100
AcDbEntity
  8
RACCORDO
100
AcDbLine
 62
253
  6
CONTINUOUS
 10
-15.2707667201
 20
-11.084475693
 11
-15.253654971
 21
-11.086263368
  0
LINE
  5
2EA
100
AcDbEntity
  8
DRAFT
100
AcDbLine
 62
7
  6
CONTINUOUS
 10
3.151069647
 20
-15.6670822868
 11
4.225487262
 21
-16.287437552
  0
LWPOLYLINE
  5
2EB
100
AcDbEntity
  8
RACCORDO
100
AcDbPolyline
 62
253
  6
CONTINUOUS
 90
9
 70
0
 10
-18.5035916923
 20
-1.09735203
 10
-18.5382806314
 20
-1.0751242858
 10
-18.5687988227
 20
-1.0509069428
 10
-18.5947943776
 20
-1.0249670684
 10
-18.616026276
 20
-0.9975888857
 10
-18.6322616932
 20
-0.9690545791
 10
-18.6433308109
 20
-0.939660708
 10
-18.6491370315
 20
-0.9097312212
 10
-18.6500568758
 20
-0.8922577642
  0
LWPOLYLINE
  5
2EC
100
AcDbEntity
  8
RACCORDO
100
AcDbPolyline
 62
253
  6
CONTINUOUS
 90
3
 70
0
 10
-6.6825028055
 20
-15.9507422191
 10
-6.6680825829
 20
-15.9911693104
 10
-6.6561285744
 20
-16.0317195949
  0
LWPOLYLINE
  5
2ED
100
AcDbEntity
  8
RACCORDO
100
AcDbPolyline
 62
7
  6
CONTINUOUS
 90
4
 70
0
 10
-6.6962675646
 20
-15.9676002
 10
-6.68455437
 20
-16.0048634217
 10
-6.675548735
 20
-16.0412634729
 10
-6.6740592258
 20
-16.048505153
  0
LWPOLYLINE
  5
2EE
100
AcDbEntity
  8
RACCORDO
100
AcDbPolyline
 62
253
  6
CONTINUOUS
 90
6
 70
0
 10
-6.999693243
 20
-15.5569958607
 10
-6.9983516215
 20
-15.5700528727
 10
-6.9949950587
 20
-15.5814819507
 10
-6.9897212902
 20
-15.590951186
 10
-6.9826837698
 20
-15.5981856423
 10
-6.9790092455
 20
-15.6006449257
  0
LINE
  5
2EF
100
AcDbEntity
  8
0
100
AcDbLine
 62
7
  6
CONTINUOUS
 10
-10.1871494194
 20
19.7124227986
 11
-10.1871494194
 21
21.222896265
  0
LINE
  5
2F0
100
AcDbEntity
  8
0
100
AcDbLine
 62
253
  6
CONTINUOUS
 10
-9.6588822477
 20
21.5279114542
 11
-9.6588822477
 21
21.2002661537
  0
LINE
  5
2F1
100
AcDbEntity
  8
0
100
AcDbLine
 62
7
  6
CONTINUOUS
 10
-9.5866843907
 20
21.6293845672
 11
-9.5866843907
 21
21.3017392667
  0
LINE
  5
2F2
100
AcDbEntity
  8
0
100
AcDbLine
 62
7
  6
CONTINUOUS
 10
-9.3503376891
 20
20.1936931478
 11
-9.3503376891
 21
20.1956518394
  0
LINE
  5
2F3
100
AcDbEntity
  8
0
100
AcDbLine
 62
7
  6
CONTINUOUS
 10
-9.2617398635
 20
19.2525064544
 11
-9.2617398635
 21
17.8890950481
  0
LINE
  5
2F4
100
AcDbEntity
  8
0
100
AcDbLine
 62
7
  6
CONTINUOUS
 10
-8.6023299892
 20
17.508360051
 11
-8.6023299892
 21
18.8717714572
  0
LWPOLYLINE
  5
2F5
100
AcDbEntity
  8
0
100
AcDbPolyline
 62
253
  6
CONTINUOUS
 90
18
 70
0
 10
-9.5866843907
 20
21.6293845672
 10
-9.5867390703
 20
21.6263657201
 10
-9.5872680433
 20
21.6195268597
 10
-9.5883579817
 20
21.6127102148
 10
-9.5900064288
 20
21.6059310973
 10
-9.5922096871
 20
21.5992047099
 10
-9.5949628342
 20
21.5925461196
 10
-9.5982596645
 20
21.5859703665
 10
-9.6020926791
 20
21.5794923801
 10
-9.6064531651
 20
21.5731268089
 10
-9.6113313347
 20
21.5668878742
 10
-9.6167162948
 20
21.5607894859
 10
-9.6225968558
 20
21.5548444772
 10
-9.6289590177
 20
21.5490671493
 10
-9.6357854185
 20
21.5434728763
 10
-9.6430590396
 20
21.5380747537
 10
-9.6507639276
 20
21.5328838229
 10
-9.6588822477
 20
21.5279114542
  0
LWPOLYLINE
  5
2F6
100
AcDbEntity
  8
0
100
AcDbPolyline
 62
7
  6
CONTINUOUS
 90
14
 70
0
 10
-9.5866843907
 20
21.3017392667
 10
-9.5870063353
 20
21.289055918
 10
-9.5879775828
 20
21.2763439354
 10
-9.5896038796
 20
21.2636443718
 10
-9.5918871006
 20
21.2510018375
 10
-9.59482663
 20
21.2384555916
 10
-9.5984209753
 20
21.2260389041
 10
-9.6026639528
 20
21.2137936323
 10
-9.6075460112
 20
21.2017612542
 10
-9.6130590674
 20
21.1899729266
 10
-9.6191900427
 20
21.1784663641
 10
-9.625921014
 20
21.1672818423
 10
-9.6332359629
 20
21.1564508046
 10
-9.6411834239
 20
21.1459208728
  0
LWPOLYLINE
  5
2F7
100
AcDbEntity
  8
0
100
AcDbPolyline
 62
7
  6
CONTINUOUS
 90
25
 70
0
 10
-1.9140000796
 20
15.3700171929
 10
-1.9084220893
 20
15.3807646117
 10
-1.9033149933
 20
15.3919745712
 10
-1.8986787915
 20
15.4036470716
 10
-1.8945083312
 20
15.41579988
 10
-1.8908087651
 20
15.4284152292
 10
-1.8875955515
 20
15.4414398177
 10
-1.8848707265
 20
15.45487535
 10
-1.882632254
 20
15.4687201215
 10
-1.8808894841
 20
15.4829157173
 10
-1.8796444905
 20
15.4974636005
 10
-1.8788951995
 20
15.5123623079
 10
-1.8786447405
 20
15.5275490346
 10
-1.8788951995
 20
15.5430249852
 10
-1.8796444905
 20
15.558788955
 10
-1.8808894841
 20
15.5747745256
 10
-1.882632254
 20
15.5909826283
 10
-1.8848707265
 20
15.6074123318
 10
-1.8875955515
 20
15.6239944237
 10
-1.8908087651
 20
15.6407295507
 10
-1.8945083312
 20
15.6576170662
 10
-1.8986787915
 20
15.6745858176
 10
-1.9033149933
 20
15.6916120876
 10
-1.9084220893
 20
15.7087195936
 10
-1.9140000796
 20
15.7259083356
  0
LWPOLYLINE
  5
2F8
100
AcDbEntity
  8
0
100
AcDbPolyline
 62
7
  6
CONTINUOUS
 90
31
 70
0
 10
3.3584470775
 20
18.3899838854
 10
3.3667598771
 20
18.3991841637
 10
3.3745392036
 20
18.4090270375
 10
3.3817850572
 20
18.4195125069
 10
3.3885080475
 20
18.4306607833
 10
3.3946975648
 20
18.4424516552
 10
3.40032178
 20
18.4548244883
 10
3.405377781
 20
18.4677822806
 10
3.4098684799
 20
18.4813220341
 10
3.4137707836
 20
18.4953741211
 10
3.4170816611
 20
18.5099411808
 10
3.4198041433
 20
18.525020574
 10
3.4219242302
 20
18.5405347555
 10
3.4234388186
 20
18.556485965
 10
3.4243510116
 20
18.5728719628
 10
3.4246561184
 20
18.5896084846
 10
3.4243510116
 20
18.606697336
 10
3.4234388186
 20
18.6241367115
 10
3.4219242302
 20
18.6418369297
 10
3.4198041433
 20
18.6597993344
 10
3.4170816611
 20
18.6780225818
 10
3.4137707836
 20
18.6964129598
 10
3.4098684799
 20
18.7149713293
 10
3.405377781
 20
18.7336968293
 10
3.40032178
 20
18.7524931648
 10
3.3946975648
 20
18.7713607007
 10
3.3885080475
 20
18.7902990721
 10
3.3817850572
 20
18.8092108891
 10
3.3745392036
 20
18.8280636886
 10
3.3667598771
 20
18.8468899338
 10
3.3584470775
 20
18.8656896246
  0
LWPOLYLINE
  5
2F9
100
AcDbEntity
  8
RACCORDO
100
AcDbPolyline
 62
7
  6
CONTINUOUS
 90
10
 70
0
 10
-18.4615011779
 20
-0.576727397
 10
-18.4965412849
 20
-0.6006521113
 10
-18.5344318231
 20
-0.6326974344
 10
-18.5668886908
 20
-0.6674034653
 10
-18.5937314729
 20
-0.7039772133
 10
-18.6152068134
 20
-0.742102928
 10
-18.6316383297
 20
-0.7819477088
 10
-18.6428724239
 20
-0.8228313629
 10
-18.6489038176
 20
-0.864209344
 10
-18.6500568802
 20
-0.8920152844
  0
LWPOLYLINE
  5
2FA
100
AcDbEntity
  8
RACCORDO
100
AcDbPolyline
 62
253
  6
CONTINUOUS
 90
19
 70
0
 10
-2.1955306439
 20
9.5066120844
 10
-2.2495531059
 20
9.4703605228
 10
-2.3030416238
 20
9.4297236317
 10
-2.3556895938
 20
9.3849380381
 10
-2.4071980323
 20
9.3362653911
 10
-2.4572688871
 20
9.2839875784
 10
-2.5056068511
 20
9.2284053225
 10
-2.5519341108
 20
9.1698424318
 10
-2.5959862931
 20
9.1086383679
 10
-2.6375054399
 20
9.0451429602
 10
-2.6762531658
 20
8.9797242178
 10
-2.7120079094
 20
8.9127617342
 10
-2.7445602778
 20
8.8446389142
 10
-2.7737233608
 20
8.7757492866
 10
-2.7993298484
 20
8.7064931
 10
-2.8212286693
 20
8.637270276
 10
-2.8392928829
 20
8.5684812717
 10
-2.8534202393
 20
8.5005247555
 10
-2.8635296789
 20
8.433794076
  0
LWPOLYLINE
  5
2FB
100
AcDbEntity
  8
RACCORDO
100
AcDbPolyline
 62
253
  6
CONTINUOUS
 90
19
 70
0
 10
-1.8296979039
 20
8.9019512461
 10
-1.8570303947
 20
8.8838871271
 10
-1.883845724
 20
8.8638379697
 10
-1.9101438916
 20
8.8418037738
 10
-1.9360887358
 20
8.8176243412
 10
-1.9615164185
 20
8.7914598701
 10
-1.9859354249
 20
8.763790955
 10
-2.0093137572
 20
8.7345968582
 10
-2.0316834133
 20
8.7038983174
 10
-2.0526488722
 20
8.6722381399
 10
-2.0721811163
 20
8.639603882
 10
-2.0903091631
 20
8.6060079874
 10
-2.1067245449
 20
8.5720305952
 10
-2.1214002442
 20
8.5376467263
 10
-2.1343632783
 20
8.5028813599
 10
-2.1453862318
 20
8.4683895723
 10
-2.1543932993
 20
8.4343897224
 10
-2.1614602862
 20
8.4006634515
 10
-2.1665871924
 20
8.3672107594
  0
LINE
  5
2FC
100
AcDbEntity
  8
0
100
AcDbLine
 62
7
  6
CONTINUOUS
 10
2.1165085732
 20
12.6084448747
 11
1.2264483905
 21
12.046931393
  0
LINE
  5
2FD
100
AcDbEntity
  8
RACCORDO
100
AcDbLine
 62
7
  6
CONTINUOUS
 10
-18.4615096015
 20
-0.5767137905
 11
-18.3488883012
 21
-0.5070669379
  0
LINE
  5
2FE
100
AcDbEntity
  8
RACCORDO
100
AcDbLine
 62
253
  6
CONTINUOUS
 10
-18.3329790103
 20
-0.5869580501
 11
-18.2738511117
 21
-0.5503924706
  0
LINE
  5
2FF
100
AcDbEntity
  8
0
100
AcDbLine
 62
253
  6
CONTINUOUS
 10
2.4703310885
 20
12.4041521889
 11
1.3911570245
 21
11.7382458971
  0
LINE
  5
300
100
AcDbEntity
  8
RACCORDO
100
AcDbLine
 62
253
  6
CONTINUOUS
 10
1.3919932471
 20
11.720300136
 11
-2.1955306439
 21
9.5066120844
  0
LINE
  5
301
100
AcDbEntity
  8
0
100
AcDbLine
 62
253
  6
CONTINUOUS
 10
2.8236153544
 20
11.7917482921
 11
1.7444412905
 21
11.1258420003
  0
LINE
  5
302
100
AcDbEntity
  8
RACCORDO
100
AcDbLine
 62
253
  6
CONTINUOUS
 10
1.7452775131
 20
11.1078962392
 11
-1.8296979039
 21
8.9019512461
  0
LINE
  5
303
100
AcDbEntity
  8
0
100
AcDbLine
 62
7
  6
CONTINUOUS
 10
8.7811990809
 20
17.0079487811
 11
2.5091371152
 21
13.1935451769
  0
LINE
  5
304
100
AcDbEntity
  8
0
100
AcDbLine
 62
7
  6
CONTINUOUS
 10
8.7811990809
 20
17.3851802267
 11
2.1791903369
 21
13.3981519995
  0
LINE
  5
305
100
AcDbEntity
  8
DRAFT
100
AcDbLine
 62
7
  6
CONTINUOUS
 10
8.5248273471
 20
16.5737347039
 11
8.4470675316
 21
16.52725618
  0
LWPOLYLINE
  5
306
100
AcDbEntity
  8
RACCORDO
100
AcDbPolyline
 62
253
  6
CONTINUOUS
 90
8
 70
0
 10
-18.4613852263
 20
-0.5766367238
 10
-18.4592182011
 20
-0.5753415883
 10
-18.4417996132
 20
-0.5677541218
 10
-18.4224670278
 20
-0.5639552693
 10
-18.4015511027
 20
-0.564010005
 10
-18.3794095766
 20
-0.5679173926
 10
-18.3564211505
 20
-0.5756106016
 10
-18.3329790103
 20
-0.5869580501
  0
LINE
  5
307
100
AcDbEntity
  8
ASSI
100
AcDbLine
 62
7
  6
CONTINUOUS
 10
12.4049122395
 20
19.0391129775
 11
13.4655724113
 21
19.6622127098
  0
LINE
  5
308
100
AcDbEntity
  8
0
100
AcDbLine
 62
253
  6
CONTINUOUS
 10
3.171002405
 20
12.8113924537
 11
2.4700664512
 21
12.4043049871
  0
LINE
  5
309
100
AcDbEntity
  8
0
100
AcDbLine
 62
253
  6
CONTINUOUS
 10
3.5245513082
 20
12.1990364268
 11
2.8236153544
 21
11.7919489601
  0
LINE
  5
30A
100
AcDbEntity
  8
ASSI
100
AcDbLine
 62
7
  6
CONTINUOUS
 10
12.4049122395
 20
19.0391129775
 11
10.1421705397
 21
17.755435009
  0
LINE
  5
30B
100
AcDbEntity
  8
DRAFT
100
AcDbLine
 62
7
  6
CONTINUOUS
 10
2.9721773432
 20
12.9261915525
 11
8.8889643101
 21
16.2721105183
  0
LWPOLYLINE
  5
30C
100
AcDbEntity
  8
0
100
AcDbPolyline
 62
7
  6
CONTINUOUS
 90
90
 70
0
 10
13.2668657695
 20
17.1045033262
 10
13.2466396436
 20
17.093213937
 10
13.2262550412
 20
17.0819803238
 10
13.2056982905
 20
17.070793555
 10
13.1849830631
 20
17.0596625621
 10
13.164150374
 20
17.0486141401
 10
13.1432022132
 20
17.0376499962
 10
13.1221365907
 20
17.0267684231
 10
13.1009885508
 20
17.0159910935
 10
13.0798048481
 20
17.0053402687
 10
13.058538728
 20
16.9947936873
 10
13.0370849716
 20
16.9843062384
 10
13.015524179
 20
16.9739104381
 10
12.99377575
 20
16.9635737703
 10
12.9714926648
 20
16.9531535754
 10
12.9486875732
 20
16.942644374
 10
12.9253478254
 20
16.9320516456
 10
12.901088452
 20
16.9212491691
 10
12.8759168876
 20
16.9102257417
 10
12.8498256977
 20
16.8989925663
 10
12.8224076093
 20
16.8874570305
 10
12.7936616051
 20
16.8756006885
 10
12.7635887024
 20
16.8634419861
 10
12.7317846801
 20
16.8509436485
 10
12.6982361905
 20
16.8380797022
 10
12.6629565814
 20
16.8248761207
 10
12.6255816751
 20
16.8113735506
 10
12.5859670425
 20
16.7975080667
 10
12.5442571127
 20
16.7833435942
 10
12.5005209962
 20
16.7691125558
 10
12.4544090325
 20
16.754731222
 10
12.4062708821
 20
16.7402833223
 10
12.3572246355
 20
16.7262524678
 10
12.3075169986
 20
16.7127472137
 10
12.2569012656
 20
16.6996590048
 10
12.2057554105
 20
16.6871457871
 10
12.15409639
 20
16.6752299382
 10
12.1019072473
 20
16.6638890805
 10
12.0495150865
 20
16.6532140272
 10
11.996951633
 20
16.6432241704
 10
11.9441851614
 20
16.6339001182
 10
11.8914475995
 20
16.6252745071
 10
11.8387554618
 20
16.6173583633
 10
11.7860922339
 20
16.6101406608
 10
11.7336403001
 20
16.6036209584
 10
11.6814485647
 20
16.5978077704
 10
11.6294681235
 20
16.5926925826
 10
11.577734647
 20
16.5882494107
 10
11.5262641335
 20
16.5844776471
 10
11.4750405849
 20
16.5813778994
 10
11.4240516772
 20
16.5789260064
 10
11.3732666707
 20
16.5771197606
 10
11.3227163052
 20
16.5759613695
 10
11.2724804764
 20
16.5754332947
 10
11.2225602856
 20
16.5755374021
 10
11.1729546314
 20
16.5762718258
 10
11.123740105
 20
16.5776134292
 10
11.0749365168
 20
16.5795618663
 10
11.0265240563
 20
16.5821174832
 10
10.9785198838
 20
16.5852581808
 10
10.9309278358
 20
16.5889824328
 10
10.8837440756
 20
16.5932917655
 10
10.8369742536
 20
16.59816866
 10
10.7906221901
 20
16.6036112008
 10
10.7446840646
 20
16.6096213033
 10
10.6991540656
 20
16.616187195
 10
10.6540393753
 20
16.6233052888
 10
10.6093328113
 20
16.6309791718
 10
10.5650070153
 20
16.6392078319
 10
10.5210485438
 20
16.6479920803
 10
10.4774708402
 20
16.6573311058
 10
10.4342868754
 20
16.6672214634
 10
10.3914947929
 20
16.6776630059
 10
10.3490964493
 20
16.6886558805
 10
10.3071103858
 20
16.7001970837
 10
10.2655426051
 20
16.7122838607
 10
10.2243871044
 20
16.7249189664
 10
10.1836444174
 20
16.7381076615
 10
10.1432902617
 20
16.751858378
 10
10.1033489196
 20
16.766162684
 10
10.0638937716
 20
16.781000545
 10
10.0249372252
 20
16.7963681156
 10
9.986466873
 20
16.8122692413
 10
9.9485188733
 20
16.8286954235
 10
9.9110882611
 20
16.8456474494
 10
9.8741800016
 20
16.8631245319
 10
9.8378451482
 20
16.8811158115
 10
9.8021007189
 20
16.8996176683
 10
9.7669296958
 20
16.9186337222
 10
9.7323320789
 20
16.9381639731
  0
LINE
  5
30D
100
AcDbEntity
  8
RACCORDO
100
AcDbLine
 62
7
  6
CONTINUOUS
 10
16.1705006453
 20
18.7606674877
 11
13.253441208
 21
17.1351864544
  0
LWPOLYLINE
  5
30E
100
AcDbEntity
  8
RACCORDO
100
AcDbPolyline
 62
253
  6
CONTINUOUS
 90
16
 70
0
 10
-2.1665871924
 20
8.3672107594
 10
-2.2052179938
 20
8.3541059504
 10
-2.2471571118
 20
8.3433671704
 10
-2.2919550854
 20
8.3351095069
 10
-2.3391318152
 20
8.3294214571
 10
-2.3881817088
 20
8.3263639798
 10
-2.4385790991
 20
8.3259698418
 10
-2.4897838779
 20
8.3282432673
 10
-2.5412472843
 20
8.3331598919
 10
-2.5924177855
 20
8.3406670243
 10
-2.642746988
 20
8.3506842105
 10
-2.6916955142
 20
8.3631040965
 10
-2.7387387835
 20
8.3777935788
 10
-2.7833726337
 20
8.3945952303
 10
-2.8251187243
 20
8.413328988
 10
-2.863529663
 20
8.4337940824
  0
LWPOLYLINE
  5
30F
100
AcDbEntity
  8
RACCORDO
100
AcDbPolyline
 62
7
  6
CONTINUOUS
 90
6
 70
0
 10
-15.1052107401
 20
-10.9522236321
 10
-15.0888279533
 20
-10.9496689281
 10
-15.0672729666
 20
-10.9503453732
 10
-15.041549528
 20
-10.9553933013
 10
-15.0132762225
 20
-10.9650583843
 10
-14.9836799036
 20
-10.9790612522
  0
LWPOLYLINE
  5
310
100
AcDbEntity
  8
RACCORDO
100
AcDbPolyline
 62
253
  6
CONTINUOUS
 90
8
 70
0
 10
-3.4658976506
 20
-8.9813584479
 10
-3.4167791179
 20
-8.9909064558
 10
-3.3662363317
 20
-8.9975087254
 10
-3.3148207702
 20
-9.0011039504
 10
-3.2630839228
 20
-9.0016366573
 10
-3.21157511
 20
-8.9991033906
 10
-3.1608459665
 20
-8.9935458635
 10
-3.111449431
 20
-8.9850113993
  0
LWPOLYLINE
  5
311
100
AcDbEntity
  8
RACCORDO
100
AcDbPolyline
 62
253
  6
CONTINUOUS
 90
5
 70
0
 10
-3.638128636
 20
-8.9161209966
 10
-3.5996641439
 20
-8.9361687837
 10
-3.557826304
 20
-8.9538503036
 10
-3.5130757623
 20
-8.9689612837
 10
-3.4658976506
 20
-8.9813584479
  0
LWPOLYLINE
  5
312
100
AcDbEntity
  8
RACCORDO
100
AcDbPolyline
 62
7
  6
CONTINUOUS
 90
13
 70
0
 10
-3.5864389832
 20
-9.0307025884
 10
-3.5485756351
 20
-9.0504845034
 10
-3.4999798228
 20
-9.0705522405
 10
-3.4497001798
 20
-9.0861090921
 10
-3.3978194168
 20
-9.0974304545
 10
-3.3446796223
 20
-9.1045665681
 10
-3.291178996
 20
-9.1075102412
 10
-3.2375965537
 20
-9.1062761752
 10
-3.1842123663
 20
-9.1008347392
 10
-3.1319300483
 20
-9.0911660594
 10
-3.0810966427
 20
-9.0772014693
 10
-3.0317827006
 20
-9.0586636184
 10
-2.9924601714
 20
-9.0396511338
  0
LINE
  5
313
100
AcDbEntity
  8
RACCORDO
100
AcDbLine
 62
253
  6
CONTINUOUS
 10
-3.6381464333
 20
-9.6804943874
 11
-18.5036094926
 21
-1.097362325
  0
LINE
  5
314
100
AcDbEntity
  8
RACCORDO
100
AcDbLine
 62
253
  6
CONTINUOUS
 10
-3.464454994
 20
-9.375929555
 11
-18.3299180532
 21
-0.7927974926
  0
LINE
  5
315
100
AcDbEntity
  8
RACCORDO
100
AcDbLine
 62
7
  6
CONTINUOUS
 10
-18.4518389145
 20
-0.447624544
 11
-3.5863758877
 21
-9.0307565877
  0
LINE
  5
316
100
AcDbEntity
  8
RACCORDO
100
AcDbLine
 62
253
  6
CONTINUOUS
 10
-18.5036094926
 20
-0.3329991928
 11
-3.6381464333
 21
-8.9161312552
  0
LWPOLYLINE
  5
317
100
AcDbEntity
  8
RACCORDO
100
AcDbPolyline
 62
253
  6
CONTINUOUS
 90
19
 70
0
 10
-18.3299180532
 20
-0.7927974926
 10
-18.3445326374
 20
-0.7835757251
 10
-18.3575848246
 20
-0.7737616415
 10
-18.369074615
 20
-0.7633552418
 10
-18.3790786859
 20
-0.7522647167
 10
-18.3875203599
 20
-0.7405818755
 10
-18.3941696048
 20
-0.7285821461
 10
-18.3989746041
 20
-0.7162602655
 10
-18.4019871743
 20
-0.7036214967
 10
-18.4031327325
 20
-0.6909570557
 10
-18.4023638753
 20
-0.6782684352
 10
-18.399728006
 20
-0.6655541426
 10
-18.395292752
 20
-0.6531009158
 10
-18.389008448
 20
-0.6409109774
 10
-18.3809247593
 20
-0.6289821048
 10
-18.3712583088
 20
-0.6175943687
 10
-18.3600813043
 20
-0.606841126
 10
-18.3473215381
 20
-0.5966290198
 10
-18.3329790103
 20
-0.5869580501
  0
LINE
  5
318
100
AcDbEntity
  8
RACCORDO
100
AcDbLine
 62
253
  6
CONTINUOUS
 10
-6.6561285744
 20
-16.0317195949
 11
-6.6466388038
 21
-16.072391856
  0
LINE
  5
319
100
AcDbEntity
  8
RACCORDO
100
AcDbLine
 62
7
  6
CONTINUOUS
 10
-6.6740465258
 20
-16.0485700886
 11
-6.6740593247
 21
-16.0485051746
  0
LWPOLYLINE
  5
31A
100
AcDbEntity
  8
RACCORDO
100
AcDbPolyline
 62
7
  6
CONTINUOUS
 90
10
 70
0
 10
-6.6740465258
 20
-16.0485700886
 10
-6.6144164049
 20
-16.3705925639
 10
-6.5545140509
 20
-16.7573532288
 10
-6.508905503
 20
-17.1360420731
 10
-6.4777001177
 20
-17.5055260725
 10
-6.4609298654
 20
-17.8649016147
 10
-6.4586086736
 20
-18.2133137557
 10
-6.4707323776
 20
-18.5498772022
 10
-6.4972337322
 20
-18.8736627325
 10
-6.530299225
 20
-19.1334564984
  0
LWPOLYLINE
  5
31B
100
AcDbEntity
  8
RACCORDO
100
AcDbPolyline
 62
253
  6
CONTINUOUS
 90
19
 70
0
 10
-6.9538847472
 20
-16.1799304025
 10
-6.9214436856
 20
-16.3556010476
 10
-6.8919047513
 20
-16.5298437822
 10
-6.865264277
 20
-16.702655538
 10
-6.8415006398
 20
-16.8741471558
 10
-6.8206276713
 20
-17.0442013159
 10
-6.8026967544
 20
-17.2124738507
 10
-6.7877163021
 20
-17.3789408062
 10
-6.7756743242
 20
-17.5436222067
 10
-6.7665950842
 20
-17.7062420318
 10
-6.7604847028
 20
-17.866795873
 10
-6.7573366182
 20
-18.0252861648
 10
-6.757159279
 20
-18.1814491966
 10
-6.7599626783
 20
-18.3352965026
 10
-6.7657395304
 20
-18.4868166116
 10
-6.7744758773
 20
-18.6357135835
 10
-6.7861700968
 20
-18.7818901999
 10
-6.8008307858
 20
-18.9254465884
 10
-6.8184612044
 20
-19.0663840811
  0
LWPOLYLINE
  5
31C
100
AcDbEntity
  8
RACCORDO
100
AcDbPolyline
 62
253
  6
CONTINUOUS
 90
19
 70
0
 10
-6.7449871905
 20
-16.1501616964
 10
-6.7121164661
 20
-16.3284494617
 10
-6.6821613825
 20
-16.505468209
 10
-6.6551410435
 20
-16.6811216483
 10
-6.631069541
 20
-16.8553363151
 10
-6.6099668471
 20
-17.0279937106
 10
-6.591854443
 20
-17.1989323437
 10
-6.5767397065
 20
-17.3680412539
 10
-6.5646296658
 20
-17.535247069
 10
-6.5555378324
 20
-17.7004480776
 10
-6.5494642895
 20
-17.8635531886
 10
-6.5464116972
 20
-18.0244749024
 10
-6.5463929791
 20
-18.1831193411
 10
-6.5494023956
 20
-18.3394145108
 10
-6.5554367605
 20
-18.4932606594
 10
-6.5645053963
 20
-18.6445272097
 10
-6.5766004034
 20
-18.7931191142
 10
-6.5917010032
 20
-18.9389738964
 10
-6.6097907299
 20
-19.0820147063
  0
LWPOLYLINE
  5
31D
100
AcDbEntity
  8
RACCORDO
100
AcDbPolyline
 62
253
  6
CONTINUOUS
 90
9
 70
0
 10
-6.6466388038
 20
-16.072391856
 10
-6.5769696046
 20
-16.4536454337
 10
-6.5206874145
 20
-16.8271591793
 10
-6.4777697289
 20
-17.1929108483
 10
-6.4481330221
 20
-17.5519345392
 10
-6.4318064543
 20
-17.9031449295
 10
-6.42897757
 20
-18.2433664254
 10
-6.4397393509
 20
-18.5715543606
 10
-6.464044518
 20
-18.8887658422
  0
LWPOLYLINE
  5
31E
100
AcDbEntity
  8
RACCORDO
100
AcDbPolyline
 62
253
  6
CONTINUOUS
 90
19
 70
0
 10
-6.8184612044
 20
4.323139631
 10
-6.8008307366
 20
4.1385619383
 10
-6.7861700157
 20
3.9554404947
 10
-6.7744757827
 20
3.7737777324
 10
-6.7657394496
 20
3.5934573929
 10
-6.7599626325
 20
3.4146008782
 10
-6.757159268
 20
3.2375661823
 10
-6.7573366277
 20
3.0623783058
 10
-6.7604847316
 20
2.8890153119
 10
-6.7665951472
 20
2.7177630146
 10
-6.7756744438
 20
2.5486259988
 10
-6.7877164918
 20
2.3816011451
 10
-6.80269702
 20
2.2169610499
 10
-6.8206280502
 20
2.0546937977
 10
-6.8415011384
 20
1.8948111026
 10
-6.8652648043
 20
1.73761916
 10
-6.8919051869
 20
1.5832188246
 10
-6.9214439445
 20
1.4315067204
 10
-6.9538847472
 20
1.282481679
  0
LWPOLYLINE
  5
31F
100
AcDbEntity
  8
RACCORDO
100
AcDbPolyline
 62
253
  6
CONTINUOUS
 90
6
 70
0
 10
-6.8260402188
 20
4.963233455
 10
-6.8258790851
 20
4.9484619341
 10
-6.8233865685
 20
4.9353171596
 10
-6.8186455386
 20
4.9242346586
 10
-6.8118134128
 20
4.9155815633
 10
-6.8055505287
 20
4.9109189277
  0
LINE
  5
320
100
AcDbEntity
  8
0
100
AcDbLine
 62
7
  6
CONTINUOUS
 10
-7.8890523806
 20
19.1188863755
 11
-7.8890523806
 21
17.9558610799
  0
LINE
  5
321
100
AcDbEntity
  8
0
100
AcDbLine
 62
253
  6
CONTINUOUS
 10
-6.2645634172
 20
17.0179015121
 11
-6.2645634172
 21
18.1809268076
  0
LWPOLYLINE
  5
322
100
AcDbEntity
  8
RACCORDO
100
AcDbPolyline
 62
253
  6
CONTINUOUS
 90
4
 70
0
 10
-6.8260402188
 20
-19.3037298955
 10
-6.8258792569
 20
-19.288774322
 10
-6.8233873795
 20
-19.2727528906
 10
-6.8197808945
 20
-19.2601563794
  0
LWPOLYLINE
  5
323
100
AcDbEntity
  8
0
100
AcDbPolyline
 62
253
  6
CONTINUOUS
 90
29
 70
0
 10
-6.2645634172
 20
18.1809268076
 10
-6.2643718758
 20
18.1895333543
 10
-6.2637973307
 20
18.1983428867
 10
-6.2628406819
 20
18.2073318346
 10
-6.2615035798
 20
18.2164778341
 10
-6.2597891565
 20
18.2257545478
 10
-6.257702738
 20
18.2351315143
 10
-6.2552505315
 20
18.2445813095
 10
-6.2524388297
 20
18.2540800857
 10
-6.2492751944
 20
18.2636022503
 10
-6.2457681379
 20
18.2731220709
 10
-6.2419272344
 20
18.2826134569
 10
-6.2377630408
 20
18.292050291
 10
-6.2332869531
 20
18.3014067704
 10
-6.2285111056
 20
18.3106575518
 10
-6.2234484548
 20
18.3197775364
 10
-6.2181127543
 20
18.328741934
 10
-6.2125185409
 20
18.3375263086
 10
-6.2066810536
 20
18.3461067241
 10
-6.2006161831
 20
18.3544598196
 10
-6.194340431
 20
18.3625628642
 10
-6.1878708825
 20
18.3703937947
 10
-6.1812251457
 20
18.3779312957
 10
-6.174421308
 20
18.3851548503
 10
-6.1674778925
 20
18.3920447908
 10
-6.1604137929
 20
18.3985823676
 10
-6.1532482407
 20
18.4047497809
 10
-6.1460007587
 20
18.4105302281
 10
-6.1386910802
 20
18.4159079735
  0
LWPOLYLINE
  5
324
100
AcDbEntity
  8
RACCORDO
100
AcDbPolyline
 62
253
  6
CONTINUOUS
 90
5
 70
0
 10
-6.999693243
 20
1.0131407407
 10
-6.9983519181
 20
1.0277451272
 10
-6.994996001
 20
1.0430488005
 10
-6.9897229867
 20
1.0586071632
 10
-6.9864294391
 20
1.0657967228
  0
LINE
  5
325
100
AcDbEntity
  8
RACCORDO
100
AcDbLine
 62
253
  6
CONTINUOUS
 10
-6.5769607442
 20
1.4631789227
 11
-6.6466388038
 21
1.139044587
  0
LINE
  5
326
100
AcDbEntity
  8
RACCORDO
100
AcDbLine
 62
7
  6
CONTINUOUS
 10
-6.6732357992
 20
1.2005936854
 11
-6.67320328
 21
1.2007300039
  0
LWPOLYLINE
  5
327
100
AcDbEntity
  8
RACCORDO
100
AcDbPolyline
 62
253
  6
CONTINUOUS
 90
14
 70
0
 10
-6.7449875948
 20
1.2541837339
 10
-6.7490275105
 20
1.237992584
 10
-6.753767977
 20
1.2224221419
 10
-6.7591989455
 20
1.2075097989
 10
-6.7653083017
 20
1.1932879825
 10
-6.7720831213
 20
1.1797836307
 10
-6.7795111993
 20
1.1670226847
 10
-6.7875779052
 20
1.1550305719
 10
-6.7962655096
 20
1.1438322666
 10
-6.8055562832
 20
1.1334523554
 10
-6.8154311088
 20
1.123913043
 10
-6.8258690925
 20
1.1152326459
 10
-6.8368493518
 20
1.1074291419
 10
-6.8471666445
 20
1.101175475
  0
LWPOLYLINE
  5
328
100
AcDbEntity
  8
RACCORDO
100
AcDbPolyline
 62
253
  6
CONTINUOUS
 90
31
 70
0
 10
-6.9538847472
 20
1.282481679
 10
-6.9568031205
 20
1.271061389
 10
-6.9601968258
 20
1.2601170892
 10
-6.9640659485
 20
1.2496487339
 10
-6.968420821
 20
1.2396350879
 10
-6.97325127
 20
1.2300973009
 10
-6.9785266537
 20
1.2210988875
 10
-6.984249634
 20
1.2126444657
 10
-6.9904177715
 20
1.2047292976
 10
-6.9969928286
 20
1.1974028336
 10
-7.003977357
 20
1.1906688663
 10
-7.0113690616
 20
1.1845234645
 10
-7.0191224788
 20
1.1790044693
 10
-7.0272400701
 20
1.1741156203
 10
-7.0357196453
 20
1.169853031
 10
-7.0445087943
 20
1.1662430862
 10
-7.0536096266
 20
1.1632897917
 10
-7.0630202989
 20
1.1609889973
 10
-7.0726824901
 20
1.1593548437
 10
-7.0825977651
 20
1.1583914114
 10
-7.0927648003
 20
1.1580944888
 10
-7.103120948
 20
1.1584657747
 10
-7.113667736
 20
1.1595094366
 10
-7.124403835
 20
1.1612211993
 10
-7.1352623082
 20
1.1635900987
 10
-7.1462451338
 20
1.1666209206
 10
-7.1573504746
 20
1.1703088026
 10
-7.1685056594
 20
1.1746283156
 10
-7.1796864893
 20
1.1795709699
 10
-7.1909172363
 20
1.1851452154
 10
-7.2021979188
 20
1.1913510423
  0
LWPOLYLINE
  5
329
100
AcDbEntity
  8
RACCORDO
100
AcDbPolyline
 62
7
  6
CONTINUOUS
 90
4
 70
0
 10
-6.6732357992
 20
1.2005936854
 10
-6.6777043873
 20
1.1845553515
 10
-6.685083763
 20
1.1651339339
 10
-6.6938172437
 20
1.148461643
  0
LWPOLYLINE
  5
32A
100
AcDbEntity
  8
RACCORDO
100
AcDbPolyline
 62
253
  6
CONTINUOUS
 90
3
 70
0
 10
-6.6466388038
 20
1.139044587
 10
-6.6559214776
 20
1.1075097411
 10
-6.6677135718
 20
1.0789460617
  0
LWPOLYLINE
  5
32B
100
AcDbEntity
  8
RACCORDO
100
AcDbPolyline
 62
253
  6
CONTINUOUS
 90
14
 70
0
 10
-6.6677135718
 20
1.0789460617
 10
-6.6820168625
 20
1.0533525921
 10
-6.6990117197
 20
1.0305386491
 10
-6.7185208967
 20
1.0106932303
 10
-6.7400105409
 20
0.9943844631
 10
-6.7634939017
 20
0.9817384799
 10
-6.7889621813
 20
0.9726267291
 10
-6.8158494903
 20
0.9672347458
 10
-6.8441997607
 20
0.9656301783
 10
-6.8739728532
 20
0.9677433093
 10
-6.9044769523
 20
0.9735535265
 10
-6.9354822731
 20
0.9830535103
 10
-6.9672208488
 20
0.9962493511
 10
-6.999693243
 20
1.0131407407
  0
LINE
  5
32C
100
AcDbEntity
  8
0
100
AcDbLine
 62
253
  6
CONTINUOUS
 10
2.1165085732
 20
13.4334759634
 11
2.644775745
 21
14.0962882298
  0
LINE
  5
32D
100
AcDbEntity
  8
0
100
AcDbLine
 62
7
  6
CONTINUOUS
 10
2.1165085732
 20
13.3569241205
 11
2.6624757455
 21
14.041944425
  0
LINE
  5
32E
100
AcDbEntity
  8
DRAFT
100
AcDbLine
 62
7
  6
CONTINUOUS
 10
12.1000337745
 20
16.7366473045
 11
12.1880599493
 21
16.792908725
  0
LWPOLYLINE
  5
32F
100
AcDbEntity
  8
RACCORDO
100
AcDbPolyline
 62
253
  6
CONTINUOUS
 90
22
 70
0
 10
-6.9411120599
 20
4.8728191317
 10
-6.9486110174
 20
4.8681070641
 10
-6.9560677809
 20
4.8628079212
 10
-6.9634450044
 20
4.8569482431
 10
-6.9707057404
 20
4.8505573771
 10
-6.9778136245
 20
4.8436673312
 10
-6.9847330576
 20
4.8363126137
 10
-6.991429385
 20
4.8285300597
 10
-6.9978690692
 20
4.8203586472
 10
-7.004019858
 20
4.8118393019
 10
-7.0098509462
 20
4.8030146918
 10
-7.0153331301
 20
4.7939290137
 10
-7.0204389531
 20
4.7846277722
 10
-7.0251428437
 20
4.7751575511
 10
-7.0294212436
 20
4.7655657805
 10
-7.0332527253
 20
4.7559004995
 10
-7.0366180999
 20
4.746210115
 10
-7.0395005129
 20
4.7365431596
 10
-7.0418855284
 20
4.7269480486
 10
-7.043761202
 20
4.7174728374
 10
-7.0451181401
 20
4.7081649806
 10
-7.0459495471
 20
4.6990710949
  0
LINE
  5
330
100
AcDbEntity
  8
0
100
AcDbLine
 62
7
  6
CONTINUOUS
 10
3.5245513082
 20
9.4348989818
 11
4.225487262
 21
9.8538617617
  0
LINE
  5
331
100
AcDbEntity
  8
RACCORDO
100
AcDbLine
 62
253
  6
CONTINUOUS
 10
16.3292165087
 20
17.9291467327
 11
3.8200177772
 21
10.5561555095
  0
LINE
  5
332
100
AcDbEntity
  8
RACCORDO
100
AcDbLine
 62
253
  6
CONTINUOUS
 10
-6.6097907299
 20
4.3399864109
 11
-6.524451252
 21
4.3894690244
  0
LINE
  5
333
100
AcDbEntity
  8
RACCORDO
100
AcDbLine
 62
253
  6
CONTINUOUS
 10
-6.9411120599
 20
4.8728191317
 11
-6.8405017167
 21
4.9310993057
  0
LINE
  5
334
100
AcDbEntity
  8
RACCORDO
100
AcDbLine
 62
253
  6
CONTINUOUS
 10
16.6829773498
 20
18.133427384
 11
16.3292165087
 21
17.9291467327
  0
LINE
  5
335
100
AcDbEntity
  8
RACCORDO
100
AcDbLine
 62
7
  6
CONTINUOUS
 10
15.9718586835
 20
18.5481086419
 11
9.6416583941
 21
14.9684061236
  0
LINE
  5
336
100
AcDbEntity
  8
0
100
AcDbLine
 62
7
  6
CONTINUOUS
 10
13.2869334186
 20
17.1158484913
 11
13.2668657695
 21
17.1045033262
  0
LWPOLYLINE
  5
337
100
AcDbEntity
  8
RACCORDO
100
AcDbPolyline
 62
253
  6
CONTINUOUS
 90
25
 70
0
 10
-6.6097907754
 20
4.3399864266
 10
-6.6169777682
 20
4.3367491187
 10
-6.6245623515
 20
4.3336721823
 10
-6.6325130136
 20
4.3307684011
 10
-6.6407967216
 20
4.3280498395
 10
-6.6493790591
 20
4.3255277925
 10
-6.6582243688
 20
4.3232127384
 10
-6.6672959009
 20
4.3211142957
 10
-6.6765559657
 20
4.3192411827
 10
-6.6859660902
 20
4.3176011818
 10
-6.6954871781
 20
4.3162011066
 10
-6.7050796717
 20
4.3150467742
 10
-6.714703717
 20
4.3141429804
 10
-6.7243193287
 20
4.3134934802
 10
-6.7338865567
 20
4.3131009722
 10
-6.7433656517
 20
4.3129670871
 10
-6.7527172308
 20
4.3130923812
 10
-6.7619024408
 20
4.3134763338
 10
-6.7708831196
 20
4.3141173499
 10
-6.779621955
 20
4.3150127661
 10
-6.7880826397
 20
4.3161588622
 10
-6.7962300218
 20
4.3175508765
 10
-6.8040302512
 20
4.3191830257
 10
-6.8114509201
 20
4.3210485285
 10
-6.8184611977
 20
4.3231396343
  0
LWPOLYLINE
  5
338
100
AcDbEntity
  8
RACCORDO
100
AcDbPolyline
 62
253
  6
CONTINUOUS
 90
5
 70
0
 10
-3.111449431
 20
-8.9850113993
 10
-3.0639089072
 20
-8.9735916218
 10
-3.0187134648
 20
-8.9594143587
 10
-2.9763497343
 20
-8.9426051449
 10
-2.9372843342
 20
-8.923345671
  0
LWPOLYLINE
  5
339
100
AcDbEntity
  8
RACCORDO
100
AcDbPolyline
 62
253
  6
CONTINUOUS
 90
19
 70
0
 10
-2.1665871924
 20
-26.1114770576
 10
-2.1614602862
 20
-26.1392124638
 10
-2.1543932993
 20
-26.1650579618
 10
-2.1453862318
 20
-26.1890135515
 10
-2.1343632783
 20
-26.2112130573
 10
-2.1214002442
 20
-26.2315226549
 10
-2.1067245449
 20
-26.249540871
 10
-2.0903091631
 20
-26.2652125977
 10
-2.0721811163
 20
-26.278592943
 10
-2.0526488722
 20
-26.2894457567
 10
-2.0316834133
 20
-26.2977262357
 10
-2.0093137572
 20
-26.3034791832
 10
-1.9859354249
 20
-26.3066028581
 10
-1.9615164185
 20
-26.3070408403
 10
-1.9360887358
 20
-26.3048495499
 10
-1.9101438916
 20
-26.3000965066
 10
-1.883845724
 20
-26.292804217
 10
-1.8570303947
 20
-26.2829501745
 10
-1.8296979039
 20
-26.270534379
  0
LWPOLYLINE
  5
33A
100
AcDbEntity
  8
RACCORDO
100
AcDbPolyline
 62
253
  6
CONTINUOUS
 90
10
 70
0
 10
-2.8635296789
 20
-26.1664472657
 10
-2.8534202393
 20
-26.2217092328
 10
-2.8392928829
 20
-26.2736335363
 10
-2.8212286693
 20
-26.321920433
 10
-2.7993298484
 20
-26.3662922601
 10
-2.7737233608
 20
-26.4064922184
 10
-2.7445602778
 20
-26.4422860509
 10
-2.7120079094
 20
-26.4734678541
 10
-2.6762531658
 20
-26.499858799
 10
-2.6634432706
 20
-26.5076892463
  0
LWPOLYLINE
  5
33B
100
AcDbEntity
  8
RACCORDO
100
AcDbPolyline
 62
7
  6
CONTINUOUS
 90
10
 70
0
 10
-6.5307885952
 20
4.4547541603
 10
-6.4979166205
 20
4.1161183531
 10
-6.4710314366
 20
3.7095014743
 10
-6.4586694397
 20
3.3110077252
 10
-6.4608262868
 20
2.9218069011
 10
-6.4774361666
 20
2.5428293358
 10
-6.5084215669
 20
2.1749372441
 10
-6.5536840753
 20
1.8190340762
 10
-6.6130477394
 20
1.4760955034
 10
-6.6731933389
 20
1.200727568
  0
LWPOLYLINE
  5
33C
100
AcDbEntity
  8
RACCORDO
100
AcDbPolyline
 62
253
  6
CONTINUOUS
 90
19
 70
0
 10
-6.6097907299
 20
4.3399864109
 10
-6.5917010289
 20
4.1528003573
 10
-6.5766004432
 20
3.9669122438
 10
-6.56450544
 20
3.7824179347
 10
-6.5554368004
 20
3.599385171
 10
-6.5494024242
 20
3.417936853
 10
-6.5463929895
 20
3.2382489855
 10
-6.5464116866
 20
3.0604322432
 10
-6.5494642584
 20
2.884558008
 10
-6.5555377869
 20
2.7107397041
 10
-6.5646296254
 20
2.5390666347
 10
-6.576739697
 20
2.3696249317
 10
-6.5918544784
 20
2.2025205627
 10
-6.6099669366
 20
2.0378226837
 10
-6.6310696925
 20
1.8756298331
 10
-6.6551412348
 20
1.7160868346
 10
-6.6821615673
 20
1.5592918263
 10
-6.7121165919
 20
1.4052992748
 10
-6.7449871905
 20
1.2541833976
  0
LWPOLYLINE
  5
33D
100
AcDbEntity
  8
RACCORDO
100
AcDbPolyline
 62
253
  6
CONTINUOUS
 90
9
 70
0
 10
-6.5019112842
 20
4.4311125012
 10
-6.4640465241
 20
4.0303236793
 10
-6.4397417913
 20
3.6374296668
 10
-6.4289786298
 20
3.252448052
 10
-6.4318018892
 20
2.8742989599
 10
-6.4481205217
 20
2.5041028487
 10
-6.4777532939
 20
2.1451568864
 10
-6.520672999
 20
1.7985484837
 10
-6.5769607442
 20
1.4631789227
  0
LWPOLYLINE
  5
33E
100
AcDbEntity
  8
RACCORDO
100
AcDbPolyline
 62
253
  6
CONTINUOUS
 90
7
 70
0
 10
-3.6381464333
 20
-8.9161312552
 10
-3.6366869377
 20
-8.9416553829
 10
-3.6322901671
 20
-8.9650448419
 10
-3.625029843
 20
-8.9859078102
 10
-3.6150276497
 20
-9.0038948204
 10
-3.6024512181
 20
-9.0187045657
 10
-3.5864465763
 20
-9.0307157268
  0
LINE
  5
33F
100
AcDbEntity
  8
0
100
AcDbLine
 62
7
  6
CONTINUOUS
 10
-5.0710461315
 20
17.5657978642
 11
-5.0796068359
 21
18.7034177811
  0
LINE
  5
340
100
AcDbEntity
  8
0
100
AcDbLine
 62
253
  6
CONTINUOUS
 10
-5.9829602081
 20
17.0256752549
 11
-5.9829602081
 21
18.1802173522
  0
LINE
  5
341
100
AcDbEntity
  8
0
100
AcDbLine
 62
7
  6
CONTINUOUS
 10
-5.767732037
 20
17.1607065903
 11
-5.767732037
 21
18.3037705047
  0
LINE
  5
342
100
AcDbEntity
  8
0
100
AcDbLine
 62
7
  6
CONTINUOUS
 10
-4.6223725195
 20
17.2805787087
 11
-4.6223725195
 21
16.1200599578
  0
LINE
  5
343
100
AcDbEntity
  8
0
100
AcDbLine
 62
253
  6
CONTINUOUS
 10
-4.5637938757
 20
17.19892379
 11
-4.5637938757
 21
16.0358984945
  0
LWPOLYLINE
  5
344
100
AcDbEntity
  8
0
100
AcDbPolyline
 62
253
  6
CONTINUOUS
 90
31
 70
0
 10
-4.5637938757
 20
17.19892379
 10
-4.5636023343
 20
17.2075303367
 10
-4.5630277893
 20
17.2163398691
 10
-4.5620711405
 20
17.225328817
 10
-4.5607340383
 20
17.2344748165
 10
-4.559019615
 20
17.2437515302
 10
-4.5569331965
 20
17.2531284967
 10
-4.55448099
 20
17.2625782919
 10
-4.5516692882
 20
17.2720770681
 10
-4.5485056529
 20
17.2815992327
 10
-4.5449985964
 20
17.2911190533
 10
-4.5411576929
 20
17.3006104393
 10
-4.5369934993
 20
17.3100472734
 10
-4.5325174117
 20
17.3194037528
 10
-4.5277415641
 20
17.3286545342
 10
-4.5226789133
 20
17.3377745188
 10
-4.5173432128
 20
17.3467389164
 10
-4.5117489994
 20
17.355523291
 10
-4.5059115121
 20
17.3641037065
 10
-4.4998466416
 20
17.372456802
 10
-4.4935708895
 20
17.3805598466
 10
-4.487101341
 20
17.3883907771
 10
-4.4804556042
 20
17.3959282781
 10
-4.4736517665
 20
17.4031518327
 10
-4.466708351
 20
17.4100417732
 10
-4.4596442514
 20
17.41657935
 10
-4.4524786992
 20
17.4227467633
 10
-4.4452312172
 20
17.4285272105
 10
-4.4379215388
 20
17.4339049559
 10
-4.4305695531
 20
17.43886537
 10
-4.4231952709
 20
17.4433949542
  0
LWPOLYLINE
  5
345
100
AcDbEntity
  8
0
100
AcDbPolyline
 62
7
  6
CONTINUOUS
 90
19
 70
0
 10
-4.6223725195
 20
17.2805787087
 10
-4.6220546369
 20
17.2918503665
 10
-4.6210932515
 20
17.3031634286
 10
-4.6194796623
 20
17.3144722811
 10
-4.6172080604
 20
17.3257352354
 10
-4.6142787068
 20
17.3368993548
 10
-4.6107005739
 20
17.347902879
 10
-4.6064876542
 20
17.358691557
 10
-4.6016516345
 20
17.3692297032
 10
-4.5962032104
 20
17.3794872062
 10
-4.5901664304
 20
17.3894143802
 10
-4.5835590581
 20
17.3989801428
 10
-4.5763764971
 20
17.4081826853
 10
-4.5686172735
 20
17.4170062417
 10
-4.5603244879
 20
17.4253863548
 10
-4.5515586903
 20
17.4332578928
 10
-4.5423447353
 20
17.4405995426
 10
-4.5327147128
 20
17.4473857839
 10
-4.5245562455
 20
17.4525045244
  0
LINE
  5
346
100
AcDbEntity
  8
RACCORDO
100
AcDbLine
 62
253
  6
CONTINUOUS
 10
-6.464044518
 20
-18.8887658422
 11
-6.5019112842
 21
-19.1950044312
  0
LWPOLYLINE
  5
347
100
AcDbEntity
  8
0
100
AcDbPolyline
 62
253
  6
CONTINUOUS
 90
27
 70
0
 10
0.5152277824
 20
12.873839742
 10
0.5108072569
 20
12.8631503728
 10
0.5060000616
 20
12.8527168281
 10
0.500817046
 20
12.8425626558
 10
0.4952699079
 20
12.8327107732
 10
0.4893711669
 20
12.8231834154
 10
0.4831341361
 20
12.8140020852
 10
0.476572892
 20
12.8051875043
 10
0.4697022431
 20
12.7967595666
 10
0.4625376959
 20
12.7887372935
 10
0.4550954205
 20
12.7811387908
 10
0.4473922136
 20
12.7739812079
 10
0.4394454608
 20
12.767280699
 10
0.4312730977
 20
12.7610523867
 10
0.4228935686
 20
12.7553103281
 10
0.4143257856
 20
12.7500674825
 10
0.4055890859
 20
12.7453356829
 10
0.3967031875
 20
12.7411256085
 10
0.3876881455
 20
12.7374467612
 10
0.3785643062
 20
12.7343074441
 10
0.3693522616
 20
12.7317147423
 10
0.3600728028
 20
12.7296745075
 10
0.3507468729
 20
12.7281913443
 10
0.34139552
 20
12.7272686001
 10
0.3320398496
 20
12.7269083575
 10
0.3227009768
 20
12.7271114296
 10
0.3165592076
 20
12.7275536457
  0
LWPOLYLINE
  5
348
100
AcDbEntity
  8
RACCORDO
100
AcDbPolyline
 62
253
  6
CONTINUOUS
 90
5
 70
0
 10
-15.1686862501
 20
-11.0066163124
 10
-15.1565271167
 20
-10.9891519151
 10
-15.1423472487
 20
-10.9742144893
 10
-15.1263044994
 20
-10.9619679928
 10
-15.1197877466
 20
-10.9580561091
  0
LWPOLYLINE
  5
349
100
AcDbEntity
  8
RACCORDO
100
AcDbPolyline
 62
7
  6
CONTINUOUS
 90
3
 70
0
 10
-6.6938172437
 20
1.148461643
 10
-6.7036215551
 20
1.1346974161
 10
-6.7142622617
 20
1.1238307425
  0
LINE
  5
34A
100
AcDbEntity
  8
RACCORDO
100
AcDbLine
 62
7
  6
CONTINUOUS
 10
-6.7142622617
 20
1.1238307425
 11
-6.7262971489
 21
1.1152694015
  0
LWPOLYLINE
  5
34B
100
AcDbEntity
  8
RACCORDO
100
AcDbPolyline
 62
253
  6
CONTINUOUS
 90
29
 70
0
 10
16.7433669843
 20
16.5355339607
 10
16.7620281228
 20
16.5470001465
 10
16.7801412178
 20
16.5587556665
 10
16.7976928183
 20
16.5707917911
 10
16.8146698905
 20
16.583099582
 10
16.831059827
 20
16.5956698996
 10
16.8468504567
 20
16.6084934091
 10
16.8620300533
 20
16.6215605878
 10
16.8765873443
 20
16.6348617319
 10
16.8905115195
 20
16.6483869641
 10
16.9037922387
 20
16.6621262404
 10
16.9164196395
 20
16.6760693581
 10
16.9283843447
 20
16.6902059628
 10
16.9396774694
 20
16.7045255569
 10
16.9502906271
 20
16.7190175065
 10
16.9602159365
 20
16.7336710498
 10
16.9694460269
 20
16.7484753051
 10
16.9779740442
 20
16.7634192788
 10
16.9857936553
 20
16.7784918733
 10
16.9928990532
 20
16.7936818958
 10
16.9992849617
 20
16.8089780661
 10
17.0049466383
 20
16.8243690252
 10
17.0098798788
 20
16.8398433437
 10
17.0140810196
 20
16.8553895303
 10
17.017546941
 20
16.8709960405
 10
17.0202750691
 20
16.8866512847
 10
17.0222633782
 20
16.9023436374
 10
17.0235103915
 20
16.9180614452
 10
17.0240151831
 20
16.9337930362
  0
LINE
  5
34C
100
AcDbEntity
  8
RACCORDO
100
AcDbLine
 62
253
  6
CONTINUOUS
 10
-6.7253954515
 20
1.1158021295
 11
-6.7262930807
 21
1.1152718258
  0
LINE
  5
34D
100
AcDbEntity
  8
RACCORDO
100
AcDbLine
 62
253
  6
CONTINUOUS
 10
16.7433669843
 20
16.5355339607
 11
4.225487262
 21
9.1574261133
  0
LINE
  5
34E
100
AcDbEntity
  8
RACCORDO
100
AcDbLine
 62
7
  6
CONTINUOUS
 10
-6.8472247902
 20
1.1011429444
 11
-6.6739444993
 21
1.1980500703
  0
LINE
  5
34F
100
AcDbEntity
  8
RACCORDO
100
AcDbLine
 62
253
  6
CONTINUOUS
 10
-6.7449871905
 20
1.2541833976
 11
-6.6499116667
 21
1.3073193397
  0
LWPOLYLINE
  5
350
100
AcDbEntity
  8
RACCORDO
100
AcDbPolyline
 62
253
  6
CONTINUOUS
 90
4
 70
0
 10
-6.7262930807
 20
1.1152718258
 10
-6.7406114145
 20
1.1079299976
 10
-6.7609806647
 20
1.1006622898
 10
-6.782642583
 20
1.0963615804
  0
LWPOLYLINE
  5
351
100
AcDbEntity
  8
RACCORDO
100
AcDbPolyline
 62
253
  6
CONTINUOUS
 90
25
 70
0
 10
-6.7449875948
 20
1.2541837339
 10
-6.7521456586
 20
1.2506379637
 10
-6.7597125356
 20
1.2474727455
 10
-6.767655911
 20
1.2447015965
 10
-6.7759418622
 20
1.2423363512
 10
-6.7845350037
 20
1.2403871104
 10
-6.7933986379
 20
1.2388621984
 10
-6.8024949122
 20
1.2377681275
 10
-6.8117849805
 20
1.23710957
 10
-6.8212291691
 20
1.2368893383
 10
-6.8307871459
 20
1.2371083728
 10
-6.8404180932
 20
1.2377657382
 10
-6.8500808815
 20
1.2388586272
 10
-6.8597342453
 20
1.2403823725
 10
-6.8693369593
 20
1.2423304668
 10
-6.8788480148
 20
1.2446945909
 10
-6.8882267942
 20
1.2474646484
 10
-6.8974332449
 20
1.2506288098
 10
-6.9064280502
 20
1.2541735623
 10
-6.9151727975
 20
1.2580837679
 10
-6.9236301417
 20
1.2623427278
 10
-6.9317639652
 20
1.2669322539
 10
-6.9395395323
 20
1.2718327463
 10
-6.9469236368
 20
1.2770232773
 10
-6.9538847446
 20
1.2824816805
  0
LWPOLYLINE
  5
352
100
AcDbEntity
  8
RACCORDO
100
AcDbPolyline
 62
7
  6
CONTINUOUS
 90
16
 70
0
 10
16.8399811521
 20
-1.7101614885
 10
16.8325386248
 20
-1.7119448037
 10
16.825223416
 20
-1.7133859018
 10
16.8180355259
 20
-1.7144847826
 10
16.8109668572
 20
-1.715239185
 10
16.8040255071
 20
-1.7156513703
 10
16.7972357668
 20
-1.7157281221
 10
16.7906013682
 20
-1.7154636809
 10
16.7841185793
 20
-1.7148638062
 10
16.7778004954
 20
-1.7139525602
 10
16.7716518524
 20
-1.7127254508
 10
16.7656679144
 20
-1.7111869702
 10
16.7598475698
 20
-1.7093746572
 10
16.7541904479
 20
-1.707301025
 10
16.7486969194
 20
-1.7049535605
 10
16.7433669843
 20
-1.7023322637
  0
LINE
  5
353
100
AcDbEntity
  8
RACCORDO
100
AcDbLine
 62
7
  6
CONTINUOUS
 10
1.5685277417
 20
-6.6705628688
 11
1.49351928
 21
-6.6272539231
  0
LWPOLYLINE
  5
354
100
AcDbEntity
  8
RACCORDO
100
AcDbPolyline
 62
253
  6
CONTINUOUS
 90
3
 70
0
 10
-15.0259770911
 20
5.6491572513
 10
-15.0571750591
 20
5.6721973699
 10
-15.0642846723
 20
5.6782433225
  0
LWPOLYLINE
  5
355
100
AcDbEntity
  8
RACCORDO
100
AcDbPolyline
 62
253
  6
CONTINUOUS
 90
3
 70
0
 10
-6.5284092496
 20
4.5582861714
 10
-6.5169617886
 20
4.5161041974
 10
-6.5081297948
 20
4.473712647
  0
LWPOLYLINE
  5
356
100
AcDbEntity
  8
RACCORDO
100
AcDbPolyline
 62
7
  6
CONTINUOUS
 90
3
 70
0
 10
-6.5423360935
 20
4.521774884
 10
-6.5340707368
 20
4.479289108
 10
-6.530791571
 20
4.4547811764
  0
LINE
  5
357
100
AcDbEntity
  8
RACCORDO
100
AcDbLine
 62
253
  6
CONTINUOUS
 10
-6.5081297948
 20
4.473712647
 11
-6.5019112842
 21
4.4311125012
  0
LWPOLYLINE
  5
358
100
AcDbEntity
  8
RACCORDO
100
AcDbPolyline
 62
253
  6
CONTINUOUS
 90
13
 70
0
 10
-2.9372667302
 20
-9.6803358481
 10
-2.9391615352
 20
-9.6530415003
 10
-2.9439944447
 20
-9.6244381169
 10
-2.9516827352
 20
-9.5950149767
 10
-2.9620948565
 20
-9.5652753374
 10
-2.975052657
 20
-9.5357279075
 10
-2.9903344115
 20
-9.5068781414
 10
-3.0076786724
 20
-9.4792194706
 10
-3.0267887439
 20
-9.4532249046
 10
-3.047337709
 20
-9.4293390128
 10
-3.0689740712
 20
-9.4079702498
 10
-3.0913277733
 20
-9.3894839802
 10
-3.1140165016
 20
-9.3741962642
  0
LWPOLYLINE
  5
359
100
AcDbEntity
  8
RACCORDO
100
AcDbPolyline
 62
253
  6
CONTINUOUS
 90
10
 70
0
 10
-3.5733690148
 20
-17.018660817
 10
-3.5487439801
 20
-18.0694835395
 10
-3.5105290363
 20
-19.1122103151
 10
-3.4587320667
 20
-20.146622221
 10
-3.3933634779
 20
-21.1725022453
 10
-3.3144370405
 20
-22.1896349231
 10
-3.2219698826
 20
-23.1978063798
 10
-3.1159813643
 20
-24.196804922
 10
-2.9964930769
 20
-25.1864210851
 10
-2.8635296789
 20
-26.1664472657
  0
LWPOLYLINE
  5
35A
100
AcDbEntity
  8
RACCORDO
100
AcDbPolyline
 62
253
  6
CONTINUOUS
 90
10
 70
0
 10
-2.8725502611
 20
-17.0144727955
 10
-2.8480432387
 20
-18.0597980632
 10
-2.8100402705
 20
-19.0966497211
 10
-2.7585413563
 20
-20.1250277689
 10
-2.6935296745
 20
-21.1451497323
 10
-2.6150220469
 20
-22.1567980858
 10
-2.5230689383
 20
-23.1593202527
 10
-2.4176871706
 20
-24.1524987075
 10
-2.2988599219
 20
-25.1365509758
 10
-2.1665871924
 20
-26.1114770576
  0
LINE
  5
35B
100
AcDbEntity
  8
DRAFT
100
AcDbLine
 62
253
  6
CONTINUOUS
 10
-2.5295959335
 20
21.0548210084
 11
-2.5200269266
 21
19.7832081182
  0
LWPOLYLINE
  5
35C
100
AcDbEntity
  8
RACCORDO
100
AcDbPolyline
 62
253
  6
CONTINUOUS
 90
10
 70
0
 10
-3.6381464333
 20
-9.6804943874
 10
-3.6367458243
 20
-10.4991349902
 10
-3.6338959367
 20
-11.3169593173
 10
-3.6295967991
 20
-12.1339640839
 10
-3.6238484638
 20
-12.950143685
 10
-3.6166509611
 20
-13.7654971711
 10
-3.6080042584
 20
-14.5800282248
 10
-3.5979083406
 20
-15.3937358701
 10
-3.5863632506
 20
-16.2066144962
 10
-3.5733690148
 20
-17.018660817
  0
LWPOLYLINE
  5
35D
100
AcDbEntity
  8
RACCORDO
100
AcDbPolyline
 62
253
  6
CONTINUOUS
 90
10
 70
0
 10
-2.9372667302
 20
-9.6803358481
 10
-2.9358723514
 20
-10.4985324059
 10
-2.9330288813
 20
-11.3159067274
 10
-2.9287363198
 20
-12.1324588126
 10
-2.9229946586
 20
-12.9481898306
 10
-2.9158039061
 20
-13.7630986122
 10
-2.9071640876
 20
-14.5771816502
 10
-2.8970752114
 20
-15.3904377756
 10
-2.8855372693
 20
-16.2028681573
 10
-2.8725502611
 20
-17.0144727955
  0
LINE
  5
35E
100
AcDbEntity
  8
0
100
AcDbLine
 62
7
  6
CONTINUOUS
 10
-3.6402408661
 20
16.0067233872
 11
-3.6402408661
 21
14.6433119809
  0
LINE
  5
35F
100
AcDbEntity
  8
0
100
AcDbLine
 62
7
  6
CONTINUOUS
 10
-2.9808309917
 20
14.2625769838
 11
-2.9808309917
 21
15.62598839
  0
LINE
  5
360
100
AcDbEntity
  8
0
100
AcDbLine
 62
7
  6
CONTINUOUS
 10
-2.0663011753
 20
22.5870562302
 11
-2.0663011753
 21
21.410219443
  0
LINE
  5
361
100
AcDbEntity
  8
0
100
AcDbLine
 62
7
  6
CONTINUOUS
 10
-1.9140000796
 20
14.9356100567
 11
-1.9140000796
 21
16.2419624996
  0
LWPOLYLINE
  5
362
100
AcDbEntity
  8
RACCORDO
100
AcDbPolyline
 62
253
  6
CONTINUOUS
 90
10
 70
0
 10
-3.5733690148
 20
-1.505725558
 10
-3.5863632506
 20
-2.332262947
 10
-3.5979083406
 20
-3.158016567
 10
-3.6080042584
 20
-3.9829831014
 10
-3.6166509611
 20
-4.8071568896
 10
-3.6238484638
 20
-5.6305369734
 10
-3.6295967991
 20
-6.4531270738
 10
-3.6338959367
 20
-7.2749262068
 10
-3.6367458243
 20
-8.0959287065
 10
-3.6381464333
 20
-8.9161312552
  0
LWPOLYLINE
  5
363
100
AcDbEntity
  8
RACCORDO
100
AcDbPolyline
 62
253
  6
CONTINUOUS
 90
10
 70
0
 10
-2.8725502611
 20
-1.5170504717
 10
-2.8855372693
 20
-2.3431376134
 10
-2.8970752114
 20
-3.1684345682
 10
-2.9071640876
 20
-3.9929413359
 10
-2.9158039061
 20
-4.8166590952
 10
-2.9229946586
 20
-5.6395866674
 10
-2.9287363198
 20
-6.4617205172
 10
-2.9330288813
 20
-7.283059466
 10
-2.9358723514
 20
-8.1036046923
 10
-2.9372667302
 20
-8.9233561961
  0
LWPOLYLINE
  5
364
100
AcDbEntity
  8
RACCORDO
100
AcDbPolyline
 62
253
  6
CONTINUOUS
 90
13
 70
0
 10
-3.6381464333
 20
-9.6804943874
 10
-3.6366870543
 20
-9.6532860557
 10
-3.6322906141
 20
-9.624820401
 10
-3.6250307656
 20
-9.5955743035
 10
-3.6150291318
 20
-9.5660377186
 10
-3.6024532686
 20
-9.5367054677
 10
-3.5875138574
 20
-9.5080689491
 10
-3.5704611757
 20
-9.4806079057
 10
-3.5515809044
 20
-9.454782388
 10
-3.5311893415
 20
-9.4310250465
 10
-3.5096281036
 20
-9.4097338841
 10
-3.4872584024
 20
-9.3912655882
 10
-3.464454994
 20
-9.375929555
  0
LWPOLYLINE
  5
365
100
AcDbEntity
  8
RACCORDO
100
AcDbPolyline
 62
253
  6
CONTINUOUS
 90
5
 70
0
 10
-3.3933634779
 20
2.8488885977
 10
-3.4587320667
 20
1.7500984095
 10
-3.5105290363
 20
0.6579131421
 10
-3.5487439801
 20
-0.4274375225
 10
-3.5733690148
 20
-1.505725558
  0
LWPOLYLINE
  5
366
100
AcDbEntity
  8
0
100
AcDbPolyline
 62
7
  6
CONTINUOUS
 90
55
 70
0
 10
-1.3439824345
 20
23.8745141728
 10
-1.3430242111
 20
23.8893722202
 10
-1.3400694439
 20
23.9180283192
 10
-1.335968391
 20
23.9468041902
 10
-1.330725962
 20
23.9756811699
 10
-1.3243372474
 20
24.0046779216
 10
-1.3167585978
 20
24.033804558
 10
-1.3079904539
 20
24.0630719212
 10
-1.2980323751
 20
24.092469169
 10
-1.2868393902
 20
24.1219738872
 10
-1.2743937461
 20
24.1516161074
 10
-1.2607131958
 20
24.1813657979
 10
-1.2458060271
 20
24.2111104491
 10
-1.2296543233
 20
24.2408548841
 10
-1.2122760011
 20
24.2705942798
 10
-1.193733098
 20
24.3002016576
 10
-1.1739943022
 20
24.3296915831
 10
-1.1530909256
 20
24.3590494907
 10
-1.1311789417
 20
24.3881047057
 10
-1.1082156896
 20
24.4168714739
 10
-1.0842438302
 20
24.4453355494
 10
-1.0595473192
 20
24.4732835194
 10
-1.0339196858
 20
24.5008623169
 10
-1.0075674008
 20
24.5279250088
 10
-0.9813938323
 20
24.5538173833
 10
-0.9555728215
 20
24.578323451
 10
-0.9299305273
 20
24.6016592014
 10
-0.9048487938
 20
24.6238183907
 10
-0.8804341974
 20
24.6447297178
 10
-0.8565801618
 20
24.6644644838
 10
-0.833348803
 20
24.6832303481
 10
-0.8107850984
 20
24.7010208338
 10
-0.7888440707
 20
24.7178424179
 10
-0.7674529041
 20
24.7339221905
 10
-0.7466434147
 20
24.7492601839
 10
-0.7263837864
 20
24.7638563659
 10
-0.7065057554
 20
24.7779377296
 10
-0.6870287129
 20
24.7915086522
 10
-0.6679332676
 20
24.8045647565
 10
-0.6489929831
 20
24.8173199033
 10
-0.6302172678
 20
24.8297812527
 10
-0.6115967132
 20
24.8419416446
 10
-0.592876657
 20
24.8539934599
 10
-0.5739992617
 20
24.8659812032
 10
-0.5550223648
 20
24.8778603699
 10
-0.5358648164
 20
24.8896898275
 10
-0.5164870769
 20
24.9014953962
 10
-0.496928686
 20
24.9132512558
 10
-0.4772271128
 20
24.924938813
 10
-0.4573793945
 20
24.9365591663
 10
-0.437388494
 20
24.9481112174
 10
-0.4173007683
 20
24.959573078
 10
-0.3971316699
 20
24.9709374521
 10
-0.3768657465
 20
24.9822116358
 10
-0.356502998
 20
24.9933956291
  0
LWPOLYLINE
  5
367
100
AcDbEntity
  8
RACCORDO
100
AcDbPolyline
 62
253
  6
CONTINUOUS
 90
8
 70
0
 10
-2.9372667302
 20
-8.9233561961
 10
-2.9391614017
 20
-8.9493300588
 10
-2.943993966
 20
-8.9730837252
 10
-2.9516817688
 20
-8.994210921
 10
-2.9620933205
 20
-9.012350294
 10
-2.9750505456
 20
-9.0271915946
 10
-2.9903318281
 20
-9.0384809825
 10
-2.9924529392
 20
-9.0396645654
  0
LWPOLYLINE
  5
368
100
AcDbEntity
  8
RACCORDO
100
AcDbPolyline
 62
253
  6
CONTINUOUS
 90
6
 70
0
 10
-2.8635296789
 20
8.433794076
 10
-2.9964930769
 20
7.3054660055
 10
-3.1159813643
 20
6.1825759206
 10
-3.2219698826
 20
5.0653598995
 10
-3.3144370405
 20
3.9540529929
 10
-3.3933634779
 20
2.8488885977
  0
LWPOLYLINE
  5
369
100
AcDbEntity
  8
RACCORDO
100
AcDbPolyline
 62
253
  6
CONTINUOUS
 90
10
 70
0
 10
-2.1665871924
 20
8.3672107594
 10
-2.2988599219
 20
7.2447803213
 10
-2.4176871706
 20
6.1282174674
 10
-2.5230689383
 20
5.017522198
 10
-2.6150220469
 20
3.9124582286
 10
-2.6935296745
 20
2.8132618436
 10
-2.7585413563
 20
1.7206418958
 10
-2.8100402705
 20
0.6348346695
 10
-2.8480432387
 20
-0.4443961197
 10
-2.8725502611
 20
-1.5170504717
  0
LINE
  5
36A
100
AcDbEntity
  8
RACCORDO
100
AcDbLine
 62
7
  6
CONTINUOUS
 10
-6.5303401309
 20
-19.133668351
 11
-6.5303087309
 21
-19.1334550195
  0
LWPOLYLINE
  5
36B
100
AcDbEntity
  8
RACCORDO
100
AcDbPolyline
 62
253
  6
CONTINUOUS
 90
31
 70
0
 10
-6.8184612044
 20
-19.0663840811
 10
-6.8202216269
 20
-19.0771628252
 10
-6.8224755848
 20
-19.0874740228
 10
-6.8252231642
 20
-19.0973177303
 10
-6.8284724354
 20
-19.1067138392
 10
-6.832215489
 20
-19.1156425638
 10
-6.8364284729
 20
-19.1240444667
 10
-6.8411143414
 20
-19.1319150279
 10
-6.8462703649
 20
-19.1392589156
 10
-6.8518642225
 20
-19.1460305113
 10
-6.8578986701
 20
-19.1522261116
 10
-6.8643712104
 20
-19.157849591
 10
-6.8712416874
 20
-19.1628667279
 10
-6.8785127306
 20
-19.1672738945
 10
-6.8861819836
 20
-19.1710748994
 10
-6.8942018415
 20
-19.1742466949
 10
-6.9025746143
 20
-19.1767854535
 10
-6.9112982596
 20
-19.17869518
 10
-6.9203186631
 20
-19.1799645878
 10
-6.9296376515
 20
-19.1805898138
 10
-6.9392536402
 20
-19.180574882
 10
-6.9491074045
 20
-19.1799203401
 10
-6.959200748
 20
-19.1786222373
 10
-6.969532066
 20
-19.1766846567
 10
-6.9800370168
 20
-19.174120195
 10
-6.9907178351
 20
-19.1709243247
 10
-7.0015724274
 20
-19.1671016672
 10
-7.0125299481
 20
-19.1626785343
 10
-7.0235668067
 20
-19.1576637132
 10
-7.034706667
 20
-19.1520484653
 10
-7.0459495471
 20
-19.1458328028
  0
LWPOLYLINE
  5
36C
100
AcDbEntity
  8
RACCORDO
100
AcDbPolyline
 62
253
  6
CONTINUOUS
 90
14
 70
0
 10
-6.6097911284
 20
-19.0820143748
 10
-6.6126804763
 20
-19.0975710868
 10
-6.61628253
 20
-19.1125108425
 10
-6.6205909175
 20
-19.1267986875
 10
-6.625597926
 20
-19.1404050907
 10
-6.6312926272
 20
-19.1533042409
 10
-6.637662593
 20
-19.1654699427
 10
-6.6446959933
 20
-19.1768786356
 10
-6.6523781943
 20
-19.1875073866
 10
-6.6606915615
 20
-19.1973318169
 10
-6.6696196798
 20
-19.2063315828
 10
-6.6791443477
 20
-19.2144902046
 10
-6.6892446958
 20
-19.2217900058
 10
-6.6987139088
 20
-19.2275587309
  0
LWPOLYLINE
  5
36D
100
AcDbEntity
  8
RACCORDO
100
AcDbPolyline
 62
7
  6
CONTINUOUS
 90
7
 70
0
 10
-6.5303401309
 20
-19.133668351
 10
-6.5328644529
 20
-19.1471800715
 10
-6.5375220585
 20
-19.1634415556
 10
-6.5432002006
 20
-19.1766376426
 10
-6.5495111178
 20
-19.1867935619
 10
-6.5561484718
 20
-19.1941618216
 10
-6.5629789889
 20
-19.1992206891
  0
LINE
  5
36E
100
AcDbEntity
  8
RACCORDO
100
AcDbLine
 62
253
  6
CONTINUOUS
 10
-6.5019112842
 20
-19.1950044312
 11
-6.5079669342
 21
-19.2246496698
  0
LINE
  5
36F
100
AcDbEntity
  8
DRAFT
100
AcDbLine
 62
7
  6
CONTINUOUS
 10
4.225487262
 20
5.7572599214
 11
2.8236153544
 21
4.8480060298
  0
LINE
  5
370
100
AcDbEntity
  8
DRAFT
100
AcDbLine
 62
7
  6
CONTINUOUS
 10
2.8236153544
 20
4.8480060298
 11
1.7444412905
 21
4.182099738
  0
LWPOLYLINE
  5
371
100
AcDbEntity
  8
RACCORDO
100
AcDbPolyline
 62
7
  6
CONTINUOUS
 90
20
 70
0
 10
-7.1711738513
 20
1.1190968023
 10
-7.1631737764
 20
1.1145824354
 10
-7.1435493809
 20
1.104379636
 10
-7.1239951251
 20
1.0954227884
 10
-7.1045594579
 20
1.0876974316
 10
-7.0852569975
 20
1.0811723252
 10
-7.0660776581
 20
1.0758152026
 10
-7.0470503946
 20
1.0716100989
 10
-7.0282089837
 20
1.0685401543
 10
-7.0095600474
 20
1.0665864514
 10
-6.9911437543
 20
1.0657357907
 10
-6.9729965492
 20
1.0659703418
 10
-6.9551317296
 20
1.0672734636
 10
-6.9375926861
 20
1.0696283056
 10
-6.920425618
 20
1.0730126002
 10
-6.9036579646
 20
1.077404772
 10
-6.8873386337
 20
1.0827768495
 10
-6.8715106152
 20
1.0890982028
 10
-6.8561963019
 20
1.0963423809
 10
-6.8471620989
 20
1.1011780173
  0
LINE
  5
372
100
AcDbEntity
  8
RACCORDO
100
AcDbLine
 62
253
  6
CONTINUOUS
 10
-18.4410524821
 20
7.0786885403
 11
-3.5733690148
 21
-1.505725558
  0
LINE
  5
373
100
AcDbEntity
  8
RACCORDO
100
AcDbLine
 62
253
  6
CONTINUOUS
 10
-6.999693243
 20
1.0131407407
 11
-14.9940333813
 21
5.628972544
  0
LINE
  5
374
100
AcDbEntity
  8
RACCORDO
100
AcDbLine
 62
7
  6
CONTINUOUS
 10
-7.1711804562
 20
1.1191001977
 11
-15.03298838
 21
5.6584095613
  0
LINE
  5
375
100
AcDbEntity
  8
RACCORDO
100
AcDbLine
 62
253
  6
CONTINUOUS
 10
-7.2021979188
 20
1.1913510423
 11
-15.0640058425
 21
5.7306604058
  0
LWPOLYLINE
  5
376
100
AcDbEntity
  8
RACCORDO
100
AcDbPolyline
 62
253
  6
CONTINUOUS
 90
14
 70
0
 10
-15.03298838
 20
5.6584095613
 10
-15.0343901133
 20
5.6592497408
 10
-15.0390961575
 20
5.6625639388
 10
-15.0434458007
 20
5.6664306645
 10
-15.0474199311
 20
5.6708329275
 10
-15.0510010866
 20
5.6757513839
 10
-15.0541735322
 20
5.681164422
 10
-15.0569233284
 20
5.6870482568
 10
-15.059238393
 20
5.6933770346
 10
-15.0611085542
 20
5.7001229469
 10
-15.0625255948
 20
5.7072563522
 10
-15.0634832887
 20
5.7147459064
 10
-15.0639774282
 20
5.7225587007
 10
-15.0640058425
 20
5.7306604058
  0
LWPOLYLINE
  5
377
100
AcDbEntity
  8
RACCORDO
100
AcDbPolyline
 62
253
  6
CONTINUOUS
 90
14
 70
0
 10
-7.1711804562
 20
1.1191001977
 10
-7.1725821284
 20
1.1199403392
 10
-7.1772881763
 20
1.1232545297
 10
-7.1816378244
 20
1.1271212488
 10
-7.1856119606
 20
1.1315235063
 10
-7.1891931227
 20
1.1364419589
 10
-7.1923655752
 20
1.1418549952
 10
-7.1951153785
 20
1.1477388304
 10
-7.1974304501
 20
1.1540676112
 10
-7.1993006176
 20
1.1608135293
 10
-7.2007176637
 20
1.1679469433
 10
-7.2016753618
 20
1.1754365095
 10
-7.202169504
 20
1.1832493188
 10
-7.2021979188
 20
1.1913510423
  0
LWPOLYLINE
  5
378
100
AcDbEntity
  8
RACCORDO
100
AcDbPolyline
 62
253
  6
CONTINUOUS
 90
31
 70
0
 10
-15.0640058425
 20
5.7306604058
 10
-15.0752704466
 20
5.7374718288
 10
-15.0864557926
 20
5.7448402281
 10
-15.0975618622
 20
5.7527656135
 10
-15.1086126714
 20
5.7612674187
 10
-15.119584131
 20
5.7703262499
 10
-15.1304040484
 20
5.7798838851
 10
-15.1410701954
 20
5.7899428348
 10
-15.1515846592
 20
5.8005006651
 10
-15.1618817092
 20
5.8114917441
 10
-15.1719596576
 20
5.822918605
 10
-15.1818199936
 20
5.8347788225
 10
-15.1914017484
 20
5.8469993275
 10
-15.2007031804
 20
5.8595825315
 10
-15.2097257897
 20
5.8725261541
 10
-15.218413476
 20
5.8857500856
 10
-15.2267640436
 20
5.8992561983
 10
-15.2347794218
 20
5.9130427642
 10
-15.2424097176
 20
5.9270242636
 10
-15.2496523194
 20
5.941201792
 10
-15.2565095674
 20
5.9555744007
 10
-15.2629390261
 20
5.9700534862
 10
-15.268938021
 20
5.9846401087
 10
-15.2745089701
 20
5.9993333467
 10
-15.2796171203
 20
6.0140416003
 10
-15.2842596272
 20
6.0287664667
 10
-15.2884391127
 20
6.0435064686
 10
-15.2921290807
 20
6.0581653638
 10
-15.2953206581
 20
6.0727110935
 10
-15.2980225585
 20
6.0871758021
 10
-15.3002346964
 20
6.1015595354
  0
LINE
  5
379
100
AcDbEntity
  8
RACCORDO
100
AcDbLine
 62
253
  6
CONTINUOUS
 10
-14.9940333813
 20
5.628972544
 11
-15.0259770911
 21
5.6491572513
  0
LWPOLYLINE
  5
37A
100
AcDbEntity
  8
RACCORDO
100
AcDbPolyline
 62
253
  6
CONTINUOUS
 90
7
 70
0
 10
-6.6466332533
 20
1.1390475969
 10
-6.6573792409
 20
1.1495416832
 10
-6.6656990369
 20
1.1608651865
 10
-6.6713446751
 20
1.1726806165
 10
-6.6741478904
 20
1.1846358214
 10
-6.6740251347
 20
1.1963744834
 10
-6.6732357992
 20
1.2005936854
  0
LWPOLYLINE
  5
37B
100
AcDbEntity
  8
RACCORDO
100
AcDbPolyline
 62
253
  6
CONTINUOUS
 90
16
 70
0
 10
-1.8296979039
 20
8.9019512461
 10
-1.8335644653
 20
8.9445795066
 10
-1.8411895938
 20
8.9890139514
 10
-1.8524898788
 20
9.0347683414
 10
-1.8673416912
 20
9.0813419892
 10
-1.8855825333
 20
9.1282252283
 10
-1.9070128131
 20
9.174904991
 10
-1.9313980379
 20
9.2208704424
 10
-1.9584713698
 20
9.2656185495
 10
-1.987936538
 20
9.3086595795
 10
-2.0194711055
 20
9.3495224999
 10
-2.052729981
 20
9.3877601034
 10
-2.0873491769
 20
9.4229538885
 10
-2.1229498285
 20
9.4547186831
 10
-2.1591423433
 20
9.4827068537
 10
-2.195530641
 20
9.5066120862
  0
LWPOLYLINE
  5
37C
100
AcDbEntity
  8
0
100
AcDbPolyline
 62
7
  6
CONTINUOUS
 90
3
 70
0
 10
-2.0663011753
 20
22.5870527106
 10
-2.0663065639
 20
22.5871553874
 10
-2.0667008858
 20
22.5877405856
  0
LWPOLYLINE
  5
37D
100
AcDbEntity
  8
0
100
AcDbPolyline
 62
253
  6
CONTINUOUS
 90
18
 70
0
 10
0.1627058227
 20
-26.3824741372
 10
0.1629046255
 20
-26.3920370464
 10
0.1635005878
 20
-26.4013488879
 10
0.164492371
 20
-26.4103887161
 10
0.165877747
 20
-26.4191362029
 10
0.1676536011
 20
-26.4275716661
 10
0.1698159362
 20
-26.4356761158
 10
0.1723598869
 20
-26.4434313199
 10
0.1752797316
 20
-26.4508198399
 10
0.1785689016
 20
-26.457825056
 10
0.1822199985
 20
-26.4644312137
 10
0.1862248091
 20
-26.4706234543
 10
0.1905743213
 20
-26.4763878466
 10
0.19525875
 20
-26.4817114265
 10
0.2002675581
 20
-26.4865822233
 10
0.2055894766
 20
-26.4909892825
 10
0.211212537
 20
-26.4949226961
 10
0.214476478
 20
-26.4969083525
  0
LWPOLYLINE
  5
37E
100
AcDbEntity
  8
0
100
AcDbPolyline
 62
253
  6
CONTINUOUS
 90
19
 70
0
 10
-1.5158322477
 20
13.8435986675
 10
-1.5156639518
 20
13.8347912022
 10
-1.5151593846
 20
13.8261948504
 10
-1.5143195068
 20
13.8178259801
 10
-1.513145921
 20
13.8097005473
 10
-1.5116408601
 20
13.8018340006
 10
-1.5098071737
 20
13.7942412586
 10
-1.5076483297
 20
13.7869367365
 10
-1.5051684423
 20
13.7799344027
 10
-1.5023722625
 20
13.773247679
 10
-1.49926514
 20
13.766889334
 10
-1.4958529779
 20
13.7608714257
 10
-1.4921422499
 20
13.7552053694
 10
-1.4881399892
 20
13.7499019195
 10
-1.48385384
 20
13.74497122
 10
-1.4792920305
 20
13.7404227265
 10
-1.474463301
 20
13.7362651214
 10
-1.4693768152
 20
13.7325062642
 10
-1.4640615924
 20
13.7291644522
  0
LINE
  5
37F
100
AcDbEntity
  8
0
100
AcDbLine
 62
7
  6
CONTINUOUS
 10
-1.5387173141
 20
21.2023058699
 11
-1.5370311103
 21
20.6650294618
  0
LINE
  5
380
100
AcDbEntity
  8
0
100
AcDbLine
 62
7
  6
CONTINUOUS
 10
-1.5890555524
 20
14.2661874887
 11
-1.5890507412
 21
13.9441163749
  0
LINE
  5
381
100
AcDbEntity
  8
0
100
AcDbLine
 62
253
  6
CONTINUOUS
 10
-1.5158322477
 20
14.1641188403
 11
-1.5158322477
 21
13.8435986675
  0
LINE
  5
382
100
AcDbEntity
  8
0
100
AcDbLine
 62
7
  6
CONTINUOUS
 10
-0.8860625981
 20
13.3954350769
 11
-0.8860625981
 21
13.1160075777
  0
LINE
  5
383
100
AcDbEntity
  8
0
100
AcDbLine
 62
253
  6
CONTINUOUS
 10
-0.8128392934
 20
13.3531568585
 11
-0.8128392934
 21
13.0108057485
  0
LINE
  5
384
100
AcDbEntity
  8
DRAFT
100
AcDbLine
 62
7
  6
CONTINUOUS
 10
-0.3230098219
 20
23.5515486436
 11
-0.3230098219
 21
23.6819326318
  0
LINE
  5
385
100
AcDbEntity
  8
0
100
AcDbLine
 62
253
  6
CONTINUOUS
 10
-0.3230098219
 20
23.7321785482
 11
-0.3230102782
 21
24.9070756738
  0
LINE
  5
386
100
AcDbEntity
  8
0
100
AcDbLine
 62
7
  6
CONTINUOUS
 10
-0.3230107667
 20
24.9740576568
 11
-0.3230107346
 21
24.9070754103
  0
LINE
  5
387
100
AcDbEntity
  8
0
100
AcDbLine
 62
253
  6
CONTINUOUS
 10
0.1627058227
 20
-26.3824741372
 11
0.1627058227
 21
-26.0619539644
  0
LINE
  5
388
100
AcDbEntity
  8
0
100
AcDbLine
 62
253
  6
CONTINUOUS
 10
0.1627058227
 20
12.8744318227
 11
0.1627058227
 21
13.1949519955
  0
LINE
  5
389
100
AcDbEntity
  8
DRAFT
100
AcDbLine
 62
253
  6
CONTINUOUS
 10
-1.0903368746
 20
20.5146705218
 11
-1.1003211812
 21
19.1878689955
  0
LINE
  5
38A
100
AcDbEntity
  8
DRAFT
100
AcDbLine
 62
7
  6
CONTINUOUS
 10
-1.058780415
 20
19.1638838778
 11
-1.053986842
 21
19.7524458943
  0
LWPOLYLINE
  5
38B
100
AcDbEntity
  8
ASSI
100
AcDbPolyline
 62
7
  6
CONTINUOUS
 90
13
 70
0
 10
-0.3415228514
 20
23.5622378347
 10
-0.3413920798
 20
23.5732400997
 10
-0.3410029743
 20
23.5840669309
 10
-0.3403555351
 20
23.5947183282
 10
-0.3394489246
 20
23.6052012215
 10
-0.3382839803
 20
23.6155086809
 10
-0.3368632142
 20
23.625619917
 10
-0.3351860401
 20
23.6355351271
 10
-0.3332530443
 20
23.6452541138
 10
-0.3310684974
 20
23.6547554958
 10
-0.3286338232
 20
23.6640321459
 10
-0.325947598
 20
23.6730911913
 10
-0.3230098219
 20
23.6819326318
  0
LWPOLYLINE
  5
38C
100
AcDbEntity
  8
0
100
AcDbPolyline
 62
7
  6
CONTINUOUS
 90
40
 70
0
 10
-0.9669432605
 20
23.6568164792
 10
-0.9664305023
 20
23.682353328
 10
-0.9644160639
 20
23.7270596044
 10
-0.9612817638
 20
23.7717502005
 10
-0.9570272316
 20
23.8164228106
 10
-0.9516543478
 20
23.8610504842
 10
-0.9451872785
 20
23.9053785644
 10
-0.9376390619
 20
23.9493916033
 10
-0.9290230566
 20
23.9930780319
 10
-0.919385501
 20
24.0361911736
 10
-0.9087529266
 20
24.0787067022
 10
-0.8971482569
 20
24.1206266435
 10
-0.8846311442
 20
24.1617468984
 10
-0.8712394119
 20
24.2020378142
 10
-0.8570017385
 20
24.2415129636
 10
-0.8419768989
 20
24.280036195
 10
-0.8262076352
 20
24.3175816594
 10
-0.8097257711
 20
24.3541653021
 10
-0.7925797211
 20
24.3897160621
 10
-0.7748133954
 20
24.4242127326
 10
-0.7564581939
 20
24.4576718074
 10
-0.7375439251
 20
24.4900800128
 10
-0.7181111327
 20
24.5214232511
 10
-0.6981893913
 20
24.5517143969
 10
-0.6777878208
 20
24.5809805462
 10
-0.656941452
 20
24.6092136829
 10
-0.6356767974
 20
24.6364223313
 10
-0.6139833301
 20
24.6626571215
 10
-0.5918899537
 20
24.6879142093
 10
-0.5694193232
 20
24.7121981274
 10
-0.546543357
 20
24.7355698263
 10
-0.5232841778
 20
24.7580284657
 10
-0.4996610123
 20
24.7795744457
 10
-0.4756329302
 20
24.8002676304
 10
-0.4512188408
 20
24.8201063279
 10
-0.4264318965
 20
24.839089797
 10
-0.4012139022
 20
24.8572757056
 10
-0.375551159
 20
24.8746804139
 10
-0.3494793078
 20
24.8912813699
 10
-0.3230098219
 20
24.9070759373
  0
LWPOLYLINE
  5
38D
100
AcDbEntity
  8
0
100
AcDbPolyline
 62
253
  6
CONTINUOUS
 90
34
 70
0
 10
-1.5158322477
 20
14.1641188403
 10
-1.5156334449
 20
14.173911322
 10
-1.5150374826
 20
14.1839113658
 10
-1.5140456994
 20
14.1940964804
 10
-1.5126603234
 20
14.2044437647
 10
-1.5108844693
 20
14.2149299397
 10
-1.5087221342
 20
14.2255313998
 10
-1.5061781836
 20
14.2362242943
 10
-1.5032583388
 20
14.2469845778
 10
-1.4999691688
 20
14.2577880449
 10
-1.4963180719
 20
14.2686103979
 10
-1.4923132613
 20
14.2794272933
 10
-1.4879637491
 20
14.2902143933
 10
-1.4832793204
 20
14.3009474341
 10
-1.4782705124
 20
14.3116022769
 10
-1.4729485938
 20
14.3221549542
 10
-1.4673255334
 20
14.332581737
 10
-1.4614139827
 20
14.342859169
 10
-1.455227251
 20
14.352964117
 10
-1.4487792744
 20
14.362873828
 10
-1.4420845411
 20
14.3725660448
 10
-1.4351580649
 20
14.3820190319
 10
-1.4280153545
 20
14.3912116113
 10
-1.420672537
 20
14.4001230151
 10
-1.4131462903
 20
14.4087330153
 10
-1.4054536561
 20
14.4170221553
 10
-1.3976118435
 20
14.4249719295
 10
-1.3896383445
 20
14.4325646189
 10
-1.381549867
 20
14.4397842045
 10
-1.3733657958
 20
14.4466132768
 10
-1.3651081249
 20
14.4530337873
 10
-1.3567967043
 20
14.4590310066
 10
-1.3484490719
 20
14.4645929782
 10
-1.3400839917
 20
14.4697077956
  0
LWPOLYLINE
  5
38E
100
AcDbEntity
  8
0
100
AcDbPolyline
 62
253
  6
CONTINUOUS
 90
34
 70
0
 10
0.1627058227
 20
13.1949519955
 10
0.1629046255
 20
13.2047444772
 10
0.1635005878
 20
13.214744521
 10
0.164492371
 20
13.2249296355
 10
0.165877747
 20
13.2352769198
 10
0.1676536011
 20
13.2457630948
 10
0.1698159362
 20
13.256364555
 10
0.1723598869
 20
13.2670574494
 10
0.1752797316
 20
13.277817733
 10
0.1785689016
 20
13.2886212001
 10
0.1822199985
 20
13.2994435531
 10
0.1862248091
 20
13.3102604485
 10
0.1905743213
 20
13.3210475485
 10
0.19525875
 20
13.3317805892
 10
0.2002675581
 20
13.3424354321
 10
0.2055894766
 20
13.3529881093
 10
0.211212537
 20
13.3634148921
 10
0.2171240877
 20
13.3736923242
 10
0.2233108195
 20
13.3837972722
 10
0.229758796
 20
13.3937069832
 10
0.2364535293
 20
13.4033992
 10
0.2433800055
 20
13.4128521871
 10
0.250522716
 20
13.4220447664
 10
0.2578655334
 20
13.4309561703
 10
0.2653917801
 20
13.4395661705
 10
0.2730844144
 20
13.4478553104
 10
0.280926227
 20
13.4558050847
 10
0.2888997259
 20
13.463397774
 10
0.2969882034
 20
13.4706173597
 10
0.3051722747
 20
13.4774464319
 10
0.3134299455
 20
13.4838669425
 10
0.3217413661
 20
13.4898641618
 10
0.3300889985
 20
13.4954261334
 10
0.3384540787
 20
13.5005409507
  0
LWPOLYLINE
  5
38F
100
AcDbEntity
  8
RACCORDO
100
AcDbPolyline
 62
253
  6
CONTINUOUS
 90
15
 70
0
 10
-6.5079669342
 20
-19.2246496698
 10
-6.5166675164
 20
-19.2513948628
 10
-6.5280148151
 20
-19.2752411877
 10
-6.5421652408
 20
-19.2963641835
 10
-6.5589655197
 20
-19.3145903843
 10
-6.5779537093
 20
-19.3293979943
 10
-6.5991539275
 20
-19.3406658057
 10
-6.6225465265
 20
-19.3485179976
 10
-6.6476049498
 20
-19.3528015478
 10
-6.6743750052
 20
-19.3534511168
 10
-6.7028146848
 20
-19.3505345776
 10
-6.7322658817
 20
-19.3440988434
 10
-6.7625100449
 20
-19.3341600981
 10
-6.7937679697
 20
-19.3207036568
 10
-6.8260402188
 20
-19.3037298955
  0
LINE
  5
390
100
AcDbEntity
  8
DRAFT
100
AcDbLine
 62
7
  6
CONTINUOUS
 10
1.7452775131
 20
1.5819546602
 11
3.151069647
 21
2.2952638027
  0
LWPOLYLINE
  5
391
100
AcDbEntity
  8
RACCORDO
100
AcDbPolyline
 62
253
  6
CONTINUOUS
 90
16
 70
0
 10
-2.8725502611
 20
-1.5170504717
 10
-2.9115838402
 20
-1.5358627594
 10
-2.9539206065
 20
-1.5522484483
 10
-2.9991069489
 20
-1.5660319766
 10
-3.0466587253
 20
-1.5770656625
 10
-3.0960664491
 20
-1.5852312874
 10
-3.1468007488
 20
-1.5904413619
 10
-3.1983180393
 20
-1.5926400633
 10
-3.2500663462
 20
-1.5918038341
 10
-3.3014912201
 20
-1.5879416339
 10
-3.3520416769
 20
-1.5810948436
 10
-3.4011761012
 20
-1.5713368223
 10
-3.4483680496
 20
-1.5587721206
 10
-3.4931118911
 20
-1.5435353613
 10
-3.5349282244
 20
-1.5257897964
 10
-3.5733690147
 20
-1.5057255579
  0
LWPOLYLINE
  5
392
100
AcDbEntity
  8
RACCORDO
100
AcDbPolyline
 62
253
  6
CONTINUOUS
 90
5
 70
0
 10
-15.1845730688
 20
9.4443784775
 10
-15.1716448094
 20
9.4347784057
 10
-15.1569498179
 20
9.4265354097
 10
-15.1409388527
 20
9.4199023376
 10
-15.1241030386
 20
9.4150826542
  0
LWPOLYLINE
  5
393
100
AcDbEntity
  8
RACCORDO
100
AcDbPolyline
 62
253
  6
CONTINUOUS
 90
3
 70
0
 10
-6.7632595425
 20
4.9198947474
 10
-6.7331913061
 20
4.8938178586
 10
-6.7037349277
 20
4.8645113974
  0
LWPOLYLINE
  5
394
100
AcDbEntity
  8
RACCORDO
100
AcDbPolyline
 62
253
  6
CONTINUOUS
 90
9
 70
0
 10
-6.7037349277
 20
4.8645113974
 10
-6.6751575283
 20
4.8322677588
 10
-6.6482629262
 20
4.7979629323
 10
-6.6231448566
 20
4.7616067384
 10
-6.5997058014
 20
4.7231912029
 10
-6.5784628884
 20
4.6835655322
 10
-6.5594441754
 20
4.6426815071
 10
-6.5426172156
 20
4.6005894976
 10
-6.5284092496
 20
4.5582861714
  0
LWPOLYLINE
  5
395
100
AcDbEntity
  8
0
100
AcDbPolyline
 62
253
  6
CONTINUOUS
 90
19
 70
0
 10
0.1627058227
 20
12.8744318227
 10
0.1628741186
 20
12.8656243574
 10
0.1633786858
 20
12.8570280056
 10
0.1642185637
 20
12.8486591353
 10
0.1653921494
 20
12.8405337025
 10
0.1668972103
 20
12.8326671558
 10
0.1687308967
 20
12.8250744138
 10
0.1708897407
 20
12.8177698916
 10
0.1733696281
 20
12.8107675578
 10
0.1761658079
 20
12.8040808342
 10
0.1792729304
 20
12.7977224892
 10
0.1826850925
 20
12.7917045809
 10
0.1863958205
 20
12.7860385245
 10
0.1903980813
 20
12.7807350747
 10
0.1946842304
 20
12.7758043751
 10
0.1992460399
 20
12.7712558816
 10
0.2040747694
 20
12.7670982765
 10
0.2091612552
 20
12.7633394194
 10
0.2144131865
 20
12.7600341881
  0
LINE
  5
396
100
AcDbEntity
  8
0
100
AcDbLine
 62
7
  6
CONTINUOUS
 10
1.3055820366
 20
22.006518903
 11
1.3088895195
 21
21.5669917915
  0
LINE
  5
397
100
AcDbEntity
  8
ASSI
100
AcDbLine
 62
7
  6
CONTINUOUS
 10
0.4966445327
 20
24.2628978175
 11
0.4966445327
 21
24.1916772105
  0
LINE
  5
398
100
AcDbEntity
  8
0
100
AcDbLine
 62
253
  6
CONTINUOUS
 10
0.5152277824
 20
-26.3830662179
 11
0.5152277824
 21
-26.062546045
  0
LINE
  5
399
100
AcDbEntity
  8
0
100
AcDbLine
 62
253
  6
CONTINUOUS
 10
0.5152277824
 20
12.873839742
 11
0.5152277824
 21
13.1943599148
  0
LINE
  5
39A
100
AcDbEntity
  8
0
100
AcDbLine
 62
253
  6
CONTINUOUS
 10
0.8739264308
 20
12.0368883594
 11
0.8739264308
 21
12.6762306297
  0
LINE
  5
39B
100
AcDbEntity
  8
0
100
AcDbLine
 62
253
  6
CONTINUOUS
 10
1.2264483905
 20
-25.1852573897
 11
1.2264483905
 21
-24.9261826923
  0
LINE
  5
39C
100
AcDbEntity
  8
0
100
AcDbLine
 62
253
  6
CONTINUOUS
 10
1.2264483905
 20
12.046931393
 11
1.2264483905
 21
12.8083497291
  0
LINE
  5
39D
100
AcDbEntity
  8
DRAFT
100
AcDbLine
 62
7
  6
CONTINUOUS
 10
1.7444412905
 20
-24.5068142392
 11
1.7444412905
 21
-17.563071977
  0
LINE
  5
39E
100
AcDbEntity
  8
DRAFT
100
AcDbLine
 62
7
  6
CONTINUOUS
 10
1.7444412905
 20
-13.7802463514
 11
1.7444412905
 21
0.3992741125
  0
LINE
  5
39F
100
AcDbEntity
  8
DRAFT
100
AcDbLine
 62
7
  6
CONTINUOUS
 10
1.7444412905
 20
4.182099738
 11
1.7444412905
 21
11.1258420003
  0
LINE
  5
3A0
100
AcDbEntity
  8
RACCORDO
100
AcDbLine
 62
7
  6
CONTINUOUS
 10
1.7452775131
 20
-6.9767024527
 11
1.7452775131
 21
-24.4898341271
  0
LINE
  5
3A1
100
AcDbEntity
  8
RACCORDO
100
AcDbLine
 62
7
  6
CONTINUOUS
 10
1.7452775131
 20
-6.4052354351
 11
1.7452775131
 21
11.1078962392
  0
LINE
  5
3A2
100
AcDbEntity
  8
0
100
AcDbLine
 62
7
  6
CONTINUOUS
 10
2.1165085732
 20
-24.4994060597
 11
2.1165085732
 21
-25.479896992
  0
LINE
  5
3A3
100
AcDbEntity
  8
0
100
AcDbLine
 62
7
  6
CONTINUOUS
 10
2.1165085732
 20
12.6084448747
 11
2.1165085732
 21
14.1189183411
  0
LWPOLYLINE
  5
3A4
100
AcDbEntity
  8
0
100
AcDbPolyline
 62
253
  6
CONTINUOUS
 90
25
 70
0
 10
0.1627058227
 20
-26.0619539644
 10
0.162874075
 20
-26.0529533343
 10
0.1633785114
 20
-26.043775544
 10
0.1642181719
 20
-26.0344380639
 10
0.1653914579
 20
-26.0249586683
 10
0.1668961363
 20
-26.015355402
 10
0.1687293426
 20
-26.0056465452
 10
0.1708875872
 20
-25.9958505792
 10
0.1733667619
 20
-25.9859861514
 10
0.1761621474
 20
-25.9760720392
 10
0.1792684225
 20
-25.9661271145
 10
0.1826796742
 20
-25.9561703083
 10
0.1863894091
 20
-25.9462205738
 10
0.1903905654
 20
-25.9362968509
 10
0.1946755267
 20
-25.92641803
 10
0.1992361363
 20
-25.916602916
 10
0.2040637129
 20
-25.9068701925
 10
0.2091490669
 20
-25.8972383863
 10
0.214482518
 20
-25.8877258321
 10
0.2200539137
 20
-25.8783506375
 10
0.2258526486
 20
-25.8691306489
 10
0.2318676844
 20
-25.8600834169
 10
0.2380875711
 20
-25.8512261635
 10
0.2445004689
 20
-25.842575749
 10
0.2510941704
 20
-25.8341486399
  0
LWPOLYLINE
  5
3A5
100
AcDbEntity
  8
0
100
AcDbPolyline
 62
253
  6
CONTINUOUS
 90
18
 70
0
 10
0.5152277824
 20
-26.3830662179
 10
0.5149795141
 20
-26.3926899632
 10
0.5143337058
 20
-26.402059359
 10
0.5132918204
 20
-26.4111531816
 10
0.511856218
 20
-26.4199508314
 10
0.5100301505
 20
-26.4284323797
 10
0.5078177545
 20
-26.4365786139
 10
0.5052240414
 20
-26.444371081
 10
0.5022548866
 20
-26.4517921293
 10
0.498917016
 20
-26.4588249485
 10
0.4952179905
 20
-26.4654536076
 10
0.4911661892
 20
-26.4716630913
 10
0.4867707905
 20
-26.4774393337
 10
0.4820417508
 20
-26.4827692503
 10
0.4769897826
 20
-26.4876407676
 10
0.4716263295
 20
-26.4920428506
 10
0.4659635412
 20
-26.4959655275
 10
0.4623007063
 20
-26.4981569357
  0
LWPOLYLINE
  5
3A6
100
AcDbEntity
  8
0
100
AcDbPolyline
 62
253
  6
CONTINUOUS
 90
17
 70
0
 10
2.7169195875
 20
14.1947609112
 10
2.7163922122
 20
14.1879227408
 10
2.7153039769
 20
14.1811066931
 10
2.7136573287
 20
14.1743280956
 10
2.7114559699
 20
14.1676021909
 10
2.7087048511
 20
14.1609441043
 10
2.705410158
 20
14.1543688069
 10
2.7015792976
 20
14.1478910815
 10
2.6972208789
 20
14.1415254887
 10
2.6923447051
 20
14.135286349
 10
2.6869617536
 20
14.1291877066
 10
2.6810841402
 20
14.1232432828
 10
2.6747250772
 20
14.1174664351
 10
2.6678988535
 20
14.1118701426
 10
2.6606208146
 20
14.1064669862
 10
2.6529073301
 20
14.1012691192
 10
2.644775745
 20
14.0962882298
  0
LWPOLYLINE
  5
3A7
100
AcDbEntity
  8
RACCORDO
100
AcDbPolyline
 62
253
  6
CONTINUOUS
 90
9
 70
0
 10
-1.8296979039
 20
-26.270534379
 10
-1.8335645699
 20
-26.3130833993
 10
-1.841189912
 20
-26.3528941642
 10
-1.8524904826
 20
-26.3895310051
 10
-1.8673426139
 20
-26.4225929875
 10
-1.885583772
 20
-26.4517182981
 10
-1.907014335
 20
-26.4765882046
 10
-1.931399778
 20
-26.4969305436
 10
-1.9541003291
 20
-26.5104184549
  0
LWPOLYLINE
  5
3A8
100
AcDbEntity
  8
RACCORDO
100
AcDbPolyline
 62
253
  6
CONTINUOUS
 90
25
 70
0
 10
-14.9589103447
 20
-11.0899881683
 10
-14.9659349715
 20
-11.0943839595
 10
-14.9729246655
 20
-11.0992961974
 10
-14.9798487141
 20
-11.1047032978
 10
-14.9866766934
 20
-11.110581502
 10
-14.9933786016
 20
-11.1169049817
 10
-14.9999249908
 20
-11.1236459516
 10
-15.0062870963
 20
-11.1307747922
 10
-15.0124369635
 20
-11.1382601797
 10
-15.01834757
 20
-11.1460692236
 10
-15.0239929449
 20
-11.1541676113
 10
-15.0293482826
 20
-11.1625197589
 10
-15.0343900521
 20
-11.1710889674
 10
-15.0390960999
 20
-11.1798375841
 10
-15.0434457481
 20
-11.1887271678
 10
-15.0474198843
 20
-11.1977186582
 10
-15.0510010463
 20
-11.206772547
 10
-15.0541734989
 20
-11.2158490519
 10
-15.0569233022
 20
-11.224908291
 10
-15.0592383737
 20
-11.2339104584
 10
-15.0611085413
 20
-11.2428159991
 10
-15.0625255873
 20
-11.2515857824
 10
-15.0634832855
 20
-11.2601812744
 10
-15.0639774276
 20
-11.2685647067
 10
-15.0640058425
 20
-11.2766992429
  0
LWPOLYLINE
  5
3A9
100
AcDbEntity
  8
RACCORDO
100
AcDbPolyline
 62
7
  6
CONTINUOUS
 90
17
 70
0
 10
-15.2089393328
 20
-11.0652147022
 10
-15.2161320784
 20
-11.0696591057
 10
-15.2290364596
 20
-11.0784851368
 10
-15.2415647322
 20
-11.088216123
 10
-15.2536254004
 20
-11.0988223483
 10
-15.2651641216
 20
-11.1102937282
 10
-15.2761273598
 20
-11.1226162789
 10
-15.2864404232
 20
-11.1357392443
 10
-15.2960637641
 20
-11.1496389176
 10
-15.3049588761
 20
-11.1642881849
 10
-15.313073335
 20
-11.1796245428
 10
-15.3203832496
 20
-11.1956178079
 10
-15.3268700123
 20
-11.2122431808
 10
-15.3325075348
 20
-11.2294490108
 10
-15.3372828621
 20
-11.2472036615
 10
-15.3411899478
 20
-11.2654903815
 10
-15.3419811944
 20
-11.2698628459
  0
LINE
  5
3AA
100
AcDbEntity
  8
RACCORDO
100
AcDbLine
 62
7
  6
CONTINUOUS
 10
-15.0307845164
 20
-10.9590732647
 11
-15.2089599119
 21
-11.0652266213
  0
LINE
  5
3AB
100
AcDbEntity
  8
RACCORDO
100
AcDbLine
 62
7
  6
CONTINUOUS
 10
-15.208959841
 20
-11.0652269154
 11
-15.2089335735
 21
-11.0652112706
  0
LINE
  5
3AC
100
AcDbEntity
  8
RACCORDO
100
AcDbLine
 62
253
  6
CONTINUOUS
 10
-14.9589103447
 20
-11.0899881683
 11
-14.8763662224
 21
-11.0408099844
  0
LWPOLYLINE
  5
3AD
100
AcDbEntity
  8
RACCORDO
100
AcDbPolyline
 62
253
  6
CONTINUOUS
 90
19
 70
0
 10
-15.2089335735
 20
-11.0652112706
 10
-15.2040130925
 20
-11.0623984344
 10
-15.1924870035
 20
-11.0566668604
 10
-15.1804600897
 20
-11.0518375733
 10
-15.1679567761
 20
-11.0479216005
 10
-15.1550035333
 20
-11.0449259797
 10
-15.1416275243
 20
-11.0428569509
 10
-15.1278561073
 20
-11.0417199381
 10
-15.1137180389
 20
-11.041516414
 10
-15.099242585
 20
-11.0422466371
 10
-15.0844589445
 20
-11.0439103935
 10
-15.0693984384
 20
-11.0465035177
 10
-15.0540936956
 20
-11.050019777
 10
-15.0385772525
 20
-11.054452434
 10
-15.0228799232
 20
-11.0597924166
 10
-15.0070316771
 20
-11.0660293
 10
-14.9910635572
 20
-11.0731522063
 10
-14.9750105835
 20
-11.0811453384
 10
-14.9589103414
 20
-11.0899885972
  0
LINE
  5
3AE
100
AcDbEntity
  8
DRAFT
100
AcDbLine
 62
7
  6
CONTINUOUS
 10
4.225487262
 20
1.6749085374
 11
2.8236153544
 21
0.9368122221
  0
LWPOLYLINE
  5
3AF
100
AcDbEntity
  8
RACCORDO
100
AcDbPolyline
 62
253
  6
CONTINUOUS
 90
61
 70
0
 10
16.8399812464
 20
6.2644540824
 10
16.8463590693
 20
6.2676324429
 10
16.8527375676
 20
6.2706076934
 10
16.8591162095
 20
6.2733805587
 10
16.8654809847
 20
6.275953622
 10
16.8718446408
 20
6.2783259284
 10
16.8782465468
 20
6.2804931711
 10
16.8846875225
 20
6.2824627492
 10
16.8911647096
 20
6.284229756
 10
16.8977114476
 20
6.2857720436
 10
16.9043357485
 20
6.2870976295
 10
16.9110263333
 20
6.2882023617
 10
16.9177868445
 20
6.28904671
 10
16.9246223648
 20
6.2896345576
 10
16.9315229022
 20
6.2899676779
 10
16.9384686083
 20
6.2900043342
 10
16.9454568895
 20
6.2897462614
 10
16.9524835845
 20
6.2891993631
 10
16.9595255854
 20
6.2883291181
 10
16.9665746598
 20
6.2871396457
 10
16.9736302864
 20
6.2856366457
 10
16.9806798434
 20
6.2837891354
 10
16.9877179747
 20
6.2816033869
 10
16.9947387502
 20
6.2790858262
 10
17.0017273339
 20
6.2762072025
 10
17.008680772
 20
6.2729729281
 10
17.0155877617
 20
6.2693937916
 10
17.0224196733
 20
6.2654500378
 10
17.0291662134
 20
6.2611518386
 10
17.0358208876
 20
6.2565083931
 10
17.0423595127
 20
6.2514999457
 10
17.0487657282
 20
6.2461485845
 10
17.0550362739
 20
6.2404553674
 10
17.0611638888
 20
6.2343722526
 10
17.06713787
 20
6.227925859
 10
17.0729432788
 20
6.221120607
 10
17.0785611827
 20
6.2138815759
 10
17.0839867471
 20
6.206228156
 10
17.0891895086
 20
6.1981848631
 10
17.0941061351
 20
6.1896918154
 10
17.0987207849
 20
6.1807831257
 10
17.1030058666
 20
6.1714805912
 10
17.1068744551
 20
6.1617134883
 10
17.110305383
 20
6.15155823
 10
17.1132673117
 20
6.1410087643
 10
17.1156445492
 20
6.129888217
 10
17.1174203415
 20
6.1182112885
 10
17.1185291113
 20
6.1060771349
 10
17.1187715067
 20
6.0934497085
 10
17.1180830037
 20
6.0802885747
 10
17.116437492
 20
6.0667671536
 10
17.113718752
 20
6.0531363183
 10
17.1098664263
 20
6.0393998343
 10
17.1049045714
 20
6.0256194555
 10
17.0988956553
 20
6.0120604087
 10
17.0918460648
 20
5.9987489209
 10
17.0837686274
 20
5.9856463261
 10
17.0747713415
 20
5.9728680498
 10
17.0648931723
 20
5.9604247902
 10
17.0541314463
 20
5.9482651042
 10
17.0425407206
 20
5.936397127
  0
LINE
  5
3B0
100
AcDbEntity
  8
DRAFT
100
AcDbLine
 62
7
  6
CONTINUOUS
 10
2.8236153544
 20
0.9368122221
 11
1.7444412905
 21
0.3992741125
  0
LWPOLYLINE
  5
3B1
100
AcDbEntity
  8
RACCORDO
100
AcDbPolyline
 62
253
  6
CONTINUOUS
 90
4
 70
0
 10
-6.782642583
 20
1.0963615804
 10
-6.8054306688
 20
1.0950485517
 10
-6.8291479056
 20
1.0967343452
 10
-6.8485233356
 20
1.1004494034
  0
LWPOLYLINE
  5
3B2
100
AcDbEntity
  8
RACCORDO
100
AcDbPolyline
 62
253
  6
CONTINUOUS
 90
6
 70
0
 10
-6.5019108066
 20
4.431112736
 10
-6.5130727254
 20
4.4354245276
 10
-6.5217298957
 20
4.4406669149
 10
-6.5276168275
 20
4.4466791293
 10
-6.530552986
 20
4.4532767937
 10
-6.5307885952
 20
4.4547541603
  0
LINE
  5
3B3
100
AcDbEntity
  8
RACCORDO
100
AcDbLine
 62
253
  6
CONTINUOUS
 10
-14.8504491146
 20
9.5944827681
 11
-14.8179309449
 21
9.5776509983
  0
LINE
  5
3B4
100
AcDbEntity
  8
RACCORDO
100
AcDbLine
 62
7
  6
CONTINUOUS
 10
-14.8148077259
 20
9.5346729225
 11
-14.7974946009
 21
9.5253652477
  0
LINE
  5
3B5
100
AcDbEntity
  8
RACCORDO
100
AcDbLine
 62
253
  6
CONTINUOUS
 10
-14.9099534371
 20
9.2396483819
 11
-7.0459495471
 21
4.6990710949
  0
LINE
  5
3B6
100
AcDbEntity
  8
RACCORDO
100
AcDbLine
 62
253
  6
CONTINUOUS
 10
-14.8051159499
 20
9.4133964186
 11
-6.9411120599
 21
4.8728191317
  0
LINE
  5
3B7
100
AcDbEntity
  8
RACCORDO
100
AcDbLine
 62
7
  6
CONTINUOUS
 10
-14.7974412531
 20
9.5253364701
 11
-6.8055505287
 21
4.9109189277
  0
LINE
  5
3B8
100
AcDbEntity
  8
RACCORDO
100
AcDbLine
 62
253
  6
CONTINUOUS
 10
-14.8179309449
 20
9.5776509983
 11
-6.8260402188
 21
4.963233455
  0
LWPOLYLINE
  5
3B9
100
AcDbEntity
  8
RACCORDO
100
AcDbPolyline
 62
7
  6
CONTINUOUS
 90
13
 70
0
 10
-6.8054420375
 20
4.9108446291
 10
-6.7991775379
 20
4.9071373618
 10
-6.7696255594
 20
4.8872374094
 10
-6.7398986722
 20
4.8631262364
 10
-6.7105772495
 20
4.8351002793
 10
-6.6821909891
 20
4.8035206545
 10
-6.6552015779
 20
4.7687951612
 10
-6.6300205568
 20
4.731392811
 10
-6.6069934294
 20
4.6917545457
 10
-6.5864593375
 20
4.6504185438
 10
-6.56869906
 20
4.6079602651
 10
-6.5539269338
 20
4.5648840287
 10
-6.5423360935
 20
4.521774884
  0
LWPOLYLINE
  5
3BA
100
AcDbEntity
  8
RACCORDO
100
AcDbPolyline
 62
253
  6
CONTINUOUS
 90
31
 70
0
 10
-7.0459495471
 20
4.6990710949
 10
-7.0347076541
 20
4.6922592386
 10
-7.0235685526
 20
4.6848771611
 10
-7.0125322243
 20
4.6769248712
 10
-7.0015749285
 20
4.6683830032
 10
-6.9907203327
 20
4.6592709588
 10
-6.980039514
 20
4.6496469065
 10
-6.9695346455
 20
4.6395082986
 10
-6.9592034127
 20
4.6288577521
 10
-6.9491101496
 20
4.6177611885
 10
-6.9392564626
 20
4.6062161007
 10
-6.9296405463
 20
4.5942250936
 10
-6.9203216133
 20
4.5818617576
 10
-6.9113012665
 20
4.5691237288
 10
-6.9025776608
 20
4.5560134903
 10
-6.8942048429
 20
4.5426118999
 10
-6.8861848021
 20
4.5289170929
 10
-6.8785152815
 20
4.5149310657
 10
-6.8712439761
 20
4.500740459
 10
-6.8643732709
 20
4.4863441621
 10
-6.8579005079
 20
4.4717434201
 10
-6.8518658483
 20
4.4570283923
 10
-6.8462717891
 20
4.442198019
 10
-6.8411155746
 20
4.4272534875
 10
-6.8364295305
 20
4.4122883059
 10
-6.8322164004
 20
4.3973008472
 10
-6.8284732161
 20
4.3822928495
 10
-6.8252237922
 20
4.3673628417
 10
-6.8224760257
 20
4.3525436872
 10
-6.8202218585
 20
4.3378026027
 10
-6.8184612044
 20
4.323139631
  0
LWPOLYLINE
  5
3BB
100
AcDbEntity
  8
RACCORDO
100
AcDbPolyline
 62
253
  6
CONTINUOUS
 90
31
 70
0
 10
-6.9411120562
 20
4.8728186433
 10
-6.9251051751
 20
4.8630934597
 10
-6.9091651228
 20
4.8525229643
 10
-6.8933294179
 20
4.8411303767
 10
-6.8776327474
 20
4.8289410303
 10
-6.8621055762
 20
4.8159799566
 10
-6.8467770509
 20
4.8022704553
 10
-6.8316772807
 20
4.7878397193
 10
-6.8168383244
 20
4.7727193578
 10
-6.8022923524
 20
4.7569402147
 10
-6.7880696474
 20
4.7405353126
 10
-6.7741985285
 20
4.7235391936
 10
-6.7607080385
 20
4.7059854297
 10
-6.7476256968
 20
4.6879099899
 10
-6.7349777055
 20
4.6693512608
 10
-6.72279122
 20
4.6503465632
 10
-6.7110912684
 20
4.6309350191
 10
-6.6999009451
 20
4.6111575881
 10
-6.6892446416
 20
4.5910544693
 10
-6.6791443239
 20
4.5706673275
 10
-6.6696196349
 20
4.5500387394
 10
-6.6606915185
 20
4.529210461
 10
-6.6523781879
 20
4.5082251303
 10
-6.6446959682
 20
4.4871273369
 10
-6.6376625663
 20
4.4659620475
 10
-6.6312926543
 20
4.4447747189
 10
-6.6255979412
 20
4.4236077788
 10
-6.6205909026
 20
4.4025014565
 10
-6.6162825242
 20
4.3814977463
 10
-6.6126804396
 20
4.3606431699
 10
-6.6097910866
 20
4.3399865335
  0
LWPOLYLINE
  5
3BC
100
AcDbEntity
  8
RACCORDO
100
AcDbPolyline
 62
253
  6
CONTINUOUS
 90
3
 70
0
 10
-6.8260402188
 20
4.963233455
 10
-6.7942089955
 20
4.9430333693
 10
-6.7632595425
 20
4.9198947474
  0
LWPOLYLINE
  5
3BD
100
AcDbEntity
  8
RACCORDO
100
AcDbPolyline
 62
7
  6
CONTINUOUS
 90
9
 70
0
 10
3.000361026
 20
25.7958332894
 10
3.0002329904
 20
25.8097992477
 10
3.0000079429
 20
25.8238031571
 10
2.9996925329
 20
25.8378398372
 10
2.999280111
 20
25.8519144685
 10
2.9987507287
 20
25.8660425923
 10
2.9980977363
 20
25.8802293891
 10
2.9973277833
 20
25.8944696785
 10
2.9964408699
 20
25.9087634604
  0
LWPOLYLINE
  5
3BE
100
AcDbEntity
  8
0
100
AcDbPolyline
 62
7
  6
CONTINUOUS
 90
40
 70
0
 10
2.8236153544
 20
11.7917482921
 10
2.8235304522
 20
11.8084595109
 10
2.8228233668
 20
11.8254405926
 10
2.821496721
 20
11.8426649813
 10
2.819546775
 20
11.8600979527
 10
2.8169853889
 20
11.877719734
 10
2.8138390821
 20
11.895525915
 10
2.8101172944
 20
11.9134925767
 10
2.8058220987
 20
11.9315876131
 10
2.8009689675
 20
11.9497942423
 10
2.7955639159
 20
11.9680951501
 10
2.7896162783
 20
11.9864499636
 10
2.7831494331
 20
12.0048068346
 10
2.7761827689
 20
12.0231204038
 10
2.7687227867
 20
12.0413773936
 10
2.7607749272
 20
12.0595738835
 10
2.7523440966
 20
12.0776976117
 10
2.7434505163
 20
12.095702068
 10
2.7341238582
 20
12.1135324076
 10
2.7243910497
 20
12.1311425929
 10
2.7142598446
 20
12.1485229241
 10
2.7037321541
 20
12.1656732621
 10
2.6928137889
 20
12.1825820318
 10
2.6815322492
 20
12.1992042983
 10
2.6699225448
 20
12.2154905541
 10
2.6580152183
 20
12.2314009785
 10
2.6458201661
 20
12.2469253244
 10
2.6333423587
 20
12.2620591962
 10
2.6205895112
 20
12.2767910673
 10
2.6075939248
 20
12.2910817143
 10
2.5943980611
 20
12.304886679
 10
2.5810336026
 20
12.3181752591
 10
2.5675133938
 20
12.3309375005
 10
2.5538525731
 20
12.3431625319
 10
2.5400651673
 20
12.3548374269
 10
2.5261816861
 20
12.3659366102
 10
2.5122421754
 20
12.3764325213
 10
2.4982751595
 20
12.3863074559
 10
2.4842973406
 20
12.3955514748
 10
2.4703310885
 20
12.4041521889
  0
LINE
  5
3BF
100
AcDbEntity
  8
0
100
AcDbLine
 62
253
  6
CONTINUOUS
 10
2.644775745
 20
14.4239335303
 11
2.644775745
 21
14.0962882298
  0
LINE
  5
3C0
100
AcDbEntity
  8
0
100
AcDbLine
 62
253
  6
CONTINUOUS
 10
2.644775745
 20
-24.8400975572
 11
2.644775745
 21
-25.1677428577
  0
LINE
  5
3C1
100
AcDbEntity
  8
DRAFT
100
AcDbLine
 62
7
  6
CONTINUOUS
 10
2.6902882878
 20
-19.6561189778
 11
2.6902882878
 21
-13.1966097652
  0
LINE
  5
3C2
100
AcDbEntity
  8
0
100
AcDbLine
 62
7
  6
CONTINUOUS
 10
2.716973602
 20
14.5254066433
 11
2.716973602
 21
14.1977613428
  0
LINE
  5
3C3
100
AcDbEntity
  8
0
100
AcDbLine
 62
7
  6
CONTINUOUS
 10
2.7169687907
 20
-24.7370735032
 11
2.716973602
 21
-25.0662697447
  0
LINE
  5
3C4
100
AcDbEntity
  8
DRAFT
100
AcDbLine
 62
7
  6
CONTINUOUS
 10
2.8236153544
 20
-23.9694767977
 11
2.8236153544
 21
-17.0255338674
  0
LINE
  5
3C5
100
AcDbEntity
  8
DRAFT
100
AcDbLine
 62
7
  6
CONTINUOUS
 10
2.8236153544
 20
-13.1143400596
 11
2.8236153544
 21
0.9368122221
  0
LINE
  5
3C6
100
AcDbEntity
  8
DRAFT
100
AcDbLine
 62
7
  6
CONTINUOUS
 10
2.8236153544
 20
4.8480060298
 11
2.8236153544
 21
11.7919489601
  0
LINE
  5
3C7
100
AcDbEntity
  8
RACCORDO
100
AcDbLine
 62
7
  6
CONTINUOUS
 10
3.000361026
 20
25.7958332894
 11
3.0003920497
 21
25.704676691
  0
LINE
  5
3C8
100
AcDbEntity
  8
DRAFT
100
AcDbLine
 62
7
  6
CONTINUOUS
 10
3.151069647
 20
5.0603928308
 11
3.151069647
 21
2.2952638027
  0
LINE
  5
3C9
100
AcDbEntity
  8
DRAFT
100
AcDbLine
 62
7
  6
CONTINUOUS
 10
3.151069647
 20
-12.9019532586
 11
3.151069647
 21
-15.6670822868
  0
LINE
  5
3CA
100
AcDbEntity
  8
0
100
AcDbLine
 62
253
  6
CONTINUOUS
 10
3.3933105866
 20
19.3045562485
 11
3.3933105866
 21
18.7756045063
  0
LINE
  5
3CB
100
AcDbEntity
  8
0
100
AcDbLine
 62
253
  6
CONTINUOUS
 10
3.3933105866
 20
18.4398094972
 11
3.3933105866
 21
17.999988185
  0
LINE
  5
3CC
100
AcDbEntity
  8
0
100
AcDbLine
 62
7
  6
CONTINUOUS
 10
3.5241454377
 20
19.3592024206
 11
3.5241454377
 21
18.1823656334
  0
LINE
  5
3CD
100
AcDbEntity
  8
0
100
AcDbLine
 62
7
  6
CONTINUOUS
 10
3.5245513082
 20
-23.5528891608
 11
3.5245513082
 21
-20.7887517159
  0
LINE
  5
3CE
100
AcDbEntity
  8
0
100
AcDbLine
 62
7
  6
CONTINUOUS
 10
3.5245513082
 20
9.4348989818
 11
3.5245513082
 21
12.1990364268
  0
LINE
  5
3CF
100
AcDbEntity
  8
RACCORDO
100
AcDbLine
 62
7
  6
CONTINUOUS
 10
3.5307221356
 20
5.3066353732
 11
3.5307221356
 21
-20.1089063391
  0
LINE
  5
3D0
100
AcDbEntity
  8
DRAFT
100
AcDbLine
 62
7
  6
CONTINUOUS
 10
4.225487262
 20
9.8538617617
 11
4.225487262
 21
5.7572599214
  0
LINE
  5
3D1
100
AcDbEntity
  8
DRAFT
100
AcDbLine
 62
7
  6
CONTINUOUS
 10
4.225487262
 20
1.6749085374
 11
4.225487262
 21
-12.2050861681
  0
LINE
  5
3D2
100
AcDbEntity
  8
DRAFT
100
AcDbLine
 62
7
  6
CONTINUOUS
 10
4.225487262
 20
-16.287437552
 11
4.225487262
 21
-20.3840393923
  0
LWPOLYLINE
  5
3D3
100
AcDbEntity
  8
0
100
AcDbPolyline
 62
7
  6
CONTINUOUS
 90
21
 70
0
 10
2.8236153544
 20
-23.9692761296
 10
2.8235304522
 20
-23.985434037
 10
2.8228233668
 20
-24.0012607744
 10
2.821496721
 20
-24.0167301064
 10
2.819546775
 20
-24.0318176914
 10
2.8169853889
 20
-24.0464974897
 10
2.8138390821
 20
-24.0607410312
 10
2.8101172944
 20
-24.0745228425
 10
2.8058220987
 20
-24.087820601
 10
2.8009689675
 20
-24.1006104665
 10
2.7955639159
 20
-24.1128758999
 10
2.7896162783
 20
-24.1245886414
 10
2.7831494331
 20
-24.1357104346
 10
2.7761827689
 20
-24.1462143762
 10
2.7687227867
 20
-24.1560948278
 10
2.7607749272
 20
-24.1653469732
 10
2.7523440966
 20
-24.1739616189
 10
2.7434505163
 20
-24.1819143039
 10
2.7341238582
 20
-24.1891793982
 10
2.7243910497
 20
-24.195740075
 10
2.7211591994
 20
-24.1977100742
  0
LWPOLYLINE
  5
3D4
100
AcDbEntity
  8
0
100
AcDbPolyline
 62
253
  6
CONTINUOUS
 90
18
 70
0
 10
2.644775745
 20
-25.1677428577
 10
2.6446229631
 20
-25.1773127436
 10
2.6440676537
 20
-25.1866310348
 10
2.6431110736
 20
-25.1956766163
 10
2.6417553878
 20
-25.2044289961
 10
2.640003667
 20
-25.2128683359
 10
2.6378598829
 20
-25.2209754983
 10
2.6353288948
 20
-25.2287321105
 10
2.6324164371
 20
-25.2361206012
 10
2.6291291107
 20
-25.2431242275
 10
2.6254743645
 20
-25.2497271221
 10
2.6214604809
 20
-25.2559143235
 10
2.617096559
 20
-25.2616718091
 10
2.6123924892
 20
-25.2669865345
 10
2.6073589309
 20
-25.2718464604
 10
2.6020072926
 20
-25.2762405757
 10
2.5963496989
 20
-25.2801589286
 10
2.5941548143
 20
-25.281502036
  0
LWPOLYLINE
  5
3D5
100
AcDbEntity
  8
0
100
AcDbPolyline
 62
253
  6
CONTINUOUS
 90
18
 70
0
 10
2.716973602
 20
14.5254066433
 10
2.7169200404
 20
14.5224188155
 10
2.716393613
 20
14.5155798871
 10
2.7153062007
 20
14.5087630512
 10
2.713660246
 20
14.5019836368
 10
2.7114594488
 20
14.4952568945
 10
2.7087087559
 20
14.4885979531
 10
2.7054143521
 20
14.482021791
 10
2.7015836476
 20
14.4755432047
 10
2.697225258
 20
14.4691767669
 10
2.6923489844
 20
14.4629367961
 10
2.6869657949
 20
14.4568373295
 10
2.6810877938
 20
14.4508920831
 10
2.6747282036
 20
14.4451144324
 10
2.6679013408
 20
14.4395173828
 10
2.6606225667
 20
14.4341135257
 10
2.6529082506
 20
14.428915011
 10
2.644775745
 20
14.4239335303
  0
LWPOLYLINE
  5
3D6
100
AcDbEntity
  8
0
100
AcDbPolyline
 62
7
  6
CONTINUOUS
 90
15
 70
0
 10
2.7169736018
 20
14.1977564634
 10
2.7168144577
 20
14.1888424449
 10
2.716040869
 20
14.1761859758
 10
2.7146243934
 20
14.1635694503
 10
2.7125665927
 20
14.1510271707
 10
2.7098710911
 20
14.1385937019
 10
2.7065407025
 20
14.1262938373
 10
2.7025808252
 20
14.1141596902
 10
2.6980000746
 20
14.1022272185
 10
2.6928071586
 20
14.0905269982
 10
2.6870138965
 20
14.0790926074
 10
2.6806336676
 20
14.0679561954
 10
2.6736794031
 20
14.0571458679
 10
2.666167056
 20
14.0466919288
 10
2.6624752647
 20
14.0419438218
  0
LWPOLYLINE
  5
3D7
100
AcDbEntity
  8
0
100
AcDbPolyline
 62
253
  6
CONTINUOUS
 90
18
 70
0
 10
2.7169736014
 20
-24.7386342577
 10
2.7169191791
 20
-24.7416361982
 10
2.716390826
 20
-24.7484747545
 10
2.715301554
 20
-24.7552911335
 10
2.713653816
 20
-24.7620700158
 10
2.7114513158
 20
-24.7687961711
 10
2.7086989842
 20
-24.7754545221
 10
2.7054030252
 20
-24.7820300444
 10
2.7015709338
 20
-24.7885078206
 10
2.6972114217
 20
-24.7948732051
 10
2.692334276
 20
-24.8011119786
 10
2.6869503808
 20
-24.8072102422
 10
2.6810713457
 20
-24.8131547584
 10
2.6747108089
 20
-24.8189316579
 10
2.6678846492
 20
-24.8245267209
 10
2.6606090767
 20
-24.8299271005
 10
2.6529002432
 20
-24.8351212202
 10
2.644775745
 20
-24.8400975572
  0
LWPOLYLINE
  5
3D8
100
AcDbEntity
  8
0
100
AcDbPolyline
 62
7
  6
CONTINUOUS
 90
18
 70
0
 10
2.1165085732
 20
-25.479896992
 10
2.1163081943
 20
-25.489493629
 10
2.1157080254
 20
-25.4988372059
 10
2.1147093217
 20
-25.5079066167
 10
2.1133141634
 20
-25.5166814232
 10
2.1115257025
 20
-25.5251417502
 10
2.1093481566
 20
-25.5332683311
 10
2.106786398
 20
-25.5410427906
 10
2.1038461371
 20
-25.5484475697
 10
2.1005341628
 20
-25.5554658148
 10
2.0968579389
 20
-25.5620816486
 10
2.09282572
 20
-25.5682801254
 10
2.0884467282
 20
-25.5740471486
 10
2.083730867
 20
-25.5793696626
 10
2.0786887673
 20
-25.5842356395
 10
2.073331897
 20
-25.5886340274
 10
2.0676723976
 20
-25.5925548584
 10
2.065464177
 20
-25.5939063969
  0
LWPOLYLINE
  5
3D9
100
AcDbEntity
  8
0
100
AcDbPolyline
 62
7
  6
CONTINUOUS
 90
21
 70
0
 10
2.716973602
 20
-25.0662697178
 10
2.7167009586
 20
-25.0779422491
 10
2.7157727102
 20
-25.0907442974
 10
2.7141866758
 20
-25.1034946841
 10
2.7119432353
 20
-25.1161684294
 10
2.7090445196
 20
-25.1287331005
 10
2.7054951767
 20
-25.1411527091
 10
2.7013000992
 20
-25.1533966216
 10
2.6964663446
 20
-25.165431638
 10
2.6910034948
 20
-25.1772229201
 10
2.6849223156
 20
-25.1887375291
 10
2.6782356659
 20
-25.1999422563
 10
2.6709581795
 20
-25.2108044884
 10
2.6631057954
 20
-25.2212928484
 10
2.6546952922
 20
-25.2313774883
 10
2.6457477497
 20
-25.2410261584
 10
2.6362886979
 20
-25.2502055984
 10
2.6263423174
 20
-25.2588875335
 10
2.6159337704
 20
-25.2670454111
 10
2.605093438
 20
-25.2746513919
 10
2.5941548143
 20
-25.281502036
  0
LWPOLYLINE
  5
3DA
100
AcDbEntity
  8
RACCORDO
100
AcDbPolyline
 62
7
  6
CONTINUOUS
 90
3
 70
0
 10
-15.1189677959
 20
-10.9576012117
 10
-15.1177125811
 20
-10.956944599
 10
-15.1052107401
 20
-10.9522236321
  0
LWPOLYLINE
  5
3DB
100
AcDbEntity
  8
RACCORDO
100
AcDbPolyline
 62
7
  6
CONTINUOUS
 90
16
 70
0
 10
16.8399812632
 20
7.6792467236
 10
16.8325387267
 20
7.6774633997
 10
16.8252235089
 20
7.6760222944
 10
16.81803561
 20
7.6749234076
 10
16.8109669326
 20
7.6741690009
 10
16.8040255741
 20
7.6737568128
 10
16.7972358255
 20
7.6736800589
 10
16.7906014189
 20
7.6739444985
 10
16.7841186223
 20
7.6745443723
 10
16.7778005311
 20
7.675455618
 10
16.7716518809
 20
7.6766827282
 10
16.7656679361
 20
7.6782212102
 10
16.7598475852
 20
7.6800335242
 10
16.7541904577
 20
7.6821071568
 10
16.7486969241
 20
7.6844546215
 10
16.7433669843
 20
7.6870759182
  0
LINE
  5
3DC
100
AcDbEntity
  8
DRAFT
100
AcDbLine
 62
7
  6
CONTINUOUS
 10
3.151069647
 20
2.2952638027
 11
4.225487262
 21
1.6749085374
  0
LWPOLYLINE
  5
3DD
100
AcDbEntity
  8
0
100
AcDbPolyline
 62
253
  6
CONTINUOUS
 90
14
 70
0
 10
-9.6588822477
 20
21.2002661537
 10
-9.6549128316
 20
21.194427944
 10
-9.651352199
 20
21.1888302871
 10
-9.6482086518
 20
21.183485966
 10
-9.6454893742
 20
21.1784068393
 10
-9.643201037
 20
21.1736049557
 10
-9.6413494586
 20
21.1690923157
 10
-9.6399389149
 20
21.1648794345
 10
-9.6389724219
 20
21.1609754434
 10
-9.6384521548
 20
21.1573890847
 10
-9.6383793168
 20
21.154128431
 10
-9.6387541093
 20
21.1512009122
 10
-9.639575692
 20
21.1486132054
 10
-9.6408381387
 20
21.1463783559
  0
LWPOLYLINE
  5
3DE
100
AcDbEntity
  8
0
100
AcDbPolyline
 62
253
  6
CONTINUOUS
 90
17
 70
0
 10
2.7168967431
 20
-25.0695602327
 10
2.716393613
 20
-25.0760965009
 10
2.7153062007
 20
-25.0829133369
 10
2.713660246
 20
-25.0896927512
 10
2.7114594488
 20
-25.0964194935
 10
2.7087087559
 20
-25.103078435
 10
2.7054143521
 20
-25.109654597
 10
2.7015836476
 20
-25.1161331833
 10
2.697225258
 20
-25.1224996212
 10
2.6923489844
 20
-25.1287395919
 10
2.6869657949
 20
-25.1348390586
 10
2.6810877938
 20
-25.140784305
 10
2.6747282036
 20
-25.1465619556
 10
2.6679013408
 20
-25.1521590052
 10
2.6606225667
 20
-25.1575628624
 10
2.6529082506
 20
-25.162761377
 10
2.644775745
 20
-25.1677428577
  0
LINE
  5
3DF
100
AcDbEntity
  8
RACCORDO
100
AcDbLine
 62
253
  6
CONTINUOUS
 10
17.0301316767
 20
5.9247982418
 11
17.0265955827
 21
5.9217614774
  0
LINE
  5
3E0
100
AcDbEntity
  8
DRAFT
100
AcDbLine
 62
7
  6
CONTINUOUS
 10
17.0257962048
 20
5.9188839134
 11
17.9902226246
 21
6.6229070568
  0
LINE
  5
3E1
100
AcDbEntity
  8
RACCORDO
100
AcDbLine
 62
253
  6
CONTINUOUS
 10
1.5685277417
 20
-6.6705628688
 11
-3.1140165016
 21
-9.3741962642
  0
LINE
  5
3E2
100
AcDbEntity
  8
RACCORDO
100
AcDbLine
 62
253
  6
CONTINUOUS
 10
-2.9372667302
 20
-8.9233561961
 11
1.7452775131
 21
-6.4052354351
  0
LINE
  5
3E3
100
AcDbEntity
  8
RACCORDO
100
AcDbLine
 62
7
  6
CONTINUOUS
 10
-2.9925248269
 20
-9.0397032697
 11
1.6913182979
 21
-6.5208840123
  0
LINE
  5
3E4
100
AcDbEntity
  8
RACCORDO
100
AcDbLine
 62
253
  6
CONTINUOUS
 10
-17.755435604
 20
17.0321939177
 11
-2.8635296789
 21
8.433794076
  0
LINE
  5
3E5
100
AcDbEntity
  8
DRAFT
100
AcDbLine
 62
7
  6
CONTINUOUS
 10
1.5355991518
 20
23.9413717582
 11
1.7331013159
 21
22.771295603
  0
LINE
  5
3E6
100
AcDbEntity
  8
DRAFT
100
AcDbLine
 62
7
  6
CONTINUOUS
 10
8.5248273471
 20
16.8520343034
 11
8.5248273471
 21
16.5737347039
  0
LINE
  5
3E7
100
AcDbEntity
  8
0
100
AcDbLine
 62
253
  6
CONTINUOUS
 10
8.7811990809
 20
-17.6474943782
 11
8.7811990809
 21
-17.5894260394
  0
LINE
  5
3E8
100
AcDbEntity
  8
0
100
AcDbLine
 62
253
  6
CONTINUOUS
 10
8.7811990809
 20
17.0079487811
 11
8.7811990809
 21
17.3851802267
  0
LINE
  5
3E9
100
AcDbEntity
  8
0
100
AcDbLine
 62
7
  6
CONTINUOUS
 10
8.9215291808
 20
-17.5629833035
 11
8.9215291808
 21
-17.5043300219
  0
LINE
  5
3EA
100
AcDbEntity
  8
0
100
AcDbLine
 62
7
  6
CONTINUOUS
 10
8.9215291808
 20
17.210949272
 11
8.9215291808
 21
17.7017561891
  0
LWPOLYLINE
  5
3EB
100
AcDbEntity
  8
RACCORDO
100
AcDbPolyline
 62
253
  6
CONTINUOUS
 90
63
 70
0
 10
16.7433669843
 20
6.1410932407
 10
16.7483167948
 20
6.1461501352
 10
16.7532629772
 20
6.1510384978
 10
16.7582045082
 20
6.1557585901
 10
16.7631354749
 20
6.1603129574
 10
16.7680597813
 20
6.1646995225
 10
16.7729907543
 20
6.168911792
 10
16.7779291703
 20
6.1729537442
 10
16.7828713063
 20
6.1768222687
 10
16.7878231498
 20
6.1805005159
 10
16.7927848494
 20
6.1839907165
 10
16.7977527462
 20
6.1872916673
 10
16.8027268197
 20
6.1903814803
 10
16.8077069106
 20
6.1932607103
 10
16.8126893684
 20
6.195929834
 10
16.8176689377
 20
6.1983668116
 10
16.8226420529
 20
6.2005700344
 10
16.8276085532
 20
6.2025419638
 10
16.8325682878
 20
6.2042666295
 10
16.8375106693
 20
6.205743739
 10
16.8424424156
 20
6.2069743597
 10
16.8473882366
 20
6.2079449739
 10
16.8523393464
 20
6.208662262
 10
16.8572983338
 20
6.2091210792
 10
16.8623041558
 20
6.2092912197
 10
16.8673567719
 20
6.2091807152
 10
16.8724456046
 20
6.2087844378
 10
16.8775906583
 20
6.2080535204
 10
16.8827913548
 20
6.2069900359
 10
16.8880340152
 20
6.2055956072
 10
16.8933171321
 20
6.203821203
 10
16.8986352413
 20
6.2016646368
 10
16.9039774959
 20
6.199131807
 10
16.9093337024
 20
6.1961858315
 10
16.9146928021
 20
6.192826044
 10
16.9200483512
 20
6.1890564183
 10
16.925396395
 20
6.1848470267
 10
16.930724517
 20
6.1801993886
 10
16.9360252033
 20
6.1751151071
 10
16.9412999764
 20
6.1695646499
 10
16.9465394323
 20
6.1635440234
 10
16.9517287
 20
6.1570604018
 10
16.956859103
 20
6.1501012108
 10
16.9619174825
 20
6.1426632164
 10
16.9668898019
 20
6.1347522077
 10
16.9717647183
 20
6.1263690925
 10
16.9765204415
 20
6.1175258248
 10
16.9811491894
 20
6.108211997
 10
16.9856562585
 20
6.0983953716
 10
16.9900167881
 20
6.0880904037
 10
16.9942163564
 20
6.0772840187
 10
16.9982649812
 20
6.0659038627
 10
17.0021370459
 20
6.0539402088
 10
17.0057998168
 20
6.0414041171
 10
17.0092393141
 20
6.0282553205
 10
17.0124210397
 20
6.0144756161
 10
17.0153037052
 20
6.000082278
 10
17.0178531148
 20
5.9850880363
 10
17.0200175042
 20
5.9695453244
 10
17.0217634673
 20
5.9533959316
 10
17.0230584434
 20
5.9364863127
 10
17.02383395
 20
5.9187336908
 10
17.0240271812
 20
5.9044242929
  0
LWPOLYLINE
  5
3EC
100
AcDbEntity
  8
RACCORDO
100
AcDbPolyline
 62
7
  6
CONTINUOUS
 90
121
 70
0
 10
16.8399812464
 20
6.2644540824
 10
16.889510862
 20
6.3109779825
 10
16.937404739
 20
6.3563098494
 10
16.9836628774
 20
6.4004496831
 10
17.028237158
 20
6.4433631602
 10
17.0711757001
 20
6.4850846041
 10
17.112622861
 20
6.5257169853
 10
17.1525860804
 20
6.5652662561
 10
17.1910579186
 20
6.6037264643
 10
17.2281604138
 20
6.6411827227
 10
17.2638941814
 20
6.6776342384
 10
17.298258606
 20
6.7130818044
 10
17.3313738794
 20
6.7476129126
 10
17.3632463884
 20
6.7812327835
 10
17.3938697462
 20
6.8139361966
 10
17.4233449838
 20
6.8457949828
 10
17.4516825394
 20
6.8768199143
 10
17.4788719748
 20
6.9070002189
 10
17.5049830062
 20
6.9363754113
 10
17.5300129438
 20
6.9649423186
 10
17.5539644775
 20
6.9927041138
 10
17.5769153922
 20
7.0197098308
 10
17.5988649216
 20
7.0459578378
 10
17.6198138321
 20
7.0714497665
 10
17.6398422086
 20
7.096239546
 10
17.6589535248
 20
7.120330763
 10
17.677144307
 20
7.1437198309
 10
17.6944842183
 20
7.1664499184
 10
17.7109749822
 20
7.1885229986
 10
17.7266148751
 20
7.2099370984
 10
17.7414683901
 20
7.2307294677
 10
17.7555370761
 20
7.250902468
 10
17.7688193841
 20
7.2704537378
 10
17.7813751605
 20
7.2894134427
 10
17.7932051265
 20
7.3077835469
 10
17.8043085608
 20
7.3255620862
 10
17.8147431455
 20
7.3427733336
 10
17.8245089539
 20
7.3594191613
 10
17.8336059126
 20
7.375497697
 10
17.8420914835
 20
7.3910275969
 10
17.8499645921
 20
7.4060095092
 10
17.8572263129
 20
7.4204427856
 10
17.8639373315
 20
7.4343441384
 10
17.8700938305
 20
7.4477067359
 10
17.8756996274
 20
7.4605374097
 10
17.8808268592
 20
7.4728733667
 10
17.885472745
 20
7.4847019029
 10
17.8896400658
 20
7.4960357223
 10
17.8934093021
 20
7.5069501438
 10
17.8967843099
 20
7.517440394
 10
17.8997612331
 20
7.5275112462
 10
17.9024089837
 20
7.5372523399
 10
17.9047351515
 20
7.5466685767
 10
17.9067321467
 20
7.555755055
 10
17.9084461124
 20
7.5645867091
 10
17.9098837962
 20
7.5731690456
 10
17.9110384504
 20
7.5814965579
 10
17.9119359751
 20
7.5896276609
 10
17.9125821157
 20
7.5975662258
 10
17.9129711267
 20
7.6053083813
 10
17.9131116718
 20
7.6129009285
 10
17.9130092435
 20
7.6203471711
 10
17.9126583492
 20
7.6276438054
 10
17.9120511751
 20
7.6348277206
 10
17.9111934472
 20
7.6419018969
 10
17.9100794393
 20
7.6488633541
 10
17.9086841597
 20
7.6557400415
 10
17.9070142212
 20
7.6625346795
 10
17.9050630109
 20
7.6692445476
 10
17.9027856983
 20
7.6758894337
 10
17.9001902431
 20
7.6824727332
 10
17.8972686855
 20
7.6889910506
 10
17.8939523162
 20
7.6954539877
 10
17.8902459548
 20
7.7018705688
 10
17.8861447817
 20
7.7082317694
 10
17.8815656287
 20
7.7145201184
 10
17.8765050128
 20
7.7207466775
 10
17.8709664169
 20
7.7269003849
 10
17.8648771215
 20
7.7329305843
 10
17.8582327445
 20
7.7388396728
 10
17.851037668
 20
7.7446252533
 10
17.8432323184
 20
7.7502294782
 10
17.8348162443
 20
7.7556497539
 10
17.8257898972
 20
7.7608886741
 10
17.8160950577
 20
7.7658961721
 10
17.8057314967
 20
7.7706706006
 10
17.7946994434
 20
7.7752136069
 10
17.7829413661
 20
7.7794800653
 10
17.770458042
 20
7.7834687904
 10
17.757248694
 20
7.7871809677
 10
17.7432534584
 20
7.7905750281
 10
17.7284737724
 20
7.7936504437
 10
17.7129081988
 20
7.7964077425
 10
17.6964925629
 20
7.7988069394
 10
17.6792288399
 20
7.8008480832
 10
17.6611150545
 20
7.8025311252
 10
17.6420811064
 20
7.8038159337
 10
17.6221293636
 20
7.8047030362
 10
17.6012574582
 20
7.8051919053
 10
17.5793881863
 20
7.805240827
 10
17.5565242683
 20
7.8048507115
 10
17.5326629838
 20
7.8040206488
 10
17.5077189678
 20
7.8027061945
 10
17.4816952631
 20
7.8009085752
 10
17.4545888268
 20
7.7986265643
 10
17.4263051653
 20
7.7958120381
 10
17.3968475489
 20
7.7924664791
 10
17.3662127073
 20
7.7885884048
 10
17.3342963358
 20
7.7841252433
 10
17.3011019787
 20
7.7790786992
 10
17.2666260916
 20
7.7734470678
 10
17.2307537369
 20
7.7671726639
 10
17.1934887955
 20
7.760257408
 10
17.1548273863
 20
7.7526993796
 10
17.1146429292
 20
7.7444351316
 10
17.0729420361
 20
7.7354674194
 10
17.0297180949
 20
7.7257934877
 10
16.9848246888
 20
7.7153416235
 10
16.9382130119
 20
7.7040879226
 10
16.8899318701
 20
7.6920562893
 10
16.8399812632
 20
7.6792467236
  0
LINE
  5
3ED
100
AcDbEntity
  8
RACCORDO
100
AcDbLine
 62
253
  6
CONTINUOUS
 10
17.0425407206
 20
5.936397127
 11
17.0301316767
 21
5.9247982418
  0
LINE
  5
3EE
100
AcDbEntity
  8
RACCORDO
100
AcDbLine
 62
253
  6
CONTINUOUS
 10
1.7452775131
 20
-6.9767024527
 11
-2.9372667302
 21
-9.6803358481
  0
LWPOLYLINE
  5
3EF
100
AcDbEntity
  8
RACCORDO
100
AcDbPolyline
 62
253
  6
CONTINUOUS
 90
19
 70
0
 10
-3.1140165016
 20
-9.3741962642
 10
-3.1302326807
 20
-9.3827854111
 10
-3.147397149
 20
-9.3904542975
 10
-3.1655099065
 20
-9.3972029234
 10
-3.1847286294
 20
-9.4030752971
 10
-3.2048956415
 20
-9.4080274102
 10
-3.2255379143
 20
-9.4119272375
 10
-3.2466600828
 20
-9.4147456489
 10
-3.268257512
 20
-9.4165117745
 10
-3.2898432679
 20
-9.4171809785
 10
-3.3114207047
 20
-9.416725447
 10
-3.3329864683
 20
-9.415172994
 10
-3.3540435625
 20
-9.4125624258
 10
-3.3745839178
 20
-9.4088632209
 10
-3.3946156038
 20
-9.4041059009
 10
-3.4136658331
 20
-9.3984208372
 10
-3.43157701
 20
-9.3918514869
 10
-3.4485067303
 20
-9.3843543928
 10
-3.464454994
 20
-9.375929555
  0
LWPOLYLINE
  5
3F0
100
AcDbEntity
  8
RACCORDO
100
AcDbPolyline
 62
253
  6
CONTINUOUS
 90
16
 70
0
 10
-2.9372843341
 20
-9.6803253231
 10
-2.9763497338
 20
-9.7003486821
 10
-3.018713464
 20
-9.7179262603
 10
-3.0639089064
 20
-9.7328603421
 10
-3.1114494302
 20
-9.745004391
 10
-3.1608459658
 20
-9.7542225676
 10
-3.2115751093
 20
-9.760428939
 10
-3.2630839222
 20
-9.7635644247
 10
-3.3148207696
 20
-9.7635732464
 10
-3.3662363311
 20
-9.7604635934
 10
-3.4167791174
 20
-9.7542835233
 10
-3.4658976501
 20
-9.7450832785
 10
-3.5130757619
 20
-9.7329623787
 10
-3.5578263036
 20
-9.7180543436
 10
-3.5996641436
 20
-9.700494221
 10
-3.6381286359
 20
-9.6804840906
  0
LWPOLYLINE
  5
3F1
100
AcDbEntity
  8
RACCORDO
100
AcDbPolyline
 62
253
  6
CONTINUOUS
 90
3
 70
0
 10
-15.1241030386
 20
9.4150826542
 10
-15.1069588022
 20
9.4122241995
 10
-15.0944682334
 20
9.4116268217
  0
LINE
  5
3F2
100
AcDbEntity
  8
RACCORDO
100
AcDbLine
 62
253
  6
CONTINUOUS
 10
-17.0989956533
 20
18.1116859966
 11
-2.1955306439
 21
9.5066120844
  0
LINE
  5
3F3
100
AcDbEntity
  8
0
100
AcDbLine
 62
7
  6
CONTINUOUS
 10
2.1666621751
 20
13.4198514124
 11
2.1914014184
 21
13.3770017861
  0
LINE
  5
3F4
100
AcDbEntity
  8
0
100
AcDbLine
 62
7
  6
CONTINUOUS
 10
3.5245513082
 20
11.0679184452
 11
4.225487262
 21
9.8538617617
  0
LINE
  5
3F5
100
AcDbEntity
  8
0
100
AcDbLine
 62
7
  6
CONTINUOUS
 10
-0.3230107346
 20
24.9070754103
 11
-0.356502998
 21
24.9933956291
  0
LINE
  5
3F6
100
AcDbEntity
  8
DRAFT
100
AcDbLine
 62
7
  6
CONTINUOUS
 10
10.1421705397
 20
17.5090846623
 11
10.1421705397
 21
17.755435009
  0
LINE
  5
3F7
100
AcDbEntity
  8
0
100
AcDbLine
 62
253
  6
CONTINUOUS
 10
10.1421705397
 20
17.755435009
 11
10.1421705397
 21
18.1515572595
  0
LWPOLYLINE
  5
3F8
100
AcDbEntity
  8
0
100
AcDbPolyline
 62
7
  6
CONTINUOUS
 90
37
 70
0
 10
9.4978054583
 20
17.2533531542
 10
9.4983289987
 20
17.2810635649
 10
9.4998993708
 20
17.3087607869
 10
9.5025158272
 20
17.3364316379
 10
9.5061771225
 20
17.364062948
 10
9.5108815142
 20
17.3916415663
 10
9.5166267633
 20
17.4191543667
 10
9.5234101353
 20
17.4465882548
 10
9.5312284017
 20
17.4739301734
 10
9.5400778414
 20
17.5011671093
 10
9.5499542426
 20
17.5282860992
 10
9.5608529047
 20
17.5552742359
 10
9.5727686405
 20
17.5821186745
 10
9.5856957786
 20
17.6088066386
 10
9.5996281666
 20
17.635325426
 10
9.6145591734
 20
17.6616624153
 10
9.6304816926
 20
17.6878050715
 10
9.6473881459
 20
17.7137409522
 10
9.6652704868
 20
17.7394577131
 10
9.6841202042
 20
17.7649431147
 10
9.7039283268
 20
17.7901850271
 10
9.7246854269
 20
17.8151714366
 10
9.7463816253
 20
17.8398904511
 10
9.7690065957
 20
17.8643303055
 10
9.79254957
 20
17.888479368
 10
9.8169993428
 20
17.9123261447
 10
9.8423442775
 20
17.935859286
 10
9.8685723112
 20
17.9590675914
 10
9.8956709609
 20
17.9819400148
 10
9.9236273289
 20
18.0044656705
 10
9.9524281096
 20
18.0266338372
 10
9.9820595955
 20
18.0484339642
 10
10.0125076834
 20
18.0698556758
 10
10.0437578818
 20
18.0908887764
 10
10.0757953173
 20
18.1115232554
 10
10.1086047418
 20
18.131749292
 10
10.1421705397
 20
18.1515572595
  0
LWPOLYLINE
  5
3F9
100
AcDbEntity
  8
0
100
AcDbPolyline
 62
253
  6
CONTINUOUS
 90
34
 70
0
 10
2.644775745
 20
-24.8400975572
 10
2.6487484587
 20
-24.8291496272
 10
2.6523109173
 20
-24.8179973871
 10
2.6554550806
 20
-24.806666007
 10
2.6581738523
 20
-24.7951810611
 10
2.6604610963
 20
-24.7835684702
 10
2.6623116505
 20
-24.7718544434
 10
2.6637213382
 20
-24.7600654184
 10
2.6646869779
 20
-24.7482280024
 10
2.6652063902
 20
-24.7363689117
 10
2.6652784029
 20
-24.7245149116
 10
2.6649028532
 20
-24.7126927559
 10
2.664080589
 20
-24.7009291265
 10
2.6628134659
 20
-24.6892505732
 10
2.6611043439
 20
-24.6776834538
 10
2.6589570802
 20
-24.6662538747
 10
2.6563765211
 20
-24.6549876316
 10
2.6533684909
 20
-24.6439101519
 10
2.6499397783
 20
-24.6330464367
 10
2.646098122
 20
-24.6224210049
 10
2.6418521921
 20
-24.6120578373
 10
2.6372115716
 20
-24.6019803231
 10
2.6321867341
 20
-24.5922112067
 10
2.6267890203
 20
-24.5827725362
 10
2.6210306126
 20
-24.5736856143
 10
2.6149245072
 20
-24.5649709497
 10
2.6084844854
 20
-24.5566482106
 10
2.6017250819
 20
-24.5487361812
 10
2.5946615523
 20
-24.5412527184
 10
2.5873098385
 20
-24.534214712
 10
2.5796865329
 20
-24.5276380462
 10
2.5718088409
 20
-24.5215375642
 10
2.563694542
 20
-24.5159270345
 10
2.5553619496
 20
-24.5108191197
  0
LWPOLYLINE
  5
3FA
100
AcDbEntity
  8
RACCORDO
100
AcDbPolyline
 62
253
  6
CONTINUOUS
 90
25
 70
0
 10
-7.097102421
 20
-15.6292975318
 10
-7.1041270587
 20
-15.6336933302
 10
-7.1111167628
 20
-15.6386055765
 10
-7.1180408208
 20
-15.6440126863
 10
-7.1248688087
 20
-15.6498909008
 10
-7.1315707246
 20
-15.6562143914
 10
-7.1381171201
 20
-15.6629553723
 10
-7.1444792307
 20
-15.6700842237
 10
-7.1506291015
 20
-15.6775696216
 10
-7.15653971
 20
-15.6853786751
 10
-7.1621850854
 20
-15.6934770712
 10
-7.1675404222
 20
-15.7018292258
 10
-7.1725821892
 20
-15.7103984395
 10
-7.1772882334
 20
-15.7191470593
 10
-7.1816378767
 20
-15.7280366441
 10
-7.185612007
 20
-15.7370281332
 10
-7.1891931626
 20
-15.7460820183
 10
-7.1923656082
 20
-15.755158517
 10
-7.1951154044
 20
-15.7642177475
 10
-7.1974304691
 20
-15.773219904
 10
-7.1993006303
 20
-15.7821254316
 10
-7.200717671
 20
-15.7908951998
 10
-7.2016753649
 20
-15.799490675
 10
-7.2021695045
 20
-15.8078740892
 10
-7.2021979188
 20
-15.8160086064
  0
LINE
  5
3FB
100
AcDbEntity
  8
RACCORDO
100
AcDbLine
 62
253
  6
CONTINUOUS
 10
-6.7521453162
 20
-16.1543366158
 11
-6.6639367734
 21
-16.1031661124
  0
LINE
  5
3FC
100
AcDbEntity
  8
RACCORDO
100
AcDbLine
 62
253
  6
CONTINUOUS
 10
-7.097102421
 20
-15.6292975318
 11
-7.0133796445
 21
-15.5807998881
  0
LWPOLYLINE
  5
3FD
100
AcDbEntity
  8
RACCORDO
100
AcDbPolyline
 62
253
  6
CONTINUOUS
 90
24
 70
0
 10
-6.7521453162
 20
-16.1543366158
 10
-6.7597122075
 20
-16.1583426151
 10
-6.7676555987
 20
-16.1621625696
 10
-6.775941567
 20
-16.1657801658
 10
-6.7845347267
 20
-16.1691799547
 10
-6.7933983799
 20
-16.1723474171
 10
-6.802494674
 20
-16.1752690262
 10
-6.8117847625
 20
-16.177932305
 10
-6.8212289715
 20
-16.1803258799
 10
-6.8307869688
 20
-16.182439529
 10
-6.8404179365
 20
-16.1842642256
 10
-6.8500807447
 20
-16.1857921774
 10
-6.8597341277
 20
-16.1870168591
 10
-6.8693368603
 20
-16.1879330407
 10
-6.8788479331
 20
-16.1885368094
 10
-6.8882267286
 20
-16.188825587
 10
-6.8974331939
 20
-16.1887981401
 10
-6.9064280122
 20
-16.1884545859
 10
-6.9151727706
 20
-16.1877963917
 10
-6.9236301238
 20
-16.1868263683
 10
-6.9317639543
 20
-16.1855486582
 10
-6.939539526
 20
-16.183968718
 10
-6.9469236326
 20
-16.1820932949
 10
-6.95388474
 20
-16.179930398
  0
LWPOLYLINE
  5
3FE
100
AcDbEntity
  8
RACCORDO
100
AcDbPolyline
 62
253
  6
CONTINUOUS
 90
61
 70
0
 10
16.8399811631
 20
-3.1249541787
 10
16.8463677626
 20
-3.1217714086
 10
16.8527558133
 20
-3.1187921349
 10
16.8591447799
 20
-3.1160156277
 10
16.865521457
 20
-3.1134390171
 10
16.8718977778
 20
-3.1110635323
 10
16.8783106819
 20
-3.1088943204
 10
16.8847610957
 20
-3.1069243242
 10
16.891246047
 20
-3.1051581017
 10
16.8977961267
 20
-3.1036176224
 10
16.9044174906
 20
-3.1022953387
 10
16.9111007392
 20
-3.1011949658
 10
16.91785238
 20
-3.1003545075
 10
16.9246745178
 20
-3.099769188
 10
16.9315601821
 20
-3.0994381795
 10
16.9385013077
 20
-3.0994043499
 10
16.9454993166
 20
-3.0996647714
 10
16.9525458651
 20
-3.1002145279
 10
16.9596171917
 20
-3.1010923786
 10
16.9667134588
 20
-3.1022978202
 10
16.9738253372
 20
-3.103821054
 10
16.9809140088
 20
-3.1056860445
 10
16.9879678137
 20
-3.1078885952
 10
16.9949874868
 20
-3.1104206422
 10
17.0019520788
 20
-3.1132995803
 10
17.0088490829
 20
-3.1165145785
 10
17.0156779964
 20
-3.1200617207
 10
17.022434521
 20
-3.123967223
 10
17.0291115233
 20
-3.1282180883
 10
17.0356997954
 20
-3.1328084539
 10
17.0421897153
 20
-3.1377726487
 10
17.048570064
 20
-3.1430902308
 10
17.0548315869
 20
-3.1487574938
 10
17.0609641159
 20
-3.1548297266
 10
17.0669593201
 20
-3.1612842582
 10
17.0727983955
 20
-3.1681109499
 10
17.078450356
 20
-3.1753777335
 10
17.0839083763
 20
-3.1830661329
 10
17.0891432774
 20
-3.191149857
 10
17.0940855308
 20
-3.1996789096
 10
17.0987156647
 20
-3.2086114828
 10
17.1030104012
 20
-3.2179342951
 10
17.1068882321
 20
-3.2277321247
 10
17.1103308846
 20
-3.2379394252
 10
17.113302191
 20
-3.2485488842
 10
17.1156807891
 20
-3.2597157207
 10
17.1174463824
 20
-3.2714391004
 10
17.1185379394
 20
-3.2836072135
 10
17.1187680004
 20
-3.2962017686
 10
17.1180836117
 20
-3.3092189117
 10
17.1164605011
 20
-3.3225477797
 10
17.1137748096
 20
-3.3360366672
 10
17.1099576969
 20
-3.3497124968
 10
17.1050317579
 20
-3.3634691966
 10
17.099055479
 20
-3.3770186727
 10
17.0920336889
 20
-3.3903296506
 10
17.0839786854
 20
-3.4034428128
 10
17.0749994052
 20
-3.4162353439
 10
17.0651346555
 20
-3.428695142
 10
17.0543813761
 20
-3.4408741629
 10
17.0427958592
 20
-3.4527614803
  0
LINE
  5
3FF
100
AcDbEntity
  8
RACCORDO
100
AcDbLine
 62
7
  6
CONTINUOUS
 10
-13.6345641024
 20
20.3964460226
 11
1.3919932471
 21
11.720300136
  0
LINE
  5
400
100
AcDbEntity
  8
0
100
AcDbLine
 62
7
  6
CONTINUOUS
 10
-13.6337278797
 20
20.4134261348
 11
-13.1164972861
 21
20.1147836724
  0
LINE
  5
401
100
AcDbEntity
  8
0
100
AcDbLine
 62
7
  6
CONTINUOUS
 10
-11.4297315618
 20
19.1408662834
 11
-9.2617398635
 21
17.8890950481
  0
LINE
  5
402
100
AcDbEntity
  8
0
100
AcDbLine
 62
7
  6
CONTINUOUS
 10
-8.6023299892
 20
17.508360051
 11
-3.6402408661
 21
14.6433119809
  0
LINE
  5
403
100
AcDbEntity
  8
0
100
AcDbLine
 62
7
  6
CONTINUOUS
 10
-2.9808309917
 20
14.2625769838
 11
-0.8128392934
 21
13.0108057485
  0
LINE
  5
404
100
AcDbEntity
  8
0
100
AcDbLine
 62
7
  6
CONTINUOUS
 10
0.8739264308
 20
12.0368883594
 11
1.3911570245
 21
11.7382458971
  0
LWPOLYLINE
  5
405
100
AcDbEntity
  8
0
100
AcDbPolyline
 62
7
  6
CONTINUOUS
 90
21
 70
0
 10
-13.7676696785
 20
20.8331135837
 10
-13.7711437966
 20
20.8351559361
 10
-13.782350061
 20
20.8422768775
 10
-13.7931702818
 20
20.8499886086
 10
-13.8035550481
 20
20.8582555586
 10
-13.8134809953
 20
20.8670569654
 10
-13.8229454914
 20
20.8763926914
 10
-13.8319186772
 20
20.8862395554
 10
-13.8403655703
 20
20.8965646175
 10
-13.848272062
 20
20.9073578681
 10
-13.8556110276
 20
20.9185931058
 10
-13.8623520972
 20
20.930234577
 10
-13.8684747834
 20
20.9422587264
 10
-13.8739537849
 20
20.9546297072
 10
-13.8787672081
 20
20.9673125725
 10
-13.8828990587
 20
20.9802844507
 10
-13.8863301464
 20
20.9935119029
 10
-13.8890407845
 20
21.0069499121
 10
-13.8910155004
 20
21.020556772
 10
-13.8922412046
 20
21.0342846696
 10
-13.8927087338
 20
21.0480942988
  0
LWPOLYLINE
  5
406
100
AcDbEntity
  8
0
100
AcDbPolyline
 62
7
  6
CONTINUOUS
 90
21
 70
0
 10
-1.4640116858
 20
13.7291356598
 10
-1.4674858039
 20
13.7311780122
 10
-1.4786920684
 20
13.7382989535
 10
-1.4895122892
 20
13.7460106847
 10
-1.4998970555
 20
13.7542776347
 10
-1.5098230027
 20
13.7630790415
 10
-1.5192874987
 20
13.7724147675
 10
-1.5282606846
 20
13.7822616315
 10
-1.5367075777
 20
13.7925866936
 10
-1.5446140693
 20
13.8033799442
 10
-1.5519530349
 20
13.8146151819
 10
-1.5586941046
 20
13.8262566531
 10
-1.5648167908
 20
13.8382808025
 10
-1.5702957922
 20
13.8506517833
 10
-1.5751092155
 20
13.8633346486
 10
-1.579241066
 20
13.8763065268
 10
-1.5826721538
 20
13.8895339789
 10
-1.5853827919
 20
13.9029719882
 10
-1.5873575078
 20
13.9165788481
 10
-1.5885832119
 20
13.9303067457
 10
-1.5890507412
 20
13.9441163749
  0
LWPOLYLINE
  5
407
100
AcDbEntity
  8
0
100
AcDbPolyline
 62
253
  6
CONTINUOUS
 90
18
 70
0
 10
-13.8194902403
 20
20.9475765914
 10
-13.827672308
 20
20.9525303567
 10
-13.8354384223
 20
20.9577025235
 10
-13.8427711181
 20
20.96308146
 10
-13.849653897
 20
20.968655063
 10
-13.8560712893
 20
20.9744108043
 10
-13.8620088829
 20
20.9803357607
 10
-13.8674533317
 20
20.9864166238
 10
-13.8723923718
 20
20.992639706
 10
-13.8768148756
 20
20.9989909908
 10
-13.8807108929
 20
21.0054561869
 10
-13.8840716672
 20
21.0120207618
 10
-13.8868896403
 20
21.0186699518
 10
-13.8891584745
 20
21.0253888031
 10
-13.8908730677
 20
21.0321622056
 10
-13.8920295639
 20
21.0389749265
 10
-13.8926253623
 20
21.0458116493
 10
-13.892713545
 20
21.0496452397
  0
LWPOLYLINE
  5
408
100
AcDbEntity
  8
0
100
AcDbPolyline
 62
253
  6
CONTINUOUS
 90
18
 70
0
 10
-13.8194902403
 20
21.2680967642
 10
-13.8276589494
 20
21.2730420485
 10
-13.835416289
 20
21.2782072316
 10
-13.842744325
 20
21.2835809935
 10
-13.8496269798
 20
21.289152312
 10
-13.856047155
 20
21.2949081648
 10
-13.8619874302
 20
21.30083331
 10
-13.8674336873
 20
21.3069135243
 10
-13.8723745772
 20
21.3131359832
 10
-13.8767990614
 20
21.319486805
 10
-13.8806972078
 20
21.3259517953
 10
-13.8840601629
 20
21.3325163402
 10
-13.8868802831
 20
21.3391655445
 10
-13.8891512128
 20
21.3458843924
 10
-13.8908678765
 20
21.352657831
 10
-13.892026424
 20
21.3594706697
 10
-13.8926242445
 20
21.3663076046
 10
-13.892713545
 20
21.3701653856
  0
LWPOLYLINE
  5
409
100
AcDbEntity
  8
0
100
AcDbPolyline
 62
253
  6
CONTINUOUS
 90
18
 70
0
 10
-1.5158322477
 20
13.8435986675
 10
-1.5240143154
 20
13.8485524328
 10
-1.5317804297
 20
13.8537245996
 10
-1.5391131254
 20
13.8591035361
 10
-1.5459959044
 20
13.8646771391
 10
-1.5524132967
 20
13.8704328804
 10
-1.5583508902
 20
13.8763578368
 10
-1.563795339
 20
13.8824386999
 10
-1.5687343791
 20
13.8886617821
 10
-1.573156883
 20
13.8950130669
 10
-1.5770529003
 20
13.901478263
 10
-1.5804136746
 20
13.9080428379
 10
-1.5832316476
 20
13.9146920279
 10
-1.5855004819
 20
13.9214108792
 10
-1.5872150751
 20
13.9281842817
 10
-1.5883715712
 20
13.9349970026
 10
-1.5889673697
 20
13.9418337254
 10
-1.5890555524
 20
13.9456673158
  0
LWPOLYLINE
  5
40A
100
AcDbEntity
  8
0
100
AcDbPolyline
 62
253
  6
CONTINUOUS
 90
15
 70
0
 10
2.644775745
 20
14.0962882298
 10
2.6487485297
 20
14.0904449039
 10
2.6523110437
 20
14.084843794
 10
2.6554552463
 20
14.079497542
 10
2.6581740396
 20
14.0744182172
 10
2.6604612889
 20
14.0696172807
 10
2.6623118348
 20
14.0651055611
 10
2.6637214997
 20
14.0608932376
 10
2.6646870972
 20
14.0569898253
 10
2.6652064448
 20
14.0534041435
 10
2.6652783714
 20
14.0501442873
 10
2.6649027159
 20
14.0472176107
 10
2.6640803264
 20
14.0446307177
 10
2.6628130592
 20
14.0423894467
 10
2.6624757455
 20
14.041944425
  0
LWPOLYLINE
  5
40B
100
AcDbEntity
  8
0
100
AcDbPolyline
 62
7
  6
CONTINUOUS
 90
3
 70
0
 10
3.5241454377
 20
19.3591987903
 10
3.5239020082
 20
19.3597748958
 10
3.5237457608
 20
19.3598881214
  0
LINE
  5
40C
100
AcDbEntity
  8
0
100
AcDbLine
 62
7
  6
CONTINUOUS
 10
13.253441208
 20
17.1351864544
 11
13.2534411919
 21
17.0970102807
  0
LWPOLYLINE
  5
40D
100
AcDbEntity
  8
RACCORDO
100
AcDbPolyline
 62
7
  6
CONTINUOUS
 90
16
 70
0
 10
16.7433669843
 20
6.1410931187
 10
16.7486969231
 20
6.1500879796
 10
16.7541904557
 20
6.1590046349
 10
16.7598475822
 20
6.1678430845
 10
16.7656679321
 20
6.1766153987
 10
16.7716518759
 20
6.1853095073
 10
16.7778005251
 20
6.1938891994
 10
16.7841186152
 20
6.2023556455
 10
16.7906014106
 20
6.2107076751
 10
16.797235816
 20
6.2189055665
 10
16.8040255633
 20
6.226948023
 10
16.8109669206
 20
6.2348363412
 10
16.8180355967
 20
6.2425346895
 10
16.8252234945
 20
6.2500311238
 10
16.8325387111
 20
6.2573375881
 10
16.8399812464
 20
6.2644540824
  0
LINE
  5
40E
100
AcDbEntity
  8
DRAFT
100
AcDbLine
 62
7
  6
CONTINUOUS
 10
17.0257962004
 20
-3.4705242729
 11
17.9902226246
 21
-2.7665011263
  0
LINE
  5
40F
100
AcDbEntity
  8
DRAFT
100
AcDbLine
 62
7
  6
CONTINUOUS
 10
4.225487262
 20
-12.2050861681
 11
2.8236153544
 21
-13.1143400596
  0
LINE
  5
410
100
AcDbEntity
  8
DRAFT
100
AcDbLine
 62
7
  6
CONTINUOUS
 10
2.8236153544
 20
-13.1143400596
 11
1.7444412905
 21
-13.7802463514
  0
LINE
  5
411
100
AcDbEntity
  8
RACCORDO
100
AcDbLine
 62
253
  6
CONTINUOUS
 10
-6.5629364435
 20
-19.1991799475
 11
-6.5640399874
 21
-19.1998285925
  0
LWPOLYLINE
  5
412
100
AcDbEntity
  8
RACCORDO
100
AcDbPolyline
 62
253
  6
CONTINUOUS
 90
25
 70
0
 10
-6.6097911284
 20
-19.0820143748
 10
-6.616978108
 20
-19.0862144532
 10
-6.6245626766
 20
-19.0900415136
 10
-6.6325133226
 20
-19.0934796555
 10
-6.6407970133
 20
-19.0965145947
 10
-6.6493793324
 20
-19.0991337217
 10
-6.658224623
 20
-19.1013261548
 10
-6.6672961353
 20
-19.1030827853
 10
-6.67655618
 20
-19.1043963147
 10
-6.6859662842
 20
-19.1052612857
 10
-6.6954873516
 20
-19.1056741046
 10
-6.7050798251
 20
-19.1056330563
 10
-6.7147038507
 20
-19.1051383114
 10
-6.7243194434
 20
-19.1041919253
 10
-6.7338866532
 20
-19.10279783
 10
-6.7433657312
 20
-19.1009618176
 10
-6.7527172945
 20
-19.0986915161
 10
-6.76190249
 20
-19.0959963581
 10
-6.7708831562
 20
-19.092887541
 10
-6.7796219807
 20
-19.0893779812
 10
-6.7880826565
 20
-19.0854822598
 10
-6.7962300318
 20
-19.0812165624
 10
-6.8040302568
 20
-19.0765986117
 10
-6.8114509236
 20
-19.071647594
 10
-6.8184612017
 20
-19.0663840794
  0
LWPOLYLINE
  5
413
100
AcDbEntity
  8
RACCORDO
100
AcDbPolyline
 62
7
  6
CONTINUOUS
 90
6
 70
0
 10
-14.9322607969
 20
9.5550465075
 10
-14.9136043383
 20
9.5581349071
 10
-14.8927048589
 20
9.5580947616
 10
-14.8690894001
 20
9.5544858585
 10
-14.8429077536
 20
9.5467736413
 10
-14.8148077259
 20
9.5346729225
  0
LWPOLYLINE
  5
414
100
AcDbEntity
  8
0
100
AcDbPolyline
 62
7
  6
CONTINUOUS
 90
37
 70
0
 10
0.944318364
 20
12.6697478897
 10
0.9512465226
 20
12.6692255695
 10
0.9597126779
 20
12.6688969302
 10
0.9682556992
 20
12.6688875964
 10
0.9768623763
 20
12.669197286
 10
0.9855198293
 20
12.6698251636
 10
0.9942179064
 20
12.6707562251
 10
1.0029441851
 20
12.6719894065
 10
1.011686584
 20
12.6735232973
 10
1.0204359689
 20
12.675342304
 10
1.0291807767
 20
12.6774447136
 10
1.0379097385
 20
12.6798286201
 10
1.0466146371
 20
12.6824781281
 10
1.0552847869
 20
12.6853909924
 10
1.0639097428
 20
12.6885648773
 10
1.0724820814
 20
12.6919837782
 10
1.0809919891
 20
12.6956450132
 10
1.0894298442
 20
12.6995458734
 10
1.097788898
 20
12.7036703632
 10
1.106060191
 20
12.7080154379
 10
1.1142349187
 20
12.7125780661
 10
1.1223069088
 20
12.717342327
 10
1.130268034
 20
12.7223048704
 10
1.1381102995
 20
12.7274623878
 10
1.145828044
 20
12.7327990728
 10
1.153413951
 20
12.7383113131
 10
1.1608608295
 20
12.7439955657
 10
1.1681634963
 20
12.7498361706
 10
1.1753154258
 20
12.755829286
 10
1.1823102293
 20
12.7619711772
 10
1.1891432071
 20
12.7682463776
 10
1.1958086112
 20
12.7746508451
 10
1.2023008516
 20
12.7811806947
 10
1.2086157409
 20
12.7878207202
 10
1.2147485897
 20
12.7945631407
 10
1.2206942935
 20
12.8014075395
 10
1.2264483905
 20
12.8083497291
  0
LINE
  5
415
100
AcDbEntity
  8
0
100
AcDbLine
 62
7
  6
CONTINUOUS
 10
0.3165592076
 20
12.7275536457
 11
0.9443181589
 21
12.6697488783
  0
LINE
  5
416
100
AcDbEntity
  8
0
100
AcDbLine
 62
253
  6
CONTINUOUS
 10
0.5152277824
 20
12.873839742
 11
1.2264483905
 21
12.8083497291
  0
LWPOLYLINE
  5
417
100
AcDbEntity
  8
0
100
AcDbPolyline
 62
7
  6
CONTINUOUS
 90
9
 70
0
 10
0.3165592076
 20
12.7275536457
 10
0.303157876
 20
12.7291535301
 10
0.2898074552
 20
12.7314854084
 10
0.2765616969
 20
12.7345480578
 10
0.2634578391
 20
12.7383403406
 10
0.2505724638
 20
12.7428447374
 10
0.2380079877
 20
12.7480208883
 10
0.2258212406
 20
12.7538323163
 10
0.2144131865
 20
12.7600341881
  0
LWPOLYLINE
  5
418
100
AcDbEntity
  8
0
100
AcDbPolyline
 62
253
  6
CONTINUOUS
 90
18
 70
0
 10
-4.4231952709
 20
17.4433949542
 10
-4.4299826456
 20
17.4470617714
 10
-4.4367527861
 20
17.4503513723
 10
-4.4434903522
 20
17.4532563016
 10
-4.4501800816
 20
17.4557699772
 10
-4.4568068123
 20
17.4578867001
 10
-4.4633555171
 20
17.4596016697
 10
-4.4698113547
 20
17.4609110004
 10
-4.4761597006
 20
17.4618117268
 10
-4.4823861691
 20
17.4623018086
 10
-4.4884766534
 20
17.4623801362
 10
-4.4944173527
 20
17.4620465329
 10
-4.5001948019
 20
17.4613017562
 10
-4.5057959097
 20
17.4601474961
 10
-4.5112079875
 20
17.4585863695
 10
-4.516418773
 20
17.4566219158
 10
-4.5214164641
 20
17.4542585861
 10
-4.5245540546
 20
17.4525058266
  0
LWPOLYLINE
  5
419
100
AcDbEntity
  8
0
100
AcDbPolyline
 62
7
  6
CONTINUOUS
 90
10
 70
0
 10
-12.0891815375
 20
19.8639755445
 10
-12.078930491
 20
19.85837192
 10
-12.0673794698
 20
19.8527747819
 10
-12.0555442958
 20
19.8477731339
 10
-12.0434467921
 20
19.8433791367
 10
-12.0311161119
 20
19.8396071615
 10
-12.0185857458
 20
19.836471177
 10
-12.0058846696
 20
19.833982263
 10
-11.9930451643
 20
19.8321509075
 10
-11.987098802
 20
19.8315315711
  0
LWPOLYLINE
  5
41A
100
AcDbEntity
  8
0
100
AcDbPolyline
 62
253
  6
CONTINUOUS
 90
31
 70
0
 10
-6.2645634172
 20
18.1809268076
 10
-6.257011411
 20
18.176787705
 10
-6.2490965429
 20
18.1728811529
 10
-6.2408402667
 20
18.1692177402
 10
-6.2322649617
 20
18.1658073968
 10
-6.2233938716
 20
18.1626593668
 10
-6.2142510424
 20
18.159782183
 10
-6.2048612561
 20
18.1571836443
 10
-6.1952499644
 20
18.1548707942
 10
-6.1854432195
 20
18.1528499018
 10
-6.175467603
 20
18.1511264448
 10
-6.1653501547
 20
18.1497050949
 10
-6.1551182985
 20
18.1485897047
 10
-6.1447997685
 20
18.1477832976
 10
-6.1344225339
 20
18.1472880592
 10
-6.1240147228
 20
18.1471053321
 10
-6.1136045463
 20
18.1472356116
 10
-6.1032202218
 20
18.1476785444
 10
-6.0928898969
 20
18.14843293
 10
-6.0826415724
 20
18.1494967236
 10
-6.0725030273
 20
18.1508670416
 10
-6.0625017427
 20
18.1525401699
 10
-6.0526648277
 20
18.1545115732
 10
-6.043018946
 20
18.1567759078
 10
-6.0335902434
 20
18.1593270363
 10
-6.024404277
 20
18.1621580435
 10
-6.0154859459
 20
18.1652612559
 10
-6.0068594241
 20
18.1686282619
 10
-5.9985480941
 20
18.1722499351
 10
-5.9905744844
 20
18.1761164587
 10
-5.9829602081
 20
18.1802173522
  0
LWPOLYLINE
  5
41B
100
AcDbEntity
  8
0
100
AcDbPolyline
 62
253
  6
CONTINUOUS
 90
34
 70
0
 10
0.1627058227
 20
12.8744318227
 10
0.1712854432
 20
12.8697075993
 10
0.1802433216
 20
12.8652235422
 10
0.1895593128
 20
12.8609897356
 10
0.1992124545
 20
12.8570157053
 10
0.2091810485
 20
12.8533103835
 10
0.219442713
 20
12.8498820913
 10
0.2299743982
 20
12.8467385348
 10
0.2407523983
 20
12.843886795
 10
0.2517524375
 20
12.8413332967
 10
0.2629497643
 20
12.8390837851
 10
0.274319209
 20
12.8371433162
 10
0.2858352019
 20
12.8355162539
 10
0.2974718441
 20
12.8342062574
 10
0.3092029655
 20
12.8332162728
 10
0.321002184
 20
12.8325485264
 10
0.3328429724
 20
12.8322045198
 10
0.3446986929
 20
12.8321850273
 10
0.3565426568
 20
12.8324900917
 10
0.3683482109
 20
12.8331190238
 10
0.380088823
 20
12.834070407
 10
0.3917381152
 20
12.835342103
 10
0.4032699745
 20
12.8369312648
 10
0.4146583794
 20
12.8388343102
 10
0.4258774942
 20
12.8410469118
 10
0.4369019531
 20
12.8435640394
 10
0.4477071297
 20
12.8463800422
 10
0.4582689515
 20
12.8494886359
 10
0.4685644924
 20
12.852883117
 10
0.4785697311
 20
12.8565556113
 10
0.4882600402
 20
12.8604969503
 10
0.4976131694
 20
12.8646977747
 10
0.5066090692
 20
12.8691487586
 10
0.5152277824
 20
12.873839742
  0
LWPOLYLINE
  5
41C
100
AcDbEntity
  8
0
100
AcDbPolyline
 62
253
  6
CONTINUOUS
 90
34
 70
0
 10
0.1627058227
 20
13.1949519955
 10
0.1712860256
 20
13.1902274663
 10
0.1802445489
 20
13.1857431296
 10
0.1895612447
 20
13.1815090725
 10
0.1992151656
 20
13.1775348171
 10
0.2091845933
 20
13.1738293063
 10
0.219447086
 20
13.1704008821
 10
0.2299795549
 20
13.1672572569
 10
0.2407583153
 20
13.1644054993
 10
0.2517591198
 20
13.1618520237
 10
0.2629572264
 20
13.1596025725
 10
0.2743274461
 20
13.157662205
 10
0.2858441957
 20
13.1560352859
 10
0.297481569
 20
13.1547254731
 10
0.3092133928
 20
13.1537357111
 10
0.321013276
 20
13.1530682246
 10
0.3328546842
 20
13.1527245131
 10
0.3447109778
 20
13.1527053484
 10
0.3565554683
 20
13.1530107707
 10
0.368361483
 20
13.1536400876
 10
0.3801025025
 20
13.1545918803
 10
0.3917521966
 20
13.155864014
 10
0.4032844704
 20
13.1574536466
 10
0.414673275
 20
13.1593571951
 10
0.4258927538
 20
13.1615703297
 10
0.4369175362
 20
13.1640880197
 10
0.4477229918
 20
13.1669046137
 10
0.4582850297
 20
13.1700138221
 10
0.4685814236
 20
13.1734091843
 10
0.4785874043
 20
13.1770826168
 10
0.4882763451
 20
13.1810240951
 10
0.4976255653
 20
13.1852237928
 10
0.506615942
 20
13.1896724986
 10
0.5152277824
 20
13.1943599148
  0
LWPOLYLINE
  5
41D
100
AcDbEntity
  8
0
100
AcDbPolyline
 62
253
  6
CONTINUOUS
 90
34
 70
0
 10
-12.1409521699
 20
19.9784097466
 10
-12.132373178
 20
19.9736858532
 10
-12.1234159809
 20
19.969202091
 10
-12.1141007194
 20
19.964968542
 10
-12.1044483396
 20
19.9609947257
 10
-12.0944805457
 20
19.9572895774
 10
-12.084219751
 20
19.9538614285
 10
-12.0736890277
 20
19.9507179874
 10
-12.0629120548
 20
19.9478663224
 10
-12.0519130652
 20
19.9453128457
 10
-12.0407167911
 20
19.943063299
 10
-12.029348408
 20
19.9411227405
 10
-12.0178334786
 20
19.9394955337
 10
-12.0061978952
 20
19.9381853376
 10
-11.9944678211
 20
19.9371950982
 10
-11.9826696324
 20
19.9365270421
 10
-11.9708298582
 20
19.9361826716
 10
-11.9589751211
 20
19.9361627609
 10
-11.9471320775
 20
19.9364673548
 10
-11.9353273571
 20
19.9370957684
 10
-11.923587504
 20
19.9380465888
 10
-11.9119389159
 20
19.9393176778
 10
-11.9004077858
 20
19.9409061774
 10
-11.8890200421
 20
19.9428085157
 10
-11.8778012911
 20
19.9450204151
 10
-11.8667767589
 20
19.947536902
 10
-11.8559712352
 20
19.950352318
 10
-11.8454090169
 20
19.9534603323
 10
-11.8351138539
 20
19.9568539563
 10
-11.8251088958
 20
19.9605255592
 10
-11.8154166394
 20
19.9644668852
 10
-11.8060588785
 20
19.9686690718
 10
-11.7970566547
 20
19.9731226701
 10
-11.7884302103
 20
19.9778176659
  0
LWPOLYLINE
  5
41E
100
AcDbEntity
  8
0
100
AcDbPolyline
 62
253
  6
CONTINUOUS
 90
34
 70
0
 10
-12.1409521699
 20
20.2989299194
 10
-12.1323872382
 20
20.2942134092
 10
-12.1234414549
 20
20.2897344185
 10
-12.1141344259
 20
20.2855033024
 10
-12.1044852409
 20
20.2815293437
 10
-12.0945164537
 20
20.277822415
 10
-12.0842544623
 20
20.2743925746
 10
-12.0737239008
 20
20.271247974
 10
-12.0629469801
 20
20.2683951661
 10
-12.0519477427
 20
20.2658405244
 10
-12.0407507725
 20
20.2635897835
 10
-12.0293813797
 20
20.2616480554
 10
-12.017865362
 20
20.2600197533
 10
-12.0062287257
 20
20.258708547
 10
-11.9944975418
 20
20.2577173668
 10
-11.9826981193
 20
20.257048436
 10
-11.9708569635
 20
20.256703262
 10
-11.9590007384
 20
20.2566826267
 10
-11.9471561301
 20
20.2569865793
 10
-11.9353497846
 20
20.2576144376
 10
-11.923608251
 20
20.2585647911
 10
-11.9119579421
 20
20.2598355039
 10
-11.9004250603
 20
20.2614237195
 10
-11.8890355473
 20
20.263325867
 10
-11.8778150296
 20
20.2655376677
 10
-11.8667887462
 20
20.2680541472
 10
-11.855981496
 20
20.2708696465
 10
-11.8454175906
 20
20.2739778327
 10
-11.8351207852
 20
20.2773717169
 10
-11.8251142453
 20
20.2810436645
 10
-11.8154204957
 20
20.2849854095
 10
-11.8060613435
 20
20.2891880825
 10
-11.7970578321
 20
20.2936422319
 10
-11.7884302103
 20
20.2983378387
  0
LINE
  5
41F
100
AcDbEntity
  8
0
100
AcDbLine
 62
7
  6
CONTINUOUS
 10
-13.7677195851
 20
20.8331423761
 11
-12.0891815147
 21
19.8639755313
  0
LINE
  5
420
100
AcDbEntity
  8
0
100
AcDbLine
 62
7
  6
CONTINUOUS
 10
-1.4640615924
 20
13.7291644522
 11
0.214476478
 21
12.7599976074
  0
LINE
  5
421
100
AcDbEntity
  8
0
100
AcDbLine
 62
253
  6
CONTINUOUS
 10
-13.8194902403
 20
20.9475765914
 11
-12.1409521699
 21
19.9784097466
  0
LINE
  5
422
100
AcDbEntity
  8
0
100
AcDbLine
 62
253
  6
CONTINUOUS
 10
-1.5158322477
 20
13.8435986675
 11
0.1627058227
 21
12.8744318227
  0
LINE
  5
423
100
AcDbEntity
  8
0
100
AcDbLine
 62
253
  6
CONTINUOUS
 10
0.1627058227
 20
13.1949519955
 11
-1.5158322477
 21
14.1641188403
  0
LINE
  5
424
100
AcDbEntity
  8
0
100
AcDbLine
 62
253
  6
CONTINUOUS
 10
-12.1409521699
 20
20.2989299194
 11
-13.8194902403
 21
21.2680967642
  0
LINE
  5
425
100
AcDbEntity
  8
0
100
AcDbLine
 62
7
  6
CONTINUOUS
 10
-7.8890523806
 20
17.9558610799
 11
-6.2645634172
 21
17.0179015121
  0
LINE
  5
426
100
AcDbEntity
  8
0
100
AcDbLine
 62
7
  6
CONTINUOUS
 10
-4.5637938757
 20
16.0358984945
 11
-3.6402408661
 21
15.5026505616
  0
LINE
  5
427
100
AcDbEntity
  8
0
100
AcDbLine
 62
253
  6
CONTINUOUS
 10
0.3384540787
 20
13.5005409507
 11
-1.3400839917
 21
14.4697077956
  0
LINE
  5
428
100
AcDbEntity
  8
0
100
AcDbLine
 62
253
  6
CONTINUOUS
 10
-11.9652039139
 20
20.6045188746
 11
-13.6437419844
 21
21.5736857195
  0
LINE
  5
429
100
AcDbEntity
  8
0
100
AcDbLine
 62
7
  6
CONTINUOUS
 10
-10.1871494194
 20
19.7124227986
 11
-9.2617398635
 21
19.1781029191
  0
LINE
  5
42A
100
AcDbEntity
  8
0
100
AcDbLine
 62
7
  6
CONTINUOUS
 10
-1.9140000796
 20
14.9356100567
 11
-1.2987634166
 21
14.5803801182
  0
LINE
  5
42B
100
AcDbEntity
  8
0
100
AcDbLine
 62
7
  6
CONTINUOUS
 10
2.1165085732
 20
12.6084448747
 11
2.4703310885
 21
12.4041521889
  0
LINE
  5
42C
100
AcDbEntity
  8
0
100
AcDbLine
 62
7
  6
CONTINUOUS
 10
-4.6223725195
 20
16.4993903596
 11
-5.767732037
 21
17.1607065903
  0
LINE
  5
42D
100
AcDbEntity
  8
0
100
AcDbLine
 62
7
  6
CONTINUOUS
 10
-9.2617398635
 20
19.2525064544
 11
-8.6023299892
 21
18.8717714572
  0
LINE
  5
42E
100
AcDbEntity
  8
0
100
AcDbLine
 62
7
  6
CONTINUOUS
 10
-3.6402408661
 20
16.0067233872
 11
-2.9808309917
 21
15.62598839
  0
LINE
  5
42F
100
AcDbEntity
  8
0
100
AcDbLine
 62
253
  6
CONTINUOUS
 10
-3.0778594128
 20
16.3409638543
 11
-4.5637938757
 21
17.19892379
  0
LINE
  5
430
100
AcDbEntity
  8
0
100
AcDbLine
 62
253
  6
CONTINUOUS
 10
-6.2645634172
 20
18.1809268076
 11
-7.8890523806
 21
19.1188863755
  0
LINE
  5
431
100
AcDbEntity
  8
0
100
AcDbLine
 62
7
  6
CONTINUOUS
 10
-5.0710461315
 20
17.5657978642
 11
-4.6207192308
 21
17.3057847556
  0
LINE
  5
432
100
AcDbEntity
  8
0
100
AcDbLine
 62
7
  6
CONTINUOUS
 10
-10.1525876669
 20
20.5042663774
 11
-9.4841564652
 21
20.1183225789
  0
LINE
  5
433
100
AcDbEntity
  8
0
100
AcDbLine
 62
7
  6
CONTINUOUS
 10
2.1510703258
 20
13.4002884535
 11
3.171002405
 21
12.8113924537
  0
LINE
  5
434
100
AcDbEntity
  8
0
100
AcDbLine
 62
253
  6
CONTINUOUS
 10
-2.7999332929
 20
16.5061438324
 11
-4.4231952709
 21
17.4433949542
  0
LINE
  5
435
100
AcDbEntity
  8
0
100
AcDbLine
 62
253
  6
CONTINUOUS
 10
-6.1239648124
 20
18.4253979718
 11
-7.7472267904
 21
19.3626490936
  0
LINE
  5
436
100
AcDbEntity
  8
0
100
AcDbLine
 62
7
  6
CONTINUOUS
 10
-5.0729675123
 20
17.8211274407
 11
-4.4801964899
 21
17.4788688816
  0
LINE
  5
437
100
AcDbEntity
  8
0
100
AcDbLine
 62
7
  6
CONTINUOUS
 10
-8.2072504321
 20
19.8756063802
 11
-5.9091515983
 21
18.5487129155
  0
LINE
  5
438
100
AcDbEntity
  8
0
100
AcDbLine
 62
7
  6
CONTINUOUS
 10
-4.2120989134
 20
17.5688559642
 11
-1.9140000796
 21
16.2419624996
  0
LINE
  5
439
100
AcDbEntity
  8
0
100
AcDbLine
 62
253
  6
CONTINUOUS
 10
0.2144131865
 20
12.7600341881
 11
0.214476478
 21
12.7599976074
  0
LWPOLYLINE
  5
43A
100
AcDbEntity
  8
0
100
AcDbPolyline
 62
7
  6
CONTINUOUS
 90
37
 70
0
 10
-5.9091515983
 20
18.5487129155
 10
-5.9029828863
 20
18.5449959583
 10
-5.8968261015
 20
18.5409751554
 10
-5.8906928638
 20
18.5366582135
 10
-5.884594664
 20
18.5320534512
 10
-5.8785431059
 20
18.5271696329
 10
-5.8725498848
 20
18.5220159519
 10
-5.8666263362
 20
18.5166022564
 10
-5.860783644
 20
18.5109389015
 10
-5.8550330826
 20
18.5050365801
 10
-5.8493855405
 20
18.498906558
 10
-5.8438516879
 20
18.4925605477
 10
-5.8384421856
 20
18.4860105586
 10
-5.833167288
 20
18.4792690815
 10
-5.8280369695
 20
18.4723489859
 10
-5.8230610942
 20
18.4652633924
 10
-5.8182491067
 20
18.4580258029
 10
-5.8136101146
 20
18.4506500237
 10
-5.809153016
 20
18.4431500617
 10
-5.8048862842
 20
18.4355401989
 10
-5.8008180039
 20
18.4278349418
 10
-5.7969559543
 20
18.4200489434
 10
-5.7933074924
 20
18.4121970213
 10
-5.7898795412
 20
18.4042941337
 10
-5.786678628
 20
18.3963553285
 10
-5.7837108671
 20
18.3883957049
 10
-5.7809819015
 20
18.3804304168
 10
-5.7784968947
 20
18.3724746487
 10
-5.7762606136
 20
18.364543523
 10
-5.7742773249
 20
18.3566521297
 10
-5.7725507398
 20
18.3488155294
 10
-5.7710841963
 20
18.3410486087
 10
-5.7698805117
 20
18.3333661354
 10
-5.7689418818
 20
18.3257827883
 10
-5.768270097
 20
18.3183129991
 10
-5.7678665392
 20
18.310970925
 10
-5.767732037
 20
18.3037705047
  0
LWPOLYLINE
  5
43B
100
AcDbEntity
  8
0
100
AcDbPolyline
 62
7
  6
CONTINUOUS
 90
34
 70
0
 10
-10.3639231231
 20
21.5290773009
 10
-10.3555120477
 20
21.5239894812
 10
-10.3471198301
 20
21.5184509268
 10
-10.3387655823
 20
21.5124741224
 10
-10.3304684084
 20
21.5060725
 10
-10.32224711
 20
21.4992605551
 10
-10.3141201442
 20
21.4920538145
 10
-10.3061059788
 20
21.4844685671
 10
-10.2982228595
 20
21.4765219414
 10
-10.2904885173
 20
21.4682320138
 10
-10.2829205097
 20
21.4596175401
 10
-10.2755360528
 20
21.4506979918
 10
-10.2683517902
 20
21.4414936274
 10
-10.2613840116
 20
21.4320252873
 10
-10.2546485524
 20
21.42231439
 10
-10.2481606296
 20
21.4123829629
 10
-10.241934933
 20
21.4022535072
 10
-10.2359855951
 20
21.3919489516
 10
-10.2303260957
 20
21.3814926439
 10
-10.2249692253
 20
21.3709082876
 10
-10.2199271256
 20
21.3602198546
 10
-10.2152112645
 20
21.3494515369
 10
-10.2108322727
 20
21.3386277574
 10
-10.2068000537
 20
21.327773043
 10
-10.2031238298
 20
21.3169119365
 10
-10.1998118555
 20
21.3060690827
 10
-10.1968715947
 20
21.295269064
 10
-10.1943098361
 20
21.2845362737
 10
-10.1921322901
 20
21.2738950765
 10
-10.1903438292
 20
21.2633696098
 10
-10.1889486709
 20
21.2529836203
 10
-10.1879499673
 20
21.2427606377
 10
-10.1873497983
 20
21.2327239217
 10
-10.1871494194
 20
21.222896265
  0
LWPOLYLINE
  5
43C
100
AcDbEntity
  8
0
100
AcDbPolyline
 62
253
  6
CONTINUOUS
 90
18
 70
0
 10
-1.5158322477
 20
14.1641188403
 10
-1.5240148451
 20
14.1690729419
 10
-1.5317814437
 20
14.174245481
 10
-1.5391145732
 20
14.1796248244
 10
-1.545997742
 20
14.1851988773
 10
-1.5524154615
 20
14.1909550999
 10
-1.5583532839
 20
14.1968805346
 10
-1.5637978516
 20
14.2029618502
 10
-1.5687369226
 20
14.2091853713
 10
-1.573159387
 20
14.2155370979
 10
-1.5770552997
 20
14.2220027444
 10
-1.5804158984
 20
14.2285677667
 10
-1.5832336234
 20
14.2352173936
 10
-1.5855021395
 20
14.2419366671
 10
-1.5872163472
 20
14.2487104751
 10
-1.5883723932
 20
14.2555235798
 10
-1.5889676806
 20
14.2623606604
 10
-1.5890555524
 20
14.2661874887
  0
LWPOLYLINE
  5
43D
100
AcDbEntity
  8
0
100
AcDbPolyline
 62
253
  6
CONTINUOUS
 90
16
 70
0
 10
-4.5637938757
 20
17.19892379
 10
-4.5709625498
 20
17.2032842237
 10
-4.5777284607
 20
17.2078541694
 10
-4.5840732688
 20
17.2126212398
 10
-4.5899797763
 20
17.2175725134
 10
-4.595431973
 20
17.2226945696
 10
-4.6004150804
 20
17.2279735247
 10
-4.6049155915
 20
17.2333950696
 10
-4.6089213073
 20
17.2389445089
 10
-4.6124213701
 20
17.2446068006
 10
-4.6154062928
 20
17.2503665965
 10
-4.6178679844
 20
17.2562082843
 10
-4.6197997725
 20
17.2621160299
 10
-4.6211964207
 20
17.2680738198
 10
-4.6220541434
 20
17.274065505
 10
-4.6223725195
 20
17.2805787087
  0
LWPOLYLINE
  5
43E
100
AcDbEntity
  8
0
100
AcDbPolyline
 62
253
  6
CONTINUOUS
 90
34
 70
0
 10
-11.9652039139
 20
20.6045188746
 10
-11.9568543785
 20
20.5994121346
 10
-11.948517797
 20
20.5938549383
 10
-11.9402130413
 20
20.5878592739
 10
-11.9319577751
 20
20.5814371999
 10
-11.9237719643
 20
20.57460355
 10
-11.9156777167
 20
20.5673764777
 10
-11.9076945581
 20
20.5597735236
 10
-11.8998393588
 20
20.5518108625
 10
-11.8921297728
 20
20.5435063763
 10
-11.8845831758
 20
20.5348787438
 10
-11.87721678
 20
20.5259476043
 10
-11.8700474382
 20
20.5167333781
 10
-11.8630914565
 20
20.5072570343
 10
-11.8563645262
 20
20.4975399621
 10
-11.8498818454
 20
20.4876041144
 10
-11.8436580882
 20
20.477471973
 10
-11.8377073777
 20
20.4671665205
 10
-11.8320432101
 20
20.4567111246
 10
-11.8266784238
 20
20.44612948
 10
-11.821625173
 20
20.435445557
 10
-11.816894911
 20
20.4246835666
 10
-11.8124983564
 20
20.4138678917
 10
-11.8084454736
 20
20.4030230404
 10
-11.8047454499
 20
20.3921735939
 10
-11.8014066705
 20
20.3813441372
 10
-11.7984367008
 20
20.3705592066
 10
-11.7958422719
 20
20.3598432429
 10
-11.793629262
 20
20.3492205222
 10
-11.7918026873
 20
20.3387151194
 10
-11.7903666892
 20
20.3283508564
 10
-11.7893245205
 20
20.3181512223
 10
-11.7886785402
 20
20.3081393215
 10
-11.7884302103
 20
20.2983378387
  0
LWPOLYLINE
  5
43F
100
AcDbEntity
  8
0
100
AcDbPolyline
 62
253
  6
CONTINUOUS
 90
34
 70
0
 10
0.3384540787
 20
13.5005409507
 10
0.3468173615
 20
13.4954254244
 10
0.3551640293
 20
13.4898604669
 10
0.3634751749
 20
13.4838586839
 10
0.3717319717
 20
13.4774336709
 10
0.3799157164
 20
13.470599982
 10
0.3880078708
 20
13.463373097
 10
0.3959901043
 20
13.4557693864
 10
0.4038443356
 20
13.4478060744
 10
0.4115527729
 20
13.4395011995
 10
0.4190979549
 20
13.4308735743
 10
0.4264627902
 20
13.4219427423
 10
0.4336305956
 20
13.4127289336
 10
0.4405851345
 20
13.4032530198
 10
0.4473106534
 20
13.3935364659
 10
0.4537919174
 20
13.383601282
 10
0.460014245
 20
13.3734699735
 10
0.4659635412
 20
13.3631654902
 10
0.4716263295
 20
13.352711174
 10
0.4769897826
 20
13.3421307063
 10
0.4820417508
 20
13.3314480542
 10
0.4867707905
 20
13.3206874162
 10
0.4911661892
 20
13.3098731678
 10
0.4952179905
 20
13.2990298054
 10
0.498917016
 20
13.2881818919
 10
0.5022548866
 20
13.2773540002
 10
0.5052240414
 20
13.2665706578
 10
0.5078177545
 20
13.2558562914
 10
0.5100301505
 20
13.2452351715
 10
0.511856218
 20
13.2347313573
 10
0.5132918204
 20
13.2243686423
 10
0.5143337058
 20
13.2141705004
 10
0.5149795141
 20
13.2041600326
 10
0.5152277824
 20
13.1943599148
  0
LINE
  5
440
100
AcDbEntity
  8
0
100
AcDbLine
 62
253
  6
CONTINUOUS
 10
-6.1239648124
 20
18.4253979718
 11
-6.1172930258
 21
18.421293638
  0
LWPOLYLINE
  5
441
100
AcDbEntity
  8
0
100
AcDbPolyline
 62
253
  6
CONTINUOUS
 90
33
 70
0
 10
-6.1172930258
 20
18.421293638
 10
-6.1106344833
 20
18.4168296856
 10
-6.1040042721
 20
18.4120162279
 10
-6.0974174114
 20
18.4068641667
 10
-6.09088883
 20
18.4013851772
 10
-6.0844333324
 20
18.3955916834
 10
-6.0780655489
 20
18.3894968159
 10
-6.0717999043
 20
18.3831143823
 10
-6.0656505971
 20
18.3764588464
 10
-6.0596315592
 20
18.3695452876
 10
-6.0537564295
 20
18.3623893727
 10
-6.0480385246
 20
18.3550073227
 10
-6.0424908007
 20
18.3474158668
 10
-6.0371258256
 20
18.339632205
 10
-6.031955755
 20
18.331673975
 10
-6.0269922987
 20
18.3235592037
 10
-6.0222467055
 20
18.3153062838
 10
-6.0177297366
 20
18.3069339338
 10
-6.0134516355
 20
18.2984611492
 10
-6.0094220793
 20
18.2899071045
 10
-6.0056501716
 20
18.2812911261
 10
-6.0021444307
 20
18.2726326587
 10
-5.9989128364
 20
18.2639513959
 10
-5.9959627694
 20
18.2552671823
 10
-5.9933009305
 20
18.2465998026
 10
-5.9909332958
 20
18.2379687825
 10
-5.9888651794
 20
18.2293935205
 10
-5.9871010174
 20
18.2208921338
 10
-5.9856451517
 20
18.2124852218
 10
-5.9845013233
 20
18.2041955148
 10
-5.9836718033
 20
18.1960428227
 10
-5.9831578523
 20
18.1880441489
 10
-5.9829602081
 20
18.1802173522
  0
LWPOLYLINE
  5
442
100
AcDbEntity
  8
RACCORDO
100
AcDbPolyline
 62
7
  6
CONTINUOUS
 90
99
 70
0
 10
17.024027184
 20
2.2412669114
 10
17.0479147713
 20
2.2193606341
 10
17.0939414863
 20
2.175917693
 10
17.1395456845
 20
2.1316353995
 10
17.1847263834
 20
2.0865207611
 10
17.2294835471
 20
2.0405784844
 10
17.2738042314
 20
1.9938256126
 10
17.317669542
 20
1.9462857075
 10
17.361069777
 20
1.8979726556
 10
17.4039971016
 20
1.8488978004
 10
17.4464277009
 20
1.7990908651
 10
17.4883282724
 20
1.7485945236
 10
17.5296749676
 20
1.6974422754
 10
17.5704625364
 20
1.6456452791
 10
17.6106859098
 20
1.5932136226
 10
17.6503276134
 20
1.5401733079
 10
17.6893762545
 20
1.4865427006
 10
17.7278348712
 20
1.4323195434
 10
17.7656976251
 20
1.3775123921
 10
17.8029405841
 20
1.3221560737
 10
17.8395395219
 20
1.266287757
 10
17.8754763235
 20
1.2099369997
 10
17.9107418933
 20
1.1531198536
 10
17.94532611
 20
1.0958537938
 10
17.9792168796
 20
1.0381595716
 10
18.0123997649
 20
0.9800623483
 10
18.0448612849
 20
0.9215862989
 10
18.0765865347
 20
0.8627589208
 10
18.1075654594
 20
0.8035993545
 10
18.1377918062
 20
0.7441191643
 10
18.1672538594
 20
0.6843402413
 10
18.1959387177
 20
0.6242873861
 10
18.2238379841
 20
0.5639762755
 10
18.2509433558
 20
0.503421915
 10
18.2772390894
 20
0.4426562401
 10
18.3027064414
 20
0.3817203443
 10
18.3273310407
 20
0.320647526
 10
18.3511065794
 20
0.2594520736
 10
18.3740271138
 20
0.1981464588
 10
18.3960807151
 20
0.1367590038
 10
18.4172590795
 20
0.0753088216
 10
18.4375606035
 20
0.0137941948
 10
18.4569788744
 20
-0.0477750242
 10
18.4754987599
 20
-0.1093612273
 10
18.4931056417
 20
-0.1709248877
 10
18.5097919901
 20
-0.2324489318
 10
18.5255468114
 20
-0.2939030225
 10
18.5403531042
 20
-0.3552284718
 10
18.5541968706
 20
-0.4163696258
 10
18.56707956
 20
-0.4773358966
 10
18.579006504
 20
-0.5381665525
 10
18.589972053
 20
-0.5988583363
 10
18.599963082
 20
-0.6593672526
 10
18.6089710781
 20
-0.7196715119
 10
18.6169927372
 20
-0.7797902111
 10
18.6240128237
 20
-0.839656791
 10
18.6300115878
 20
-0.8991238753
 10
18.6349815525
 20
-0.9580941112
 10
18.6389297096
 20
-1.0166242712
 10
18.6418592173
 20
-1.0747993644
 10
18.6437643784
 20
-1.1326356693
 10
18.6446363955
 20
-1.1900714955
 10
18.6444690687
 20
-1.2470739005
 10
18.643255579
 20
-1.3036605482
 10
18.640990214
 20
-1.3597691987
 10
18.6376764044
 20
-1.4152521372
 10
18.6333204696
 20
-1.4700435274
 10
18.6279220963
 20
-1.5241752222
 10
18.6214809089
 20
-1.5776504303
 10
18.613997302
 20
-1.6304569583
 10
18.6054732143
 20
-1.6825719699
 10
18.5959092126
 20
-1.733982795
 10
18.5852986808
 20
-1.7847080466
 10
18.5736495249
 20
-1.8346935728
 10
18.5609902914
 20
-1.8838225081
 10
18.5473288349
 20
-1.932083229
 10
18.5326736356
 20
-1.9794625264
 10
18.5170671591
 20
-2.0258510763
 10
18.5005502451
 20
-2.071173721
 10
18.4831152106
 20
-2.1154944585
 10
18.4647312608
 20
-2.1589118747
 10
18.4453895379
 20
-2.2014501527
 10
18.4251144436
 20
-2.2430584218
 10
18.4039191046
 20
-2.2837166464
 10
18.3817942262
 20
-2.323446281
 10
18.3587683097
 20
-2.3621994576
 10
18.3349205088
 20
-2.3998596298
 10
18.3103045589
 20
-2.4363727085
 10
18.2849084003
 20
-2.4717861384
 10
18.2587179935
 20
-2.5061393001
 10
18.231741163
 20
-2.5394359526
 10
18.2040049988
 20
-2.571656304
 10
18.1755218829
 20
-2.6027996917
 10
18.1463018335
 20
-2.6328671537
 10
18.1163724945
 20
-2.661842045
 10
18.0857752345
 20
-2.6896985755
 10
18.0545396006
 20
-2.7164262876
 10
18.0226811168
 20
-2.7420281124
 10
17.9902226246
 20
-2.7665011264
  0
LWPOLYLINE
  5
443
100
AcDbEntity
  8
RACCORDO
100
AcDbPolyline
 62
7
  6
CONTINUOUS
 90
10
 70
0
 10
13.4655724113
 20
19.9811594382
 10
13.4655199367
 20
19.9910721655
 10
13.4653627226
 20
20.0009199982
 10
13.4651007691
 20
20.0107029362
 10
13.4647340063
 20
20.0204224105
 10
13.4642625041
 20
20.03007699
 10
13.463686472
 20
20.0396623826
 10
13.46300598
 20
20.0491771572
 10
13.4622209581
 20
20.0586227447
 10
13.4613314065
 20
20.0679991451
  0
LINE
  5
444
100
AcDbEntity
  8
RACCORDO
100
AcDbLine
 62
7
  6
CONTINUOUS
 10
13.4655724113
 20
19.9811594382
 11
13.4655724113
 21
19.6622127098
  0
LWPOLYLINE
  5
445
100
AcDbEntity
  8
RACCORDO
100
AcDbPolyline
 62
253
  6
CONTINUOUS
 90
63
 70
0
 10
16.7433669843
 20
-3.2483149424
 10
16.7483238601
 20
-3.2432511622
 10
16.7532759821
 20
-3.2383572034
 10
16.7582223484
 20
-3.233632817
 10
16.7631568881
 20
-3.2290757246
 10
16.7680837112
 20
-3.2246877638
 10
16.7730167001
 20
-3.2204746746
 10
16.7779566478
 20
-3.2164323859
 10
16.7828998358
 20
-3.2125641125
 10
16.7878527628
 20
-3.2088862335
 10
16.7928155753
 20
-3.2053964174
 10
16.7977846121
 20
-3.2020959666
 10
16.8027603351
 20
-3.1990065839
 10
16.8077425699
 20
-3.196127603
 10
16.8127276467
 20
-3.1934586439
 10
16.8177107581
 20
-3.1910218601
 10
16.8226884237
 20
-3.1888187276
 10
16.8276603266
 20
-3.1868468889
 10
16.8326263824
 20
-3.185122774
 10
16.8375763958
 20
-3.1836466422
 10
16.8425166003
 20
-3.1824174249
 10
16.8474704944
 20
-3.181449163
 10
16.8524297158
 20
-3.1807355304
 10
16.8573964146
 20
-3.1802813175
 10
16.8624071771
 20
-3.180116244
 10
16.8674613917
 20
-3.1802326709
 10
16.8725492709
 20
-3.1806354199
 10
16.8776906064
 20
-3.1813718665
 10
16.8828825926
 20
-3.1824387361
 10
16.8881141323
 20
-3.1838357304
 10
16.8933903945
 20
-3.1856140652
 10
16.8987055197
 20
-3.1877739912
 10
16.9040486256
 20
-3.1903114028
 10
16.9094159425
 20
-3.1932707058
 10
16.9148024017
 20
-3.1966574492
 10
16.920193811
 20
-3.2004622701
 10
16.9255725063
 20
-3.204707357
 10
16.9309286259
 20
-3.2093977847
 10
16.9362523262
 20
-3.2145254694
 10
16.9415267006
 20
-3.2200933021
 10
16.9467334184
 20
-3.2260935567
 10
16.9518712033
 20
-3.2325319367
 10
16.9569471073
 20
-3.2394313528
 10
16.9619479376
 20
-3.2467895579
 10
16.9668613757
 20
-3.2546065146
 10
16.9716912536
 20
-3.2629077735
 10
16.9764182824
 20
-3.2716856449
 10
16.9810297276
 20
-3.2809456895
 10
16.9855325263
 20
-3.2907324871
 10
16.9899025554
 20
-3.3010380353
 10
16.9941208307
 20
-3.3118683033
 10
16.9981913423
 20
-3.3232877273
 10
17.0020886808
 20
-3.3353120824
 10
17.0057773279
 20
-3.3479239957
 10
17.0092355713
 20
-3.3611376668
 10
17.012426006
 20
-3.3749547854
 10
17.0153128855
 20
-3.3893749513
 10
17.0178669265
 20
-3.4044094905
 10
17.0200368472
 20
-3.4200194554
 10
17.0217853576
 20
-3.4362494779
 10
17.0230773652
 20
-3.4532364987
 10
17.0238450683
 20
-3.471092132
 10
17.0240271813
 20
-3.4849828337
  0
LWPOLYLINE
  5
446
100
AcDbEntity
  8
RACCORDO
100
AcDbPolyline
 62
7
  6
CONTINUOUS
 90
121
 70
0
 10
16.8399811631
 20
-3.1249541787
 10
16.8895107831
 20
-3.078430275
 10
16.9374046644
 20
-3.0330984046
 10
16.9836628069
 20
-2.9889585675
 10
17.0282370915
 20
-2.9460450873
 10
17.0711756373
 20
-2.9043236403
 10
17.1126228017
 20
-2.8636912562
 10
17.1525860245
 20
-2.8241419826
 10
17.1910578659
 20
-2.7856817717
 10
17.2281603642
 20
-2.7482255107
 10
17.2638941348
 20
-2.7117739925
 10
17.2982585622
 20
-2.6763264241
 10
17.3313738383
 20
-2.6417953136
 10
17.3632463499
 20
-2.6081754405
 10
17.3938697101
 20
-2.5754720253
 10
17.42334495
 20
-2.5436132371
 10
17.4516825078
 20
-2.5125883037
 10
17.4788719453
 20
-2.4824079972
 10
17.5049829787
 20
-2.4530328029
 10
17.5300129183
 20
-2.4244658939
 10
17.5539644538
 20
-2.3967040969
 10
17.5769153703
 20
-2.3696983784
 10
17.5988649013
 20
-2.3434503698
 10
17.6198138134
 20
-2.3179584396
 10
17.6398421913
 20
-2.2931686587
 10
17.658953509
 20
-2.2690774403
 10
17.6771442925
 20
-2.2456883711
 10
17.694484205
 20
-2.2229582823
 10
17.71097497
 20
-2.200885201
 10
17.7266148641
 20
-2.1794711
 10
17.7414683801
 20
-2.1586787295
 10
17.7555370671
 20
-2.1385057282
 10
17.768819376
 20
-2.1189544574
 10
17.7813751532
 20
-2.0999947515
 10
17.79320512
 20
-2.0816246464
 10
17.8043085551
 20
-2.0638461062
 10
17.8147431404
 20
-2.046634858
 10
17.8245089494
 20
-2.0299890295
 10
17.8336059087
 20
-2.013910493
 10
17.8420914802
 20
-1.9983805923
 10
17.8499645893
 20
-1.9833986794
 10
17.8572263105
 20
-1.9689654023
 10
17.8639373295
 20
-1.955064049
 10
17.8700938289
 20
-1.9417014509
 10
17.8756996261
 20
-1.9288707765
 10
17.8808268582
 20
-1.9165348189
 10
17.8854727442
 20
-1.9047062823
 10
17.8896400652
 20
-1.8933724624
 10
17.8934093016
 20
-1.8824580405
 10
17.8967843096
 20
-1.87196779
 10
17.8997612329
 20
-1.8618969374
 10
17.9024089837
 20
-1.8521558434
 10
17.9047351515
 20
-1.8427396063
 10
17.9067321468
 20
-1.8336531278
 10
17.9084461125
 20
-1.8248214734
 10
17.9098837963
 20
-1.8162391366
 10
17.9110384506
 20
-1.807911624
 10
17.9119359753
 20
-1.7997805208
 10
17.9125821158
 20
-1.7918419557
 10
17.9129711268
 20
-1.7840998
 10
17.9131116718
 20
-1.7765072526
 10
17.9130092434
 20
-1.7690610098
 10
17.9126583491
 20
-1.7617643753
 10
17.9120511749
 20
-1.7545804599
 10
17.9111934468
 20
-1.7475062835
 10
17.9100794388
 20
-1.740544826
 10
17.908684159
 20
-1.7336681385
 10
17.9070142203
 20
-1.7268735003
 10
17.9050630098
 20
-1.720163632
 10
17.902785697
 20
-1.7135187457
 10
17.9001902415
 20
-1.7069354461
 10
17.8972686836
 20
-1.7004171285
 10
17.893952314
 20
-1.6939541912
 10
17.8902459522
 20
-1.68753761
 10
17.8861447786
 20
-1.6811764092
 10
17.8815656251
 20
-1.67488806
 10
17.8765050086
 20
-1.6686615008
 10
17.8709664122
 20
-1.6625077933
 10
17.8648771161
 20
-1.6564775938
 10
17.8582327385
 20
-1.6505685052
 10
17.8510376612
 20
-1.6447829247
 10
17.8432323108
 20
-1.6391786998
 10
17.8348162359
 20
-1.633758424
 10
17.8257898878
 20
-1.6285195039
 10
17.8160950474
 20
-1.623512006
 10
17.8057314853
 20
-1.6187375776
 10
17.7946994309
 20
-1.6141945714
 10
17.7829413524
 20
-1.6099281132
 10
17.7704580271
 20
-1.6059393883
 10
17.7572486778
 20
-1.6022272112
 10
17.7432534408
 20
-1.5988331511
 10
17.7284737533
 20
-1.5957577358
 10
17.7129081782
 20
-1.5930004373
 10
17.6964925407
 20
-1.5906012408
 10
17.679228816
 20
-1.5885600974
 10
17.6611150288
 20
-1.5868770558
 10
17.6420810789
 20
-1.5855922478
 10
17.6221293341
 20
-1.5847051459
 10
17.6012574266
 20
-1.5842162775
 10
17.5793881525
 20
-1.5841673564
 10
17.5565242323
 20
-1.5845574725
 10
17.5326629454
 20
-1.585387536
 10
17.5077189269
 20
-1.5867019911
 10
17.4816952195
 20
-1.5884996113
 10
17.4545887805
 20
-1.5907816231
 10
17.4263051162
 20
-1.5935961503
 10
17.3968474968
 20
-1.5969417103
 10
17.3662126521
 20
-1.6008197856
 10
17.3342962773
 20
-1.6052829483
 10
17.3011019168
 20
-1.6103294937
 10
17.2666260261
 20
-1.6159611264
 10
17.2307536677
 20
-1.6222355317
 10
17.1934887224
 20
-1.629150789
 10
17.1548273092
 20
-1.636708819
 10
17.1146428478
 20
-1.6449730686
 10
17.0729419503
 20
-1.6539407825
 10
17.0297180045
 20
-1.6636147161
 10
16.9848245935
 20
-1.6740665822
 10
16.9382129116
 20
-1.6853202851
 10
16.8899317645
 20
-1.6973519205
 10
16.8399811521
 20
-1.7101614885
  0
LINE
  5
447
100
AcDbEntity
  8
RACCORDO
100
AcDbLine
 62
253
  6
CONTINUOUS
 10
17.0427958592
 20
-3.4527614803
 11
17.0303884216
 21
-3.464379878
  0
LINE
  5
448
100
AcDbEntity
  8
RACCORDO
100
AcDbLine
 62
253
  6
CONTINUOUS
 10
17.0303884216
 20
-3.464379878
 11
17.026597462
 21
-3.4676406834
  0
LINE
  5
449
100
AcDbEntity
  8
RACCORDO
100
AcDbLine
 62
7
  6
CONTINUOUS
 10
-6.5629789889
 20
-19.1992206891
 11
-6.5640448457
 21
-19.1998314837
  0
LINE
  5
44A
100
AcDbEntity
  8
RACCORDO
100
AcDbLine
 62
7
  6
CONTINUOUS
 10
-6.6987461715
 20
-19.2275767778
 11
-6.5303352086
 21
-19.1333921568
  0
LINE
  5
44B
100
AcDbEntity
  8
RACCORDO
100
AcDbLine
 62
253
  6
CONTINUOUS
 10
-6.6097907299
 20
-19.0820147063
 11
-6.5171631028
 21
-19.0302467062
  0
LWPOLYLINE
  5
44C
100
AcDbEntity
  8
RACCORDO
100
AcDbPolyline
 62
253
  6
CONTINUOUS
 90
16
 70
0
 10
-2.8725502611
 20
-17.0144727955
 10
-2.9115838408
 20
-17.0348889189
 10
-2.9539206071
 20
-17.0528612597
 10
-2.999106949
 20
-17.0681972557
 10
-3.0466587243
 20
-17.0807325919
 10
-3.0960664466
 20
-17.0903329603
 10
-3.1468007443
 20
-17.0968954991
 10
-3.1983180326
 20
-17.100349895
 10
-3.250066337
 20
-17.1006591364
 10
-3.3014912083
 20
-17.09781991
 10
-3.3520416623
 20
-17.0918626363
 10
-3.4011760839
 20
-17.0828511436
 10
-3.4483680297
 20
-17.0708819841
 10
-3.4931118686
 20
-17.0560833995
 10
-3.5349281997
 20
-17.0386139473
 10
-3.573368988
 20
-17.018660801
  0
LINE
  5
44D
100
AcDbEntity
  8
DRAFT
100
AcDbLine
 62
7
  6
CONTINUOUS
 10
1.7452775131
 20
-16.3803914292
 11
2.6902882878
 21
-15.9008860962
  0
LWPOLYLINE
  5
44E
100
AcDbEntity
  8
RACCORDO
100
AcDbPolyline
 62
253
  6
CONTINUOUS
 90
5
 70
0
 10
-6.5640399874
 20
-19.1998285925
 10
-6.5764083004
 20
-19.206000878
 10
-6.5947148635
 20
-19.2120225247
 10
-6.6145499801
 20
-19.2152182367
 10
-6.6357574055
 20
-19.2155772366
  0
LWPOLYLINE
  5
44F
100
AcDbEntity
  8
0
100
AcDbPolyline
 62
7
  6
CONTINUOUS
 90
19
 70
0
 10
-11.4025579018
 20
22.822180092
 10
-11.4149658088
 20
22.8288848846
 10
-11.4278206742
 20
22.8349178854
 10
-11.4410784403
 20
22.8402412026
 10
-11.454697301
 20
22.8448224825
 10
-11.4686198795
 20
22.8486290701
 10
-11.4827742126
 20
22.8516322652
 10
-11.4970928327
 20
22.8538133027
 10
-11.5115296213
 20
22.8551624993
 10
-11.5260455063
 20
22.855672617
 10
-11.5405715382
 20
22.8553386037
 10
-11.555062863
 20
22.8541602441
 10
-11.5695205999
 20
22.8521313597
 10
-11.58392846
 20
22.8492404457
 10
-11.5981895261
 20
22.8454938808
 10
-11.6121955021
 20
22.8409164662
 10
-11.6259075519
 20
22.8355218153
 10
-11.639277799
 20
22.8293287746
 10
-11.6503797861
 20
22.8234299973
  0
LWPOLYLINE
  5
450
100
AcDbEntity
  8
0
100
AcDbPolyline
 62
7
  6
CONTINUOUS
 90
19
 70
0
 10
-4.2120989134
 20
17.5688559642
 10
-4.2182673108
 20
17.5722622994
 10
-4.2244241608
 20
17.575351235
 10
-4.2305576478
 20
17.5781169462
 10
-4.2366559183
 20
17.580554273
 10
-4.2427073604
 20
17.5826585752
 10
-4.2487006269
 20
17.5844257421
 10
-4.2546242396
 20
17.5858524489
 10
-4.260466832
 20
17.5869360309
 10
-4.266217429
 20
17.5876743343
 10
-4.2718650277
 20
17.5880659849
 10
-4.2773987983
 20
17.5881102815
 10
-4.282808326
 20
17.5878070648
 10
-4.2880832716
 20
17.5871569348
 10
-4.2932135273
 20
17.5861611662
 10
-4.2981894175
 20
17.5848215974
 10
-4.3030014436
 20
17.5831407928
 10
-4.3076403931
 20
17.5811219808
 10
-4.3113752665
 20
17.5791798852
  0
LWPOLYLINE
  5
451
100
AcDbEntity
  8
0
100
AcDbPolyline
 62
253
  6
CONTINUOUS
 90
18
 70
0
 10
0.9010985823
 20
15.7182030391
 10
0.8984524811
 20
15.7196674331
 10
0.8922657494
 20
15.7226280984
 10
0.8858177728
 20
15.7250918477
 10
0.8791230395
 20
15.7270531542
 10
0.8721965633
 20
15.7285076203
 10
0.8650538529
 20
15.7294519766
 10
0.8577110354
 20
15.7298840789
 10
0.8501847887
 20
15.7298029581
 10
0.8424921545
 20
15.7292088369
 10
0.8346503419
 20
15.7281030825
 10
0.8266768429
 20
15.7264881751
 10
0.8185883655
 20
15.7243673897
 10
0.8104042942
 20
15.7217457016
 10
0.8021466234
 20
15.7186304609
 10
0.7938352027
 20
15.7150298599
 10
0.7854875703
 20
15.7109521949
 10
0.7771224901
 20
15.7064072273
  0
LWPOLYLINE
  5
452
100
AcDbEntity
  8
0
100
AcDbPolyline
 62
253
  6
CONTINUOUS
 90
18
 70
0
 10
-9.7116813706
 20
21.8458891744
 10
-9.7143259604
 20
21.8473526959
 10
-9.7205126921
 20
21.8503133611
 10
-9.7269606687
 20
21.8527771104
 10
-9.733655402
 20
21.854738417
 10
-9.7405818782
 20
21.8561928831
 10
-9.7477245886
 20
21.8571372394
 10
-9.7550674061
 20
21.8575693417
 10
-9.7625936528
 20
21.8574882209
 10
-9.770286287
 20
21.8568940996
 10
-9.7781280996
 20
21.8557883452
 10
-9.7861015986
 20
21.8541734379
 10
-9.794190076
 20
21.8520526525
 10
-9.8023741473
 20
21.8494309644
 10
-9.8106318181
 20
21.8463157237
 10
-9.8189432388
 20
21.8427151227
 10
-9.8272908712
 20
21.8386374577
 10
-9.8356559514
 20
21.8340924901
  0
LWPOLYLINE
  5
453
100
AcDbEntity
  8
0
100
AcDbPolyline
 62
253
  6
CONTINUOUS
 90
18
 70
0
 10
2.591979642
 20
14.741909507
 10
2.5893463786
 20
14.7433671673
 10
2.5831610877
 20
14.7463286575
 10
2.5767145404
 20
14.7487933879
 10
2.5700212323
 20
14.7507558162
 10
2.5630962138
 20
14.7522115299
 10
2.5559550564
 20
14.7531572557
 10
2.5486138174
 20
14.7535908669
 10
2.5410890042
 20
14.7535113887
 10
2.5333975369
 20
14.7529189996
 10
2.5255567104
 20
14.7518150319
 10
2.5175841553
 20
14.7502019677
 10
2.5094977986
 20
14.7480834342
 10
2.5013158229
 20
14.7454641951
 10
2.4930566262
 20
14.7423501399
 10
2.4847387799
 20
14.7387482709
 10
2.4763809872
 20
14.7346666871
 10
2.4680020413
 20
14.7301145662
  0
LINE
  5
454
100
AcDbEntity
  8
0
100
AcDbLine
 62
253
  6
CONTINUOUS
 10
-11.4025579018
 20
22.822180092
 11
-11.4051911652
 21
22.8236377523
  0
LINE
  5
455
100
AcDbEntity
  8
0
100
AcDbLine
 62
7
  6
CONTINUOUS
 10
1.9397348695
 20
14.425099377
 11
0.2426726114
 21
15.4049618556
  0
LINE
  5
456
100
AcDbEntity
  8
0
100
AcDbLine
 62
7
  6
CONTINUOUS
 10
-10.3639231231
 20
21.5290773009
 11
-12.0609853812
 21
22.5089397795
  0
LINE
  5
457
100
AcDbEntity
  8
0
100
AcDbLine
 62
7
  6
CONTINUOUS
 10
-6.8671980573
 20
19.8974221604
 11
-5.2222498129
 21
18.9476496601
  0
LINE
  5
458
100
AcDbEntity
  8
0
100
AcDbLine
 62
7
  6
CONTINUOUS
 10
-3.5131025783
 20
17.9608094675
 11
-1.8681543339
 21
17.0110369672
  0
LINE
  5
459
100
AcDbEntity
  8
0
100
AcDbLine
 62
253
  6
CONTINUOUS
 10
-11.5265355025
 20
22.8103851512
 11
-9.8356559514
 21
21.8340924901
  0
LINE
  5
45A
100
AcDbEntity
  8
0
100
AcDbLine
 62
253
  6
CONTINUOUS
 10
0.7771224901
 20
15.7064072273
 11
2.4680020413
 21
14.7301145662
  0
LINE
  5
45B
100
AcDbEntity
  8
0
100
AcDbLine
 62
7
  6
CONTINUOUS
 10
-11.4025579018
 20
22.822180092
 11
-9.7116783507
 21
21.8458874309
  0
LINE
  5
45C
100
AcDbEntity
  8
0
100
AcDbLine
 62
7
  6
CONTINUOUS
 10
0.9011000908
 20
15.7182021681
 11
2.591979642
 21
14.741909507
  0
LINE
  5
45D
100
AcDbEntity
  8
RACCORDO
100
AcDbLine
 62
7
  6
CONTINUOUS
 10
-0.2850165019
 20
17.9145782517
 11
-3.1514369466
 21
19.5696134918
  0
LWPOLYLINE
  5
45E
100
AcDbEntity
  8
0
100
AcDbPolyline
 62
253
  6
CONTINUOUS
 90
34
 70
0
 10
-9.8356559514
 20
21.8340924901
 10
-9.8271971334
 20
21.8290321246
 10
-9.8187598062
 20
21.8235195127
 10
-9.8103630822
 20
21.8175671416
 10
-9.8020259818
 20
21.8111884948
 10
-9.7937673905
 20
21.8043980214
 10
-9.7856060159
 20
21.7972111034
 10
-9.7775603452
 20
21.7896440206
 10
-9.7696486037
 20
21.7817139142
 10
-9.7618887132
 20
21.7734387478
 10
-9.7542982518
 20
21.7648372664
 10
-9.7468944134
 20
21.7559289542
 10
-9.7396939694
 20
21.7467339907
 10
-9.7327132305
 20
21.7372732044
 10
-9.7259680095
 20
21.7275680262
 10
-9.7194735859
 20
21.7176404405
 10
-9.7132446711
 20
21.7075129355
 10
-9.7072953749
 20
21.6972084522
 10
-9.7016391737
 20
21.6867503326
 10
-9.6962888803
 20
21.6761622666
 10
-9.6912566141
 20
21.6654682388
 10
-9.6865537745
 20
21.6546924733
 10
-9.6821910143
 20
21.6438593797
 10
-9.6781782162
 20
21.6329934975
 10
-9.6745244702
 20
21.6221194402
 10
-9.6712380526
 20
21.61126184
 10
-9.6683264081
 20
21.6004452919
 10
-9.6657961322
 20
21.5896942978
 10
-9.6636529564
 20
21.5790332109
 10
-9.6619017356
 20
21.5684861812
 10
-9.6605464367
 20
21.5580771
 10
-9.6595901296
 20
21.5478295462
 10
-9.6590349808
 20
21.5377667327
 10
-9.6588822477
 20
21.5279114542
  0
LWPOLYLINE
  5
45F
100
AcDbEntity
  8
0
100
AcDbPolyline
 62
253
  6
CONTINUOUS
 90
34
 70
0
 10
2.4680020413
 20
14.7301145662
 10
2.4764469587
 20
14.7250628985
 10
2.4848741007
 20
14.7195579907
 10
2.4932643843
 20
14.713611709
 10
2.5015999569
 20
14.707236003
 10
2.5098606512
 20
14.7004455898
 10
2.5180241542
 20
14.6932585048
 10
2.526070774
 20
14.6856921923
 10
2.5339835072
 20
14.6777627507
 10
2.5417445707
 20
14.6694879868
 10
2.549336472
 20
14.6608865125
 10
2.5567418953
 20
14.6519779071
 10
2.5639438986
 20
14.6427825391
 10
2.5709261014
 20
14.6333213351
 10
2.5776727534
 20
14.6236156499
 10
2.5841686121
 20
14.613687411
 10
2.5903989733
 20
14.6035590826
 10
2.5963496989
 20
14.5932536388
 10
2.6020072926
 20
14.5827944473
 10
2.6073589309
 20
14.5722052112
 10
2.6123924892
 20
14.561509918
 10
2.617096559
 20
14.5507328045
 10
2.6214604809
 20
14.5398982879
 10
2.6254743645
 20
14.529030919
 10
2.6291291107
 20
14.5181553299
 10
2.6324164371
 20
14.5072961648
 10
2.6353288948
 20
14.4964780275
 10
2.6378598829
 20
14.4857254339
 10
2.640003667
 20
14.4750627431
 10
2.6417553878
 20
14.4645141206
 10
2.6431110736
 20
14.4541034862
 10
2.6440676537
 20
14.4438544344
 10
2.6446229631
 20
14.4337901813
 10
2.644775745
 20
14.4239335303
  0
LWPOLYLINE
  5
460
100
AcDbEntity
  8
0
100
AcDbPolyline
 62
7
  6
CONTINUOUS
 90
34
 70
0
 10
1.9397348695
 20
14.425099377
 10
1.948145945
 20
14.4200115573
 10
1.9565381626
 20
14.4144730029
 10
1.9648924103
 20
14.4084961985
 10
1.9731895843
 20
14.4020945761
 10
1.9814108826
 20
14.3952826312
 10
1.9895378484
 20
14.3880758906
 10
1.9975520138
 20
14.3804906432
 10
2.0054351332
 20
14.3725440175
 10
2.0131694754
 20
14.3642540899
 10
2.0207374829
 20
14.3556396162
 10
2.0281219399
 20
14.3467200679
 10
2.0353062024
 20
14.3375157035
 10
2.0422739811
 20
14.3280473634
 10
2.0490094403
 20
14.3183364661
 10
2.055497363
 20
14.308405039
 10
2.0617230596
 20
14.2982755833
 10
2.0676723976
 20
14.2879710277
 10
2.073331897
 20
14.27751472
 10
2.0786887673
 20
14.2669303637
 10
2.083730867
 20
14.2562419307
 10
2.0884467282
 20
14.245473613
 10
2.09282572
 20
14.2346498335
 10
2.0968579389
 20
14.2237951191
 10
2.1005341628
 20
14.2129340126
 10
2.1038461371
 20
14.2020911588
 10
2.106786398
 20
14.1912911401
 10
2.1093481566
 20
14.1805583498
 10
2.1115257025
 20
14.1699171526
 10
2.1133141634
 20
14.1593916859
 10
2.1147093217
 20
14.1490056964
 10
2.1157080254
 20
14.1387827138
 10
2.1163081943
 20
14.1287459978
 10
2.1165085732
 20
14.1189183411
  0
LWPOLYLINE
  5
461
100
AcDbEntity
  8
0
100
AcDbPolyline
 62
7
  6
CONTINUOUS
 90
19
 70
0
 10
2.591979642
 20
14.741909507
 10
2.6040160311
 20
14.7344984174
 10
2.6156904713
 20
14.7263625864
 10
2.6269480119
 20
14.7175216822
 10
2.6377391194
 20
14.7079967251
 10
2.6480074817
 20
14.6978210692
 10
2.6576938158
 20
14.6870414169
 10
2.6667481239
 20
14.6757068105
 10
2.6751385315
 20
14.6638528855
 10
2.6828396651
 20
14.6515091523
 10
2.6898122858
 20
14.638733255
 10
2.6960335698
 20
14.6255641737
 10
2.7014989712
 20
14.6119967765
 10
2.7061899492
 20
14.5980395488
 10
2.7100630701
 20
14.5837805282
 10
2.7130855335
 20
14.5693260828
 10
2.7152493835
 20
14.5547176666
 10
2.7165469127
 20
14.5400067311
 10
2.716973602
 20
14.525406808
  0
LWPOLYLINE
  5
462
100
AcDbEntity
  8
0
100
AcDbPolyline
 62
7
  6
CONTINUOUS
 90
14
 70
0
 10
-1.053986842
 20
19.7524458943
 10
-0.9164486823
 20
19.6434541602
 10
-0.7760486716
 20
19.5357573605
 10
-0.6327868099
 20
19.4293554952
 10
-0.486618051
 20
19.3242174423
 10
-0.337587441
 20
19.2203743239
 10
-0.185830119
 20
19.1179195058
 10
-0.0313661585
 20
19.016868182
 10
0.125824514
 20
18.9172051586
 10
0.285666981
 20
18.818978219
 10
0.4481911314
 20
18.7221716148
 10
0.6133670762
 20
18.6268010944
 10
0.7810302309
 20
18.5329616869
 10
0.7899777433
 20
18.5281077003
  0
LWPOLYLINE
  5
463
100
AcDbEntity
  8
RACCORDO
100
AcDbPolyline
 62
253
  6
CONTINUOUS
 90
98
 70
0
 10
17.024027184
 20
2.1119594356
 10
17.0248860408
 20
2.1111213313
 10
17.0689756218
 20
2.0669415956
 10
17.1127297036
 20
2.0219342343
 10
17.1561305649
 20
1.9761174784
 10
17.1991606134
 20
1.9295098999
 10
17.2418024054
 20
1.882130393
 10
17.2840386413
 20
1.8339981794
 10
17.3258521818
 20
1.7851327915
 10
17.3672260548
 20
1.735554066
 10
17.4081434978
 20
1.6852820915
 10
17.4485879527
 20
1.6343372112
 10
17.4885430402
 20
1.5827400537
 10
17.5279925321
 20
1.5305115728
 10
17.566920394
 20
1.4776729964
 10
17.605310819
 20
1.4242457827
 10
17.64314826
 20
1.3702515708
 10
17.6804173997
 20
1.3157122187
 10
17.7171031412
 20
1.2606498164
 10
17.7531905879
 20
1.2050867205
 10
17.7886650772
 20
1.1490455064
 10
17.8235122051
 20
1.0925489324
 10
17.8577178594
 20
1.0356198807
 10
17.8912681977
 20
0.97828139
 10
17.9241496312
 20
0.92055668
 10
17.9563488053
 20
0.8624691924
 10
17.9878526346
 20
0.8040425332
 10
18.0186483271
 20
0.7453004294
 10
18.0487234122
 20
0.6862666719
 10
18.0780657176
 20
0.6269651537
 10
18.1066633576
 20
0.5674198922
 10
18.1345047182
 20
0.5076550667
 10
18.1615784866
 20
0.4476949612
 10
18.1878736707
 20
0.3875639234
 10
18.2133796218
 20
0.3272863084
 10
18.2380860157
 20
0.2668865153
 10
18.2619828435
 20
0.2063890089
 10
18.2850604007
 20
0.145818353
 10
18.3073093121
 20
0.0851991548
 10
18.3287205459
 20
0.0245560257
 10
18.3492854302
 20
-0.0360864686
 10
18.3689956386
 20
-0.0967037749
 10
18.3878431847
 20
-0.1572713352
 10
18.4058204157
 20
-0.2177645618
 10
18.4229200306
 20
-0.2781588863
 10
18.4391350896
 20
-0.3384297942
 10
18.454459024
 20
-0.3985528655
 10
18.4688856273
 20
-0.4585037489
 10
18.4824090524
 20
-0.5182581504
 10
18.4950238097
 20
-0.5777918181
 10
18.5067247777
 20
-0.6370805826
 10
18.5175072091
 20
-0.6961003848
 10
18.5273667349
 20
-0.7548273052
 10
18.53629936
 20
-0.8132375478
 10
18.5443014631
 20
-0.8713074362
 10
18.5513697965
 20
-0.9290134088
 10
18.5575014921
 20
-0.9863320489
 10
18.5626940627
 20
-1.043240104
 10
18.5669454038
 20
-1.0997145032
 10
18.5702537919
 20
-1.1557323525
 10
18.5726178853
 20
-1.2112709379
 10
18.574036725
 20
-1.2663077322
 10
18.5745097353
 20
-1.3208204129
 10
18.5740367245
 20
-1.374786873
 10
18.5726178843
 20
-1.4281852266
 10
18.5702537904
 20
-1.4809938158
 10
18.5669454017
 20
-1.533191221
 10
18.5626940602
 20
-1.5847562778
 10
18.5575014891
 20
-1.6356680821
 10
18.551369793
 20
-1.6859059935
 10
18.544301459
 20
-1.7354496315
 10
18.5362993555
 20
-1.7842788915
 10
18.5273667298
 20
-1.8323739621
 10
18.5175072036
 20
-1.8797153488
 10
18.5067247717
 20
-1.926283869
 10
18.4950238032
 20
-1.9720606485
 10
18.4824090454
 20
-2.0170271103
 10
18.4688856198
 20
-2.0611649991
 10
18.4544590161
 20
-2.1044564021
 10
18.4391350812
 20
-2.1468837776
 10
18.4229200217
 20
-2.1884299413
 10
18.4058204064
 20
-2.2290780587
 10
18.3878431749
 20
-2.268811629
 10
18.3689956283
 20
-2.3076145151
 10
18.3492854194
 20
-2.3454709662
 10
18.3287205347
 20
-2.3823656471
 10
18.3073093004
 20
-2.4182836196
 10
18.2850603886
 20
-2.4532103321
 10
18.261982831
 20
-2.4871316027
 10
18.2380860028
 20
-2.5200336508
 10
18.2133796085
 20
-2.5519031191
 10
18.1878736568
 20
-2.5827271006
 10
18.1615784723
 20
-2.6124931182
 10
18.1345047036
 20
-2.641189114
 10
18.1066633426
 20
-2.6688034336
 10
18.0780657022
 20
-2.6953248565
 10
18.0487233964
 20
-2.7207426154
 10
18.0186483108
 20
-2.7450464179
  0
LWPOLYLINE
  5
464
100
AcDbEntity
  8
0
100
AcDbPolyline
 62
7
  6
CONTINUOUS
 90
8
 70
0
 10
9.5194391305
 20
17.0761779277
 10
9.5166267633
 20
17.0875519417
 10
9.5108815142
 20
17.1150647421
 10
9.5061771225
 20
17.1426433604
 10
9.5025158272
 20
17.1702746705
 10
9.4998993708
 20
17.1979455215
 10
9.4983289987
 20
17.2256427435
 10
9.4978054583
 20
17.2533531542
  0
LINE
  5
465
100
AcDbEntity
  8
DRAFT
100
AcDbLine
 62
7
  6
CONTINUOUS
 10
12.1880599493
 20
16.792908725
 11
12.1988003438
 21
16.7287774672
  0
LWPOLYLINE
  5
466
100
AcDbEntity
  8
RACCORDO
100
AcDbPolyline
 62
7
  6
CONTINUOUS
 90
31
 70
0
 10
17.0240271749
 20
16.9366207702
 10
17.0237370829
 20
16.9702678693
 10
17.0225910398
 20
17.0117079624
 10
17.0205797492
 20
17.0532777405
 10
17.0177065473
 20
17.0949927194
 10
17.0139770248
 20
17.1368256341
 10
17.0094030672
 20
17.1787035494
 10
17.0039919011
 20
17.2206224734
 10
16.997750089
 20
17.262576627
 10
16.9906961029
 20
17.3044884831
 10
16.9828391934
 20
17.3463536005
 10
16.9741874669
 20
17.3881674284
 10
16.9647661063
 20
17.4298503003
 10
16.9545867876
 20
17.4713946404
 10
16.9436586278
 20
17.5127992985
 10
16.932010683
 20
17.5539922006
 10
16.9196596645
 20
17.594953521
 10
16.9066125071
 20
17.6356947613
 10
16.8928875024
 20
17.6761887927
 10
16.878497376
 20
17.7164257349
 10
16.8634505787
 20
17.7564064882
 10
16.8477597487
 20
17.7961178264
 10
16.8314343545
 20
17.835554381
 10
16.814482671
 20
17.8747115536
 10
16.7969165157
 20
17.9135753575
 10
16.7787443454
 20
17.9521391945
 10
16.7599728387
 20
17.9903980923
 10
16.7406119107
 20
18.0283399344
 10
16.7206687277
 20
18.0659570268
 10
16.7001485043
 20
18.1032444737
 10
16.6829773392
 20
18.133427378
  0
LINE
  5
467
100
AcDbEntity
  8
RACCORDO
100
AcDbLine
 62
253
  6
CONTINUOUS
 10
16.7433669843
 20
-12.0967731068
 11
16.7433669843
 21
-3.2483150655
  0
LINE
  5
468
100
AcDbEntity
  8
RACCORDO
100
AcDbLine
 62
253
  6
CONTINUOUS
 10
16.7433669843
 20
-1.7023322637
 11
16.7433669843
 21
6.1410931187
  0
LINE
  5
469
100
AcDbEntity
  8
RACCORDO
100
AcDbLine
 62
253
  6
CONTINUOUS
 10
16.7433669843
 20
7.6870759182
 11
16.7433669843
 21
16.5355339607
  0
LINE
  5
46A
100
AcDbEntity
  8
RACCORDO
100
AcDbLine
 62
7
  6
CONTINUOUS
 10
17.024027184
 20
-11.6956860698
 11
17.024027184
 21
-3.4850197937
  0
LINE
  5
46B
100
AcDbEntity
  8
RACCORDO
100
AcDbLine
 62
7
  6
CONTINUOUS
 10
17.0240271839
 20
-0.6634540636
 11
17.024027184
 21
5.9043882228
  0
LINE
  5
46C
100
AcDbEntity
  8
RACCORDO
100
AcDbLine
 62
7
  6
CONTINUOUS
 10
17.024027184
 20
8.7259548815
 11
17.024027184
 21
16.9366217489
  0
LWPOLYLINE
  5
46D
100
AcDbEntity
  8
RACCORDO
100
AcDbPolyline
 62
253
  6
CONTINUOUS
 90
63
 70
0
 10
17.0240271839
 20
-0.6634540636
 10
17.0238446961
 20
-0.6994555586
 10
17.0230765757
 20
-0.7455895642
 10
17.0217842264
 20
-0.7895359893
 10
17.0200354067
 20
-0.8315424186
 10
17.0178652603
 20
-0.8720717419
 10
17.015311175
 20
-0.9112403348
 10
17.0124243974
 20
-0.9489261447
 10
17.0092340552
 20
-0.9852346617
 10
17.0057757354
 20
-1.0201741777
 10
17.0020868996
 20
-1.0537351031
 10
16.9981894202
 20
-1.0859963666
 10
16.9941188485
 20
-1.1169190212
 10
16.9899005853
 20
-1.1465436156
 10
16.9855308145
 20
-1.1750678187
 10
16.9810286197
 20
-1.202510678
 10
16.976418102
 20
-1.2288551938
 10
16.97169234
 20
-1.2542438667
 10
16.9668641802
 20
-1.2786958138
 10
16.961952861
 20
-1.3021940625
 10
16.9569542879
 20
-1.324826127
 10
16.9518808702
 20
-1.3465956427
 10
16.9467457018
 20
-1.3675012608
 10
16.9415410925
 20
-1.3876223232
 10
16.9362679614
 20
-1.4069906257
 10
16.930944856
 20
-1.4255763616
 10
16.9255888701
 20
-1.4433663357
 10
16.9202096904
 20
-1.4603560184
 10
16.9148172613
 20
-1.4765529265
 10
16.9094298598
 20
-1.4919623928
 10
16.9040619245
 20
-1.506568408
 10
16.898718313
 20
-1.5203908043
 10
16.8934027633
 20
-1.5334888407
 10
16.888126201
 20
-1.5458573616
 10
16.8828944596
 20
-1.557505382
 10
16.877702223
 20
-1.5685131382
 10
16.8725605319
 20
-1.57887639
 10
16.8674722454
 20
-1.5886029486
 10
16.8624175818
 20
-1.5977905006
 10
16.8574063159
 20
-1.6064386752
 10
16.8524390714
 20
-1.6145506595
 10
16.8474793099
 20
-1.6222284425
 10
16.8425248963
 20
-1.6294871762
 10
16.8375841812
 20
-1.6363132452
 10
16.8326336757
 20
-1.6427644914
 10
16.8276671532
 20
-1.6488537003
 10
16.8226948053
 20
-1.6545688969
 10
16.8177167088
 20
-1.6599303849
 10
16.8127331814
 20
-1.6649390879
 10
16.8077477049
 20
-1.6695949646
 10
16.8027650797
 20
-1.6739168992
 10
16.7977889765
 20
-1.6779030715
 10
16.7928195704
 20
-1.6815563485
 10
16.7878563905
 20
-1.6849026661
 10
16.7829030991
 20
-1.6879417708
 10
16.7779595497
 20
-1.6906749454
 10
16.7730192325
 20
-1.6931303036
 10
16.7680858669
 20
-1.6953089842
 10
16.7631586594
 20
-1.6972107047
 10
16.7582237137
 20
-1.6988611564
 10
16.7532769145
 20
-1.7002689786
 10
16.7483243376
 20
-1.7014259725
 10
16.7433669843
 20
-1.7023323868
  0
LWPOLYLINE
  5
46E
100
AcDbEntity
  8
RACCORDO
100
AcDbPolyline
 62
253
  6
CONTINUOUS
 90
63
 70
0
 10
17.0240271839
 20
8.7259542014
 10
17.0238344985
 20
8.6889616167
 10
17.0230588875
 20
8.6430585738
 10
17.0217631076
 20
8.5992807316
 10
17.0200157271
 20
8.557453204
 10
17.0178493955
 20
8.5170696815
 10
17.0152975573
 20
8.4779766514
 10
17.0124120906
 20
8.4403334136
 10
17.0092274218
 20
8.4041025615
 10
17.0057850017
 20
8.369321581
 10
17.0021194151
 20
8.3359538997
 10
16.9982448175
 20
8.3038507962
 10
16.9941941296
 20
8.2730382433
 10
16.9899930184
 20
8.2434889043
 10
16.985631416
 20
8.2149749996
 10
16.9811238556
 20
8.1874603074
 10
16.9764952325
 20
8.1609796409
 10
16.9717400127
 20
8.1354129621
 10
16.966866092
 20
8.1107241842
 10
16.9618951981
 20
8.0869478315
 10
16.956838057
 20
8.0640702021
 10
16.9517084511
 20
8.0420944608
 10
16.9465196804
 20
8.0210149081
 10
16.9412803239
 20
8.0008045098
 10
16.9360049765
 20
7.9814734034
 10
16.9307032126
 20
7.9630082959
 10
16.9253741361
 20
7.9453472004
 10
16.9200254293
 20
7.928483051
 10
16.9146693694
 20
7.9124197827
 10
16.909310144
 20
7.8971121604
 10
16.9039543927
 20
7.8825559994
 10
16.8986130313
 20
7.8687521595
 10
16.8932959739
 20
7.8556629678
 10
16.888014048
 20
7.8432957091
 10
16.8827727409
 20
7.8316393835
 10
16.8775733129
 20
7.8206289228
 10
16.8724293488
 20
7.8102742287
 10
16.8673414983
 20
7.8005617102
 10
16.8622897465
 20
7.7913915758
 10
16.8572846313
 20
7.7827649725
 10
16.8523262156
 20
7.7746778551
 10
16.84737563
 20
7.7670237199
 10
16.8424302876
 20
7.7597863466
 10
16.8374989661
 20
7.7529804221
 10
16.8325570352
 20
7.7465468501
 10
16.8275978013
 20
7.7404722231
 10
16.8226318282
 20
7.7347691731
 10
16.8176592789
 20
7.7294180747
 10
16.8126803255
 20
7.724417968
 10
16.8076985233
 20
7.7197689593
 10
16.8027191076
 20
7.7154529876
 10
16.7977457277
 20
7.7114719775
 10
16.7927785434
 20
7.7078229726
 10
16.7878175555
 20
7.7044805558
 10
16.7828664211
 20
7.7014450775
 10
16.7779249918
 20
7.69871516
 10
16.7729872628
 20
7.6962629074
 10
16.7680569549
 20
7.6940872647
 10
16.7631332918
 20
7.6921884198
 10
16.758202932
 20
7.6905406182
 10
16.7532619658
 20
7.6891351881
 10
16.7483163093
 20
7.6879803345
 10
16.7433669843
 20
7.6870757963
  0
LWPOLYLINE
  5
46F
100
AcDbEntity
  8
RACCORDO
100
AcDbPolyline
 62
7
  6
CONTINUOUS
 90
9
 70
0
 10
17.0240274942
 20
5.9044393742
 10
17.0241305864
 20
5.9079742422
 10
17.0245634554
 20
5.9125253562
 10
17.0252525155
 20
5.9166177075
 10
17.0261220287
 20
5.9202420127
 10
17.0270752758
 20
5.9233006404
 10
17.0279592173
 20
5.9256095976
 10
17.0286459555
 20
5.9271291445
 10
17.0290746246
 20
5.9279532271
  0
LWPOLYLINE
  5
470
100
AcDbEntity
  8
RACCORDO
100
AcDbPolyline
 62
7
  6
CONTINUOUS
 90
9
 70
0
 10
17.0240275114
 20
-3.4849691358
 10
17.0241305769
 20
-3.4814342406
 10
17.0245633952
 20
-3.47688311
 10
17.0252524647
 20
-3.4727906518
 10
17.0261220198
 20
-3.4691662047
 10
17.027075296
 20
-3.4661074877
 10
17.0279592434
 20
-3.4637985167
 10
17.0286459745
 20
-3.4622789977
 10
17.0290746254
 20
-3.4614549551
  0
LWPOLYLINE
  5
471
100
AcDbEntity
  8
RACCORDO
100
AcDbPolyline
 62
7
  6
CONTINUOUS
 90
16
 70
0
 10
16.7433669843
 20
-3.2483150655
 10
16.7486969197
 20
-3.2393202083
 10
16.7541904485
 20
-3.2304035575
 10
16.7598475708
 20
-3.2215651131
 10
16.7656679161
 20
-3.2127928053
 10
16.7716518549
 20
-3.2040987039
 10
16.7778004988
 20
-3.1955190187
 10
16.7841185833
 20
-3.1870525792
 10
16.790601373
 20
-3.1787005558
 10
16.7972357724
 20
-3.1705026704
 10
16.8040255136
 20
-3.1624602197
 10
16.8109668645
 20
-3.1545719069
 10
16.818035534
 20
-3.1468735632
 10
16.8252234251
 20
-3.1393771325
 10
16.8325386348
 20
-3.132070671
 10
16.8399811631
 20
-3.1249541787
  0
LINE
  5
472
100
AcDbEntity
  8
0
100
AcDbLine
 62
253
  6
CONTINUOUS
 10
0.825126038
 20
-25.126081917
 11
0.2510941704
 21
-25.8341486399
  0
LINE
  5
473
100
AcDbEntity
  8
0
100
AcDbLine
 62
253
  6
CONTINUOUS
 10
1.2264483905
 20
-25.1852573897
 11
0.5152277824
 21
-26.062546045
  0
LINE
  5
474
100
AcDbEntity
  8
DRAFT
100
AcDbLine
 62
7
  6
CONTINUOUS
 10
4.225487262
 20
-16.287437552
 11
2.8236153544
 21
-17.0255338674
  0
LINE
  5
475
100
AcDbEntity
  8
DRAFT
100
AcDbLine
 62
7
  6
CONTINUOUS
 10
2.8236153544
 20
-17.0255338674
 11
1.7444412905
 21
-17.563071977
  0
LWPOLYLINE
  5
476
100
AcDbEntity
  8
RACCORDO
100
AcDbPolyline
 62
7
  6
CONTINUOUS
 90
22
 70
0
 10
-1.9270384002
 20
19.6649184996
 10
-1.9308633855
 20
19.6665235633
 10
-1.9344853716
 20
19.6677678812
 10
-1.9382067031
 20
19.6687904535
 10
-1.9420225332
 20
19.669589907
 10
-1.9459279429
 20
19.6701651641
 10
-1.9499185481
 20
19.6705157944
 10
-1.9539891557
 20
19.6706412324
 10
-1.9581345197
 20
19.6705412097
 10
-1.9623500217
 20
19.6702161483
 10
-1.9666301807
 20
19.6696662947
 10
-1.9709694815
 20
19.6688921908
 10
-1.9753631304
 20
19.6678951064
 10
-1.9798054185
 20
19.6666760953
 10
-1.9842906226
 20
19.6652365022
 10
-1.9888138352
 20
19.6635784305
 10
-1.9933691825
 20
19.6617037278
 10
-1.9979507957
 20
19.6596145244
 10
-2.0025537143
 20
19.6573137344
 10
-2.0071723074
 20
19.6548041659
 10
-2.011800281
 20
19.6520885204
 10
-2.0164316504
 20
19.6491699267
  0
LWPOLYLINE
  5
477
100
AcDbEntity
  8
RACCORDO
100
AcDbPolyline
 62
7
  6
CONTINUOUS
 90
51
 70
0
 10
-1.9270384242
 20
19.6649185134
 10
-1.9379192557
 20
19.6698623313
 10
-1.9609827296
 20
19.679872615
 10
-1.9844094141
 20
19.6894199131
 10
-2.0081834034
 20
19.6985052362
 10
-2.0322908565
 20
19.7071298482
 10
-2.0567143259
 20
19.7152932089
 10
-2.0814363943
 20
19.7229952739
 10
-2.1064424956
 20
19.7302364777
 10
-2.1317150483
 20
19.7370161691
 10
-2.1572366901
 20
19.7433341484
 10
-2.1829923381
 20
19.7491903535
 10
-2.2089644516
 20
19.7545841937
 10
-2.2351353011
 20
19.7595153323
 10
-2.2614886697
 20
19.7639833682
 10
-2.2880060271
 20
19.7679877809
 10
-2.3146703328
 20
19.7715284433
 10
-2.3414668744
 20
19.7746051749
 10
-2.3683764384
 20
19.7772176089
 10
-2.395382548
 20
19.7793656875
 10
-2.4224741294
 20
19.7810494
 10
-2.4496332393
 20
19.7822684921
 10
-2.4768421343
 20
19.7830226238
 10
-2.5040898358
 20
19.7833114389
 10
-2.5313586964
 20
19.783134654
 10
-2.5586305957
 20
19.7824918078
 10
-2.5858938889
 20
19.7813822417
 10
-2.6131309964
 20
19.779805616
 10
-2.6403235641
 20
19.777761406
 10
-2.667459099
 20
19.7752487451
 10
-2.6945198404
 20
19.7722672344
 10
-2.7214873838
 20
19.7688163013
 10
-2.7483488422
 20
19.7648948639
 10
-2.7750888207
 20
19.7605019656
 10
-2.801686207
 20
19.755637315
 10
-2.8281204853
 20
19.7503010847
 10
-2.8543756347
 20
19.7444924914
 10
-2.8804312106
 20
19.7382115245
 10
-2.9062615301
 20
19.7314601427
 10
-2.9318487969
 20
19.7242383736
 10
-2.9571749452
 20
19.7165462424
 10
-2.9822157024
 20
19.7083861424
 10
-3.0069535334
 20
19.6997582533
 10
-3.0313708296
 20
19.690662839
 10
-3.0554449624
 20
19.6811023394
 10
-3.0791581381
 20
19.6710771172
 10
-3.1024938308
 20
19.6605870495
 10
-3.1254330246
 20
19.6496330246
 10
-3.1479583535
 20
19.6382148246
 10
-3.1700516799
 20
19.6263329618
 10
-3.1854076588
 20
19.6176489679
  0
LWPOLYLINE
  5
478
100
AcDbEntity
  8
0
100
AcDbPolyline
 62
253
  6
CONTINUOUS
 90
17
 70
0
 10
-11.4051911652
 20
22.8236377523
 10
-11.4113764561
 20
22.8265992425
 10
-11.4178230034
 20
22.8290639729
 10
-11.4245163115
 20
22.8310264013
 10
-11.43144133
 20
22.832482115
 10
-11.4385824874
 20
22.8334278407
 10
-11.4459237264
 20
22.833861452
 10
-11.4534485396
 20
22.8337819737
 10
-11.4611400069
 20
22.8331895847
 10
-11.4689808334
 20
22.8320856169
 10
-11.4769533885
 20
22.8304725527
 10
-11.4850397452
 20
22.8283540192
 10
-11.4932217208
 20
22.8257347801
 10
-11.5014809175
 20
22.822620725
 10
-11.5097987639
 20
22.8190188559
 10
-11.5181565566
 20
22.8149372721
 10
-11.5265355025
 20
22.8103851512
  0
LWPOLYLINE
  5
479
100
AcDbEntity
  8
RACCORDO
100
AcDbPolyline
 62
7
  6
CONTINUOUS
 90
3
 70
0
 10
-1.9222180458
 20
19.6624219444
 10
-1.9239342656
 20
19.6633753991
 10
-1.9270384002
 20
19.6649184996
  0
LINE
  5
47A
100
AcDbEntity
  8
RACCORDO
100
AcDbLine
 62
253
  6
CONTINUOUS
 10
0.3550708498
 20
18.279894105
 11
-2.0164317963
 21
19.649170011
  0
LINE
  5
47B
100
AcDbEntity
  8
RACCORDO
100
AcDbLine
 62
7
  6
CONTINUOUS
 10
0.41399329
 20
18.3135227987
 11
-1.9222180591
 21
19.662421952
  0
LINE
  5
47C
100
AcDbEntity
  8
0
100
AcDbLine
 62
7
  6
CONTINUOUS
 10
0.9290370454
 20
18.6074727549
 11
-1.053986842
 21
19.7524458943
  0
LINE
  5
47D
100
AcDbEntity
  8
0
100
AcDbLine
 62
7
  6
CONTINUOUS
 10
-1.0903368746
 20
20.5146705218
 11
1.5746484979
 21
18.9759413678
  0
LINE
  5
47E
100
AcDbEntity
  8
DRAFT
100
AcDbLine
 62
7
  6
CONTINUOUS
 10
9.6416583941
 20
14.9684061236
 11
8.8889643101
 21
16.2721105183
  0
LINE
  5
47F
100
AcDbEntity
  8
SMUSSO
100
AcDbLine
 62
7
  6
CONTINUOUS
 10
10.1421705397
 20
17.5090846623
 11
10.0369685155
 21
17.6913045385
  0
LINE
  5
480
100
AcDbEntity
  8
0
100
AcDbLine
 62
253
  6
CONTINUOUS
 10
9.7521395033
 20
19.1567932342
 11
10.1421705397
 21
18.1515572595
  0
LWPOLYLINE
  5
481
100
AcDbEntity
  8
RACCORDO
100
AcDbPolyline
 62
253
  6
CONTINUOUS
 90
63
 70
0
 10
17.024027184
 20
0.1148591454
 10
17.0304064548
 20
0.0921711041
 10
17.0428139554
 20
0.0441241549
 10
17.0543994237
 20
-0.004967163
 10
17.0651524624
 20
-0.0551258274
 10
17.0750166349
 20
-0.1063803397
 10
17.0839949632
 20
-0.1588872292
 10
17.092048695
 20
-0.2124885282
 10
17.0990689184
 20
-0.2667369071
 10
17.1050433841
 20
-0.3218919973
 10
17.1099672373
 20
-0.3776837871
 10
17.1137820299
 20
-0.4328584243
 10
17.1164651663
 20
-0.4872607942
 10
17.1180858189
 20
-0.5410201899
 10
17.118768293
 20
-0.5932984758
 10
17.1185369348
 20
-0.6439256759
 10
17.1174444361
 20
-0.6930462742
 10
17.1156780351
 20
-0.7402905226
 10
17.1132986611
 20
-0.7854004834
 10
17.1103266539
 20
-0.8286153785
 10
17.1068834391
 20
-0.8703124674
 10
17.10300528
 20
-0.9105528889
 10
17.0987103769
 20
-0.9492655117
 10
17.0940800606
 20
-0.9866310727
 10
17.089137503
 20
-1.0226844396
 10
17.0839022473
 20
-1.0573850255
 10
17.0784439039
 20
-1.0908011583
 10
17.0727915905
 20
-1.122896012
 10
17.066952191
 20
-1.1537032231
 10
17.0609569786
 20
-1.1833972305
 10
17.0548248245
 20
-1.2119809863
 10
17.0485640172
 20
-1.2394500627
 10
17.0421848595
 20
-1.2659680846
 10
17.0356967266
 20
-1.2915564501
 10
17.0291107343
 20
-1.3161932547
 10
17.0224362931
 20
-1.3399772792
 10
17.015682782
 20
-1.3629143797
 10
17.0088571573
 20
-1.3849987106
 10
17.0019629578
 20
-1.4063115334
 10
16.9950004988
 20
-1.4268741908
 10
16.9879824384
 20
-1.4466656164
 10
16.980929463
 20
-1.465703445
 10
16.9738405085
 20
-1.4839981712
 10
16.9667275393
 20
-1.5015396565
 10
16.9596300752
 20
-1.518314521
 10
16.9525575702
 20
-1.5343044337
 10
16.9455097424
 20
-1.5495280093
 10
16.9385107027
 20
-1.564027191
 10
16.9315690084
 20
-1.5777905054
 10
16.9246830317
 20
-1.5908295749
 10
16.9178605576
 20
-1.6032209033
 10
16.9111084826
 20
-1.6149597722
 10
16.9044247768
 20
-1.6260509153
 10
16.8978028744
 20
-1.636584966
 10
16.891252138
 20
-1.6465572856
 10
16.8847664493
 20
-1.655972426
 10
16.8783152706
 20
-1.6649348003
 10
16.871901576
 20
-1.6734511926
 10
16.865524438
 20
-1.6815146818
 10
16.8591469663
 20
-1.6892091453
 10
16.852757244
 20
-1.6965624944
 10
16.8463684608
 20
-1.703546646
 10
16.8399811521
 20
-1.7101614885
  0
LWPOLYLINE
  5
482
100
AcDbEntity
  8
RACCORDO
100
AcDbPolyline
 62
7
  6
CONTINUOUS
 90
43
 70
0
 10
16.3416250006
 20
-13.0047919881
 10
16.3588225408
 20
-12.994184881
 10
16.3874920385
 20
-12.975685886
 10
16.4157011863
 20
-12.9564448364
 10
16.4434225287
 20
-12.9364793252
 10
16.4706453886
 20
-12.9157962921
 10
16.4973747847
 20
-12.8943898953
 10
16.5235919787
 20
-12.8722719159
 10
16.5492787617
 20
-12.8494546685
 10
16.5744391501
 20
-12.8259302291
 10
16.599054533
 20
-12.8017105719
 10
16.6231067624
 20
-12.7768083976
 10
16.6465986012
 20
-12.7512141371
 10
16.6695123848
 20
-12.7249386033
 10
16.6918290619
 20
-12.6979956108
 10
16.7135475449
 20
-12.6703773279
 10
16.7346501585
 20
-12.6420953787
 10
16.7551187516
 20
-12.6131631287
 10
16.7749501415
 20
-12.5835727965
 10
16.7941267987
 20
-12.5533368194
 10
16.8126316472
 20
-12.5224681171
 10
16.830460834
 20
-12.4909568631
 10
16.8475950625
 20
-12.4588193665
 10
16.864020166
 20
-12.4260643189
 10
16.8797374384
 20
-12.3926666907
 10
16.8947269416
 20
-12.3586422754
 10
16.9089737006
 20
-12.3239981641
 10
16.9224814412
 20
-12.2886909933
 10
16.9352377783
 20
-12.2527080042
 10
16.9472145775
 20
-12.2160811379
 10
16.9583903905
 20
-12.1788300526
 10
16.9687483499
 20
-12.1409617494
 10
16.9782704218
 20
-12.1024887334
 10
16.9869368578
 20
-12.0634363209
 10
16.9947328694
 20
-12.023811973
 10
17.0016431471
 20
-11.9836265298
 10
17.0076508078
 20
-11.9429076491
 10
17.0127428749
 20
-11.9016627611
 10
17.0169061447
 20
-11.8599008461
 10
17.0201265609
 20
-11.8176485605
 10
17.0223920312
 20
-11.7749182789
 10
17.0236912495
 20
-11.7317122562
 10
17.0240271743
 20
-11.6956895629
  0
LWPOLYLINE
  5
483
100
AcDbEntity
  8
RACCORDO
100
AcDbPolyline
 62
253
  6
CONTINUOUS
 90
30
 70
0
 10
16.7433669843
 20
-12.0967731068
 10
16.7620281228
 20
-12.0853069504
 10
16.7801412178
 20
-12.0735514595
 10
16.7976928183
 20
-12.0615153636
 10
16.8146698905
 20
-12.0492076009
 10
16.831059827
 20
-12.0366373111
 10
16.8468504567
 20
-12.0238138291
 10
16.8620300533
 20
-12.0107466776
 10
16.8765873443
 20
-11.9974455603
 10
16.8905115195
 20
-11.9839203548
 10
16.9037922387
 20
-11.970181105
 10
16.9164196394
 20
-11.9562380136
 10
16.9283843447
 20
-11.9421014349
 10
16.9396774693
 20
-11.9277818668
 10
16.950290627
 20
-11.9132899431
 10
16.9602159364
 20
-11.8986364255
 10
16.9694460269
 20
-11.883832196
 10
16.9779740442
 20
-11.868888248
 10
16.9857936552
 20
-11.8538156792
 10
16.9928990532
 20
-11.8386256824
 10
16.9992849616
 20
-11.823329538
 10
17.0049466383
 20
-11.8079386047
 10
17.0098798787
 20
-11.7924643121
 10
17.0140810195
 20
-11.7769181515
 10
17.017546941
 20
-11.7613116675
 10
17.0202750691
 20
-11.7456564495
 10
17.0222633781
 20
-11.7299641233
 10
17.0235103915
 20
-11.714246342
 10
17.0240151831
 20
-11.6985147777
 10
17.024027184
 20
-11.6956895629
  0
LINE
  5
484
100
AcDbEntity
  8
RACCORDO
100
AcDbLine
 62
253
  6
CONTINUOUS
 10
3.5307221356
 20
-20.1089063391
 11
16.7433669843
 21
-12.0967731068
  0
LINE
  5
485
100
AcDbEntity
  8
RACCORDO
100
AcDbLine
 62
7
  6
CONTINUOUS
 10
4.225487262
 20
-20.352004651
 11
16.3416523304
 21
-13.0047755455
  0
LINE
  5
486
100
AcDbEntity
  8
0
100
AcDbLine
 62
7
  6
CONTINUOUS
 10
8.7811990809
 20
-17.6474943782
 11
4.7780948179
 21
-20.0169040399
  0
LINE
  5
487
100
AcDbEntity
  8
0
100
AcDbLine
 62
7
  6
CONTINUOUS
 10
3.5245513082
 20
-20.7887517159
 11
4.225487262
 21
-20.3840393923
  0
LINE
  5
488
100
AcDbEntity
  8
0
100
AcDbLine
 62
7
  6
CONTINUOUS
 10
-11.9870987851
 20
19.8315315696
 11
-11.3593398337
 21
19.7737268022
  0
LINE
  5
489
100
AcDbEntity
  8
0
100
AcDbLine
 62
253
  6
CONTINUOUS
 10
-11.7884302103
 20
19.9778176659
 11
-11.0772096022
 21
19.912327653
  0
LWPOLYLINE
  5
48A
100
AcDbEntity
  8
0
100
AcDbPolyline
 62
253
  6
CONTINUOUS
 90
16
 70
0
 10
12.3017386078
 20
16.7112530382
 10
12.2814960671
 20
16.7139750461
 10
12.1722672011
 20
16.725327891
 10
12.0621820842
 20
16.7334693251
 10
11.9515237431
 20
16.7383784169
 10
11.8405766787
 20
16.7400425449
 10
11.7296261415
 20
16.7384574302
 10
11.6189573945
 20
16.7336271483
 10
11.5088549777
 20
16.7255641191
 10
11.3996019574
 20
16.7142890732
 10
11.291479206
 20
16.6998309962
 10
11.1847646985
 20
16.6822270571
 10
11.0797328119
 20
16.661522516
 10
10.9766535997
 20
16.6377706068
 10
10.875792072
 20
16.6110323938
 10
10.8341975983
 20
16.5984946878
  0
LWPOLYLINE
  5
48B
100
AcDbEntity
  8
0
100
AcDbPolyline
 62
7
  6
CONTINUOUS
 90
15
 70
0
 10
12.3179636801
 20
16.7155855117
 10
12.2943726173
 20
16.7187986608
 10
12.1783762911
 20
16.7309099651
 10
12.0615759814
 20
16.7394637242
 10
11.9442766499
 20
16.7444470931
 10
11.8267497154
 20
16.7458555023
 10
11.7092910414
 20
16.7436894645
 10
11.5921894896
 20
16.7379563198
 10
11.4757052334
 20
16.7286672043
 10
11.3601300401
 20
16.7158403556
 10
11.2457490087
 20
16.6995001805
 10
11.1328066498
 20
16.6796699654
 10
11.0215754602
 20
16.6563808315
 10
10.9123455343
 20
16.6296739625
 10
10.8111181394
 20
16.6012046188
  0
LWPOLYLINE
  5
48C
100
AcDbEntity
  8
0
100
AcDbPolyline
 62
7
  6
CONTINUOUS
 90
15
 70
0
 10
3.5237457608
 20
19.3598881214
 10
3.5229412126
 20
19.360106451
 10
3.5212850826
 20
19.3600324645
 10
3.5189674548
 20
19.3595865405
 10
3.5160232232
 20
19.3587791336
 10
3.5124873001
 20
19.3576241078
 10
3.5083889613
 20
19.3561584682
 10
3.5037639401
 20
19.3543927548
 10
3.4986422371
 20
19.3523333344
 10
3.4930364158
 20
19.3500105079
 10
3.4869766171
 20
19.3474367454
 10
3.4804864148
 20
19.3446123372
 10
3.4735551936
 20
19.3415510399
 10
3.4661961633
 20
19.3382615957
 10
3.4502603724
 20
19.3310197119
  0
LWPOLYLINE
  5
48D
100
AcDbEntity
  8
0
100
AcDbPolyline
 62
7
  6
CONTINUOUS
 90
11
 70
0
 10
-2.0667008858
 20
22.5877405856
 10
-2.0667924376
 20
22.5877883237
 10
-2.0680443297
 20
22.5879761514
 10
-2.070029759
 20
22.5877441487
 10
-2.0727083978
 20
22.5871248379
 10
-2.0760377575
 20
22.5861262877
 10
-2.0799816092
 20
22.5847658173
 10
-2.084505126
 20
22.5830872926
 10
-2.0895727769
 20
22.5811110602
 10
-2.0951467747
 20
22.5788337795
 10
-2.1011908012
 20
22.5762619253
  0
LINE
  5
48E
100
AcDbEntity
  8
0
100
AcDbLine
 62
7
  6
CONTINUOUS
 10
-0.4451481482
 20
21.2954689997
 11
2.5791835566
 21
19.5492577771
  0
LINE
  5
48F
100
AcDbEntity
  8
0
100
AcDbLine
 62
253
  6
CONTINUOUS
 10
-2.8710270262
 20
22.8853925403
 11
-2.2545552014
 21
22.5294494348
  0
LINE
  5
490
100
AcDbEntity
  8
0
100
AcDbLine
 62
253
  6
CONTINUOUS
 10
2.7440201648
 20
19.6433346652
 11
3.3604919896
 21
19.2873915598
  0
LINE
  5
491
100
AcDbEntity
  8
0
100
AcDbLine
 62
7
  6
CONTINUOUS
 10
-2.5383703666
 20
22.8600768614
 11
-2.0667008802
 21
22.5877408113
  0
LINE
  5
492
100
AcDbEntity
  8
0
100
AcDbLine
 62
7
  6
CONTINUOUS
 10
3.0500464005
 20
19.6333898923
 11
3.5237457329
 21
19.3598870017
  0
LINE
  5
493
100
AcDbEntity
  8
DRAFT
100
AcDbLine
 62
7
  6
CONTINUOUS
 10
8.2130082485
 20
16.6623990766
 11
8.8889643101
 21
16.2721105183
  0
LINE
  5
494
100
AcDbEntity
  8
0
100
AcDbLine
 62
7
  6
CONTINUOUS
 10
1.3088895195
 20
21.5669917915
 11
4.4616895881
 21
19.7466045458
  0
LINE
  5
495
100
AcDbEntity
  8
0
100
AcDbLine
 62
253
  6
CONTINUOUS
 10
-2.3628176498
 20
24.1292646427
 11
0.5964182897
 21
22.4206388992
  0
LINE
  5
496
100
AcDbEntity
  8
0
100
AcDbLine
 62
253
  6
CONTINUOUS
 10
4.8469078993
 20
19.9664594698
 11
7.8061438388
 21
18.2578337263
  0
LWPOLYLINE
  5
497
100
AcDbEntity
  8
RACCORDO
100
AcDbPolyline
 62
253
  6
CONTINUOUS
 90
63
 70
0
 10
17.024027184
 20
9.5042732349
 10
17.0301063728
 20
9.4826920969
 10
17.0425153242
 20
9.434739186
 10
17.0541061236
 20
9.3857435866
 10
17.0648681784
 20
9.3356806168
 10
17.0747470299
 20
9.2845072786
 10
17.0837453549
 20
9.2320750555
 10
17.0918242059
 20
9.1785336257
 10
17.0988756779
 20
9.1242909405
 10
17.1048869189
 20
9.0691160405
 10
17.1098515633
 20
9.0132496237
 10
17.1137071474
 20
8.9578181258
 10
17.1164296803
 20
8.9027956911
 10
17.1180791366
 20
8.848231699
 10
17.118770933
 20
8.7953779104
 10
17.1185308474
 20
8.7446039085
 10
17.1174234365
 20
8.6955683942
 10
17.1156479673
 20
8.6484612394
 10
17.1132700074
 20
8.6035091288
 10
17.1103064419
 20
8.5605041937
 10
17.1068732628
 20
8.5189823976
 10
17.1030018468
 20
8.4788337796
 10
17.0987134313
 20
8.4401780481
 10
17.094095312
 20
8.4028937247
 10
17.0891751176
 20
8.3669794808
 10
17.0839687672
 20
8.3324424107
 10
17.0785400367
 20
8.2991729334
 10
17.0729195382
 20
8.2672092544
 10
17.0671120688
 20
8.2365163187
 10
17.0611367155
 20
8.2068741831
 10
17.0550085489
 20
8.1782611169
 10
17.0487382046
 20
8.1507002809
 10
17.0423327659
 20
8.1240387899
 10
17.0357956614
 20
8.0982378741
 10
17.0291431003
 20
8.0733367915
 10
17.0223985666
 20
8.0492995908
 10
17.0155684546
 20
8.026119634
 10
17.0086631243
 20
8.0038035431
 10
17.0017107295
 20
7.9823352426
 10
16.9947222214
 20
7.9617272054
 10
16.9877008679
 20
7.9419666956
 10
16.9806620372
 20
7.9229998583
 10
16.9736116355
 20
7.9048268001
 10
16.9665550405
 20
7.8874470796
 10
16.9595054941
 20
7.8708060825
 10
16.9524637855
 20
7.8548974962
 10
16.9454378893
 20
7.8397273446
 10
16.9384507469
 20
7.8252595985
 10
16.9315065956
 20
7.8114992313
 10
16.9246079525
 20
7.7984411086
 10
16.9177742652
 20
7.7860341243
 10
16.9110154268
 20
7.7742905385
 10
16.904326448
 20
7.7631980788
 10
16.8977035727
 20
7.7526688978
 10
16.8911580052
 20
7.7427104022
 10
16.8846818047
 20
7.733315278
 10
16.8782417381
 20
7.7243736024
 10
16.8718406688
 20
7.7158777806
 10
16.8654777708
 20
7.7078355456
 10
16.8591137646
 20
7.7001599418
 10
16.8527359328
 20
7.692822031
 10
16.8463582551
 20
7.6858509213
 10
16.8399812632
 20
7.6792467236
  0
LWPOLYLINE
  5
498
100
AcDbEntity
  8
RACCORDO
100
AcDbPolyline
 62
253
  6
CONTINUOUS
 90
16
 70
0
 10
-2.1665871926
 20
-26.1114770575
 10
-2.2052174979
 20
-26.1371488981
 10
-2.2471559154
 20
-26.1603200384
 10
-2.2919530065
 20
-26.1807421617
 10
-2.339128697
 20
-26.1981964117
 10
-2.3881774222
 20
-26.2124957374
 10
-2.4385735451
 20
-26.2234868983
 10
-2.4897769886
 20
-26.2310521061
 10
-2.5412390242
 20
-26.2351102873
 10
-2.5924081522
 20
-26.2356179517
 10
-2.6427360116
 20
-26.2325696589
 10
-2.6916832572
 20
-26.2259980764
 10
-2.7387253392
 20
-26.2159736294
 10
-2.7833581248
 20
-26.2026037464
 10
-2.8251033008
 20
-26.1860317074
 10
-2.8635134993
 20
-26.1664351089
  0
LWPOLYLINE
  5
499
100
AcDbEntity
  8
RACCORDO
100
AcDbPolyline
 62
253
  6
CONTINUOUS
 90
36
 70
0
 10
16.3508973222
 20
-12.9990668988
 10
16.3720861266
 20
-12.9851840134
 10
16.3927727978
 20
-12.970493278
 10
16.412947379
 20
-12.9550017713
 10
16.4326003116
 20
-12.9387168493
 10
16.4517224308
 20
-12.9216461272
 10
16.4703046596
 20
-12.9037976879
 10
16.4883380564
 20
-12.8851800932
 10
16.5058140457
 20
-12.8658022233
 10
16.5227242715
 20
-12.8456733437
 10
16.5390606829
 20
-12.8248030274
 10
16.5548155736
 20
-12.8032011534
 10
16.5699814374
 20
-12.7808780064
 10
16.5845510342
 20
-12.7578442235
 10
16.5985174759
 20
-12.7341107191
 10
16.6118741235
 20
-12.7096887666
 10
16.6246145938
 20
-12.6845900107
 10
16.6367328215
 20
-12.6588264094
 10
16.6482230483
 20
-12.6324102165
 10
16.6590797998
 20
-12.605354005
 10
16.6692978924
 20
-12.5776706791
 10
16.6788724761
 20
-12.5493734224
 10
16.687799006
 20
-12.5204756797
 10
16.6960732196
 20
-12.4909911821
 10
16.7036912043
 20
-12.4609339429
 10
16.7106493457
 20
-12.4303182556
 10
16.7169442965
 20
-12.3991586727
 10
16.722573101
 20
-12.3674699478
 10
16.7275330863
 20
-12.3352671912
 10
16.7318218131
 20
-12.3025658683
 10
16.7354372761
 20
-12.2693816123
 10
16.7383778011
 20
-12.2357301025
 10
16.7406419262
 20
-12.2016272121
 10
16.7422285721
 20
-12.1670890967
 10
16.7431370555
 20
-12.1321321953
 10
16.7433669843
 20
-12.0967731068
  0
LINE
  5
49A
100
AcDbEntity
  8
0
100
AcDbLine
 62
7
  6
CONTINUOUS
 10
-0.4451481482
 20
21.2954689997
 11
1.3088895195
 21
21.5669917915
  0
LWPOLYLINE
  5
49B
100
AcDbEntity
  8
0
100
AcDbPolyline
 62
7
  6
CONTINUOUS
 90
16
 70
0
 10
-1.5370311103
 20
20.6650294618
 10
-1.50353594
 20
20.6593097572
 10
-1.4704810685
 20
20.6529481129
 10
-1.4378664957
 20
20.6459445289
 10
-1.4056585489
 20
20.638290323
 10
-1.3738909009
 20
20.6299941775
 10
-1.3426645704
 20
20.621082139
 10
-1.3119731612
 20
20.6115494028
 10
-1.2818230696
 20
20.6014007735
 10
-1.2523345023
 20
20.5906767118
 10
-1.2235178488
 20
20.5793780624
 10
-1.1953627198
 20
20.5675039805
 10
-1.167958154
 20
20.5550923928
 10
-1.141333831
 20
20.5421559416
 10
-1.1154600712
 20
20.5286819846
 10
-1.0903368746
 20
20.5146705218
  0
LWPOLYLINE
  5
49C
100
AcDbEntity
  8
0
100
AcDbPolyline
 62
7
  6
CONTINUOUS
 90
10
 70
0
 10
2.8967591149
 20
19.6905082828
 10
2.9120319589
 20
19.6877527482
 10
2.927775937
 20
19.6841590213
 10
2.9439798363
 20
19.6797061041
 10
2.9606260865
 20
19.6743856849
 10
2.9777027992
 20
19.668163671
 10
2.9952040359
 20
19.6609793513
 10
3.0131279649
 20
19.6527954644
 10
3.0314323886
 20
19.6436038619
 10
3.0500464005
 20
19.6333898923
  0
LINE
  5
49D
100
AcDbEntity
  8
0
100
AcDbLine
 62
7
  6
CONTINUOUS
 10
-2.067905868
 20
24.2924984904
 11
1.0941361925
 21
22.4667750345
  0
LINE
  5
49E
100
AcDbEntity
  8
0
100
AcDbLine
 62
7
  6
CONTINUOUS
 10
5.3410108023
 20
20.0146828606
 11
8.5030528627
 21
18.1889594046
  0
LINE
  5
49F
100
AcDbEntity
  8
DRAFT
100
AcDbLine
 62
7
  6
CONTINUOUS
 10
-0.3230098219
 20
23.5515486436
 11
-0.3415223041
 21
23.5622375187
  0
LINE
  5
4A0
100
AcDbEntity
  8
0
100
AcDbLine
 62
7
  6
CONTINUOUS
 10
13.2869334186
 20
17.1158484913
 11
13.253441208
 21
17.1351864544
  0
LINE
  5
4A1
100
AcDbEntity
  8
0
100
AcDbLine
 62
7
  6
CONTINUOUS
 10
-0.356502998
 20
24.9933956291
 11
-0.3230107667
 21
24.9740576568
  0
LWPOLYLINE
  5
4A2
100
AcDbEntity
  8
RACCORDO
100
AcDbPolyline
 62
7
  6
CONTINUOUS
 90
99
 70
0
 10
17.024027184
 20
11.6306750945
 10
17.0479147713
 20
11.6087688172
 10
17.0939414863
 20
11.5653258761
 10
17.1395456845
 20
11.5210435826
 10
17.1847263834
 20
11.4759289442
 10
17.2294835471
 20
11.4299866676
 10
17.2738042314
 20
11.3832337957
 10
17.317669542
 20
11.3356938907
 10
17.361069777
 20
11.2873808387
 10
17.4039971016
 20
11.2383059835
 10
17.4464277009
 20
11.1884990483
 10
17.4883282724
 20
11.1380027068
 10
17.5296749676
 20
11.0868504585
 10
17.5704625364
 20
11.0350534622
 10
17.6106859098
 20
10.9826218057
 10
17.6503276134
 20
10.9295814911
 10
17.6893762545
 20
10.8759508837
 10
17.7278348712
 20
10.8217277266
 10
17.7656976251
 20
10.7669205752
 10
17.8029405841
 20
10.7115642568
 10
17.8395395219
 20
10.6556959401
 10
17.8754763235
 20
10.5993451828
 10
17.9107418933
 20
10.5425280367
 10
17.94532611
 20
10.4852619769
 10
17.9792168796
 20
10.4275677547
 10
18.0123997649
 20
10.3694705314
 10
18.0448612849
 20
10.310994482
 10
18.0765865347
 20
10.2521671039
 10
18.1075654594
 20
10.1930075376
 10
18.1377918062
 20
10.1335273474
 10
18.1672538594
 20
10.0737484244
 10
18.1959387177
 20
10.0136955692
 10
18.2238379841
 20
9.9533844586
 10
18.2509433558
 20
9.8928300981
 10
18.2772390894
 20
9.8320644232
 10
18.3027064414
 20
9.7711285274
 10
18.3273310407
 20
9.7100557091
 10
18.3511065794
 20
9.6488602567
 10
18.3740271138
 20
9.5875546419
 10
18.3960807151
 20
9.5261671869
 10
18.4172590795
 20
9.4647170047
 10
18.4375606035
 20
9.4032023779
 10
18.4569788744
 20
9.3416331589
 10
18.4754987599
 20
9.2800469559
 10
18.4931056417
 20
9.2184832954
 10
18.5097919901
 20
9.1569592513
 10
18.5255468114
 20
9.0955051606
 10
18.5403531042
 20
9.0341797113
 10
18.5541968706
 20
8.9730385573
 10
18.56707956
 20
8.9120722865
 10
18.579006504
 20
8.8512416306
 10
18.589972053
 20
8.7905498468
 10
18.599963082
 20
8.7300409305
 10
18.6089710781
 20
8.6697366713
 10
18.6169927372
 20
8.609617972
 10
18.6240128237
 20
8.5497513921
 10
18.6300115878
 20
8.4902843078
 10
18.6349815525
 20
8.4313140719
 10
18.6389297096
 20
8.3727839119
 10
18.6418592173
 20
8.3146088187
 10
18.6437643784
 20
8.2567725138
 10
18.6446363955
 20
8.1993366876
 10
18.6444690687
 20
8.1423342826
 10
18.643255579
 20
8.0857476349
 10
18.640990214
 20
8.0296389844
 10
18.6376764044
 20
7.9741560459
 10
18.6333204696
 20
7.9193646557
 10
18.6279220963
 20
7.8652329609
 10
18.6214809089
 20
7.8117577528
 10
18.613997302
 20
7.7589512248
 10
18.6054732143
 20
7.7068362132
 10
18.5959092126
 20
7.6554253881
 10
18.5852986808
 20
7.6047001365
 10
18.5736495249
 20
7.5547146103
 10
18.5609902914
 20
7.505585675
 10
18.5473288349
 20
7.4573249541
 10
18.5326736356
 20
7.4099456568
 10
18.5170671591
 20
7.3635571069
 10
18.5005502451
 20
7.3182344621
 10
18.4831152106
 20
7.2739137246
 10
18.4647312608
 20
7.2304963085
 10
18.4453895379
 20
7.1879580304
 10
18.4251144436
 20
7.1463497614
 10
18.4039191046
 20
7.1056915367
 10
18.3817942262
 20
7.0659619022
 10
18.3587683097
 20
7.0272087255
 10
18.3349205088
 20
6.9895485533
 10
18.3103045589
 20
6.9530354746
 10
18.2849084003
 20
6.9176220447
 10
18.2587179935
 20
6.883268883
 10
18.231741163
 20
6.8499722305
 10
18.2040049988
 20
6.8177518791
 10
18.1755218829
 20
6.7866084914
 10
18.1463018335
 20
6.7565410294
 10
18.1163724945
 20
6.7275661381
 10
18.0857752345
 20
6.6997096076
 10
18.0545396006
 20
6.6729818955
 10
18.0226811168
 20
6.6473800707
 10
17.9902226246
 20
6.6229070568
  0
LWPOLYLINE
  5
4A3
100
AcDbEntity
  8
RACCORDO
100
AcDbPolyline
 62
253
  6
CONTINUOUS
 90
98
 70
0
 10
17.024027184
 20
11.5013676187
 10
17.0248860408
 20
11.5005295144
 10
17.0689756218
 20
11.4563497787
 10
17.1127297036
 20
11.4113424174
 10
17.1561305649
 20
11.3655256616
 10
17.1991606134
 20
11.318918083
 10
17.2418024054
 20
11.2715385761
 10
17.2840386413
 20
11.2234063625
 10
17.3258521818
 20
11.1745409746
 10
17.3672260548
 20
11.1249622491
 10
17.4081434978
 20
11.0746902746
 10
17.4485879527
 20
11.0237453944
 10
17.4885430402
 20
10.9721482369
 10
17.5279925321
 20
10.9199197559
 10
17.566920394
 20
10.8670811795
 10
17.605310819
 20
10.8136539658
 10
17.64314826
 20
10.7596597539
 10
17.6804173997
 20
10.7051204018
 10
17.7171031412
 20
10.6500579995
 10
17.7531905879
 20
10.5944949036
 10
17.7886650772
 20
10.5384536895
 10
17.8235122051
 20
10.4819571155
 10
17.8577178594
 20
10.4250280639
 10
17.8912681977
 20
10.3676895731
 10
17.9241496312
 20
10.3099648631
 10
17.9563488053
 20
10.2518773756
 10
17.9878526346
 20
10.1934507163
 10
18.0186483271
 20
10.1347086125
 10
18.0487234122
 20
10.075674855
 10
18.0780657176
 20
10.0163733368
 10
18.1066633576
 20
9.9568280754
 10
18.1345047182
 20
9.8970632498
 10
18.1615784866
 20
9.8371031443
 10
18.1878736707
 20
9.7769721066
 10
18.2133796218
 20
9.7166944915
 10
18.2380860157
 20
9.6562946984
 10
18.2619828435
 20
9.595797192
 10
18.2850604007
 20
9.5352265361
 10
18.3073093121
 20
9.4746073379
 10
18.3287205459
 20
9.4139642088
 10
18.3492854302
 20
9.3533217145
 10
18.3689956386
 20
9.2927044082
 10
18.3878431847
 20
9.2321368479
 10
18.4058204157
 20
9.1716436213
 10
18.4229200306
 20
9.1112492968
 10
18.4391350896
 20
9.0509783889
 10
18.454459024
 20
8.9908553176
 10
18.4688856273
 20
8.9309044342
 10
18.4824090524
 20
8.8711500327
 10
18.4950238097
 20
8.811616365
 10
18.5067247777
 20
8.7523276005
 10
18.5175072091
 20
8.6933077983
 10
18.5273667349
 20
8.6345808779
 10
18.53629936
 20
8.5761706353
 10
18.5443014631
 20
8.5181007469
 10
18.5513697965
 20
8.4603947744
 10
18.5575014921
 20
8.4030761342
 10
18.5626940627
 20
8.3461680791
 10
18.5669454038
 20
8.2896936799
 10
18.5702537919
 20
8.2336758306
 10
18.5726178853
 20
8.1781372453
 10
18.574036725
 20
8.1231004509
 10
18.5745097353
 20
8.0685877702
 10
18.5740367245
 20
8.0146213101
 10
18.5726178843
 20
7.9612229565
 10
18.5702537904
 20
7.9084143673
 10
18.5669454017
 20
7.8562169621
 10
18.5626940602
 20
7.8046519053
 10
18.5575014891
 20
7.753740101
 10
18.551369793
 20
7.7035021896
 10
18.544301459
 20
7.6539585516
 10
18.5362993555
 20
7.6051292916
 10
18.5273667298
 20
7.557034221
 10
18.5175072036
 20
7.5096928343
 10
18.5067247717
 20
7.4631243141
 10
18.4950238032
 20
7.4173475346
 10
18.4824090454
 20
7.3723810728
 10
18.4688856198
 20
7.328243184
 10
18.4544590161
 20
7.284951781
 10
18.4391350812
 20
7.2425244055
 10
18.4229200217
 20
7.2009782418
 10
18.4058204064
 20
7.1603301244
 10
18.3878431749
 20
7.1205965541
 10
18.3689956283
 20
7.081793668
 10
18.3492854194
 20
7.0439372169
 10
18.3287205347
 20
7.007042536
 10
18.3073093004
 20
6.9711245635
 10
18.2850603886
 20
6.9361978511
 10
18.261982831
 20
6.9022765804
 10
18.2380860028
 20
6.8693745323
 10
18.2133796085
 20
6.8375050641
 10
18.1878736568
 20
6.8066810826
 10
18.1615784723
 20
6.7769150649
 10
18.1345047036
 20
6.7482190691
 10
18.1066633426
 20
6.7206047495
 10
18.0780657022
 20
6.6940833266
 10
18.0487233964
 20
6.6686655677
 10
18.0186483108
 20
6.6443617652
  0
LINE
  5
4A4
100
AcDbEntity
  8
0
100
AcDbLine
 62
253
  6
CONTINUOUS
 10
2.8236153544
 20
-23.9694767977
 11
3.5245513082
 21
-23.5528891608
  0
LINE
  5
4A5
100
AcDbEntity
  8
0
100
AcDbLine
 62
7
  6
CONTINUOUS
 10
2.7211590196
 20
-24.197710164
 11
3.4228288541
 21
-23.7806863594
  0
LINE
  5
4A6
100
AcDbEntity
  8
0
100
AcDbLine
 62
253
  6
CONTINUOUS
 10
2.1165085732
 20
-25.479896992
 11
2.644775745
 21
-25.1677428577
  0
LINE
  5
4A7
100
AcDbEntity
  8
0
100
AcDbLine
 62
7
  6
CONTINUOUS
 10
2.065464163
 20
-25.5939064052
 11
2.5941548006
 21
-25.2815020441
  0
LINE
  5
4A8
100
AcDbEntity
  8
0
100
AcDbLine
 62
7
  6
CONTINUOUS
 10
2.065464177
 20
-25.5939063969
 11
2.0640099339
 21
-25.5947460586
  0
LINE
  5
4A9
100
AcDbEntity
  8
0
100
AcDbLine
 62
253
  6
CONTINUOUS
 10
0.5152277824
 20
-26.3830662179
 11
2.1165085732
 21
-25.479896992
  0
LINE
  5
4AA
100
AcDbEntity
  8
0
100
AcDbLine
 62
7
  6
CONTINUOUS
 10
0.4623007063
 20
-26.4981569357
 11
2.0640099199
 21
-25.5947460669
  0
LWPOLYLINE
  5
4AB
100
AcDbEntity
  8
0
100
AcDbPolyline
 62
7
  6
CONTINUOUS
 90
3
 70
0
 10
2.7211591994
 20
-24.1977100742
 10
2.7142598446
 20
-24.2015949513
 10
2.7101548586
 20
-24.2037100152
  0
LWPOLYLINE
  5
4AC
100
AcDbEntity
  8
0
100
AcDbPolyline
 62
7
  6
CONTINUOUS
 90
19
 70
0
 10
0.4623007063
 20
-26.4981569357
 10
0.4498669319
 20
-26.5047161631
 10
0.4369948215
 20
-26.510603988
 10
0.4237283097
 20
-26.5157831568
 10
0.4101087049
 20
-26.5202219638
 10
0.3961934606
 20
-26.5238882785
 10
0.382055177
 20
-26.5267539589
 10
0.3677609872
 20
-26.5288009962
 10
0.3533565128
 20
-26.5300202163
 10
0.3388811429
 20
-26.5304047656
 10
0.3244031662
 20
-26.5299503006
 10
0.3099669628
 20
-26.5286570383
 10
0.2955720219
 20
-26.5265190162
 10
0.281234778
 20
-26.5235252136
 10
0.2670506428
 20
-26.5196827828
 10
0.2531260972
 20
-26.5150170158
 10
0.2394990111
 20
-26.5095414706
 10
0.2262169137
 20
-26.5032751882
 10
0.2144779865
 20
-26.4969092235
  0
LINE
  5
4AD
100
AcDbEntity
  8
RACCORDO
100
AcDbLine
 62
253
  6
CONTINUOUS
 10
-1.8296979039
 20
-26.270534379
 11
1.7452775131
 21
-24.4898341271
  0
LINE
  5
4AE
100
AcDbEntity
  8
0
100
AcDbLine
 62
253
  6
CONTINUOUS
 10
1.7444412905
 20
-24.5068142392
 11
2.8236153544
 21
-23.9692761296
  0
LINE
  5
4AF
100
AcDbEntity
  8
0
100
AcDbLine
 62
7
  6
CONTINUOUS
 10
1.631812855
 20
-24.7408336744
 11
2.7101549066
 21
-24.2037099913
  0
LINE
  5
4B0
100
AcDbEntity
  8
RACCORDO
100
AcDbLine
 62
7
  6
CONTINUOUS
 10
1.6326490776
 20
-24.7238535623
 11
-1.9544788588
 21
-26.5106064404
  0
LWPOLYLINE
  5
4B1
100
AcDbEntity
  8
0
100
AcDbPolyline
 62
253
  6
CONTINUOUS
 90
18
 70
0
 10
2.382233433
 20
22.6400119443
 10
2.3399044974
 20
22.6528094207
 10
2.2391002026
 20
22.6796194299
 10
2.136071839
 20
22.7034447211
 10
2.031084294
 20
22.724224039
 10
1.924407493
 20
22.7419039597
 10
1.8163157055
 20
22.7564390274
 10
1.7070868396
 20
22.7677918722
 10
1.5970017227
 20
22.7759333063
 10
1.4863433816
 20
22.7808423982
 10
1.3753963171
 20
22.7825065262
 10
1.2644457799
 20
22.7809214114
 10
1.1537770329
 20
22.7760911295
 10
1.0436746161
 20
22.7680281004
 10
0.9344215958
 20
22.7567530544
 10
0.8262988444
 20
22.7422949775
 10
0.719584337
 20
22.7246910384
 10
0.6658029044
 20
22.7140893067
  0
LWPOLYLINE
  5
4B2
100
AcDbEntity
  8
0
100
AcDbPolyline
 62
7
  6
CONTINUOUS
 90
18
 70
0
 10
2.3992442222
 20
22.6444743582
 10
2.3878531302
 20
22.6479999858
 10
2.2798797013
 20
22.6775911087
 10
2.1697390328
 20
22.7037474619
 10
2.0577114205
 20
22.7264324919
 10
1.9441065543
 20
22.7456110889
 10
1.8291922557
 20
22.7612626421
 10
1.7131959296
 20
22.7733739463
 10
1.5963956199
 20
22.7819277055
 10
1.4790962883
 20
22.7869110744
 10
1.3615693538
 20
22.7883194836
 10
1.2441106798
 20
22.7861534457
 10
1.1270091281
 20
22.780420301
 10
1.0105248719
 20
22.7711311856
 10
0.8949496786
 20
22.7583043368
 10
0.7805686471
 20
22.7419641617
 10
0.6676262883
 20
22.7221339466
 10
0.6560631691
 20
22.7197129078
  0
LINE
  5
4B3
100
AcDbEntity
  8
ASSI
100
AcDbLine
 62
7
  6
CONTINUOUS
 10
1.9397318779
 20
25.0815769588
 11
4.4119617003
 21
23.6541424436
  0
LINE
  5
4B4
100
AcDbEntity
  8
ASSI
100
AcDbLine
 62
7
  6
CONTINUOUS
 10
12.4049122395
 20
19.0391129775
 11
14.4996701382
 21
17.8296260203
  0
LINE
  5
4B5
100
AcDbEntity
  8
DRAFT
100
AcDbLine
 62
7
  6
CONTINUOUS
 10
3.0003920497
 20
25.704676691
 11
5.4899087632
 21
24.2672609416
  0
LINE
  5
4B6
100
AcDbEntity
  8
DRAFT
100
AcDbLine
 62
7
  6
CONTINUOUS
 10
13.4655724113
 20
19.6622127098
 11
15.5885910042
 21
18.4364083819
  0
LINE
  5
4B7
100
AcDbEntity
  8
RACCORDO
100
AcDbLine
 62
253
  6
CONTINUOUS
 10
12.407265876
 20
20.606259854
 11
5.7804362897
 21
24.4325082035
  0
LINE
  5
4B8
100
AcDbEntity
  8
RACCORDO
100
AcDbLine
 62
7
  6
CONTINUOUS
 10
16.4470950359
 20
18.5419875357
 11
16.6829773498
 21
18.133427384
  0
LWPOLYLINE
  5
4B9
100
AcDbEntity
  8
RACCORDO
100
AcDbPolyline
 62
253
  6
CONTINUOUS
 90
37
 70
0
 10
15.9718586835
 20
18.5481086419
 10
16.3508973164
 20
17.8912923864
 10
16.3720861165
 20
17.8531782389
 10
16.3927727851
 20
17.8148223997
 10
16.4129473653
 20
17.7762431412
 10
16.4326002983
 20
17.7374587505
 10
16.4517224183
 20
17.698487517
 10
16.4703046483
 20
17.6593478508
 10
16.4883380467
 20
17.620058462
 10
16.505814037
 20
17.5806382113
 10
16.5227242627
 20
17.5411059051
 10
16.5390606738
 20
17.5014802721
 10
16.5548155643
 20
17.4617801398
 10
16.5699814288
 20
17.4220243893
 10
16.5845510265
 20
17.3822319229
 10
16.5985174691
 20
17.3424216412
 10
16.6118741178
 20
17.3026124563
 10
16.6246145892
 20
17.2628233279
 10
16.6367328177
 20
17.2230732296
 10
16.6482230449
 20
17.183381079
 10
16.6590797966
 20
17.1437657567
 10
16.6692978894
 20
17.1042461417
 10
16.6788724731
 20
17.0648410748
 10
16.6877990029
 20
17.0255692767
 10
16.6960732167
 20
16.9864493682
 10
16.7036912016
 20
16.9474999772
 10
16.7106493434
 20
16.9087396415
 10
16.7169442946
 20
16.8701867285
 10
16.7225730994
 20
16.8318595448
 10
16.7275330851
 20
16.7937763968
 10
16.7318218122
 20
16.7559554919
 10
16.7354372751
 20
16.7184149575
 10
16.7383778002
 20
16.6811725597
 10
16.7406419254
 20
16.6442457686
 10
16.7422285717
 20
16.6076520926
 10
16.7431370553
 20
16.5714090644
 10
16.7433669843
 20
16.5355339607
  0
LINE
  5
4BA
100
AcDbEntity
  8
RACCORDO
100
AcDbLine
 62
7
  6
CONTINUOUS
 10
13.0144742484
 20
20.579787815
 11
6.1485948077
 21
24.5440605544
  0
ARC
  5
4BB
100
AcDbEntity
  8
0
100
AcDbCircle
 62
7
  6
CONTINUOUS
 10
-9.8366843907
 20
21.6293845672
 40
0.25
100
AcDbArc
 50
0.0007993011
 51
59.999200789
  0
ELLIPSE
  5
4BC
100
AcDbEntity
  8
RACCORDO
100
AcDbEllipse
 62
7
  6
CONTINUOUS
 10
1.5684738897
 20
-6.8746804374
 30
0.0
 11
-0.1250060456
 21
0.2165028604
 31
0.0
 40
0.5775075436
 41
-2.3560905478
 42
-0.7855988075
  0
ELLIPSE
  5
4BD
100
AcDbEntity
  8
RACCORDO
100
AcDbEllipse
 62
7
  6
CONTINUOUS
 10
1.3916702664
 20
-24.2852923457
 30
0.0
 11
-0.2498600223
 21
0.43379745
 31
0.0
 40
0.5768037941
 41
-3.1764860906
 42
-2.355482613
  0
ELLIPSE
  5
4BE
100
AcDbEntity
  8
RACCORDO
100
AcDbEllipse
 62
7
  6
CONTINUOUS
 10
-13.6342411216
 20
19.9874641593
 30
0.0
 11
-0.2498600223
 21
0.43379745
 31
0.0
 40
0.5768037941
 41
-0.7837728977
 42
0.0348934337
  0
ELLIPSE
  5
4BF
100
AcDbEntity
  8
RACCORDO
100
AcDbEllipse
 62
7
  6
CONTINUOUS
 10
1.3916702664
 20
11.3116912428
 30
0.0
 11
-0.2496303025
 21
0.4334023309
 31
0.0
 40
0.5778584463
 41
-2.3545649475
 42
-0.7846820092
  0
ELLIPSE
  5
4C0
100
AcDbEntity
  8
RACCORDO
100
AcDbEllipse
 62
7
  6
CONTINUOUS
 10
1.5684738897
 20
-6.303089058
 30
0.0
 11
-0.1250441155
 21
0.2165688207
 31
0.0
 40
0.5771558487
 41
-3.1590398907
 42
-2.3563950755
  0
ELLIPSE
  5
4C1
100
AcDbEntity
  8
0
100
AcDbEllipse
 62
7
  6
CONTINUOUS
 10
1.2130152938
 20
24.0649268536
 30
0.0
 11
2.7516996141
 21
-0.0407701356
 31
0.0
 40
0.5672256544
 41
-1.6326137532
 42
-0.7669416835
  0
ELLIPSE
  5
4C2
100
AcDbEntity
  8
DRAFT
100
AcDbEllipse
 62
7
  6
CONTINUOUS
 10
1.374046453
 20
22.5716896196
 30
0.0
 11
2.3999779332
 21
-0.0179822787
 31
0.0
 40
0.5723275643
 41
0.452699727
 42
2.3604827341
  0
ELLIPSE
  5
4C3
100
AcDbEntity
  8
DRAFT
100
AcDbEllipse
 62
7
  6
CONTINUOUS
 10
11.8392268145
 20
16.5292256383
 30
0.0
 11
2.3999779332
 21
-0.0179822787
 31
0.0
 40
0.5723275643
 41
0.6860974794
 42
2.3604827341
  0
ELLIPSE
  5
4C4
100
AcDbEntity
  8
RACCORDO
100
AcDbEllipse
 62
7
  6
CONTINUOUS
 10
11.6978054583
 20
16.8572309037
 30
0.0
 11
2.1999797721
 21
-0.0164837555
 31
0.0
 40
0.5723275643
 41
2.3604827341
 42
2.9841243919
  0
ELLIPSE
  5
4C5
100
AcDbEntity
  8
ASSI
100
AcDbEllipse
 62
7
  6
CONTINUOUS
 10
-22.3697342656
 20
10.8823018213
 30
0.0
 11
40.5143695416
 21
22.9860390797
 31
0.0
 40
0.0076230003
 41
0.9667695052
 42
0.9910773888
  0
ELLIPSE
  5
4C6
100
AcDbEntity
  8
RACCORDO
100
AcDbEllipse
 62
7
  6
CONTINUOUS
 10
3.2035658704
 20
25.9063588632
 30
0.0
 11
1.2054326751
 21
-0.3359710317
 31
0.0
 40
0.5123410576
 41
2.2368827114
 42
2.6587737918
  0
ELLIPSE
  5
4C7
100
AcDbEntity
  8
RACCORDO
100
AcDbEllipse
 62
7
  6
CONTINUOUS
 10
2.2932852685
 20
25.3808758353
 30
0.0
 11
0.3250861932
 21
1.2131028077
 31
0.0
 40
0.5176380897
 41
-0.9873283456
 42
0.0383594959
  0
ELLIPSE
  5
4C8
100
AcDbEntity
  8
RACCORDO
100
AcDbEllipse
 62
7
  6
CONTINUOUS
 10
15.8697354673
 20
17.5420036434
 30
0.0
 11
0.3250861932
 21
1.2131028077
 31
0.0
 40
0.5176380897
 41
-0.477635528
 42
0.0383594959
  0
ELLIPSE
  5
4C9
100
AcDbEntity
  8
RACCORDO
100
AcDbEllipse
 62
7
  6
CONTINUOUS
 10
5.3599094625
 20
23.8447184504
 30
0.0
 11
0.8025603522
 21
0.6879336527
 31
0.0
 40
0.2183519819
 41
0.076726196
 42
0.8447193874
  0
ELLIPSE
  5
4CA
100
AcDbEntity
  8
0
100
AcDbEllipse
 62
7
  6
CONTINUOUS
 10
11.6781956553
 20
18.0224628724
 30
0.0
 11
2.7516996141
 21
-0.0407701356
 31
0.0
 40
0.5672256544
 41
2.3544952561
 42
3.9353694399
  0
ELLIPSE
  5
4CB
100
AcDbEntity
  8
RACCORDO
100
AcDbEllipse
 62
7
  6
CONTINUOUS
 10
12.8031112733
 20
19.54710701
 30
0.0
 11
-0.2461958753
 21
1.1154658892
 31
0.0
 40
0.6979100611
 41
5.0392720298
 42
6.4830368592
  0
ELLIPSE
  5
4CC
100
AcDbEntity
  8
ASSI
100
AcDbEllipse
 62
7
  6
CONTINUOUS
 10
1.374046453
 20
22.979924758
 30
0.0
 11
2.3999779332
 21
-0.0179822787
 31
0.0
 40
0.5723275643
 41
0.2184601105
 42
1.9493448718
  0
ELLIPSE
  5
4CD
100
AcDbEntity
  8
ASSI
100
AcDbEllipse
 62
7
  6
CONTINUOUS
 10
11.8392268145
 20
16.9374607767
 30
0.0
 11
2.3999779332
 21
-0.0179822787
 31
0.0
 40
0.5723275643
 41
0.4692155248
 42
1.9493448718
  0
ELLIPSE
  5
4CE
100
AcDbEntity
  8
RACCORDO
100
AcDbEllipse
 62
7
  6
CONTINUOUS
 10
2.3367214344
 20
-19.4519428187
 30
0.0
 11
-0.2500311171
 21
0.4330387045
 31
0.0
 40
0.5772877058
 41
-3.9270010549
 42
-2.3562808805
  0
ELLIPSE
  5
4CF
100
AcDbEntity
  8
RACCORDO
100
AcDbEllipse
 62
7
  6
CONTINUOUS
 10
8.8730312545
 20
17.5176376376
 30
0.0
 11
-3.2476259987
 21
4.2374482843
 31
0.0
 40
0.4692630941
 41
-2.0776810673
 42
-1.831312494
  0
ELLIPSE
  5
4D0
100
AcDbEntity
  8
RACCORDO
100
AcDbEllipse
 62
7
  6
CONTINUOUS
 10
2.1162931488
 20
-19.2920267197
 30
0.0
 11
-1.000389877
 21
1.7321775001
 31
0.0
 40
0.5772588101
 41
-3.12925227
 42
-2.3564320312
  0
ELLIPSE
  5
4D1
100
AcDbEntity
  8
RACCORDO
100
AcDbEllipse
 62
7
  6
CONTINUOUS
 10
14.9594548654
 20
19.1186558934
 30
0.0
 11
1.220886943
 21
-0.3275039943
 31
0.0
 40
0.5021189746
 41
-0.4723189803
 42
-0.0504278999
  0
ELLIPSE
  5
4D2
100
AcDbEntity
  8
0
100
AcDbEllipse
 62
7
  6
CONTINUOUS
 10
-2.8730958714
 20
22.4759836039
 30
0.0
 11
0.2522054935
 21
0.4317367776
 31
0.0
 40
0.580680601
 41
0.689040114
 42
0.7825716451
  0
ELLIPSE
  5
4D3
100
AcDbEntity
  8
0
100
AcDbEllipse
 62
7
  6
CONTINUOUS
 10
4.8366234191
 20
19.1511906764
 30
0.0
 11
0.5065076343
 21
0.8622573648
 31
0.0
 40
0.5722712839
 41
0.0042874116
 42
0.7839161321
  0
ELLIPSE
  5
4D4
100
AcDbEntity
  8
0
100
AcDbEllipse
 62
7
  6
CONTINUOUS
 10
-3.0740769924
 20
23.7187299496
 30
0.0
 11
1.0061852078
 21
0.5737549327
 31
0.0
 40
0.0052693892
 41
0.0030798505
 42
0.7827085602
  0
ELLIPSE
  5
4D5
100
AcDbEntity
  8
0
100
AcDbEllipse
 62
7
  6
CONTINUOUS
 10
3.1709844549
 20
-23.3487233651
 30
0.0
 11
-0.2500332324
 21
0.4330240487
 31
0.0
 40
0.5773023583
 41
-3.1343210679
 42
-2.3562893423
  0
ELLIPSE
  5
4D6
100
AcDbEntity
  8
0
100
AcDbEllipse
 62
7
  6
CONTINUOUS
 10
3.1709844549
 20
12.4031607707
 30
0.0
 11
-0.2500205442
 21
0.4330020622
 31
0.0
 40
0.577360979
 41
-2.3562385877
 42
-0.7854930296
  0
ELLIPSE
  5
4D7
100
AcDbEntity
  8
0
100
AcDbEllipse
 62
7
  6
CONTINUOUS
 10
8.4215291808
 20
-17.8552117523
 30
0.0
 11
0.4999975532
 21
0.2922382515
 31
0.0
 40
0.0053525714
 41
-0.7710733282
 42
-0.0031284448
  0
ELLIPSE
  5
4D8
100
AcDbEntity
  8
0
100
AcDbEllipse
 62
7
  6
CONTINUOUS
 10
8.4215291808
 20
17.2084301234
 30
0.0
 11
0.4999950703
 21
0.0038122721
 31
0.0
 40
0.5824033911
 41
-0.7723854459
 42
-0.0044405753
  0
ELLIPSE
  5
4D9
100
AcDbEntity
  8
0
100
AcDbEllipse
 62
7
  6
CONTINUOUS
 10
-3.5118503781
 20
17.7982066326
 30
0.0
 11
-0.1013087946
 21
0.1724741635
 31
0.0
 40
0.5721987997
 41
-0.7896401281
 42
-0.0114694669
  0
ELLIPSE
  5
4DA
100
AcDbEntity
  8
0
100
AcDbEllipse
 62
7
  6
CONTINUOUS
 10
-5.2210335151
 20
18.7850675547
 30
0.0
 11
-0.1012962577
 21
0.1724520852
 31
0.0
 40
0.5723440702
 41
-2.3605147734
 42
-0.7897692152
  0
ELLIPSE
  5
4DB
100
AcDbEntity
  8
0
100
AcDbEllipse
 62
7
  6
CONTINUOUS
 10
2.7388779247
 20
19.2357002686
 30
0.0
 11
0.2532538171
 21
0.4311286824
 31
0.0
 40
0.5722712839
 41
0.3355676411
 42
0.7839161321
  0
ELLIPSE
  5
4DC
100
AcDbEntity
  8
0
100
AcDbEllipse
 62
7
  6
CONTINUOUS
 10
-12.9397205908
 20
20.2275496692
 30
0.0
 11
0.249894357
 21
0.0119767658
 31
0.0
 40
0.6067642562
 41
3.1125202636
 42
3.8979184282
  0
ELLIPSE
  5
4DD
100
AcDbEntity
  8
0
100
AcDbEllipse
 62
7
  6
CONTINUOUS
 10
-11.2529548665
 20
19.2536322802
 30
0.0
 11
0.249894357
 21
0.0119767658
 31
0.0
 40
0.6067642562
 41
-2.385266879
 42
-0.8202883164
  0
ELLIPSE
  5
4DE
100
AcDbEntity
  8
0
100
AcDbEllipse
 62
7
  6
CONTINUOUS
 10
-0.6360625981
 20
13.1235717453
 30
0.0
 11
0.249894357
 21
0.0119767658
 31
0.0
 40
0.6067642562
 41
3.1125202636
 42
3.8979184282
  0
ELLIPSE
  5
4DF
100
AcDbEntity
  8
0
100
AcDbEllipse
 62
7
  6
CONTINUOUS
 10
1.0507031261
 20
12.1496543563
 30
0.0
 11
0.249894357
 21
0.0119767658
 31
0.0
 40
0.6067642562
 41
-2.385266879
 42
-0.8202883164
  0
ELLIPSE
  5
4E0
100
AcDbEntity
  8
0
100
AcDbEllipse
 62
7
  6
CONTINUOUS
 10
8.4215291808
 20
17.9939846378
 30
0.0
 11
-0.3567823072
 21
0.610519958
 31
0.0
 40
0.573764555
 41
-3.1333143349
 42
-2.1059759599
  0
ELLIPSE
  5
4E1
100
AcDbEntity
  8
0
100
AcDbEllipse
 62
7
  6
CONTINUOUS
 10
1.3908340438
 20
11.3296370039
 30
0.0
 11
-0.2496303025
 21
0.4334023309
 31
0.0
 40
0.5778584463
 41
3.9286203597
 42
5.498503297
  0
ELLIPSE
  5
4E2
100
AcDbEntity
  8
0
100
AcDbEllipse
 62
7
  6
CONTINUOUS
 10
-6.1231420609
 20
17.1081143096
 30
0.0
 11
0.1999154856
 21
0.0095814127
 31
0.0
 40
0.6067642562
 41
-2.385266879
 42
-0.8231971985
  0
ELLIPSE
  5
4E3
100
AcDbEntity
  8
0
100
AcDbEllipse
 62
7
  6
CONTINUOUS
 10
-4.4223725195
 20
16.126111292
 30
0.0
 11
0.1999154856
 21
0.0095814127
 31
0.0
 40
0.6067642562
 41
3.1125202648
 42
3.8979184282
  0
ELLIPSE
  5
4E4
100
AcDbEntity
  8
0
100
AcDbEllipse
 62
7
  6
CONTINUOUS
 10
-13.633404899
 20
20.0044442715
 30
0.0
 11
-0.2498600223
 21
0.43379745
 31
0.0
 40
0.5768037941
 41
-0.7837728968
 42
0.2691679799
  0
ELLIPSE
  5
4E5
100
AcDbEntity
  8
0
100
AcDbEllipse
 62
7
  6
CONTINUOUS
 10
1.3908340438
 20
-24.3022724578
 30
0.0
 11
-0.2498600223
 21
0.43379745
 31
0.0
 40
0.5768037941
 41
2.8808129251
 42
3.9277026942
  0
ELLIPSE
  5
4E6
100
AcDbEntity
  8
0
100
AcDbEllipse
 62
7
  6
CONTINUOUS
 10
-2.2535267186
 20
22.1182521401
 30
0.0
 11
0.2467084665
 21
0.4349075021
 31
0.0
 40
0.5823480847
 41
0.3268405091
 42
0.7751890001
  0
ELLIPSE
  5
4E7
100
AcDbEntity
  8
0
100
AcDbEllipse
 62
7
  6
CONTINUOUS
 10
-2.5193438852
 20
61.8739338017
 30
0.0
 11
-0.318972894
 21
42.5712402323
 31
0.0
 40
0.0075572231
 41
-2.8349235393
 42
-2.7469279327
  0
ELLIPSE
  5
4E8
100
AcDbEntity
  8
0
100
AcDbEllipse
 62
7
  6
CONTINUOUS
 10
3.0711027278
 20
18.1838873212
 30
0.0
 11
0.4530408369
 21
-0.002269484
 31
0.0
 40
0.5740189913
 41
-0.7767048895
 42
0.0028755093
  0
ELLIPSE
  5
4E9
100
AcDbEntity
  8
0
100
AcDbEllipse
 62
7
  6
CONTINUOUS
 10
-1.8079707022
 20
20.6381215794
 30
0.0
 11
1.0205797881
 21
-0.0051125391
 31
0.0
 40
0.5740189913
 41
1.3066884979
 42
2.3590192272
  0
ELLIPSE
  5
4EA
100
AcDbEntity
  8
0
100
AcDbEllipse
 62
7
  6
CONTINUOUS
 10
-2.5193438852
 20
21.4117411308
 30
0.0
 11
0.4530408369
 21
-0.002269484
 31
0.0
 40
0.5740189913
 41
-0.4801417832
 42
0.0028755098
  0
ELLIPSE
  5
4EB
100
AcDbEntity
  8
0
100
AcDbEllipse
 62
7
  6
CONTINUOUS
 10
0.5984752554
 20
21.5982443097
 30
0.0
 11
0.4934169331
 21
0.8698150042
 31
0.0
 40
0.5823480847
 41
5.4933957447
 42
7.0583743073
  0
ELLIPSE
  5
4EC
100
AcDbEntity
  8
0
100
AcDbEllipse
 62
7
  6
CONTINUOUS
 10
8.5091756668
 20
17.0307050365
 30
0.0
 11
-0.7006352283
 21
1.22850495
 31
0.0
 40
0.5737642108
 41
5.0913839874
 42
6.2865911274
  0
ELLIPSE
  5
4ED
100
AcDbEntity
  8
0
100
AcDbEllipse
 62
7
  6
CONTINUOUS
 10
-7.7463968589
 20
19.1998287024
 30
0.0
 11
0.1013244325
 21
0.1724380936
 31
0.0
 40
0.5823475934
 41
0.7957043911
 42
2.3606829537
  0
ELLIPSE
  5
4EE
100
AcDbEntity
  8
0
100
AcDbEllipse
 62
7
  6
CONTINUOUS
 10
52.461401007
 20
47.3110850018
 30
0.0
 11
60.4168506882
 21
35.2934066151
 31
0.0
 40
0.0050378458
 41
2.5166802681
 42
2.6876229173
  0
ELLIPSE
  5
4EF
100
AcDbEntity
  8
0
100
AcDbEllipse
 62
7
  6
CONTINUOUS
 10
3.3584470775
 20
18.8779688048
 30
0.0
 11
0.247841934
 21
0.4342563559
 31
0.0
 40
0.5739631936
 41
0.6832219561
 42
0.7767534872
  0
ELLIPSE
  5
4F0
100
AcDbEntity
  8
0
100
AcDbEllipse
 62
7
  6
CONTINUOUS
 10
52.461401007
 20
47.3110850018
 30
0.0
 11
60.4168506882
 21
35.2934066151
 31
0.0
 40
0.0050378458
 41
-2.6935087662
 42
-2.5225661169
  0
ENDSEC
  0
SECTION
  2
OBJECTS
  0
DICTIONARY
  5
C
100
AcDbDictionary
280
0
281
1
  3
ACAD_GROUP
350
D
  3
ACAD_MLINESTYLE
350
17
  3
ACAD_LAYOUT
350
1A
  3
ACAD_PLOTSETTINGS
350
19
  3
ACAD_PLOTSTYLENAME
350
E
  0
DICTIONARY
  5
D
102
{ACAD_REACTORS
330
C
102
}
100
AcDbDictionary
280
0
281
1
  0
ACDBDICTIONARYWDFLT
  5
E
102
{ACAD_REACTORS
330
C
102
}
100
AcDbDictionary
281
1
  3
Normal
350
F
100
AcDbDictionaryWithDefault
340
F
  0
DICTIONARY
  5
17
102
{ACAD_REACTORS
330
C
102
}
100
AcDbDictionary
280
0
281
1
  3
Standard
350
18
  0
DICTIONARY
  5
19
102
{ACAD_REACTORS
330
C
102
}
100
AcDbDictionary
281
1
  0
DICTIONARY
  5
1A
102
{ACAD_REACTORS
330
C
102
}
100
AcDbDictionary
281
1
  3
Model
350
4F1
  3
Layout1
350
4F2
  0
ACDBPLACEHOLDER
  5
F
102
{ACAD_REACTORS
330
E
102
}
  0
MLINESTYLE
  5
18
102
{ACAD_REACTORS
330
17
102
}
100
AcDbMlineStyle
  2
STANDARD
 70
0
  3

 62
256
 51
90.0
 52
90.0
 71
2
 49
0.5
 62
256
  6
BYLAYER
 49
-0.5
 62
256
  6
BYLAYER
  0
LAYOUT
  5
4F1
102
{ACAD_REACTORS
330
1A
102
}
100
AcDbPlotSettings
  1

  2
none_device
  4
ISO_A4_(297.00_x_210.00_MM)
  6

 40
0.0
 41
0.0
 42
0.0
 43
0.0
 44
297.0
 45
210.0
 46
0.0
 47
0.0
 48
0.0
 49
0.0
140
0.0
141
0.0
142
1.0
143
1.0
 70
1024
 72
1
 73
0
 74
0
  7

 75
0
147
1.0
148
0.0
149
0.0
100
AcDbLayout
  1
Model
 70
0
 71
0
 10
0.0
 20
0.0
 11
297.0
 21
210.0
 12
0.0
 22
0.0
 32
0.0
 14
0.0
 24
0.0
 34
0.0
 15
0.0
 25
0.0
 35
0.0
146
0.0
 13
0.0
 23
0.0
 33
0.0
 16
1.0
 26
0.0
 36
0.0
 17
0.0
 27
1.0
 37
0.0
 76
0
330
219
345
0
346
0
  0
LAYOUT
  5
4F2
102
{ACAD_REACTORS
330
1A
102
}
100
AcDbPlotSettings
  1

  2
none_device
  4
ISO_A4_(297.00_x_210.00_MM)
  6

 40
0.0
 41
0.0
 42
0.0
 43
0.0
 44
297.0
 45
210.0
 46
0.0
 47
0.0
 48
0.0
 49
0.0
140
0.0
141
0.0
142
1.0
143
1.0
 70
0
 72
1
 73
0
 74
0
  7

 75
0
147
1.0
148
0.0
149
0.0
100
AcDbLayout
  1
Layout1
 70
0
 71
1
 10
0.0
 20
0.0
 11
297.0
 21
210.0
 12
0.0
 22
0.0
 32
0.0
 14
0.0
 24
0.0
 34
0.0
 15
0.0
 25
0.0
 35
0.0
146
0.0
 13
0.0
 23
0.0
 33
0.0
 16
1.0
 26
0.0
 36
0.0
 17
0.0
 27
1.0
 37
0.0
 76
0
330
21A
345
0
346
0
  0
ENDSEC
  0
EOF
