  0
SECTION
  2
HEADER
  9
$ACADVER
  1
AC1015
  9
$DWGCODEPAGE
  3
ANSI_1252
  9
$EXTMAX
 10
297.0
 20
210.0
 30
0.0
  9
$EXTMIN
 10
0.0
 20
0.0
 30
0.0
  9
$LIMMIN
 10
0.0
 20
0.0
  9
$LIMMAX
 10
297.0
 20
210.0
  9
$VIEWCTR
 10
148.5
 20
105.0
  9
$VIEWSIZE
 40
210.0
  9
$CLAYER
  8
0
  9
$LTSCALE
 40
16.335
  9
$CELTYPE
  6
BYLAYER
  9
$DIMSCALE
 40
1.0
  9
$DIMASZ
 40
3.0
  9
$DIMEXO
 40
1.85625
  9
$DIMDLI
 40
11.286
  9
$DIMEXE
 40
5.346
  9
$DIMCEN
 40
2.673
  9
$DIMLFAC
 40
1.0
  9
$DIMBLK
  1
_FILLED
  9
$DIMTXT
 40
3.0
  9
$DIMTOL
 70
1
  9
$DIMLIM
 70
0
  9
$DIMTFAC
 40
1.0
  9
$DIMTP
 40
0.01
  9
$DIMTM
 40
0.01
  9
$PDMODE
 70
3
  9
$PDSIZE
 40
3.0
  9
$HANDSEED
  5
4BE
  9
$TILEMODE
 70
1
  9
$MEASUREMENT
 70
1
  9
$INSUNITS
 70
4
  0
ENDSEC
  0
SECTION
  2
CLASSES
  0
CLASS
  1
ACDBDICTIONARYWDFLT
  2
AcDbDictionaryWithDefault
  3
AutoCAD 2000
 90
0
280
0
281
0
  0
CLASS
  1
ACDBPLACEHOLDER
  2
AcDbPlaceHolder
  3
AutoCAD 2000
 90
0
280
0
281
0
  0
CLASS
  1
LAYOUT
  2
AcDbLayout
  3
AutoCAD 2000
 90
0
280
0
281
0
  0
ENDSEC
  0
SECTION
  2
TABLES
  0
TABLE
  2
VPORT
  5
8
100
AcDbSymbolTable
 70
2
  0
VPORT
  5
1F4
100
AcDbSymbolTableRecord
100
AcDbViewportTableRecord
  2
*ACTIVE
 70
0
 10
0.0
 20
0.0
 11
1.0
 21
1.0
 12
148.5
 22
105.0
 13
0.0
 23
0.0
 14
1.0
 24
1.0
 15
0.0
 25
0.0
 16
0.0
 26
0.0
 36
1.0
 17
0.0
 27
0.0
 37
0.0
 40
210.0
 41
1.4142857143
 42
50.0
 43
0.0
 44
0.0
 50
0.0
 51
0.0
 71
0
 72
100
 73
1
 74
1
 75
0
 76
0
 77
0
 78
0
  0
ENDTAB
  0
TABLE
  2
LTYPE
  5
5
100
AcDbSymbolTable
 70
6
  0
LTYPE
  5
14
100
AcDbSymbolTableRecord
100
AcDbLinetypeTableRecord
  2
BYBLOCK
 70
0
  3

 72
65
 73
0
 40
0.0
  0
LTYPE
  5
15
100
AcDbSymbolTableRecord
100
AcDbLinetypeTableRecord
  2
BYLAYER
 70
0
  3

 72
65
 73
0
 40
0.0
  0
LTYPE
  5
16
100
AcDbSymbolTableRecord
100
AcDbLinetypeTableRecord
  2
CONTINUOUS
 70
64
  3
Solid line
 72
65
 73
0
 40
0.0
  0
LTYPE
  5
1F5
100
AcDbSymbolTableRecord
100
AcDbLinetypeTableRecord
  2
CENTER
 70
64
  3
____ _ ____ _ ____ _ ____ _ ____ _ ____ _ ____
 72
65
 73
4
 40
0.6
 49
0.375
 74
0
 49
-0.075
 74
0
 49
0.075
 74
0
 49
-0.075
 74
0
  0
LTYPE
  5
1F6
100
AcDbSymbolTableRecord
100
AcDbLinetypeTableRecord
  2
HIDDEN
 70
64
  3
- - - - - - - - - - - - - - - - - - - -
 72
65
 73
2
 40
0.2
 49
0.1
 74
0
 49
-0.1
 74
0
  0
LTYPE
  5
1F7
100
AcDbSymbolTableRecord
100
AcDbLinetypeTableRecord
  2
PHANTOM
 70
64
  3
_____ _ _ _____ _ _ _____ _ _ _____
 72
65
 73
6
 40
0.8
 49
0.45
 74
0
 49
-0.05
 74
0
 49
0.1
 74
0
 49
-0.05
 74
0
 49
0.1
 74
0
 49
-0.05
 74
0
  0
LTYPE
  5
1F8
100
AcDbSymbolTableRecord
100
AcDbLinetypeTableRecord
  2
DOT
 70
64
  3
. . . . . . . . . . . . . . . . . . . .
 72
65
 73
2
 40
0.2
 49
0.1
 74
0
 49
-0.1
 74
0
  0
LTYPE
  5
1F9
100
AcDbSymbolTableRecord
100
AcDbLinetypeTableRecord
  2
DASHED
 70
64
  3
- - - - - - - - - - - - - - - - - - - -
 72
65
 73
2
 40
0.2
 49
0.1
 74
0
 49
-0.1
 74
0
  0
ENDTAB
  0
TABLE
  2
LAYER
  5
2
100
AcDbSymbolTable
 70
36
  0
LAYER
  5
10
100
AcDbSymbolTableRecord
100
AcDbLayerTableRecord
  2
0
 70
0
 62
7
  6
CONTINUOUS
370
-3
390
F
  0
LAYER
  5
1FA
100
AcDbSymbolTableRecord
100
AcDbLayerTableRecord
  2
DEFAULT_1
 70
0
 62
7
  6
CENTER
370
-3
390
F
  0
LAYER
  5
1FB
100
AcDbSymbolTableRecord
100
AcDbLayerTableRecord
  2
DEFAULT_2
 70
0
 62
7
  6
HIDDEN
370
-3
390
F
  0
LAYER
  5
1FC
100
AcDbSymbolTableRecord
100
AcDbLayerTableRecord
  2
DEFAULT_3
 70
0
 62
7
  6
PHANTOM
370
-3
390
F
  0
LAYER
  5
1FD
100
AcDbSymbolTableRecord
100
AcDbLayerTableRecord
  2
43000491A0
 70
0
 62
7
  6
CONTINUOUS
370
-3
390
F
  0
LAYER
  5
1FE
100
AcDbSymbolTableRecord
100
AcDbLayerTableRecord
  2
ASM0001
 70
0
 62
7
  6
CONTINUOUS
370
-3
390
F
  0
LAYER
  5
1FF
100
AcDbSymbolTableRecord
100
AcDbLayerTableRecord
  2
ASSI
 70
0
 62
7
  6
CONTINUOUS
370
-3
390
F
  0
LAYER
  5
200
100
AcDbSymbolTableRecord
100
AcDbLayerTableRecord
  2
CN-MRT4P5_2SQV01-VIMAR_1600000
 70
0
 62
7
  6
CONTINUOUS
370
-3
390
F
  0
LAYER
  5
201
100
AcDbSymbolTableRecord
100
AcDbLayerTableRecord
  2
COLOR5
 70
0
 62
7
  6
CONTINUOUS
370
-3
390
F
  0
LAYER
  5
202
100
AcDbSymbolTableRecord
100
AcDbLayerTableRecord
  2
COLORE_MATERIALE
 70
0
 62
7
  6
CONTINUOUS
370
-3
390
F
  0
LAYER
  5
203
100
AcDbSymbolTableRecord
100
AcDbLayerTableRecord
  2
COORDINATE
 70
0
 62
7
  6
CONTINUOUS
370
-3
390
F
  0
LAYER
  5
204
100
AcDbSymbolTableRecord
100
AcDbLayerTableRecord
  2
COORD_ORIGINE
 70
0
 62
7
  6
CONTINUOUS
370
-3
390
F
  0
LAYER
  5
205
100
AcDbSymbolTableRecord
100
AcDbLayerTableRecord
  2
COPY_PUBLISH
 70
0
 62
7
  6
CONTINUOUS
370
-3
390
F
  0
LAYER
  5
206
100
AcDbSymbolTableRecord
100
AcDbLayerTableRecord
  2
COSMETIC
 70
0
 62
7
  6
CONTINUOUS
370
-3
390
F
  0
LAYER
  5
207
100
AcDbSymbolTableRecord
100
AcDbLayerTableRecord
  2
CURVE
 70
0
 62
7
  6
CONTINUOUS
370
-3
390
F
  0
LAYER
  5
208
100
AcDbSymbolTableRecord
100
AcDbLayerTableRecord
  2
DRAFT
 70
0
 62
7
  6
CONTINUOUS
370
-3
390
F
  0
LAYER
  5
209
100
AcDbSymbolTableRecord
100
AcDbLayerTableRecord
  2
IMPORT_IGES
 70
0
 62
7
  6
CONTINUOUS
370
-3
390
F
  0
LAYER
  5
20A
100
AcDbSymbolTableRecord
100
AcDbLayerTableRecord
  2
INCISIONI
 70
0
 62
7
  6
CONTINUOUS
370
-3
390
F
  0
LAYER
  5
20B
100
AcDbSymbolTableRecord
100
AcDbLayerTableRecord
  2
INTF_1
 70
0
 62
7
  6
CONTINUOUS
370
-3
390
F
  0
LAYER
  5
20C
100
AcDbSymbolTableRecord
100
AcDbLayerTableRecord
  2
INTF_11
 70
0
 62
7
  6
CONTINUOUS
370
-3
390
F
  0
LAYER
  5
20D
100
AcDbSymbolTableRecord
100
AcDbLayerTableRecord
  2
INTF_GREEN
 70
0
 62
7
  6
CONTINUOUS
370
-3
390
F
  0
LAYER
  5
20E
100
AcDbSymbolTableRecord
100
AcDbLayerTableRecord
  2
INTF_YELLOW
 70
0
 62
7
  6
CONTINUOUS
370
-3
390
F
  0
LAYER
  5
20F
100
AcDbSymbolTableRecord
100
AcDbLayerTableRecord
  2
NOTE
 70
0
 62
7
  6
CONTINUOUS
370
-3
390
F
  0
LAYER
  5
210
100
AcDbSymbolTableRecord
100
AcDbLayerTableRecord
  2
PIANI
 70
0
 62
7
  6
CONTINUOUS
370
-3
390
F
  0
LAYER
  5
211
100
AcDbSymbolTableRecord
100
AcDbLayerTableRecord
  2
PIANI_DI_RIFERIMENTO
 70
0
 62
7
  6
CONTINUOUS
370
-3
390
F
  0
LAYER
  5
212
100
AcDbSymbolTableRecord
100
AcDbLayerTableRecord
  2
PIANI_ORIGINE
 70
0
 62
7
  6
CONTINUOUS
370
-3
390
F
  0
LAYER
  5
213
100
AcDbSymbolTableRecord
100
AcDbLayerTableRecord
  2
PTC-4X7_5X5_0-VIMAR_750000
 70
0
 62
7
  6
CONTINUOUS
370
-3
390
F
  0
LAYER
  5
214
100
AcDbSymbolTableRecord
100
AcDbLayerTableRecord
  2
PUBLISHED_GEOMETRY
 70
0
 62
7
  6
CONTINUOUS
370
-3
390
F
  0
LAYER
  5
215
100
AcDbSymbolTableRecord
100
AcDbLayerTableRecord
  2
PUNTI
 70
0
 62
7
  6
CONTINUOUS
370
-3
390
F
  0
LAYER
  5
216
100
AcDbSymbolTableRecord
100
AcDbLayerTableRecord
  2
RACCORDO
 70
0
 62
7
  6
CONTINUOUS
370
-3
390
F
  0
LAYER
  5
217
100
AcDbSymbolTableRecord
100
AcDbLayerTableRecord
  2
SMUSSO
 70
0
 62
7
  6
CONTINUOUS
370
-3
390
F
  0
LAYER
  5
218
100
AcDbSymbolTableRecord
100
AcDbLayerTableRecord
  2
SUPERFICI
 70
0
 62
7
  6
CONTINUOUS
370
-3
390
F
  0
LAYER
  5
219
100
AcDbSymbolTableRecord
100
AcDbLayerTableRecord
  2
TRASH
 70
0
 62
7
  6
CONTINUOUS
370
-3
390
F
  0
LAYER
  5
21A
100
AcDbSymbolTableRecord
100
AcDbLayerTableRecord
  2
XSEC_DATUMS
 70
0
 62
7
  6
CONTINUOUS
370
-3
390
F
  0
LAYER
  5
21B
100
AcDbSymbolTableRecord
100
AcDbLayerTableRecord
  2
___SHELL
 70
0
 62
7
  6
CONTINUOUS
370
-3
390
F
  0
ENDTAB
  0
TABLE
  2
STYLE
  5
3
100
AcDbSymbolTable
 70
1
  0
STYLE
  5
11
100
AcDbSymbolTableRecord
100
AcDbTextStyleTableRecord
  2
STANDARD
 70
0
 40
0.0
 41
0.8
 50
0.0
 71
0
 42
0.2
  3
txt
  4

  0
STYLE
  5
21C
100
AcDbSymbolTableRecord
100
AcDbTextStyleTableRecord
  2
TEXTSTYLE_1
 70
0
 40
0.0
 41
0.8
 50
0.0
 71
0
 42
0.2
  3
gdt
  4

  0
ENDTAB
  0
TABLE
  2
VIEW
  5
6
100
AcDbSymbolTable
 70
0
  0
ENDTAB
  0
TABLE
  2
UCS
  5
7
100
AcDbSymbolTable
 70
0
  0
ENDTAB
  0
TABLE
  2
APPID
  5
9
100
AcDbSymbolTable
 70
1
  0
APPID
  5
21D
100
AcDbSymbolTableRecord
100
AcDbRegAppTableRecord
  2
ACAD
 70
0
  0
ENDTAB
  0
TABLE
  2
BLOCK_RECORD
  5
1
100
AcDbSymbolTable
 70
0
  0
BLOCK_RECORD
  5
21E
100
AcDbSymbolTableRecord
100
AcDbBlockTableRecord
  2
*Model_Space
  0
BLOCK_RECORD
  5
21F
100
AcDbSymbolTableRecord
100
AcDbBlockTableRecord
  2
*Paper_Space
  0
ENDTAB
  0
TABLE
  2
DIMSTYLE
  5
A
100
AcDbSymbolTable
 70
1
100
AcDbDimStyleTable
 71
0
  0
DIMSTYLE
105
220
100
AcDbSymbolTableRecord
100
AcDbDimStyleTableRecord
  2
STANDARD
 70
0
  3

  4

 40
1.0
 41
3.0
 42
0.0625
 43
0.38
 44
0.18
 45
0.0
 46
0.0
 47
0.01
 48
0.01
140
3.0
141
0.09
142
0.0
143
25.4
144
1.0
145
0.0
146
1.0
147
0.09
 71
1.0
 72
0.0
 73
0
 74
0
 75
0
 76
0
 77
1
 78
8
170
0
171
2
172
0
173
0
174
0
175
0
176
0
177
0
178
0
270
2
271
2
272
2
273
2
274
2
275
0
280
0
281
0
282
0
283
1
284
8
285
0
286
0
287
3
288
0
340
11
  0
ENDTAB
  0
ENDSEC
  0
SECTION
  2
BLOCKS
  0
BLOCK
  5
20
100
AcDbEntity
  8
0
100
AcDbBlockBegin
  2
*Model_Space
 70
0
 10
0.0
 20
0.0
 30
0.0
  3
*Model_Space
  1

  0
ENDBLK
  5
21
100
AcDbEntity
  8
0
100
AcDbBlockEnd
  0
BLOCK
  5
1C
100
AcDbEntity
  8
0
100
AcDbBlockBegin
  2
*Paper_Space
 70
0
 10
0.0
 20
0.0
 30
0.0
  3
*Paper_Space
  1

  0
ENDBLK
  5
1D
100
AcDbEntity
  8
0
100
AcDbBlockEnd
  0
ENDSEC
  0
SECTION
  2
ENTITIES
  0
LINE
  5
221
100
AcDbEntity
  8
SUPERFICI
100
AcDbLine
 62
7
  6
CONTINUOUS
 10
-14.4788578633
 20
22.2573789631
 11
-12.8956861684
 21
23.0695760104
  0
LWPOLYLINE
  5
222
100
AcDbEntity
  8
SUPERFICI
100
AcDbPolyline
 62
7
  6
CONTINUOUS
 90
3
 70
0
 10
-18.4847862256
 20
-19.1119546052
 10
-18.4004576692
 20
-19.2126463781
 10
-18.3024539863
 20
-19.2934404625
  0
LWPOLYLINE
  5
223
100
AcDbEntity
  8
SUPERFICI
100
AcDbPolyline
 62
7
  6
CONTINUOUS
 90
3
 70
0
 10
-18.3853412291
 20
18.5807630259
 10
-18.4839917954
 20
18.4203482451
 10
-18.5573642799
 20
18.2517422823
  0
LINE
  5
224
100
AcDbEntity
  8
SUPERFICI
100
AcDbLine
 62
7
  6
CONTINUOUS
 10
-18.2631458736
 20
18.7255082054
 11
-18.3853412291
 21
18.5807630259
  0
LWPOLYLINE
  5
225
100
AcDbEntity
  8
SUPERFICI
100
AcDbPolyline
 62
7
  6
CONTINUOUS
 90
3
 70
0
 10
-18.0510827602
 20
18.891345597
 10
-18.1273736256
 20
18.841782049
 10
-18.2631458736
 20
18.7255082054
  0
LINE
  5
226
100
AcDbEntity
  8
SUPERFICI
100
AcDbLine
 62
7
  6
CONTINUOUS
 10
-18.0510828734
 20
18.8913457899
 11
-14.0188444113
 21
21.2425104161
  0
LINE
  5
227
100
AcDbEntity
  8
SUPERFICI
100
AcDbLine
 62
253
  6
CONTINUOUS
 10
-17.8173156108
 20
18.882819617
 11
-13.9117508036
 21
21.160121622
  0
LINE
  5
228
100
AcDbEntity
  8
SUPERFICI
100
AcDbLine
 62
253
  6
CONTINUOUS
 10
-14.3657721972
 20
22.250930988
 11
-12.783015594
 21
23.0629150853
  0
LINE
  5
229
100
AcDbEntity
  8
SUPERFICI
100
AcDbLine
 62
253
  6
CONTINUOUS
 10
-12.6872341267
 20
21.4116619528
 11
-11.0859533359
 21
22.2143839563
  0
LINE
  5
22A
100
AcDbEntity
  8
SUPERFICI
100
AcDbLine
 62
253
  6
CONTINUOUS
 10
-12.5104604231
 20
21.106772414
 11
-10.9091796322
 21
21.9094944175
  0
LINE
  5
22B
100
AcDbEntity
  8
SUPERFICI
100
AcDbLine
 62
7
  6
CONTINUOUS
 10
-12.8956841986
 20
23.069577021
 11
-12.8939477812
 21
23.070445244
  0
LINE
  5
22C
100
AcDbEntity
  8
SUPERFICI
100
AcDbLine
 62
253
  6
CONTINUOUS
 10
-11.0859533359
 20
22.2143839563
 11
-10.5576861642
 21
22.4778227763
  0
LINE
  5
22D
100
AcDbEntity
  8
SUPERFICI
100
AcDbLine
 62
253
  6
CONTINUOUS
 10
-10.9091796322
 20
21.9094944175
 11
-10.3809124605
 21
22.1729332375
  0
LINE
  5
22E
100
AcDbEntity
  8
SUPERFICI
100
AcDbLine
 62
7
  6
CONTINUOUS
 10
-12.8939450173
 20
23.0704465904
 11
-12.3590778264
 21
23.330997343
  0
LINE
  5
22F
100
AcDbEntity
  8
SUPERFICI
100
AcDbLine
 62
253
  6
CONTINUOUS
 10
-12.783015594
 20
23.0629150853
 11
-12.2485657153
 21
23.3232625519
  0
LINE
  5
230
100
AcDbEntity
  8
SUPERFICI
100
AcDbLine
 62
253
  6
CONTINUOUS
 10
-12.3590778152
 20
23.3309973484
 11
-12.3590498983
 21
23.3310109419
  0
LINE
  5
231
100
AcDbEntity
  8
SUPERFICI
100
AcDbLine
 62
253
  6
CONTINUOUS
 10
1.9227455322
 20
-25.6260314149
 11
1.3944783604
 21
-25.5175291379
  0
LINE
  5
232
100
AcDbEntity
  8
SUPERFICI
100
AcDbLine
 62
253
  6
CONTINUOUS
 10
1.8333317368
 20
-25.3064646089
 11
1.3944783604
 21
-25.2163272822
  0
LWPOLYLINE
  5
233
100
AcDbEntity
  8
SUPERFICI
100
AcDbPolyline
 62
7
  6
CONTINUOUS
 90
9
 70
0
 10
-3.3317092261
 20
-26.7856043862
 10
-3.2830829557
 20
-26.8077370971
 10
-3.1982361313
 20
-26.8362793818
 10
-3.1085221424
 20
-26.8540690937
 10
-3.0150878874
 20
-26.8603015754
 10
-2.919514377
 20
-26.8544076356
 10
-2.8234680883
 20
-26.8362066221
 10
-2.7280681546
 20
-26.8057277915
 10
-2.7052685926
 20
-26.7965524743
  0
LINE
  5
234
100
AcDbEntity
  8
SUPERFICI
100
AcDbLine
 62
253
  6
CONTINUOUS
 10
-3.5846501184
 20
-26.3694448044
 11
-18.4737299778
 21
-18.9249048747
  0
LINE
  5
235
100
AcDbEntity
  8
SUPERFICI
100
AcDbLine
 62
7
  6
CONTINUOUS
 10
-1.8977766792
 20
-26.4576015235
 11
-0.4943510937
 21
-27.1593143162
  0
LINE
  5
236
100
AcDbEntity
  8
SUPERFICI
100
AcDbLine
 62
253
  6
CONTINUOUS
 10
-1.7860824644
 20
-26.410716829
 11
-0.5593243901
 21
-27.0240958661
  0
LINE
  5
237
100
AcDbEntity
  8
SUPERFICI
100
AcDbLine
 62
7
  6
CONTINUOUS
 10
-3.3304590419
 20
-26.7862326237
 11
-18.225183533
 21
-19.3388674498
  0
LINE
  5
238
100
AcDbEntity
  8
SUPERFICI
100
AcDbLine
 62
7
  6
CONTINUOUS
 10
-18.3024539863
 20
-19.2934404625
 11
-18.2251827641
 21
-19.3388675383
  0
LWPOLYLINE
  5
239
100
AcDbEntity
  8
SUPERFICI
100
AcDbPolyline
 62
7
  6
CONTINUOUS
 90
3
 70
0
 10
-18.5573642799
 20
18.2517422823
 10
-18.6064932777
 20
18.0729321603
 10
-18.6209688667
 20
17.9794859593
  0
LINE
  5
23A
100
AcDbEntity
  8
SUPERFICI
100
AcDbLine
 62
7
  6
CONTINUOUS
 10
-10.9091796322
 20
20.3073437565
 11
-11.799239815
 21
19.8106628352
  0
LINE
  5
23B
100
AcDbEntity
  8
SUPERFICI
100
AcDbLine
 62
7
  6
CONTINUOUS
 10
-8.9292806449
 20
20.7030349089
 11
-9.9837700763
 21
20.1620618702
  0
LINE
  5
23C
100
AcDbEntity
  8
SUPERFICI
100
AcDbLine
 62
7
  6
CONTINUOUS
 10
-3.593057239
 20
23.3024783744
 11
-8.9292806449
 21
20.7030349089
  0
LINE
  5
23D
100
AcDbEntity
  8
DRAFT
100
AcDbLine
 62
7
  6
CONTINUOUS
 10
-3.0848478626
 20
24.1220146375
 11
-10.206186678
 21
20.6579156721
  0
LINE
  5
23E
100
AcDbEntity
  8
RACCORDO
100
AcDbLine
 62
7
  6
CONTINUOUS
 10
4.4764293644
 20
27.0901743149
 11
-2.2145003836
 21
23.9347503816
  0
LINE
  5
23F
100
AcDbEntity
  8
RACCORDO
100
AcDbLine
 62
253
  6
CONTINUOUS
 10
4.9153141149
 20
27.0577713799
 11
-1.9681228106
 21
23.811561595
  0
LINE
  5
240
100
AcDbEntity
  8
SUPERFICI
100
AcDbLine
 62
253
  6
CONTINUOUS
 10
-0.5593243901
 20
-26.684121932
 11
-1.4164489048
 21
-26.2555596746
  0
LINE
  5
241
100
AcDbEntity
  8
SUPERFICI
100
AcDbLine
 62
253
  6
CONTINUOUS
 10
-0.4709360424
 20
-26.4524277582
 11
-1.1164918147
 21
-26.1296498721
  0
LINE
  5
242
100
AcDbEntity
  8
SUPERFICI
100
AcDbLine
 62
7
  6
CONTINUOUS
 10
0.151896218
 20
-25.7076254549
 11
0.0318720454
 21
-25.6476133686
  0
LWPOLYLINE
  5
243
100
AcDbEntity
  8
SUPERFICI
100
AcDbPolyline
 62
7
  6
CONTINUOUS
 90
10
 70
0
 10
-18.6209201828
 20
17.9799257816
 10
-18.723566818
 20
17.0440722259
 10
-18.8491065953
 20
15.786737486
 10
-18.959863613
 20
14.5347085969
 10
-19.0558102222
 20
13.2882808605
 10
-19.1369225767
 20
12.0477413586
 10
-19.2031796453
 20
10.813378046
 10
-19.2545635627
 20
9.5854749991
 10
-19.2910592972
 20
8.3643229704
 10
-19.3080825945
 20
7.4913343839
  0
LINE
  5
244
100
AcDbEntity
  8
SUPERFICI
100
AcDbLine
 62
253
  6
CONTINUOUS
 10
-10.9091796322
 20
21.182449565
 11
-10.3809124605
 21
21.8254017208
  0
LINE
  5
245
100
AcDbEntity
  8
SUPERFICI
100
AcDbLine
 62
7
  6
CONTINUOUS
 10
-10.9091796322
 20
21.0929190987
 11
-10.3655518881
 21
21.7545665542
  0
LINE
  5
246
100
AcDbEntity
  8
SUPERFICI
100
AcDbLine
 62
7
  6
CONTINUOUS
 10
-9.3181893746
 20
18.3831087536
 11
-8.6110825934
 21
18.7820486124
  0
LINE
  5
247
100
AcDbEntity
  8
SUPERFICI
100
AcDbLine
 62
7
  6
CONTINUOUS
 10
-9.3181893746
 20
19.8292715193
 11
-8.4704839886
 21
20.259164416
  0
LINE
  5
248
100
AcDbEntity
  8
SUPERFICI
100
AcDbLine
 62
253
  6
CONTINUOUS
 10
-6.8441383919
 20
19.4459916176
 11
-6.6311836061
 21
19.5539863895
  0
LINE
  5
249
100
AcDbEntity
  8
SUPERFICI
100
AcDbLine
 62
253
  6
CONTINUOUS
 10
-6.7018942842
 20
19.2024901657
 11
-6.4897622498
 21
19.3100676994
  0
LINE
  5
24A
100
AcDbEntity
  8
SUPERFICI
100
AcDbLine
 62
7
  6
CONTINUOUS
 10
-2.2711452301
 20
21.0149393549
 11
-1.167178361
 21
21.5669227895
  0
LINE
  5
24B
100
AcDbEntity
  8
SUPERFICI
100
AcDbLine
 62
7
  6
CONTINUOUS
 10
-2.9521714652
 20
22.9820354875
 11
-7.5504224216
 21
20.71567419
  0
LINE
  5
24C
100
AcDbEntity
  8
SUPERFICI
100
AcDbLine
 62
7
  6
CONTINUOUS
 10
-3.2370710564
 20
21.4559750573
 11
-2.9210245257
 21
21.6117463782
  0
LINE
  5
24D
100
AcDbEntity
  8
SUPERFICI
100
AcDbLine
 62
253
  6
CONTINUOUS
 10
-6.6311836061
 20
19.5539863895
 11
-5.9240768249
 21
19.9025013917
  0
LINE
  5
24E
100
AcDbEntity
  8
SUPERFICI
100
AcDbLine
 62
7
  6
CONTINUOUS
 10
-0.1216874619
 20
22.6404344371
 11
-2.2711452301
 21
21.5810212075
  0
LINE
  5
24F
100
AcDbEntity
  8
SUPERFICI
100
AcDbLine
 62
253
  6
CONTINUOUS
 10
-6.4897622498
 20
19.3100676994
 11
-5.7826554686
 21
19.6585827016
  0
LINE
  5
250
100
AcDbEntity
  8
SUPERFICI
100
AcDbLine
 62
253
  6
CONTINUOUS
 10
1.3944783604
 20
-25.0870379207
 11
1.8333317368
 21
-25.3064646089
  0
LINE
  5
251
100
AcDbEntity
  8
SUPERFICI
100
AcDbLine
 62
7
  6
CONTINUOUS
 10
1.3944783604
 20
-25.0834177712
 11
1.856746788
 21
-25.314551985
  0
LWPOLYLINE
  5
252
100
AcDbEntity
  8
SUPERFICI
100
AcDbPolyline
 62
7
  6
CONTINUOUS
 90
4
 70
0
 10
-18.619818268
 20
-18.7510194058
 10
-18.6002217269
 20
-18.8542180565
 10
-18.5528623192
 20
-18.9911128441
 10
-18.4847862256
 20
-19.1119546052
  0
LINE
  5
253
100
AcDbEntity
  8
SUPERFICI
100
AcDbLine
 62
253
  6
CONTINUOUS
 10
-18.6200161541
 20
-18.7495381681
 11
-18.6198184342
 21
-18.7510194278
  0
LWPOLYLINE
  5
254
100
AcDbEntity
  8
SUPERFICI
100
AcDbPolyline
 62
7
  6
CONTINUOUS
 90
10
 70
0
 10
-19.3080807614
 20
-8.9619368718
 10
-19.2903685117
 20
-9.845342223
 10
-19.2535031275
 20
-11.0291651926
 10
-19.201731528
 20
-12.2045171333
 10
-19.1350639029
 20
-13.3711205104
 10
-19.0535132757
 20
-14.5287072824
 10
-18.9570956101
 20
-15.6770103767
 10
-18.8458296914
 20
-16.8157659688
 10
-18.7197382748
 20
-17.9447036732
 10
-18.6200161541
 20
-18.7495381681
  0
LWPOLYLINE
  5
255
100
AcDbEntity
  8
SUPERFICI
100
AcDbPolyline
 62
7
  6
CONTINUOUS
 90
10
 70
0
 10
-19.3080825847
 20
7.491335099
 10
-19.3299748037
 20
5.8903827021
 10
-19.3499984621
 20
3.9798478861
 10
-19.363331385
 20
2.0726783019
 10
-19.3699732642
 20
0.1689121811
 10
-19.3699239429
 20
-1.7314151662
 10
-19.3631833637
 20
-3.6282693088
 10
-19.3497515667
 20
-5.5216150347
 10
-19.3296287476
 20
-7.4114143008
 10
-19.3080807504
 20
-8.9619376894
  0
LINE
  5
256
100
AcDbEntity
  8
SUPERFICI
100
AcDbLine
 62
7
  6
CONTINUOUS
 10
-6.4897622498
 20
18.0976350653
 11
-6.7018942842
 21
17.9779531077
  0
LINE
  5
257
100
AcDbEntity
  8
DRAFT
100
AcDbLine
 62
7
  6
CONTINUOUS
 10
-3.3784924126
 20
19.2559734274
 11
-3.9809459197
 21
18.9309359391
  0
LINE
  5
258
100
AcDbEntity
  8
DRAFT
100
AcDbLine
 62
7
  6
CONTINUOUS
 10
-4.1279393327
 20
19.0044326456
 11
-3.2370710564
 21
19.45938855
  0
LINE
  5
259
100
AcDbEntity
  8
SUPERFICI
100
AcDbLine
 62
7
  6
CONTINUOUS
 10
-5.0239509212
 20
18.7109461515
 11
-5.2367174235
 21
18.603046863
  0
LINE
  5
25A
100
AcDbEntity
  8
SUPERFICI
100
AcDbLine
 62
253
  6
CONTINUOUS
 10
-4.9341273312
 20
18.7054582521
 11
-5.147082117
 21
18.5974634802
  0
LINE
  5
25B
100
AcDbEntity
  8
SUPERFICI
100
AcDbLine
 62
253
  6
CONTINUOUS
 10
-5.2366030891
 20
18.6031047209
 11
-5.2367174292
 21
18.6030468601
  0
LINE
  5
25C
100
AcDbEntity
  8
SUPERFICI
100
AcDbLine
 62
7
  6
CONTINUOUS
 10
-5.023185101
 20
18.7113290535
 11
-5.0239498865
 21
18.7109466762
  0
LINE
  5
25D
100
AcDbEntity
  8
SUPERFICI
100
AcDbLine
 62
7
  6
CONTINUOUS
 10
-5.7826554686
 20
18.446653916
 11
-6.4897622498
 21
18.0976350653
  0
LINE
  5
25E
100
AcDbEntity
  8
SUPERFICI
100
AcDbLine
 62
7
  6
CONTINUOUS
 10
-4.3160765985
 20
19.0598449038
 11
-5.0231842454
 21
18.7113294749
  0
LINE
  5
25F
100
AcDbEntity
  8
SUPERFICI
100
AcDbLine
 62
253
  6
CONTINUOUS
 10
-4.22702055
 20
19.0539732542
 11
-4.9341273312
 21
18.7054582521
  0
LINE
  5
260
100
AcDbEntity
  8
SUPERFICI
100
AcDbLine
 62
7
  6
CONTINUOUS
 10
1.9975760031
 20
20.5071617534
 11
-2.6006749533
 21
18.2408004559
  0
LINE
  5
261
100
AcDbEntity
  8
RACCORDO
100
AcDbLine
 62
7
  6
CONTINUOUS
 10
-2.5301120591
 20
19.9576577748
 11
-2.4153434487
 21
20.0107733647
  0
LINE
  5
262
100
AcDbEntity
  8
RACCORDO
100
AcDbLine
 62
253
  6
CONTINUOUS
 10
-2.3178860887
 20
19.9381058308
 11
-2.2346406405
 21
19.9765513374
  0
LINE
  5
263
100
AcDbEntity
  8
DRAFT
100
AcDbLine
 62
7
  6
CONTINUOUS
 10
-3.3027689362
 20
19.2909450382
 11
-3.3784924126
 21
19.2559734274
  0
LINE
  5
264
100
AcDbEntity
  8
RACCORDO
100
AcDbLine
 62
7
  6
CONTINUOUS
 10
-2.4005626784
 20
20.0175471828
 11
-2.4153434487
 21
20.0107733647
  0
LINE
  5
265
100
AcDbEntity
  8
RACCORDO
100
AcDbLine
 62
7
  6
CONTINUOUS
 10
-2.3901032454
 20
20.0222659951
 11
-2.4005626784
 21
20.0175471828
  0
LINE
  5
266
100
AcDbEntity
  8
RACCORDO
100
AcDbLine
 62
7
  6
CONTINUOUS
 10
-2.3791617617
 20
20.0271256537
 11
-2.3901032454
 21
20.0222659951
  0
LINE
  5
267
100
AcDbEntity
  8
RACCORDO
100
AcDbLine
 62
7
  6
CONTINUOUS
 10
-2.3677392303
 20
20.0321082641
 11
-2.3791617617
 21
20.0271256537
  0
LINE
  5
268
100
AcDbEntity
  8
RACCORDO
100
AcDbLine
 62
7
  6
CONTINUOUS
 10
-2.3557835381
 20
20.0372184141
 11
-2.3677392303
 21
20.0321082641
  0
LINE
  5
269
100
AcDbEntity
  8
RACCORDO
100
AcDbLine
 62
7
  6
CONTINUOUS
 10
-3.8116073719
 20
18.8462666652
 11
-2.5681141473
 21
19.9329663033
  0
LINE
  5
26A
100
AcDbEntity
  8
RACCORDO
100
AcDbLine
 62
253
  6
CONTINUOUS
 10
-3.6577720938
 20
18.7693490261
 11
-2.3194853162
 21
19.9388895818
  0
LINE
  5
26B
100
AcDbEntity
  8
SUPERFICI
100
AcDbLine
 62
7
  6
CONTINUOUS
 10
-2.6360302924
 20
16.1707690866
 11
-3.7028612045
 21
15.5754446685
  0
LINE
  5
26C
100
AcDbEntity
  8
SUPERFICI
100
AcDbLine
 62
7
  6
CONTINUOUS
 10
-2.1751998707
 20
16.1055499668
 11
-0.5920281757
 21
16.9177470141
  0
LINE
  5
26D
100
AcDbEntity
  8
SUPERFICI
100
AcDbLine
 62
7
  6
CONTINUOUS
 10
-3.5207365203
 20
17.7842906819
 11
-4.3684419063
 21
17.3543977852
  0
LINE
  5
26E
100
AcDbEntity
  8
SUPERFICI
100
AcDbLine
 62
7
  6
CONTINUOUS
 10
-2.6360302924
 20
17.5564097326
 11
-3.7028612045
 21
17.0216074343
  0
LINE
  5
26F
100
AcDbEntity
  8
SUPERFICI
100
AcDbLine
 62
7
  6
CONTINUOUS
 10
-0.592026206
 20
16.9177480247
 11
-0.5902897886
 21
16.9186162477
  0
LINE
  5
270
100
AcDbEntity
  8
SUPERFICI
100
AcDbLine
 62
7
  6
CONTINUOUS
 10
2.6384617768
 20
20.1867188665
 11
-2.6360302924
 21
17.5564097326
  0
LINE
  5
271
100
AcDbEntity
  8
SUPERFICI
100
AcDbLine
 62
7
  6
CONTINUOUS
 10
-2.6360302924
 20
16.1707690866
 11
2.6712803738
 21
18.8174443566
  0
LINE
  5
272
100
AcDbEntity
  8
SUPERFICI
100
AcDbLine
 62
7
  6
CONTINUOUS
 10
2.8021152249
 20
19.8690922853
 11
4.1209532253
 21
20.5191140936
  0
LINE
  5
273
100
AcDbEntity
  8
SUPERFICI
100
AcDbLine
 62
7
  6
CONTINUOUS
 10
-0.5902870246
 20
16.9186175941
 11
-0.0554198338
 21
17.1791683466
  0
LINE
  5
274
100
AcDbEntity
  8
SUPERFICI
100
AcDbLine
 62
253
  6
CONTINUOUS
 10
-0.4793576014
 20
16.911086089
 11
0.0550922773
 21
17.1714335556
  0
LINE
  5
275
100
AcDbEntity
  8
SUPERFICI
100
AcDbLine
 62
253
  6
CONTINUOUS
 10
-19.1616293425
 20
-9.1392272617
 11
-4.29685258
 21
-16.571615643
  0
LINE
  5
276
100
AcDbEntity
  8
RACCORDO
100
AcDbLine
 62
253
  6
CONTINUOUS
 10
-14.7189852571
 20
-6.4149570413
 11
-14.7189437867
 21
-6.4157044931
  0
LINE
  5
277
100
AcDbEntity
  8
RACCORDO
100
AcDbLine
 62
7
  6
CONTINUOUS
 10
-14.7368014735
 20
-6.0621579396
 11
-14.7189852571
 21
-6.4149570413
  0
LINE
  5
278
100
AcDbEntity
  8
RACCORDO
100
AcDbLine
 62
7
  6
CONTINUOUS
 10
-14.7643723503
 20
-5.3752414993
 11
-14.7368014735
 21
-6.0621579396
  0
LINE
  5
279
100
AcDbEntity
  8
SUPERFICI
100
AcDbLine
 62
253
  6
CONTINUOUS
 10
-14.6147437146
 20
22.034869002
 11
-14.6147437578
 21
22.0349425393
  0
LINE
  5
27A
100
AcDbEntity
  8
SUPERFICI
100
AcDbLine
 62
7
  6
CONTINUOUS
 10
-14.6147437578
 20
22.0349425207
 11
-14.6147437578
 21
21.6949685866
  0
LINE
  5
27B
100
AcDbEntity
  8
SUPERFICI
100
AcDbLine
 62
253
  6
CONTINUOUS
 10
-14.5415204531
 20
21.946554173
 11
-14.5415204531
 21
21.6065802389
  0
LINE
  5
27C
100
AcDbEntity
  8
RACCORDO
100
AcDbLine
 62
253
  6
CONTINUOUS
 10
-14.5153815107
 20
-0.3782843806
 11
-14.5153815107
 21
-0.2666599976
  0
LINE
  5
27D
100
AcDbEntity
  8
SUPERFICI
100
AcDbLine
 62
7
  6
CONTINUOUS
 10
-13.9117508036
 20
21.1889636122
 11
-13.9117508036
 21
20.7350098703
  0
LINE
  5
27E
100
AcDbEntity
  8
SUPERFICI
100
AcDbLine
 62
253
  6
CONTINUOUS
 10
-13.8385274989
 20
21.1523519599
 11
-13.8385274989
 21
20.6432778157
  0
LWPOLYLINE
  5
27F
100
AcDbEntity
  8
RACCORDO
100
AcDbPolyline
 62
7
  6
CONTINUOUS
 90
7
 70
0
 10
-14.7381318114
 20
-1.1538289552
 10
-14.7653083672
 20
-1.868403319
 10
-14.7833722507
 20
-2.5788259747
 10
-14.7923139307
 20
-3.2848883216
 10
-14.7921296284
 20
-3.9864192078
 10
-14.7828163762
 20
-4.6832607783
 10
-14.7643723503
 20
-5.3752414993
  0
LINE
  5
280
100
AcDbEntity
  8
RACCORDO
100
AcDbLine
 62
7
  6
CONTINUOUS
 10
-14.7190603399
 20
-0.7543490064
 11
-14.7381318114
 21
-1.1538289552
  0
LINE
  5
281
100
AcDbEntity
  8
RACCORDO
100
AcDbLine
 62
7
  6
CONTINUOUS
 10
-14.7190562493
 20
-0.7542842896
 11
-14.7190777042
 21
-0.7546846571
  0
LINE
  5
282
100
AcDbEntity
  8
SUPERFICI
100
AcDbLine
 62
253
  6
CONTINUOUS
 10
-2.0621142045
 20
16.0991019917
 11
-0.4793576014
 21
16.911086089
  0
LINE
  5
283
100
AcDbEntity
  8
SUPERFICI
100
AcDbLine
 62
253
  6
CONTINUOUS
 10
-0.3835761341
 20
15.2598329565
 11
1.2177046567
 21
16.06255496
  0
LINE
  5
284
100
AcDbEntity
  8
SUPERFICI
100
AcDbLine
 62
253
  6
CONTINUOUS
 10
-0.2068024304
 20
14.9549434177
 11
1.3944783604
 21
15.7576654212
  0
LINE
  5
285
100
AcDbEntity
  8
DRAFT
100
AcDbLine
 62
7
  6
CONTINUOUS
 10
7.084113626
 20
19.0375338932
 11
1.7622576953
 21
16.3798282175
  0
LINE
  5
286
100
AcDbEntity
  8
SUPERFICI
100
AcDbLine
 62
253
  6
CONTINUOUS
 10
1.2177046567
 20
16.06255496
 11
1.7459718285
 21
16.32599378
  0
LINE
  5
287
100
AcDbEntity
  8
SUPERFICI
100
AcDbLine
 62
253
  6
CONTINUOUS
 10
1.3944783604
 20
15.7576654212
 11
1.9227455322
 21
16.0211042412
  0
LINE
  5
288
100
AcDbEntity
  8
SUPERFICI
100
AcDbLine
 62
253
  6
CONTINUOUS
 10
-12.8629823827
 20
20.7673112037
 11
-12.8629823827
 21
21.1072851378
  0
LINE
  5
289
100
AcDbEntity
  8
SUPERFICI
100
AcDbLine
 62
253
  6
CONTINUOUS
 10
-12.5104604231
 20
20.7667984799
 11
-12.5104604231
 21
21.106772414
  0
LINE
  5
28A
100
AcDbEntity
  8
SUPERFICI
100
AcDbLine
 62
253
  6
CONTINUOUS
 10
-12.1517617746
 20
19.7998949536
 11
-12.1517617746
 21
20.4938076808
  0
LINE
  5
28B
100
AcDbEntity
  8
SUPERFICI
100
AcDbLine
 62
253
  6
CONTINUOUS
 10
-11.799239815
 20
19.8106628352
 11
-11.799239815
 21
20.618294957
  0
LINE
  5
28C
100
AcDbEntity
  8
SUPERFICI
100
AcDbLine
 62
7
  6
CONTINUOUS
 10
-10.9091796322
 20
20.3073437565
 11
-10.9091796322
 21
21.9094944175
  0
LINE
  5
28D
100
AcDbEntity
  8
SUPERFICI
100
AcDbLine
 62
7
  6
CONTINUOUS
 10
1.3944783604
 20
14.1555147602
 11
0.5044181777
 21
13.6588338389
  0
LINE
  5
28E
100
AcDbEntity
  8
SUPERFICI
100
AcDbLine
 62
253
  6
CONTINUOUS
 10
1.7476837459
 20
13.9789120674
 11
-2.9166771176
 21
11.4325003705
  0
LINE
  5
28F
100
AcDbEntity
  8
DRAFT
100
AcDbLine
 62
7
  6
CONTINUOUS
 10
8.0591688681
 20
17.7414514283
 11
2.0160497344
 21
14.546797466
  0
LINE
  5
290
100
AcDbEntity
  8
DRAFT
100
AcDbLine
 62
7
  6
CONTINUOUS
 10
2.4680679641
 20
14.3201039086
 11
8.7506149308
 21
17.6203884734
  0
LINE
  5
291
100
AcDbEntity
  8
DRAFT
100
AcDbLine
 62
7
  6
CONTINUOUS
 10
8.0591688681
 20
18.1415786886
 11
1.5987757422
 21
14.7554344621
  0
LINE
  5
292
100
AcDbEntity
  8
SUPERFICI
100
AcDbLine
 62
253
  6
CONTINUOUS
 10
2.4492807335
 20
14.3301819664
 11
1.7483447797
 21
13.9785815505
  0
LINE
  5
293
100
AcDbEntity
  8
SUPERFICI
100
AcDbLine
 62
253
  6
CONTINUOUS
 10
2.8028296368
 20
13.7204094687
 11
2.101893683
 21
13.3688090528
  0
LINE
  5
294
100
AcDbEntity
  8
RACCORDO
100
AcDbLine
 62
253
  6
CONTINUOUS
 10
-14.0831743025
 20
-7.1893491666
 11
-9.4773165917
 21
-9.492278022
  0
LINE
  5
295
100
AcDbEntity
  8
RACCORDO
100
AcDbLine
 62
253
  6
CONTINUOUS
 10
-14.0137002594
 20
-7.0672853684
 11
-9.4078425486
 21
-9.3702142238
  0
LINE
  5
296
100
AcDbEntity
  8
RACCORDO
100
AcDbLine
 62
7
  6
CONTINUOUS
 10
-9.8643664628
 20
-9.1246563973
 11
-14.4433214693
 21
-6.835178894
  0
LINE
  5
297
100
AcDbEntity
  8
RACCORDO
100
AcDbLine
 62
253
  6
CONTINUOUS
 10
-9.277843529
 20
-9.3000767703
 11
-9.5449135143
 21
-9.1665417776
  0
LINE
  5
298
100
AcDbEntity
  8
RACCORDO
100
AcDbLine
 62
253
  6
CONTINUOUS
 10
-9.9935559044
 20
-8.8821644147
 11
-14.5725109109
 21
-6.5926869114
  0
LINE
  5
299
100
AcDbEntity
  8
RACCORDO
100
AcDbLine
 62
7
  6
CONTINUOUS
 10
-8.81352792
 20
-3.1652856676
 11
-8.8048231717
 21
-3.3044763858
  0
LINE
  5
29A
100
AcDbEntity
  8
RACCORDO
100
AcDbLine
 62
7
  6
CONTINUOUS
 10
-8.8065923014
 20
-8.5874475674
 11
-8.8048279439
 21
-8.9471329504
  0
LINE
  5
29B
100
AcDbEntity
  8
SUPERFICI
100
AcDbLine
 62
253
  6
CONTINUOUS
 10
-10.3809124605
 20
22.1729332375
 11
-10.3809124605
 21
21.8254017208
  0
LINE
  5
29C
100
AcDbEntity
  8
SUPERFICI
100
AcDbLine
 62
7
  6
CONTINUOUS
 10
-10.3087146035
 20
22.2608058697
 11
-10.3087146035
 21
21.9132743529
  0
LINE
  5
29D
100
AcDbEntity
  8
SUPERFICI
100
AcDbLine
 62
7
  6
CONTINUOUS
 10
-9.9837700763
 20
20.1620618702
 11
-9.9837700763
 21
18.7158991045
  0
LINE
  5
29E
100
AcDbEntity
  8
SUPERFICI
100
AcDbLine
 62
7
  6
CONTINUOUS
 10
-9.3181893746
 20
18.3831087536
 11
-9.3181893746
 21
19.8292715193
  0
LINE
  5
29F
100
AcDbEntity
  8
RACCORDO
100
AcDbLine
 62
253
  6
CONTINUOUS
 10
-8.9292379393
 20
-8.6890815677
 11
-8.9292379393
 21
-3.0657256272
  0
LINE
  5
2A0
100
AcDbEntity
  8
SUPERFICI
100
AcDbLine
 62
7
  6
CONTINUOUS
 10
-8.6110825934
 20
20.015662964
 11
-8.6110825934
 21
18.7820486124
  0
LINE
  5
2A1
100
AcDbEntity
  8
SUPERFICI
100
AcDbLine
 62
253
  6
CONTINUOUS
 10
-10.3087146035
 20
22.2608058874
 11
-10.3087146783
 21
22.2607091953
  0
LWPOLYLINE
  5
2A2
100
AcDbEntity
  8
RACCORDO
100
AcDbPolyline
 62
7
  6
CONTINUOUS
 90
8
 70
0
 10
-8.8067191887
 20
-3.6944275151
 10
-8.8094169137
 20
-4.3948314765
 10
-8.8112093607
 20
-5.0947714988
 10
-8.8120965222
 20
-5.7942455153
 10
-8.8120783965
 20
-6.4932518053
 10
-8.8111549832
 20
-7.1917887803
 10
-8.8093262827
 20
-7.8898547208
 10
-8.8065923014
 20
-8.5874475674
  0
LINE
  5
2A3
100
AcDbEntity
  8
RACCORDO
100
AcDbLine
 62
7
  6
CONTINUOUS
 10
-8.8048279587
 20
-3.3048598146
 11
-8.8067191887
 21
-3.6944275151
  0
LINE
  5
2A4
100
AcDbEntity
  8
SUPERFICI
100
AcDbLine
 62
253
  6
CONTINUOUS
 10
2.1009844465
 20
13.369068013
 11
-2.5508231532
 21
10.8295095118
  0
LINE
  5
2A5
100
AcDbEntity
  8
RACCORDO
100
AcDbLine
 62
253
  6
CONTINUOUS
 10
18.6764898589
 20
19.7696203198
 11
3.1016482283
 21
11.8458729849
  0
LINE
  5
2A6
100
AcDbEntity
  8
RACCORDO
100
AcDbLine
 62
253
  6
CONTINUOUS
 10
9.4961418665
 20
16.3345447146
 11
18.0508672996
 21
20.4899947875
  0
LINE
  5
2A7
100
AcDbEntity
  8
RACCORDO
100
AcDbLine
 62
253
  6
CONTINUOUS
 10
9.8338102003
 20
15.7521529875
 11
18.5507911472
 21
19.9864185282
  0
LINE
  5
2A8
100
AcDbEntity
  8
SUPERFICI
100
AcDbLine
 62
7
  6
CONTINUOUS
 10
2.101893683
 20
10.4243080242
 11
3.5037655905
 21
10.8321783434
  0
LINE
  5
2A9
100
AcDbEntity
  8
RACCORDO
100
AcDbLine
 62
7
  6
CONTINUOUS
 10
-9.0803650696
 20
-2.5056957363
 11
-8.9833459373
 21
-2.6583867772
  0
LINE
  5
2AA
100
AcDbEntity
  8
RACCORDO
100
AcDbLine
 62
7
  6
CONTINUOUS
 10
-8.9833459373
 20
-2.6583867772
 11
-8.9042502745
 21
-2.8243140605
  0
LINE
  5
2AB
100
AcDbEntity
  8
RACCORDO
100
AcDbLine
 62
7
  6
CONTINUOUS
 10
-8.9042502745
 20
-2.8243140605
 11
-8.8468652429
 21
-2.9958549644
  0
LINE
  5
2AC
100
AcDbEntity
  8
RACCORDO
100
AcDbLine
 62
7
  6
CONTINUOUS
 10
-8.8468652429
 20
-2.9958549644
 11
-8.81352792
 21
-3.1652856676
  0
LINE
  5
2AD
100
AcDbEntity
  8
SUPERFICI
100
AcDbLine
 62
253
  6
CONTINUOUS
 10
-6.9847369967
 20
17.968875814
 11
-6.9847369967
 21
19.2024901657
  0
LINE
  5
2AE
100
AcDbEntity
  8
SUPERFICI
100
AcDbLine
 62
253
  6
CONTINUOUS
 10
-6.7018942842
 20
17.9779531077
 11
-6.7018942842
 21
19.2024901657
  0
LWPOLYLINE
  5
2AF
100
AcDbEntity
  8
RACCORDO
100
AcDbPolyline
 62
7
  6
CONTINUOUS
 90
3
 70
0
 10
-8.8048279943
 20
-8.947158717
 10
-8.8109697197
 20
-9.056587587
 10
-8.832423227
 20
-9.1629008305
  0
LINE
  5
2B0
100
AcDbEntity
  8
SUPERFICI
100
AcDbLine
 62
253
  6
CONTINUOUS
 10
1.3944783604
 20
15.0306205687
 11
1.9227455322
 21
15.6735727244
  0
LINE
  5
2B1
100
AcDbEntity
  8
SUPERFICI
100
AcDbLine
 62
7
  6
CONTINUOUS
 10
1.3944783604
 20
14.9410901024
 11
1.9381061045
 21
15.6027375579
  0
LINE
  5
2B2
100
AcDbEntity
  8
RACCORDO
100
AcDbLine
 62
7
  6
CONTINUOUS
 10
-14.4571265818
 20
-0.3398732025
 11
-14.1020027503
 21
-0.1482757483
  0
LINE
  5
2B3
100
AcDbEntity
  8
RACCORDO
100
AcDbLine
 62
253
  6
CONTINUOUS
 10
-14.225885029
 20
-0.3500520648
 11
-13.8741883808
 21
-0.1603036545
  0
LINE
  5
2B4
100
AcDbEntity
  8
SUPERFICI
100
AcDbLine
 62
7
  6
CONTINUOUS
 10
2.8028296368
 20
10.7881266332
 11
3.5037655905
 21
11.1523231267
  0
LINE
  5
2B5
100
AcDbEntity
  8
RACCORDO
100
AcDbLine
 62
253
  6
CONTINUOUS
 10
19.0906417865
 20
18.3379822081
 11
3.5398667638
 21
10.4264840996
  0
LINE
  5
2B6
100
AcDbEntity
  8
RACCORDO
100
AcDbLine
 62
253
  6
CONTINUOUS
 10
-14.5725109109
 20
-0.9279882644
 11
-9.9935559044
 21
-3.2174657677
  0
LINE
  5
2B7
100
AcDbEntity
  8
RACCORDO
100
AcDbLine
 62
253
  6
CONTINUOUS
 10
-14.225885029
 20
-0.3500520648
 11
-9.6469300225
 21
-2.639529568
  0
LINE
  5
2B8
100
AcDbEntity
  8
RACCORDO
100
AcDbLine
 62
7
  6
CONTINUOUS
 10
-9.4368200798
 20
-2.1802971093
 11
-9.3120033659
 21
-2.2618563721
  0
LINE
  5
2B9
100
AcDbEntity
  8
RACCORDO
100
AcDbLine
 62
7
  6
CONTINUOUS
 10
-9.3120033659
 20
-2.2618563721
 11
-9.1912792818
 21
-2.3719629955
  0
LINE
  5
2BA
100
AcDbEntity
  8
RACCORDO
100
AcDbLine
 62
7
  6
CONTINUOUS
 10
-9.1912792818
 20
-2.3719629955
 11
-9.0803650696
 21
-2.5056957363
  0
LINE
  5
2BB
100
AcDbEntity
  8
SUPERFICI
100
AcDbLine
 62
7
  6
CONTINUOUS
 10
-5.7826554686
 20
19.6585827016
 11
-5.7826554686
 21
18.446653916
  0
LINE
  5
2BC
100
AcDbEntity
  8
SUPERFICI
100
AcDbLine
 62
7
  6
CONTINUOUS
 10
-5.3462593656
 20
18.4246727064
 11
-5.3462593656
 21
17.1937172211
  0
LINE
  5
2BD
100
AcDbEntity
  8
SUPERFICI
100
AcDbLine
 62
253
  6
CONTINUOUS
 10
-5.2876807218
 20
18.3539620283
 11
-5.2876807218
 21
17.1203476766
  0
LINE
  5
2BE
100
AcDbEntity
  8
SUPERFICI
100
AcDbLine
 62
7
  6
CONTINUOUS
 10
-4.3684419063
 20
17.3543977852
 11
-4.3684419063
 21
15.9082350194
  0
LWPOLYLINE
  5
2BF
100
AcDbEntity
  8
RACCORDO
100
AcDbPolyline
 62
7
  6
CONTINUOUS
 90
3
 70
0
 10
-8.832423227
 20
-9.1629008305
 10
-8.8680709053
 20
-9.2532421101
 10
-8.9158899021
 20
-9.3250016395
  0
LINE
  5
2C0
100
AcDbEntity
  8
RACCORDO
100
AcDbLine
 62
7
  6
CONTINUOUS
 10
-14.4085193977
 20
0.1615998601
 11
-14.4099776337
 21
0.160922156
  0
LINE
  5
2C1
100
AcDbEntity
  8
RACCORDO
100
AcDbLine
 62
253
  6
CONTINUOUS
 10
-14.6554048278
 20
-0.3313274057
 11
-14.5153815107
 21
-0.2666599976
  0
LWPOLYLINE
  5
2C2
100
AcDbEntity
  8
RACCORDO
100
AcDbPolyline
 62
7
  6
CONTINUOUS
 90
7
 70
0
 10
-14.4099878603
 20
0.1609158933
 10
-14.3864635301
 20
0.1706733045
 10
-14.3357828753
 20
0.1840316598
 10
-14.2816527989
 20
0.1887072059
 10
-14.2246146617
 20
0.1847458654
 10
-14.1654505109
 20
0.1723061966
 10
-14.1051146275
 20
0.1517455521
  0
LINE
  5
2C3
100
AcDbEntity
  8
RACCORDO
100
AcDbLine
 62
7
  6
CONTINUOUS
 10
-14.1051146275
 20
0.1517455521
 11
-14.057298063
 21
0.1301424333
  0
LINE
  5
2C4
100
AcDbEntity
  8
RACCORDO
100
AcDbLine
 62
253
  6
CONTINUOUS
 10
-9.282737482
 20
-2.4560291039
 11
-13.8741883808
 21
-0.1603036545
  0
LINE
  5
2C5
100
AcDbEntity
  8
RACCORDO
100
AcDbLine
 62
7
  6
CONTINUOUS
 10
-9.4513298367
 20
-2.17284164
 11
-14.0571875474
 21
0.1300872153
  0
LINE
  5
2C6
100
AcDbEntity
  8
RACCORDO
100
AcDbLine
 62
253
  6
CONTINUOUS
 10
-9.4773165917
 20
-2.118015552
 11
-14.0831743025
 21
0.1849133034
  0
LINE
  5
2C7
100
AcDbEntity
  8
ASSI
100
AcDbLine
 62
253
  6
CONTINUOUS
 10
14.5625492679
 20
-13.9793127598
 11
13.7237638842
 21
-13.559920068
  0
LINE
  5
2C8
100
AcDbEntity
  8
RACCORDO
100
AcDbLine
 62
7
  6
CONTINUOUS
 10
-9.4506022508
 20
-2.173195932
 11
-9.4368200798
 21
-2.1802971093
  0
LINE
  5
2C9
100
AcDbEntity
  8
SUPERFICI
100
AcDbLine
 62
253
  6
CONTINUOUS
 10
-2.3110857286
 20
15.5430719391
 11
-2.3110857652
 21
15.5431395977
  0
LINE
  5
2CA
100
AcDbEntity
  8
SUPERFICI
100
AcDbLine
 62
253
  6
CONTINUOUS
 10
-2.3110857219
 20
15.8830400057
 11
-2.3110857652
 21
15.8831135429
  0
LINE
  5
2CB
100
AcDbEntity
  8
SUPERFICI
100
AcDbLine
 62
7
  6
CONTINUOUS
 10
-3.7028612045
 20
15.5754446685
 11
-3.7028612045
 21
17.0216074343
  0
LINE
  5
2CC
100
AcDbEntity
  8
DRAFT
100
AcDbLine
 62
253
  6
CONTINUOUS
 10
-3.2370710564
 20
19.45938855
 11
-3.2370710564
 21
21.4559750573
  0
LINE
  5
2CD
100
AcDbEntity
  8
SUPERFICI
100
AcDbLine
 62
253
  6
CONTINUOUS
 10
-2.9210245257
 20
21.6117463782
 11
-2.9210245257
 21
22.9957024812
  0
LINE
  5
2CE
100
AcDbEntity
  8
SUPERFICI
100
AcDbLine
 62
7
  6
CONTINUOUS
 10
-2.7883313881
 20
21.7703096189
 11
-2.7883313881
 21
23.0181734927
  0
LINE
  5
2CF
100
AcDbEntity
  8
SUPERFICI
100
AcDbLine
 62
7
  6
CONTINUOUS
 10
-2.6360302924
 20
16.1707690866
 11
-2.6360302924
 21
17.5564097326
  0
LINE
  5
2D0
100
AcDbEntity
  8
SUPERFICI
100
AcDbLine
 62
7
  6
CONTINUOUS
 10
-2.3110857652
 20
15.8831135244
 11
-2.3110857652
 21
15.5431395902
  0
LINE
  5
2D1
100
AcDbEntity
  8
SUPERFICI
100
AcDbLine
 62
7
  6
CONTINUOUS
 10
-2.2711452301
 20
21.5810212075
 11
-2.2711452301
 21
21.0149393549
  0
LINE
  5
2D2
100
AcDbEntity
  8
SUPERFICI
100
AcDbLine
 62
253
  6
CONTINUOUS
 10
-2.2378624605
 20
15.7947251767
 11
-2.2378624605
 21
15.4547512426
  0
LINE
  5
2D3
100
AcDbEntity
  8
RACCORDO
100
AcDbLine
 62
253
  6
CONTINUOUS
 10
-9.282737482
 20
-2.4560291039
 11
-9.6469300225
 21
-2.639529568
  0
LINE
  5
2D4
100
AcDbEntity
  8
RACCORDO
100
AcDbLine
 62
253
  6
CONTINUOUS
 10
16.953464433
 20
-11.9166364902
 11
14.864862542
 21
-10.8723355447
  0
LINE
  5
2D5
100
AcDbEntity
  8
RACCORDO
100
AcDbLine
 62
253
  6
CONTINUOUS
 10
17.4194407044
 20
-11.6795460408
 11
14.864862542
 21
-10.4022569596
  0
LINE
  5
2D6
100
AcDbEntity
  8
ASSI
100
AcDbLine
 62
253
  6
CONTINUOUS
 10
14.5625492679
 20
-9.6491857409
 11
13.7237638842
 21
-9.229793049
  0
LINE
  5
2D7
100
AcDbEntity
  8
SUPERFICI
100
AcDbLine
 62
253
  6
CONTINUOUS
 10
-19.1616293425
 20
7.3152554102
 11
-4.29685258
 21
-0.1171329711
  0
LINE
  5
2D8
100
AcDbEntity
  8
DRAFT
100
AcDbLine
 62
253
  6
CONTINUOUS
 10
-1.822857494
 20
20.1522987683
 11
-1.822857494
 21
20.8855298323
  0
LINE
  5
2D9
100
AcDbEntity
  8
SUPERFICI
100
AcDbLine
 62
7
  6
CONTINUOUS
 10
-1.6080928109
 20
15.0371346159
 11
-1.6080928109
 21
14.583180874
  0
LINE
  5
2DA
100
AcDbEntity
  8
SUPERFICI
100
AcDbLine
 62
253
  6
CONTINUOUS
 10
-1.5348695062
 20
15.0005229636
 11
-1.5348695062
 21
14.4914488194
  0
LINE
  5
2DB
100
AcDbEntity
  8
SUPERFICI
100
AcDbLine
 62
253
  6
CONTINUOUS
 10
-0.5593243901
 20
-27.0240958661
 11
-0.5593243901
 21
-26.684121932
  0
LINE
  5
2DC
100
AcDbEntity
  8
SUPERFICI
100
AcDbLine
 62
253
  6
CONTINUOUS
 10
-0.5593243901
 20
14.6154822074
 11
-0.5593243901
 21
14.9554561415
  0
LINE
  5
2DD
100
AcDbEntity
  8
SUPERFICI
100
AcDbLine
 62
253
  6
CONTINUOUS
 10
-0.2068024304
 20
-27.02460859
 11
-0.2068024304
 21
-26.6846346559
  0
LINE
  5
2DE
100
AcDbEntity
  8
SUPERFICI
100
AcDbLine
 62
253
  6
CONTINUOUS
 10
-0.2068024304
 20
14.6149694835
 11
-0.2068024304
 21
14.9549434177
  0
LINE
  5
2DF
100
AcDbEntity
  8
SUPERFICI
100
AcDbLine
 62
253
  6
CONTINUOUS
 10
0.151896218
 20
-25.7076254549
 11
0.151896218
 21
-25.5972320961
  0
LINE
  5
2E0
100
AcDbEntity
  8
SUPERFICI
100
AcDbLine
 62
253
  6
CONTINUOUS
 10
0.151896218
 20
13.6480659573
 11
0.151896218
 21
14.3419786845
  0
LINE
  5
2E1
100
AcDbEntity
  8
RACCORDO
100
AcDbLine
 62
253
  6
CONTINUOUS
 10
-8.9292379393
 20
-3.0657256272
 11
-9.2934304798
 21
-3.2492260913
  0
LINE
  5
2E2
100
AcDbEntity
  8
ASSI
100
AcDbLine
 62
7
  6
CONTINUOUS
 10
19.0784087674
 20
-10.9339416506
 11
18.7893051776
 21
-10.7893898558
  0
LINE
  5
2E3
100
AcDbEntity
  8
SUPERFICI
100
AcDbLine
 62
253
  6
CONTINUOUS
 10
0.5044181777
 20
-25.8331381787
 11
0.5044181777
 21
-25.4492576964
  0
LINE
  5
2E4
100
AcDbEntity
  8
SUPERFICI
100
AcDbLine
 62
253
  6
CONTINUOUS
 10
0.5044181777
 20
13.6588338389
 11
0.5044181777
 21
14.4664659607
  0
LINE
  5
2E5
100
AcDbEntity
  8
SUPERFICI
100
AcDbLine
 62
7
  6
CONTINUOUS
 10
0.581305562
 20
22.1259202012
 11
0.581305562
 21
21.6617418876
  0
LINE
  5
2E6
100
AcDbEntity
  8
SUPERFICI
100
AcDbLine
 62
7
  6
CONTINUOUS
 10
1.3944783604
 20
-25.0756465847
 11
1.3944783604
 21
-26.2445739903
  0
LINE
  5
2E7
100
AcDbEntity
  8
SUPERFICI
100
AcDbLine
 62
7
  6
CONTINUOUS
 10
1.3944783604
 20
14.1555147602
 11
1.3944783604
 21
15.7576654212
  0
LINE
  5
2E8
100
AcDbEntity
  8
SUPERFICI
100
AcDbLine
 62
253
  6
CONTINUOUS
 10
1.9227455322
 20
16.0211042412
 11
1.9227455322
 21
15.6735727244
  0
LINE
  5
2E9
100
AcDbEntity
  8
SUPERFICI
100
AcDbLine
 62
253
  6
CONTINUOUS
 10
1.9227455322
 20
-25.6260314149
 11
1.9227455322
 21
-25.9735629317
  0
LINE
  5
2EA
100
AcDbEntity
  8
SUPERFICI
100
AcDbLine
 62
7
  6
CONTINUOUS
 10
1.9949433891
 20
16.1089768734
 11
1.9949433891
 21
15.7614453566
  0
LINE
  5
2EB
100
AcDbEntity
  8
SUPERFICI
100
AcDbLine
 62
7
  6
CONTINUOUS
 10
1.9949433891
 20
-25.5381587828
 11
1.9949433891
 21
-25.8856902995
  0
LINE
  5
2EC
100
AcDbEntity
  8
SUPERFICI
100
AcDbLine
 62
7
  6
CONTINUOUS
 10
2.101893683
 20
13.3688090528
 11
2.101893683
 21
10.4243080242
  0
LINE
  5
2ED
100
AcDbEntity
  8
SUPERFICI
100
AcDbLine
 62
7
  6
CONTINUOUS
 10
2.101893683
 20
-24.5631329445
 11
2.101893683
 21
-21.6186319159
  0
LINE
  5
2EE
100
AcDbEntity
  8
SUPERFICI
100
AcDbLine
 62
253
  6
CONTINUOUS
 10
1.9949433891
 20
16.108976891
 11
1.9949433144
 21
16.108880199
  0
LINE
  5
2EF
100
AcDbEntity
  8
SUPERFICI
100
AcDbLine
 62
253
  6
CONTINUOUS
 10
1.9949433891
 20
-25.8856902818
 11
1.9949425546
 21
-25.8860132838
  0
LINE
  5
2F0
100
AcDbEntity
  8
SUPERFICI
100
AcDbLine
 62
253
  6
CONTINUOUS
 10
1.9949433891
 20
-25.5381587826
 11
1.9949390488
 21
-25.5388953562
  0
LINE
  5
2F1
100
AcDbEntity
  8
RACCORDO
100
AcDbLine
 62
7
  6
CONTINUOUS
 10
-8.9158899021
 20
-9.3250016395
 11
-8.9738538472
 21
-9.3773074412
  0
LINE
  5
2F2
100
AcDbEntity
  8
SUPERFICI
100
AcDbLine
 62
253
  6
CONTINUOUS
 10
2.6712803738
 20
18.8174443566
 11
2.6712803738
 21
19.291845732
  0
LINE
  5
2F3
100
AcDbEntity
  8
SUPERFICI
100
AcDbLine
 62
253
  6
CONTINUOUS
 10
2.6712803738
 20
19.6480215985
 11
2.6712803738
 21
20.2011923216
  0
LINE
  5
2F4
100
AcDbEntity
  8
SUPERFICI
100
AcDbLine
 62
7
  6
CONTINUOUS
 10
2.8021152249
 20
18.9750860066
 11
2.8021152249
 21
20.2229787018
  0
LINE
  5
2F5
100
AcDbEntity
  8
SUPERFICI
100
AcDbLine
 62
7
  6
CONTINUOUS
 10
2.8028296368
 20
13.7204094687
 11
2.8028296368
 21
10.7881266332
  0
LINE
  5
2F6
100
AcDbEntity
  8
SUPERFICI
100
AcDbLine
 62
7
  6
CONTINUOUS
 10
2.8028296368
 20
-21.2691729163
 11
2.8028296368
 21
-24.2014557518
  0
LINE
  5
2F7
100
AcDbEntity
  8
SUPERFICI
100
AcDbLine
 62
7
  6
CONTINUOUS
 10
3.5037655905
 20
11.1523231267
 11
3.5037655905
 21
10.8321783434
  0
LINE
  5
2F8
100
AcDbEntity
  8
SUPERFICI
100
AcDbLine
 62
7
  6
CONTINUOUS
 10
3.5037655905
 20
-20.6430913533
 11
3.5037655905
 21
-20.9200918012
  0
LINE
  5
2F9
100
AcDbEntity
  8
SUPERFICI
100
AcDbLine
 62
7
  6
CONTINUOUS
 10
3.5398667638
 20
10.8141277568
 11
3.5398667638
 21
-20.6179976046
  0
LINE
  5
2FA
100
AcDbEntity
  8
RACCORDO
100
AcDbLine
 62
7
  6
CONTINUOUS
 10
-8.9738538472
 20
-9.3773074412
 11
-8.993408893
 21
-9.3894623777
  0
LINE
  5
2FB
100
AcDbEntity
  8
RACCORDO
100
AcDbLine
 62
253
  6
CONTINUOUS
 10
-9.4078425486
 20
-9.3702142238
 11
-9.277843529
 21
-9.3000767703
  0
LINE
  5
2FC
100
AcDbEntity
  8
RACCORDO
100
AcDbLine
 62
253
  6
CONTINUOUS
 10
-9.0635478965
 20
-8.9616143613
 11
-9.0620022167
 21
-8.960893875
  0
LINE
  5
2FD
100
AcDbEntity
  8
RACCORDO
100
AcDbLine
 62
253
  6
CONTINUOUS
 10
-8.9292379393
 20
-8.6890815677
 11
-9.2934304798
 21
-8.8572777519
  0
LINE
  5
2FE
100
AcDbEntity
  8
RACCORDO
100
AcDbLine
 62
7
  6
CONTINUOUS
 10
-9.0634322768
 20
-8.9615610672
 11
-9.43112031
 21
-9.1313715856
  0
LINE
  5
2FF
100
AcDbEntity
  8
ASSI
100
AcDbLine
 62
7
  6
CONTINUOUS
 10
19.0784087674
 20
-6.6038146317
 11
18.7893051776
 21
-6.4592628368
  0
LINE
  5
300
100
AcDbEntity
  8
DRAFT
100
AcDbLine
 62
253
  6
CONTINUOUS
 10
8.0591688681
 20
18.1415786886
 11
8.0591688681
 21
17.7414514283
  0
LINE
  5
301
100
AcDbEntity
  8
DRAFT
100
AcDbLine
 62
253
  6
CONTINUOUS
 10
8.0591688681
 20
-18.8560943755
 11
8.0591688681
 21
-19.0173810833
  0
LINE
  5
302
100
AcDbEntity
  8
SUPERFICI
100
AcDbLine
 62
7
  6
CONTINUOUS
 10
8.199498968
 20
18.4410734679
 11
8.199498968
 21
17.9176325302
  0
LINE
  5
303
100
AcDbEntity
  8
SUPERFICI
100
AcDbLine
 62
7
  6
CONTINUOUS
 10
8.199498968
 20
-18.7823775749
 11
8.199498968
 21
-18.9695466773
  0
LINE
  5
304
100
AcDbEntity
  8
SUPERFICI
100
AcDbLine
 62
253
  6
CONTINUOUS
 10
-18.4737299778
 20
17.8131354849
 11
-3.5846501184
 21
10.3685955552
  0
LINE
  5
305
100
AcDbEntity
  8
SUPERFICI
100
AcDbLine
 62
253
  6
CONTINUOUS
 10
-17.8173156108
 20
18.882819617
 11
-2.9166771176
 21
11.4325003705
  0
LINE
  5
306
100
AcDbEntity
  8
RACCORDO
100
AcDbLine
 62
7
  6
CONTINUOUS
 10
2.8086919228
 20
12.3511478704
 11
3.1016482283
 21
11.8458729849
  0
LINE
  5
307
100
AcDbEntity
  8
SUPERFICI
100
AcDbLine
 62
7
  6
CONTINUOUS
 10
2.8086919228
 20
12.3511478704
 11
3.5037655905
 21
11.1523231267
  0
LINE
  5
308
100
AcDbEntity
  8
SUPERFICI
100
AcDbLine
 62
7
  6
CONTINUOUS
 10
3.5398667638
 20
10.8141277568
 11
2.1369404807
 21
10.4345047821
  0
LINE
  5
309
100
AcDbEntity
  8
SUPERFICI
100
AcDbLine
 62
7
  6
CONTINUOUS
 10
3.5398667638
 20
10.8141277568
 11
3.5037655905
 21
10.8321783434
  0
LINE
  5
30A
100
AcDbEntity
  8
ASSI
100
AcDbLine
 62
7
  6
CONTINUOUS
 10
19.0906417865
 20
-3.6673905116
 11
14.5625492679
 21
-6.011879045
  0
LINE
  5
30B
100
AcDbEntity
  8
SUPERFICI
100
AcDbLine
 62
7
  6
CONTINUOUS
 10
-13.8385274989
 20
20.6432778157
 11
-12.1517617746
 21
19.7998949536
  0
LINE
  5
30C
100
AcDbEntity
  8
SUPERFICI
100
AcDbLine
 62
7
  6
CONTINUOUS
 10
-9.9837700763
 20
18.7158991045
 11
-9.3181893746
 21
18.3831087536
  0
LINE
  5
30D
100
AcDbEntity
  8
SUPERFICI
100
AcDbLine
 62
7
  6
CONTINUOUS
 10
-4.3684419063
 20
15.9082350194
 11
-3.7028612045
 21
15.5754446685
  0
LINE
  5
30E
100
AcDbEntity
  8
SUPERFICI
100
AcDbLine
 62
7
  6
CONTINUOUS
 10
-1.5348695062
 20
14.4914488194
 11
0.151896218
 21
13.6480659573
  0
LINE
  5
30F
100
AcDbEntity
  8
SUPERFICI
100
AcDbLine
 62
7
  6
CONTINUOUS
 10
-14.4765471567
 20
21.4713617888
 11
-12.7980090863
 21
20.6320927536
  0
LINE
  5
310
100
AcDbEntity
  8
SUPERFICI
100
AcDbLine
 62
7
  6
CONTINUOUS
 10
-2.1728891641
 20
15.3195327925
 11
-0.4943510937
 21
14.4802637573
  0
LINE
  5
311
100
AcDbEntity
  8
SUPERFICI
100
AcDbLine
 62
253
  6
CONTINUOUS
 10
-14.5415204531
 20
21.6065802389
 11
-12.8629823827
 21
20.7673112037
  0
LINE
  5
312
100
AcDbEntity
  8
SUPERFICI
100
AcDbLine
 62
253
  6
CONTINUOUS
 10
-2.2378624605
 20
15.4547512426
 11
-0.5593243901
 21
14.6154822074
  0
LINE
  5
313
100
AcDbEntity
  8
SUPERFICI
100
AcDbLine
 62
7
  6
CONTINUOUS
 10
-4.3684419063
 20
16.6607282688
 11
-5.2876807218
 21
17.1203476766
  0
LINE
  5
314
100
AcDbEntity
  8
SUPERFICI
100
AcDbLine
 62
7
  6
CONTINUOUS
 10
-6.9847369967
 20
17.968875814
 11
-8.6110825934
 21
18.7820486124
  0
LINE
  5
315
100
AcDbEntity
  8
SUPERFICI
100
AcDbLine
 62
253
  6
CONTINUOUS
 10
-0.5593243901
 20
14.9554561415
 11
-2.2378624605
 21
15.7947251767
  0
LINE
  5
316
100
AcDbEntity
  8
SUPERFICI
100
AcDbLine
 62
253
  6
CONTINUOUS
 10
-12.8629823827
 20
21.1072851378
 11
-14.5415204531
 21
21.946554173
  0
LINE
  5
317
100
AcDbEntity
  8
SUPERFICI
100
AcDbLine
 62
7
  6
CONTINUOUS
 10
-6.4897622498
 20
18.0976350653
 11
-5.3462593656
 21
17.5258836232
  0
LINE
  5
318
100
AcDbEntity
  8
SUPERFICI
100
AcDbLine
 62
7
  6
CONTINUOUS
 10
1.7483447797
 20
13.9785815505
 11
1.3944783604
 21
14.1555147602
  0
LINE
  5
319
100
AcDbEntity
  8
SUPERFICI
100
AcDbLine
 62
7
  6
CONTINUOUS
 10
-2.2836892336
 20
15.9945985572
 11
-2.6360302924
 21
16.1707690866
  0
LINE
  5
31A
100
AcDbEntity
  8
SUPERFICI
100
AcDbLine
 62
7
  6
CONTINUOUS
 10
-9.9837700763
 20
19.8446389786
 11
-10.9091796322
 21
20.3073437565
  0
LINE
  5
31B
100
AcDbEntity
  8
SUPERFICI
100
AcDbLine
 62
253
  6
CONTINUOUS
 10
-0.3835761341
 20
15.2598329565
 11
-2.0621142045
 21
16.0991019917
  0
LINE
  5
31C
100
AcDbEntity
  8
SUPERFICI
100
AcDbLine
 62
253
  6
CONTINUOUS
 10
-12.6872341267
 20
21.4116619528
 11
-14.3657721972
 21
22.250930988
  0
LINE
  5
31D
100
AcDbEntity
  8
SUPERFICI
100
AcDbLine
 62
7
  6
CONTINUOUS
 10
-9.9837700763
 20
20.1620618702
 11
-9.3181893746
 21
19.8292715193
  0
LINE
  5
31E
100
AcDbEntity
  8
SUPERFICI
100
AcDbLine
 62
7
  6
CONTINUOUS
 10
-4.3684419063
 20
17.3543977852
 11
-3.7028612045
 21
17.0216074343
  0
LINE
  5
31F
100
AcDbEntity
  8
0
100
AcDbLine
 62
7
  6
CONTINUOUS
 10
14.864862542
 20
-5.8553517652
 11
14.864862542
 21
-8.6491978339
  0
LINE
  5
320
100
AcDbEntity
  8
0
100
AcDbLine
 62
7
  6
CONTINUOUS
 10
14.864862542
 20
-10.1854787841
 11
14.864862542
 21
-12.398860485
  0
LINE
  5
321
100
AcDbEntity
  8
ASSI
100
AcDbLine
 62
7
  6
CONTINUOUS
 10
19.0906417865
 20
-7.3046972075
 11
14.5625492679
 21
-9.6491857409
  0
LINE
  5
322
100
AcDbEntity
  8
ASSI
100
AcDbLine
 62
7
  6
CONTINUOUS
 10
17.6508402482
 20
-7.2316820787
 11
13.7237638842
 21
-9.229793049
  0
LINE
  5
323
100
AcDbEntity
  8
ASSI
100
AcDbLine
 62
7
  6
CONTINUOUS
 10
17.6577459812
 20
-7.025042435
 11
18.7893051776
 21
-6.4592628368
  0
LINE
  5
324
100
AcDbEntity
  8
SUPERFICI
100
AcDbLine
 62
7
  6
CONTINUOUS
 10
-0.4336459239
 20
14.4591483227
 11
0.1906519619
 21
14.3287943449
  0
LINE
  5
325
100
AcDbEntity
  8
SUPERFICI
100
AcDbLine
 62
253
  6
CONTINUOUS
 10
-0.2068024304
 20
14.6149694835
 11
0.5044181777
 21
14.4664659607
  0
LINE
  5
326
100
AcDbEntity
  8
SUPERFICI
100
AcDbLine
 62
253
  6
CONTINUOUS
 10
0.1658672256
 20
17.1780234523
 11
0.1658368986
 21
17.178038609
  0
LINE
  5
327
100
AcDbEntity
  8
DRAFT
100
AcDbLine
 62
7
  6
CONTINUOUS
 10
2.4492807335
 20
14.3301819664
 11
1.3944783604
 21
14.857583153
  0
LINE
  5
328
100
AcDbEntity
  8
DRAFT
100
AcDbLine
 62
7
  6
CONTINUOUS
 10
-10.206186678
 20
20.6579156721
 11
-10.9091796322
 21
21.0094121493
  0
LINE
  5
329
100
AcDbEntity
  8
SUPERFICI
100
AcDbLine
 62
7
  6
CONTINUOUS
 10
-5.3462593656
 20
18.2284558645
 11
-5.7826554686
 21
18.446653916
  0
LINE
  5
32A
100
AcDbEntity
  8
SUPERFICI
100
AcDbLine
 62
7
  6
CONTINUOUS
 10
-5.7826554686
 20
18.5520774544
 11
-5.382576687
 21
18.3520380636
  0
LINE
  5
32B
100
AcDbEntity
  8
SUPERFICI
100
AcDbLine
 62
253
  6
CONTINUOUS
 10
-3.8323171514
 20
17.626280243
 11
-5.2876807218
 21
18.3539620283
  0
LINE
  5
32C
100
AcDbEntity
  8
SUPERFICI
100
AcDbLine
 62
253
  6
CONTINUOUS
 10
-6.9847369967
 20
19.2024901657
 11
-8.6110825934
 21
20.015662964
  0
LINE
  5
32D
100
AcDbEntity
  8
SUPERFICI
100
AcDbLine
 62
253
  6
CONTINUOUS
 10
-3.5207365203
 20
17.7842906819
 11
-5.147082117
 21
18.5974634802
  0
LINE
  5
32E
100
AcDbEntity
  8
SUPERFICI
100
AcDbLine
 62
253
  6
CONTINUOUS
 10
-6.8441383919
 20
19.4459916176
 11
-8.4704839886
 21
20.259164416
  0
LINE
  5
32F
100
AcDbEntity
  8
SUPERFICI
100
AcDbLine
 62
7
  6
CONTINUOUS
 10
-8.9292806449
 20
20.7030349089
 11
-6.6311836061
 21
19.5539863895
  0
LINE
  5
330
100
AcDbEntity
  8
SUPERFICI
100
AcDbLine
 62
7
  6
CONTINUOUS
 10
-4.9341273312
 20
18.7054582521
 11
-2.6360302924
 21
17.5564097326
  0
LINE
  5
331
100
AcDbEntity
  8
SUPERFICI
100
AcDbLine
 62
7
  6
CONTINUOUS
 10
1.2177046567
 20
16.06255496
 11
-0.4793576014
 21
16.911086089
  0
LINE
  5
332
100
AcDbEntity
  8
SUPERFICI
100
AcDbLine
 62
7
  6
CONTINUOUS
 10
-11.0859533359
 20
22.2143839563
 11
-12.783015594
 21
23.0629150853
  0
LINE
  5
333
100
AcDbEntity
  8
SUPERFICI
100
AcDbLine
 62
7
  6
CONTINUOUS
 10
-2.6006749533
 20
18.2408004559
 11
-4.22702055
 21
19.0539732542
  0
LINE
  5
334
100
AcDbEntity
  8
SUPERFICI
100
AcDbLine
 62
7
  6
CONTINUOUS
 10
-5.9240768249
 20
19.9025013917
 11
-7.5504224216
 21
20.71567419
  0
LINE
  5
335
100
AcDbEntity
  8
SUPERFICI
100
AcDbLine
 62
253
  6
CONTINUOUS
 10
-12.2485657153
 20
23.3232625519
 11
-10.5576861642
 21
22.4778227763
  0
LINE
  5
336
100
AcDbEntity
  8
SUPERFICI
100
AcDbLine
 62
253
  6
CONTINUOUS
 10
0.0550922773
 20
17.1714335556
 11
1.7459718285
 21
16.32599378
  0
LINE
  5
337
100
AcDbEntity
  8
SUPERFICI
100
AcDbLine
 62
7
  6
CONTINUOUS
 10
-12.1377907558
 20
23.329852443
 11
-10.4469112046
 21
22.4844126674
  0
LINE
  5
338
100
AcDbEntity
  8
SUPERFICI
100
AcDbLine
 62
7
  6
CONTINUOUS
 10
0.1658672369
 20
17.1780234467
 11
1.856746788
 21
16.3325836711
  0
LINE
  5
339
100
AcDbEntity
  8
DRAFT
100
AcDbLine
 62
7
  6
CONTINUOUS
 10
-3.6796713434
 20
19.2333578121
 11
-3.5451121896
 21
19.1660782352
  0
LINE
  5
33A
100
AcDbEntity
  8
DRAFT
100
AcDbLine
 62
7
  6
CONTINUOUS
 10
-3.3784924126
 20
19.2559734274
 11
-3.3557807157
 21
19.244617579
  0
LINE
  5
33B
100
AcDbEntity
  8
RACCORDO
100
AcDbLine
 62
253
  6
CONTINUOUS
 10
17.6489971478
 20
-4.4138238742
 11
17.6489971478
 21
-7.2326198549
  0
LINE
  5
33C
100
AcDbEntity
  8
RACCORDO
100
AcDbLine
 62
253
  6
CONTINUOUS
 10
17.6489971478
 20
-8.7439508931
 11
17.6489971478
 21
-11.5627468739
  0
LINE
  5
33D
100
AcDbEntity
  8
ASSI
100
AcDbLine
 62
7
  6
CONTINUOUS
 10
17.6577459812
 20
-4.4092940331
 11
17.6577459812
 21
-7.025042435
  0
LINE
  5
33E
100
AcDbEntity
  8
ASSI
100
AcDbLine
 62
7
  6
CONTINUOUS
 10
17.6577459812
 20
-8.739421052
 11
17.6577459812
 21
-11.355169454
  0
LINE
  5
33F
100
AcDbEntity
  8
SUPERFICI
100
AcDbLine
 62
253
  6
CONTINUOUS
 10
0.1513819897
 20
-25.7073683407
 11
-0.4709360424
 21
-26.4524277582
  0
LINE
  5
340
100
AcDbEntity
  8
SUPERFICI
100
AcDbLine
 62
253
  6
CONTINUOUS
 10
0.5044181777
 20
-25.8331381787
 11
-0.2068024304
 21
-26.6846346559
  0
LINE
  5
341
100
AcDbEntity
  8
ASSI
100
AcDbLine
 62
7
  6
CONTINUOUS
 10
19.0906417865
 20
-7.9975175306
 11
14.5625492679
 21
-10.3420060639
  0
LINE
  5
342
100
AcDbEntity
  8
0
100
AcDbLine
 62
7
  6
CONTINUOUS
 10
14.864862542
 20
-12.398860485
 11
13.1331092653
 21
-13.2647371234
  0
LINE
  5
343
100
AcDbEntity
  8
ASSI
100
AcDbLine
 62
7
  6
CONTINUOUS
 10
17.6577459812
 20
-11.355169454
 11
18.7893051776
 21
-10.7893898558
  0
LINE
  5
344
100
AcDbEntity
  8
SUPERFICI
100
AcDbLine
 62
7
  6
CONTINUOUS
 10
-12.7373039166
 20
20.6109773191
 11
-12.1130044944
 21
20.4806230205
  0
LINE
  5
345
100
AcDbEntity
  8
SUPERFICI
100
AcDbLine
 62
253
  6
CONTINUOUS
 10
-12.5104604231
 20
20.7667984799
 11
-11.799239815
 21
20.618294957
  0
LWPOLYLINE
  5
346
100
AcDbEntity
  8
RACCORDO
100
AcDbPolyline
 62
7
  6
CONTINUOUS
 90
82
 70
0
 10
-1.3785046802
 20
20.0723826515
 10
-1.3901984835
 20
20.0780618088
 10
-1.407572729
 20
20.0859084719
 10
-1.4249051816
 20
20.0930865278
 10
-1.4420941065
 20
20.0996182123
 10
-1.4591271807
 20
20.1055609585
 10
-1.4760770061
 20
20.110991977
 10
-1.4929153763
 20
20.115945976
 10
-1.509600848
 20
20.1204517726
 10
-1.5261886205
 20
20.1245598903
 10
-1.5426606583
 20
20.1282960154
 10
-1.5589964044
 20
20.1316832132
 10
-1.5752474006
 20
20.1347558468
 10
-1.5914108171
 20
20.1375330809
 10
-1.6074682233
 20
20.1400297584
 10
-1.6234470502
 20
20.1422659829
 10
-1.6393517967
 20
20.1442558095
 10
-1.6551648766
 20
20.1460093191
 10
-1.6708794861
 20
20.147537278
 10
-1.6864910118
 20
20.1488498441
 10
-1.7019946561
 20
20.1499563871
 10
-1.7173823657
 20
20.150865443
 10
-1.7326498791
 20
20.1515852895
 10
-1.7477942025
 20
20.1521237241
 10
-1.7628085542
 20
20.1524879713
 10
-1.7776893986
 20
20.152685012
 10
-1.7924344862
 20
20.1527214651
 10
-1.8070385719
 20
20.1526036273
 10
-1.8214992242
 20
20.1523375364
 10
-1.835814246
 20
20.1519289534
 10
-1.8499784943
 20
20.1513835266
 10
-1.8639941638
 20
20.1507064185
 10
-1.8778554111
 20
20.149902942
 10
-1.8915449219
 20
20.1489792231
 10
-1.9050630768
 20
20.147940376
 10
-1.9184068874
 20
20.1467915967
 10
-1.9315540266
 20
20.145539935
 10
-1.9445021241
 20
20.1441909069
 10
-1.9572520784
 20
20.1427495582
 10
-1.9697865669
 20
20.1412230554
 10
-1.982096671
 20
20.1396178949
 10
-1.9941909513
 20
20.1379382345
 10
-2.0060781849
 20
20.1361877956
 10
-2.0177552329
 20
20.1343718001
 10
-2.029225382
 20
20.1324944005
 10
-2.0405066003
 20
20.1305569802
 10
-2.0515990438
 20
20.1285635396
 10
-2.0625028464
 20
20.1265180244
 10
-2.0732353743
 20
20.1244208782
 10
-2.083797586
 20
20.1222753592
 10
-2.0941887968
 20
20.1200850086
 10
-2.1044233217
 20
20.117850017
 10
-2.1145018487
 20
20.1155732498
 10
-2.1244238698
 20
20.113257801
 10
-2.134201333
 20
20.1109037249
 10
-2.1438344281
 20
20.1085136543
 10
-2.1533229834
 20
20.1060903086
 10
-2.1626778279
 20
20.103633461
 10
-2.1718992979
 20
20.1011454415
 10
-2.1809868199
 20
20.0986288148
 10
-2.1899492624
 20
20.096083445
 10
-2.1987878186
 20
20.0935112069
 10
-2.2075007232
 20
20.0909148295
 10
-2.216091871
 20
20.0882953566
 10
-2.2245611708
 20
20.0856549709
 10
-2.2329078912
 20
20.0829960851
 10
-2.2411344262
 20
20.0803200888
 10
-2.2492408446
 20
20.077629117
 10
-2.2572259124
 20
20.074925728
 10
-2.2650896516
 20
20.0722121116
 10
-2.2728318978
 20
20.0694904986
 10
-2.2804512911
 20
20.0667635955
 10
-2.28794549
 20
20.0640344776
 10
-2.2953129094
 20
20.0613060347
 10
-2.3025532338
 20
20.0585806858
 10
-2.3096656778
 20
20.0558610731
 10
-2.3166479716
 20
20.0531504116
 10
-2.3234998338
 20
20.0504512068
 10
-2.3302226728
 20
20.0477652667
 10
-2.3368159474
 20
20.0450951814
 10
-2.3432766073
 20
20.0424445709
 10
-2.3557835381
 20
20.0372184141
  0
LINE
  5
347
100
AcDbEntity
  8
RACCORDO
100
AcDbLine
 62
7
  6
CONTINUOUS
 10
-2.3178860887
 20
19.9381058308
 11
-0.7487797311
 21
19.153552652
  0
LINE
  5
348
100
AcDbEntity
  8
RACCORDO
100
AcDbLine
 62
253
  6
CONTINUOUS
 10
-0.1887819667
 20
19.42956135
 11
-1.46550476
 21
20.0679227466
  0
LINE
  5
349
100
AcDbEntity
  8
RACCORDO
100
AcDbLine
 62
7
  6
CONTINUOUS
 10
-0.1404778285
 20
19.4533692349
 11
-1.3785301835
 21
20.0723954124
  0
LINE
  5
34A
100
AcDbEntity
  8
SUPERFICI
100
AcDbLine
 62
7
  6
CONTINUOUS
 10
-1.822857494
 20
20.8855298323
 11
0.4547340333
 21
19.7467340687
  0
LINE
  5
34B
100
AcDbEntity
  8
RACCORDO
100
AcDbLine
 62
7
  6
CONTINUOUS
 10
9.8338102003
 20
15.7521529875
 11
8.7506149308
 21
17.6203884734
  0
LWPOLYLINE
  5
34C
100
AcDbEntity
  8
RACCORDO
100
AcDbPolyline
 62
7
  6
CONTINUOUS
 90
31
 70
0
 10
19.3713019791
 20
18.6853121204
 10
19.3709919434
 20
18.7211308077
 10
19.3698307828
 20
18.7635408834
 10
19.3678162339
 20
18.8060134691
 10
19.364954611
 20
18.8485537585
 10
19.3612533811
 20
18.8911414201
 10
19.356723453
 20
18.9337272974
 10
19.3513727581
 20
18.9763053104
 10
19.3452085171
 20
19.018867757
 10
19.3382452063
 20
19.0613609394
 10
19.3304913847
 20
19.1037783155
 10
19.3219545395
 20
19.1461133377
 10
19.3126529157
 20
19.1883107242
 10
19.3025959867
 20
19.2303617571
 10
19.2917913758
 20
19.2722621949
 10
19.2802591579
 20
19.3139620927
 10
19.2680113006
 20
19.355445317
 10
19.2550537556
 20
19.396715326
 10
19.2413995349
 20
19.4377502882
 10
19.2270576642
 20
19.4785405495
 10
19.2120346484
 20
19.519082555
 10
19.1963399098
 20
19.5593623073
 10
19.1799801808
 20
19.599372726
 10
19.1629612773
 20
19.6391069005
 10
19.1452918918
 20
19.6785502091
 10
19.1269778316
 20
19.7176943736
 10
19.1080234308
 20
19.756532171
 10
19.0884354546
 20
19.7950509248
 10
19.0682182364
 20
19.8332416192
 10
19.0473748839
 20
19.8710967184
 10
19.0293345367
 20
19.9027161922
  0
LINE
  5
34D
100
AcDbEntity
  8
ASSI
100
AcDbLine
 62
7
  6
CONTINUOUS
 10
18.7893051776
 20
-10.7893898558
 11
18.7893051776
 21
-8.1535391271
  0
LINE
  5
34E
100
AcDbEntity
  8
ASSI
100
AcDbLine
 62
7
  6
CONTINUOUS
 10
18.7893051776
 20
-6.4592628368
 11
18.7893051776
 21
-3.8234121082
  0
LINE
  5
34F
100
AcDbEntity
  8
ASSI
100
AcDbLine
 62
253
  6
CONTINUOUS
 10
19.0906417865
 20
18.3379822081
 11
19.0906417865
 21
-3.6673905116
  0
LINE
  5
350
100
AcDbEntity
  8
ASSI
100
AcDbLine
 62
253
  6
CONTINUOUS
 10
19.0906417865
 20
-7.3046972075
 11
19.0906417865
 21
-7.9975175306
  0
LINE
  5
351
100
AcDbEntity
  8
ASSI
100
AcDbLine
 62
253
  6
CONTINUOUS
 10
19.0906417865
 20
-11.6348242265
 11
19.0906417865
 21
-11.9895618515
  0
LINE
  5
352
100
AcDbEntity
  8
RACCORDO
100
AcDbLine
 62
7
  6
CONTINUOUS
 10
19.3713019862
 20
18.6853134262
 11
19.3713019862
 21
-3.3200613264
  0
LINE
  5
353
100
AcDbEntity
  8
RACCORDO
100
AcDbLine
 62
7
  6
CONTINUOUS
 10
19.3713019862
 20
-6.9573680223
 11
19.3713019862
 21
-7.6501883453
  0
LINE
  5
354
100
AcDbEntity
  8
RACCORDO
100
AcDbLine
 62
7
  6
CONTINUOUS
 10
19.3713019862
 20
-11.2874950412
 11
19.3713019862
 21
-11.6422346992
  0
LINE
  5
355
100
AcDbEntity
  8
SUPERFICI
100
AcDbLine
 62
7
  6
CONTINUOUS
 10
2.1369404807
 20
-21.5931647934
 11
2.101893683
 21
-21.6186319159
  0
LINE
  5
356
100
AcDbEntity
  8
RACCORDO
100
AcDbLine
 62
7
  6
CONTINUOUS
 10
3.1016482283
 20
-21.2115242972
 11
2.8086919228
 21
-21.4238428772
  0
LINE
  5
357
100
AcDbEntity
  8
SUPERFICI
100
AcDbLine
 62
7
  6
CONTINUOUS
 10
3.5037655905
 20
-20.9200918012
 11
2.8086919228
 21
-21.4238428772
  0
LINE
  5
358
100
AcDbEntity
  8
RACCORDO
100
AcDbLine
 62
7
  6
CONTINUOUS
 10
8.7506149308
 20
-18.4928708644
 11
9.8338102003
 21
-17.7078306481
  0
LINE
  5
359
100
AcDbEntity
  8
SUPERFICI
100
AcDbLine
 62
7
  6
CONTINUOUS
 10
3.5398667638
 20
-20.6179976046
 11
2.1369404807
 21
-21.5931647934
  0
LINE
  5
35A
100
AcDbEntity
  8
RACCORDO
100
AcDbLine
 62
253
  6
CONTINUOUS
 10
18.5507911472
 20
-13.0981475324
 11
9.8338102003
 21
-17.7078306481
  0
LINE
  5
35B
100
AcDbEntity
  8
RACCORDO
100
AcDbLine
 62
7
  6
CONTINUOUS
 10
18.5060032172
 20
-13.1260822264
 11
9.8121180981
 21
-17.723551888
  0
LINE
  5
35C
100
AcDbEntity
  8
RACCORDO
100
AcDbLine
 62
253
  6
CONTINUOUS
 10
3.5398667638
 20
-20.1813626821
 11
19.0906417865
 21
-11.9895618515
  0
LINE
  5
35D
100
AcDbEntity
  8
RACCORDO
100
AcDbLine
 62
253
  6
CONTINUOUS
 10
3.1016482283
 20
-21.2115242972
 11
18.6764898589
 21
-13.0070480357
  0
LINE
  5
35E
100
AcDbEntity
  8
ASSI
100
AcDbLine
 62
7
  6
CONTINUOUS
 10
19.0906417865
 20
-11.6348242265
 11
14.5625492679
 21
-13.9793127598
  0
LINE
  5
35F
100
AcDbEntity
  8
ASSI
100
AcDbLine
 62
7
  6
CONTINUOUS
 10
17.6508402482
 20
-11.5618090976
 11
13.7237638842
 21
-13.559920068
  0
LINE
  5
360
100
AcDbEntity
  8
SUPERFICI
100
AcDbLine
 62
7
  6
CONTINUOUS
 10
2.8028296368
 20
-21.2691729163
 11
3.5037655905
 21
-20.9200918012
  0
LINE
  5
361
100
AcDbEntity
  8
SUPERFICI
100
AcDbLine
 62
7
  6
CONTINUOUS
 10
-1.167178361
 20
21.5669227895
 11
1.4712093064
 21
20.2477289558
  0
LINE
  5
362
100
AcDbEntity
  8
SUPERFICI
100
AcDbLine
 62
253
  6
CONTINUOUS
 10
2.6384617768
 20
20.1867188665
 11
1.9975760031
 21
20.5071617534
  0
LINE
  5
363
100
AcDbEntity
  8
SUPERFICI
100
AcDbLine
 62
253
  6
CONTINUOUS
 10
-2.9521714652
 20
22.9820354875
 11
-3.593057239
 21
23.3024783744
  0
LINE
  5
364
100
AcDbEntity
  8
SUPERFICI
100
AcDbLine
 62
7
  6
CONTINUOUS
 10
2.7970950926
 20
20.2313569504
 11
2.2818966766
 21
20.4889561584
  0
LINE
  5
365
100
AcDbEntity
  8
SUPERFICI
100
AcDbLine
 62
7
  6
CONTINUOUS
 10
-2.7933917117
 20
23.0266003525
 11
-3.3085912655
 21
23.2842001295
  0
LINE
  5
366
100
AcDbEntity
  8
SUPERFICI
100
AcDbLine
 62
7
  6
CONTINUOUS
 10
3.4892561201
 20
20.2077666085
 11
0.581305562
 21
21.6617418876
  0
LINE
  5
367
100
AcDbEntity
  8
DRAFT
100
AcDbLine
 62
7
  6
CONTINUOUS
 10
8.1970845051
 20
17.8971536862
 11
8.7506149308
 21
17.6203884734
  0
LINE
  5
368
100
AcDbEntity
  8
DRAFT
100
AcDbLine
 62
253
  6
CONTINUOUS
 10
-3.0848478626
 20
24.1220146375
 11
-0.1216874619
 21
22.6404344371
  0
LINE
  5
369
100
AcDbEntity
  8
DRAFT
100
AcDbLine
 62
253
  6
CONTINUOUS
 10
4.1209532253
 20
20.5191140936
 11
7.084113626
 21
19.0375338932
  0
LWPOLYLINE
  5
36A
100
AcDbEntity
  8
RACCORDO
100
AcDbPolyline
 62
7
  6
CONTINUOUS
 90
40
 70
0
 10
18.7510687403
 20
-12.9606777002
 10
18.7725483779
 20
-12.9447918713
 10
18.8005578795
 20
-12.9230895849
 10
18.8280757474
 20
-12.9006218645
 10
18.8550740965
 20
-12.8774062647
 10
18.8815400559
 20
-12.8534488381
 10
18.9074750912
 20
-12.8287419611
 10
18.9328594089
 20
-12.8032969436
 10
18.9576738332
 20
-12.7771254911
 10
18.9819192489
 20
-12.7502176353
 10
19.0055765665
 20
-12.7225842847
 10
19.0286260968
 20
-12.6942382168
 10
19.0510661438
 20
-12.6651695302
 10
19.0728782724
 20
-12.6353882879
 10
19.094042693
 20
-12.6049081322
 10
19.1145542239
 20
-12.5737214979
 10
19.1343940918
 20
-12.5418398011
 10
19.153544003
 20
-12.5092753052
 10
19.171998321
 20
-12.4760186981
 10
19.1897376261
 20
-12.4420835339
 10
19.2067452399
 20
-12.4074794476
 10
19.2230179153
 20
-12.3721877391
 10
19.238539484
 20
-12.3362134252
 10
19.2532890771
 20
-12.299572903
 10
19.2672550757
 20
-12.2622610412
 10
19.2804251857
 20
-12.2242711527
 10
19.2927751802
 20
-12.1856301279
 10
19.3042786581
 20
-12.146381343
 10
19.3149216713
 20
-12.1065344776
 10
19.3246897277
 20
-12.066100928
 10
19.3335620327
 20
-12.0251257124
 10
19.3415279982
 20
-11.9836171186
 10
19.348576024
 20
-11.9415870602
 10
19.3546900919
 20
-11.8990851562
 10
19.3598620925
 20
-11.8561207142
 10
19.3640834348
 20
-11.8127036723
 10
19.3673432019
 20
-11.7688831807
 10
19.3696346237
 20
-11.724680726
 10
19.3709524005
 20
-11.6800932276
 10
19.3713019791
 20
-11.642235704
  0
LINE
  5
36B
100
AcDbEntity
  8
RACCORDO
100
AcDbLine
 62
253
  6
CONTINUOUS
 10
18.6764898589
 20
-13.0070480357
 11
18.5507911472
 21
-13.0981475324
  0
LINE
  5
36C
100
AcDbEntity
  8
RACCORDO
100
AcDbLine
 62
7
  6
CONTINUOUS
 10
18.7510589049
 20
-12.9606848506
 11
18.6253587412
 21
-13.0517853996
  0
LINE
  5
36D
100
AcDbEntity
  8
DRAFT
100
AcDbLine
 62
7
  6
CONTINUOUS
 10
2.8028296368
 20
-21.6173017846
 11
8.7506149308
 21
-18.4928708644
  0
LINE
  5
36E
100
AcDbEntity
  8
DRAFT
100
AcDbLine
 62
7
  6
CONTINUOUS
 10
7.084113626
 20
-19.6495010273
 11
2.8028296368
 21
-21.8489627769
  0
LINE
  5
36F
100
AcDbEntity
  8
DRAFT
100
AcDbLine
 62
7
  6
CONTINUOUS
 10
8.0591688681
 20
-19.0173810833
 11
2.8028296368
 21
-21.7054271182
  0
LINE
  5
370
100
AcDbEntity
  8
SUPERFICI
100
AcDbLine
 62
7
  6
CONTINUOUS
 10
0.581305562
 20
21.6617418876
 11
-1.167178361
 21
21.5669227895
  0
LINE
  5
371
100
AcDbEntity
  8
SUPERFICI
100
AcDbLine
 62
7
  6
CONTINUOUS
 10
-2.8054835874
 20
24.2302419834
 11
0.3214123764
 21
22.6667940016
  0
LINE
  5
372
100
AcDbEntity
  8
SUPERFICI
100
AcDbLine
 62
7
  6
CONTINUOUS
 10
4.5640530635
 20
20.545473658
 11
7.6909490272
 21
18.9820256762
  0
LINE
  5
373
100
AcDbEntity
  8
SUPERFICI
100
AcDbLine
 62
253
  6
CONTINUOUS
 10
2.101893683
 20
-24.5631329445
 11
2.8028296368
 21
-24.2014557518
  0
LINE
  5
374
100
AcDbEntity
  8
SUPERFICI
100
AcDbLine
 62
7
  6
CONTINUOUS
 10
1.9740884795
 20
-24.8324746985
 11
2.675019295
 21
-24.4708001572
  0
LINE
  5
375
100
AcDbEntity
  8
SUPERFICI
100
AcDbLine
 62
253
  6
CONTINUOUS
 10
1.3944783604
 20
-26.2445739903
 11
1.9227455322
 21
-25.9735629317
  0
LINE
  5
376
100
AcDbEntity
  8
SUPERFICI
100
AcDbLine
 62
7
  6
CONTINUOUS
 10
1.3303752311
 20
-26.3793507506
 11
1.8590574946
 21
-26.108126742
  0
LINE
  5
377
100
AcDbEntity
  8
SUPERFICI
100
AcDbLine
 62
7
  6
CONTINUOUS
 10
1.3303732574
 20
-26.3793517631
 11
1.3286368455
 21
-26.3802199833
  0
LINE
  5
378
100
AcDbEntity
  8
SUPERFICI
100
AcDbLine
 62
253
  6
CONTINUOUS
 10
-0.2068024304
 20
-27.02460859
 11
1.3944783604
 21
-26.2445739903
  0
LINE
  5
379
100
AcDbEntity
  8
SUPERFICI
100
AcDbLine
 62
7
  6
CONTINUOUS
 10
-0.273064023
 20
-27.1604592162
 11
1.32863408
 21
-26.3802213305
  0
LINE
  5
37A
100
AcDbEntity
  8
SUPERFICI
100
AcDbLine
 62
253
  6
CONTINUOUS
 10
-2.5508443776
 20
-26.5150991524
 11
2.1009844465
 21
-24.5624503629
  0
LINE
  5
37B
100
AcDbEntity
  8
SUPERFICI
100
AcDbLine
 62
7
  6
CONTINUOUS
 10
1.9596720213
 20
-24.8384012432
 11
-2.7052685492
 21
-26.7965525779
  0
LINE
  5
37C
100
AcDbEntity
  8
RACCORDO
100
AcDbLine
 62
253
  6
CONTINUOUS
 10
4.9153141149
 20
27.0577713799
 11
18.0508672996
 21
20.4899947875
  0
LINE
  5
37D
100
AcDbEntity
  8
RACCORDO
100
AcDbLine
 62
7
  6
CONTINUOUS
 10
5.3501869955
 20
27.0801347095
 11
18.4857401802
 21
20.5123581171
  0
LINE
  5
37E
100
AcDbEntity
  8
RACCORDO
100
AcDbLine
 62
253
  6
CONTINUOUS
 10
18.5507911472
 20
19.9864185282
 11
18.6764898589
 21
19.7696203198
  0
LINE
  5
37F
100
AcDbEntity
  8
RACCORDO
100
AcDbLine
 62
7
  6
CONTINUOUS
 10
18.903634396
 20
20.1195168857
 11
19.0293345597
 21
19.902716173
  0
ARC
  5
380
100
AcDbEntity
  8
SUPERFICI
100
AcDbCircle
 62
253
  6
CONTINUOUS
 10
60.8220382436
 20
-8.6910234228
 40
79.9534334667
100
AcDbArc
 50
186.8982047407
 51
187.2174893626
  0
ARC
  5
381
100
AcDbEntity
  8
RACCORDO
100
AcDbCircle
 62
253
  6
CONTINUOUS
 10
35.5617580679
 20
-3.8843510542
 40
50.2073748912
100
AcDbArc
 50
182.3912281772
 51
182.8829504122
  0
ARC
  5
382
100
AcDbEntity
  8
RACCORDO
100
AcDbCircle
 62
253
  6
CONTINUOUS
 10
35.0657906229
 20
-3.9089264679
 40
49.7107991213
100
AcDbArc
 50
182.8834123016
 51
183.0947589689
  0
ARC
  5
383
100
AcDbEntity
  8
RACCORDO
100
AcDbCircle
 62
253
  6
CONTINUOUS
 10
-10.3537804455
 20
-3.4158966494
 40
1.5870497184
100
AcDbArc
 50
16.2587511014
 51
25.379753054
  0
ARC
  5
384
100
AcDbEntity
  8
RACCORDO
100
AcDbCircle
 62
253
  6
CONTINUOUS
 10
-13.2830578634
 20
-5.9001303428
 40
1.5188784958
100
AcDbArc
 50
194.8797142928
 51
198.8808114046
  0
ARC
  5
385
100
AcDbEntity
  8
RACCORDO
100
AcDbCircle
 62
253
  6
CONTINUOUS
 10
-10.2403552973
 20
-3.3817880329
 40
1.468611521
100
AcDbArc
 50
12.2186669457
 51
16.2201965189
  0
ARC
  5
386
100
AcDbEntity
  8
RACCORDO
100
AcDbCircle
 62
253
  6
CONTINUOUS
 10
-9.5931887032
 20
-7.9000633998
 40
1.0605735708
100
AcDbArc
 50
247.8210478112
 51
251.5713402075
  0
ARC
  5
387
100
AcDbEntity
  8
RACCORDO
100
AcDbCircle
 62
253
  6
CONTINUOUS
 10
-9.8004042401
 20
-8.9881387061
 40
1.0248811049
100
AcDbArc
 50
357.8818518059
 51
0.3136853766
  0
ARC
  5
388
100
AcDbEntity
  8
RACCORDO
100
AcDbCircle
 62
7
  6
CONTINUOUS
 10
18.0382570911
 20
-12.2416685703
 40
1.0004886868
100
AcDbArc
 50
300.8976982453
 51
305.9315387517
  0
ARC
  5
389
100
AcDbEntity
  8
RACCORDO
100
AcDbCircle
 62
7
  6
CONTINUOUS
 10
18.038434321
 20
-12.2419121798
 40
1.0001886542
100
AcDbArc
 50
297.8708874579
 51
300.6678852837
  0
ARC
  5
38A
100
AcDbEntity
  8
RACCORDO
100
AcDbCircle
 62
7
  6
CONTINUOUS
 10
18.0386150348
 20
-12.242222193
 40
0.9998298249
100
AcDbArc
 50
300.6680392508
 51
300.8963883947
  0
ARC
  5
38B
100
AcDbEntity
  8
RACCORDO
100
AcDbCircle
 62
253
  6
CONTINUOUS
 10
-9.8802737436
 20
-2.9163625787
 40
0.8943479115
100
AcDbArc
 50
57.9400888285
 51
60.608288153
  0
ARC
  5
38C
100
AcDbEntity
  8
RACCORDO
100
AcDbCircle
 62
253
  6
CONTINUOUS
 10
-13.7063104263
 20
-6.436170301
 40
0.8422023419
100
AcDbArc
 50
240.6462017104
 51
243.4182493
  0
ARC
  5
38D
100
AcDbEntity
  8
RACCORDO
100
AcDbCircle
 62
253
  6
CONTINUOUS
 10
-9.8487424849
 20
-2.8603198909
 40
0.83004393
100
AcDbArc
 50
60.6060933722
 51
63.418049122
  0
ARC
  5
38E
100
AcDbEntity
  8
RACCORDO
100
AcDbCircle
 62
253
  6
CONTINUOUS
 10
18.2112459632
 20
-12.3649944853
 40
0.7928963627
100
AcDbArc
 50
305.9277820552
 51
312.1743057004
  0
ARC
  5
38F
100
AcDbEntity
  8
RACCORDO
100
AcDbCircle
 62
253
  6
CONTINUOUS
 10
-13.675263206
 20
-6.3882431624
 40
0.7587080839
100
AcDbArc
 50
240.7487763376
 51
243.5081709251
  0
ARC
  5
390
100
AcDbEntity
  8
RACCORDO
100
AcDbCircle
 62
253
  6
CONTINUOUS
 10
18.3871021434
 20
-12.458453799
 40
0.6202423496
100
AcDbArc
 50
297.8121585644
 51
305.9300894809
  0
ARC
  5
391
100
AcDbEntity
  8
RACCORDO
100
AcDbCircle
 62
253
  6
CONTINUOUS
 10
18.2614019816
 20
-12.549554351
 40
0.620242346
100
AcDbArc
 50
297.8121585455
 51
305.9300848592
  0
ARC
  5
392
100
AcDbEntity
  8
RACCORDO
100
AcDbCircle
 62
7
  6
CONTINUOUS
 10
-13.620230669
 20
-0.2649413354
 40
0.6121403035
100
AcDbArc
 50
171.2364119896
 51
175.3636335633
  0
ARC
  5
393
100
AcDbEntity
  8
RACCORDO
100
AcDbCircle
 62
7
  6
CONTINUOUS
 10
-14.2127350839
 20
-6.376431141
 40
0.5132062927
100
AcDbArc
 50
234.9130117309
 51
243.417431363
  0
ARC
  5
394
100
AcDbEntity
  8
RACCORDO
100
AcDbCircle
 62
7
  6
CONTINUOUS
 10
-8.9139079468
 20
-8.6044710892
 40
0.503079039
100
AcDbArc
 50
243.4324238701
 51
247.7810294887
  0
ARC
  5
395
100
AcDbEntity
  8
RACCORDO
100
AcDbCircle
 62
253
  6
CONTINUOUS
 10
-9.4318787943
 20
-8.6921794278
 40
0.5026504012
100
AcDbArc
 50
357.0848484248
 51
0.3531190479
  0
ARC
  5
396
100
AcDbEntity
  8
RACCORDO
100
AcDbCircle
 62
7
  6
CONTINUOUS
 10
-14.222307942
 20
-0.7738315496
 40
0.4934162954
100
AcDbArc
 50
118.4182060491
 51
128.6423734194
  0
ARC
  5
397
100
AcDbEntity
  8
RACCORDO
100
AcDbCircle
 62
7
  6
CONTINUOUS
 10
-9.636839985
 20
-8.6852814176
 40
0.4912402902
100
AcDbArc
 50
287.6652367574
 51
294.7573393563
  0
ARC
  5
398
100
AcDbEntity
  8
RACCORDO
100
AcDbCircle
 62
7
  6
CONTINUOUS
 10
-8.9317940725
 20
-8.6491528072
 40
0.454951678
100
AcDbArc
 50
247.7384280345
 51
254.7269841793
  0
ARC
  5
399
100
AcDbEntity
  8
RACCORDO
100
AcDbCircle
 62
253
  6
CONTINUOUS
 10
-14.3223165607
 20
-0.1717670313
 40
0.4397400948
100
AcDbArc
 50
136.834316674
 51
141.0736300013
  0
ARC
  5
39A
100
AcDbEntity
  8
RACCORDO
100
AcDbCircle
 62
253
  6
CONTINUOUS
 10
-14.3375248659
 20
-0.1575340636
 40
0.4189105637
100
AcDbArc
 50
132.4527028422
 51
136.8311792575
  0
ARC
  5
39B
100
AcDbEntity
  8
RACCORDO
100
AcDbCircle
 62
253
  6
CONTINUOUS
 10
18.3317982004
 20
-12.7969064308
 40
0.3724300095
100
AcDbArc
 50
297.8884983114
 51
306.0159902488
  0
ARC
  5
39C
100
AcDbEntity
  8
SUPERFICI
100
AcDbCircle
 62
7
  6
CONTINUOUS
 10
-0.3827442742
 20
-26.9351964813
 40
0.2505685027
100
AcDbArc
 50
281.7766864395
 51
295.9543374991
  0
ARC
  5
39D
100
AcDbEntity
  8
SUPERFICI
100
AcDbCircle
 62
7
  6
CONTINUOUS
 10
1.7453062051
 20
-25.5378290036
 40
0.2495428431
100
AcDbArc
 50
359.7539113684
 51
63.4755956154
  0
ARC
  5
39E
100
AcDbEntity
  8
SUPERFICI
100
AcDbCircle
 62
7
  6
CONTINUOUS
 10
1.8870538401
 20
-24.6653214686
 40
0.1876963671
100
AcDbArc
 50
292.7744449295
 51
297.5089818357
  0
ARC
  5
39F
100
AcDbEntity
  8
SUPERFICI
100
AcDbCircle
 62
253
  6
CONTINUOUS
 10
80.9300879389
 20
5.7998447086
 40
100.1031897725
100
AcDbArc
 50
178.7402197276
 51
179.0335168434
  0
ARC
  5
3A0
100
AcDbEntity
  8
SUPERFICI
100
AcDbCircle
 62
253
  6
CONTINUOUS
 10
-16.8537743664
 20
17.5810973449
 40
1.6397785068
100
AcDbArc
 50
153.0183804171
 51
158.701922638
  0
ARC
  5
3A1
100
AcDbEntity
  8
SUPERFICI
100
AcDbCircle
 62
253
  6
CONTINUOUS
 10
-16.8841298058
 20
17.5983695279
 40
1.6048915404
100
AcDbArc
 50
143.8534911397
 51
153.076206261
  0
ARC
  5
3A2
100
AcDbEntity
  8
RACCORDO
100
AcDbCircle
 62
7
  6
CONTINUOUS
 10
4.9029734081
 20
26.1857064734
 40
1.0000009487
100
AcDbArc
 50
63.4347123609
 51
115.2484099087
  0
ARC
  5
3A3
100
AcDbEntity
  8
RACCORDO
100
AcDbCircle
 62
7
  6
CONTINUOUS
 10
18.0385266364
 20
19.6179311799
 40
0.9999997707
100
AcDbArc
 50
30.1049981242
 51
63.4346411817
  0
ARC
  5
3A4
100
AcDbEntity
  8
SUPERFICI
100
AcDbCircle
 62
253
  6
CONTINUOUS
 10
-17.3764808017
 20
18.1144417619
 40
0.8858553167
100
AcDbArc
 50
119.8438100433
 51
121.5580752801
  0
ARC
  5
3A5
100
AcDbEntity
  8
RACCORDO
100
AcDbCircle
 62
253
  6
CONTINUOUS
 10
4.6386363634
 20
26.7462188252
 40
0.3802847515
100
AcDbArc
 50
113.7297936543
 51
115.2482364723
  0
ARC
  5
3A6
100
AcDbEntity
  8
SUPERFICI
100
AcDbCircle
 62
7
  6
CONTINUOUS
 10
2.1634993717
 20
20.1713493587
 40
0.3745671217
100
AcDbArc
 50
111.0890907649
 51
116.2937668026
  0
ARC
  5
3A7
100
AcDbEntity
  8
SUPERFICI
100
AcDbCircle
 62
7
  6
CONTINUOUS
 10
-2.7862480966
 20
22.6462230929
 40
0.3745671217
100
AcDbArc
 50
111.0890907649
 51
116.2937668026
  0
ARC
  5
3A8
100
AcDbEntity
  8
SUPERFICI
100
AcDbCircle
 62
7
  6
CONTINUOUS
 10
-12.6858585108
 20
20.8566969839
 40
0.251047373
100
AcDbArc
 50
243.4631117771
 51
258.1750026081
  0
ARC
  5
3A9
100
AcDbEntity
  8
SUPERFICI
100
AcDbCircle
 62
7
  6
CONTINUOUS
 10
-14.3644128911
 20
22.0348412776
 40
0.2503853912
100
AcDbArc
 50
158.1430988996
 51
168.6451208178
  0
ARC
  5
3AA
100
AcDbEntity
  8
SUPERFICI
100
AcDbCircle
 62
7
  6
CONTINUOUS
 10
-2.0607548984
 20
15.8830122813
 40
0.2503853912
100
AcDbArc
 50
158.1430988996
 51
168.6451208178
  0
ARC
  5
3AB
100
AcDbEntity
  8
SUPERFICI
100
AcDbCircle
 62
7
  6
CONTINUOUS
 10
-12.2496218731
 20
23.105916097
 40
0.250307183
100
AcDbArc
 50
63.4630090666
 51
115.9263550756
  0
ARC
  5
3AC
100
AcDbEntity
  8
SUPERFICI
100
AcDbCircle
 62
7
  6
CONTINUOUS
 10
0.0540874713
 20
16.9541034473
 40
0.2502919471
100
AcDbArc
 50
63.4795909114
 51
115.9456452752
  0
ARC
  5
3AD
100
AcDbEntity
  8
SUPERFICI
100
AcDbCircle
 62
7
  6
CONTINUOUS
 10
-14.3651065738
 20
21.6946388074
 40
0.2495428431
100
AcDbArc
 50
179.7539113684
 51
243.4755956154
  0
ARC
  5
3AE
100
AcDbEntity
  8
SUPERFICI
100
AcDbCircle
 62
7
  6
CONTINUOUS
 10
-14.367583967
 20
22.0354882416
 40
0.2471490068
100
AcDbArc
 50
168.6474303749
 51
180.1437692753
  0
ARC
  5
3AF
100
AcDbEntity
  8
SUPERFICI
100
AcDbCircle
 62
7
  6
CONTINUOUS
 10
-2.0639259743
 20
15.8836592453
 40
0.2471490068
100
AcDbArc
 50
168.6474303749
 51
180.1437692753
  0
ARC
  5
3B0
100
AcDbEntity
  8
SUPERFICI
100
AcDbCircle
 62
7
  6
CONTINUOUS
 10
-2.0651703249
 20
15.5422627293
 40
0.2459068971
100
AcDbArc
 50
179.8111197411
 51
191.515783814
  0
ARC
  5
3B1
100
AcDbEntity
  8
SUPERFICI
100
AcDbCircle
 62
7
  6
CONTINUOUS
 10
-5.1474306052
 20
18.4260084035
 40
0.1982504282
100
AcDbArc
 50
116.7262032761
 51
130.0406527889
  0
ARC
  5
3B2
100
AcDbEntity
  8
RACCORDO
100
AcDbCircle
 62
7
  6
CONTINUOUS
 10
-2.4637045547
 20
19.8138625381
 40
0.1583888448
100
AcDbArc
 50
114.7904438173
 51
131.2191435255
  0
ARC
  5
3B3
100
AcDbEntity
  8
RACCORDO
100
AcDbCircle
 62
253
  6
CONTINUOUS
 10
530.2653662558
 20
-6.1613741173
 40
539.048287428
100
AcDbArc
 50
179.7001312347
 51
180.2960907769
  0
ARC
  5
3B4
100
AcDbEntity
  8
SUPERFICI
100
AcDbCircle
 62
253
  6
CONTINUOUS
 10
518.5239117026
 20
-0.9123551684
 40
537.7484863994
100
AcDbArc
 50
179.1233341093
 51
180.8574908574
  0
ARC
  5
3B5
100
AcDbEntity
  8
SUPERFICI
100
AcDbCircle
 62
253
  6
CONTINUOUS
 10
518.8415997442
 20
-8.344374307
 40
523.2031420014
100
AcDbArc
 50
179.0990007583
 51
180.9009992417
  0
ARC
  5
3B6
100
AcDbEntity
  8
SUPERFICI
100
AcDbCircle
 62
253
  6
CONTINUOUS
 10
519.010277685
 20
-8.3474644729
 40
522.670937612
100
AcDbArc
 50
179.0989852403
 51
180.9010147597
  0
ARC
  5
3B7
100
AcDbEntity
  8
RACCORDO
100
AcDbCircle
 62
253
  6
CONTINUOUS
 10
506.5795728635
 20
-3.151874803
 40
521.38278244
100
AcDbArc
 50
179.7589685929
 51
180.309966332
  0
SPLINE
  5
3B8
100
AcDbEntity
  8
0
100
AcDbSpline
 62
7
  6
CONTINUOUS
 70
0
 71
3
 72
9
 73
5
 74
3
 42
0.0000001
 43
0.0000001
 44
0.0000000001
 12
-0.1065923561
 22
-0.0036114363
 32
0.0
 13
-0.1056172127
 23
-0.0148316297
 33
0.0
 40
0.0
 40
0.0
 40
0.0
 40
0.0
 40
0.2468234144
 40
1.0
 40
1.0
 40
1.0
 40
1.0
 10
13.3902215834
 20
-9.3537976065
 30
0.0
 10
13.3814517536
 20
-9.3540947355
 30
0.0
 10
13.3459387365
 20
-9.3557891845
 30
0.0
 10
13.3105223392
 20
-9.3594149334
 30
0.0
 10
13.284006202
 20
-9.3631385455
 30
0.0
 11
13.3902215834
 21
-9.3537976065
 31
0.0
 11
13.3639267516
 21
-9.3550488532
 31
0.0
 11
13.284006202
 21
-9.3631385455
 31
0.0
  0
SPLINE
  5
3B9
100
AcDbEntity
  8
0
100
AcDbSpline
 62
7
  6
CONTINUOUS
 70
0
 71
3
 72
14
 73
10
 74
8
 42
0.0000001
 43
0.0000001
 44
0.0000000001
 12
2.2107834097
 22
1.5380335457
 32
0.0
 13
-0.0110943239
 23
2.6931370905
 33
0.0
 40
0.0
 40
0.0
 40
0.0
 40
0.0
 40
0.1159782864
 40
0.2392555407
 40
0.367632083
 40
0.4987619133
 40
0.7585706579
 40
0.8827183102
 40
1.0
 40
1.0
 40
1.0
 40
1.0
 10
13.1057508065
 20
-8.4936281225
 30
0.0
 10
13.1912184303
 20
-8.4341686241
 30
0.0
 10
13.3583563124
 20
-8.2979971325
 30
0.0
 10
13.5860797368
 20
-8.058040795
 30
0.0
 10
13.7910324181
 20
-7.781154754
 30
0.0
 10
14.0258906721
 20
-7.3777656504
 30
0.0
 10
14.1949963601
 20
-6.9425519442
 30
0.0
 10
14.2837597696
 20
-6.5006322988
 30
0.0
 10
14.2995931543
 20
-6.2836286149
 30
0.0
 10
14.299159434
 20
-6.178343392
 30
0.0
 11
13.1057508065
 21
-8.4936281225
 31
0.0
 11
13.3488080794
 21
-8.2974535012
 31
0.0
 11
13.57784798
 21
-8.0571031631
 31
0.0
 11
13.7842756464
 21
-7.7797536161
 31
0.0
 11
13.9622447329
 21
-7.4747216934
 31
0.0
 11
14.2129502453
 21
-6.8214714068
 31
0.0
 11
14.2778571757
 21
-6.493482584
 31
0.0
 11
14.299159434
 21
-6.178343392
 31
0.0
  0
SPLINE
  5
3BA
100
AcDbEntity
  8
0
100
AcDbSpline
 62
7
  6
CONTINUOUS
 70
0
 71
3
 72
14
 73
10
 74
8
 42
0.0000001
 43
0.0000001
 44
0.0000000001
 12
2.2107834096
 22
1.5380335457
 32
0.0
 13
-0.011094324
 23
2.6931370905
 33
0.0
 40
0.0
 40
0.0
 40
0.0
 40
0.0
 40
0.1159782864
 40
0.2392555407
 40
0.367632083
 40
0.4987619133
 40
0.7585706579
 40
0.8827183102
 40
1.0
 40
1.0
 40
1.0
 40
1.0
 10
13.1057508065
 20
-12.8237551414
 30
0.0
 10
13.1912184303
 20
-12.764295643
 30
0.0
 10
13.3583563124
 20
-12.6281241514
 30
0.0
 10
13.5860797368
 20
-12.388167814
 30
0.0
 10
13.7910324181
 20
-12.1112817729
 30
0.0
 10
14.0258906721
 20
-11.7078926694
 30
0.0
 10
14.1949963601
 20
-11.2726789631
 30
0.0
 10
14.2837597696
 20
-10.8307593177
 30
0.0
 10
14.2995931543
 20
-10.6137556339
 30
0.0
 10
14.299159434
 20
-10.5084704109
 30
0.0
 11
13.1057508065
 21
-12.8237551414
 31
0.0
 11
13.3488080794
 21
-12.6275805201
 31
0.0
 11
13.57784798
 21
-12.387230182
 31
0.0
 11
13.7842756464
 21
-12.109880635
 31
0.0
 11
13.9622447329
 21
-11.8048487123
 31
0.0
 11
14.2129502453
 21
-11.1515984257
 31
0.0
 11
14.2778571757
 21
-10.823609603
 31
0.0
 11
14.299159434
 21
-10.5084704109
 31
0.0
  0
SPLINE
  5
3BB
100
AcDbEntity
  8
ASSI
100
AcDbSpline
 62
7
  6
CONTINUOUS
 70
0
 71
3
 72
13
 73
9
 74
7
 42
0.0000001
 43
0.0000001
 44
0.0000000001
 12
-0.0000027133
 22
-0.1425291075
 32
0.0
 13
-0.1270314313
 23
-0.0646340618
 33
0.0
 40
0.0
 40
0.0
 40
0.0
 40
0.0
 40
0.1024904437
 40
0.2077977095
 40
0.4356598786
 40
0.5622810427
 40
0.6984260697
 40
1.0
 40
1.0
 40
1.0
 40
1.0
 10
17.736865084
 20
-11.4566755825
 30
0.0
 10
17.7368649914
 20
-11.461544873
 30
0.0
 10
17.7358888482
 20
-11.4714434355
 30
0.0
 10
17.7299623264
 20
-11.4913834643
 30
0.0
 10
17.718144148
 20
-11.5102615429
 30
0.0
 10
17.7021307292
 20
-11.5272336005
 30
0.0
 10
17.681548451
 20
-11.5445031995
 30
0.0
 10
17.6636100375
 20
-11.5553117816
 30
0.0
 10
17.6508402482
 20
-11.5618090976
 30
0.0
 11
17.736865084
 21
-11.4566755825
 31
0.0
 11
17.7354518777
 21
-11.4712149345
 31
0.0
 11
17.7312267625
 21
-11.4856173304
 31
0.0
 11
17.7145261122
 21
-11.5134712936
 31
0.0
 11
17.702207712
 21
-11.5266606263
 31
0.0
 11
17.68739089
 21
-11.5391906471
 31
0.0
 11
17.6508402482
 21
-11.5618090976
 31
0.0
  0
SPLINE
  5
3BC
100
AcDbEntity
  8
ASSI
100
AcDbSpline
 62
7
  6
CONTINUOUS
 70
0
 71
3
 72
13
 73
9
 74
7
 42
0.0000001
 43
0.0000001
 44
0.0000000001
 12
-0.0000027133
 22
-0.1425291075
 32
0.0
 13
-0.1270314313
 23
-0.0646340618
 33
0.0
 40
0.0
 40
0.0
 40
0.0
 40
0.0
 40
0.1024904437
 40
0.2077977095
 40
0.4356598786
 40
0.5622810427
 40
0.6984260697
 40
1.0
 40
1.0
 40
1.0
 40
1.0
 10
17.736865084
 20
-7.1265485636
 30
0.0
 10
17.7368649914
 20
-7.1314178541
 30
0.0
 10
17.7358888482
 20
-7.1413164166
 30
0.0
 10
17.7299623264
 20
-7.1612564454
 30
0.0
 10
17.718144148
 20
-7.1801345239
 30
0.0
 10
17.7021307292
 20
-7.1971065815
 30
0.0
 10
17.681548451
 20
-7.2143761806
 30
0.0
 10
17.6636100375
 20
-7.2251847626
 30
0.0
 10
17.6508402482
 20
-7.2316820787
 30
0.0
 11
17.736865084
 21
-7.1265485636
 31
0.0
 11
17.7354518777
 21
-7.1410879156
 31
0.0
 11
17.7312267625
 21
-7.1554903115
 31
0.0
 11
17.7145261122
 21
-7.1833442746
 31
0.0
 11
17.702207712
 21
-7.1965336074
 31
0.0
 11
17.68739089
 21
-7.2090636282
 31
0.0
 11
17.6508402482
 21
-7.2316820787
 31
0.0
  0
SPLINE
  5
3BD
100
AcDbEntity
  8
ASSI
100
AcDbSpline
 62
7
  6
CONTINUOUS
 70
0
 71
3
 72
15
 73
11
 74
9
 42
0.0000001
 43
0.0000001
 44
0.0000000001
 12
-0.0000021724
 22
-0.4687398473
 32
0.0
 13
-0.4162539982
 23
-0.2155218167
 33
0.0
 40
0.0
 40
0.0
 40
0.0
 40
0.0
 40
0.1027077972
 40
0.2081767552
 40
0.3188663381
 40
0.4367343548
 40
0.5631677775
 40
0.6990102561
 40
0.844627764
 40
1.0
 40
1.0
 40
1.0
 40
1.0
 10
19.37130188
 20
-7.6501906663
 30
0.0
 10
19.3713018057
 20
-7.6662384121
 30
0.0
 10
19.3681277473
 20
-7.6988471384
 30
0.0
 10
19.3540025539
 20
-7.7468976943
 30
0.0
 10
19.3307331316
 20
-7.7938806337
 30
0.0
 10
19.2986372327
 20
-7.8393520779
 30
0.0
 10
19.2580719823
 20
-7.8829502251
 30
0.0
 10
19.2094321551
 20
-7.9243251968
 30
0.0
 10
19.1531695754
 20
-7.9631371738
 30
0.0
 10
19.1121998913
 20
-7.986355495
 30
0.0
 10
19.0906417865
 20
-7.9975175306
 30
0.0
 11
19.37130188
 21
-7.6501906663
 31
0.0
 11
19.3666977407
 21
-7.6981132412
 31
0.0
 11
19.3529285021
 21
-7.7455945512
 31
0.0
 11
19.3301208762
 21
-7.7921974031
 31
0.0
 11
19.298484887
 21
-7.8374927051
 31
0.0
 11
19.2583119599
 21
-7.8810633725
 31
0.0
 11
19.2099716486
 21
-7.9225084234
 31
0.0
 11
19.1539102814
 21
-7.9614456046
 31
0.0
 11
19.0906417865
 21
-7.9975175306
 31
0.0
  0
SPLINE
  5
3BE
100
AcDbEntity
  8
ASSI
100
AcDbSpline
 62
7
  6
CONTINUOUS
 70
0
 71
3
 72
15
 73
11
 74
9
 42
0.0000001
 43
0.0000001
 44
0.0000000001
 12
-0.0000021724
 22
-0.4687398473
 32
0.0
 13
-0.4162539982
 23
-0.2155218167
 33
0.0
 40
0.0
 40
0.0
 40
0.0
 40
0.0
 40
0.1027077972
 40
0.2081767552
 40
0.3188663381
 40
0.4367343548
 40
0.5631677775
 40
0.6990102561
 40
0.844627764
 40
1.0
 40
1.0
 40
1.0
 40
1.0
 10
19.37130188
 20
-3.3200636474
 30
0.0
 10
19.3713018057
 20
-3.3361113931
 30
0.0
 10
19.3681277473
 20
-3.3687201194
 30
0.0
 10
19.3540025539
 20
-3.4167706754
 30
0.0
 10
19.3307331316
 20
-3.4637536148
 30
0.0
 10
19.2986372327
 20
-3.509225059
 30
0.0
 10
19.2580719823
 20
-3.5528232061
 30
0.0
 10
19.2094321551
 20
-3.5941981779
 30
0.0
 10
19.1531695754
 20
-3.6330101548
 30
0.0
 10
19.1121998913
 20
-3.6562284761
 30
0.0
 10
19.0906417865
 20
-3.6673905116
 30
0.0
 11
19.37130188
 21
-3.3200636474
 31
0.0
 11
19.3666977407
 21
-3.3679862223
 31
0.0
 11
19.3529285021
 21
-3.4154675323
 31
0.0
 11
19.3301208762
 21
-3.4620703842
 31
0.0
 11
19.298484887
 21
-3.5073656862
 31
0.0
 11
19.2583119599
 21
-3.5509363535
 31
0.0
 11
19.2099716486
 21
-3.5923814045
 31
0.0
 11
19.1539102814
 21
-3.6313185857
 31
0.0
 11
19.0906417865
 21
-3.6673905116
 31
0.0
  0
SPLINE
  5
3BF
100
AcDbEntity
  8
ASSI
100
AcDbSpline
 62
7
  6
CONTINUOUS
 70
0
 71
3
 72
15
 73
11
 74
9
 42
0.0000001
 43
0.0000001
 44
0.0000000001
 12
0.4315161028
 22
-0.2157580514
 32
0.0
 13
-0.0000022359
 23
-0.4824496696
 33
0.0
 40
0.0
 40
0.0
 40
0.0
 40
0.0
 40
0.1560120636
 40
0.3021474201
 40
0.4383313505
 40
0.5648889357
 40
0.6826430938
 40
0.7929887037
 40
0.8979275553
 40
1.0
 40
1.0
 40
1.0
 40
1.0
 10
19.0784087674
 20
-6.6038146317
 30
0.0
 10
19.1008493399
 20
-6.615034918
 30
0.0
 10
19.1435130085
 20
-6.6384263595
 30
0.0
 10
19.2021725104
 20
-6.6776983366
 30
0.0
 10
19.2529319589
 20
-6.7197009762
 30
0.0
 10
19.2953005252
 20
-6.7640740396
 30
0.0
 10
19.3288497075
 20
-6.8104470631
 30
0.0
 10
19.353191367
 20
-6.8584381436
 30
0.0
 10
19.3679777425
 20
-6.9075771788
 30
0.0
 10
19.3713019561
 20
-6.9409554042
 30
0.0
 10
19.37130188
 20
-6.9573703433
 30
0.0
 11
19.0784087674
 21
-6.6038146317
 31
0.0
 11
19.1443133586
 21
-6.6401719135
 31
0.0
 11
19.2027719566
 21
-6.6795833193
 31
0.0
 11
19.2532240187
 21
-6.7216704679
 31
0.0
 11
19.2951823593
 21
-6.7660273854
 31
0.0
 11
19.3282431637
 21
-6.8122270713
 31
0.0
 11
19.3520878966
 21
-6.8598245715
 31
0.0
 11
19.3664870027
 21
-6.908361477
 31
0.0
 11
19.37130188
 21
-6.9573703433
 31
0.0
  0
SPLINE
  5
3C0
100
AcDbEntity
  8
ASSI
100
AcDbSpline
 62
7
  6
CONTINUOUS
 70
0
 71
3
 72
15
 73
11
 74
9
 42
0.0000001
 43
0.0000001
 44
0.0000000001
 12
0.4315161028
 22
-0.2157580514
 32
0.0
 13
-0.0000022359
 23
-0.4824496696
 33
0.0
 40
0.0
 40
0.0
 40
0.0
 40
0.0
 40
0.1560120636
 40
0.3021474201
 40
0.4383313505
 40
0.5648889357
 40
0.6826430938
 40
0.7929887037
 40
0.8979275553
 40
1.0
 40
1.0
 40
1.0
 40
1.0
 10
19.0784087674
 20
-10.9339416506
 30
0.0
 10
19.1008493399
 20
-10.9451619369
 30
0.0
 10
19.1435130085
 20
-10.9685533784
 30
0.0
 10
19.2021725104
 20
-11.0078253555
 30
0.0
 10
19.2529319589
 20
-11.0498279952
 30
0.0
 10
19.2953005252
 20
-11.0942010585
 30
0.0
 10
19.3288497075
 20
-11.1405740821
 30
0.0
 10
19.353191367
 20
-11.1885651625
 30
0.0
 10
19.3679777425
 20
-11.2377041977
 30
0.0
 10
19.3713019561
 20
-11.2710824231
 30
0.0
 10
19.37130188
 20
-11.2874973622
 30
0.0
 11
19.0784087674
 21
-10.9339416506
 31
0.0
 11
19.1443133586
 21
-10.9702989325
 31
0.0
 11
19.2027719566
 21
-11.0097103383
 31
0.0
 11
19.2532240187
 21
-11.0517974868
 31
0.0
 11
19.2951823593
 21
-11.0961544043
 31
0.0
 11
19.3282431637
 21
-11.1423540902
 31
0.0
 11
19.3520878966
 21
-11.1899515904
 31
0.0
 11
19.3664870027
 21
-11.2384884959
 31
0.0
 11
19.37130188
 21
-11.2874973622
 31
0.0
  0
SPLINE
  5
3C1
100
AcDbEntity
  8
ASSI
100
AcDbSpline
 62
7
  6
CONTINUOUS
 70
0
 71
3
 72
15
 73
11
 74
9
 42
0.0000001
 43
0.0000001
 44
0.0000000001
 12
-0.0000021724
 22
-0.4687398473
 32
0.0
 13
-0.4162539982
 23
-0.2155218167
 33
0.0
 40
0.0
 40
0.0
 40
0.0
 40
0.0
 40
0.1027077972
 40
0.2081767552
 40
0.3188663381
 40
0.4367343548
 40
0.5631677775
 40
0.6990102561
 40
0.844627764
 40
1.0
 40
1.0
 40
1.0
 40
1.0
 10
19.37130188
 20
-11.2874973622
 30
0.0
 10
19.3713018057
 20
-11.3035451079
 30
0.0
 10
19.3681277473
 20
-11.3361538343
 30
0.0
 10
19.3540025539
 20
-11.3842043902
 30
0.0
 10
19.3307331316
 20
-11.4311873296
 30
0.0
 10
19.2986372327
 20
-11.4766587738
 30
0.0
 10
19.2580719823
 20
-11.5202569209
 30
0.0
 10
19.2094321551
 20
-11.5616318927
 30
0.0
 10
19.1531695754
 20
-11.6004438697
 30
0.0
 10
19.1121998913
 20
-11.6236621909
 30
0.0
 10
19.0906417865
 20
-11.6348242265
 30
0.0
 11
19.37130188
 21
-11.2874973622
 31
0.0
 11
19.3666977407
 21
-11.3354199371
 31
0.0
 11
19.3529285021
 21
-11.3829012471
 31
0.0
 11
19.3301208762
 21
-11.429504099
 31
0.0
 11
19.298484887
 21
-11.474799401
 31
0.0
 11
19.2583119599
 21
-11.5183700684
 31
0.0
 11
19.2099716486
 21
-11.5598151193
 31
0.0
 11
19.1539102814
 21
-11.5987523005
 31
0.0
 11
19.0906417865
 21
-11.6348242265
 31
0.0
  0
SPLINE
  5
3C2
100
AcDbEntity
  8
RACCORDO
100
AcDbSpline
 62
253
  6
CONTINUOUS
 70
0
 71
3
 72
11
 73
7
 74
5
 42
0.0000001
 43
0.0000001
 44
0.0000000001
 12
0.2032261373
 22
0.0938534834
 32
0.0
 13
0.1988173575
 23
-0.1028639761
 33
0.0
 40
0.0
 40
0.0
 40
0.0
 40
0.0
 40
0.2278649787
 40
0.4657800962
 40
0.7216148493
 40
1.0
 40
1.0
 40
1.0
 40
1.0
 10
-2.4504504426
 20
19.9944480865
 30
0.0
 10
-2.4350144028
 20
20.0015767272
 30
0.0
 10
-2.4012647073
 20
20.0117900353
 30
0.0
 10
-2.3469083515
 20
20.0133571714
 30
0.0
 10
-2.2900521249
 20
20.0016693652
 30
0.0
 10
-2.2530899072
 20
19.9860966052
 30
0.0
 10
-2.2346406405
 20
19.9765513374
 30
0.0
 11
-2.4504504426
 21
19.9944480865
 31
0.0
 11
-2.4016732656
 21
20.0093674225
 31
0.0
 11
-2.3484520123
 21
20.0113339812
 31
0.0
 11
-2.2922573318
 21
20.0002938118
 31
0.0
 11
-2.2346406405
 21
19.9765513374
 31
0.0
  0
SPLINE
  5
3C3
100
AcDbEntity
  8
ASSI
100
AcDbSpline
 62
7
  6
CONTINUOUS
 70
0
 71
3
 72
15
 73
11
 74
9
 42
0.0000001
 43
0.0000001
 44
0.0000000001
 12
-0.0000021724
 22
-0.4687398473
 32
0.0
 13
-0.4162539982
 23
-0.2155218167
 33
0.0
 40
0.0
 40
0.0
 40
0.0
 40
0.0
 40
0.1027077972
 40
0.2081767552
 40
0.3188663381
 40
0.4367343548
 40
0.5631677775
 40
0.6990102561
 40
0.844627764
 40
1.0
 40
1.0
 40
1.0
 40
1.0
 10
19.37130188
 20
-6.9573703433
 30
0.0
 10
19.3713018057
 20
-6.973418089
 30
0.0
 10
19.3681277473
 20
-7.0060268153
 30
0.0
 10
19.3540025539
 20
-7.0540773713
 30
0.0
 10
19.3307331316
 20
-7.1010603107
 30
0.0
 10
19.2986372327
 20
-7.1465317549
 30
0.0
 10
19.2580719823
 20
-7.190129902
 30
0.0
 10
19.2094321551
 20
-7.2315048738
 30
0.0
 10
19.1531695754
 20
-7.2703168507
 30
0.0
 10
19.1121998913
 20
-7.293535172
 30
0.0
 10
19.0906417865
 20
-7.3046972075
 30
0.0
 11
19.37130188
 21
-6.9573703433
 31
0.0
 11
19.3666977407
 21
-7.0052929182
 31
0.0
 11
19.3529285021
 21
-7.0527742282
 31
0.0
 11
19.3301208762
 21
-7.0993770801
 31
0.0
 11
19.298484887
 21
-7.1446723821
 31
0.0
 11
19.2583119599
 21
-7.1882430494
 31
0.0
 11
19.2099716486
 21
-7.2296881004
 31
0.0
 11
19.1539102814
 21
-7.2686252816
 31
0.0
 11
19.0906417865
 21
-7.3046972075
 31
0.0
  0
SPLINE
  5
3C4
100
AcDbEntity
  8
RACCORDO
100
AcDbSpline
 62
253
  6
CONTINUOUS
 70
0
 71
3
 72
22
 73
18
 74
16
 42
0.0000001
 43
0.0000001
 44
0.0000000001
 12
-0.1918313407
 22
0.3308269857
 32
0.0
 13
-0.3424315025
 23
-0.1702539979
 33
0.0
 40
0.0
 40
0.0
 40
0.0
 40
0.0
 40
0.0058783962
 40
0.0124164818
 40
0.0201045026
 40
0.0292470137
 40
0.052511649
 40
0.0829611472
 40
0.1208327051
 40
0.1661775681
 40
0.2189529458
 40
0.2790564
 40
0.3463420954
 40
0.4206307423
 40
0.5893517344
 40
0.7832485364
 40
1.0
 40
1.0
 40
1.0
 40
1.0
 10
19.0293345344
 20
19.9027161908
 30
0.0
 10
19.0289586475
 20
19.9033644349
 30
0.0
 10
19.0279033054
 20
19.9045931766
 30
0.0
 10
19.0256780112
 20
19.9059252773
 30
0.0
 10
19.0228214537
 20
19.9068333719
 30
0.0
 10
19.0177477727
 20
19.9075675287
 30
0.0
 10
19.0096920843
 20
19.9072791999
 30
0.0
 10
18.9981480064
 20
19.9054858319
 30
0.0
 10
18.9840314068
 20
19.9021652207
 30
0.0
 10
18.9673819667
 20
19.8973217001
 30
0.0
 10
18.948239714
 20
19.8909547475
 30
0.0
 10
18.9266635075
 20
19.8830793762
 30
0.0
 10
18.9027186049
 20
19.8737162394
 30
0.0
 10
18.866152614
 20
19.8586289999
 30
0.0
 10
18.8151802074
 20
19.8361685281
 30
0.0
 10
18.7482657266
 20
19.8049038358
 30
0.0
 10
18.701232154
 20
19.78191875
 30
0.0
 10
18.6764913109
 20
19.7696178156
 30
0.0
 11
19.0293345344
 21
19.9027161908
 31
0.0
 11
19.0278878766
 21
19.9044368833
 31
0.0
 11
19.0257705798
 21
19.9057667548
 31
0.0
 11
19.0229841417
 21
19.906704686
 31
0.0
 11
19.0195306248
 21
19.9072498898
 31
0.0
 11
19.010634185
 21
19.9071610702
 31
0.0
 11
18.9991086791
 21
19.9055004452
 31
0.0
 11
18.9849899484
 21
19.9022731958
 31
0.0
 11
18.9683220162
 21
19.8974894507
 31
0.0
 11
18.9491564792
 21
19.8911639627
 31
0.0
 11
18.9275528447
 21
19.8833163621
 31
0.0
 11
18.9035783867
 21
19.8739711355
 31
0.0
 11
18.8773074666
 21
19.863157242
 31
0.0
 11
18.8182093315
 21
19.8372621606
 31
0.0
 11
18.7509932674
 21
19.8059531871
 31
0.0
 11
18.6764913109
 21
19.7696178156
 31
0.0
  0
SPLINE
  5
3C5
100
AcDbEntity
  8
RACCORDO
100
AcDbSpline
 62
253
  6
CONTINUOUS
 70
0
 71
3
 72
15
 73
11
 74
9
 42
0.0000001
 43
0.0000001
 44
0.0000000001
 12
-0.0000002694
 22
-0.468740859
 32
0.0
 13
-0.4162548966
 23
-0.2155222819
 33
0.0
 40
0.0
 40
0.0
 40
0.0
 40
0.0
 40
0.1027078189
 40
0.2081767581
 40
0.318866303
 40
0.436734282
 40
0.5631676818
 40
0.6990101622
 40
0.8446277016
 40
1.0
 40
1.0
 40
1.0
 40
1.0
 10
19.3713018801
 20
18.6853121204
 30
0.0
 10
19.3713018708
 20
18.6692643366
 30
0.0
 10
19.3681279302
 20
18.6366555258
 30
0.0
 10
19.354002857
 20
18.5886048253
 30
0.0
 10
19.3307335016
 20
18.5416217408
 30
0.0
 10
19.2986376183
 20
18.4961501553
 30
0.0
 10
19.2580723354
 20
18.4525518739
 30
0.0
 10
19.20943243
 20
18.4111767774
 30
0.0
 10
19.1531697299
 20
18.3723646878
 30
0.0
 10
19.1121999465
 20
18.349146305
 30
0.0
 10
19.0906417865
 20
18.3379842409
 30
0.0
 11
19.3713018801
 21
18.6853121204
 31
0.0
 11
19.366697911
 21
18.6373894145
 31
0.0
 11
19.3529287927
 21
18.5899079677
 31
0.0
 11
19.3301212367
 21
18.5433049767
 31
0.0
 11
19.2984852673
 21
18.498009537
 31
0.0
 11
19.2583123115
 21
18.4544387367
 31
0.0
 11
19.2099719251
 21
18.4129935609
 31
0.0
 11
19.1539104394
 21
18.3740562662
 31
0.0
 11
19.0906417865
 21
18.3379842409
 31
0.0
  0
SPLINE
  5
3C6
100
AcDbEntity
  8
ASSI
100
AcDbSpline
 62
7
  6
CONTINUOUS
 70
0
 71
3
 72
12
 73
8
 74
6
 42
0.0000001
 43
0.0000001
 44
0.0000000001
 12
0.1183205236
 22
-0.064369217
 32
0.0
 13
-0.0000025642
 23
-0.1346964825
 33
0.0
 40
0.0
 40
0.0
 40
0.0
 40
0.0
 40
0.2994237143
 40
0.5609662115
 40
0.7898593732
 40
0.8962382597
 40
1.0
 40
1.0
 40
1.0
 40
1.0
 10
17.6577459812
 20
-11.355169454
 30
0.0
 10
17.6695553047
 20
-11.3615940106
 30
0.0
 10
17.69088019
 20
-11.3752737909
 30
0.0
 10
17.7166030303
 20
-11.4000873409
 30
0.0
 10
17.7305665029
 20
-11.4235054387
 30
0.0
 10
17.7359746815
 20
-11.4425590419
 30
0.0
 10
17.7368651727
 20
-11.452016802
 30
0.0
 10
17.736865084
 20
-11.4566755825
 30
0.0
 11
17.6577459812
 21
-11.355169454
 31
0.0
 11
17.6914494861
 21
-11.37732096
 31
0.0
 11
17.7163873402
 21
-11.4022041996
 31
0.0
 11
17.7317017515
 21
-11.4289628574
 31
0.0
 11
17.7355717559
 21
-11.4427592101
 31
0.0
 11
17.736865084
 21
-11.4566755825
 31
0.0
  0
SPLINE
  5
3C7
100
AcDbEntity
  8
ASSI
100
AcDbSpline
 62
7
  6
CONTINUOUS
 70
0
 71
3
 72
12
 73
8
 74
6
 42
0.0000001
 43
0.0000001
 44
0.0000000001
 12
0.1183205236
 22
-0.064369217
 32
0.0
 13
-0.0000025642
 23
-0.1346964825
 33
0.0
 40
0.0
 40
0.0
 40
0.0
 40
0.0
 40
0.2994237143
 40
0.5609662115
 40
0.7898593732
 40
0.8962382597
 40
1.0
 40
1.0
 40
1.0
 40
1.0
 10
17.6577459812
 20
-7.025042435
 30
0.0
 10
17.6695553047
 20
-7.0314669917
 30
0.0
 10
17.69088019
 20
-7.045146772
 30
0.0
 10
17.7166030303
 20
-7.069960322
 30
0.0
 10
17.7305665029
 20
-7.0933784198
 30
0.0
 10
17.7359746815
 20
-7.112432023
 30
0.0
 10
17.7368651727
 20
-7.1218897831
 30
0.0
 10
17.736865084
 20
-7.1265485636
 30
0.0
 11
17.6577459812
 21
-7.025042435
 31
0.0
 11
17.6914494861
 21
-7.0471939411
 31
0.0
 11
17.7163873402
 21
-7.0720771807
 31
0.0
 11
17.7317017515
 21
-7.0988358385
 31
0.0
 11
17.7355717559
 21
-7.1126321911
 31
0.0
 11
17.736865084
 21
-7.1265485636
 31
0.0
  0
SPLINE
  5
3C8
100
AcDbEntity
  8
RACCORDO
100
AcDbSpline
 62
253
  6
CONTINUOUS
 70
0
 71
3
 72
22
 73
18
 74
16
 42
0.0000001
 43
0.0000001
 44
0.0000000001
 12
-0.1918547233
 22
0.3308129102
 32
0.0
 13
-0.3424311029
 23
-0.1702537994
 33
0.0
 40
0.0
 40
0.0
 40
0.0
 40
0.0
 40
0.0058784355
 40
0.0124166693
 40
0.0201048993
 40
0.0292476455
 40
0.0525127569
 40
0.0829626808
 40
0.1208345882
 40
0.1661797142
 40
0.2189552641
 40
0.279058799
 40
0.3463444838
 40
0.4206330306
 40
0.5893535652
 40
0.7832495921
 40
1.0
 40
1.0
 40
1.0
 40
1.0
 10
18.9036341448
 20
20.1195172932
 30
0.0
 10
18.9032582095
 20
20.120165514
 30
0.0
 10
18.9022027665
 20
20.1213941957
 30
0.0
 10
18.899977364
 20
20.1227262001
 30
0.0
 10
18.8971207073
 20
20.123634213
 30
0.0
 10
18.8920468999
 20
20.1243682618
 30
0.0
 10
18.8839910845
 20
20.124079825
 30
0.0
 10
18.8724468756
 20
20.1222863498
 30
0.0
 10
18.8583301794
 20
20.1189656496
 30
0.0
 10
18.8416806768
 20
20.1141220585
 30
0.0
 10
18.8225383966
 20
20.1077550553
 30
0.0
 10
18.800962197
 20
20.0998796534
 30
0.0
 10
18.777017335
 20
20.090516506
 30
0.0
 10
18.7404514641
 20
20.0754292867
 30
0.0
 10
18.689479281
 20
20.0529688905
 30
0.0
 10
18.622565148
 20
20.0217043468
 30
0.0
 10
18.5755318409
 20
19.9987193884
 30
0.0
 10
18.5507911472
 20
19.9864185282
 30
0.0
 11
18.9036341448
 21
20.1195172932
 31
0.0
 11
18.9021873617
 21
20.1212378965
 31
0.0
 11
18.9000699485
 21
20.1225676837
 31
0.0
 11
18.8972834028
 21
20.1235055354
 31
0.0
 11
18.8938297873
 21
20.1240506645
 31
0.0
 11
18.8849331771
 21
20.1239617105
 31
0.0
 11
18.8734075369
 21
20.1223009714
 31
0.0
 11
18.8592887078
 21
20.1190736283
 31
0.0
 11
18.842620713
 21
20.1142898101
 31
0.0
 11
18.8234551488
 21
20.1079642698
 31
0.0
 11
18.8018515215
 21
20.1001166374
 31
0.0
 11
18.7778771045
 21
20.0907713994
 31
0.0
 11
18.7516062581
 21
20.0799575146
 31
0.0
 11
18.6925083631
 21
20.0540625088
 31
0.0
 11
18.625292652
 21
20.0227536842
 31
0.0
 11
18.5507911472
 21
19.9864185282
 31
0.0
  0
SPLINE
  5
3C9
100
AcDbEntity
  8
RACCORDO
100
AcDbSpline
 62
253
  6
CONTINUOUS
 70
0
 71
3
 72
11
 73
7
 74
5
 42
0.0000001
 43
0.0000001
 44
0.0000000001
 12
0.6448435224
 22
-0.3178932542
 32
0.0
 13
0.3570947211
 23
-0.6239893025
 33
0.0
 40
0.0
 40
0.0
 40
0.0
 40
0.0
 40
0.2264202763
 40
0.471277706
 40
0.7308687027
 40
1.0
 40
1.0
 40
1.0
 40
1.0
 10
18.0508672996
 20
20.4899947875
 30
0.0
 10
18.0995358491
 20
20.4660022947
 30
0.0
 10
18.195912669
 20
20.40575937
 30
0.0
 10
18.3279675609
 20
20.2897755411
 30
0.0
 10
18.4490467195
 20
20.1486679209
 30
0.0
 10
18.5187560253
 20
20.0423968784
 30
0.0
 10
18.5507911472
 20
19.9864185282
 30
0.0
 11
18.0508672996
 21
20.4899947875
 31
0.0
 11
18.1895511892
 21
20.4047587296
 31
0.0
 11
18.3224334967
 21
20.2892949981
 31
0.0
 11
18.4444088097
 21
20.1480391356
 31
0.0
 11
18.5507911472
 21
19.9864185282
 31
0.0
  0
SPLINE
  5
3CA
100
AcDbEntity
  8
RACCORDO
100
AcDbSpline
 62
253
  6
CONTINUOUS
 70
0
 71
3
 72
13
 73
9
 74
7
 42
0.0000001
 43
0.0000001
 44
0.0000000001
 12
0.003056477
 22
-1.0526021387
 32
0.0
 13
-0.7802356075
 23
-0.7065500699
 33
0.0
 40
0.0
 40
0.0
 40
0.0
 40
0.0
 40
0.2826743123
 40
0.5421661864
 40
0.6635789173
 40
0.7798611582
 40
0.8916960635
 40
1.0
 40
1.0
 40
1.0
 40
1.0
 10
19.0906417801
 20
-11.9895618549
 30
0.0
 10
19.090929776
 20
-12.0887430501
 30
0.0
 10
19.0781100945
 20
-12.2794023483
 30
0.0
 10
19.0226996717
 20
-12.5071063936
 30
0.0
 10
18.9552425951
 20
-12.6683258756
 30
0.0
 10
18.89531172
 20
-12.7756595219
 30
0.0
 10
18.8254007333
 20
-12.8711423981
 30
0.0
 10
18.7717548397
 20
-12.9271071582
 30
0.0
 10
18.7435873105
 20
-12.9526145429
 30
0.0
 11
19.0906417801
 21
-11.9895618549
 31
0.0
 11
19.0687401666
 21
-12.2862995356
 31
0.0
 11
19.001946253
 21
-12.5511496656
 31
0.0
 11
18.9523273068
 21
-12.6689238523
 31
0.0
 11
18.8923947423
 21
-12.7756464526
 31
0.0
 11
18.8226282893
 21
-12.8704631519
 31
0.0
 11
18.7435873105
 21
-12.9526145429
 31
0.0
  0
SPLINE
  5
3CB
100
AcDbEntity
  8
RACCORDO
100
AcDbSpline
 62
253
  6
CONTINUOUS
 70
0
 71
3
 72
11
 73
7
 74
5
 42
0.0000001
 43
0.0000001
 44
0.0000000001
 12
0.7591403876
 22
-1.3008517069
 32
0.0
 13
-0.0043603464
 23
-1.5061508154
 33
0.0
 40
0.0
 40
0.0
 40
0.0
 40
0.0
 40
0.2602702548
 40
0.5174814228
 40
0.7657528112
 40
1.0
 40
1.0
 40
1.0
 40
1.0
 10
18.676489851
 20
19.7696203158
 30
0.0
 10
18.7423504051
 20
19.6567626474
 30
0.0
 10
18.8597349781
 20
19.4241527972
 30
0.0
 10
18.9904924815
 20
19.0616125473
 30
0.0
 10
19.0715258513
 20
18.6981435146
 30
0.0
 10
19.0909822464
 20
18.4555860696
 30
0.0
 10
19.0906417801
 20
18.3379822048
 30
0.0
 11
18.676489851
 21
19.7696203158
 31
0.0
 11
18.8530875888
 21
19.4196439851
 31
0.0
 11
18.9840075478
 21
19.0550358934
 31
0.0
 11
19.0642194582
 21
18.6898044971
 31
0.0
 11
19.0906417801
 21
18.3379822048
 31
0.0
  0
SPLINE
  5
3CC
100
AcDbEntity
  8
RACCORDO
100
AcDbSpline
 62
253
  6
CONTINUOUS
 70
0
 71
3
 72
13
 73
9
 74
7
 42
0.0000001
 43
0.0000001
 44
0.0000000001
 12
-0.4029948776
 22
0.2015008827
 32
0.0
 13
-0.4064116181
 23
-0.194517541
 33
0.0
 40
0.0
 40
0.0
 40
0.0
 40
0.0
 40
0.1134934583
 40
0.2282840573
 40
0.3455908828
 40
0.4664899684
 40
0.7220461045
 40
1.0
 40
1.0
 40
1.0
 40
1.0
 10
18.485740165
 20
20.5123580864
 30
0.0
 10
18.4704944042
 20
20.519981097
 30
0.0
 10
18.4387364012
 20
20.53323044
 30
0.0
 10
18.3884356588
 20
20.5466078426
 30
0.0
 10
18.3357155698
 20
20.5534606338
 30
0.0
 10
18.2613948397
 20
20.5538653725
 30
0.0
 10
18.1637362722
 20
20.5369889874
 30
0.0
 10
18.0885218637
 20
20.5080170903
 30
0.0
 10
18.0508672996
 20
20.4899947875
 30
0.0
 11
18.485740165
 21
20.5123580864
 31
0.0
 11
18.4385538317
 21
20.5320644705
 31
0.0
 11
18.3885861464
 21
20.545414973
 31
0.0
 11
18.3361845337
 21
20.552316771
 31
0.0
 11
18.2817133236
 21
20.5527218703
 31
0.0
 11
18.1680888075
 21
20.5340758999
 31
0.0
 11
18.0508672996
 21
20.4899947875
 31
0.0
  0
SPLINE
  5
3CD
100
AcDbEntity
  8
RACCORDO
100
AcDbSpline
 62
253
  6
CONTINUOUS
 70
0
 71
3
 72
13
 73
9
 74
7
 42
0.0000001
 43
0.0000001
 44
0.0000000001
 12
-0.4029948776
 22
0.2015008827
 32
0.0
 13
-0.4064116181
 23
-0.194517541
 33
0.0
 40
0.0
 40
0.0
 40
0.0
 40
0.0
 40
0.1134934583
 40
0.2282840573
 40
0.3455908828
 40
0.4664899684
 40
0.7220461045
 40
1.0
 40
1.0
 40
1.0
 40
1.0
 10
5.3501869803
 20
27.0801346787
 30
0.0
 10
5.3349412195
 20
27.0877576894
 30
0.0
 10
5.3031832165
 20
27.1010070323
 30
0.0
 10
5.2528824741
 20
27.1143844349
 30
0.0
 10
5.2001623852
 20
27.1212372262
 30
0.0
 10
5.125841655
 20
27.1216419649
 30
0.0
 10
5.0281830875
 20
27.1047655798
 30
0.0
 10
4.9529686791
 20
27.0757936826
 30
0.0
 10
4.9153141149
 20
27.0577713799
 30
0.0
 11
5.3501869803
 21
27.0801346787
 31
0.0
 11
5.303000647
 21
27.0998410628
 31
0.0
 11
5.2530329617
 21
27.1131915654
 31
0.0
 11
5.200631349
 21
27.1200933634
 31
0.0
 11
5.1461601389
 21
27.1204984627
 31
0.0
 11
5.0325356228
 21
27.1018524922
 31
0.0
 11
4.9153141149
 21
27.0577713799
 31
0.0
  0
SPLINE
  5
3CE
100
AcDbEntity
  8
RACCORDO
100
AcDbSpline
 62
253
  6
CONTINUOUS
 70
0
 71
3
 72
13
 73
9
 74
7
 42
0.0000001
 43
0.0000001
 44
0.0000000001
 12
0.4076682391
 22
0.1792071276
 32
0.0
 13
0.3971666537
 23
-0.2014131004
 33
0.0
 40
0.0
 40
0.0
 40
0.0
 40
0.0
 40
0.1134884496
 40
0.2284345657
 40
0.3459645484
 40
0.4670681869
 40
0.7227161935
 40
1.0
 40
1.0
 40
1.0
 40
1.0
 10
4.4856007042
 20
27.0943518159
 30
0.0
 10
4.501022583
 20
27.101131129
 30
0.0
 10
4.5330142351
 20
27.1127195572
 30
0.0
 10
4.5833036259
 20
27.1237730027
 30
0.0
 10
4.6357132944
 20
27.1284981626
 30
0.0
 10
4.709203746
 20
27.1263026515
 30
0.0
 10
4.8050864306
 20
27.1067871222
 30
0.0
 10
4.8786048211
 20
27.0763875769
 30
0.0
 10
4.9153141149
 20
27.0577713799
 30
0.0
 11
4.4856007042
 21
27.0943518159
 31
0.0
 11
4.5331096296
 21
27.111586748
 31
0.0
 11
4.5830909181
 21
27.1226341345
 31
0.0
 11
4.6352099499
 21
27.1274197289
 31
0.0
 11
4.689118553
 21
27.1259116328
 31
0.0
 11
4.8008536956
 21
27.1040966196
 31
0.0
 11
4.9153141149
 21
27.0577713799
 31
0.0
  0
SPLINE
  5
3CF
100
AcDbEntity
  8
RACCORDO
100
AcDbSpline
 62
7
  6
CONTINUOUS
 70
0
 71
3
 72
12
 73
8
 74
6
 42
0.0000001
 43
0.0000001
 44
0.0000000001
 12
-0.1965698602
 22
0.0944142833
 32
0.0
 13
-0.1979749362
 23
-0.0914313485
 33
0.0
 40
0.0
 40
0.0
 40
0.0
 40
0.0
 40
0.2874014982
 40
0.5468370254
 40
0.7816151617
 40
0.8922543533
 40
1.0
 40
1.0
 40
1.0
 40
1.0
 10
-2.3194853162
 20
19.9388895818
 30
0.0
 10
-2.338316807
 20
19.9479345173
 30
0.0
 10
-2.3754184431
 20
19.9627359713
 30
0.0
 10
-2.4313767816
 20
19.9743282837
 30
0.0
 10
-2.4758274373
 20
19.973660812
 30
0.0
 10
-2.5080805211
 20
19.9665347473
 30
0.0
 10
-2.5230067912
 20
19.9609392196
 30
0.0
 10
-2.5301171037
 20
19.957655443
 30
0.0
 11
-2.3194853162
 21
19.9388895818
 31
0.0
 11
-2.3778816281
 21
19.9616446667
 31
0.0
 11
-2.4334004109
 21
19.9725238341
 31
0.0
 11
-2.4845807071
 21
19.9711905387
 31
0.0
 11
-2.5081281278
 21
19.9659344848
 31
0.0
 11
-2.5301171037
 21
19.957655443
 31
0.0
  0
SPLINE
  5
3D0
100
AcDbEntity
  8
RACCORDO
100
AcDbSpline
 62
253
  6
CONTINUOUS
 70
0
 71
3
 72
19
 73
15
 74
13
 42
0.0000001
 43
0.0000001
 44
0.0000000001
 12
0.7274473035
 22
0.335967824
 32
0.0
 13
0.7166890846
 23
-0.358344407
 33
0.0
 40
0.0
 40
0.0
 40
0.0
 40
0.0
 40
0.0538897774
 40
0.1068606215
 40
0.160922177
 40
0.2171128989
 40
0.3371380706
 40
0.4667883658
 40
0.6033293856
 40
0.7425592206
 40
0.811391222
 40
0.8782745921
 40
0.941729189
 40
1.0
 40
1.0
 40
1.0
 40
1.0
 10
-2.2346406405
 20
19.9765513374
 30
0.0
 10
-2.2215733161
 20
19.9825864145
 30
0.0
 10
-2.1961951447
 20
19.9956860024
 30
0.0
 10
-2.1584002899
 20
20.0161427555
 30
0.0
 10
-2.1194069893
 20
20.0356758437
 30
0.0
 10
-2.0630247266
 20
20.0603238762
 30
0.0
 10
-1.9853069495
 20
20.0861755433
 30
0.0
 10
-1.8841259369
 20
20.10731208
 30
0.0
 10
-1.776177265
 20
20.1180167355
 30
0.0
 10
-1.6839103485
 20
20.117214556
 30
0.0
 10
-1.6108147206
 20
20.1096625206
 30
0.0
 10
-1.5583830433
 20
20.100312016
 30
0.0
 10
-1.5097102927
 20
20.0870429935
 30
0.0
 10
-1.4794254447
 20
20.0748830864
 30
0.0
 10
-1.46550476
 20
20.0679227466
 30
0.0
 11
-2.2346406405
 21
19.9765513374
 31
0.0
 11
-2.1960482294
 21
19.9959219314
 31
0.0
 11
-2.1585507707
 21
20.0158087717
 31
0.0
 11
-2.1197579314
 21
20.0350861099
 31
0.0
 11
-2.0784886019
 21
20.0530878273
 31
0.0
 11
-1.9872974011
 21
20.083643041
 31
0.0
 11
-1.88566071
 21
20.1051464318
 31
0.0
 11
-1.7767927699
 21
20.1160033428
 31
0.0
 11
-1.6652378275
 21
20.1147084474
 31
0.0
 11
-1.6103875845
 21
20.1089289489
 31
0.0
 11
-1.5576585081
 21
20.0993477603
 31
0.0
 11
-1.5086790436
 21
20.0857010302
 31
0.0
 11
-1.46550476
 21
20.0679227466
 31
0.0
  0
SPLINE
  5
3D1
100
AcDbEntity
  8
RACCORDO
100
AcDbSpline
 62
253
  6
CONTINUOUS
 70
0
 71
3
 72
11
 73
7
 74
5
 42
0.0000001
 43
0.0000001
 44
0.0000000001
 12
0.081203427
 22
0.0388657522
 32
0.0
 13
0.080521396
 23
-0.0402597571
 33
0.0
 40
0.0
 40
0.0
 40
0.0
 40
0.0
 40
0.2782291411
 40
0.5340276409
 40
0.7720108744
 40
1.0
 40
1.0
 40
1.0
 40
1.0
 10
-1.46550476
 20
20.0679227466
 30
0.0
 10
-1.4579737067
 20
20.0715272749
 30
0.0
 10
-1.4429257172
 20
20.0773211743
 30
0.0
 10
-1.4199273956
 20
20.0813010052
 30
0.0
 10
-1.3980931403
 20
20.0799849678
 30
0.0
 10
-1.3846495618
 20
20.0754549197
 30
0.0
 10
-1.3785302276
 20
20.0723953241
 30
0.0
 11
-1.46550476
 21
20.0679227466
 31
0.0
 11
-1.442060009
 21
20.0767391028
 31
0.0
 11
-1.4193356139
 21
20.0804680991
 31
0.0
 11
-1.3979610139
 21
20.0790067484
 31
0.0
 11
-1.3785302276
 21
20.0723953241
 31
0.0
  0
SPLINE
  5
3D2
100
AcDbEntity
  8
RACCORDO
100
AcDbSpline
 62
253
  6
CONTINUOUS
 70
0
 71
3
 72
15
 73
11
 74
9
 42
0.0000001
 43
0.0000001
 44
0.0000000001
 12
0.0000002949
 22
-0.468741159
 32
0.0
 13
-0.416255163
 23
-0.2155224197
 33
0.0
 40
0.0
 40
0.0
 40
0.0
 40
0.0
 40
0.1027078254
 40
0.208176759
 40
0.3188662926
 40
0.4367342604
 40
0.5631676535
 40
0.6990101344
 40
0.8446276831
 40
1.0
 40
1.0
 40
1.0
 40
1.0
 10
19.3713018801
 20
-11.642235704
 30
0.0
 10
19.3713018901
 20
-11.658283499
 30
0.0
 10
19.3681279844
 20
-11.6908923349
 30
0.0
 10
19.3540029469
 20
-11.7389430783
 30
0.0
 10
19.3307336113
 20
-11.7859262058
 30
0.0
 10
19.2986377327
 20
-11.8313978332
 30
0.0
 10
19.25807244
 20
-11.8749961544
 30
0.0
 10
19.2094325115
 20
-11.9163712879
 30
0.0
 10
19.1531697757
 20
-11.9551834109
 30
0.0
 10
19.1121999629
 20
-11.9784018118
 30
0.0
 10
19.0906417865
 20
-11.9895638844
 30
0.0
 11
19.3713018801
 21
-11.642235704
 31
0.0
 11
19.3666979615
 21
-11.6901584487
 31
0.0
 11
19.3529288788
 21
-11.7376399361
 31
0.0
 11
19.3301213435
 21
-11.7842429683
 31
0.0
 11
19.2984853801
 21
-11.8295384488
 31
0.0
 11
19.2583124158
 21
-11.8731092885
 31
0.0
 11
19.209972007
 21
-11.9145545014
 31
0.0
 11
19.1539104862
 21
-11.9534918297
 31
0.0
 11
19.0906417865
 21
-11.9895638844
 31
0.0
  0
SPLINE
  5
3D3
100
AcDbEntity
  8
RACCORDO
100
AcDbSpline
 62
7
  6
CONTINUOUS
 70
0
 71
3
 72
9
 73
5
 74
3
 42
0.0000001
 43
0.0000001
 44
0.0000000001
 12
0.3439312051
 22
-0.1721539716
 32
0.0
 13
0.3664242351
 23
0.1168714837
 33
0.0
 40
0.0
 40
0.0
 40
0.0
 40
0.0
 40
0.4993861869
 40
1.0
 40
1.0
 40
1.0
 40
1.0
 10
-9.864103601
 20
-9.1248370575
 30
0.0
 10
-9.8068521033
 20
-9.1534941626
 30
0.0
 10
-9.6797502578
 20
-9.1888590901
 30
0.0
 10
-9.5489163436
 20
-9.1728601446
 30
0.0
 10
-9.4877706657
 20
-9.1533576515
 30
0.0
 11
-9.864103601
 21
-9.1248370575
 31
0.0
 11
-9.6789755635
 21
-9.1760062154
 31
0.0
 11
-9.4877706657
 21
-9.1533576515
 31
0.0
  0
SPLINE
  5
3D4
100
AcDbEntity
  8
RACCORDO
100
AcDbSpline
 62
7
  6
CONTINUOUS
 70
0
 71
3
 72
9
 73
5
 74
3
 42
0.0000001
 43
0.0000001
 44
0.0000000001
 12
0.0243451697
 22
-0.4459965227
 32
0.0
 13
0.3654762372
 23
-0.2567736467
 33
0.0
 40
0.0
 40
0.0
 40
0.0
 40
0.0
 40
0.4999389714
 40
1.0
 40
1.0
 40
1.0
 40
1.0
 10
-14.7187174435
 20
-6.4156906155
 30
0.0
 10
-14.7146604104
 20
-6.4900142964
 30
0.0
 10
-14.67257457
 20
-6.6388992249
 30
0.0
 10
-14.5686561774
 20
-6.7535768979
 30
0.0
 10
-14.5077360363
 20
-6.7963777292
 30
0.0
 11
-14.7187174435
 21
-6.4156906155
 31
0.0
 11
-14.6571253422
 21
-6.630331326
 31
0.0
 11
-14.5077360363
 21
-6.7963777292
 31
0.0
  0
SPLINE
  5
3D5
100
AcDbEntity
  8
RACCORDO
100
AcDbSpline
 62
7
  6
CONTINUOUS
 70
0
 71
3
 72
9
 73
5
 74
3
 42
0.0000001
 43
0.0000001
 44
0.0000000001
 12
0.0203485049
 22
0.4210250806
 32
0.0
 13
0.3294582967
 23
0.2629323313
 33
0.0
 40
0.0
 40
0.0
 40
0.0
 40
0.0
 40
0.4991175859
 40
1.0
 40
1.0
 40
1.0
 40
1.0
 10
-14.7190982553
 20
-0.7546822556
 30
0.0
 10
-14.7157128231
 20
-0.6846352483
 30
0.0
 10
-14.6783256207
 20
-0.5440387214
 30
0.0
 10
-14.5854320232
 20
-0.4323437715
 30
0.0
 10
-14.5304254009
 20
-0.3884443779
 30
0.0
 11
-14.7190982553
 21
-0.7546822556
 31
0.0
 11
-14.6645639403
 21
-0.5514867637
 31
0.0
 11
-14.5304254009
 21
-0.3884443779
 31
0.0
  0
SPLINE
  5
3D6
100
AcDbEntity
  8
SUPERFICI
100
AcDbSpline
 62
7
  6
CONTINUOUS
 70
0
 71
3
 72
8
 73
4
 74
2
 42
0.0000001
 43
0.0000001
 44
0.0000000001
 12
0.1070146728
 22
0.1302471897
 32
0.0
 13
-0.0000199537
 23
0.1685718548
 33
0.0
 40
0.0
 40
0.0
 40
0.0
 40
0.0
 40
1.0
 40
1.0
 40
1.0
 40
1.0
 10
1.9381061045
 20
15.6027375579
 30
0.0
 10
1.9737776621
 20
15.6461532878
 30
0.0
 10
1.9949607712
 20
15.7052440529
 30
0.0
 10
1.99495412
 20
15.7614346711
 30
0.0
 11
1.9381061045
 21
15.6027375579
 31
0.0
 11
1.99495412
 21
15.7614346711
 31
0.0
  0
SPLINE
  5
3D7
100
AcDbEntity
  8
SUPERFICI
100
AcDbSpline
 62
7
  6
CONTINUOUS
 70
0
 71
3
 72
8
 73
4
 74
2
 42
0.0000001
 43
0.0000001
 44
0.0000000001
 12
0.0574520472
 22
-0.0288036353
 32
0.0
 13
0.0629004334
 23
-0.0131879725
 33
0.0
 40
0.0
 40
0.0
 40
0.0
 40
0.0
 40
1.0
 40
1.0
 40
1.0
 40
1.0
 10
-0.4943124022
 20
14.4803650713
 30
0.0
 10
-0.4751617197
 20
14.4707638595
 30
0.0
 10
-0.4546213916
 20
14.4635239295
 30
0.0
 10
-0.4336545805
 20
14.4591279387
 30
0.0
 11
-0.4943124022
 21
14.4803650713
 31
0.0
 11
-0.4336545805
 21
14.4591279387
 31
0.0
  0
SPLINE
  5
3D8
100
AcDbEntity
  8
SUPERFICI
100
AcDbSpline
 62
7
  6
CONTINUOUS
 70
0
 71
3
 72
9
 73
5
 74
3
 42
0.0000001
 43
0.0000001
 44
0.0000000001
 12
-0.2010752103
 22
0.1005022035
 32
0.0
 13
-0.044841928
 23
0.2202751338
 33
0.0
 40
0.0
 40
0.0
 40
0.0
 40
0.0
 40
0.499652871
 40
1.0
 40
1.0
 40
1.0
 40
1.0
 10
-2.1726647103
 20
15.3194224947
 30
0.0
 10
-2.206153979
 20
15.3361612329
 30
0.0
 10
-2.2662577233
 20
15.3856035998
 30
0.0
 10
-2.2986482103
 20
15.4564323884
 30
0.0
 10
-2.3061270536
 20
15.4931703987
 30
0.0
 11
-2.1726647103
 21
15.3194224947
 31
0.0
 11
-2.2592972982
 21
15.3909084582
 31
0.0
 11
-2.3061270536
 21
15.4931703987
 31
0.0
  0
SPLINE
  5
3D9
100
AcDbEntity
  8
SUPERFICI
100
AcDbSpline
 62
7
  6
CONTINUOUS
 70
0
 71
3
 72
8
 73
4
 74
2
 42
0.0000001
 43
0.0000001
 44
0.0000000001
 12
0.1070146728
 22
0.1302471897
 32
0.0
 13
-0.0000199537
 23
0.1685718548
 33
0.0
 40
0.0
 40
0.0
 40
0.0
 40
0.0
 40
1.0
 40
1.0
 40
1.0
 40
1.0
 10
-10.3655518881
 20
21.7545665542
 30
0.0
 10
-10.3298803305
 20
21.7979822841
 30
0.0
 10
-10.3086972214
 20
21.8570730492
 30
0.0
 10
-10.3087038727
 20
21.9132636674
 30
0.0
 11
-10.3655518881
 21
21.7545665542
 31
0.0
 11
-10.3087038727
 21
21.9132636674
 31
0.0
  0
SPLINE
  5
3DA
100
AcDbEntity
  8
SUPERFICI
100
AcDbSpline
 62
7
  6
CONTINUOUS
 70
0
 71
3
 72
8
 73
4
 74
2
 42
0.0000001
 43
0.0000001
 44
0.0000000001
 12
-0.1557294096
 22
-0.0798921349
 32
0.0
 13
-0.0651912674
 23
-0.1624330658
 33
0.0
 40
0.0
 40
0.0
 40
0.0
 40
0.0
 40
1.0
 40
1.0
 40
1.0
 40
1.0
 10
-14.4788578633
 20
22.2573789631
 30
0.0
 10
-14.5307676665
 20
22.2307482515
 30
0.0
 10
-14.5750692965
 20
22.1822015456
 30
0.0
 10
-14.5967997189
 20
22.1280571904
 30
0.0
 11
-14.4788578633
 21
22.2573789631
 31
0.0
 11
-14.5967997189
 21
22.1280571904
 31
0.0
  0
SPLINE
  5
3DB
100
AcDbEntity
  8
SUPERFICI
100
AcDbSpline
 62
7
  6
CONTINUOUS
 70
0
 71
3
 72
8
 73
4
 74
2
 42
0.0000001
 43
0.0000001
 44
0.0000000001
 12
-0.1557294096
 22
-0.0798921349
 32
0.0
 13
-0.0651912674
 23
-0.1624330658
 33
0.0
 40
0.0
 40
0.0
 40
0.0
 40
0.0
 40
1.0
 40
1.0
 40
1.0
 40
1.0
 10
-2.1751998707
 20
16.1055499668
 30
0.0
 10
-2.2271096738
 20
16.0789192552
 30
0.0
 10
-2.2714113038
 20
16.0303725493
 30
0.0
 10
-2.2931417263
 20
15.976228194
 30
0.0
 11
-2.1751998707
 21
16.1055499668
 31
0.0
 11
-2.2931417263
 21
15.976228194
 31
0.0
  0
SPLINE
  5
3DC
100
AcDbEntity
  8
SUPERFICI
100
AcDbSpline
 62
7
  6
CONTINUOUS
 70
0
 71
3
 72
8
 73
4
 74
2
 42
0.0000001
 43
0.0000001
 44
0.0000000001
 12
0.1572986514
 22
-0.0786493257
 32
0.0
 13
0.0666095143
 23
-0.1627628789
 33
0.0
 40
0.0
 40
0.0
 40
0.0
 40
0.0
 40
1.0
 40
1.0
 40
1.0
 40
1.0
 10
1.856746788
 20
16.3325836711
 30
0.0
 10
1.9091796718
 20
16.3063672292
 30
0.0
 10
1.9541602729
 20
16.2579176876
 30
0.0
 10
1.9763634444
 20
16.2036633947
 30
0.0
 11
1.856746788
 21
16.3325836711
 31
0.0
 11
1.9763634444
 21
16.2036633947
 31
0.0
  0
SPLINE
  5
3DD
100
AcDbEntity
  8
SUPERFICI
100
AcDbSpline
 62
7
  6
CONTINUOUS
 70
0
 71
3
 72
8
 73
4
 74
2
 42
0.0000001
 43
0.0000001
 44
0.0000000001
 12
0.0365820183
 22
-0.0893895516
 32
0.0
 13
-0.0003301917
 23
-0.0965848175
 33
0.0
 40
0.0
 40
0.0
 40
0.0
 40
0.0
 40
1.0
 40
1.0
 40
1.0
 40
1.0
 10
1.9763634444
 20
16.2036633947
 30
0.0
 10
1.9885574505
 20
16.1738668775
 30
0.0
 10
1.9950380123
 20
16.1410738668
 30
0.0
 10
1.9949279484
 20
16.1088789277
 30
0.0
 11
1.9763634444
 21
16.2036633947
 31
0.0
 11
1.9949279484
 21
16.1088789277
 31
0.0
  0
SPLINE
  5
3DE
100
AcDbEntity
  8
SUPERFICI
100
AcDbSpline
 62
7
  6
CONTINUOUS
 70
0
 71
3
 72
9
 73
5
 74
3
 42
0.0000001
 43
0.0000001
 44
0.0000000001
 12
0.2409604143
 22
0.123591743
 32
0.0
 13
0.0005171818
 23
0.2708072612
 33
0.0
 40
0.0
 40
0.0
 40
0.0
 40
0.0
 40
0.4999078826
 40
1.0
 40
1.0
 40
1.0
 40
1.0
 10
1.8586499674
 20
-26.1082189441
 30
0.0
 10
1.8988026376
 20
-26.0876241152
 30
0.0
 10
1.9694697612
 20
-26.023327929
 30
0.0
 10
1.9947237042
 20
-25.9311554397
 30
0.0
 10
1.9948099171
 20
-25.8860125808
 30
0.0
 11
1.8586499674
 21
-26.1082189441
 31
0.0
 11
1.9581076297
 21
-26.0163732665
 31
0.0
 11
1.9948099171
 21
-25.8860125808
 31
0.0
  0
SPLINE
  5
3DF
100
AcDbEntity
  8
SUPERFICI
100
AcDbSpline
 62
7
  6
CONTINUOUS
 70
0
 71
3
 72
9
 73
5
 74
3
 42
0.0000001
 43
0.0000001
 44
0.0000000001
 12
0.1911308939
 22
0.0712617191
 32
0.0
 13
0.1911316712
 23
-0.0712596344
 33
0.0
 40
0.0
 40
0.0
 40
0.0
 40
0.0
 40
0.2346728566
 40
1.0
 40
1.0
 40
1.0
 40
1.0
 10
-3.5598545413
 20
23.3167597791
 30
0.0
 10
-3.5449034637
 20
23.3223341762
 30
0.0
 10
-3.4781607253
 20
23.3382904376
 30
0.0
 10
-3.4075731008
 20
23.3243297707
 30
0.0
 10
-3.3588136821
 20
23.3061507932
 30
0.0
 11
-3.5598545413
 21
23.3167597791
 31
0.0
 11
-3.5133663025
 21
23.3281756135
 31
0.0
 11
-3.3588136821
 21
23.3061507932
 31
0.0
  0
SPLINE
  5
3E0
100
AcDbEntity
  8
SUPERFICI
100
AcDbSpline
 62
7
  6
CONTINUOUS
 70
0
 71
3
 72
8
 73
4
 74
2
 42
0.0000001
 43
0.0000001
 44
0.0000000001
 12
0.0513479756
 22
-0.0191440693
 32
0.0
 13
0.0490155225
 23
-0.024506908
 33
0.0
 40
0.0
 40
0.0
 40
0.0
 40
0.0
 40
1.0
 40
1.0
 40
1.0
 40
1.0
 10
-3.3588136821
 20
23.3061507932
 30
0.0
 10
-3.3416976903
 20
23.2997694368
 30
0.0
 10
-3.3249380489
 20
23.2923732354
 30
0.0
 10
-3.3085995414
 20
23.2842042661
 30
0.0
 11
-3.3588136821
 21
23.3061507932
 31
0.0
 11
-3.3085995414
 21
23.2842042661
 31
0.0
  0
SPLINE
  5
3E1
100
AcDbEntity
  8
SUPERFICI
100
AcDbSpline
 62
7
  6
CONTINUOUS
 70
0
 71
3
 72
9
 73
5
 74
3
 42
0.0000001
 43
0.0000001
 44
0.0000000001
 12
0.190549814
 22
0.0732603017
 32
0.0
 13
0.1915619622
 23
-0.0705713685
 33
0.0
 40
0.0
 40
0.0
 40
0.0
 40
0.0
 40
0.2346830917
 40
1.0
 40
1.0
 40
1.0
 40
1.0
 10
2.0287229426
 20
20.520828747
 30
0.0
 10
2.0436292158
 20
20.5265597317
 30
0.0
 10
2.1102820479
 20
20.5431623911
 30
0.0
 10
2.1810748843
 20
20.52955682
 30
0.0
 10
2.2299434206
 20
20.5115536662
 30
0.0
 11
2.0287229426
 21
20.520828747
 31
0.0
 11
2.0751418167
 21
20.5326887054
 31
0.0
 11
2.2299434206
 21
20.5115536662
 31
0.0
  0
SPLINE
  5
3E2
100
AcDbEntity
  8
SUPERFICI
100
AcDbSpline
 62
7
  6
CONTINUOUS
 70
0
 71
3
 72
8
 73
4
 74
2
 42
0.0000001
 43
0.0000001
 44
0.0000000001
 12
0.053079297
 22
-0.0195543968
 32
0.0
 13
0.0505966197
 23
-0.025293641
 33
0.0
 40
0.0
 40
0.0
 40
0.0
 40
0.0
 40
1.0
 40
1.0
 40
1.0
 40
1.0
 10
2.2299434206
 20
20.5115536662
 30
0.0
 10
2.2476365196
 20
20.5050355339
 30
0.0
 10
2.2649520149
 20
20.4974269456
 30
0.0
 10
2.2818175548
 20
20.4889957319
 30
0.0
 11
2.2299434206
 21
20.5115536662
 31
0.0
 11
2.2818175548
 21
20.4889957319
 31
0.0
  0
SPLINE
  5
3E3
100
AcDbEntity
  8
SUPERFICI
100
AcDbSpline
 62
7
  6
CONTINUOUS
 70
0
 71
3
 72
8
 73
4
 74
2
 42
0.0000001
 43
0.0000001
 44
0.0000000001
 12
0.1572986514
 22
-0.0786493257
 32
0.0
 13
0.0666095143
 23
-0.1627628789
 33
0.0
 40
0.0
 40
0.0
 40
0.0
 40
0.0
 40
1.0
 40
1.0
 40
1.0
 40
1.0
 10
-10.4469112046
 20
22.4844126674
 30
0.0
 10
-10.3944783208
 20
22.4581962255
 30
0.0
 10
-10.3494977197
 20
22.409746684
 30
0.0
 10
-10.3272945483
 20
22.355492391
 30
0.0
 11
-10.4469112046
 21
22.4844126674
 31
0.0
 11
-10.3272945483
 21
22.355492391
 31
0.0
  0
SPLINE
  5
3E4
100
AcDbEntity
  8
SUPERFICI
100
AcDbSpline
 62
7
  6
CONTINUOUS
 70
0
 71
3
 72
8
 73
4
 74
2
 42
0.0000001
 43
0.0000001
 44
0.0000000001
 12
0.0365820183
 22
-0.0893895516
 32
0.0
 13
-0.0003301917
 23
-0.0965848175
 33
0.0
 40
0.0
 40
0.0
 40
0.0
 40
0.0
 40
1.0
 40
1.0
 40
1.0
 40
1.0
 10
-10.3272945483
 20
22.355492391
 30
0.0
 10
-10.3151005422
 20
22.3256958738
 30
0.0
 10
-10.3086199804
 20
22.2929028631
 30
0.0
 10
-10.3087300443
 20
22.260707924
 30
0.0
 11
-10.3272945483
 21
22.355492391
 31
0.0
 11
-10.3087300443
 21
22.260707924
 31
0.0
  0
SPLINE
  5
3E5
100
AcDbEntity
  8
SUPERFICI
100
AcDbSpline
 62
7
  6
CONTINUOUS
 70
0
 71
3
 72
8
 73
4
 74
2
 42
0.0000001
 43
0.0000001
 44
0.0000000001
 12
0.1467926843
 22
-0.0733963422
 32
0.0
 13
0.1606758913
 23
0.0334420867
 33
0.0
 40
0.0
 40
0.0
 40
0.0
 40
0.0
 40
1.0
 40
1.0
 40
1.0
 40
1.0
 10
-0.4943510937
 20
-27.1593143162
 30
0.0
 10
-0.4454201989
 20
-27.1837797636
 30
0.0
 10
-0.3851624407
 20
-27.1916380087
 30
0.0
 10
-0.3316038103
 20
-27.1804906465
 30
0.0
 11
-0.4943510937
 21
-27.1593143162
 31
0.0
 11
-0.3316038103
 21
-27.1804906465
 31
0.0
  0
SPLINE
  5
3E6
100
AcDbEntity
  8
SUPERFICI
100
AcDbSpline
 62
7
  6
CONTINUOUS
 70
0
 71
3
 72
9
 73
5
 74
3
 42
0.0000001
 43
0.0000001
 44
0.0000000001
 12
0.0
 22
0.1729625099
 32
0.0
 13
0.1324032328
 23
0.1112897738
 33
0.0
 40
0.0
 40
0.0
 40
0.0
 40
0.0
 40
0.4996663003
 40
1.0
 40
1.0
 40
1.0
 40
1.0
 10
-5.3462593656
 20
18.4246727064
 30
0.0
 10
-5.3462593656
 20
18.4534805522
 30
0.0
 10
-5.3333924048
 20
18.5118068413
 30
0.0
 10
-5.2970531797
 20
18.5592259125
 30
0.0
 10
-5.2749712466
 20
18.5777865873
 30
0.0
 11
-5.3462593656
 21
18.4246727064
 31
0.0
 11
-5.3275407562
 21
18.5090447484
 31
0.0
 11
-5.2749712466
 21
18.5777865873
 31
0.0
  0
SPLINE
  5
3E7
100
AcDbEntity
  8
SUPERFICI
100
AcDbSpline
 62
7
  6
CONTINUOUS
 70
0
 71
3
 72
8
 73
4
 74
2
 42
0.0000001
 43
0.0000001
 44
0.0000000001
 12
-0.0000300818
 22
0.0094165704
 32
0.0
 13
-0.0084228934
 23
0.0042104121
 33
0.0
 40
0.0
 40
0.0
 40
0.0
 40
0.0
 40
1.0
 40
1.0
 40
1.0
 40
1.0
 10
2.802115394
 20
20.2233849578
 30
0.0
 10
2.8021053667
 20
20.2265238146
 30
0.0
 10
2.7999073534
 20
20.2299511634
 30
0.0
 10
2.7970997223
 20
20.2313546341
 30
0.0
 11
2.802115394
 21
20.2233849578
 31
0.0
 11
2.7970997223
 21
20.2313546341
 31
0.0
  0
SPLINE
  5
3E8
100
AcDbEntity
  8
SUPERFICI
100
AcDbSpline
 62
7
  6
CONTINUOUS
 70
0
 71
3
 72
8
 73
4
 74
2
 42
0.0000001
 43
0.0000001
 44
0.0000000001
 12
-0.0000324514
 22
0.0094180744
 32
0.0
 13
-0.0084258805
 23
0.0042078162
 33
0.0
 40
0.0
 40
0.0
 40
0.0
 40
0.0
 40
1.0
 40
1.0
 40
1.0
 40
1.0
 10
-2.7883311991
 20
23.0186113541
 30
0.0
 10
-2.7883420162
 20
23.0217507123
 30
0.0
 10
-2.7905425572
 20
23.0251774958
 30
0.0
 10
-2.7933511841
 20
23.0265801012
 30
0.0
 11
-2.7883311991
 21
23.0186113541
 31
0.0
 11
-2.7933511841
 21
23.0265801012
 31
0.0
  0
SPLINE
  5
3E9
100
AcDbEntity
  8
SUPERFICI
100
AcDbSpline
 62
7
  6
CONTINUOUS
 70
0
 71
3
 72
9
 73
5
 74
3
 42
0.0000001
 43
0.0000001
 44
0.0000000001
 12
0.4091645963
 22
0.2016668543
 32
0.0
 13
0.4080052326
 23
-0.2040022479
 33
0.0
 40
0.0
 40
0.0
 40
0.0
 40
0.0
 40
0.5358353041
 40
1.0
 40
1.0
 40
1.0
 40
1.0
 10
4.1209532253
 20
20.5191140936
 30
0.0
 10
4.1940348372
 20
20.555134167
 30
0.0
 10
4.3428193471
 20
20.6037839672
 30
0.0
 10
4.5009256704
 20
20.5770369584
 30
0.0
 10
4.5640528786
 20
20.5454734113
 30
0.0
 11
4.1209532253
 21
20.5191140936
 31
0.0
 11
4.3561592976
 21
20.5856228359
 31
0.0
 11
4.5640528786
 21
20.5454734113
 31
0.0
  0
SPLINE
  5
3EA
100
AcDbEntity
  8
SUPERFICI
100
AcDbSpline
 62
7
  6
CONTINUOUS
 70
0
 71
3
 72
11
 73
7
 74
5
 42
0.0000001
 43
0.0000001
 44
0.0000000001
 12
0.0
 22
0.6297223874
 32
0.0
 13
-0.5632410295
 23
0.2816200062
 33
0.0
 40
0.0
 40
0.0
 40
0.0
 40
0.0
 40
0.2897415019
 40
0.5495861077
 40
0.7828464731
 40
1.0
 40
1.0
 40
1.0
 40
1.0
 10
0.581305562
 20
22.1259202012
 30
0.0
 10
0.581305562
 20
22.1867391046
 30
0.0
 10
0.5714905106
 20
22.3025399581
 30
0.0
 10
0.5219968317
 20
22.4609175673
 30
0.0
 10
0.4393323856
 20
22.5877172031
 30
0.0
 10
0.3621821169
 20
22.646408829
 30
0.0
 10
0.3214121915
 20
22.6667937548
 30
0.0
 11
0.581305562
 21
22.1259202012
 31
0.0
 11
0.5640272021
 21
22.3075569525
 31
0.0
 11
0.5130365745
 21
22.463039175
 31
0.0
 11
0.4308256697
 21
22.5847676679
 31
0.0
 11
0.3214121915
 21
22.6667937548
 31
0.0
  0
SPLINE
  5
3EB
100
AcDbEntity
  8
SUPERFICI
100
AcDbSpline
 62
7
  6
CONTINUOUS
 70
0
 71
3
 72
9
 73
5
 74
3
 42
0.0000001
 43
0.0000001
 44
0.0000000001
 12
0.3327570996
 22
0.4021111534
 32
0.0
 13
-0.2152967063
 23
0.4754660821
 33
0.0
 40
0.0
 40
0.0
 40
0.0
 40
0.0
 40
0.4386837067
 40
1.0
 40
1.0
 40
1.0
 40
1.0
 10
2.6364168647
 20
19.2350762265
 30
0.0
 10
2.6850752373
 20
19.2938760969
 30
0.0
 10
2.7239852314
 20
19.4801126134
 30
0.0
 10
2.6767000478
 20
19.6506923268
 30
0.0
 10
2.6364168647
 20
19.739654613
 30
0.0
 11
2.6364168647
 21
19.2350762265
 31
0.0
 11
2.7026259056
 21
19.4542608993
 31
0.0
 11
2.6364168647
 21
19.739654613
 31
0.0
  0
SPLINE
  5
3EC
100
AcDbEntity
  8
RACCORDO
100
AcDbSpline
 62
253
  6
CONTINUOUS
 70
0
 71
3
 72
9
 73
5
 74
3
 42
0.0000001
 43
0.0000001
 44
0.0000000001
 12
-0.1945380534
 22
0.0972772062
 32
0.0
 13
-0.2158437436
 23
0.0268213984
 33
0.0
 40
0.0
 40
0.0
 40
0.0
 40
0.0
 40
0.2643747934
 40
1.0
 40
1.0
 40
1.0
 40
1.0
 10
-14.0831743025
 20
0.1849133034
 30
0.0
 10
-14.1003179551
 20
0.1934858505
 30
0.0
 10
-14.1662655619
 20
0.223557149
 30
0.0
 10
-14.2371013123
 20
0.2437167232
 30
0.0
 10
-14.2900280118
 20
0.2502935555
 30
0.0
 11
-14.0831743025
 21
0.1849133034
 31
0.0
 11
-14.135529377
 21
0.2086932668
 31
0.0
 11
-14.2900280118
 21
0.2502935555
 31
0.0
  0
SPLINE
  5
3ED
100
AcDbEntity
  8
RACCORDO
100
AcDbSpline
 62
253
  6
CONTINUOUS
 70
0
 71
3
 72
9
 73
5
 74
3
 42
0.0000001
 43
0.0000001
 44
0.0000000001
 12
-0.3506643696
 22
0.0435746185
 32
0.0
 13
-0.2607946687
 23
-0.2384331945
 33
0.0
 40
0.0
 40
0.0
 40
0.0
 40
0.0
 40
0.5110289041
 40
1.0
 40
1.0
 40
1.0
 40
1.0
 10
-14.2900280118
 20
0.2502935555
 30
0.0
 10
-14.3497612213
 20
0.2577161853
 30
0.0
 10
-14.4714412147
 20
0.2514743504
 30
0.0
 10
-14.5777746703
 20
0.1904150332
 30
0.0
 10
-14.6202816886
 20
0.1515527197
 30
0.0
 11
-14.2900280118
 21
0.2502935555
 31
0.0
 11
-14.470117452
 21
0.2370210541
 31
0.0
 11
-14.6202816886
 21
0.1515527197
 31
0.0
  0
SPLINE
  5
3EE
100
AcDbEntity
  8
RACCORDO
100
AcDbSpline
 62
253
  6
CONTINUOUS
 70
0
 71
3
 72
8
 73
4
 74
2
 42
0.0000001
 43
0.0000001
 44
0.0000000001
 12
-0.0423245044
 22
-0.052371279
 32
0.0
 13
-0.0345989172
 23
-0.0577670275
 33
0.0
 40
0.0
 40
0.0
 40
0.0
 40
0.0
 40
1.0
 40
1.0
 40
1.0
 40
1.0
 10
-14.6644141485
 20
0.1045309806
 30
0.0
 10
-14.6785223167
 20
0.0870738876
 30
0.0
 10
-14.6913529502
 20
0.0685233129
 30
0.0
 10
-14.7028859226
 20
0.0492676371
 30
0.0
 11
-14.6644141485
 21
0.1045309806
 31
0.0
 11
-14.7028859226
 21
0.0492676371
 31
0.0
  0
SPLINE
  5
3EF
100
AcDbEntity
  8
RACCORDO
100
AcDbSpline
 62
253
  6
CONTINUOUS
 70
0
 71
3
 72
9
 73
5
 74
3
 42
0.0000001
 43
0.0000001
 44
0.0000000001
 12
-0.2020951297
 22
-0.3374219736
 32
0.0
 13
-0.0021119313
 23
-0.3933084915
 33
0.0
 40
0.0
 40
0.0
 40
0.0
 40
0.0
 40
0.2279888871
 40
1.0
 40
1.0
 40
1.0
 40
1.0
 10
-14.7028859226
 20
0.0492676371
 30
0.0
 10
-14.7182444038
 20
0.023624817
 30
0.0
 10
-14.7757704363
 20
-0.0947850164
 30
0.0
 10
-14.7950363641
 20
-0.2289379267
 30
0.0
 10
-14.7955798422
 20
-0.3301507688
 30
0.0
 11
-14.7028859226
 21
0.0492676371
 31
0.0
 11
-14.7424862767
 21
-0.0311857436
 31
0.0
 11
-14.7955798422
 21
-0.3301507688
 31
0.0
  0
LINE
  5
3F0
100
AcDbEntity
  8
RACCORDO
100
AcDbLine
 62
253
  6
CONTINUOUS
 10
-14.7955798422
 20
-0.3301507688
 11
-14.7985961027
 21
-0.9585325345
  0
SPLINE
  5
3F1
100
AcDbEntity
  8
RACCORDO
100
AcDbSpline
 62
253
  6
CONTINUOUS
 70
0
 71
3
 72
9
 73
5
 74
3
 42
0.0000001
 43
0.0000001
 44
0.0000000001
 12
0.0017324176
 22
-0.3212572672
 32
0.0
 13
0.0823837052
 23
-0.3105191752
 33
0.0
 40
0.0
 40
0.0
 40
0.0
 40
0.0
 40
0.2393508586
 40
1.0
 40
1.0
 40
1.0
 40
1.0
 10
-14.7955798422
 20
-5.9725069977
 30
0.0
 10
-14.7954416237
 20
-5.9981380653
 30
0.0
 10
-14.7909456834
 20
-6.1051905556
 30
0.0
 10
-14.7718922584
 20
-6.2114320596
 30
0.0
 10
-14.7510038935
 20
-6.2901641075
 30
0.0
 11
-14.7955798422
 21
-5.9725069977
 31
0.0
 11
-14.792455428
 21
-6.0493378158
 31
0.0
 11
-14.7510038935
 21
-6.2901641075
 31
0.0
  0
SPLINE
  5
3F2
100
AcDbEntity
  8
RACCORDO
100
AcDbSpline
 62
253
  6
CONTINUOUS
 70
0
 71
3
 72
9
 73
5
 74
3
 42
0.0000001
 43
0.0000001
 44
0.0000000001
 12
0.1416729499
 22
-0.2063639532
 32
0.0
 13
0.174757386
 23
-0.1792126166
 33
0.0
 40
0.0
 40
0.0
 40
0.0
 40
0.0
 40
0.2550257417
 40
1.0
 40
1.0
 40
1.0
 40
1.0
 10
-14.5231993708
 20
-6.7837203849
 30
0.0
 10
-14.5111559544
 20
-6.8012630917
 30
0.0
 10
-14.4625447381
 20
-6.8690823517
 30
0.0
 10
-14.4083667985
 20
-6.9329607246
 30
0.0
 10
-14.3649702138
 20
-6.9774636533
 30
0.0
 11
-14.5231993708
 21
-6.7837203849
 31
0.0
 11
-14.4859996822
 21
-6.8355980979
 31
0.0
 11
-14.3649702138
 21
-6.9774636533
 31
0.0
  0
SPLINE
  5
3F3
100
AcDbEntity
  8
RACCORDO
100
AcDbSpline
 62
253
  6
CONTINUOUS
 70
0
 71
3
 72
9
 73
5
 74
3
 42
0.0000001
 43
0.0000001
 44
0.0000000001
 12
0.2184935086
 22
-0.2240637394
 32
0.0
 13
0.272827653
 23
-0.1533265939
 33
0.0
 40
0.0
 40
0.0
 40
0.0
 40
0.0
 40
0.2631437111
 40
1.0
 40
1.0
 40
1.0
 40
1.0
 10
-14.3649702138
 20
-6.9774636533
 30
0.0
 10
-14.3458051496
 20
-6.997117308
 30
0.0
 10
-14.2707217063
 20
-7.0695108655
 30
0.0
 10
-14.1861705075
 20
-7.1325818728
 30
0.0
 10
-14.1191589169
 20
-7.1702417611
 30
0.0
 11
-14.3649702138
 21
-6.9774636533
 31
0.0
 11
-14.3056340867
 21
-7.0345715904
 31
0.0
 11
-14.1191589169
 21
-7.1702417611
 31
0.0
  0
SPLINE
  5
3F4
100
AcDbEntity
  8
RACCORDO
100
AcDbSpline
 62
253
  6
CONTINUOUS
 70
0
 71
3
 72
9
 73
5
 74
3
 42
0.0000001
 43
0.0000001
 44
0.0000000001
 12
0.4229154172
 22
-0.2114784767
 32
0.0
 13
0.4146109819
 23
0.2273286826
 33
0.0
 40
0.0
 40
0.0
 40
0.0
 40
0.0
 40
0.5377074507
 40
1.0
 40
1.0
 40
1.0
 40
1.0
 10
-9.4773165917
 20
-9.492278022
 30
0.0
 10
-9.4015150014
 20
-9.5301825395
 30
0.0
 10
-9.2470785146
 20
-9.5813683117
 30
0.0
 10
-9.0829173085
 20
-9.5498749325
 30
0.0
 10
-9.0190267859
 20
-9.5148441471
 30
0.0
 11
-9.4773165917
 21
-9.492278022
 31
0.0
 11
-9.2326200009
 21
-9.5613235163
 31
0.0
 11
-9.0190267859
 21
-9.5148441471
 31
0.0
  0
SPLINE
  5
3F5
100
AcDbEntity
  8
RACCORDO
100
AcDbSpline
 62
253
  6
CONTINUOUS
 70
0
 71
3
 72
9
 73
5
 74
3
 42
0.0000001
 43
0.0000001
 44
0.0000000001
 12
0.1941730983
 22
0.1064639302
 32
0.0
 13
0.1122122567
 23
0.1909088002
 33
0.0
 40
0.0
 40
0.0
 40
0.0
 40
0.0
 40
0.2426254118
 40
1.0
 40
1.0
 40
1.0
 40
1.0
 10
-9.0190267859
 20
-9.5148441471
 30
0.0
 10
-9.00332301
 20
-9.5062338622
 30
0.0
 10
-8.9411366111
 20
-9.4661046477
 30
0.0
 10
-8.8917191511
 20
-9.4077214847
 30
0.0
 10
-8.8633902472
 20
-9.3595249934
 30
0.0
 11
-9.0190267859
 21
-9.5148441471
 31
0.0
 11
-8.973898679
 21
-9.4856865709
 31
0.0
 11
-8.8633902472
 21
-9.3595249934
 31
0.0
  0
SPLINE
  5
3F6
100
AcDbEntity
  8
RACCORDO
100
AcDbSpline
 62
253
  6
CONTINUOUS
 70
0
 71
3
 72
9
 73
5
 74
3
 42
0.0000001
 43
0.0000001
 44
0.0000000001
 12
0.0540824088
 22
0.0920114084
 32
0.0
 13
0.0356992318
 23
0.1005811666
 33
0.0
 40
0.0
 40
0.0
 40
0.0
 40
0.0
 40
0.2430321434
 40
1.0
 40
1.0
 40
1.0
 40
1.0
 10
-8.8633902472
 20
-9.3595249934
 30
0.0
 10
-8.8590089926
 20
-9.3520710835
 30
0.0
 10
-8.8417747391
 20
-9.3209371608
 30
0.0
 10
-8.8276990872
 20
-9.2880880597
 30
0.0
 10
-8.8186913636
 20
-9.2627091563
 30
0.0
 11
-8.8633902472
 21
-9.3595249934
 31
0.0
 11
-8.8508185991
 21
-9.3368366892
 31
0.0
 11
-8.8186913636
 21
-9.2627091563
 31
0.0
  0
SPLINE
  5
3F7
100
AcDbEntity
  8
RACCORDO
100
AcDbSpline
 62
253
  6
CONTINUOUS
 70
0
 71
3
 72
9
 73
5
 74
3
 42
0.0000001
 43
0.0000001
 44
0.0000000001
 12
0.0806134761
 22
0.2271252641
 32
0.0
 13
0.0089594847
 23
0.2408404986
 33
0.0
 40
0.0
 40
0.0
 40
0.0
 40
0.0
 40
0.2360398753
 40
1.0
 40
1.0
 40
1.0
 40
1.0
 10
-8.8186913636
 20
-9.2627091563
 30
0.0
 10
-8.8123486986
 20
-9.24483895
 30
0.0
 10
-8.7888925737
 20
-9.1679226345
 30
0.0
 10
-8.7785049616
 20
-9.0873494033
 30
0.0
 10
-8.7762233986
 20
-9.0260185576
 30
0.0
 11
-8.8186913636
 21
-9.2627091563
 31
0.0
 11
-8.8020036469
 21
-9.2083245705
 31
0.0
 11
-8.7762233986
 21
-9.0260185576
 31
0.0
  0
LINE
  5
3F8
100
AcDbEntity
  8
RACCORDO
100
AcDbLine
 62
253
  6
CONTINUOUS
 10
-8.775538495
 20
-8.9825276713
 11
-8.7757233486
 21
-8.9470333262
  0
SPLINE
  5
3F9
100
AcDbEntity
  8
RACCORDO
100
AcDbSpline
 62
253
  6
CONTINUOUS
 70
0
 71
3
 72
9
 73
5
 74
3
 42
0.0000001
 43
0.0000001
 44
0.0000000001
 12
0.0014205924
 22
0.2711163538
 32
0.0
 13
-0.0572764059
 23
0.2650009598
 33
0.0
 40
0.0
 40
0.0
 40
0.0
 40
0.0
 40
0.2407758144
 40
1.0
 40
1.0
 40
1.0
 40
1.0
 10
-8.775538495
 20
-3.3401714424
 30
0.0
 10
-8.7754244802
 20
-3.3184120221
 30
0.0
 10
-8.7777342521
 20
-3.2280337997
 30
0.0
 10
-8.7905170327
 20
-3.1380313974
 30
0.0
 10
-8.8050122436
 20
-3.0709663514
 30
0.0
 11
-8.775538495
 21
-3.3401714424
 31
0.0
 11
-8.7771439063
 21
-3.2749120293
 31
0.0
 11
-8.8050122436
 21
-3.0709663514
 31
0.0
  0
SPLINE
  5
3FA
100
AcDbEntity
  8
RACCORDO
100
AcDbSpline
 62
253
  6
CONTINUOUS
 70
0
 71
3
 72
9
 73
5
 74
3
 42
0.0000001
 43
0.0000001
 44
0.0000000001
 12
-0.3250182755
 22
0.686515628
 32
0.0
 13
-0.6438369498
 23
0.4030069093
 33
0.0
 40
0.0
 40
0.0
 40
0.0
 40
0.0
 40
0.2661089357
 40
1.0
 40
1.0
 40
1.0
 40
1.0
 10
-8.9199019553
 20
-2.7356619223
 30
0.0
 10
-8.9487320444
 20
-2.6747659412
 30
0.0
 10
-9.0708670732
 20
-2.453433967
 30
0.0
 10
-9.248046683
 20
-2.2569962386
 30
0.0
 10
-9.4055487444
 20
-2.1584085154
 30
0.0
 11
-8.9199019553
 21
-2.7356619223
 31
0.0
 11
-9.0176324145
 21
-2.5587319693
 31
0.0
 11
-9.4055487444
 21
-2.1584085154
 31
0.0
  0
SPLINE
  5
3FB
100
AcDbEntity
  8
SUPERFICI
100
AcDbSpline
 62
7
  6
CONTINUOUS
 70
0
 71
3
 72
9
 73
5
 74
3
 42
0.0000001
 43
0.0000001
 44
0.0000000001
 12
0.3446695929
 22
-0.0720347394
 32
0.0
 13
0.2257246768
 23
0.2702489635
 33
0.0
 40
0.0
 40
0.0
 40
0.0
 40
0.0
 40
0.2357765265
 40
1.0
 40
1.0
 40
1.0
 40
1.0
 10
-12.113078293
 20
20.4806403786
 30
0.0
 10
-12.0859899599
 20
20.4749790118
 30
0.0
 10
-11.9661534606
 20
20.4773333313
 30
0.0
 10
-11.8567411805
 20
20.5494514231
 30
0.0
 10
-11.799239815
 20
20.618294957
 30
0.0
 11
-12.113078293
 21
20.4806403786
 31
0.0
 11
-12.0300601811
 21
20.4799674062
 31
0.0
 11
-11.799239815
 21
20.618294957
 31
0.0
  0
SPLINE
  5
3FC
100
AcDbEntity
  8
SUPERFICI
100
AcDbSpline
 62
253
  6
CONTINUOUS
 70
0
 71
3
 72
9
 73
5
 74
3
 42
0.0000001
 43
0.0000001
 44
0.0000000001
 12
0.0041066954
 22
-0.2383061954
 32
0.0
 13
0.2131450905
 23
-0.1066577617
 33
0.0
 40
0.0
 40
0.0
 40
0.0
 40
0.0
 40
0.4356827146
 40
1.0
 40
1.0
 40
1.0
 40
1.0
 10
-19.3080767692
 20
-8.9621819402
 30
0.0
 10
-19.3074803638
 20
-8.9967905702
 30
0.0
 10
-19.2704203087
 20
-9.0749731973
 30
0.0
 10
-19.2017231621
 20
-9.1191643221
 30
0.0
 10
-19.1616293425
 20
-9.1392272616
 30
0.0
 11
-19.3080767692
 21
-8.9621819402
 31
0.0
 11
-19.2691821784
 21
-9.0584639611
 31
0.0
 11
-19.1616293425
 21
-9.1392272616
 31
0.0
  0
SPLINE
  5
3FD
100
AcDbEntity
  8
SUPERFICI
100
AcDbSpline
 62
253
  6
CONTINUOUS
 70
0
 71
3
 72
9
 73
5
 74
3
 42
0.0000001
 43
0.0000001
 44
0.0000000001
 12
0.1036396474
 22
0.053164101
 32
0.0
 13
0.1044250911
 23
-0.0516042488
 33
0.0
 40
0.0
 40
0.0
 40
0.0
 40
0.0
 40
0.4633167549
 40
1.0
 40
1.0
 40
1.0
 40
1.0
 10
-14.4788578244
 20
22.2573788873
 30
0.0
 10
-14.4628518294
 20
22.2655894936
 30
0.0
 10
-14.4224512148
 20
22.2726270168
 30
0.0
 10
-14.3844532627
 20
22.2601626999
 30
0.0
 10
-14.3657721972
 20
22.250930988
 30
0.0
 11
-14.4788578244
 21
22.2573788873
 31
0.0
 11
-14.4259310274
 21
22.2679243863
 31
0.0
 11
-14.3657721972
 21
22.250930988
 31
0.0
  0
SPLINE
  5
3FE
100
AcDbEntity
  8
SUPERFICI
100
AcDbSpline
 62
253
  6
CONTINUOUS
 70
0
 71
3
 72
9
 73
5
 74
3
 42
0.0000001
 43
0.0000001
 44
0.0000000001
 12
-0.444306721
 22
0.2242516465
 32
0.0
 13
-0.0642311772
 23
0.493529755
 33
0.0
 40
0.0
 40
0.0
 40
0.0
 40
0.0
 40
0.4585812055
 40
1.0
 40
1.0
 40
1.0
 40
1.0
 10
-18.2251834151
 20
-19.3388672411
 30
0.0
 10
-18.293100319
 20
-19.3045880443
 30
0.0
 10
-18.4167531675
 20
-19.1788641104
 30
0.0
 10
-18.4621379889
 20
-19.0139736364
 30
0.0
 10
-18.4737299778
 20
-18.9249048747
 30
0.0
 11
-18.2251834151
 21
-19.3388672411
 31
0.0
 11
-18.3900505541
 21
-19.181042183
 31
0.0
 11
-18.4737299778
 21
-18.9249048747
 31
0.0
  0
SPLINE
  5
3FF
100
AcDbEntity
  8
SUPERFICI
100
AcDbSpline
 62
253
  6
CONTINUOUS
 70
0
 71
3
 72
9
 73
5
 74
3
 42
0.0000001
 43
0.0000001
 44
0.0000000001
 12
0.0319640185
 22
-0.2318069618
 32
0.0
 13
0.2090647104
 23
-0.1051100037
 33
0.0
 40
0.0
 40
0.0
 40
0.0
 40
0.0
 40
0.4571459739
 40
1.0
 40
1.0
 40
1.0
 40
1.0
 10
-18.6198180751
 20
-18.7510193803
 30
0.0
 10
-18.6149473343
 20
-18.7863425868
 30
0.0
 10
-18.577828454
 20
-18.8604623714
 30
0.0
 10
-18.5115605165
 20
-18.9058850777
 30
0.0
 10
-18.4737299766
 20
-18.924904874
 30
0.0
 11
-18.6198180751
 21
-18.7510193803
 31
0.0
 11
-18.5749181998
 21
-18.8481125235
 31
0.0
 11
-18.4737299766
 21
-18.924904874
 31
0.0
  0
SPLINE
  5
400
100
AcDbEntity
  8
SUPERFICI
100
AcDbSpline
 62
7
  6
CONTINUOUS
 70
0
 71
3
 72
9
 73
5
 74
3
 42
0.0000001
 43
0.0000001
 44
0.0000000001
 12
0.0
 22
0.2901200235
 32
0.0
 13
0.2587495726
 23
0.1312184694
 33
0.0
 40
0.0
 40
0.0
 40
0.0
 40
0.0
 40
0.5118336998
 40
1.0
 40
1.0
 40
1.0
 40
1.0
 10
-8.6110825934
 20
20.015662964
 30
0.0
 10
-8.6110825934
 20
20.065160699
 30
0.0
 10
-8.5804094847
 20
20.161124931
 30
0.0
 10
-8.5125882624
 20
20.2378122711
 30
0.0
 10
-8.4704839886
 20
20.259164416
 30
0.0
 11
-8.6110825934
 21
20.015662964
 31
0.0
 11
-8.5699517019
 21
20.1583461154
 31
0.0
 11
-8.4704839886
 21
20.259164416
 31
0.0
  0
SPLINE
  5
401
100
AcDbEntity
  8
SUPERFICI
100
AcDbSpline
 62
253
  6
CONTINUOUS
 70
0
 71
3
 72
9
 73
5
 74
3
 42
0.0000001
 43
0.0000001
 44
0.0000000001
 12
0.0
 22
0.11851273
 32
0.0
 13
0.049161108
 23
0.1078353033
 33
0.0
 40
0.0
 40
0.0
 40
0.0
 40
0.0
 40
0.2355822818
 40
1.0
 40
1.0
 40
1.0
 40
1.0
 10
-6.9847369967
 20
19.2024901657
 30
0.0
 10
-6.9847369967
 20
19.2117966655
 30
0.0
 10
-6.9821399815
 20
19.2512875478
 30
0.0
 10
-6.9704365734
 20
19.2899262695
 30
0.0
 10
-6.9579100327
 20
19.3174033417
 30
0.0
 11
-6.9847369967
 21
19.2024901657
 31
0.0
 11
-6.9830079793
 21
19.2303560757
 31
0.0
 11
-6.9579100327
 21
19.3174033417
 31
0.0
  0
SPLINE
  5
402
100
AcDbEntity
  8
SUPERFICI
100
AcDbSpline
 62
253
  6
CONTINUOUS
 70
0
 71
3
 72
9
 73
5
 74
3
 42
0.0000001
 43
0.0000001
 44
0.0000000001
 12
0.0718879178
 22
0.1576867514
 32
0.0
 13
0.1545614494
 23
0.0783820302
 33
0.0
 40
0.0
 40
0.0
 40
0.0
 40
0.0
 40
0.2699622252
 40
1.0
 40
1.0
 40
1.0
 40
1.0
 10
-6.9579100327
 20
19.3174033417
 30
0.0
 10
-6.9514410253
 20
19.3315931638
 30
0.0
 10
-6.9238693907
 20
19.3821502053
 30
0.0
 10
-6.8817502907
 20
19.42691767
 30
0.0
 10
-6.8441383919
 20
19.4459916176
 30
0.0
 11
-6.9579100327
 21
19.3174033417
 31
0.0
 11
-6.9354942121
 21
19.3584682046
 31
0.0
 11
-6.8441383919
 21
19.4459916176
 31
0.0
  0
SPLINE
  5
403
100
AcDbEntity
  8
SUPERFICI
100
AcDbSpline
 62
253
  6
CONTINUOUS
 70
0
 71
3
 72
9
 73
5
 74
3
 42
0.0000001
 43
0.0000001
 44
0.0000000001
 12
0.0
 22
0.2901200233
 32
0.0
 13
0.2587495724
 23
0.1312184693
 33
0.0
 40
0.0
 40
0.0
 40
0.0
 40
0.0
 40
0.5118334763
 40
1.0
 40
1.0
 40
1.0
 40
1.0
 10
-5.2876807218
 20
18.3539620283
 30
0.0
 10
-5.2876807218
 20
18.4034597416
 30
0.0
 10
-5.2570076255
 20
18.4994239717
 30
0.0
 10
-5.1891864101
 20
18.5761113255
 30
0.0
 10
-5.147082117
 20
18.5974634802
 30
0.0
 11
-5.2876807218
 21
18.3539620283
 31
0.0
 11
-5.2465498637
 21
18.4966451217
 31
0.0
 11
-5.147082117
 21
18.5974634802
 31
0.0
  0
SPLINE
  5
404
100
AcDbEntity
  8
SUPERFICI
100
AcDbSpline
 62
7
  6
CONTINUOUS
 70
0
 71
3
 72
9
 73
5
 74
3
 42
0.0000001
 43
0.0000001
 44
0.0000000001
 12
0.1026923057
 22
0.0500197096
 32
0.0
 13
0.1021672394
 23
-0.0510836197
 33
0.0
 40
0.0
 40
0.0
 40
0.0
 40
0.0
 40
0.4638305674
 40
1.0
 40
1.0
 40
1.0
 40
1.0
 10
-12.8939477101
 20
23.0704450983
 30
0.0
 10
-12.8780704333
 20
23.0781786551
 30
0.0
 10
-12.8384304057
 20
23.0844696314
 30
0.0
 10
-12.8012752443
 20
23.0720449105
 30
0.0
 10
-12.783015594
 20
23.0629150853
 30
0.0
 11
-12.8939477101
 21
23.0704450983
 31
0.0
 11
-12.8418325114
 21
23.0799880768
 31
0.0
 11
-12.783015594
 21
23.0629150853
 31
0.0
  0
SPLINE
  5
405
100
AcDbEntity
  8
RACCORDO
100
AcDbSpline
 62
253
  6
CONTINUOUS
 70
0
 71
3
 72
10
 73
6
 74
4
 42
0.0000001
 43
0.0000001
 44
0.0000000001
 12
-0.0123320389
 22
-0.2384900759
 32
0.0
 13
0.2219746141
 23
-0.0880730728
 33
0.0
 40
0.0
 40
0.0
 40
0.0
 40
0.0
 40
0.1957793072
 40
0.5563368721
 40
1.0
 40
1.0
 40
1.0
 40
1.0
 10
-14.7191704225
 20
-0.7544034566
 30
0.0
 10
-14.7199752085
 20
-0.7699672639
 30
0.0
 10
-14.7109988169
 20
-0.8148901
 30
0.0
 10
-14.6605380734
 20
-0.8797314347
 30
0.0
 10
-14.6053382281
 20
-0.9149633394
 30
0.0
 10
-14.5725109109
 20
-0.9279882644
 30
0.0
 11
-14.7191704225
 21
-0.7544034566
 31
0.0
 11
-14.7112925547
 21
-0.8004887818
 31
0.0
 11
-14.6617933513
 21
-0.8709428556
 31
0.0
 11
-14.5725109109
 21
-0.9279882644
 31
0.0
  0
SPLINE
  5
406
100
AcDbEntity
  8
SUPERFICI
100
AcDbSpline
 62
253
  6
CONTINUOUS
 70
0
 71
3
 72
9
 73
5
 74
3
 42
0.0000001
 43
0.0000001
 44
0.0000000001
 12
0.1036396474
 22
0.053164101
 32
0.0
 13
0.1044250911
 23
-0.0516042488
 33
0.0
 40
0.0
 40
0.0
 40
0.0
 40
0.0
 40
0.4633167549
 40
1.0
 40
1.0
 40
1.0
 40
1.0
 10
-2.1751998318
 20
16.105549891
 30
0.0
 10
-2.1591938367
 20
16.1137604972
 30
0.0
 10
-2.1187932221
 20
16.1207980205
 30
0.0
 10
-2.0807952701
 20
16.1083337036
 30
0.0
 10
-2.0621142045
 20
16.0991019917
 30
0.0
 11
-2.1751998318
 21
16.105549891
 31
0.0
 11
-2.1222730348
 21
16.11609539
 31
0.0
 11
-2.0621142045
 21
16.0991019917
 31
0.0
  0
SPLINE
  5
407
100
AcDbEntity
  8
SUPERFICI
100
AcDbSpline
 62
253
  6
CONTINUOUS
 70
0
 71
3
 72
9
 73
5
 74
3
 42
0.0000001
 43
0.0000001
 44
0.0000000001
 12
-0.084172155
 22
0.0420860775
 32
0.0
 13
0.0
 23
0.0941073302
 33
0.0
 40
0.0
 40
0.0
 40
0.0
 40
0.0
 40
0.3094973015
 40
1.0
 40
1.0
 40
1.0
 40
1.0
 10
-5.2876807218
 20
18.3539620283
 30
0.0
 10
-5.2963644068
 20
18.3583038707
 30
0.0
 10
-5.3230599735
 20
18.3735809734
 30
0.0
 10
-5.3462591554
 20
18.4030122512
 30
0.0
 10
-5.3462591554
 20
18.4246727064
 30
0.0
 11
-5.2876807218
 21
18.3539620283
 31
0.0
 11
-5.3125539047
 21
18.3691161232
 31
0.0
 11
-5.3462591554
 21
18.4246727064
 31
0.0
  0
SPLINE
  5
408
100
AcDbEntity
  8
SUPERFICI
100
AcDbSpline
 62
253
  6
CONTINUOUS
 70
0
 71
3
 72
9
 73
5
 74
3
 42
0.0000001
 43
0.0000001
 44
0.0000000001
 12
-0.0817990009
 22
0.0408995004
 32
0.0
 13
-0.0816380821
 23
-0.0412197675
 33
0.0
 40
0.0
 40
0.0
 40
0.0
 40
0.0
 40
0.2840765914
 40
1.0
 40
1.0
 40
1.0
 40
1.0
 10
-5.147082117
 20
18.5974634802
 30
0.0
 10
-5.1548278441
 20
18.6013363438
 30
0.0
 10
-5.1828313237
 20
18.6129771773
 30
0.0
 10
-5.2171208449
 20
18.612941375
 30
0.0
 10
-5.2366030496
 20
18.6031046429
 30
0.0
 11
-5.147082117
 21
18.5974634802
 31
0.0
 11
-5.1712453907
 21
18.6070078216
 31
0.0
 11
-5.2366030496
 21
18.6031046429
 31
0.0
  0
SPLINE
  5
409
100
AcDbEntity
  8
SUPERFICI
100
AcDbSpline
 62
253
  6
CONTINUOUS
 70
0
 71
3
 72
9
 73
5
 74
3
 42
0.0000001
 43
0.0000001
 44
0.0000000001
 12
0.1023513284
 22
0.0498536242
 32
0.0
 13
0.101590814
 23
-0.0513856477
 33
0.0
 40
0.0
 40
0.0
 40
0.0
 40
0.0
 40
0.4641047546
 40
1.0
 40
1.0
 40
1.0
 40
1.0
 10
-0.0554197628
 20
17.1791682009
 30
0.0
 10
-0.0395858501
 20
17.1868806356
 30
0.0
 10
-0.0000581809
 20
17.1931428049
 30
0.0
 10
0.0369449326
 20
17.1806126637
 30
0.0
 10
0.0550922773
 20
17.1714335556
 30
0.0
 11
-0.0554197628
 21
17.1791682009
 31
0.0
 11
-0.0034396639
 21
17.1886455044
 31
0.0
 11
0.0550922773
 21
17.1714335556
 31
0.0
  0
SPLINE
  5
40A
100
AcDbEntity
  8
SUPERFICI
100
AcDbSpline
 62
7
  6
CONTINUOUS
 70
0
 71
3
 72
9
 73
5
 74
3
 42
0.0000001
 43
0.0000001
 44
0.0000000001
 12
-0.0813604965
 22
0.0406802483
 32
0.0
 13
-0.0815905406
 23
-0.0402168707
 33
0.0
 40
0.0
 40
0.0
 40
0.0
 40
0.0
 40
0.2833535261
 40
1.0
 40
1.0
 40
1.0
 40
1.0
 10
-4.9341273312
 20
18.7054582521
 30
0.0
 10
-4.9418119257
 20
18.7093005493
 30
0.0
 10
-4.9696742373
 20
18.7208783502
 30
0.0
 10
-5.0036945653
 20
18.7209360816
 30
0.0
 10
-5.0231850897
 20
18.7113289887
 30
0.0
 11
-4.9341273312
 21
18.7054582521
 31
0.0
 11
-4.9580961165
 21
18.7149368333
 31
0.0
 11
-5.0231850897
 21
18.7113289887
 31
0.0
  0
SPLINE
  5
40B
100
AcDbEntity
  8
SUPERFICI
100
AcDbSpline
 62
7
  6
CONTINUOUS
 70
0
 71
3
 72
9
 73
5
 74
3
 42
0.0000001
 43
0.0000001
 44
0.0000000001
 12
0.1026923057
 22
0.0500197096
 32
0.0
 13
0.1021672394
 23
-0.0510836197
 33
0.0
 40
0.0
 40
0.0
 40
0.0
 40
0.0
 40
0.4638305674
 40
1.0
 40
1.0
 40
1.0
 40
1.0
 10
-0.5902897174
 20
16.918616102
 30
0.0
 10
-0.5744124406
 20
16.9263496588
 30
0.0
 10
-0.534772413
 20
16.9326406351
 30
0.0
 10
-0.4976172516
 20
16.9202159141
 30
0.0
 10
-0.4793576014
 20
16.911086089
 30
0.0
 11
-0.5902897174
 21
16.918616102
 31
0.0
 11
-0.5381745187
 21
16.9281590804
 31
0.0
 11
-0.4793576014
 21
16.911086089
 31
0.0
  0
SPLINE
  5
40C
100
AcDbEntity
  8
SUPERFICI
100
AcDbSpline
 62
7
  6
CONTINUOUS
 70
0
 71
3
 72
9
 73
5
 74
3
 42
0.0000001
 43
0.0000001
 44
0.0000000001
 12
0.2602761656
 22
-0.1301380828
 32
0.0
 13
0.0
 23
-0.2909975996
 33
0.0
 40
0.0
 40
0.0
 40
0.0
 40
0.0
 40
0.4877714906
 40
1.0
 40
1.0
 40
1.0
 40
1.0
 10
-6.6311836061
 20
19.5539863895
 30
0.0
 10
-6.588865175
 20
19.5328271739
 30
0.0
 10
-6.5206177048
 20
19.4559910295
 30
0.0
 10
-6.4897622498
 20
19.3597534549
 30
0.0
 10
-6.4897622498
 20
19.3100676994
 30
0.0
 11
-6.6311836061
 21
19.5539863895
 31
0.0
 11
-6.5311831811
 21
19.4532542044
 31
0.0
 11
-6.4897622498
 21
19.3100676994
 31
0.0
  0
SPLINE
  5
40D
100
AcDbEntity
  8
SUPERFICI
100
AcDbSpline
 62
253
  6
CONTINUOUS
 70
0
 71
3
 72
9
 73
5
 74
3
 42
0.0000001
 43
0.0000001
 44
0.0000000001
 12
0.2602429418
 22
-0.1301214709
 32
0.0
 13
0.0013854063
 23
-0.290957156
 33
0.0
 40
0.0
 40
0.0
 40
0.0
 40
0.0
 40
0.4881171039
 40
1.0
 40
1.0
 40
1.0
 40
1.0
 10
-6.8441383919
 20
19.4459916176
 30
0.0
 10
-6.8017953815
 20
19.4248201125
 30
0.0
 10
-6.7334529434
 20
19.3481882853
 30
0.0
 10
-6.7021306728
 20
19.2521354962
 30
0.0
 10
-6.7018942842
 20
19.2024901657
 30
0.0
 11
-6.8441383919
 21
19.4459916176
 31
0.0
 11
-6.743897518
 21
19.3453822959
 31
0.0
 11
-6.7018942842
 21
19.2024901657
 31
0.0
  0
SPLINE
  5
40E
100
AcDbEntity
  8
SUPERFICI
100
AcDbSpline
 62
253
  6
CONTINUOUS
 70
0
 71
3
 72
9
 73
5
 74
3
 42
0.0000001
 43
0.0000001
 44
0.0000000001
 12
0.2583508202
 22
-0.1291754101
 32
0.0
 13
0.2583508202
 23
0.1291754101
 33
0.0
 40
0.0
 40
0.0
 40
0.0
 40
0.0
 40
0.5000001335
 40
1.0
 40
1.0
 40
1.0
 40
1.0
 10
-6.9847369967
 20
19.2024901657
 30
0.0
 10
-6.9416785151
 20
19.1809609249
 30
0.0
 10
-6.8433156257
 20
19.1654409673
 30
0.0
 10
-6.7449527427
 20
19.1809609364
 30
0.0
 10
-6.7018942842
 20
19.2024901657
 30
0.0
 11
-6.9847369967
 21
19.2024901657
 31
0.0
 11
-6.8433156011
 21
19.173200949
 31
0.0
 11
-6.7018942842
 21
19.2024901657
 31
0.0
  0
SPLINE
  5
40F
100
AcDbEntity
  8
SUPERFICI
100
AcDbSpline
 62
7
  6
CONTINUOUS
 70
0
 71
3
 72
9
 73
5
 74
3
 42
0.0000001
 43
0.0000001
 44
0.0000000001
 12
-0.4080052326
 22
0.2040022479
 32
0.0
 13
-0.4091645963
 23
-0.2016668543
 33
0.0
 40
0.0
 40
0.0
 40
0.0
 40
0.0
 40
0.4641646959
 40
1.0
 40
1.0
 40
1.0
 40
1.0
 10
0.3214121915
 20
22.6667937548
 30
0.0
 10
0.2582849833
 20
22.698357302
 30
0.0
 10
0.10017866
 20
22.7251043107
 30
0.0
 10
-0.0486058499
 20
22.6764545105
 30
0.0
 10
-0.1216874619
 20
22.6404344371
 30
0.0
 11
0.3214121915
 21
22.6667937548
 31
0.0
 11
0.1135186105
 21
22.7069431794
 31
0.0
 11
-0.1216874619
 21
22.6404344371
 31
0.0
  0
SPLINE
  5
410
100
AcDbEntity
  8
SUPERFICI
100
AcDbSpline
 62
253
  6
CONTINUOUS
 70
0
 71
3
 72
9
 73
5
 74
3
 42
0.0000001
 43
0.0000001
 44
0.0000000001
 12
0.1023408591
 22
0.0498064885
 32
0.0
 13
0.1015640021
 23
-0.0513720859
 33
0.0
 40
0.0
 40
0.0
 40
0.0
 40
0.0
 40
0.4641086123
 40
1.0
 40
1.0
 40
1.0
 40
1.0
 10
-12.3590498271
 20
23.3310107958
 30
0.0
 10
-12.3432174024
 20
23.3387160025
 30
0.0
 10
-12.3037002019
 20
23.3449668608
 30
0.0
 10
-12.26670814
 20
23.3324391714
 30
0.0
 10
-12.2485657153
 20
23.3232625519
 30
0.0
 11
-12.3590498271
 21
23.3310107958
 31
0.0
 11
-12.307080763
 21
23.3404733177
 31
0.0
 11
-12.2485657153
 21
23.3232625519
 31
0.0
  0
SPLINE
  5
411
100
AcDbEntity
  8
RACCORDO
100
AcDbSpline
 62
253
  6
CONTINUOUS
 70
0
 71
3
 72
9
 73
5
 74
3
 42
0.0000001
 43
0.0000001
 44
0.0000000001
 12
-0.2566155047
 22
-0.064569334
 32
0.0
 13
-0.2491278137
 23
0.0891966848
 33
0.0
 40
0.0
 40
0.0
 40
0.0
 40
0.0
 40
0.2345066
 40
1.0
 40
1.0
 40
1.0
 40
1.0
 10
-8.9442438007
 20
-9.3509430604
 30
0.0
 10
-8.9643031439
 20
-9.355990372
 30
0.0
 10
-9.0517752662
 20
-9.3700309677
 30
0.0
 10
-9.1422437834
 20
-9.3536083522
 30
0.0
 10
-9.2058123491
 20
-9.3308485277
 30
0.0
 11
-8.9442438007
 21
-9.3509430604
 31
0.0
 11
-9.0054935056
 21
-9.3609003229
 31
0.0
 11
-9.2058123491
 21
-9.3308485277
 31
0.0
  0
SPLINE
  5
412
100
AcDbEntity
  8
RACCORDO
100
AcDbSpline
 62
253
  6
CONTINUOUS
 70
0
 71
3
 72
8
 73
4
 74
2
 42
0.0000001
 43
0.0000001
 44
0.0000000001
 12
-0.0737445785
 22
0.0264032018
 32
0.0
 13
-0.0701699977
 23
0.0348075186
 33
0.0
 40
0.0
 40
0.0
 40
0.0
 40
0.0
 40
1.0
 40
1.0
 40
1.0
 40
1.0
 10
-9.2058123491
 20
-9.3308485277
 30
0.0
 10
-9.2303938753
 20
-9.3220474605
 30
0.0
 10
-9.2544535297
 20
-9.3116792765
 30
0.0
 10
-9.277843529
 20
-9.3000767703
 30
0.0
 11
-9.2058123491
 21
-9.3308485277
 31
0.0
 11
-9.277843529
 21
-9.3000767703
 31
0.0
  0
SPLINE
  5
413
100
AcDbEntity
  8
SUPERFICI
100
AcDbSpline
 62
253
  6
CONTINUOUS
 70
0
 71
3
 72
9
 73
5
 74
3
 42
0.0000001
 43
0.0000001
 44
0.0000000001
 12
-0.0001817105
 22
-0.1179561102
 32
0.0
 13
-0.1052557494
 23
-0.0532438182
 33
0.0
 40
0.0
 40
0.0
 40
0.0
 40
0.0
 40
0.432637659
 40
1.0
 40
1.0
 40
1.0
 40
1.0
 10
-10.3087149358
 20
22.2607091954
 30
0.0
 10
-10.3087411407
 20
22.2436984436
 30
0.0
 10
-10.3270342226
 20
22.2048414179
 30
0.0
 10
-10.361006411
 20
22.18300275
 30
0.0
 10
-10.3809124605
 20
22.1729332375
 30
0.0
 11
-10.3087149358
 21
22.2607091954
 31
0.0
 11
-10.3275044351
 21
22.2132618353
 31
0.0
 11
-10.3809124605
 21
22.1729332375
 31
0.0
  0
SPLINE
  5
414
100
AcDbEntity
  8
SUPERFICI
100
AcDbSpline
 62
253
  6
CONTINUOUS
 70
0
 71
3
 72
9
 73
5
 74
3
 42
0.0000001
 43
0.0000001
 44
0.0000000001
 12
-0.0013741545
 22
-0.1167415106
 32
0.0
 13
-0.1041790189
 23
-0.052699152
 33
0.0
 40
0.0
 40
0.0
 40
0.0
 40
0.0
 40
0.2099960481
 40
1.0
 40
1.0
 40
1.0
 40
1.0
 10
1.9949387979
 20
-25.5388953554
 30
0.0
 10
1.9948426089
 20
-25.5470671074
 30
0.0
 10
1.9861654261
 20
-25.5861609205
 30
0.0
 10
1.9501794777
 20
-25.6121539021
 30
0.0
 10
1.9227455322
 20
-25.6260314149
 30
0.0
 11
1.9949387979
 21
-25.5388953554
 31
0.0
 11
1.9899939895
 21
-25.562908475
 31
0.0
 11
1.9227455322
 21
-25.6260314149
 31
0.0
  0
SPLINE
  5
415
100
AcDbEntity
  8
RACCORDO
100
AcDbSpline
 62
253
  6
CONTINUOUS
 70
0
 71
3
 72
9
 73
5
 74
3
 42
0.0000001
 43
0.0000001
 44
0.0000000001
 12
-0.056073062
 22
0.0280222084
 32
0.0
 13
0.0004343156
 23
0.0626836807
 33
0.0
 40
0.0
 40
0.0
 40
0.0
 40
0.0
 40
0.2201850745
 40
1.0
 40
1.0
 40
1.0
 40
1.0
 10
-9.451335407
 20
-2.172852783
 30
0.0
 10
-9.4554508908
 20
-2.1707960923
 30
0.0
 10
-9.4724836938
 20
-2.1577757013
 30
0.0
 10
-9.4774294869
 20
-2.1343094419
 30
0.0
 10
-9.4773165917
 20
-2.118015552
 30
0.0
 11
-9.451335407
 21
-2.172852783
 31
0.0
 11
-9.4623656328
 21
-2.1645558697
 31
0.0
 11
-9.4773165917
 21
-2.118015552
 31
0.0
  0
SPLINE
  5
416
100
AcDbEntity
  8
SUPERFICI
100
AcDbSpline
 62
253
  6
CONTINUOUS
 70
0
 71
3
 72
9
 73
5
 74
3
 42
0.0000001
 43
0.0000001
 44
0.0000000001
 12
-0.10200315
 22
0.0509965498
 32
0.0
 13
-0.1022910174
 23
-0.0504166487
 33
0.0
 40
0.0
 40
0.0
 40
0.0
 40
0.0
 40
0.4641675224
 40
1.0
 40
1.0
 40
1.0
 40
1.0
 10
-10.4469112679
 20
22.4844125408
 30
0.0
 10
-10.4626934511
 20
22.4923028549
 30
0.0
 10
-10.5022195697
 20
22.4989900143
 30
0.0
 10
-10.5394158811
 20
22.4868277356
 30
0.0
 10
-10.5576861642
 20
22.4778227763
 30
0.0
 11
-10.4469112679
 21
22.4844125408
 31
0.0
 11
-10.4988849718
 21
22.4944496398
 31
0.0
 11
-10.5576861642
 21
22.4778227763
 31
0.0
  0
SPLINE
  5
417
100
AcDbEntity
  8
SUPERFICI
100
AcDbSpline
 62
253
  6
CONTINUOUS
 70
0
 71
3
 72
9
 73
5
 74
3
 42
0.0000001
 43
0.0000001
 44
0.0000000001
 12
-0.10200315
 22
0.0509965498
 32
0.0
 13
-0.1022910174
 23
-0.0504166487
 33
0.0
 40
0.0
 40
0.0
 40
0.0
 40
0.0
 40
0.4641675224
 40
1.0
 40
1.0
 40
1.0
 40
1.0
 10
-12.1377908191
 20
23.3298523164
 30
0.0
 10
-12.1535730022
 20
23.3377426304
 30
0.0
 10
-12.1930991209
 20
23.3444297898
 30
0.0
 10
-12.2302954322
 20
23.3322675112
 30
0.0
 10
-12.2485657153
 20
23.3232625519
 30
0.0
 11
-12.1377908191
 21
23.3298523164
 31
0.0
 11
-12.1897645229
 21
23.3398894154
 31
0.0
 11
-12.2485657153
 21
23.3232625519
 31
0.0
  0
SPLINE
  5
418
100
AcDbEntity
  8
SUPERFICI
100
AcDbSpline
 62
253
  6
CONTINUOUS
 70
0
 71
3
 72
9
 73
5
 74
3
 42
0.0000001
 43
0.0000001
 44
0.0000000001
 12
-0.10200315
 22
0.0509965498
 32
0.0
 13
-0.1022910174
 23
-0.0504166487
 33
0.0
 40
0.0
 40
0.0
 40
0.0
 40
0.0
 40
0.4641675224
 40
1.0
 40
1.0
 40
1.0
 40
1.0
 10
1.8567467247
 20
16.3325835445
 30
0.0
 10
1.8409645416
 20
16.3404738585
 30
0.0
 10
1.8014384229
 20
16.3471610179
 30
0.0
 10
1.7642421116
 20
16.3349987393
 30
0.0
 10
1.7459718285
 20
16.32599378
 30
0.0
 11
1.8567467247
 21
16.3325835445
 31
0.0
 11
1.8047730209
 21
16.3426206435
 31
0.0
 11
1.7459718285
 21
16.32599378
 31
0.0
  0
SPLINE
  5
419
100
AcDbEntity
  8
RACCORDO
100
AcDbSpline
 62
253
  6
CONTINUOUS
 70
0
 71
3
 72
9
 73
5
 74
3
 42
0.0000001
 43
0.0000001
 44
0.0000000001
 12
0.2095570557
 22
0.1130515398
 32
0.0
 13
0.2144505421
 23
-0.1034687162
 33
0.0
 40
0.0
 40
0.0
 40
0.0
 40
0.0
 40
0.463589587
 40
1.0
 40
1.0
 40
1.0
 40
1.0
 10
-14.4571571784
 20
-0.3398164317
 30
0.0
 10
-14.4247743554
 20
-0.3223465928
 30
0.0
 10
-14.3421975397
 20
-0.3072006215
 30
0.0
 10
-14.2642295303
 20
-0.3315514991
 30
0.0
 10
-14.225885029
 20
-0.3500520648
 30
0.0
 11
-14.4571571784
 21
-0.3398164317
 31
0.0
 11
-14.3492013547
 21
-0.316792041
 31
0.0
 11
-14.225885029
 21
-0.3500520648
 31
0.0
  0
SPLINE
  5
41A
100
AcDbEntity
  8
RACCORDO
100
AcDbSpline
 62
253
  6
CONTINUOUS
 70
0
 71
3
 72
9
 73
5
 74
3
 42
0.0000001
 43
0.0000001
 44
0.0000000001
 12
-0.0558783999
 22
0.0281563735
 32
0.0
 13
0.0004335269
 23
0.062569873
 33
0.0
 40
0.0
 40
0.0
 40
0.0
 40
0.0
 40
0.2201608107
 40
1.0
 40
1.0
 40
1.0
 40
1.0
 10
-14.0573035517
 20
0.1301314897
 30
0.0
 10
-14.0614042963
 20
0.1321977997
 30
0.0
 10
-14.0783654531
 20
0.1452414024
 30
0.0
 10
-14.0832869962
 20
0.1686484904
 30
0.0
 10
-14.0831743025
 20
0.1849133034
 30
0.0
 11
-14.0573035517
 21
0.1301314897
 31
0.0
 11
-14.0682890909
 21
0.1384435062
 31
0.0
 11
-14.0831743025
 21
0.1849133034
 31
0.0
  0
SPLINE
  5
41B
100
AcDbEntity
  8
SUPERFICI
100
AcDbSpline
 62
253
  6
CONTINUOUS
 70
0
 71
3
 72
9
 73
5
 74
3
 42
0.0000001
 43
0.0000001
 44
0.0000000001
 12
-0.0000196376
 22
-0.1180372755
 32
0.0
 13
-0.1053280521
 23
-0.0532803926
 33
0.0
 40
0.0
 40
0.0
 40
0.0
 40
0.0
 40
0.432603248
 40
1.0
 40
1.0
 40
1.0
 40
1.0
 10
1.9949431302
 20
15.7614346537
 30
0.0
 10
1.9949402984
 20
15.7444135508
 30
0.0
 10
1.976665777
 20
15.7055049929
 30
0.0
 10
1.9426664637
 20
15.683649765
 30
0.0
 10
1.9227455322
 20
15.6735727244
 30
0.0
 11
1.9949431302
 21
15.7614346537
 31
0.0
 11
1.9761862386
 21
15.7139410689
 31
0.0
 11
1.9227455322
 21
15.6735727244
 31
0.0
  0
SPLINE
  5
41C
100
AcDbEntity
  8
RACCORDO
100
AcDbSpline
 62
253
  6
CONTINUOUS
 70
0
 71
3
 72
11
 73
7
 74
5
 42
0.0000001
 43
0.0000001
 44
0.0000000001
 12
-0.5239865841
 22
-0.2450351256
 32
0.0
 13
-0.0025339436
 23
-0.5784442343
 33
0.0
 40
0.0
 40
0.0
 40
0.0
 40
0.0
 40
0.2177334572
 40
0.4509123435
 40
0.710475125
 40
1.0
 40
1.0
 40
1.0
 40
1.0
 10
-14.4099777642
 20
0.1609219575
 30
0.0
 10
-14.4480075676
 20
0.1431378425
 30
0.0
 10
-14.5203188114
 20
0.090893192
 30
0.0
 10
-14.5983944411
 20
-0.0243302908
 30
0.0
 10
-14.6454839011
 20
-0.1692496127
 30
0.0
 10
-14.6551602813
 20
-0.2755027409
 30
0.0
 10
-14.6554048278
 20
-0.3313274057
 30
0.0
 11
-14.4099777642
 21
0.1609219575
 31
0.0
 11
-14.5125351242
 21
0.0878134478
 31
0.0
 11
-14.5900112763
 21
-0.0225979391
 31
0.0
 11
-14.6384565419
 21
-0.164711582
 31
0.0
 11
-14.6554048278
 21
-0.3313274057
 31
0.0
  0
SPLINE
  5
41D
100
AcDbEntity
  8
RACCORDO
100
AcDbSpline
 62
253
  6
CONTINUOUS
 70
0
 71
3
 72
9
 73
5
 74
3
 42
0.0000001
 43
0.0000001
 44
0.0000000001
 12
0.0002968885
 22
-0.0474170395
 32
0.0
 13
0.0424095704
 23
-0.0212106606
 33
0.0
 40
0.0
 40
0.0
 40
0.0
 40
0.0
 40
0.2104176832
 40
1.0
 40
1.0
 40
1.0
 40
1.0
 10
-8.8048402199
 20
-8.9471587846
 30
0.0
 10
-8.8048193964
 20
-8.9504845792
 30
0.0
 10
-8.8013695906
 20
-8.9663864508
 30
0.0
 10
-8.7867004436
 20
-8.9769451503
 30
0.0
 10
-8.7755384947
 20
-8.9825276712
 30
0.0
 11
-8.8048402199
 21
-8.9471587846
 31
0.0
 11
-8.802870853
 21
-8.956940077
 31
0.0
 11
-8.7755384947
 21
-8.9825276712
 31
0.0
  0
SPLINE
  5
41E
100
AcDbEntity
  8
SUPERFICI
100
AcDbSpline
 62
253
  6
CONTINUOUS
 70
0
 71
3
 72
9
 73
5
 74
3
 42
0.0000001
 43
0.0000001
 44
0.0000000001
 12
-0.0000196376
 22
-0.1180372755
 32
0.0
 13
-0.1053280521
 23
-0.0532803926
 33
0.0
 40
0.0
 40
0.0
 40
0.0
 40
0.0
 40
0.432603248
 40
1.0
 40
1.0
 40
1.0
 40
1.0
 10
-10.3087148625
 20
21.9132636501
 30
0.0
 10
-10.3087176943
 20
21.8962425471
 30
0.0
 10
-10.3269922156
 20
21.8573339893
 30
0.0
 10
-10.3609915289
 20
21.8354787613
 30
0.0
 10
-10.3809124605
 20
21.8254017208
 30
0.0
 11
-10.3087148625
 21
21.9132636501
 31
0.0
 11
-10.327471754
 21
21.8657700653
 31
0.0
 11
-10.3809124605
 21
21.8254017208
 31
0.0
  0
SPLINE
  5
41F
100
AcDbEntity
  8
SUPERFICI
100
AcDbSpline
 62
253
  6
CONTINUOUS
 70
0
 71
3
 72
9
 73
5
 74
3
 42
0.0000001
 43
0.0000001
 44
0.0000000001
 12
0.000732181
 22
-0.1546725058
 32
0.0
 13
-0.1376234498
 23
-0.070596786
 33
0.0
 40
0.0
 40
0.0
 40
0.0
 40
0.0
 40
0.55093116
 40
1.0
 40
1.0
 40
1.0
 40
1.0
 10
1.9227455322
 20
-25.9735629317
 30
0.0
 10
1.9228799926
 20
-26.001967566
 30
0.0
 10
1.9157971079
 20
-26.0548871618
 30
0.0
 10
1.8796582468
 20
-26.0975590664
 30
0.0
 10
1.8590574458
 20
-26.108126672
 30
0.0
 11
1.9227455322
 21
-25.9735629317
 31
0.0
 11
1.9062564094
 21
-26.0571672427
 31
0.0
 11
1.8590574458
 21
-26.108126672
 31
0.0
  0
SPLINE
  5
420
100
AcDbEntity
  8
SUPERFICI
100
AcDbSpline
 62
7
  6
CONTINUOUS
 70
0
 71
3
 72
9
 73
5
 74
3
 42
0.0000001
 43
0.0000001
 44
0.0000000001
 12
0.0
 22
-0.1549937462
 32
0.0
 13
-0.1379077365
 23
-0.070742615
 33
0.0
 40
0.0
 40
0.0
 40
0.0
 40
0.0
 40
0.5513163479
 40
1.0
 40
1.0
 40
1.0
 40
1.0
 10
1.3944783604
 20
-26.2445739903
 30
0.0
 10
1.3944783604
 20
-26.273057519
 30
0.0
 10
1.387178618
 20
-26.3260187756
 30
0.0
 10
1.3509988699
 20
-26.3687713344
 30
0.0
 10
1.3303732209
 20
-26.379351686
 30
0.0
 11
1.3944783604
 21
-26.2445739903
 31
0.0
 11
1.3776513562
 21
-26.3283514013
 31
0.0
 11
1.3303732209
 21
-26.379351686
 31
0.0
  0
SPLINE
  5
421
100
AcDbEntity
  8
SUPERFICI
100
AcDbSpline
 62
253
  6
CONTINUOUS
 70
0
 71
3
 72
9
 73
5
 74
3
 42
0.0000001
 43
0.0000001
 44
0.0000000001
 12
-0.0007490218
 22
-0.1571443239
 32
0.0
 13
-0.1412781211
 23
-0.068814185
 33
0.0
 40
0.0
 40
0.0
 40
0.0
 40
0.0
 40
0.5521019026
 40
1.0
 40
1.0
 40
1.0
 40
1.0
 10
-0.2068024304
 20
-27.02460859
 30
0.0
 10
-0.2069402759
 20
-27.0535284834
 30
0.0
 10
-0.2146008579
 20
-27.1072384465
 30
0.0
 10
-0.251971371
 20
-27.1501851624
 30
0.0
 10
-0.2730641048
 20
-27.1604590766
 30
0.0
 11
-0.2068024304
 21
-27.02460859
 31
0.0
 11
-0.2244551972
 21
-27.1095544136
 31
0.0
 11
-0.2730641048
 21
-27.1604590766
 31
0.0
  0
SPLINE
  5
422
100
AcDbEntity
  8
SUPERFICI
100
AcDbSpline
 62
253
  6
CONTINUOUS
 70
0
 71
3
 72
9
 73
5
 74
3
 42
0.0000001
 43
0.0000001
 44
0.0000000001
 12
-0.1019922422
 22
0.0509449866
 32
0.0
 13
-0.1022615907
 23
-0.050402145
 33
0.0
 40
0.0
 40
0.0
 40
0.0
 40
0.0
 40
0.4641716966
 40
1.0
 40
1.0
 40
1.0
 40
1.0
 10
0.1658368351
 20
17.1780384818
 30
0.0
 10
0.1500561977
 20
17.1859208888
 30
0.0
 10
0.1105413789
 20
17.1925955849
 30
0.0
 10
0.0733571622
 20
17.1804358542
 30
0.0
 10
0.0550922773
 20
17.1714335556
 30
0.0
 11
0.1658368351
 21
17.1780384818
 31
0.0
 11
0.1138750175
 21
17.1880593205
 31
0.0
 11
0.0550922773
 21
17.1714335556
 31
0.0
  0
SPLINE
  5
423
100
AcDbEntity
  8
SUPERFICI
100
AcDbSpline
 62
253
  6
CONTINUOUS
 70
0
 71
3
 72
9
 73
5
 74
3
 42
0.0000001
 43
0.0000001
 44
0.0000000001
 12
0.0
 22
-0.1559171494
 32
0.0
 13
0.1394592861
 23
-0.0697227725
 33
0.0
 40
0.0
 40
0.0
 40
0.0
 40
0.0
 40
0.551514305
 40
1.0
 40
1.0
 40
1.0
 40
1.0
 10
-0.5593243901
 20
-27.0240958661
 30
0.0
 10
-0.5593243901
 20
-27.0527593789
 30
0.0
 10
-0.5519544184
 20
-27.1060775759
 30
0.0
 10
-0.5151995286
 20
-27.1488909676
 30
0.0
 10
-0.4943510303
 20
-27.1593141896
 30
0.0
 11
-0.5593243901
 21
-27.0240958661
 31
0.0
 11
-0.5422571479
 21
-27.1083756497
 31
0.0
 11
-0.4943510303
 21
-27.1593141896
 31
0.0
  0
SPLINE
  5
424
100
AcDbEntity
  8
SUPERFICI
100
AcDbSpline
 62
253
  6
CONTINUOUS
 70
0
 71
3
 72
9
 73
5
 74
3
 42
0.0000001
 43
0.0000001
 44
0.0000000001
 12
-0.1065300519
 22
0.0532650259
 32
0.0
 13
-0.0001293776
 23
0.1191041486
 33
0.0
 40
0.0
 40
0.0
 40
0.0
 40
0.0
 40
0.5679619533
 40
1.0
 40
1.0
 40
1.0
 40
1.0
 10
-2.2378624605
 20
15.4547512426
 30
0.0
 10
-2.2580307993
 20
15.464835412
 30
0.0
 10
-2.2924472369
 20
15.4867053463
 30
0.0
 10
-2.3110668381
 20
15.5259194313
 30
0.0
 10
-2.3110854702
 20
15.5430719392
 30
0.0
 11
-2.2378624605
 21
15.4547512426
 31
0.0
 11
-2.2920294978
 21
15.4952728828
 31
0.0
 11
-2.3110854702
 21
15.5430719392
 31
0.0
  0
SPLINE
  5
425
100
AcDbEntity
  8
SUPERFICI
100
AcDbSpline
 62
253
  6
CONTINUOUS
 70
0
 71
3
 72
9
 73
5
 74
3
 42
0.0000001
 43
0.0000001
 44
0.0000000001
 12
-0.1065251092
 22
0.0532625546
 32
0.0
 13
-0.0001405339
 23
0.1190986099
 33
0.0
 40
0.0
 40
0.0
 40
0.0
 40
0.0
 40
0.5679595698
 40
1.0
 40
1.0
 40
1.0
 40
1.0
 10
-2.2378624605
 20
15.7947251767
 30
0.0
 10
-2.2580297789
 20
15.8048088359
 30
0.0
 10
-2.292444354
 20
15.8266776558
 30
0.0
 10
-2.3110652246
 20
15.8658882009
 30
0.0
 10
-2.3110854634
 20
15.8830400057
 30
0.0
 11
-2.2378624605
 21
15.7947251767
 31
0.0
 11
-2.2920272507
 21
15.8352441073
 31
0.0
 11
-2.3110854634
 21
15.8830400057
 31
0.0
  0
SPLINE
  5
426
100
AcDbEntity
  8
SUPERFICI
100
AcDbSpline
 62
253
  6
CONTINUOUS
 70
0
 71
3
 72
9
 73
5
 74
3
 42
0.0000001
 43
0.0000001
 44
0.0000000001
 12
0.3219424972
 22
-0.1609712486
 32
0.0
 13
0.322685623
 23
0.1594763403
 33
0.0
 40
0.0
 40
0.0
 40
0.0
 40
0.0
 40
0.4995682627
 40
1.0
 40
1.0
 40
1.0
 40
1.0
 10
-0.5593243901
 20
14.9554561415
 30
0.0
 10
-0.5057136387
 20
14.9286507658
 30
0.0
 10
-0.3831665699
 20
14.909194092
 30
0.0
 10
-0.2606298061
 20
14.928341077
 30
0.0
 10
-0.2068024304
 20
14.9549434177
 30
0.0
 11
-0.5593243901
 21
14.9554561415
 31
0.0
 11
-0.383274958
 21
14.9188451476
 31
0.0
 11
-0.2068024304
 21
14.9549434177
 31
0.0
  0
SPLINE
  5
427
100
AcDbEntity
  8
SUPERFICI
100
AcDbSpline
 62
253
  6
CONTINUOUS
 70
0
 71
3
 72
9
 73
5
 74
3
 42
0.0000001
 43
0.0000001
 44
0.0000000001
 12
0.2781939926
 22
-0.1390969963
 32
0.0
 13
0.2977985776
 23
0.0897545489
 33
0.0
 40
0.0
 40
0.0
 40
0.0
 40
0.0
 40
0.4847439678
 40
1.0
 40
1.0
 40
1.0
 40
1.0
 10
-0.5593243901
 20
14.6154822074
 30
0.0
 10
-0.5143734368
 20
14.5930067308
 30
0.0
 10
-0.4097762945
 20
14.5720116525
 30
0.0
 10
-0.3046335773
 20
14.5814000228
 30
0.0
 10
-0.2534860728
 20
14.596815547
 30
0.0
 11
-0.5593243901
 21
14.6154822074
 31
0.0
 11
-0.4128395719
 21
14.5797916586
 31
0.0
 11
-0.2534860728
 21
14.596815547
 31
0.0
  0
SPLINE
  5
428
100
AcDbEntity
  8
SUPERFICI
100
AcDbSpline
 62
253
  6
CONTINUOUS
 70
0
 71
3
 72
8
 73
4
 74
2
 42
0.0000001
 43
0.0000001
 44
0.0000000001
 12
0.0479583192
 22
0.0144543246
 32
0.0
 13
0.0449045543
 23
0.0221925412
 33
0.0
 40
0.0
 40
0.0
 40
0.0
 40
0.0
 40
1.0
 40
1.0
 40
1.0
 40
1.0
 10
-0.2534860728
 20
14.596815547
 30
0.0
 10
-0.2374999664
 20
14.6016336552
 30
0.0
 10
-0.2217706152
 20
14.6075719698
 30
0.0
 10
-0.2068024304
 20
14.6149694835
 30
0.0
 11
-0.2534860728
 21
14.596815547
 31
0.0
 11
-0.2068024304
 21
14.6149694835
 31
0.0
  0
SPLINE
  5
429
100
AcDbEntity
  8
SUPERFICI
100
AcDbSpline
 62
253
  6
CONTINUOUS
 70
0
 71
3
 72
9
 73
5
 74
3
 42
0.0000001
 43
0.0000001
 44
0.0000000001
 12
0.3219424972
 22
-0.1609712486
 32
0.0
 13
0.322685623
 23
0.1594763403
 33
0.0
 40
0.0
 40
0.0
 40
0.0
 40
0.0
 40
0.499568509
 40
1.0
 40
1.0
 40
1.0
 40
1.0
 10
-12.8629823827
 20
21.1072851378
 30
0.0
 10
-12.8093716049
 20
21.0804797489
 30
0.0
 10
-12.6868245287
 20
21.0610230883
 30
0.0
 10
-12.5642877722
 20
21.0801700864
 30
0.0
 10
-12.5104604231
 20
21.106772414
 30
0.0
 11
-12.8629823827
 21
21.1072851378
 31
0.0
 11
-12.6869328601
 21
21.0706741438
 31
0.0
 11
-12.5104604231
 21
21.106772414
 31
0.0
  0
SPLINE
  5
42A
100
AcDbEntity
  8
SUPERFICI
100
AcDbSpline
 62
253
  6
CONTINUOUS
 70
0
 71
3
 72
9
 73
5
 74
3
 42
0.0000001
 43
0.0000001
 44
0.0000000001
 12
0.2782126577
 22
-0.1391063288
 32
0.0
 13
0.2978132216
 23
0.089778275
 33
0.0
 40
0.0
 40
0.0
 40
0.0
 40
0.0
 40
0.4847488408
 40
1.0
 40
1.0
 40
1.0
 40
1.0
 10
-12.8629823827
 20
20.7673112037
 30
0.0
 10
-12.8180279616
 20
20.7448339932
 30
0.0
 10
-12.7134231799
 20
20.7238392139
 30
0.0
 10
-12.6082732481
 20
20.7332312254
 30
0.0
 10
-12.5571237123
 20
20.7486506788
 30
0.0
 11
-12.8629823827
 21
20.7673112037
 31
0.0
 11
-12.7164857681
 21
20.7316199351
 31
0.0
 11
-12.5571237123
 21
20.7486506788
 31
0.0
  0
SPLINE
  5
42B
100
AcDbEntity
  8
SUPERFICI
100
AcDbSpline
 62
253
  6
CONTINUOUS
 70
0
 71
3
 72
8
 73
4
 74
2
 42
0.0000001
 43
0.0000001
 44
0.0000000001
 12
0.0479371687
 22
0.0144510586
 32
0.0
 13
0.0448855549
 23
0.0221831514
 33
0.0
 40
0.0
 40
0.0
 40
0.0
 40
0.0
 40
1.0
 40
1.0
 40
1.0
 40
1.0
 10
-12.5571237123
 20
20.7486506788
 30
0.0
 10
-12.541144656
 20
20.7534676983
 30
0.0
 10
-12.5254222747
 20
20.7594040961
 30
0.0
 10
-12.5104604231
 20
20.7667984799
 30
0.0
 11
-12.5571237123
 21
20.7486506788
 31
0.0
 11
-12.5104604231
 21
20.7667984799
 31
0.0
  0
SPLINE
  5
42C
100
AcDbEntity
  8
SUPERFICI
100
AcDbSpline
 62
7
  6
CONTINUOUS
 70
0
 71
3
 72
10
 73
6
 74
4
 42
0.0000001
 43
0.0000001
 44
0.0000000001
 12
-0.11877841
 22
0.059316972
 32
0.0
 13
-0.123922693
 23
-0.0476443072
 33
0.0
 40
0.0
 40
0.0
 40
0.0
 40
0.0
 40
0.1123183041
 40
0.3090243619
 40
1.0
 40
1.0
 40
1.0
 40
1.0
 10
-2.7933511841
 20
23.0265801012
 30
0.0
 10
-2.7977981806
 20
23.0288008951
 30
0.0
 10
-2.8122095493
 20
23.0290411665
 30
0.0
 10
-2.855210802
 20
23.0206235996
 30
0.0
 10
-2.892482005
 20
23.0066761664
 30
0.0
 10
-2.9210245257
 20
22.9957024812
 30
0.0
 11
-2.7933511841
 21
23.0265801012
 31
0.0
 11
-2.8081257776
 21
23.0286001798
 31
0.0
 11
-2.833912386
 21
23.0244661801
 31
0.0
 11
-2.9210245257
 21
22.9957024812
 31
0.0
  0
SPLINE
  5
42D
100
AcDbEntity
  8
SUPERFICI
100
AcDbSpline
 62
253
  6
CONTINUOUS
 70
0
 71
3
 72
9
 73
5
 74
3
 42
0.0000001
 43
0.0000001
 44
0.0000000001
 12
-0.1065870344
 22
0.0532935172
 32
0.0
 13
-0.0000005801
 23
0.1191679272
 33
0.0
 40
0.0
 40
0.0
 40
0.0
 40
0.0
 40
0.567989406
 40
1.0
 40
1.0
 40
1.0
 40
1.0
 10
-14.5415204531
 20
21.6065802389
 30
0.0
 10
-14.5617005552
 20
21.61667029
 30
0.0
 10
-14.5961384636
 20
21.6385530757
 30
0.0
 10
-14.6147434163
 20
21.6778079841
 30
0.0
 10
-14.6147434998
 20
21.6949685864
 30
0.0
 11
-14.5415204531
 21
21.6065802389
 31
0.0
 11
-14.5957133885
 21
21.6471331255
 31
0.0
 11
-14.6147434998
 21
21.6949685864
 31
0.0
  0
SPLINE
  5
42E
100
AcDbEntity
  8
SUPERFICI
100
AcDbSpline
 62
253
  6
CONTINUOUS
 70
0
 71
3
 72
9
 73
5
 74
3
 42
0.0000001
 43
0.0000001
 44
0.0000000001
 12
-0.1065251092
 22
0.0532625546
 32
0.0
 13
-0.0001405339
 23
0.1190986099
 33
0.0
 40
0.0
 40
0.0
 40
0.0
 40
0.0
 40
0.5679595698
 40
1.0
 40
1.0
 40
1.0
 40
1.0
 10
-14.5415204531
 20
21.946554173
 30
0.0
 10
-14.5616877715
 20
21.9566378322
 30
0.0
 10
-14.5961023467
 20
21.9785066521
 30
0.0
 10
-14.6147232173
 20
22.0177171972
 30
0.0
 10
-14.6147434561
 20
22.0348690021
 30
0.0
 11
-14.5415204531
 21
21.946554173
 31
0.0
 11
-14.5956852433
 21
21.9870731036
 31
0.0
 11
-14.6147434561
 21
22.0348690021
 31
0.0
  0
SPLINE
  5
42F
100
AcDbEntity
  8
SUPERFICI
100
AcDbSpline
 62
7
  6
CONTINUOUS
 70
0
 71
3
 72
10
 73
6
 74
4
 42
0.0000001
 43
0.0000001
 44
0.0000000001
 12
-0.1169821217
 22
0.0584766917
 32
0.0
 13
-0.1221298781
 23
-0.0467828298
 33
0.0
 40
0.0
 40
0.0
 40
0.0
 40
0.0
 40
0.1127249775
 40
0.3095076652
 40
1.0
 40
1.0
 40
1.0
 40
1.0
 10
2.7970997223
 20
20.2313546341
 30
0.0
 10
2.7927041199
 20
20.2335518954
 30
0.0
 10
2.7784934542
 20
20.2338365305
 30
0.0
 10
2.7361052407
 20
20.2256364537
 30
0.0
 10
2.6993902887
 20
20.21196005
 30
0.0
 10
2.6712803738
 20
20.2011923216
 30
0.0
 11
2.7970997223
 21
20.2313546341
 31
0.0
 11
2.782497604
 21
20.2333848155
 31
0.0
 11
2.7570767362
 21
20.2293700754
 31
0.0
 11
2.6712803738
 21
20.2011923216
 31
0.0
  0
SPLINE
  5
430
100
AcDbEntity
  8
RACCORDO
100
AcDbSpline
 62
253
  6
CONTINUOUS
 70
0
 71
3
 72
9
 73
5
 74
3
 42
0.0000001
 43
0.0000001
 44
0.0000000001
 12
-0.0002462274
 22
-0.0474036212
 32
0.0
 13
0.0424020986
 23
-0.0211949514
 33
0.0
 40
0.0
 40
0.0
 40
0.0
 40
0.0
 40
0.2087371572
 40
1.0
 40
1.0
 40
1.0
 40
1.0
 10
-8.8048405839
 20
-3.3048597482
 30
0.0
 10
-8.8048577161
 20
-3.3081580472
 30
0.0
 10
-8.8014910697
 20
-3.324094164
 30
0.0
 10
-8.7867221565
 20
-3.334581147
 30
0.0
 10
-8.7755384215
 20
-3.3401714062
 30
0.0
 11
-8.8048405839
 21
-3.3048597482
 31
0.0
 11
-8.8029554173
 21
-3.3145735414
 31
0.0
 11
-8.7755384215
 21
-3.3401714062
 31
0.0
  0
SPLINE
  5
431
100
AcDbEntity
  8
SUPERFICI
100
AcDbSpline
 62
253
  6
CONTINUOUS
 70
0
 71
3
 72
9
 73
5
 74
3
 42
0.0000001
 43
0.0000001
 44
0.0000000001
 12
-0.0001817105
 22
-0.1179561102
 32
0.0
 13
-0.1052557494
 23
-0.0532438182
 33
0.0
 40
0.0
 40
0.0
 40
0.0
 40
0.0
 40
0.432637659
 40
1.0
 40
1.0
 40
1.0
 40
1.0
 10
1.9949430568
 20
16.1088801991
 30
0.0
 10
1.9949168519
 20
16.0918694473
 30
0.0
 10
1.97662377
 20
16.0530124215
 30
0.0
 10
1.9426515816
 20
16.0311737536
 30
0.0
 10
1.9227455322
 20
16.0211042412
 30
0.0
 11
1.9949430568
 21
16.1088801991
 31
0.0
 11
1.9761535575
 21
16.061432839
 31
0.0
 11
1.9227455322
 21
16.0211042412
 31
0.0
  0
SPLINE
  5
432
100
AcDbEntity
  8
SUPERFICI
100
AcDbSpline
 62
253
  6
CONTINUOUS
 70
0
 71
3
 72
9
 73
5
 74
3
 42
0.0000001
 43
0.0000001
 44
0.0000000001
 12
-0.0006042088
 22
-0.1171289727
 32
0.0
 13
-0.1045189365
 23
-0.0528711
 33
0.0
 40
0.0
 40
0.0
 40
0.0
 40
0.0
 40
0.2100275503
 40
1.0
 40
1.0
 40
1.0
 40
1.0
 10
1.9949422988
 20
-25.8860132835
 30
0.0
 10
1.9948999987
 20
-25.8942133872
 30
0.0
 10
1.9864163465
 20
-25.9334994592
 30
0.0
 10
1.9502678923
 20
-25.9596406942
 30
0.0
 10
1.9227455322
 20
-25.9735629317
 30
0.0
 11
1.9949422988
 21
-25.8860132835
 31
0.0
 11
1.9901160594
 21
-25.9101358627
 31
0.0
 11
1.9227455322
 21
-25.9735629317
 31
0.0
  0
SPLINE
  5
433
100
AcDbEntity
  8
SUPERFICI
100
AcDbSpline
 62
253
  6
CONTINUOUS
 70
0
 71
3
 72
9
 73
5
 74
3
 42
0.0000001
 43
0.0000001
 44
0.0000000001
 12
0.0
 22
0.362649951
 32
0.0
 13
0.3234368959
 23
0.1640230513
 33
0.0
 40
0.0
 40
0.0
 40
0.0
 40
0.0
 40
0.5118337855
 40
1.0
 40
1.0
 40
1.0
 40
1.0
 10
-2.2378624605
 20
15.7947251767
 30
0.0
 10
-2.2378624605
 20
15.8565973425
 30
0.0
 10
-2.1995208008
 20
15.9765524875
 30
0.0
 10
-2.1147445262
 20
16.072411821
 30
0.0
 10
-2.0621142045
 20
16.0991019917
 30
0.0
 11
-2.2378624605
 21
15.7947251767
 31
0.0
 11
-2.1864486932
 21
15.9730790625
 31
0.0
 11
-2.0621142045
 21
16.0991019917
 31
0.0
  0
SPLINE
  5
434
100
AcDbEntity
  8
SUPERFICI
100
AcDbSpline
 62
253
  6
CONTINUOUS
 70
0
 71
3
 72
9
 73
5
 74
3
 42
0.0000001
 43
0.0000001
 44
0.0000000001
 12
0.0
 22
0.3626499509
 32
0.0
 13
0.3234368958
 23
0.1640230513
 33
0.0
 40
0.0
 40
0.0
 40
0.0
 40
0.0
 40
0.5118336628
 40
1.0
 40
1.0
 40
1.0
 40
1.0
 10
-0.5593243901
 20
14.9554561415
 30
0.0
 10
-0.5593243901
 20
15.0173282924
 30
0.0
 10
-0.5209827391
 20
15.1372834363
 30
0.0
 10
-0.436206469
 20
15.2331427791
 30
0.0
 10
-0.3835761341
 20
15.2598329565
 30
0.0
 11
-0.5593243901
 21
14.9554561415
 31
0.0
 11
-0.5079106459
 21
15.1338099876
 31
0.0
 11
-0.3835761341
 21
15.2598329565
 31
0.0
  0
SPLINE
  5
435
100
AcDbEntity
  8
SUPERFICI
100
AcDbSpline
 62
253
  6
CONTINUOUS
 70
0
 71
3
 72
9
 73
5
 74
3
 42
0.0000001
 43
0.0000001
 44
0.0000000001
 12
0.0
 22
0.362649951
 32
0.0
 13
0.3234368959
 23
0.1640230513
 33
0.0
 40
0.0
 40
0.0
 40
0.0
 40
0.0
 40
0.5118337855
 40
1.0
 40
1.0
 40
1.0
 40
1.0
 10
-14.5415204531
 20
21.946554173
 30
0.0
 10
-14.5415204531
 20
22.0084263388
 30
0.0
 10
-14.5031787935
 20
22.1283814838
 30
0.0
 10
-14.4184025188
 20
22.2242408173
 30
0.0
 10
-14.3657721972
 20
22.250930988
 30
0.0
 11
-14.5415204531
 21
21.946554173
 31
0.0
 11
-14.4901066859
 21
22.1249080589
 31
0.0
 11
-14.3657721972
 21
22.250930988
 31
0.0
  0
SPLINE
  5
436
100
AcDbEntity
  8
SUPERFICI
100
AcDbSpline
 62
253
  6
CONTINUOUS
 70
0
 71
3
 72
9
 73
5
 74
3
 42
0.0000001
 43
0.0000001
 44
0.0000000001
 12
0.0
 22
0.362649951
 32
0.0
 13
0.3234368959
 23
0.1640230513
 33
0.0
 40
0.0
 40
0.0
 40
0.0
 40
0.0
 40
0.5118337855
 40
1.0
 40
1.0
 40
1.0
 40
1.0
 10
-12.8629823827
 20
21.1072851378
 30
0.0
 10
-12.8629823827
 20
21.1691573036
 30
0.0
 10
-12.824640723
 20
21.2891124486
 30
0.0
 10
-12.7398644484
 20
21.3849717821
 30
0.0
 10
-12.6872341267
 20
21.4116619528
 30
0.0
 11
-12.8629823827
 21
21.1072851378
 31
0.0
 11
-12.8115686155
 21
21.2856390236
 31
0.0
 11
-12.6872341267
 21
21.4116619528
 31
0.0
  0
SPLINE
  5
437
100
AcDbEntity
  8
RACCORDO
100
AcDbSpline
 62
253
  6
CONTINUOUS
 70
0
 71
3
 72
9
 73
5
 74
3
 42
0.0000001
 43
0.0000001
 44
0.0000000001
 12
0.1430794649
 22
0.0674868044
 32
0.0
 13
0.0615267202
 23
0.1457417742
 33
0.0
 40
0.0
 40
0.0
 40
0.0
 40
0.0
 40
0.2395891777
 40
1.0
 40
1.0
 40
1.0
 40
1.0
 10
-9.0620031333
 20
-8.9608928026
 30
0.0
 10
-9.0505763695
 20
-8.9555030999
 30
0.0
 10
-9.0050553988
 20
-8.9282322615
 30
0.0
 10
-8.9727471566
 20
-8.8822101613
 30
0.0
 10
-8.957151962
 20
-8.8452689539
 30
0.0
 11
-9.0620031333
 21
-8.9608928026
 31
0.0
 11
-9.0295221555
 21
-8.9413591262
 31
0.0
 11
-8.957151962
 21
-8.8452689539
 31
0.0
  0
SPLINE
  5
438
100
AcDbEntity
  8
RACCORDO
100
AcDbSpline
 62
253
  6
CONTINUOUS
 70
0
 71
3
 72
9
 73
5
 74
3
 42
0.0000001
 43
0.0000001
 44
0.0000000001
 12
0.0508689374
 22
0.1204960896
 32
0.0
 13
0.0067009189
 23
0.1306217979
 33
0.0
 40
0.0
 40
0.0
 40
0.0
 40
0.0
 40
0.234725021
 40
1.0
 40
1.0
 40
1.0
 40
1.0
 10
-8.957151962
 20
-8.8452689539
 30
0.0
 10
-8.9531718912
 20
-8.8358411382
 30
0.0
 10
-8.9383254934
 20
-8.7947861886
 30
0.0
 10
-8.9315881997
 20
-8.7510632729
 30
0.0
 10
-8.9298788512
 20
-8.7177427416
 30
0.0
 11
-8.957151962
 21
-8.8452689539
 31
0.0
 11
-8.946649027
 21
-8.8164208966
 31
0.0
 11
-8.9298788512
 21
-8.7177427416
 31
0.0
  0
SPLINE
  5
439
100
AcDbEntity
  8
RACCORDO
100
AcDbSpline
 62
253
  6
CONTINUOUS
 70
0
 71
3
 72
9
 73
5
 74
3
 42
0.0000001
 43
0.0000001
 44
0.0000000001
 12
-0.2549878683
 22
0.126967664
 32
0.0
 13
-0.0156412981
 23
0.2844203764
 33
0.0
 40
0.0
 40
0.0
 40
0.0
 40
0.0
 40
0.4536291994
 40
1.0
 40
1.0
 40
1.0
 40
1.0
 10
-9.8641030172
 20
-9.1248347282
 30
0.0
 10
-9.9026596648
 20
-9.1056359816
 30
0.0
 10
-9.9715656393
 20
-9.0302286746
 30
0.0
 10
-9.9907072548
 20
-8.9339640776
 30
0.0
 10
-9.9935559044
 20
-8.8821644147
 30
0.0
 11
-9.8641030172
 21
-9.1248347282
 31
0.0
 11
-9.9549347064
 21
-9.0329300673
 31
0.0
 11
-9.9935559044
 21
-8.8821644147
 31
0.0
  0
SPLINE
  5
43A
100
AcDbEntity
  8
RACCORDO
100
AcDbSpline
 62
253
  6
CONTINUOUS
 70
0
 71
3
 72
9
 73
5
 74
3
 42
0.0000001
 43
0.0000001
 44
0.0000000001
 12
-0.2550508004
 22
0.1269292564
 32
0.0
 13
-0.0156434518
 23
0.284459539
 33
0.0
 40
0.0
 40
0.0
 40
0.0
 40
0.0
 40
0.4536252046
 40
1.0
 40
1.0
 40
1.0
 40
1.0
 10
-14.4430212437
 20
-6.8353755332
 30
0.0
 10
-14.4815870675
 20
-6.8161827632
 30
0.0
 10
-14.5505162842
 20
-6.7407734462
 30
0.0
 10
-14.5696618483
 20
-6.6444940856
 30
0.0
 10
-14.5725109109
 20
-6.5926869114
 30
0.0
 11
-14.4430212437
 21
-6.8353755332
 31
0.0
 11
-14.5338788553
 21
-6.743473079
 31
0.0
 11
-14.5725109109
 21
-6.5926869114
 31
0.0
  0
SPLINE
  5
43B
100
AcDbEntity
  8
SUPERFICI
100
AcDbSpline
 62
253
  6
CONTINUOUS
 70
0
 71
3
 72
9
 73
5
 74
3
 42
0.0000001
 43
0.0000001
 44
0.0000000001
 12
0.2081117088
 22
0.1213474725
 32
0.0
 13
0.2170960184
 23
-0.1044270616
 33
0.0
 40
0.0
 40
0.0
 40
0.0
 40
0.0
 40
0.457953076
 40
1.0
 40
1.0
 40
1.0
 40
1.0
 10
-18.0508305301
 20
18.8914932066
 30
0.0
 10
-18.0190620644
 20
18.9100170227
 30
0.0
 10
-17.9353654132
 20
18.9270008412
 30
0.0
 10
-17.8565410204
 20
18.9016877395
 30
0.0
 10
-17.8173156108
 20
18.882819617
 30
0.0
 11
-18.0508305301
 21
18.8914932066
 31
0.0
 11
-17.9434256017
 21
18.9167020533
 31
0.0
 11
-17.8173156108
 21
18.882819617
 31
0.0
  0
SPLINE
  5
43C
100
AcDbEntity
  8
SUPERFICI
100
AcDbSpline
 62
7
  6
CONTINUOUS
 70
0
 71
3
 72
9
 73
5
 74
3
 42
0.0000001
 43
0.0000001
 44
0.0000000001
 12
0.4635440802
 22
-0.062103131
 32
0.0
 13
0.4183108061
 23
-0.2091554031
 33
0.0
 40
0.0
 40
0.0
 40
0.0
 40
0.0
 40
0.2686353884
 40
1.0
 40
1.0
 40
1.0
 40
1.0
 10
-2.2711452301
 20
21.0149393549
 30
0.0
 10
-2.2296371154
 20
21.009378322
 30
0.0
 10
-2.076022516
 20
20.9834088032
 30
0.0
 10
-1.9248367341
 20
20.9365194524
 30
0.0
 10
-1.822857494
 20
20.8855298323
 30
0.0
 11
-2.2711452301
 21
21.0149393549
 31
0.0
 11
-2.1472797558
 21
20.9939159794
 31
0.0
 11
-1.822857494
 21
20.8855298323
 31
0.0
  0
SPLINE
  5
43D
100
AcDbEntity
  8
RACCORDO
100
AcDbSpline
 62
253
  6
CONTINUOUS
 70
0
 71
3
 72
8
 73
4
 74
2
 42
0.0000001
 43
0.0000001
 44
0.0000000001
 12
-0.0270747957
 22
-0.0128605069
 32
0.0
 13
-0.0292735979
 23
-0.0064415579
 33
0.0
 40
0.0
 40
0.0
 40
0.0
 40
0.0
 40
1.0
 40
1.0
 40
1.0
 40
1.0
 10
-14.6554048278
 20
-0.3313274057
 30
0.0
 10
-14.6644297597
 20
-0.3356142414
 30
0.0
 10
-14.6741019559
 20
-0.3386009689
 30
0.0
 10
-14.6838598219
 20
-0.3407481549
 30
0.0
 11
-14.6554048278
 21
-0.3313274057
 31
0.0
 11
-14.6838598219
 21
-0.3407481549
 31
0.0
  0
SPLINE
  5
43E
100
AcDbEntity
  8
RACCORDO
100
AcDbSpline
 62
253
  6
CONTINUOUS
 70
0
 71
3
 72
9
 73
5
 74
3
 42
0.0000001
 43
0.0000001
 44
0.0000000001
 12
-0.110600909
 22
-0.0243373625
 32
0.0
 13
-0.1012854645
 23
0.0506569143
 33
0.0
 40
0.0
 40
0.0
 40
0.0
 40
0.0
 40
0.2585237676
 40
1.0
 40
1.0
 40
1.0
 40
1.0
 10
-14.6838598219
 20
-0.3407481549
 30
0.0
 10
-14.6933908098
 20
-0.3428454171
 30
0.0
 10
-14.7307593053
 20
-0.3476204437
 30
0.0
 10
-14.7705462537
 20
-0.3426710679
 30
0.0
 10
-14.7955798419
 20
-0.3301507686
 30
0.0
 11
-14.6838598219
 21
-0.3407481549
 31
0.0
 11
-14.7128737344
 21
-0.3446644069
 31
0.0
 11
-14.7955798419
 21
-0.3301507686
 31
0.0
  0
SPLINE
  5
43F
100
AcDbEntity
  8
SUPERFICI
100
AcDbSpline
 62
253
  6
CONTINUOUS
 70
0
 71
3
 72
9
 73
5
 74
3
 42
0.0000001
 43
0.0000001
 44
0.0000000001
 12
0.2586135608
 22
-0.127821622
 32
0.0
 13
0.0685454232
 23
-0.2802157487
 33
0.0
 40
0.0
 40
0.0
 40
0.0
 40
0.0
 40
0.2272788683
 40
1.0
 40
1.0
 40
1.0
 40
1.0
 10
1.7459718285
 20
16.32599378
 30
0.0
 10
1.7655642943
 20
16.3163100621
 30
0.0
 10
1.8446378716
 20
16.2600183367
 30
0.0
 10
1.8956429577
 20
16.1691029593
 30
0.0
 10
1.9132984567
 20
16.0969267491
 30
0.0
 11
1.7459718285
 21
16.32599378
 31
0.0
 11
1.8000579035
 21
16.2889337144
 31
0.0
 11
1.9132984567
 21
16.0969267491
 31
0.0
  0
SPLINE
  5
440
100
AcDbEntity
  8
SUPERFICI
100
AcDbSpline
 62
253
  6
CONTINUOUS
 70
0
 71
3
 72
9
 73
5
 74
3
 42
0.0000001
 43
0.0000001
 44
0.0000000001
 12
0.0181801387
 22
-0.0743209531
 32
0.0
 13
-0.0003604595
 23
-0.0765113821
 33
0.0
 40
0.0
 40
0.0
 40
0.0
 40
0.0
 40
0.2595485951
 40
1.0
 40
1.0
 40
1.0
 40
1.0
 10
1.9132984567
 20
16.0969267491
 30
0.0
 10
1.9148713332
 20
16.0904967828
 30
0.0
 10
1.9202468266
 20
16.065566821
 30
0.0
 10
1.9228344997
 20
16.0399885613
 30
0.0
 10
1.9227455322
 20
16.0211042412
 30
0.0
 11
1.9132984567
 21
16.0969267491
 31
0.0
 11
1.9174739339
 21
16.0775120368
 31
0.0
 11
1.9227455322
 21
16.0211042412
 31
0.0
  0
SPLINE
  5
441
100
AcDbEntity
  8
SUPERFICI
100
AcDbSpline
 62
7
  6
CONTINUOUS
 70
0
 71
3
 72
9
 73
5
 74
3
 42
0.0000001
 43
0.0000001
 44
0.0000000001
 12
0.3253369229
 22
-0.1626684614
 32
0.0
 13
-0.0
 23
-0.3637377376
 33
0.0
 40
0.0
 40
0.0
 40
0.0
 40
0.0
 40
0.4877708668
 40
1.0
 40
1.0
 40
1.0
 40
1.0
 10
1.2177046567
 20
16.06255496
 30
0.0
 10
1.270601281
 20
16.0361066478
 30
0.0
 10
1.3559095235
 20
15.9400652162
 30
0.0
 10
1.3944783604
 20
15.8197711098
 30
0.0
 10
1.3944783604
 20
15.7576654212
 30
0.0
 11
1.2177046567
 21
16.06255496
 31
0.0
 11
1.3427027729
 21
15.9366440166
 31
0.0
 11
1.3944783604
 21
15.7576654212
 31
0.0
  0
SPLINE
  5
442
100
AcDbEntity
  8
SUPERFICI
100
AcDbSpline
 62
253
  6
CONTINUOUS
 70
0
 71
3
 72
9
 73
5
 74
3
 42
0.0000001
 43
0.0000001
 44
0.0000000001
 12
0.3243580574
 22
-0.1640905911
 32
0.0
 13
0.0017407997
 23
-0.363498062
 33
0.0
 40
0.0
 40
0.0
 40
0.0
 40
0.0
 40
0.4876772908
 40
1.0
 40
1.0
 40
1.0
 40
1.0
 10
-0.3835761341
 20
15.2598329565
 30
0.0
 10
-0.3308487812
 20
15.2331585382
 30
0.0
 10
-0.2459749086
 20
15.1370059183
 30
0.0
 10
-0.2070997142
 20
15.0170195216
 30
0.0
 10
-0.2068024304
 20
14.9549434177
 30
0.0
 11
-0.3835761341
 21
15.2598329565
 31
0.0
 11
-0.2590064867
 21
15.1337072732
 31
0.0
 11
-0.2068024304
 21
14.9549434177
 31
0.0
  0
SPLINE
  5
443
100
AcDbEntity
  8
RACCORDO
100
AcDbSpline
 62
253
  6
CONTINUOUS
 70
0
 71
3
 72
9
 73
5
 74
3
 42
0.0000001
 43
0.0000001
 44
0.0000000001
 12
-0.0574400747
 22
0.0041750204
 32
0.0
 13
-0.0515142723
 23
0.0257501985
 33
0.0
 40
0.0
 40
0.0
 40
0.0
 40
0.0
 40
0.2698368638
 40
1.0
 40
1.0
 40
1.0
 40
1.0
 10
-14.7398967485
 20
-5.9864743865
 30
0.0
 10
-14.7450632317
 20
-5.9860988616
 30
0.0
 10
-14.764114594
 20
-5.98390804
 30
0.0
 10
-14.7830418278
 20
-5.9787742423
 30
0.0
 10
-14.7955797687
 20
-5.9725069604
 30
0.0
 11
-14.7398967485
 21
-5.9864743865
 31
0.0
 11
-14.7553357134
 21
-5.984702249
 31
0.0
 11
-14.7955797687
 21
-5.9725069604
 31
0.0
  0
SPLINE
  5
444
100
AcDbEntity
  8
RACCORDO
100
AcDbSpline
 62
253
  6
CONTINUOUS
 70
0
 71
3
 72
9
 73
5
 74
3
 42
0.0000001
 43
0.0000001
 44
0.0000000001
 12
-0.1275981759
 22
-0.0665268819
 32
0.0
 13
0.0010039678
 23
-0.1438961867
 33
0.0
 40
0.0
 40
0.0
 40
0.0
 40
0.0
 40
0.2343702802
 40
1.0
 40
1.0
 40
1.0
 40
1.0
 10
-14.0137002594
 20
-7.0672853684
 30
0.0
 10
-14.0236686661
 20
-7.0724826764
 30
0.0
 10
-14.0613715812
 20
-7.1028497918
 30
0.0
 10
-14.083430525
 20
-7.1526254342
 30
0.0
 10
-14.0831743025
 20
-7.1893491666
 30
0.0
 11
-14.0137002594
 21
-7.0672853684
 31
0.0
 11
-14.0404822373
 21
-7.0877830744
 31
0.0
 11
-14.0831743025
 21
-7.1893491666
 31
0.0
  0
SPLINE
  5
445
100
AcDbEntity
  8
RACCORDO
100
AcDbSpline
 62
253
  6
CONTINUOUS
 70
0
 71
3
 72
9
 73
5
 74
3
 42
0.0000001
 43
0.0000001
 44
0.0000000001
 12
-0.0557961959
 22
-0.0290909089
 32
0.0
 13
-0.0340190322
 23
-0.0529358282
 33
0.0
 40
0.0
 40
0.0
 40
0.0
 40
0.0
 40
0.2275988775
 40
1.0
 40
1.0
 40
1.0
 40
1.0
 10
-9.4078425486
 20
-9.3702142238
 30
0.0
 10
-9.4120755991
 20
-9.3724212432
 30
0.0
 10
-9.4297910798
 20
-9.383785566
 30
0.0
 10
-9.4440335168
 20
-9.4000559131
 30
0.0
 10
-9.4527922964
 20
-9.4136851441
 30
0.0
 11
-9.4078425486
 21
-9.3702142238
 31
0.0
 11
-9.4199597382
 21
-9.3778483956
 31
0.0
 11
-9.4527922964
 21
-9.4136851441
 31
0.0
  0
SPLINE
  5
446
100
AcDbEntity
  8
RACCORDO
100
AcDbSpline
 62
253
  6
CONTINUOUS
 70
0
 71
3
 72
9
 73
5
 74
3
 42
0.0000001
 43
0.0000001
 44
0.0000000001
 12
-0.0448299081
 22
-0.0697582547
 32
0.0
 13
0.0005785301
 23
-0.0829192382
 33
0.0
 40
0.0
 40
0.0
 40
0.0
 40
0.0
 40
0.2606270026
 40
1.0
 40
1.0
 40
1.0
 40
1.0
 10
-9.4527922964
 20
-9.4136851441
 30
0.0
 10
-9.4566869246
 20
-9.419745439
 30
0.0
 10
-9.4700072155
 20
-9.4439383146
 30
0.0
 10
-9.4774591749
 20
-9.4718419401
 30
0.0
 10
-9.4773165917
 20
-9.492278022
 30
0.0
 11
-9.4527922964
 21
-9.4136851441
 31
0.0
 11
-9.4632315647
 21
-9.4326081303
 31
0.0
 11
-9.4773165917
 21
-9.492278022
 31
0.0
  0
SPLINE
  5
447
100
AcDbEntity
  8
SUPERFICI
100
AcDbSpline
 62
253
  6
CONTINUOUS
 70
0
 71
3
 72
9
 73
5
 74
3
 42
0.0000001
 43
0.0000001
 44
0.0000000001
 12
0.2586135608
 22
-0.127821622
 32
0.0
 13
0.0685454232
 23
-0.2802157487
 33
0.0
 40
0.0
 40
0.0
 40
0.0
 40
0.0
 40
0.2272788683
 40
1.0
 40
1.0
 40
1.0
 40
1.0
 10
-10.5576861642
 20
22.4778227763
 30
0.0
 10
-10.5380936984
 20
22.4681390585
 30
0.0
 10
-10.4590201211
 20
22.411847333
 30
0.0
 10
-10.4080150349
 20
22.3209319556
 30
0.0
 10
-10.390359536
 20
22.2487557455
 30
0.0
 11
-10.5576861642
 21
22.4778227763
 31
0.0
 11
-10.5036000892
 21
22.4407627107
 31
0.0
 11
-10.390359536
 21
22.2487557455
 31
0.0
  0
SPLINE
  5
448
100
AcDbEntity
  8
SUPERFICI
100
AcDbSpline
 62
253
  6
CONTINUOUS
 70
0
 71
3
 72
9
 73
5
 74
3
 42
0.0000001
 43
0.0000001
 44
0.0000000001
 12
0.0181801387
 22
-0.0743209531
 32
0.0
 13
-0.0003604595
 23
-0.0765113821
 33
0.0
 40
0.0
 40
0.0
 40
0.0
 40
0.0
 40
0.2595485951
 40
1.0
 40
1.0
 40
1.0
 40
1.0
 10
-10.390359536
 20
22.2487557455
 30
0.0
 10
-10.3887866595
 20
22.2423257791
 30
0.0
 10
-10.383411166
 20
22.2173958173
 30
0.0
 10
-10.3808234929
 20
22.1918175576
 30
0.0
 10
-10.3809124605
 20
22.1729332375
 30
0.0
 11
-10.390359536
 21
22.2487557455
 31
0.0
 11
-10.3861840588
 21
22.2293410331
 31
0.0
 11
-10.3809124605
 21
22.1729332375
 31
0.0
  0
SPLINE
  5
449
100
AcDbEntity
  8
SUPERFICI
100
AcDbSpline
 62
7
  6
CONTINUOUS
 70
0
 71
3
 72
9
 73
5
 74
3
 42
0.0000001
 43
0.0000001
 44
0.0000000001
 12
0.3253369229
 22
-0.1626684614
 32
0.0
 13
-0.0
 23
-0.3637377376
 33
0.0
 40
0.0
 40
0.0
 40
0.0
 40
0.0
 40
0.4877708668
 40
1.0
 40
1.0
 40
1.0
 40
1.0
 10
-11.0859533359
 20
22.2143839563
 30
0.0
 10
-11.0330567116
 20
22.1879356441
 30
0.0
 10
-10.9477484691
 20
22.0918942125
 30
0.0
 10
-10.9091796322
 20
21.9716001062
 30
0.0
 10
-10.9091796322
 20
21.9094944175
 30
0.0
 11
-11.0859533359
 21
22.2143839563
 31
0.0
 11
-10.9609552198
 21
22.0884730129
 31
0.0
 11
-10.9091796322
 21
21.9094944175
 31
0.0
  0
SPLINE
  5
44A
100
AcDbEntity
  8
SUPERFICI
100
AcDbSpline
 62
253
  6
CONTINUOUS
 70
0
 71
3
 72
9
 73
5
 74
3
 42
0.0000001
 43
0.0000001
 44
0.0000000001
 12
0.3243580573
 22
-0.164090591
 32
0.0
 13
0.0017407997
 23
-0.3634980619
 33
0.0
 40
0.0
 40
0.0
 40
0.0
 40
0.0
 40
0.4876774139
 40
1.0
 40
1.0
 40
1.0
 40
1.0
 10
-12.6872341267
 20
21.4116619528
 30
0.0
 10
-12.6345067606
 20
21.3849875278
 30
0.0
 10
-12.5496328925
 20
21.2888348986
 30
0.0
 10
-12.5107577067
 20
21.168848503
 30
0.0
 10
-12.5104604231
 20
21.106772414
 30
0.0
 11
-12.6872341267
 21
21.4116619528
 31
0.0
 11
-12.5626644562
 21
21.2855362297
 31
0.0
 11
-12.5104604231
 21
21.106772414
 31
0.0
  0
SPLINE
  5
44B
100
AcDbEntity
  8
RACCORDO
100
AcDbSpline
 62
7
  6
CONTINUOUS
 70
0
 71
3
 72
9
 73
5
 74
3
 42
0.0000001
 43
0.0000001
 44
0.0000000001
 12
-0.1387893568
 22
-0.0823968909
 32
0.0
 13
-0.161272067
 23
0.0065615231
 33
0.0
 40
0.0
 40
0.0
 40
0.0
 40
0.0
 40
0.2447198957
 40
1.0
 40
1.0
 40
1.0
 40
1.0
 10
-8.8118590109
 20
-9.0640573983
 30
0.0
 10
-8.8231805165
 20
-9.0707787845
 30
0.0
 10
-8.8714600858
 20
-9.0948688643
 30
0.0
 10
-8.9269341916
 20
-9.1030240299
 30
0.0
 10
-8.9675360528
 20
-9.1013721006
 30
0.0
 11
-8.8118590109
 21
-9.0640573983
 31
0.0
 11
-8.847241324
 21
-9.0816151208
 31
0.0
 11
-8.9675360528
 21
-9.1013721006
 31
0.0
  0
SPLINE
  5
44C
100
AcDbEntity
  8
RACCORDO
100
AcDbSpline
 62
7
  6
CONTINUOUS
 70
0
 71
3
 72
8
 73
4
 74
2
 42
0.0000001
 43
0.0000001
 44
0.0000000001
 12
-0.0850811889
 22
0.0034616173
 32
0.0
 13
-0.0821744092
 23
0.0223194527
 33
0.0
 40
0.0
 40
0.0
 40
0.0
 40
0.0
 40
1.0
 40
1.0
 40
1.0
 40
1.0
 10
-8.9675360528
 20
-9.1013721006
 30
0.0
 10
-8.9958964491
 20
-9.1002182281
 30
0.0
 10
-9.0242454051
 20
-9.095476131
 30
0.0
 10
-9.0516368749
 20
-9.0880363134
 30
0.0
 11
-8.9675360528
 21
-9.1013721006
 31
0.0
 11
-9.0516368749
 21
-9.0880363134
 31
0.0
  0
SPLINE
  5
44D
100
AcDbEntity
  8
RACCORDO
100
AcDbSpline
 62
7
  6
CONTINUOUS
 70
0
 71
3
 72
8
 73
4
 74
2
 42
0.0000001
 43
0.0000001
 44
0.0000000001
 12
-0.0936822931
 22
0.0230622709
 32
0.0
 13
-0.0963915979
 23
-0.0041109905
 33
0.0
 40
0.0
 40
0.0
 40
0.0
 40
0.0
 40
1.0
 40
1.0
 40
1.0
 40
1.0
 10
-14.2909290258
 20
-0.2500748777
 30
0.0
 10
-14.3221564568
 20
-0.2423874541
 30
0.0
 10
-14.3548679715
 20
-0.2398222213
 30
0.0
 10
-14.3869985041
 20
-0.2411925514
 30
0.0
 11
-14.2909290258
 21
-0.2500748777
 31
0.0
 11
-14.3869985041
 21
-0.2411925514
 31
0.0
  0
SPLINE
  5
44E
100
AcDbEntity
  8
RACCORDO
100
AcDbSpline
 62
7
  6
CONTINUOUS
 70
0
 71
3
 72
9
 73
5
 74
3
 42
0.0000001
 43
0.0000001
 44
0.0000000001
 12
-0.0982414731
 22
-0.0041898855
 32
0.0
 13
-0.0932158868
 23
-0.0313008087
 33
0.0
 40
0.0
 40
0.0
 40
0.0
 40
0.0
 40
0.260809074
 40
1.0
 40
1.0
 40
1.0
 40
1.0
 10
-14.3869985041
 20
-0.2411925514
 30
0.0
 10
-14.39553926
 20
-0.2415568048
 30
0.0
 10
-14.42821741
 20
-0.2440464464
 30
0.0
 10
-14.4606892883
 20
-0.2505780615
 30
0.0
 10
-14.4836574008
 20
-0.2582904861
 30
0.0
 11
-14.3869985041
 21
-0.2411925514
 31
0.0
 11
-14.4125707452
 21
-0.2431303877
 31
0.0
 11
-14.4836574008
 21
-0.2582904861
 31
0.0
  0
SPLINE
  5
44F
100
AcDbEntity
  8
RACCORDO
100
AcDbSpline
 62
7
  6
CONTINUOUS
 70
0
 71
3
 72
8
 73
4
 74
2
 42
0.0000001
 43
0.0000001
 44
0.0000000001
 12
-0.0274236484
 22
-0.0092085416
 32
0.0
 13
-0.0260506678
 23
-0.0125784114
 33
0.0
 40
0.0
 40
0.0
 40
0.0
 40
0.0
 40
1.0
 40
1.0
 40
1.0
 40
1.0
 10
-14.4836574008
 20
-0.2582904861
 30
0.0
 10
-14.4927986169
 20
-0.26136
 30
0.0
 10
-14.5018040017
 20
-0.2649141704
 30
0.0
 10
-14.5104875576
 20
-0.2691069742
 30
0.0
 11
-14.4836574008
 21
-0.2582904861
 31
0.0
 11
-14.5104875576
 21
-0.2691069742
 31
0.0
  0
SPLINE
  5
450
100
AcDbEntity
  8
SUPERFICI
100
AcDbSpline
 62
253
  6
CONTINUOUS
 70
0
 71
3
 72
9
 73
5
 74
3
 42
0.0000001
 43
0.0000001
 44
0.0000000001
 12
0.0
 22
-0.1559056499
 32
0.0
 13
0.1394366707
 23
-0.0697422865
 33
0.0
 40
0.0
 40
0.0
 40
0.0
 40
0.0
 40
0.5515134987
 40
1.0
 40
1.0
 40
1.0
 40
1.0
 10
-12.8629823827
 20
20.7673112037
 30
0.0
 10
-12.8629823827
 20
20.7386498469
 30
0.0
 10
-12.8556132729
 20
20.6853356255
 30
0.0
 10
-12.8188651249
 20
20.6425242992
 30
0.0
 10
-12.79801997
 20
20.6320981412
 30
0.0
 11
-12.8629823827
 21
20.7673112037
 31
0.0
 11
-12.8459179176
 21
20.6830374569
 31
0.0
 11
-12.79801997
 21
20.6320981412
 31
0.0
  0
SPLINE
  5
451
100
AcDbEntity
  8
RACCORDO
100
AcDbSpline
 62
7
  6
CONTINUOUS
 70
0
 71
3
 72
9
 73
5
 74
3
 42
0.0000001
 43
0.0000001
 44
0.0000000001
 12
0.0267892033
 22
0.1731812364
 32
0.0
 13
0.0897667866
 23
0.150503575
 33
0.0
 40
0.0
 40
0.0
 40
0.0
 40
0.0
 40
0.2663028643
 40
1.0
 40
1.0
 40
1.0
 40
1.0
 10
-14.2252244828
 20
-0.1716769994
 30
0.0
 10
-14.222846469
 20
-0.156304113
 30
0.0
 10
-14.2116425733
 20
-0.0990097129
 30
0.0
 10
-14.190785534
 20
-0.0431674795
 30
0.0
 10
-14.1688316559
 20
-0.0063594656
 30
0.0
 11
-14.2252244828
 21
-0.1716769994
 31
0.0
 11
-14.2161946359
 21
-0.1258917709
 31
0.0
 11
-14.1688316559
 21
-0.0063594656
 31
0.0
  0
SPLINE
  5
452
100
AcDbEntity
  8
RACCORDO
100
AcDbSpline
 62
7
  6
CONTINUOUS
 70
0
 71
3
 72
8
 73
4
 74
2
 42
0.0000001
 43
0.0000001
 44
0.0000000001
 12
0.0404982158
 22
0.0678995705
 32
0.0
 13
0.0561317277
 23
0.0556748265
 33
0.0
 40
0.0
 40
0.0
 40
0.0
 40
0.0
 40
1.0
 40
1.0
 40
1.0
 40
1.0
 10
-14.1688316559
 20
-0.0063594656
 30
0.0
 10
-14.1553322507
 20
0.0162737246
 30
0.0
 10
-14.1390855193
 20
0.0375514847
 30
0.0
 10
-14.1203749434
 20
0.0561097602
 30
0.0
 11
-14.1688316559
 21
-0.0063594656
 31
0.0
 11
-14.1203749434
 21
0.0561097602
 31
0.0
  0
SPLINE
  5
453
100
AcDbEntity
  8
RACCORDO
100
AcDbSpline
 62
7
  6
CONTINUOUS
 70
0
 71
3
 72
8
 73
4
 74
2
 42
0.0000001
 43
0.0000001
 44
0.0000000001
 12
0.0791127894
 22
0.078468827
 32
0.0
 13
0.1040641383
 23
0.0398352277
 33
0.0
 40
0.0
 40
0.0
 40
0.0
 40
0.0
 40
1.0
 40
1.0
 40
1.0
 40
1.0
 10
-14.1203749434
 20
0.0561097602
 30
0.0
 10
-14.0940040136
 20
0.0822660359
 30
0.0
 10
-14.0616521705
 20
0.1035817349
 30
0.0
 10
-14.0269641244
 20
0.1168601442
 30
0.0
 11
-14.1203749434
 21
0.0561097602
 31
0.0
 11
-14.0269641244
 21
0.1168601442
 31
0.0
  0
SPLINE
  5
454
100
AcDbEntity
  8
SUPERFICI
100
AcDbSpline
 62
253
  6
CONTINUOUS
 70
0
 71
3
 72
9
 73
5
 74
3
 42
0.0000001
 43
0.0000001
 44
0.0000000001
 12
0.0
 22
-0.1559171594
 32
0.0
 13
0.1394560162
 23
-0.069729335
 33
0.0
 40
0.0
 40
0.0
 40
0.0
 40
0.0
 40
0.551515935
 40
1.0
 40
1.0
 40
1.0
 40
1.0
 10
-14.5415204531
 20
21.6065802389
 30
0.0
 10
-14.5415204531
 20
21.5779166396
 30
0.0
 10
-14.5341504688
 20
21.5245979613
 30
0.0
 10
-14.497395113
 20
21.4817859088
 30
0.0
 10
-14.4765471793
 20
21.4713617436
 30
0.0
 11
-14.5415204531
 21
21.6065802389
 31
0.0
 11
-14.5244529822
 21
21.5223002367
 31
0.0
 11
-14.4765471793
 21
21.4713617436
 31
0.0
  0
SPLINE
  5
455
100
AcDbEntity
  8
RACCORDO
100
AcDbSpline
 62
253
  6
CONTINUOUS
 70
0
 71
3
 72
9
 73
5
 74
3
 42
0.0000001
 43
0.0000001
 44
0.0000000001
 12
-0.0680740276
 22
-0.171869711
 32
0.0
 13
-0.1639184672
 23
-0.0854634828
 33
0.0
 40
0.0
 40
0.0
 40
0.0
 40
0.0
 40
0.2684718732
 40
1.0
 40
1.0
 40
1.0
 40
1.0
 10
-13.7566129604
 20
-0.0201218973
 30
0.0
 10
-13.7627049477
 20
-0.0355026251
 30
0.0
 10
-13.7902105198
 20
-0.090464155
 30
0.0
 10
-13.8342180577
 20
-0.1394640073
 30
0.0
 10
-13.8741883808
 20
-0.1603036545
 30
0.0
 11
-13.7566129604
 21
-0.0201218973
 31
0.0
 11
-13.7786633072
 21
-0.0645841742
 31
0.0
 11
-13.8741883808
 21
-0.1603036545
 31
0.0
  0
SPLINE
  5
456
100
AcDbEntity
  8
SUPERFICI
100
AcDbSpline
 62
253
  6
CONTINUOUS
 70
0
 71
3
 72
10
 73
6
 74
4
 42
0.0000001
 43
0.0000001
 44
0.0000000001
 12
-0.1060286631
 22
-0.2760283901
 32
0.0
 13
-0.2894501595
 23
0.0604347146
 33
0.0
 40
0.0
 40
0.0
 40
0.0
 40
0.0
 40
0.5347042561
 40
0.774755433
 40
1.0
 40
1.0
 40
1.0
 40
1.0
 10
-12.5104604231
 20
20.7667984799
 30
0.0
 10
-12.5293584156
 20
20.7176006282
 30
0.0
 10
-12.5768002663
 20
20.649932104
 30
0.0
 10
-12.6679813984
 20
20.6074231769
 30
0.0
 10
-12.7155715612
 20
20.6064397731
 30
0.0
 10
-12.7373039198
 20
20.6109773035
 30
0.0
 11
-12.5104604231
 21
20.7667984799
 31
0.0
 11
-12.6058944223
 21
20.6407412851
 31
0.0
 11
-12.6707059455
 21
20.6117965366
 31
0.0
 11
-12.7373039198
 21
20.6109773035
 31
0.0
  0
SPLINE
  5
457
100
AcDbEntity
  8
RACCORDO
100
AcDbSpline
 62
7
  6
CONTINUOUS
 70
0
 71
3
 72
9
 73
5
 74
3
 42
0.0000001
 43
0.0000001
 44
0.0000000001
 12
0.0052900119
 22
-0.1318985122
 32
0.0
 13
-0.0593359455
 23
-0.1179171206
 33
0.0
 40
0.0
 40
0.0
 40
0.0
 40
0.0
 40
0.2362496106
 40
1.0
 40
1.0
 40
1.0
 40
1.0
 10
-9.1413372922
 20
-9.0502041308
 30
0.0
 10
-9.1409207045
 20
-9.0605911215
 30
0.0
 10
-9.1425879373
 20
-9.1046622783
 30
0.0
 10
-9.1559905021
 20
-9.1479909386
 30
0.0
 10
-9.1710964525
 20
-9.1780106876
 30
0.0
 11
-9.1413372922
 21
-9.0502041308
 31
0.0
 11
-9.1423634651
 21
-9.0813732672
 31
0.0
 11
-9.1710964525
 21
-9.1780106876
 31
0.0
  0
SPLINE
  5
458
100
AcDbEntity
  8
RACCORDO
100
AcDbSpline
 62
7
  6
CONTINUOUS
 70
0
 71
3
 72
9
 73
5
 74
3
 42
0.0000001
 43
0.0000001
 44
0.0000000001
 12
-0.0451576587
 22
-0.0897408988
 32
0.0
 13
-0.0723816696
 23
-0.0696673307
 33
0.0
 40
0.0
 40
0.0
 40
0.0
 40
0.0
 40
0.7583209
 40
1.0
 40
1.0
 40
1.0
 40
1.0
 10
-9.1710964525
 20
-9.1780106876
 30
0.0
 10
-9.182511118
 20
-9.2006948206
 30
0.0
 10
-9.2013255104
 20
-9.2289780603
 30
0.0
 10
-9.2243698068
 20
-9.2533062795
 30
0.0
 10
-9.2302008524
 20
-9.2589186588
 30
0.0
 11
-9.1710964525
 21
-9.1780106876
 31
0.0
 11
-9.2134782207
 21
-9.2413160273
 31
0.0
 11
-9.2302008524
 21
-9.2589186588
 31
0.0
  0
SPLINE
  5
459
100
AcDbEntity
  8
RACCORDO
100
AcDbSpline
 62
7
  6
CONTINUOUS
 70
0
 71
3
 72
8
 73
4
 74
2
 42
0.0000001
 43
0.0000001
 44
0.0000000001
 12
-0.0221376648
 22
-0.0213074943
 32
0.0
 13
-0.0247007494
 23
-0.0182745312
 33
0.0
 40
0.0
 40
0.0
 40
0.0
 40
0.0
 40
1.0
 40
1.0
 40
1.0
 40
1.0
 10
-9.2302008524
 20
-9.2589186588
 30
0.0
 10
-9.2375800739
 20
-9.2660211569
 30
0.0
 10
-9.2453907095
 20
-9.2727125188
 30
0.0
 10
-9.2536242927
 20
-9.2788040292
 30
0.0
 11
-9.2302008524
 21
-9.2589186588
 31
0.0
 11
-9.2536242927
 21
-9.2788040292
 31
0.0
  0
SPLINE
  5
45A
100
AcDbEntity
  8
RACCORDO
100
AcDbSpline
 62
7
  6
CONTINUOUS
 70
0
 71
3
 72
8
 73
4
 74
2
 42
0.0000001
 43
0.0000001
 44
0.0000000001
 12
-0.0230205478
 22
-0.0170314557
 32
0.0
 13
-0.0253919352
 23
-0.0132387964
 33
0.0
 40
0.0
 40
0.0
 40
0.0
 40
0.0
 40
1.0
 40
1.0
 40
1.0
 40
1.0
 10
-9.2536242927
 20
-9.2788040292
 30
0.0
 10
-9.2612978086
 20
-9.2844811812
 30
0.0
 10
-9.2693795506
 20
-9.2896699943
 30
0.0
 10
-9.277843529
 20
-9.2940829264
 30
0.0
 11
-9.2536242927
 21
-9.2788040292
 31
0.0
 11
-9.277843529
 21
-9.2940829264
 31
0.0
  0
SPLINE
  5
45B
100
AcDbEntity
  8
RACCORDO
100
AcDbSpline
 62
253
  6
CONTINUOUS
 70
0
 71
3
 72
8
 73
4
 74
2
 42
0.0000001
 43
0.0000001
 44
0.0000000001
 12
-0.0019934823
 22
0.0497044105
 32
0.0
 13
-0.0149824552
 23
0.0474344646
 33
0.0
 40
0.0
 40
0.0
 40
0.0
 40
0.0
 40
1.0
 40
1.0
 40
1.0
 40
1.0
 10
-9.1413372922
 20
-9.0502041308
 30
0.0
 10
-9.1420017863
 20
-9.0336359939
 30
0.0
 10
-9.1445403974
 20
-9.0169513002
 30
0.0
 10
-9.1495345491
 20
-9.001139812
 30
0.0
 11
-9.1413372922
 21
-9.0502041308
 31
0.0
 11
-9.1495345491
 21
-9.001139812
 31
0.0
  0
SPLINE
  5
45C
100
AcDbEntity
  8
RACCORDO
100
AcDbSpline
 62
253
  6
CONTINUOUS
 70
0
 71
3
 72
9
 73
5
 74
3
 42
0.0000001
 43
0.0000001
 44
0.0000000001
 12
-0.126428667
 22
-0.0055504643
 32
0.0
 13
-0.1139613846
 23
-0.0550256149
 33
0.0
 40
0.0
 40
0.0
 40
0.0
 40
0.0
 40
0.2689585532
 40
1.0
 40
1.0
 40
1.0
 40
1.0
 10
-8.8062353086
 20
-8.6611880728
 30
0.0
 10
-8.817569999
 20
-8.6616856878
 30
0.0
 10
-8.859534523
 20
-8.665432763
 30
0.0
 10
-8.9014677741
 20
-8.6756728994
 30
0.0
 10
-8.9292379393
 20
-8.6890815677
 30
0.0
 11
-8.8062353086
 21
-8.6611880728
 31
0.0
 11
-8.8401411721
 21
-8.6641710033
 31
0.0
 11
-8.9292379393
 21
-8.6890815677
 31
0.0
  0
SPLINE
  5
45D
100
AcDbEntity
  8
SUPERFICI
100
AcDbSpline
 62
253
  6
CONTINUOUS
 70
0
 71
3
 72
9
 73
5
 74
3
 42
0.0000001
 43
0.0000001
 44
0.0000000001
 12
0.0393562175
 22
-0.0640701271
 32
0.0
 13
-0.0477295784
 23
-0.0581014663
 33
0.0
 40
0.0
 40
0.0
 40
0.0
 40
0.0
 40
0.6274002223
 40
1.0
 40
1.0
 40
1.0
 40
1.0
 10
-10.3809124605
 20
21.8254017208
 30
0.0
 10
-10.3726817606
 20
21.8120025168
 30
0.0
 10
-10.3601803988
 20
21.7907899382
 30
0.0
 10
-10.3596239525
 20
21.7617828132
 30
0.0
 10
-10.3655519626
 20
21.7545666154
 30
0.0
 11
-10.3809124605
 21
21.8254017208
 31
0.0
 11
-10.3616969358
 21
21.7823167884
 31
0.0
 11
-10.3655519626
 21
21.7545666154
 31
0.0
  0
SPLINE
  5
45E
100
AcDbEntity
  8
RACCORDO
100
AcDbSpline
 62
253
  6
CONTINUOUS
 70
0
 71
3
 72
9
 73
5
 74
3
 42
0.0000001
 43
0.0000001
 44
0.0000000001
 12
-0.0690961694
 22
-0.0083447745
 32
0.0
 13
-0.06561992
 23
-0.0231935762
 33
0.0
 40
0.0
 40
0.0
 40
0.0
 40
0.0
 40
0.260757921
 40
1.0
 40
1.0
 40
1.0
 40
1.0
 10
-8.8380908026
 20
-3.0405593794
 30
0.0
 10
-8.8440965938
 20
-3.0412847014
 30
0.0
 10
-8.8670478416
 20
-3.0446668818
 30
0.0
 10
-8.8896940038
 20
-3.0503433767
 30
0.0
 10
-8.9058636725
 20
-3.0560585991
 30
0.0
 11
-8.8380908026
 21
-3.0405593794
 31
0.0
 11
-8.8560452889
 21
-3.0432045633
 31
0.0
 11
-8.9058636725
 21
-3.0560585991
 31
0.0
  0
SPLINE
  5
45F
100
AcDbEntity
  8
RACCORDO
100
AcDbSpline
 62
253
  6
CONTINUOUS
 70
0
 71
3
 72
8
 73
4
 74
2
 42
0.0000001
 43
0.0000001
 44
0.0000000001
 12
-0.0238485599
 22
-0.0084293518
 32
0.0
 13
-0.0227781681
 23
-0.0109983106
 33
0.0
 40
0.0
 40
0.0
 40
0.0
 40
0.0
 40
1.0
 40
1.0
 40
1.0
 40
1.0
 10
-8.9058636725
 20
-3.0560585991
 30
0.0
 10
-8.9138131925
 20
-3.0588683831
 30
0.0
 10
-8.9216452166
 20
-3.0620595237
 30
0.0
 10
-8.9292379393
 20
-3.0657256272
 30
0.0
 11
-8.9058636725
 21
-3.0560585991
 31
0.0
 11
-8.9292379393
 21
-3.0657256272
 31
0.0
  0
SPLINE
  5
460
100
AcDbEntity
  8
RACCORDO
100
AcDbSpline
 62
253
  6
CONTINUOUS
 70
0
 71
3
 72
8
 73
4
 74
2
 42
0.0000001
 43
0.0000001
 44
0.0000000001
 12
-0.0180487607
 22
-0.0281002372
 32
0.0
 13
-0.0210712519
 23
-0.0259110679
 33
0.0
 40
0.0
 40
0.0
 40
0.0
 40
0.0
 40
1.0
 40
1.0
 40
1.0
 40
1.0
 10
-9.1935230967
 20
-2.3699251141
 30
0.0
 10
-9.1995393502
 20
-2.3792918598
 30
0.0
 10
-9.2060509596
 20
-2.3883641972
 30
0.0
 10
-9.2130747102
 20
-2.3970012198
 30
0.0
 11
-9.1935230967
 21
-2.3699251141
 31
0.0
 11
-9.2130747102
 21
-2.3970012198
 31
0.0
  0
SPLINE
  5
461
100
AcDbEntity
  8
RACCORDO
100
AcDbSpline
 62
253
  6
CONTINUOUS
 70
0
 71
3
 72
9
 73
5
 74
3
 42
0.0000001
 43
0.0000001
 44
0.0000000001
 12
-0.0578154189
 22
-0.0710949332
 32
0.0
 13
-0.0812549053
 23
-0.0423645201
 33
0.0
 40
0.0
 40
0.0
 40
0.0
 40
0.0
 40
0.2680044522
 40
1.0
 40
1.0
 40
1.0
 40
1.0
 10
-9.2130747102
 20
-2.3970012198
 30
0.0
 10
-9.2182396401
 20
-2.4033524727
 30
0.0
 10
-9.2385425872
 20
-2.4261433511
 30
0.0
 10
-9.2629114057
 20
-2.4456922239
 30
0.0
 10
-9.282737482
 20
-2.4560291039
 30
0.0
 11
-9.2130747102
 21
-2.3970012198
 31
0.0
 11
-9.2294142374
 21
-2.4153357249
 31
0.0
 11
-9.282737482
 21
-2.4560291039
 31
0.0
  0
SPLINE
  5
462
100
AcDbEntity
  8
RACCORDO
100
AcDbSpline
 62
253
  6
CONTINUOUS
 70
0
 71
3
 72
9
 73
5
 74
3
 42
0.0000001
 43
0.0000001
 44
0.0000000001
 12
-0.6147382822
 22
-0.3205110169
 32
0.0
 13
-0.0360893181
 23
-0.6923351996
 33
0.0
 40
0.0
 40
0.0
 40
0.0
 40
0.0
 40
0.485508271
 40
1.0
 40
1.0
 40
1.0
 40
1.0
 10
-9.6469300225
 20
-2.639529568
 30
0.0
 10
-9.7464168627
 20
-2.6913998179
 30
0.0
 10
-9.9094465023
 20
-2.8723430168
 30
0.0
 10
-9.9873666858
 20
-3.0987321897
 30
0.0
 10
-9.9935559044
 20
-3.2174657677
 30
0.0
 11
-9.6469300225
 21
-2.639529568
 31
0.0
 11
-9.8846594849
 21
-2.8778111041
 31
0.0
 11
-9.9935559044
 21
-3.2174657677
 31
0.0
  0
SPLINE
  5
463
100
AcDbEntity
  8
RACCORDO
100
AcDbSpline
 62
253
  6
CONTINUOUS
 70
0
 71
3
 72
11
 73
7
 74
5
 42
0.0000001
 43
0.0000001
 44
0.0000000001
 12
-0.6846038825
 22
-0.2125173961
 32
0.0
 13
-0.6135041376
 23
0.3707543563
 33
0.0
 40
0.0
 40
0.0
 40
0.0
 40
0.0
 40
0.2321844929
 40
0.4970774098
 40
0.7630215662
 40
1.0
 40
1.0
 40
1.0
 40
1.0
 10
-9.2934304798
 20
-3.249226092
 30
0.0
 10
-9.3464152816
 20
-3.26567384
 30
0.0
 10
-9.4615119271
 20
-3.2971823978
 30
0.0
 10
-9.6454430477
 20
-3.3047146092
 30
0.0
 10
-9.8270485103
 20
-3.2808515966
 30
0.0
 10
-9.9450934878
 20
-3.2467526966
 30
0.0
 10
-9.9935559044
 20
-3.2174657677
 30
0.0
 11
-9.2934304798
 21
-3.249226092
 31
0.0
 11
-9.4549697379
 21
-3.289305099
 31
0.0
 11
-9.6445903182
 21
-3.2992912036
 31
0.0
 11
-9.8336458119
 21
-3.274787077
 31
0.0
 11
-9.9935559044
 21
-3.2174657677
 31
0.0
  0
SPLINE
  5
464
100
AcDbEntity
  8
RACCORDO
100
AcDbSpline
 62
253
  6
CONTINUOUS
 70
0
 71
3
 72
9
 73
5
 74
3
 42
0.0000001
 43
0.0000001
 44
0.0000000001
 12
-0.2688374206
 22
-0.1761602384
 32
0.0
 13
-0.3201835972
 23
-0.0280793945
 33
0.0
 40
0.0
 40
0.0
 40
0.0
 40
0.0
 40
0.4761439078
 40
1.0
 40
1.0
 40
1.0
 40
1.0
 10
-9.2934304798
 20
-8.8572777516
 30
0.0
 10
-9.3360989131
 20
-8.8852369597
 30
0.0
 10
-9.4387929601
 20
-8.9228872815
 30
0.0
 10
-9.5447619431
 20
-8.9393413195
 30
0.0
 10
-9.6006719858
 20
-8.9442445067
 30
0.0
 11
-9.2934304798
 21
-8.8572777516
 31
0.0
 11
-9.4346356735
 21
-8.9162854289
 31
0.0
 11
-9.6006719858
 21
-8.9442445067
 31
0.0
  0
SPLINE
  5
465
100
AcDbEntity
  8
RACCORDO
100
AcDbSpline
 62
253
  6
CONTINUOUS
 70
0
 71
3
 72
9
 73
5
 74
3
 42
0.0000001
 43
0.0000001
 44
0.0000000001
 12
-0.330701206
 22
-0.0290017655
 32
0.0
 13
-0.3149932639
 23
0.1048028328
 33
0.0
 40
0.0
 40
0.0
 40
0.0
 40
0.0
 40
0.5163651096
 40
1.0
 40
1.0
 40
1.0
 40
1.0
 10
-9.6006719858
 20
-8.9442445067
 30
0.0
 10
-9.6575928406
 20
-8.94923634
 30
0.0
 10
-9.7693261036
 20
-8.9499154706
 30
0.0
 10
-9.8776804955
 20
-8.9231440754
 30
0.0
 10
-9.928461073
 20
-8.9062486398
 30
0.0
 11
-9.6006719858
 21
-8.9442445067
 31
0.0
 11
-9.7720822395
 21
-8.9426184847
 31
0.0
 11
-9.928461073
 21
-8.9062486398
 31
0.0
  0
SPLINE
  5
466
100
AcDbEntity
  8
RACCORDO
100
AcDbSpline
 62
253
  6
CONTINUOUS
 70
0
 71
3
 72
9
 73
5
 74
3
 42
0.0000001
 43
0.0000001
 44
0.0000000001
 12
-0.2604030902
 22
-0.1357684427
 32
0.0
 13
-0.1653472166
 23
-0.2426996856
 33
0.0
 40
0.0
 40
0.0
 40
0.0
 40
0.0
 40
0.2283596026
 40
1.0
 40
1.0
 40
1.0
 40
1.0
 10
-14.225885029
 20
-0.3500520648
 30
0.0
 10
-14.2457068777
 20
-0.3603867406
 30
0.0
 10
-14.3286769095
 20
-0.4128956694
 30
0.0
 10
-14.3964061793
 20
-0.4873269149
 30
0.0
 10
-14.4389357099
 20
-0.5497525422
 30
0.0
 11
-14.225885029
 21
-0.3500520648
 31
0.0
 11
-14.2828061078
 21
-0.3855117842
 31
0.0
 11
-14.4389357099
 21
-0.5497525422
 31
0.0
  0
SPLINE
  5
467
100
AcDbEntity
  8
RACCORDO
100
AcDbSpline
 62
253
  6
CONTINUOUS
 70
0
 71
3
 72
9
 73
5
 74
3
 42
0.0000001
 43
0.0000001
 44
0.0000000001
 12
-0.1848799511
 22
-0.2713701926
 32
0.0
 13
-0.0574825854
 23
-0.3232926385
 33
0.0
 40
0.0
 40
0.0
 40
0.0
 40
0.0
 40
0.2526823862
 40
1.0
 40
1.0
 40
1.0
 40
1.0
 10
-14.4389357099
 20
-0.5497525422
 30
0.0
 10
-14.454507679
 20
-0.5726093648
 30
0.0
 10
-14.511312779
 20
-0.6662179705
 30
0.0
 10
-14.5493220204
 20
-0.7715478779
 30
0.0
 10
-14.56364127
 20
-0.8520819723
 30
0.0
 11
-14.4389357099
 21
-0.5497525422
 31
0.0
 11
-14.4820148902
 21
-0.6206642428
 31
0.0
 11
-14.56364127
 21
-0.8520819723
 31
0.0
  0
SPLINE
  5
468
100
AcDbEntity
  8
RACCORDO
100
AcDbSpline
 62
253
  6
CONTINUOUS
 70
0
 71
3
 72
8
 73
4
 74
2
 42
0.0000001
 43
0.0000001
 44
0.0000000001
 12
-0.0133784089
 22
-0.0752426335
 32
0.0
 13
-0.0039782828
 23
-0.0763191259
 33
0.0
 40
0.0
 40
0.0
 40
0.0
 40
0.0
 40
1.0
 40
1.0
 40
1.0
 40
1.0
 10
-14.56364127
 20
-0.8520819723
 30
0.0
 10
-14.5681007396
 20
-0.8771628501
 30
0.0
 10
-14.5711848166
 20
-0.9025485558
 30
0.0
 10
-14.5725109109
 20
-0.9279882644
 30
0.0
 11
-14.56364127
 21
-0.8520819723
 31
0.0
 11
-14.5725109109
 21
-0.9279882644
 31
0.0
  0
SPLINE
  5
469
100
AcDbEntity
  8
RACCORDO
100
AcDbSpline
 62
253
  6
CONTINUOUS
 70
0
 71
3
 72
9
 73
5
 74
3
 42
0.0000001
 43
0.0000001
 44
0.0000000001
 12
0.0004798614
 22
0.1493879764
 32
0.0
 13
0.0268736115
 23
0.1469517158
 33
0.0
 40
0.0
 40
0.0
 40
0.0
 40
0.0
 40
0.2582700594
 40
1.0
 40
1.0
 40
1.0
 40
1.0
 10
-14.5153815107
 20
-0.2666599976
 30
0.0
 10
-14.5153401994
 20
-0.2537991838
 30
0.0
 10
-14.5141715675
 20
-0.2040168173
 30
0.0
 10
-14.5088945664
 20
-0.154290057
 30
0.0
 10
-14.5022502456
 20
-0.1179572279
 30
0.0
 11
-14.5153815107
 21
-0.2666599976
 31
0.0
 11
-14.5144625118
 21
-0.2280883034
 31
0.0
 11
-14.5022502456
 21
-0.1179572279
 31
0.0
  0
SPLINE
  5
46A
100
AcDbEntity
  8
RACCORDO
100
AcDbSpline
 62
253
  6
CONTINUOUS
 70
0
 71
3
 72
9
 73
5
 74
3
 42
0.0000001
 43
0.0000001
 44
0.0000000001
 12
0.0354039423
 22
0.1935977252
 32
0.0
 13
0.0976548348
 23
0.1708714475
 33
0.0
 40
0.0
 40
0.0
 40
0.0
 40
0.0
 40
0.2648862535
 40
1.0
 40
1.0
 40
1.0
 40
1.0
 10
-14.5022502456
 20
-0.1179572279
 30
0.0
 10
-14.4991242397
 20
-0.1008634359
 30
0.0
 10
-14.4850457922
 20
-0.0368091467
 30
0.0
 10
-14.461194149
 20
0.0254071379
 30
0.0
 10
-14.4372650118
 20
0.0672771212
 30
0.0
 11
-14.5022502456
 21
-0.1179572279
 31
0.0
 11
-14.4909801317
 21
-0.0670581976
 31
0.0
 11
-14.4372650118
 21
0.0672771212
 31
0.0
  0
SPLINE
  5
46B
100
AcDbEntity
  8
RACCORDO
100
AcDbSpline
 62
253
  6
CONTINUOUS
 70
0
 71
3
 72
9
 73
5
 74
3
 42
0.0000001
 43
0.0000001
 44
0.0000000001
 12
0.075869376
 22
0.1327523632
 32
0.0
 13
0.1202381904
 23
0.0944570258
 33
0.0
 40
0.0
 40
0.0
 40
0.0
 40
0.0
 40
0.2603776819
 40
1.0
 40
1.0
 40
1.0
 40
1.0
 10
-14.4372650118
 20
0.0672771212
 30
0.0
 10
-14.4306801144
 20
0.0787990387
 30
0.0
 10
-14.4035564197
 20
0.1219503657
 30
0.0
 10
-14.3684264513
 20
0.1602690129
 30
0.0
 10
-14.338782835
 20
0.1835565211
 30
0.0
 11
-14.4372650118
 21
0.0672771212
 31
0.0
 11
-14.4160125073
 21
0.1009426847
 31
0.0
 11
-14.338782835
 21
0.1835565211
 31
0.0
  0
SPLINE
  5
46C
100
AcDbEntity
  8
SUPERFICI
100
AcDbSpline
 62
253
  6
CONTINUOUS
 70
0
 71
3
 72
9
 73
5
 74
3
 42
0.0000001
 43
0.0000001
 44
0.0000000001
 12
0.0
 22
-0.1559069063
 32
0.0
 13
0.1394387969
 23
-0.0697408443
 33
0.0
 40
0.0
 40
0.0
 40
0.0
 40
0.0
 40
0.5515136531
 40
1.0
 40
1.0
 40
1.0
 40
1.0
 10
-0.5593243901
 20
14.6154822074
 30
0.0
 10
-0.5593243901
 20
14.5868206116
 30
0.0
 10
-0.551955184
 20
14.5335059087
 30
0.0
 10
-0.5152062575
 20
14.4906944895
 30
0.0
 10
-0.494360792
 20
14.4802685507
 30
0.0
 11
-0.5593243901
 21
14.6154822074
 31
0.0
 11
-0.542259604
 21
14.531207794
 31
0.0
 11
-0.494360792
 21
14.4802685507
 31
0.0
  0
SPLINE
  5
46D
100
AcDbEntity
  8
RACCORDO
100
AcDbSpline
 62
253
  6
CONTINUOUS
 70
0
 71
3
 72
9
 73
5
 74
3
 42
0.0000001
 43
0.0000001
 44
0.0000000001
 12
0.1120665849
 22
-0.0562580699
 32
0.0
 13
0.1209504637
 23
-0.0330888986
 33
0.0
 40
0.0
 40
0.0
 40
0.0
 40
0.0
 40
0.2588976481
 40
1.0
 40
1.0
 40
1.0
 40
1.0
 10
-9.4078425486
 20
-9.3702142238
 30
0.0
 10
-9.3981712902
 20
-9.3750692511
 30
0.0
 10
-9.3604059822
 20
-9.3929813189
 30
0.0
 10
-9.3209535254
 20
-9.4074386545
 30
0.0
 10
-9.2910746344
 20
-9.4156127413
 30
0.0
 11
-9.4078425486
 21
-9.3702142238
 31
0.0
 11
-9.3785035052
 21
-9.3841124718
 31
0.0
 11
-9.2910746344
 21
-9.4156127413
 31
0.0
  0
SPLINE
  5
46E
100
AcDbEntity
  8
RACCORDO
100
AcDbSpline
 62
253
  6
CONTINUOUS
 70
0
 71
3
 72
9
 73
5
 74
3
 42
0.0000001
 43
0.0000001
 44
0.0000000001
 12
0.2890819084
 22
-0.0790852856
 32
0.0
 13
0.2637367588
 23
0.1423578385
 33
0.0
 40
0.0
 40
0.0
 40
0.0
 40
0.0
 40
0.5228687927
 40
1.0
 40
1.0
 40
1.0
 40
1.0
 10
-9.2910746344
 20
-9.4156127413
 30
0.0
 10
-9.2406906649
 20
-9.4293964839
 30
0.0
 10
-9.1393401342
 20
-9.442398896
 30
0.0
 10
-9.0398376474
 20
-9.4145666725
 30
0.0
 10
-8.997891968
 20
-9.3919255501
 30
0.0
 11
-9.2910746344
 21
-9.4156127413
 31
0.0
 11
-9.1352098456
 21
-9.4318297415
 31
0.0
 11
-8.997891968
 21
-9.3919255501
 31
0.0
  0
SPLINE
  5
46F
100
AcDbEntity
  8
SUPERFICI
100
AcDbSpline
 62
253
  6
CONTINUOUS
 70
0
 71
3
 72
9
 73
5
 74
3
 42
0.0000001
 43
0.0000001
 44
0.0000000001
 12
0.0
 22
-0.155918514
 32
0.0
 13
0.1394582766
 23
-0.0697278431
 33
0.0
 40
0.0
 40
0.0
 40
0.0
 40
0.0
 40
0.5515162192
 40
1.0
 40
1.0
 40
1.0
 40
1.0
 10
-2.2378624605
 20
15.4547512426
 30
0.0
 10
-2.2378624605
 20
15.4260873795
 30
0.0
 10
-2.2304923757
 20
15.372768173
 30
0.0
 10
-2.1937361659
 20
15.3299560445
 30
0.0
 10
-2.1728879075
 20
15.3195321089
 30
0.0
 11
-2.2378624605
 21
15.4547512426
 31
0.0
 11
-2.2207946361
 21
15.3704705045
 31
0.0
 11
-2.1728879075
 21
15.3195321089
 31
0.0
  0
SPLINE
  5
470
100
AcDbEntity
  8
SUPERFICI
100
AcDbSpline
 62
7
  6
CONTINUOUS
 70
0
 71
3
 72
9
 73
5
 74
3
 42
0.0000001
 43
0.0000001
 44
0.0000000001
 12
-0.2244834173
 22
-0.268762865
 32
0.0
 13
-0.3428031888
 23
0.071500042
 33
0.0
 40
0.0
 40
0.0
 40
0.0
 40
0.0
 40
0.259915966
 40
1.0
 40
1.0
 40
1.0
 40
1.0
 10
0.5044181777
 20
14.4664659607
 30
0.0
 10
0.4849692363
 20
14.4431807074
 30
0.0
 10
0.4017598369
 20
14.3629833422
 30
0.0
 10
0.2751570539
 20
14.3111687845
 30
0.0
 10
0.1905893316
 20
14.3288074643
 30
0.0
 11
0.5044181777
 21
14.4664659607
 31
0.0
 11
0.4387828366
 21
14.4034089939
 31
0.0
 11
0.1905893316
 21
14.3288074643
 31
0.0
  0
SPLINE
  5
471
100
AcDbEntity
  8
RACCORDO
100
AcDbSpline
 62
253
  6
CONTINUOUS
 70
0
 71
3
 72
9
 73
5
 74
3
 42
0.0000001
 43
0.0000001
 44
0.0000000001
 12
-0.0045931116
 22
-0.3190637572
 32
0.0
 13
-0.2897271598
 23
-0.133719672
 33
0.0
 40
0.0
 40
0.0
 40
0.0
 40
0.0
 40
0.5530173084
 40
1.0
 40
1.0
 40
1.0
 40
1.0
 10
-9.2934304798
 20
-8.8572777519
 30
0.0
 10
-9.2942771699
 20
-8.9160936786
 30
0.0
 10
-9.3109425486
 20
-9.0249331719
 30
0.0
 10
-9.3879262044
 20
-9.1115053688
 30
0.0
 10
-9.4310938797
 20
-9.1314288285
 30
0.0
 11
-9.2934304798
 21
-8.8572777519
 31
0.0
 11
-9.3311566823
 21
-9.02966396
 31
0.0
 11
-9.4310938797
 21
-9.1314288285
 31
0.0
  0
SPLINE
  5
472
100
AcDbEntity
  8
SUPERFICI
100
AcDbSpline
 62
253
  6
CONTINUOUS
 70
0
 71
3
 72
10
 73
6
 74
4
 42
0.0000001
 43
0.0000001
 44
0.0000000001
 12
-0.1060286687
 22
-0.2760284045
 32
0.0
 13
-0.2894501688
 23
0.060434745
 33
0.0
 40
0.0
 40
0.0
 40
0.0
 40
0.0
 40
0.5347041833
 40
0.7747553994
 40
1.0
 40
1.0
 40
1.0
 40
1.0
 10
-0.2068024304
 20
14.6149694835
 30
0.0
 10
-0.2257004213
 20
14.565771636
 30
0.0
 10
-0.2731422695
 20
14.4981031108
 30
0.0
 10
-0.3643234061
 20
14.4555941789
 30
0.0
 10
-0.4119135795
 20
14.4546107769
 30
0.0
 10
-0.433645942
 20
14.4591483102
 30
0.0
 11
-0.2068024304
 21
14.6149694835
 31
0.0
 11
-0.3022364178
 21
14.4889122965
 31
0.0
 11
-0.3670479542
 21
14.4599675402
 31
0.0
 11
-0.433645942
 21
14.4591483102
 31
0.0
  0
SPLINE
  5
473
100
AcDbEntity
  8
RACCORDO
100
AcDbSpline
 62
253
  6
CONTINUOUS
 70
0
 71
3
 72
11
 73
7
 74
5
 42
0.0000001
 43
0.0000001
 44
0.0000000001
 12
0.650077298
 22
-0.3368306059
 32
0.0
 13
0.0106872958
 23
-0.7320800039
 33
0.0
 40
0.0
 40
0.0
 40
0.0
 40
0.0
 40
0.2287607979
 40
0.4879140031
 40
0.7537118626
 40
1.0
 40
1.0
 40
1.0
 40
1.0
 10
-9.6469300225
 20
-2.639529568
 30
0.0
 10
-9.5973592887
 20
-2.6652141141
 30
0.0
 10
-9.5027628231
 20
-2.7413659144
 30
0.0
 10
-9.3923575298
 20
-2.8903348314
 30
0.0
 10
-9.3167532934
 20
-3.0643391485
 30
0.0
 10
-9.2943078645
 20
-3.1891252178
 30
0.0
 10
-9.2934304798
 20
-3.2492260913
 30
0.0
 11
-9.6469300225
 21
-2.639529568
 31
0.0
 11
-9.513738908
 21
-2.7410810771
 31
0.0
 11
-9.3995296994
 21
-2.8925998539
 31
0.0
 11
-9.3223180645
 21
-3.0712331963
 31
0.0
 11
-9.2934304798
 21
-3.2492260913
 31
0.0
  0
SPLINE
  5
474
100
AcDbEntity
  8
RACCORDO
100
AcDbSpline
 62
253
  6
CONTINUOUS
 70
0
 71
3
 72
9
 73
5
 74
3
 42
0.0000001
 43
0.0000001
 44
0.0000000001
 12
0.0019332759
 22
0.3355225769
 32
0.0
 13
-0.1535499668
 23
0.2983312669
 33
0.0
 40
0.0
 40
0.0
 40
0.0
 40
0.0
 40
0.2354860549
 40
1.0
 40
1.0
 40
1.0
 40
1.0
 10
-8.9292379393
 20
-3.0657256272
 30
0.0
 10
-8.9290861861
 20
-3.0393886646
 30
0.0
 10
-8.9367900475
 20
-2.9275552679
 30
0.0
 10
-8.9733196723
 20
-2.8185770536
 30
0.0
 10
-9.0124500359
 20
-2.7425509156
 30
0.0
 11
-8.9292379393
 21
-3.0657256272
 31
0.0
 11
-8.9343129847
 21
-2.9868765842
 31
0.0
 11
-9.0124500359
 21
-2.7425509156
 31
0.0
  0
SPLINE
  5
475
100
AcDbEntity
  8
RACCORDO
100
AcDbSpline
 62
253
  6
CONTINUOUS
 70
0
 71
3
 72
9
 73
5
 74
3
 42
0.0000001
 43
0.0000001
 44
0.0000000001
 12
-0.1817849886
 22
0.3531889136
 32
0.0
 13
-0.3562892038
 23
0.1756308461
 33
0.0
 40
0.0
 40
0.0
 40
0.0
 40
0.0
 40
0.2705034454
 40
1.0
 40
1.0
 40
1.0
 40
1.0
 10
-9.0124500359
 20
-2.7425509156
 30
0.0
 10
-9.0288411911
 20
-2.7107046429
 30
0.0
 10
-9.0969242236
 20
-2.5975659591
 30
0.0
 10
-9.1961002331
 20
-2.4987364696
 30
0.0
 10
-9.282737482
 20
-2.4560291039
 30
0.0
 11
-9.0124500359
 21
-2.7425509156
 31
0.0
 11
-9.0679497197
 21
-2.6505428694
 31
0.0
 11
-9.282737482
 21
-2.4560291039
 31
0.0
  0
SPLINE
  5
476
100
AcDbEntity
  8
RACCORDO
100
AcDbSpline
 62
253
  6
CONTINUOUS
 70
0
 71
3
 72
9
 73
5
 74
3
 42
0.0000001
 43
0.0000001
 44
0.0000000001
 12
-0.2094569451
 22
0.1062427305
 32
0.0
 13
-0.2068226607
 23
-0.1112839461
 33
0.0
 40
0.0
 40
0.0
 40
0.0
 40
0.0
 40
0.5362249392
 40
1.0
 40
1.0
 40
1.0
 40
1.0
 10
-13.8741883808
 20
-0.1603036545
 30
0.0
 10
-13.91162706
 20
-0.1413136539
 30
0.0
 10
-13.9882767991
 20
-0.1155921181
 30
0.0
 10
-14.0698099276
 20
-0.1309550829
 30
0.0
 10
-14.1017829916
 20
-0.1481586559
 30
0.0
 11
-13.8741883808
 21
-0.1603036545
 31
0.0
 11
-13.9952342194
 21
-0.1255419176
 31
0.0
 11
-14.1017829916
 21
-0.1481586559
 31
0.0
  0
SPLINE
  5
477
100
AcDbEntity
  8
SUPERFICI
100
AcDbSpline
 62
253
  6
CONTINUOUS
 70
0
 71
3
 72
9
 73
5
 74
3
 42
0.0000001
 43
0.0000001
 44
0.0000000001
 12
0.0393562175
 22
-0.0640701271
 32
0.0
 13
-0.0477295784
 23
-0.0581014663
 33
0.0
 40
0.0
 40
0.0
 40
0.0
 40
0.0
 40
0.6274002223
 40
1.0
 40
1.0
 40
1.0
 40
1.0
 10
1.9227455322
 20
15.6735727244
 30
0.0
 10
1.930976232
 20
15.6601735205
 30
0.0
 10
1.9434775938
 20
15.6389609419
 30
0.0
 10
1.9440340402
 20
15.6099538169
 30
0.0
 10
1.9381060301
 20
15.6027376191
 30
0.0
 11
1.9227455322
 21
15.6735727244
 31
0.0
 11
1.9419610569
 21
15.630487792
 31
0.0
 11
1.9381060301
 21
15.6027376191
 31
0.0
  0
LINE
  5
478
100
AcDbEntity
  8
RACCORDO
100
AcDbLine
 62
253
  6
CONTINUOUS
 10
-14.6554048278
 20
-0.3313274057
 11
-14.6564866779
 21
-0.5393581354
  0
SPLINE
  5
479
100
AcDbEntity
  8
RACCORDO
100
AcDbSpline
 62
253
  6
CONTINUOUS
 70
0
 71
3
 72
9
 73
5
 74
3
 42
0.0000001
 43
0.0000001
 44
0.0000000001
 12
-0.2972236061
 22
-5.6017074678
 32
0.0
 13
0.313226478
 23
-5.6008354377
 33
0.0
 40
0.0
 40
0.0
 40
0.0
 40
0.0
 40
0.2549225243
 40
1.0
 40
1.0
 40
1.0
 40
1.0
 10
-9.2934304798
 20
-3.2492260913
 30
0.0
 10
-9.3186868105
 20
-3.7252265608
 30
0.0
 10
-9.3937724553
 20
-5.5936158526
 30
0.0
 10
-9.3712231443
 20
-7.4662589754
 30
0.0
 10
-9.2934304798
 20
-8.8572777519
 30
0.0
 11
-9.2934304798
 21
-3.2492260913
 31
0.0
 11
-9.3506239989
 21
-4.6780920275
 31
0.0
 11
-9.2934304798
 21
-8.8572777519
 31
0.0
  0
SPLINE
  5
47A
100
AcDbEntity
  8
SUPERFICI
100
AcDbSpline
 62
253
  6
CONTINUOUS
 70
0
 71
3
 72
10
 73
6
 74
4
 42
0.0000001
 43
0.0000001
 44
0.0000000001
 12
-0.025130916
 22
-0.2320296015
 32
0.0
 13
0.2090423909
 23
-0.1037813939
 33
0.0
 40
0.0
 40
0.0
 40
0.0
 40
0.0
 40
0.1843605275
 40
0.531004774
 40
1.0
 40
1.0
 40
1.0
 40
1.0
 10
-18.6209685137
 20
17.9794859194
 30
0.0
 10
-18.6225128967
 20
17.9652268862
 30
0.0
 10
-18.6148518247
 20
17.9226465164
 30
0.0
 10
-18.5609802796
 20
17.8621838098
 30
0.0
 10
-18.5064097201
 20
17.8293598799
 30
0.0
 10
-18.473729759
 20
17.8131355538
 30
0.0
 11
-18.6209685137
 21
17.9794859194
 31
0.0
 11
-18.6146684202
 21
17.9369223769
 31
0.0
 11
-18.5656513555
 21
17.8725602764
 31
0.0
 11
-18.473729759
 21
17.8131355538
 31
0.0
  0
SPLINE
  5
47B
100
AcDbEntity
  8
SUPERFICI
100
AcDbSpline
 62
253
  6
CONTINUOUS
 70
0
 71
3
 72
9
 73
5
 74
3
 42
0.0000001
 43
0.0000001
 44
0.0000000001
 12
0.1252529653
 22
0.3306250094
 32
0.0
 13
-0.3163901589
 23
0.1577924888
 33
0.0
 40
0.0
 40
0.0
 40
0.0
 40
0.0
 40
0.5365326578
 40
1.0
 40
1.0
 40
1.0
 40
1.0
 10
1.9227455322
 20
-25.6260314149
 30
0.0
 10
1.9451463009
 20
-25.5669010433
 30
0.0
 10
1.956941197
 20
-25.4415558187
 30
0.0
 10
1.8822105721
 20
-25.3308418307
 30
0.0
 10
1.8333317368
 20
-25.3064646089
 30
0.0
 11
1.9227455322
 21
-25.6260314149
 31
0.0
 11
1.9328951273
 21
-25.4366092848
 31
0.0
 11
1.8333317368
 21
-25.3064646089
 31
0.0
  0
SPLINE
  5
47C
100
AcDbEntity
  8
SUPERFICI
100
AcDbSpline
 62
253
  6
CONTINUOUS
 70
0
 71
3
 72
8
 73
4
 74
2
 42
0.0000001
 43
0.0000001
 44
0.0000000001
 12
-0.0221570022
 22
0.0110787119
 32
0.0
 13
-0.0242575948
 23
0.0050239124
 33
0.0
 40
0.0
 40
0.0
 40
0.0
 40
0.0
 40
1.0
 40
1.0
 40
1.0
 40
1.0
 10
1.8567468106
 20
-25.3145519398
 30
0.0
 10
1.8493611432
 20
-25.3108590358
 30
0.0
 10
1.8414176017
 20
-25.3081392464
 30
0.0
 10
1.8333317368
 20
-25.3064646089
 30
0.0
 11
1.8567468106
 21
-25.3145519398
 31
0.0
 11
1.8333317368
 21
-25.3064646089
 31
0.0
  0
SPLINE
  5
47D
100
AcDbEntity
  8
RACCORDO
100
AcDbSpline
 62
253
  6
CONTINUOUS
 70
0
 71
3
 72
10
 73
6
 74
4
 42
0.0000001
 43
0.0000001
 44
0.0000000001
 12
0.0139383267
 22
-0.238404259
 32
0.0
 13
0.2054341371
 23
-0.1217689739
 33
0.0
 40
0.0
 40
0.0
 40
0.0
 40
0.0
 40
0.215959388
 40
0.4436594807
 40
1.0
 40
1.0
 40
1.0
 40
1.0
 10
-14.7190523951
 20
-6.4156845949
 30
0.0
 10
-14.7180490243
 20
-6.4328464742
 30
0.0
 10
-14.7097597868
 20
-6.4681234942
 30
0.0
 10
-14.6643914441
 20
-6.5350961445
 30
0.0
 10
-14.6106080224
 20
-6.5701052401
 30
0.0
 10
-14.5725109109
 20
-6.5926869114
 30
0.0
 11
-14.7190523951
 21
-6.4156845949
 31
0.0
 11
-14.7071740082
 21
-6.4658716012
 31
0.0
 11
-14.6777651926
 21
-6.5116102054
 31
0.0
 11
-14.5725109109
 21
-6.5926869114
 31
0.0
  0
SPLINE
  5
47E
100
AcDbEntity
  8
SUPERFICI
100
AcDbSpline
 62
253
  6
CONTINUOUS
 70
0
 71
3
 72
9
 73
5
 74
3
 42
0.0000001
 43
0.0000001
 44
0.0000000001
 12
0.3219424972
 22
-0.1609712486
 32
0.0
 13
0.322685623
 23
0.1594763403
 33
0.0
 40
0.0
 40
0.0
 40
0.0
 40
0.0
 40
0.499568454
 40
1.0
 40
1.0
 40
1.0
 40
1.0
 10
-0.5593243901
 20
-26.684121932
 30
0.0
 10
-0.5057136182
 20
-26.7109273179
 30
0.0
 10
-0.3831665436
 20
-26.7303839816
 30
0.0
 10
-0.2606297855
 20
-26.7112369864
 30
0.0
 10
-0.2068024304
 20
-26.6846346559
 30
0.0
 11
-0.5593243901
 21
-26.684121932
 31
0.0
 11
-0.3832748876
 21
-26.7207329261
 31
0.0
 11
-0.2068024304
 21
-26.6846346559
 31
0.0
  0
SPLINE
  5
47F
100
AcDbEntity
  8
SUPERFICI
100
AcDbSpline
 62
253
  6
CONTINUOUS
 70
0
 71
3
 72
9
 73
5
 74
3
 42
0.0000001
 43
0.0000001
 44
0.0000000001
 12
0.2781876364
 22
-0.1390938182
 32
0.0
 13
0.297793589
 23
0.0897464744
 33
0.0
 40
0.0
 40
0.0
 40
0.0
 40
0.0
 40
0.4847421734
 40
1.0
 40
1.0
 40
1.0
 40
1.0
 10
-0.5593243901
 20
-27.0240958661
 30
0.0
 10
-0.5143746303
 20
-27.046570746
 30
0.0
 10
-0.4097800927
 20
-27.0675659321
 30
0.0
 10
-0.3046398299
 20
-27.0581788065
 30
0.0
 10
-0.2534930041
 20
-27.0427646154
 30
0.0
 11
-0.5593243901
 21
-27.0240958661
 31
0.0
 11
-0.4128436316
 21
-27.0597861674
 31
0.0
 11
-0.2534930041
 21
-27.0427646154
 31
0.0
  0
SPLINE
  5
480
100
AcDbEntity
  8
SUPERFICI
100
AcDbSpline
 62
253
  6
CONTINUOUS
 70
0
 71
3
 72
8
 73
4
 74
2
 42
0.0000001
 43
0.0000001
 44
0.0000000001
 12
0.0479655217
 22
0.014455437
 32
0.0
 13
0.0449110244
 23
0.0221957388
 33
0.0
 40
0.0
 40
0.0
 40
0.0
 40
0.0
 40
1.0
 40
1.0
 40
1.0
 40
1.0
 10
-0.2534930041
 20
-27.0427646154
 30
0.0
 10
-0.2375044969
 20
-27.0379461364
 30
0.0
 10
-0.2217727719
 20
-27.0320071696
 30
0.0
 10
-0.2068024304
 20
-27.02460859
 30
0.0
 11
-0.2534930041
 21
-27.0427646154
 31
0.0
 11
-0.2068024304
 21
-27.02460859
 31
0.0
  0
SPLINE
  5
481
100
AcDbEntity
  8
SUPERFICI
100
AcDbSpline
 62
253
  6
CONTINUOUS
 70
0
 71
3
 72
9
 73
5
 74
3
 42
0.0000001
 43
0.0000001
 44
0.0000000001
 12
-0.1863858524
 22
0.3009955964
 32
0.0
 13
-0.3157046605
 23
0.1602142389
 33
0.0
 40
0.0
 40
0.0
 40
0.0
 40
0.0
 40
0.482833417
 40
1.0
 40
1.0
 40
1.0
 40
1.0
 10
-0.2068024304
 20
-26.6846346559
 30
0.0
 10
-0.2368002031
 20
-26.6361910784
 30
0.0
 10
-0.3212410285
 20
-26.5511508364
 30
0.0
 10
-0.4165120756
 20
-26.4800469083
 30
0.0
 10
-0.4709360424
 20
-26.4524277582
 30
0.0
 11
-0.2068024304
 21
-26.6846346559
 31
0.0
 11
-0.3208667367
 21
-26.5573194837
 31
0.0
 11
-0.4709360424
 21
-26.4524277582
 31
0.0
  0
SPLINE
  5
482
100
AcDbEntity
  8
SUPERFICI
100
AcDbSpline
 62
7
  6
CONTINUOUS
 70
0
 71
3
 72
9
 73
5
 74
3
 42
0.0000001
 43
0.0000001
 44
0.0000000001
 12
-0.3674009593
 22
0.0767202179
 32
0.0
 13
-0.3357016017
 23
0.1678508009
 33
0.0
 40
0.0
 40
0.0
 40
0.0
 40
0.0
 40
0.4660627437
 40
1.0
 40
1.0
 40
1.0
 40
1.0
 10
0.5044181777
 20
-25.8331381787
 30
0.0
 10
0.447340878
 20
-25.821219367
 30
0.0
 10
0.3277224616
 20
-25.7833451475
 30
0.0
 10
0.2111298537
 20
-25.7372422727
 30
0.0
 10
0.1513819897
 20
-25.7073683407
 30
0.0
 11
0.5044181777
 21
-25.8331381787
 31
0.0
 11
0.3364987527
 21
-25.7841284586
 31
0.0
 11
0.1513819897
 21
-25.7073683407
 31
0.0
  0
SPLINE
  5
483
100
AcDbEntity
  8
SUPERFICI
100
AcDbSpline
 62
253
  6
CONTINUOUS
 70
0
 71
3
 72
9
 73
5
 74
3
 42
0.0000001
 43
0.0000001
 44
0.0000000001
 12
0.0
 22
0.2506412802
 32
0.0
 13
0.1598970991
 23
0.1930128727
 33
0.0
 40
0.0
 40
0.0
 40
0.0
 40
0.0
 40
0.2368092609
 40
1.0
 40
1.0
 40
1.0
 40
1.0
 10
-0.5593243901
 20
-26.684121932
 30
0.0
 10
-0.5593243901
 20
-26.6643372066
 30
0.0
 10
-0.5500621152
 20
-26.5809728441
 30
0.0
 10
-0.5116133709
 20
-26.5015296372
 30
0.0
 10
-0.4709360424
 20
-26.4524277582
 30
0.0
 11
-0.5593243901
 21
-26.684121932
 31
0.0
 11
-0.553300868
 21
-26.6250741934
 31
0.0
 11
-0.4709360424
 21
-26.4524277582
 31
0.0
  0
SPLINE
  5
484
100
AcDbEntity
  8
SUPERFICI
100
AcDbSpline
 62
253
  6
CONTINUOUS
 70
0
 71
3
 72
9
 73
5
 74
3
 42
0.0000001
 43
0.0000001
 44
0.0000000001
 12
-0.0036045425
 22
-0.2379180098
 32
0.0
 13
0.2128598606
 23
-0.1063421453
 33
0.0
 40
0.0
 40
0.0
 40
0.0
 40
0.0
 40
0.4282395631
 40
1.0
 40
1.0
 40
1.0
 40
1.0
 10
-19.3080825246
 20
7.4913343829
 30
0.0
 10
-19.3085970605
 20
7.4573724147
 30
0.0
 10
-19.2711225319
 20
7.378757063
 30
0.0
 10
-19.2021976237
 20
7.3355228213
 30
0.0
 10
-19.1616293414
 20
7.3152554108
 30
0.0
 11
-19.3080825246
 21
7.4913343829
 31
0.0
 11
-19.2707332515
 21
7.3965285177
 31
0.0
 11
-19.1616293414
 21
7.3152554108
 31
0.0
  0
SPLINE
  5
485
100
AcDbEntity
  8
RACCORDO
100
AcDbSpline
 62
253
  6
CONTINUOUS
 70
0
 71
3
 72
9
 73
5
 74
3
 42
0.0000001
 43
0.0000001
 44
0.0000000001
 12
-0.2108440127
 22
5.0478664053
 32
0.0
 13
0.2583496824
 23
5.0456581221
 33
0.0
 40
0.0
 40
0.0
 40
0.0
 40
0.0
 40
0.2455121546
 40
1.0
 40
1.0
 40
1.0
 40
1.0
 10
-14.6018977191
 20
-5.9791378097
 30
0.0
 10
-14.6191526417
 20
-5.566033624
 30
0.0
 10
-14.6687917393
 20
-3.8825889848
 30
0.0
 10
-14.6374848093
 20
-2.1969508395
 30
0.0
 10
-14.5725109109
 20
-0.9279882644
 30
0.0
 11
-14.6018977191
 21
-5.9791378097
 31
0.0
 11
-14.6386475249
 21
-4.7392891668
 31
0.0
 11
-14.5725109109
 21
-0.9279882644
 31
0.0
  0
SPLINE
  5
486
100
AcDbEntity
  8
RACCORDO
100
AcDbSpline
 62
253
  6
CONTINUOUS
 70
0
 71
3
 72
9
 73
5
 74
3
 42
0.0000001
 43
0.0000001
 44
0.0000000001
 12
-0.300177266
 22
-5.6582924171
 32
0.0
 13
0.3163425045
 23
-5.6574116774
 33
0.0
 40
0.0
 40
0.0
 40
0.0
 40
0.0
 40
0.2549233599
 40
1.0
 40
1.0
 40
1.0
 40
1.0
 10
-9.9935559044
 20
-3.2174657677
 30
0.0
 10
-10.0190633034
 20
-3.6982760724
 30
0.0
 10
-10.09489325
 20
-5.5855383445
 30
0.0
 10
-10.0721223745
 20
-7.4770959866
 30
0.0
 10
-9.9935559044
 20
-8.8821644147
 30
0.0
 11
-9.9935559044
 21
-3.2174657677
 31
0.0
 11
-10.0513172879
 21
-4.6607696898
 31
0.0
 11
-9.9935559044
 21
-8.8821644147
 31
0.0
  0
SPLINE
  5
487
100
AcDbEntity
  8
SUPERFICI
100
AcDbSpline
 62
7
  6
CONTINUOUS
 70
0
 71
3
 72
9
 73
5
 74
3
 42
0.0000001
 43
0.0000001
 44
0.0000000001
 12
0.1693155672
 22
0.3435043228
 32
0.0
 13
-0.1200672777
 23
0.3636575723
 33
0.0
 40
0.0
 40
0.0
 40
0.0
 40
0.0
 40
0.2168067613
 40
1.0
 40
1.0
 40
1.0
 40
1.0
 10
-2.6360302924
 20
16.6315422785
 30
0.0
 10
-2.6237940391
 20
16.6563669651
 30
0.0
 10
-2.5847228741
 20
16.779394138
 30
0.0
 10
-2.604684999
 20
16.9140959497
 30
0.0
 10
-2.6360302924
 20
17.0090340003
 30
0.0
 11
-2.6360302924
 21
16.6315422785
 31
0.0
 11
-2.6096271235
 21
16.7102619793
 31
0.0
 11
-2.6360302924
 21
17.0090340003
 31
0.0
  0
SPLINE
  5
488
100
AcDbEntity
  8
SUPERFICI
100
AcDbSpline
 62
7
  6
CONTINUOUS
 70
0
 71
3
 72
9
 73
5
 74
3
 42
0.0000001
 43
0.0000001
 44
0.0000000001
 12
0.6506450565
 22
-0.3252555685
 32
0.0
 13
-0.0001567326
 23
-0.727413328
 33
0.0
 40
0.0
 40
0.0
 40
0.0
 40
0.0
 40
0.4878074734
 40
1.0
 40
1.0
 40
1.0
 40
1.0
 10
1.7476837459
 20
13.9789120674
 30
0.0
 10
1.853480253
 20
13.9260247017
 30
0.0
 10
2.0240041644
 20
13.7338337198
 30
0.0
 10
2.1009947709
 20
13.493250931
 30
0.0
 10
2.1009680119
 20
13.3690590409
 30
0.0
 11
1.7476837459
 21
13.9789120674
 31
0.0
 11
1.9975891064
 21
13.7270051799
 31
0.0
 11
2.1009680119
 21
13.3690590409
 31
0.0
  0
SPLINE
  5
489
100
AcDbEntity
  8
SUPERFICI
100
AcDbSpline
 62
253
  6
CONTINUOUS
 70
0
 71
3
 72
10
 73
6
 74
4
 42
0.0000001
 43
0.0000001
 44
0.0000000001
 12
-0.0323397807
 22
0.7275495571
 32
0.0
 13
-0.646444136
 23
0.3353866402
 33
0.0
 40
0.0
 40
0.0
 40
0.0
 40
0.0
 40
0.508208272
 40
0.7692183033
 40
1.0
 40
1.0
 40
1.0
 40
1.0
 10
-2.5508356582
 20
10.8295026849
 30
0.0
 10
-2.5563141062
 20
10.952751586
 30
0.0
 10
-2.6240475919
 20
11.1377136294
 30
0.0
 10
-2.7714982624
 20
11.3310124906
 30
0.0
 10
-2.8669479595
 20
11.4067000045
 30
0.0
 10
-2.9166771176
 20
11.4325003705
 30
0.0
 11
-2.5508356582
 21
10.8295026849
 31
0.0
 11
-2.6657575517
 21
11.1813203983
 31
0.0
 11
-2.7824156302
 21
11.331398019
 31
0.0
 11
-2.9166771176
 21
11.4325003705
 31
0.0
  0
SPLINE
  5
48A
100
AcDbEntity
  8
SUPERFICI
100
AcDbSpline
 62
253
  6
CONTINUOUS
 70
0
 71
3
 72
10
 73
6
 74
4
 42
0.0000001
 43
0.0000001
 44
0.0000000001
 12
-1.1295356736
 22
-0.6268678115
 32
0.0
 13
-0.1501994549
 23
-1.2830643845
 33
0.0
 40
0.0
 40
0.0
 40
0.0
 40
0.0
 40
0.2310892759
 40
0.4866921868
 40
1.0
 40
1.0
 40
1.0
 40
1.0
 10
-2.916677248
 20
11.4325004356
 30
0.0
 10
-3.0036851083
 20
11.3842129594
 30
0.0
 10
-3.170329038
 20
11.2515751957
 30
0.0
 10
-3.4360539049
 20
10.9108992179
 30
0.0
 10
-3.5589506005
 20
10.588131213
 30
0.0
 10
-3.5846501184
 20
10.3685955552
 30
0.0
 11
-2.916677248
 21
11.4325004356
 31
0.0
 11
-3.153522253
 21
11.2507784595
 31
0.0
 11
-3.3585778105
 21
10.9919723626
 31
0.0
 11
-3.5846501184
 21
10.3685955552
 31
0.0
  0
SPLINE
  5
48B
100
AcDbEntity
  8
SUPERFICI
100
AcDbSpline
 62
253
  6
CONTINUOUS
 70
0
 71
3
 72
9
 73
5
 74
3
 42
0.0000001
 43
0.0000001
 44
0.0000000001
 12
-0.5653657501
 22
-0.3086349429
 32
0.0
 13
-0.0755684944
 23
-0.6396744188
 33
0.0
 40
0.0
 40
0.0
 40
0.0
 40
0.0
 40
0.4854193102
 40
1.0
 40
1.0
 40
1.0
 40
1.0
 10
-2.5508231532
 20
10.8295095118
 30
0.0
 10
-2.6423029707
 20
10.7795703914
 30
0.0
 10
-2.795664468
 20
10.6154857479
 30
0.0
 10
-2.8747585071
 20
10.4087117142
 30
0.0
 10
-2.8877205364
 20
10.2989903463
 30
0.0
 11
-2.5508231532
 21
10.8295095118
 31
0.0
 11
-2.7736924524
 21
10.6102117001
 31
0.0
 11
-2.8877205364
 21
10.2989903463
 31
0.0
  0
SPLINE
  5
48C
100
AcDbEntity
  8
SUPERFICI
100
AcDbSpline
 62
253
  6
CONTINUOUS
 70
0
 71
3
 72
11
 73
7
 74
5
 42
0.0000001
 43
0.0000001
 44
0.0000000001
 12
-0.682587984
 22
-0.2056363104
 32
0.0
 13
-0.636723915
 23
0.3206170678
 33
0.0
 40
0.0
 40
0.0
 40
0.0
 40
0.0
 40
0.2284142288
 40
0.4927005505
 40
0.7608662697
 40
1.0
 40
1.0
 40
1.0
 40
1.0
 10
-2.8877205364
 20
10.2989903463
 30
0.0
 10
-2.9396914724
 20
10.2833335932
 30
0.0
 10
-3.0567016555
 20
10.2662626929
 30
0.0
 10
-3.2380290423
 20
10.2708290217
 30
0.0
 10
-3.4191907852
 20
10.3028695273
 30
0.0
 10
-3.5338960617
 20
10.3430387706
 30
0.0
 10
-3.5846501167
 20
10.3685955557
 30
0.0
 11
-2.8877205364
 21
10.2989903463
 31
0.0
 11
-3.0482703332
 21
10.2718099915
 31
0.0
 11
-3.2366420295
 21
10.2754657965
 31
0.0
 11
-3.4247765418
 21
10.3094132074
 31
0.0
 11
-3.5846501167
 21
10.3685955557
 31
0.0
  0
SPLINE
  5
48D
100
AcDbEntity
  8
SUPERFICI
100
AcDbSpline
 62
253
  6
CONTINUOUS
 70
0
 71
3
 72
9
 73
5
 74
3
 42
0.0000001
 43
0.0000001
 44
0.0000000001
 12
-1.2331850734
 22
-10.4398309122
 32
0.0
 13
-0.1646691948
 23
-10.5111226307
 33
0.0
 40
0.0
 40
0.0
 40
0.0
 40
0.0
 40
0.2543855046
 40
1.0
 40
1.0
 40
1.0
 40
1.0
 10
-3.5846501184
 20
10.3685955552
 30
0.0
 10
-3.6892182541
 20
9.4833483368
 30
0.0
 10
-4.0581398673
 20
5.9986184941
 30
0.0
 10
-4.2559260004
 20
2.4952821609
 30
0.0
 10
-4.29685258
 20
-0.1171329711
 30
0.0
 11
-3.5846501184
 21
10.3685955552
 31
0.0
 11
-3.865840359
 21
7.7092147547
 31
0.0
 11
-4.29685258
 21
-0.1171329711
 31
0.0
  0
SPLINE
  5
48E
100
AcDbEntity
  8
SUPERFICI
100
AcDbSpline
 62
253
  6
CONTINUOUS
 70
0
 71
3
 72
9
 73
5
 74
3
 42
0.0000001
 43
0.0000001
 44
0.0000000001
 12
-1.226452324
 22
-10.3817890807
 32
0.0
 13
-0.1637701276
 23
-10.4526986547
 33
0.0
 40
0.0
 40
0.0
 40
0.0
 40
0.0
 40
0.2543851972
 40
1.0
 40
1.0
 40
1.0
 40
1.0
 10
-2.8877205364
 20
10.2989903463
 30
0.0
 10
-2.9917176419
 20
9.4186658587
 30
0.0
 10
-3.3586252188
 20
5.9533089543
 30
0.0
 10
-3.5553306825
 20
2.4694452371
 30
0.0
 10
-3.5960338263
 20
-0.1284503783
 30
0.0
 11
-2.8877205364
 21
10.2989903463
 31
0.0
 11
-3.1673752645
 21
7.65439725
 31
0.0
 11
-3.5960338263
 21
-0.1284503783
 31
0.0
  0
SPLINE
  5
48F
100
AcDbEntity
  8
SUPERFICI
100
AcDbSpline
 62
253
  6
CONTINUOUS
 70
0
 71
3
 72
11
 73
7
 74
5
 42
0.0000001
 43
0.0000001
 44
0.0000000001
 12
-0.6531473612
 22
-0.3004231947
 32
0.0
 13
-0.6429214765
 23
0.3217258871
 33
0.0
 40
0.0
 40
0.0
 40
0.0
 40
0.0
 40
0.2355498366
 40
0.5001440414
 40
0.7646609402
 40
1.0
 40
1.0
 40
1.0
 40
1.0
 10
-3.5960338263
 20
-0.1284503783
 30
0.0
 10
-3.6473167443
 20
-0.1520385897
 30
0.0
 10
-3.7641014529
 20
-0.1849086533
 30
0.0
 10
-3.9477558263
 20
-0.1985653862
 30
0.0
 10
-4.1308231524
 20
-0.1789964712
 30
0.0
 10
-4.2464177346
 20
-0.1423711936
 30
0.0
 10
-4.2968525798
 20
-0.117132971
 30
0.0
 11
-3.5960338263
 21
-0.1284503783
 31
0.0
 11
-3.7580600668
 21
-0.1776903014
 31
0.0
 11
-3.9476815456
 21
-0.1928164887
 31
0.0
 11
-4.13665991
 21
-0.1715763546
 31
0.0
 11
-4.2968525798
 21
-0.117132971
 31
0.0
  0
SPLINE
  5
490
100
AcDbEntity
  8
SUPERFICI
100
AcDbSpline
 62
253
  6
CONTINUOUS
 70
0
 71
3
 72
11
 73
7
 74
5
 42
0.0000001
 43
0.0000001
 44
0.0000000001
 12
-0.6429962504
 22
-0.325180192
 32
0.0
 13
-0.6445788595
 23
0.3220317208
 33
0.0
 40
0.0
 40
0.0
 40
0.0
 40
0.0
 40
0.2376792376
 40
0.5023658429
 40
0.7657789404
 40
1.0
 40
1.0
 40
1.0
 40
1.0
 10
-3.5960338263
 20
-16.5664785675
 30
0.0
 10
-3.6469761125
 20
-16.5922414275
 30
0.0
 10
-3.7633485564
 20
-16.6295296889
 30
0.0
 10
-3.9473305082
 20
-16.6484036939
 30
0.0
 10
-4.1307406073
 20
-16.6323954543
 30
0.0
 10
-4.2465279305
 20
-16.5967578457
 30
0.0
 10
-4.2968525783
 20
-16.5716156421
 30
0.0
 11
-3.5960338263
 21
-16.5664785675
 31
0.0
 11
-3.7580600668
 21
-16.621949918
 31
0.0
 11
-3.9476815451
 21
-16.6423795512
 31
0.0
 11
-4.1366599089
 21
-16.6247250944
 31
0.0
 11
-4.2968525783
 21
-16.5716156421
 31
0.0
  0
SPLINE
  5
491
100
AcDbEntity
  8
SUPERFICI
100
AcDbSpline
 62
253
  6
CONTINUOUS
 70
0
 71
3
 72
9
 73
5
 74
3
 42
0.0000001
 43
0.0000001
 44
0.0000000001
 12
0.1562934247
 22
-9.8255209198
 32
0.0
 13
1.298763943
 23
-9.7405595938
 33
0.0
 40
0.0
 40
0.0
 40
0.0
 40
0.0
 40
0.2553871945
 40
1.0
 40
1.0
 40
1.0
 40
1.0
 10
-4.29685258
 20
-16.571615643
 30
0.0
 10
-4.2835474669
 20
-17.4080530503
 30
0.0
 10
-4.1866392371
 20
-20.6822684871
 30
0.0
 10
-3.9070088728
 20
-23.9517963356
 30
0.0
 10
-3.5846501184
 20
-26.3694448044
 30
0.0
 11
-4.29685258
 21
-16.571615643
 31
0.0
 11
-4.2221316088
 21
-19.0801327026
 31
0.0
 11
-3.5846501184
 21
-26.3694448044
 31
0.0
  0
SPLINE
  5
492
100
AcDbEntity
  8
SUPERFICI
100
AcDbSpline
 62
253
  6
CONTINUOUS
 70
0
 71
3
 72
9
 73
5
 74
3
 42
0.0000001
 43
0.0000001
 44
0.0000000001
 12
0.1554409327
 22
-9.7709735598
 32
0.0
 13
1.2916661321
 23
-9.6864691603
 33
0.0
 40
0.0
 40
0.0
 40
0.0
 40
0.0
 40
0.2553865594
 40
1.0
 40
1.0
 40
1.0
 40
1.0
 10
-3.5960338263
 20
-16.5664785675
 30
0.0
 10
-3.5828013179
 20
-17.3982703407
 30
0.0
 10
-3.4864221325
 20
-20.6543084857
 30
0.0
 10
-3.2083178573
 20
-23.9056840562
 30
0.0
 10
-2.8877205364
 20
-26.309909099
 30
0.0
 11
-3.5960338263
 21
-16.5664785675
 31
0.0
 11
-3.5217208935
 21
-19.0610629954
 31
0.0
 11
-2.8877205364
 21
-26.309909099
 31
0.0
  0
SPLINE
  5
493
100
AcDbEntity
  8
SUPERFICI
100
AcDbSpline
 62
253
  6
CONTINUOUS
 70
0
 71
3
 72
10
 73
6
 74
4
 42
0.0000001
 43
0.0000001
 44
0.0000000001
 12
-0.6017341635
 22
-0.3998094023
 32
0.0
 13
-0.6468913277
 23
0.3216569163
 33
0.0
 40
0.0
 40
0.0
 40
0.0
 40
0.0
 40
0.5081221636
 40
0.7686585299
 40
1.0
 40
1.0
 40
1.0
 40
1.0
 10
-2.8877205364
 20
-26.309909099
 30
0.0
 10
-2.9896386915
 20
-26.3776264385
 30
0.0
 10
-3.1771742777
 20
-26.4320066132
 30
0.0
 10
-3.4183602946
 20
-26.4266865894
 30
0.0
 10
-3.5347656802
 20
-26.3942488795
 30
0.0
 10
-3.5846499438
 20
-26.3694446849
 30
0.0
 11
-2.8877205364
 21
-26.309909099
 31
0.0
 11
-3.236641975
 21
-26.4239720873
 31
0.0
 11
-3.4247764246
 21
-26.4181647864
 31
0.0
 11
-3.5846499438
 21
-26.3694446849
 31
0.0
  0
SPLINE
  5
494
100
AcDbEntity
  8
SUPERFICI
100
AcDbSpline
 62
253
  6
CONTINUOUS
 70
0
 71
3
 72
9
 73
5
 74
3
 42
0.0000001
 43
0.0000001
 44
0.0000000001
 12
0.0658311234
 22
-0.4976382763
 32
0.0
 13
0.4481552861
 23
-0.2261292337
 33
0.0
 40
0.0
 40
0.0
 40
0.0
 40
0.0
 40
0.5391327484
 40
1.0
 40
1.0
 40
1.0
 40
1.0
 10
-3.5846501184
 20
-26.3694448044
 30
0.0
 10
-3.5728195469
 20
-26.458875835
 30
0.0
 10
-3.5260186305
 20
-26.6250559074
 30
0.0
 10
-3.4005565472
 20
-26.7508655837
 30
0.0
 10
-3.3317098488
 20
-26.7856041032
 30
0.0
 11
-3.5846501184
 21
-26.3694448044
 31
0.0
 11
-3.4994917546
 21
-26.6263278477
 31
0.0
 11
-3.3317098488
 21
-26.7856041032
 31
0.0
  0
SPLINE
  5
495
100
AcDbEntity
  8
SUPERFICI
100
AcDbSpline
 62
253
  6
CONTINUOUS
 70
0
 71
3
 72
11
 73
7
 74
5
 42
0.0000001
 43
0.0000001
 44
0.0000000001
 12
0.0616736493
 22
-0.4624455612
 32
0.0
 13
0.4301815966
 23
0.1805639224
 33
0.0
 40
0.0
 40
0.0
 40
0.0
 40
0.0
 40
0.2728376353
 40
0.5081714066
 40
0.7384356674
 40
1.0
 40
1.0
 40
1.0
 40
1.0
 10
-2.8877205364
 20
-26.309909099
 30
0.0
 10
-2.8821115722
 20
-26.3519666168
 30
0.0
 10
-2.8603244936
 20
-26.4301615087
 30
0.0
 10
-2.7801592246
 20
-26.5199153673
 30
0.0
 10
-2.6650972074
 20
-26.550091258
 30
0.0
 10
-2.5883510984
 20
-26.5308421797
 30
0.0
 10
-2.5508443776
 20
-26.5150991524
 30
0.0
 11
-2.8877205364
 21
-26.309909099
 31
0.0
 11
-2.8490942309
 21
-26.4311966337
 31
0.0
 11
-2.7737003254
 21
-26.5110100156
 31
0.0
 11
-2.6702862494
 21
-26.5400993992
 31
0.0
 11
-2.5508443776
 21
-26.5150991524
 31
0.0
  0
LINE
  5
496
100
AcDbEntity
  8
SUPERFICI
100
AcDbLine
 62
253
  6
CONTINUOUS
 10
-18.4737299778
 20
-18.9249048747
 11
-18.4978759983
 21
-18.7360584041
  0
SPLINE
  5
497
100
AcDbEntity
  8
SUPERFICI
100
AcDbSpline
 62
253
  6
CONTINUOUS
 70
0
 71
3
 72
9
 73
5
 74
3
 42
0.0000001
 43
0.0000001
 44
0.0000000001
 12
-1.1022838795
 22
9.1108603643
 32
0.0
 13
-0.1410223579
 23
9.1762148527
 33
0.0
 40
0.0
 40
0.0
 40
0.0
 40
0.0
 40
0.2448105814
 40
1.0
 40
1.0
 40
1.0
 40
1.0
 10
-18.5526207703
 20
-18.2938891172
 30
0.0
 10
-18.6425710228
 20
-17.5504107763
 30
0.0
 10
-18.9675074158
 20
-14.508403072
 30
0.0
 10
-19.1261298117
 20
-11.4491540483
 30
0.0
 10
-19.1616293425
 20
-9.1392272617
 30
0.0
 11
-18.5526207703
 21
-18.2938891172
 31
0.0
 11
-18.7916991902
 21
-16.0599461164
 31
0.0
 11
-19.1616293425
 21
-9.1392272617
 31
0.0
  0
SPLINE
  5
498
100
AcDbEntity
  8
SUPERFICI
100
AcDbSpline
 62
253
  6
CONTINUOUS
 70
0
 71
3
 72
9
 73
5
 74
3
 42
0.0000001
 43
0.0000001
 44
0.0000000001
 12
-0.0142100566
 22
-0.3333458781
 32
0.0
 13
-0.3076421768
 23
-0.1291421357
 33
0.0
 40
0.0
 40
0.0
 40
0.0
 40
0.0
 40
0.5513599465
 40
1.0
 40
1.0
 40
1.0
 40
1.0
 10
-2.5508443776
 20
-26.5150991524
 30
0.0
 10
-2.5534559963
 20
-26.5763636742
 30
0.0
 10
-2.574564312
 20
-26.689783821
 30
0.0
 10
-2.6586448366
 20
-26.7769818794
 30
0.0
 10
-2.7046517042
 20
-26.7962946576
 30
0.0
 11
-2.5508443776
 21
-26.5150991524
 31
0.0
 11
-2.5958759683
 21
-26.6934628694
 31
0.0
 11
-2.7046517042
 21
-26.7962946576
 31
0.0
  0
LINE
  5
499
100
AcDbEntity
  8
SUPERFICI
100
AcDbLine
 62
253
  6
CONTINUOUS
 10
-19.1616293425
 20
-9.1392272617
 11
-19.1643527451
 21
-8.960019433
  0
SPLINE
  5
49A
100
AcDbEntity
  8
SUPERFICI
100
AcDbSpline
 62
7
  6
CONTINUOUS
 70
0
 71
3
 72
9
 73
5
 74
3
 42
0.0000001
 43
0.0000001
 44
0.0000000001
 12
0.0000666349
 22
-0.3091954667
 32
0.0
 13
-0.2742309765
 23
-0.1428258121
 33
0.0
 40
0.0
 40
0.0
 40
0.0
 40
0.0
 40
0.5512114565
 40
1.0
 40
1.0
 40
1.0
 40
1.0
 10
2.1009680119
 20
-24.5624572615
 30
0.0
 10
2.1009802552
 20
-24.619267956
 30
0.0
 10
2.0864693218
 20
-24.7248615585
 30
0.0
 10
2.0147723822
 20
-24.810430395
 30
0.0
 10
1.9737484754
 20
-24.8317965911
 30
0.0
 11
2.1009680119
 21
-24.5624572615
 31
0.0
 11
2.0676080128
 21
-24.7295925567
 31
0.0
 11
1.9737484754
 21
-24.8317965911
 31
0.0
  0
LINE
  5
49B
100
AcDbEntity
  8
SUPERFICI
100
AcDbLine
 62
253
  6
CONTINUOUS
 10
-19.1616293425
 20
7.3152554102
 11
-19.1588604909
 21
7.4883365943
  0
SPLINE
  5
49C
100
AcDbEntity
  8
SUPERFICI
100
AcDbSpline
 62
253
  6
CONTINUOUS
 70
0
 71
3
 72
9
 73
5
 74
3
 42
0.0000001
 43
0.0000001
 44
0.0000000001
 12
0.2162519516
 22
9.8352364103
 32
0.0
 13
1.1129468734
 23
9.7744559649
 33
0.0
 40
0.0
 40
0.0
 40
0.0
 40
0.0
 40
0.2457963671
 40
1.0
 40
1.0
 40
1.0
 40
1.0
 10
-19.1489057673
 20
8.0006675966
 30
0.0
 10
-19.131187786
 20
8.8064893898
 30
0.0
 10
-19.0196637881
 20
12.0839571783
 30
0.0
 10
-18.7535261694
 20
15.3558254189
 30
0.0
 10
-18.4737299778
 20
17.8131354849
 30
0.0
 11
-19.1489057673
 21
8.0006675966
 31
0.0
 11
-19.067022285
 21
10.41733044
 31
0.0
 11
-18.4737299778
 21
17.8131354849
 31
0.0
  0
SPLINE
  5
49D
100
AcDbEntity
  8
SUPERFICI
100
AcDbSpline
 62
253
  6
CONTINUOUS
 70
0
 71
3
 72
9
 73
5
 74
3
 42
0.0000001
 43
0.0000001
 44
0.0000000001
 12
0.0428875965
 22
0.3731936249
 32
0.0
 13
0.1363799411
 23
0.3500190556
 33
0.0
 40
0.0
 40
0.0
 40
0.0
 40
0.0
 40
0.2418678587
 40
1.0
 40
1.0
 40
1.0
 40
1.0
 10
-18.4737299778
 20
17.8131354849
 30
0.0
 10
-18.4702722674
 20
17.8432233325
 30
0.0
 10
-18.4515085517
 20
17.9670881741
 30
0.0
 10
-18.4160262756
 20
18.0882440732
 30
0.0
 10
-18.3815616034
 20
18.1766976385
 30
0.0
 11
-18.4737299778
 21
17.8131354849
 31
0.0
 11
-18.4602175511
 21
17.9029827072
 31
0.0
 11
-18.3815616034
 21
18.1766976385
 31
0.0
  0
SPLINE
  5
49E
100
AcDbEntity
  8
SUPERFICI
100
AcDbSpline
 62
253
  6
CONTINUOUS
 70
0
 71
3
 72
9
 73
5
 74
3
 42
0.0000001
 43
0.0000001
 44
0.0000000001
 12
0.278486016
 22
0.380329975
 32
0.0
 13
0.401702965
 23
0.2466578175
 33
0.0
 40
0.0
 40
0.0
 40
0.0
 40
0.0
 40
0.2659486953
 40
1.0
 40
1.0
 40
1.0
 40
1.0
 10
-18.1800979366
 20
18.545018069
 30
0.0
 10
-18.1554102724
 20
18.5787341559
 30
0.0
 10
-18.0575146392
 20
18.7015181015
 30
0.0
 10
-17.9383944823
 20
18.8089348773
 30
0.0
 10
-17.8401042871
 20
18.8692880416
 30
0.0
 11
-18.1800979366
 21
18.545018069
 31
0.0
 11
-18.1018386574
 21
18.6429557161
 31
0.0
 11
-17.8401042871
 21
18.8692880416
 31
0.0
  0
ELLIPSE
  5
49F
100
AcDbEntity
  8
ASSI
100
AcDbEllipse
 62
7
  6
CONTINUOUS
 10
13.7237638842
 20
-7.4111397011
 30
0.0
 11
0.9261626287
 21
1.8847694129
 31
0.0
 40
0.607010042
 41
-2.7637651264
 42
-2.4610674593
  0
ELLIPSE
  5
4A0
100
AcDbEntity
  8
ASSI
100
AcDbEllipse
 62
7
  6
CONTINUOUS
 10
13.7237638842
 20
-11.74126672
 30
0.0
 11
0.9261626287
 21
1.8847694129
 31
0.0
 40
0.607010042
 41
-2.7637651264
 42
-2.4610674593
  0
ELLIPSE
  5
4A1
100
AcDbEntity
  8
RACCORDO
100
AcDbEllipse
 62
7
  6
CONTINUOUS
 10
-3.5045061439
 20
18.9569031109
 30
0.0
 11
1.2181247452
 21
0.9560445338
 31
0.0
 40
0.2321910517
 41
0.1093596625
 42
0.1138484791
  0
ELLIPSE
  5
4A2
100
AcDbEntity
  8
ASSI
100
AcDbEllipse
 62
7
  6
CONTINUOUS
 10
14.5625492679
 20
-7.8305323929
 30
0.0
 11
0.9134242373
 21
1.8910797574
 31
0.0
 40
0.6016116119
 41
0.6764898932
 42
3.8180825468
  0
ELLIPSE
  5
4A3
100
AcDbEntity
  8
ASSI
100
AcDbEllipse
 62
7
  6
CONTINUOUS
 10
14.5625492679
 20
-12.1606594118
 30
0.0
 11
0.9134242373
 21
1.8910797574
 31
0.0
 40
0.6016116119
 41
0.6764898932
 42
3.8180825468
  0
ELLIPSE
  5
4A4
100
AcDbEntity
  8
SUPERFICI
100
AcDbEllipse
 62
7
  6
CONTINUOUS
 10
-3.5951260842
 20
22.8684505444
 30
0.0
 11
0.2257019663
 21
0.4461636818
 31
0.0
 40
0.6159267166
 41
0.5882567743
 42
0.6817883054
  0
ELLIPSE
  5
4A5
100
AcDbEntity
  8
SUPERFICI
100
AcDbEllipse
 62
7
  6
CONTINUOUS
 10
-5.9240768249
 20
19.7292933797
 30
0.0
 11
-0.0894407211
 21
0.1788887077
 31
0.0
 40
0.6123703628
 41
-2.2554972904
 42
-0.6847009636
  0
ELLIPSE
  5
4A6
100
AcDbEntity
  8
SUPERFICI
100
AcDbEllipse
 62
7
  6
CONTINUOUS
 10
-4.22702055
 20
18.8807652423
 30
0.0
 11
-0.0894407211
 21
0.1788887077
 31
0.0
 40
0.6123703628
 41
-0.6847009636
 42
-0.0035385455
  0
ELLIPSE
  5
4A7
100
AcDbEntity
  8
DRAFT
100
AcDbEllipse
 62
7
  6
CONTINUOUS
 10
7.699498968
 20
17.915050071
 30
0.0
 11
0.499996712
 21
0.0035883639
 31
0.0
 40
0.5053247124
 41
-0.7715714568
 42
-0.0038285342
  0
ELLIPSE
  5
4A8
100
AcDbEntity
  8
DRAFT
100
AcDbEllipse
 62
7
  6
CONTINUOUS
 10
-3.7961072052
 20
23.6075198036
 30
0.0
 11
1.004787277
 21
0.6140102217
 31
0.0
 40
0.0864918533
 41
0.0522910745
 42
0.7329085821
  0
ELLIPSE
  5
4A9
100
AcDbEntity
  8
DRAFT
100
AcDbEllipse
 62
7
  6
CONTINUOUS
 10
7.787145454
 20
-19.1391199507
 30
0.0
 11
0.9927147821
 21
0.620457446
 31
0.0
 40
0.0764819879
 41
-2.4043514965
 42
-1.2091443565
  0
ELLIPSE
  5
4AA
100
AcDbEntity
  8
DRAFT
100
AcDbEllipse
 62
7
  6
CONTINUOUS
 10
-2.5299642752
 20
19.1058351595
 30
0.0
 11
0.9999934239
 21
0.0071767279
 31
0.0
 40
0.5053247124
 41
2.0770967118
 42
2.3525679043
  0
ELLIPSE
  5
4AB
100
AcDbEntity
  8
SUPERFICI
100
AcDbEllipse
 62
7
  6
CONTINUOUS
 10
2.4492627834
 20
-24.0246503413
 30
0.0
 11
-0.2236315662
 21
0.4472293059
 31
0.0
 40
0.6123445654
 41
-3.1337469158
 42
-2.2555748796
  0
ELLIPSE
  5
4AC
100
AcDbEntity
  8
SUPERFICI
100
AcDbEllipse
 62
7
  6
CONTINUOUS
 10
2.4492627834
 20
13.8971709115
 30
0.0
 11
-0.223611546
 21
0.4472115081
 31
0.0
 40
0.6124054886
 41
-2.2555017776
 42
-0.6847562194
  0
ELLIPSE
  5
4AD
100
AcDbEntity
  8
SUPERFICI
100
AcDbEllipse
 62
7
  6
CONTINUOUS
 10
51.7393707942
 20
44.3261867342
 30
0.0
 11
60.4168605605
 21
30.5632322457
 31
0.0
 40
0.005706723
 41
2.5167363259
 42
2.6876789752
  0
ELLIPSE
  5
4AE
100
AcDbEntity
  8
SUPERFICI
100
AcDbEllipse
 62
7
  6
CONTINUOUS
 10
2.6364168647
 20
19.75267907
 30
0.0
 11
0.221538876
 21
0.4482453432
 31
0.0
 40
0.6088015717
 41
0.5825560023
 42
0.6760875334
  0
ELLIPSE
  5
4AF
100
AcDbEntity
  8
SUPERFICI
100
AcDbEllipse
 62
7
  6
CONTINUOUS
 10
51.7393707942
 20
44.3261867342
 30
0.0
 11
60.4168605605
 21
30.5632322457
 31
0.0
 40
0.005706723
 41
-2.6934527084
 42
-2.5225100591
  0
ELLIPSE
  5
4B0
100
AcDbEntity
  8
SUPERFICI
100
AcDbEllipse
 62
7
  6
CONTINUOUS
 10
-5.1462593656
 20
17.2001356484
 30
0.0
 11
0.199943508
 21
0.008945986
 31
0.0
 40
0.5313301283
 41
3.1178257339
 42
3.9032222197
  0
ELLIPSE
  5
4B1
100
AcDbEntity
  8
SUPERFICI
100
AcDbEllipse
 62
7
  6
CONTINUOUS
 10
-6.8433156404
 20
18.0486637858
 30
0.0
 11
0.199943508
 21
0.008945986
 31
0.0
 40
0.5313301283
 41
-2.3799630874
 42
-0.8091667606
  0
ELLIPSE
  5
4B2
100
AcDbEntity
  8
DRAFT
100
AcDbEllipse
 62
7
  6
CONTINUOUS
 10
7.787145454
 20
17.815893474
 30
0.0
 11
-0.7356038977
 21
1.2035991204
 31
0.0
 40
0.5552491559
 41
5.0404636726
 42
6.2356708126
  0
ELLIPSE
  5
4B3
100
AcDbEntity
  8
SUPERFICI
100
AcDbEllipse
 62
7
  6
CONTINUOUS
 10
0.3286729133
 20
13.747800922
 30
0.0
 11
0.249929385
 21
0.0111824824
 31
0.0
 40
0.5313301283
 41
-2.3799630874
 42
-0.8149845248
  0
ELLIPSE
  5
4B4
100
AcDbEntity
  8
DRAFT
100
AcDbEllipse
 62
7
  6
CONTINUOUS
 10
7.699498968
 20
-19.2767565099
 30
0.0
 11
0.499443764
 21
0.3120915671
 31
0.0
 40
0.0755486457
 41
5.9766181181
 42
7.0039564932
  0
ELLIPSE
  5
4B5
100
AcDbEntity
  8
DRAFT
100
AcDbEllipse
 62
7
  6
CONTINUOUS
 10
7.699498968
 20
18.7482833005
 30
0.0
 11
-0.3739417019
 21
0.598522373
 31
0.0
 40
0.554557473
 41
-3.1836090632
 42
-2.1562706881
  0
ELLIPSE
  5
4B6
100
AcDbEntity
  8
SUPERFICI
100
AcDbEllipse
 62
7
  6
CONTINUOUS
 10
-1.3580928109
 20
14.5911837841
 30
0.0
 11
0.249929385
 21
0.0111824824
 31
0.0
 40
0.5313301283
 41
3.1178197826
 42
3.9032222197
  0
ELLIPSE
  5
4B7
100
AcDbEntity
  8
SUPERFICI
100
AcDbEllipse
 62
7
  6
CONTINUOUS
 10
-13.6617508036
 20
20.7430127804
 30
0.0
 11
0.249929385
 21
0.0111824824
 31
0.0
 40
0.5313301283
 41
3.1178197826
 42
3.9032222197
  0
ELLIPSE
  5
4B8
100
AcDbEntity
  8
SUPERFICI
100
AcDbEllipse
 62
7
  6
CONTINUOUS
 10
-11.9749850793
 20
19.8996299183
 30
0.0
 11
0.249929385
 21
0.0111824824
 31
0.0
 40
0.5313301283
 41
-2.3799630874
 42
-0.8149845248
  0
ELLIPSE
  5
4B9
100
AcDbEntity
  8
SUPERFICI
100
AcDbEllipse
 62
7
  6
CONTINUOUS
 10
2.349072515
 20
18.9766978579
 30
0.0
 11
0.4530414621
 21
-0.0021419047
 31
0.0
 40
0.4964289597
 41
-0.77723337
 42
0.0023153674
  0
ELLIPSE
  5
4BA
100
AcDbEntity
  8
SUPERFICI
100
AcDbEllipse
 62
7
  6
CONTINUOUS
 10
-2.5299642752
 20
21.1024216667
 30
0.0
 11
0.9999972457
 21
-0.0047278206
 31
0.0
 40
0.4964289597
 41
1.3113439682
 42
2.3585415194
  0
ELLIPSE
  5
4BB
100
AcDbEntity
  8
SUPERFICI
100
AcDbEllipse
 62
7
  6
CONTINUOUS
 10
-3.241374098
 20
21.7719211644
 30
0.0
 11
0.4530414621
 21
-0.0021419047
 31
0.0
 40
0.4964289597
 41
-0.7830511342
 42
0.0023167121
  0
ENDSEC
  0
SECTION
  2
OBJECTS
  0
DICTIONARY
  5
C
100
AcDbDictionary
280
0
281
1
  3
ACAD_GROUP
350
D
  3
ACAD_MLINESTYLE
350
17
  3
ACAD_LAYOUT
350
1A
  3
ACAD_PLOTSETTINGS
350
19
  3
ACAD_PLOTSTYLENAME
350
E
  0
DICTIONARY
  5
D
102
{ACAD_REACTORS
330
C
102
}
100
AcDbDictionary
280
0
281
1
  0
ACDBDICTIONARYWDFLT
  5
E
102
{ACAD_REACTORS
330
C
102
}
100
AcDbDictionary
281
1
  3
Normal
350
F
100
AcDbDictionaryWithDefault
340
F
  0
DICTIONARY
  5
17
102
{ACAD_REACTORS
330
C
102
}
100
AcDbDictionary
280
0
281
1
  3
Standard
350
18
  0
DICTIONARY
  5
19
102
{ACAD_REACTORS
330
C
102
}
100
AcDbDictionary
281
1
  0
DICTIONARY
  5
1A
102
{ACAD_REACTORS
330
C
102
}
100
AcDbDictionary
281
1
  3
Model
350
4BC
  3
Layout1
350
4BD
  0
ACDBPLACEHOLDER
  5
F
102
{ACAD_REACTORS
330
E
102
}
  0
MLINESTYLE
  5
18
102
{ACAD_REACTORS
330
17
102
}
100
AcDbMlineStyle
  2
STANDARD
 70
0
  3

 62
256
 51
90.0
 52
90.0
 71
2
 49
0.5
 62
256
  6
BYLAYER
 49
-0.5
 62
256
  6
BYLAYER
  0
LAYOUT
  5
4BC
102
{ACAD_REACTORS
330
1A
102
}
100
AcDbPlotSettings
  1

  2
none_device
  4
ISO_A4_(297.00_x_210.00_MM)
  6

 40
0.0
 41
0.0
 42
0.0
 43
0.0
 44
297.0
 45
210.0
 46
0.0
 47
0.0
 48
0.0
 49
0.0
140
0.0
141
0.0
142
1.0
143
1.0
 70
1024
 72
1
 73
0
 74
0
  7

 75
0
147
1.0
148
0.0
149
0.0
100
AcDbLayout
  1
Model
 70
0
 71
0
 10
0.0
 20
0.0
 11
297.0
 21
210.0
 12
0.0
 22
0.0
 32
0.0
 14
0.0
 24
0.0
 34
0.0
 15
0.0
 25
0.0
 35
0.0
146
0.0
 13
0.0
 23
0.0
 33
0.0
 16
1.0
 26
0.0
 36
0.0
 17
0.0
 27
1.0
 37
0.0
 76
0
330
21E
345
0
346
0
  0
LAYOUT
  5
4BD
102
{ACAD_REACTORS
330
1A
102
}
100
AcDbPlotSettings
  1

  2
none_device
  4
ISO_A4_(297.00_x_210.00_MM)
  6

 40
0.0
 41
0.0
 42
0.0
 43
0.0
 44
297.0
 45
210.0
 46
0.0
 47
0.0
 48
0.0
 49
0.0
140
0.0
141
0.0
142
1.0
143
1.0
 70
0
 72
1
 73
0
 74
0
  7

 75
0
147
1.0
148
0.0
149
0.0
100
AcDbLayout
  1
Layout1
 70
0
 71
1
 10
0.0
 20
0.0
 11
297.0
 21
210.0
 12
0.0
 22
0.0
 32
0.0
 14
0.0
 24
0.0
 34
0.0
 15
0.0
 25
0.0
 35
0.0
146
0.0
 13
0.0
 23
0.0
 33
0.0
 16
1.0
 26
0.0
 36
0.0
 17
0.0
 27
1.0
 37
0.0
 76
0
330
21F
345
0
346
0
  0
ENDSEC
  0
EOF
