  0
SECTION
  2
HEADER
  9
$ACADVER
  1
AC1021
  9
$DWGCODEPAGE
  3
ANSI_1252
  9
$EXTMAX
 10
210.0
 20
297.0
 30
0.0
  9
$EXTMIN
 10
0.0
 20
0.0
 30
0.0
  9
$LIMMIN
 10
0.0
 20
0.0
  9
$LIMMAX
 10
210.0
 20
297.0
  9
$VIEWCTR
 10
105.0
 20
148.5
  9
$VIEWSIZE
 40
297.0
  9
$CLAYER
  8
0
  9
$LTSCALE
 40
19.36
  9
$CELTYPE
  6
BYLAYER
  9
$DIMSCALE
 40
1.0
  9
$DIMASZ
 40
3.0
  9
$DIMEXO
 40
0.5
  9
$DIMDLI
 40
13.376
  9
$DIMEXE
 40
1.5
  9
$DIMCEN
 40
3.168
  9
$DIMLFAC
 40
1.0
  9
$DIMBLK
  1
_FILLED
  9
$DIMALT
 70
0
  9
$DIMALTF
 40
0.0393700787
  9
$DIMTXT
 40
3.0
  9
$DIMTOL
 70
1
  9
$DIMLIM
 70
0
  9
$DIMTFAC
 40
1.0
  9
$DIMTP
 40
0.01
  9
$DIMTM
 40
0.01
  9
$DIMGAP
 40
0.625
  9
$DIMDSEP
 70
44
  9
$AUNITS
 70
0
  9
$PDMODE
 70
3
  9
$PDSIZE
 40
3.0
  9
$HANDSEED
  5
58A
  9
$TILEMODE
 70
1
  9
$MEASUREMENT
 70
1
  9
$INSUNITS
 70
4
  0
ENDSEC
  0
SECTION
  2
CLASSES
  0
CLASS
  1
ACDBDICTIONARYWDFLT
  2
AcDbDictionaryWithDefault
  3
AutoCAD 2000
 90
0
 91
1
280
0
281
0
  0
CLASS
  1
ACDBPLACEHOLDER
  2
AcDbPlaceHolder
  3
AutoCAD 2000
 90
0
 91
1
280
0
281
0
  0
CLASS
  1
LAYOUT
  2
AcDbLayout
  3
AutoCAD 2000
 90
0
 91
0
280
0
281
0
  0
ENDSEC
  0
SECTION
  2
TABLES
  0
TABLE
  2
VPORT
  5
8
100
AcDbSymbolTable
 70
2
  0
VPORT
  5
1F4
100
AcDbSymbolTableRecord
100
AcDbViewportTableRecord
  2
*ACTIVE
 70
0
 10
0.0
 20
0.0
 11
1.0
 21
1.0
 12
105.0
 22
148.5
 13
0.0
 23
0.0
 14
1.0
 24
1.0
 15
0.0
 25
0.0
 16
0.0
 26
0.0
 36
1.0
 17
0.0
 27
0.0
 37
0.0
 40
297.0
 41
0.7070707071
 42
50.0
 43
0.0
 44
0.0
 50
0.0
 51
0.0
 71
0
 72
100
 73
1
 74
1
 75
0
 76
0
 77
0
 78
0
  0
ENDTAB
  0
TABLE
  2
LTYPE
  5
5
100
AcDbSymbolTable
 70
6
  0
LTYPE
  5
14
100
AcDbSymbolTableRecord
100
AcDbLinetypeTableRecord
  2
BYBLOCK
 70
0
  3

 72
65
 73
0
 40
0.0
  0
LTYPE
  5
15
100
AcDbSymbolTableRecord
100
AcDbLinetypeTableRecord
  2
BYLAYER
 70
0
  3

 72
65
 73
0
 40
0.0
  0
LTYPE
  5
16
100
AcDbSymbolTableRecord
100
AcDbLinetypeTableRecord
  2
CONTINUOUS
 70
64
  3
Solid line
 72
65
 73
0
 40
0.0
  0
LTYPE
  5
1F5
100
AcDbSymbolTableRecord
100
AcDbLinetypeTableRecord
  2
CENTER
 70
64
  3
____ _ ____ _ ____ _ ____ _ ____ _ ____ _ ____
 72
65
 73
4
 40
0.6
 49
0.375
 74
0
 49
-0.075
 74
0
 49
0.075
 74
0
 49
-0.075
 74
0
  0
LTYPE
  5
1F6
100
AcDbSymbolTableRecord
100
AcDbLinetypeTableRecord
  2
HIDDEN
 70
64
  3
- - - - - - - - - - - - - - - - - - - -
 72
65
 73
2
 40
0.2
 49
0.1
 74
0
 49
-0.1
 74
0
  0
LTYPE
  5
1F7
100
AcDbSymbolTableRecord
100
AcDbLinetypeTableRecord
  2
PHANTOM
 70
64
  3
_____ _ _ _____ _ _ _____ _ _ _____
 72
65
 73
6
 40
0.8
 49
0.45
 74
0
 49
-0.05
 74
0
 49
0.1
 74
0
 49
-0.05
 74
0
 49
0.1
 74
0
 49
-0.05
 74
0
  0
LTYPE
  5
1F8
100
AcDbSymbolTableRecord
100
AcDbLinetypeTableRecord
  2
DOT
 70
64
  3
. . . . . . . . . . . . . . . . . . . .
 72
65
 73
2
 40
0.2
 49
0.1
 74
0
 49
-0.1
 74
0
  0
LTYPE
  5
1F9
100
AcDbSymbolTableRecord
100
AcDbLinetypeTableRecord
  2
DASHED
 70
64
  3
- - - - - - - - - - - - - - - - - - - -
 72
65
 73
2
 40
0.2
 49
0.1
 74
0
 49
-0.1
 74
0
  0
ENDTAB
  0
TABLE
  2
LAYER
  5
2
100
AcDbSymbolTable
 70
36
  0
LAYER
  5
10
100
AcDbSymbolTableRecord
100
AcDbLayerTableRecord
  2
0
 70
0
 62
7
  6
CONTINUOUS
370
-3
390
F
  0
LAYER
  5
1FA
100
AcDbSymbolTableRecord
100
AcDbLayerTableRecord
  2
DEFAULT_1
 70
0
 62
7
  6
CENTER
370
-3
390
F
  0
LAYER
  5
1FB
100
AcDbSymbolTableRecord
100
AcDbLayerTableRecord
  2
DEFAULT_2
 70
0
 62
7
  6
HIDDEN
370
-3
390
F
  0
LAYER
  5
1FC
100
AcDbSymbolTableRecord
100
AcDbLayerTableRecord
  2
DEFAULT_3
 70
0
 62
7
  6
PHANTOM
370
-3
390
F
  0
LAYER
  5
1FD
100
AcDbSymbolTableRecord
100
AcDbLayerTableRecord
  2
2125-CC-RF-VIMAR_110000
 70
0
 62
7
  6
CONTINUOUS
370
-3
390
F
  0
LAYER
  5
1FE
100
AcDbSymbolTableRecord
100
AcDbLayerTableRecord
  2
2125-R1-RF-VIMAR_60000
 70
0
 62
7
  6
CONTINUOUS
370
-3
390
F
  0
LAYER
  5
1FF
100
AcDbSymbolTableRecord
100
AcDbLayerTableRecord
  2
2125-R1-RF-VIMAR_60000_1
 70
0
 62
7
  6
CONTINUOUS
370
-3
390
F
  0
LAYER
  5
200
100
AcDbSymbolTableRecord
100
AcDbLayerTableRecord
  2
2125-R1-RF-VIMAR_60000_2
 70
0
 62
7
  6
CONTINUOUS
370
-3
390
F
  0
LAYER
  5
201
100
AcDbSymbolTableRecord
100
AcDbLayerTableRecord
  2
2125-R1-RF-VIMAR_60000_3
 70
0
 62
7
  6
CONTINUOUS
370
-3
390
F
  0
LAYER
  5
202
100
AcDbSymbolTableRecord
100
AcDbLayerTableRecord
  2
3216-R1-RF-VIMAR_60000
 70
0
 62
7
  6
CONTINUOUS
370
-3
390
F
  0
LAYER
  5
203
100
AcDbSymbolTableRecord
100
AcDbLayerTableRecord
  2
3216-R1-RF-VIMAR_60000_1
 70
0
 62
7
  6
CONTINUOUS
370
-3
390
F
  0
LAYER
  5
204
100
AcDbSymbolTableRecord
100
AcDbLayerTableRecord
  2
43000741A0
 70
0
 62
7
  6
CONTINUOUS
370
-3
390
F
  0
LAYER
  5
205
100
AcDbSymbolTableRecord
100
AcDbLayerTableRecord
  2
ASSI
 70
0
 62
7
  6
CONTINUOUS
370
-3
390
F
  0
LAYER
  5
206
100
AcDbSymbolTableRecord
100
AcDbLayerTableRecord
  2
CAP-REC-27-10_5-19-22_5_1900000
 70
0
 62
7
  6
CONTINUOUS
370
-3
390
F
  0
LAYER
  5
207
100
AcDbSymbolTableRecord
100
AcDbLayerTableRecord
  2
CN-MRT4P5_2SQV01-VIMAR_1600000
 70
0
 62
7
  6
CONTINUOUS
370
-3
390
F
  0
LAYER
  5
208
100
AcDbSymbolTableRecord
100
AcDbLayerTableRecord
  2
CN-MRT4P5_2SQV01-VIMAR_160000_1
 70
0
 62
7
  6
CONTINUOUS
370
-3
390
F
  0
LAYER
  5
209
100
AcDbSymbolTableRecord
100
AcDbLayerTableRecord
  2
CN1-REF_RHOMBUSHOLE24_SPEA_0
 70
0
 62
7
  6
CONTINUOUS
370
-3
390
F
  0
LAYER
  5
20A
100
AcDbSymbolTableRecord
100
AcDbLayerTableRecord
  2
CN1-REF_RHOMBUSHOLE24_SPEA_0_1
 70
0
 62
7
  6
CONTINUOUS
370
-3
390
F
  0
LAYER
  5
20B
100
AcDbSymbolTableRecord
100
AcDbLayerTableRecord
  2
COLOR6
 70
0
 62
7
  6
CONTINUOUS
370
-3
390
F
  0
LAYER
  5
20C
100
AcDbSymbolTableRecord
100
AcDbLayerTableRecord
  2
COORDINATE
 70
0
 62
7
  6
CONTINUOUS
370
-3
390
F
  0
LAYER
  5
20D
100
AcDbSymbolTableRecord
100
AcDbLayerTableRecord
  2
COORD_ORIGINE
 70
0
 62
7
  6
CONTINUOUS
370
-3
390
F
  0
LAYER
  5
20E
100
AcDbSymbolTableRecord
100
AcDbLayerTableRecord
  2
COPY_PUBLISH
 70
0
 62
7
  6
CONTINUOUS
370
-3
390
F
  0
LAYER
  5
20F
100
AcDbSymbolTableRecord
100
AcDbLayerTableRecord
  2
COSMETIC
 70
0
 62
7
  6
CONTINUOUS
370
-3
390
F
  0
LAYER
  5
210
100
AcDbSymbolTableRecord
100
AcDbLayerTableRecord
  2
COSMETICI
 70
0
 62
7
  6
CONTINUOUS
370
-3
390
F
  0
LAYER
  5
211
100
AcDbSymbolTableRecord
100
AcDbLayerTableRecord
  2
CURVE
 70
0
 62
7
  6
CONTINUOUS
370
-3
390
F
  0
LAYER
  5
212
100
AcDbSymbolTableRecord
100
AcDbLayerTableRecord
  2
DRAFT
 70
0
 62
7
  6
CONTINUOUS
370
-3
390
F
  0
LAYER
  5
213
100
AcDbSymbolTableRecord
100
AcDbLayerTableRecord
  2
E2_MARK_10000
 70
0
 62
7
  6
CONTINUOUS
370
-3
390
F
  0
LAYER
  5
214
100
AcDbSymbolTableRecord
100
AcDbLayerTableRecord
  2
IMPORT_IGES
 70
0
 62
7
  6
CONTINUOUS
370
-3
390
F
  0
LAYER
  5
215
100
AcDbSymbolTableRecord
100
AcDbLayerTableRecord
  2
INTF_1
 70
0
 62
7
  6
CONTINUOUS
370
-3
390
F
  0
LAYER
  5
216
100
AcDbSymbolTableRecord
100
AcDbLayerTableRecord
  2
INTF_11
 70
0
 62
7
  6
CONTINUOUS
370
-3
390
F
  0
LAYER
  5
217
100
AcDbSymbolTableRecord
100
AcDbLayerTableRecord
  2
INTF_2
 70
0
 62
7
  6
CONTINUOUS
370
-3
390
F
  0
LAYER
  5
218
100
AcDbSymbolTableRecord
100
AcDbLayerTableRecord
  2
INTF_CYAN
 70
0
 62
7
  6
CONTINUOUS
370
-3
390
F
  0
LAYER
  5
219
100
AcDbSymbolTableRecord
100
AcDbLayerTableRecord
  2
LED_5MM
 70
0
 62
7
  6
CONTINUOUS
370
-3
390
F
  0
LAYER
  5
21A
100
AcDbSymbolTableRecord
100
AcDbLayerTableRecord
  2
LOGO_RESIST-RESTYLING_10000
 70
0
 62
7
  6
CONTINUOUS
370
-3
390
F
  0
LAYER
  5
21B
100
AcDbSymbolTableRecord
100
AcDbLayerTableRecord
  2
MM3-MPAK-RF-VIMAR_120000
 70
0
 62
7
  6
CONTINUOUS
370
-3
390
F
  0
LAYER
  5
21C
100
AcDbSymbolTableRecord
100
AcDbLayerTableRecord
  2
MM3-MPAK-RF-VIMAR_120000_1
 70
0
 62
7
  6
CONTINUOUS
370
-3
390
F
  0
LAYER
  5
21D
100
AcDbSymbolTableRecord
100
AcDbLayerTableRecord
  2
MM3-MPAK-RF-VIMAR_120000_2
 70
0
 62
7
  6
CONTINUOUS
370
-3
390
F
  0
LAYER
  5
21E
100
AcDbSymbolTableRecord
100
AcDbLayerTableRecord
  2
MM4-ABS-VIMAR_180000
 70
0
 62
7
  6
CONTINUOUS
370
-3
390
F
  0
LAYER
  5
21F
100
AcDbSymbolTableRecord
100
AcDbLayerTableRecord
  2
NO-PB_MARK_10000
 70
0
 62
7
  6
CONTINUOUS
370
-3
390
F
  0
LAYER
  5
220
100
AcDbSymbolTableRecord
100
AcDbLayerTableRecord
  2
NOTE
 70
0
 62
7
  6
CONTINUOUS
370
-3
390
F
  0
LAYER
  5
221
100
AcDbSymbolTableRecord
100
AcDbLayerTableRecord
  2
PIANI
 70
0
 62
7
  6
CONTINUOUS
370
-3
390
F
  0
LAYER
  5
222
100
AcDbSymbolTableRecord
100
AcDbLayerTableRecord
  2
PIANI_ORIGINE
 70
0
 62
7
  6
CONTINUOUS
370
-3
390
F
  0
LAYER
  5
223
100
AcDbSymbolTableRecord
100
AcDbLayerTableRecord
  2
PIANI_RIFERIMENTO
 70
0
 62
7
  6
CONTINUOUS
370
-3
390
F
  0
LAYER
  5
224
100
AcDbSymbolTableRecord
100
AcDbLayerTableRecord
  2
PUNTI
 70
0
 62
7
  6
CONTINUOUS
370
-3
390
F
  0
LAYER
  5
225
100
AcDbSymbolTableRecord
100
AcDbLayerTableRecord
  2
RACCORDO
 70
0
 62
7
  6
CONTINUOUS
370
-3
390
F
  0
LAYER
  5
226
100
AcDbSymbolTableRecord
100
AcDbLayerTableRecord
  2
RD-CE25-1-VIMAR_1100000
 70
0
 62
7
  6
CONTINUOUS
370
-3
390
F
  0
LAYER
  5
227
100
AcDbSymbolTableRecord
100
AcDbLayerTableRecord
  2
RD-CE35-1-VIMAR_1150000
 70
0
 62
7
  6
CONTINUOUS
370
-3
390
F
  0
LAYER
  5
228
100
AcDbSymbolTableRecord
100
AcDbLayerTableRecord
  2
RD-D-D3P3_5-VIMAR_1500000
 70
0
 62
7
  6
CONTINUOUS
370
-3
390
F
  0
LAYER
  5
229
100
AcDbSymbolTableRecord
100
AcDbLayerTableRecord
  2
RD-D-D3P3_5-VIMAR_1500000_1
 70
0
 62
7
  6
CONTINUOUS
370
-3
390
F
  0
LAYER
  5
22A
100
AcDbSymbolTableRecord
100
AcDbLayerTableRecord
  2
RD-R40-1W-1-VIMAR_1700000
 70
0
 62
7
  6
CONTINUOUS
370
-3
390
F
  0
LAYER
  5
22B
100
AcDbSymbolTableRecord
100
AcDbLayerTableRecord
  2
RGB__255__255__255__
 70
0
 62
7
  6
CONTINUOUS
370
-3
390
F
  0
LAYER
  5
22C
100
AcDbSymbolTableRecord
100
AcDbLayerTableRecord
  2
RY-S13-3_2-VIMAR_1500000
 70
0
 62
7
  6
CONTINUOUS
370
-3
390
F
  0
LAYER
  5
22D
100
AcDbSymbolTableRecord
100
AcDbLayerTableRecord
  2
S-D2F-L-VIMAR_1000000
 70
0
 62
7
  6
CONTINUOUS
370
-3
390
F
  0
LAYER
  5
22E
100
AcDbSymbolTableRecord
100
AcDbLayerTableRecord
  2
S-D2F-L3-VIMAR_1000000
 70
0
 62
7
  6
CONTINUOUS
370
-3
390
F
  0
LAYER
  5
22F
100
AcDbSymbolTableRecord
100
AcDbLayerTableRecord
  2
SIMBOLI
 70
0
 62
7
  6
CONTINUOUS
370
-3
390
F
  0
LAYER
  5
230
100
AcDbSymbolTableRecord
100
AcDbLayerTableRecord
  2
SKEL
 70
0
 62
7
  6
CONTINUOUS
370
-3
390
F
  0
LAYER
  5
231
100
AcDbSymbolTableRecord
100
AcDbLayerTableRecord
  2
SMUSSO
 70
0
 62
7
  6
CONTINUOUS
370
-3
390
F
  0
LAYER
  5
232
100
AcDbSymbolTableRecord
100
AcDbLayerTableRecord
  2
SNAPLINE
 70
0
 62
7
  6
CONTINUOUS
370
-3
390
F
  0
LAYER
  5
233
100
AcDbSymbolTableRecord
100
AcDbLayerTableRecord
  2
SOD123_135000
 70
0
 62
7
  6
CONTINUOUS
370
-3
390
F
  0
LAYER
  5
234
100
AcDbSymbolTableRecord
100
AcDbLayerTableRecord
  2
SUPERFICI
 70
0
 62
7
  6
CONTINUOUS
370
-3
390
F
  0
LAYER
  5
235
100
AcDbSymbolTableRecord
100
AcDbLayerTableRecord
  2
TRASH
 70
0
 62
7
  6
CONTINUOUS
370
-3
390
F
  0
LAYER
  5
236
100
AcDbSymbolTableRecord
100
AcDbLayerTableRecord
  2
TR_T7YA_635000
 70
0
 62
7
  6
CONTINUOUS
370
-3
390
F
  0
LAYER
  5
237
100
AcDbSymbolTableRecord
100
AcDbLayerTableRecord
  2
XSEC_DATUMS
 70
0
 62
7
  6
CONTINUOUS
370
-3
390
F
  0
LAYER
  5
238
100
AcDbSymbolTableRecord
100
AcDbLayerTableRecord
  2
___SHELL
 70
0
 62
7
  6
CONTINUOUS
370
-3
390
F
  0
ENDTAB
  0
TABLE
  2
STYLE
  5
3
100
AcDbSymbolTable
 70
1
  0
STYLE
  5
11
100
AcDbSymbolTableRecord
100
AcDbTextStyleTableRecord
  2
STANDARD
 70
0
 40
0.0
 41
0.8
 50
0.0
 71
0
 42
0.2
  3
txt
  4

  0
STYLE
  5
239
100
AcDbSymbolTableRecord
100
AcDbTextStyleTableRecord
  2
TEXTSTYLE_1
 70
0
 40
0.0
 41
0.8
 50
0.0
 71
0
 42
0.2
  3
gdt
  4

  0
ENDTAB
  0
TABLE
  2
VIEW
  5
6
100
AcDbSymbolTable
 70
0
  0
ENDTAB
  0
TABLE
  2
UCS
  5
7
100
AcDbSymbolTable
 70
0
  0
ENDTAB
  0
TABLE
  2
APPID
  5
9
100
AcDbSymbolTable
 70
1
  0
APPID
  5
23A
100
AcDbSymbolTableRecord
100
AcDbRegAppTableRecord
  2
ACAD
 70
0
  0
ENDTAB
  0
TABLE
  2
BLOCK_RECORD
  5
1
100
AcDbSymbolTable
 70
0
  0
BLOCK_RECORD
  5
23B
100
AcDbSymbolTableRecord
100
AcDbBlockTableRecord
  2
*Model_Space
  0
BLOCK_RECORD
  5
23C
100
AcDbSymbolTableRecord
100
AcDbBlockTableRecord
  2
*Paper_Space
  0
ENDTAB
  0
TABLE
  2
DIMSTYLE
  5
A
100
AcDbSymbolTable
 70
1
100
AcDbDimStyleTable
 71
0
  0
DIMSTYLE
105
23D
100
AcDbSymbolTableRecord
100
AcDbDimStyleTableRecord
  2
STANDARD
 70
0
  3

  4

 40
1.0
 41
3.0
 42
0.5
 43
0.38
 44
1.5
 45
0.0
 46
0.0
 47
0.01
 48
0.01
140
3.0
141
0.09
142
0.0
143
25.4
144
1.0
145
0.0
146
1.0
147
0.625
 71
1.0
 72
0.0
 73
0
 74
0
 75
0
 76
0
 77
1
 78
8
170
0
171
2
172
0
173
0
174
0
175
0
176
0
177
0
178
0
270
2
271
2
272
2
273
2
274
2
275
0
280
0
281
0
282
0
283
1
284
8
285
0
286
0
287
3
288
0
340
11
278
44
  0
ENDTAB
  0
ENDSEC
  0
SECTION
  2
BLOCKS
  0
BLOCK
  5
20
100
AcDbEntity
  8
0
100
AcDbBlockBegin
  2
*Model_Space
 70
0
 10
0.0
 20
0.0
 30
0.0
  3
*Model_Space
  1

  0
ENDBLK
  5
21
100
AcDbEntity
  8
0
100
AcDbBlockEnd
  0
BLOCK
  5
1C
100
AcDbEntity
  8
0
100
AcDbBlockBegin
  2
*Paper_Space
 70
0
 10
0.0
 20
0.0
 30
0.0
  3
*Paper_Space
  1

  0
ENDBLK
  5
1D
100
AcDbEntity
  8
0
100
AcDbBlockEnd
  0
ENDSEC
  0
SECTION
  2
ENTITIES
  0
LINE
  5
23E
100
AcDbEntity
  8
0
100
AcDbLine
 62
253
  6
CONTINUOUS
 10
-27.0596319253
 20
25.9394780191
 11
-29.3785860706
 21
20.4610217178
  0
LWPOLYLINE
  5
23F
100
AcDbEntity
  8
0
100
AcDbPolyline
 62
7
  6
CONTINUOUS
 90
22
 70
0
 10
-32.5020420929
 20
21.4524453136
 10
-32.5223573468
 20
21.4336185825
 10
-32.5909719741
 20
21.3656752117
 10
-32.6565400827
 20
21.2939953754
 10
-32.7188734211
 20
21.2189827783
 10
-32.7779025321
 20
21.1409056817
 10
-32.833605878
 20
21.0599305505
 10
-32.8858514003
 20
20.9763091417
 10
-32.9344770581
 20
20.8903444349
 10
-32.979334677
 20
20.8022625926
 10
-33.0202503324
 20
20.7123238519
 10
-33.0570301076
 20
20.6208071208
 10
-33.0894891902
 20
20.5279205643
 10
-33.1174759347
 20
20.4336813495
 10
-33.1406507404
 20
20.3385925501
 10
-33.1586685307
 20
20.2434918388
 10
-33.1713689437
 20
20.1483164328
 10
-33.1784741966
 20
20.0535930736
 10
-33.1797571169
 20
19.9608787642
 10
-33.1752324474
 20
19.8707673008
 10
-33.1648894559
 20
19.7830416295
 10
-33.1630799957
 20
19.7716159298
  0
LINE
  5
240
100
AcDbEntity
  8
0
100
AcDbLine
 62
7
  6
CONTINUOUS
 10
-32.5021247952
 20
21.4523699208
 11
-27.7714285409
 21
25.7705008097
  0
LINE
  5
241
100
AcDbEntity
  8
0
100
AcDbLine
 62
253
  6
CONTINUOUS
 10
-32.2565475742
 20
21.4245707579
 11
-27.5258513206
 21
25.7427016461
  0
LINE
  5
242
100
AcDbEntity
  8
0
100
AcDbLine
 62
7
  6
CONTINUOUS
 10
-27.4578272397
 20
25.7034253943
 11
-31.9304330277
 21
21.6736916539
  0
LWPOLYLINE
  5
243
100
AcDbEntity
  8
0
100
AcDbPolyline
 62
253
  6
CONTINUOUS
 90
9
 70
0
 10
-27.5258513206
 20
25.7427016461
 10
-27.510047621
 20
25.7566910782
 10
-27.4941563358
 20
25.7703015756
 10
-27.4781861808
 20
25.7835259753
 10
-27.4621488747
 20
25.7963550977
 10
-27.4460502577
 20
25.8087845873
 10
-27.4298901786
 20
25.8208141939
 10
-27.413674405
 20
25.8324389747
 10
-27.3974147264
 20
25.8436500217
  0
LWPOLYLINE
  5
244
100
AcDbEntity
  8
0
100
AcDbPolyline
 62
253
  6
CONTINUOUS
 90
10
 70
0
 10
-27.7714285409
 20
25.7705008097
 10
-27.7621409205
 20
25.7778904507
 10
-27.742305199
 20
25.7883161437
 10
-27.7191147539
 20
25.794524971
 10
-27.6928222046
 20
25.7964492947
 10
-27.6637139632
 20
25.7940681494
 10
-27.6321071167
 20
25.7874074715
 10
-27.5983459697
 20
25.7765398164
 10
-27.5627982933
 20
25.7615835672
 10
-27.5258513206
 20
25.7427016461
  0
LWPOLYLINE
  5
245
100
AcDbEntity
  8
0
100
AcDbPolyline
 62
253
  6
CONTINUOUS
 90
10
 70
0
 10
-32.5020420929
 20
21.4524453136
 10
-32.4928370513
 20
21.4597596472
 10
-32.473001309
 20
21.4701853106
 10
-32.4498108513
 20
21.4763941079
 10
-32.4235182998
 20
21.4783184045
 10
-32.3944100683
 20
21.4759372385
 10
-32.3628032429
 20
21.4692765486
 10
-32.3290421275
 20
21.458408892
 10
-32.2934944937
 20
21.443452654
 10
-32.2565475742
 20
21.4245707579
  0
LWPOLYLINE
  5
246
100
AcDbEntity
  8
0
100
AcDbPolyline
 62
7
  6
CONTINUOUS
 90
7
 70
0
 10
-27.6378672223
 20
25.8748659174
 10
-27.6594881489
 20
25.8602047031
 10
-27.6847081847
 20
25.8420621862
 10
-27.7094196117
 20
25.8231594391
 10
-27.7336235434
 20
25.8035204932
 10
-27.7573048339
 20
25.7831816393
 10
-27.771435805
 20
25.7704941784
  0
LINE
  5
247
100
AcDbEntity
  8
0
100
AcDbLine
 62
7
  6
CONTINUOUS
 10
-27.6378894189
 20
25.8748512817
 11
-24.5857178079
 21
27.8877297545
  0
LINE
  5
248
100
AcDbEntity
  8
0
100
AcDbLine
 62
253
  6
CONTINUOUS
 10
-27.3974147264
 20
25.8436500217
 11
-24.3276037415
 21
27.8682060509
  0
LWPOLYLINE
  5
249
100
AcDbEntity
  8
0
100
AcDbPolyline
 62
253
  6
CONTINUOUS
 90
9
 70
0
 10
-27.6378672223
 20
25.8748659174
 10
-27.6169135221
 20
25.8864683715
 10
-27.5888826022
 20
25.8963115746
 10
-27.5583755423
 20
25.9013520911
 10
-27.5257261961
 20
25.90153476
 10
-27.491291861
 20
25.8968575824
 10
-27.4554493687
 20
25.8873717428
 10
-27.4185909609
 20
25.8731810494
 10
-27.3811199968
 20
25.8544407978
  0
LINE
  5
24A
100
AcDbEntity
  8
0
100
AcDbLine
 62
7
  6
CONTINUOUS
 10
-27.3049711842
 20
25.8104734277
 11
-27.0596319253
 21
25.9394780191
  0
LINE
  5
24B
100
AcDbEntity
  8
0
100
AcDbLine
 62
253
  6
CONTINUOUS
 10
-26.4494254741
 20
26.006545149
 11
-28.6821871
 21
20.7317159665
  0
LINE
  5
24C
100
AcDbEntity
  8
0
100
AcDbLine
 62
7
  6
CONTINUOUS
 10
-29.3785860706
 20
20.4610217178
 11
-29.6384351927
 21
20.2361801525
  0
LINE
  5
24D
100
AcDbEntity
  8
0
100
AcDbLine
 62
7
  6
CONTINUOUS
 10
-12.1835787205
 20
29.4932776128
 11
-12.1857599037
 21
29.4920182236
  0
LINE
  5
24E
100
AcDbEntity
  8
0
100
AcDbLine
 62
7
  6
CONTINUOUS
 10
-11.6457866904
 20
29.7930725399
 11
-12.1835895921
 21
29.4932970799
  0
LWPOLYLINE
  5
24F
100
AcDbEntity
  8
0
100
AcDbPolyline
 62
7
  6
CONTINUOUS
 90
8
 70
0
 10
-11.6457586996
 20
29.7930881352
 10
-11.6183407148
 20
29.8062487617
 10
-11.587727184
 20
29.8164640741
 10
-11.5562261222
 20
29.8226280643
 10
-11.5241598302
 20
29.8247050958
 10
-11.4917872316
 20
29.8226124066
 10
-11.459659756
 20
29.8162656705
 10
-11.4285364628
 20
29.8057323505
  0
LWPOLYLINE
  5
250
100
AcDbEntity
  8
RACCORDO
100
AcDbPolyline
 62
253
  6
CONTINUOUS
 90
12
 70
0
 10
-23.5776792634
 20
17.7844371161
 10
-23.5778790652
 20
17.784121205
 10
-23.5904984659
 20
17.7612092486
 10
-23.6016341841
 20
17.7377164514
 10
-23.6111642147
 20
17.7139002069
 10
-23.6189841425
 20
17.6900214622
 10
-23.625008292
 20
17.6663418466
 10
-23.6291706684
 20
17.6431207886
 10
-23.6314256725
 20
17.6206126864
 10
-23.6317485977
 20
17.599064138
 10
-23.6301359051
 20
17.5787112384
 10
-23.6266052635
 20
17.5597769779
  0
LWPOLYLINE
  5
251
100
AcDbEntity
  8
0
100
AcDbPolyline
 62
7
  6
CONTINUOUS
 90
9
 70
0
 10
-13.7644001708
 20
28.5484348457
 10
-13.7878758605
 20
28.5325285569
 10
-13.8121121852
 20
28.5114178443
 10
-13.8335063741
 20
28.4872863993
 10
-13.8516993768
 20
28.4604600159
 10
-13.8663461389
 20
28.4313223991
 10
-13.8771192234
 20
28.4003677787
 10
-13.8837663015
 20
28.3681538976
 10
-13.8861311276
 20
28.3338414233
  0
LWPOLYLINE
  5
252
100
AcDbEntity
  8
0
100
AcDbPolyline
 62
253
  6
CONTINUOUS
 90
7
 70
0
 10
-10.3650746233
 20
28.9072988598
 10
-10.3437553631
 20
28.9215821152
 10
-10.3258371423
 20
28.9373535048
 10
-10.311629464
 20
28.9543450804
 10
-10.3013777475
 20
28.9722701799
 10
-10.2952636451
 20
28.9908206802
 10
-10.2933872433
 20
29.0084371216
  0
LWPOLYLINE
  5
253
100
AcDbEntity
  8
0
100
AcDbPolyline
 62
253
  6
CONTINUOUS
 90
13
 70
0
 10
-13.637673776
 20
28.5370681674
 10
-13.6606062138
 20
28.5218692108
 10
-13.6831245178
 20
28.5034888171
 10
-13.7048476618
 20
28.4822379949
 10
-13.7254080486
 20
28.4584763548
 10
-13.7444578108
 20
28.4326059336
 10
-13.7616746758
 20
28.4050643664
 10
-13.7767673275
 20
28.3763175971
 10
-13.7894803155
 20
28.3468520988
 10
-13.7995984675
 20
28.3171665382
 10
-13.8069505569
 20
28.2877632577
 10
-13.8114121778
 20
28.2591397712
 10
-13.8129078232
 20
28.2317804277
  0
LWPOLYLINE
  5
254
100
AcDbEntity
  8
0
100
AcDbPolyline
 62
253
  6
CONTINUOUS
 90
13
 70
0
 10
-12.6755064684
 20
27.9815248227
 10
-12.6984389179
 20
27.9663258575
 10
-12.7209572478
 20
27.9479454387
 10
-12.7426804296
 20
27.92669457
 10
-12.7632408751
 20
27.9029328421
 10
-12.7822906963
 20
27.8770623045
 10
-12.7995075813
 20
27.8495206503
 10
-12.8146002092
 20
27.8207738561
 10
-12.827313153
 20
27.7913083782
 10
-12.8374312547
 20
27.7616228728
 10
-12.8447832976
 20
27.7322196756
 10
-12.8492448837
 20
27.7035962988
 10
-12.8507405156
 20
27.676237083
  0
LINE
  5
255
100
AcDbEntity
  8
0
100
AcDbLine
 62
7
  6
CONTINUOUS
 10
-14.5737561075
 20
25.4314746195
 11
-13.5793115428
 21
26.0658316113
  0
LINE
  5
256
100
AcDbEntity
  8
0
100
AcDbLine
 62
7
  6
CONTINUOUS
 10
-11.7854588956
 20
26.5320513291
 11
-10.8923057743
 21
27.0924038988
  0
LINE
  5
257
100
AcDbEntity
  8
0
100
AcDbLine
 62
7
  6
CONTINUOUS
 10
-14.9107362459
 20
26.7099513564
 11
-13.372245122
 21
27.6592800638
  0
LINE
  5
258
100
AcDbEntity
  8
0
100
AcDbLine
 62
253
  6
CONTINUOUS
 10
-14.6564363246
 20
26.6877499608
 11
-13.2222855351
 21
27.5726952778
  0
LINE
  5
259
100
AcDbEntity
  8
0
100
AcDbLine
 62
7
  6
CONTINUOUS
 10
-12.1857599037
 20
29.4920182236
 11
-13.7643949854
 21
28.5484379454
  0
LINE
  5
25A
100
AcDbEntity
  8
0
100
AcDbLine
 62
253
  6
CONTINUOUS
 10
-12.0590386944
 20
29.4806484455
 11
-13.637673776
 21
28.5370681674
  0
LINE
  5
25B
100
AcDbEntity
  8
0
100
AcDbLine
 62
253
  6
CONTINUOUS
 10
-10.5418445875
 20
29.2134734187
 11
-12.6755064684
 21
27.9815248227
  0
LINE
  5
25C
100
AcDbEntity
  8
0
100
AcDbLine
 62
253
  6
CONTINUOUS
 10
-10.3650746233
 20
28.9072988598
 11
-12.4987365042
 21
27.6753502638
  0
LINE
  5
25D
100
AcDbEntity
  8
0
100
AcDbLine
 62
7
  6
CONTINUOUS
 10
-13.8781996285
 20
26.0728559643
 11
-14.7813930708
 21
25.5513615998
  0
LINE
  5
25E
100
AcDbEntity
  8
0
100
AcDbLine
 62
253
  6
CONTINUOUS
 10
-11.5225243773
 20
29.7797056385
 11
-12.0590386944
 21
29.4806484455
  0
LINE
  5
25F
100
AcDbEntity
  8
0
100
AcDbLine
 62
7
  6
CONTINUOUS
 10
4.0579889127
 20
34.6894519076
 11
-9.6368149903
 21
27.1697969001
  0
LINE
  5
260
100
AcDbEntity
  8
0
100
AcDbLine
 62
7
  6
CONTINUOUS
 10
-14.9139143449
 20
26.5562996024
 11
-18.6115522846
 21
24.5678295787
  0
LINE
  5
261
100
AcDbEntity
  8
0
100
AcDbLine
 62
253
  6
CONTINUOUS
 10
-14.6683332326
 20
26.5290692046
 11
-18.4687058125
 21
24.485351816
  0
LWPOLYLINE
  5
262
100
AcDbEntity
  8
0
100
AcDbPolyline
 62
253
  6
CONTINUOUS
 90
13
 70
0
 10
-12.4987365042
 20
27.4418255086
 10
-12.5234198743
 20
27.4295397021
 10
-12.5506565316
 20
27.4192137205
 10
-12.5799826272
 20
27.4110219253
 10
-12.610896535
 20
27.4051027044
 10
-12.6428753221
 20
27.4015545417
 10
-12.6753843817
 20
27.4004364397
 10
-12.7079000293
 20
27.4017702083
 10
-12.7398414154
 20
27.4055358242
 10
-12.7705949499
 20
27.4116528732
 10
-12.7996273524
 20
27.4199948984
 10
-12.8264872485
 20
27.4304107296
 10
-12.8507405156
 20
27.4427123278
  0
LWPOLYLINE
  5
263
100
AcDbEntity
  8
0
100
AcDbPolyline
 62
253
  6
CONTINUOUS
 90
13
 70
0
 10
-12.4987365042
 20
27.6753502638
 10
-12.5234742342
 20
27.6630407902
 10
-12.5507893222
 20
27.6526950341
 10
-12.5802176981
 20
27.6444916988
 10
-12.6112628806
 20
27.6385724862
 10
-12.643391219
 20
27.6350422801
 10
-12.6760397563
 20
27.6339638412
 10
-12.7087180724
 20
27.6353604736
 10
-12.7407964205
 20
27.6392123793
 10
-12.7715208166
 20
27.645402935
 10
-12.8003357966
 20
27.6537583916
 10
-12.8268715313
 20
27.6641066758
 10
-12.8507405156
 20
27.676237083
  0
LWPOLYLINE
  5
264
100
AcDbEntity
  8
0
100
AcDbPolyline
 62
7
  6
CONTINUOUS
 90
5
 70
0
 10
4.0579889127
 20
34.6894519076
 10
4.1478586184
 20
34.7331034855
 10
4.2421428602
 20
34.7677286604
 10
4.3396830354
 20
34.7927739624
 10
4.4387941777
 20
34.8078357641
  0
LWPOLYLINE
  5
265
100
AcDbEntity
  8
0
100
AcDbPolyline
 62
253
  6
CONTINUOUS
 90
10
 70
0
 10
4.0579889127
 20
34.6894519076
 10
4.097586195
 20
34.7079959511
 10
4.1468221931
 20
34.7232642652
 10
4.1990441789
 20
34.7316063722
 10
4.2538548393
 20
34.732958804
 10
4.3108371658
 20
34.7273112712
 10
4.3695576278
 20
34.714706741
 10
4.4295694704
 20
34.6952411108
 10
4.4904161141
 20
34.6690624784
 10
4.5516346277
 20
34.636370015
  0
LWPOLYLINE
  5
266
100
AcDbEntity
  8
0
100
AcDbPolyline
 62
7
  6
CONTINUOUS
 90
8
 70
0
 10
-26.7296523683
 20
-10.7140880456
 10
-26.69163499
 20
-10.778544298
 10
-26.6493049967
 20
-10.8385472764
 10
-26.6029719593
 20
-10.893891028
 10
-26.5529753941
 20
-10.9443816393
 10
-26.499944473
 20
-10.9896494899
 10
-26.4444419233
 20
-11.0295624434
 10
-26.4027402957
 20
-11.0552619481
  0
LWPOLYLINE
  5
267
100
AcDbEntity
  8
0
100
AcDbPolyline
 62
253
  6
CONTINUOUS
 90
7
 70
0
 10
-26.817904331
 20
-10.48668435
 10
-26.8062278076
 20
-10.5211146053
 10
-26.7893969872
 20
-10.5541767902
 10
-26.7676831639
 20
-10.5851663775
 10
-26.7413191598
 20
-10.6137510881
 10
-26.710587657
 20
-10.6396244284
 10
-26.6758181678
 20
-10.662508977
  0
LWPOLYLINE
  5
268
100
AcDbEntity
  8
0
100
AcDbPolyline
 62
7
  6
CONTINUOUS
 90
5
 70
0
 10
-26.817904331
 20
-10.48668435
 10
-26.8149357628
 20
-10.4978694868
 10
-26.7914482575
 20
-10.5735071302
 10
-26.7629847892
 20
-10.6456352921
 10
-26.7296523683
 20
-10.7140880456
  0
LWPOLYLINE
  5
269
100
AcDbEntity
  8
0
100
AcDbPolyline
 62
253
  6
CONTINUOUS
 90
13
 70
0
 10
-26.6758181678
 20
-10.662508977
 10
-27.2601161664
 20
-8.3769645974
 10
-27.8286137757
 20
-6.0813613664
 10
-28.381352886
 20
-3.7758601437
 10
-28.9139454959
 20
-1.480003799
 10
-29.4311177882
 20
0.8252169192
 10
-29.945450028
 20
3.198429123
 10
-30.455798725
 20
5.6404150479
 10
-30.9610536443
 20
8.1520066515
 10
-31.4714484642
 20
10.7938740934
 10
-31.9881350227
 20
13.5879531198
 10
-32.5045390584
 20
16.5163270314
 10
-33.0179123872
 20
19.5809588371
  0
LWPOLYLINE
  5
26A
100
AcDbEntity
  8
0
100
AcDbPolyline
 62
7
  6
CONTINUOUS
 90
13
 70
0
 10
-33.163109904
 20
19.7717988393
 10
-32.7367132301
 20
17.2153578651
 10
-32.2840362646
 20
14.6187888476
 10
-31.8139433225
 20
12.0364611636
 10
-31.3264615491
 20
9.4685312319
 10
-30.8216159429
 20
6.9151320417
 10
-30.299429334
 20
4.3763768762
 10
-29.7599257316
 20
1.8523852666
 10
-29.2031317683
 20
-0.6567159771
 10
-28.6290744052
 20
-3.1508025295
 10
-28.0377813542
 20
-5.6297483981
 10
-27.4292852986
 20
-8.0934167614
 10
-26.8179385458
 20
-10.4865527415
  0
LWPOLYLINE
  5
26B
100
AcDbEntity
  8
0
100
AcDbPolyline
 62
253
  6
CONTINUOUS
 90
25
 70
0
 10
-33.0179123872
 20
19.5809588371
 10
-33.0270892753
 20
19.6505337344
 10
-33.0322394027
 20
19.7221273243
 10
-33.0334820999
 20
19.7953787133
 10
-33.030971179
 20
19.8695945203
 10
-33.0248646203
 20
19.9447644784
 10
-33.0151541672
 20
20.0216406467
 10
-33.0017759942
 20
20.1003764575
 10
-32.9848012683
 20
20.1803034326
 10
-32.9643117645
 20
20.2609952051
 10
-32.9403867142
 20
20.3421566789
 10
-32.9131096974
 20
20.4235141498
 10
-32.8826211118
 20
20.5046661808
 10
-32.8492843413
 20
20.5847792073
 10
-32.8130337266
 20
20.6641368377
 10
-32.7732243459
 20
20.7439735567
 10
-32.7296199095
 20
20.8243505895
 10
-32.6824359546
 20
20.9044823274
 10
-32.6315422045
 20
20.9842297446
 10
-32.5768076721
 20
21.0633933021
 10
-32.5184725119
 20
21.1412285818
 10
-32.4570307876
 20
21.2167723557
 10
-32.3928044319
 20
21.2894153464
 10
-32.3258929599
 20
21.3588417579
 10
-32.2565475742
 20
21.4245707579
  0
LINE
  5
26C
100
AcDbEntity
  8
0
100
AcDbLine
 62
7
  6
CONTINUOUS
 10
-10.8923057743
 20
27.7640729522
 11
-10.3650746233
 21
28.4284199943
  0
LWPOLYLINE
  5
26D
100
AcDbEntity
  8
0
100
AcDbPolyline
 62
7
  6
CONTINUOUS
 90
11
 70
0
 10
-11.7854588956
 20
27.3751478094
 10
-11.8080136107
 20
27.3493407917
 10
-11.8331063452
 20
27.325518442
 10
-11.8604509806
 20
27.3038962566
 10
-11.8896609783
 20
27.2844544121
 10
-11.920373762
 20
27.2675843916
 10
-11.9522661414
 20
27.2541143458
 10
-11.9848488518
 20
27.2441834817
 10
-12.0175463482
 20
27.2379141361
 10
-12.049829481
 20
27.236100271
 10
-12.067683732
 20
27.2372016653
  0
LWPOLYLINE
  5
26E
100
AcDbEntity
  8
RACCORDO
100
AcDbPolyline
 62
253
  6
CONTINUOUS
 90
16
 70
0
 10
-23.2783028963
 20
17.6061256121
 10
-23.2972637188
 20
17.5911252307
 10
-23.3179646677
 20
17.577415642
 10
-23.3401774996
 20
17.5651480164
 10
-23.3636604707
 20
17.5544563241
 10
-23.3881517528
 20
17.5454602106
 10
-23.4133711326
 20
17.5382613887
 10
-23.4390329665
 20
17.5329382132
 10
-23.4648612082
 20
17.5295448228
 10
-23.4905824877
 20
17.5281160495
 10
-23.5159524435
 20
17.5286701211
 10
-23.5406514262
 20
17.5312047849
 10
-23.56430968
 20
17.5356694
 10
-23.5866511456
 20
17.5419809705
 10
-23.6074844187
 20
17.5500530357
 10
-23.6266052635
 20
17.5597769779
  0
LWPOLYLINE
  5
26F
100
AcDbEntity
  8
0
100
AcDbPolyline
 62
7
  6
CONTINUOUS
 90
13
 70
0
 10
-7.5350912118
 20
25.6774959065
 10
-7.5586323351
 20
25.6617016525
 10
-7.5810237808
 20
25.6434247682
 10
-7.6022655489
 20
25.6226652536
 10
-7.6226745577
 20
25.5989927173
 10
-7.6419338888
 20
25.5728375508
 10
-7.6590927874
 20
25.5454909281
 10
-7.674045829
 20
25.5168930479
 10
-7.6868984381
 20
25.4871037116
 10
-7.6970161338
 20
25.4575934975
 10
-7.7041874223
 20
25.4288525984
 10
-7.7086237974
 20
25.4003908215
 10
-7.710325259
 20
25.3722081669
  0
LINE
  5
270
100
AcDbEntity
  8
0
100
AcDbLine
 62
7
  6
CONTINUOUS
 10
-12.4033291128
 20
25.3868340947
 11
-11.3519251821
 21
26.0687745134
  0
LINE
  5
271
100
AcDbEntity
  8
0
100
AcDbLine
 62
7
  6
CONTINUOUS
 10
-8.1552506726
 20
26.5933241935
 11
-8.804197581
 21
26.205436257
  0
LINE
  5
272
100
AcDbEntity
  8
0
100
AcDbLine
 62
253
  6
CONTINUOUS
 10
-8.0285300416
 20
26.5819540698
 11
-8.5557611926
 21
26.2668179615
  0
LINE
  5
273
100
AcDbEntity
  8
0
100
AcDbLine
 62
7
  6
CONTINUOUS
 10
-7.5350912118
 20
25.6774959065
 11
-7.1815378212
 21
25.8851958173
  0
LINE
  5
274
100
AcDbEntity
  8
0
100
AcDbLine
 62
7
  6
CONTINUOUS
 10
-8.1530694894
 20
26.5945835828
 11
-8.1552506726
 21
26.5933241935
  0
LINE
  5
275
100
AcDbEntity
  8
DRAFT
100
AcDbLine
 62
7
  6
CONTINUOUS
 10
-22.2076547493
 20
16.844075135
 11
-22.0783418934
 21
16.9187385098
  0
LINE
  5
276
100
AcDbEntity
  8
0
100
AcDbLine
 62
7
  6
CONTINUOUS
 10
-12.0171313713
 20
25.163848359
 11
-11.9762881717
 21
25.1870226714
  0
LINE
  5
277
100
AcDbEntity
  8
0
100
AcDbLine
 62
7
  6
CONTINUOUS
 10
-7.4391591416
 20
26.9925481869
 11
-8.153080547
 21
26.5946029228
  0
LINE
  5
278
100
AcDbEntity
  8
0
100
AcDbLine
 62
253
  6
CONTINUOUS
 10
-7.315252433
 20
26.9795404765
 11
-8.0285300416
 21
26.5819540698
  0
LINE
  5
279
100
AcDbEntity
  8
0
100
AcDbLine
 62
253
  6
CONTINUOUS
 10
4.5516346277
 20
34.636370015
 11
-9.3490707132
 21
27.0036569608
  0
LWPOLYLINE
  5
27A
100
AcDbEntity
  8
0
100
AcDbPolyline
 62
7
  6
CONTINUOUS
 90
10
 70
0
 10
-8.8042091081
 20
26.2054181566
 10
-8.7827166176
 20
26.2170529661
 10
-8.7595550959
 20
26.2276523084
 10
-8.7347839696
 20
26.237144566
 10
-8.7085091421
 20
26.2454824208
 10
-8.6807781152
 20
26.2526142609
 10
-8.6515569348
 20
26.258413088
 10
-8.6208883521
 20
26.2627504124
 10
-8.5889154434
 20
26.2655714548
 10
-8.5557611926
 20
26.2668179615
  0
LINE
  5
27B
100
AcDbEntity
  8
0
100
AcDbLine
 62
7
  6
CONTINUOUS
 10
18.5555927272
 20
-26.900358179
 11
18.0283615762
 21
-26.8555644221
  0
LWPOLYLINE
  5
27C
100
AcDbEntity
  8
0
100
AcDbPolyline
 62
7
  6
CONTINUOUS
 90
5
 70
0
 10
17.1352084549
 20
-27.4801842319
 10
17.1124488961
 20
-27.4778244583
 10
17.0874747545
 20
-27.4735412069
 10
17.0603949423
 20
-27.4675359198
 10
17.0384120826
 20
-27.4620742462
  0
LWPOLYLINE
  5
27D
100
AcDbEntity
  8
0
100
AcDbPolyline
 62
253
  6
CONTINUOUS
 90
8
 70
0
 10
-33.1630799957
 20
19.7716159298
 10
-33.1587447594
 20
19.7511779294
 10
-33.1473535941
 20
19.718135591
 10
-33.1308421639
 20
19.6865309716
 10
-33.1093874284
 20
19.656702832
 10
-33.0832193313
 20
19.6289708815
 10
-33.052618327
 20
19.6036323538
 10
-33.0179123871
 20
19.5809588365
  0
LINE
  5
27E
100
AcDbEntity
  8
0
100
AcDbLine
 62
7
  6
CONTINUOUS
 10
-23.6202278356
 20
16.4380679794
 11
-23.6202278356
 21
17.1251882861
  0
LWPOLYLINE
  5
27F
100
AcDbEntity
  8
0
100
AcDbPolyline
 62
253
  6
CONTINUOUS
 90
11
 70
0
 10
-12.4987365042
 20
27.4418255086
 10
-12.5118633949
 20
27.4130474445
 10
-12.5277573849
 20
27.3865250017
 10
-12.5461455737
 20
27.3627099587
 10
-12.5667109093
 20
27.3420090711
 10
-12.5891027677
 20
27.3247718182
 10
-12.6129443851
 20
27.3112875042
 10
-12.6378510154
 20
27.3017806816
 10
-12.6633770022
 20
27.2964281162
 10
-12.6890260123
 20
27.2953198897
 10
-12.6971592271
 20
27.2958593626
  0
LINE
  5
280
100
AcDbEntity
  8
0
100
AcDbLine
 62
7
  6
CONTINUOUS
 10
-14.9590641695
 20
16.9989241436
 11
-18.0565556567
 21
14.5966095415
  0
LWPOLYLINE
  5
281
100
AcDbEntity
  8
0
100
AcDbPolyline
 62
7
  6
CONTINUOUS
 90
9
 70
0
 10
-4.4782824675
 20
24.2625725958
 10
-4.5043296113
 20
24.2446756915
 10
-4.5282227431
 20
24.2233206469
 10
-4.5493922945
 20
24.1988152018
 10
-4.5673489517
 20
24.1715454678
 10
-4.5816397677
 20
24.1420668191
 10
-4.5919435862
 20
24.1110099585
 10
-4.5981284871
 20
24.0786666387
 10
-4.600018597
 20
24.0479370408
  0
LINE
  5
282
100
AcDbEntity
  8
0
100
AcDbLine
 62
7
  6
CONTINUOUS
 10
-7.3567718684
 20
24.6213616418
 11
-7.710325259
 21
24.3958296481
  0
LINE
  5
283
100
AcDbEntity
  8
0
100
AcDbLine
 62
7
  6
CONTINUOUS
 10
-8.5234980573
 20
23.146668269
 11
-7.1092844949
 21
24.0487962438
  0
LINE
  5
284
100
AcDbEntity
  8
0
100
AcDbLine
 62
7
  6
CONTINUOUS
 10
-8.311366023
 20
24.3131937621
 11
-9.3812824358
 21
23.6419422186
  0
LINE
  5
285
100
AcDbEntity
  8
0
100
AcDbLine
 62
7
  6
CONTINUOUS
 10
-5.7657816107
 20
24.1324130972
 11
-5.9456571234
 21
24.0195615565
  0
LINE
  5
286
100
AcDbEntity
  8
0
100
AcDbLine
 62
7
  6
CONTINUOUS
 10
-4.3015187151
 20
24.3682276599
 11
-4.4782824675
 21
24.2625725958
  0
LINE
  5
287
100
AcDbEntity
  8
0
100
AcDbLine
 62
253
  6
CONTINUOUS
 10
-4.1747980841
 20
24.3568575361
 11
-4.3515612582
 21
24.2512028178
  0
LINE
  5
288
100
AcDbEntity
  8
0
100
AcDbLine
 62
7
  6
CONTINUOUS
 10
-3.2924505246
 20
23.639685554
 11
-3.6460039152
 21
23.4319856432
  0
LINE
  5
289
100
AcDbEntity
  8
0
100
AcDbLine
 62
253
  6
CONTINUOUS
 10
-6.1224270876
 20
25.2736785535
 11
-5.2416156211
 21
25.7822485701
  0
LINE
  5
28A
100
AcDbEntity
  8
0
100
AcDbLine
 62
253
  6
CONTINUOUS
 10
-5.9456571234
 20
24.9675039946
 11
-5.0648456569
 21
25.4760740112
  0
LINE
  5
28B
100
AcDbEntity
  8
0
100
AcDbLine
 62
7
  6
CONTINUOUS
 10
-4.2993375319
 20
24.3694870491
 11
-4.3015187151
 21
24.3682276599
  0
LINE
  5
28C
100
AcDbEntity
  8
0
100
AcDbLine
 62
7
  6
CONTINUOUS
 10
8.3146295136
 20
30.2853271251
 11
2.4949726954
 21
26.9251244981
  0
LINE
  5
28D
100
AcDbEntity
  8
IMPORT_IGES
100
AcDbLine
 62
7
  6
CONTINUOUS
 10
4.2751346822
 20
27.9295759262
 11
2.3792320353
 21
26.8349054992
  0
LINE
  5
28E
100
AcDbEntity
  8
0
100
AcDbLine
 62
7
  6
CONTINUOUS
 10
-5.0648456569
 20
24.5299991072
 11
-5.7657816107
 21
24.1324130972
  0
LINE
  5
28F
100
AcDbEntity
  8
0
100
AcDbLine
 62
253
  6
CONTINUOUS
 10
2.2846997752
 20
28.6323983194
 11
8.6736684698
 21
32.2563593358
  0
LINE
  5
290
100
AcDbEntity
  8
0
100
AcDbLine
 62
253
  6
CONTINUOUS
 10
2.4949726954
 20
28.2639480624
 11
8.8839413901
 21
31.8879090788
  0
LINE
  5
291
100
AcDbEntity
  8
0
100
AcDbLine
 62
7
  6
CONTINUOUS
 10
-7.1997779461
 20
22.3823688669
 11
-7.1092844949
 21
22.4337067857
  0
LINE
  5
292
100
AcDbEntity
  8
0
100
AcDbLine
 62
7
  6
CONTINUOUS
 10
-3.5854271841
 20
24.7674516533
 11
-4.2993485895
 21
24.3695063892
  0
LINE
  5
293
100
AcDbEntity
  8
0
100
AcDbLine
 62
253
  6
CONTINUOUS
 10
-3.4615204756
 20
24.7544439429
 11
-4.1747980841
 21
24.3568575361
  0
LWPOLYLINE
  5
294
100
AcDbEntity
  8
0
100
AcDbPolyline
 62
253
  6
CONTINUOUS
 90
10
 70
0
 10
8.6736684698
 20
32.2563593358
 10
8.7396350026
 20
32.2899712503
 10
8.8044723147
 20
32.3158432353
 10
8.8676310663
 20
32.3339082304
 10
8.9287267373
 20
32.3441878587
 10
8.9871386693
 20
32.3467077782
 10
9.0420690634
 20
32.3416654119
 10
9.0933634067
 20
32.3293572709
 10
9.1405483498
 20
32.3101935518
 10
9.1583734881
 20
32.3006191981
  0
LWPOLYLINE
  5
295
100
AcDbEntity
  8
0
100
AcDbPolyline
 62
253
  6
CONTINUOUS
 90
19
 70
0
 10
8.8839413901
 20
31.8879090788
 10
8.9305947391
 20
31.9115031823
 10
8.9757334879
 20
31.9296667435
 10
9.0193576365
 20
31.9423997624
 10
9.0618371337
 20
31.9495601349
 10
9.1028020308
 20
31.9512899651
 10
9.1411424814
 20
31.9480155653
 10
9.1767571711
 20
31.9393855028
 10
9.2097474144
 20
31.9257512102
 10
9.2393073093
 20
31.9085932976
 10
9.2649425993
 20
31.8882578995
 10
9.2871475409
 20
31.8643988814
 10
9.3065990008
 20
31.8374584496
 10
9.3235524135
 20
31.808038401
 10
9.3377523446
 20
31.7755369389
 10
9.3491093569
 20
31.738590879
 10
9.3575936381
 20
31.6967458266
 10
9.3632350006
 20
31.6504561764
 10
9.3660334443
 20
31.5997219285
  0
LWPOLYLINE
  5
296
100
AcDbEntity
  8
0
100
AcDbPolyline
 62
253
  6
CONTINUOUS
 90
19
 70
0
 10
5.2892136127
 20
26.6128810184
 10
5.144109876
 20
26.5594894416
 10
4.9926953288
 20
26.5128552962
 10
4.835492814
 20
26.4730308357
 10
4.6740708606
 20
26.4401728207
 10
4.5079566608
 20
26.4142172531
 10
4.3376230223
 20
26.395228131
 10
4.1660568968
 20
26.3835542095
 10
3.9933077785
 20
26.3793302365
 10
3.8193261731
 20
26.3824214642
 10
3.6469505499
 20
26.3927724041
 10
3.4761810741
 20
26.4105038025
 10
3.3070175804
 20
26.4354949133
 10
3.1422980418
 20
26.4673280095
 10
2.9821074866
 20
26.5061165801
 10
2.8263608864
 20
26.5517471363
 10
2.677641129
 20
26.6034614846
 10
2.536063401
 20
26.6613610759
 10
2.4015125159
 20
26.7253444594
  0
LWPOLYLINE
  5
297
100
AcDbEntity
  8
0
100
AcDbPolyline
 62
7
  6
CONTINUOUS
 90
14
 70
0
 10
14.5431026816
 20
-34.696883288
 10
14.5912305196
 20
-34.7226793888
 10
14.6596551048
 20
-34.7528836746
 10
14.7311213124
 20
-34.7771892127
 10
14.8054115506
 20
-34.7953871189
 10
14.8821245085
 20
-34.8072457353
 10
14.9608242591
 20
-34.812587644
 10
15.0413462579
 20
-34.8112660269
 10
15.1233457167
 20
-34.8031347074
 10
15.2064963343
 20
-34.7880846245
 10
15.2908236937
 20
-34.7659133045
 10
15.3761780243
 20
-34.7364151461
 10
15.462132118
 20
-34.6994891008
 10
15.4876058083
 20
-34.6871308004
  0
LINE
  5
298
100
AcDbEntity
  8
0
100
AcDbLine
 62
7
  6
CONTINUOUS
 10
-26.4035769108
 20
-11.0547839545
 11
14.5436215246
 21
-34.6971831422
  0
LINE
  5
299
100
AcDbEntity
  8
0
100
AcDbLine
 62
253
  6
CONTINUOUS
 10
-26.6758181678
 20
-10.662508977
 11
14.2649684141
 21
-34.3012060408
  0
LINE
  5
29A
100
AcDbEntity
  8
0
100
AcDbLine
 62
7
  6
CONTINUOUS
 10
14.543096148
 20
-34.6968793811
 11
14.5436212621
 21
-34.6971829906
  0
LINE
  5
29B
100
AcDbEntity
  8
0
100
AcDbLine
 62
253
  6
CONTINUOUS
 10
-26.4035769108
 20
-11.0547839545
 11
-26.4147313803
 21
-11.0481443483
  0
LWPOLYLINE
  5
29C
100
AcDbEntity
  8
0
100
AcDbPolyline
 62
253
  6
CONTINUOUS
 90
9
 70
0
 10
-26.4147313803
 20
-11.0481443483
 10
-26.4570781945
 20
-11.0190147714
 10
-26.4973683974
 20
-10.984584389
 10
-26.535360135
 20
-10.9445827891
 10
-26.5705839746
 20
-10.8989748931
 10
-26.6025548307
 20
-10.8479063511
 10
-26.6309288544
 20
-10.7914718371
 10
-26.6554494089
 20
-10.7296446104
 10
-26.6758181678
 20
-10.662508977
  0
LWPOLYLINE
  5
29D
100
AcDbEntity
  8
RACCORDO
100
AcDbPolyline
 62
253
  6
CONTINUOUS
 90
3
 70
0
 10
-14.9441508996
 20
12.4203072583
 10
-14.9315765314
 20
12.4298995827
 10
-14.9272306184
 20
12.4322663678
  0
LWPOLYLINE
  5
29E
100
AcDbEntity
  8
0
100
AcDbPolyline
 62
253
  6
CONTINUOUS
 90
13
 70
0
 10
-2.6253339344
 20
22.8426635883
 10
-2.6482665361
 20
22.8274645107
 10
-2.6707849932
 20
22.8090839542
 10
-2.6925082716
 20
22.7878329354
 10
-2.7130687927
 20
22.7640710419
 10
-2.7321186529
 20
22.7382003477
 10
-2.7493355101
 20
22.7106586099
 10
-2.7644280386
 20
22.6819118609
 10
-2.7771408585
 20
22.6524465235
 10
-2.7872588565
 20
22.6227611793
 10
-2.7946108265
 20
22.5933581328
 10
-2.799072366
 20
22.5647349118
 10
-2.8005679816
 20
22.5373758487
  0
LINE
  5
29F
100
AcDbEntity
  8
0
100
AcDbLine
 62
7
  6
CONTINUOUS
 10
-4.4222787264
 20
22.4973527891
 11
-5.8364922888
 21
21.5952248143
  0
LINE
  5
2A0
100
AcDbEntity
  8
0
100
AcDbLine
 62
7
  6
CONTINUOUS
 10
-1.9120496532
 20
21.9073165635
 11
-2.4485639702
 21
21.5707145084
  0
LINE
  5
2A1
100
AcDbEntity
  8
0
100
AcDbLine
 62
7
  6
CONTINUOUS
 10
8.523075277
 20
30.2536612804
 11
9.3660334443
 21
30.748944517
  0
LINE
  5
2A2
100
AcDbEntity
  8
0
100
AcDbLine
 62
253
  6
CONTINUOUS
 10
-1.3878836636
 20
23.5571520365
 11
-2.6253339344
 21
22.8426635883
  0
LINE
  5
2A3
100
AcDbEntity
  8
0
100
AcDbLine
 62
253
  6
CONTINUOUS
 10
-1.2111136994
 20
23.2509774776
 11
-2.4485639702
 21
22.5364890294
  0
LINE
  5
2A4
100
AcDbEntity
  8
0
100
AcDbLine
 62
253
  6
CONTINUOUS
 10
5.8202336811
 20
26.5910253528
 11
12.2092023757
 21
30.2149863692
  0
LINE
  5
2A5
100
AcDbEntity
  8
0
100
AcDbLine
 62
7
  6
CONTINUOUS
 10
-1.2111136994
 20
22.3049025735
 11
-1.9120496532
 21
21.9073165635
  0
LINE
  5
2A6
100
AcDbEntity
  8
0
100
AcDbLine
 62
253
  6
CONTINUOUS
 10
6.0305066014
 20
26.2225750958
 11
12.419475296
 21
29.8465361122
  0
LINE
  5
2A7
100
AcDbEntity
  8
0
100
AcDbLine
 62
7
  6
CONTINUOUS
 10
11.9157633195
 20
30.3152120643
 11
5.4143015441
 21
26.7562031448
  0
LINE
  5
2A8
100
AcDbEntity
  8
0
100
AcDbLine
 62
253
  6
CONTINUOUS
 10
12.0635189608
 20
30.2991021471
 11
5.5620571836
 21
26.7400932267
  0
LWPOLYLINE
  5
2A9
100
AcDbEntity
  8
0
100
AcDbPolyline
 62
7
  6
CONTINUOUS
 90
32
 70
0
 10
5.414265885
 20
26.7561836151
 10
5.3238039394
 20
26.7096808539
 10
5.2045026801
 20
26.6563886587
 10
5.0763393334
 20
26.6076184097
 10
4.9400097325
 20
26.5639339388
 10
4.7964485102
 20
26.5258564107
 10
4.6468007917
 20
26.4938487217
 10
4.4920037645
 20
26.4682502454
 10
4.3330640733
 20
26.4493278047
 10
4.1712514538
 20
26.4373112852
 10
4.0076276781
 20
26.4323501076
 10
3.8433235306
 20
26.4345075475
 10
3.6797174781
 20
26.4437692349
 10
3.51792771
 20
26.4600615771
 10
3.3590316598
 20
26.4832261282
 10
3.2043404273
 20
26.5130020372
 10
3.0548748345
 20
26.5491054444
 10
2.9116032131
 20
26.5911663468
 10
2.775733265
 20
26.6386614002
 10
2.6482791137
 20
26.6910127469
 10
2.5297473134
 20
26.7477208235
 10
2.4206388046
 20
26.8082694198
 10
2.3221450784
 20
26.8716283041
 10
2.2340550219
 20
26.9374530106
 10
2.1554579579
 20
27.0062386401
 10
2.0871354746
 20
27.0773664878
 10
2.0298769919
 20
27.1499130667
 10
1.9837640377
 20
27.2237971532
 10
1.9494486977
 20
27.2981573236
 10
1.9272202677
 20
27.3722522301
 10
1.9170900603
 20
27.446758849
 10
1.9164645423
 20
27.4726748514
  0
LWPOLYLINE
  5
2AA
100
AcDbEntity
  8
0
100
AcDbPolyline
 62
253
  6
CONTINUOUS
 90
4
 70
0
 10
12.2092023757
 20
30.2149863692
 10
12.2751689086
 20
30.2485982837
 10
12.3400062206
 20
30.2744702686
 10
12.4031649722
 20
30.2925352638
  0
LWPOLYLINE
  5
2AB
100
AcDbEntity
  8
0
100
AcDbPolyline
 62
253
  6
CONTINUOUS
 90
19
 70
0
 10
12.419475296
 20
29.8465361122
 10
12.466128645
 20
29.8701302157
 10
12.5112673938
 20
29.8882937769
 10
12.5548915425
 20
29.9010267958
 10
12.5973710397
 20
29.9081871683
 10
12.6383359367
 20
29.9099169985
 10
12.6766763874
 20
29.9066425986
 10
12.712291077
 20
29.8980125361
 10
12.7452813204
 20
29.8843782436
 10
12.7748412152
 20
29.867220331
 10
12.8004765053
 20
29.8468849329
 10
12.8226814468
 20
29.8230259147
 10
12.8421329067
 20
29.7960854829
 10
12.8590863195
 20
29.7666654344
 10
12.8732862505
 20
29.7341639723
 10
12.8846432628
 20
29.6972179124
 10
12.893127544
 20
29.65537286
 10
12.8987689065
 20
29.6090832098
 10
12.9015673503
 20
29.5583489618
  0
LWPOLYLINE
  5
2AC
100
AcDbEntity
  8
0
100
AcDbPolyline
 62
253
  6
CONTINUOUS
 90
3
 70
0
 10
5.5620571836
 20
26.7400932267
 10
5.428529382
 20
26.6730822801
 10
5.2892136127
 20
26.6128810184
  0
LWPOLYLINE
  5
2AD
100
AcDbEntity
  8
0
100
AcDbPolyline
 62
7
  6
CONTINUOUS
 90
8
 70
0
 10
1.3650060742
 20
22.2808356179
 10
1.392424059
 20
22.2939962445
 10
1.4230375898
 20
22.3042115568
 10
1.4545386516
 20
22.3103755471
 10
1.4866049436
 20
22.3124525786
 10
1.5189775423
 20
22.3103598894
 10
1.5511050179
 20
22.3040131533
 10
1.5822283111
 20
22.2934798332
  0
LWPOLYLINE
  5
2AE
100
AcDbEntity
  8
0
100
AcDbPolyline
 62
253
  6
CONTINUOUS
 90
19
 70
0
 10
8.8247475187
 20
24.5715080518
 10
8.6796437819
 20
24.518116475
 10
8.5282292347
 20
24.4714823296
 10
8.37102672
 20
24.431657869
 10
8.2096047665
 20
24.398799854
 10
8.0434905667
 20
24.3728442864
 10
7.8731569283
 20
24.3538551643
 10
7.7015908028
 20
24.3421812429
 10
7.5288416844
 20
24.3379572699
 10
7.3548600791
 20
24.3410484975
 10
7.1824844558
 20
24.3513994375
 10
7.0117149801
 20
24.3691308359
 10
6.8425514864
 20
24.3941219466
 10
6.6778319477
 20
24.4259550429
 10
6.5176413925
 20
24.4647436135
 10
6.3618947923
 20
24.5103741697
 10
6.2131750349
 20
24.5620885179
 10
6.071597307
 20
24.6199881093
 10
5.9370464219
 20
24.6839714928
  0
LINE
  5
2AF
100
AcDbEntity
  8
RACCORDO
100
AcDbLine
 62
253
  6
CONTINUOUS
 10
-23.7556305604
 20
17.6824343715
 11
-23.7555433582
 21
17.6820778073
  0
LINE
  5
2B0
100
AcDbEntity
  8
RACCORDO
100
AcDbLine
 62
7
  6
CONTINUOUS
 10
-23.4260209552
 20
16.3259353606
 11
-23.7556305604
 21
17.6824343715
  0
LINE
  5
2B1
100
AcDbEntity
  8
RACCORDO
100
AcDbLine
 62
253
  6
CONTINUOUS
 10
-23.3682271854
 20
16.2925659622
 11
-23.6842249597
 21
17.5930458684
  0
LWPOLYLINE
  5
2B2
100
AcDbEntity
  8
RACCORDO
100
AcDbPolyline
 62
7
  6
CONTINUOUS
 90
10
 70
0
 10
-23.7555433582
 20
17.6820778073
 10
-23.7569312678
 20
17.6880717954
 10
-23.7611979357
 20
17.714105849
 10
-23.7626973011
 20
17.7404750193
 10
-23.761402009
 20
17.7668984887
 10
-23.7572950888
 20
17.7931631908
 10
-23.7503809876
 20
17.8189706208
 10
-23.740709879
 20
17.8439871375
 10
-23.7283447509
 20
17.8679425335
 10
-23.7266749956
 20
17.8704653845
  0
LWPOLYLINE
  5
2B3
100
AcDbEntity
  8
RACCORDO
100
AcDbPolyline
 62
253
  6
CONTINUOUS
 90
12
 70
0
 10
-23.6842249597
 20
17.5930458684
 10
-23.6877556066
 20
17.6119801692
 10
-23.6893682967
 20
17.6323331179
 10
-23.6890453601
 20
17.6538817233
 10
-23.6867903337
 20
17.6763898996
 10
-23.682627923
 20
17.6996110373
 10
-23.6766037365
 20
17.7232907037
 10
-23.6687837826
 20
17.7471694503
 10
-23.6592537395
 20
17.7709856643
 10
-23.6481180195
 20
17.7944784178
 10
-23.6354986285
 20
17.8173903206
 10
-23.6352989663
 20
17.8177060104
  0
LWPOLYLINE
  5
2B4
100
AcDbEntity
  8
0
100
AcDbPolyline
 62
7
  6
CONTINUOUS
 90
9
 70
0
 10
-0.0526994432
 20
21.4551451084
 10
-0.0761751329
 20
21.4392388196
 10
-0.1004114576
 20
21.4181281069
 10
-0.1218056465
 20
21.3939966619
 10
-0.1399986492
 20
21.3671702785
 10
-0.1546454113
 20
21.3380326617
 10
-0.1654184958
 20
21.3070780413
 10
-0.1720655739
 20
21.2748641602
 10
-0.1744303999
 20
21.2405516859
  0
LWPOLYLINE
  5
2B5
100
AcDbEntity
  8
0
100
AcDbPolyline
 62
253
  6
CONTINUOUS
 90
7
 70
0
 10
2.6456901505
 20
21.3950463426
 10
2.6670094108
 20
21.4093295979
 10
2.6849276316
 20
21.4251009875
 10
2.6991353099
 20
21.4420925632
 10
2.7093870263
 20
21.4600176627
 10
2.7155011287
 20
21.478568163
 10
2.7173775305
 20
21.4961846044
  0
LWPOLYLINE
  5
2B6
100
AcDbEntity
  8
0
100
AcDbPolyline
 62
253
  6
CONTINUOUS
 90
13
 70
0
 10
0.0740269516
 20
21.44377843
 10
0.0510945135
 20
21.4285794733
 10
0.0285762069
 20
21.4101990771
 10
0.0068530581
 20
21.3889482494
 10
-0.0137073343
 20
21.3651866007
 10
-0.032757103
 20
21.3393161671
 10
-0.0499739755
 20
21.3117745814
 10
-0.0650666395
 20
21.2830277768
 10
-0.0777796358
 20
21.2535622373
 10
-0.0878977808
 20
21.2238766623
 10
-0.0952498528
 20
21.1944734049
 10
-0.0997114573
 20
21.1658499662
 10
-0.1012070956
 20
21.1384906903
  0
LWPOLYLINE
  5
2B7
100
AcDbEntity
  8
0
100
AcDbPolyline
 62
253
  6
CONTINUOUS
 90
13
 70
0
 10
1.048535914
 20
20.8811091686
 10
1.0256034393
 20
20.8659101848
 10
1.0030851099
 20
20.8475297625
 10
0.9813619525
 20
20.8262789155
 10
0.9608015661
 20
20.8025172616
 10
0.9417518141
 20
20.7766468388
 10
0.9245349612
 20
20.7491052751
 10
0.9094423211
 20
20.7203585115
 10
0.8967293451
 20
20.6908930237
 10
0.8866112044
 20
20.661207478
 10
0.8792591244
 20
20.6318042159
 10
0.8747975099
 20
20.6031807503
 10
0.8733018669
 20
20.5758214289
  0
LINE
  5
2B8
100
AcDbEntity
  8
0
100
AcDbLine
 62
7
  6
CONTINUOUS
 10
0.8250048701
 20
21.9797657063
 11
-0.0526942577
 21
21.4551482081
  0
LINE
  5
2B9
100
AcDbEntity
  8
0
100
AcDbLine
 62
253
  6
CONTINUOUS
 10
0.9517260795
 20
21.9683959283
 11
0.0740269516
 21
21.44377843
  0
LINE
  5
2BA
100
AcDbEntity
  8
0
100
AcDbLine
 62
7
  6
CONTINUOUS
 10
12.058609183
 20
28.2122883138
 11
12.9015673503
 21
28.7075715504
  0
LINE
  5
2BB
100
AcDbEntity
  8
0
100
AcDbLine
 62
7
  6
CONTINUOUS
 10
0.8271860533
 20
21.9810250956
 11
0.8250048701
 21
21.9797657063
  0
LINE
  5
2BC
100
AcDbEntity
  8
0
100
AcDbLine
 62
7
  6
CONTINUOUS
 10
11.8501634196
 20
28.2439541584
 11
6.0305066014
 21
24.8837515315
  0
LINE
  5
2BD
100
AcDbEntity
  8
0
100
AcDbLine
 62
253
  6
CONTINUOUS
 10
2.4689201863
 20
21.7012209015
 11
1.048535914
 21
20.8811091686
  0
LINE
  5
2BE
100
AcDbEntity
  8
0
100
AcDbLine
 62
253
  6
CONTINUOUS
 10
2.6456901505
 20
21.3950463426
 11
1.2253058782
 21
20.5749346097
  0
LINE
  5
2BF
100
AcDbEntity
  8
0
100
AcDbLine
 62
7
  6
CONTINUOUS
 10
3.7263238562
 20
20.3070992629
 11
3.724142673
 21
20.3058398737
  0
LINE
  5
2C0
100
AcDbEntity
  8
RACCORDO
100
AcDbLine
 62
253
  6
CONTINUOUS
 10
-14.9201196607
 20
12.1515611261
 11
-14.6695990498
 21
12.2961226781
  0
LINE
  5
2C1
100
AcDbEntity
  8
RACCORDO
100
AcDbLine
 62
253
  6
CONTINUOUS
 10
-14.4391148965
 20
11.6096944826
 11
-13.9597886753
 21
11.8862870639
  0
LINE
  5
2C2
100
AcDbEntity
  8
0
100
AcDbLine
 62
253
  6
CONTINUOUS
 10
9.355767587
 20
24.5496523861
 11
15.7447362817
 21
28.1736134025
  0
LINE
  5
2C3
100
AcDbEntity
  8
0
100
AcDbLine
 62
253
  6
CONTINUOUS
 10
9.5660405073
 20
24.1812021291
 11
15.9550092019
 21
27.8051631455
  0
LINE
  5
2C4
100
AcDbEntity
  8
0
100
AcDbLine
 62
7
  6
CONTINUOUS
 10
1.3649780834
 20
22.2808200227
 11
0.8271751818
 21
21.9810445627
  0
LINE
  5
2C5
100
AcDbEntity
  8
0
100
AcDbLine
 62
253
  6
CONTINUOUS
 10
1.4882403965
 20
22.2674531213
 11
0.9517260795
 21
21.9683959283
  0
LINE
  5
2C6
100
AcDbEntity
  8
0
100
AcDbLine
 62
7
  6
CONTINUOUS
 10
4.2641158863
 20
20.60689419
 11
3.7263129846
 21
20.30711873
  0
LINE
  5
2C7
100
AcDbEntity
  8
0
100
AcDbLine
 62
253
  6
CONTINUOUS
 10
4.3873781994
 20
20.5935272887
 11
3.8508638823
 21
20.2944700956
  0
LINE
  5
2C8
100
AcDbEntity
  8
0
100
AcDbLine
 62
7
  6
CONTINUOUS
 10
15.4512972255
 20
28.2738390976
 11
8.94983545
 21
24.7148301781
  0
LINE
  5
2C9
100
AcDbEntity
  8
0
100
AcDbLine
 62
253
  6
CONTINUOUS
 10
15.5990528667
 20
28.2577291805
 11
9.0975910896
 21
24.69872026
  0
LWPOLYLINE
  5
2CA
100
AcDbEntity
  8
0
100
AcDbPolyline
 62
7
  6
CONTINUOUS
 90
32
 70
0
 10
8.949799791
 20
24.7148106485
 10
8.8593378454
 20
24.6683078872
 10
8.740036586
 20
24.6150156921
 10
8.6118732394
 20
24.5662454431
 10
8.4755436385
 20
24.5225609722
 10
8.3319824161
 20
24.4844834441
 10
8.1823346976
 20
24.4524757551
 10
8.0275376704
 20
24.4268772788
 10
7.8685979793
 20
24.4079548381
 10
7.7067853597
 20
24.3959383186
 10
7.5431615841
 20
24.390977141
 10
7.3788574365
 20
24.3931345809
 10
7.215251384
 20
24.4023962683
 10
7.053461616
 20
24.4186886105
 10
6.8945655657
 20
24.4418531616
 10
6.7398743333
 20
24.4716290706
 10
6.5904087404
 20
24.5077324777
 10
6.447137119
 20
24.5497933801
 10
6.3112671709
 20
24.5972884335
 10
6.1838130196
 20
24.6496397802
 10
6.0652812194
 20
24.7063478568
 10
5.9561727105
 20
24.7668964532
 10
5.8576789844
 20
24.8302553375
 10
5.7695889278
 20
24.8960800439
 10
5.6909918638
 20
24.9648656735
 10
5.6226693805
 20
25.0359935212
 10
5.5654108978
 20
25.1085401001
 10
5.5192979437
 20
25.1824241865
 10
5.4849826036
 20
25.256784357
 10
5.4627541737
 20
25.3308792635
 10
5.4526239662
 20
25.4053858824
 10
5.4519984482
 20
25.4313018847
  0
LWPOLYLINE
  5
2CB
100
AcDbEntity
  8
0
100
AcDbPolyline
 62
253
  6
CONTINUOUS
 90
4
 70
0
 10
15.7447362817
 20
28.1736134025
 10
15.8107028145
 20
28.207225317
 10
15.8755401266
 20
28.233097302
 10
15.9386988781
 20
28.2511622971
  0
LWPOLYLINE
  5
2CC
100
AcDbEntity
  8
0
100
AcDbPolyline
 62
253
  6
CONTINUOUS
 90
19
 70
0
 10
15.9550092019
 20
27.8051631455
 10
16.0016625509
 20
27.828757249
 10
16.0468012997
 20
27.8469208102
 10
16.0904254484
 20
27.8596538291
 10
16.1329049456
 20
27.8668142016
 10
16.1738698426
 20
27.8685440318
 10
16.2122102933
 20
27.865269632
 10
16.247824983
 20
27.8566395695
 10
16.2808152263
 20
27.843005277
 10
16.3103751211
 20
27.8258473644
 10
16.3360104112
 20
27.8055119662
 10
16.3582153528
 20
27.7816529481
 10
16.3776668126
 20
27.7547125163
 10
16.3946202254
 20
27.7252924678
 10
16.4088201565
 20
27.6927910056
 10
16.4201771688
 20
27.6558449457
 10
16.42866145
 20
27.6139998933
 10
16.4343028125
 20
27.5677102432
 10
16.4371012562
 20
27.5169759952
  0
LWPOLYLINE
  5
2CD
100
AcDbEntity
  8
0
100
AcDbPolyline
 62
253
  6
CONTINUOUS
 90
3
 70
0
 10
9.0975910896
 20
24.69872026
 10
8.9640632879
 20
24.6317093135
 10
8.8247475187
 20
24.5715080518
  0
LINE
  5
2CE
100
AcDbEntity
  8
RACCORDO
100
AcDbLine
 62
253
  6
CONTINUOUS
 10
-14.944362716
 20
12.2498355449
 11
-14.7541112881
 21
12.3449189853
  0
LWPOLYLINE
  5
2CF
100
AcDbEntity
  8
0
100
AcDbPolyline
 62
253
  6
CONTINUOUS
 90
13
 70
0
 10
1.2253058782
 20
20.5749346097
 10
1.2005681482
 20
20.5626251361
 10
1.1732530602
 20
20.55227938
 10
1.1438246843
 20
20.5440760447
 10
1.1127795018
 20
20.5381568321
 10
1.0806511634
 20
20.5346266259
 10
1.0480026261
 20
20.5335481871
 10
1.01532431
 20
20.5349448195
 10
0.9832459619
 20
20.5387967251
 10
0.9525215658
 20
20.5449872808
 10
0.9237065858
 20
20.5533427374
 10
0.8971708511
 20
20.5636910217
 10
0.8733018669
 20
20.5758214289
  0
LWPOLYLINE
  5
2D0
100
AcDbEntity
  8
0
100
AcDbPolyline
 62
7
  6
CONTINUOUS
 90
8
 70
0
 10
4.2641438771
 20
20.6069097853
 10
4.2915618619
 20
20.6200704119
 10
4.3221753927
 20
20.6302857242
 10
4.3536764545
 20
20.6364497144
 10
4.3857427465
 20
20.638526746
 10
4.4181153451
 20
20.6364340567
 10
4.4502428207
 20
20.6300873206
 10
4.4813661139
 20
20.6195540006
  0
LWPOLYLINE
  5
2D1
100
AcDbEntity
  8
0
100
AcDbPolyline
 62
253
  6
CONTINUOUS
 90
19
 70
0
 10
12.3602814246
 20
22.5301350851
 10
12.2151776879
 20
22.4767435084
 10
12.0637631406
 20
22.4301093629
 10
11.9065606259
 20
22.3902849024
 10
11.7451386725
 20
22.3574268874
 10
11.5790244727
 20
22.3314713198
 10
11.4086908342
 20
22.3124821977
 10
11.2371247087
 20
22.3008082763
 10
11.0643755904
 20
22.2965843033
 10
10.890393985
 20
22.2996755309
 10
10.7180183618
 20
22.3100264708
 10
10.547248886
 20
22.3277578693
 10
10.3780853923
 20
22.35274898
 10
10.2133658536
 20
22.3845820762
 10
10.0531752984
 20
22.4233706469
 10
9.8974286982
 20
22.469001203
 10
9.7487089408
 20
22.5207155513
 10
9.6071312129
 20
22.5786151427
 10
9.4725803278
 20
22.6425985262
  0
LWPOLYLINE
  5
2D2
100
AcDbEntity
  8
RACCORDO
100
AcDbPolyline
 62
253
  6
CONTINUOUS
 90
8
 70
0
 10
-23.7555433582
 20
17.6820778073
 10
-23.7549404319
 20
17.6797281013
 10
-23.7489341917
 20
17.6624652348
 10
-23.7404122007
 20
17.6461066253
 10
-23.7295141338
 20
17.6308474131
 10
-23.7164022612
 20
17.6168409778
 10
-23.701242638
 20
17.6042040394
 10
-23.6842249597
 20
17.5930458684
  0
LINE
  5
2D3
100
AcDbEntity
  8
RACCORDO
100
AcDbLine
 62
7
  6
CONTINUOUS
 10
-22.2513599358
 20
17.0186369591
 11
-22.2076547493
 21
16.844075135
  0
LINE
  5
2D4
100
AcDbEntity
  8
RACCORDO
100
AcDbLine
 62
253
  6
CONTINUOUS
 10
-23.6266052635
 20
17.5597769779
 11
-23.3049937391
 21
16.2560557628
  0
LINE
  5
2D5
100
AcDbEntity
  8
RACCORDO
100
AcDbLine
 62
253
  6
CONTINUOUS
 10
-23.2783028963
 20
17.6061256121
 11
-22.8855087495
 21
16.0138503872
  0
LINE
  5
2D6
100
AcDbEntity
  8
RACCORDO
100
AcDbLine
 62
7
  6
CONTINUOUS
 10
-22.6428004551
 20
15.8737136599
 11
-23.0371638852
 21
17.472350311
  0
LWPOLYLINE
  5
2D7
100
AcDbEntity
  8
RACCORDO
100
AcDbPolyline
 62
253
  6
CONTINUOUS
 90
6
 70
0
 10
-14.9661060963
 20
12.3320141336
 10
-14.9673606987
 20
12.3548481375
 10
-14.9657908795
 20
12.3751350448
 10
-14.9613059255
 20
12.3928914574
 10
-14.9540383055
 20
12.4079841185
 10
-14.9441508996
 20
12.4203072583
  0
LINE
  5
2D8
100
AcDbEntity
  8
0
100
AcDbLine
 62
7
  6
CONTINUOUS
 10
-13.8861311279
 20
28.333849076
 11
-13.8861311279
 21
28.1003243208
  0
LINE
  5
2D9
100
AcDbEntity
  8
0
100
AcDbLine
 62
7
  6
CONTINUOUS
 10
-13.8781996285
 20
26.0728559643
 11
-13.8781996285
 21
25.8751706598
  0
LINE
  5
2DA
100
AcDbEntity
  8
0
100
AcDbLine
 62
253
  6
CONTINUOUS
 10
-13.8129078232
 20
28.2317804277
 11
-13.8129078232
 21
27.9982556725
  0
LINE
  5
2DB
100
AcDbEntity
  8
0
100
AcDbLine
 62
7
  6
CONTINUOUS
 10
-13.1851951741
 20
27.1902052413
 11
-13.1851951741
 21
27.5512797682
  0
LINE
  5
2DC
100
AcDbEntity
  8
0
100
AcDbLine
 62
253
  6
CONTINUOUS
 10
-13.1119718694
 20
27.0850034121
 11
-13.1119718694
 21
27.5090015498
  0
LINE
  5
2DD
100
AcDbEntity
  8
0
100
AcDbLine
 62
253
  6
CONTINUOUS
 10
-12.8507405156
 20
27.676237083
 11
-12.8507405156
 21
27.4427123278
  0
LINE
  5
2DE
100
AcDbEntity
  8
0
100
AcDbLine
 62
253
  6
CONTINUOUS
 10
-12.4987365042
 20
27.6753502638
 11
-12.4987365042
 21
27.4418255086
  0
LINE
  5
2DF
100
AcDbEntity
  8
0
100
AcDbLine
 62
253
  6
CONTINUOUS
 10
-14.9590641695
 20
16.9989241436
 11
-15.0068657446
 21
15.2280580891
  0
LINE
  5
2E0
100
AcDbEntity
  8
0
100
AcDbLine
 62
253
  6
CONTINUOUS
 10
-14.6089512076
 20
17.0735427388
 11
-14.659909726
 21
15.1857239765
  0
LWPOLYLINE
  5
2E1
100
AcDbEntity
  8
0
100
AcDbPolyline
 62
7
  6
CONTINUOUS
 90
9
 70
0
 10
2.8464383597
 20
19.7812192757
 10
2.82296267
 20
19.7653129869
 10
2.7987263453
 20
19.7442022743
 10
2.7773321563
 20
19.7200708293
 10
2.7591391537
 20
19.6932444458
 10
2.7444923916
 20
19.664106829
 10
2.7337193071
 20
19.6331522086
 10
2.7270722289
 20
19.6009383275
 10
2.7247074029
 20
19.5666258533
  0
LWPOLYLINE
  5
2E2
100
AcDbEntity
  8
0
100
AcDbPolyline
 62
253
  6
CONTINUOUS
 90
13
 70
0
 10
2.9731647545
 20
19.7698525974
 10
2.9502323163
 20
19.7546536406
 10
2.9277140097
 20
19.7362732445
 10
2.905990861
 20
19.7150224167
 10
2.8854304685
 20
19.6912607681
 10
2.8663806999
 20
19.6653903345
 10
2.8491638273
 20
19.6378487487
 10
2.8340711633
 20
19.6091019441
 10
2.821358167
 20
19.5796364046
 10
2.811240022
 20
19.5499508296
 10
2.8038879501
 20
19.5205475722
 10
2.7994263455
 20
19.4919241336
 10
2.7979307073
 20
19.4645648577
  0
LINE
  5
2E3
100
AcDbEntity
  8
0
100
AcDbLine
 62
7
  6
CONTINUOUS
 10
1.2253058782
 20
19.0197988119
 11
2.1184589995
 21
19.5801513815
  0
LINE
  5
2E4
100
AcDbEntity
  8
0
100
AcDbLine
 62
7
  6
CONTINUOUS
 10
4.1244436811
 20
17.3458729793
 11
5.0175968024
 21
17.9062255489
  0
LINE
  5
2E5
100
AcDbEntity
  8
0
100
AcDbLine
 62
7
  6
CONTINUOUS
 10
3.724142673
 20
20.3058398737
 11
2.8464435451
 21
19.7812223754
  0
LINE
  5
2E6
100
AcDbEntity
  8
0
100
AcDbLine
 62
253
  6
CONTINUOUS
 10
3.8508638823
 20
20.2944700956
 11
2.9731647545
 21
19.7698525974
  0
LINE
  5
2E7
100
AcDbEntity
  8
0
100
AcDbLine
 62
7
  6
CONTINUOUS
 10
15.5941430889
 20
26.1709153472
 11
16.4371012562
 21
26.6661985837
  0
LINE
  5
2E8
100
AcDbEntity
  8
0
100
AcDbLine
 62
7
  6
CONTINUOUS
 10
15.3856973255
 20
26.2025811918
 11
9.5660405073
 21
22.8423785649
  0
LINE
  5
2E9
100
AcDbEntity
  8
0
100
AcDbLine
 62
253
  6
CONTINUOUS
 10
3.9476737169
 20
19.2071833359
 11
5.3680579892
 21
20.0272950688
  0
LINE
  5
2EA
100
AcDbEntity
  8
0
100
AcDbLine
 62
253
  6
CONTINUOUS
 10
4.1244436811
 20
18.901008777
 11
5.5448279534
 21
19.7211205099
  0
LINE
  5
2EB
100
AcDbEntity
  8
0
100
AcDbLine
 62
253
  6
CONTINUOUS
 10
12.891301493
 20
22.5082794195
 11
19.2802701876
 21
26.1322404359
  0
LINE
  5
2EC
100
AcDbEntity
  8
0
100
AcDbLine
 62
253
  6
CONTINUOUS
 10
13.1015744132
 20
22.1398291625
 11
19.4905431079
 21
25.7637901789
  0
LINE
  5
2ED
100
AcDbEntity
  8
0
100
AcDbLine
 62
7
  6
CONTINUOUS
 10
18.9868311314
 20
26.232466131
 11
12.485369356
 21
22.6734572115
  0
LINE
  5
2EE
100
AcDbEntity
  8
0
100
AcDbLine
 62
253
  6
CONTINUOUS
 10
19.1345867727
 20
26.2163562138
 11
12.6331249955
 21
22.6573472934
  0
LWPOLYLINE
  5
2EF
100
AcDbEntity
  8
0
100
AcDbPolyline
 62
7
  6
CONTINUOUS
 90
32
 70
0
 10
12.4853336969
 20
22.6734376819
 10
12.3948717513
 20
22.6269349206
 10
12.2755704919
 20
22.5736427254
 10
12.1474071453
 20
22.5248724765
 10
12.0110775444
 20
22.4811880056
 10
11.8675163221
 20
22.4431104774
 10
11.7178686035
 20
22.4111027885
 10
11.5630715763
 20
22.3855043121
 10
11.4041318852
 20
22.3665818715
 10
11.2423192656
 20
22.354565352
 10
11.07869549
 20
22.3496041743
 10
10.9143913424
 20
22.3517616143
 10
10.75078529
 20
22.3610233017
 10
10.5889955219
 20
22.3773156439
 10
10.4300994717
 20
22.4004801949
 10
10.2754082392
 20
22.430256104
 10
10.1259426463
 20
22.4663595111
 10
9.9826710249
 20
22.5084204135
 10
9.8468010768
 20
22.5559154669
 10
9.7193469255
 20
22.6082668136
 10
9.6008151253
 20
22.6649748902
 10
9.4917066165
 20
22.7255234866
 10
9.3932128903
 20
22.7888823709
 10
9.3051228338
 20
22.8547070773
 10
9.2265257697
 20
22.9234927069
 10
9.1582032864
 20
22.9946205545
 10
9.1009448038
 20
23.0671671335
 10
9.0548318496
 20
23.1410512199
 10
9.0205165096
 20
23.2154113903
 10
8.9982880796
 20
23.2895062969
 10
8.9881578721
 20
23.3640129158
 10
8.9875323542
 20
23.3899289181
  0
LWPOLYLINE
  5
2F0
100
AcDbEntity
  8
0
100
AcDbPolyline
 62
253
  6
CONTINUOUS
 90
4
 70
0
 10
19.2802701876
 20
26.1322404359
 10
19.3462367204
 20
26.1658523504
 10
19.4110740325
 20
26.1917243353
 10
19.4742327841
 20
26.2097893305
  0
LWPOLYLINE
  5
2F1
100
AcDbEntity
  8
0
100
AcDbPolyline
 62
253
  6
CONTINUOUS
 90
19
 70
0
 10
19.4905431079
 20
25.7637901789
 10
19.5371964569
 20
25.7873842824
 10
19.5823352057
 20
25.8055478436
 10
19.6259593543
 20
25.8182808625
 10
19.6684388515
 20
25.825441235
 10
19.7094037486
 20
25.8271710652
 10
19.7477441992
 20
25.8238966653
 10
19.7833588889
 20
25.8152666029
 10
19.8163491322
 20
25.8016323103
 10
19.8459090271
 20
25.7844743977
 10
19.8715443171
 20
25.7641389996
 10
19.8937492587
 20
25.7402799814
 10
19.9132007186
 20
25.7133395497
 10
19.9301541313
 20
25.6839195011
 10
19.9443540624
 20
25.651418039
 10
19.9557110747
 20
25.6144719791
 10
19.9641953559
 20
25.5726269267
 10
19.9698367184
 20
25.5263372765
 10
19.9726351621
 20
25.4756030286
  0
LWPOLYLINE
  5
2F2
100
AcDbEntity
  8
0
100
AcDbPolyline
 62
253
  6
CONTINUOUS
 90
3
 70
0
 10
12.6331249955
 20
22.6573472934
 10
12.4995971938
 20
22.5903363468
 10
12.3602814246
 20
22.5301350851
  0
LWPOLYLINE
  5
2F3
100
AcDbEntity
  8
0
100
AcDbPolyline
 62
253
  6
CONTINUOUS
 90
7
 70
0
 10
5.3680579892
 20
20.0272950688
 10
5.390990427
 20
20.0385779167
 10
5.413508731
 20
20.046201096
 10
5.435231875
 20
20.0500356159
 10
5.4557922618
 20
20.0500165951
 10
5.474842024
 20
20.0461443618
 10
5.4915213811
 20
20.0387974297
  0
LWPOLYLINE
  5
2F4
100
AcDbEntity
  8
0
100
AcDbPolyline
 62
7
  6
CONTINUOUS
 90
7
 70
0
 10
7.7581096335
 20
17.4091422932
 10
7.7743859362
 20
17.4160799246
 10
7.7935555439
 20
17.4197808647
 10
7.8142011955
 20
17.4195638388
 10
7.8359696634
 20
17.4154325556
 10
7.8584885315
 20
17.4074577026
 10
7.8813725351
 20
17.3957757199
  0
LWPOLYLINE
  5
2F5
100
AcDbEntity
  8
0
100
AcDbPolyline
 62
253
  6
CONTINUOUS
 90
19
 70
0
 10
15.8899031552
 20
20.4864423918
 10
15.7415856479
 20
20.4323223159
 10
15.5867302559
 20
20.3852439683
 10
15.4259151079
 20
20.3452628818
 10
15.260874589
 20
20.3125456541
 10
15.0911490046
 20
20.2870357623
 10
14.9171980494
 20
20.2687897293
 10
14.7421351922
 20
20.2581437211
 10
14.5659936267
 20
20.2552377102
 10
14.3887401592
 20
20.2599317241
 10
14.2133886783
 20
20.2721420114
 10
14.0399491796
 20
20.2919989589
 10
13.8684116675
 20
20.3193721797
 10
13.7017600431
 20
20.3537867615
 10
13.540089604
 20
20.3953636781
 10
13.3833050526
 20
20.4439819556
 10
13.234104398
 20
20.4988037601
 10
13.0926155979
 20
20.5599373824
 10
12.9587106944
 20
20.6272745317
  0
LINE
  5
2F6
100
AcDbEntity
  8
0
100
AcDbLine
 62
7
  6
CONTINUOUS
 10
18.5540568102
 20
-26.8139344091
 11
18.1401740347
 21
-26.5749636817
  0
LINE
  5
2F7
100
AcDbEntity
  8
RACCORDO
100
AcDbLine
 62
7
  6
CONTINUOUS
 10
-18.8732203664
 20
15.0681415097
 11
-18.8310147584
 21
14.8944455234
  0
LWPOLYLINE
  5
2F8
100
AcDbEntity
  8
RACCORDO
100
AcDbPolyline
 62
253
  6
CONTINUOUS
 90
18
 70
0
 10
-15.2179777622
 20
12.2169742507
 10
-15.2269913341
 20
12.2612682057
 10
-15.2320842668
 20
12.3021443182
 10
-15.2332565605
 20
12.3396025883
 10
-15.2303991555
 20
12.3737887389
 10
-15.2236211115
 20
12.404557047
 10
-15.2132496067
 20
12.4314703438
 10
-15.1992613222
 20
12.4544700104
 10
-15.181679577
 20
12.4736146656
 10
-15.1609015055
 20
12.4886429973
 10
-15.1369404668
 20
12.4995366405
 10
-15.1097831019
 20
12.5063139602
 10
-15.0797864679
 20
12.5087687381
 10
-15.0466980066
 20
12.5067770815
 10
-15.0107702762
 20
12.5004628831
 10
-14.973118008
 20
12.4899916031
 10
-14.9341127792
 20
12.4754183948
 10
-14.8933830126
 20
12.4566881048
  0
LWPOLYLINE
  5
2F9
100
AcDbEntity
  8
RACCORDO
100
AcDbPolyline
 62
253
  6
CONTINUOUS
 90
13
 70
0
 10
-14.5713998999
 20
11.3306157911
 10
-14.5749498434
 20
11.3524217937
 10
-14.5754067294
 20
11.376357039
 10
-14.5727607068
 20
11.4018955184
 10
-14.5670701071
 20
11.4284760149
 10
-14.5584601304
 20
11.455514551
 10
-14.5471200454
 20
11.4824172239
 10
-14.5332991132
 20
11.5085930251
 10
-14.5173010451
 20
11.5334670158
 10
-14.499477225
 20
11.5564930325
 10
-14.4802191704
 20
11.5771653792
 10
-14.4599499785
 20
11.5950299729
 10
-14.4391148965
 20
11.6096944826
  0
LWPOLYLINE
  5
2FA
100
AcDbEntity
  8
0
100
AcDbPolyline
 62
253
  6
CONTINUOUS
 90
13
 70
0
 10
-12.4987365042
 20
27.6753502638
 10
-12.5004520044
 20
27.7028744432
 10
-12.5051630868
 20
27.7317097383
 10
-12.5127913522
 20
27.7613593811
 10
-12.5232095051
 20
27.7913159264
 10
-12.5362391985
 20
27.8210572656
 10
-12.5516504626
 20
27.8500562574
 10
-12.5692149776
 20
27.8778682576
 10
-12.5885971042
 20
27.9039485945
 10
-12.6093153338
 20
27.9276924101
 10
-12.6309381267
 20
27.9486965892
 10
-12.6531282312
 20
27.966719696
 10
-12.6755064684
 20
27.9815248227
  0
LWPOLYLINE
  5
2FB
100
AcDbEntity
  8
0
100
AcDbPolyline
 62
7
  6
CONTINUOUS
 90
7
 70
0
 10
-13.8861311274
 20
28.1003339853
 10
-13.8844134882
 20
28.0710692623
 10
-13.8795131417
 20
28.0431824745
 10
-13.8714040682
 20
28.0157864975
 10
-13.8601373331
 20
27.9893233561
 10
-13.8458548025
 20
27.9642509201
 10
-13.828582875
 20
27.9407551351
  0
LWPOLYLINE
  5
2FC
100
AcDbEntity
  8
0
100
AcDbPolyline
 62
253
  6
CONTINUOUS
 90
8
 70
0
 10
-13.8129078232
 20
27.9982556725
 10
-13.8117125229
 20
27.9752492251
 10
-13.8081427861
 20
27.9539342021
 10
-13.8022468871
 20
27.9345988529
 10
-13.7941045574
 20
27.9175046552
 10
-13.7838259077
 20
27.9028827789
 10
-13.7715499389
 20
27.8909309602
 10
-13.7611371679
 20
27.8838214572
  0
LWPOLYLINE
  5
2FD
100
AcDbEntity
  8
0
100
AcDbPolyline
 62
253
  6
CONTINUOUS
 90
8
 70
0
 10
-12.8507405156
 20
27.4427123278
 10
-12.8495452156
 20
27.4197058838
 10
-12.8459754797
 20
27.3983908629
 10
-12.8400795818
 20
27.3790555145
 10
-12.8319372532
 20
27.3619613164
 10
-12.8216586042
 20
27.3473394391
 10
-12.8093826354
 20
27.3353876189
 10
-12.7989698603
 20
27.3282781125
  0
LINE
  5
2FE
100
AcDbEntity
  8
0
100
AcDbLine
 62
253
  6
CONTINUOUS
 10
-12.137462907
 20
27.2370120304
 11
-12.137462907
 21
26.5223341506
  0
LINE
  5
2FF
100
AcDbEntity
  8
0
100
AcDbLine
 62
253
  6
CONTINUOUS
 10
-11.7854588956
 20
27.3751478094
 11
-11.7854588956
 21
26.5320513291
  0
LINE
  5
300
100
AcDbEntity
  8
0
100
AcDbLine
 62
7
  6
CONTINUOUS
 10
-11.3519251821
 20
26.0687745134
 11
-11.3519251821
 21
24.8265233062
  0
LINE
  5
301
100
AcDbEntity
  8
0
100
AcDbLine
 62
7
  6
CONTINUOUS
 10
-10.8923057743
 20
27.0924038988
 11
-10.8923057743
 21
28.602881683
  0
LINE
  5
302
100
AcDbEntity
  8
0
100
AcDbLine
 62
253
  6
CONTINUOUS
 10
-10.3650746233
 20
28.4284199943
 11
-10.3650746233
 21
28.9072988598
  0
LINE
  5
303
100
AcDbEntity
  8
0
100
AcDbLine
 62
7
  6
CONTINUOUS
 10
-10.2933872356
 20
28.6118963002
 11
-10.2933872356
 21
29.008472916
  0
LINE
  5
304
100
AcDbEntity
  8
0
100
AcDbLine
 62
7
  6
CONTINUOUS
 10
2.1184589995
 20
20.251820435
 11
2.6456901505
 21
20.916167477
  0
LWPOLYLINE
  5
305
100
AcDbEntity
  8
0
100
AcDbPolyline
 62
7
  6
CONTINUOUS
 90
9
 70
0
 10
7.2274201748
 20
17.0920093897
 10
7.201373031
 20
17.0741124853
 10
7.1774798993
 20
17.0527574408
 10
7.1563103478
 20
17.0282519956
 10
7.1383536907
 20
17.0009822616
 10
7.1240628747
 20
16.971503613
 10
7.1137590561
 20
16.9404467524
 10
7.1075741552
 20
16.9081034326
 10
7.1056840453
 20
16.8773738346
  0
LINE
  5
306
100
AcDbEntity
  8
0
100
AcDbLine
 62
7
  6
CONTINUOUS
 10
7.2274201748
 20
17.0920093897
 11
7.755917225
 21
17.4079021501
  0
LINE
  5
307
100
AcDbEntity
  8
0
100
AcDbLine
 62
253
  6
CONTINUOUS
 10
7.3541413841
 20
17.0806396116
 11
7.8813725351
 21
17.3957757199
  0
LINE
  5
308
100
AcDbEntity
  8
0
100
AcDbLine
 62
7
  6
CONTINUOUS
 10
19.1296769948
 20
24.1295423805
 11
19.9726351621
 21
24.6248256171
  0
LINE
  5
309
100
AcDbEntity
  8
0
100
AcDbLine
 62
7
  6
CONTINUOUS
 10
8.3748113649
 20
16.4913175567
 11
8.7283647555
 21
16.6990174674
  0
LINE
  5
30A
100
AcDbEntity
  8
0
100
AcDbLine
 62
7
  6
CONTINUOUS
 10
18.9212312314
 20
24.1612082252
 11
13.1015744132
 21
20.8010055982
  0
LINE
  5
30B
100
AcDbEntity
  8
0
100
AcDbLine
 62
7
  6
CONTINUOUS
 10
7.7559284461
 20
17.4078829045
 11
7.7581096335
 21
17.4091422932
  0
LINE
  5
30C
100
AcDbEntity
  8
0
100
AcDbLine
 62
7
  6
CONTINUOUS
 10
7.7581096335
 20
17.4091422932
 11
8.4707434351
 21
17.8063698371
  0
LINE
  5
30D
100
AcDbEntity
  8
0
100
AcDbLine
 62
253
  6
CONTINUOUS
 10
7.8813725351
 20
17.3957757199
 11
8.5946501437
 21
17.7933621267
  0
LINE
  5
30E
100
AcDbEntity
  8
0
100
AcDbLine
 62
7
  6
CONTINUOUS
 10
22.5223650373
 20
24.1910931643
 11
16.0209032617
 21
20.6320842448
  0
LINE
  5
30F
100
AcDbEntity
  8
0
100
AcDbLine
 62
253
  6
CONTINUOUS
 10
22.6701206786
 20
24.1749832472
 11
16.1686589014
 21
20.6159743268
  0
LWPOLYLINE
  5
310
100
AcDbEntity
  8
0
100
AcDbPolyline
 62
7
  6
CONTINUOUS
 90
32
 70
0
 10
16.0208677922
 20
20.632064819
 10
15.9305502006
 20
20.5856325999
 10
15.8114008063
 20
20.5323939922
 10
15.6833919049
 20
20.4836585655
 10
15.5472165037
 20
20.4399916838
 10
15.4038068225
 20
20.4019186021
 10
15.2543055884
 20
20.3699008294
 10
15.0996457029
 20
20.3442786096
 10
14.9408241105
 20
20.3253220302
 10
14.7791084278
 20
20.3132591579
 10
14.6155589926
 20
20.3082420638
 10
14.4513046402
 20
20.3103416994
 10
14.2877233335
 20
20.3195409123
 10
14.1259341525
 20
20.3357689035
 10
13.9670155882
 20
20.3588753851
 10
13.8122764742
 20
20.388595181
 10
13.662741944
 20
20.4246472154
 10
13.519387361
 20
20.4666698377
 10
13.3834139708
 20
20.5141343297
 10
13.2558419321
 20
20.5664653456
 10
13.1371917555
 20
20.623170209
 10
13.0279554083
 20
20.6837251935
 10
12.9293341035
 20
20.7470989348
 10
12.8411328229
 20
20.8129535183
 10
12.7624194795
 20
20.8817801222
 10
12.6939817936
 20
20.9529614341
 10
12.6366388258
 20
21.025575335
 10
12.5904476823
 20
21.09952639
 10
12.5560805819
 20
21.1739533196
 10
12.5338359905
 20
21.2481077262
 10
12.5236837986
 20
21.322637271
 10
12.5230613483
 20
21.348751194
  0
LWPOLYLINE
  5
311
100
AcDbEntity
  8
0
100
AcDbPolyline
 62
253
  6
CONTINUOUS
 90
3
 70
0
 10
16.1686589014
 20
20.6159743268
 10
16.0322609064
 20
20.5476597288
 10
15.8899031552
 20
20.4864423918
  0
LWPOLYLINE
  5
312
100
AcDbEntity
  8
RACCORDO
100
AcDbPolyline
 62
253
  6
CONTINUOUS
 90
4
 70
0
 10
-14.944362716
 20
12.2498355449
 10
-14.9547508844
 20
12.2792712915
 10
-14.9619661462
 20
12.3067382254
 10
-14.9661060963
 20
12.3320141336
  0
LWPOLYLINE
  5
313
100
AcDbEntity
  8
RACCORDO
100
AcDbPolyline
 62
253
  6
CONTINUOUS
 90
5
 70
0
 10
-14.8509287083
 20
12.4338007332
 10
-14.84462531
 20
12.4151868553
 10
-14.8356304746
 20
12.399396616
 10
-14.8241291209
 20
12.3867546362
 10
-14.813842538
 20
12.3794072544
  0
LINE
  5
314
100
AcDbEntity
  8
RACCORDO
100
AcDbLine
 62
253
  6
CONTINUOUS
 10
-15.1937347068
 20
12.118699832
 11
-15.2179777622
 21
12.2169742507
  0
LINE
  5
315
100
AcDbEntity
  8
RACCORDO
100
AcDbLine
 62
253
  6
CONTINUOUS
 10
-14.9201196607
 20
12.1515611261
 11
-14.944362716
 21
12.2498355449
  0
LWPOLYLINE
  5
316
100
AcDbEntity
  8
0
100
AcDbPolyline
 62
7
  6
CONTINUOUS
 90
13
 70
0
 10
-10.8923057743
 20
28.602881683
 10
-10.8940078111
 20
28.630287555
 10
-10.898678626
 20
28.6589859764
 10
-10.9062383079
 20
28.6884859567
 10
-10.9165575211
 20
28.718282792
 10
-10.929459718
 20
28.7478666996
 10
-10.9447241599
 20
28.7767315395
 10
-10.9620896931
 20
28.8043834743
 10
-10.9812592175
 20
28.8303494173
 10
-11.0019047688
 20
28.8541851273
 10
-11.0236731301
 20
28.875482808
 10
-11.0461918749
 20
28.8938780854
 10
-11.0690757385
 20
28.9090562419
  0
LWPOLYLINE
  5
317
100
AcDbEntity
  8
0
100
AcDbPolyline
 62
7
  6
CONTINUOUS
 90
10
 70
0
 10
-8.8042091081
 20
26.2054181566
 10
-8.8026599807
 20
26.1776076113
 10
-8.7993416365
 20
26.1495533041
 10
-8.794244879
 20
26.1214476673
 10
-8.7872519399
 20
26.0934134947
 10
-8.7785146754
 20
26.0656556404
 10
-8.768441142
 20
26.0384623206
 10
-8.7571921673
 20
26.0120038521
 10
-8.7446912894
 20
25.9863313203
 10
-8.7309952398
 20
25.9615302218
  0
LWPOLYLINE
  5
318
100
AcDbEntity
  8
0
100
AcDbPolyline
 62
253
  6
CONTINUOUS
 90
13
 70
0
 10
-10.3650746233
 20
28.9072988598
 10
-10.3664123928
 20
28.9350411346
 10
-10.3708053955
 20
28.9640600844
 10
-10.3781807861
 20
28.9938557347
 10
-10.3884156848
 20
29.0239180928
 10
-10.4013350245
 20
29.0537231547
 10
-10.4167108152
 20
29.0827426307
 10
-10.4343154913
 20
29.1105314371
 10
-10.4538128501
 20
29.1365452318
 10
-10.4747178616
 20
29.1601811969
 10
-10.4965936905
 20
29.1810392765
 10
-10.5190978117
 20
29.1988810769
 10
-10.5418445875
 20
29.2134734187
  0
LINE
  5
319
100
AcDbEntity
  8
0
100
AcDbLine
 62
7
  6
CONTINUOUS
 10
-8.8042185445
 20
26.2053995314
 11
-8.8042185445
 21
25.0903535322
  0
LINE
  5
31A
100
AcDbEntity
  8
0
100
AcDbLine
 62
253
  6
CONTINUOUS
 10
-8.7309952398
 20
25.9615302218
 11
-8.7309952398
 21
24.985151703
  0
LINE
  5
31B
100
AcDbEntity
  8
0
100
AcDbLine
 62
7
  6
CONTINUOUS
 10
-7.710325259
 20
24.3958296481
 11
-7.710325259
 21
25.3722081669
  0
LINE
  5
31C
100
AcDbEntity
  8
0
100
AcDbLine
 62
7
  6
CONTINUOUS
 10
-7.3567718684
 20
25.5799080776
 11
-7.3567718684
 21
24.6213616418
  0
LINE
  5
31D
100
AcDbEntity
  8
0
100
AcDbLine
 62
7
  6
CONTINUOUS
 10
-7.1092844949
 20
24.0487962438
 11
-7.1092844949
 21
22.4337067857
  0
LINE
  5
31E
100
AcDbEntity
  8
0
100
AcDbLine
 62
253
  6
CONTINUOUS
 10
-6.2976611348
 20
24.009844378
 11
-6.2976611348
 21
24.9683908138
  0
LWPOLYLINE
  5
31F
100
AcDbEntity
  8
0
100
AcDbPolyline
 62
253
  6
CONTINUOUS
 90
13
 70
0
 10
-6.2976611348
 20
24.9683908138
 10
-6.2961531837
 20
24.9958655733
 10
-6.29165287
 20
25.0246236431
 10
-6.2842337931
 20
25.0541751625
 10
-6.2740178219
 20
25.0840203642
 10
-6.2611776347
 20
25.1136443566
 10
-6.2459377474
 20
25.1425265879
 10
-6.2285209569
 20
25.1702296263
 10
-6.2092566811
 20
25.1962161735
 10
-6.1886210662
 20
25.2198875311
 10
-6.1670414955
 20
25.2408458397
 10
-6.1448514656
 20
25.2588540879
 10
-6.1224270876
 20
25.2736785535
  0
LWPOLYLINE
  5
320
100
AcDbEntity
  8
0
100
AcDbPolyline
 62
7
  6
CONTINUOUS
 90
13
 70
0
 10
-7.3567718684
 20
25.5799080776
 10
-7.3550704068
 20
25.6080907323
 10
-7.3506340317
 20
25.6365525092
 10
-7.3434627432
 20
25.6652934083
 10
-7.3333450476
 20
25.6948036223
 10
-7.3204924384
 20
25.7245929586
 10
-7.3055393968
 20
25.7531908388
 10
-7.2883804982
 20
25.7805374615
 10
-7.2691211671
 20
25.8066926281
 10
-7.2487121583
 20
25.8303651643
 10
-7.2274703902
 20
25.8511246789
 10
-7.2050789445
 20
25.8694015633
 10
-7.1815378212
 20
25.8851958173
  0
LINE
  5
321
100
AcDbEntity
  8
0
100
AcDbLine
 62
7
  6
CONTINUOUS
 10
5.0175968024
 20
18.5778946023
 11
5.5448279534
 21
19.2422416444
  0
LWPOLYLINE
  5
322
100
AcDbEntity
  8
0
100
AcDbPolyline
 62
7
  6
CONTINUOUS
 90
13
 70
0
 10
8.3748113649
 20
16.4913175567
 10
8.3512702416
 20
16.4755233026
 10
8.3288787959
 20
16.4572464183
 10
8.3076370278
 20
16.4364869037
 10
8.287228019
 20
16.4128143674
 10
8.2679686879
 20
16.3866592009
 10
8.2508097893
 20
16.3593125782
 10
8.2358567477
 20
16.330714698
 10
8.2230041386
 20
16.3009253617
 10
8.2128864429
 20
16.2714151476
 10
8.2057151544
 20
16.2426742485
 10
8.2012787793
 20
16.2142124717
 10
8.1995773177
 20
16.186029817
  0
LINE
  5
323
100
AcDbEntity
  8
0
100
AcDbLine
 62
7
  6
CONTINUOUS
 10
8.5531307083
 20
15.4351832919
 11
8.1995773177
 21
15.2096512982
  0
LINE
  5
324
100
AcDbEntity
  8
0
100
AcDbLine
 62
7
  6
CONTINUOUS
 10
7.3864045194
 20
13.9604899191
 11
8.8006180818
 21
14.8626178939
  0
LINE
  5
325
100
AcDbEntity
  8
0
100
AcDbLine
 62
7
  6
CONTINUOUS
 10
10.144120966
 20
14.9462347473
 11
9.9642454533
 21
14.8333832066
  0
LINE
  5
326
100
AcDbEntity
  8
0
100
AcDbLine
 62
7
  6
CONTINUOUS
 10
11.6083838616
 20
15.18204931
 11
11.4316201092
 21
15.076394246
  0
LINE
  5
327
100
AcDbEntity
  8
0
100
AcDbLine
 62
253
  6
CONTINUOUS
 10
11.7351044926
 20
15.1706791863
 11
11.5583413185
 21
15.0650244679
  0
LINE
  5
328
100
AcDbEntity
  8
0
100
AcDbLine
 62
7
  6
CONTINUOUS
 10
12.6174520521
 20
14.4535072041
 11
12.2638986615
 21
14.2458072934
  0
LINE
  5
329
100
AcDbEntity
  8
0
100
AcDbLine
 62
253
  6
CONTINUOUS
 10
9.7874754891
 20
16.0875002036
 11
10.6682869556
 21
16.5960702202
  0
LINE
  5
32A
100
AcDbEntity
  8
0
100
AcDbLine
 62
253
  6
CONTINUOUS
 10
9.9642454533
 20
15.7813256447
 11
10.8450569198
 21
16.2898956613
  0
LINE
  5
32B
100
AcDbEntity
  8
0
100
AcDbLine
 62
7
  6
CONTINUOUS
 10
11.6105650448
 20
15.1833086993
 11
11.6083838616
 21
15.18204931
  0
LINE
  5
32C
100
AcDbEntity
  8
0
100
AcDbLine
 62
7
  6
CONTINUOUS
 10
10.8450569198
 20
15.3438207573
 11
10.144120966
 21
14.9462347473
  0
LINE
  5
32D
100
AcDbEntity
  8
0
100
AcDbLine
 62
7
  6
CONTINUOUS
 10
8.7101246306
 20
13.196190517
 11
8.8006180818
 21
13.2475284358
  0
LINE
  5
32E
100
AcDbEntity
  8
0
100
AcDbLine
 62
7
  6
CONTINUOUS
 10
12.3244753926
 20
15.5812733034
 11
11.6105539872
 21
15.1833280393
  0
LINE
  5
32F
100
AcDbEntity
  8
0
100
AcDbLine
 62
253
  6
CONTINUOUS
 10
12.4483821011
 20
15.568265593
 11
11.7351044926
 21
15.1706791863
  0
LINE
  5
330
100
AcDbEntity
  8
0
100
AcDbLine
 62
7
  6
CONTINUOUS
 10
17.3329915964
 20
13.1180467437
 11
17.3016123144
 21
13.1075257086
  0
LWPOLYLINE
  5
331
100
AcDbEntity
  8
0
100
AcDbPolyline
 62
253
  6
CONTINUOUS
 90
13
 70
0
 10
-5.9456571234
 20
24.9675039946
 10
-5.9473591387
 20
24.994909677
 10
-5.9520298972
 20
25.0236079172
 10
-5.9595894966
 20
25.053107736
 10
-5.9699086028
 20
25.0829044198
 10
-5.9828106821
 20
25.1124882123
 10
-5.9980750367
 20
25.1413530331
 10
-6.0154405597
 20
25.1690050777
 10
-6.0346101448
 20
25.1949712014
 10
-6.0552557852
 20
25.2188070848
 10
-6.0770242417
 20
25.2401049066
 10
-6.0995430992
 20
25.2585003047
 10
-6.1224270876
 20
25.2736785535
  0
LINE
  5
332
100
AcDbEntity
  8
0
100
AcDbLine
 62
253
  6
CONTINUOUS
 10
-4.600018597
 20
24.0479370408
 11
-4.6000186101
 21
24.0479837264
  0
LINE
  5
333
100
AcDbEntity
  8
0
100
AcDbLine
 62
253
  6
CONTINUOUS
 10
-5.9456571234
 20
24.0195615565
 11
-5.9456571234
 21
24.9675039946
  0
LINE
  5
334
100
AcDbEntity
  8
0
100
AcDbLine
 62
7
  6
CONTINUOUS
 10
-5.7657816107
 20
25.0713616876
 11
-5.7657816107
 21
24.1324130972
  0
LINE
  5
335
100
AcDbEntity
  8
0
100
AcDbLine
 62
7
  6
CONTINUOUS
 10
-5.0648456569
 20
24.5299991072
 11
-5.0648456569
 21
25.4760740112
  0
LINE
  5
336
100
AcDbEntity
  8
0
100
AcDbLine
 62
7
  6
CONTINUOUS
 10
-4.6000186101
 20
24.0479837264
 11
-4.6000186101
 21
23.0925704714
  0
LINE
  5
337
100
AcDbEntity
  8
0
100
AcDbLine
 62
253
  6
CONTINUOUS
 10
-4.5267953054
 20
23.9459150781
 11
-4.5267953054
 21
22.9873686423
  0
LINE
  5
338
100
AcDbEntity
  8
0
100
AcDbLine
 62
7
  6
CONTINUOUS
 10
-3.8212379624
 20
23.1266979036
 11
-3.8212379624
 21
22.1503193848
  0
LINE
  5
339
100
AcDbEntity
  8
0
100
AcDbLine
 62
253
  6
CONTINUOUS
 10
-2.8005679816
 20
21.5609973299
 11
-2.8005679816
 21
22.5373758487
  0
LWPOLYLINE
  5
33A
100
AcDbEntity
  8
0
100
AcDbPolyline
 62
253
  6
CONTINUOUS
 90
13
 70
0
 10
-4.5267953054
 20
23.9459150781
 10
-4.5252873543
 20
23.9733898377
 10
-4.5207870405
 20
24.0021479078
 10
-4.5133679635
 20
24.0316994274
 10
-4.5031519921
 20
24.0615446296
 10
-4.4903118046
 20
24.0911686224
 10
-4.475071917
 20
24.1200508538
 10
-4.4576551264
 20
24.1477538923
 10
-4.4383908505
 20
24.1737404392
 10
-4.4177552357
 20
24.1974117965
 10
-4.3961756652
 20
24.2183701047
 10
-4.3739856356
 20
24.2363783526
 10
-4.3515612582
 20
24.2512028178
  0
LWPOLYLINE
  5
33B
100
AcDbEntity
  8
0
100
AcDbPolyline
 62
7
  6
CONTINUOUS
 90
13
 70
0
 10
-3.8212379624
 20
23.1266979036
 10
-3.8195365009
 20
23.1548805582
 10
-3.8151001258
 20
23.1833423351
 10
-3.8079288373
 20
23.2120832342
 10
-3.7978111416
 20
23.2415934483
 10
-3.7849585325
 20
23.2713827846
 10
-3.7700054909
 20
23.2999806648
 10
-3.7528465922
 20
23.3273272875
 10
-3.7335872611
 20
23.353482454
 10
-3.7131782524
 20
23.3771549903
 10
-3.6919364843
 20
23.3979145049
 10
-3.6695450386
 20
23.4161913892
 10
-3.6460039152
 20
23.4319856432
  0
LINE
  5
33C
100
AcDbEntity
  8
RACCORDO
100
AcDbLine
 62
7
  6
CONTINUOUS
 10
-2.1704631193
 20
4.5651546715
 11
-2.1705579424
 21
4.564591153
  0
LINE
  5
33D
100
AcDbEntity
  8
0
100
AcDbLine
 62
253
  6
CONTINUOUS
 10
-0.1198011812
 20
8.7076891053
 11
-0.8088668612
 21
7.1883054207
  0
LINE
  5
33E
100
AcDbEntity
  8
0
100
AcDbLine
 62
253
  6
CONTINUOUS
 10
-0.0345643333
 20
8.3817049861
 11
-0.6809415419
 21
6.9564490004
  0
LWPOLYLINE
  5
33F
100
AcDbEntity
  8
0
100
AcDbPolyline
 62
7
  6
CONTINUOUS
 90
9
 70
0
 10
11.4316201092
 20
15.076394246
 10
11.4055729654
 20
15.0584973416
 10
11.3816798336
 20
15.037142297
 10
11.3605102822
 20
15.0126368519
 10
11.342553625
 20
14.9853671179
 10
11.328262809
 20
14.9558884692
 10
11.3179589905
 20
14.9248316087
 10
11.3117740896
 20
14.8924882888
 10
11.3098839797
 20
14.861758691
  0
LINE
  5
340
100
AcDbEntity
  8
RACCORDO
100
AcDbLine
 62
253
  6
CONTINUOUS
 10
-2.3650881623
 20
4.6383027693
 11
-2.2053840095
 21
4.7439220344
  0
LINE
  5
341
100
AcDbEntity
  8
0
100
AcDbLine
 62
7
  6
CONTINUOUS
 10
10.9311946664
 20
11.9137725149
 11
11.9825985971
 21
12.5957129336
  0
LINE
  5
342
100
AcDbEntity
  8
0
100
AcDbLine
 62
7
  6
CONTINUOUS
 10
11.4876238503
 20
13.3111744392
 11
10.0734102879
 21
12.4090464645
  0
LINE
  5
343
100
AcDbEntity
  8
0
100
AcDbLine
 62
7
  6
CONTINUOUS
 10
13.9978529235
 20
12.7211382136
 11
13.4613386064
 21
12.3845361585
  0
LWPOLYLINE
  5
344
100
AcDbEntity
  8
0
100
AcDbPolyline
 62
7
  6
CONTINUOUS
 90
10
 70
0
 10
13.2839391752
 20
13.4519981673
 10
13.260629463
 20
13.4382446031
 10
13.2379932009
 20
13.4252385344
 10
13.2162016433
 20
13.412891701
 10
13.1954200263
 20
13.4009672267
 10
13.1757498319
 20
13.3895086242
 10
13.1572366276
 20
13.3788507698
 10
13.1399474989
 20
13.3690466758
 10
13.1239649276
 20
13.3598595481
 10
13.1093345951
 20
13.3511974988
  0
LINE
  5
345
100
AcDbEntity
  8
0
100
AcDbLine
 62
253
  6
CONTINUOUS
 10
13.2845686423
 20
13.6564852385
 11
14.5220189131
 21
14.3709736866
  0
LINE
  5
346
100
AcDbEntity
  8
0
100
AcDbLine
 62
253
  6
CONTINUOUS
 10
13.4613386064
 20
13.3503106796
 11
14.6987888773
 21
14.0647991277
  0
LINE
  5
347
100
AcDbEntity
  8
0
100
AcDbLine
 62
7
  6
CONTINUOUS
 10
11.3173924078
 20
11.6907867792
 11
11.3582356074
 21
11.7139610915
  0
LINE
  5
348
100
AcDbEntity
  8
0
100
AcDbLine
 62
7
  6
CONTINUOUS
 10
14.6987888773
 20
13.1187242237
 11
13.9978529235
 21
12.7211382136
  0
LINE
  5
349
100
AcDbEntity
  8
0
100
AcDbLine
 62
7
  6
CONTINUOUS
 10
16.7383663431
 20
12.7955844798
 11
17.2748806601
 21
13.0946416728
  0
LINE
  5
34A
100
AcDbEntity
  8
0
100
AcDbLine
 62
253
  6
CONTINUOUS
 10
16.8616286562
 20
12.7822175784
 11
17.3981429732
 21
13.0812747714
  0
LWPOLYLINE
  5
34B
100
AcDbEntity
  8
0
100
AcDbPolyline
 62
253
  6
CONTINUOUS
 90
7
 70
0
 10
17.3981429732
 20
13.0812747714
 10
17.4210754227
 20
13.0925576242
 10
17.4435937527
 20
13.1001808083
 10
17.4653169344
 20
13.1040153253
 10
17.4858773799
 20
13.1039962846
 10
17.5049272011
 20
13.100124003
 10
17.5216063651
 20
13.0927771323
  0
LINE
  5
34C
100
AcDbEntity
  8
0
100
AcDbLine
 62
7
  6
CONTINUOUS
 10
17.3016123144
 20
13.1075257086
 11
17.2748344633
 21
13.0946159031
  0
LWPOLYLINE
  5
34D
100
AcDbEntity
  8
0
100
AcDbPolyline
 62
253
  6
CONTINUOUS
 90
7
 70
0
 10
15.1562723652
 20
11.8500070783
 10
15.1754644783
 20
11.8584380647
 10
15.1949618371
 20
11.8620698705
 10
15.2158668486
 20
11.8617809472
 10
15.2377426775
 20
11.8576695678
 10
15.2602467988
 20
11.8498867899
 10
15.2829935745
 20
11.8386373003
  0
LWPOLYLINE
  5
34E
100
AcDbEntity
  8
0
100
AcDbPolyline
 62
7
  6
CONTINUOUS
 90
7
 70
0
 10
16.7383663431
 20
12.7955844798
 10
16.7546426108
 20
12.8025220918
 10
16.7738121352
 20
12.8062229859
 10
16.7944576865
 20
12.8060059048
 10
16.8162260478
 20
12.8018745624
 10
16.8387447926
 20
12.7938996403
 10
16.8616286562
 20
12.7822175784
  0
LWPOLYLINE
  5
34F
100
AcDbEntity
  8
0
100
AcDbPolyline
 62
253
  6
CONTINUOUS
 90
7
 70
0
 10
17.2748806601
 20
13.0946416728
 10
17.2918514824
 20
13.1017901145
 10
17.311233609
 20
13.1053553851
 10
17.3319518386
 20
13.1049586137
 10
17.3535746316
 20
13.1007011335
 10
17.375764736
 20
13.092737047
 10
17.3981429732
 20
13.0812747714
  0
LWPOLYLINE
  5
350
100
AcDbEntity
  8
0
100
AcDbPolyline
 62
253
  6
CONTINUOUS
 90
13
 70
0
 10
-2.4485639702
 20
22.5364890294
 10
-2.4502794703
 20
22.5640132073
 10
-2.4549905525
 20
22.592848502
 10
-2.4626188179
 20
22.6224981456
 10
-2.473036972
 20
22.6524546942
 10
-2.4860666678
 20
22.682196038
 10
-2.5014779334
 20
22.7111950312
 10
-2.5190424464
 20
22.7390070272
 10
-2.5384245686
 20
22.7650873581
 10
-2.559142795
 20
22.7888311706
 10
-2.5807655876
 20
22.8098353502
 10
-2.6029556937
 20
22.827858459
 10
-2.6253339344
 20
22.8426635883
  0
LWPOLYLINE
  5
351
100
AcDbEntity
  8
0
100
AcDbPolyline
 62
7
  6
CONTINUOUS
 90
13
 70
0
 10
-1.9120496532
 20
22.846265154
 10
-1.9137515486
 20
22.8736711061
 10
-1.9184222393
 20
22.902369598
 10
-1.9259818141
 20
22.9318696396
 10
-1.9363009274
 20
22.9616665331
 10
-1.9492030421
 20
22.9912504895
 10
-1.9644674501
 20
23.0201153504
 10
-1.9818330185
 20
23.0477672663
 10
-2.0010026262
 20
23.0737331626
 10
-2.0216482778
 20
23.0975688151
 10
-2.0434167457
 20
23.1188664337
 10
-2.0659356138
 20
23.1372616388
 10
-2.0888196174
 20
23.1524397129
  0
LINE
  5
352
100
AcDbEntity
  8
0
100
AcDbLine
 62
253
  6
CONTINUOUS
 10
-2.4485639702
 20
21.5707145084
 11
-2.4485639702
 21
22.5364890294
  0
LINE
  5
353
100
AcDbEntity
  8
0
100
AcDbLine
 62
7
  6
CONTINUOUS
 10
-1.9120496532
 20
21.9073165635
 11
-1.9120496532
 21
22.846265154
  0
LINE
  5
354
100
AcDbEntity
  8
0
100
AcDbLine
 62
7
  6
CONTINUOUS
 10
-1.2111136994
 20
22.3049025735
 11
-1.2111136994
 21
23.2509774776
  0
LINE
  5
355
100
AcDbEntity
  8
0
100
AcDbLine
 62
7
  6
CONTINUOUS
 10
-0.1744304003
 20
21.2405593387
 11
-0.1744304003
 21
19.677952724
  0
LINE
  5
356
100
AcDbEntity
  8
0
100
AcDbLine
 62
253
  6
CONTINUOUS
 10
-0.1012070956
 20
21.1384906903
 11
-0.1012070956
 21
19.5727508949
  0
LINE
  5
357
100
AcDbEntity
  8
RACCORDO
100
AcDbLine
 62
7
  6
CONTINUOUS
 10
-2.1698055172
 20
4.5711057523
 11
-2.1704631193
 21
4.5651546715
  0
LINE
  5
358
100
AcDbEntity
  8
0
100
AcDbLine
 62
7
  6
CONTINUOUS
 10
-0.9477548365
 20
4.7182023716
 11
-0.6809415419
 21
6.9564490004
  0
LINE
  5
359
100
AcDbEntity
  8
0
100
AcDbLine
 62
7
  6
CONTINUOUS
 10
-0.9477548365
 20
4.7182023716
 11
-0.0345643333
 21
8.3817049861
  0
LWPOLYLINE
  5
35A
100
AcDbEntity
  8
0
100
AcDbPolyline
 62
253
  6
CONTINUOUS
 90
7
 70
0
 10
18.5555927272
 20
12.2088679927
 10
18.5769119874
 20
12.2231512481
 10
18.5948302083
 20
12.2389226377
 10
18.6090378866
 20
12.2559142133
 10
18.619289603
 20
12.2738393128
 10
18.6254037054
 20
12.2923898131
 10
18.6272801072
 20
12.3100062545
  0
LWPOLYLINE
  5
35B
100
AcDbEntity
  8
0
100
AcDbPolyline
 62
253
  6
CONTINUOUS
 90
13
 70
0
 10
16.2451608822
 20
11.2830939556
 10
16.2222284326
 20
11.2678949904
 10
16.1997101027
 20
11.2495145716
 10
16.177986921
 20
11.2282637029
 10
16.1574264754
 20
11.204501975
 10
16.1383766543
 20
11.1786314374
 10
16.1211597692
 20
11.1510897832
 10
16.1060671414
 20
11.122342989
 10
16.0933541976
 20
11.0928775111
 10
16.0832360958
 20
11.0631920056
 10
16.0758840529
 20
11.0337888085
 10
16.0714224668
 20
11.0051654317
 10
16.069926835
 20
10.9778062159
  0
LINE
  5
35C
100
AcDbEntity
  8
0
100
AcDbLine
 62
7
  6
CONTINUOUS
 10
14.1347792087
 20
8.8555261304
 11
15.1292237734
 21
9.4898831222
  0
LINE
  5
35D
100
AcDbEntity
  8
0
100
AcDbLine
 62
7
  6
CONTINUOUS
 10
15.0231577562
 20
10.8401321822
 11
13.9532413433
 21
10.1688806388
  0
LINE
  5
35E
100
AcDbEntity
  8
0
100
AcDbLine
 62
7
  6
CONTINUOUS
 10
15.1562723652
 20
11.8500070783
 11
16.7361737316
 21
12.794344239
  0
LINE
  5
35F
100
AcDbEntity
  8
0
100
AcDbLine
 62
253
  6
CONTINUOUS
 10
15.2829935745
 20
11.8386373003
 11
16.8616286562
 21
12.7822175784
  0
LINE
  5
360
100
AcDbEntity
  8
0
100
AcDbLine
 62
7
  6
CONTINUOUS
 10
16.7361851558
 20
12.794325091
 11
16.7383663431
 21
12.7955844798
  0
LINE
  5
361
100
AcDbEntity
  8
DRAFT
100
AcDbLine
 62
7
  6
CONTINUOUS
 10
1.1268690298
 20
3.3710135551
 11
1.2561818858
 21
3.44567693
  0
LINE
  5
362
100
AcDbEntity
  8
0
100
AcDbLine
 62
253
  6
CONTINUOUS
 10
18.378822763
 20
12.5150425516
 11
16.2451608822
 21
11.2830939556
  0
LINE
  5
363
100
AcDbEntity
  8
0
100
AcDbLine
 62
253
  6
CONTINUOUS
 10
31.1106624372
 20
19.4709557625
 11
30.7569015961
 21
19.2666751111
  0
LINE
  5
364
100
AcDbEntity
  8
0
100
AcDbLine
 62
253
  6
CONTINUOUS
 10
18.5555927272
 20
12.2088679927
 11
16.4219308463
 21
10.9769193967
  0
LINE
  5
365
100
AcDbEntity
  8
0
100
AcDbLine
 62
253
  6
CONTINUOUS
 10
18.2910717992
 20
10.2422874415
 11
18.9858359856
 21
10.6434369527
  0
LINE
  5
366
100
AcDbEntity
  8
0
100
AcDbLine
 62
253
  6
CONTINUOUS
 10
12.2654256101
 20
6.7398495217
 11
15.9354027507
 21
8.8588556028
  0
LINE
  5
367
100
AcDbEntity
  8
0
100
AcDbLine
 62
253
  6
CONTINUOUS
 10
17.9592282549
 20
12.8400997379
 11
30.2569777485
 21
19.7944270607
  0
LINE
  5
368
100
AcDbEntity
  8
0
100
AcDbLine
 62
253
  6
CONTINUOUS
 10
18.6107988752
 20
12.3981034216
 11
30.7569015961
 21
19.2666751111
  0
LINE
  5
369
100
AcDbEntity
  8
0
100
AcDbLine
 62
7
  6
CONTINUOUS
 10
15.1452691466
 20
9.3150688431
 11
14.2099849578
 21
8.8121032734
  0
LWPOLYLINE
  5
36A
100
AcDbEntity
  8
0
100
AcDbPolyline
 62
253
  6
CONTINUOUS
 90
13
 70
0
 10
16.4219308463
 20
10.7433946415
 10
16.3972474762
 20
10.731108835
 10
16.3700108189
 20
10.7207828534
 10
16.3406847233
 20
10.7125910582
 10
16.3097708155
 20
10.7066718373
 10
16.2777920284
 20
10.7031236746
 10
16.2452829688
 20
10.7020055726
 10
16.2127673212
 20
10.7033393412
 10
16.1808259351
 20
10.7071049571
 10
16.1500724006
 20
10.7132220061
 10
16.1210399981
 20
10.7215640313
 10
16.094180102
 20
10.7319798625
 10
16.069926835
 20
10.7442814607
  0
LWPOLYLINE
  5
36B
100
AcDbEntity
  8
0
100
AcDbPolyline
 62
253
  6
CONTINUOUS
 90
13
 70
0
 10
16.4219308463
 20
10.9769193967
 10
16.3971931163
 20
10.9646099231
 10
16.3698780284
 20
10.954264167
 10
16.3404496524
 20
10.9460608317
 10
16.30940447
 20
10.9401416191
 10
16.2772761315
 20
10.936611413
 10
16.2446275942
 20
10.9355329741
 10
16.2119492781
 20
10.9369296065
 10
16.17987093
 20
10.9407815121
 10
16.1491465339
 20
10.9469720679
 10
16.120331554
 20
10.9553275245
 10
16.0937958192
 20
10.9656758087
 10
16.069926835
 20
10.9778062159
  0
LWPOLYLINE
  5
36C
100
AcDbEntity
  8
RACCORDO
100
AcDbPolyline
 62
253
  6
CONTINUOUS
 90
3
 70
0
 10
-2.1965597772
 20
4.8130593492
 10
-2.176165102
 20
4.764052846
 10
-2.1592962155
 20
4.7161500802
  0
LWPOLYLINE
  5
36D
100
AcDbEntity
  8
RACCORDO
100
AcDbPolyline
 62
253
  6
CONTINUOUS
 90
5
 70
0
 10
-2.7596740378
 20
5.4524618255
 10
-2.7533699624
 20
5.4338464647
 10
-2.7443742469
 20
5.418055582
 10
-2.7328720284
 20
5.4054136476
 10
-2.7224582734
 20
5.3979933266
  0
LINE
  5
36E
100
AcDbEntity
  8
RACCORDO
100
AcDbLine
 62
253
  6
CONTINUOUS
 10
-2.1592962155
 20
4.7161500802
 11
-2.1459531176
 21
4.6693510519
  0
LINE
  5
36F
100
AcDbEntity
  8
RACCORDO
100
AcDbLine
 62
7
  6
CONTINUOUS
 10
-2.202911488
 20
4.7401833988
 11
-2.178668433
 21
4.6419089814
  0
LINE
  5
370
100
AcDbEntity
  8
RACCORDO
100
AcDbLine
 62
253
  6
CONTINUOUS
 10
-2.1459531176
 20
4.6693510519
 11
-2.1217100623
 21
4.5710766332
  0
LINE
  5
371
100
AcDbEntity
  8
RACCORDO
100
AcDbLine
 62
7
  6
CONTINUOUS
 10
-2.178575378
 20
4.6415349289
 11
-2.1738735965
 21
4.6197864077
  0
LWPOLYLINE
  5
372
100
AcDbEntity
  8
RACCORDO
100
AcDbPolyline
 62
253
  6
CONTINUOUS
 90
19
 70
0
 10
-2.1217100623
 20
4.5710766332
 10
-2.112849006
 20
4.5277045844
 10
-2.107917129
 20
4.4875607568
 10
-2.1069144313
 20
4.4506451505
 10
-2.1099279448
 20
4.4167623441
 10
-2.1168706375
 20
4.386107759
 10
-2.1274814141
 20
4.3592676589
 10
-2.141804145
 20
4.3363286714
 10
-2.1597949596
 20
4.317204169
 10
-2.1810611514
 20
4.3022205329
 10
-2.2056098269
 20
4.2914118411
 10
-2.2334338794
 20
4.2847440157
 10
-2.264119282
 20
4.2824412043
 10
-2.2979027971
 20
4.2846341914
 10
-2.3345476623
 20
4.2911921925
 10
-2.3729295632
 20
4.3019470023
 10
-2.4126737283
 20
4.3168425522
 10
-2.4541549291
 20
4.3359349107
 10
-2.4973731657
 20
4.3592240779
  0
LWPOLYLINE
  5
373
100
AcDbEntity
  8
RACCORDO
100
AcDbPolyline
 62
253
  6
CONTINUOUS
 90
13
 70
0
 10
-2.4973731657
 20
4.3592240779
 10
-2.5009229085
 20
4.3810278666
 10
-2.5013801713
 20
4.404961041
 10
-2.4987349089
 20
4.4304978303
 10
-2.493045233
 20
4.4570772356
 10
-2.4844361361
 20
4.484115353
 10
-2.4730967451
 20
4.511018202
 10
-2.4592761669
 20
4.5371947732
 10
-2.4432780157
 20
4.5620700128
 10
-2.4254537432
 20
4.5850974545
 10
-2.4061949181
 20
4.6057712253
 10
-2.3859246233
 20
4.6236371582
 10
-2.3650881623
 20
4.6383027693
  0
LWPOLYLINE
  5
374
100
AcDbEntity
  8
RACCORDO
100
AcDbPolyline
 62
7
  6
CONTINUOUS
 90
4
 70
0
 10
-2.1738735965
 20
4.6197864077
 10
-2.1708465775
 20
4.5996579254
 10
-2.1696175029
 20
4.5828254476
 10
-2.1698055172
 20
4.5711057523
  0
LWPOLYLINE
  5
375
100
AcDbEntity
  8
0
100
AcDbPolyline
 62
253
  6
CONTINUOUS
 90
13
 70
0
 10
1.2253058782
 20
20.5749346097
 10
1.2235903781
 20
20.6024587884
 10
1.2188792958
 20
20.6312940833
 10
1.2112510304
 20
20.6609437264
 10
1.2008328769
 20
20.6909002733
 10
1.1878031824
 20
20.7206416147
 10
1.1723919176
 20
20.7496406071
 10
1.1548274035
 20
20.7774526053
 10
1.135445279
 20
20.8035329394
 10
1.1147270509
 20
20.8272767536
 10
1.0931042581
 20
20.8482809329
 10
1.0709141529
 20
20.8663040406
 10
1.048535914
 20
20.8811091686
  0
LWPOLYLINE
  5
376
100
AcDbEntity
  8
0
100
AcDbPolyline
 62
7
  6
CONTINUOUS
 90
13
 70
0
 10
2.1184589995
 20
21.0906291658
 10
2.1167569628
 20
21.1180350378
 10
2.1120861478
 20
21.1467334591
 10
2.1045264659
 20
21.1762334395
 10
2.0942072527
 20
21.2060302748
 10
2.0813050558
 20
21.2356141823
 10
2.066040614
 20
21.2644790223
 10
2.0486750807
 20
21.292130957
 10
2.0295055564
 20
21.3180969001
 10
2.0088600051
 20
21.3419326101
 10
1.9870916437
 20
21.3632302907
 10
1.9645728989
 20
21.3816255682
 10
1.9416890354
 20
21.3968037247
  0
LINE
  5
377
100
AcDbEntity
  8
0
100
AcDbLine
 62
253
  6
CONTINUOUS
 10
0.8733018669
 20
20.5758214289
 11
0.8733018669
 21
19.0100816334
  0
LINE
  5
378
100
AcDbEntity
  8
0
100
AcDbLine
 62
253
  6
CONTINUOUS
 10
1.2253058782
 20
20.5749346097
 11
1.2253058782
 21
19.0197988119
  0
LINE
  5
379
100
AcDbEntity
  8
0
100
AcDbLine
 62
7
  6
CONTINUOUS
 10
2.1184589995
 20
19.5801513815
 11
2.1184589995
 21
21.0906291658
  0
LINE
  5
37A
100
AcDbEntity
  8
0
100
AcDbLine
 62
253
  6
CONTINUOUS
 10
2.4949726954
 20
26.9251244981
 11
2.4949726954
 21
28.2639480624
  0
LINE
  5
37B
100
AcDbEntity
  8
0
100
AcDbLine
 62
253
  6
CONTINUOUS
 10
2.6456901505
 20
20.916167477
 11
2.6456901505
 21
21.3950463426
  0
LINE
  5
37C
100
AcDbEntity
  8
0
100
AcDbLine
 62
7
  6
CONTINUOUS
 10
2.7173775382
 20
21.099643783
 11
2.7173775382
 21
21.4962203988
  0
LINE
  5
37D
100
AcDbEntity
  8
0
100
AcDbLine
 62
7
  6
CONTINUOUS
 10
2.7247074026
 20
19.566633506
 11
2.7247074026
 21
18.0040268914
  0
LINE
  5
37E
100
AcDbEntity
  8
0
100
AcDbLine
 62
253
  6
CONTINUOUS
 10
2.7979307073
 20
19.4645648577
 11
2.7979307073
 21
17.8988250622
  0
LINE
  5
37F
100
AcDbEntity
  8
0
100
AcDbLine
 62
7
  6
CONTINUOUS
 10
1.916446905
 20
27.4705230169
 11
1.9164505833
 21
27.4727025903
  0
LWPOLYLINE
  5
380
100
AcDbEntity
  8
0
100
AcDbPolyline
 62
253
  6
CONTINUOUS
 90
12
 70
0
 10
1.9164505833
 20
27.4727025903
 10
1.9192759409
 20
27.5309166263
 10
1.9326621369
 20
27.6147788534
 10
1.9559983914
 20
27.6950042352
 10
1.9886264354
 20
27.772302265
 10
2.0306346184
 20
27.8477991196
 10
2.0814354021
 20
27.9207478755
 10
2.140906677
 20
27.9912126097
 10
2.2112281206
 20
28.0612348738
 10
2.293823276
 20
28.1309279397
 10
2.388319326
 20
28.1987568222
 10
2.4949726954
 20
28.2639480624
  0
LWPOLYLINE
  5
381
100
AcDbEntity
  8
0
100
AcDbPolyline
 62
253
  6
CONTINUOUS
 90
13
 70
0
 10
3.7724396697
 20
18.9018955963
 10
3.7739352638
 20
18.9292544576
 10
3.7783967402
 20
18.9578774647
 10
3.7857486084
 20
18.9872802962
 10
3.7958664553
 20
19.0169653965
 10
3.8085790886
 20
19.0464305112
 10
3.8236714654
 20
19.07517718
 10
3.8408882775
 20
19.1027190335
 10
3.8599381915
 20
19.1285899535
 10
3.8804988217
 20
19.1523520889
 10
3.902222242
 20
19.173603329
 10
3.9247408876
 20
19.1919840902
 10
3.9476737169
 20
19.2071833359
  0
LWPOLYLINE
  5
382
100
AcDbEntity
  8
0
100
AcDbPolyline
 62
253
  6
CONTINUOUS
 90
7
 70
0
 10
5.6165153411
 20
19.8222945661
 10
5.6146389314
 20
19.8046423293
 10
5.6085248288
 20
19.7860918294
 10
5.5982731124
 20
19.7681667301
 10
5.5840654342
 20
19.7511751547
 10
5.5661472135
 20
19.7354037652
 10
5.5448279534
 20
19.7211205099
  0
LWPOLYLINE
  5
383
100
AcDbEntity
  8
RACCORDO
100
AcDbPolyline
 62
253
  6
CONTINUOUS
 90
16
 70
0
 10
5.4140293353
 20
1.0359698939
 10
5.3949936037
 20
1.0213156974
 10
5.3742897324
 20
1.0079397148
 10
5.3521410644
 20
0.9959862504
 10
5.3287834936
 20
0.9855830437
 10
5.3044717893
 20
0.9768439735
 10
5.2794779265
 20
0.9698656663
 10
5.2540787112
 20
0.9647224232
 10
5.2285415275
 20
0.9614654555
 10
5.2031310013
 20
0.9601274926
 10
5.1780836625
 20
0.9607253973
 10
5.1537080247
 20
0.9632562864
 10
5.1303604773
 20
0.967671094
 10
5.1083075009
 20
0.9738900704
 10
5.0877344544
 20
0.9818301675
 10
5.0688390708
 20
0.9913870577
  0
LINE
  5
384
100
AcDbEntity
  8
0
100
AcDbLine
 62
253
  6
CONTINUOUS
 10
16.2063485552
 20
8.8679647727
 11
18.2906411144
 21
10.2425361135
  0
LINE
  5
385
100
AcDbEntity
  8
0
100
AcDbLine
 62
253
  6
CONTINUOUS
 10
16.5602787826
 20
8.254441128
 11
18.6567003443
 21
9.6370114317
  0
LINE
  5
386
100
AcDbEntity
  8
0
100
AcDbLine
 62
7
  6
CONTINUOUS
 10
17.1352084549
 20
9.833620462
 11
18.0283615762
 21
10.3939730317
  0
LINE
  5
387
100
AcDbEntity
  8
0
100
AcDbLine
 62
7
  6
CONTINUOUS
 10
16.2889022934
 20
7.4790051809
 11
13.6833653853
 21
5.9211488664
  0
LINE
  5
388
100
AcDbEntity
  8
0
100
AcDbLine
 62
253
  6
CONTINUOUS
 10
32.6922872324
 20
15.9144888603
 11
19.3393355283
 21
8.0441849478
  0
LINE
  5
389
100
AcDbEntity
  8
0
100
AcDbLine
 62
253
  6
CONTINUOUS
 10
32.8993624702
 20
15.2176824743
 11
19.3393355283
 21
7.2253272663
  0
LINE
  5
38A
100
AcDbEntity
  8
0
100
AcDbLine
 62
253
  6
CONTINUOUS
 10
18.6567003443
 20
9.6370114317
 11
19.3393355283
 21
10.0311577849
  0
LINE
  5
38B
100
AcDbEntity
  8
0
100
AcDbLine
 62
253
  6
CONTINUOUS
 10
12.9723899271
 20
6.3316571854
 11
16.2889022934
 21
8.2465764351
  0
LINE
  5
38C
100
AcDbEntity
  8
0
100
AcDbLine
 62
253
  6
CONTINUOUS
 10
33.0460480735
 20
16.1187695117
 11
32.6922872324
 21
15.9144888603
  0
LINE
  5
38D
100
AcDbEntity
  8
RACCORDO
100
AcDbLine
 62
253
  6
CONTINUOUS
 10
16.1898839452
 20
7.1065804652
 11
15.1292237734
 21
6.5155458877
  0
LINE
  5
38E
100
AcDbEntity
  8
RACCORDO
100
AcDbLine
 62
253
  6
CONTINUOUS
 10
16.5434373357
 20
6.4941458445
 11
15.482777164
 21
5.903111267
  0
LINE
  5
38F
100
AcDbEntity
  8
RACCORDO
100
AcDbLine
 62
7
  6
CONTINUOUS
 10
-14.8247627688
 20
12.3855699765
 11
-14.8138425378
 21
12.3794072543
  0
LINE
  5
390
100
AcDbEntity
  8
0
100
AcDbLine
 62
253
  6
CONTINUOUS
 10
-33.0179123872
 20
19.5809588371
 11
7.6977669327
 21
-3.9277641149
  0
LINE
  5
391
100
AcDbEntity
  8
0
100
AcDbLine
 62
253
  6
CONTINUOUS
 10
8.4770599338
 20
-2.0945037052
 11
8.137515865
 21
-1.8984552154
  0
LINE
  5
392
100
AcDbEntity
  8
0
100
AcDbLine
 62
7
  6
CONTINUOUS
 10
8.137515865
 20
-1.8984552154
 11
-31.9170035053
 21
21.228522268
  0
LINE
  5
393
100
AcDbEntity
  8
0
100
AcDbLine
 62
253
  6
CONTINUOUS
 10
-31.9170035053
 20
21.228522268
 11
-32.2565475742
 21
21.4245707579
  0
LINE
  5
394
100
AcDbEntity
  8
RACCORDO
100
AcDbLine
 62
253
  6
CONTINUOUS
 10
-2.4973731657
 20
4.3592240779
 11
-14.5713998999
 21
11.3306157911
  0
LINE
  5
395
100
AcDbEntity
  8
RACCORDO
100
AcDbLine
 62
253
  6
CONTINUOUS
 10
-2.3650881623
 20
4.6383027693
 11
-14.4391148965
 21
11.6096944826
  0
LINE
  5
396
100
AcDbEntity
  8
RACCORDO
100
AcDbLine
 62
7
  6
CONTINUOUS
 10
-14.8137130028
 20
12.3793322684
 11
-2.7224582734
 21
5.3979933266
  0
LINE
  5
397
100
AcDbEntity
  8
RACCORDO
100
AcDbLine
 62
253
  6
CONTINUOUS
 10
-14.8509287083
 20
12.4338007332
 11
-2.7596740378
 21
5.4524618255
  0
LINE
  5
398
100
AcDbEntity
  8
RACCORDO
100
AcDbLine
 62
253
  6
CONTINUOUS
 10
-23.6842249597
 20
17.5930458684
 11
-23.6266052635
 21
17.5597769779
  0
LINE
  5
399
100
AcDbEntity
  8
RACCORDO
100
AcDbLine
 62
253
  6
CONTINUOUS
 10
5.0112193746
 20
1.0246559481
 11
5.0688390708
 21
0.9913870577
  0
LINE
  5
39A
100
AcDbEntity
  8
DRAFT
100
AcDbLine
 62
7
  6
CONTINUOUS
 10
-22.2076547493
 20
16.844075135
 11
-18.8310147584
 21
14.8944455234
  0
LINE
  5
39B
100
AcDbEntity
  8
DRAFT
100
AcDbLine
 62
7
  6
CONTINUOUS
 10
1.1268690298
 20
3.3710135551
 11
4.5035090207
 21
1.4213839436
  0
LINE
  5
39C
100
AcDbEntity
  8
0
100
AcDbLine
 62
7
  6
CONTINUOUS
 10
9.3921432698
 20
-1.2519252056
 11
-0.9477548365
 21
4.7182023716
  0
LINE
  5
39D
100
AcDbEntity
  8
0
100
AcDbLine
 62
7
  6
CONTINUOUS
 10
-18.0565556567
 20
14.5966095415
 11
-28.6821871
 21
20.7317159665
  0
LWPOLYLINE
  5
39E
100
AcDbEntity
  8
RACCORDO
100
AcDbPolyline
 62
7
  6
CONTINUOUS
 90
20
 70
0
 10
-2.7223467799
 20
5.3979290951
 10
-2.7145693496
 20
5.3933672294
 10
-2.6821034916
 20
5.3728981881
 10
-2.6470931154
 20
5.3483855188
 10
-2.6101273612
 20
5.3198883768
 10
-2.5721059875
 20
5.2878369174
 10
-2.5335257652
 20
5.252453391
 10
-2.4948519311
 20
5.2139903087
 10
-2.4568943457
 20
5.1731352948
 10
-2.4201317365
 20
5.1303404628
 10
-2.3849869471
 20
5.0860609012
 10
-2.3520854475
 20
5.0411046833
 10
-2.3217308369
 20
4.9959611119
 10
-2.294211121
 20
4.9511601296
 10
-2.2699621927
 20
4.9076076355
 10
-2.2490623049
 20
4.865737796
 10
-2.2315711638
 20
4.8260135954
 10
-2.2176788836
 20
4.7894262684
 10
-2.2072665148
 20
4.7565762468
 10
-2.2029892136
 20
4.7405007507
  0
LWPOLYLINE
  5
39F
100
AcDbEntity
  8
RACCORDO
100
AcDbPolyline
 62
253
  6
CONTINUOUS
 90
19
 70
0
 10
-14.4391148965
 20
11.6096944826
 10
-14.4703799007
 20
11.628180691
 10
-14.5023154555
 20
11.649081038
 10
-14.5347046101
 20
11.6722423229
 10
-14.5673643438
 20
11.6974705239
 10
-14.6000468944
 20
11.724590386
 10
-14.6324413572
 20
11.7534467709
 10
-14.6643308024
 20
11.7837752896
 10
-14.6955311179
 20
11.8153594807
 10
-14.7257802572
 20
11.8481028852
 10
-14.7548911112
 20
11.8817263921
 10
-14.7826758446
 20
11.9159604325
 10
-14.8088565595
 20
11.9507168791
 10
-14.8333537199
 20
11.9858135816
 10
-14.8558809127
 20
12.0208057672
 10
-14.8759121739
 20
12.0552039101
 10
-14.8932594684
 20
12.0886392353
 10
-14.9080044924
 20
12.1208571024
 10
-14.9201196607
 20
12.1515611261
  0
LWPOLYLINE
  5
3A0
100
AcDbEntity
  8
RACCORDO
100
AcDbPolyline
 62
253
  6
CONTINUOUS
 90
3
 70
0
 10
-2.7596740378
 20
5.4524618255
 10
-2.7172057334
 20
5.4263556114
 10
-2.6747081053
 20
5.3972431292
  0
LWPOLYLINE
  5
3A1
100
AcDbEntity
  8
RACCORDO
100
AcDbPolyline
 62
253
  6
CONTINUOUS
 90
19
 70
0
 10
-14.5713998999
 20
11.3306157911
 10
-14.6148803667
 20
11.3573610047
 10
-14.6583952381
 20
11.3871811609
 10
-14.7019445141
 20
11.4200762599
 10
-14.7458542574
 20
11.4563238172
 10
-14.7897984053
 20
11.4956463172
 10
-14.8327987703
 20
11.5372112128
 10
-14.8748164998
 20
11.5810356176
 10
-14.9158904463
 20
11.627102418
 10
-14.9551589801
 20
11.6745277262
 10
-14.9926129223
 20
11.723344341
 10
-15.0282614516
 20
11.7735194637
 10
-15.0612704748
 20
11.8240708103
 10
-15.0916764825
 20
11.8752122564
 10
-15.1194429841
 20
11.9267299266
 10
-15.1436264138
 20
11.9769999102
 10
-15.1639122499
 20
12.025480904
 10
-15.1806150143
 20
12.0727142112
 10
-15.1937347068
 20
12.118699832
  0
LINE
  5
3A2
100
AcDbEntity
  8
0
100
AcDbLine
 62
7
  6
CONTINUOUS
 10
-31.9170035053
 20
21.228522268
 11
-31.9294313339
 21
21.2362063217
  0
LINE
  5
3A3
100
AcDbEntity
  8
0
100
AcDbLine
 62
253
  6
CONTINUOUS
 10
-31.9304330277
 20
21.6736916539
 11
-29.6384351927
 21
20.2361801525
  0
LWPOLYLINE
  5
3A4
100
AcDbEntity
  8
RACCORDO
100
AcDbPolyline
 62
253
  6
CONTINUOUS
 90
6
 70
0
 10
-2.1217100623
 20
4.5710766332
 10
-2.1386291221
 20
4.582462744
 10
-2.1530295034
 20
4.5956025951
 10
-2.1646760448
 20
4.610281427
 10
-2.1733785868
 20
4.626259337
 10
-2.178575378
 20
4.6415349289
  0
LINE
  5
3A5
100
AcDbEntity
  8
RACCORDO
100
AcDbLine
 62
253
  6
CONTINUOUS
 10
-2.1459531176
 20
4.6693510519
 11
-2.1628710345
 21
4.6807362673
  0
LINE
  5
3A6
100
AcDbEntity
  8
RACCORDO
100
AcDbLine
 62
253
  6
CONTINUOUS
 10
-2.6747081053
 20
5.3972431292
 11
-2.6321811533
 21
5.3651243789
  0
LWPOLYLINE
  5
3A7
100
AcDbEntity
  8
RACCORDO
100
AcDbPolyline
 62
253
  6
CONTINUOUS
 90
13
 70
0
 10
-2.6321811533
 20
5.3651243789
 10
-2.5893377386
 20
5.3297674351
 10
-2.5464650001
 20
5.2914042232
 10
-2.5044243551
 20
5.2507305193
 10
-2.4632243778
 20
5.2077137388
 10
-2.4228564939
 20
5.1623864662
 10
-2.3841563982
 20
5.1155422314
 10
-2.3471097291
 20
5.0671177045
 10
-2.3117308482
 20
5.0171762154
 10
-2.2788985346
 20
4.9667012834
 10
-2.2485793077
 20
4.9154750214
 10
-2.2208066481
 20
4.8637153166
 10
-2.1965597772
 20
4.8130593492
  0
LWPOLYLINE
  5
3A8
100
AcDbEntity
  8
RACCORDO
100
AcDbPolyline
 62
253
  6
CONTINUOUS
 90
5
 70
0
 10
-2.1628710345
 20
4.6807362673
 10
-2.1772708545
 20
4.693875193
 10
-2.1889173337
 20
4.7085531838
 10
-2.1976202083
 20
4.7245304514
 10
-2.202911488
 20
4.7401833988
  0
LINE
  5
3A9
100
AcDbEntity
  8
RACCORDO
100
AcDbLine
 62
7
  6
CONTINUOUS
 10
1.0831638434
 20
3.5455753792
 11
1.1268690298
 21
3.3710135551
  0
LWPOLYLINE
  5
3AA
100
AcDbEntity
  8
0
100
AcDbPolyline
 62
253
  6
CONTINUOUS
 90
13
 70
0
 10
2.6456901505
 20
21.3950463426
 10
2.6443523811
 20
21.4227886174
 10
2.6399593783
 20
21.4518075672
 10
2.6325839877
 20
21.4816032175
 10
2.622349089
 20
21.5116655755
 10
2.6094297493
 20
21.5414706375
 10
2.5940539586
 20
21.5704901134
 10
2.5764492826
 20
21.5982789199
 10
2.5569519237
 20
21.6242927146
 10
2.5360469122
 20
21.6479286797
 10
2.5141710834
 20
21.6687867592
 10
2.4916669621
 20
21.6866285596
 10
2.4689201863
 20
21.7012209015
  0
LINE
  5
3AB
100
AcDbEntity
  8
0
100
AcDbLine
 62
253
  6
CONTINUOUS
 10
3.7724396697
 20
17.3361558008
 11
3.7724396697
 21
18.9018955963
  0
LINE
  5
3AC
100
AcDbEntity
  8
0
100
AcDbLine
 62
253
  6
CONTINUOUS
 10
4.1244436811
 20
17.3458729793
 11
4.1244436811
 21
18.901008777
  0
LINE
  5
3AD
100
AcDbEntity
  8
0
100
AcDbLine
 62
7
  6
CONTINUOUS
 10
5.0175968024
 20
17.9062255489
 11
5.0175968024
 21
19.4167033331
  0
LINE
  5
3AE
100
AcDbEntity
  8
0
100
AcDbLine
 62
253
  6
CONTINUOUS
 10
5.5448279534
 20
19.7211205099
 11
5.5448279534
 21
19.2422416444
  0
LINE
  5
3AF
100
AcDbEntity
  8
0
100
AcDbLine
 62
7
  6
CONTINUOUS
 10
5.6165153411
 20
19.8222945661
 11
5.6165153411
 21
19.4257179503
  0
LINE
  5
3B0
100
AcDbEntity
  8
0
100
AcDbLine
 62
253
  6
CONTINUOUS
 10
6.0305066014
 20
24.8837515315
 11
6.0305066014
 21
26.2225750958
  0
LINE
  5
3B1
100
AcDbEntity
  8
0
100
AcDbLine
 62
7
  6
CONTINUOUS
 10
5.4519808109
 20
25.4291500502
 11
5.4519844893
 21
25.4313296236
  0
LWPOLYLINE
  5
3B2
100
AcDbEntity
  8
0
100
AcDbPolyline
 62
253
  6
CONTINUOUS
 90
12
 70
0
 10
5.4519844893
 20
25.4313296236
 10
5.4548098468
 20
25.4895436596
 10
5.4681960428
 20
25.5734058867
 10
5.4915322974
 20
25.6536312686
 10
5.5241603413
 20
25.7309292984
 10
5.5661685243
 20
25.806426153
 10
5.616969308
 20
25.8793749088
 10
5.676440583
 20
25.9498396431
 10
5.7467620265
 20
26.0198619071
 10
5.8293571819
 20
26.0895549731
 10
5.9238532319
 20
26.1573838556
 10
6.0305066014
 20
26.2225750958
  0
LWPOLYLINE
  5
3B3
100
AcDbEntity
  8
0
100
AcDbPolyline
 62
253
  6
CONTINUOUS
 90
13
 70
0
 10
7.1789073369
 20
16.7753518719
 10
7.180415288
 20
16.8028266314
 10
7.1849156017
 20
16.8315847012
 10
7.1923346786
 20
16.8611362206
 10
7.2025506499
 20
16.8909814223
 10
7.2153908371
 20
16.9206054147
 10
7.2306307243
 20
16.9494876459
 10
7.2480475148
 20
16.9771906844
 10
7.2673117907
 20
17.0031772315
 10
7.2879474055
 20
17.0268485892
 10
7.3095269763
 20
17.0478068978
 10
7.3317170062
 20
17.065815146
 10
7.3541413841
 20
17.0806396116
  0
LWPOLYLINE
  5
3B4
100
AcDbEntity
  8
0
100
AcDbPolyline
 62
253
  6
CONTINUOUS
 90
7
 70
0
 10
9.4520581922
 20
31.7209775797
 10
9.4496872478
 20
31.6993960462
 10
9.4422828749
 20
31.6772732782
 10
9.4299676242
 20
31.6558926212
 10
9.4129498815
 20
31.6356158565
 10
9.3915176033
 20
31.6167860863
 10
9.3660334443
 20
31.5997219285
  0
LWPOLYLINE
  5
3B5
100
AcDbEntity
  8
0
100
AcDbPolyline
 62
7
  6
CONTINUOUS
 90
7
 70
0
 10
9.4520579825
 20
30.8703533845
 10
9.4495888007
 20
30.8487557958
 10
9.44210301
 20
30.8263897661
 10
9.4299676247
 20
30.8051152114
 10
9.4133058259
 20
30.7853001717
 10
9.3919944324
 20
30.7665766069
 10
9.3660334443
 20
30.748944517
  0
LWPOLYLINE
  5
3B6
100
AcDbEntity
  8
RACCORDO
100
AcDbPolyline
 62
253
  6
CONTINUOUS
 90
12
 70
0
 10
5.1177650709
 20
1.2160471959
 10
5.1175652691
 20
1.2157312848
 10
5.1049458683
 20
1.1928193284
 10
5.0938101502
 20
1.1693265312
 10
5.0842801196
 20
1.1455102867
 10
5.0764601918
 20
1.121631542
 10
5.0704360423
 20
1.0979519263
 10
5.0662736659
 20
1.0747308684
 10
5.0640186618
 20
1.0522227662
 10
5.0636957366
 20
1.0306742178
 10
5.0653084292
 20
1.0103213182
 10
5.0688390708
 20
0.9913870577
  0
LWPOLYLINE
  5
3B7
100
AcDbEntity
  8
0
100
AcDbPolyline
 62
7
  6
CONTINUOUS
 90
11
 70
0
 10
17.1352084549
 20
10.6767169423
 10
17.1126537399
 20
10.6509099246
 10
17.0875610054
 20
10.6270875749
 10
17.0602163699
 20
10.6054653895
 10
17.0310063722
 20
10.586023545
 10
17.0002935885
 20
10.5691535245
 10
16.9684012091
 20
10.5556834787
 10
16.9358184987
 20
10.5457526146
 10
16.9031210024
 20
10.539483269
 10
16.8708378695
 20
10.5376694039
 10
16.8529836185
 20
10.5387707982
  0
LINE
  5
3B8
100
AcDbEntity
  8
0
100
AcDbLine
 62
7
  6
CONTINUOUS
 10
13.4469703579
 20
2.2808131231
 11
13.6470569458
 21
2.4359460395
  0
LWPOLYLINE
  5
3B9
100
AcDbEntity
  8
0
100
AcDbPolyline
 62
253
  6
CONTINUOUS
 90
6
 70
0
 10
13.4571013116
 20
2.1918906154
 10
13.4407188744
 20
2.1796261667
 10
13.4243934434
 20
2.1669570066
 10
13.408131049
 20
2.1538870526
 10
13.3919433945
 20
2.1404251491
 10
8.4770599338
 20
-2.0945037052
  0
LWPOLYLINE
  5
3BA
100
AcDbEntity
  8
0
100
AcDbPolyline
 62
253
  6
CONTINUOUS
 90
4
 70
0
 10
13.5065597221
 20
2.2262355161
 10
13.4900305483
 20
2.2152017842
 10
13.4735405105
 20
2.2037506455
 10
13.4571013116
 20
2.1918906154
  0
LINE
  5
3BB
100
AcDbEntity
  8
0
100
AcDbLine
 62
253
  6
CONTINUOUS
 10
13.5231191706
 20
2.2368457531
 11
13.5065597221
 21
2.2262355161
  0
LWPOLYLINE
  5
3BC
100
AcDbEntity
  8
0
100
AcDbPolyline
 62
253
  6
CONTINUOUS
 90
10
 70
0
 10
13.8889519106
 20
1.6321849147
 10
13.8805931275
 20
1.6269159336
 10
13.872258527
 20
1.62144136
 10
13.8639481092
 20
1.6157611939
 10
13.8556588591
 20
1.6098733538
 10
13.8473937916
 20
1.6037799212
 10
13.839161952
 20
1.5974871409
 10
13.8309663554
 20
1.5909970946
 10
13.8228039867
 20
1.5843077006
 10
13.8146748459
 20
1.5774189589
  0
LINE
  5
3BD
100
AcDbEntity
  8
0
100
AcDbLine
 62
253
  6
CONTINUOUS
 10
16.6851278166
 20
4.1879688595
 11
13.5231191706
 21
2.2368457531
  0
LINE
  5
3BE
100
AcDbEntity
  8
0
100
AcDbLine
 62
253
  6
CONTINUOUS
 10
17.0384120826
 20
3.5755649628
 11
13.8889519106
 21
1.6321849147
  0
LWPOLYLINE
  5
3BF
100
AcDbEntity
  8
RACCORDO
100
AcDbPolyline
 62
253
  6
CONTINUOUS
 90
4
 70
0
 10
-2.1696197711
 20
4.5826840629
 10
-2.1845677658
 20
4.5797900367
 10
-2.2048365587
 20
4.5792528084
 10
-2.2274464933
 20
4.5817386161
  0
LWPOLYLINE
  5
3C0
100
AcDbEntity
  8
RACCORDO
100
AcDbPolyline
 62
253
  6
CONTINUOUS
 90
6
 70
0
 10
-2.2274464933
 20
4.5817386161
 10
-2.2520906428
 20
4.5873356204
 10
-2.278438225
 20
4.5959103631
 10
-2.3061999634
 20
4.6073142595
 10
-2.3351654054
 20
4.6214881779
 10
-2.3650881623
 20
4.6383027693
  0
LWPOLYLINE
  5
3C1
100
AcDbEntity
  8
RACCORDO
100
AcDbPolyline
 62
7
  6
CONTINUOUS
 90
4
 70
0
 10
-14.8878914196
 20
12.4150595916
 10
-14.8681138896
 20
12.407067808
 10
-14.847039405
 20
12.3972413445
 10
-14.8247627688
 20
12.3855699765
  0
LWPOLYLINE
  5
3C2
100
AcDbEntity
  8
RACCORDO
100
AcDbPolyline
 62
253
  6
CONTINUOUS
 90
13
 70
0
 10
-15.2179777622
 20
12.2169742507
 10
-15.1988168723
 20
12.2075282148
 10
-15.1777273357
 20
12.2001765431
 10
-15.1550537856
 20
12.1950392648
 10
-15.1311667338
 20
12.1922002253
 10
-15.1064564505
 20
12.191705711
 10
-15.0813265813
 20
12.1935637176
 10
-15.0561876809
 20
12.1977438171
 10
-15.0314504051
 20
12.2041776521
 10
-15.0075187422
 20
12.2127600929
 10
-14.984783583
 20
12.2233509175
 10
-14.9636163269
 20
12.2357770738
 10
-14.944362716
 20
12.2498355449
  0
LWPOLYLINE
  5
3C3
100
AcDbEntity
  8
RACCORDO
100
AcDbPolyline
 62
253
  6
CONTINUOUS
 90
13
 70
0
 10
-15.1937347068
 20
12.118699832
 10
-15.1745750742
 20
12.1092543225
 10
-15.1534867289
 20
12.1019028263
 10
-15.1308141826
 20
12.0967654419
 10
-15.1069278273
 20
12.0939260966
 10
-15.0822178848
 20
12.0934311755
 10
-15.0570880312
 20
12.0952887641
 10
-15.0319488026
 20
12.0994685157
 10
-15.0072108884
 20
12.1059021473
 10
-14.9832784217
 20
12.1144845553
 10
-14.9605423774
 20
12.1250755326
 10
-14.9393741851
 20
12.1375020585
 10
-14.9201196607
 20
12.1515611261
  0
LINE
  5
3C4
100
AcDbEntity
  8
RACCORDO
100
AcDbLine
 62
253
  6
CONTINUOUS
 10
-14.8933830126
 20
12.4566881048
 11
-14.8509287083
 21
12.4338007332
  0
LINE
  5
3C5
100
AcDbEntity
  8
RACCORDO
100
AcDbLine
 62
253
  6
CONTINUOUS
 10
-0.9207647267
 20
4.9446173345
 11
-17.7480572903
 21
14.6604851653
  0
LINE
  5
3C6
100
AcDbEntity
  8
RACCORDO
100
AcDbLine
 62
253
  6
CONTINUOUS
 10
-0.8765851197
 20
5.3152317622
 11
-17.2430820714
 21
14.7650419818
  0
LINE
  5
3C7
100
AcDbEntity
  8
0
100
AcDbLine
 62
7
  6
CONTINUOUS
 10
-0.8088668612
 20
7.1883054207
 11
-14.659909726
 21
15.1857239765
  0
LWPOLYLINE
  5
3C8
100
AcDbEntity
  8
RACCORDO
100
AcDbPolyline
 62
253
  6
CONTINUOUS
 90
7
 70
0
 10
4.9401106936
 20
1.1128367979
 10
4.9462223325
 20
1.0945931779
 10
4.9547022797
 20
1.0780810512
 10
4.9656132086
 20
1.0626895337
 10
4.9787879913
 20
1.0485763803
 10
4.9940553098
 20
1.0358612652
 10
5.0112193746
 20
1.0246559481
  0
LWPOLYLINE
  5
3C9
100
AcDbEntity
  8
0
100
AcDbPolyline
 62
253
  6
CONTINUOUS
 90
22
 70
0
 10
14.9541256048
 20
-34.2072446667
 10
14.9667364544
 20
-34.2476283856
 10
14.9813013871
 20
-34.2851370961
 10
14.9978204029
 20
-34.319770798
 10
15.0162973433
 20
-34.3514243355
 10
15.0367283667
 20
-34.3802028645
 10
15.0591019492
 20
-34.4064218531
 10
15.0835260988
 20
-34.4302718007
 10
15.1098928074
 20
-34.4515622079
 10
15.1378665268
 20
-34.4700370439
 10
15.1672256065
 20
-34.4856395599
 10
15.1981916968
 20
-34.4984265047
 10
15.2310942007
 20
-34.508312094
 10
15.2660249167
 20
-34.515450841
 10
15.3028920463
 20
-34.5196882326
 10
15.3417495963
 20
-34.5204749455
 10
15.3827911223
 20
-34.5177912898
 10
15.4258230688
 20
-34.5116569556
 10
15.4703187762
 20
-34.5015816899
 10
15.5161026914
 20
-34.4874020753
 10
15.5633503676
 20
-34.4692815292
 10
15.6120618047
 20
-34.4472200519
  0
LWPOLYLINE
  5
3CA
100
AcDbEntity
  8
0
100
AcDbPolyline
 62
253
  6
CONTINUOUS
 90
10
 70
0
 10
14.2649684141
 20
-34.3012060408
 10
14.2833949943
 20
-34.3616806719
 10
14.3051930114
 20
-34.4178878869
 10
14.3301358598
 20
-34.4697788609
 10
14.3578423928
 20
-34.5170940894
 10
14.3882017983
 20
-34.560112034
 10
14.4215324239
 20
-34.5994518791
 10
14.457971412
 20
-34.6351854064
 10
14.4972104609
 20
-34.6669265108
 10
14.543096148
 20
-34.6968793811
  0
LINE
  5
3CB
100
AcDbEntity
  8
RACCORDO
100
AcDbLine
 62
253
  6
CONTINUOUS
 10
5.0688390708
 20
0.9913870577
 11
5.3960643452
 21
-0.3155754663
  0
LINE
  5
3CC
100
AcDbEntity
  8
RACCORDO
100
AcDbLine
 62
253
  6
CONTINUOUS
 10
5.4140293353
 20
1.0359698939
 11
5.8126369984
 21
-0.5560992954
  0
LINE
  5
3CD
100
AcDbEntity
  8
RACCORDO
100
AcDbLine
 62
253
  6
CONTINUOUS
 10
4.9400214116
 20
1.1131963817
 11
4.9401106936
 21
1.1128367979
  0
LINE
  5
3CE
100
AcDbEntity
  8
RACCORDO
100
AcDbLine
 62
7
  6
CONTINUOUS
 10
5.2752771142
 20
-0.2458344329
 11
4.9400214116
 21
1.1131963817
  0
LINE
  5
3CF
100
AcDbEntity
  8
RACCORDO
100
AcDbLine
 62
253
  6
CONTINUOUS
 10
5.3328308989
 20
-0.2790652669
 11
5.0112193746
 21
1.0246559481
  0
LINE
  5
3D0
100
AcDbEntity
  8
RACCORDO
100
AcDbLine
 62
7
  6
CONTINUOUS
 10
4.4613034128
 20
1.5950799299
 11
4.5035090207
 21
1.4213839436
  0
LWPOLYLINE
  5
3D1
100
AcDbEntity
  8
RACCORDO
100
AcDbPolyline
 62
7
  6
CONTINUOUS
 90
10
 70
0
 10
4.9401106936
 20
1.1128367979
 10
4.9385130664
 20
1.1196818752
 10
4.9342463986
 20
1.1457159288
 10
4.9327470332
 20
1.1720850991
 10
4.9340423253
 20
1.1985085684
 10
4.9381492455
 20
1.2247732706
 10
4.9450633467
 20
1.2505807006
 10
4.9547344553
 20
1.2755972173
 10
4.9670995833
 20
1.2995526132
 10
4.9687693387
 20
1.3020754643
  0
LWPOLYLINE
  5
3D2
100
AcDbEntity
  8
RACCORDO
100
AcDbPolyline
 62
253
  6
CONTINUOUS
 90
12
 70
0
 10
5.0112193746
 20
1.0246559481
 10
5.0076887277
 20
1.043590249
 10
5.0060760376
 20
1.0639431976
 10
5.0063989741
 20
1.085491803
 10
5.0086540006
 20
1.1079999794
 10
5.0128164113
 20
1.1312211171
 10
5.0188405978
 20
1.1549007835
 10
5.0266605517
 20
1.1787795301
 10
5.0361905948
 20
1.202595744
 10
5.0473263148
 20
1.2260884976
 10
5.0599457058
 20
1.2490004003
 10
5.060145368
 20
1.2493160902
  0
LWPOLYLINE
  5
3D3
100
AcDbEntity
  8
0
100
AcDbPolyline
 62
7
  6
CONTINUOUS
 90
9
 70
0
 10
5.6165153281
 20
19.8223409999
 10
5.6142869529
 20
19.8555993389
 10
5.6079071741
 20
19.8873328854
 10
5.5975425965
 20
19.9178267226
 10
5.5833252265
 20
19.9467673019
 10
5.5653105181
 20
19.9738876979
 10
5.5437003246
 20
19.9986614149
 10
5.5189380649
 20
20.0204535135
 10
5.4915213811
 20
20.0387974297
  0
LINE
  5
3D4
100
AcDbEntity
  8
0
100
AcDbLine
 62
253
  6
CONTINUOUS
 10
7.1056840322
 20
16.8774205202
 11
7.1056840453
 21
16.8773738346
  0
LINE
  5
3D5
100
AcDbEntity
  8
0
100
AcDbLine
 62
7
  6
CONTINUOUS
 10
7.1056840322
 20
16.8774205202
 11
7.1056840322
 21
15.9041751823
  0
LINE
  5
3D6
100
AcDbEntity
  8
0
100
AcDbLine
 62
253
  6
CONTINUOUS
 10
7.1789073369
 20
16.7753518719
 11
7.1789073369
 21
15.7989733531
  0
LINE
  5
3D7
100
AcDbEntity
  8
0
100
AcDbLine
 62
7
  6
CONTINUOUS
 10
8.1995773177
 20
16.186029817
 11
8.1995773177
 21
15.2096512982
  0
LINE
  5
3D8
100
AcDbEntity
  8
0
100
AcDbLine
 62
7
  6
CONTINUOUS
 10
8.523075277
 20
30.1628684597
 11
8.523075277
 21
30.2536612804
  0
LINE
  5
3D9
100
AcDbEntity
  8
0
100
AcDbLine
 62
7
  6
CONTINUOUS
 10
8.5531307083
 20
16.3937297277
 11
8.5531307083
 21
15.4351832919
  0
LINE
  5
3DA
100
AcDbEntity
  8
0
100
AcDbLine
 62
7
  6
CONTINUOUS
 10
8.8006180818
 20
14.8626178939
 11
8.8006180818
 21
13.2475284358
  0
LINE
  5
3DB
100
AcDbEntity
  8
0
100
AcDbLine
 62
253
  6
CONTINUOUS
 10
9.3660334443
 20
31.5997219285
 11
9.3660334443
 21
30.748944517
  0
LINE
  5
3DC
100
AcDbEntity
  8
0
100
AcDbLine
 62
7
  6
CONTINUOUS
 10
9.4520583096
 20
31.7211307924
 11
9.4520583096
 21
30.8703533844
  0
LINE
  5
3DD
100
AcDbEntity
  8
0
100
AcDbLine
 62
253
  6
CONTINUOUS
 10
9.5660405073
 20
22.8423785649
 11
9.5660405073
 21
24.1812021291
  0
LINE
  5
3DE
100
AcDbEntity
  8
0
100
AcDbLine
 62
253
  6
CONTINUOUS
 10
9.6122414419
 20
14.8236660281
 11
9.6122414419
 21
15.782212464
  0
LINE
  5
3DF
100
AcDbEntity
  8
0
100
AcDbLine
 62
253
  6
CONTINUOUS
 10
9.9642454533
 20
14.8333832066
 11
9.9642454533
 21
15.7813256447
  0
LINE
  5
3E0
100
AcDbEntity
  8
0
100
AcDbLine
 62
7
  6
CONTINUOUS
 10
8.9875147168
 20
23.3877770836
 11
8.9875183952
 21
23.389956657
  0
LWPOLYLINE
  5
3E1
100
AcDbEntity
  8
0
100
AcDbPolyline
 62
253
  6
CONTINUOUS
 90
12
 70
0
 10
8.9875183952
 20
23.389956657
 10
8.9903437527
 20
23.448170693
 10
9.0037299488
 20
23.5320329201
 10
9.0270662033
 20
23.612258302
 10
9.0596942472
 20
23.6895563318
 10
9.1017024303
 20
23.7650531863
 10
9.152503214
 20
23.8380019422
 10
9.2119744889
 20
23.9084666765
 10
9.2822959325
 20
23.9784889405
 10
9.3648910879
 20
24.0481820064
 10
9.4593871378
 20
24.116010889
 10
9.5660405073
 20
24.1812021291
  0
LWPOLYLINE
  5
3E2
100
AcDbEntity
  8
0
100
AcDbPolyline
 62
253
  6
CONTINUOUS
 90
13
 70
0
 10
9.6122414419
 20
15.782212464
 10
9.613749393
 20
15.8096872234
 10
9.6182497067
 20
15.8384452933
 10
9.6256687836
 20
15.8679968126
 10
9.6358847548
 20
15.8978420144
 10
9.648724942
 20
15.9274660068
 10
9.6639648293
 20
15.956348238
 10
9.6813816198
 20
15.9840512765
 10
9.7006458956
 20
16.0100378236
 10
9.7212815105
 20
16.0337091812
 10
9.7428610812
 20
16.0546674898
 10
9.7650511111
 20
16.0726757381
 10
9.7874754891
 20
16.0875002036
  0
LWPOLYLINE
  5
3E3
100
AcDbEntity
  8
0
100
AcDbPolyline
 62
7
  6
CONTINUOUS
 90
13
 70
0
 10
8.5531307083
 20
16.3937297277
 10
8.5548321699
 20
16.4219123824
 10
8.559268545
 20
16.4503741593
 10
8.5664398335
 20
16.4791150584
 10
8.5765575291
 20
16.5086252725
 10
8.5894101383
 20
16.5384146088
 10
8.6043631799
 20
16.567012489
 10
8.6215220785
 20
16.5943591116
 10
8.6407814096
 20
16.6205142782
 10
8.6611904184
 20
16.6441868145
 10
8.6824321865
 20
16.6649463291
 10
8.7048236322
 20
16.6832232134
 10
8.7283647555
 20
16.6990174674
  0
LWPOLYLINE
  5
3E4
100
AcDbEntity
  8
0
100
AcDbPolyline
 62
253
  6
CONTINUOUS
 90
7
 70
0
 10
12.9875920982
 20
29.6796046131
 10
12.9852211538
 20
29.6580230795
 10
12.9778167809
 20
29.6359003115
 10
12.9655015301
 20
29.6145196546
 10
12.9484837874
 20
29.5942428899
 10
12.9270515092
 20
29.5754131197
 10
12.9015673503
 20
29.5583489618
  0
LWPOLYLINE
  5
3E5
100
AcDbEntity
  8
0
100
AcDbPolyline
 62
7
  6
CONTINUOUS
 90
7
 70
0
 10
12.9875918884
 20
28.8289804179
 10
12.9851227067
 20
28.8073828291
 10
12.977636916
 20
28.7850167995
 10
12.9655015307
 20
28.7637422448
 10
12.9488397318
 20
28.743927205
 10
12.9275283383
 20
28.7252036402
 10
12.9015673503
 20
28.7075715504
  0
LINE
  5
3E6
100
AcDbEntity
  8
0
100
AcDbLine
 62
7
  6
CONTINUOUS
 10
18.0283615762
 20
11.0656420851
 11
18.5555927272
 21
11.7299891271
  0
LINE
  5
3E7
100
AcDbEntity
  8
0
100
AcDbLine
 62
253
  6
CONTINUOUS
 10
12.1034313853
 20
1.1146124355
 11
13.7270450692
 21
2.8091545867
  0
LWPOLYLINE
  5
3E8
100
AcDbEntity
  8
0
100
AcDbPolyline
 62
253
  6
CONTINUOUS
 90
25
 70
0
 10
8.4770599338
 20
-2.0945037052
 10
8.412702119
 20
-2.1529747988
 10
8.3505768575
 20
-2.2143346754
 10
8.2908575406
 20
-2.2781933329
 10
8.2339902076
 20
-2.3438115742
 10
8.1797826656
 20
-2.411152783
 10
8.1275071561
 20
-2.4810234628
 10
8.0770715578
 20
-2.5536018885
 10
8.0289601609
 20
-2.628250434
 10
7.9833863802
 20
-2.7046587338
 10
7.9404845921
 20
-2.782610804
 10
7.9004375953
 20
-2.8617819741
 10
7.8634888279
 20
-2.9416779355
 10
7.8299644475
 20
-3.0214607743
 10
7.7996951782
 20
-3.101394451
 10
7.7723114258
 20
-3.1826416473
 10
7.7479803965
 20
-3.2652102817
 10
7.7270637043
 20
-3.34847569
 10
7.7097243477
 20
-3.4326084227
 10
7.6962359116
 20
-3.5175400736
 10
7.6869920002
 20
-3.6024853897
 10
7.6823230582
 20
-3.6865019446
 10
7.6824428763
 20
-3.7689705067
 10
7.6875320904
 20
-3.8495603544
 10
7.6977669327
 20
-3.9277641149
  0
LWPOLYLINE
  5
3E9
100
AcDbEntity
  8
0
100
AcDbPolyline
 62
253
  6
CONTINUOUS
 90
25
 70
0
 10
8.91589547
 20
-2.643662841
 10
8.8725767497
 20
-2.682921943
 10
8.8309604836
 20
-2.7236044676
 10
8.791046672
 20
-2.765710415
 10
8.7529252572
 20
-2.8091989718
 10
8.7165062969
 20
-2.8541109514
 10
8.6815199629
 20
-2.9005687937
 10
8.6477523124
 20
-2.9487961472
 10
8.6154172884
 20
-2.9985693635
 10
8.5848868914
 20
-3.0493399373
 10
8.5561734465
 20
-3.1011577359
 10
8.5292646286
 20
-3.1539728921
 10
8.5044954639
 20
-3.2070872983
 10
8.4819808499
 20
-3.2601433591
 10
8.461605889
 20
-3.3134986699
 10
8.4433609142
 20
-3.3675279094
 10
8.427078918
 20
-3.4224807723
 10
8.4129269079
 20
-3.4781075638
 10
8.401396239
 20
-3.5340338785
 10
8.3924604863
 20
-3.5905431273
 10
8.3861460749
 20
-3.6473518991
 10
8.3830236347
 20
-3.7032355558
 10
8.3832833757
 20
-3.7577858843
 10
8.3867350878
 20
-3.8114110976
 10
8.3933787712
 20
-3.8641111956
  0
LINE
  5
3EA
100
AcDbEntity
  8
0
100
AcDbLine
 62
7
  6
CONTINUOUS
 10
13.3078152287
 20
2.1658543465
 11
8.7484395718
 21
-1.8137795591
  0
LINE
  5
3EB
100
AcDbEntity
  8
0
100
AcDbLine
 62
253
  6
CONTINUOUS
 10
13.8146748459
 20
1.5774189589
 11
8.91589547
 21
-2.643662841
  0
LWPOLYLINE
  5
3EC
100
AcDbEntity
  8
0
100
AcDbPolyline
 62
253
  6
CONTINUOUS
 90
16
 70
0
 10
8.3933787712
 20
-3.8641111956
 10
8.3548862586
 20
-3.8906848206
 10
8.3130836673
 20
-3.9147478593
 10
8.268419033
 20
-3.9360424065
 10
8.2213710666
 20
-3.9543402295
 10
8.1724440232
 20
-3.9694452143
 10
8.1221622975
 20
-3.9811954671
 10
8.0710648038
 20
-3.9894650499
 10
8.0196991996
 20
-3.9941653304
 10
7.968616016
 20
-3.9952459313
 10
7.9183627571
 20
-3.9926952708
 10
7.8694780321
 20
-3.9865406868
 10
7.8224857822
 20
-3.9768481433
 10
7.7778896654
 20
-3.9637215239
 10
7.7361676583
 20
-3.9473015185
 10
7.6977669327
 20
-3.9277641149
  0
LINE
  5
3ED
100
AcDbEntity
  8
0
100
AcDbLine
 62
7
  6
CONTINUOUS
 10
-0.1198011812
 20
8.7076891053
 11
-14.6089512076
 21
17.0735427388
  0
LINE
  5
3EE
100
AcDbEntity
  8
0
100
AcDbLine
 62
253
  6
CONTINUOUS
 10
13.3758393097
 20
2.1265780947
 11
13.3078152287
 21
2.1658543465
  0
LINE
  5
3EF
100
AcDbEntity
  8
0
100
AcDbLine
 62
253
  6
CONTINUOUS
 10
-27.4578272397
 20
25.7034253943
 11
-27.5258513206
 21
25.7427016461
  0
LINE
  5
3F0
100
AcDbEntity
  8
0
100
AcDbLine
 62
253
  6
CONTINUOUS
 10
13.5231191706
 20
2.2368457531
 11
13.4469703579
 21
2.2808131231
  0
LINE
  5
3F1
100
AcDbEntity
  8
0
100
AcDbLine
 62
253
  6
CONTINUOUS
 10
-27.3049711842
 20
25.8104734277
 11
-27.3811199968
 21
25.8544407978
  0
LINE
  5
3F2
100
AcDbEntity
  8
0
100
AcDbLine
 62
7
  6
CONTINUOUS
 10
13.7270450692
 20
2.8091545867
 11
-26.4494254741
 21
26.006545149
  0
LWPOLYLINE
  5
3F3
100
AcDbEntity
  8
0
100
AcDbPolyline
 62
7
  6
CONTINUOUS
 90
4
 70
0
 10
-13.828582875
 20
27.9407551351
 10
-13.8084641318
 20
27.9192133076
 10
-13.7858545499
 20
27.9001177245
 10
-13.7611371679
 20
27.8838214572
  0
LWPOLYLINE
  5
3F4
100
AcDbEntity
  8
0
100
AcDbPolyline
 62
253
  6
CONTINUOUS
 90
16
 70
0
 10
8.91589547
 20
-2.643662841
 10
8.9043025634
 20
-2.6068407584
 10
8.8890524058
 20
-2.5681575584
 10
8.8703111046
 20
-2.5280346171
 10
8.8482827969
 20
-2.4869089952
 10
8.8232074299
 20
-2.4452286827
 10
8.7953581482
 20
-2.4034477199
 10
8.7650383113
 20
-2.3620212382
 10
8.7325781955
 20
-2.3214005144
 10
8.6983314027
 20
-2.2820280593
 10
8.6626709903
 20
-2.2443327755
 10
8.6259854194
 20
-2.2087253002
 10
8.5886743329
 20
-2.17559354
 10
8.551144181
 20
-2.1452984225
 10
8.5138037923
 20
-2.1181699677
 10
8.4770599338
 20
-2.0945037052
  0
LWPOLYLINE
  5
3F5
100
AcDbEntity
  8
0
100
AcDbPolyline
 62
253
  6
CONTINUOUS
 90
13
 70
0
 10
8.3933787712
 20
-3.8641111956
 10
8.8139102478
 20
-6.3088634266
 10
9.2492917734
 20
-8.7376512173
 10
9.6995233479
 20
-11.1504745675
 10
10.1600834263
 20
-13.527906469
 10
10.6354935537
 20
-15.8893739302
 10
11.1393183649
 20
-18.2931579762
 10
11.6698564146
 20
-20.7406792421
 10
12.2288091482
 20
-23.2305170929
 10
12.8348455369
 20
-25.8166906487
 10
13.4941885711
 20
-28.517206283
 10
14.2006152604
 20
-31.3140576223
 10
14.9541256048
 20
-34.2072446667
  0
LWPOLYLINE
  5
3F6
100
AcDbEntity
  8
0
100
AcDbPolyline
 62
253
  6
CONTINUOUS
 90
13
 70
0
 10
7.6977669327
 20
-3.9277641149
 10
8.1185573752
 20
-6.3748791603
 10
8.5543980686
 20
-8.8061103854
 10
9.0051965312
 20
-11.2214081929
 10
9.4668892644
 20
-13.6006934107
 10
9.9430995715
 20
-15.9641574618
 10
10.4464080592
 20
-18.3712271588
 10
10.9778522026
 20
-20.8208746634
 10
11.5385512843
 20
-23.3120803519
 10
12.1436033386
 20
-25.9022740833
 10
12.8002433792
 20
-28.6086072414
 10
13.5064870135
 20
-31.4090864288
 10
14.2649684141
 20
-34.3012060408
  0
LWPOLYLINE
  5
3F7
100
AcDbEntity
  8
0
100
AcDbPolyline
 62
253
  6
CONTINUOUS
 90
7
 70
0
 10
7.1056840453
 20
16.8773738346
 10
7.1078370394
 20
16.8585172024
 10
7.1142320946
 20
16.8399972514
 10
7.1247551797
 20
16.8221242064
 10
7.1392193968
 20
16.8052053847
 10
7.1573747302
 20
16.7895258733
 10
7.1789073369
 20
16.7753518719
  0
LWPOLYLINE
  5
3F8
100
AcDbEntity
  8
0
100
AcDbPolyline
 62
253
  6
CONTINUOUS
 90
13
 70
0
 10
9.9642454533
 20
15.7813256447
 10
9.962543438
 20
15.8087313272
 10
9.9578726795
 20
15.8374295673
 10
9.9503130801
 20
15.8669293861
 10
9.9399939739
 20
15.8967260699
 10
9.9270918946
 20
15.9263098624
 10
9.91182754
 20
15.9551746832
 10
9.894462017
 20
15.9828267278
 10
9.8752924319
 20
16.0087928515
 10
9.8546467915
 20
16.0326287349
 10
9.832878335
 20
16.0539265567
 10
9.8103594775
 20
16.0723219548
 10
9.7874754891
 20
16.0875002036
  0
LWPOLYLINE
  5
3F9
100
AcDbEntity
  8
0
100
AcDbPolyline
 62
7
  6
CONTINUOUS
 90
11
 70
0
 10
9.4520581922
 20
31.7209775797
 10
9.4495202172
 20
31.7898728101
 10
9.4401583935
 20
31.8673700488
 10
9.4238419509
 20
31.9415969965
 10
9.4006166111
 20
32.0117052219
 10
9.3711490987
 20
32.0761757853
 10
9.3363066672
 20
32.1342021104
 10
9.2963797528
 20
32.1861829891
 10
9.2515478384
 20
32.232311461
 10
9.2024600397
 20
32.2721633987
 10
9.1587651248
 20
32.3003846404
  0
LINE
  5
3FA
100
AcDbEntity
  8
0
100
AcDbLine
 62
253
  6
CONTINUOUS
 10
11.3098839797
 20
14.861758691
 11
11.3098839666
 21
14.8618053766
  0
LINE
  5
3FB
100
AcDbEntity
  8
0
100
AcDbLine
 62
7
  6
CONTINUOUS
 10
10.144120966
 20
15.8851833378
 11
10.144120966
 21
14.9462347473
  0
LINE
  5
3FC
100
AcDbEntity
  8
0
100
AcDbLine
 62
7
  6
CONTINUOUS
 10
10.8450569198
 20
15.3438207573
 11
10.8450569198
 21
16.2898956613
  0
LINE
  5
3FD
100
AcDbEntity
  8
0
100
AcDbLine
 62
7
  6
CONTINUOUS
 10
11.3098839666
 20
14.8618053766
 11
11.3098839666
 21
13.9063921216
  0
LINE
  5
3FE
100
AcDbEntity
  8
0
100
AcDbLine
 62
253
  6
CONTINUOUS
 10
11.3831072713
 20
14.7597367282
 11
11.3831072713
 21
13.8011902924
  0
LINE
  5
3FF
100
AcDbEntity
  8
0
100
AcDbLine
 62
7
  6
CONTINUOUS
 10
11.9825985971
 20
12.5957129336
 11
11.9825985971
 21
11.3534617264
  0
LINE
  5
400
100
AcDbEntity
  8
0
100
AcDbLine
 62
7
  6
CONTINUOUS
 10
12.058609183
 20
28.121495493
 11
12.058609183
 21
28.2122883138
  0
LINE
  5
401
100
AcDbEntity
  8
0
100
AcDbLine
 62
7
  6
CONTINUOUS
 10
12.0886646143
 20
12.9641410349
 11
12.0886646143
 21
13.9405195537
  0
LINE
  5
402
100
AcDbEntity
  8
0
100
AcDbLine
 62
253
  6
CONTINUOUS
 10
12.9015673503
 20
29.5583489618
 11
12.9015673503
 21
28.7075715504
  0
LINE
  5
403
100
AcDbEntity
  8
0
100
AcDbLine
 62
7
  6
CONTINUOUS
 10
12.9875922155
 20
29.6797578258
 11
12.9875922155
 21
28.8289804178
  0
LINE
  5
404
100
AcDbEntity
  8
0
100
AcDbLine
 62
253
  6
CONTINUOUS
 10
13.1015744132
 20
22.1398291625
 11
13.1015744132
 21
20.8010055982
  0
LINE
  5
405
100
AcDbEntity
  8
0
100
AcDbLine
 62
253
  6
CONTINUOUS
 10
13.1093345951
 20
12.37481898
 11
13.1093345951
 21
13.3511974988
  0
LINE
  5
406
100
AcDbEntity
  8
0
100
AcDbLine
 62
7
  6
CONTINUOUS
 10
12.5230486228
 20
21.3464115551
 11
12.5230533002
 21
21.3488694462
  0
LINE
  5
407
100
AcDbEntity
  8
0
100
AcDbLine
 62
7
  6
CONTINUOUS
 10
13.284067368
 20
13.4761415881
 11
13.2839391752
 21
13.4519981673
  0
LWPOLYLINE
  5
408
100
AcDbEntity
  8
0
100
AcDbPolyline
 62
7
  6
CONTINUOUS
 90
3
 70
0
 10
13.2845686423
 20
13.6564852385
 10
13.2842558413
 20
13.6365173998
 10
13.284177871
 20
13.6154786403
  0
LWPOLYLINE
  5
409
100
AcDbEntity
  8
0
100
AcDbPolyline
 62
253
  6
CONTINUOUS
 90
13
 70
0
 10
12.5230533002
 20
21.3488694462
 10
12.5235231522
 20
21.371161468
 10
12.5327554878
 20
21.4581334066
 10
12.55346401
 20
21.543526442
 10
12.5852889235
 20
21.6270483637
 10
12.6276977327
 20
21.7080669826
 10
12.6792045055
 20
21.7849588071
 10
12.7387762984
 20
21.8575103981
 10
12.8053493397
 20
21.92551375
 10
12.8764241335
 20
21.9876950233
 10
12.9500811706
 20
22.0438044588
 10
13.025511227
 20
22.0944359454
 10
13.1015744132
 20
22.1398291625
  0
LWPOLYLINE
  5
40A
100
AcDbEntity
  8
0
100
AcDbPolyline
 62
253
  6
CONTINUOUS
 90
13
 70
0
 10
11.3831072713
 20
14.7597367282
 10
11.3846152224
 20
14.7872114879
 10
11.3891155362
 20
14.8159695579
 10
11.3965346132
 20
14.8455210776
 10
11.4067505846
 20
14.8753662797
 10
11.4195907721
 20
14.9049902725
 10
11.4348306597
 20
14.933872504
 10
11.4522474503
 20
14.9615755424
 10
11.4715117262
 20
14.9875620894
 10
11.492147341
 20
15.0112334467
 10
11.5137269115
 20
15.0321917549
 10
11.5359169411
 20
15.0502000027
 10
11.5583413185
 20
15.0650244679
  0
LWPOLYLINE
  5
40B
100
AcDbEntity
  8
0
100
AcDbPolyline
 62
7
  6
CONTINUOUS
 90
13
 70
0
 10
12.0886646143
 20
13.9405195537
 10
12.0903660758
 20
13.9687022084
 10
12.0948024509
 20
13.9971639852
 10
12.1019737394
 20
14.0259048843
 10
12.1120914351
 20
14.0554150984
 10
12.1249440442
 20
14.0852044347
 10
12.1398970858
 20
14.1138023149
 10
12.1570559845
 20
14.1411489376
 10
12.1763153156
 20
14.1673041041
 10
12.1967243243
 20
14.1909766404
 10
12.2179660924
 20
14.211736155
 10
12.2403575381
 20
14.2300130393
 10
12.2638986615
 20
14.2458072934
  0
LWPOLYLINE
  5
40C
100
AcDbEntity
  8
0
100
AcDbPolyline
 62
253
  6
CONTINUOUS
 90
11
 70
0
 10
16.4219308463
 20
10.7433946415
 10
16.4088039556
 20
10.7146165774
 10
16.3929099656
 20
10.6880941346
 10
16.3745217768
 20
10.6642790916
 10
16.3539564412
 20
10.643578204
 10
16.3315645829
 20
10.6263409511
 10
16.3077229654
 20
10.6128566371
 10
16.2828163351
 20
10.6033498145
 10
16.2572903483
 20
10.5979972491
 10
16.2316413382
 20
10.5968890226
 10
16.2235081235
 20
10.5974284955
  0
LINE
  5
40D
100
AcDbEntity
  8
0
100
AcDbLine
 62
253
  6
CONTINUOUS
 10
16.2235081235
 20
10.5974284955
 11
16.2234347995
 21
10.5974353321
  0
LINE
  5
40E
100
AcDbEntity
  8
0
100
AcDbLine
 62
7
  6
CONTINUOUS
 10
16.2234347995
 20
10.5974353321
 11
16.8530210234
 21
10.5385811633
  0
LINE
  5
40F
100
AcDbEntity
  8
0
100
AcDbLine
 62
253
  6
CONTINUOUS
 10
16.4219308463
 20
10.7433946415
 11
17.1352084549
 21
10.6767169423
  0
LINE
  5
410
100
AcDbEntity
  8
0
100
AcDbLine
 62
7
  6
CONTINUOUS
 10
-24.3276037415
 20
27.8682060509
 11
16.6851278166
 21
4.1879688595
  0
LINE
  5
411
100
AcDbEntity
  8
RACCORDO
100
AcDbLine
 62
7
  6
CONTINUOUS
 10
14.8994209191
 20
6.6482311757
 11
15.1292237734
 21
6.5155458877
  0
LWPOLYLINE
  5
412
100
AcDbEntity
  8
0
100
AcDbPolyline
 62
253
  6
CONTINUOUS
 90
16
 70
0
 10
13.8889519106
 20
1.6321849147
 10
13.8850852498
 20
1.6748139348
 10
13.8774599183
 20
1.7192490691
 10
13.866159362
 20
1.7650040439
 10
13.8513072466
 20
1.8115781415
 10
13.8330661044
 20
1.8584616799
 10
13.8116355556
 20
1.9051415896
 10
13.7872501236
 20
1.9511070303
 10
13.7601766689
 20
1.9958549794
 10
13.7307114691
 20
2.0388957368
 10
13.6991769752
 20
2.0797582861
 10
13.6659182842
 20
2.1179954475
 10
13.6312993629
 20
2.1531887709
 10
13.5956990633
 20
2.1849531171
 10
13.5595069765
 20
2.2129408728
 10
13.5231191705
 20
2.236845753
  0
LWPOLYLINE
  5
413
100
AcDbEntity
  8
0
100
AcDbPolyline
 62
7
  6
CONTINUOUS
 90
3
 70
0
 10
15.0367238688
 20
11.3688930907
 10
15.03456537
 20
11.3980760162
 10
15.0345362333
 20
11.4019356412
  0
LWPOLYLINE
  5
414
100
AcDbEntity
  8
0
100
AcDbPolyline
 62
7
  6
CONTINUOUS
 90
11
 70
0
 10
12.9875920982
 20
29.6796046131
 10
12.9850541231
 20
29.7484998435
 10
12.9756922995
 20
29.8259970821
 10
12.9593758569
 20
29.9002240299
 10
12.936150517
 20
29.9703322553
 10
12.9066830046
 20
30.0348028186
 10
12.8718405731
 20
30.0928291438
 10
12.8319136587
 20
30.1448100225
 10
12.7870817444
 20
30.1909384944
 10
12.7379939456
 20
30.2307904321
 10
12.6942990307
 20
30.2590116737
  0
LINE
  5
415
100
AcDbEntity
  8
0
100
AcDbLine
 62
253
  6
CONTINUOUS
 10
13.4613386064
 20
12.3845361585
 11
13.4613386064
 21
13.3503106796
  0
LINE
  5
416
100
AcDbEntity
  8
0
100
AcDbLine
 62
7
  6
CONTINUOUS
 10
13.9978529235
 20
13.6600868041
 11
13.9978529235
 21
12.7211382136
  0
LINE
  5
417
100
AcDbEntity
  8
RACCORDO
100
AcDbLine
 62
7
  6
CONTINUOUS
 10
14.4221169922
 20
5.4946029474
 11
14.4221169922
 21
6.3628500958
  0
LINE
  5
418
100
AcDbEntity
  8
0
100
AcDbLine
 62
7
  6
CONTINUOUS
 10
14.6987888773
 20
14.0647991277
 11
14.6987888773
 21
13.1187242237
  0
LINE
  5
419
100
AcDbEntity
  8
0
100
AcDbLine
 62
7
  6
CONTINUOUS
 10
15.0345362226
 20
11.4018934537
 11
15.0345362226
 21
11.6354182089
  0
LINE
  5
41A
100
AcDbEntity
  8
0
100
AcDbLine
 62
253
  6
CONTINUOUS
 10
15.1077595273
 20
11.2998248054
 11
15.1077595273
 21
11.5333495606
  0
LINE
  5
41B
100
AcDbEntity
  8
0
100
AcDbLine
 62
7
  6
CONTINUOUS
 10
15.1292237734
 20
9.4898831222
 11
15.1292237734
 21
9.3064401607
  0
LINE
  5
41C
100
AcDbEntity
  8
RACCORDO
100
AcDbLine
 62
7
  6
CONTINUOUS
 10
15.482777164
 20
4.8821910574
 11
15.482777164
 21
5.903111267
  0
LINE
  5
41D
100
AcDbEntity
  8
0
100
AcDbLine
 62
7
  6
CONTINUOUS
 10
15.5941430889
 20
26.0801225264
 11
15.5941430889
 21
26.1709153472
  0
LINE
  5
41E
100
AcDbEntity
  8
0
100
AcDbLine
 62
7
  6
CONTINUOUS
 10
15.7354721764
 20
10.4917743742
 11
15.7354721764
 21
10.8528489011
  0
LINE
  5
41F
100
AcDbEntity
  8
0
100
AcDbLine
 62
253
  6
CONTINUOUS
 10
15.8086954811
 20
10.386572545
 11
15.8086954811
 21
10.8105706827
  0
LINE
  5
420
100
AcDbEntity
  8
0
100
AcDbLine
 62
253
  6
CONTINUOUS
 10
16.069926835
 20
10.9778062159
 11
16.069926835
 21
10.7442814607
  0
LINE
  5
421
100
AcDbEntity
  8
0
100
AcDbLine
 62
7
  6
CONTINUOUS
 10
16.2889022934
 20
8.2465764351
 11
16.2889022934
 21
7.4790051809
  0
LINE
  5
422
100
AcDbEntity
  8
0
100
AcDbLine
 62
253
  6
CONTINUOUS
 10
16.4219308463
 20
10.9769193967
 11
16.4219308463
 21
10.7433946415
  0
LINE
  5
423
100
AcDbEntity
  8
0
100
AcDbLine
 62
253
  6
CONTINUOUS
 10
16.4371012562
 20
27.5169759952
 11
16.4371012562
 21
26.6661985837
  0
LWPOLYLINE
  5
424
100
AcDbEntity
  8
0
100
AcDbPolyline
 62
7
  6
CONTINUOUS
 90
4
 70
0
 10
13.284177871
 20
13.6154786403
 10
13.2841666331
 20
13.5709308155
 10
13.284038648
 20
13.5477855703
 10
13.284067368
 20
13.4761415881
  0
LWPOLYLINE
  5
425
100
AcDbEntity
  8
0
100
AcDbPolyline
 62
253
  6
CONTINUOUS
 90
13
 70
0
 10
15.1077595273
 20
11.5333495606
 10
15.1092551263
 20
11.5607084673
 10
15.1137166145
 20
11.5893315108
 10
15.1210684973
 20
11.6187343663
 10
15.1311863563
 20
11.6484194733
 10
15.1438989962
 20
11.6778845802
 10
15.1589913761
 20
11.7066312368
 10
15.1762081893
 20
11.7341730776
 10
15.1952581002
 20
11.7600439819
 10
15.2158187233
 20
11.7838061
 10
15.2375421324
 20
11.8050573227
 10
15.2600607631
 20
11.8234380678
 10
15.2829935745
 20
11.8386373003
  0
LWPOLYLINE
  5
426
100
AcDbEntity
  8
0
100
AcDbPolyline
 62
7
  6
CONTINUOUS
 90
9
 70
0
 10
15.0345362229
 20
11.6354117273
 10
15.0364439258
 20
11.6662437221
 10
15.0424491715
 20
11.6978190075
 10
15.0524962561
 20
11.728463649
 10
15.0664849477
 20
11.7577032917
 10
15.084257949
 20
11.7850464587
 10
15.1055536404
 20
11.8099611413
 10
15.130017677
 20
11.8319481533
 10
15.1562661802
 20
11.8500033811
  0
LWPOLYLINE
  5
427
100
AcDbEntity
  8
0
100
AcDbPolyline
 62
253
  6
CONTINUOUS
 90
7
 70
0
 10
16.5231260041
 20
27.6382316465
 10
16.5207550597
 20
27.6166501129
 10
16.5133506868
 20
27.5945273449
 10
16.5010354361
 20
27.573146688
 10
16.4840176933
 20
27.5528699232
 10
16.4625854151
 20
27.534040153
 10
16.4371012562
 20
27.5169759952
  0
LWPOLYLINE
  5
428
100
AcDbEntity
  8
0
100
AcDbPolyline
 62
7
  6
CONTINUOUS
 90
7
 70
0
 10
16.5231257943
 20
26.7876074512
 10
16.5206566126
 20
26.7660098625
 10
16.5131708219
 20
26.7436438328
 10
16.5010354366
 20
26.7223692782
 10
16.4843736377
 20
26.7025542384
 10
16.4630622443
 20
26.6838306736
 10
16.4371012562
 20
26.6661985837
  0
LWPOLYLINE
  5
429
100
AcDbEntity
  8
RACCORDO
100
AcDbPolyline
 62
7
  6
CONTINUOUS
 90
7
 70
0
 10
-14.9405989039
 20
12.4275865059
 10
-14.9413813129
 20
12.4274787652
 10
-14.9387854892
 20
12.427494097
 10
-14.9314989308
 20
12.4268462657
 10
-14.9204063393
 20
12.4248619367
 10
-14.9057373478
 20
12.4210458055
 10
-14.8878914196
 20
12.4150595916
  0
LINE
  5
42A
100
AcDbEntity
  8
RACCORDO
100
AcDbLine
 62
7
  6
CONTINUOUS
 10
16.1898839452
 20
7.1065804652
 11
15.9233782256
 21
7.2604575275
  0
LINE
  5
42B
100
AcDbEntity
  8
0
100
AcDbLine
 62
7
  6
CONTINUOUS
 10
14.2099849578
 20
8.8121032734
 11
-14.7813930708
 21
25.5513615998
  0
LINE
  5
42C
100
AcDbEntity
  8
0
100
AcDbLine
 62
7
  6
CONTINUOUS
 10
15.9354027507
 20
8.8588556028
 11
15.1452691466
 21
9.3150688431
  0
LINE
  5
42D
100
AcDbEntity
  8
0
100
AcDbLine
 62
7
  6
CONTINUOUS
 10
-13.8781996285
 20
26.0728559643
 11
-14.6683332326
 21
26.5290692046
  0
LINE
  5
42E
100
AcDbEntity
  8
0
100
AcDbLine
 62
7
  6
CONTINUOUS
 10
16.2063485552
 20
8.8679647727
 11
15.1292237734
 21
9.4898831222
  0
LINE
  5
42F
100
AcDbEntity
  8
0
100
AcDbLine
 62
7
  6
CONTINUOUS
 10
13.9532413433
 20
10.1688806388
 11
10.9311946664
 21
11.9137725149
  0
LINE
  5
430
100
AcDbEntity
  8
0
100
AcDbLine
 62
7
  6
CONTINUOUS
 10
10.0734102879
 20
12.4090464645
 11
7.3864045194
 21
13.9604899191
  0
LINE
  5
431
100
AcDbEntity
  8
0
100
AcDbLine
 62
7
  6
CONTINUOUS
 10
-5.8364922888
 20
21.5952248143
 11
-8.5234980573
 21
23.146668269
  0
LINE
  5
432
100
AcDbEntity
  8
0
100
AcDbLine
 62
7
  6
CONTINUOUS
 10
-9.3812824358
 20
23.6419422186
 11
-12.4033291128
 21
25.3868340947
  0
LINE
  5
433
100
AcDbEntity
  8
0
100
AcDbLine
 62
7
  6
CONTINUOUS
 10
-13.5793115428
 20
26.0658316113
 11
-14.6564363246
 21
26.6877499608
  0
LINE
  5
434
100
AcDbEntity
  8
0
100
AcDbLine
 62
7
  6
CONTINUOUS
 10
-9.3424729582
 20
23.6662907765
 11
-11.9762881717
 21
25.1870226714
  0
LINE
  5
435
100
AcDbEntity
  8
0
100
AcDbLine
 62
7
  6
CONTINUOUS
 10
11.3582356074
 20
11.7139610915
 11
13.992050821
 21
10.1932291967
  0
LINE
  5
436
100
AcDbEntity
  8
0
100
AcDbLine
 62
7
  6
CONTINUOUS
 10
-7.1092844949
 20
22.4337067857
 11
-5.7512551435
 21
21.6495976583
  0
LINE
  5
437
100
AcDbEntity
  8
0
100
AcDbLine
 62
7
  6
CONTINUOUS
 10
8.8006180818
 20
13.2475284358
 11
10.1586474332
 21
12.4634193084
  0
LWPOLYLINE
  5
438
100
AcDbEntity
  8
0
100
AcDbPolyline
 62
253
  6
CONTINUOUS
 90
7
 70
0
 10
-13.8129078232
 20
28.2317804277
 10
-13.8339169512
 20
28.24556208
 10
-13.8518395506
 20
28.2608834807
 10
-13.8663106936
 20
28.277520889
 10
-13.8770323598
 20
28.2952607702
 10
-13.8837036263
 20
28.3137824064
 10
-13.8861311276
 20
28.3338414233
  0
LWPOLYLINE
  5
439
100
AcDbEntity
  8
0
100
AcDbPolyline
 62
253
  6
CONTINUOUS
 90
7
 70
0
 10
-13.8129078232
 20
27.9982556725
 10
-13.8342134398
 20
28.012259202
 10
-13.8522530252
 20
28.0277677672
 10
-13.8667009064
 20
28.0445307115
 10
-13.8772952655
 20
28.0622874177
 10
-13.8838170851
 20
28.0807299762
 10
-13.8861311279
 20
28.1003243208
  0
LWPOLYLINE
  5
43A
100
AcDbEntity
  8
0
100
AcDbPolyline
 62
253
  6
CONTINUOUS
 90
16
 70
0
 10
13.8146748459
 20
1.5774189589
 10
13.8030818217
 20
1.614241376
 10
13.7878315077
 20
1.6529248828
 10
13.7690900308
 20
1.6930480864
 10
13.7470615483
 20
1.7341739108
 10
13.7219860242
 20
1.7758543585
 10
13.6941366147
 20
1.8176353897
 10
13.6638166932
 20
1.8590618694
 10
13.6313565449
 20
1.8996825245
 10
13.5971097694
 20
1.9390548604
 10
13.5614494287
 20
1.9767499805
 10
13.5247639833
 20
2.0123572589
 10
13.4874530602
 20
2.0454888133
 10
13.4499231003
 20
2.0757837301
 10
13.4125829303
 20
2.1029119964
 10
13.3758393097
 20
2.1265780947
  0
LWPOLYLINE
  5
43B
100
AcDbEntity
  8
0
100
AcDbPolyline
 62
253
  6
CONTINUOUS
 90
7
 70
0
 10
15.0345362229
 20
11.6354117273
 10
15.0369637239
 20
11.6153515407
 10
15.0436349911
 20
11.5968299023
 10
15.0543566585
 20
11.5790900197
 10
15.068827802
 20
11.5624526115
 10
15.086750401
 20
11.5471312117
 10
15.1077595273
 20
11.5333495606
  0
LWPOLYLINE
  5
43C
100
AcDbEntity
  8
0
100
AcDbPolyline
 62
253
  6
CONTINUOUS
 90
7
 70
0
 10
15.0345362226
 20
11.4018934537
 10
15.0368502645
 20
11.3822991132
 10
15.0433720814
 20
11.3638565584
 10
15.0539664376
 20
11.3460998534
 10
15.0684143179
 20
11.3293369075
 10
15.086453905
 20
11.3138283391
 10
15.1077595273
 20
11.2998248054
  0
LWPOLYLINE
  5
43D
100
AcDbEntity
  8
0
100
AcDbPolyline
 62
253
  6
CONTINUOUS
 90
13
 70
0
 10
16.4219308463
 20
10.9769193967
 10
16.4202153461
 20
11.0044435761
 10
16.4155042637
 20
11.0332788712
 10
16.4078759984
 20
11.062928514
 10
16.3974578454
 20
11.0928850593
 10
16.384428152
 20
11.1226263985
 10
16.369016888
 20
11.1516253903
 10
16.3514523729
 20
11.1794373904
 10
16.3320702464
 20
11.2055177274
 10
16.3113520167
 20
11.229261543
 10
16.2897292238
 20
11.2502657221
 10
16.2675391193
 20
11.2682888289
 10
16.2451608822
 20
11.2830939556
  0
LWPOLYLINE
  5
43E
100
AcDbEntity
  8
0
100
AcDbPolyline
 62
7
  6
CONTINUOUS
 90
13
 70
0
 10
18.0283615762
 20
11.9044508159
 10
18.0266595395
 20
11.9318566879
 10
18.0219887245
 20
11.9605551093
 10
18.0144290426
 20
11.9900550896
 10
18.0041098294
 20
12.0198519249
 10
17.9912076325
 20
12.0494358325
 10
17.9759431907
 20
12.0783006724
 10
17.9585776574
 20
12.1059526072
 10
17.9394081331
 20
12.1319185502
 10
17.9187625818
 20
12.1557542602
 10
17.8969942204
 20
12.1770519409
 10
17.8744754756
 20
12.1954472183
 10
17.8515916121
 20
12.2106253748
  0
LWPOLYLINE
  5
43F
100
AcDbEntity
  8
0
100
AcDbPolyline
 62
7
  6
CONTINUOUS
 90
16
 70
0
 10
18.6567003443
 20
9.6370114317
 10
18.6541566553
 20
9.6800700132
 10
18.6477079007
 20
9.7249700629
 10
18.6373968006
 20
9.7712489548
 10
18.6232974264
 20
9.8185012971
 10
18.605540758
 20
9.8661404743
 10
18.5843674509
 20
9.9134041675
 10
18.5600751126
 20
9.9596980787
 10
18.5329222472
 20
10.0046039498
 10
18.5031834583
 20
10.0476393597
 10
18.4711881044
 20
10.0883465799
 10
18.4373087949
 20
10.1262808646
 10
18.4019156377
 20
10.1610178451
 10
18.3654007003
 20
10.192182409
 10
18.3281726287
 20
10.2194507928
 10
18.2906411144
 20
10.2425361135
  0
LWPOLYLINE
  5
440
100
AcDbEntity
  8
0
100
AcDbPolyline
 62
253
  6
CONTINUOUS
 90
8
 70
0
 10
16.069926835
 20
10.7442814607
 10
16.0711221349
 20
10.7212750167
 10
16.0746918708
 20
10.6999599958
 10
16.0805877687
 20
10.6806246474
 10
16.0887300974
 20
10.6635304493
 10
16.0990087464
 20
10.6489085719
 10
16.1112847151
 20
10.6369567518
 10
16.1216974902
 20
10.6298472454
  0
LWPOLYLINE
  5
441
100
AcDbEntity
  8
0
100
AcDbPolyline
 62
253
  6
CONTINUOUS
 90
13
 70
0
 10
18.5555927272
 20
12.2088679927
 10
18.5542549578
 20
12.2366102675
 10
18.549861955
 20
12.2656292173
 10
18.5424865644
 20
12.2954248676
 10
18.5322516657
 20
12.3254872257
 10
18.519332326
 20
12.3552922876
 10
18.5039565353
 20
12.3843117636
 10
18.4863518593
 20
12.41210057
 10
18.4668545004
 20
12.4381143647
 10
18.4459494889
 20
12.4617503298
 10
18.42407366
 20
12.4826084094
 10
18.4015695388
 20
12.5004502097
 10
18.378822763
 20
12.5150425516
  0
LWPOLYLINE
  5
442
100
AcDbEntity
  8
0
100
AcDbPolyline
 62
7
  6
CONTINUOUS
 90
11
 70
0
 10
16.5231260041
 20
27.6382316465
 10
16.5205880291
 20
27.7071268768
 10
16.5112262054
 20
27.7846241155
 10
16.4949097628
 20
27.8588510633
 10
16.4716844229
 20
27.9289592886
 10
16.4422169106
 20
27.993429852
 10
16.407374479
 20
28.0514561771
 10
16.3674475646
 20
28.1034370558
 10
16.3226156503
 20
28.1495655278
 10
16.2735278516
 20
28.1894174654
 10
16.2298329366
 20
28.2176387071
  0
LINE
  5
443
100
AcDbEntity
  8
0
100
AcDbLine
 62
7
  6
CONTINUOUS
 10
16.5231261214
 20
27.6383848592
 11
16.5231261214
 21
26.7876074512
  0
LINE
  5
444
100
AcDbEntity
  8
RACCORDO
100
AcDbLine
 62
7
  6
CONTINUOUS
 10
16.5434373357
 20
4.2697791674
 11
16.5434373357
 21
6.4941458445
  0
LINE
  5
445
100
AcDbEntity
  8
0
100
AcDbLine
 62
7
  6
CONTINUOUS
 10
16.5602787826
 20
4.260055127
 11
16.5602787826
 21
8.254441128
  0
LINE
  5
446
100
AcDbEntity
  8
0
100
AcDbLine
 62
253
  6
CONTINUOUS
 10
16.7832044436
 20
10.5385811633
 11
16.7832044436
 21
9.8239032835
  0
LINE
  5
447
100
AcDbEntity
  8
0
100
AcDbLine
 62
7
  6
CONTINUOUS
 10
17.0384120826
 20
-33.7367529849
 11
17.0384120826
 21
3.5755649628
  0
LINE
  5
448
100
AcDbEntity
  8
0
100
AcDbLine
 62
253
  6
CONTINUOUS
 10
17.1352084549
 20
10.6767169423
 11
17.1352084549
 21
9.833620462
  0
LINE
  5
449
100
AcDbEntity
  8
0
100
AcDbLine
 62
253
  6
CONTINUOUS
 10
17.1352084549
 20
-27.1139406455
 11
17.1352084549
 21
-27.4801842319
  0
LINE
  5
44A
100
AcDbEntity
  8
0
100
AcDbLine
 62
7
  6
CONTINUOUS
 10
18.0283615762
 20
10.3939730317
 11
18.0283615762
 21
11.9044508159
  0
LINE
  5
44B
100
AcDbEntity
  8
0
100
AcDbLine
 62
7
  6
CONTINUOUS
 10
18.0283615762
 20
-26.6349302523
 11
18.0283615762
 21
-27.6943731529
  0
LINE
  5
44C
100
AcDbEntity
  8
0
100
AcDbLine
 62
253
  6
CONTINUOUS
 10
18.5555927272
 20
-27.3792370446
 11
18.5555927272
 21
-26.900358179
  0
LINE
  5
44D
100
AcDbEntity
  8
0
100
AcDbLine
 62
253
  6
CONTINUOUS
 10
18.5555927272
 20
11.7299891271
 11
18.5555927272
 21
12.2088679927
  0
LINE
  5
44E
100
AcDbEntity
  8
0
100
AcDbLine
 62
7
  6
CONTINUOUS
 10
18.6272801149
 20
-27.2780629884
 11
18.6272801149
 21
-26.8814863726
  0
LINE
  5
44F
100
AcDbEntity
  8
0
100
AcDbLine
 62
7
  6
CONTINUOUS
 10
18.6272801149
 20
11.9134654331
 11
18.6272801149
 21
12.3100420489
  0
LINE
  5
450
100
AcDbEntity
  8
0
100
AcDbLine
 62
7
  6
CONTINUOUS
 10
19.1296769948
 20
24.0387495597
 11
19.1296769948
 21
24.1295423805
  0
LINE
  5
451
100
AcDbEntity
  8
0
100
AcDbLine
 62
7
  6
CONTINUOUS
 10
19.3393355283
 20
-25.7018616076
 11
19.3393355283
 21
-22.8960310891
  0
LINE
  5
452
100
AcDbEntity
  8
0
100
AcDbLine
 62
7
  6
CONTINUOUS
 10
19.3393355283
 20
7.2253272663
 11
19.3393355283
 21
10.0311577849
  0
LWPOLYLINE
  5
453
100
AcDbEntity
  8
0
100
AcDbPolyline
 62
7
  6
CONTINUOUS
 90
7
 70
0
 10
18.0283615762
 20
-27.6943731529
 10
18.0270358088
 20
-27.7200308087
 10
18.0226820405
 20
-27.7435185488
 10
18.0153747585
 20
-27.7644345304
 10
18.0052389801
 20
-27.78242091
 10
17.9924481146
 20
-27.7971699653
 10
17.9783128214
 20
-27.8077879661
  0
LWPOLYLINE
  5
454
100
AcDbEntity
  8
0
100
AcDbPolyline
 62
253
  6
CONTINUOUS
 90
9
 70
0
 10
15.6120618047
 20
-34.4472200519
 10
15.6081951387
 20
-34.4897690722
 10
15.6005697966
 20
-34.529579837
 10
15.589269226
 20
-34.566216678
 10
15.5744170946
 20
-34.5992786604
 10
15.5561759365
 20
-34.628403971
 10
15.5347453734
 20
-34.6532738775
 10
15.5103599303
 20
-34.6736162166
 10
15.4876593792
 20
-34.687104128
  0
LWPOLYLINE
  5
455
100
AcDbEntity
  8
0
100
AcDbPolyline
 62
253
  6
CONTINUOUS
 90
7
 70
0
 10
20.05865991
 20
25.5968586798
 10
20.0562889656
 20
25.5752771462
 10
20.0488845927
 20
25.5531543783
 10
20.036569342
 20
25.5317737213
 10
20.0195515993
 20
25.5114969566
 10
19.9981193211
 20
25.4926671864
 10
19.9726351621
 20
25.4756030286
  0
LWPOLYLINE
  5
456
100
AcDbEntity
  8
0
100
AcDbPolyline
 62
7
  6
CONTINUOUS
 90
7
 70
0
 10
20.0586597003
 20
24.7462344846
 10
20.0561905185
 20
24.7246368958
 10
20.0487047278
 20
24.7022708662
 10
20.0365693425
 20
24.6809963115
 10
20.0199075437
 20
24.6611812718
 10
19.9985961502
 20
24.6424577069
 10
19.9726351621
 20
24.6248256171
  0
LINE
  5
457
100
AcDbEntity
  8
0
100
AcDbLine
 62
7
  6
CONTINUOUS
 10
-15.0068657446
 20
15.2280580891
 11
-18.0565556567
 21
14.5966095415
  0
LWPOLYLINE
  5
458
100
AcDbEntity
  8
0
100
AcDbPolyline
 62
253
  6
CONTINUOUS
 90
7
 70
0
 10
18.502286155
 20
12.5265449125
 10
18.4856081483
 20
12.5338914151
 10
18.4665582374
 20
12.5377639598
 10
18.4459976143
 20
12.5377831858
 10
18.4242742051
 20
12.5339487601
 10
18.4017555744
 20
12.5263255548
 10
18.378822763
 20
12.5150425516
  0
LWPOLYLINE
  5
459
100
AcDbEntity
  8
0
100
AcDbPolyline
 62
253
  6
CONTINUOUS
 90
7
 70
0
 10
7.3541413841
 20
17.0806396116
 10
7.3308812513
 20
17.0921044203
 10
7.3080454598
 20
17.0998962837
 10
7.2860246986
 20
17.1038818935
 10
7.2651957125
 20
17.1039930617
 10
7.2459148567
 20
17.1002278862
 10
7.2274201748
 20
17.0920093897
  0
LWPOLYLINE
  5
45A
100
AcDbEntity
  8
0
100
AcDbPolyline
 62
253
  6
CONTINUOUS
 90
7
 70
0
 10
11.5583413185
 20
15.0650244679
 10
11.5350813159
 20
15.0764892222
 10
11.5122456551
 20
15.0842810715
 10
11.4902250175
 20
15.0882667131
 10
11.4693961687
 20
15.0883779656
 10
11.4501154225
 20
15.0846129377
 10
11.4316201092
 20
15.076394246
  0
LWPOLYLINE
  5
45B
100
AcDbEntity
  8
0
100
AcDbPolyline
 62
7
  6
CONTINUOUS
 90
7
 70
0
 10
11.7351044926
 20
15.1706791863
 10
11.7118444997
 20
15.1821440774
 10
11.6890088307
 20
15.1899360136
 10
11.6669881745
 20
15.1939216865
 10
11.646159286
 20
15.1940329136
 10
11.6268785105
 20
15.1902677867
 10
11.6105650448
 20
15.1833086993
  0
LWPOLYLINE
  5
45C
100
AcDbEntity
  8
0
100
AcDbPolyline
 62
253
  6
CONTINUOUS
 90
7
 70
0
 10
2.9731647545
 20
19.7698525974
 10
2.9504179807
 20
19.7811020862
 10
2.9279138603
 20
19.7888848641
 10
2.9060380312
 20
19.792996244
 10
2.8851330179
 20
19.7932851677
 10
2.8656356567
 20
19.7896533614
 10
2.8464435451
 20
19.7812223754
  0
LWPOLYLINE
  5
45D
100
AcDbEntity
  8
0
100
AcDbPolyline
 62
253
  6
CONTINUOUS
 90
7
 70
0
 10
0.0740269516
 20
21.44377843
 10
0.0512801779
 20
21.4550279188
 10
0.0287760575
 20
21.4628106968
 10
0.0069002284
 20
21.4669220766
 10
-0.0140047849
 20
21.4672110003
 10
-0.0335021462
 20
21.463579194
 10
-0.0526942577
 20
21.4551482081
  0
LWPOLYLINE
  5
45E
100
AcDbEntity
  8
0
100
AcDbPolyline
 62
253
  6
CONTINUOUS
 90
7
 70
0
 10
-13.637673776
 20
28.5370681674
 10
-13.6604205514
 20
28.5483176568
 10
-13.6829246725
 20
28.5561004347
 10
-13.7048005014
 20
28.5602118142
 10
-13.7257055133
 20
28.5605007376
 10
-13.7452028726
 20
28.5568689317
 10
-13.7643949854
 20
28.5484379454
  0
LWPOLYLINE
  5
45F
100
AcDbEntity
  8
0
100
AcDbPolyline
 62
7
  6
CONTINUOUS
 90
7
 70
0
 10
17.5216063651
 20
13.0927771323
 10
17.4931593904
 20
13.1068733828
 10
17.4627221999
 20
13.1173710127
 10
17.4308492349
 20
13.1239171814
 10
17.3981278567
 20
13.1262695641
 10
17.3652717831
 20
13.1243035227
 10
17.3329915964
 20
13.1180467437
  0
LWPOLYLINE
  5
460
100
AcDbEntity
  8
0
100
AcDbPolyline
 62
253
  6
CONTINUOUS
 90
13
 70
0
 10
9.6122414419
 20
15.782212464
 10
9.6367899511
 20
15.7697798066
 10
9.6639459123
 20
15.7592971445
 10
9.6932482838
 20
15.7509456867
 10
9.7242033122
 20
15.7448697893
 10
9.7562787427
 20
15.7411773647
 10
9.7889115023
 20
15.7399342587
 10
9.821611364
 20
15.7411662418
 10
9.8537483058
 20
15.7448566773
 10
9.8845657729
 20
15.7508925487
 10
9.9135055271
 20
15.7591026442
 10
9.9401955716
 20
15.7693166365
 10
9.9642454533
 20
15.7813256447
  0
LWPOLYLINE
  5
461
100
AcDbEntity
  8
0
100
AcDbPolyline
 62
253
  6
CONTINUOUS
 90
13
 70
0
 10
-6.2976611348
 20
24.9683908138
 10
-6.2731126256
 20
24.9559581565
 10
-6.2459566644
 20
24.9454754944
 10
-6.2166542929
 20
24.9371240366
 10
-6.1856992645
 20
24.9310481392
 10
-6.153623834
 20
24.9273557145
 10
-6.1209910744
 20
24.9261126085
 10
-6.0882912127
 20
24.9273445916
 10
-6.0561542709
 20
24.9310350272
 10
-6.0253368037
 20
24.9370708985
 10
-5.9963970496
 20
24.9452809941
 10
-5.9697070051
 20
24.9554949864
 10
-5.9456571234
 20
24.9675039946
  0
LWPOLYLINE
  5
462
100
AcDbEntity
  8
0
100
AcDbPolyline
 62
253
  6
CONTINUOUS
 90
13
 70
0
 10
3.7724396697
 20
18.9018955963
 10
3.7963086538
 20
18.8897651891
 10
3.8228443885
 20
18.8794169049
 10
3.8516593683
 20
18.8710614483
 10
3.8823837644
 20
18.8648708925
 10
3.9144621124
 20
18.8610189869
 10
3.9471404285
 20
18.8596223544
 10
3.9797889659
 20
18.8607007932
 10
4.0119173045
 20
18.8642309994
 10
4.042962487
 20
18.870150212
 10
4.072390863
 20
18.8783535473
 10
4.0997059511
 20
18.8886993034
 10
4.1244436811
 20
18.901008777
  0
LWPOLYLINE
  5
463
100
AcDbEntity
  8
0
100
AcDbPolyline
 62
253
  6
CONTINUOUS
 90
13
 70
0
 10
-2.8005679816
 20
22.5373758487
 10
-2.7766989974
 20
22.5252454415
 10
-2.7501632626
 20
22.5148971572
 10
-2.7213482827
 20
22.5065417006
 10
-2.6906238866
 20
22.5003511449
 10
-2.6585455385
 20
22.4964992392
 10
-2.6258672224
 20
22.4951026068
 10
-2.5932186851
 20
22.4961810457
 10
-2.5610903466
 20
22.4997112518
 10
-2.5300451642
 20
22.5056304644
 10
-2.5006167882
 20
22.5138337998
 10
-2.4733017002
 20
22.5241795558
 10
-2.4485639702
 20
22.5364890294
  0
LWPOLYLINE
  5
464
100
AcDbEntity
  8
0
100
AcDbPolyline
 62
7
  6
CONTINUOUS
 90
9
 70
0
 10
16.1216974902
 20
10.6298472454
 10
16.1342232322
 20
10.6230830517
 10
16.1471465583
 20
10.6170284856
 10
16.1604208772
 20
10.6117114426
 10
16.1739991487
 20
10.6071554755
 10
16.1878280249
 20
10.6033816446
 10
16.2018532404
 20
10.6004061083
 10
16.2160268885
 20
10.5982393646
 10
16.2235081235
 20
10.5974284955
  0
LWPOLYLINE
  5
465
100
AcDbEntity
  8
0
100
AcDbPolyline
 62
7
  6
CONTINUOUS
 90
9
 70
0
 10
-12.7989698603
 20
27.3282781125
 10
-12.7864441184
 20
27.3215139188
 10
-12.7735207922
 20
27.3154593527
 10
-12.7602464733
 20
27.3101423097
 10
-12.7466682018
 20
27.3055863426
 10
-12.7328393256
 20
27.3018125117
 10
-12.7188141102
 20
27.2988369754
 10
-12.704640462
 20
27.2966702317
 10
-12.6971592271
 20
27.2958593626
  0
LINE
  5
466
100
AcDbEntity
  8
0
100
AcDbLine
 62
7
  6
CONTINUOUS
 10
13.2839391752
 20
13.4519981673
 11
13.3047738325
 21
13.4401106263
  0
LINE
  5
467
100
AcDbEntity
  8
0
100
AcDbLine
 62
7
  6
CONTINUOUS
 10
16.7832044436
 20
9.8239032835
 11
15.8086954811
 21
10.386572545
  0
LINE
  5
468
100
AcDbEntity
  8
0
100
AcDbLine
 62
7
  6
CONTINUOUS
 10
3.7724396697
 20
17.3361558008
 11
2.7979307073
 21
17.8988250622
  0
LINE
  5
469
100
AcDbEntity
  8
0
100
AcDbLine
 62
7
  6
CONTINUOUS
 10
-13.1119718694
 20
27.0850034121
 11
-12.137462907
 21
26.5223341506
  0
LINE
  5
46A
100
AcDbEntity
  8
0
100
AcDbLine
 62
7
  6
CONTINUOUS
 10
-11.3519251821
 20
26.0687745134
 11
-8.311366023
 21
24.3131937621
  0
LINE
  5
46B
100
AcDbEntity
  8
0
100
AcDbLine
 62
7
  6
CONTINUOUS
 10
-0.1012070956
 20
19.5727508949
 11
0.8733018669
 21
19.0100816334
  0
LINE
  5
46C
100
AcDbEntity
  8
0
100
AcDbLine
 62
7
  6
CONTINUOUS
 10
11.9825985971
 20
12.5957129336
 11
15.0231577562
 21
10.8401321822
  0
LINE
  5
46D
100
AcDbEntity
  8
0
100
AcDbLine
 62
7
  6
CONTINUOUS
 10
-13.7611371679
 20
27.8838214572
 11
-12.7989698603
 21
27.3282781125
  0
LINE
  5
46E
100
AcDbEntity
  8
0
100
AcDbLine
 62
7
  6
CONTINUOUS
 10
15.1595301826
 20
11.1853905901
 11
16.1216974902
 21
10.6298472454
  0
LINE
  5
46F
100
AcDbEntity
  8
0
100
AcDbLine
 62
7
  6
CONTINUOUS
 10
13.1093345951
 20
12.37481898
 11
12.0886646143
 21
12.9641410349
  0
LINE
  5
470
100
AcDbEntity
  8
0
100
AcDbLine
 62
7
  6
CONTINUOUS
 10
8.1995773177
 20
15.2096512982
 11
7.1789073369
 21
15.7989733531
  0
LINE
  5
471
100
AcDbEntity
  8
0
100
AcDbLine
 62
7
  6
CONTINUOUS
 10
-8.7309952398
 20
24.985151703
 11
-7.710325259
 21
24.3958296481
  0
LINE
  5
472
100
AcDbEntity
  8
0
100
AcDbLine
 62
7
  6
CONTINUOUS
 10
-7.1092844949
 20
24.0487962438
 11
-4.4222787264
 21
22.4973527891
  0
LINE
  5
473
100
AcDbEntity
  8
0
100
AcDbLine
 62
7
  6
CONTINUOUS
 10
-3.8212379624
 20
22.1503193848
 11
-2.8005679816
 21
21.5609973299
  0
LINE
  5
474
100
AcDbEntity
  8
0
100
AcDbLine
 62
7
  6
CONTINUOUS
 10
8.8006180818
 20
14.8626178939
 11
11.4876238503
 21
13.3111744392
  0
LINE
  5
475
100
AcDbEntity
  8
0
100
AcDbLine
 62
253
  6
CONTINUOUS
 10
-13.8129078232
 20
27.9982556725
 11
-12.8507405156
 21
27.4427123278
  0
LINE
  5
476
100
AcDbEntity
  8
0
100
AcDbLine
 62
253
  6
CONTINUOUS
 10
15.1077595273
 20
11.2998248054
 11
16.069926835
 21
10.7442814607
  0
LINE
  5
477
100
AcDbEntity
  8
0
100
AcDbLine
 62
253
  6
CONTINUOUS
 10
16.069926835
 20
10.9778062159
 11
15.1077595273
 21
11.5333495606
  0
LINE
  5
478
100
AcDbEntity
  8
0
100
AcDbLine
 62
253
  6
CONTINUOUS
 10
-12.8507405156
 20
27.676237083
 11
-13.8129078232
 21
28.2317804277
  0
LINE
  5
479
100
AcDbEntity
  8
0
100
AcDbLine
 62
7
  6
CONTINUOUS
 10
12.0886646143
 20
13.3938103253
 11
11.3831072713
 21
13.8011902924
  0
LINE
  5
47A
100
AcDbEntity
  8
0
100
AcDbLine
 62
7
  6
CONTINUOUS
 10
9.6122414419
 20
14.8236660281
 11
8.5531307083
 21
15.4351832919
  0
LINE
  5
47B
100
AcDbEntity
  8
0
100
AcDbLine
 62
7
  6
CONTINUOUS
 10
-7.3567718684
 20
24.6213616418
 11
-6.2976611348
 21
24.009844378
  0
LINE
  5
47C
100
AcDbEntity
  8
0
100
AcDbLine
 62
7
  6
CONTINUOUS
 10
-4.5267953054
 20
22.9873686423
 11
-3.8212379624
 21
22.5799886751
  0
LINE
  5
47D
100
AcDbEntity
  8
0
100
AcDbLine
 62
253
  6
CONTINUOUS
 10
16.2451608822
 20
11.2830939556
 11
15.2829935745
 21
11.8386373003
  0
LINE
  5
47E
100
AcDbEntity
  8
0
100
AcDbLine
 62
253
  6
CONTINUOUS
 10
-12.6755064684
 20
27.9815248227
 11
-13.637673776
 21
28.5370681674
  0
LINE
  5
47F
100
AcDbEntity
  8
0
100
AcDbLine
 62
7
  6
CONTINUOUS
 10
18.2906411144
 20
10.2425361135
 11
18.0283615762
 21
10.3939730317
  0
LINE
  5
480
100
AcDbEntity
  8
0
100
AcDbLine
 62
7
  6
CONTINUOUS
 10
15.3284050726
 20
11.9528940785
 11
13.9978529235
 21
12.7211382136
  0
LINE
  5
481
100
AcDbEntity
  8
0
100
AcDbLine
 62
7
  6
CONTINUOUS
 10
11.3098839666
 20
14.2731378012
 11
10.144120966
 21
14.9462347473
  0
LINE
  5
482
100
AcDbEntity
  8
0
100
AcDbLine
 62
7
  6
CONTINUOUS
 10
7.1056840322
 20
16.7005901523
 11
5.0175968024
 21
17.9062255489
  0
LINE
  5
483
100
AcDbEntity
  8
0
100
AcDbLine
 62
7
  6
CONTINUOUS
 10
2.7247074026
 20
19.2301111517
 11
2.1184589995
 21
19.5801513815
  0
LINE
  5
484
100
AcDbEntity
  8
0
100
AcDbLine
 62
7
  6
CONTINUOUS
 10
-0.1744304003
 20
20.9040369844
 11
-1.9120496532
 21
21.9073165635
  0
LINE
  5
485
100
AcDbEntity
  8
0
100
AcDbLine
 62
7
  6
CONTINUOUS
 10
-4.6000186101
 20
23.4593161511
 11
-5.7657816107
 21
24.1324130972
  0
LINE
  5
486
100
AcDbEntity
  8
0
100
AcDbLine
 62
7
  6
CONTINUOUS
 10
-8.8042185445
 20
25.8867685022
 11
-10.8923057743
 21
27.0924038988
  0
LINE
  5
487
100
AcDbEntity
  8
0
100
AcDbLine
 62
253
  6
CONTINUOUS
 10
13.1093345951
 20
13.3511974988
 11
12.0886646143
 21
13.9405195537
  0
LINE
  5
488
100
AcDbEntity
  8
0
100
AcDbLine
 62
253
  6
CONTINUOUS
 10
8.1995773177
 20
16.186029817
 11
7.1789073369
 21
16.7753518719
  0
LINE
  5
489
100
AcDbEntity
  8
0
100
AcDbLine
 62
253
  6
CONTINUOUS
 10
-2.8005679816
 20
22.5373758487
 11
-3.8212379624
 21
23.1266979036
  0
LINE
  5
48A
100
AcDbEntity
  8
0
100
AcDbLine
 62
253
  6
CONTINUOUS
 10
-7.710325259
 20
25.3722081669
 11
-8.7309952398
 21
25.9615302218
  0
LINE
  5
48B
100
AcDbEntity
  8
0
100
AcDbLine
 62
253
  6
CONTINUOUS
 10
-0.1012070956
 20
21.1384906903
 11
0.8733018669
 21
20.5758214289
  0
LINE
  5
48C
100
AcDbEntity
  8
0
100
AcDbLine
 62
253
  6
CONTINUOUS
 10
2.7979307073
 20
19.4645648577
 11
3.7724396697
 21
18.9018955963
  0
LINE
  5
48D
100
AcDbEntity
  8
0
100
AcDbLine
 62
253
  6
CONTINUOUS
 10
13.2845686423
 20
13.6564852385
 11
12.2638986615
 21
14.2458072934
  0
LINE
  5
48E
100
AcDbEntity
  8
0
100
AcDbLine
 62
253
  6
CONTINUOUS
 10
8.3748113649
 20
16.4913175567
 11
7.3541413841
 21
17.0806396116
  0
LINE
  5
48F
100
AcDbEntity
  8
0
100
AcDbLine
 62
253
  6
CONTINUOUS
 10
-2.6253339344
 20
22.8426635883
 11
-3.6460039152
 21
23.4319856432
  0
LINE
  5
490
100
AcDbEntity
  8
0
100
AcDbLine
 62
253
  6
CONTINUOUS
 10
-7.5350912118
 20
25.6774959065
 11
-8.5557611926
 21
26.2668179615
  0
LINE
  5
491
100
AcDbEntity
  8
0
100
AcDbLine
 62
253
  6
CONTINUOUS
 10
12.266224675
 20
14.2498358074
 11
11.3831072713
 21
14.7597367282
  0
LINE
  5
492
100
AcDbEntity
  8
0
100
AcDbLine
 62
253
  6
CONTINUOUS
 10
9.6122414419
 20
15.782212464
 11
8.5531307083
 21
16.3937297277
  0
LINE
  5
493
100
AcDbEntity
  8
0
100
AcDbLine
 62
253
  6
CONTINUOUS
 10
-3.6436779017
 20
23.4360141573
 11
-4.5267953054
 21
23.9459150781
  0
LINE
  5
494
100
AcDbEntity
  8
0
100
AcDbLine
 62
253
  6
CONTINUOUS
 10
-6.2976611348
 20
24.9683908138
 11
-7.3567718684
 21
25.5799080776
  0
LINE
  5
495
100
AcDbEntity
  8
0
100
AcDbLine
 62
253
  6
CONTINUOUS
 10
0.0740269516
 20
21.44377843
 11
1.048535914
 21
20.8811091686
  0
LINE
  5
496
100
AcDbEntity
  8
0
100
AcDbLine
 62
253
  6
CONTINUOUS
 10
2.9731647545
 20
19.7698525974
 11
3.9476737169
 21
19.2071833359
  0
LINE
  5
497
100
AcDbEntity
  8
0
100
AcDbLine
 62
7
  6
CONTINUOUS
 10
18.9858359856
 20
10.6434369527
 11
18.0994536936
 21
11.1552229791
  0
LINE
  5
498
100
AcDbEntity
  8
0
100
AcDbLine
 62
7
  6
CONTINUOUS
 10
-9.3490707132
 20
27.0036569608
 11
-10.821213657
 21
27.8536538462
  0
LINE
  5
499
100
AcDbEntity
  8
0
100
AcDbLine
 62
253
  6
CONTINUOUS
 10
12.6174520521
 20
14.4535072041
 11
11.5583413185
 21
15.0650244679
  0
LINE
  5
49A
100
AcDbEntity
  8
0
100
AcDbLine
 62
253
  6
CONTINUOUS
 10
9.7874754891
 20
16.0875002036
 11
8.7283647555
 21
16.6990174674
  0
LINE
  5
49B
100
AcDbEntity
  8
0
100
AcDbLine
 62
253
  6
CONTINUOUS
 10
-3.2924505246
 20
23.639685554
 11
-4.3515612582
 21
24.2512028178
  0
LINE
  5
49C
100
AcDbEntity
  8
0
100
AcDbLine
 62
253
  6
CONTINUOUS
 10
-6.1224270876
 20
25.2736785535
 11
-7.1815378212
 21
25.8851958173
  0
LINE
  5
49D
100
AcDbEntity
  8
0
100
AcDbLine
 62
7
  6
CONTINUOUS
 10
-2.0888196174
 20
23.1524397129
 11
-4.1747980841
 21
24.3568575361
  0
LINE
  5
49E
100
AcDbEntity
  8
0
100
AcDbLine
 62
7
  6
CONTINUOUS
 10
-5.9425515749
 20
25.3775362465
 11
-8.0285300416
 21
26.5819540698
  0
LINE
  5
49F
100
AcDbEntity
  8
0
100
AcDbLine
 62
7
  6
CONTINUOUS
 10
7.8813725351
 20
17.3957757199
 11
9.9673510018
 21
16.1913578967
  0
LINE
  5
4A0
100
AcDbEntity
  8
0
100
AcDbLine
 62
7
  6
CONTINUOUS
 10
11.7351044926
 20
15.1706791863
 11
13.8210829593
 21
13.966261363
  0
LINE
  5
4A1
100
AcDbEntity
  8
0
100
AcDbLine
 62
7
  6
CONTINUOUS
 10
17.8515916121
 20
12.2106253748
 11
16.8616286562
 21
12.7822175784
  0
LINE
  5
4A2
100
AcDbEntity
  8
0
100
AcDbLine
 62
7
  6
CONTINUOUS
 10
4.8408268382
 20
19.722877892
 11
3.8508638823
 21
20.2944700956
  0
LINE
  5
4A3
100
AcDbEntity
  8
0
100
AcDbLine
 62
7
  6
CONTINUOUS
 10
-12.0590386944
 20
29.4806484455
 11
-11.0690757385
 21
28.9090562419
  0
LINE
  5
4A4
100
AcDbEntity
  8
0
100
AcDbLine
 62
7
  6
CONTINUOUS
 10
0.9517260795
 20
21.9683959283
 11
1.9416890354
 21
21.3968037247
  0
LWPOLYLINE
  5
4A5
100
AcDbEntity
  8
0
100
AcDbPolyline
 62
7
  6
CONTINUOUS
 90
4
 70
0
 10
13.4063213672
 20
13.3816589819
 10
13.4253794665
 20
13.3706186681
 10
13.4437535617
 20
13.3601018106
 10
13.4613386064
 20
13.3503106796
  0
LWPOLYLINE
  5
4A6
100
AcDbEntity
  8
0
100
AcDbPolyline
 62
7
  6
CONTINUOUS
 90
3
 70
0
 10
13.3047738325
 20
13.4401106263
 10
13.3461859883
 20
13.4161376261
 10
13.4063213672
 20
13.3816589819
  0
LWPOLYLINE
  5
4A7
100
AcDbEntity
  8
0
100
AcDbPolyline
 62
7
  6
CONTINUOUS
 90
13
 70
0
 10
-5.9425515749
 20
25.3775362465
 10
-5.919291582
 20
25.362575264
 10
-5.896455913
 20
25.3443629757
 10
-5.8744352568
 20
25.3232109675
 10
-5.8536063683
 20
25.2994811136
 10
-5.8343255928
 20
25.2735794042
 10
-5.8169227694
 20
25.2459489989
 10
-5.8016956165
 20
25.2170626274
 10
-5.7889046695
 20
25.1874144842
 10
-5.7787687931
 20
25.157511792
 10
-5.7714614065
 20
25.1278661401
 10
-5.7671075168
 20
25.0989847312
 10
-5.7657816107
 20
25.0713616876
  0
LWPOLYLINE
  5
4A8
100
AcDbEntity
  8
0
100
AcDbPolyline
 62
7
  6
CONTINUOUS
 90
13
 70
0
 10
9.9673510018
 20
16.1913578967
 10
9.9906109947
 20
16.1763969141
 10
10.0134466637
 20
16.1581846259
 10
10.0354673199
 20
16.1370326176
 10
10.0562962084
 20
16.1133027638
 10
10.0755769839
 20
16.0874010543
 10
10.0929798073
 20
16.0597706491
 10
10.1082069602
 20
16.0308842775
 10
10.1209979072
 20
16.0012361343
 10
10.1311337836
 20
15.9713334421
 10
10.1384411702
 20
15.9416877902
 10
10.1427950599
 20
15.9128063814
 10
10.144120966
 20
15.8851833378
  0
LWPOLYLINE
  5
4A9
100
AcDbEntity
  8
0
100
AcDbPolyline
 62
7
  6
CONTINUOUS
 90
13
 70
0
 10
4.8408268382
 20
19.722877892
 10
4.8640869711
 20
19.7079169888
 10
4.8869227626
 20
19.6897047701
 10
4.9089435238
 20
19.6685528219
 10
4.9297725099
 20
19.6448230249
 10
4.9490533657
 20
19.6189213632
 10
4.9664562222
 20
19.5912909785
 10
4.9816833408
 20
19.5624045885
 10
4.9944742063
 20
19.5327563996
 10
5.0046099846
 20
19.5028536513
 10
5.0119172667
 20
19.4732079385
 10
5.0162710349
 20
19.4443264583
 10
5.0175968024
 20
19.4167033331
  0
LWPOLYLINE
  5
4AA
100
AcDbEntity
  8
0
100
AcDbPolyline
 62
7
  6
CONTINUOUS
 90
13
 70
0
 10
13.8210829593
 20
13.966261363
 10
13.8443429522
 20
13.9513003805
 10
13.8671786212
 20
13.9330880922
 10
13.8891992774
 20
13.911936084
 10
13.9100281659
 20
13.8882062301
 10
13.9293089413
 20
13.8623045207
 10
13.9467117648
 20
13.8346741154
 10
13.9619389177
 20
13.8057877439
 10
13.9747298646
 20
13.7761396006
 10
13.984865741
 20
13.7462369085
 10
13.9921731277
 20
13.7165912566
 10
13.9965270174
 20
13.6877098477
 10
13.9978529235
 20
13.6600868041
  0
LWPOLYLINE
  5
4AB
100
AcDbEntity
  8
0
100
AcDbPolyline
 62
7
  6
CONTINUOUS
 90
9
 70
0
 10
15.1595301826
 20
11.1853905901
 10
15.1360939924
 20
11.2007349539
 10
15.1143247594
 20
11.218787059
 10
15.0946160475
 20
11.2393193873
 10
15.0773827385
 20
11.2619383563
 10
15.062823499
 20
11.2863795728
 10
15.0510305795
 20
11.3125899565
 10
15.0422493963
 20
11.3402729408
 10
15.0367238688
 20
11.3688930907
  0
LWPOLYLINE
  5
4AC
100
AcDbEntity
  8
0
100
AcDbPolyline
 62
253
  6
CONTINUOUS
 90
7
 70
0
 10
-0.1012070956
 20
21.1384906903
 10
-0.1222162236
 20
21.1522723427
 10
-0.1401388229
 20
21.1675937434
 10
-0.154609966
 20
21.1842311516
 10
-0.1653316322
 20
21.2019710329
 10
-0.1720028987
 20
21.220492669
 10
-0.1744303999
 20
21.2405516859
  0
LWPOLYLINE
  5
4AD
100
AcDbEntity
  8
0
100
AcDbPolyline
 62
253
  6
CONTINUOUS
 90
7
 70
0
 10
2.7979307073
 20
19.4645648577
 10
2.7769215793
 20
19.47834651
 10
2.7589989799
 20
19.4936679107
 10
2.7445278369
 20
19.510305319
 10
2.7338061707
 20
19.5280452003
 10
2.7271349042
 20
19.5465668364
 10
2.7247074029
 20
19.5666258533
  0
LWPOLYLINE
  5
4AE
100
AcDbEntity
  8
0
100
AcDbPolyline
 62
253
  6
CONTINUOUS
 90
7
 70
0
 10
-4.5267953054
 20
23.9459150781
 10
-4.5483279121
 20
23.9600890795
 10
-4.5664832455
 20
23.9757685909
 10
-4.5809474626
 20
23.9926874126
 10
-4.5914705477
 20
24.0105604575
 10
-4.5978656029
 20
24.0290804086
 10
-4.600018597
 20
24.0479370408
  0
LWPOLYLINE
  5
4AF
100
AcDbEntity
  8
0
100
AcDbPolyline
 62
253
  6
CONTINUOUS
 90
7
 70
0
 10
11.3831072713
 20
14.7597367282
 10
11.3615746646
 20
14.7739107296
 10
11.3434193312
 20
14.789590241
 10
11.3289551141
 20
14.8065090627
 10
11.318432029
 20
14.8243821077
 10
11.3120369738
 20
14.8429020587
 10
11.3098839797
 20
14.861758691
  0
LWPOLYLINE
  5
4B0
100
AcDbEntity
  8
0
100
AcDbPolyline
 62
253
  6
CONTINUOUS
 90
13
 70
0
 10
3.9476737169
 20
19.2071833359
 10
3.9700519577
 20
19.1923782066
 10
3.9922420638
 20
19.1743550977
 10
4.0138648564
 20
19.1533509182
 10
4.0345830827
 20
19.1296071057
 10
4.0539652049
 20
19.1035267748
 10
4.071529718
 20
19.0757147788
 10
4.0869409835
 20
19.0467157856
 10
4.0999706793
 20
19.0169744418
 10
4.1103888334
 20
18.9870178932
 10
4.1180170989
 20
18.9573682496
 10
4.122728181
 20
18.9285329549
 10
4.1244436811
 20
18.901008777
  0
LWPOLYLINE
  5
4B1
100
AcDbEntity
  8
0
100
AcDbPolyline
 62
7
  6
CONTINUOUS
 90
9
 70
0
 10
-10.4183811956
 20
29.2249757796
 10
-10.3918844501
 20
29.2073359528
 10
-10.3675199513
 20
29.1861536362
 10
-10.3458764004
 20
29.1617356641
 10
-10.3274658384
 20
29.1344805818
 10
-10.3127507878
 20
29.1049447574
 10
-10.3020586668
 20
29.0737455893
 10
-10.2955368775
 20
29.0411860661
 10
-10.2933872433
 20
29.0084371216
  0
LWPOLYLINE
  5
4B2
100
AcDbEntity
  8
0
100
AcDbPolyline
 62
7
  6
CONTINUOUS
 90
9
 70
0
 10
2.5923835783
 20
21.7127232624
 10
2.6188803237
 20
21.6950834355
 10
2.6432448225
 20
21.673901119
 10
2.6648883735
 20
21.6494831469
 10
2.6832989354
 20
21.6222280646
 10
2.6980139861
 20
21.5926922402
 10
2.708706107
 20
21.5614930721
 10
2.7152278964
 20
21.5289335488
 10
2.7173775305
 20
21.4961846044
  0
LWPOLYLINE
  5
4B3
100
AcDbEntity
  8
0
100
AcDbPolyline
 62
253
  6
CONTINUOUS
 90
8
 70
0
 10
15.1595301826
 20
11.1853905901
 10
15.149117424
 20
11.1925000833
 10
15.1368414546
 20
11.2044518979
 10
15.1265628028
 20
11.2190737713
 10
15.1184204701
 20
11.2361679684
 10
15.1125245679
 20
11.2555033198
 10
15.1089548286
 20
11.2768183485
 10
15.1077595273
 20
11.2998248054
  0
LWPOLYLINE
  5
4B4
100
AcDbEntity
  8
0
100
AcDbPolyline
 62
7
  6
CONTINUOUS
 90
11
 70
0
 10
20.05865991
 20
25.5968586798
 10
20.056121935
 20
25.6657539102
 10
20.0467601113
 20
25.7432511488
 10
20.0304436687
 20
25.8174780966
 10
20.0072183289
 20
25.887586322
 10
19.9777508165
 20
25.9520568853
 10
19.942908385
 20
26.0100832105
 10
19.9029814706
 20
26.0620640892
 10
19.8581495562
 20
26.1081925611
 10
19.8090617575
 20
26.1480444988
 10
19.7653668426
 20
26.1762657404
  0
LINE
  5
4B5
100
AcDbEntity
  8
0
100
AcDbLine
 62
253
  6
CONTINUOUS
 10
19.9726351621
 20
25.4756030286
 11
19.9726351621
 21
24.6248256171
  0
LINE
  5
4B6
100
AcDbEntity
  8
0
100
AcDbLine
 62
7
  6
CONTINUOUS
 10
20.0586600274
 20
25.5970118925
 11
20.0586600274
 21
24.7462344845
  0
LWPOLYLINE
  5
4B7
100
AcDbEntity
  8
0
100
AcDbPolyline
 62
253
  6
CONTINUOUS
 90
7
 70
0
 10
18.5555927272
 20
-27.3792370446
 10
18.5542549576
 20
-27.4049983042
 10
18.5498619547
 20
-27.4285770146
 10
18.5424865641
 20
-27.4495637344
 10
18.5322516666
 20
-27.4675954673
 10
18.5193323293
 20
-27.4823541614
 10
18.5055501573
 20
-27.4926481606
  0
LWPOLYLINE
  5
4B8
100
AcDbEntity
  8
0
100
AcDbPolyline
 62
7
  6
CONTINUOUS
 90
6
 70
0
 10
18.6272801147
 20
-27.2780565067
 10
18.6253724117
 20
-27.3088885016
 10
18.619367166
 20
-27.340463787
 10
18.6093200815
 20
-27.3711084285
 10
18.59533139
 20
-27.4003480711
 10
18.5775583886
 20
-27.427691238
  0
LWPOLYLINE
  5
4B9
100
AcDbEntity
  8
0
100
AcDbPolyline
 62
7
  6
CONTINUOUS
 90
9
 70
0
 10
18.6567003443
 20
-26.1240134452
 10
18.654111423
 20
-26.1656587916
 10
18.6476730847
 20
-26.2048109878
 10
18.6374009491
 20
-26.2410237149
 10
18.6233118422
 20
-26.2739410668
 10
18.6055372328
 20
-26.3030904281
 10
18.5843903061
 20
-26.3279629344
 10
18.5602017807
 20
-26.348257224
 10
18.5515941553
 20
-26.3539293386
  0
LWPOLYLINE
  5
4BA
100
AcDbEntity
  8
0
100
AcDbPolyline
 62
253
  6
CONTINUOUS
 90
4
 70
0
 10
19.4742327841
 20
26.2097893305
 10
19.5353284551
 20
26.2200689588
 10
19.5937403871
 20
26.2225888783
 10
19.6486707812
 20
26.217546512
  0
LWPOLYLINE
  5
4BB
100
AcDbEntity
  8
0
100
AcDbPolyline
 62
7
  6
CONTINUOUS
 90
5
 70
0
 10
22.8232360742
 20
24.2869122473
 10
22.7462403297
 20
24.2754324693
 10
22.668397312
 20
24.2546602702
 10
22.5900755356
 20
24.2245902484
 10
22.5223924301
 20
24.1911081541
  0
LWPOLYLINE
  5
4BC
100
AcDbEntity
  8
0
100
AcDbPolyline
 62
253
  6
CONTINUOUS
 90
7
 70
0
 10
4.5108415913
 20
20.6050296496
 10
4.494163587
 20
20.6123761515
 10
4.4751136417
 20
20.6162487001
 10
4.4545529954
 20
20.6162679179
 10
4.4328295862
 20
20.6124334829
 10
4.4103109738
 20
20.6048102765
 10
4.3873781994
 20
20.5935272887
  0
LWPOLYLINE
  5
4BD
100
AcDbEntity
  8
0
100
AcDbPolyline
 62
253
  6
CONTINUOUS
 90
7
 70
0
 10
2.5923835783
 20
21.7127232624
 10
2.5757055716
 20
21.720069765
 10
2.5566556607
 20
21.7239423097
 10
2.5360950376
 20
21.7239615357
 10
2.5143716284
 20
21.72012711
 10
2.4918529977
 20
21.7125039047
 10
2.4689201863
 20
21.7012209015
  0
LWPOLYLINE
  5
4BE
100
AcDbEntity
  8
0
100
AcDbPolyline
 62
253
  6
CONTINUOUS
 90
7
 70
0
 10
1.6117037884
 20
22.2789554822
 10
1.5950257841
 20
22.2863019841
 10
1.5759758388
 20
22.2901745327
 10
1.5554151926
 20
22.2901937505
 10
1.5336917834
 20
22.2863593155
 10
1.5111731709
 20
22.2787361092
 10
1.4882403965
 20
22.2674531213
  0
LWPOLYLINE
  5
4BF
100
AcDbEntity
  8
0
100
AcDbPolyline
 62
253
  6
CONTINUOUS
 90
7
 70
0
 10
-10.4183811956
 20
29.2249757796
 10
-10.4350592023
 20
29.2323222822
 10
-10.4541091132
 20
29.2361948269
 10
-10.4746697362
 20
29.2362140529
 10
-10.4963931454
 20
29.2323796272
 10
-10.5189117761
 20
29.2247564219
 10
-10.5418445875
 20
29.2134734187
  0
LWPOLYLINE
  5
4C0
100
AcDbEntity
  8
0
100
AcDbPolyline
 62
253
  6
CONTINUOUS
 90
7
 70
0
 10
-11.3990609854
 20
29.7912079995
 10
-11.4157389897
 20
29.7985545013
 10
-11.434788935
 20
29.8024270499
 10
-11.4553495813
 20
29.8024462678
 10
-11.4770729905
 20
29.7986118327
 10
-11.4995916029
 20
29.7909886264
 10
-11.5225243773
 20
29.7797056385
  0
LINE
  5
4C1
100
AcDbEntity
  8
0
100
AcDbLine
 62
7
  6
CONTINUOUS
 10
4.4813661139
 20
20.6195540006
 11
4.5108415913
 21
20.6050296496
  0
LINE
  5
4C2
100
AcDbEntity
  8
0
100
AcDbLine
 62
7
  6
CONTINUOUS
 10
1.5822283111
 20
22.2934798332
 11
1.6117037884
 21
22.2789554822
  0
LINE
  5
4C3
100
AcDbEntity
  8
0
100
AcDbLine
 62
7
  6
CONTINUOUS
 10
-11.4285364628
 20
29.8057323505
 11
-11.3990609854
 21
29.7912079995
  0
LWPOLYLINE
  5
4C4
100
AcDbEntity
  8
0
100
AcDbPolyline
 62
253
  6
CONTINUOUS
 90
7
 70
0
 10
-4.3515612582
 20
24.2512028178
 10
-4.3748212608
 20
24.2626675721
 10
-4.3976569216
 20
24.2704594213
 10
-4.4196775592
 20
24.274445063
 10
-4.440506408
 20
24.2745563154
 10
-4.4597871542
 20
24.2707912876
 10
-4.4782824675
 20
24.2625725958
  0
LWPOLYLINE
  5
4C5
100
AcDbEntity
  8
0
100
AcDbPolyline
 62
7
  6
CONTINUOUS
 90
7
 70
0
 10
3.8508638823
 20
20.2944700956
 10
3.8276037495
 20
20.3059349044
 10
3.804767958
 20
20.3137267677
 10
3.7827471968
 20
20.3177123776
 10
3.7619182107
 20
20.3178235457
 10
3.7426373549
 20
20.3140583702
 10
3.7263238562
 20
20.3070992629
  0
LWPOLYLINE
  5
4C6
100
AcDbEntity
  8
0
100
AcDbPolyline
 62
7
  6
CONTINUOUS
 90
7
 70
0
 10
-4.1747980841
 20
24.3568575361
 10
-4.198058077
 20
24.3683224273
 10
-4.220893746
 20
24.3761143635
 10
-4.2429144022
 20
24.3801000363
 10
-4.2637432907
 20
24.3802112635
 10
-4.2830240662
 20
24.3764461366
 10
-4.2993375319
 20
24.3694870491
  0
LWPOLYLINE
  5
4C7
100
AcDbEntity
  8
0
100
AcDbPolyline
 62
7
  6
CONTINUOUS
 90
7
 70
0
 10
0.9517260795
 20
21.9683959283
 10
0.9284659466
 20
21.979860737
 10
0.9056301551
 20
21.9876526003
 10
0.8836093939
 20
21.9916382102
 10
0.8627804078
 20
21.9917493784
 10
0.843499552
 20
21.9879842029
 10
0.8271860533
 20
21.9810250956
  0
LWPOLYLINE
  5
4C8
100
AcDbEntity
  8
0
100
AcDbPolyline
 62
7
  6
CONTINUOUS
 90
7
 70
0
 10
-8.0285300416
 20
26.5819540698
 10
-8.0517900345
 20
26.5934189609
 10
-8.0746257035
 20
26.6012108971
 10
-8.0966463597
 20
26.60519657
 10
-8.1174752482
 20
26.6053077971
 10
-8.1367560236
 20
26.6015426702
 10
-8.1530694894
 20
26.5945835828
  0
LWPOLYLINE
  5
4C9
100
AcDbEntity
  8
0
100
AcDbPolyline
 62
7
  6
CONTINUOUS
 90
7
 70
0
 10
-12.0590386944
 20
29.4806484455
 10
-12.0822988272
 20
29.4921132542
 10
-12.1051346187
 20
29.4999051176
 10
-12.1271553799
 20
29.5038907275
 10
-12.147984366
 20
29.5040018956
 10
-12.1672652218
 20
29.5002367201
 10
-12.1835787205
 20
29.4932776128
  0
LWPOLYLINE
  5
4CA
100
AcDbEntity
  8
0
100
AcDbPolyline
 62
253
  6
CONTINUOUS
 90
7
 70
0
 10
4.3873781994
 20
20.5935272887
 10
4.3649999586
 20
20.6049895658
 10
4.3428098525
 20
20.6129536521
 10
4.3211870599
 20
20.6172111315
 10
4.3004688336
 20
20.6176079022
 10
4.2810867114
 20
20.6140426326
 10
4.2641438771
 20
20.6069097853
  0
LWPOLYLINE
  5
4CB
100
AcDbEntity
  8
0
100
AcDbPolyline
 62
253
  6
CONTINUOUS
 90
7
 70
0
 10
1.4882403965
 20
22.2674531213
 10
1.4658621557
 20
22.2789153985
 10
1.4436720497
 20
22.2868794848
 10
1.422049257
 20
22.2911369641
 10
1.4013310307
 20
22.2915337349
 10
1.3819489085
 20
22.2879684653
 10
1.3650060742
 20
22.2808356179
  0
LWPOLYLINE
  5
4CC
100
AcDbEntity
  8
0
100
AcDbPolyline
 62
253
  6
CONTINUOUS
 90
7
 70
0
 10
-11.5225243773
 20
29.7797056385
 10
-11.5449026181
 20
29.7911679157
 10
-11.5670927242
 20
29.799132002
 10
-11.5887155168
 20
29.8033894814
 10
-11.6094337431
 20
29.8037862521
 10
-11.6288158653
 20
29.8002209825
 10
-11.6457586996
 20
29.7930881352
  0
LINE
  5
4CD
100
AcDbEntity
  8
0
100
AcDbLine
 62
7
  6
CONTINUOUS
 10
-1.3878836636
 20
23.5571520365
 11
-3.4615204756
 21
24.7544439429
  0
LINE
  5
4CE
100
AcDbEntity
  8
0
100
AcDbLine
 62
7
  6
CONTINUOUS
 10
-5.2416156211
 20
25.7822485701
 11
-7.315252433
 21
26.9795404765
  0
LINE
  5
4CF
100
AcDbEntity
  8
0
100
AcDbLine
 62
7
  6
CONTINUOUS
 10
8.5946501437
 20
17.7933621267
 11
10.6682869556
 21
16.5960702202
  0
LINE
  5
4D0
100
AcDbEntity
  8
0
100
AcDbLine
 62
7
  6
CONTINUOUS
 10
12.4483821011
 20
15.568265593
 11
14.5220189131
 21
14.3709736866
  0
LINE
  5
4D1
100
AcDbEntity
  8
0
100
AcDbLine
 62
253
  6
CONTINUOUS
 10
-11.5225243773
 20
29.7797056385
 11
-10.5418445875
 21
29.2134734187
  0
LINE
  5
4D2
100
AcDbEntity
  8
0
100
AcDbLine
 62
253
  6
CONTINUOUS
 10
1.4882403965
 20
22.2674531213
 11
2.4689201863
 21
21.7012209015
  0
LINE
  5
4D3
100
AcDbEntity
  8
0
100
AcDbLine
 62
253
  6
CONTINUOUS
 10
4.3873781994
 20
20.5935272887
 11
5.3680579892
 21
20.0272950688
  0
LINE
  5
4D4
100
AcDbEntity
  8
0
100
AcDbLine
 62
253
  6
CONTINUOUS
 10
17.3981429732
 20
13.0812747714
 11
18.378822763
 21
12.5150425516
  0
LINE
  5
4D5
100
AcDbEntity
  8
0
100
AcDbLine
 62
7
  6
CONTINUOUS
 10
-11.3990609854
 20
29.7912079995
 11
-10.4183811956
 21
29.2249757796
  0
LINE
  5
4D6
100
AcDbEntity
  8
0
100
AcDbLine
 62
7
  6
CONTINUOUS
 10
1.6117037884
 20
22.2789554822
 11
2.5923835783
 21
21.7127232624
  0
LINE
  5
4D7
100
AcDbEntity
  8
0
100
AcDbLine
 62
7
  6
CONTINUOUS
 10
4.5108415913
 20
20.6050296496
 11
5.4915213811
 21
20.0387974297
  0
LINE
  5
4D8
100
AcDbEntity
  8
0
100
AcDbLine
 62
7
  6
CONTINUOUS
 10
17.5216063651
 20
13.0927771323
 11
18.502286155
 21
12.5265449125
  0
LWPOLYLINE
  5
4D9
100
AcDbEntity
  8
0
100
AcDbPolyline
 62
253
  6
CONTINUOUS
 90
13
 70
0
 10
5.3680579892
 20
20.0272950688
 10
5.3908047646
 20
20.0127027273
 10
5.4133088857
 20
19.9948609271
 10
5.4351847146
 20
19.9740028476
 10
5.4560897264
 20
19.9503668821
 10
5.4755870857
 20
19.9243530868
 10
5.493191762
 20
19.8965642799
 10
5.5085675525
 20
19.8675448041
 10
5.521486892
 20
19.8377397426
 10
5.5317217906
 20
19.807677385
 10
5.5390971812
 20
19.7778817347
 10
5.5434901839
 20
19.7488627849
 10
5.5448279534
 20
19.7211205099
  0
LWPOLYLINE
  5
4DA
100
AcDbEntity
  8
0
100
AcDbPolyline
 62
7
  6
CONTINUOUS
 90
9
 70
0
 10
18.502286155
 20
12.5265449125
 10
18.5287829004
 20
12.5089050857
 10
18.5531473992
 20
12.4877227691
 10
18.5747909502
 20
12.463304797
 10
18.5932015121
 20
12.4360497147
 10
18.6079165628
 20
12.4065138903
 10
18.6186086837
 20
12.3753147222
 10
18.6251304731
 20
12.342755199
 10
18.6272801072
 20
12.3100062545
  0
LWPOLYLINE
  5
4DB
100
AcDbEntity
  8
0
100
AcDbPolyline
 62
253
  6
CONTINUOUS
 90
4
 70
0
 10
15.9386988781
 20
28.2511622971
 10
15.9997945492
 20
28.2614419254
 10
16.0582064812
 20
28.2639618449
 10
16.1131368752
 20
28.2589194786
  0
LWPOLYLINE
  5
4DC
100
AcDbEntity
  8
0
100
AcDbPolyline
 62
7
  6
CONTINUOUS
 90
5
 70
0
 10
19.2877021683
 20
26.3282852139
 10
19.2107064237
 20
26.3168054359
 10
19.1328634061
 20
26.2960332369
 10
19.0545416296
 20
26.2659632151
 10
18.9868585242
 20
26.2324811208
  0
LWPOLYLINE
  5
4DD
100
AcDbEntity
  8
0
100
AcDbPolyline
 62
7
  6
CONTINUOUS
 90
5
 70
0
 10
15.7521682624
 20
28.3696581805
 10
15.6751725178
 20
28.3581784026
 10
15.5973295001
 20
28.3374062035
 10
15.5190077237
 20
28.3073361817
 10
15.4513246182
 20
28.2738540874
  0
LINE
  5
4DE
100
AcDbEntity
  8
0
100
AcDbLine
 62
253
  6
CONTINUOUS
 10
-12.6971592271
 20
27.2958593626
 11
-12.697232551
 21
27.2958661992
  0
LINE
  5
4DF
100
AcDbEntity
  8
0
100
AcDbLine
 62
7
  6
CONTINUOUS
 10
-12.697232551
 20
27.2958661992
 11
-12.0676463271
 21
27.2370120304
  0
LWPOLYLINE
  5
4E0
100
AcDbEntity
  8
IMPORT_IGES
100
AcDbPolyline
 62
7
  6
CONTINUOUS
 90
20
 70
0
 10
15.8769196685
 20
20.5616692816
 10
15.860019442
 20
20.5694796024
 10
15.7371471189
 20
20.6181083502
 10
15.6082644791
 20
20.6612337583
 10
15.4734633081
 20
20.698938542
 10
15.3349297618
 20
20.7306039132
 10
15.1925284891
 20
20.7561327035
 10
15.046394841
 20
20.7756220813
 10
14.8991210265
 20
20.7887447637
 10
14.7509207573
 20
20.7954101739
 10
14.6015803217
 20
20.7957088885
 10
14.4530507937
 20
20.789585355
 10
14.305068027
 20
20.7769388286
 10
14.1578961678
 20
20.7578700539
 10
14.0142787286
 20
20.7326257124
 10
13.8742899594
 20
20.7010589663
 10
13.7378556103
 20
20.6633166534
 10
13.6074964439
 20
20.6200859678
 10
13.4840527143
 20
20.5715959741
 10
13.3705680494
 20
20.5194038238
  0
LWPOLYLINE
  5
4E1
100
AcDbEntity
  8
IMPORT_IGES
100
AcDbPolyline
 62
7
  6
CONTINUOUS
 90
20
 70
0
 10
12.3413853923
 20
22.6030424194
 10
12.324485536
 20
22.6108525691
 10
12.201613213
 20
22.6594813169
 10
12.0727305732
 20
22.7026067249
 10
11.9379294022
 20
22.7403115086
 10
11.7993958558
 20
22.7719768798
 10
11.6569945831
 20
22.7975056701
 10
11.510860935
 20
22.816995048
 10
11.3635871206
 20
22.8301177303
 10
11.2153868514
 20
22.8367831405
 10
11.0660464158
 20
22.8370818552
 10
10.9175168877
 20
22.8309583216
 10
10.769534121
 20
22.8183117952
 10
10.6223622618
 20
22.7992430205
 10
10.4787448227
 20
22.773998679
 10
10.3387560535
 20
22.742431933
 10
10.2023217044
 20
22.7046896201
 10
10.0719625379
 20
22.6614589344
 10
9.9485188084
 20
22.6129689407
 10
9.8350018724
 20
22.5607619488
  0
LWPOLYLINE
  5
4E2
100
AcDbEntity
  8
IMPORT_IGES
100
AcDbPolyline
 62
7
  6
CONTINUOUS
 90
20
 70
0
 10
8.8058514864
 20
24.644415386
 10
8.7889516301
 20
24.6522255357
 10
8.666079307
 20
24.7008542835
 10
8.5371966672
 20
24.7439796915
 10
8.4023954963
 20
24.7816844753
 10
8.2638619499
 20
24.8133498465
 10
8.1214606772
 20
24.8388786368
 10
7.9753270291
 20
24.8583680146
 10
7.8280532146
 20
24.871490697
 10
7.6798529454
 20
24.8781561071
 10
7.5305125099
 20
24.8784548218
 10
7.3819829818
 20
24.8723312883
 10
7.2340002151
 20
24.8596847618
 10
7.0868283559
 20
24.8406159872
 10
6.9432109167
 20
24.8153716456
 10
6.8032221476
 20
24.7838048996
 10
6.6667877984
 20
24.7460625867
 10
6.536428632
 20
24.702831901
 10
6.4129849024
 20
24.6543419073
 10
6.2994679665
 20
24.6021349155
  0
LWPOLYLINE
  5
4E3
100
AcDbEntity
  8
0
100
AcDbPolyline
 62
253
  6
CONTINUOUS
 90
7
 70
0
 10
16.1686589014
 20
20.6159743268
 10
16.1411824721
 20
20.6299813909
 10
16.1141130363
 20
20.6395222391
 10
16.0879136847
 20
20.6444337733
 10
16.0630326177
 20
20.6446321012
 10
16.0398954267
 20
20.6401139682
 10
16.0209032617
 20
20.6320842448
  0
LWPOLYLINE
  5
4E4
100
AcDbEntity
  8
0
100
AcDbPolyline
 62
253
  6
CONTINUOUS
 90
7
 70
0
 10
12.6331249955
 20
22.6573472934
 10
12.6056480119
 20
22.6713545969
 10
12.578578161
 20
22.6808954688
 10
12.5523785476
 20
22.6858068631
 10
12.52749738
 20
22.6860049481
 10
12.5043602304
 20
22.6814865351
 10
12.485369356
 20
22.6734572115
  0
LWPOLYLINE
  5
4E5
100
AcDbEntity
  8
0
100
AcDbPolyline
 62
253
  6
CONTINUOUS
 90
23
 70
0
 10
9.4725803278
 20
22.6425985262
 10
9.347293613
 20
22.7116031553
 10
9.2314234288
 20
22.7857155524
 10
9.124817415
 20
22.8648491951
 10
9.0292558183
 20
22.9476819702
 10
8.9449275855
 20
23.0342706989
 10
8.8716437697
 20
23.1245585601
 10
8.8106177779
 20
23.2170529769
 10
8.76204888
 20
23.3117890418
 10
8.7257378061
 20
23.4087316623
 10
8.7023001529
 20
23.5062829833
 10
8.6923434632
 20
23.6050820902
 10
8.6952601942
 20
23.7044898977
 10
8.7098433147
 20
23.8009912951
 10
8.7360642205
 20
23.8932758245
 10
8.7739515157
 20
23.9826539439
 10
8.8223839813
 20
24.0695419159
 10
8.8801144454
 20
24.1536991168
 10
8.9483900798
 20
24.2353661703
 10
9.0298311815
 20
24.3156812105
 10
9.1253111827
 20
24.3950236156
 10
9.2339566513
 20
24.4730140075
 10
9.355767587
 20
24.5496523861
  0
LWPOLYLINE
  5
4E6
100
AcDbEntity
  8
0
100
AcDbPolyline
 62
253
  6
CONTINUOUS
 90
23
 70
0
 10
5.9370464219
 20
24.6839714928
 10
5.8117597071
 20
24.7529761219
 10
5.6958895229
 20
24.827088519
 10
5.5892835091
 20
24.9062221617
 10
5.4937219124
 20
24.9890549368
 10
5.4093936795
 20
25.0756436656
 10
5.3361098638
 20
25.1659315268
 10
5.275083872
 20
25.2584259435
 10
5.2265149741
 20
25.3531620084
 10
5.1902039001
 20
25.4501046289
 10
5.1667662469
 20
25.54765595
 10
5.1568095572
 20
25.6464550569
 10
5.1597262883
 20
25.7458628643
 10
5.1743094088
 20
25.8423642617
 10
5.2005303146
 20
25.9346487912
 10
5.2384176098
 20
26.0240269106
 10
5.2868500754
 20
26.1109148826
 10
5.3445805394
 20
26.1950720834
 10
5.4128561739
 20
26.2767391369
 10
5.4942972756
 20
26.3570541772
 10
5.5897772768
 20
26.4363965823
 10
5.6984227453
 20
26.5143869741
 10
5.8202336811
 20
26.5910253528
  0
LWPOLYLINE
  5
4E7
100
AcDbEntity
  8
0
100
AcDbPolyline
 62
253
  6
CONTINUOUS
 90
23
 70
0
 10
2.4015125159
 20
26.7253444594
 10
2.2762258011
 20
26.7943490886
 10
2.160355617
 20
26.8684614856
 10
2.0537496032
 20
26.9475951283
 10
1.9581880065
 20
27.0304279035
 10
1.8738597736
 20
27.1170166322
 10
1.8005759579
 20
27.2073044934
 10
1.7395499661
 20
27.2997989101
 10
1.6909810682
 20
27.3945349751
 10
1.6546699942
 20
27.4914775955
 10
1.631232341
 20
27.5890289166
 10
1.6212756513
 20
27.6878280235
 10
1.6241923824
 20
27.787235831
 10
1.6387755029
 20
27.8837372283
 10
1.6649964087
 20
27.9760217578
 10
1.7028837039
 20
28.0653998772
 10
1.7513161695
 20
28.1522878492
 10
1.8090466335
 20
28.2364450501
 10
1.8773222679
 20
28.3181121035
 10
1.9587633696
 20
28.3984271438
 10
2.0542433709
 20
28.4777695489
 10
2.1628888394
 20
28.5557599408
 10
2.2846997752
 20
28.6323983194
  0
LINE
  5
4E8
100
AcDbEntity
  8
IMPORT_IGES
100
AcDbLine
 62
7
  6
CONTINUOUS
 10
3.1439756662
 20
27.2764588872
 11
3.12371855
 21
27.2881550922
  0
LWPOLYLINE
  5
4E9
100
AcDbEntity
  8
0
100
AcDbPolyline
 62
253
  6
CONTINUOUS
 90
23
 70
0
 10
12.9587106944
 20
20.6272745317
 10
12.8347038237
 20
20.6996525015
 10
12.7207668788
 20
20.777159309
 10
12.6167279666
 20
20.8597069369
 10
12.5243855436
 20
20.9458686273
 10
12.4439438085
 20
21.0357039268
 10
12.3751985626
 20
21.1291532888
 10
12.3193356658
 20
21.2246113158
 10
12.2765789396
 20
21.3221280235
 10
12.2467045626
 20
21.4216533962
 10
12.2302269297
 20
21.5214319902
 10
12.2275988008
 20
21.6217338704
 10
12.2383674161
 20
21.722288972
 10
12.2616888912
 20
21.8205316568
 10
12.2984251877
 20
21.9164819198
 10
12.3477143441
 20
22.0101197661
 10
12.4061265911
 20
22.0988195729
 10
12.474371411
 20
22.1822168331
 10
12.5517393216
 20
22.2606760538
 10
12.6326721067
 20
22.332665133
 10
12.7153170276
 20
22.39767337
 10
12.801526823
 20
22.4562114655
 10
12.891301493
 20
22.5082794195
  0
LWPOLYLINE
  5
4EA
100
AcDbEntity
  8
0
100
AcDbPolyline
 62
253
  6
CONTINUOUS
 90
13
 70
0
 10
2.2846997752
 20
28.6323983194
 10
2.3125947022
 20
28.6144348352
 10
2.339949098
 20
28.5925525234
 10
2.366295012
 20
28.567125724
 10
2.3911817456
 20
28.5385894124
 10
2.4141835623
 20
28.5074317581
 10
2.4349069707
 20
28.4741857742
 10
2.4529974565
 20
28.4394201983
 10
2.4681455461
 20
28.4037297641
 10
2.4800921018
 20
28.3677250265
 10
2.4886327544
 20
28.3320219171
 10
2.4936213991
 20
28.297231208
 10
2.4949726954
 20
28.2639480624
  0
LWPOLYLINE
  5
4EB
100
AcDbEntity
  8
0
100
AcDbPolyline
 62
253
  6
CONTINUOUS
 90
13
 70
0
 10
5.8202336811
 20
26.5910253528
 10
5.8481286081
 20
26.5730618685
 10
5.875483004
 20
26.5511795568
 10
5.901828918
 20
26.5257527574
 10
5.9267156515
 20
26.4972164457
 10
5.9497174682
 20
26.4660587915
 10
5.9704408767
 20
26.4328128075
 10
5.9885313624
 20
26.3980472317
 10
6.003679452
 20
26.3623567975
 10
6.0156260078
 20
26.3263520598
 10
6.0241666603
 20
26.2906489505
 10
6.029155305
 20
26.2558582414
 10
6.0305066014
 20
26.2225750958
  0
LWPOLYLINE
  5
4EC
100
AcDbEntity
  8
0
100
AcDbPolyline
 62
253
  6
CONTINUOUS
 90
13
 70
0
 10
9.355767587
 20
24.5496523861
 10
9.383662514
 20
24.5316889019
 10
9.4110169099
 20
24.5098065901
 10
9.4373628239
 20
24.4843797907
 10
9.4622495575
 20
24.4558434791
 10
9.4852513741
 20
24.4246858249
 10
9.5059747826
 20
24.3914398409
 10
9.5240652683
 20
24.3566742651
 10
9.539213358
 20
24.3209838308
 10
9.5511599137
 20
24.2849790932
 10
9.5597005663
 20
24.2492759839
 10
9.564689211
 20
24.2144852747
 10
9.5660405073
 20
24.1812021291
  0
LWPOLYLINE
  5
4ED
100
AcDbEntity
  8
0
100
AcDbPolyline
 62
253
  6
CONTINUOUS
 90
13
 70
0
 10
12.891301493
 20
22.5082794195
 10
12.91919642
 20
22.4903159353
 10
12.9465508158
 20
22.4684336235
 10
12.9728967298
 20
22.4430068241
 10
12.9977834634
 20
22.4144705125
 10
13.0207852801
 20
22.3833128582
 10
13.0415086885
 20
22.3500668742
 10
13.0595991743
 20
22.3153012984
 10
13.0747472639
 20
22.2796108642
 10
13.0866938196
 20
22.2436061265
 10
13.0952344722
 20
22.2079030172
 10
13.1002231169
 20
22.1731123081
 10
13.1015744132
 20
22.1398291625
  0
LWPOLYLINE
  5
4EE
100
AcDbEntity
  8
0
100
AcDbPolyline
 62
253
  6
CONTINUOUS
 90
4
 70
0
 10
12.4031649722
 20
30.2925352638
 10
12.4642606432
 20
30.302814892
 10
12.5226725752
 20
30.3053348116
 10
12.5776029693
 20
30.3002924453
  0
LWPOLYLINE
  5
4EF
100
AcDbEntity
  8
0
100
AcDbPolyline
 62
7
  6
CONTINUOUS
 90
5
 70
0
 10
12.2166343564
 20
30.4110311472
 10
12.1396386119
 20
30.3995513692
 10
12.0617955942
 20
30.3787791702
 10
11.9834738178
 20
30.3487091483
 10
11.9157907123
 20
30.3152270541
  0
LINE
  5
4F0
100
AcDbEntity
  8
0
100
AcDbLine
 62
253
  6
CONTINUOUS
 10
-12.4987365042
 20
27.4418255086
 11
-11.7854588956
 21
27.3751478094
  0
LWPOLYLINE
  5
4F1
100
AcDbEntity
  8
IMPORT_IGES
100
AcDbPolyline
 62
7
  6
CONTINUOUS
 90
20
 70
0
 10
5.2703175804
 20
26.6857883527
 10
5.2534177242
 20
26.6935985024
 10
5.1305454011
 20
26.7422272502
 10
5.0016627613
 20
26.7853526582
 10
4.8668615903
 20
26.8230574419
 10
4.728328044
 20
26.8547228131
 10
4.5859267713
 20
26.8802516034
 10
4.4397931232
 20
26.8997409813
 10
4.2925193087
 20
26.9128636636
 10
4.1443190395
 20
26.9195290738
 10
3.9949786039
 20
26.9198277885
 10
3.8464490759
 20
26.9137042549
 10
3.6984663092
 20
26.9010577285
 10
3.55129445
 20
26.8819889538
 10
3.4076770108
 20
26.8567446123
 10
3.2676882416
 20
26.8251778663
 10
3.1312538925
 20
26.7874355533
 10
3.0008947261
 20
26.7442048677
 10
2.8774509965
 20
26.695714874
 10
2.7639340605
 20
26.6435078821
  0
LWPOLYLINE
  5
4F2
100
AcDbEntity
  8
0
100
AcDbPolyline
 62
253
  6
CONTINUOUS
 90
7
 70
0
 10
9.0975910896
 20
24.69872026
 10
9.0701141059
 20
24.7127275635
 10
9.0430442551
 20
24.7222684354
 10
9.0168446416
 20
24.7271798298
 10
8.9919634741
 20
24.7273779147
 10
8.9688263245
 20
24.7228595017
 10
8.94983545
 20
24.7148301781
  0
LWPOLYLINE
  5
4F3
100
AcDbEntity
  8
0
100
AcDbPolyline
 62
253
  6
CONTINUOUS
 90
7
 70
0
 10
5.5620571836
 20
26.7400932267
 10
5.5345802
 20
26.7541005302
 10
5.5075103492
 20
26.7636414021
 10
5.4813107357
 20
26.7685527964
 10
5.4564295682
 20
26.7687508814
 10
5.4332924185
 20
26.7642324683
 10
5.4143015441
 20
26.7562031448
  0
LINE
  5
4F4
100
AcDbEntity
  8
IMPORT_IGES
100
AcDbLine
 62
7
  6
CONTINUOUS
 10
4.2751346822
 20
27.9295759262
 11
5.8727209878
 21
27.0071496158
  0
LINE
  5
4F5
100
AcDbEntity
  8
IMPORT_IGES
100
AcDbLine
 62
7
  6
CONTINUOUS
 10
7.7904105095
 20
25.8998997203
 11
9.4082548938
 21
24.9657766492
  0
LINE
  5
4F6
100
AcDbEntity
  8
IMPORT_IGES
100
AcDbLine
 62
7
  6
CONTINUOUS
 10
11.3259444154
 20
23.8585267537
 11
12.9437887997
 21
22.9244036825
  0
LINE
  5
4F7
100
AcDbEntity
  8
IMPORT_IGES
100
AcDbLine
 62
7
  6
CONTINUOUS
 10
14.8614783213
 20
21.817153787
 11
16.4793227056
 21
20.8830307159
  0
LWPOLYLINE
  5
4F8
100
AcDbEntity
  8
0
100
AcDbPolyline
 62
253
  6
CONTINUOUS
 90
10
 70
0
 10
33.1800221695
 20
15.6181919227
 10
33.1770067701
 20
15.5739607322
 10
33.1666060562
 20
15.5245063047
 10
33.148860751
 20
15.4757535698
 10
33.1239002437
 20
15.4280610218
 10
33.0919116992
 20
15.3817884248
 10
33.0531445681
 20
15.3372919954
 10
33.0078970014
 20
15.2949050159
 10
32.9565073889
 20
15.2549368353
 10
32.8993624702
 20
15.2176824743
  0
LINE
  5
4F9
100
AcDbEntity
  8
0
100
AcDbLine
 62
253
  6
CONTINUOUS
 10
17.1352084549
 20
-27.4801842319
 11
17.0384120826
 21
-27.5990767845
  0
LWPOLYLINE
  5
4FA
100
AcDbEntity
  8
0
100
AcDbPolyline
 62
7
  6
CONTINUOUS
 90
4
 70
0
 10
18.5775583886
 20
-27.427691238
 10
18.5562626974
 20
-27.4526059206
 10
18.5317986608
 20
-27.4745929326
 10
18.5055501573
 20
-27.4926481606
  0
LWPOLYLINE
  5
4FB
100
AcDbEntity
  8
0
100
AcDbPolyline
 62
7
  6
CONTINUOUS
 90
6
 70
0
 10
32.6985359245
 20
-15.127228293
 10
32.7812652361
 20
-15.0712242718
 10
32.8583850909
 20
-15.0068854518
 10
32.928837152
 20
-14.9349383576
 10
32.9914297069
 20
-14.8566401358
 10
33.0457626789
 20
-14.7726526399
  0
LINE
  5
4FC
100
AcDbEntity
  8
0
100
AcDbLine
 62
253
  6
CONTINUOUS
 10
18.6567003443
 20
-26.1240134452
 11
19.3393355283
 21
-25.7018616076
  0
LINE
  5
4FD
100
AcDbEntity
  8
0
100
AcDbLine
 62
7
  6
CONTINUOUS
 10
18.5515919816
 20
-26.3539306828
 11
19.2401398016
 21
-25.9281223825
  0
LINE
  5
4FE
100
AcDbEntity
  8
0
100
AcDbLine
 62
253
  6
CONTINUOUS
 10
19.3393355283
 20
-22.8960310891
 11
32.8993624702
 21
-14.6732457394
  0
LINE
  5
4FF
100
AcDbEntity
  8
0
100
AcDbLine
 62
7
  6
CONTINUOUS
 10
19.3393355283
 20
-23.2282326474
 11
32.6985359245
 21
-15.127228293
  0
LINE
  5
500
100
AcDbEntity
  8
0
100
AcDbLine
 62
7
  6
CONTINUOUS
 10
18.5515941553
 20
-26.3539293386
 11
18.5420718209
 21
-26.3594203595
  0
LINE
  5
501
100
AcDbEntity
  8
0
100
AcDbLine
 62
253
  6
CONTINUOUS
 10
17.0384120826
 20
-26.9919238605
 11
18.6567003443
 21
-26.1240134452
  0
LINE
  5
502
100
AcDbEntity
  8
0
100
AcDbLine
 62
7
  6
CONTINUOUS
 10
17.0384120826
 20
-27.165853881
 11
18.542072163
 21
-26.3594201474
  0
LWPOLYLINE
  5
503
100
AcDbEntity
  8
0
100
AcDbPolyline
 62
253
  6
CONTINUOUS
 90
4
 70
0
 10
19.6486707812
 20
26.217546512
 10
19.6999651245
 20
26.205238371
 10
19.7471500676
 20
26.1860746518
 10
19.7649752059
 20
26.1765002982
  0
LWPOLYLINE
  5
504
100
AcDbEntity
  8
0
100
AcDbPolyline
 62
253
  6
CONTINUOUS
 90
4
 70
0
 10
16.1131368752
 20
28.2589194786
 10
16.1644312186
 20
28.2466113376
 10
16.2116161617
 20
28.2274476185
 10
16.2294412999
 20
28.2178732648
  0
LWPOLYLINE
  5
505
100
AcDbEntity
  8
0
100
AcDbPolyline
 62
253
  6
CONTINUOUS
 90
4
 70
0
 10
12.5776029693
 20
30.3002924453
 10
12.6288973126
 20
30.2879843043
 10
12.6760822557
 20
30.2688205851
 10
12.693907394
 20
30.2592462315
  0
LWPOLYLINE
  5
506
100
AcDbEntity
  8
0
100
AcDbPolyline
 62
253
  6
CONTINUOUS
 90
10
 70
0
 10
23.1473414047
 20
24.2231627746
 10
23.103604756
 20
24.242083403
 10
23.0584261034
 20
24.2547474409
 10
23.0109739
 20
24.2617477366
 10
22.9618876836
 20
24.2631289273
 10
22.9112029017
 20
24.2590239467
 10
22.856725079
 20
24.2489432026
 10
22.7977689213
 20
24.2319330303
 10
22.7354366726
 20
24.2074709497
 10
22.6701206786
 20
24.1749832472
  0
LWPOLYLINE
  5
507
100
AcDbEntity
  8
0
100
AcDbPolyline
 62
253
  6
CONTINUOUS
 90
10
 70
0
 10
19.6118074988
 20
26.2645357412
 10
19.5680708501
 20
26.2834563696
 10
19.5228921975
 20
26.2961204075
 10
19.4754399941
 20
26.3031207033
 10
19.4263537777
 20
26.3045018939
 10
19.3756689957
 20
26.3003969134
 10
19.3211911731
 20
26.2903161692
 10
19.2622350154
 20
26.2733059969
 10
19.1999027667
 20
26.2488439163
 10
19.1345867727
 20
26.2163562138
  0
LWPOLYLINE
  5
508
100
AcDbEntity
  8
0
100
AcDbPolyline
 62
253
  6
CONTINUOUS
 90
10
 70
0
 10
16.0762735929
 20
28.3059087078
 10
16.0325369441
 20
28.3248293362
 10
15.9873582916
 20
28.3374933741
 10
15.9399060882
 20
28.3444936699
 10
15.8908198718
 20
28.3458748605
 10
15.8401350898
 20
28.34176988
 10
15.7856572671
 20
28.3316891359
 10
15.7267011094
 20
28.3146789636
 10
15.6643688607
 20
28.2902168829
 10
15.5990528667
 20
28.2577291805
  0
LWPOLYLINE
  5
509
100
AcDbEntity
  8
0
100
AcDbPolyline
 62
253
  6
CONTINUOUS
 90
10
 70
0
 10
30.7441609565
 20
19.8372554699
 10
30.7042509429
 20
19.8568001963
 10
30.6561974423
 20
19.8725100055
 10
30.6050861636
 20
19.8815013945
 10
30.5512990353
 20
19.8837107591
 10
30.4952379943
 20
19.8791249938
 10
30.4373365926
 20
19.8677854318
 10
30.3780327421
 20
19.8497868219
 10
30.3177636679
 20
19.8252706268
 10
30.2569777467
 20
19.7944270617
  0
LWPOLYLINE
  5
50A
100
AcDbEntity
  8
0
100
AcDbPolyline
 62
7
  6
CONTINUOUS
 90
6
 70
0
 10
23.1607554218
 20
24.2158160748
 10
23.1056602397
 20
24.2435401091
 10
23.0406795992
 20
24.2669212455
 10
22.9715438949
 20
24.282312441
 10
22.8987454893
 20
24.2891417001
 10
22.8232360742
 20
24.2869122473
  0
LWPOLYLINE
  5
50B
100
AcDbEntity
  8
0
100
AcDbPolyline
 62
7
  6
CONTINUOUS
 90
6
 70
0
 10
19.6252215159
 20
26.2571890414
 10
19.5701263337
 20
26.2849130758
 10
19.5051456932
 20
26.3082942121
 10
19.436009989
 20
26.3236854076
 10
19.3632115834
 20
26.3305146668
 10
19.2877021683
 20
26.3282852139
  0
LWPOLYLINE
  5
50C
100
AcDbEntity
  8
0
100
AcDbPolyline
 62
253
  6
CONTINUOUS
 90
7
 70
0
 10
22.6701206786
 20
24.1749832472
 10
22.6426454785
 20
24.1889897804
 10
22.6155769621
 20
24.1985305761
 10
22.5893781894
 20
24.2034424203
 10
22.5644973419
 20
24.2036412862
 10
22.5413600554
 20
24.1991237719
 10
22.5223924301
 20
24.1911081541
  0
LWPOLYLINE
  5
50D
100
AcDbEntity
  8
0
100
AcDbPolyline
 62
253
  6
CONTINUOUS
 90
7
 70
0
 10
19.1345867727
 20
26.2163562138
 10
19.1071115726
 20
26.230362747
 10
19.0800430561
 20
26.2399035427
 10
19.0538442834
 20
26.2448153869
 10
19.0289634359
 20
26.2450142528
 10
19.0058261495
 20
26.2404967385
 10
18.9868585242
 20
26.2324811208
  0
LWPOLYLINE
  5
50E
100
AcDbEntity
  8
0
100
AcDbPolyline
 62
253
  6
CONTINUOUS
 90
7
 70
0
 10
15.5990528667
 20
28.2577291805
 10
15.5715776667
 20
28.2717357137
 10
15.5445091502
 20
28.2812765094
 10
15.5183103775
 20
28.2861883536
 10
15.49342953
 20
28.2863872195
 10
15.4702922435
 20
28.2818697051
 10
15.4513246182
 20
28.2738540874
  0
LWPOLYLINE
  5
50F
100
AcDbEntity
  8
0
100
AcDbPolyline
 62
253
  6
CONTINUOUS
 90
7
 70
0
 10
12.0635189608
 20
30.2991021471
 10
12.0360437607
 20
30.3131086803
 10
12.0089752443
 20
30.322649476
 10
11.9827764716
 20
30.3275613202
 10
11.9578956241
 20
30.3277601861
 10
11.9347583376
 20
30.3232426718
 10
11.9157907123
 20
30.3152270541
  0
LINE
  5
510
100
AcDbEntity
  8
0
100
AcDbLine
 62
253
  6
CONTINUOUS
 10
23.1607819213
 20
24.2158040601
 11
23.1473414047
 21
24.2231627746
  0
LINE
  5
511
100
AcDbEntity
  8
0
100
AcDbLine
 62
253
  6
CONTINUOUS
 10
19.6252480154
 20
26.2571770268
 11
19.6118074988
 21
26.2645357412
  0
LINE
  5
512
100
AcDbEntity
  8
0
100
AcDbLine
 62
253
  6
CONTINUOUS
 10
8.313718125
 20
30.2837486554
 11
8.523075277
 21
30.1628684597
  0
LINE
  5
513
100
AcDbEntity
  8
0
100
AcDbLine
 62
253
  6
CONTINUOUS
 10
11.8492520309
 20
28.2423756887
 11
12.058609183
 21
28.121495493
  0
LINE
  5
514
100
AcDbEntity
  8
0
100
AcDbLine
 62
253
  6
CONTINUOUS
 10
15.3847859369
 20
26.2010027221
 11
15.5941430889
 21
26.0801225264
  0
LINE
  5
515
100
AcDbEntity
  8
0
100
AcDbLine
 62
253
  6
CONTINUOUS
 10
18.9203198428
 20
24.1596297555
 11
19.1296769948
 21
24.0387495597
  0
LINE
  5
516
100
AcDbEntity
  8
0
100
AcDbLine
 62
7
  6
CONTINUOUS
 10
8.523075277
 20
30.2536612804
 11
10.119498377
 21
29.3319065904
  0
LINE
  5
517
100
AcDbEntity
  8
0
100
AcDbLine
 62
7
  6
CONTINUOUS
 10
12.058609183
 20
28.2122883138
 11
13.655032283
 21
27.2905336237
  0
LINE
  5
518
100
AcDbEntity
  8
0
100
AcDbLine
 62
7
  6
CONTINUOUS
 10
15.5941430889
 20
26.1709153472
 11
17.1905661889
 21
25.2491606571
  0
LINE
  5
519
100
AcDbEntity
  8
0
100
AcDbLine
 62
7
  6
CONTINUOUS
 10
19.1296769948
 20
24.1295423805
 11
20.7261000948
 21
23.2077876904
  0
LINE
  5
51A
100
AcDbEntity
  8
0
100
AcDbLine
 62
7
  6
CONTINUOUS
 10
9.4520583096
 20
30.9421019003
 11
11.2084201534
 21
29.9280005841
  0
LINE
  5
51B
100
AcDbEntity
  8
0
100
AcDbLine
 62
7
  6
CONTINUOUS
 10
12.9875922155
 20
28.9007289337
 11
14.7439540593
 21
27.8866276174
  0
LINE
  5
51C
100
AcDbEntity
  8
0
100
AcDbLine
 62
7
  6
CONTINUOUS
 10
16.5231261214
 20
26.859355967
 11
18.2794879653
 21
25.8452546508
  0
LINE
  5
51D
100
AcDbEntity
  8
0
100
AcDbLine
 62
7
  6
CONTINUOUS
 10
20.0586600274
 20
24.8179830004
 11
21.8150218712
 21
23.8038816842
  0
LINE
  5
51E
100
AcDbEntity
  8
0
100
AcDbLine
 62
253
  6
CONTINUOUS
 10
4.5516346277
 20
34.636370015
 11
8.6736684698
 21
32.2563593358
  0
LINE
  5
51F
100
AcDbEntity
  8
0
100
AcDbLine
 62
253
  6
CONTINUOUS
 10
12.0635189608
 20
30.2991021471
 11
12.2092023757
 21
30.2149863692
  0
LINE
  5
520
100
AcDbEntity
  8
0
100
AcDbLine
 62
253
  6
CONTINUOUS
 10
15.5990528667
 20
28.2577291805
 11
15.7447362817
 21
28.1736134025
  0
LINE
  5
521
100
AcDbEntity
  8
0
100
AcDbLine
 62
253
  6
CONTINUOUS
 10
19.1345867727
 20
26.2163562138
 11
19.2802701876
 21
26.1322404359
  0
LINE
  5
522
100
AcDbEntity
  8
0
100
AcDbLine
 62
253
  6
CONTINUOUS
 10
22.6701206786
 20
24.1749832472
 11
30.2569777485
 21
19.7944270607
  0
LWPOLYLINE
  5
523
100
AcDbEntity
  8
0
100
AcDbPolyline
 62
253
  6
CONTINUOUS
 90
13
 70
0
 10
8.6736684698
 20
32.2563593358
 10
8.7015647511
 20
32.2383948692
 10
8.7289202394
 20
32.2165113732
 10
8.7552669421
 20
32.1910833168
 10
8.7801541735
 20
32.1625457562
 10
8.8031561618
 20
32.1313870026
 10
8.8238793583
 20
32.0981402983
 10
8.8419693151
 20
32.0633744855
 10
8.8571166719
 20
32.0276843243
 10
8.8690623855
 20
31.9916804576
 10
8.8776022377
 20
31.9559788005
 10
8.8825902986
 20
31.9211900006
 10
8.8839413901
 20
31.8879090788
  0
LWPOLYLINE
  5
524
100
AcDbEntity
  8
0
100
AcDbPolyline
 62
253
  6
CONTINUOUS
 90
13
 70
0
 10
12.2092023757
 20
30.2149863692
 10
12.237098657
 20
30.1970219026
 10
12.2644541453
 20
30.1751384066
 10
12.290800848
 20
30.1497103502
 10
12.3156880795
 20
30.1211727896
 10
12.3386900677
 20
30.090014036
 10
12.3594132642
 20
30.0567673316
 10
12.377503221
 20
30.0220015189
 10
12.3926505778
 20
29.9863113577
 10
12.4045962914
 20
29.9503074909
 10
12.4131361436
 20
29.9146058339
 10
12.4181242045
 20
29.879817034
 10
12.419475296
 20
29.8465361122
  0
LWPOLYLINE
  5
525
100
AcDbEntity
  8
0
100
AcDbPolyline
 62
253
  6
CONTINUOUS
 90
13
 70
0
 10
15.7447362817
 20
28.1736134025
 10
15.772632563
 20
28.1556489359
 10
15.7999880513
 20
28.1337654399
 10
15.8263347539
 20
28.1083373835
 10
15.8512219854
 20
28.0797998229
 10
15.8742239736
 20
28.0486410693
 10
15.8949471702
 20
28.015394365
 10
15.9130371269
 20
27.9806285523
 10
15.9281844837
 20
27.9449383911
 10
15.9401301974
 20
27.9089345243
 10
15.9486700496
 20
27.8732328672
 10
15.9536581104
 20
27.8384440673
 10
15.9550092019
 20
27.8051631455
  0
LWPOLYLINE
  5
526
100
AcDbEntity
  8
0
100
AcDbPolyline
 62
253
  6
CONTINUOUS
 90
13
 70
0
 10
19.2802701876
 20
26.1322404359
 10
19.3081664689
 20
26.1142759693
 10
19.3355219572
 20
26.0923924733
 10
19.3618686599
 20
26.0669644169
 10
19.3867558913
 20
26.0384268563
 10
19.4097578796
 20
26.0072681027
 10
19.4304810761
 20
25.9740213984
 10
19.4485710329
 20
25.9392555856
 10
19.4637183897
 20
25.9035654244
 10
19.4756641033
 20
25.8675615576
 10
19.4842039555
 20
25.8318599006
 10
19.4891920164
 20
25.7970711007
 10
19.4905431079
 20
25.7637901789
  0
LWPOLYLINE
  5
527
100
AcDbEntity
  8
0
100
AcDbPolyline
 62
7
  6
CONTINUOUS
 90
7
 70
0
 10
33.1800221695
 20
15.6181919227
 10
33.1784059666
 20
15.6756060779
 10
33.1689969131
 20
15.7668571413
 10
33.1512329676
 20
15.856993219
 10
33.1252243764
 20
15.9452564238
 10
33.0910817114
 20
16.0310454176
 10
33.0460478513
 20
16.118769415
  0
LINE
  5
528
100
AcDbEntity
  8
0
100
AcDbLine
 62
253
  6
CONTINUOUS
 10
32.8993624702
 20
15.2176824743
 11
32.8993624702
 21
-14.6732457394
  0
LINE
  5
529
100
AcDbEntity
  8
0
100
AcDbLine
 62
7
  6
CONTINUOUS
 10
33.1800226699
 20
15.6187695113
 11
33.1800226699
 21
-14.2721587024
  0
LINE
  5
52A
100
AcDbEntity
  8
0
100
AcDbLine
 62
253
  6
CONTINUOUS
 10
33.1800226699
 20
15.6187695113
 11
33.1800221695
 21
15.6181919227
  0
LWPOLYLINE
  5
52B
100
AcDbEntity
  8
0
100
AcDbPolyline
 62
253
  6
CONTINUOUS
 90
10
 70
0
 10
32.8993624702
 20
-14.6732457394
 10
32.8970636326
 20
-14.7426051482
 10
32.8893094324
 20
-14.8083853252
 10
32.8761588648
 20
-14.8700858043
 10
32.8577119814
 20
-14.9272371584
 10
32.834109129
 20
-14.9794045707
 10
32.805529882
 20
-15.026191143
 10
32.7721916757
 20
-15.0672409156
 10
32.7343481527
 20
-15.1022415752
 10
32.6985359245
 20
-15.127228293
  0
LINE
  5
52C
100
AcDbEntity
  8
0
100
AcDbLine
 62
253
  6
CONTINUOUS
 10
33.1800226699
 20
-14.2721587024
 11
33.1799581638
 21
-14.2834559304
  0
LWPOLYLINE
  5
52D
100
AcDbEntity
  8
0
100
AcDbPolyline
 62
253
  6
CONTINUOUS
 90
9
 70
0
 10
33.1769959137
 20
-14.3170479365
 10
33.1665770177
 20
-14.3665231745
 10
33.1488108704
 20
-14.4152872472
 10
33.123833333
 20
-14.4629775578
 10
33.0918340044
 20
-14.5092394315
 10
33.0530654364
 20
-14.5537180334
 10
33.0078286213
 20
-14.5960814628
 10
32.9564646649
 20
-14.6360217737
 10
32.8993624702
 20
-14.6732457394
  0
LWPOLYLINE
  5
52E
100
AcDbEntity
  8
0
100
AcDbPolyline
 62
253
  6
CONTINUOUS
 90
7
 70
0
 10
18.5555927272
 20
-27.3792370446
 10
18.5769119873
 20
-27.3649537893
 10
18.594830208
 20
-27.3491823998
 10
18.6090378863
 20
-27.3321908244
 10
18.6192896027
 20
-27.3142657251
 10
18.6254037052
 20
-27.2957152252
 10
18.6272801149
 20
-27.2780629884
  0
LINE
  5
52F
100
AcDbEntity
  8
0
100
AcDbLine
 62
253
  6
CONTINUOUS
 10
18.0283615762
 20
-27.6943731529
 11
18.5555927272
 21
-27.3792370446
  0
LINE
  5
530
100
AcDbEntity
  8
0
100
AcDbLine
 62
7
  6
CONTINUOUS
 10
17.9783128214
 20
-27.8077879661
 11
18.5055439724
 21
-27.4926518578
  0
LINE
  5
531
100
AcDbEntity
  8
0
100
AcDbLine
 62
7
  6
CONTINUOUS
 10
17.9783128214
 20
-27.8077879661
 11
17.9761316382
 21
-27.8090473553
  0
LINE
  5
532
100
AcDbEntity
  8
0
100
AcDbLine
 62
253
  6
CONTINUOUS
 10
17.0384120826
 20
-28.2461785893
 11
18.0283615762
 21
-27.6943731529
  0
LINE
  5
533
100
AcDbEntity
  8
0
100
AcDbLine
 62
7
  6
CONTINUOUS
 10
17.0384120826
 20
-28.3317649509
 11
17.9761425098
 21
-27.8090668224
  0
LWPOLYLINE
  5
534
100
AcDbEntity
  8
0
100
AcDbPolyline
 62
7
  6
CONTINUOUS
 90
3
 70
0
 10
4.4387941777
 20
34.8078357641
 10
4.538702922
 20
34.8128985142
 10
4.6395787866
 20
34.8078574815
  0
LWPOLYLINE
  5
535
100
AcDbEntity
  8
0
100
AcDbPolyline
 62
7
  6
CONTINUOUS
 90
6
 70
0
 10
4.6395787866
 20
34.8078574815
 10
4.7403864762
 20
34.7924709412
 10
4.83953301
 20
34.7667626278
 10
4.9362876391
 20
34.7307200396
 10
5.029494088
 20
34.684507807
 10
5.0400967957
 20
34.6784591433
  0
LWPOLYLINE
  5
536
100
AcDbEntity
  8
0
100
AcDbPolyline
 62
253
  6
CONTINUOUS
 90
9
 70
0
 10
4.9989829219
 20
34.6987123328
 10
4.9509565336
 20
34.714427485
 10
4.8998654942
 20
34.7234312559
 10
4.8460849433
 20
34.7256564876
 10
4.7900200083
 20
34.7210854222
 10
4.7321038871
 20
34.7097560166
 10
4.6727742676
 20
34.691759868
 10
4.6124682316
 20
34.6672353859
 10
4.5516346277
 20
34.636370015
  0
LWPOLYLINE
  5
537
100
AcDbEntity
  8
0
100
AcDbPolyline
 62
253
  6
CONTINUOUS
 90
10
 70
0
 10
12.5407396869
 20
30.3472816745
 10
12.4970030382
 20
30.3662023029
 10
12.4518243856
 20
30.3788663408
 10
12.4043721822
 20
30.3858666366
 10
12.3552859658
 20
30.3872478272
 10
12.3046011839
 20
30.3831428466
 10
12.2501233612
 20
30.3730621025
 10
12.1911672035
 20
30.3560519302
 10
12.1288349548
 20
30.3315898496
 10
12.0635189608
 20
30.2991021471
  0
LINE
  5
538
100
AcDbEntity
  8
0
100
AcDbLine
 62
253
  6
CONTINUOUS
 10
5.0393180729
 20
34.6789101709
 11
5.029494088
 21
34.684507807
  0
LWPOLYLINE
  5
539
100
AcDbEntity
  8
0
100
AcDbPolyline
 62
7
  6
CONTINUOUS
 90
6
 70
0
 10
16.0896876099
 20
28.2985620081
 10
16.0345924278
 20
28.3262860424
 10
15.9696117873
 20
28.3496671787
 10
15.900476083
 20
28.3650583743
 10
15.8276776775
 20
28.3718876334
 10
15.7521682624
 20
28.3696581805
  0
LWPOLYLINE
  5
53A
100
AcDbEntity
  8
0
100
AcDbPolyline
 62
7
  6
CONTINUOUS
 90
6
 70
0
 10
12.554153704
 20
30.3399349747
 10
12.4990585219
 20
30.3676590091
 10
12.4340778814
 20
30.3910401454
 10
12.3649421771
 20
30.4064313409
 10
12.2921437715
 20
30.4132606001
 10
12.2166343564
 20
30.4110311472
  0
LINE
  5
53B
100
AcDbEntity
  8
0
100
AcDbLine
 62
253
  6
CONTINUOUS
 10
16.0897141095
 20
28.2985499934
 11
16.0762735929
 21
28.3059087078
  0
LINE
  5
53C
100
AcDbEntity
  8
0
100
AcDbLine
 62
253
  6
CONTINUOUS
 10
12.5541802035
 20
30.33992296
 11
12.5407396869
 21
30.3472816745
  0
LINE
  5
53D
100
AcDbEntity
  8
0
100
AcDbLine
 62
253
  6
CONTINUOUS
 10
30.7446611937
 20
19.8369672166
 11
30.7441609565
 21
19.8372554699
  0
LINE
  5
53E
100
AcDbEntity
  8
0
100
AcDbLine
 62
7
  6
CONTINUOUS
 10
5.0393180729
 20
34.6789101709
 11
9.1583725368
 21
32.3006197474
  0
LINE
  5
53F
100
AcDbEntity
  8
0
100
AcDbLine
 62
7
  6
CONTINUOUS
 10
12.554181348
 20
30.3399222993
 11
12.6939064427
 21
30.2592467807
  0
LINE
  5
540
100
AcDbEntity
  8
0
100
AcDbLine
 62
7
  6
CONTINUOUS
 10
16.0897152539
 20
28.2985493326
 11
16.2294403487
 21
28.2178738141
  0
LINE
  5
541
100
AcDbEntity
  8
0
100
AcDbLine
 62
7
  6
CONTINUOUS
 10
19.6252491598
 20
26.257176366
 11
19.7649742546
 21
26.1765008474
  0
LINE
  5
542
100
AcDbEntity
  8
0
100
AcDbLine
 62
7
  6
CONTINUOUS
 10
23.1607830658
 20
24.2158033993
 11
30.7446611937
 21
19.8369672166
  0
LWPOLYLINE
  5
543
100
AcDbEntity
  8
0
100
AcDbPolyline
 62
7
  6
CONTINUOUS
 90
7
 70
0
 10
30.7441609565
 20
19.8372554699
 10
30.7930608744
 20
19.8071560332
 10
30.8673794643
 20
19.7533826692
 10
30.9365552471
 20
19.6929316364
 10
30.999987041
 20
19.626277314
 10
31.0572093539
 20
19.5538161435
 10
31.1106622152
 20
19.4709556659
  0
LWPOLYLINE
  5
544
100
AcDbEntity
  8
0
100
AcDbPolyline
 62
253
  6
CONTINUOUS
 90
10
 70
0
 10
30.2569777485
 20
19.7944270607
 10
30.3189930968
 20
19.7559658367
 10
30.3804427324
 20
19.7115321302
 10
30.4408591366
 20
19.6614639999
 10
30.4997826518
 20
19.6061423721
 10
30.5567649783
 20
19.5459881426
 10
30.6113725855
 20
19.4814589745
 10
30.6631900097
 20
19.413045816
 10
30.7118230158
 20
19.3412691655
 10
30.7569015961
 20
19.2666751111
  0
LWPOLYLINE
  5
545
100
AcDbEntity
  8
0
100
AcDbPolyline
 62
7
  6
CONTINUOUS
 90
7
 70
0
 10
33.0457626789
 20
-14.7726526399
 10
33.0918300902
 20
-14.6827768076
 10
33.1289051639
 20
-14.5877881927
 10
33.1562121557
 20
-14.4890779606
 10
33.1733749555
 20
-14.3872727186
 10
33.1799581638
 20
-14.2834559304
 10
33.1800214558
 20
-14.271258972
  0
LWPOLYLINE
  5
546
100
AcDbEntity
  8
0
100
AcDbPolyline
 62
253
  6
CONTINUOUS
 90
16
 70
0
 10
14.9541256048
 20
-34.2072446667
 10
14.9163043866
 20
-34.2369645803
 10
14.8751645327
 20
-34.2641392208
 10
14.8311471373
 20
-34.2884772069
 10
14.7847241495
 20
-34.3097175716
 10
14.7363933187
 20
-34.3276325572
 10
14.686672859
 20
-34.3420300594
 10
14.6360958796
 20
-34.3527556918
 10
14.5852046806
 20
-34.3596944369
 10
14.5345449458
 20
-34.3627718808
 10
14.484659865
 20
-34.3619550149
 10
14.4360843283
 20
-34.3572525862
 10
14.3893392007
 20
-34.3487150085
 10
14.3449257104
 20
-34.3364338192
 10
14.3033200754
 20
-34.3205406946
 10
14.264968414
 20
-34.3012060403
  0
LINE
  5
547
100
AcDbEntity
  8
0
100
AcDbLine
 62
253
  6
CONTINUOUS
 10
15.6120618047
 20
-34.4472200519
 11
17.0384120826
 21
-33.7367529849
  0
LINE
  5
548
100
AcDbEntity
  8
0
100
AcDbLine
 62
7
  6
CONTINUOUS
 10
15.4876593792
 20
-34.687104128
 11
16.9257836471
 21
-33.97077242
  0
LINE
  5
549
100
AcDbEntity
  8
0
100
AcDbLine
 62
253
  6
CONTINUOUS
 10
30.7569015961
 20
19.2666751111
 11
32.6922872324
 21
15.9144888603
  0
LINE
  5
54A
100
AcDbEntity
  8
0
100
AcDbLine
 62
7
  6
CONTINUOUS
 10
31.1106624372
 20
19.4709557625
 11
33.0460480735
 21
16.1187695117
  0
LWPOLYLINE
  5
54B
100
AcDbEntity
  8
0
100
AcDbPolyline
 62
253
  6
CONTINUOUS
 90
10
 70
0
 10
32.6922872324
 20
15.9144888603
 10
32.7343481527
 20
15.8381528725
 10
32.7721916757
 20
15.7601477811
 10
32.805529882
 20
15.6810670611
 10
32.834109129
 20
15.6015123714
 10
32.8577119814
 20
15.5220889768
 10
32.8761588648
 20
15.4434011434
 10
32.8893094324
 20
15.3660475409
 10
32.8970636326
 20
15.2906166879
 10
32.8993624702
 20
15.2176824743
  0
ELLIPSE
  5
54C
100
AcDbEntity
  8
RACCORDO
100
AcDbEllipse
 62
7
  6
CONTINUOUS
 10
16.1898839452
 20
6.6982831411
 30
0.0
 11
-0.2499740017
 21
0.433071683
 31
0.0
 40
0.5773316645
 41
-2.3560905026
 42
-0.7852941758
  0
ELLIPSE
  5
54D
100
AcDbEntity
  8
RACCORDO
100
AcDbEllipse
 62
7
  6
CONTINUOUS
 10
15.1292237734
 20
6.1072485637
 30
0.0
 11
-0.2499740017
 21
0.433071683
 31
0.0
 40
0.5773316645
 41
3.9270948046
 42
5.4978911314
  0
ELLIPSE
  5
54E
100
AcDbEntity
  8
0
100
AcDbEllipse
 62
7
  6
CONTINUOUS
 10
8.5946636062
 20
17.5892290119
 30
0.0
 11
-0.1250155585
 21
0.2165193523
 31
0.0
 40
0.5772877058
 41
-0.7854084013
 42
-0.008725556
  0
ELLIPSE
  5
54F
100
AcDbEntity
  8
0
100
AcDbEllipse
 62
7
  6
CONTINUOUS
 10
12.4483955636
 20
15.3641324783
 30
0.0
 11
-0.1250155585
 21
0.2165193523
 31
0.0
 40
0.5772877058
 41
-0.7854084013
 42
-0.008725556
  0
ELLIPSE
  5
550
100
AcDbEntity
  8
0
100
AcDbEllipse
 62
7
  6
CONTINUOUS
 10
5.3665153411
 20
19.3423873016
 30
0.0
 11
0.2107210073
 21
0.1927502658
 31
0.0
 40
0.6979176686
 41
-1.3448472085
 42
-0.5681715931
  0
ELLIPSE
  5
551
100
AcDbEntity
  8
0
100
AcDbEllipse
 62
7
  6
CONTINUOUS
 10
-1.3878971261
 20
23.3530344679
 30
0.0
 11
-0.1250060414
 21
0.2165028628
 31
0.0
 40
0.5773756362
 41
-2.3562047428
 42
-0.7854845684
  0
ELLIPSE
  5
552
100
AcDbEntity
  8
0
100
AcDbEllipse
 62
7
  6
CONTINUOUS
 10
-5.2416290836
 20
25.5781310015
 30
0.0
 11
-0.1250060414
 21
0.2165028628
 31
0.0
 40
0.5773756362
 41
-2.3562047428
 42
-0.7854845684
  0
ELLIPSE
  5
553
100
AcDbEntity
  8
0
100
AcDbEllipse
 62
7
  6
CONTINUOUS
 10
18.3772801149
 20
11.8301347844
 30
0.0
 11
0.2107210073
 21
0.1927502658
 31
0.0
 40
0.6979176686
 41
-1.3448472085
 42
-0.5681715941
  0
ELLIPSE
  5
554
100
AcDbEntity
  8
0
100
AcDbEllipse
 62
7
  6
CONTINUOUS
 10
-7.3152389705
 20
26.7754073618
 30
0.0
 11
-0.1250155585
 21
0.2165193523
 31
0.0
 40
0.5772877058
 41
-0.7854084013
 42
-0.008725556
  0
ELLIPSE
  5
555
100
AcDbEntity
  8
0
100
AcDbEllipse
 62
7
  6
CONTINUOUS
 10
-3.4615070131
 20
24.5503108282
 30
0.0
 11
-0.1250155585
 21
0.2165193523
 31
0.0
 40
0.5772877058
 41
-0.7854084013
 42
-0.008725556
  0
ELLIPSE
  5
556
100
AcDbEntity
  8
0
100
AcDbEllipse
 62
7
  6
CONTINUOUS
 10
2.4673775382
 20
21.0163131343
 30
0.0
 11
0.2107210073
 21
0.1927502658
 31
0.0
 40
0.6979176686
 41
-1.3448472085
 42
-0.5681715941
  0
ELLIPSE
  5
557
100
AcDbEntity
  8
0
100
AcDbEllipse
 62
7
  6
CONTINUOUS
 10
-10.5433872356
 20
28.5285656515
 30
0.0
 11
0.2107210073
 21
0.1927502658
 31
0.0
 40
0.6979176686
 41
-1.3448472085
 42
-0.5681715941
  0
ELLIPSE
  5
558
100
AcDbEntity
  8
0
100
AcDbEllipse
 62
7
  6
CONTINUOUS
 10
10.6682734931
 20
16.3919526516
 30
0.0
 11
-0.1250060414
 21
0.2165028628
 31
0.0
 40
0.5773756362
 41
-2.3562047428
 42
-0.7854845684
  0
ELLIPSE
  5
559
100
AcDbEntity
  8
0
100
AcDbEllipse
 62
7
  6
CONTINUOUS
 10
14.5220054506
 20
14.166856118
 30
0.0
 11
-0.1250060414
 21
0.2165028628
 31
0.0
 40
0.5773756362
 41
-2.3562047428
 42
-0.7854845684
  0
ELLIPSE
  5
55A
100
AcDbEntity
  8
0
100
AcDbEllipse
 62
7
  6
CONTINUOUS
 10
3.9339767973
 20
26.1085123203
 30
0.0
 11
2.0175113422
 21
-0.015116577
 31
0.0
 40
0.5723275643
 41
2.3692093803
 42
2.4651370891
  0
ELLIPSE
  5
55B
100
AcDbEntity
  8
0
100
AcDbEllipse
 62
7
  6
CONTINUOUS
 10
7.4695107033
 20
24.0671393536
 30
0.0
 11
2.0175113422
 21
-0.015116577
 31
0.0
 40
0.5723275643
 41
2.3692093803
 42
2.4651370891
  0
ELLIPSE
  5
55C
100
AcDbEntity
  8
0
100
AcDbEllipse
 62
7
  6
CONTINUOUS
 10
11.0050446092
 20
22.025766387
 30
0.0
 11
2.0175113422
 21
-0.015116577
 31
0.0
 40
0.5723275643
 41
2.3692093803
 42
2.4651370891
  0
ELLIPSE
  5
55D
100
AcDbEntity
  8
0
100
AcDbEllipse
 62
7
  6
CONTINUOUS
 10
14.5405785151
 20
19.9843934204
 30
0.0
 11
2.0175113422
 21
-0.015116577
 31
0.0
 40
0.5723275643
 41
2.3692093803
 42
2.4651385398
  0
ELLIPSE
  5
55E
100
AcDbEntity
  8
0
100
AcDbEllipse
 62
7
  6
CONTINUOUS
 10
18.9857282816
 20
-25.4975688533
 30
0.0
 11
-0.2500882309
 21
0.4331376414
 31
0.0
 40
0.5771558487
 41
-3.1241453804
 42
-2.3563950755
  0
ELLIPSE
  5
55F
100
AcDbEntity
  8
0
100
AcDbEllipse
 62
7
  6
CONTINUOUS
 10
18.9857282816
 20
10.2352018155
 30
0.0
 11
-0.2500120911
 21
0.4330057209
 31
0.0
 40
0.5775075436
 41
-2.3560905478
 42
-0.7855988075
  0
ELLIPSE
  5
560
100
AcDbEntity
  8
0
100
AcDbEllipse
 62
7
  6
CONTINUOUS
 10
-11.9606862117
 20
26.6351001475
 30
0.0
 11
0.249894357
 21
0.0119767658
 31
0.0
 40
0.6067642562
 41
-2.385266879
 42
-0.8231971985
  0
ELLIPSE
  5
561
100
AcDbEntity
  8
0
100
AcDbEllipse
 62
7
  6
CONTINUOUS
 10
-12.9351951741
 20
27.1977694089
 30
0.0
 11
0.249894357
 21
0.0119767658
 31
0.0
 40
0.6067642562
 41
3.1125202648
 42
3.8979184282
  0
ELLIPSE
  5
562
100
AcDbEntity
  8
0
100
AcDbEllipse
 62
7
  6
CONTINUOUS
 10
0.0755695997
 20
19.6855168917
 30
0.0
 11
0.249894357
 21
0.0119767658
 31
0.0
 40
0.6067642562
 41
3.1125202648
 42
3.8979184282
  0
ELLIPSE
  5
563
100
AcDbEntity
  8
0
100
AcDbEllipse
 62
7
  6
CONTINUOUS
 10
1.0500785621
 20
19.1228476303
 30
0.0
 11
0.249894357
 21
0.0119767658
 31
0.0
 40
0.6067642562
 41
-2.385266879
 42
-0.8231971985
  0
ELLIPSE
  5
564
100
AcDbEntity
  8
0
100
AcDbEllipse
 62
7
  6
CONTINUOUS
 10
-8.5542185445
 20
25.0979176999
 30
0.0
 11
0.249894357
 21
0.0119767658
 31
0.0
 40
0.6067642562
 41
3.1125202648
 42
3.8979184282
  0
ELLIPSE
  5
565
100
AcDbEntity
  8
0
100
AcDbEllipse
 62
7
  6
CONTINUOUS
 10
-6.1208844395
 20
24.1226103748
 30
0.0
 11
0.249894357
 21
0.0119767658
 31
0.0
 40
0.6067642562
 41
-2.385266879
 42
-0.8231971985
  0
ELLIPSE
  5
566
100
AcDbEntity
  8
0
100
AcDbEllipse
 62
7
  6
CONTINUOUS
 10
-4.3500186101
 20
23.1001346391
 30
0.0
 11
0.249894357
 21
0.0119767658
 31
0.0
 40
0.6067642562
 41
3.1125202648
 42
3.8979184282
  0
ELLIPSE
  5
567
100
AcDbEntity
  8
0
100
AcDbEllipse
 62
7
  6
CONTINUOUS
 10
-2.6237912863
 20
21.6737633267
 30
0.0
 11
0.249894357
 21
0.0119767658
 31
0.0
 40
0.6067642562
 41
-2.385266879
 42
-0.8231971985
  0
ELLIPSE
  5
568
100
AcDbEntity
  8
0
100
AcDbEllipse
 62
7
  6
CONTINUOUS
 10
18.3772801149
 20
-26.7981557239
 30
0.0
 11
0.2492639159
 21
-0.0877640908
 31
0.0
 40
0.2184298243
 41
-0.6999149902
 42
0.8621546903
  0
ELLIPSE
  5
569
100
AcDbEntity
  8
0
100
AcDbEllipse
 62
7
  6
CONTINUOUS
 10
15.9854721764
 20
10.4993385418
 30
0.0
 11
0.249894357
 21
0.0119767658
 31
0.0
 40
0.6067642562
 41
3.1125202648
 42
3.8979184282
  0
ELLIPSE
  5
56A
100
AcDbEntity
  8
0
100
AcDbEllipse
 62
7
  6
CONTINUOUS
 10
16.9599811388
 20
9.9366692804
 30
0.0
 11
0.249894357
 21
0.0119767658
 31
0.0
 40
0.6067642562
 41
-2.385266879
 42
-0.8231971985
  0
ELLIPSE
  5
56B
100
AcDbEntity
  8
0
100
AcDbEllipse
 62
7
  6
CONTINUOUS
 10
3.949216365
 20
17.4489217976
 30
0.0
 11
0.249894357
 21
0.0119767658
 31
0.0
 40
0.6067642562
 41
-2.385266879
 42
-0.8231971985
  0
ELLIPSE
  5
56C
100
AcDbEntity
  8
0
100
AcDbEllipse
 62
7
  6
CONTINUOUS
 10
2.9747074026
 20
18.0115910591
 30
0.0
 11
0.249894357
 21
0.0119767658
 31
0.0
 40
0.6067642562
 41
3.1125202648
 42
3.8979184282
  0
ELLIPSE
  5
56D
100
AcDbEntity
  8
0
100
AcDbEllipse
 62
7
  6
CONTINUOUS
 10
7.3556840322
 20
15.91173935
 30
0.0
 11
0.249894357
 21
0.0119767658
 31
0.0
 40
0.6067642562
 41
3.1125202648
 42
3.8979184282
  0
ELLIPSE
  5
56E
100
AcDbEntity
  8
0
100
AcDbEllipse
 62
7
  6
CONTINUOUS
 10
9.7890181372
 20
14.936432025
 30
0.0
 11
0.249894357
 21
0.0119767658
 31
0.0
 40
0.6067642562
 41
-2.385266879
 42
-0.8231971985
  0
ELLIPSE
  5
56F
100
AcDbEntity
  8
0
100
AcDbEllipse
 62
7
  6
CONTINUOUS
 10
11.5598839666
 20
13.9139562892
 30
0.0
 11
0.249894357
 21
0.0119767658
 31
0.0
 40
0.6067642562
 41
3.1125202648
 42
3.8979184282
  0
ELLIPSE
  5
570
100
AcDbEntity
  8
0
100
AcDbEllipse
 62
7
  6
CONTINUOUS
 10
13.2861112904
 20
12.4875849768
 30
0.0
 11
0.249894357
 21
0.0119767658
 31
0.0
 40
0.6067642562
 41
-2.385266879
 42
-0.8231971985
  0
ELLIPSE
  5
571
100
AcDbEntity
  8
0
100
AcDbEllipse
 62
7
  6
CONTINUOUS
 10
-14.6567593054
 20
26.2791410676
 30
0.0
 11
-0.2496303025
 21
0.4334023309
 31
0.0
 40
0.5778584463
 41
-0.7846820092
 42
0.7313187993
  0
ELLIPSE
  5
572
100
AcDbEntity
  8
0
100
AcDbEllipse
 62
7
  6
CONTINUOUS
 10
16.206671536
 20
8.4589829094
 30
0.0
 11
-0.2498600223
 21
0.43379745
 31
0.0
 40
0.5768037941
 41
-2.355482613
 42
-0.7837728977
  0
ELLIPSE
  5
573
100
AcDbEntity
  8
0
100
AcDbEllipse
 62
7
  6
CONTINUOUS
 10
8.3127944909
 20
30.0393171941
 30
0.0
 11
0.1480592584
 21
0.2609249966
 31
0.0
 40
0.5722717666
 41
-0.7896376749
 42
0.7724320056
  0
ELLIPSE
  5
574
100
AcDbEntity
  8
0
100
AcDbEllipse
 62
7
  6
CONTINUOUS
 10
18.9193962087
 20
23.9151982942
 30
0.0
 11
0.1480592584
 21
0.2609249966
 31
0.0
 40
0.5722717666
 41
-0.7896376749
 42
0.7724320056
  0
ELLIPSE
  5
575
100
AcDbEntity
  8
0
100
AcDbEllipse
 62
7
  6
CONTINUOUS
 10
15.3838623028
 20
25.9565712609
 30
0.0
 11
0.1480592584
 21
0.2609249966
 31
0.0
 40
0.5722717666
 41
-0.7896376749
 42
0.7724320056
  0
ELLIPSE
  5
576
100
AcDbEntity
  8
0
100
AcDbEllipse
 62
7
  6
CONTINUOUS
 10
11.8483283968
 20
27.9979442275
 30
0.0
 11
0.1480592584
 21
0.2609249966
 31
0.0
 40
0.5722717666
 41
-0.7896376749
 42
0.7724320056
  0
ELLIPSE
  5
577
100
AcDbEntity
  8
0
100
AcDbEllipse
 62
7
  6
CONTINUOUS
 10
16.6848048359
 20
-33.5322112034
 30
0.0
 11
-0.2498600223
 21
0.43379745
 31
0.0
 40
0.5768037941
 41
-3.1764860357
 42
-2.355482613
  0
ELLIPSE
  5
578
100
AcDbEntity
  8
0
100
AcDbEllipse
 62
7
  6
CONTINUOUS
 10
16.6848048359
 20
3.7793599663
 30
0.0
 11
-0.2496303025
 21
0.4334023309
 31
0.0
 40
0.5778584463
 41
-2.3545649475
 42
-0.7846820092
  0
ELLIPSE
  5
579
100
AcDbEntity
  8
0
100
AcDbEllipse
 62
7
  6
CONTINUOUS
 10
13.1149098487
 20
1.6999242493
 30
0.0
 11
0.7009987573
 21
0.7487818406
 31
0.0
 40
0.1950293141
 41
0.8831982376
 42
1.0926377479
  0
ELLIPSE
  5
57A
100
AcDbEntity
  8
0
100
AcDbEllipse
 62
7
  6
CONTINUOUS
 10
15.9352950467
 20
8.4506204657
 30
0.0
 11
-0.2500120911
 21
0.4330057209
 31
0.0
 40
0.5775075436
 41
-2.3560905478
 42
-0.7855988075
  0
ELLIPSE
  5
57B
100
AcDbEntity
  8
0
100
AcDbEllipse
 62
7
  6
CONTINUOUS
 10
-14.6682255286
 20
26.1207096936
 30
0.0
 11
-0.2500882309
 21
0.4331376414
 31
0.0
 40
0.5771558487
 41
-0.7852941622
 42
-0.0174471304
  0
ELLIPSE
  5
57C
100
AcDbEntity
  8
0
100
AcDbEllipse
 62
7
  6
CONTINUOUS
 10
-24.3272807607
 20
27.4592241876
 30
0.0
 11
-0.2498600223
 21
0.43379745
 31
0.0
 40
0.5768037941
 41
-0.7837728977
 42
0.0348933813
  0
ELLIPSE
  5
57D
100
AcDbEntity
  8
0
100
AcDbEllipse
 62
7
  6
CONTINUOUS
 10
-1.2535038925
 20
6.8735626071
 30
0.0
 11
0.5648228186
 21
0.1743596436
 31
0.0
 40
0.5943281464
 41
-0.2581406827
 42
0.50375177
  0
ELLIPSE
  5
57E
100
AcDbEntity
  8
0
100
AcDbEllipse
 62
7
  6
CONTINUOUS
 10
-15.0075158377
 20
14.814956726
 30
0.0
 11
0.4681907408
 21
0.2481640843
 31
0.0
 40
0.7396105969
 41
0.4339943343
 42
1.1958867869
  0
ELLIPSE
  5
57F
100
AcDbEntity
  8
0
100
AcDbEllipse
 62
7
  6
CONTINUOUS
 10
8.4368678115
 20
-1.5050254433
 30
0.0
 11
0.4427943217
 21
0.250032016
 31
0.0
 40
0.8538860366
 41
-2.6748233509
 42
-1.3335903731
  0
ELLIPSE
  5
580
100
AcDbEntity
  8
0
100
AcDbEllipse
 62
7
  6
CONTINUOUS
 10
-29.3235410417
 20
19.9309733372
 30
0.0
 11
0.6662008516
 21
0.783243265
 31
0.0
 40
0.4013586625
 41
0.0733991677
 42
1.2046969342
  0
ELLIPSE
  5
581
100
AcDbEntity
  8
0
100
AcDbEllipse
 62
7
  6
CONTINUOUS
 10
-29.1487648084
 20
20.0822032569
 30
0.0
 11
0.6174069843
 21
0.1194796186
 31
0.0
 40
0.5578783048
 41
2.3716616919
 42
3.0682882688
  0
ELLIPSE
  5
582
100
AcDbEntity
  8
0
100
AcDbEllipse
 62
7
  6
CONTINUOUS
 10
-0.7188441876
 20
8.0524824925
 30
0.0
 11
0.6405805208
 21
0.6230113239
 31
0.0
 40
0.4556084148
 41
-0.6337177639
 42
0.1281746887
  0
ELLIPSE
  5
583
100
AcDbEntity
  8
0
100
AcDbEllipse
 62
7
  6
CONTINUOUS
 10
-14.9679761143
 20
16.2797526834
 30
0.0
 11
0.3359755251
 21
0.8052002193
 31
0.0
 40
0.477908955
 41
-0.0615921976
 42
0.7003002551
  0
ELLIPSE
  5
584
100
AcDbEntity
  8
0
100
AcDbEllipse
 62
7
  6
CONTINUOUS
 10
13.0170190038
 20
2.4891194859
 30
0.0
 11
0.792293723
 21
0.2253637669
 31
0.0
 40
0.3898616163
 41
5.5133468654
 42
6.6446446319
  0
ELLIPSE
  5
585
100
AcDbEntity
  8
0
100
AcDbEllipse
 62
7
  6
CONTINUOUS
 10
-26.9407526464
 20
25.5602360482
 30
0.0
 11
0.573150186
 21
0.3698534857
 31
0.0
 40
0.568519923
 41
0.2838538993
 42
1.4151516658
  0
ELLIPSE
  5
586
100
AcDbEntity
  8
0
100
AcDbEllipse
 62
7
  6
CONTINUOUS
 10
-26.8988964559
 20
24.8033945188
 30
0.0
 11
-0.2260065885
 21
1.0721778172
 31
0.0
 40
0.7908072398
 41
0.2206190686
 42
0.4300585788
  0
ELLIPSE
  5
587
100
AcDbEntity
  8
0
100
AcDbEllipse
 62
7
  6
CONTINUOUS
 10
-31.4428477792
 20
21.5210225286
 30
0.0
 11
0.6098227876
 21
0.123707728
 31
0.0
 40
0.5702671111
 41
2.3734058211
 42
3.6817357606
  0
ENDSEC
  0
SECTION
  2
OBJECTS
  0
DICTIONARY
  5
C
100
AcDbDictionary
280
0
281
1
  3
ACAD_GROUP
350
D
  3
ACAD_MLINESTYLE
350
17
  3
ACAD_LAYOUT
350
1A
  3
ACAD_PLOTSETTINGS
350
19
  3
ACAD_PLOTSTYLENAME
350
E
  0
DICTIONARY
  5
D
102
{ACAD_REACTORS
330
C
102
}
100
AcDbDictionary
280
0
281
1
  0
ACDBDICTIONARYWDFLT
  5
E
102
{ACAD_REACTORS
330
C
102
}
100
AcDbDictionary
281
1
  3
Normal
350
F
100
AcDbDictionaryWithDefault
340
F
  0
DICTIONARY
  5
17
102
{ACAD_REACTORS
330
C
102
}
100
AcDbDictionary
280
0
281
1
  3
Standard
350
18
  0
DICTIONARY
  5
19
102
{ACAD_REACTORS
330
C
102
}
100
AcDbDictionary
281
1
  0
DICTIONARY
  5
1A
102
{ACAD_REACTORS
330
C
102
}
100
AcDbDictionary
281
1
  3
Model
350
588
  3
Layout1
350
589
  0
ACDBPLACEHOLDER
  5
F
102
{ACAD_REACTORS
330
E
102
}
  0
MLINESTYLE
  5
18
102
{ACAD_REACTORS
330
17
102
}
100
AcDbMlineStyle
  2
STANDARD
 70
0
  3

 62
256
 51
90.0
 52
90.0
 71
2
 49
0.5
 62
256
  6
BYLAYER
 49
-0.5
 62
256
  6
BYLAYER
  0
LAYOUT
  5
588
102
{ACAD_REACTORS
330
1A
102
}
100
AcDbPlotSettings
  1

  2
none_device
  4

  6

 40
0.0
 41
0.0
 42
0.0
 43
0.0
 44
210.0
 45
297.0
 46
0.0
 47
0.0
 48
0.0
 49
0.0
140
0.0
141
0.0
142
1.0
143
1.0
 70
1024
 72
1
 73
0
 74
0
  7

 75
0
147
1.0
148
0.0
149
0.0
100
AcDbLayout
  1
Model
 70
0
 71
0
 10
0.0
 20
0.0
 11
210.0
 21
297.0
 12
0.0
 22
0.0
 32
0.0
 14
0.0
 24
0.0
 34
0.0
 15
0.0
 25
0.0
 35
0.0
146
0.0
 13
0.0
 23
0.0
 33
0.0
 16
1.0
 26
0.0
 36
0.0
 17
0.0
 27
1.0
 37
0.0
 76
0
330
23B
345
0
346
0
  0
LAYOUT
  5
589
102
{ACAD_REACTORS
330
1A
102
}
100
AcDbPlotSettings
  1

  2
none_device
  4

  6

 40
0.0
 41
0.0
 42
0.0
 43
0.0
 44
210.0
 45
297.0
 46
0.0
 47
0.0
 48
0.0
 49
0.0
140
0.0
141
0.0
142
1.0
143
1.0
 70
0
 72
1
 73
0
 74
0
  7

 75
0
147
1.0
148
0.0
149
0.0
100
AcDbLayout
  1
Layout1
 70
0
 71
1
 10
0.0
 20
0.0
 11
210.0
 21
297.0
 12
0.0
 22
0.0
 32
0.0
 14
0.0
 24
0.0
 34
0.0
 15
0.0
 25
0.0
 35
0.0
146
0.0
 13
0.0
 23
0.0
 33
0.0
 16
1.0
 26
0.0
 36
0.0
 17
0.0
 27
1.0
 37
0.0
 76
0
330
23C
345
0
346
0
  0
ENDSEC
  0
EOF
