  0
SECTION
  2
HEADER
  9
$ACADVER
  1
AC1021
  9
$DWGCODEPAGE
  3
ANSI_1252
  9
$EXTMAX
 10
297.0
 20
210.0
 30
0.0
  9
$EXTMIN
 10
0.0
 20
0.0
 30
0.0
  9
$LIMMIN
 10
0.0
 20
0.0
  9
$LIMMAX
 10
297.0
 20
210.0
  9
$VIEWCTR
 10
148.5
 20
105.0
  9
$VIEWSIZE
 40
210.0
  9
$CLAYER
  8
0
  9
$LTSCALE
 40
16.335
  9
$CELTYPE
  6
BYLAYER
  9
$DIMSCALE
 40
1.0
  9
$DIMASZ
 40
3.0
  9
$DIMEXO
 40
0.5
  9
$DIMDLI
 40
11.286
  9
$DIMEXE
 40
1.5
  9
$DIMCEN
 40
2.673
  9
$DIMLFAC
 40
1.0
  9
$DIMBLK
  1
_FILLED
  9
$DIMALT
 70
0
  9
$DIMALTF
 40
25.4
  9
$DIMTXT
 40
3.0
  9
$DIMTOL
 70
1
  9
$DIMLIM
 70
0
  9
$DIMTFAC
 40
1.0
  9
$DIMTP
 40
0.01
  9
$DIMTM
 40
0.01
  9
$DIMGAP
 40
0.625
  9
$DIMDSEP
 70
44
  9
$AUNITS
 70
0
  9
$PDMODE
 70
3
  9
$PDSIZE
 40
3.0
  9
$HANDSEED
  5
662
  9
$TILEMODE
 70
1
  9
$MEASUREMENT
 70
1
  9
$INSUNITS
 70
4
  0
ENDSEC
  0
SECTION
  2
CLASSES
  0
CLASS
  1
ACDBDICTIONARYWDFLT
  2
AcDbDictionaryWithDefault
  3
AutoCAD 2000
 90
0
 91
1
280
0
281
0
  0
CLASS
  1
ACDBPLACEHOLDER
  2
AcDbPlaceHolder
  3
AutoCAD 2000
 90
0
 91
1
280
0
281
0
  0
CLASS
  1
LAYOUT
  2
AcDbLayout
  3
AutoCAD 2000
 90
0
 91
0
280
0
281
0
  0
ENDSEC
  0
SECTION
  2
TABLES
  0
TABLE
  2
VPORT
  5
8
100
AcDbSymbolTable
 70
2
  0
VPORT
  5
1F4
100
AcDbSymbolTableRecord
100
AcDbViewportTableRecord
  2
*ACTIVE
 70
0
 10
0.0
 20
0.0
 11
1.0
 21
1.0
 12
148.5
 22
105.0
 13
0.0
 23
0.0
 14
1.0
 24
1.0
 15
0.0
 25
0.0
 16
0.0
 26
0.0
 36
1.0
 17
0.0
 27
0.0
 37
0.0
 40
210.0
 41
1.4142857143
 42
50.0
 43
0.0
 44
0.0
 50
0.0
 51
0.0
 71
0
 72
100
 73
1
 74
1
 75
0
 76
0
 77
0
 78
0
  0
ENDTAB
  0
TABLE
  2
LTYPE
  5
5
100
AcDbSymbolTable
 70
6
  0
LTYPE
  5
14
100
AcDbSymbolTableRecord
100
AcDbLinetypeTableRecord
  2
BYBLOCK
 70
0
  3

 72
65
 73
0
 40
0.0
  0
LTYPE
  5
15
100
AcDbSymbolTableRecord
100
AcDbLinetypeTableRecord
  2
BYLAYER
 70
0
  3

 72
65
 73
0
 40
0.0
  0
LTYPE
  5
16
100
AcDbSymbolTableRecord
100
AcDbLinetypeTableRecord
  2
CONTINUOUS
 70
64
  3
Solid line
 72
65
 73
0
 40
0.0
  0
LTYPE
  5
1F5
100
AcDbSymbolTableRecord
100
AcDbLinetypeTableRecord
  2
CENTER
 70
64
  3
____ _ ____ _ ____ _ ____ _ ____ _ ____ _ ____
 72
65
 73
4
 40
0.6
 49
0.375
 74
0
 49
-0.075
 74
0
 49
0.075
 74
0
 49
-0.075
 74
0
  0
LTYPE
  5
1F6
100
AcDbSymbolTableRecord
100
AcDbLinetypeTableRecord
  2
HIDDEN
 70
64
  3
- - - - - - - - - - - - - - - - - - - -
 72
65
 73
2
 40
0.2
 49
0.1
 74
0
 49
-0.1
 74
0
  0
LTYPE
  5
1F7
100
AcDbSymbolTableRecord
100
AcDbLinetypeTableRecord
  2
PHANTOM
 70
64
  3
_____ _ _ _____ _ _ _____ _ _ _____
 72
65
 73
6
 40
0.8
 49
0.45
 74
0
 49
-0.05
 74
0
 49
0.1
 74
0
 49
-0.05
 74
0
 49
0.1
 74
0
 49
-0.05
 74
0
  0
LTYPE
  5
1F8
100
AcDbSymbolTableRecord
100
AcDbLinetypeTableRecord
  2
DOT
 70
64
  3
. . . . . . . . . . . . . . . . . . . .
 72
65
 73
2
 40
0.2
 49
0.1
 74
0
 49
-0.1
 74
0
  0
LTYPE
  5
1F9
100
AcDbSymbolTableRecord
100
AcDbLinetypeTableRecord
  2
DASHED
 70
64
  3
- - - - - - - - - - - - - - - - - - - -
 72
65
 73
2
 40
0.2
 49
0.1
 74
0
 49
-0.1
 74
0
  0
ENDTAB
  0
TABLE
  2
LAYER
  5
2
100
AcDbSymbolTable
 70
36
  0
LAYER
  5
10
100
AcDbSymbolTableRecord
100
AcDbLayerTableRecord
  2
0
 70
0
 62
7
  6
CONTINUOUS
370
-3
390
F
  0
LAYER
  5
1FA
100
AcDbSymbolTableRecord
100
AcDbLayerTableRecord
  2
DEFAULT_1
 70
0
 62
7
  6
CENTER
370
-3
390
F
  0
LAYER
  5
1FB
100
AcDbSymbolTableRecord
100
AcDbLayerTableRecord
  2
DEFAULT_2
 70
0
 62
7
  6
HIDDEN
370
-3
390
F
  0
LAYER
  5
1FC
100
AcDbSymbolTableRecord
100
AcDbLayerTableRecord
  2
DEFAULT_3
 70
0
 62
7
  6
PHANTOM
370
-3
390
F
  0
LAYER
  5
1FD
100
AcDbSymbolTableRecord
100
AcDbLayerTableRecord
  2
06___PRT_ALL_SURFS
 70
0
 62
7
  6
CONTINUOUS
370
-3
390
F
  0
LAYER
  5
1FE
100
AcDbSymbolTableRecord
100
AcDbLayerTableRecord
  2
06___PRT_ALL_SURFS_1
 70
0
 62
7
  6
CONTINUOUS
370
-3
390
F
  0
LAYER
  5
1FF
100
AcDbSymbolTableRecord
100
AcDbLayerTableRecord
  2
06___PRT_ALL_SURFS_13
 70
0
 62
7
  6
CONTINUOUS
370
-3
390
F
  0
LAYER
  5
200
100
AcDbSymbolTableRecord
100
AcDbLayerTableRecord
  2
06___PRT_ALL_SURFS_18
 70
0
 62
7
  6
CONTINUOUS
370
-3
390
F
  0
LAYER
  5
201
100
AcDbSymbolTableRecord
100
AcDbLayerTableRecord
  2
06___PRT_ALL_SURFS_39
 70
0
 62
7
  6
CONTINUOUS
370
-3
390
F
  0
LAYER
  5
202
100
AcDbSymbolTableRecord
100
AcDbLayerTableRecord
  2
06___PRT_ALL_SURFS_6
 70
0
 62
7
  6
CONTINUOUS
370
-3
390
F
  0
LAYER
  5
203
100
AcDbSymbolTableRecord
100
AcDbLayerTableRecord
  2
1608-FL-RF-VIMAR_80000
 70
0
 62
7
  6
CONTINUOUS
370
-3
390
F
  0
LAYER
  5
204
100
AcDbSymbolTableRecord
100
AcDbLayerTableRecord
  2
1608-FL-RF-VIMAR_80000_1
 70
0
 62
7
  6
CONTINUOUS
370
-3
390
F
  0
LAYER
  5
205
100
AcDbSymbolTableRecord
100
AcDbLayerTableRecord
  2
2125-CC-RF-VIMAR_110000
 70
0
 62
7
  6
CONTINUOUS
370
-3
390
F
  0
LAYER
  5
206
100
AcDbSymbolTableRecord
100
AcDbLayerTableRecord
  2
2125-CC-RF-VIMAR_110000_1
 70
0
 62
7
  6
CONTINUOUS
370
-3
390
F
  0
LAYER
  5
207
100
AcDbSymbolTableRecord
100
AcDbLayerTableRecord
  2
2125-CC-RF-VIMAR_110000_2
 70
0
 62
7
  6
CONTINUOUS
370
-3
390
F
  0
LAYER
  5
208
100
AcDbSymbolTableRecord
100
AcDbLayerTableRecord
  2
2125-DL-RF-FINE_VIMAR_110000
 70
0
 62
7
  6
CONTINUOUS
370
-3
390
F
  0
LAYER
  5
209
100
AcDbSymbolTableRecord
100
AcDbLayerTableRecord
  2
2125-DL-RF-FINE_VIMAR_110000_1
 70
0
 62
7
  6
CONTINUOUS
370
-3
390
F
  0
LAYER
  5
20A
100
AcDbSymbolTableRecord
100
AcDbLayerTableRecord
  2
2125-R1-RF-VIMAR_60000
 70
0
 62
7
  6
CONTINUOUS
370
-3
390
F
  0
LAYER
  5
20B
100
AcDbSymbolTableRecord
100
AcDbLayerTableRecord
  2
2125-R1-RF-VIMAR_60000_1
 70
0
 62
7
  6
CONTINUOUS
370
-3
390
F
  0
LAYER
  5
20C
100
AcDbSymbolTableRecord
100
AcDbLayerTableRecord
  2
2125-R1-RF-VIMAR_60000_2
 70
0
 62
7
  6
CONTINUOUS
370
-3
390
F
  0
LAYER
  5
20D
100
AcDbSymbolTableRecord
100
AcDbLayerTableRecord
  2
2125-R1-RF-VIMAR_60000_3
 70
0
 62
7
  6
CONTINUOUS
370
-3
390
F
  0
LAYER
  5
20E
100
AcDbSymbolTableRecord
100
AcDbLayerTableRecord
  2
2125-R1-RF-VIMAR_60000_4
 70
0
 62
7
  6
CONTINUOUS
370
-3
390
F
  0
LAYER
  5
20F
100
AcDbSymbolTableRecord
100
AcDbLayerTableRecord
  2
3216-CF-RF-VIMAR_100000
 70
0
 62
7
  6
CONTINUOUS
370
-3
390
F
  0
LAYER
  5
210
100
AcDbSymbolTableRecord
100
AcDbLayerTableRecord
  2
3216-CF-RF-VIMAR_100000_1
 70
0
 62
7
  6
CONTINUOUS
370
-3
390
F
  0
LAYER
  5
211
100
AcDbSymbolTableRecord
100
AcDbLayerTableRecord
  2
3216-R1-RF-VIMAR_60000
 70
0
 62
7
  6
CONTINUOUS
370
-3
390
F
  0
LAYER
  5
212
100
AcDbSymbolTableRecord
100
AcDbLayerTableRecord
  2
43000771A0
 70
0
 62
7
  6
CONTINUOUS
370
-3
390
F
  0
LAYER
  5
213
100
AcDbSymbolTableRecord
100
AcDbLayerTableRecord
  2
43000772A0
 70
0
 62
7
  6
CONTINUOUS
370
-3
390
F
  0
LAYER
  5
214
100
AcDbSymbolTableRecord
100
AcDbLayerTableRecord
  2
43000773A0
 70
0
 62
7
  6
CONTINUOUS
370
-3
390
F
  0
LAYER
  5
215
100
AcDbSymbolTableRecord
100
AcDbLayerTableRecord
  2
43000773A1
 70
0
 62
7
  6
CONTINUOUS
370
-3
390
F
  0
LAYER
  5
216
100
AcDbSymbolTableRecord
100
AcDbLayerTableRecord
  2
43000773A1_1
 70
0
 62
7
  6
CONTINUOUS
370
-3
390
F
  0
LAYER
  5
217
100
AcDbSymbolTableRecord
100
AcDbLayerTableRecord
  2
43900771A0
 70
0
 62
7
  6
CONTINUOUS
370
-3
390
F
  0
LAYER
  5
218
100
AcDbSymbolTableRecord
100
AcDbLayerTableRecord
  2
43900772A0
 70
0
 62
7
  6
CONTINUOUS
370
-3
390
F
  0
LAYER
  5
219
100
AcDbSymbolTableRecord
100
AcDbLayerTableRecord
  2
ASSI
 70
0
 62
7
  6
CONTINUOUS
370
-3
390
F
  0
LAYER
  5
21A
100
AcDbSymbolTableRecord
100
AcDbLayerTableRecord
  2
BZ-BST-0841A_450000
 70
0
 62
7
  6
CONTINUOUS
370
-3
390
F
  0
LAYER
  5
21B
100
AcDbSymbolTableRecord
100
AcDbLayerTableRecord
  2
CAP-E-SMD-10_8-10_8-5_5_580000
 70
0
 62
7
  6
CONTINUOUS
370
-3
390
F
  0
LAYER
  5
21C
100
AcDbSymbolTableRecord
100
AcDbLayerTableRecord
  2
CAPC1608N_80000
 70
0
 62
7
  6
CONTINUOUS
370
-3
390
F
  0
LAYER
  5
21D
100
AcDbSymbolTableRecord
100
AcDbLayerTableRecord
  2
CAPC1608N_80000_1
 70
0
 62
7
  6
CONTINUOUS
370
-3
390
F
  0
LAYER
  5
21E
100
AcDbSymbolTableRecord
100
AcDbLayerTableRecord
  2
CAPC1608N_80000_10
 70
0
 62
7
  6
CONTINUOUS
370
-3
390
F
  0
LAYER
  5
21F
100
AcDbSymbolTableRecord
100
AcDbLayerTableRecord
  2
CAPC1608N_80000_11
 70
0
 62
7
  6
CONTINUOUS
370
-3
390
F
  0
LAYER
  5
220
100
AcDbSymbolTableRecord
100
AcDbLayerTableRecord
  2
CAPC1608N_80000_12
 70
0
 62
7
  6
CONTINUOUS
370
-3
390
F
  0
LAYER
  5
221
100
AcDbSymbolTableRecord
100
AcDbLayerTableRecord
  2
CAPC1608N_80000_13
 70
0
 62
7
  6
CONTINUOUS
370
-3
390
F
  0
LAYER
  5
222
100
AcDbSymbolTableRecord
100
AcDbLayerTableRecord
  2
CAPC1608N_80000_14
 70
0
 62
7
  6
CONTINUOUS
370
-3
390
F
  0
LAYER
  5
223
100
AcDbSymbolTableRecord
100
AcDbLayerTableRecord
  2
CAPC1608N_80000_15
 70
0
 62
7
  6
CONTINUOUS
370
-3
390
F
  0
LAYER
  5
224
100
AcDbSymbolTableRecord
100
AcDbLayerTableRecord
  2
CAPC1608N_80000_16
 70
0
 62
7
  6
CONTINUOUS
370
-3
390
F
  0
LAYER
  5
225
100
AcDbSymbolTableRecord
100
AcDbLayerTableRecord
  2
CAPC1608N_80000_17
 70
0
 62
7
  6
CONTINUOUS
370
-3
390
F
  0
LAYER
  5
226
100
AcDbSymbolTableRecord
100
AcDbLayerTableRecord
  2
CAPC1608N_80000_18
 70
0
 62
7
  6
CONTINUOUS
370
-3
390
F
  0
LAYER
  5
227
100
AcDbSymbolTableRecord
100
AcDbLayerTableRecord
  2
CAPC1608N_80000_19
 70
0
 62
7
  6
CONTINUOUS
370
-3
390
F
  0
LAYER
  5
228
100
AcDbSymbolTableRecord
100
AcDbLayerTableRecord
  2
CAPC1608N_80000_2
 70
0
 62
7
  6
CONTINUOUS
370
-3
390
F
  0
LAYER
  5
229
100
AcDbSymbolTableRecord
100
AcDbLayerTableRecord
  2
CAPC1608N_80000_20
 70
0
 62
7
  6
CONTINUOUS
370
-3
390
F
  0
LAYER
  5
22A
100
AcDbSymbolTableRecord
100
AcDbLayerTableRecord
  2
CAPC1608N_80000_21
 70
0
 62
7
  6
CONTINUOUS
370
-3
390
F
  0
LAYER
  5
22B
100
AcDbSymbolTableRecord
100
AcDbLayerTableRecord
  2
CAPC1608N_80000_22
 70
0
 62
7
  6
CONTINUOUS
370
-3
390
F
  0
LAYER
  5
22C
100
AcDbSymbolTableRecord
100
AcDbLayerTableRecord
  2
CAPC1608N_80000_23
 70
0
 62
7
  6
CONTINUOUS
370
-3
390
F
  0
LAYER
  5
22D
100
AcDbSymbolTableRecord
100
AcDbLayerTableRecord
  2
CAPC1608N_80000_24
 70
0
 62
7
  6
CONTINUOUS
370
-3
390
F
  0
LAYER
  5
22E
100
AcDbSymbolTableRecord
100
AcDbLayerTableRecord
  2
CAPC1608N_80000_25
 70
0
 62
7
  6
CONTINUOUS
370
-3
390
F
  0
LAYER
  5
22F
100
AcDbSymbolTableRecord
100
AcDbLayerTableRecord
  2
CAPC1608N_80000_26
 70
0
 62
7
  6
CONTINUOUS
370
-3
390
F
  0
LAYER
  5
230
100
AcDbSymbolTableRecord
100
AcDbLayerTableRecord
  2
CAPC1608N_80000_27
 70
0
 62
7
  6
CONTINUOUS
370
-3
390
F
  0
LAYER
  5
231
100
AcDbSymbolTableRecord
100
AcDbLayerTableRecord
  2
CAPC1608N_80000_28
 70
0
 62
7
  6
CONTINUOUS
370
-3
390
F
  0
LAYER
  5
232
100
AcDbSymbolTableRecord
100
AcDbLayerTableRecord
  2
CAPC1608N_80000_29
 70
0
 62
7
  6
CONTINUOUS
370
-3
390
F
  0
LAYER
  5
233
100
AcDbSymbolTableRecord
100
AcDbLayerTableRecord
  2
CAPC1608N_80000_3
 70
0
 62
7
  6
CONTINUOUS
370
-3
390
F
  0
LAYER
  5
234
100
AcDbSymbolTableRecord
100
AcDbLayerTableRecord
  2
CAPC1608N_80000_30
 70
0
 62
7
  6
CONTINUOUS
370
-3
390
F
  0
LAYER
  5
235
100
AcDbSymbolTableRecord
100
AcDbLayerTableRecord
  2
CAPC1608N_80000_31
 70
0
 62
7
  6
CONTINUOUS
370
-3
390
F
  0
LAYER
  5
236
100
AcDbSymbolTableRecord
100
AcDbLayerTableRecord
  2
CAPC1608N_80000_32
 70
0
 62
7
  6
CONTINUOUS
370
-3
390
F
  0
LAYER
  5
237
100
AcDbSymbolTableRecord
100
AcDbLayerTableRecord
  2
CAPC1608N_80000_33
 70
0
 62
7
  6
CONTINUOUS
370
-3
390
F
  0
LAYER
  5
238
100
AcDbSymbolTableRecord
100
AcDbLayerTableRecord
  2
CAPC1608N_80000_34
 70
0
 62
7
  6
CONTINUOUS
370
-3
390
F
  0
LAYER
  5
239
100
AcDbSymbolTableRecord
100
AcDbLayerTableRecord
  2
CAPC1608N_80000_35
 70
0
 62
7
  6
CONTINUOUS
370
-3
390
F
  0
LAYER
  5
23A
100
AcDbSymbolTableRecord
100
AcDbLayerTableRecord
  2
CAPC1608N_80000_36
 70
0
 62
7
  6
CONTINUOUS
370
-3
390
F
  0
LAYER
  5
23B
100
AcDbSymbolTableRecord
100
AcDbLayerTableRecord
  2
CAPC1608N_80000_37
 70
0
 62
7
  6
CONTINUOUS
370
-3
390
F
  0
LAYER
  5
23C
100
AcDbSymbolTableRecord
100
AcDbLayerTableRecord
  2
CAPC1608N_80000_38
 70
0
 62
7
  6
CONTINUOUS
370
-3
390
F
  0
LAYER
  5
23D
100
AcDbSymbolTableRecord
100
AcDbLayerTableRecord
  2
CAPC1608N_80000_39
 70
0
 62
7
  6
CONTINUOUS
370
-3
390
F
  0
LAYER
  5
23E
100
AcDbSymbolTableRecord
100
AcDbLayerTableRecord
  2
CAPC1608N_80000_4
 70
0
 62
7
  6
CONTINUOUS
370
-3
390
F
  0
LAYER
  5
23F
100
AcDbSymbolTableRecord
100
AcDbLayerTableRecord
  2
CAPC1608N_80000_40
 70
0
 62
7
  6
CONTINUOUS
370
-3
390
F
  0
LAYER
  5
240
100
AcDbSymbolTableRecord
100
AcDbLayerTableRecord
  2
CAPC1608N_80000_41
 70
0
 62
7
  6
CONTINUOUS
370
-3
390
F
  0
LAYER
  5
241
100
AcDbSymbolTableRecord
100
AcDbLayerTableRecord
  2
CAPC1608N_80000_42
 70
0
 62
7
  6
CONTINUOUS
370
-3
390
F
  0
LAYER
  5
242
100
AcDbSymbolTableRecord
100
AcDbLayerTableRecord
  2
CAPC1608N_80000_43
 70
0
 62
7
  6
CONTINUOUS
370
-3
390
F
  0
LAYER
  5
243
100
AcDbSymbolTableRecord
100
AcDbLayerTableRecord
  2
CAPC1608N_80000_44
 70
0
 62
7
  6
CONTINUOUS
370
-3
390
F
  0
LAYER
  5
244
100
AcDbSymbolTableRecord
100
AcDbLayerTableRecord
  2
CAPC1608N_80000_45
 70
0
 62
7
  6
CONTINUOUS
370
-3
390
F
  0
LAYER
  5
245
100
AcDbSymbolTableRecord
100
AcDbLayerTableRecord
  2
CAPC1608N_80000_46
 70
0
 62
7
  6
CONTINUOUS
370
-3
390
F
  0
LAYER
  5
246
100
AcDbSymbolTableRecord
100
AcDbLayerTableRecord
  2
CAPC1608N_80000_47
 70
0
 62
7
  6
CONTINUOUS
370
-3
390
F
  0
LAYER
  5
247
100
AcDbSymbolTableRecord
100
AcDbLayerTableRecord
  2
CAPC1608N_80000_48
 70
0
 62
7
  6
CONTINUOUS
370
-3
390
F
  0
LAYER
  5
248
100
AcDbSymbolTableRecord
100
AcDbLayerTableRecord
  2
CAPC1608N_80000_49
 70
0
 62
7
  6
CONTINUOUS
370
-3
390
F
  0
LAYER
  5
249
100
AcDbSymbolTableRecord
100
AcDbLayerTableRecord
  2
CAPC1608N_80000_5
 70
0
 62
7
  6
CONTINUOUS
370
-3
390
F
  0
LAYER
  5
24A
100
AcDbSymbolTableRecord
100
AcDbLayerTableRecord
  2
CAPC1608N_80000_50
 70
0
 62
7
  6
CONTINUOUS
370
-3
390
F
  0
LAYER
  5
24B
100
AcDbSymbolTableRecord
100
AcDbLayerTableRecord
  2
CAPC1608N_80000_51
 70
0
 62
7
  6
CONTINUOUS
370
-3
390
F
  0
LAYER
  5
24C
100
AcDbSymbolTableRecord
100
AcDbLayerTableRecord
  2
CAPC1608N_80000_6
 70
0
 62
7
  6
CONTINUOUS
370
-3
390
F
  0
LAYER
  5
24D
100
AcDbSymbolTableRecord
100
AcDbLayerTableRecord
  2
CAPC1608N_80000_7
 70
0
 62
7
  6
CONTINUOUS
370
-3
390
F
  0
LAYER
  5
24E
100
AcDbSymbolTableRecord
100
AcDbLayerTableRecord
  2
CAPC1608N_80000_8
 70
0
 62
7
  6
CONTINUOUS
370
-3
390
F
  0
LAYER
  5
24F
100
AcDbSymbolTableRecord
100
AcDbLayerTableRecord
  2
CAPC1608N_80000_9
 70
0
 62
7
  6
CONTINUOUS
370
-3
390
F
  0
LAYER
  5
250
100
AcDbSymbolTableRecord
100
AcDbLayerTableRecord
  2
CN-1S-HEADER-PIH-1_254000
 70
0
 62
7
  6
CONTINUOUS
370
-3
390
F
  0
LAYER
  5
251
100
AcDbSymbolTableRecord
100
AcDbLayerTableRecord
  2
CN-1S-HEADER-PIH-1_254000_1
 70
0
 62
7
  6
CONTINUOUS
370
-3
390
F
  0
LAYER
  5
252
100
AcDbSymbolTableRecord
100
AcDbLayerTableRecord
  2
CN-1S-HEADER-PIH-1_254000_2
 70
0
 62
7
  6
CONTINUOUS
370
-3
390
F
  0
LAYER
  5
253
100
AcDbSymbolTableRecord
100
AcDbLayerTableRecord
  2
CN-1S-HEADER-PIH-1_254000_3
 70
0
 62
7
  6
CONTINUOUS
370
-3
390
F
  0
LAYER
  5
254
100
AcDbSymbolTableRecord
100
AcDbLayerTableRecord
  2
CN-MRT4P5_2-VIMAR_1750000
 70
0
 62
7
  6
CONTINUOUS
370
-3
390
F
  0
LAYER
  5
255
100
AcDbSymbolTableRecord
100
AcDbLayerTableRecord
  2
CN-MRT4P5_3-VIMAR_1750000
 70
0
 62
7
  6
CONTINUOUS
370
-3
390
F
  0
LAYER
  5
256
100
AcDbSymbolTableRecord
100
AcDbLayerTableRecord
  2
CN-SOCKET-SMD2_0-2_430000
 70
0
 62
7
  6
CONTINUOUS
370
-3
390
F
  0
LAYER
  5
257
100
AcDbSymbolTableRecord
100
AcDbLayerTableRecord
  2
CN1-REF_SQUAREHOLE12_SPEA-VIMAR
 70
0
 62
7
  6
CONTINUOUS
370
-3
390
F
  0
LAYER
  5
258
100
AcDbSymbolTableRecord
100
AcDbLayerTableRecord
  2
CN1-REF_SQUAREHOLE12_SPEA-VIM_1
 70
0
 62
7
  6
CONTINUOUS
370
-3
390
F
  0
LAYER
  5
259
100
AcDbSymbolTableRecord
100
AcDbLayerTableRecord
  2
CN1-REF_SQUAREHOLE12_SPEA-VIM_2
 70
0
 62
7
  6
CONTINUOUS
370
-3
390
F
  0
LAYER
  5
25A
100
AcDbSymbolTableRecord
100
AcDbLayerTableRecord
  2
CN1-REF_SQUAREHOLE12_SPEA-VIM_3
 70
0
 62
7
  6
CONTINUOUS
370
-3
390
F
  0
LAYER
  5
25B
100
AcDbSymbolTableRecord
100
AcDbLayerTableRecord
  2
CN1-REF_SQUAREHOLE12_SPEA-VIM_4
 70
0
 62
7
  6
CONTINUOUS
370
-3
390
F
  0
LAYER
  5
25C
100
AcDbSymbolTableRecord
100
AcDbLayerTableRecord
  2
CN1-REF_SQUAREHOLE12_SPEA-VIM_5
 70
0
 62
7
  6
CONTINUOUS
370
-3
390
F
  0
LAYER
  5
25D
100
AcDbSymbolTableRecord
100
AcDbLayerTableRecord
  2
CN1-REF_SQUAREHOLE12_SPEA-VIM_6
 70
0
 62
7
  6
CONTINUOUS
370
-3
390
F
  0
LAYER
  5
25E
100
AcDbSymbolTableRecord
100
AcDbLayerTableRecord
  2
CN1-REF_SQUAREHOLE12_SPEA-VIM_7
 70
0
 62
7
  6
CONTINUOUS
370
-3
390
F
  0
LAYER
  5
25F
100
AcDbSymbolTableRecord
100
AcDbLayerTableRecord
  2
CN1-TP10_SMD-VIMAR_01_10000
 70
0
 62
7
  6
CONTINUOUS
370
-3
390
F
  0
LAYER
  5
260
100
AcDbSymbolTableRecord
100
AcDbLayerTableRecord
  2
CN1-TP10_SMD-VIMAR_01_10000_1
 70
0
 62
7
  6
CONTINUOUS
370
-3
390
F
  0
LAYER
  5
261
100
AcDbSymbolTableRecord
100
AcDbLayerTableRecord
  2
CN1-TP10_SMD-VIMAR_01_10000_2
 70
0
 62
7
  6
CONTINUOUS
370
-3
390
F
  0
LAYER
  5
262
100
AcDbSymbolTableRecord
100
AcDbLayerTableRecord
  2
CN1-TP10_SMD-VIMAR_01_10000_3
 70
0
 62
7
  6
CONTINUOUS
370
-3
390
F
  0
LAYER
  5
263
100
AcDbSymbolTableRecord
100
AcDbLayerTableRecord
  2
CN1-TP15_SMD-VIMAR_5000
 70
0
 62
7
  6
CONTINUOUS
370
-3
390
F
  0
LAYER
  5
264
100
AcDbSymbolTableRecord
100
AcDbLayerTableRecord
  2
CN10-HEADER-SMD2_0-2-VIMAR_6500
 70
0
 62
7
  6
CONTINUOUS
370
-3
390
F
  0
LAYER
  5
265
100
AcDbSymbolTableRecord
100
AcDbLayerTableRecord
  2
CN_MICROUSB_TYPEB_SMT_SET_30000
 70
0
 62
7
  6
CONTINUOUS
370
-3
390
F
  0
LAYER
  5
266
100
AcDbSymbolTableRecord
100
AcDbLayerTableRecord
  2
CN_STRIP_2_P2_54_1-VIMAR_254000
 70
0
 62
7
  6
CONTINUOUS
370
-3
390
F
  0
LAYER
  5
267
100
AcDbSymbolTableRecord
100
AcDbLayerTableRecord
  2
CN_STRIP_2_P2_54_1-VIMAR_2540_1
 70
0
 62
7
  6
CONTINUOUS
370
-3
390
F
  0
LAYER
  5
268
100
AcDbSymbolTableRecord
100
AcDbLayerTableRecord
  2
COLOR13
 70
0
 62
7
  6
CONTINUOUS
370
-3
390
F
  0
LAYER
  5
269
100
AcDbSymbolTableRecord
100
AcDbLayerTableRecord
  2
COLOR21
 70
0
 62
7
  6
CONTINUOUS
370
-3
390
F
  0
LAYER
  5
26A
100
AcDbSymbolTableRecord
100
AcDbLayerTableRecord
  2
COLOR23
 70
0
 62
7
  6
CONTINUOUS
370
-3
390
F
  0
LAYER
  5
26B
100
AcDbSymbolTableRecord
100
AcDbLayerTableRecord
  2
COLOR6
 70
0
 62
7
  6
CONTINUOUS
370
-3
390
F
  0
LAYER
  5
26C
100
AcDbSymbolTableRecord
100
AcDbLayerTableRecord
  2
COORDINATE
 70
0
 62
7
  6
CONTINUOUS
370
-3
390
F
  0
LAYER
  5
26D
100
AcDbSymbolTableRecord
100
AcDbLayerTableRecord
  2
COORD_ORIGINE
 70
0
 62
7
  6
CONTINUOUS
370
-3
390
F
  0
LAYER
  5
26E
100
AcDbSymbolTableRecord
100
AcDbLayerTableRecord
  2
COPY_PUBLISH
 70
0
 62
7
  6
CONTINUOUS
370
-3
390
F
  0
LAYER
  5
26F
100
AcDbSymbolTableRecord
100
AcDbLayerTableRecord
  2
COSMETIC
 70
0
 62
7
  6
CONTINUOUS
370
-3
390
F
  0
LAYER
  5
270
100
AcDbSymbolTableRecord
100
AcDbLayerTableRecord
  2
COSMETICI
 70
0
 62
7
  6
CONTINUOUS
370
-3
390
F
  0
LAYER
  5
271
100
AcDbSymbolTableRecord
100
AcDbLayerTableRecord
  2
CP-CE11-RF-VIMAR_630000
 70
0
 62
7
  6
CONTINUOUS
370
-3
390
F
  0
LAYER
  5
272
100
AcDbSymbolTableRecord
100
AcDbLayerTableRecord
  2
CP-CE4-RF_550000
 70
0
 62
7
  6
CONTINUOUS
370
-3
390
F
  0
LAYER
  5
273
100
AcDbSymbolTableRecord
100
AcDbLayerTableRecord
  2
CP-CE6-RF_820000
 70
0
 62
7
  6
CONTINUOUS
370
-3
390
F
  0
LAYER
  5
274
100
AcDbSymbolTableRecord
100
AcDbLayerTableRecord
  2
CP-CE9-RF-VIMAR_1080000
 70
0
 62
7
  6
CONTINUOUS
370
-3
390
F
  0
LAYER
  5
275
100
AcDbSymbolTableRecord
100
AcDbLayerTableRecord
  2
CP-CE9-RF-VIMAR_1080000_1
 70
0
 62
7
  6
CONTINUOUS
370
-3
390
F
  0
LAYER
  5
276
100
AcDbSymbolTableRecord
100
AcDbLayerTableRecord
  2
CP-DO-214AC-D-VIMAR_240000
 70
0
 62
7
  6
CONTINUOUS
370
-3
390
F
  0
LAYER
  5
277
100
AcDbSymbolTableRecord
100
AcDbLayerTableRecord
  2
CP-DO-214AC-D-VIMAR_240000_1
 70
0
 62
7
  6
CONTINUOUS
370
-3
390
F
  0
LAYER
  5
278
100
AcDbSymbolTableRecord
100
AcDbLayerTableRecord
  2
CP-L5-RF-VIMAR_280000
 70
0
 62
7
  6
CONTINUOUS
370
-3
390
F
  0
LAYER
  5
279
100
AcDbSymbolTableRecord
100
AcDbLayerTableRecord
  2
CP-SUPERCAP-SMD_190000
 70
0
 62
7
  6
CONTINUOUS
370
-3
390
F
  0
LAYER
  5
27A
100
AcDbSymbolTableRecord
100
AcDbLayerTableRecord
  2
CURVE
 70
0
 62
7
  6
CONTINUOUS
370
-3
390
F
  0
LAYER
  5
27B
100
AcDbSymbolTableRecord
100
AcDbLayerTableRecord
  2
DIOMELF3515N_160000
 70
0
 62
7
  6
CONTINUOUS
370
-3
390
F
  0
LAYER
  5
27C
100
AcDbSymbolTableRecord
100
AcDbLayerTableRecord
  2
DRAFT
 70
0
 62
7
  6
CONTINUOUS
370
-3
390
F
  0
LAYER
  5
27D
100
AcDbSymbolTableRecord
100
AcDbLayerTableRecord
  2
E4_MARK_10000
 70
0
 62
7
  6
CONTINUOUS
370
-3
390
F
  0
LAYER
  5
27E
100
AcDbSymbolTableRecord
100
AcDbLayerTableRecord
  2
E4_MARK_10000_1
 70
0
 62
7
  6
CONTINUOUS
370
-3
390
F
  0
LAYER
  5
27F
100
AcDbSymbolTableRecord
100
AcDbLayerTableRecord
  2
GEOMETRIA_SOLIDA
 70
0
 62
7
  6
CONTINUOUS
370
-3
390
F
  0
LAYER
  5
280
100
AcDbSymbolTableRecord
100
AcDbLayerTableRecord
  2
GEOMETRIA_SOLIDA_1
 70
0
 62
7
  6
CONTINUOUS
370
-3
390
F
  0
LAYER
  5
281
100
AcDbSymbolTableRecord
100
AcDbLayerTableRecord
  2
HVQFN64-9_0-9_0-9_0-9_0-1_0-0_5
 70
0
 62
7
  6
CONTINUOUS
370
-3
390
F
  0
LAYER
  5
282
100
AcDbSymbolTableRecord
100
AcDbLayerTableRecord
  2
IMPORT_IGES
 70
0
 62
7
  6
CONTINUOUS
370
-3
390
F
  0
LAYER
  5
283
100
AcDbSymbolTableRecord
100
AcDbLayerTableRecord
  2
IND-PS-10_0-6_0_600000
 70
0
 62
7
  6
CONTINUOUS
370
-3
390
F
  0
LAYER
  5
284
100
AcDbSymbolTableRecord
100
AcDbLayerTableRecord
  2
INDC2012X130N_130000
 70
0
 62
7
  6
CONTINUOUS
370
-3
390
F
  0
LAYER
  5
285
100
AcDbSymbolTableRecord
100
AcDbLayerTableRecord
  2
INDC2012X130N_130000_1
 70
0
 62
7
  6
CONTINUOUS
370
-3
390
F
  0
LAYER
  5
286
100
AcDbSymbolTableRecord
100
AcDbLayerTableRecord
  2
INTFCLR_1
 70
0
 62
7
  6
CONTINUOUS
370
-3
390
F
  0
LAYER
  5
287
100
AcDbSymbolTableRecord
100
AcDbLayerTableRecord
  2
INTF_1
 70
0
 62
7
  6
CONTINUOUS
370
-3
390
F
  0
LAYER
  5
288
100
AcDbSymbolTableRecord
100
AcDbLayerTableRecord
  2
INTF_11
 70
0
 62
7
  6
CONTINUOUS
370
-3
390
F
  0
LAYER
  5
289
100
AcDbSymbolTableRecord
100
AcDbLayerTableRecord
  2
INTF_2
 70
0
 62
7
  6
CONTINUOUS
370
-3
390
F
  0
LAYER
  5
28A
100
AcDbSymbolTableRecord
100
AcDbLayerTableRecord
  2
INTF_5
 70
0
 62
7
  6
CONTINUOUS
370
-3
390
F
  0
LAYER
  5
28B
100
AcDbSymbolTableRecord
100
AcDbLayerTableRecord
  2
INTF_CYAN
 70
0
 62
7
  6
CONTINUOUS
370
-3
390
F
  0
LAYER
  5
28C
100
AcDbSymbolTableRecord
100
AcDbLayerTableRecord
  2
INTF_MAGENTA
 70
0
 62
7
  6
CONTINUOUS
370
-3
390
F
  0
LAYER
  5
28D
100
AcDbSymbolTableRecord
100
AcDbLayerTableRecord
  2
INTF_YELLOW
 70
0
 62
7
  6
CONTINUOUS
370
-3
390
F
  0
LAYER
  5
28E
100
AcDbSymbolTableRecord
100
AcDbLayerTableRecord
  2
K-THT-HONGFA-HF3F-L-H_1550000
 70
0
 62
7
  6
CONTINUOUS
370
-3
390
F
  0
LAYER
  5
28F
100
AcDbSymbolTableRecord
100
AcDbLayerTableRecord
  2
LEDC2812X90N_SIDE_90000
 70
0
 62
7
  6
CONTINUOUS
370
-3
390
F
  0
LAYER
  5
290
100
AcDbSymbolTableRecord
100
AcDbLayerTableRecord
  2
LEDC2812X90N_SIDE_90000_1
 70
0
 62
7
  6
CONTINUOUS
370
-3
390
F
  0
LAYER
  5
291
100
AcDbSymbolTableRecord
100
AcDbLayerTableRecord
  2
LEDC2812X90N_SIDE_90000_2
 70
0
 62
7
  6
CONTINUOUS
370
-3
390
F
  0
LAYER
  5
292
100
AcDbSymbolTableRecord
100
AcDbLayerTableRecord
  2
LOGO_RESIST-RESTYLING_10000
 70
0
 62
7
  6
CONTINUOUS
370
-3
390
F
  0
LAYER
  5
293
100
AcDbSymbolTableRecord
100
AcDbLayerTableRecord
  2
LOGO_RESIST-RESTYLING_10000_1
 70
0
 62
7
  6
CONTINUOUS
370
-3
390
F
  0
LAYER
  5
294
100
AcDbSymbolTableRecord
100
AcDbLayerTableRecord
  2
MM2-SWITCH-1-VIMAR_150000
 70
0
 62
7
  6
CONTINUOUS
370
-3
390
F
  0
LAYER
  5
295
100
AcDbSymbolTableRecord
100
AcDbLayerTableRecord
  2
MM2-X-2-VIMAR_250000
 70
0
 62
7
  6
CONTINUOUS
370
-3
390
F
  0
LAYER
  5
296
100
AcDbSymbolTableRecord
100
AcDbLayerTableRecord
  2
MM3-MPAK-RF-VIMAR_120000
 70
0
 62
7
  6
CONTINUOUS
370
-3
390
F
  0
LAYER
  5
297
100
AcDbSymbolTableRecord
100
AcDbLayerTableRecord
  2
MM3-MPAK-RF-VIMAR_120000_1
 70
0
 62
7
  6
CONTINUOUS
370
-3
390
F
  0
LAYER
  5
298
100
AcDbSymbolTableRecord
100
AcDbLayerTableRecord
  2
MM3-MPAK-RF-VIMAR_120000_2
 70
0
 62
7
  6
CONTINUOUS
370
-3
390
F
  0
LAYER
  5
299
100
AcDbSymbolTableRecord
100
AcDbLayerTableRecord
  2
MM3-MPAK-RF-VIMAR_120000_3
 70
0
 62
7
  6
CONTINUOUS
370
-3
390
F
  0
LAYER
  5
29A
100
AcDbSymbolTableRecord
100
AcDbLayerTableRecord
  2
MM3-MPAK-RF-VIMAR_120000_4
 70
0
 62
7
  6
CONTINUOUS
370
-3
390
F
  0
LAYER
  5
29B
100
AcDbSymbolTableRecord
100
AcDbLayerTableRecord
  2
MM3-SOT-89-RF-VIMAR_150000
 70
0
 62
7
  6
CONTINUOUS
370
-3
390
F
  0
LAYER
  5
29C
100
AcDbSymbolTableRecord
100
AcDbLayerTableRecord
  2
MM4-ABS-VIMAR_180000
 70
0
 62
7
  6
CONTINUOUS
370
-3
390
F
  0
LAYER
  5
29D
100
AcDbSymbolTableRecord
100
AcDbLayerTableRecord
  2
MM4-X-9-VIMAR_50000
 70
0
 62
7
  6
CONTINUOUS
370
-3
390
F
  0
LAYER
  5
29E
100
AcDbSymbolTableRecord
100
AcDbLayerTableRecord
  2
NO-PB_MARK_10000
 70
0
 62
7
  6
CONTINUOUS
370
-3
390
F
  0
LAYER
  5
29F
100
AcDbSymbolTableRecord
100
AcDbLayerTableRecord
  2
NO-PB_MARK_10000_1
 70
0
 62
7
  6
CONTINUOUS
370
-3
390
F
  0
LAYER
  5
2A0
100
AcDbSymbolTableRecord
100
AcDbLayerTableRecord
  2
NOTE
 70
0
 62
7
  6
CONTINUOUS
370
-3
390
F
  0
LAYER
  5
2A1
100
AcDbSymbolTableRecord
100
AcDbLayerTableRecord
  2
PIANI
 70
0
 62
7
  6
CONTINUOUS
370
-3
390
F
  0
LAYER
  5
2A2
100
AcDbSymbolTableRecord
100
AcDbLayerTableRecord
  2
PIANI_DI_RIFERIMENTO
 70
0
 62
7
  6
CONTINUOUS
370
-3
390
F
  0
LAYER
  5
2A3
100
AcDbSymbolTableRecord
100
AcDbLayerTableRecord
  2
PIANI_ORIGINE
 70
0
 62
7
  6
CONTINUOUS
370
-3
390
F
  0
LAYER
  5
2A4
100
AcDbSymbolTableRecord
100
AcDbLayerTableRecord
  2
PUNTI
 70
0
 62
7
  6
CONTINUOUS
370
-3
390
F
  0
LAYER
  5
2A5
100
AcDbSymbolTableRecord
100
AcDbLayerTableRecord
  2
RACCORDO
 70
0
 62
7
  6
CONTINUOUS
370
-3
390
F
  0
LAYER
  5
2A6
100
AcDbSymbolTableRecord
100
AcDbLayerTableRecord
  2
RD-R50-1W-1-VIMAR_1700000
 70
0
 62
7
  6
CONTINUOUS
370
-3
390
F
  0
LAYER
  5
2A7
100
AcDbSymbolTableRecord
100
AcDbLayerTableRecord
  2
RD-ZNR50-1-VIMAR_1150000
 70
0
 62
7
  6
CONTINUOUS
370
-3
390
F
  0
LAYER
  5
2A8
100
AcDbSymbolTableRecord
100
AcDbLayerTableRecord
  2
RD_D6H8_5_VIMAR_850000
 70
0
 62
7
  6
CONTINUOUS
370
-3
390
F
  0
LAYER
  5
2A9
100
AcDbSymbolTableRecord
100
AcDbLayerTableRecord
  2
RESC1608N_45000
 70
0
 62
7
  6
CONTINUOUS
370
-3
390
F
  0
LAYER
  5
2AA
100
AcDbSymbolTableRecord
100
AcDbLayerTableRecord
  2
RESC1608N_45000_1
 70
0
 62
7
  6
CONTINUOUS
370
-3
390
F
  0
LAYER
  5
2AB
100
AcDbSymbolTableRecord
100
AcDbLayerTableRecord
  2
RESC1608N_45000_10
 70
0
 62
7
  6
CONTINUOUS
370
-3
390
F
  0
LAYER
  5
2AC
100
AcDbSymbolTableRecord
100
AcDbLayerTableRecord
  2
RESC1608N_45000_11
 70
0
 62
7
  6
CONTINUOUS
370
-3
390
F
  0
LAYER
  5
2AD
100
AcDbSymbolTableRecord
100
AcDbLayerTableRecord
  2
RESC1608N_45000_12
 70
0
 62
7
  6
CONTINUOUS
370
-3
390
F
  0
LAYER
  5
2AE
100
AcDbSymbolTableRecord
100
AcDbLayerTableRecord
  2
RESC1608N_45000_13
 70
0
 62
7
  6
CONTINUOUS
370
-3
390
F
  0
LAYER
  5
2AF
100
AcDbSymbolTableRecord
100
AcDbLayerTableRecord
  2
RESC1608N_45000_14
 70
0
 62
7
  6
CONTINUOUS
370
-3
390
F
  0
LAYER
  5
2B0
100
AcDbSymbolTableRecord
100
AcDbLayerTableRecord
  2
RESC1608N_45000_15
 70
0
 62
7
  6
CONTINUOUS
370
-3
390
F
  0
LAYER
  5
2B1
100
AcDbSymbolTableRecord
100
AcDbLayerTableRecord
  2
RESC1608N_45000_16
 70
0
 62
7
  6
CONTINUOUS
370
-3
390
F
  0
LAYER
  5
2B2
100
AcDbSymbolTableRecord
100
AcDbLayerTableRecord
  2
RESC1608N_45000_17
 70
0
 62
7
  6
CONTINUOUS
370
-3
390
F
  0
LAYER
  5
2B3
100
AcDbSymbolTableRecord
100
AcDbLayerTableRecord
  2
RESC1608N_45000_18
 70
0
 62
7
  6
CONTINUOUS
370
-3
390
F
  0
LAYER
  5
2B4
100
AcDbSymbolTableRecord
100
AcDbLayerTableRecord
  2
RESC1608N_45000_19
 70
0
 62
7
  6
CONTINUOUS
370
-3
390
F
  0
LAYER
  5
2B5
100
AcDbSymbolTableRecord
100
AcDbLayerTableRecord
  2
RESC1608N_45000_2
 70
0
 62
7
  6
CONTINUOUS
370
-3
390
F
  0
LAYER
  5
2B6
100
AcDbSymbolTableRecord
100
AcDbLayerTableRecord
  2
RESC1608N_45000_20
 70
0
 62
7
  6
CONTINUOUS
370
-3
390
F
  0
LAYER
  5
2B7
100
AcDbSymbolTableRecord
100
AcDbLayerTableRecord
  2
RESC1608N_45000_21
 70
0
 62
7
  6
CONTINUOUS
370
-3
390
F
  0
LAYER
  5
2B8
100
AcDbSymbolTableRecord
100
AcDbLayerTableRecord
  2
RESC1608N_45000_22
 70
0
 62
7
  6
CONTINUOUS
370
-3
390
F
  0
LAYER
  5
2B9
100
AcDbSymbolTableRecord
100
AcDbLayerTableRecord
  2
RESC1608N_45000_23
 70
0
 62
7
  6
CONTINUOUS
370
-3
390
F
  0
LAYER
  5
2BA
100
AcDbSymbolTableRecord
100
AcDbLayerTableRecord
  2
RESC1608N_45000_24
 70
0
 62
7
  6
CONTINUOUS
370
-3
390
F
  0
LAYER
  5
2BB
100
AcDbSymbolTableRecord
100
AcDbLayerTableRecord
  2
RESC1608N_45000_25
 70
0
 62
7
  6
CONTINUOUS
370
-3
390
F
  0
LAYER
  5
2BC
100
AcDbSymbolTableRecord
100
AcDbLayerTableRecord
  2
RESC1608N_45000_26
 70
0
 62
7
  6
CONTINUOUS
370
-3
390
F
  0
LAYER
  5
2BD
100
AcDbSymbolTableRecord
100
AcDbLayerTableRecord
  2
RESC1608N_45000_27
 70
0
 62
7
  6
CONTINUOUS
370
-3
390
F
  0
LAYER
  5
2BE
100
AcDbSymbolTableRecord
100
AcDbLayerTableRecord
  2
RESC1608N_45000_28
 70
0
 62
7
  6
CONTINUOUS
370
-3
390
F
  0
LAYER
  5
2BF
100
AcDbSymbolTableRecord
100
AcDbLayerTableRecord
  2
RESC1608N_45000_29
 70
0
 62
7
  6
CONTINUOUS
370
-3
390
F
  0
LAYER
  5
2C0
100
AcDbSymbolTableRecord
100
AcDbLayerTableRecord
  2
RESC1608N_45000_3
 70
0
 62
7
  6
CONTINUOUS
370
-3
390
F
  0
LAYER
  5
2C1
100
AcDbSymbolTableRecord
100
AcDbLayerTableRecord
  2
RESC1608N_45000_30
 70
0
 62
7
  6
CONTINUOUS
370
-3
390
F
  0
LAYER
  5
2C2
100
AcDbSymbolTableRecord
100
AcDbLayerTableRecord
  2
RESC1608N_45000_31
 70
0
 62
7
  6
CONTINUOUS
370
-3
390
F
  0
LAYER
  5
2C3
100
AcDbSymbolTableRecord
100
AcDbLayerTableRecord
  2
RESC1608N_45000_32
 70
0
 62
7
  6
CONTINUOUS
370
-3
390
F
  0
LAYER
  5
2C4
100
AcDbSymbolTableRecord
100
AcDbLayerTableRecord
  2
RESC1608N_45000_33
 70
0
 62
7
  6
CONTINUOUS
370
-3
390
F
  0
LAYER
  5
2C5
100
AcDbSymbolTableRecord
100
AcDbLayerTableRecord
  2
RESC1608N_45000_34
 70
0
 62
7
  6
CONTINUOUS
370
-3
390
F
  0
LAYER
  5
2C6
100
AcDbSymbolTableRecord
100
AcDbLayerTableRecord
  2
RESC1608N_45000_35
 70
0
 62
7
  6
CONTINUOUS
370
-3
390
F
  0
LAYER
  5
2C7
100
AcDbSymbolTableRecord
100
AcDbLayerTableRecord
  2
RESC1608N_45000_36
 70
0
 62
7
  6
CONTINUOUS
370
-3
390
F
  0
LAYER
  5
2C8
100
AcDbSymbolTableRecord
100
AcDbLayerTableRecord
  2
RESC1608N_45000_37
 70
0
 62
7
  6
CONTINUOUS
370
-3
390
F
  0
LAYER
  5
2C9
100
AcDbSymbolTableRecord
100
AcDbLayerTableRecord
  2
RESC1608N_45000_38
 70
0
 62
7
  6
CONTINUOUS
370
-3
390
F
  0
LAYER
  5
2CA
100
AcDbSymbolTableRecord
100
AcDbLayerTableRecord
  2
RESC1608N_45000_39
 70
0
 62
7
  6
CONTINUOUS
370
-3
390
F
  0
LAYER
  5
2CB
100
AcDbSymbolTableRecord
100
AcDbLayerTableRecord
  2
RESC1608N_45000_4
 70
0
 62
7
  6
CONTINUOUS
370
-3
390
F
  0
LAYER
  5
2CC
100
AcDbSymbolTableRecord
100
AcDbLayerTableRecord
  2
RESC1608N_45000_40
 70
0
 62
7
  6
CONTINUOUS
370
-3
390
F
  0
LAYER
  5
2CD
100
AcDbSymbolTableRecord
100
AcDbLayerTableRecord
  2
RESC1608N_45000_41
 70
0
 62
7
  6
CONTINUOUS
370
-3
390
F
  0
LAYER
  5
2CE
100
AcDbSymbolTableRecord
100
AcDbLayerTableRecord
  2
RESC1608N_45000_42
 70
0
 62
7
  6
CONTINUOUS
370
-3
390
F
  0
LAYER
  5
2CF
100
AcDbSymbolTableRecord
100
AcDbLayerTableRecord
  2
RESC1608N_45000_43
 70
0
 62
7
  6
CONTINUOUS
370
-3
390
F
  0
LAYER
  5
2D0
100
AcDbSymbolTableRecord
100
AcDbLayerTableRecord
  2
RESC1608N_45000_44
 70
0
 62
7
  6
CONTINUOUS
370
-3
390
F
  0
LAYER
  5
2D1
100
AcDbSymbolTableRecord
100
AcDbLayerTableRecord
  2
RESC1608N_45000_45
 70
0
 62
7
  6
CONTINUOUS
370
-3
390
F
  0
LAYER
  5
2D2
100
AcDbSymbolTableRecord
100
AcDbLayerTableRecord
  2
RESC1608N_45000_46
 70
0
 62
7
  6
CONTINUOUS
370
-3
390
F
  0
LAYER
  5
2D3
100
AcDbSymbolTableRecord
100
AcDbLayerTableRecord
  2
RESC1608N_45000_47
 70
0
 62
7
  6
CONTINUOUS
370
-3
390
F
  0
LAYER
  5
2D4
100
AcDbSymbolTableRecord
100
AcDbLayerTableRecord
  2
RESC1608N_45000_48
 70
0
 62
7
  6
CONTINUOUS
370
-3
390
F
  0
LAYER
  5
2D5
100
AcDbSymbolTableRecord
100
AcDbLayerTableRecord
  2
RESC1608N_45000_49
 70
0
 62
7
  6
CONTINUOUS
370
-3
390
F
  0
LAYER
  5
2D6
100
AcDbSymbolTableRecord
100
AcDbLayerTableRecord
  2
RESC1608N_45000_5
 70
0
 62
7
  6
CONTINUOUS
370
-3
390
F
  0
LAYER
  5
2D7
100
AcDbSymbolTableRecord
100
AcDbLayerTableRecord
  2
RESC1608N_45000_50
 70
0
 62
7
  6
CONTINUOUS
370
-3
390
F
  0
LAYER
  5
2D8
100
AcDbSymbolTableRecord
100
AcDbLayerTableRecord
  2
RESC1608N_45000_51
 70
0
 62
7
  6
CONTINUOUS
370
-3
390
F
  0
LAYER
  5
2D9
100
AcDbSymbolTableRecord
100
AcDbLayerTableRecord
  2
RESC1608N_45000_52
 70
0
 62
7
  6
CONTINUOUS
370
-3
390
F
  0
LAYER
  5
2DA
100
AcDbSymbolTableRecord
100
AcDbLayerTableRecord
  2
RESC1608N_45000_53
 70
0
 62
7
  6
CONTINUOUS
370
-3
390
F
  0
LAYER
  5
2DB
100
AcDbSymbolTableRecord
100
AcDbLayerTableRecord
  2
RESC1608N_45000_6
 70
0
 62
7
  6
CONTINUOUS
370
-3
390
F
  0
LAYER
  5
2DC
100
AcDbSymbolTableRecord
100
AcDbLayerTableRecord
  2
RESC1608N_45000_7
 70
0
 62
7
  6
CONTINUOUS
370
-3
390
F
  0
LAYER
  5
2DD
100
AcDbSymbolTableRecord
100
AcDbLayerTableRecord
  2
RESC1608N_45000_8
 70
0
 62
7
  6
CONTINUOUS
370
-3
390
F
  0
LAYER
  5
2DE
100
AcDbSymbolTableRecord
100
AcDbLayerTableRecord
  2
RESC1608N_45000_9
 70
0
 62
7
  6
CONTINUOUS
370
-3
390
F
  0
LAYER
  5
2DF
100
AcDbSymbolTableRecord
100
AcDbLayerTableRecord
  2
RGB__255__255__255__
 70
0
 62
7
  6
CONTINUOUS
370
-3
390
F
  0
LAYER
  5
2E0
100
AcDbSymbolTableRecord
100
AcDbLayerTableRecord
  2
RY-S13-3_2-VIMAR_1500000
 70
0
 62
7
  6
CONTINUOUS
370
-3
390
F
  0
LAYER
  5
2E1
100
AcDbSymbolTableRecord
100
AcDbLayerTableRecord
  2
SC70-6_REF_H1_1_110000
 70
0
 62
7
  6
CONTINUOUS
370
-3
390
F
  0
LAYER
  5
2E2
100
AcDbSymbolTableRecord
100
AcDbLayerTableRecord
  2
SIMBOLI
 70
0
 62
7
  6
CONTINUOUS
370
-3
390
F
  0
LAYER
  5
2E3
100
AcDbSymbolTableRecord
100
AcDbLayerTableRecord
  2
SMUSSO
 70
0
 62
7
  6
CONTINUOUS
370
-3
390
F
  0
LAYER
  5
2E4
100
AcDbSymbolTableRecord
100
AcDbLayerTableRecord
  2
SNAPLINE
 70
0
 62
7
  6
CONTINUOUS
370
-3
390
F
  0
LAYER
  5
2E5
100
AcDbSymbolTableRecord
100
AcDbLayerTableRecord
  2
SOD123_135000
 70
0
 62
7
  6
CONTINUOUS
370
-3
390
F
  0
LAYER
  5
2E6
100
AcDbSymbolTableRecord
100
AcDbLayerTableRecord
  2
SOD123_135000_1
 70
0
 62
7
  6
CONTINUOUS
370
-3
390
F
  0
LAYER
  5
2E7
100
AcDbSymbolTableRecord
100
AcDbLayerTableRecord
  2
SOIC-8-7A-5_0-6_2-1_75-REF_1750
 70
0
 62
7
  6
CONTINUOUS
370
-3
390
F
  0
LAYER
  5
2E8
100
AcDbSymbolTableRecord
100
AcDbLayerTableRecord
  2
SOP8-T1-RF-FINE-VIMAR_150000
 70
0
 62
7
  6
CONTINUOUS
370
-3
390
F
  0
LAYER
  5
2E9
100
AcDbSymbolTableRecord
100
AcDbLayerTableRecord
  2
SOT95P280X110-6N_110000
 70
0
 62
7
  6
CONTINUOUS
370
-3
390
F
  0
LAYER
  5
2EA
100
AcDbSymbolTableRecord
100
AcDbLayerTableRecord
  2
SOT95P280X110-6N_110000_1
 70
0
 62
7
  6
CONTINUOUS
370
-3
390
F
  0
LAYER
  5
2EB
100
AcDbSymbolTableRecord
100
AcDbLayerTableRecord
  2
STANDARD
 70
0
 62
7
  6
CONTINUOUS
370
-3
390
F
  0
LAYER
  5
2EC
100
AcDbSymbolTableRecord
100
AcDbLayerTableRecord
  2
SUPERFICI
 70
0
 62
7
  6
CONTINUOUS
370
-3
390
F
  0
LAYER
  5
2ED
100
AcDbSymbolTableRecord
100
AcDbLayerTableRecord
  2
TP10_SMD_0
 70
0
 62
7
  6
CONTINUOUS
370
-3
390
F
  0
LAYER
  5
2EE
100
AcDbSymbolTableRecord
100
AcDbLayerTableRecord
  2
TP10_SMD_0_1
 70
0
 62
7
  6
CONTINUOUS
370
-3
390
F
  0
LAYER
  5
2EF
100
AcDbSymbolTableRecord
100
AcDbLayerTableRecord
  2
TRASH
 70
0
 62
7
  6
CONTINUOUS
370
-3
390
F
  0
LAYER
  5
2F0
100
AcDbSymbolTableRecord
100
AcDbLayerTableRecord
  2
TSSOP14-RF-3-VIMAR_110000
 70
0
 62
7
  6
CONTINUOUS
370
-3
390
F
  0
LAYER
  5
2F1
100
AcDbSymbolTableRecord
100
AcDbLayerTableRecord
  2
TSSOP8-RF-1-VIMAR_0
 70
0
 62
7
  6
CONTINUOUS
370
-3
390
F
  0
LAYER
  5
2F2
100
AcDbSymbolTableRecord
100
AcDbLayerTableRecord
  2
XSEC_DATUMS
 70
0
 62
7
  6
CONTINUOUS
370
-3
390
F
  0
LAYER
  5
2F3
100
AcDbSymbolTableRecord
100
AcDbLayerTableRecord
  2
___SHELL
 70
0
 62
7
  6
CONTINUOUS
370
-3
390
F
  0
ENDTAB
  0
TABLE
  2
STYLE
  5
3
100
AcDbSymbolTable
 70
1
  0
STYLE
  5
11
100
AcDbSymbolTableRecord
100
AcDbTextStyleTableRecord
  2
STANDARD
 70
0
 40
0.0
 41
0.8
 50
0.0
 71
0
 42
0.2
  3
txt
  4

  0
STYLE
  5
2F4
100
AcDbSymbolTableRecord
100
AcDbTextStyleTableRecord
  2
TEXTSTYLE_1
 70
0
 40
0.0
 41
0.8
 50
0.0
 71
0
 42
0.2
  3
gdt
  4

  0
ENDTAB
  0
TABLE
  2
VIEW
  5
6
100
AcDbSymbolTable
 70
0
  0
ENDTAB
  0
TABLE
  2
UCS
  5
7
100
AcDbSymbolTable
 70
0
  0
ENDTAB
  0
TABLE
  2
APPID
  5
9
100
AcDbSymbolTable
 70
1
  0
APPID
  5
2F5
100
AcDbSymbolTableRecord
100
AcDbRegAppTableRecord
  2
ACAD
 70
0
  0
ENDTAB
  0
TABLE
  2
BLOCK_RECORD
  5
1
100
AcDbSymbolTable
 70
0
  0
BLOCK_RECORD
  5
2F6
100
AcDbSymbolTableRecord
100
AcDbBlockTableRecord
  2
*Model_Space
  0
BLOCK_RECORD
  5
2F7
100
AcDbSymbolTableRecord
100
AcDbBlockTableRecord
  2
*Paper_Space
  0
ENDTAB
  0
TABLE
  2
DIMSTYLE
  5
A
100
AcDbSymbolTable
 70
1
100
AcDbDimStyleTable
 71
0
  0
DIMSTYLE
105
2F8
100
AcDbSymbolTableRecord
100
AcDbDimStyleTableRecord
  2
STANDARD
 70
0
  3

  4

 40
1.0
 41
3.0
 42
0.5
 43
0.38
 44
1.5
 45
0.0
 46
0.0
 47
0.01
 48
0.01
140
3.0
141
0.09
142
0.0
143
25.4
144
1.0
145
0.0
146
1.0
147
0.625
 71
1.0
 72
0.0
 73
0
 74
0
 75
0
 76
0
 77
1
 78
8
170
0
171
1
172
0
173
0
174
0
175
0
176
0
177
0
178
0
270
2
271
2
272
2
273
2
274
2
275
0
280
0
281
0
282
0
283
1
284
8
285
0
286
0
287
3
288
0
340
11
278
44
  0
ENDTAB
  0
ENDSEC
  0
SECTION
  2
BLOCKS
  0
BLOCK
  5
20
100
AcDbEntity
  8
0
100
AcDbBlockBegin
  2
*Model_Space
 70
0
 10
0.0
 20
0.0
 30
0.0
  3
*Model_Space
  1

  0
ENDBLK
  5
21
100
AcDbEntity
  8
0
100
AcDbBlockEnd
  0
BLOCK
  5
1C
100
AcDbEntity
  8
0
100
AcDbBlockBegin
  2
*Paper_Space
 70
0
 10
0.0
 20
0.0
 30
0.0
  3
*Paper_Space
  1

  0
ENDBLK
  5
1D
100
AcDbEntity
  8
0
100
AcDbBlockEnd
  0
ENDSEC
  0
SECTION
  2
ENTITIES
  0
LINE
  5
2F9
100
AcDbEntity
  8
RACCORDO
100
AcDbLine
 62
253
  6
CONTINUOUS
 10
-40.1085176979
 20
32.0492699638
 11
-40.0305446263
 21
32.1319479366
  0
LWPOLYLINE
  5
2FA
100
AcDbEntity
  8
RACCORDO
100
AcDbPolyline
 62
7
  6
CONTINUOUS
 90
14
 70
0
 10
-40.1957001687
 20
32.2365024067
 10
-40.3005867985
 20
32.1329655699
 10
-40.395110872
 20
32.0248085728
 10
-40.4824276913
 20
31.9098557777
 10
-40.5623152962
 20
31.7889317382
 10
-40.6344771027
 20
31.6626466671
 10
-40.6984652027
 20
31.5317829932
 10
-40.7535870549
 20
31.3973606549
 10
-40.7992013607
 20
31.2603037824
 10
-40.8349252022
 20
31.1203408382
 10
-40.8595488109
 20
30.9794087627
 10
-40.8720988421
 20
30.8412201923
 10
-40.8723652668
 20
30.7072028466
 10
-40.8631075089
 20
30.5988062296
  0
LINE
  5
2FB
100
AcDbEntity
  8
RACCORDO
100
AcDbLine
 62
253
  6
CONTINUOUS
 10
-40.0305446263
 20
32.1319479366
 11
-39.9503390409
 21
32.2085409118
  0
LINE
  5
2FC
100
AcDbEntity
  8
RACCORDO
100
AcDbLine
 62
253
  6
CONTINUOUS
 10
-39.9503390409
 20
32.2085409118
 11
-34.093887192
 21
37.5542499298
  0
LWPOLYLINE
  5
2FD
100
AcDbEntity
  8
0
100
AcDbPolyline
 62
253
  6
CONTINUOUS
 90
6
 70
0
 10
-28.9706781652
 20
42.1124128655
 10
-28.9625896877
 20
42.1196324511
 10
-28.9544056164
 20
42.1264615234
 10
-28.9461479456
 20
42.1328820339
 10
-28.9378365249
 20
42.1388792532
 10
-28.9294888926
 20
42.1444412248
  0
LINE
  5
2FE
100
AcDbEntity
  8
RACCORDO
100
AcDbLine
 62
7
  6
CONTINUOUS
 10
-31.274901175
 20
35.5605291488
 11
-35.9069891126
 21
31.4528928027
  0
LWPOLYLINE
  5
2FF
100
AcDbEntity
  8
RACCORDO
100
AcDbPolyline
 62
253
  6
CONTINUOUS
 90
7
 70
0
 10
-34.093887192
 20
37.5542499298
 10
-34.0701631779
 20
37.5750801088
 10
-34.0462407888
 20
37.5950595407
 10
-34.0221492716
 20
37.6141634023
 10
-33.9979181173
 20
37.632367908
 10
-33.9735770255
 20
37.6496503408
 10
-33.9491558682
 20
37.6659890815
  0
LWPOLYLINE
  5
300
100
AcDbEntity
  8
RACCORDO
100
AcDbPolyline
 62
253
  6
CONTINUOUS
 90
6
 70
0
 10
-34.3394604521
 20
37.5820527081
 10
-34.3206925237
 20
37.595172728
 10
-34.2932493676
 20
37.6049209054
 10
-34.2608579123
 20
37.6079975765
 10
-34.224069206
 20
37.6043504006
 10
-34.1835091039
 20
37.5940414242
  0
LWPOLYLINE
  5
301
100
AcDbEntity
  8
RACCORDO
100
AcDbPolyline
 62
253
  6
CONTINUOUS
 90
8
 70
0
 10
-40.1957172505
 20
32.236521169
 10
-40.1771443759
 20
32.2494637088
 10
-40.14970122
 20
32.2592118882
 10
-40.1173097641
 20
32.2622885611
 10
-40.0805210572
 20
32.2586413863
 10
-40.0399609545
 20
32.2483324098
 10
-39.9963194706
 20
32.2315370097
 10
-39.9503390409
 20
32.2085409118
  0
LWPOLYLINE
  5
302
100
AcDbEntity
  8
RACCORDO
100
AcDbPolyline
 62
7
  6
CONTINUOUS
 90
6
 70
0
 10
-34.2058976566
 20
37.6864178166
 10
-34.2404509356
 20
37.6625961456
 10
-34.2717651303
 20
37.6391613265
 10
-34.3023439473
 20
37.6144962178
 10
-34.3321733702
 20
37.5886477761
 10
-40.1959162606
 20
32.2363400759
  0
LWPOLYLINE
  5
303
100
AcDbEntity
  8
0
100
AcDbPolyline
 62
7
  6
CONTINUOUS
 90
9
 70
0
 10
-29.0472765717
 20
42.1612680347
 10
-29.0734897685
 20
42.1434433522
 10
-29.0975528326
 20
42.1221283089
 10
-29.1188889775
 20
42.0976309292
 10
-29.1370014559
 20
42.0703407327
 10
-29.1514322292
 20
42.0408157309
 10
-29.1618565376
 20
42.0096874385
 10
-29.1681389305
 20
41.9772502311
 10
-29.1700953609
 20
41.9459907577
  0
LINE
  5
304
100
AcDbEntity
  8
RACCORDO
100
AcDbLine
 62
7
  6
CONTINUOUS
 10
-34.2059252903
 20
37.6863995654
 11
-28.787114525
 21
41.260054303
  0
LINE
  5
305
100
AcDbEntity
  8
RACCORDO
100
AcDbLine
 62
253
  6
CONTINUOUS
 10
-33.9491558682
 20
37.6659890815
 11
-28.6337061102
 21
41.1714782069
  0
LINE
  5
306
100
AcDbEntity
  8
0
100
AcDbLine
 62
7
  6
CONTINUOUS
 10
-25.4645312475
 20
40.2882931213
 11
-26.3545914302
 21
39.7267796396
  0
LWPOLYLINE
  5
307
100
AcDbEntity
  8
RACCORDO
100
AcDbPolyline
 62
253
  6
CONTINUOUS
 90
8
 70
0
 10
-34.2058976422
 20
37.6864177948
 10
-34.1979392874
 20
37.6913256835
 10
-34.1641708143
 20
37.7058459928
 10
-34.1264114137
 20
37.7129003748
 10
-34.0853064092
 20
37.7123682671
 10
-34.0415583024
 20
37.7042587638
 10
-33.9959147664
 20
37.6887104596
 10
-33.9491558682
 20
37.6659890815
  0
LINE
  5
308
100
AcDbEntity
  8
0
100
AcDbLine
 62
253
  6
CONTINUOUS
 10
-28.9294888926
 20
42.1444412248
 11
-28.9211238124
 21
42.1495560422
  0
LINE
  5
309
100
AcDbEntity
  8
0
100
AcDbLine
 62
7
  6
CONTINUOUS
 10
-29.0472765717
 20
42.1612680347
 11
-27.4640965027
 21
43.0967723216
  0
LINE
  5
30A
100
AcDbEntity
  8
0
100
AcDbLine
 62
253
  6
CONTINUOUS
 10
-28.9211238124
 20
42.1495560422
 11
-27.3383672092
 21
43.0848101022
  0
LINE
  5
30B
100
AcDbEntity
  8
0
100
AcDbLine
 62
7
  6
CONTINUOUS
 10
-27.4640964886
 20
43.0967723295
 11
-27.4626422455
 21
43.0976119912
  0
LINE
  5
30C
100
AcDbEntity
  8
0
100
AcDbLine
 62
253
  6
CONTINUOUS
 10
-27.242585742
 20
41.1803891973
 11
-25.1130377794
 21
42.4099628128
  0
LINE
  5
30D
100
AcDbEntity
  8
0
100
AcDbLine
 62
253
  6
CONTINUOUS
 10
-27.0658120383
 20
40.8742081614
 11
-24.9362640757
 21
42.1037817769
  0
LINE
  5
30E
100
AcDbEntity
  8
0
100
AcDbLine
 62
7
  6
CONTINUOUS
 10
-24.7615382932
 20
40.6941929016
 11
-17.438713326
 21
44.9223279677
  0
LINE
  5
30F
100
AcDbEntity
  8
0
100
AcDbLine
 62
7
  6
CONTINUOUS
 10
-27.4626422596
 20
43.0976119833
 11
-26.9277639582
 21
43.399298998
  0
LINE
  5
310
100
AcDbEntity
  8
0
100
AcDbLine
 62
253
  6
CONTINUOUS
 10
-27.3383672092
 20
43.0848101022
 11
-26.8039173305
 21
43.3862554739
  0
LWPOLYLINE
  5
311
100
AcDbEntity
  8
0
100
AcDbPolyline
 62
253
  6
CONTINUOUS
 90
18
 70
0
 10
-29.0472765717
 20
42.1612680347
 10
-29.0435350927
 20
42.1633511205
 10
-29.0373061778
 20
42.1662932376
 10
-29.0308117543
 20
42.1687364222
 10
-29.0240665333
 20
42.1706751398
 10
-29.0170857943
 20
42.1721049988
 10
-29.0098853504
 20
42.1730227603
 10
-29.002481512
 20
42.1734263453
 10
-28.9948910505
 20
42.1733148396
 10
-28.9871311601
 20
42.1726884959
 10
-28.9792194186
 20
42.1715487329
 10
-28.9711737479
 20
42.1698981324
 10
-28.9630123732
 20
42.1677404334
 10
-28.9547537819
 20
42.1650805237
 10
-28.9464166816
 20
42.1619244284
 10
-28.9380199576
 20
42.1582792968
 10
-28.9295826304
 20
42.154153386
 10
-28.9211238124
 20
42.1495560422
  0
LWPOLYLINE
  5
312
100
AcDbEntity
  8
0
100
AcDbPolyline
 62
7
  6
CONTINUOUS
 90
18
 70
0
 10
-27.4626422455
 20
43.0976119912
 10
-27.4603553745
 20
43.0988551983
 10
-27.4541297027
 20
43.10179539
 10
-27.4476417702
 20
43.1042347209
 10
-27.4409062813
 20
43.1061676617
 10
-27.4339385421
 20
43.1075898083
 10
-27.4267542851
 20
43.1084979697
 10
-27.4193697694
 20
43.1088900983
 10
-27.4118018151
 20
43.1087652573
 10
-27.4040674935
 20
43.1081237723
 10
-27.3961842876
 20
43.1069671194
 10
-27.3881701881
 20
43.1052978475
 10
-27.3800432578
 20
43.1031197922
 10
-27.3718218467
 20
43.1004379228
 10
-27.36352475
 20
43.0972582212
 10
-27.3551707566
 20
43.0935878966
 10
-27.3467786075
 20
43.089435368
 10
-27.3383672092
 20
43.0848101022
  0
LWPOLYLINE
  5
313
100
AcDbEntity
  8
0
100
AcDbPolyline
 62
253
  6
CONTINUOUS
 90
3
 70
0
 10
-26.9277639582
 20
43.399298998
 10
-26.9254631563
 20
43.4005494814
 10
-26.9192393991
 20
43.4034869578
  0
LINE
  5
314
100
AcDbEntity
  8
0
100
AcDbLine
 62
7
  6
CONTINUOUS
 10
-5.8545200096
 20
50.8211218453
 11
-5.8543009839
 21
50.8212396829
  0
LINE
  5
315
100
AcDbEntity
  8
RACCORDO
100
AcDbLine
 62
7
  6
CONTINUOUS
 10
-17.1420783667
 20
44.7510382932
 11
-5.854301441
 21
50.8212394371
  0
LINE
  5
316
100
AcDbEntity
  8
0
100
AcDbLine
 62
7
  6
CONTINUOUS
 10
-26.9002699985
 20
43.4126606002
 11
-26.9278066945
 21
43.3992748768
  0
LWPOLYLINE
  5
317
100
AcDbEntity
  8
0
100
AcDbPolyline
 62
253
  6
CONTINUOUS
 90
14
 70
0
 10
-5.8543009839
 20
50.8212396829
 10
-5.8038987131
 20
50.8456776634
 10
-5.7432446671
 20
50.8686345564
 10
-5.6800618841
 20
50.8859666625
 10
-5.6134783953
 20
50.8977975144
 10
-5.5433653919
 20
50.9038540327
 10
-5.4700874716
 20
50.9038157011
 10
-5.39339534
 20
50.8973803317
 10
-5.313147532
 20
50.8841479639
 10
-5.2298414772
 20
50.8638126663
 10
-5.1442318669
 20
50.8362699838
 10
-5.0567849532
 20
50.8014606729
 10
-4.967650199
 20
50.7592339697
 10
-4.877172623
 20
50.7095238038
  0
LWPOLYLINE
  5
318
100
AcDbEntity
  8
0
100
AcDbPolyline
 62
253
  6
CONTINUOUS
 90
16
 70
0
 10
-26.9192393991
 20
43.4034869578
 10
-26.9127567183
 20
43.4059215508
 10
-26.906029788
 20
43.4078477583
 10
-26.8990738063
 20
43.4092612293
 10
-26.8919044645
 20
43.4101587628
 10
-26.8845380687
 20
43.410538305
 10
-26.8769914717
 20
43.4103990001
 10
-26.8692818857
 20
43.4097412048
 10
-26.8614266864
 20
43.4085664399
 10
-26.8534435277
 20
43.4068773591
 10
-26.8453492802
 20
43.4046774228
 10
-26.8371634694
 20
43.4019718301
 10
-26.8289082032
 20
43.3987681937
 10
-26.8206034475
 20
43.3950749689
 10
-26.812266866
 20
43.3909007129
 10
-26.8039173305
 20
43.3862554739
  0
LWPOLYLINE
  5
319
100
AcDbEntity
  8
0
100
AcDbPolyline
 62
253
  6
CONTINUOUS
 90
16
 70
0
 10
-29.0690035698
 20
41.9700626399
 10
-29.0643191411
 20
41.9807956807
 10
-29.059310333
 20
41.9914505235
 10
-29.0539884145
 20
42.0020032008
 10
-29.0483653541
 20
42.0124299836
 10
-29.0424538034
 20
42.0227074156
 10
-29.0362670716
 20
42.0328123636
 10
-29.029819095
 20
42.0427220746
 10
-29.0231243618
 20
42.0524142914
 10
-29.0161978856
 20
42.0618672785
 10
-29.0090551751
 20
42.0710598579
 10
-29.0017123576
 20
42.0799712617
 10
-28.994186111
 20
42.0885812619
 10
-28.9864934767
 20
42.0968704019
 10
-28.9786516641
 20
42.1048201761
 10
-28.9706781652
 20
42.1124128655
  0
LWPOLYLINE
  5
31A
100
AcDbEntity
  8
0
100
AcDbPolyline
 62
7
  6
CONTINUOUS
 90
7
 70
0
 10
-24.9185640752
 20
41.7217926716
 10
-24.9001751453
 20
41.7481855238
 10
-24.8853571267
 20
41.7766534635
 10
-24.8743208435
 20
41.8067424246
 10
-24.8672148567
 20
41.8380570624
 10
-24.8641802902
 20
41.8700582736
 10
-24.8640662189
 20
41.8776153324
  0
LINE
  5
31B
100
AcDbEntity
  8
0
100
AcDbLine
 62
253
  6
CONTINUOUS
 10
-25.4645312475
 20
41.11332421
 11
-24.9362640757
 21
41.7761364764
  0
LINE
  5
31C
100
AcDbEntity
  8
0
100
AcDbLine
 62
7
  6
CONTINUOUS
 10
-25.4645312475
 20
41.0367723671
 11
-24.9185640752
 21
41.7217926716
  0
LINE
  5
31D
100
AcDbEntity
  8
RACCORDO
100
AcDbLine
 62
7
  6
CONTINUOUS
 10
-33.0965014453
 20
31.0591420273
 11
-32.8216247631
 21
31.3028967802
  0
LINE
  5
31E
100
AcDbEntity
  8
SUPERFICI
100
AcDbLine
 62
7
  6
CONTINUOUS
 10
-32.3084568259
 20
31.7043196319
 11
-32.8890220915
 21
31.2094344182
  0
LINE
  5
31F
100
AcDbEntity
  8
0
100
AcDbLine
 62
7
  6
CONTINUOUS
 10
-23.8735409898
 20
38.0806674153
 11
-23.1664342086
 21
38.5317314027
  0
LINE
  5
320
100
AcDbEntity
  8
0
100
AcDbLine
 62
7
  6
CONTINUOUS
 10
-21.045113865
 20
37.736576913
 11
-21.2572458994
 21
37.6012577168
  0
LINE
  5
321
100
AcDbEntity
  8
0
100
AcDbLine
 62
7
  6
CONTINUOUS
 10
-23.4846322601
 20
40.4514767029
 11
-24.5391216916
 21
39.8283767771
  0
LINE
  5
322
100
AcDbEntity
  8
0
100
AcDbLine
 62
7
  6
CONTINUOUS
 10
-23.8735409898
 20
39.4440788216
 11
-23.0258356038
 21
39.9392278624
  0
LINE
  5
323
100
AcDbEntity
  8
0
100
AcDbLine
 62
253
  6
CONTINUOUS
 10
-21.3994900071
 20
39.0001962977
 11
-21.1865352213
 21
39.1245842746
  0
LINE
  5
324
100
AcDbEntity
  8
0
100
AcDbLine
 62
253
  6
CONTINUOUS
 10
-21.2572458994
 20
38.7557251335
 11
-21.045113865
 21
38.879632537
  0
LINE
  5
325
100
AcDbEntity
  8
0
100
AcDbLine
 62
7
  6
CONTINUOUS
 10
-16.8264968453
 20
41.2339226881
 11
-15.7225299762
 21
41.8713393224
  0
LINE
  5
326
100
AcDbEntity
  8
0
100
AcDbLine
 62
7
  6
CONTINUOUS
 10
-20.3380070839
 20
38.1405764389
 11
-21.045113865
 21
37.736576913
  0
LINE
  5
327
100
AcDbEntity
  8
0
100
AcDbLine
 62
7
  6
CONTINUOUS
 10
-17.5075230805
 20
43.0912234494
 11
-22.1057740368
 21
40.4671403474
  0
LINE
  5
328
100
AcDbEntity
  8
0
100
AcDbLine
 62
7
  6
CONTINUOUS
 10
-17.7924226716
 20
41.6222874047
 11
-17.4763761409
 21
41.8026456253
  0
LINE
  5
329
100
AcDbEntity
  8
0
100
AcDbLine
 62
7
  6
CONTINUOUS
 10
-14.6770390771
 20
42.9942432872
 11
-16.8264968453
 21
41.7676125831
  0
LINE
  5
32A
100
AcDbEntity
  8
0
100
AcDbLine
 62
253
  6
CONTINUOUS
 10
-21.1865352213
 20
39.1245842746
 11
-20.4794284401
 21
39.5281087828
  0
LINE
  5
32B
100
AcDbEntity
  8
0
100
AcDbLine
 62
253
  6
CONTINUOUS
 10
-21.045113865
 20
38.879632537
 11
-20.3380070839
 21
39.2831570453
  0
LWPOLYLINE
  5
32C
100
AcDbEntity
  8
RACCORDO
100
AcDbPolyline
 62
253
  6
CONTINUOUS
 90
28
 70
0
 10
-17.7217119935
 20
40.5537584078
 10
-17.6965236514
 20
40.5681072958
 10
-17.6682949375
 20
40.5822655856
 10
-17.6370258517
 20
40.5962332773
 10
-17.6025870622
 20
40.610270313
 10
-17.5651079009
 20
40.6241167507
 10
-17.5249763633
 20
40.6369927637
 10
-17.4820458738
 20
40.6488464436
 10
-17.4364630081
 20
40.6597296989
 10
-17.3890554893
 20
40.6690184287
 10
-17.3397109545
 20
40.6766211466
 10
-17.2885417666
 20
40.6826293389
 10
-17.2367127368
 20
40.6866933634
 10
-17.1841871771
 20
40.6886989957
 10
-17.1310017755
 20
40.6887604602
 10
-17.0784314081
 20
40.6868707879
 10
-17.0265103883
 20
40.6829154462
 10
-16.9752044027
 20
40.6770089678
 10
-16.9256853867
 20
40.6694879821
 10
-16.878062415
 20
40.6602593822
 10
-16.8322264129
 20
40.6494162749
 10
-16.7890220913
 20
40.6375746106
 10
-16.7485980473
 20
40.6246814993
 10
-16.7108056838
 20
40.610789831
 10
-16.6760439198
 20
40.5966742257
 10
-16.6444457282
 20
40.5825928901
 10
-16.6158781362
 20
40.5682876175
 10
-16.5903411436
 20
40.5537584078
  0
LINE
  5
32D
100
AcDbEntity
  8
0
100
AcDbLine
 62
7
  6
CONTINUOUS
 10
-18.1484088542
 20
43.461262863
 11
-23.4846322601
 21
40.4514767029
  0
LWPOLYLINE
  5
32E
100
AcDbEntity
  8
0
100
AcDbPolyline
 62
7
  6
CONTINUOUS
 90
7
 70
0
 10
-17.5075230805
 20
43.0912234494
 10
-17.5023095507
 20
43.094153776
 10
-17.4971049702
 20
43.0969910699
 10
-17.4919093389
 20
43.0997353309
 10
-17.486722657
 20
43.102386559
 10
-17.4815449243
 20
43.1049447544
 10
-17.4763761409
 20
43.1074099169
  0
LWPOLYLINE
  5
32F
100
AcDbEntity
  8
RACCORDO
100
AcDbPolyline
 62
7
  6
CONTINUOUS
 90
9
 70
0
 10
-17.8156102207
 20
40.567162389
 10
-17.8149457079
 20
40.5675333434
 10
-17.8110053287
 20
40.5694761113
 10
-17.8067192934
 20
40.5711417
 10
-17.8020766459
 20
40.5724956307
 10
-17.7970562132
 20
40.5735049006
 10
-17.7916208838
 20
40.574124899
 10
-17.7857451016
 20
40.5743138854
 10
-17.7794214936
 20
40.574025381
  0
LINE
  5
330
100
AcDbEntity
  8
0
100
AcDbLine
 62
253
  6
CONTINUOUS
 10
-16.5706924786
 20
44.4211272426
 11
-4.877172623
 21
50.7095238038
  0
LINE
  5
331
100
AcDbEntity
  8
0
100
AcDbLine
 62
7
  6
CONTINUOUS
 10
-17.4389597378
 20
43.1248745137
 11
-17.4763761409
 21
43.1074099169
  0
LINE
  5
332
100
AcDbEntity
  8
0
100
AcDbLine
 62
7
  6
CONTINUOUS
 10
-17.4143190091
 20
43.1362293677
 11
-17.4389597378
 21
43.1248745137
  0
LWPOLYLINE
  5
333
100
AcDbEntity
  8
RACCORDO
100
AcDbPolyline
 62
7
  6
CONTINUOUS
 90
3
 70
0
 10
-17.6903868211
 20
40.6274221344
 10
-17.7578054602
 20
40.5975083874
 10
-17.8156094796
 20
40.5671630799
  0
LWPOLYLINE
  5
334
100
AcDbEntity
  8
0
100
AcDbPolyline
 62
7
  6
CONTINUOUS
 90
7
 70
0
 10
-18.1152061565
 20
43.4782057767
 10
-18.1050852236
 20
43.4825069621
 10
-18.0946415721
 20
43.4863010487
 10
-18.0838829803
 20
43.4895813533
 10
-18.0728220182
 20
43.492343118
 10
-18.0614631681
 20
43.4945782011
 10
-18.0498017956
 20
43.4962742901
  0
LWPOLYLINE
  5
335
100
AcDbEntity
  8
RACCORDO
100
AcDbPolyline
 62
7
  6
CONTINUOUS
 90
10
 70
0
 10
-30.9889207086
 20
35.7614811966
 10
-30.9474215402
 20
35.7790772464
 10
-30.9063807784
 20
35.79182138
 10
-30.8659353647
 20
35.7998118541
 10
-30.8263927619
 20
35.8030551301
 10
-30.787815188
 20
35.8017691979
 10
-30.7500315744
 20
35.7964014433
 10
-30.7132010518
 20
35.7872188217
 10
-30.6778041608
 20
35.7742885893
 10
-30.6442333402
 20
35.7577931695
  0
LINE
  5
336
100
AcDbEntity
  8
RACCORDO
100
AcDbLine
 62
253
  6
CONTINUOUS
 10
-31.274901175
 20
35.5605291488
 11
-32.8216247631
 21
31.3028967802
  0
LINE
  5
337
100
AcDbEntity
  8
RACCORDO
100
AcDbLine
 62
253
  6
CONTINUOUS
 10
-30.6442408281
 20
35.7577725576
 11
-32.1740646055
 21
31.5466599302
  0
LINE
  5
338
100
AcDbEntity
  8
0
100
AcDbLine
 62
253
  6
CONTINUOUS
 10
-29.073353082
 20
41.9592755399
 11
-29.0690035698
 21
41.9700626399
  0
LWPOLYLINE
  5
339
100
AcDbEntity
  8
0
100
AcDbPolyline
 62
253
  6
CONTINUOUS
 90
27
 70
0
 10
-27.0658120383
 20
40.5536879886
 10
-27.0702325638
 20
40.5429986194
 10
-27.0750397591
 20
40.5325650747
 10
-27.0802227747
 20
40.5224109024
 10
-27.0857699127
 20
40.5125590198
 10
-27.0916686538
 20
40.503031662
 10
-27.0979056846
 20
40.4938503318
 10
-27.1044669287
 20
40.4850357509
 10
-27.1113375776
 20
40.4766078132
 10
-27.1185021247
 20
40.4685855401
 10
-27.1259444002
 20
40.4609870374
 10
-27.1336476071
 20
40.4538294545
 10
-27.1415943598
 20
40.4471289456
 10
-27.149766723
 20
40.4409006333
 10
-27.1581462521
 20
40.4351585747
 10
-27.166714035
 20
40.4299157291
 10
-27.1754507348
 20
40.4251839295
 10
-27.1843366332
 20
40.4209738551
 10
-27.1933516752
 20
40.4172950078
 10
-27.2024755145
 20
40.4141556907
 10
-27.2116875591
 20
40.4115629889
 10
-27.2209670179
 20
40.4095227541
 10
-27.2302929478
 20
40.4080395909
 10
-27.2396443007
 20
40.4071168467
 10
-27.2489999711
 20
40.4067566041
 10
-27.2583388438
 20
40.4069596762
 10
-27.2644806131
 20
40.4074018923
  0
LINE
  5
33A
100
AcDbEntity
  8
RACCORDO
100
AcDbLine
 62
7
  6
CONTINUOUS
 10
-20.2622035278
 20
38.346103476
 11
-17.8244767192
 21
40.5607340406
  0
LINE
  5
33B
100
AcDbEntity
  8
RACCORDO
100
AcDbLine
 62
253
  6
CONTINUOUS
 10
-20.1946770503
 20
38.3071145342
 11
-17.7217119935
 21
40.5537584078
  0
LWPOLYLINE
  5
33C
100
AcDbEntity
  8
RACCORDO
100
AcDbPolyline
 62
7
  6
CONTINUOUS
 90
4
 70
0
 10
-17.8244766411
 20
40.5607341116
 10
-17.8218545246
 20
40.562957452
 10
-17.8185572564
 20
40.5653496689
 10
-17.8156102207
 20
40.567162389
  0
LINE
  5
33D
100
AcDbEntity
  8
0
100
AcDbLine
 62
7
  6
CONTINUOUS
 10
-17.1913819076
 20
35.5114803794
 11
-18.2582128197
 21
34.8384473065
  0
LINE
  5
33E
100
AcDbEntity
  8
0
100
AcDbLine
 62
7
  6
CONTINUOUS
 10
-16.743618579
 20
35.0572901108
 11
-15.16043851
 21
35.9927943977
  0
LINE
  5
33F
100
AcDbEntity
  8
0
100
AcDbLine
 62
253
  6
CONTINUOUS
 10
-16.6174658197
 20
35.0455781183
 11
-15.0347092166
 21
35.9808321783
  0
LINE
  5
340
100
AcDbEntity
  8
0
100
AcDbLine
 62
7
  6
CONTINUOUS
 10
-19.5897725187
 20
38.1544649903
 11
-19.8024846133
 21
38.0302187707
  0
LINE
  5
341
100
AcDbEntity
  8
0
100
AcDbLine
 62
253
  6
CONTINUOUS
 10
-19.4894789464
 20
38.1447252506
 11
-19.7024337322
 21
38.0203372737
  0
LINE
  5
342
100
AcDbEntity
  8
0
100
AcDbLine
 62
7
  6
CONTINUOUS
 10
-18.0760881355
 20
37.0813057091
 11
-18.9237935215
 21
36.5861566683
  0
LINE
  5
343
100
AcDbEntity
  8
0
100
AcDbLine
 62
7
  6
CONTINUOUS
 10
-19.5891908123
 20
38.154800849
 11
-19.5897725142
 21
38.154464993
  0
LINE
  5
344
100
AcDbEntity
  8
0
100
AcDbLine
 62
7
  6
CONTINUOUS
 10
-11.9168898384
 20
39.8632618825
 11
-18.2582128197
 21
36.2018587127
  0
LINE
  5
345
100
AcDbEntity
  8
0
100
AcDbLine
 62
7
  6
CONTINUOUS
 10
-17.1913819076
 20
35.5114803794
 11
-11.8840712414
 21
38.5758585077
  0
LINE
  5
346
100
AcDbEntity
  8
0
100
AcDbLine
 62
7
  6
CONTINUOUS
 10
-15.1604384959
 20
35.9927944056
 11
-15.1589842529
 21
35.9936340673
  0
LINE
  5
347
100
AcDbEntity
  8
0
100
AcDbLine
 62
7
  6
CONTINUOUS
 10
-18.8820840266
 20
38.5583253598
 11
-19.5891908078
 21
38.1548008516
  0
LINE
  5
348
100
AcDbEntity
  8
0
100
AcDbLine
 62
253
  6
CONTINUOUS
 10
-18.7823721652
 20
38.5482497588
 11
-19.4894789464
 21
38.1447252506
  0
LINE
  5
349
100
AcDbEntity
  8
0
100
AcDbLine
 62
7
  6
CONTINUOUS
 10
-12.5577756122
 20
40.2333012961
 11
-17.1560265685
 21
37.6092181941
  0
LINE
  5
34A
100
AcDbEntity
  8
0
100
AcDbLine
 62
7
  6
CONTINUOUS
 10
-11.7532363903
 20
39.7919746668
 11
-10.43439839
 21
40.5445957272
  0
LINE
  5
34B
100
AcDbEntity
  8
0
100
AcDbLine
 62
7
  6
CONTINUOUS
 10
-15.158984267
 20
35.9936340594
 11
-14.6241059655
 21
36.2953210741
  0
LINE
  5
34C
100
AcDbEntity
  8
0
100
AcDbLine
 62
253
  6
CONTINUOUS
 10
-15.0347092166
 20
35.9808321783
 11
-14.5002593379
 21
36.28227755
  0
LWPOLYLINE
  5
34D
100
AcDbEntity
  8
0
100
AcDbPolyline
 62
7
  6
CONTINUOUS
 90
7
 70
0
 10
-12.5577756122
 20
40.2333012961
 10
-12.5525620824
 20
40.2362316227
 10
-12.5473575019
 20
40.2390689166
 10
-12.5421618706
 20
40.2418131776
 10
-12.5369751887
 20
40.2444644057
 10
-12.531797456
 20
40.2470226011
 10
-12.5266286726
 20
40.2494877636
  0
LWPOLYLINE
  5
34E
100
AcDbEntity
  8
0
100
AcDbPolyline
 62
253
  6
CONTINUOUS
 90
18
 70
0
 10
-16.743618579
 20
35.0572901108
 10
-16.7398771
 20
35.0593731966
 10
-16.7336481852
 20
35.0623153137
 10
-16.7271537616
 20
35.0647584983
 10
-16.7204085406
 20
35.0666972159
 10
-16.7134278017
 20
35.0681270749
 10
-16.7062273577
 20
35.0690448364
 10
-16.6988235193
 20
35.0694484214
 10
-16.6912330579
 20
35.0693369157
 10
-16.6834731674
 20
35.068710572
 10
-16.6755614259
 20
35.067570809
 10
-16.6675157552
 20
35.0659202085
 10
-16.6593543806
 20
35.0637625095
 10
-16.6510957893
 20
35.0611025998
 10
-16.6427586889
 20
35.0579465045
 10
-16.6343619649
 20
35.0543013729
 10
-16.6259246377
 20
35.0501754621
 10
-16.6174658197
 20
35.0455781183
  0
LWPOLYLINE
  5
34F
100
AcDbEntity
  8
0
100
AcDbPolyline
 62
7
  6
CONTINUOUS
 90
25
 70
0
 10
-10.43439839
 20
40.5445957272
 10
-10.4113100604
 20
40.5573337828
 10
-10.3882993999
 20
40.5691644191
 10
-10.3653664084
 20
40.5800876363
 10
-10.3424868493
 20
40.5901131211
 10
-10.3196849592
 20
40.5992311868
 10
-10.2970334481
 20
40.6074127726
 10
-10.2745328592
 20
40.6146548667
 10
-10.2521826493
 20
40.6209604809
 10
-10.2300538989
 20
40.6263095899
 10
-10.2081473689
 20
40.6306991576
 10
-10.1864622985
 20
40.6341322201
 10
-10.165067485
 20
40.6365978596
 10
-10.1439636679
 20
40.6380930016
 10
-10.1231501079
 20
40.6386207207
 10
-10.1026933838
 20
40.6381793227
 10
-10.0825948528
 20
40.6367657326
 10
-10.0628531577
 20
40.6343830255
 10
-10.0435308064
 20
40.6310387331
 10
-10.0246289352
 20
40.6267297583
 10
-10.0061464077
 20
40.6214591982
 10
-9.988142323
 20
40.6152438762
 10
-9.9706183193
 20
40.6080808023
 10
-9.9535727582
 20
40.5999729665
 10
-9.9384880009
 20
40.5917754663
  0
LWPOLYLINE
  5
350
100
AcDbEntity
  8
0
100
AcDbPolyline
 62
253
  6
CONTINUOUS
 90
3
 70
0
 10
-14.6241059655
 20
36.2953210741
 10
-14.6218195041
 20
36.296564051
 10
-14.6155971766
 20
36.2995023647
  0
LWPOLYLINE
  5
351
100
AcDbEntity
  8
0
100
AcDbPolyline
 62
7
  6
CONTINUOUS
 90
18
 70
0
 10
-15.1589842529
 20
35.9936340673
 10
-15.1566973818
 20
35.9948772744
 10
-15.15047171
 20
35.9978174661
 10
-15.1439837775
 20
36.000256797
 10
-15.1372482887
 20
36.0021897378
 10
-15.1302805494
 20
36.0036118844
 10
-15.1230962924
 20
36.0045200458
 10
-15.1157117768
 20
36.0049121744
 10
-15.1081438224
 20
36.0047873334
 10
-15.1004095009
 20
36.0041458483
 10
-15.092526295
 20
36.0029891955
 10
-15.0845121955
 20
36.0013199236
 10
-15.0763852651
 20
35.9991418683
 10
-15.0681638541
 20
35.9964599989
 10
-15.0598667573
 20
35.9932802973
 10
-15.051512764
 20
35.9896099727
 10
-15.0431206148
 20
35.9854574441
 10
-15.0347092166
 20
35.9808321783
  0
LWPOLYLINE
  5
352
100
AcDbEntity
  8
0
100
AcDbPolyline
 62
7
  6
CONTINUOUS
 90
8
 70
0
 10
-14.6241059655
 20
36.2953210741
 10
-14.595562642
 20
36.3091119724
 10
-14.5650713118
 20
36.3192955156
 10
-14.533187169
 20
36.325526133
 10
-14.5004960627
 20
36.3275683358
 10
-14.4677102509
 20
36.3253044416
 10
-14.4355388875
 20
36.3187688882
 10
-14.4043047594
 20
36.3079915128
  0
LINE
  5
353
100
AcDbEntity
  8
0
100
AcDbLine
 62
7
  6
CONTINUOUS
 10
-11.8470727182
 20
39.8976889861
 11
-11.8840712414
 21
39.8804265712
  0
LINE
  5
354
100
AcDbEntity
  8
0
100
AcDbLine
 62
7
  6
CONTINUOUS
 10
-11.8304943837
 20
39.90534339
 11
-11.8470727182
 21
39.8976889861
  0
LINE
  5
355
100
AcDbEntity
  8
0
100
AcDbLine
 62
7
  6
CONTINUOUS
 10
-11.8152911983
 20
39.9122784735
 11
-11.8304943837
 21
39.90534339
  0
LWPOLYLINE
  5
356
100
AcDbEntity
  8
0
100
AcDbPolyline
 62
7
  6
CONTINUOUS
 90
7
 70
0
 10
-12.5266286726
 20
40.2494877636
 10
-12.5165116176
 20
40.2539054437
 10
-12.5060684465
 20
40.2578117637
 10
-12.4953071248
 20
40.2611999996
 10
-12.4842403095
 20
40.2640652842
 10
-12.472872771
 20
40.2663995183
 10
-12.4612003721
 20
40.2681905985
  0
LWPOLYLINE
  5
357
100
AcDbEntity
  8
0
100
AcDbPolyline
 62
253
  6
CONTINUOUS
 90
16
 70
0
 10
-14.6155971766
 20
36.2995023647
 10
-14.6091159126
 20
36.301937951
 10
-14.6023903937
 20
36.3038652929
 10
-14.5954358548
 20
36.3052800243
 10
-14.5882680493
 20
36.3061789407
 10
-14.5809032141
 20
36.3065600058
 10
-14.5733580321
 20
36.3064223564
 10
-14.5656495948
 20
36.3057663043
 10
-14.5577953635
 20
36.3045933356
 10
-14.5498131299
 20
36.3029061073
 10
-14.5417209756
 20
36.3007084414
 10
-14.5335372309
 20
36.2980053161
 10
-14.5252804341
 20
36.2948028546
 10
-14.5169692885
 20
36.2911083111
 10
-14.5086226207
 20
36.2869300547
 10
-14.5002593379
 20
36.28227755
  0
LWPOLYLINE
  5
358
100
AcDbEntity
  8
RACCORDO
100
AcDbPolyline
 62
253
  6
CONTINUOUS
 90
17
 70
0
 10
-40.7173835036
 20
30.4039311675
 10
-40.7255838776
 20
30.4967021623
 10
-40.7270698112
 20
30.5939525242
 10
-40.7218195778
 20
30.6950648752
 10
-40.7098624581
 20
30.7993542854
 10
-40.6912624865
 20
30.906194098
 10
-40.6660918515
 20
31.0150284573
 10
-40.6344464854
 20
31.1252757857
 10
-40.5965213232
 20
31.2361137868
 10
-40.5526133701
 20
31.3466116096
 10
-40.5030152437
 20
31.4560532641
 10
-40.448054337
 20
31.5637255123
 10
-40.3882000439
 20
31.6687250814
 10
-40.3239582383
 20
31.7702662346
 10
-40.2557026221
 20
31.8678491913
 10
-40.1837500135
 20
31.9610316488
 10
-40.1085176979
 20
32.0492699638
  0
LWPOLYLINE
  5
359
100
AcDbEntity
  8
0
100
AcDbPolyline
 62
253
  6
CONTINUOUS
 90
18
 70
0
 10
-19.8042485403
 20
37.9105976952
 10
-19.7995203348
 20
37.9188202756
 10
-19.7945719045
 20
37.9269049965
 10
-19.789414382
 20
37.9348336676
 10
-19.7840593633
 20
37.9425884605
 10
-19.7785188923
 20
37.9501519315
 10
-19.7728054285
 20
37.9575070696
 10
-19.7669318232
 20
37.9646373285
 10
-19.7609112922
 20
37.9715266637
 10
-19.754757378
 20
37.9781595774
 10
-19.7484839205
 20
37.9845211517
 10
-19.7421050317
 20
37.9905970757
 10
-19.735635055
 20
37.9963736864
 10
-19.7290885468
 20
38.0018379864
 10
-19.7224802458
 20
38.0069776742
 10
-19.7158250205
 20
38.0117811877
 10
-19.7091378356
 20
38.0162377282
 10
-19.7024337322
 20
38.0203372737
  0
LWPOLYLINE
  5
35A
100
AcDbEntity
  8
0
100
AcDbPolyline
 62
7
  6
CONTINUOUS
 90
4
 70
0
 10
-19.8753718469
 20
37.9565521415
 10
-19.855186088
 20
37.9856402704
 10
-19.8301810087
 20
38.0107194219
 10
-19.8024947992
 20
38.0302128198
  0
LWPOLYLINE
  5
35B
100
AcDbEntity
  8
0
100
AcDbPolyline
 62
7
  6
CONTINUOUS
 90
34
 70
0
 10
-11.9189347505
 20
38.9658542081
 10
-11.9113593705
 20
38.9741854276
 10
-11.9042223577
 20
38.9830519223
 10
-11.8975237122
 20
38.9924536919
 10
-11.8912551898
 20
39.0024056093
 10
-11.8854250347
 20
39.0128928018
 10
-11.880057979
 20
39.0238706513
 10
-11.8751559908
 20
39.0353412395
 10
-11.8707171021
 20
39.0473024849
 10
-11.8667601409
 20
39.0597035241
 10
-11.8632871547
 20
39.0725462232
 10
-11.860296096
 20
39.0858287162
 10
-11.8577996507
 20
39.0994945416
 10
-11.8557999196
 20
39.1135453264
 10
-11.8542948019
 20
39.1279794436
 10
-11.8532906809
 20
39.1427355516
 10
-11.8527896842
 20
39.1578150172
 10
-11.8527896842
 20
39.1732164736
 10
-11.8532906809
 20
39.1888744776
 10
-11.8542948019
 20
39.2047901194
 10
-11.8557999196
 20
39.2209623088
 10
-11.8577996507
 20
39.2373223329
 10
-11.860296096
 20
39.2538709908
 10
-11.8632871547
 20
39.2706074834
 10
-11.8667601409
 20
39.2874607
 10
-11.8707171021
 20
39.3044311387
 10
-11.8751559908
 20
39.3215183015
 10
-11.880057979
 20
39.3386495829
 10
-11.8854250347
 20
39.3558251737
 10
-11.8912551898
 20
39.3730448832
 10
-11.8975237122
 20
39.3902355331
 10
-11.9042223577
 20
39.4073727307
 10
-11.9113593705
 20
39.4244808688
 10
-11.9189347505
 20
39.4415599473
  0
LWPOLYLINE
  5
35C
100
AcDbEntity
  8
0
100
AcDbPolyline
 62
253
  6
CONTINUOUS
 90
6
 70
0
 10
-16.6670201725
 20
35.0084349416
 10
-16.6589316951
 20
35.0156545272
 10
-16.6507476238
 20
35.0224835995
 10
-16.642489953
 20
35.02890411
 10
-16.6341785323
 20
35.0349013293
 10
-16.6258308999
 20
35.0404633009
  0
LWPOLYLINE
  5
35D
100
AcDbEntity
  8
0
100
AcDbPolyline
 62
7
  6
CONTINUOUS
 90
9
 70
0
 10
-16.743618579
 20
35.0572901108
 10
-16.7698317759
 20
35.0394654283
 10
-16.79389484
 20
35.018150385
 10
-16.8152309849
 20
34.9936530053
 10
-16.8333434632
 20
34.9663628087
 10
-16.8477742366
 20
34.936837807
 10
-16.8581985449
 20
34.9057095146
 10
-16.8644809378
 20
34.8732723072
 10
-16.8664373683
 20
34.8420128338
  0
LINE
  5
35E
100
AcDbEntity
  8
0
100
AcDbLine
 62
7
  6
CONTINUOUS
 10
-13.1608732548
 20
33.1843151974
 11
-14.0509334375
 21
32.6228017157
  0
LINE
  5
35F
100
AcDbEntity
  8
0
100
AcDbLine
 62
7
  6
CONTINUOUS
 10
-6.4961827471
 20
38.06694272
 11
-7.4226740846
 21
37.4939865792
  0
LINE
  5
360
100
AcDbEntity
  8
0
100
AcDbLine
 62
253
  6
CONTINUOUS
 10
-16.6258308999
 20
35.0404633009
 11
-16.6174658197
 21
35.0455781183
  0
LINE
  5
361
100
AcDbEntity
  8
0
100
AcDbLine
 62
7
  6
CONTINUOUS
 10
-6.4961827471
 20
37.5089420319
 11
-6.9640673402
 21
37.2291927927
  0
LINE
  5
362
100
AcDbEntity
  8
0
100
AcDbLine
 62
253
  6
CONTINUOUS
 10
-14.9389277493
 20
34.0764112734
 11
-12.8093797867
 21
35.3059848889
  0
LINE
  5
363
100
AcDbEntity
  8
0
100
AcDbLine
 62
253
  6
CONTINUOUS
 10
-14.7621540456
 20
33.7702302375
 11
-12.6326060831
 21
34.999803853
  0
LINE
  5
364
100
AcDbEntity
  8
0
100
AcDbLine
 62
7
  6
CONTINUOUS
 10
-6.6201086044
 20
37.0601755544
 11
-6.64594967
 21
37.0455156369
  0
LINE
  5
365
100
AcDbEntity
  8
0
100
AcDbLine
 62
7
  6
CONTINUOUS
 10
-7.3839185407
 20
38.7832868938
 11
-13.1018277848
 21
35.5582187514
  0
LINE
  5
366
100
AcDbEntity
  8
0
100
AcDbLine
 62
7
  6
CONTINUOUS
 10
-12.5604082261
 20
34.9515120473
 11
-7.705842256
 21
37.6574843325
  0
LWPOLYLINE
  5
367
100
AcDbEntity
  8
RACCORDO
100
AcDbPolyline
 62
253
  6
CONTINUOUS
 90
7
 70
0
 10
-40.8631075089
 20
30.5988062296
 10
-40.8597810832
 20
30.5798431857
 10
-40.8464974903
 20
30.5393107711
 10
-40.8251923389
 20
30.5008358608
 10
-40.7962221629
 20
30.4650623187
 10
-40.7600717679
 20
30.4325888021
 10
-40.7173461176
 20
30.4039587438
  0
LWPOLYLINE
  5
368
100
AcDbEntity
  8
RACCORDO
100
AcDbPolyline
 62
7
  6
CONTINUOUS
 90
10
 70
0
 10
-40.8631986173
 20
30.5992248897
 10
-40.7640457524
 20
29.8516054808
 10
-40.6407754094
 20
29.0000950897
 10
-40.5074873624
 20
28.1563969591
 10
-40.3642012101
 20
27.3206451425
 10
-40.2109379904
 20
26.4929727423
 10
-40.0477195378
 20
25.673508001
 10
-39.8745697937
 20
24.8623814222
 10
-39.691514145
 20
24.0597225504
 10
-39.5263995257
 20
23.3771734996
  0
LINE
  5
369
100
AcDbEntity
  8
RACCORDO
100
AcDbLine
 62
7
  6
CONTINUOUS
 10
-40.8631617741
 20
30.5992295658
 11
-40.8631075089
 21
30.5988062296
  0
LWPOLYLINE
  5
36A
100
AcDbEntity
  8
0
100
AcDbPolyline
 62
253
  6
CONTINUOUS
 90
12
 70
0
 10
-29.0968720684
 20
41.8439670869
 10
-29.0966732656
 20
41.8537595686
 10
-29.0960773033
 20
41.8637596124
 10
-29.0950855201
 20
41.873944727
 10
-29.0937001441
 20
41.8842920113
 10
-29.09192429
 20
41.8947781863
 10
-29.0897619548
 20
41.9053796464
 10
-29.0872180042
 20
41.9160725409
 10
-29.0842981595
 20
41.9268328244
 10
-29.0810089895
 20
41.9376362916
 10
-29.0773578926
 20
41.9484586445
 10
-29.073353082
 20
41.9592755399
  0
LWPOLYLINE
  5
36B
100
AcDbEntity
  8
0
100
AcDbPolyline
 62
7
  6
CONTINUOUS
 90
25
 70
0
 10
-17.1913819076
 20
35.9458875156
 10
-17.1858051765
 20
35.9566319708
 10
-17.1806989876
 20
35.9678394767
 10
-17.1760633409
 20
35.9795100334
 10
-17.1718930045
 20
35.9916613827
 10
-17.1681932102
 20
36.0042757828
 10
-17.1649796536
 20
36.0173000078
 10
-17.1622543862
 20
36.0307357925
 10
-17.1600153565
 20
36.0445814021
 10
-17.1582721057
 20
36.0587784063
 10
-17.1570267379
 20
36.0733284198
 10
-17.1562771491
 20
36.088229828
 10
-17.1560265685
 20
36.1034193573
 10
-17.1562771491
 20
36.1188982508
 10
-17.1570267379
 20
36.1346652654
 10
-17.1582721057
 20
36.1506533984
 10
-17.1600153565
 20
36.1668634649
 10
-17.1622543862
 20
36.1832946499
 10
-17.1649796536
 20
36.1998775051
 10
-17.1681932102
 20
36.2166126647
 10
-17.1718930045
 20
36.2334994945
 10
-17.1760633409
 20
36.2504666438
 10
-17.1806989876
 20
36.2674903291
 10
-17.1858051765
 20
36.2845943339
 10
-17.1913819076
 20
36.3017786583
  0
LWPOLYLINE
  5
36C
100
AcDbEntity
  8
0
100
AcDbPolyline
 62
7
  6
CONTINUOUS
 90
7
 70
0
 10
-12.6149060825
 20
34.6178147477
 10
-12.5965171526
 20
34.6442075999
 10
-12.581699134
 20
34.6726755395
 10
-12.5706628508
 20
34.7027645007
 10
-12.563556864
 20
34.7340791385
 10
-12.5605222975
 20
34.7660803497
 10
-12.5604082263
 20
34.7736374085
  0
LINE
  5
36D
100
AcDbEntity
  8
0
100
AcDbLine
 62
253
  6
CONTINUOUS
 10
-13.1608732548
 20
34.0093462861
 11
-12.6326060831
 21
34.6721585525
  0
LINE
  5
36E
100
AcDbEntity
  8
0
100
AcDbLine
 62
7
  6
CONTINUOUS
 10
-13.1608732548
 20
33.9327944432
 11
-12.6149060825
 21
34.6178147477
  0
LWPOLYLINE
  5
36F
100
AcDbEntity
  8
0
100
AcDbPolyline
 62
7
  6
CONTINUOUS
 90
32
 70
0
 10
-14.0509334375
 20
33.3842200518
 10
-14.0575740393
 20
33.3762534596
 10
-14.0644616466
 20
33.3684023385
 10
-14.071594229
 20
33.3606796671
 10
-14.0789737279
 20
33.3530993157
 10
-14.0865928309
 20
33.3456735142
 10
-14.0944350799
 20
33.3384129299
 10
-14.1024969296
 20
33.3313308804
 10
-14.1107741055
 20
33.3244404019
 10
-14.1192485972
 20
33.3177519362
 10
-14.1279155443
 20
33.3112788082
 10
-14.1367694311
 20
33.3050340125
 10
-14.1457908079
 20
33.2990276987
 10
-14.1549734681
 20
33.293273046
 10
-14.164310598
 20
33.2877828729
 10
-14.1737813726
 20
33.2825670045
 10
-14.1833782096
 20
33.2776383091
 10
-14.1930929324
 20
33.2730092807
 10
-14.2029033305
 20
33.2686894056
 10
-14.212800399
 20
33.2646910591
 10
-14.2227745414
 20
33.2610262252
 10
-14.2328021147
 20
33.2577040017
 10
-14.2428726348
 20
33.2547360545
 10
-14.2529750378
 20
33.2521336241
 10
-14.2630842008
 20
33.2499052979
 10
-14.2731880937
 20
33.2480617671
 10
-14.2832741683
 20
33.2466132332
 10
-14.2933158441
 20
33.2455675391
 10
-14.3032994701
 20
33.2449340765
 10
-14.3132110581
 20
33.2447216432
 10
-14.3230227857
 20
33.2449369778
 10
-14.3330623838
 20
33.2456190827
  0
LINE
  5
370
100
AcDbEntity
  8
0
100
AcDbLine
 62
7
  6
CONTINUOUS
 10
-10.052702176
 20
33.4274911134
 11
-5.2162307501
 21
36.2200138511
  0
LINE
  5
371
100
AcDbEntity
  8
0
100
AcDbLine
 62
7
  6
CONTINUOUS
 10
-9.3174324404
 20
32.586498437
 11
-5.2162307501
 21
34.9544849221
  0
LINE
  5
372
100
AcDbEntity
  8
0
100
AcDbLine
 62
7
  6
CONTINUOUS
 10
-8.5376575391
 20
32.1385265888
 11
-3.3168890752
 21
35.1529379974
  0
LINE
  5
373
100
AcDbEntity
  8
0
100
AcDbLine
 62
7
  6
CONTINUOUS
 10
-5.1705666274
 20
34.92811903
 11
-4.039168853
 21
35.5699732888
  0
LINE
  5
374
100
AcDbEntity
  8
DRAFT
100
AcDbLine
 62
7
  6
CONTINUOUS
 10
-2.6159798109
 20
34.5474309571
 11
-7.707680605
 21
31.659308309
  0
LWPOLYLINE
  5
375
100
AcDbEntity
  8
RACCORDO
100
AcDbPolyline
 62
253
  6
CONTINUOUS
 90
6
 70
0
 10
-36.0299072337
 20
10.4985734644
 10
-36.02031221
 20
10.4716475686
 10
-35.9983379174
 20
10.4300628542
 10
-35.9688614005
 20
10.3919979193
 10
-35.9323763335
 20
10.358090277
 10
-35.8894937696
 20
10.3289078141
  0
LWPOLYLINE
  5
376
100
AcDbEntity
  8
RACCORDO
100
AcDbPolyline
 62
253
  6
CONTINUOUS
 90
6
 70
0
 10
-39.5263995257
 20
23.3771734996
 10
-39.5140900983
 20
23.3402491991
 10
-39.4923305379
 20
23.2994206539
 10
-39.463016234
 20
23.2619123521
 10
-39.4266380332
 20
23.2283523426
 10
-39.3838050615
 20
23.1993025629
  0
LWPOLYLINE
  5
377
100
AcDbEntity
  8
RACCORDO
100
AcDbPolyline
 62
7
  6
CONTINUOUS
 90
10
 70
0
 10
-36.0299073033
 20
10.4985738935
 10
-35.781099321
 20
9.6807361335
 10
-35.4890118217
 20
8.7773289956
 10
-35.1828676078
 20
7.8876093044
 10
-34.862744568
 20
7.0118129304
 10
-34.5287133319
 20
6.1501286922
 10
-34.1808396259
 20
5.3027277451
 10
-33.8191964433
 20
4.4697956538
 10
-33.4438798962
 20
3.6515491966
 10
-33.1012508931
 20
2.9415491244
  0
LWPOLYLINE
  5
378
100
AcDbEntity
  8
RACCORDO
100
AcDbPolyline
 62
253
  6
CONTINUOUS
 90
10
 70
0
 10
-35.889493771
 20
10.3289078128
 10
-36.301621425
 20
11.7368893846
 10
-36.7077940459
 20
13.1504331245
 10
-37.1080045794
 20
14.5695134671
 10
-37.5022411726
 20
15.9940872295
 10
-37.8905020449
 20
17.4241460456
 10
-38.2727947449
 20
18.8597170309
 10
-38.6491166683
 20
20.3007925557
 10
-39.019455801
 20
21.7473295804
 10
-39.38380507
 20
23.1993025555
  0
LWPOLYLINE
  5
379
100
AcDbEntity
  8
RACCORDO
100
AcDbPolyline
 62
7
  6
CONTINUOUS
 90
10
 70
0
 10
-39.526399647
 20
23.3771739509
 10
-39.181607074
 20
22.0023702866
 10
-38.8053022421
 20
20.531170189
 10
-38.4228044777
 20
19.0655741532
 10
-38.0341216156
 20
17.6056128031
 10
-37.6392603916
 20
16.1513114316
 10
-37.2382270496
 20
14.7026932691
 10
-36.8310284094
 20
13.2597834388
 10
-36.417672948
 20
11.822611883
 10
-36.0299072337
 20
10.4985734644
  0
LINE
  5
37A
100
AcDbEntity
  8
RACCORDO
100
AcDbLine
 62
253
  6
CONTINUOUS
 10
-39.38380507
 20
23.1993025555
 11
-39.4644399846
 21
23.5280622639
  0
LWPOLYLINE
  5
37B
100
AcDbEntity
  8
RACCORDO
100
AcDbPolyline
 62
253
  6
CONTINUOUS
 90
21
 70
0
 10
-39.4644399846
 20
23.5280622639
 10
-39.5433659879
 20
23.8582865819
 10
-39.6205815598
 20
24.1899656244
 10
-39.6960837393
 20
24.5230829067
 10
-39.7698726663
 20
24.8576349852
 10
-39.8419512413
 20
25.193631744
 10
-39.9123179076
 20
25.5310637767
 10
-39.9809710156
 20
25.8699209314
 10
-40.0479128038
 20
26.2102124176
 10
-40.113141497
 20
26.5519285874
 10
-40.1766553818
 20
26.8950597837
 10
-40.2384562806
 20
27.2396156184
 10
-40.2985422747
 20
27.585586575
 10
-40.3569115021
 20
27.9329630988
 10
-40.4135653577
 20
28.2817551479
 10
-40.4685017322
 20
28.6319530353
 10
-40.521718661
 20
28.9835475838
 10
-40.5732172288
 20
29.3365499161
 10
-40.6229961937
 20
29.6909576237
 10
-40.6710523283
 20
30.046754507
 10
-40.7173835036
 20
30.4039311675
  0
LINE
  5
37C
100
AcDbEntity
  8
0
100
AcDbLine
 62
7
  6
CONTINUOUS
 10
-29.1678683891
 20
41.5922209303
 11
-29.1700931985
 21
41.6261176156
  0
LWPOLYLINE
  5
37D
100
AcDbEntity
  8
0
100
AcDbPolyline
 62
253
  6
CONTINUOUS
 90
19
 70
0
 10
-29.0968720684
 20
41.5234469141
 10
-29.0967038161
 20
41.5146405775
 10
-29.0961993797
 20
41.5060452978
 10
-29.0953597192
 20
41.4976774365
 10
-29.0941864331
 20
41.4895529223
 10
-29.0926817548
 20
41.4816872207
 10
-29.0908485485
 20
41.4740953046
 10
-29.0886903039
 20
41.4667916255
 10
-29.0862111292
 20
41.4597900865
 10
-29.0834157437
 20
41.4531040153
 10
-29.0803094686
 20
41.4467461394
 10
-29.0768982168
 20
41.4407285611
 10
-29.073188482
 20
41.4350627355
 10
-29.0691873257
 20
41.4297594476
 10
-29.0649023644
 20
41.4248287926
 10
-29.0603417548
 20
41.4202801562
 10
-29.0555141782
 20
41.4161221972
 10
-29.0504288242
 20
41.4123628303
 10
-29.0451014131
 20
41.4090126988
  0
LWPOLYLINE
  5
37E
100
AcDbEntity
  8
0
100
AcDbPolyline
 62
253
  6
CONTINUOUS
 90
19
 70
0
 10
-27.4183339979
 20
40.5542800693
 10
-27.4181657021
 20
40.545472604
 10
-27.4176611349
 20
40.5368762522
 10
-27.416821257
 20
40.5285073819
 10
-27.4156476713
 20
40.5203819491
 10
-27.4141426104
 20
40.5125154024
 10
-27.412308924
 20
40.5049226604
 10
-27.4101500799
 20
40.4976181382
 10
-27.4076701925
 20
40.4906158044
 10
-27.4048740128
 20
40.4839290808
 10
-27.4017668902
 20
40.4775707358
 10
-27.3983547281
 20
40.4715528275
 10
-27.3946440002
 20
40.4658867711
 10
-27.3906417394
 20
40.4605833213
 10
-27.3863555902
 20
40.4556526217
 10
-27.3817937808
 20
40.4511041282
 10
-27.3769650512
 20
40.4469465231
 10
-27.3718785654
 20
40.443187666
 10
-27.3666122562
 20
40.4398741181
  0
LINE
  5
37F
100
AcDbEntity
  8
0
100
AcDbLine
 62
253
  6
CONTINUOUS
 10
-29.1700953609
 20
41.9459907577
 11
-29.1700953731
 21
41.9460357353
  0
LINE
  5
380
100
AcDbEntity
  8
0
100
AcDbLine
 62
7
  6
CONTINUOUS
 10
-29.1700953731
 20
41.9460357353
 11
-29.1700953731
 21
41.6255155624
  0
LINE
  5
381
100
AcDbEntity
  8
0
100
AcDbLine
 62
253
  6
CONTINUOUS
 10
-29.0968720684
 20
41.8439670869
 11
-29.0968720684
 21
41.5234469141
  0
LINE
  5
382
100
AcDbEntity
  8
0
100
AcDbLine
 62
7
  6
CONTINUOUS
 10
-28.4671024188
 20
41.0752833235
 11
-28.4671024188
 21
40.7958558243
  0
LINE
  5
383
100
AcDbEntity
  8
0
100
AcDbLine
 62
253
  6
CONTINUOUS
 10
-28.3938791141
 20
41.0330051051
 11
-28.3938791141
 21
40.6906539951
  0
LINE
  5
384
100
AcDbEntity
  8
0
100
AcDbLine
 62
253
  6
CONTINUOUS
 10
-27.4183339979
 20
40.5542800693
 11
-27.4183339979
 21
40.8748002421
  0
LINE
  5
385
100
AcDbEntity
  8
0
100
AcDbLine
 62
253
  6
CONTINUOUS
 10
-27.0658120383
 20
40.5536879886
 11
-27.0658120383
 21
40.8742081614
  0
LINE
  5
386
100
AcDbEntity
  8
0
100
AcDbLine
 62
253
  6
CONTINUOUS
 10
-26.7071133898
 20
39.7167366061
 11
-26.7071133898
 21
40.3495971249
  0
LINE
  5
387
100
AcDbEntity
  8
0
100
AcDbLine
 62
253
  6
CONTINUOUS
 10
-26.3545914302
 20
39.7267796396
 11
-26.3545914302
 21
40.4881979758
  0
LWPOLYLINE
  5
388
100
AcDbEntity
  8
0
100
AcDbPolyline
 62
253
  6
CONTINUOUS
 90
18
 70
0
 10
-24.8640662272
 20
42.2052172011
 10
-24.8641197802
 20
42.2022670621
 10
-24.8646462077
 20
42.1954281337
 10
-24.86573362
 20
42.1886112978
 10
-24.8673795746
 20
42.1818318835
 10
-24.8695803719
 20
42.1751051411
 10
-24.8723310647
 20
42.1684461997
 10
-24.8756254686
 20
42.1618700377
 10
-24.879456173
 20
42.1553914513
 10
-24.8838145627
 20
42.1490250135
 10
-24.8886908363
 20
42.1427850427
 10
-24.8940740257
 20
42.1366855761
 10
-24.8999520269
 20
42.1307403297
 10
-24.9063116171
 20
42.124962679
 10
-24.9131384799
 20
42.1193656294
 10
-24.920417254
 20
42.1139617723
 10
-24.9281315701
 20
42.1087632576
 10
-24.9362640757
 20
42.1037817769
  0
LWPOLYLINE
  5
389
100
AcDbEntity
  8
0
100
AcDbPolyline
 62
253
  6
CONTINUOUS
 90
18
 70
0
 10
-24.8640662187
 20
41.8776095894
 10
-24.8641206416
 20
41.8745978354
 10
-24.8646489946
 20
41.8677592791
 10
-24.8657382667
 20
41.8609429001
 10
-24.8673860047
 20
41.8541640179
 10
-24.8695885049
 20
41.8474378625
 10
-24.8723408365
 20
41.8407795115
 10
-24.8756367955
 20
41.8342039893
 10
-24.8794688869
 20
41.827726213
 10
-24.8838283989
 20
41.8213608286
 10
-24.8887055446
 20
41.815122055
 10
-24.8940894399
 20
41.8090237915
 10
-24.8999684749
 20
41.8030792752
 10
-24.9063290118
 20
41.7973023758
 10
-24.9131551715
 20
41.7917073128
 10
-24.9204307439
 20
41.7863069332
 10
-24.9281395775
 20
41.7811128134
 10
-24.9362640757
 20
41.7761364764
  0
LWPOLYLINE
  5
38A
100
AcDbEntity
  8
0
100
AcDbPolyline
 62
253
  6
CONTINUOUS
 90
34
 70
0
 10
-27.4183339979
 20
40.8748002421
 10
-27.4181351952
 20
40.8845927238
 10
-27.4175392329
 20
40.8945927676
 10
-27.4165474497
 20
40.9047778821
 10
-27.4151620737
 20
40.9151251665
 10
-27.4133862196
 20
40.9256113414
 10
-27.4112238844
 20
40.9362128016
 10
-27.4086799338
 20
40.9469056961
 10
-27.4057600891
 20
40.9576659796
 10
-27.4024709191
 20
40.9684694467
 10
-27.3988198221
 20
40.9792917997
 10
-27.3948150116
 20
40.9901086951
 10
-27.3904654993
 20
41.0008957951
 10
-27.3857810707
 20
41.0116288358
 10
-27.3807722626
 20
41.0222836787
 10
-27.3754503441
 20
41.0328363559
 10
-27.3698272837
 20
41.0432631388
 10
-27.363915733
 20
41.0535405708
 10
-27.3577290012
 20
41.0636455188
 10
-27.3512810246
 20
41.0735552298
 10
-27.3445862913
 20
41.0832474466
 10
-27.3376598152
 20
41.0927004337
 10
-27.3305171047
 20
41.101893013
 10
-27.3231742872
 20
41.1108044169
 10
-27.3156480405
 20
41.1194144171
 10
-27.3079554063
 20
41.1277035571
 10
-27.3001135937
 20
41.1356533313
 10
-27.2921400947
 20
41.1432460206
 10
-27.2840516173
 20
41.1504656063
 10
-27.275867546
 20
41.1572946785
 10
-27.2676098752
 20
41.1637151891
 10
-27.2592984545
 20
41.1697124084
 10
-27.2509508222
 20
41.17527438
 10
-27.242585742
 20
41.1803891973
  0
LWPOLYLINE
  5
38B
100
AcDbEntity
  8
0
100
AcDbPolyline
 62
253
  6
CONTINUOUS
 90
10
 70
0
 10
-19.8353188867
 20
37.8335119786
 10
-19.8329845192
 20
37.8421194123
 10
-19.8303546576
 20
37.85076163
 10
-19.8274351638
 20
37.8594193032
 10
-19.8242326199
 20
37.8680728539
 10
-19.8207542859
 20
37.876702649
 10
-19.8170080211
 20
37.885289204
 10
-19.8130022242
 20
37.8938132826
 10
-19.8087458783
 20
37.9022557681
 10
-19.8042485403
 20
37.9105976952
  0
LINE
  5
38C
100
AcDbEntity
  8
0
100
AcDbLine
 62
253
  6
CONTINUOUS
 10
-16.7696950893
 20
34.855297616
 11
-16.7653455771
 21
34.866084716
  0
LWPOLYLINE
  5
38D
100
AcDbEntity
  8
0
100
AcDbPolyline
 62
253
  6
CONTINUOUS
 90
27
 70
0
 10
-14.7621540456
 20
33.4497100647
 10
-14.766570533
 20
33.4390299394
 10
-14.7713741353
 20
33.4286028782
 10
-14.7765542795
 20
33.4184525619
 10
-14.7820999561
 20
33.4086013543
 10
-14.7879985202
 20
33.3990724564
 10
-14.7942354619
 20
33.3898896064
 10
-14.8007961584
 20
33.381074231
 10
-14.8076662936
 20
33.372645469
 10
-14.8148305086
 20
33.3646221866
 10
-14.822272752
 20
33.3570224191
 10
-14.829976147
 20
33.349863457
 10
-14.8379231582
 20
33.3431616172
 10
-14.8460957853
 20
33.3369320721
 10
-14.8544756383
 20
33.3311888322
 10
-14.8630438205
 20
33.3259448508
 10
-14.8717810048
 20
33.3212119617
 10
-14.8806674577
 20
33.3170008599
 10
-14.8896831007
 20
33.3133210619
 10
-14.8988075762
 20
33.3101808763
 10
-14.9080202938
 20
33.3075873885
 10
-14.9173004579
 20
33.3055464529
 10
-14.9266271206
 20
33.3040626764
 10
-14.9359792284
 20
33.3031394085
 10
-14.9453356704
 20
33.3027787334
 10
-14.9546753372
 20
33.3029814657
 10
-14.9608215566
 20
33.3034238704
  0
LWPOLYLINE
  5
38E
100
AcDbEntity
  8
0
100
AcDbPolyline
 62
253
  6
CONTINUOUS
 90
16
 70
0
 10
-16.7653455771
 20
34.866084716
 10
-16.7606611484
 20
34.8768177568
 10
-16.7556523404
 20
34.8874725996
 10
-16.7503304218
 20
34.8980252769
 10
-16.7447073614
 20
34.9084520597
 10
-16.7387958107
 20
34.9187294917
 10
-16.732609079
 20
34.9288344397
 10
-16.7261611024
 20
34.9387441507
 10
-16.7194663691
 20
34.9484363675
 10
-16.7125398929
 20
34.9578893546
 10
-16.7053971825
 20
34.967081934
 10
-16.698054365
 20
34.9759933378
 10
-16.6905281183
 20
34.984603338
 10
-16.6828354841
 20
34.992892478
 10
-16.6749936715
 20
35.0008422522
 10
-16.6670201725
 20
35.0084349416
  0
LWPOLYLINE
  5
38F
100
AcDbEntity
  8
RACCORDO
100
AcDbPolyline
 62
253
  6
CONTINUOUS
 90
28
 70
0
 10
-1.8118094168
 20
31.367580058
 10
-1.7866210747
 20
31.3819289459
 10
-1.7583923608
 20
31.3960872357
 10
-1.727123275
 20
31.4100549274
 10
-1.6926844855
 20
31.4240919632
 10
-1.6552053242
 20
31.4379384008
 10
-1.6150737866
 20
31.4508144138
 10
-1.5721432971
 20
31.4626680938
 10
-1.5265604314
 20
31.4735513491
 10
-1.4791529126
 20
31.4828400788
 10
-1.4298083778
 20
31.4904427967
 10
-1.3786391899
 20
31.496450989
 10
-1.3268101601
 20
31.5005150136
 10
-1.2742846004
 20
31.5025206458
 10
-1.2210991988
 20
31.5025821103
 10
-1.1685288314
 20
31.500692438
 10
-1.1166078116
 20
31.4967370964
 10
-1.065301826
 20
31.490830618
 10
-1.01578281
 20
31.4833096323
 10
-0.9681598383
 20
31.4740810323
 10
-0.9223238362
 20
31.463237925
 10
-0.8791195146
 20
31.4513962607
 10
-0.8386954706
 20
31.4385031494
 10
-0.8009031071
 20
31.4246114811
 10
-0.7661413431
 20
31.4104958758
 10
-0.7345431515
 20
31.3964145402
 10
-0.7059755595
 20
31.3821092676
 10
-0.6804385669
 20
31.367580058
  0
LWPOLYLINE
  5
390
100
AcDbEntity
  8
RACCORDO
100
AcDbPolyline
 62
7
  6
CONTINUOUS
 90
9
 70
0
 10
-1.905707644
 20
31.3809840392
 10
-1.9050431312
 20
31.3813549935
 10
-1.901102752
 20
31.3832977614
 10
-1.8968167167
 20
31.3849633501
 10
-1.8921740692
 20
31.3863172808
 10
-1.8871536365
 20
31.3873265507
 10
-1.8817183071
 20
31.3879465491
 10
-1.8758425249
 20
31.3881355355
 10
-1.8695189169
 20
31.3878470311
  0
LINE
  5
391
100
AcDbEntity
  8
DRAFT
100
AcDbLine
 62
7
  6
CONTINUOUS
 10
-5.2578778621
 20
30.2448229085
 11
0.114738823
 21
33.1340422971
  0
LWPOLYLINE
  5
392
100
AcDbEntity
  8
RACCORDO
100
AcDbPolyline
 62
7
  6
CONTINUOUS
 90
3
 70
0
 10
-1.7804842444
 20
31.4412437845
 10
-1.8479028835
 20
31.4113300375
 10
-1.9057069029
 20
31.38098473
  0
LWPOLYLINE
  5
393
100
AcDbEntity
  8
0
100
AcDbPolyline
 62
253
  6
CONTINUOUS
 90
11
 70
0
 10
16.9466761435
 20
-24.218056658
 10
16.9580685877
 20
-24.2161511949
 10
16.9692916934
 20
-24.2139358877
 10
16.9803201969
 20
-24.2114157223
 10
16.9911292757
 20
-24.2085963704
 10
17.0016945962
 20
-24.2054841782
 10
17.0119923823
 20
-24.2020861488
 10
17.0219994489
 20
-24.1984099317
 10
17.0316932534
 20
-24.1944638088
 10
17.041051972
 20
-24.1902566662
 10
17.050054547
 20
-24.1857979721
  0
LWPOLYLINE
  5
394
100
AcDbEntity
  8
RACCORDO
100
AcDbPolyline
 62
7
  6
CONTINUOUS
 90
4
 70
0
 10
-33.1008194703
 20
2.9406813229
 10
-33.0636337629
 20
2.8746175139
 10
-33.0178407052
 20
2.8107318541
 10
-32.9657728045
 20
2.7532110196
  0
LINE
  5
395
100
AcDbEntity
  8
RACCORDO
100
AcDbLine
 62
7
  6
CONTINUOUS
 10
-33.1012508931
 20
2.9415491244
 11
-33.1008201807
 21
2.940680968
  0
LWPOLYLINE
  5
396
100
AcDbEntity
  8
RACCORDO
100
AcDbPolyline
 62
253
  6
CONTINUOUS
 90
10
 70
0
 10
-32.9756075536
 20
2.8097738453
 10
-33.351377575
 20
3.5903329372
 10
-33.714327413
 20
4.3850431379
 10
-34.0643746439
 20
5.193726184
 10
-34.4014384924
 20
6.0161999679
 10
-34.7254437004
 20
6.8522808429
 10
-35.036320542
 20
7.7017836665
 10
-35.3339997047
 20
8.564518823
 10
-35.6184123087
 20
9.4402922631
 10
-35.889493771
 20
10.3289078128
  0
LWPOLYLINE
  5
397
100
AcDbEntity
  8
0
100
AcDbPolyline
 62
253
  6
CONTINUOUS
 90
3
 70
0
 10
-29.1694100505
 20
41.6148348053
 10
-29.1700066884
 20
41.6216710774
 10
-29.1700953731
 20
41.6255155624
  0
LINE
  5
398
100
AcDbEntity
  8
0
100
AcDbLine
 62
253
  6
CONTINUOUS
 10
-24.9364168576
 20
42.1136384279
 11
-24.9362640757
 21
42.1037817769
  0
LINE
  5
399
100
AcDbEntity
  8
0
100
AcDbLine
 62
7
  6
CONTINUOUS
 10
-25.4645312475
 20
40.2882931213
 11
-25.4645312475
 21
41.7987665877
  0
LINE
  5
39A
100
AcDbEntity
  8
0
100
AcDbLine
 62
253
  6
CONTINUOUS
 10
-24.9362640757
 20
42.1037817769
 11
-24.9362640757
 21
41.7761364764
  0
LINE
  5
39B
100
AcDbEntity
  8
0
100
AcDbLine
 62
7
  6
CONTINUOUS
 10
-24.8640662187
 20
42.2052548899
 11
-24.8640662187
 21
41.8776095894
  0
LINE
  5
39C
100
AcDbEntity
  8
0
100
AcDbLine
 62
7
  6
CONTINUOUS
 10
-24.5391216916
 20
39.8283767771
 11
-24.5391216916
 21
38.4649653708
  0
LINE
  5
39D
100
AcDbEntity
  8
0
100
AcDbLine
 62
7
  6
CONTINUOUS
 10
-23.8735409898
 20
38.0806674153
 11
-23.8735409898
 21
39.4440788216
  0
LINE
  5
39E
100
AcDbEntity
  8
0
100
AcDbLine
 62
7
  6
CONTINUOUS
 10
-23.1664342086
 20
39.6947566982
 11
-23.1664342086
 21
38.5317314027
  0
LINE
  5
39F
100
AcDbEntity
  8
0
100
AcDbLine
 62
253
  6
CONTINUOUS
 10
-21.5400886119
 20
37.592699838
 11
-21.5400886119
 21
38.7557251335
  0
LINE
  5
3A0
100
AcDbEntity
  8
0
100
AcDbLine
 62
253
  6
CONTINUOUS
 10
-21.2572458994
 20
37.6012577168
 11
-21.2572458994
 21
38.7557251335
  0
LINE
  5
3A1
100
AcDbEntity
  8
0
100
AcDbLine
 62
253
  6
CONTINUOUS
 10
-24.8640662187
 20
42.2052548899
 11
-24.8640662272
 21
42.2052172011
  0
LWPOLYLINE
  5
3A2
100
AcDbEntity
  8
0
100
AcDbPolyline
 62
253
  6
CONTINUOUS
 90
34
 70
0
 10
-21.5400886119
 20
38.7557251335
 10
-21.5399295686
 20
38.7635591449
 10
-21.5394527955
 20
38.7715592083
 10
-21.5386593634
 20
38.7797073308
 10
-21.5375510544
 20
38.7879851918
 10
-21.5361303603
 20
38.7963741674
 10
-21.534400479
 20
38.8048553712
 10
-21.5323653033
 20
38.8134097214
 10
-21.5300294102
 20
38.8220179824
 10
-21.5273980548
 20
38.83066079
 10
-21.5244771557
 20
38.8393187062
 10
-21.5212732837
 20
38.8479722555
 10
-21.5177936489
 20
38.8566019668
 10
-21.51404608
 20
38.8651884279
 10
-21.5100390065
 20
38.8737123285
 10
-21.5057814428
 20
38.882154496
 10
-21.5012829631
 20
38.8904959487
 10
-21.4965536893
 20
38.8987179197
 10
-21.4916042707
 20
38.9068018995
 10
-21.4864458568
 20
38.9147296851
 10
-21.4810900381
 20
38.9224834712
 10
-21.4755488261
 20
38.9300458693
 10
-21.4698346317
 20
38.9373999321
 10
-21.4639603535
 20
38.9445290506
 10
-21.457939322
 20
38.9514170553
 10
-21.451785163
 20
38.9580483872
 10
-21.4455116502
 20
38.9644082321
 10
-21.4391327869
 20
38.9704824041
 10
-21.4326619042
 20
38.9762581183
 10
-21.4261145449
 20
38.9817214123
 10
-21.4195084235
 20
38.9868577582
 10
-21.4128594622
 20
38.9916553626
 10
-21.4061816533
 20
38.9961047108
 10
-21.3994900071
 20
39.0001962977
  0
LWPOLYLINE
  5
3A3
100
AcDbEntity
  8
0
100
AcDbPolyline
 62
7
  6
CONTINUOUS
 90
34
 70
0
 10
-23.1664342086
 20
39.6947566982
 10
-23.1662729428
 20
39.7026155585
 10
-23.1657968606
 20
39.7106067386
 10
-23.1650059623
 20
39.7187302383
 10
-23.1638964428
 20
39.7270076914
 10
-23.1624721071
 20
39.7354174642
 10
-23.1607443695
 20
39.7438946555
 10
-23.158713064
 20
39.7524325881
 10
-23.1563783565
 20
39.7610379391
 10
-23.15375216
 20
39.7696658384
 10
-23.1508291897
 20
39.7783261459
 10
-23.1476147304
 20
39.7870090017
 10
-23.1441365487
 20
39.7956399557
 10
-23.1403977742
 20
39.8042073006
 10
-23.1363952774
 20
39.8127227438
 10
-23.1321474367
 20
39.8211469573
 10
-23.1276463026
 20
39.8294913059
 10
-23.1228998246
 20
39.8377444248
 10
-23.1179502291
 20
39.8458328912
 10
-23.1128033371
 20
39.8537441261
 10
-23.1074533276
 20
39.8614907085
 10
-23.1019249632
 20
39.8690369532
 10
-23.0962096881
 20
39.8763914714
 10
-23.0903160581
 20
39.8835456519
 10
-23.0842945038
 20
39.8904379762
 10
-23.078150891
 20
39.897058916
 10
-23.0718793539
 20
39.9034179995
 10
-23.0655127256
 20
39.9094822933
 10
-23.0590451396
 20
39.9152550323
 10
-23.0524824624
 20
39.9207329816
 10
-23.0458751269
 20
39.9258735031
 10
-23.0392399441
 20
39.930662384
 10
-23.0325601031
 20
39.9351138371
 10
-23.0258356038
 20
39.9392278624
  0
LWPOLYLINE
  5
3A4
100
AcDbEntity
  8
0
100
AcDbPolyline
 62
7
  6
CONTINUOUS
 90
4
 70
0
 10
-19.9016109808
 20
37.8575210282
 10
-19.8987187126
 20
37.8913893715
 10
-19.8899494144
 20
37.9248090655
 10
-19.8753718469
 20
37.9565521415
  0
LINE
  5
3A5
100
AcDbEntity
  8
0
100
AcDbLine
 62
7
  6
CONTINUOUS
 10
-10.052702176
 20
33.4274911134
 11
-10.2312622747
 21
33.1163927372
  0
LINE
  5
3A6
100
AcDbEntity
  8
RACCORDO
100
AcDbLine
 62
7
  6
CONTINUOUS
 10
-3.9740516552
 20
29.5035577468
 11
-1.9145741425
 21
31.3745556908
  0
LINE
  5
3A7
100
AcDbEntity
  8
RACCORDO
100
AcDbLine
 62
253
  6
CONTINUOUS
 10
-3.9065251777
 20
29.464568805
 11
-1.8118094168
 21
31.367580058
  0
LWPOLYLINE
  5
3A8
100
AcDbEntity
  8
RACCORDO
100
AcDbPolyline
 62
7
  6
CONTINUOUS
 90
4
 70
0
 10
-1.9145740644
 20
31.3745557617
 10
-1.9119519479
 20
31.3767791022
 10
-1.9086546797
 20
31.379171319
 10
-1.905707644
 20
31.3809840392
  0
LINE
  5
3A9
100
AcDbEntity
  8
RACCORDO
100
AcDbLine
 62
7
  6
CONTINUOUS
 10
1.1808937685
 20
26.5271568658
 11
2.8550953391
 21
27.4600768002
  0
LWPOLYLINE
  5
3AA
100
AcDbEntity
  8
0
100
AcDbPolyline
 62
253
  6
CONTINUOUS
 90
16
 70
0
 10
4.9005657543
 20
25.0311302581
 10
4.9070484351
 20
25.033564851
 10
4.9137753654
 20
25.0354910586
 10
4.9207313471
 20
25.0369045296
 10
4.9279006889
 20
25.037802063
 10
4.9352670847
 20
25.0381816052
 10
4.9428136817
 20
25.0380423003
 10
4.9505232677
 20
25.0373845051
 10
4.958378467
 20
25.0362097401
 10
4.9663616257
 20
25.0345206594
 10
4.9744558732
 20
25.0323207231
 10
4.982641684
 20
25.0296151303
 10
4.9908969502
 20
25.026411494
 10
4.9992017059
 20
25.0227182691
 10
5.0075382874
 20
25.0185440131
 10
5.0158878229
 20
25.0138987742
  0
LWPOLYLINE
  5
3AB
100
AcDbEntity
  8
0
100
AcDbPolyline
 62
253
  6
CONTINUOUS
 90
9
 70
0
 10
16.8525711101
 20
-24.2217815965
 10
16.8643752184
 20
-24.222449037
 10
16.8762209431
 20
-24.2227924734
 10
16.8880815901
 20
-24.222811127
 10
16.8999304433
 20
-24.2225049531
 10
16.9117408273
 20
-24.2218746395
 10
16.9234861642
 20
-24.2209216031
 10
16.9351400128
 20
-24.2196479876
 10
16.9466761435
 20
-24.218056658
  0
LWPOLYLINE
  5
3AC
100
AcDbEntity
  8
RACCORDO
100
AcDbPolyline
 62
253
  6
CONTINUOUS
 90
4
 70
0
 10
-33.0859233461
 20
2.9142765781
 10
-33.055696505
 20
2.8744077244
 10
-33.0187178929
 20
2.8393777427
 10
-32.9756074764
 20
2.8097739298
  0
LINE
  5
3AD
100
AcDbEntity
  8
SUPERFICI
100
AcDbLine
 62
7
  6
CONTINUOUS
 10
-32.8890220915
 20
31.2094344182
 11
-32.6512550854
 21
30.3221177249
  0
LINE
  5
3AE
100
AcDbEntity
  8
SUPERFICI
100
AcDbLine
 62
7
  6
CONTINUOUS
 10
-31.1143766894
 20
30.9348094085
 11
-30.6388426772
 21
29.1601760218
  0
LINE
  5
3AF
100
AcDbEntity
  8
0
100
AcDbLine
 62
253
  6
CONTINUOUS
 10
-16.8664373683
 20
34.8420128338
 11
-16.8664373804
 21
34.8420578114
  0
LINE
  5
3B0
100
AcDbEntity
  8
0
100
AcDbLine
 62
7
  6
CONTINUOUS
 10
-20.3380070839
 20
39.2831570453
 11
-20.3380070839
 21
38.1405764389
  0
LINE
  5
3B1
100
AcDbEntity
  8
0
100
AcDbLine
 62
7
  6
CONTINUOUS
 10
-19.9016109808
 20
37.8575210282
 11
-19.9016109808
 21
36.6970022774
  0
LINE
  5
3B2
100
AcDbEntity
  8
0
100
AcDbLine
 62
253
  6
CONTINUOUS
 10
-19.843032337
 20
37.7758661095
 11
-19.843032337
 21
36.612840814
  0
LINE
  5
3B3
100
AcDbEntity
  8
0
100
AcDbLine
 62
7
  6
CONTINUOUS
 10
-18.9237935215
 20
36.5861566683
 11
-18.9237935215
 21
35.222745262
  0
LINE
  5
3B4
100
AcDbEntity
  8
0
100
AcDbLine
 62
7
  6
CONTINUOUS
 10
-18.2582128197
 20
34.8384473065
 11
-18.2582128197
 21
36.2018587127
  0
LINE
  5
3B5
100
AcDbEntity
  8
DRAFT
100
AcDbLine
 62
253
  6
CONTINUOUS
 10
-17.7924226716
 20
40.579335431
 11
-17.7924226716
 21
41.6222874047
  0
LINE
  5
3B6
100
AcDbEntity
  8
0
100
AcDbLine
 62
253
  6
CONTINUOUS
 10
-17.4763761409
 20
41.8026456253
 11
-17.4763761409
 21
43.1074099169
  0
LINE
  5
3B7
100
AcDbEntity
  8
0
100
AcDbLine
 62
7
  6
CONTINUOUS
 10
-17.3436830033
 20
41.9860897657
 11
-17.3436830033
 21
43.1629265529
  0
LINE
  5
3B8
100
AcDbEntity
  8
0
100
AcDbLine
 62
7
  6
CONTINUOUS
 10
-17.1913819076
 20
35.5114803794
 11
-17.1913819076
 21
36.8178328223
  0
LINE
  5
3B9
100
AcDbEntity
  8
0
100
AcDbLine
 62
7
  6
CONTINUOUS
 10
-16.8664373804
 20
34.8420578114
 11
-16.8664373804
 21
34.5215376385
  0
LWPOLYLINE
  5
3BA
100
AcDbEntity
  8
0
100
AcDbPolyline
 62
253
  6
CONTINUOUS
 90
8
 70
0
 10
-19.843032337
 20
37.7758661095
 10
-19.8428738847
 20
37.7836853917
 10
-19.8423985975
 20
37.791673761
 10
-19.8416071143
 20
37.7998135121
 10
-19.8405005968
 20
37.8080878098
 10
-19.8390812045
 20
37.8164770079
 10
-19.837352558
 20
37.8249585366
 10
-19.8353188867
 20
37.8335119786
  0
LWPOLYLINE
  5
3BB
100
AcDbEntity
  8
0
100
AcDbPolyline
 62
253
  6
CONTINUOUS
 90
12
 70
0
 10
-16.7932140757
 20
34.739989163
 10
-16.7930152729
 20
34.7497816447
 10
-16.7924193106
 20
34.7597816885
 10
-16.7914275275
 20
34.7699668031
 10
-16.7900421514
 20
34.7803140874
 10
-16.7882662973
 20
34.7908002624
 10
-16.7861039622
 20
34.8014017225
 10
-16.7835600116
 20
34.812094617
 10
-16.7806401668
 20
34.8228549005
 10
-16.7773509969
 20
34.8336583677
 10
-16.7736998999
 20
34.8444807206
 10
-16.7696950893
 20
34.855297616
  0
LINE
  5
3BC
100
AcDbEntity
  8
RACCORDO
100
AcDbLine
 62
253
  6
CONTINUOUS
 10
2.7136739828
 20
28.7546226607
 11
0.6189582219
 21
26.8516114077
  0
LINE
  5
3BD
100
AcDbEntity
  8
RACCORDO
100
AcDbLine
 62
253
  6
CONTINUOUS
 10
2.8550953391
 20
28.5030930283
 11
0.8747063978
 21
26.7039456162
  0
LWPOLYLINE
  5
3BE
100
AcDbEntity
  8
0
100
AcDbPolyline
 62
253
  6
CONTINUOUS
 90
4
 70
0
 10
2.8645300231
 20
23.7557547111
 10
2.8727930341
 20
23.7621760247
 10
2.8811145301
 20
23.7681767834
 10
2.889475786
 20
23.7737434839
  0
LINE
  5
3BF
100
AcDbEntity
  8
0
100
AcDbLine
 62
253
  6
CONTINUOUS
 10
2.889475786
 20
23.7737434839
 11
2.8978579866
 21
23.7788635998
  0
LINE
  5
3C0
100
AcDbEntity
  8
0
100
AcDbLine
 62
7
  6
CONTINUOUS
 10
2.7718193144
 20
23.7906435928
 11
4.3558023779
 21
24.7244703806
  0
LINE
  5
3C1
100
AcDbEntity
  8
0
100
AcDbLine
 62
253
  6
CONTINUOUS
 10
2.8978579866
 20
23.7788635998
 11
4.4814385126
 21
24.7124530743
  0
LINE
  5
3C2
100
AcDbEntity
  8
DRAFT
100
AcDbLine
 62
7
  6
CONTINUOUS
 10
2.811339287
 20
25.5857580577
 11
7.9996149111
 21
28.5814136646
  0
LINE
  5
3C3
100
AcDbEntity
  8
DRAFT
100
AcDbLine
 62
7
  6
CONTINUOUS
 10
7.9996149111
 20
28.4181196092
 11
2.9527467337
 21
25.5041111702
  0
LINE
  5
3C4
100
AcDbEntity
  8
0
100
AcDbLine
 62
253
  6
CONTINUOUS
 10
4.5782484517
 20
22.8086272055
 11
6.706767374
 21
24.0376061131
  0
LINE
  5
3C5
100
AcDbEntity
  8
0
100
AcDbLine
 62
253
  6
CONTINUOUS
 10
4.7550227238
 20
22.5024451851
 11
6.8835410777
 21
23.7314250772
  0
LINE
  5
3C6
100
AcDbEntity
  8
0
100
AcDbLine
 62
7
  6
CONTINUOUS
 10
4.3558023913
 20
24.7244703882
 11
4.3571843289
 21
24.7252673736
  0
LINE
  5
3C7
100
AcDbEntity
  8
0
100
AcDbLine
 62
7
  6
CONTINUOUS
 10
10.7393628738
 20
27.0370342882
 11
10.7135218081
 21
27.0223743707
  0
LINE
  5
3C8
100
AcDbEntity
  8
0
100
AcDbLine
 62
7
  6
CONTINUOUS
 10
4.3571843155
 20
24.725267366
 11
4.8920411952
 21
25.0269422982
  0
LINE
  5
3C9
100
AcDbEntity
  8
0
100
AcDbLine
 62
253
  6
CONTINUOUS
 10
4.4814379442
 20
24.7124534025
 11
5.0158878229
 21
25.0138987742
  0
LINE
  5
3CA
100
AcDbEntity
  8
0
100
AcDbLine
 62
7
  6
CONTINUOUS
 10
5.0317613957
 20
25.0580785102
 11
9.6536292221
 21
27.6343430663
  0
LINE
  5
3CB
100
AcDbEntity
  8
0
100
AcDbLine
 62
7
  6
CONTINUOUS
 10
9.9910165187
 20
27.4395398697
 11
10.017083096
 21
27.4540695796
  0
LWPOLYLINE
  5
3CC
100
AcDbEntity
  8
0
100
AcDbPolyline
 62
253
  6
CONTINUOUS
 90
18
 70
0
 10
2.7718193144
 20
23.7906435928
 10
2.7755028209
 20
23.7926915029
 10
2.7817328809
 20
23.7956326082
 10
2.7882281135
 20
23.7980744285
 10
2.7949738161
 20
23.8000114456
 10
2.8019547479
 20
23.8014392837
 10
2.8091551616
 20
23.8023547096
 10
2.8165586801
 20
23.8027556288
 10
2.824148366
 20
23.8026411366
 10
2.8319069084
 20
23.8020115327
 10
2.8398168205
 20
23.800868274
 10
2.8478603248
 20
23.7992139436
 10
2.8560204252
 20
23.7970519287
 10
2.8642774371
 20
23.7943873377
 10
2.8726090543
 20
23.7912276721
 10
2.8809951184
 20
23.7875812781
 10
2.8894177867
 20
23.7834566096
 10
2.8978579866
 20
23.7788635998
  0
LWPOLYLINE
  5
3CD
100
AcDbEntity
  8
0
100
AcDbPolyline
 62
7
  6
CONTINUOUS
 90
18
 70
0
 10
4.3571843289
 20
24.7252673736
 10
4.3594711777
 20
24.7265105682
 10
4.3656966791
 20
24.7294506648
 10
4.3721842754
 20
24.731889808
 10
4.3789192634
 20
24.7338224689
 10
4.3858863419
 20
24.7352442455
 10
4.3930697776
 20
24.7361519455
 10
4.4004533124
 20
24.7365435216
 10
4.4080201349
 20
24.7364180403
 10
4.4157531725
 20
24.7357758257
 10
4.4236349438
 20
24.7346183538
 10
4.4316474693
 20
24.7329481779
 10
4.4397726957
 20
24.7307691291
 10
4.4479922638
 20
24.7280861779
 10
4.4562873613
 20
24.7249053251
 10
4.4646391927
 20
24.7212337911
 10
4.4730290225
 20
24.7170799932
 10
4.4814379442
 20
24.7124534025
  0
LWPOLYLINE
  5
3CE
100
AcDbEntity
  8
0
100
AcDbPolyline
 62
253
  6
CONTINUOUS
 90
3
 70
0
 10
4.8920411952
 20
25.0269422982
 10
4.8943419971
 20
25.0281927816
 10
4.9005657543
 20
25.0311302581
  0
LINE
  5
3CF
100
AcDbEntity
  8
0
100
AcDbLine
 62
7
  6
CONTINUOUS
 10
4.9195351549
 20
25.0403039005
 11
4.8919984589
 21
25.0269181771
  0
LWPOLYLINE
  5
3D0
100
AcDbEntity
  8
0
100
AcDbPolyline
 62
7
  6
CONTINUOUS
 90
7
 70
0
 10
13.7045989969
 20
25.105849077
 10
13.7147249191
 20
25.1101521682
 10
13.7251734606
 20
25.1139476019
 10
13.7359367986
 20
25.1172287074
 10
13.7470025085
 20
25.1199907193
 10
13.7583658874
 20
25.1222255263
 10
13.7700309392
 20
25.1239209185
  0
LINE
  5
3D1
100
AcDbEntity
  8
0
100
AcDbLine
 62
253
  6
CONTINUOUS
 10
19.1871990703
 20
-22.6365839343
 11
18.6589318986
 21
-22.5909409913
  0
LINE
  5
3D2
100
AcDbEntity
  8
0
100
AcDbLine
 62
253
  6
CONTINUOUS
 10
19.097785275
 20
-22.3073054968
 11
18.703141627
 21
-22.273207793
  0
LWPOLYLINE
  5
3D3
100
AcDbEntity
  8
0
100
AcDbPolyline
 62
7
  6
CONTINUOUS
 90
35
 70
0
 10
17.7694899339
 20
-22.9819819576
 10
17.762850255
 20
-22.9813244174
 10
17.7559633973
 20
-22.9805149151
 10
17.7488314054
 20
-22.979558407
 10
17.7414523603
 20
-22.9784661533
 10
17.7338335814
 20
-22.9772378115
 10
17.7259915161
 20
-22.9758613759
 10
17.7179297235
 20
-22.9743434108
 10
17.709652489
 20
-22.9726901407
 10
17.701177804
 20
-22.9708894386
 10
17.6925105403
 20
-22.9689487758
 10
17.6836562228
 20
-22.9668753449
 10
17.6746342751
 20
-22.9646569897
 10
17.6654509132
 20
-22.9623020797
 10
17.6561129584
 20
-22.9598187738
 10
17.6466412046
 20
-22.9571950005
 10
17.6370432414
 20
-22.9544400099
 10
17.6273272524
 20
-22.9515629327
 10
17.617515413
 20
-22.9485519411
 10
17.6076167344
 20
-22.9454171393
 10
17.5976408202
 20
-22.9421686374
 10
17.5876112772
 20
-22.9387950716
 10
17.5775385956
 20
-22.9353073545
 10
17.5674338478
 20
-22.9317165807
 10
17.5573221232
 20
-22.9280121463
 10
17.5472154588
 20
-22.9242056995
 10
17.5371264143
 20
-22.9203093075
 10
17.5270815439
 20
-22.9163134977
 10
17.5170945078
 20
-22.9122305527
 10
17.5071793109
 20
-22.9080734559
 10
17.4973637617
 20
-22.903834277
 10
17.4876631868
 20
-22.8995257932
 10
17.4780929354
 20
-22.8951617877
 10
17.4686816129
 20
-22.8907362828
 10
17.4659919117
 20
-22.8894337954
  0
LWPOLYLINE
  5
3D4
100
AcDbEntity
  8
0
100
AcDbPolyline
 62
253
  6
CONTINUOUS
 90
5
 70
0
 10
16.8062985709
 20
-24.2159126397
 10
16.8176728152
 20
-24.2178538781
 10
16.8291936885
 20
-24.2194814409
 10
16.8408351538
 20
-24.2207916571
 10
16.8525711101
 20
-24.2217815965
  0
LWPOLYLINE
  5
3D5
100
AcDbEntity
  8
RACCORDO
100
AcDbPolyline
 62
7
  6
CONTINUOUS
 90
3
 70
0
 10
-32.9657728045
 20
2.7532110196
 10
-32.908449681
 20
2.7028522152
 10
-32.8469373876
 20
2.6601150719
  0
LWPOLYLINE
  5
3D6
100
AcDbEntity
  8
0
100
AcDbPolyline
 62
253
  6
CONTINUOUS
 90
3
 70
0
 10
-16.8657533993
 20
34.5108673253
 10
-16.8663491977
 20
34.5177040481
 10
-16.8664373804
 20
34.5215376385
  0
LINE
  5
3D7
100
AcDbEntity
  8
0
100
AcDbLine
 62
7
  6
CONTINUOUS
 10
-16.8638436574
 20
34.4856192021
 11
-16.8664370664
 21
34.5217664161
  0
LWPOLYLINE
  5
3D8
100
AcDbEntity
  8
0
100
AcDbPolyline
 62
253
  6
CONTINUOUS
 90
18
 70
0
 10
-16.7932140757
 20
34.4194689902
 10
-16.7930457798
 20
34.4106615249
 10
-16.7925412126
 20
34.4020651731
 10
-16.7917013348
 20
34.3936963028
 10
-16.790527749
 20
34.38557087
 10
-16.7890226881
 20
34.3777043233
 10
-16.7871890017
 20
34.3701115813
 10
-16.7850301577
 20
34.3628070592
 10
-16.7825502703
 20
34.3558047254
 10
-16.7797540905
 20
34.3491180018
 10
-16.776646968
 20
34.3427596567
 10
-16.7732348059
 20
34.3367417484
 10
-16.7695240779
 20
34.3310756921
 10
-16.7655218172
 20
34.3257722422
 10
-16.761235668
 20
34.3208415427
 10
-16.7566738585
 20
34.3162930492
 10
-16.751845129
 20
34.3121354441
 10
-16.747612729
 20
34.3090077469
  0
LWPOLYLINE
  5
3D9
100
AcDbEntity
  8
0
100
AcDbPolyline
 62
253
  6
CONTINUOUS
 90
19
 70
0
 10
-15.1146760053
 20
33.4503021454
 10
-15.114508173
 20
33.4415066806
 10
-15.1140047664
 20
33.4329188363
 10
-15.1131663993
 20
33.424555154
 10
-15.1119941727
 20
33.4164308682
 10
-15.1104900541
 20
33.4085626602
 10
-15.108657251
 20
33.4009683246
 10
-15.1064995261
 20
33.393663164
 10
-15.104020792
 20
33.3866601793
 10
-15.1012257347
 20
33.3799726295
 10
-15.0981196377
 20
33.373613206
 10
-15.0947084275
 20
33.367594087
 10
-15.0909986431
 20
33.3619268219
 10
-15.0869973799
 20
33.3566222349
 10
-15.082712234
 20
33.3516903822
 10
-15.0781513339
 20
33.3471406206
 10
-15.0733233279
 20
33.3429815922
 10
-15.0682374348
 20
33.3392212525
 10
-15.0629090758
 20
33.3358700814
  0
LWPOLYLINE
  5
3DA
100
AcDbEntity
  8
0
100
AcDbPolyline
 62
7
  6
CONTINUOUS
 90
25
 70
0
 10
-13.9740460532
 20
42.5836861891
 10
-13.9744251682
 20
42.6101295384
 10
-13.9755517575
 20
42.6360566436
 10
-13.9774258212
 20
42.6614675046
 10
-13.9800509483
 20
42.686388059
 10
-13.9834235497
 20
42.7107923692
 10
-13.9875328583
 20
42.7346026228
 10
-13.9923812139
 20
42.7578168574
 10
-13.9979662766
 20
42.7804370353
 10
-14.0042702597
 20
42.8023912316
 10
-14.0112954163
 20
42.8236772817
 10
-14.0190394932
 20
42.8442973503
 10
-14.0274779444
 20
42.8641860056
 10
-14.036613067
 20
42.8833410829
 10
-14.0464425639
 20
42.901764747
 10
-14.0569349973
 20
42.9193980609
 10
-14.0680923598
 20
42.9362383204
 10
-14.0799126589
 20
42.9522882296
 10
-14.0923584789
 20
42.9674969638
 10
-14.1054319407
 20
42.9818620006
 10
-14.1191309236
 20
42.9953858624
 10
-14.1334116498
 20
43.0080252913
 10
-14.148275899
 20
43.0197773797
 10
-14.1637218917
 20
43.0306450352
 10
-14.181128688
 20
43.0414230263
  0
LINE
  5
3DB
100
AcDbEntity
  8
0
100
AcDbLine
 62
7
  6
CONTINUOUS
 10
-16.8264968453
 20
41.7676125831
 11
-16.8264968453
 21
41.2339226881
  0
LINE
  5
3DC
100
AcDbEntity
  8
0
100
AcDbLine
 62
253
  6
CONTINUOUS
 10
-16.7932140757
 20
34.739989163
 11
-16.7932140757
 21
34.4194689902
  0
LINE
  5
3DD
100
AcDbEntity
  8
DRAFT
100
AcDbLine
 62
253
  6
CONTINUOUS
 10
-16.3782091092
 20
40.498925802
 11
-16.3782091092
 21
41.0844838152
  0
LINE
  5
3DE
100
AcDbEntity
  8
0
100
AcDbLine
 62
7
  6
CONTINUOUS
 10
-16.1634444261
 20
33.9713053996
 11
-16.1634444261
 21
33.6918779004
  0
LINE
  5
3DF
100
AcDbEntity
  8
0
100
AcDbLine
 62
253
  6
CONTINUOUS
 10
-16.0902211214
 20
33.9290271812
 11
-16.0902211214
 21
33.5866760712
  0
LINE
  5
3E0
100
AcDbEntity
  8
0
100
AcDbLine
 62
253
  6
CONTINUOUS
 10
-15.1146760053
 20
33.4503021454
 11
-15.1146760053
 21
33.7708223182
  0
LINE
  5
3E1
100
AcDbEntity
  8
0
100
AcDbLine
 62
253
  6
CONTINUOUS
 10
-14.7621540456
 20
33.4497100647
 11
-14.7621540456
 21
33.7702302375
  0
LINE
  5
3E2
100
AcDbEntity
  8
0
100
AcDbLine
 62
253
  6
CONTINUOUS
 10
-14.4034553972
 20
32.6127586822
 11
-14.4034553972
 21
33.245619201
  0
LINE
  5
3E3
100
AcDbEntity
  8
0
100
AcDbLine
 62
253
  6
CONTINUOUS
 10
-14.0509334375
 20
32.6228017157
 11
-14.0509334375
 21
33.3842200518
  0
LINE
  5
3E4
100
AcDbEntity
  8
0
100
AcDbLine
 62
7
  6
CONTINUOUS
 10
-13.9740460532
 20
42.5836861891
 11
-13.9740460532
 21
42.1460687767
  0
LINE
  5
3E5
100
AcDbEntity
  8
0
100
AcDbLine
 62
7
  6
CONTINUOUS
 10
-13.1608732548
 20
33.1843151974
 11
-13.1608732548
 21
34.6947886638
  0
LINE
  5
3E6
100
AcDbEntity
  8
0
100
AcDbLine
 62
253
  6
CONTINUOUS
 10
-12.6326060831
 20
34.999803853
 11
-12.6326060831
 21
34.6721585525
  0
LINE
  5
3E7
100
AcDbEntity
  8
0
100
AcDbLine
 62
7
  6
CONTINUOUS
 10
-12.5604082261
 20
35.101276966
 11
-12.5604082261
 21
34.7736316655
  0
LINE
  5
3E8
100
AcDbEntity
  8
0
100
AcDbLine
 62
253
  6
CONTINUOUS
 10
-12.5604082261
 20
35.101276966
 11
-12.5604082346
 21
35.1012392772
  0
LWPOLYLINE
  5
3E9
100
AcDbEntity
  8
0
100
AcDbPolyline
 62
253
  6
CONTINUOUS
 90
18
 70
0
 10
-12.5604082346
 20
35.1012392772
 10
-12.5604617876
 20
35.0982891382
 10
-12.560988215
 20
35.0914502098
 10
-12.5620756273
 20
35.0846333739
 10
-12.563721582
 20
35.0778539595
 10
-12.5659223792
 20
35.0711272172
 10
-12.5686730721
 20
35.0644682758
 10
-12.5719674759
 20
35.0578921138
 10
-12.5757981804
 20
35.0514135274
 10
-12.58015657
 20
35.0450470896
 10
-12.5850328437
 20
35.0388071188
 10
-12.5904160331
 20
35.0327076522
 10
-12.5962940343
 20
35.0267624058
 10
-12.6026536244
 20
35.0209847551
 10
-12.6094804872
 20
35.0153877055
 10
-12.6167592613
 20
35.0099838484
 10
-12.6244735775
 20
35.0047853337
 10
-12.6326060831
 20
34.999803853
  0
LWPOLYLINE
  5
3EA
100
AcDbEntity
  8
0
100
AcDbPolyline
 62
253
  6
CONTINUOUS
 90
34
 70
0
 10
-15.1146760053
 20
33.7708223182
 10
-15.1144772574
 20
33.7806134333
 10
-15.1138814606
 20
33.7906120413
 10
-15.1128899547
 20
33.8007956598
 10
-15.111504969
 20
33.81114139
 10
-15.1097296179
 20
33.8216259688
 10
-15.1075678933
 20
33.8322258209
 10
-15.1050246561
 20
33.8429171116
 10
-15.1021056249
 20
33.8536758008
 10
-15.0988173633
 20
33.8644776967
 10
-15.0951672653
 20
33.8752985105
 10
-15.0911635385
 20
33.8861139108
 10
-15.0868151854
 20
33.8968995783
 10
-15.0821319837
 20
33.9076312605
 10
-15.0771244639
 20
33.9182848267
 10
-15.0718038858
 20
33.9288363212
 10
-15.0661822131
 20
33.9392620185
 10
-15.0602720867
 20
33.9495384754
 10
-15.0540867957
 20
33.9596425845
 10
-15.0476402484
 20
33.9695516261
 10
-15.0409469404
 20
33.9792433189
 10
-15.0340219219
 20
33.9886958703
 10
-15.0268807644
 20
33.9978880257
 10
-15.0195395254
 20
34.0067991157
 10
-15.0120147122
 20
34.0154091031
 10
-15.004323245
 20
34.0236986277
 10
-14.9964824184
 20
34.0316490499
 10
-14.9885098633
 20
34.0392424925
 10
-14.9804235066
 20
34.0464618811
 10
-14.972241531
 20
34.0532909823
 10
-14.9639823343
 20
34.0597144405
 10
-14.9556644879
 20
34.0657178119
 10
-14.9473066952
 20
34.0712875976
 10
-14.9389277493
 20
34.0764112734
  0
LWPOLYLINE
  5
3EB
100
AcDbEntity
  8
0
100
AcDbPolyline
 62
253
  6
CONTINUOUS
 90
17
 70
0
 10
-12.560462649
 20
34.7706199115
 10
-12.560991002
 20
34.7637813552
 10
-12.562080274
 20
34.7569649762
 10
-12.563728012
 20
34.750186094
 10
-12.5659305122
 20
34.7434599386
 10
-12.5686828439
 20
34.7368015876
 10
-12.5719788028
 20
34.7302260654
 10
-12.5758108943
 20
34.7237482891
 10
-12.5801704063
 20
34.7173829046
 10
-12.585047552
 20
34.7111441311
 10
-12.5904314473
 20
34.7050458676
 10
-12.5963104823
 20
34.6991013513
 10
-12.6026710191
 20
34.6933244519
 10
-12.6094971788
 20
34.6877293889
 10
-12.6167727513
 20
34.6823290093
 10
-12.6244815849
 20
34.6771348895
 10
-12.6326060831
 20
34.6721585525
  0
LINE
  5
3EC
100
AcDbEntity
  8
RACCORDO
100
AcDbLine
 62
7
  6
CONTINUOUS
 10
2.8626338999
 20
28.5140732644
 11
2.8550953391
 21
28.5030930283
  0
LWPOLYLINE
  5
3ED
100
AcDbEntity
  8
0
100
AcDbPolyline
 62
253
  6
CONTINUOUS
 90
3
 70
0
 10
2.8482536587
 20
23.7417091308
 10
2.8563440912
 20
23.748927292
 10
2.8645300231
 20
23.7557547111
  0
LINE
  5
3EE
100
AcDbEntity
  8
0
100
AcDbLine
 62
7
  6
CONTINUOUS
 10
6.3552739059
 20
21.9159364216
 11
5.4658319413
 21
21.3541909723
  0
LINE
  5
3EF
100
AcDbEntity
  8
0
100
AcDbLine
 62
7
  6
CONTINUOUS
 10
8.3351728933
 20
22.0791200031
 11
7.2800663759
 21
21.4570889015
  0
LINE
  5
3F0
100
AcDbEntity
  8
0
100
AcDbLine
 62
7
  6
CONTINUOUS
 10
7.9462641636
 20
21.0724346483
 11
8.7940518239
 21
21.5670622222
  0
LINE
  5
3F1
100
AcDbEntity
  8
0
100
AcDbLine
 62
253
  6
CONTINUOUS
 10
10.4203974207
 20
20.6280306576
 11
10.6332699321
 21
20.7522275748
  0
LINE
  5
3F2
100
AcDbEntity
  8
0
100
AcDbLine
 62
7
  6
CONTINUOUS
 10
7.3067693021
 20
23.4043498472
 11
12.143240728
 21
26.1968725849
  0
LINE
  5
3F3
100
AcDbEntity
  8
0
100
AcDbLine
 62
7
  6
CONTINUOUS
 10
7.7612598145
 20
22.7277359822
 11
14.3810918274
 21
26.5499712679
  0
LINE
  5
3F4
100
AcDbEntity
  8
0
100
AcDbLine
 62
7
  6
CONTINUOUS
 10
14.3122820729
 20
24.7188667496
 11
9.7140311166
 21
22.0947836477
  0
LINE
  5
3F5
100
AcDbEntity
  8
0
100
AcDbLine
 62
7
  6
CONTINUOUS
 10
14.0273824818
 20
23.2499307049
 11
14.3434290125
 21
23.4302889256
  0
LINE
  5
3F6
100
AcDbEntity
  8
0
100
AcDbLine
 62
7
  6
CONTINUOUS
 10
17.1427660763
 20
24.6218865874
 11
14.9933083081
 21
23.3952558834
  0
LINE
  5
3F7
100
AcDbEntity
  8
0
100
AcDbLine
 62
253
  6
CONTINUOUS
 10
10.6332699321
 20
20.7522275748
 11
11.3403767133
 21
21.155752083
  0
LINE
  5
3F8
100
AcDbEntity
  8
0
100
AcDbLine
 62
7
  6
CONTINUOUS
 10
13.6713962992
 20
25.0889061632
 11
8.3351728933
 21
22.0791200031
  0
LWPOLYLINE
  5
3F9
100
AcDbEntity
  8
0
100
AcDbPolyline
 62
7
  6
CONTINUOUS
 90
7
 70
0
 10
14.3122820729
 20
24.7188667496
 10
14.3174956027
 20
24.7217970763
 10
14.3227001832
 20
24.7246343701
 10
14.3278958145
 20
24.7273786311
 10
14.3330824964
 20
24.7300298593
 10
14.3382602291
 20
24.7325880546
 10
14.3434290125
 20
24.7350532171
  0
LWPOLYLINE
  5
3FA
100
AcDbEntity
  8
RACCORDO
100
AcDbPolyline
 62
7
  6
CONTINUOUS
 90
9
 70
0
 10
14.0041949327
 20
22.1948056893
 10
14.0048594455
 20
22.1951766436
 10
14.0087998247
 20
22.1971194116
 10
14.01308586
 20
22.1987850003
 10
14.0177285075
 20
22.200138931
 10
14.0227489402
 20
22.2011482009
 10
14.0281842696
 20
22.2017681992
 10
14.0340600518
 20
22.2019571856
 10
14.0403836598
 20
22.2016686812
  0
LINE
  5
3FB
100
AcDbEntity
  8
0
100
AcDbLine
 62
7
  6
CONTINUOUS
 10
14.3808297206
 20
24.7525105472
 11
14.3434290125
 21
24.7350532171
  0
LINE
  5
3FC
100
AcDbEntity
  8
0
100
AcDbLine
 62
7
  6
CONTINUOUS
 10
14.4054663403
 20
24.763863551
 11
14.3808297206
 21
24.7525105472
  0
LWPOLYLINE
  5
3FD
100
AcDbEntity
  8
RACCORDO
100
AcDbPolyline
 62
7
  6
CONTINUOUS
 90
3
 70
0
 10
14.1294183323
 20
22.2550654346
 10
14.0619996932
 20
22.2251516877
 10
14.0041956738
 20
22.1948063802
  0
LWPOLYLINE
  5
3FE
100
AcDbEntity
  8
0
100
AcDbPolyline
 62
7
  6
CONTINUOUS
 90
9
 70
0
 10
16.7578260007
 20
-24.2949989504
 10
16.786326653
 20
-24.3091176615
 10
16.816824754
 20
-24.3196242224
 10
16.8487624966
 20
-24.3261637394
 10
16.8815477698
 20
-24.32849275
 10
16.9144635719
 20
-24.3264868816
 10
16.9467979097
 20
-24.3201743183
 10
16.9782234008
 20
-24.3095814354
 10
17.0059116149
 20
-24.2960998867
  0
LWPOLYLINE
  5
3FF
100
AcDbEntity
  8
RACCORDO
100
AcDbPolyline
 62
7
  6
CONTINUOUS
 90
10
 70
0
 10
13.881130365
 20
-24.3203656587
 10
13.9356508069
 20
-24.3485640261
 10
14.0142488837
 20
-24.3789866237
 10
14.0972654106
 20
-24.3997314521
 10
14.1837601779
 20
-24.4102243089
 10
14.2723573183
 20
-24.4100440305
 10
14.3612893236
 20
-24.3991954515
 10
14.44955609
 20
-24.3779348368
 10
14.5366341211
 20
-24.3465283032
 10
14.5889217542
 20
-24.3225050325
  0
LWPOLYLINE
  5
400
100
AcDbEntity
  8
0
100
AcDbPolyline
 62
253
  6
CONTINUOUS
 90
11
 70
0
 10
16.7060553454
 20
-24.1805647351
 10
16.7146234859
 20
-24.1852829304
 10
16.7235727612
 20
-24.1897634335
 10
16.7328835446
 20
-24.1939958775
 10
16.7425367295
 20
-24.1979709699
 10
16.7525097336
 20
-24.2016788257
 10
16.7627761184
 20
-24.205109372
 10
16.7733112167
 20
-24.2082544484
 10
16.7840927953
 20
-24.2111074977
 10
16.7950967842
 20
-24.213662141
 10
16.8062985709
 20
-24.2159126397
  0
LWPOLYLINE
  5
401
100
AcDbEntity
  8
0
100
AcDbPolyline
 62
253
  6
CONTINUOUS
 90
34
 70
0
 10
16.7060553454
 20
-23.8589751161
 10
16.7146382277
 20
-23.8637010521
 10
16.723599642
 20
-23.8681866394
 10
16.7329194199
 20
-23.8724217827
 10
16.7425765753
 20
-23.8763969463
 10
16.7525493847
 20
-23.8801031887
 10
16.7628154403
 20
-23.8835321805
 10
16.7733516655
 20
-23.8866762084
 10
16.7841343263
 20
-23.8895281852
 10
16.7951391185
 20
-23.8920816804
 10
16.8063412612
 20
-23.8943309447
 10
16.8177155554
 20
-23.896270919
 10
16.8292364016
 20
-23.8978972372
 10
16.8408778704
 20
-23.899206239
 10
16.8526137615
 20
-23.9001949784
 10
16.8644176624
 20
-23.9008612302
 10
16.8762630158
 20
-23.901203495
 10
16.8881231536
 20
-23.901221002
 10
16.8999713574
 20
-23.9009137128
 10
16.9117809446
 20
-23.9002823221
 10
16.9235253542
 20
-23.899328253
 10
16.9351781802
 20
-23.8980536515
 10
16.9467132822
 20
-23.8964613733
 10
16.958104612
 20
-23.8945550103
 10
16.969326308
 20
-23.8923389005
 10
16.9803529796
 20
-23.8898180861
 10
16.9911599771
 20
-23.8869982301
 10
17.0017232064
 20
-23.8838856303
 10
17.0120197217
 20
-23.8804870033
 10
17.0220254811
 20
-23.8768102394
 10
17.031715836
 20
-23.8728645248
 10
17.0410685196
 20
-23.8686592367
 10
17.0500634695
 20
-23.8642037174
 10
17.0586807164
 20
-23.8595081448
  0
LINE
  5
402
100
AcDbEntity
  8
RACCORDO
100
AcDbLine
 62
7
  6
CONTINUOUS
 10
-32.8304655865
 20
2.6503250591
 11
-32.8316447175
 21
2.6510026145
  0
LINE
  5
403
100
AcDbEntity
  8
RACCORDO
100
AcDbLine
 62
7
  6
CONTINUOUS
 10
13.8807197744
 20
-24.3201311997
 11
13.8810789638
 21
-24.3203382985
  0
LINE
  5
404
100
AcDbEntity
  8
0
100
AcDbLine
 62
7
  6
CONTINUOUS
 10
13.880718843
 20
-24.3201306619
 11
-32.8316437746
 21
2.65100207
  0
LINE
  5
405
100
AcDbEntity
  8
RACCORDO
100
AcDbLine
 62
253
  6
CONTINUOUS
 10
-32.9756075536
 20
2.8097738453
 11
13.73421907
 21
-24.1598946356
  0
LINE
  5
406
100
AcDbEntity
  8
0
100
AcDbLine
 62
7
  6
CONTINUOUS
 10
15.7788974786
 20
-23.7297778906
 11
16.7578260007
 21
-24.2949989504
  0
LINE
  5
407
100
AcDbEntity
  8
0
100
AcDbLine
 62
253
  6
CONTINUOUS
 10
15.8575059055
 20
-23.6906229233
 11
16.7060553454
 21
-24.1805647351
  0
LINE
  5
408
100
AcDbEntity
  8
RACCORDO
100
AcDbLine
 62
7
  6
CONTINUOUS
 10
-32.8469373876
 20
2.6601150719
 11
-32.830411296
 21
2.6502962869
  0
LWPOLYLINE
  5
409
100
AcDbEntity
  8
RACCORDO
100
AcDbPolyline
 62
253
  6
CONTINUOUS
 90
6
 70
0
 10
-32.8316447175
 20
2.6510026145
 10
-32.8684573938
 20
2.6757099779
 10
-32.9009471942
 20
2.7043203673
 10
-32.9294848327
 20
2.7364354933
 10
-32.9543383263
 20
2.7717393003
 10
-32.9756075536
 20
2.8097738453
  0
LINE
  5
40A
100
AcDbEntity
  8
0
100
AcDbLine
 62
253
  6
CONTINUOUS
 10
-12.632758865
 20
35.009660504
 11
-12.6326060831
 21
34.999803853
  0
LINE
  5
40B
100
AcDbEntity
  8
0
100
AcDbLine
 62
253
  6
CONTINUOUS
 10
-11.8840712414
 20
38.5758585077
 11
-11.8840712414
 21
39.0156618691
  0
LINE
  5
40C
100
AcDbEntity
  8
0
100
AcDbLine
 62
253
  6
CONTINUOUS
 10
-11.8840712414
 20
39.3514927799
 11
-11.8840712414
 21
39.8804265712
  0
LINE
  5
40D
100
AcDbEntity
  8
0
100
AcDbLine
 62
7
  6
CONTINUOUS
 10
-11.7532363903
 20
38.7582359561
 11
-11.7532363903
 21
39.9350727433
  0
LINE
  5
40E
100
AcDbEntity
  8
SUPERFICI
100
AcDbLine
 62
7
  6
CONTINUOUS
 10
-11.6979823931
 20
18.9154900983
 11
-11.6979823931
 21
18.2239606785
  0
LWPOLYLINE
  5
40F
100
AcDbEntity
  8
RACCORDO
100
AcDbPolyline
 62
7
  6
CONTINUOUS
 90
43
 70
0
 10
2.8626338999
 20
28.5140732644
 10
2.8644382554
 20
28.5175277061
 10
2.8658741504
 20
28.5210815457
 10
2.866929515
 20
28.5247411204
 10
2.8675238993
 20
28.5285414532
 10
2.8677048506
 20
28.5324638007
 10
2.8676608511
 20
28.5364289636
 10
2.8674294633
 20
28.5403874354
 10
2.8669617581
 20
28.5443919673
 10
2.8663279922
 20
28.5485105436
 10
2.86553756
 20
28.5527637399
 10
2.8645667198
 20
28.5571338802
 10
2.8634368626
 20
28.5616307286
 10
2.8621493006
 20
28.5662494366
 10
2.8606903321
 20
28.5709948188
 10
2.8590588184
 20
28.575890486
 10
2.8572510709
 20
28.5809355316
 10
2.8552570572
 20
28.5861284795
 10
2.8530642384
 20
28.5914917338
 10
2.8506648343
 20
28.5970272335
 10
2.848051526
 20
28.6027269254
 10
2.8452109788
 20
28.6085972717
 10
2.8421404732
 20
28.6146272591
 10
2.8388292811
 20
28.6208158691
 10
2.8352503768
 20
28.6271827775
 10
2.8313976187
 20
28.6337200951
 10
2.8272642738
 20
28.6404150521
 10
2.822820384
 20
28.6472769165
 10
2.8180594103
 20
28.6542947805
 10
2.8129791837
 20
28.6614459331
 10
2.8075561426
 20
28.6687174209
 10
2.8018007011
 20
28.6760750778
 10
2.7957043905
 20
28.6835030159
 10
2.7892157182
 20
28.6910077835
 10
2.7823351233
 20
28.6985621421
 10
2.7750774314
 20
28.7061153101
 10
2.7674154948
 20
28.7136270835
 10
2.7593782336
 20
28.7210392726
 10
2.7509790117
 20
28.7283011023
 10
2.7421747364
 20
28.735367363
 10
2.7329784381
 20
28.7421679572
 10
2.7234600785
 20
28.7486153262
 10
2.7136739828
 20
28.7546226607
  0
LINE
  5
410
100
AcDbEntity
  8
0
100
AcDbLine
 62
253
  6
CONTINUOUS
 10
6.9012807958
 20
23.3494860912
 11
6.9012410782
 21
23.3494359719
  0
LINE
  5
411
100
AcDbEntity
  8
0
100
AcDbLine
 62
253
  6
CONTINUOUS
 10
6.3552739059
 20
22.7409675102
 11
6.8835410777
 21
23.4037797767
  0
LINE
  5
412
100
AcDbEntity
  8
0
100
AcDbLine
 62
7
  6
CONTINUOUS
 10
6.3552739059
 20
22.6644156674
 11
6.9012410782
 21
23.3494359719
  0
LINE
  5
413
100
AcDbEntity
  8
0
100
AcDbLine
 62
7
  6
CONTINUOUS
 10
8.6533709448
 20
20.1593747029
 11
7.9462641636
 21
19.7083107155
  0
LINE
  5
414
100
AcDbEntity
  8
0
100
AcDbLine
 62
7
  6
CONTINUOUS
 10
10.7746912884
 20
19.3642202133
 11
10.562559254
 21
19.2289010171
  0
LINE
  5
415
100
AcDbEntity
  8
0
100
AcDbLine
 62
253
  6
CONTINUOUS
 10
10.562559254
 20
20.3835114641
 11
10.7746501499
 21
20.5072523608
  0
LINE
  5
416
100
AcDbEntity
  8
0
100
AcDbLine
 62
7
  6
CONTINUOUS
 10
12.2300491935
 20
19.782118116
 11
12.0174070798
 21
19.6580556205
  0
LINE
  5
417
100
AcDbEntity
  8
0
100
AcDbLine
 62
253
  6
CONTINUOUS
 10
12.330326207
 20
19.7723685508
 11
12.1174536955
 21
19.6481716336
  0
LINE
  5
418
100
AcDbEntity
  8
0
100
AcDbLine
 62
7
  6
CONTINUOUS
 10
13.7437992922
 20
18.7091400689
 11
12.8960116319
 21
18.214512495
  0
LINE
  5
419
100
AcDbEntity
  8
0
100
AcDbLine
 62
7
  6
CONTINUOUS
 10
14.9933083081
 20
22.8615659883
 11
16.0972751772
 21
23.4989826226
  0
LINE
  5
41A
100
AcDbEntity
  8
0
100
AcDbLine
 62
7
  6
CONTINUOUS
 10
19.902915315
 20
21.4909051828
 11
13.5622094196
 21
17.8298582418
  0
LINE
  5
41B
100
AcDbEntity
  8
0
100
AcDbLine
 62
7
  6
CONTINUOUS
 10
12.2306023758
 20
19.782437321
 11
12.2300491974
 21
19.7821181183
  0
LINE
  5
41C
100
AcDbEntity
  8
0
100
AcDbLine
 62
7
  6
CONTINUOUS
 10
11.4817980695
 20
19.7682197392
 11
10.7746912884
 21
19.3642202133
  0
LINE
  5
41D
100
AcDbEntity
  8
0
100
AcDbLine
 62
253
  6
CONTINUOUS
 10
10.7746501499
 20
20.5072523608
 11
11.4817980695
 21
20.9108003455
  0
LINE
  5
41E
100
AcDbEntity
  8
0
100
AcDbLine
 62
7
  6
CONTINUOUS
 10
12.9377211268
 20
20.1859686601
 11
12.23060238
 21
19.7824373234
  0
LINE
  5
41F
100
AcDbEntity
  8
0
100
AcDbLine
 62
253
  6
CONTINUOUS
 10
13.0374329881
 20
20.175893059
 11
12.330326207
 21
19.7723685508
  0
LINE
  5
420
100
AcDbEntity
  8
0
100
AcDbLine
 62
7
  6
CONTINUOUS
 10
19.2620295412
 20
21.8609445964
 11
14.6637785849
 21
19.2368614944
  0
LINE
  5
421
100
AcDbEntity
  8
0
100
AcDbLine
 62
7
  6
CONTINUOUS
 10
20.0665687631
 20
21.4196179671
 11
21.3854067634
 21
22.1722390275
  0
LWPOLYLINE
  5
422
100
AcDbEntity
  8
RACCORDO
100
AcDbPolyline
 62
253
  6
CONTINUOUS
 90
28
 70
0
 10
14.0980931599
 20
22.1814017081
 10
14.123281502
 20
22.195750596
 10
14.1515102159
 20
22.2099088858
 10
14.1827793017
 20
22.2238765775
 10
14.2172180912
 20
22.2379136133
 10
14.2546972525
 20
22.2517600509
 10
14.2948287901
 20
22.264636064
 10
14.3377592796
 20
22.2764897439
 10
14.3833421453
 20
22.2873729992
 10
14.4307496641
 20
22.2966617289
 10
14.4800941989
 20
22.3042644468
 10
14.5312633868
 20
22.3102726392
 10
14.5830924166
 20
22.3143366637
 10
14.6356179763
 20
22.316342296
 10
14.6888033779
 20
22.3164037604
 10
14.7413737453
 20
22.3145140882
 10
14.7932947651
 20
22.3105587465
 10
14.8446007507
 20
22.3046522681
 10
14.8941197667
 20
22.2971312824
 10
14.9417427384
 20
22.2879026824
 10
14.9875787405
 20
22.2770595751
 10
15.0307830621
 20
22.2652179108
 10
15.0712071061
 20
22.2523247995
 10
15.1089994696
 20
22.2384331312
 10
15.1437612336
 20
22.2243175259
 10
15.1753594252
 20
22.2102361903
 10
15.2039270172
 20
22.1959309177
 10
15.2294640098
 20
22.1814017081
  0
LWPOLYLINE
  5
423
100
AcDbEntity
  8
0
100
AcDbPolyline
 62
7
  6
CONTINUOUS
 90
7
 70
0
 10
19.2620295412
 20
21.8609445964
 10
19.267243071
 20
21.863874923
 10
19.2724476515
 20
21.8667122168
 10
19.2776432828
 20
21.8694564778
 10
19.2828299647
 20
21.872107706
 10
19.2880076974
 20
21.8746659013
 10
19.2931764808
 20
21.8771310639
  0
LWPOLYLINE
  5
424
100
AcDbEntity
  8
0
100
AcDbPolyline
 62
7
  6
CONTINUOUS
 90
25
 70
0
 10
21.3854067634
 20
22.1722390275
 10
21.408495093
 20
22.184977083
 10
21.4315057535
 20
22.1968077194
 10
21.454438745
 20
22.2077309365
 10
21.4773183041
 20
22.2177564214
 10
21.5001201942
 20
22.226874487
 10
21.5227717053
 20
22.2350560728
 10
21.5452722942
 20
22.2422981669
 10
21.5676225041
 20
22.2486037812
 10
21.5897512545
 20
22.2539528901
 10
21.6116577845
 20
22.2583424579
 10
21.6333428549
 20
22.2617755203
 10
21.6547376684
 20
22.2642411598
 10
21.6758414855
 20
22.2657363018
 10
21.6966550455
 20
22.2662640209
 10
21.7171117696
 20
22.265822623
 10
21.7372103006
 20
22.2644090329
 10
21.7569519957
 20
22.2620263257
 10
21.776274347
 20
22.2586820334
 10
21.7951762182
 20
22.2543730585
 10
21.8136587457
 20
22.2491024984
 10
21.8316628304
 20
22.2428871764
 10
21.8491868341
 20
22.2357241025
 10
21.8662323952
 20
22.2276162667
 10
21.8813171525
 20
22.2194187666
  0
LINE
  5
425
100
AcDbEntity
  8
0
100
AcDbLine
 62
7
  6
CONTINUOUS
 10
17.2231931475
 20
17.9363259766
 11
17.1956564516
 21
17.9229402532
  0
LINE
  5
426
100
AcDbEntity
  8
0
100
AcDbLine
 62
7
  6
CONTINUOUS
 10
19.9727175444
 20
21.5253253971
 11
19.935733912
 21
21.5080698714
  0
LINE
  5
427
100
AcDbEntity
  8
0
100
AcDbLine
 62
7
  6
CONTINUOUS
 10
19.9892921953
 20
21.5329781615
 11
19.9727175444
 21
21.5253253971
  0
LINE
  5
428
100
AcDbEntity
  8
0
100
AcDbLine
 62
7
  6
CONTINUOUS
 10
20.0044957747
 20
21.5399135094
 11
19.9892921953
 21
21.5329781615
  0
LWPOLYLINE
  5
429
100
AcDbEntity
  8
0
100
AcDbPolyline
 62
7
  6
CONTINUOUS
 90
7
 70
0
 10
19.2931764808
 20
21.8771310639
 10
19.3032987323
 20
21.8815507868
 10
19.3137470015
 20
21.8854585598
 10
19.3245132759
 20
21.888847672
 10
19.3355850454
 20
21.8917132492
 10
19.3469573127
 20
21.8940472233
 10
19.3586335685
 20
21.8958375949
  0
LWPOLYLINE
  5
42A
100
AcDbEntity
  8
0
100
AcDbPolyline
 62
253
  6
CONTINUOUS
 90
16
 70
0
 10
17.204223747
 20
17.9271523342
 10
17.2107064278
 20
17.9295869271
 10
17.2174333581
 20
17.9315131347
 10
17.2243893397
 20
17.9329266057
 10
17.2315586816
 20
17.9338241391
 10
17.2389250773
 20
17.9342036813
 10
17.2464716743
 20
17.9340643764
 10
17.2541812604
 20
17.9334065812
 10
17.2620364596
 20
17.9322318162
 10
17.2700196183
 20
17.9305427355
 10
17.2781138659
 20
17.9283427992
 10
17.2862996766
 20
17.9256372064
 10
17.2945549428
 20
17.9224335701
 10
17.3028596985
 20
17.9187403452
 10
17.31119628
 20
17.9145660892
 10
17.3195458155
 20
17.9099208503
  0
LWPOLYLINE
  5
42B
100
AcDbEntity
  8
0
100
AcDbPolyline
 62
253
  6
CONTINUOUS
 90
7
 70
0
 10
19.1344029674
 20
-22.3186079576
 10
19.1288255316
 20
-22.3156629841
 10
19.1230267967
 20
-22.3131392291
 10
19.117011761
 20
-22.3110380097
 10
19.1107918742
 20
-22.3093633256
 10
19.1043789765
 20
-22.3081183647
 10
19.097785275
 20
-22.3073054968
  0
LINE
  5
42C
100
AcDbEntity
  8
0
100
AcDbLine
 62
253
  6
CONTINUOUS
 10
16.7060553454
 20
-23.8589751161
 11
16.156523059
 21
-23.5416820612
  0
LINE
  5
42D
100
AcDbEntity
  8
0
100
AcDbLine
 62
253
  6
CONTINUOUS
 10
16.7944436931
 20
-23.6311697917
 11
16.4157908745
 21
-23.4125403999
  0
LINE
  5
42E
100
AcDbEntity
  8
0
100
AcDbLine
 62
253
  6
CONTINUOUS
 10
18.8833058285
 20
-22.1834677525
 11
19.097785275
 21
-22.3073054968
  0
LINE
  5
42F
100
AcDbEntity
  8
0
100
AcDbLine
 62
7
  6
CONTINUOUS
 10
18.8924552825
 20
-22.1789103967
 11
19.1344029674
 21
-22.3186079576
  0
LINE
  5
430
100
AcDbEntity
  8
RACCORDO
100
AcDbLine
 62
253
  6
CONTINUOUS
 10
-35.889493771
 20
10.3289078128
 11
10.717386895
 21
-16.5813209624
  0
LINE
  5
431
100
AcDbEntity
  8
0
100
AcDbLine
 62
253
  6
CONTINUOUS
 10
19.1061155785
 20
-22.3124119199
 11
19.097785275
 21
-22.3073054968
  0
LINE
  5
432
100
AcDbEntity
  8
0
100
AcDbLine
 62
253
  6
CONTINUOUS
 10
-6.4961827471
 20
38.06694272
 11
-6.4961827471
 21
37.5089420319
  0
LINE
  5
433
100
AcDbEntity
  8
0
100
AcDbLine
 62
7
  6
CONTINUOUS
 10
-6.3558526473
 20
38.386993366
 11
-6.3558526473
 21
37.7094855504
  0
LINE
  5
434
100
AcDbEntity
  8
0
100
AcDbLine
 62
7
  6
CONTINUOUS
 10
-5.9130287477
 20
36.622336282
 11
-5.9130287477
 21
36.6448393683
  0
LINE
  5
435
100
AcDbEntity
  8
DRAFT
100
AcDbLine
 62
7
  6
CONTINUOUS
 10
-5.2162307501
 20
34.9544849221
 11
-5.2162307501
 21
36.2200138511
  0
LWPOLYLINE
  5
436
100
AcDbEntity
  8
0
100
AcDbPolyline
 62
7
  6
CONTINUOUS
 90
21
 70
0
 10
-6.3558549327
 20
37.7094855504
 10
-6.3558859427
 20
37.7062496351
 10
-6.3565031978
 20
37.6947635591
 10
-6.3579154267
 20
37.6833009208
 10
-6.3601188685
 20
37.6718616094
 10
-6.3631030657
 20
37.660499915
 10
-6.3668717297
 20
37.6492162067
 10
-6.3714211491
 20
37.6380101156
 10
-6.3767297327
 20
37.626934825
 10
-6.3828010891
 20
37.6159909567
 10
-6.3896316097
 20
37.605177889
 10
-6.3971888772
 20
37.5945469401
 10
-6.4054763461
 20
37.5840989756
 10
-6.414490562
 20
37.5738331299
 10
-6.4241887438
 20
37.5637981241
 10
-6.4345741428
 20
37.5539950555
 10
-6.4456435078
 20
37.5444228267
 10
-6.4573443041
 20
37.535126867
 10
-6.4696590204
 20
37.5261223195
 10
-6.482605168
 20
37.5173940412
 10
-6.4961827471
 20
37.5089420319
  0
LINE
  5
437
100
AcDbEntity
  8
0
100
AcDbLine
 62
253
  6
CONTINUOUS
 10
2.7455364406
 20
23.5885503827
 11
2.7498878632
 21
23.5993398796
  0
LWPOLYLINE
  5
438
100
AcDbEntity
  8
0
100
AcDbPolyline
 62
253
  6
CONTINUOUS
 90
27
 70
0
 10
4.7550227238
 20
22.1808555662
 10
4.750607688
 20
22.1701720155
 10
4.7458051572
 20
22.1597414929
 10
4.7406257053
 20
22.1495876959
 10
4.7350803432
 20
22.1397330035
 10
4.7291817196
 20
22.1302006347
 10
4.7229443515
 20
22.1210143481
 10
4.7163828686
 20
22.1121955872
 10
4.7095115937
 20
22.1037635044
 10
4.7023458937
 20
22.09573698
 10
4.694901829
 20
22.0881340633
 10
4.6871962868
 20
22.0809720584
 10
4.6792468143
 20
22.0742672955
 10
4.6710714241
 20
22.0680349595
 10
4.6626885191
 20
22.062289072
 10
4.6541170099
 20
22.0570425972
 10
4.6453762382
 20
22.052307379
 10
4.6364859532
 20
22.0480941215
 10
4.6274662492
 20
22.0444123497
 10
4.6183375009
 20
22.0412703797
 10
4.6091203156
 20
22.0386753037
 10
4.5998355069
 20
22.0366329816
 10
4.590504041
 20
22.0351480254
 10
4.5811469901
 20
22.0342237884
 10
4.5717854839
 20
22.0338623577
 10
4.5624406513
 20
22.0340645501
 10
4.5563210364
 20
22.0345039546
  0
LWPOLYLINE
  5
439
100
AcDbEntity
  8
0
100
AcDbPolyline
 62
253
  6
CONTINUOUS
 90
16
 70
0
 10
2.7498878632
 20
23.5993398796
 10
2.7545743381
 20
23.6100752432
 10
2.7595853195
 20
23.6207323163
 10
2.7649095315
 20
23.6312871176
 10
2.7705349931
 20
23.6417158965
 10
2.7764490459
 20
23.6519951854
 10
2.7826383816
 20
23.6621018536
 10
2.7890890728
 20
23.6720131584
 10
2.7957866038
 20
23.681706797
 10
2.8027159034
 20
23.6911609562
 10
2.8098613792
 20
23.700354362
 10
2.8172069519
 20
23.7092663269
 10
2.8247360922
 20
23.7178767966
 10
2.8324318576
 20
23.7261663956
 10
2.8402769309
 20
23.7341164702
 10
2.8482536587
 20
23.7417091308
  0
LINE
  5
43A
100
AcDbEntity
  8
0
100
AcDbLine
 62
7
  6
CONTINUOUS
 10
7.3067693021
 20
23.4043498472
 11
7.1282092034
 21
23.093251471
  0
LINE
  5
43B
100
AcDbEntity
  8
0
100
AcDbLine
 62
7
  6
CONTINUOUS
 10
6.9194077568
 20
23.3754621565
 11
6.9012807958
 21
23.3494860912
  0
LINE
  5
43C
100
AcDbEntity
  8
RACCORDO
100
AcDbLine
 62
7
  6
CONTINUOUS
 10
11.5576016256
 20
19.9737467763
 11
13.9953284342
 21
22.1883773409
  0
LINE
  5
43D
100
AcDbEntity
  8
RACCORDO
100
AcDbLine
 62
253
  6
CONTINUOUS
 10
11.6251281031
 20
19.9347578345
 11
14.0980931599
 21
22.1814017081
  0
LWPOLYLINE
  5
43E
100
AcDbEntity
  8
RACCORDO
100
AcDbPolyline
 62
7
  6
CONTINUOUS
 90
4
 70
0
 10
13.9953285123
 20
22.1883774118
 10
13.9979506288
 20
22.1906007523
 10
14.001247897
 20
22.1929929691
 10
14.0041949327
 20
22.1948056893
  0
LWPOLYLINE
  5
43F
100
AcDbEntity
  8
0
100
AcDbPolyline
 62
253
  6
CONTINUOUS
 90
4
 70
0
 10
15.1681880158
 20
16.6517767872
 10
15.1764510267
 20
16.6581981008
 10
15.1847725228
 20
16.6641988595
 10
15.1931337786
 20
16.66976556
  0
LINE
  5
440
100
AcDbEntity
  8
0
100
AcDbLine
 62
7
  6
CONTINUOUS
 10
14.6284232458
 20
17.1391236796
 11
13.5622094196
 21
16.465734309
  0
LINE
  5
441
100
AcDbEntity
  8
0
100
AcDbLine
 62
253
  6
CONTINUOUS
 10
15.1931337786
 20
16.66976556
 11
15.2015159793
 21
16.6748856759
  0
LINE
  5
442
100
AcDbEntity
  8
0
100
AcDbLine
 62
7
  6
CONTINUOUS
 10
15.075477307
 20
16.6866656689
 11
16.6594603705
 21
17.6204924567
  0
LINE
  5
443
100
AcDbEntity
  8
0
100
AcDbLine
 62
253
  6
CONTINUOUS
 10
15.2015159793
 20
16.6748856759
 11
16.7850965052
 21
17.6084751504
  0
LINE
  5
444
100
AcDbEntity
  8
0
100
AcDbLine
 62
7
  6
CONTINUOUS
 10
14.6284232458
 20
17.1391236796
 11
19.935733912
 21
20.203501808
  0
LINE
  5
445
100
AcDbEntity
  8
0
100
AcDbLine
 62
253
  6
CONTINUOUS
 10
16.8819064444
 20
15.7046492816
 11
19.0104253666
 21
16.9336281892
  0
LINE
  5
446
100
AcDbEntity
  8
0
100
AcDbLine
 62
253
  6
CONTINUOUS
 10
17.0586807164
 20
15.3984672612
 11
19.1871990703
 21
16.6274471533
  0
LINE
  5
447
100
AcDbEntity
  8
0
100
AcDbLine
 62
7
  6
CONTINUOUS
 10
16.659460384
 20
17.6204924643
 11
16.6608423215
 21
17.6212894497
  0
LINE
  5
448
100
AcDbEntity
  8
0
100
AcDbLine
 62
7
  6
CONTINUOUS
 10
16.6608423081
 20
17.6212894421
 11
17.1956991879
 21
17.9229643743
  0
LINE
  5
449
100
AcDbEntity
  8
0
100
AcDbLine
 62
253
  6
CONTINUOUS
 10
16.7850959368
 20
17.6084754786
 11
17.3195458155
 21
17.9099208503
  0
LINE
  5
44A
100
AcDbEntity
  8
0
100
AcDbLine
 62
7
  6
CONTINUOUS
 10
24.4358866126
 20
20.410930194
 11
18.7179773686
 21
17.1858620516
  0
LWPOLYLINE
  5
44B
100
AcDbEntity
  8
0
100
AcDbPolyline
 62
253
  6
CONTINUOUS
 90
18
 70
0
 10
15.075477307
 20
16.6866656689
 10
15.0791608135
 20
16.688713579
 10
15.0853908735
 20
16.6916546843
 10
15.0918861062
 20
16.6940965046
 10
15.0986318087
 20
16.6960335217
 10
15.1056127406
 20
16.6974613598
 10
15.1128131542
 20
16.6983767857
 10
15.1202166728
 20
16.6987777049
 10
15.1278063586
 20
16.6986632127
 10
15.135564901
 20
16.6980336088
 10
15.1434748131
 20
16.6968903501
 10
15.1515183175
 20
16.6952360197
 10
15.1596784179
 20
16.6930740048
 10
15.1679354297
 20
16.6904094138
 10
15.176267047
 20
16.6872497482
 10
15.184653111
 20
16.6836033542
 10
15.1930757793
 20
16.6794786857
 10
15.2015159793
 20
16.6748856759
  0
LWPOLYLINE
  5
44C
100
AcDbEntity
  8
0
100
AcDbPolyline
 62
7
  6
CONTINUOUS
 90
18
 70
0
 10
16.6608423215
 20
17.6212894497
 10
16.6631291704
 20
17.6225326443
 10
16.6693546718
 20
17.6254727409
 10
16.6758422681
 20
17.6279118841
 10
16.682577256
 20
17.629844545
 10
16.6895443346
 20
17.6312663216
 10
16.6967277702
 20
17.6321740216
 10
16.7041113051
 20
17.6325655977
 10
16.7116781275
 20
17.6324401164
 10
16.7194111652
 20
17.6317979018
 10
16.7272929365
 20
17.6306404299
 10
16.735305462
 20
17.628970254
 10
16.7434306884
 20
17.6267912052
 10
16.7516502564
 20
17.624108254
 10
16.7599453539
 20
17.6209274012
 10
16.7682971853
 20
17.6172558672
 10
16.7766870152
 20
17.6131020693
 10
16.7850959368
 20
17.6084754786
  0
LWPOLYLINE
  5
44D
100
AcDbEntity
  8
0
100
AcDbPolyline
 62
253
  6
CONTINUOUS
 90
3
 70
0
 10
17.1956991879
 20
17.9229643743
 10
17.1979999898
 20
17.9242148577
 10
17.204223747
 20
17.9271523342
  0
LINE
  5
44E
100
AcDbEntity
  8
RACCORDO
100
AcDbLine
 62
253
  6
CONTINUOUS
 10
4.0372030344
 20
7.9096722409
 11
4.9143798202
 21
8.3187394986
  0
LINE
  5
44F
100
AcDbEntity
  8
0
100
AcDbLine
 62
7
  6
CONTINUOUS
 10
20.804320302
 20
11.7341709379
 11
19.4013940188
 21
11.2326652676
  0
LWPOLYLINE
  5
450
100
AcDbEntity
  8
0
100
AcDbPolyline
 62
7
  6
CONTINUOUS
 90
3
 70
0
 10
19.1344029674
 20
-22.3186079576
 10
19.1650541752
 20
-22.3394839276
 10
19.1927272686
 20
-22.3651421101
  0
LWPOLYLINE
  5
451
100
AcDbEntity
  8
0
100
AcDbPolyline
 62
253
  6
CONTINUOUS
 90
12
 70
0
 10
-24.9639432616
 20
42.2305810511
 10
-24.9595793398
 20
42.2197465345
 10
-24.9555654561
 20
42.2088791656
 10
-24.9519107099
 20
42.1980035765
 10
-24.9486233836
 20
42.1871444114
 10
-24.9457109259
 20
42.1763262741
 10
-24.9431799378
 20
42.1655736805
 10
-24.9410361537
 20
42.1549109897
 10
-24.9392844328
 20
42.1443623672
 10
-24.937928747
 20
42.1339517329
 10
-24.936972167
 20
42.123702681
 10
-24.9364168576
 20
42.1136384279
  0
LWPOLYLINE
  5
452
100
AcDbEntity
  8
0
100
AcDbPolyline
 62
7
  6
CONTINUOUS
 90
3
 70
0
 10
-17.3436830033
 20
43.162927108
 10
-17.3437603849
 20
43.1632827931
 10
-17.344082739
 20
43.1636098964
  0
LWPOLYLINE
  5
453
100
AcDbEntity
  8
0
100
AcDbPolyline
 62
7
  6
CONTINUOUS
 90
3
 70
0
 10
-11.7532363903
 20
39.9350731977
 10
-11.7532895682
 20
39.9353741525
 10
-11.7536361287
 20
39.9357559783
  0
LINE
  5
454
100
AcDbEntity
  8
0
100
AcDbLine
 62
7
  6
CONTINUOUS
 10
-2.6159798109
 20
34.5474309571
 11
-2.6159798109
 21
34.7411646339
  0
LWPOLYLINE
  5
455
100
AcDbEntity
  8
0
100
AcDbPolyline
 62
7
  6
CONTINUOUS
 90
5
 70
0
 10
11.9438443557
 20
19.5832978754
 10
11.9581183937
 20
19.6052062537
 10
11.9752211577
 20
19.6251598419
 10
11.9948667088
 20
19.6427568322
 10
12.0174039088
 20
19.6580537703
  0
LINE
  5
456
100
AcDbEntity
  8
RACCORDO
100
AcDbLine
 62
253
  6
CONTINUOUS
 10
9.410359602
 20
12.6307482713
 11
7.3224598789
 21
10.4541733045
  0
LWPOLYLINE
  5
457
100
AcDbEntity
  8
RACCORDO
100
AcDbPolyline
 62
253
  6
CONTINUOUS
 90
19
 70
0
 10
6.5034613605
 20
5.3866987629
 10
6.4213479895
 20
5.3112073192
 10
6.3415429226
 20
5.2295871176
 10
6.2645544021
 20
5.1423628132
 10
6.1909117726
 20
5.0501561526
 10
6.1210419259
 20
4.9535052323
 10
6.0552904986
 20
4.8528357158
 10
5.9940311954
 20
4.7486473819
 10
5.9377698871
 20
4.6417259693
 10
5.8870047776
 20
4.5329581162
 10
5.8420669945
 20
4.4230549044
 10
5.8032454206
 20
4.3127344801
 10
5.7708546666
 20
4.2029175294
 10
5.7450934036
 20
4.0944241913
 10
5.7260538278
 20
3.9878382006
 10
5.7138145245
 20
3.8837117197
 10
5.7084416604
 20
3.7826701741
 10
5.7099623839
 20
3.685399725
 10
5.7183549685
 20
3.5925177502
  0
LWPOLYLINE
  5
458
100
AcDbEntity
  8
0
100
AcDbPolyline
 62
253
  6
CONTINUOUS
 90
3
 70
0
 10
15.1519116513
 20
16.6377312069
 10
15.1600020839
 20
16.6449493681
 10
15.1681880158
 20
16.6517767872
  0
LINE
  5
459
100
AcDbEntity
  8
RACCORDO
100
AcDbLine
 62
7
  6
CONTINUOUS
 10
9.2489649521
 20
12.1625567303
 11
4.6168770145
 21
8.0549203842
  0
LINE
  5
45A
100
AcDbEntity
  8
RACCORDO
100
AcDbLine
 62
253
  6
CONTINUOUS
 10
12.5679947813
 20
10.6122640891
 11
6.5034613605
 21
5.3866987629
  0
LWPOLYLINE
  5
45B
100
AcDbEntity
  8
RACCORDO
100
AcDbPolyline
 62
253
  6
CONTINUOUS
 90
7
 70
0
 10
12.7152746421
 20
10.7225317475
 10
12.6904226539
 20
10.7064417632
 10
12.665653161
 20
10.6894066838
 10
12.6409960356
 20
10.6714481285
 10
12.6164809772
 20
10.6525888143
 10
12.5921374767
 20
10.6328525268
 10
12.5679947813
 20
10.6122640891
  0
LWPOLYLINE
  5
45C
100
AcDbEntity
  8
RACCORDO
100
AcDbPolyline
 62
253
  6
CONTINUOUS
 90
7
 70
0
 10
13.0811073822
 20
10.1178709091
 10
13.0685496378
 20
10.1098696373
 10
13.0560631869
 20
10.1014178106
 10
13.0436480294
 20
10.0925154288
 10
13.0313041653
 20
10.0831624919
 10
13.0190315947
 20
10.0733590001
 10
13.0068303174
 20
10.0631049533
  0
LWPOLYLINE
  5
45D
100
AcDbEntity
  8
RACCORDO
100
AcDbPolyline
 62
253
  6
CONTINUOUS
 90
13
 70
0
 10
6.4158823138
 20
3.6431570739
 10
6.3669840248
 20
3.6120064031
 10
6.3130911209
 20
3.584852677
 10
6.2551055674
 20
3.5621503472
 10
6.1939978252
 20
3.5442793656
 10
6.130790609
 20
3.5315388255
 10
6.0665417705
 20
3.5241419559
 10
6.0023265946
 20
3.5222125525
 10
5.9392198028
 20
3.5257829064
 10
5.8782775662
 20
3.5347932633
 10
5.8205198295
 20
3.5490928236
 10
5.7669132409
 20
3.5684422663
 10
5.7183549739
 20
3.5925177542
  0
LINE
  5
45E
100
AcDbEntity
  8
0
100
AcDbLine
 62
7
  6
CONTINUOUS
 10
18.6589318986
 20
14.8119584977
 11
17.7694899339
 21
14.2502130484
  0
LWPOLYLINE
  5
45F
100
AcDbEntity
  8
0
100
AcDbPolyline
 62
7
  6
CONTINUOUS
 90
21
 70
0
 10
25.3236224063
 20
19.1365853322
 10
25.3371999853
 20
19.1450373414
 10
25.350146133
 20
19.1537656198
 10
25.3624608492
 20
19.1627701673
 10
25.3741616456
 20
19.1720661269
 10
25.3852310106
 20
19.1816383557
 10
25.3956164096
 20
19.1914414244
 10
25.4053145914
 20
19.2014764302
 10
25.4143288073
 20
19.2117422759
 10
25.4226162762
 20
19.2221902403
 10
25.4301735437
 20
19.2328211893
 10
25.4370040643
 20
19.2436342569
 10
25.4430754207
 20
19.2545781252
 10
25.4483840043
 20
19.2656534158
 10
25.4529334237
 20
19.276859507
 10
25.4567020876
 20
19.2881432153
 10
25.4596862849
 20
19.2995049096
 10
25.4618897267
 20
19.3109442211
 10
25.4633019556
 20
19.3224068594
 10
25.4639192107
 20
19.3338929353
 10
25.4639502207
 20
19.3371288506
  0
LINE
  5
460
100
AcDbEntity
  8
0
100
AcDbLine
 62
7
  6
CONTINUOUS
 10
25.3236224063
 20
19.6945860202
 11
18.7013437206
 21
15.5992695447
  0
LINE
  5
461
100
AcDbEntity
  8
RACCORDO
100
AcDbLine
 62
253
  6
CONTINUOUS
 10
19.0121372841
 20
14.6080221348
 11
12.7152746421
 21
10.7225317475
  0
LINE
  5
462
100
AcDbEntity
  8
RACCORDO
100
AcDbLine
 62
253
  6
CONTINUOUS
 10
19.36542155
 20
13.995618238
 11
13.0811073822
 21
10.1178709091
  0
LINE
  5
463
100
AcDbEntity
  8
0
100
AcDbLine
 62
7
  6
CONTINUOUS
 10
25.3236224063
 20
19.1365853322
 11
19.0605397348
 21
15.3918742679
  0
LINE
  5
464
100
AcDbEntity
  8
0
100
AcDbLine
 62
7
  6
CONTINUOUS
 10
20.0672831749
 20
11.6378781954
 11
20.7682191287
 21
12.0568409753
  0
LINE
  5
465
100
AcDbEntity
  8
RACCORDO
100
AcDbLine
 62
253
  6
CONTINUOUS
 10
19.7137342717
 20
15.0147279288
 11
19.0127983179
 21
14.6076404621
  0
LINE
  5
466
100
AcDbEntity
  8
RACCORDO
100
AcDbLine
 62
253
  6
CONTINUOUS
 10
20.0672831749
 20
14.4023719018
 11
19.3663552288
 21
13.9952890859
  0
LINE
  5
467
100
AcDbEntity
  8
0
100
AcDbLine
 62
253
  6
CONTINUOUS
 10
20.0672831749
 20
14.2369549742
 11
39.179158691
 21
25.2719502586
  0
LINE
  5
468
100
AcDbEntity
  8
0
100
AcDbLine
 62
253
  6
CONTINUOUS
 10
20.804320302
 20
11.3969681386
 11
40.5931568618
 21
22.8228335875
  0
LINE
  5
469
100
AcDbEntity
  8
0
100
AcDbLine
 62
7
  6
CONTINUOUS
 10
19.3663472211
 20
11.2192716769
 11
20.7682191287
 21
11.7550153029
  0
LINE
  5
46A
100
AcDbEntity
  8
RACCORDO
100
AcDbLine
 62
253
  6
CONTINUOUS
 10
-39.38380507
 20
23.1993025555
 11
7.0990479764
 21
-3.6393142265
  0
LWPOLYLINE
  5
46B
100
AcDbEntity
  8
0
100
AcDbPolyline
 62
253
  6
CONTINUOUS
 90
5
 70
0
 10
19.1370805095
 20
-22.3377346953
 10
19.1297283204
 20
-22.3306966856
 10
19.1221050991
 20
-22.3241205311
 10
19.1142283041
 20
-22.318021113
 10
19.1061155785
 20
-22.3124119199
  0
LWPOLYLINE
  5
46C
100
AcDbEntity
  8
0
100
AcDbPolyline
 62
253
  6
CONTINUOUS
 90
34
 70
0
 10
17.0586807164
 20
-23.8595081448
 10
17.0542616368
 20
-23.8534067105
 10
17.0494555072
 20
-23.8470874001
 10
17.0442731787
 20
-23.8405644811
 10
17.0387263519
 20
-23.8338526809
 10
17.0328275504
 20
-23.8269671532
 10
17.0265900922
 20
-23.819923444
 10
17.0200280602
 20
-23.8127374564
 10
17.01315627
 20
-23.8054254149
 10
17.0059902366
 20
-23.7980038283
 10
16.9985461393
 20
-23.790489453
 10
16.9908407852
 20
-23.7828992548
 10
16.9828915713
 20
-23.7752503706
 10
16.9747164452
 20
-23.7675600699
 10
16.9663338645
 20
-23.7598457158
 10
16.9577627551
 20
-23.7521247255
 10
16.9490224689
 20
-23.7444145313
 10
16.9401327393
 20
-23.7367325411
 10
16.9311136374
 20
-23.7290960992
 10
16.9219855264
 20
-23.7215224469
 10
16.9127690155
 20
-23.714028684
 10
16.9034849136
 20
-23.7066317295
 10
16.894154182
 20
-23.6993482842
 10
16.8847978875
 20
-23.6921947926
 10
16.8754371547
 20
-23.6851874056
 10
16.8660931178
 20
-23.6783419443
 10
16.8567868737
 20
-23.6716738643
 10
16.8475394338
 20
-23.6651982207
 10
16.8383716768
 20
-23.6589296339
 10
16.8293043014
 20
-23.6528822571
 10
16.8203577798
 20
-23.6470697439
 10
16.8115523113
 20
-23.6415052176
 10
16.8029077765
 20
-23.6362012418
 10
16.7944436931
 20
-23.6311697917
  0
LWPOLYLINE
  5
46D
100
AcDbEntity
  8
RACCORDO
100
AcDbPolyline
 62
253
  6
CONTINUOUS
 90
6
 70
0
 10
13.73421907
 20
-24.1598946356
 10
13.7557347817
 20
-24.1979456054
 10
13.7808878389
 20
-24.2333689034
 10
13.8097857211
 20
-24.2657018162
 10
13.8427085099
 20
-24.2946251836
 10
13.8807197744
 20
-24.3201311997
  0
LWPOLYLINE
  5
46E
100
AcDbEntity
  8
0
100
AcDbPolyline
 62
253
  6
CONTINUOUS
 90
3
 70
0
 10
2.649462684
 20
23.2430614062
 10
2.6488699021
 20
23.2499007648
 10
2.648783583
 20
23.2536936374
  0
LINE
  5
46F
100
AcDbEntity
  8
0
100
AcDbLine
 62
7
  6
CONTINUOUS
 10
2.6513643681
 20
23.2178644311
 11
2.6487838975
 21
23.2539226111
  0
LWPOLYLINE
  5
470
100
AcDbEntity
  8
0
100
AcDbPolyline
 62
253
  6
CONTINUOUS
 90
18
 70
0
 10
2.7220068877
 20
23.1516249891
 10
2.7221751835
 20
23.1428175248
 10
2.7226797506
 20
23.1342211739
 10
2.7235196283
 20
23.1258523045
 10
2.7246932138
 20
23.1177268726
 10
2.7261982743
 20
23.1098603267
 10
2.7280319603
 20
23.1022675852
 10
2.730190804
 20
23.0949630633
 10
2.7326706911
 20
23.0879607296
 10
2.7354668704
 20
23.081274006
 10
2.7385739925
 20
23.0749156611
 10
2.7419861542
 20
23.0688977528
 10
2.7456968817
 20
23.0632316964
 10
2.7496991419
 20
23.0579282465
 10
2.7539852906
 20
23.0529975467
 10
2.7585470998
 20
23.0484490528
 10
2.7633758294
 20
23.044291447
 10
2.7676013535
 20
23.0411688306
  0
LWPOLYLINE
  5
471
100
AcDbEntity
  8
0
100
AcDbPolyline
 62
253
  6
CONTINUOUS
 90
19
 70
0
 10
4.4023973528
 20
22.1813885948
 10
4.4025651841
 20
22.172593153
 10
4.4030685886
 20
22.1640053245
 10
4.4039069529
 20
22.1556416512
 10
4.4050791773
 20
22.1475173661
 10
4.4065832945
 20
22.1396491531
 10
4.4084160967
 20
22.1320548127
 10
4.4105738204
 20
22.1247496492
 10
4.4130525534
 20
22.1177466618
 10
4.4158476098
 20
22.111059109
 10
4.4189537062
 20
22.1046996824
 10
4.4223649161
 20
22.0986805602
 10
4.4260747004
 20
22.0930132921
 10
4.4300759637
 20
22.0877087022
 10
4.4343611097
 20
22.0827768469
 10
4.4389220102
 20
22.0782270829
 10
4.4437500169
 20
22.0740680522
 10
4.4488359109
 20
22.0703077104
 10
4.4541646503
 20
22.0669563183
  0
LINE
  5
472
100
AcDbEntity
  8
0
100
AcDbLine
 62
7
  6
CONTINUOUS
 10
2.648783583
 20
23.5752832564
 11
2.648783583
 21
23.2536936374
  0
LINE
  5
473
100
AcDbEntity
  8
0
100
AcDbLine
 62
253
  6
CONTINUOUS
 10
2.7220068877
 20
23.473214608
 11
2.7220068877
 21
23.1516249891
  0
LINE
  5
474
100
AcDbEntity
  8
RACCORDO
100
AcDbLine
 62
253
  6
CONTINUOUS
 10
2.8550953391
 20
28.5030930283
 11
2.8550953391
 21
27.4600768002
  0
LINE
  5
475
100
AcDbEntity
  8
RACCORDO
100
AcDbLine
 62
7
  6
CONTINUOUS
 10
3.1479885579
 20
28.91794828
 11
3.1479885579
 21
27.8582740317
  0
LINE
  5
476
100
AcDbEntity
  8
0
100
AcDbLine
 62
7
  6
CONTINUOUS
 10
3.3521879279
 20
22.7032238667
 11
3.3521879279
 21
22.4237963675
  0
LINE
  5
477
100
AcDbEntity
  8
0
100
AcDbLine
 62
253
  6
CONTINUOUS
 10
3.4254112326
 20
22.6609456483
 11
3.4254112326
 21
22.3185945383
  0
LINE
  5
478
100
AcDbEntity
  8
0
100
AcDbLine
 62
253
  6
CONTINUOUS
 10
4.4023973528
 20
22.1813885948
 11
4.4023973528
 21
22.5029782137
  0
LINE
  5
479
100
AcDbEntity
  8
0
100
AcDbLine
 62
253
  6
CONTINUOUS
 10
4.7550227238
 20
22.1808555662
 11
4.7550227238
 21
22.5024451851
  0
LWPOLYLINE
  5
47A
100
AcDbEntity
  8
0
100
AcDbPolyline
 62
253
  6
CONTINUOUS
 90
12
 70
0
 10
2.7220068877
 20
23.473214608
 10
2.7222057834
 20
23.4830094029
 10
2.7228020228
 20
23.4930118367
 10
2.7237942642
 20
23.5031994016
 10
2.725180275
 20
23.513549173
 10
2.7269569361
 20
23.5240378614
 10
2.7291202498
 20
23.5346418646
 10
2.7316653479
 20
23.545337321
 10
2.7345865034
 20
23.5561001632
 10
2.737877143
 20
23.566906172
 10
2.7415298619
 20
23.5777310314
 10
2.7455364406
 20
23.5885503827
  0
LWPOLYLINE
  5
47B
100
AcDbEntity
  8
0
100
AcDbPolyline
 62
253
  6
CONTINUOUS
 90
34
 70
0
 10
4.4023973528
 20
22.5029782137
 10
4.4025963034
 20
22.5127743755
 10
4.4031927084
 20
22.5227782453
 10
4.4041852272
 20
22.5329673067
 10
4.4055716286
 20
22.5433186327
 10
4.407348793
 20
22.5538089177
 10
4.4095127176
 20
22.5644145295
 10
4.4120585295
 20
22.57511159
 10
4.414980499
 20
22.5858760269
 10
4.4182720475
 20
22.5966836072
 10
4.421925766
 20
22.607510006
 10
4.4259334289
 20
22.6183308525
 10
4.4302860113
 20
22.629121782
 10
4.4349737137
 20
22.639858504
 10
4.4399859839
 20
22.6505168535
 10
4.4453115368
 20
22.6610728372
 10
4.4509383867
 20
22.6715027011
 10
4.456853864
 20
22.6817829644
 10
4.4630446409
 20
22.6918904706
 10
4.4694967616
 20
22.7018024438
 10
4.4761957179
 20
22.7114966053
 10
4.4831264754
 20
22.7209511991
 10
4.4902735042
 20
22.7301450277
 10
4.4976206555
 20
22.7390573051
 10
4.5051512297
 20
22.7476677868
 10
4.5128481631
 20
22.7559570009
 10
4.5206942237
 20
22.7639064276
 10
4.5286718966
 20
22.7714983348
 10
4.5367644516
 20
22.7787166924
 10
4.5449524809
 20
22.7855440816
 10
4.5532139654
 20
22.7919624471
 10
4.5615290326
 20
22.7979570542
 10
4.5698801231
 20
22.8035159431
 10
4.5782484517
 20
22.8086272055
  0
LWPOLYLINE
  5
47C
100
AcDbEntity
  8
RACCORDO
100
AcDbPolyline
 62
253
  6
CONTINUOUS
 90
15
 70
0
 10
3.1479885579
 20
28.91794828
 10
3.1476357269
 20
28.9026117391
 10
3.1437679828
 20
28.8649563867
 10
3.1357051829
 20
28.8277281513
 10
3.12355136
 20
28.791084258
 10
3.1076433835
 20
28.7555980373
 10
3.0882528235
 20
28.7213793385
 10
3.0656572089
 20
28.6885253865
 10
3.0404882809
 20
28.6575188522
 10
3.0131381423
 20
28.6283804369
 10
2.983991008
 20
28.6011209329
 10
2.9538902174
 20
28.5761063653
 10
2.9234458659
 20
28.5533858317
 10
2.8929068891
 20
28.5327409611
 10
2.8626338999
 20
28.5140732644
  0
LWPOLYLINE
  5
47D
100
AcDbEntity
  8
0
100
AcDbPolyline
 62
7
  6
CONTINUOUS
 90
9
 70
0
 10
2.6487835831
 20
23.5752793074
 10
2.6506937907
 20
23.60612892
 10
2.6567190695
 20
23.6377714255
 10
2.6668036602
 20
23.6684782959
 10
2.680846534
 20
23.6977717973
 10
2.6986890873
 20
23.7251571793
 10
2.7200675282
 20
23.7500990787
 10
2.7446244346
 20
23.7720952402
 10
2.7718154337
 20
23.7906413048
  0
LWPOLYLINE
  5
47E
100
AcDbEntity
  8
0
100
AcDbPolyline
 62
7
  6
CONTINUOUS
 90
25
 70
0
 10
14.6284232458
 20
17.5735308159
 10
14.6339999769
 20
17.5842752711
 10
14.6391061658
 20
17.595482777
 10
14.6437418125
 20
17.6071533336
 10
14.6479121489
 20
17.619304683
 10
14.6516119432
 20
17.6319190831
 10
14.6548254998
 20
17.6449433081
 10
14.6575507672
 20
17.6583790927
 10
14.6597897969
 20
17.6722247023
 10
14.6615330477
 20
17.6864217066
 10
14.6627784155
 20
17.7009717201
 10
14.6635280043
 20
17.7158731283
 10
14.6637785849
 20
17.7310626576
 10
14.6635280043
 20
17.746541551
 10
14.6627784155
 20
17.7623085656
 10
14.6615330477
 20
17.7782966986
 10
14.6597897969
 20
17.7945067652
 10
14.6575507672
 20
17.8109379502
 10
14.6548254998
 20
17.8275208053
 10
14.6516119432
 20
17.8442559649
 10
14.6479121489
 20
17.8611427947
 10
14.6437418125
 20
17.878109944
 10
14.6391061658
 20
17.8951336293
 10
14.6339999769
 20
17.9122376342
 10
14.6284232458
 20
17.9294219586
  0
LWPOLYLINE
  5
47F
100
AcDbEntity
  8
0
100
AcDbPolyline
 62
253
  6
CONTINUOUS
 90
18
 70
0
 10
12.0155953007
 20
19.5384534709
 10
12.0203265429
 20
19.5466769021
 10
12.0252780115
 20
19.5547622366
 10
12.0304385644
 20
19.5626912804
 10
12.0357965892
 20
19.5704461913
 10
12.041340029
 20
19.5780095187
 10
12.0470564095
 20
19.5853642433
 10
12.0529328677
 20
19.5924938152
 10
12.0589561799
 20
19.599382191
 10
12.0651127923
 20
19.6060138702
 10
12.0713888509
 20
19.6123739299
 10
12.0777702331
 20
19.6184480584
 10
12.0842425792
 20
19.6242225873
 10
12.0907913247
 20
19.6296845226
 10
12.0974017334
 20
19.6348215735
 10
12.1040589303
 20
19.6396221805
 10
12.110747935
 20
19.6440755409
 10
12.1174536955
 20
19.6481716336
  0
LINE
  5
480
100
AcDbEntity
  8
0
100
AcDbLine
 62
253
  6
CONTINUOUS
 10
18.6589318986
 20
15.6369895863
 11
19.1871990703
 21
16.2998018528
  0
LINE
  5
481
100
AcDbEntity
  8
0
100
AcDbLine
 62
7
  6
CONTINUOUS
 10
18.6589318986
 20
15.5604377435
 11
19.2048990709
 21
16.245458048
  0
LWPOLYLINE
  5
482
100
AcDbEntity
  8
0
100
AcDbPolyline
 62
7
  6
CONTINUOUS
 90
34
 70
0
 10
19.9008704029
 20
20.5934975083
 10
19.9084457829
 20
20.6018287279
 10
19.9155827956
 20
20.6106952225
 10
19.9222814412
 20
20.6200969922
 10
19.9285499636
 20
20.6300489096
 10
19.9343801187
 20
20.640536102
 10
19.9397471744
 20
20.6515139515
 10
19.9446491626
 20
20.6629845398
 10
19.9490880513
 20
20.6749457852
 10
19.9530450124
 20
20.6873468244
 10
19.9565179987
 20
20.7001895235
 10
19.9595090574
 20
20.7134720164
 10
19.9620055027
 20
20.7271378419
 10
19.9640052338
 20
20.7411886266
 10
19.9655103515
 20
20.7556227439
 10
19.9665144725
 20
20.7703788518
 10
19.9670154692
 20
20.7854583175
 10
19.9670154692
 20
20.8008597738
 10
19.9665144725
 20
20.8165177779
 10
19.9655103515
 20
20.8324334196
 10
19.9640052338
 20
20.8486056091
 10
19.9620055027
 20
20.8649656332
 10
19.9595090574
 20
20.8815142911
 10
19.9565179987
 20
20.8982507837
 10
19.9530450124
 20
20.9151040002
 10
19.9490880513
 20
20.932074439
 10
19.9446491626
 20
20.9491616018
 10
19.9397471744
 20
20.9662928831
 10
19.9343801187
 20
20.983468474
 10
19.9285499636
 20
21.0006881834
 10
19.9222814412
 20
21.0178788334
 10
19.9155827956
 20
21.035016031
 10
19.9084457829
 20
21.0521241691
 10
19.9008704029
 20
21.0692032476
  0
LWPOLYLINE
  5
483
100
AcDbEntity
  8
RACCORDO
100
AcDbPolyline
 62
253
  6
CONTINUOUS
 90
19
 70
0
 10
6.9422968967
 20
4.8375396271
 10
6.8871026425
 20
4.7872424815
 10
6.8339768368
 20
4.7334413284
 10
6.7829194796
 20
4.6761361678
 10
6.7336023216
 20
4.6149261197
 10
6.6863536121
 20
4.550212064
 10
6.6421580989
 20
4.4831966406
 10
6.6010543128
 20
4.4137600813
 10
6.563003723
 20
4.3420221543
 10
6.5288754847
 20
4.2695448039
 10
6.4987911083
 20
4.1963283413
 10
6.4726290834
 20
4.1223724553
 10
6.4508940338
 20
4.0492381563
 10
6.4337014694
 20
3.9769883975
 10
6.4209358804
 20
3.9055602258
 10
6.4127553609
 20
3.8363257924
 10
6.409212609
 20
3.7697424812
 10
6.4102549266
 20
3.7053529084
 10
6.4158823138
 20
3.6431570739
  0
LINE
  5
484
100
AcDbEntity
  8
RACCORDO
100
AcDbLine
 62
253
  6
CONTINUOUS
 10
13.0068303174
 20
10.0631049533
 11
6.9422968967
 21
4.8375396271
  0
LINE
  5
485
100
AcDbEntity
  8
0
100
AcDbLine
 62
7
  6
CONTINUOUS
 10
19.1927272686
 20
-22.3651421101
 11
19.2164721493
 21
-22.3950399376
  0
LWPOLYLINE
  5
486
100
AcDbEntity
  8
0
100
AcDbPolyline
 62
253
  6
CONTINUOUS
 90
15
 70
0
 10
-24.9362640757
 20
41.7761364764
 10
-24.932291362
 20
41.7702932584
 10
-24.9287289033
 20
41.7646922469
 10
-24.9255847401
 20
41.7593460833
 10
-24.9228659684
 20
41.7542668334
 10
-24.9205787244
 20
41.7494659608
 10
-24.9187281702
 20
41.7449543008
 10
-24.9173184824
 20
41.740742036
 10
-24.9163528427
 20
41.7368386732
 10
-24.9158334304
 20
41.733253022
 10
-24.9157614178
 20
41.729993175
 10
-24.9161369674
 20
41.7270664896
 10
-24.9169592317
 20
41.724479571
 10
-24.9182263547
 20
41.7222382579
 10
-24.9185640752
 20
41.7217926716
  0
LWPOLYLINE
  5
487
100
AcDbEntity
  8
RACCORDO
100
AcDbPolyline
 62
253
  6
CONTINUOUS
 90
16
 70
0
 10
14.4041762295
 20
-24.014309755
 10
14.4149618129
 20
-24.0337794957
 10
14.4276630604
 20
-24.0514739361
 10
14.442279972
 20
-24.0673930762
 10
14.4589525926
 20
-24.0817811163
 10
14.4775408773
 20
-24.094393856
 10
14.4976246912
 20
-24.1044986949
 10
14.5193356683
 20
-24.1118874589
 10
14.5425421746
 20
-24.1167683221
 10
14.5664291727
 20
-24.1190332055
 10
14.5910509931
 20
-24.1184605399
 10
14.6163533053
 20
-24.1152718945
 10
14.641358081
 20
-24.1100238986
 10
14.6657393107
 20
-24.1029020952
 10
14.6898230039
 20
-24.0937209412
 10
14.7136091605
 20
-24.0824804367
  0
LWPOLYLINE
  5
488
100
AcDbEntity
  8
0
100
AcDbPolyline
 62
253
  6
CONTINUOUS
 90
12
 70
0
 10
-12.660285269
 20
35.1266031272
 10
-12.6559213471
 20
35.1157686106
 10
-12.6519074635
 20
35.1049012417
 10
-12.6482527173
 20
35.0940256526
 10
-12.6449653909
 20
35.0831664875
 10
-12.6420529333
 20
35.0723483502
 10
-12.6395219451
 20
35.0615957566
 10
-12.637378161
 20
35.0509330658
 10
-12.6356264402
 20
35.0403844433
 10
-12.6342707544
 20
35.0299738089
 10
-12.6333141743
 20
35.0197247571
 10
-12.632758865
 20
35.009660504
  0
LINE
  5
489
100
AcDbEntity
  8
0
100
AcDbLine
 62
253
  6
CONTINUOUS
 10
6.8833883446
 20
23.7412803557
 11
6.8835410777
 21
23.7314250772
  0
LINE
  5
48A
100
AcDbEntity
  8
0
100
AcDbLine
 62
253
  6
CONTINUOUS
 10
5.1132065703
 20
21.3440826634
 11
5.1132065703
 21
21.9769091413
  0
LINE
  5
48B
100
AcDbEntity
  8
0
100
AcDbLine
 62
253
  6
CONTINUOUS
 10
5.4658319413
 20
21.3541909723
 11
5.4658319413
 21
22.1156030851
  0
LINE
  5
48C
100
AcDbEntity
  8
0
100
AcDbLine
 62
7
  6
CONTINUOUS
 10
6.3552739059
 20
21.9159364216
 11
6.3552739059
 21
23.426409888
  0
LINE
  5
48D
100
AcDbEntity
  8
0
100
AcDbLine
 62
253
  6
CONTINUOUS
 10
6.8835410777
 20
23.7314250772
 11
6.8835410777
 21
23.4037797767
  0
LINE
  5
48E
100
AcDbEntity
  8
0
100
AcDbLine
 62
7
  6
CONTINUOUS
 10
6.9557389347
 20
23.8328981902
 11
6.9557389347
 21
23.5052528897
  0
LINE
  5
48F
100
AcDbEntity
  8
0
100
AcDbLine
 62
7
  6
CONTINUOUS
 10
7.2800663759
 20
21.4570889015
 11
7.2800663759
 21
20.0929649687
  0
LINE
  5
490
100
AcDbEntity
  8
0
100
AcDbLine
 62
7
  6
CONTINUOUS
 10
7.9462641636
 20
19.7083107155
 11
7.9462641636
 21
21.0724346483
  0
LINE
  5
491
100
AcDbEntity
  8
DRAFT
100
AcDbLine
 62
7
  6
CONTINUOUS
 10
7.9996149111
 20
28.4181196092
 11
7.9996149111
 21
28.5814136646
  0
LINE
  5
492
100
AcDbEntity
  8
0
100
AcDbLine
 62
7
  6
CONTINUOUS
 10
8.6533709448
 20
21.3225430288
 11
8.6533709448
 21
20.1593747029
  0
LWPOLYLINE
  5
493
100
AcDbEntity
  8
0
100
AcDbPolyline
 62
253
  6
CONTINUOUS
 90
18
 70
0
 10
6.9557389347
 20
23.5052528897
 10
6.9556849203
 20
23.502252458
 10
6.9551575449
 20
23.4954142876
 10
6.9540693097
 20
23.48859824
 10
6.9524226614
 20
23.4818196424
 10
6.9502213026
 20
23.4750937377
 10
6.9474701838
 20
23.4684356512
 10
6.9441754908
 20
23.4618603537
 10
6.9403446303
 20
23.4553826283
 10
6.9359862116
 20
23.4490170356
 10
6.9311100378
 20
23.4427778959
 10
6.9257270864
 20
23.4366792535
 10
6.919849473
 20
23.4307348297
 10
6.9134904099
 20
23.4249579819
 10
6.9066641863
 20
23.4193616894
 10
6.8993861473
 20
23.413958533
 10
6.8916726628
 20
23.408760666
 10
6.8835410777
 20
23.4037797767
  0
LWPOLYLINE
  5
494
100
AcDbEntity
  8
0
100
AcDbPolyline
 62
253
  6
CONTINUOUS
 90
18
 70
0
 10
6.9557389347
 20
23.8328981902
 10
6.9556842551
 20
23.829879343
 10
6.9551552821
 20
23.8230404827
 10
6.9540653436
 20
23.8162238377
 10
6.9524168965
 20
23.8094447203
 10
6.9502136383
 20
23.8027183329
 10
6.9474604912
 20
23.7960597425
 10
6.9441636609
 20
23.7894839894
 10
6.9403306463
 20
23.783006003
 10
6.9359701602
 20
23.7766404318
 10
6.9310919906
 20
23.7704014972
 10
6.9257070306
 20
23.7643031089
 10
6.9198264695
 20
23.7583581001
 10
6.9134643077
 20
23.7525807722
 10
6.9066379069
 20
23.7469864993
 10
6.8993642858
 20
23.7415883767
 10
6.8916593977
 20
23.7363974459
 10
6.8835410777
 20
23.7314250772
  0
LWPOLYLINE
  5
495
100
AcDbEntity
  8
0
100
AcDbPolyline
 62
7
  6
CONTINUOUS
 90
34
 70
0
 10
8.6533709448
 20
21.3225430288
 10
8.6535323322
 20
21.3304048623
 10
8.6540087676
 20
21.3383990942
 10
8.654800251
 20
21.3465257245
 10
8.6559105927
 20
21.3548064115
 10
8.6573359824
 20
21.3632194969
 10
8.6590649887
 20
21.3717000058
 10
8.6610977782
 20
21.3802412539
 10
8.6634341843
 20
21.3888499255
 10
8.6660622767
 20
21.3974810998
 10
8.6689873478
 20
21.4061446473
 10
8.6722041052
 20
21.4148306975
 10
8.6756847418
 20
21.4234647181
 10
8.6794261236
 20
21.4320349885
 10
8.6834313846
 20
21.4405532294
 10
8.6876821202
 20
21.4489800705
 10
8.6921862908
 20
21.4573268878
 10
8.696935936
 20
21.4655823054
 10
8.7018887698
 20
21.4736728256
 10
8.7070389626
 20
21.4815858556
 10
8.7123923441
 20
21.4893339882
 10
8.7179241176
 20
21.4968815048
 10
8.72364285
 20
21.5042370225
 10
8.7295399745
 20
21.5113919242
 10
8.7355649931
 20
21.5182846394
 10
8.7417120319
 20
21.5249056303
 10
8.747986965
 20
21.5312644348
 10
8.754356917
 20
21.5373280967
 10
8.7608277613
 20
21.5430998506
 10
8.7673936245
 20
21.5485764618
 10
8.7740040119
 20
21.5537152705
 10
8.7806420918
 20
21.5585020569
 10
8.7873246958
 20
21.5629510408
 10
8.7940518239
 20
21.5670622222
  0
LWPOLYLINE
  5
496
100
AcDbEntity
  8
0
100
AcDbPolyline
 62
7
  6
CONTINUOUS
 90
6
 70
0
 10
6.9557385822
 20
23.5054952931
 10
6.9551406688
 20
23.4879698085
 10
6.9513376284
 20
23.4585486967
 10
6.9440569311
 20
23.4297245598
 10
6.9333785936
 20
23.4019079319
 10
6.9194077568
 20
23.3754621565
  0
LWPOLYLINE
  5
497
100
AcDbEntity
  8
0
100
AcDbPolyline
 62
253
  6
CONTINUOUS
 90
10
 70
0
 10
11.9844995845
 20
19.4613506105
 10
11.9868365089
 20
19.4699608842
 10
11.9894690206
 20
19.4786056913
 10
11.9923911957
 20
19.4872655788
 10
11.9955964587
 20
19.4959210599
 10
11.9990775968
 20
19.5045526574
 10
12.0028267767
 20
19.5131409483
 10
12.0068355618
 20
19.5216666067
 10
12.0110949314
 20
19.5301104478
 10
12.0155953007
 20
19.5384534709
  0
LINE
  5
498
100
AcDbEntity
  8
0
100
AcDbLine
 62
253
  6
CONTINUOUS
 10
15.0491944332
 20
16.4845724588
 11
15.0535458559
 21
16.4953619557
  0
LWPOLYLINE
  5
499
100
AcDbEntity
  8
0
100
AcDbPolyline
 62
253
  6
CONTINUOUS
 90
16
 70
0
 10
15.0535458559
 20
16.4953619557
 10
15.0582323308
 20
16.5060973193
 10
15.0632433122
 20
16.5167543923
 10
15.0685675241
 20
16.5273091937
 10
15.0741929858
 20
16.5377379726
 10
15.0801070385
 20
16.5480172615
 10
15.0862963743
 20
16.5581239297
 10
15.0927470654
 20
16.5680352345
 10
15.0994445964
 20
16.5777288731
 10
15.1063738961
 20
16.5871830323
 10
15.1135193718
 20
16.5963764381
 10
15.1208649445
 20
16.605288403
 10
15.1283940848
 20
16.6138988727
 10
15.1360898503
 20
16.6221884717
 10
15.1439349236
 20
16.6301385463
 10
15.1519116513
 20
16.6377312069
  0
LINE
  5
49A
100
AcDbEntity
  8
0
100
AcDbLine
 62
7
  6
CONTINUOUS
 10
19.2230657495
 20
16.2714842326
 11
19.2049387884
 21
16.2455081673
  0
LINE
  5
49B
100
AcDbEntity
  8
0
100
AcDbLine
 62
253
  6
CONTINUOUS
 10
19.2049387884
 20
16.2455081673
 11
19.2048990709
 21
16.245458048
  0
LWPOLYLINE
  5
49C
100
AcDbEntity
  8
RACCORDO
100
AcDbPolyline
 62
253
  6
CONTINUOUS
 90
13
 70
0
 10
7.7890356789
 20
-3.5485736234
 10
7.74111575
 20
-3.584920031
 10
7.6881824336
 20
-3.617180582
 10
7.6311220593
 20
-3.6448150975
 10
7.5708900609
 20
-3.6673608578
 10
7.5084949788
 20
-3.6844403507
 10
7.4449815727
 20
-3.6957675927
 10
7.3814133279
 20
-3.7011529175
 10
7.3188546477
 20
-3.7005061517
 10
7.2583530312
 20
-3.6938381251
 10
7.2009215334
 20
-3.6812604888
 10
7.1475218024
 20
-3.6629838461
 10
7.0990479773
 20
-3.6393142258
  0
LINE
  5
49D
100
AcDbEntity
  8
RACCORDO
100
AcDbLine
 62
253
  6
CONTINUOUS
 10
-40.7173835036
 20
30.4039311675
 11
5.7183549685
 21
3.5925177502
  0
LINE
  5
49E
100
AcDbEntity
  8
RACCORDO
100
AcDbLine
 62
253
  6
CONTINUOUS
 10
-39.9503390409
 20
32.2085409118
 11
6.5034613605
 21
5.3866987629
  0
LINE
  5
49F
100
AcDbEntity
  8
RACCORDO
100
AcDbLine
 62
7
  6
CONTINUOUS
 10
-35.9829028462
 20
31.0167798066
 11
4.0372030344
 21
7.9096722409
  0
LWPOLYLINE
  5
4A0
100
AcDbEntity
  8
0
100
AcDbPolyline
 62
253
  6
CONTINUOUS
 90
10
 70
0
 10
-25.0170959221
 20
42.3226307857
 10
-25.0101137193
 20
42.3131695817
 10
-25.0033670672
 20
42.3034638965
 10
-24.9968712086
 20
42.2935356576
 10
-24.9906408474
 20
42.2834073292
 10
-24.9846901217
 20
42.2731018855
 10
-24.9790325281
 20
42.2626426939
 10
-24.9736808898
 20
42.2520534578
 10
-24.9686473315
 20
42.2413581646
 10
-24.9639432616
 20
42.2305810511
  0
LWPOLYLINE
  5
4A1
100
AcDbEntity
  8
0
100
AcDbPolyline
 62
253
  6
CONTINUOUS
 90
15
 70
0
 10
-12.6326060831
 20
34.6721585525
 10
-12.6286333693
 20
34.6663153345
 10
-12.6250709107
 20
34.660714323
 10
-12.6219267474
 20
34.6553681594
 10
-12.6192079757
 20
34.6502889095
 10
-12.6169207317
 20
34.6454880369
 10
-12.6150701775
 20
34.6409763769
 10
-12.6136604898
 20
34.6367641121
 10
-12.6126948501
 20
34.6328607493
 10
-12.6121754378
 20
34.6292750981
 10
-12.6121034252
 20
34.6260152511
 10
-12.6124789748
 20
34.6230885657
 10
-12.613301239
 20
34.6205016471
 10
-12.6145683621
 20
34.618260334
 10
-12.6149060825
 20
34.6178147477
  0
LWPOLYLINE
  5
4A2
100
AcDbEntity
  8
0
100
AcDbPolyline
 62
7
  6
CONTINUOUS
 90
4
 70
0
 10
19.2164721493
 20
-22.3950399376
 10
19.2354072373
 20
-22.4282496063
 10
19.2490665318
 20
-22.463988453
 10
19.2571699433
 20
-22.5018161891
  0
LWPOLYLINE
  5
4A3
100
AcDbEntity
  8
RACCORDO
100
AcDbPolyline
 62
253
  6
CONTINUOUS
 90
13
 70
0
 10
6.9422968967
 20
4.8375396271
 10
6.9272292169
 20
4.8838722733
 10
6.9065093691
 20
4.9329498271
 10
6.8804896534
 20
4.9839375069
 10
6.8496125269
 20
5.0359680252
 10
6.8144031338
 20
5.088156253
 10
6.7754603998
 20
5.1396142777
 10
6.7334467227
 20
5.1894666794
 10
6.6890768065
 20
5.2368652754
 10
6.6431055903
 20
5.2810034926
 10
6.5963152042
 20
5.3211303169
 10
6.5495016449
 20
5.3565630441
 10
6.5034613682
 20
5.3866987694
  0
LWPOLYLINE
  5
4A4
100
AcDbEntity
  8
RACCORDO
100
AcDbPolyline
 62
253
  6
CONTINUOUS
 90
10
 70
0
 10
11.4038182723
 20
-16.4776741586
 10
11.683053496
 20
-17.3671725745
 10
11.9758816374
 20
-18.2437940154
 10
12.2823026966
 20
-19.1075384814
 10
12.6023946029
 20
-19.9586014925
 10
12.9360794269
 20
-20.7967875286
 10
13.2831233804
 20
-21.621510029
 10
13.6434485339
 20
-22.4325734734
 10
14.017132817
 20
-23.2301733821
 10
14.4041762295
 20
-24.014309755
  0
LWPOLYLINE
  5
4A5
100
AcDbEntity
  8
RACCORDO
100
AcDbPolyline
 62
253
  6
CONTINUOUS
 90
10
 70
0
 10
10.717386895
 20
-16.5813209624
 10
10.9980494923
 20
-17.4754685393
 10
11.2925094724
 20
-18.3570432084
 10
11.6007022524
 20
-19.2258487958
 10
11.9225615057
 20
-20.0816927263
 10
12.2580153666
 20
-20.92438391
 10
12.6069864493
 20
-21.7537327817
 10
12.9693969424
 20
-22.5695542204
 10
13.3451686238
 20
-23.3716675929
 10
13.73421907
 20
-24.1598946356
  0
LWPOLYLINE
  5
4A6
100
AcDbEntity
  8
RACCORDO
100
AcDbPolyline
 62
253
  6
CONTINUOUS
 90
10
 70
0
 10
7.0990479764
 20
-3.6393142265
 10
7.4763299389
 20
-5.0987543767
 10
7.8598138617
 20
-6.5528810385
 10
8.2494926718
 20
-8.0016686623
 10
8.6453544331
 20
-9.4450742536
 10
9.0473964633
 20
-10.8830901375
 10
9.4556260776
 20
-12.3157432949
 10
9.8700414176
 20
-13.7430253147
 10
10.2906307081
 20
-15.164893059
 10
10.717386895
 20
-16.5813209624
  0
LWPOLYLINE
  5
4A7
100
AcDbEntity
  8
RACCORDO
100
AcDbPolyline
 62
253
  6
CONTINUOUS
 90
10
 70
0
 10
7.7890356789
 20
-3.5485736234
 10
8.165958366
 20
-5.0065989448
 10
8.549062869
 20
-6.4592662044
 10
8.9383491878
 20
-7.9065754022
 10
9.3338198024
 20
-9.3485353211
 10
9.7354722328
 20
-10.7851371781
 10
10.143299039
 20
-12.2163546252
 10
10.557297741
 20
-13.6421788796
 10
10.9774708187
 20
-15.0626187241
 10
11.4038182723
 20
-16.4776741586
  0
LWPOLYLINE
  5
4A8
100
AcDbEntity
  8
RACCORDO
100
AcDbPolyline
 62
253
  6
CONTINUOUS
 90
22
 70
0
 10
5.7183549685
 20
3.5925177502
 10
5.7663231263
 20
3.2343959165
 10
5.8160770319
 20
2.8776187615
 10
5.8676145565
 20
2.5221956835
 10
5.9209325097
 20
2.1681428609
 10
5.9760296125
 20
1.8154627234
 10
6.0329068383
 20
1.4641442129
 10
6.0915622149
 20
1.1141965107
 10
6.1519936405
 20
0.7656292995
 10
6.2142024204
 20
0.418432673
 10
6.278186684
 20
0.0726161908
 10
6.3439445214
 20
-0.2718106356
 10
6.4114776907
 20
-0.6148573811
 10
6.4807844704
 20
-0.9565143837
 10
6.5518630934
 20
-1.2967720004
 10
6.6247157593
 20
-1.635639418
 10
6.6993408068
 20
-1.9731064782
 10
6.7757366908
 20
-2.309163781
 10
6.8539063066
 20
-2.6438212076
 10
6.9338497925
 20
-2.9770753134
 10
7.0155641891
 20
-3.3089096148
 10
7.0990479764
 20
-3.6393142265
  0
LWPOLYLINE
  5
4A9
100
AcDbEntity
  8
RACCORDO
100
AcDbPolyline
 62
253
  6
CONTINUOUS
 90
22
 70
0
 10
6.4158823138
 20
3.6431570739
 10
6.463591513
 20
3.287010944
 10
6.5130725967
 20
2.9322191241
 10
6.564325565
 20
2.5787816144
 10
6.617351561
 20
2.2266953977
 10
6.6721494417
 20
1.8759634911
 10
6.7287157772
 20
1.5265949456
 10
6.7870502964
 20
1.1785897586
 10
6.8471532705
 20
0.8319479327
 10
6.9090220834
 20
0.4866785271
 10
6.9726564873
 20
0.1427813647
 10
7.0380567298
 20
-0.1997433775
 10
7.1052209382
 20
-0.5408861091
 10
7.174148869
 20
-0.8806470284
 10
7.2448407656
 20
-1.2190259371
 10
7.3172954854
 20
-1.5560126495
 10
7.3915128375
 20
-1.891607578
 10
7.4674930129
 20
-2.2258103103
 10
7.5452354418
 20
-2.5586094232
 10
7.624739934
 20
-2.8900011092
 10
7.7060066797
 20
-3.219989176
 10
7.7890356789
 20
-3.5485736234
  0
LINE
  5
4AA
100
AcDbEntity
  8
0
100
AcDbLine
 62
253
  6
CONTINUOUS
 10
10.2797165415
 20
19.2203431383
 11
10.2797165415
 21
20.3835114641
  0
LINE
  5
4AB
100
AcDbEntity
  8
0
100
AcDbLine
 62
253
  6
CONTINUOUS
 10
10.562559254
 20
19.2289010171
 11
10.562559254
 21
20.3835114641
  0
LINE
  5
4AC
100
AcDbEntity
  8
0
100
AcDbLine
 62
7
  6
CONTINUOUS
 10
11.4464427305
 20
26.5991950158
 11
11.4464427305
 21
26.6216981021
  0
LINE
  5
4AD
100
AcDbEntity
  8
0
100
AcDbLine
 62
7
  6
CONTINUOUS
 10
11.4817980695
 20
20.9108003455
 11
11.4817980695
 21
19.7682197392
  0
LINE
  5
4AE
100
AcDbEntity
  8
0
100
AcDbLine
 62
7
  6
CONTINUOUS
 10
11.9181941726
 20
19.4853073588
 11
11.9181941726
 21
18.3246455776
  0
LINE
  5
4AF
100
AcDbEntity
  8
0
100
AcDbLine
 62
253
  6
CONTINUOUS
 10
11.9767728164
 20
19.4036524401
 11
11.9767728164
 21
18.2404841143
  0
LINE
  5
4B0
100
AcDbEntity
  8
DRAFT
100
AcDbLine
 62
7
  6
CONTINUOUS
 10
12.143240728
 20
25.2578397042
 11
12.143240728
 21
26.1968725849
  0
LINE
  5
4B1
100
AcDbEntity
  8
0
100
AcDbLine
 62
7
  6
CONTINUOUS
 10
12.8960116319
 20
18.214512495
 11
12.8960116319
 21
16.8503885622
  0
LINE
  5
4B2
100
AcDbEntity
  8
0
100
AcDbLine
 62
7
  6
CONTINUOUS
 10
13.5622094196
 20
16.465734309
 11
13.5622094196
 21
17.8298582418
  0
LWPOLYLINE
  5
4B3
100
AcDbEntity
  8
0
100
AcDbPolyline
 62
253
  6
CONTINUOUS
 90
34
 70
0
 10
10.2797165415
 20
20.3835114641
 10
10.2798757031
 20
20.3913484214
 10
10.2803528306
 20
20.3993515476
 10
10.2811468516
 20
20.4075028294
 10
10.2822559813
 20
20.4157839256
 10
10.2836777243
 20
20.4241761911
 10
10.2854088779
 20
20.432660718
 10
10.2874455435
 20
20.441218403
 10
10.2897831374
 20
20.4498299886
 10
10.2924163967
 20
20.4584760886
 10
10.2953393943
 20
20.4671372433
 10
10.2985455495
 20
20.4757939555
 10
10.3020276419
 20
20.4844267322
 10
10.3057778314
 20
20.49301614
 10
10.3097876763
 20
20.5015428476
 10
10.3140481492
 20
20.509987662
 10
10.3185496624
 20
20.5183315811
 10
10.3232820794
 20
20.5265558186
 10
10.3282347362
 20
20.5346418463
 10
10.3333964673
 20
20.5425714427
 10
10.3387556665
 20
20.5503267855
 10
10.3443003056
 20
20.5578904697
 10
10.3500179568
 20
20.5652455325
 10
10.3558957042
 20
20.5723753502
 10
10.3619201992
 20
20.5792637398
 10
10.3680777982
 20
20.5858951295
 10
10.3743547094
 20
20.5922546944
 10
10.3807369117
 20
20.5983282386
 10
10.3872110577
 20
20.6041029693
 10
10.3937615845
 20
20.6095649157
 10
10.4003707543
 20
20.6146995417
 10
10.4070226256
 20
20.6194950496
 10
10.4137031902
 20
20.6239419236
 10
10.4203974207
 20
20.6280306576
  0
LWPOLYLINE
  5
4B4
100
AcDbEntity
  8
0
100
AcDbPolyline
 62
253
  6
CONTINUOUS
 90
8
 70
0
 10
11.9767728164
 20
19.4036524401
 10
11.9769319329
 20
19.411488276
 10
11.9774089244
 20
19.4194902231
 10
11.9782027176
 20
19.427640275
 10
11.9793115262
 20
19.4359200921
 10
11.9807328551
 20
19.4443110428
 10
11.982463506
 20
19.4527942454
 10
11.9844995845
 20
19.4613506105
  0
LWPOLYLINE
  5
4B5
100
AcDbEntity
  8
0
100
AcDbPolyline
 62
7
  6
CONTINUOUS
 90
5
 70
0
 10
11.9181941727
 20
19.4853041998
 10
11.9197222733
 20
19.5099833628
 10
11.92454243
 20
19.5352973838
 10
11.9326100683
 20
19.5598629771
 10
11.9438443557
 20
19.5832978754
  0
LWPOLYLINE
  5
4B6
100
AcDbEntity
  8
0
100
AcDbPolyline
 62
253
  6
CONTINUOUS
 90
27
 70
0
 10
17.0586807164
 20
15.0768776423
 10
17.0542656806
 20
15.0661940916
 10
17.0494631499
 20
15.055763569
 10
17.044283698
 20
15.045609772
 10
17.0387383359
 20
15.0357550796
 10
17.0328397123
 20
15.0262227108
 10
17.0266023441
 20
15.0170364242
 10
17.0200408613
 20
15.0082176633
 10
17.0131695864
 20
14.9997855805
 10
17.0060038863
 20
14.9917590561
 10
16.9985598216
 20
14.9841561394
 10
16.9908542794
 20
14.9769941345
 10
16.9829048069
 20
14.9702893716
 10
16.9747294167
 20
14.9640570356
 10
16.9663465117
 20
14.9583111481
 10
16.9577750026
 20
14.9530646733
 10
16.9490342309
 20
14.9483294551
 10
16.9401439459
 20
14.9441161976
 10
16.9311242419
 20
14.9404344258
 10
16.9219954935
 20
14.9372924558
 10
16.9127783082
 20
14.9346973798
 10
16.9034934995
 20
14.9326550577
 10
16.8941620337
 20
14.9311701015
 10
16.8848049827
 20
14.9302458645
 10
16.8754434765
 20
14.9298844338
 10
16.8660986439
 20
14.9300866262
 10
16.859979029
 20
14.9305260307
  0
LWPOLYLINE
  5
4B7
100
AcDbEntity
  8
0
100
AcDbPolyline
 62
253
  6
CONTINUOUS
 90
12
 70
0
 10
16.9466934802
 20
15.0399213924
 10
16.9580841482
 20
15.0418270466
 10
16.9693054803
 20
15.0440424526
 10
16.9803322258
 20
15.0465626251
 10
16.9911395717
 20
15.049381893
 10
17.0017031989
 20
15.0524939123
 10
17.0119993365
 20
15.0558916802
 10
17.0220048158
 20
15.0595675508
 10
17.0316971218
 20
15.0635132526
 10
17.0410544446
 20
15.0677199068
 10
17.0500557279
 20
15.0721780473
 10
17.0586807164
 20
15.0768776423
  0
LINE
  5
4B8
100
AcDbEntity
  8
RACCORDO
100
AcDbLine
 62
7
  6
CONTINUOUS
 10
-33.1724151789
 20
30.6230290312
 11
5.1284617142
 21
8.5085827358
  0
LINE
  5
4B9
100
AcDbEntity
  8
SUPERFICI
100
AcDbLine
 62
7
  6
CONTINUOUS
 10
-32.8890220915
 20
31.2094344182
 11
-32.9795459834
 21
31.2617017789
  0
LINE
  5
4BA
100
AcDbEntity
  8
RACCORDO
100
AcDbLine
 62
7
  6
CONTINUOUS
 10
-32.1740646055
 20
31.5466599302
 11
6.1529807671
 21
9.4171042828
  0
LWPOLYLINE
  5
4BB
100
AcDbEntity
  8
0
100
AcDbPolyline
 62
253
  6
CONTINUOUS
 90
10
 70
0
 10
-12.7134379294
 20
35.2186528618
 10
-12.7064557267
 20
35.2091916578
 10
-12.6997090746
 20
35.1994859726
 10
-12.693213216
 20
35.1895577337
 10
-12.6869828548
 20
35.1794294053
 10
-12.6810321291
 20
35.1691239616
 10
-12.6753745354
 20
35.15866477
 10
-12.6700228971
 20
35.1480755339
 10
-12.6649893389
 20
35.1373802407
 10
-12.660285269
 20
35.1266031272
  0
LWPOLYLINE
  5
4BC
100
AcDbEntity
  8
0
100
AcDbPolyline
 62
253
  6
CONTINUOUS
 90
12
 70
0
 10
19.1957906579
 20
-22.4403925806
 10
19.1923617173
 20
-22.429528716
 10
19.1885198188
 20
-22.4189031558
 10
19.1842736333
 20
-22.4085398805
 10
19.1796327414
 20
-22.398462274
 10
19.1746076106
 20
-22.3886930707
 10
19.1692095875
 20
-22.3792543333
 10
19.1634508735
 20
-22.3701673936
 10
19.1573444802
 20
-22.3614527744
 10
19.1509041822
 20
-22.3531301248
 10
19.1441445007
 20
-22.3452182074
 10
19.1370805095
 20
-22.3377346953
  0
LWPOLYLINE
  5
4BD
100
AcDbEntity
  8
RACCORDO
100
AcDbPolyline
 62
253
  6
CONTINUOUS
 90
13
 70
0
 10
13.0811073822
 20
10.1178709091
 10
13.0756841938
 20
10.1714581388
 10
13.0644176905
 20
10.2276786874
 10
13.0475004216
 20
10.2855717225
 10
13.0252215103
 20
10.344147828
 10
12.9979617126
 20
10.4024059142
 10
12.9661869098
 20
10.4593503263
 10
12.9304401465
 20
10.514007861
 10
12.8913323497
 20
10.5654443985
 10
12.8495318876
 20
10.6127808673
 10
12.8057531473
 20
10.6552082679
 10
12.7607443258
 20
10.6920014984
 10
12.7152746421
 20
10.7225317475
  0
LWPOLYLINE
  5
4BE
100
AcDbEntity
  8
0
100
AcDbPolyline
 62
253
  6
CONTINUOUS
 90
7
 70
0
 10
19.2073260412
 20
-22.5091764282
 10
19.2065036518
 20
-22.4974125578
 10
19.2052363846
 20
-22.4857337738
 10
19.2035271002
 20
-22.4741664374
 10
19.2013796565
 20
-22.4627366561
 10
19.1987989008
 20
-22.4514702277
 10
19.1957906579
 20
-22.4403925806
  0
LWPOLYLINE
  5
4BF
100
AcDbEntity
  8
0
100
AcDbPolyline
 62
7
  6
CONTINUOUS
 90
7
 70
0
 10
14.9524415756
 20
16.1497157135
 10
14.9547492424
 20
16.1158343048
 10
14.9617384382
 20
16.0821758122
 10
14.9733945243
 20
16.0495286472
 10
14.989550388
 20
16.0186534545
 10
15.0098554487
 20
15.9903087877
 10
15.0338581662
 20
15.9651090125
  0
LINE
  5
4C0
100
AcDbEntity
  8
0
100
AcDbLine
 62
7
  6
CONTINUOUS
 10
19.2571699433
 20
-22.5018161891
 11
19.2593947528
 21
-22.5357128745
  0
LWPOLYLINE
  5
4C1
100
AcDbEntity
  8
0
100
AcDbPolyline
 62
253
  6
CONTINUOUS
 90
18
 70
0
 10
16.7060553454
 20
-24.1805647351
 10
16.7062542411
 20
-24.1901298502
 10
16.7068504805
 20
-24.1994437617
 10
16.707842722
 20
-24.208485511
 10
16.7092287327
 20
-24.217234752
 10
16.7110053939
 20
-24.2256717966
 10
16.7131687075
 20
-24.2337776594
 10
16.7157138056
 20
-24.2415341003
 10
16.7186349611
 20
-24.2489236653
 10
16.7219256007
 20
-24.2559297261
 10
16.7255783196
 20
-24.2625365172
 10
16.7295848983
 20
-24.2687291719
 10
16.733936321
 20
-24.274493755
 10
16.7386227959
 20
-24.2798172949
 10
16.7436337773
 20
-24.2846878122
 10
16.7489579892
 20
-24.2890943471
 10
16.7545834509
 20
-24.2930269838
 10
16.7578260007
 20
-24.2949989504
  0
LWPOLYLINE
  5
4C2
100
AcDbEntity
  8
0
100
AcDbPolyline
 62
253
  6
CONTINUOUS
 90
18
 70
0
 10
15.0256648804
 20
16.0476470652
 10
15.0258327117
 20
16.0388516234
 10
15.0263361162
 20
16.0302637949
 10
15.0271744805
 20
16.0219001216
 10
15.0283467048
 20
16.0137758365
 10
15.0298508221
 20
16.0059076235
 10
15.0316836243
 20
15.9983132831
 10
15.0338413479
 20
15.9910081196
 10
15.0363200809
 20
15.9840051322
 10
15.0391151374
 20
15.9773175794
 10
15.0422212337
 20
15.9709581528
 10
15.0456324437
 20
15.9649390306
 10
15.049342228
 20
15.9592717625
 10
15.0533434912
 20
15.9539671726
 10
15.0576286373
 20
15.9490353173
 10
15.0621895378
 20
15.9444855533
 10
15.0670175445
 20
15.9403265226
 10
15.0719070178
 20
15.9367114078
  0
LWPOLYLINE
  5
4C3
100
AcDbEntity
  8
0
100
AcDbPolyline
 62
253
  6
CONTINUOUS
 90
19
 70
0
 10
16.7060553454
 20
15.0774106709
 10
16.7062231768
 20
15.0686152291
 10
16.7067265813
 20
15.0600274006
 10
16.7075649456
 20
15.0516637273
 10
16.7087371699
 20
15.0435394422
 10
16.7102412872
 20
15.0356712292
 10
16.7120740893
 20
15.0280768888
 10
16.714231813
 20
15.0207717253
 10
16.716710546
 20
15.0137687379
 10
16.7195056025
 20
15.0070811851
 10
16.7226116988
 20
15.0007217585
 10
16.7260229087
 20
14.9947026363
 10
16.7297326931
 20
14.9890353682
 10
16.7337339563
 20
14.9837307783
 10
16.7380191024
 20
14.978798923
 10
16.7425800029
 20
14.974249159
 10
16.7474080096
 20
14.9700901283
 10
16.7524939036
 20
14.9663297865
 10
16.7578226429
 20
14.9629783944
  0
LINE
  5
4C4
100
AcDbEntity
  8
DRAFT
100
AcDbLine
 62
253
  6
CONTINUOUS
 10
14.0273824818
 20
22.2069787313
 11
14.0273824818
 21
23.2499307049
  0
LINE
  5
4C5
100
AcDbEntity
  8
0
100
AcDbLine
 62
253
  6
CONTINUOUS
 10
14.3434290125
 20
24.7350532171
 11
14.3434290125
 21
23.4302889256
  0
LINE
  5
4C6
100
AcDbEntity
  8
0
100
AcDbLine
 62
7
  6
CONTINUOUS
 10
14.4761221501
 20
24.7905698531
 11
14.4761221501
 21
23.613733066
  0
LINE
  5
4C7
100
AcDbEntity
  8
0
100
AcDbLine
 62
7
  6
CONTINUOUS
 10
14.6284232458
 20
17.1391236796
 11
14.6284232458
 21
18.4454761225
  0
LINE
  5
4C8
100
AcDbEntity
  8
0
100
AcDbLine
 62
7
  6
CONTINUOUS
 10
14.9524415756
 20
16.4713053325
 11
14.9524415756
 21
16.1497157135
  0
LINE
  5
4C9
100
AcDbEntity
  8
0
100
AcDbLine
 62
7
  6
CONTINUOUS
 10
14.9933083081
 20
23.3952558834
 11
14.9933083081
 21
22.8615659883
  0
LINE
  5
4CA
100
AcDbEntity
  8
0
100
AcDbLine
 62
253
  6
CONTINUOUS
 10
15.0256648804
 20
16.3692366841
 11
15.0256648804
 21
16.0476470652
  0
LINE
  5
4CB
100
AcDbEntity
  8
DRAFT
100
AcDbLine
 62
253
  6
CONTINUOUS
 10
15.4415960442
 20
22.1265691023
 11
15.4415960442
 21
22.7121271155
  0
LINE
  5
4CC
100
AcDbEntity
  8
0
100
AcDbLine
 62
7
  6
CONTINUOUS
 10
15.6558459206
 20
15.5992459428
 11
15.6558459206
 21
15.3198184436
  0
LINE
  5
4CD
100
AcDbEntity
  8
0
100
AcDbLine
 62
253
  6
CONTINUOUS
 10
15.7290692253
 20
15.5569677244
 11
15.7290692253
 21
15.2146166144
  0
LINE
  5
4CE
100
AcDbEntity
  8
0
100
AcDbLine
 62
253
  6
CONTINUOUS
 10
16.7060553454
 20
-24.1805647351
 11
16.7060553454
 21
-23.8589751161
  0
LINE
  5
4CF
100
AcDbEntity
  8
0
100
AcDbLine
 62
253
  6
CONTINUOUS
 10
16.7060553454
 20
15.0774106709
 11
16.7060553454
 21
15.3990002898
  0
LINE
  5
4D0
100
AcDbEntity
  8
0
100
AcDbLine
 62
253
  6
CONTINUOUS
 10
17.0586807164
 20
-24.1810977637
 11
17.0586807164
 21
-23.8595081448
  0
LINE
  5
4D1
100
AcDbEntity
  8
0
100
AcDbLine
 62
253
  6
CONTINUOUS
 10
17.0586807164
 20
15.0768776423
 11
17.0586807164
 21
15.3984672612
  0
LINE
  5
4D2
100
AcDbEntity
  8
0
100
AcDbLine
 62
253
  6
CONTINUOUS
 10
17.4168645629
 20
14.2401047395
 11
17.4168645629
 21
14.8729312174
  0
LINE
  5
4D3
100
AcDbEntity
  8
0
100
AcDbLine
 62
253
  6
CONTINUOUS
 10
17.7694899339
 20
-22.9819819576
 11
17.7694899339
 21
-22.7382610063
  0
LINE
  5
4D4
100
AcDbEntity
  8
0
100
AcDbLine
 62
253
  6
CONTINUOUS
 10
17.7694899339
 20
14.2502130484
 11
17.7694899339
 21
15.0116251612
  0
LINE
  5
4D5
100
AcDbEntity
  8
0
100
AcDbLine
 62
7
  6
CONTINUOUS
 10
17.8457591002
 20
24.2113294893
 11
17.8457591002
 21
23.773712077
  0
LWPOLYLINE
  5
4D6
100
AcDbEntity
  8
0
100
AcDbPolyline
 62
253
  6
CONTINUOUS
 90
25
 70
0
 10
16.7060553454
 20
-23.8589751161
 10
16.7062236413
 20
-23.849973308
 10
16.7067282084
 20
-23.8407942957
 10
16.707568086
 20
-23.8314555566
 10
16.7087416715
 20
-23.8219748976
 10
16.7102467321
 20
-23.8123703455
 10
16.7120804181
 20
-23.8026601094
 10
16.7142392617
 20
-23.792862609
 10
16.7167191488
 20
-23.7829965639
 10
16.7195153282
 20
-23.7730808824
 10
16.7226224503
 20
-23.7631345108
 10
16.7260346119
 20
-23.7531763237
 10
16.7297453394
 20
-23.7432252122
 10
16.7337475996
 20
-23.7333000525
 10
16.7380337483
 20
-23.7234198158
 10
16.7425955575
 20
-23.7136034589
 10
16.7474242871
 20
-23.7038697571
 10
16.7525107733
 20
-23.6942371523
 10
16.7578453888
 20
-23.684723866
 10
16.7634186594
 20
-23.675346895
 10
16.7692193458
 20
-23.6661252465
 10
16.7752342716
 20
-23.6570795985
 10
16.7814510373
 20
-23.6482279924
 10
16.7878583006
 20
-23.6395859915
 10
16.7944436931
 20
-23.6311697917
  0
LWPOLYLINE
  5
4D7
100
AcDbEntity
  8
0
100
AcDbPolyline
 62
253
  6
CONTINUOUS
 90
12
 70
0
 10
15.0256648804
 20
16.3692366841
 10
15.025863776
 20
16.379031479
 10
15.0264600154
 20
16.3890339128
 10
15.0274522569
 20
16.3992214777
 10
15.0288382676
 20
16.4095712491
 10
15.0306149288
 20
16.4200599375
 10
15.0327782424
 20
16.4306639407
 10
15.0353233405
 20
16.4413593971
 10
15.0382444961
 20
16.4521222392
 10
15.0415351356
 20
16.4629282481
 10
15.0451878545
 20
16.4737531075
 10
15.0491944332
 20
16.4845724588
  0
LWPOLYLINE
  5
4D8
100
AcDbEntity
  8
0
100
AcDbPolyline
 62
253
  6
CONTINUOUS
 90
34
 70
0
 10
16.7060553454
 20
15.3990002898
 10
16.706254296
 20
15.4087964516
 10
16.706850701
 20
15.4188003214
 10
16.7078432199
 20
15.4289893828
 10
16.7092296212
 20
15.4393407088
 10
16.7110067857
 20
15.4498309938
 10
16.7131707102
 20
15.4604366056
 10
16.7157165222
 20
15.4711336661
 10
16.7186384917
 20
15.481898103
 10
16.7219300402
 20
15.4927056833
 10
16.7255837586
 20
15.5035320821
 10
16.7295914215
 20
15.5143529286
 10
16.7339440039
 20
15.5251438581
 10
16.7386317064
 20
15.5358805801
 10
16.7436439766
 20
15.5465389296
 10
16.7489695295
 20
15.5570949133
 10
16.7545963793
 20
15.5675247772
 10
16.7605118567
 20
15.5778050405
 10
16.7667026335
 20
15.5879125467
 10
16.7731547542
 20
15.5978245199
 10
16.7798537105
 20
15.6075186814
 10
16.786784468
 20
15.6169732752
 10
16.7939314969
 20
15.6261671038
 10
16.8012786482
 20
15.6350793812
 10
16.8088092223
 20
15.6436898629
 10
16.8165061557
 20
15.651979077
 10
16.8243522163
 20
15.6599285037
 10
16.8323298892
 20
15.6675204109
 10
16.8404224443
 20
15.6747387685
 10
16.8486104736
 20
15.6815661577
 10
16.8568719581
 20
15.6879845232
 10
16.8651870252
 20
15.6939791303
 10
16.8735381157
 20
15.6995380192
 10
16.8819064444
 20
15.7046492816
  0
LWPOLYLINE
  5
4D9
100
AcDbEntity
  8
0
100
AcDbPolyline
 62
253
  6
CONTINUOUS
 90
18
 70
0
 10
17.0586807164
 20
-24.1810977637
 10
17.0584372152
 20
-24.1907201606
 10
17.0577958151
 20
-24.2000882848
 10
17.0567579676
 20
-24.2091809083
 10
17.0553260221
 20
-24.2179774323
 10
17.053503222
 20
-24.2264579181
 10
17.0512937003
 20
-24.2346031348
 10
17.0487024654
 20
-24.242394623
 10
17.0457353883
 20
-24.2498147325
 10
17.0423991935
 20
-24.2568466486
 10
17.0387014408
 20
-24.2634744395
 10
17.03465051
 20
-24.2696830875
 10
17.0302555844
 20
-24.2754585211
 10
17.0255266246
 20
-24.2807876552
 10
17.0204743465
 20
-24.2856584177
 10
17.0151102011
 20
-24.290059773
 10
17.0094463415
 20
-24.2939817526
 10
17.0059116149
 20
-24.2960998867
  0
LWPOLYLINE
  5
4DA
100
AcDbEntity
  8
0
100
AcDbPolyline
 62
7
  6
CONTINUOUS
 90
9
 70
0
 10
14.9524415757
 20
16.4713013835
 10
14.9543517834
 20
16.5021509961
 10
14.9603770621
 20
16.5337935016
 10
14.9704616528
 20
16.564500372
 10
14.9845045266
 20
16.5937938734
 10
15.0023470799
 20
16.6211792554
 10
15.0237255208
 20
16.6461211548
 10
15.0482824273
 20
16.6681173163
 10
15.0754734263
 20
16.6866633809
  0
LWPOLYLINE
  5
4DB
100
AcDbEntity
  8
RACCORDO
100
AcDbPolyline
 62
253
  6
CONTINUOUS
 90
8
 70
0
 10
14.7136091605
 20
-24.0824804367
 10
14.7081859727
 20
-24.135256428
 10
14.6969194703
 20
-24.1835813087
 10
14.6800022024
 20
-24.2266291867
 10
14.6577232921
 20
-24.263664356
 10
14.6304634952
 20
-24.2940538701
 10
14.5986886929
 20
-24.3172783599
 10
14.5892067346
 20
-24.322364513
  0
LWPOLYLINE
  5
4DC
100
AcDbEntity
  8
0
100
AcDbPolyline
 62
253
  6
CONTINUOUS
 90
9
 70
0
 10
16.8526009441
 20
15.03619171
 10
16.8644038134
 20
15.0355251477
 10
16.8762481508
 20
15.0351825179
 10
16.8881073035
 20
15.0351645916
 10
16.8999545856
 20
15.0354714091
 10
16.9117633378
 20
15.0361022801
 10
16.9235069873
 20
15.0370557849
 10
16.9351591082
 20
15.0383297779
 10
16.9466934802
 20
15.0399213924
  0
LWPOLYLINE
  5
4DD
100
AcDbEntity
  8
0
100
AcDbPolyline
 62
7
  6
CONTINUOUS
 90
32
 70
0
 10
17.4873711337
 20
14.8729336273
 10
17.4974841712
 20
14.8722485578
 10
17.5072998652
 20
14.872036436
 10
17.517206884
 20
14.8722594368
 10
17.5271888493
 20
14.872895157
 10
17.5372261451
 20
14.8739424627
 10
17.5472997587
 20
14.8753994593
 10
17.5573951171
 20
14.8772424218
 10
17.5674940955
 20
14.879468966
 10
17.5775791125
 20
14.8820762973
 10
17.5876372645
 20
14.8850400233
 10
17.5976519854
 20
14.8883567639
 10
17.6076071473
 20
14.892022958
 10
17.617491278
 20
14.8960139759
 10
17.6272893658
 20
14.9003256472
 10
17.6369867385
 20
14.904953756
 10
17.6465731147
 20
14.9098736843
 10
17.6560350004
 20
14.9150806258
 10
17.6653591696
 20
14.9205698087
 10
17.6745363421
 20
14.9263167582
 10
17.6835544952
 20
14.9323161437
 10
17.6924018385
 20
14.9385627288
 10
17.7010699822
 20
14.9450322616
 10
17.7095483306
 20
14.9517189677
 10
17.7178265236
 20
14.9586172341
 10
17.7258970313
 20
14.9657031139
 10
17.7337506509
 20
14.9729704512
 10
17.7413784497
 20
14.9804133443
 10
17.7487737973
 20
14.9880082729
 10
17.7559293073
 20
14.9957432458
 10
17.7628369904
 20
15.0036176896
 10
17.7694899339
 20
15.0116251612
  0
LINE
  5
4DE
100
AcDbEntity
  8
0
100
AcDbLine
 62
7
  6
CONTINUOUS
 10
16.8599780687
 20
14.9305261189
 11
17.4873716359
 21
14.8729312174
  0
LINE
  5
4DF
100
AcDbEntity
  8
0
100
AcDbLine
 62
253
  6
CONTINUOUS
 10
17.0586807164
 20
15.0768776423
 11
17.7694899339
 21
15.0116251612
  0
LINE
  5
4E0
100
AcDbEntity
  8
RACCORDO
100
AcDbLine
 62
253
  6
CONTINUOUS
 10
-34.093887192
 20
37.5542499298
 11
-30.9889207086
 21
35.7614811966
  0
LINE
  5
4E1
100
AcDbEntity
  8
RACCORDO
100
AcDbLine
 62
253
  6
CONTINUOUS
 10
9.4630282979
 20
12.4050328223
 11
12.5679947813
 21
10.6122640891
  0
LINE
  5
4E2
100
AcDbEntity
  8
RACCORDO
100
AcDbLine
 62
253
  6
CONTINUOUS
 10
-33.9491558682
 20
37.6659890815
 11
-30.6442888985
 21
35.757800301
  0
LINE
  5
4E3
100
AcDbEntity
  8
RACCORDO
100
AcDbLine
 62
7
  6
CONTINUOUS
 10
-30.6442888985
 20
35.757800301
 11
9.4104076528
 21
12.6307205155
  0
LINE
  5
4E4
100
AcDbEntity
  8
RACCORDO
100
AcDbLine
 62
253
  6
CONTINUOUS
 10
9.4104076528
 20
12.6307205155
 11
12.7152746421
 21
10.7225317475
  0
LWPOLYLINE
  5
4E5
100
AcDbEntity
  8
RACCORDO
100
AcDbPolyline
 62
7
  6
CONTINUOUS
 90
10
 70
0
 10
9.4103751144
 20
12.6307644425
 10
9.4394995275
 20
12.6115649456
 10
9.4627103837
 20
12.5905377126
 10
9.4799741993
 20
12.5677640466
 10
9.4913252505
 20
12.5428182037
 10
9.4966803248
 20
12.516259129
 10
9.4961530323
 20
12.4893654083
 10
9.4901388989
 20
12.4622729326
 10
9.4789862313
 20
12.4342549268
 10
9.4630282979
 20
12.4050328223
  0
LWPOLYLINE
  5
4E6
100
AcDbEntity
  8
0
100
AcDbPolyline
 62
7
  6
CONTINUOUS
 90
7
 70
0
 10
-29.0451014131
 20
41.4090126988
 10
-29.075752621
 20
41.4298886688
 10
-29.1034257144
 20
41.4555468513
 10
-29.127170595
 20
41.4854446788
 10
-29.1461056831
 20
41.5186543475
 10
-29.1597649775
 20
41.5543931942
 10
-29.1678683891
 20
41.5922209303
  0
LWPOLYLINE
  5
4E7
100
AcDbEntity
  8
0
100
AcDbPolyline
 62
253
  6
CONTINUOUS
 90
7
 70
0
 10
-25.0630156665
 20
42.3731067514
 10
-25.0549690467
 20
42.3655404389
 10
-25.0470563134
 20
42.3576109973
 10
-25.03929525
 20
42.3493362334
 10
-25.0317033487
 20
42.3407347591
 10
-25.0242979253
 20
42.3318261537
 10
-25.0170959221
 20
42.3226307857
  0
LWPOLYLINE
  5
4E8
100
AcDbEntity
  8
0
100
AcDbPolyline
 62
253
  6
CONTINUOUS
 90
7
 70
0
 10
-12.7593576739
 20
35.2691288275
 10
-12.751311054
 20
35.261562515
 10
-12.7433983208
 20
35.2536330734
 10
-12.7356372574
 20
35.2453583095
 10
-12.728045356
 20
35.2367568352
 10
-12.7206399327
 20
35.2278482298
 10
-12.7134379294
 20
35.2186528618
  0
LWPOLYLINE
  5
4E9
100
AcDbEntity
  8
0
100
AcDbPolyline
 62
253
  6
CONTINUOUS
 90
12
 70
0
 10
6.8558695509
 20
23.8582060962
 10
6.8602323111
 20
23.8473730027
 10
6.8642451091
 20
23.8365071204
 10
6.8678988552
 20
23.8256330631
 10
6.8711852727
 20
23.814775463
 10
6.8740969172
 20
23.8039589149
 10
6.8766271932
 20
23.7932079207
 10
6.878770369
 20
23.7825468339
 10
6.8805215898
 20
23.7719998042
 10
6.8818768887
 20
23.761590723
 10
6.8828331957
 20
23.7513431691
 10
6.8833883446
 20
23.7412803557
  0
LWPOLYLINE
  5
4EA
100
AcDbEntity
  8
RACCORDO
100
AcDbPolyline
 62
253
  6
CONTINUOUS
 90
13
 70
0
 10
13.0068303174
 20
10.0631049533
 10
12.9917617648
 20
10.1094399188
 10
12.9710407436
 20
10.1585195216
 10
12.9450197629
 20
10.2095088122
 10
12.9141414958
 20
10.2615403529
 10
12.8789312479
 20
10.3137289751
 10
12.8399880214
 20
10.3651868382
 10
12.7979743244
 20
10.415038533
 10
12.7536049003
 20
10.4624359749
 10
12.7076345686
 20
10.5065728315
 10
12.6608453835
 20
10.5466982397
 10
12.6140333298
 20
10.58212958
 10
12.5679947813
 20
10.6122640891
  0
LWPOLYLINE
  5
4EB
100
AcDbEntity
  8
RACCORDO
100
AcDbPolyline
 62
7
  6
CONTINUOUS
 90
7
 70
0
 10
19.36542155
 20
-21.7654061837
 10
19.3719252625
 20
-21.8116024319
 10
19.3694232199
 20
-21.8552800299
 10
19.3580365688
 20
-21.8955820676
 10
19.3368735608
 20
-21.9322935267
 10
19.3073546347
 20
-21.9641277369
 10
19.274906673
 20
-21.987828691
  0
LINE
  5
4EC
100
AcDbEntity
  8
0
100
AcDbLine
 62
253
  6
CONTINUOUS
 10
19.1870463372
 20
16.6373024318
 11
19.1871990703
 21
16.6274471533
  0
LWPOLYLINE
  5
4ED
100
AcDbEntity
  8
0
100
AcDbPolyline
 62
7
  6
CONTINUOUS
 90
25
 70
0
 10
17.8457591002
 20
24.2113294893
 10
17.8453799852
 20
24.2377728387
 10
17.8442533959
 20
24.2636999438
 10
17.8423793322
 20
24.2891108049
 10
17.8397542051
 20
24.3140313592
 10
17.8363816037
 20
24.3384356695
 10
17.8322722951
 20
24.3622459231
 10
17.8274239395
 20
24.3854601576
 10
17.8218388768
 20
24.4080803356
 10
17.8155348937
 20
24.4300345318
 10
17.8085097371
 20
24.451320582
 10
17.8007656602
 20
24.4719406505
 10
17.792327209
 20
24.4918293058
 10
17.7831920864
 20
24.5109843832
 10
17.7733625895
 20
24.5294080473
 10
17.7628701561
 20
24.5470413611
 10
17.7517127936
 20
24.5638816206
 10
17.7398924945
 20
24.5799315299
 10
17.7274466745
 20
24.5951402641
 10
17.7143732127
 20
24.6095053009
 10
17.7006742298
 20
24.6230291627
 10
17.6863935036
 20
24.6356685915
 10
17.6715292544
 20
24.6474206799
 10
17.6560832617
 20
24.6582883354
 10
17.6386764654
 20
24.6690663266
  0
LINE
  5
4EE
100
AcDbEntity
  8
0
100
AcDbLine
 62
7
  6
CONTINUOUS
 10
18.6589318986
 20
-22.2952287206
 11
18.6589318986
 21
-23.276383369
  0
LINE
  5
4EF
100
AcDbEntity
  8
0
100
AcDbLine
 62
7
  6
CONTINUOUS
 10
18.6589318986
 20
14.8119584977
 11
18.6589318986
 21
16.3224319641
  0
LINE
  5
4F0
100
AcDbEntity
  8
0
100
AcDbLine
 62
253
  6
CONTINUOUS
 10
19.1871990703
 20
16.6274471533
 11
19.1871990703
 21
16.2998018528
  0
LINE
  5
4F1
100
AcDbEntity
  8
0
100
AcDbLine
 62
253
  6
CONTINUOUS
 10
19.1871990703
 20
-22.6365839343
 11
19.1871990703
 21
-22.9642292348
  0
LINE
  5
4F2
100
AcDbEntity
  8
0
100
AcDbLine
 62
7
  6
CONTINUOUS
 10
19.2593969273
 20
16.7289202663
 11
19.2593969273
 21
16.4012749658
  0
LINE
  5
4F3
100
AcDbEntity
  8
0
100
AcDbLine
 62
7
  6
CONTINUOUS
 10
19.2593969273
 20
-22.5351108212
 11
19.2593969273
 21
-22.8627561217
  0
LINE
  5
4F4
100
AcDbEntity
  8
RACCORDO
100
AcDbLine
 62
7
  6
CONTINUOUS
 10
19.3663632334
 20
-21.766131806
 11
19.3663472211
 21
-18.9901285644
  0
LINE
  5
4F5
100
AcDbEntity
  8
RACCORDO
100
AcDbLine
 62
7
  6
CONTINUOUS
 10
19.3663552288
 20
13.9952890859
 11
19.3663472211
 21
11.2192716769
  0
LINE
  5
4F6
100
AcDbEntity
  8
0
100
AcDbLine
 62
253
  6
CONTINUOUS
 10
19.935733912
 20
21.5080698714
 11
19.935733912
 21
20.9791360801
  0
LINE
  5
4F7
100
AcDbEntity
  8
0
100
AcDbLine
 62
253
  6
CONTINUOUS
 10
19.935733912
 20
20.6433051693
 11
19.935733912
 21
20.203501808
  0
LINE
  5
4F8
100
AcDbEntity
  8
0
100
AcDbLine
 62
7
  6
CONTINUOUS
 10
20.0665687631
 20
21.5627160435
 11
20.0665687631
 21
20.3858792564
  0
LINE
  5
4F9
100
AcDbEntity
  8
0
100
AcDbLine
 62
7
  6
CONTINUOUS
 10
20.0672831749
 20
14.4023719018
 11
20.0672831749
 21
11.6378781954
  0
LINE
  5
4FA
100
AcDbEntity
  8
0
100
AcDbLine
 62
7
  6
CONTINUOUS
 10
20.0672831749
 20
-18.5850599794
 11
20.0672831749
 21
-21.3495536858
  0
LINE
  5
4FB
100
AcDbEntity
  8
0
100
AcDbLine
 62
7
  6
CONTINUOUS
 10
20.7682191287
 20
12.0568409753
 11
20.7682191287
 21
11.7550153029
  0
LINE
  5
4FC
100
AcDbEntity
  8
0
100
AcDbLine
 62
7
  6
CONTINUOUS
 10
20.7682191287
 20
-17.9267195591
 11
20.7682191287
 21
-18.1803476559
  0
LINE
  5
4FD
100
AcDbEntity
  8
0
100
AcDbLine
 62
7
  6
CONTINUOUS
 10
20.804320302
 20
11.7341709379
 11
20.804320302
 21
-17.8993663484
  0
LINE
  5
4FE
100
AcDbEntity
  8
0
100
AcDbLine
 62
253
  6
CONTINUOUS
 10
19.2593969273
 20
-22.5351108212
 11
19.2593947528
 21
-22.5357128745
  0
LWPOLYLINE
  5
4FF
100
AcDbEntity
  8
0
100
AcDbPolyline
 62
253
  6
CONTINUOUS
 90
18
 70
0
 10
19.1871990703
 20
-22.9642292348
 10
19.1870462884
 20
-22.9737991206
 10
19.1864909791
 20
-22.9831174118
 10
19.185534399
 20
-22.9921629934
 10
19.1841787132
 20
-23.0009153731
 10
19.1824269924
 20
-23.009354713
 10
19.1802832083
 20
-23.0174618754
 10
19.1777522201
 20
-23.0252184875
 10
19.1748397625
 20
-23.0326069782
 10
19.1715524361
 20
-23.0396106046
 10
19.1678976899
 20
-23.0462134991
 10
19.1638838063
 20
-23.0524007005
 10
19.1595198844
 20
-23.0581581861
 10
19.1548158145
 20
-23.0634729116
 10
19.1497822562
 20
-23.0683328374
 10
19.1444306179
 20
-23.0727269527
 10
19.1387730243
 20
-23.0766453056
 10
19.1365824036
 20
-23.0779858933
  0
LWPOLYLINE
  5
500
100
AcDbEntity
  8
0
100
AcDbPolyline
 62
253
  6
CONTINUOUS
 90
18
 70
0
 10
19.2593969273
 20
16.4012749658
 10
19.2593429129
 20
16.3982745341
 10
19.2588155376
 20
16.3914363637
 10
19.2577273023
 20
16.3846203161
 10
19.256080654
 20
16.3778417185
 10
19.2538792953
 20
16.3711158138
 10
19.2511281764
 20
16.3644577273
 10
19.2478334834
 20
16.3578824298
 10
19.244002623
 20
16.3514047044
 10
19.2396442043
 20
16.3450391117
 10
19.2347680305
 20
16.338799972
 10
19.229385079
 20
16.3327013296
 10
19.2235074656
 20
16.3267569058
 10
19.2171484026
 20
16.320980058
 10
19.2103221789
 20
16.3153837655
 10
19.2030441399
 20
16.3099806091
 10
19.1953306554
 20
16.3047827421
 10
19.1871990703
 20
16.2998018528
  0
LWPOLYLINE
  5
501
100
AcDbEntity
  8
0
100
AcDbPolyline
 62
253
  6
CONTINUOUS
 90
3
 70
0
 10
19.2593969273
 20
-22.8627561217
 10
19.2593433658
 20
-22.8657439496
 10
19.2588169384
 20
-22.872582878
  0
LWPOLYLINE
  5
502
100
AcDbEntity
  8
0
100
AcDbPolyline
 62
253
  6
CONTINUOUS
 90
18
 70
0
 10
19.2593969273
 20
16.7289202663
 10
19.2593422478
 20
16.7259014191
 10
19.2588132748
 20
16.7190625588
 10
19.2577233363
 20
16.7122459138
 10
19.2560748892
 20
16.7054667964
 10
19.2538716309
 20
16.698740409
 10
19.2511184838
 20
16.6920818186
 10
19.2478216535
 20
16.6855060655
 10
19.2439886389
 20
16.6790280791
 10
19.2396281529
 20
16.6726625079
 10
19.2347499833
 20
16.6664235733
 10
19.2293650232
 20
16.660325185
 10
19.2234844622
 20
16.6543801762
 10
19.2171223004
 20
16.6486028483
 10
19.2102958995
 20
16.6430085754
 10
19.2030222784
 20
16.6376104528
 10
19.1953173904
 20
16.6324195219
 10
19.1871990703
 20
16.6274471533
  0
LWPOLYLINE
  5
503
100
AcDbEntity
  8
0
100
AcDbPolyline
 62
7
  6
CONTINUOUS
 90
18
 70
0
 10
18.6589318986
 20
-23.276383369
 10
18.6587339054
 20
-23.2859785235
 10
18.6581359952
 20
-23.2953207264
 10
18.6571394198
 20
-23.3043888695
 10
18.6557462582
 20
-23.3131625202
 10
18.6539596555
 20
-23.3216217918
 10
18.6517838219
 20
-23.3297473937
 10
18.6492236331
 20
-23.337520942
 10
18.6462847988
 20
-23.3449248881
 10
18.6429740982
 20
-23.351942386
 10
18.6392989948
 20
-23.3585575597
 10
18.6352677447
 20
-23.3647554633
 10
18.6308895631
 20
-23.3705220058
 10
18.6261743528
 20
-23.3758441326
 10
18.6211327459
 20
-23.3807098156
 10
18.6157762062
 20
-23.3851080062
 10
18.6101168743
 20
-23.3890287372
 10
18.6079086755
 20
-23.3903802627
  0
LWPOLYLINE
  5
504
100
AcDbEntity
  8
0
100
AcDbPolyline
 62
253
  6
CONTINUOUS
 90
18
 70
0
 10
19.2593947528
 20
-22.5357128745
 10
19.2593429129
 20
-22.5381112529
 10
19.2588155376
 20
-22.5449494233
 10
19.2577273023
 20
-22.551765471
 10
19.256080654
 20
-22.5585440685
 10
19.2538792953
 20
-22.5652699732
 10
19.2511281764
 20
-22.5719280597
 10
19.2478334834
 20
-22.5785033572
 10
19.244002623
 20
-22.5849810826
 10
19.2396442043
 20
-22.5913466754
 10
19.2347680305
 20
-22.5975858151
 10
19.229385079
 20
-22.6036844574
 10
19.2235074656
 20
-22.6096288812
 10
19.2171484026
 20
-22.615405729
 10
19.2103221789
 20
-22.6210020215
 10
19.2030441399
 20
-22.6264051779
 10
19.1953306554
 20
-22.6316030449
 10
19.1871990703
 20
-22.6365839343
  0
LWPOLYLINE
  5
505
100
AcDbEntity
  8
0
100
AcDbPolyline
 62
7
  6
CONTINUOUS
 90
6
 70
0
 10
19.2593965748
 20
16.4015173692
 10
19.2587986615
 20
16.3839918846
 10
19.254995621
 20
16.3545707728
 10
19.2477149237
 20
16.3257466358
 10
19.2370365862
 20
16.297930008
 10
19.2230657495
 20
16.2714842326
  0
LWPOLYLINE
  5
506
100
AcDbEntity
  8
0
100
AcDbPolyline
 62
7
  6
CONTINUOUS
 90
8
 70
0
 10
19.2593969272
 20
-22.8627517479
 10
19.2574871651
 20
-22.893598202
 10
19.2514652567
 20
-22.9252295074
 10
19.2413869372
 20
-22.9559260489
 10
19.2273531067
 20
-22.9852106189
 10
19.2095221577
 20
-23.0125890025
 10
19.1881575148
 20
-23.0375264063
 10
19.163616087
 20
-23.0595210851
  0
LWPOLYLINE
  5
507
100
AcDbEntity
  8
RACCORDO
100
AcDbPolyline
 62
253
  6
CONTINUOUS
 90
13
 70
0
 10
11.4038182723
 20
-16.4776741586
 10
11.3563599756
 20
-16.5156960212
 10
11.3038794302
 20
-16.5496030448
 10
11.2472555825
 20
-16.578827353
 10
11.1874367709
 20
-16.6028794961
 10
11.125424843
 20
-16.6213566478
 10
11.0622583772
 20
-16.633949352
 10
10.998995288
 20
-16.6404467057
 10
10.9366951079
 20
-16.6407398909
 10
10.8764012429
 20
-16.6348239973
 10
10.819123497
 20
-16.6227981045
 10
10.7658211601
 20
-16.6048636228
 10
10.7173869418
 20
-16.5813209193
  0
LWPOLYLINE
  5
508
100
AcDbEntity
  8
0
100
AcDbPolyline
 62
253
  6
CONTINUOUS
 90
12
 70
0
 10
4.6430354876
 20
22.1438993163
 10
4.6544261555
 20
22.1458049706
 10
4.6656474877
 20
22.1480203765
 10
4.6766742331
 20
22.150540549
 10
4.687481579
 20
22.1533598169
 10
4.6980452062
 20
22.1564718362
 10
4.7083413439
 20
22.1598696041
 10
4.7183468231
 20
22.1635454747
 10
4.7280391292
 20
22.1674911766
 10
4.737396452
 20
22.1716978307
 10
4.7463977352
 20
22.1761559712
 10
4.7550227238
 20
22.1808555662
  0
LINE
  5
509
100
AcDbEntity
  8
0
100
AcDbLine
 62
7
  6
CONTINUOUS
 10
17.8457591002
 20
23.773712077
 11
16.0972751772
 21
23.4989826226
  0
LWPOLYLINE
  5
50A
100
AcDbEntity
  8
0
100
AcDbPolyline
 62
7
  6
CONTINUOUS
 90
8
 70
0
 10
19.3586335685
 20
21.8958375949
 10
19.3706005304
 20
21.8970778489
 10
19.3828530229
 20
21.8977609155
 10
19.3954083827
 20
21.8978720037
 10
19.408244016
 20
21.8974071349
 10
19.4213635303
 20
21.8963547223
 10
19.4348274101
 20
21.894683368
 10
19.4486397308
 20
21.8923829887
  0
LWPOLYLINE
  5
50B
100
AcDbEntity
  8
0
100
AcDbPolyline
 62
253
  6
CONTINUOUS
 90
9
 70
0
 10
4.5489429514
 20
22.1401696339
 10
4.5607458207
 20
22.1395030716
 10
4.5725901581
 20
22.1391604418
 10
4.5844493109
 20
22.1391425155
 10
4.596296593
 20
22.139449333
 10
4.6081053451
 20
22.140080204
 10
4.6198489947
 20
22.1410337088
 10
4.6315011156
 20
22.1423077018
 10
4.6430354876
 20
22.1438993163
  0
LWPOLYLINE
  5
50C
100
AcDbEntity
  8
0
100
AcDbPolyline
 62
7
  6
CONTINUOUS
 90
32
 70
0
 10
5.183713141
 20
21.9769115512
 10
5.1938261786
 20
21.9762264817
 10
5.2036418726
 20
21.9760143599
 10
5.2135488914
 20
21.9762373607
 10
5.2235308566
 20
21.9768730809
 10
5.2335681525
 20
21.9779203866
 10
5.2436417661
 20
21.9793773832
 10
5.2537371244
 20
21.9812203458
 10
5.2638361029
 20
21.9834468899
 10
5.2739211199
 20
21.9860542212
 10
5.2839792719
 20
21.9890179472
 10
5.2939939927
 20
21.9923346878
 10
5.3039491547
 20
21.9960008819
 10
5.3138332853
 20
21.9999918998
 10
5.3236313731
 20
22.0043035711
 10
5.3333287459
 20
22.0089316799
 10
5.342915122
 20
22.0138516082
 10
5.3523770078
 20
22.0190585497
 10
5.3617011769
 20
22.0245477326
 10
5.3708783495
 20
22.0302946822
 10
5.3798965026
 20
22.0362940676
 10
5.3887438459
 20
22.0425406527
 10
5.3974119895
 20
22.0490101855
 10
5.405890338
 20
22.0556968916
 10
5.4141685309
 20
22.062595158
 10
5.4222390387
 20
22.0696810378
 10
5.4300926583
 20
22.0769483751
 10
5.437720457
 20
22.0843912682
 10
5.4451158046
 20
22.0919861968
 10
5.4522713147
 20
22.0997211697
 10
5.4591789977
 20
22.1075956135
 10
5.4658319413
 20
22.1156030851
  0
LINE
  5
50D
100
AcDbEntity
  8
0
100
AcDbLine
 62
7
  6
CONTINUOUS
 10
4.556320076
 20
22.0345040428
 11
5.1837136433
 21
21.9769091413
  0
LWPOLYLINE
  5
50E
100
AcDbEntity
  8
0
100
AcDbPolyline
 62
7
  6
CONTINUOUS
 90
5
 70
0
 10
16.7578226429
 20
14.9629783944
 10
16.7855002491
 20
14.9492044349
 10
16.8159160976
 20
14.9386012244
 10
16.8475513186
 20
14.9319812977
 10
16.859979029
 20
14.9305260307
  0
LWPOLYLINE
  5
50F
100
AcDbEntity
  8
0
100
AcDbPolyline
 62
7
  6
CONTINUOUS
 90
5
 70
0
 10
4.4541646503
 20
22.0669563183
 10
4.4818422565
 20
22.0531823588
 10
4.5122581049
 20
22.0425791483
 10
4.543893326
 20
22.0359592216
 10
4.5563210364
 20
22.0345039546
  0
LWPOLYLINE
  5
510
100
AcDbEntity
  8
0
100
AcDbPolyline
 62
253
  6
CONTINUOUS
 90
15
 70
0
 10
16.7060553454
 20
15.0774106709
 10
16.7146375981
 20
15.0726850655
 10
16.7235983299
 20
15.0681997736
 10
16.7329173769
 20
15.0639648882
 10
16.742573769
 20
15.0599899389
 10
16.752545777
 20
15.0562838702
 10
16.7628109613
 20
15.0528550218
 10
16.7733462227
 20
15.0497111094
 10
16.7841278543
 20
15.0468592076
 10
16.7951315948
 20
15.0443057339
 10
16.8063326829
 20
15.0420564342
 10
16.8177059136
 20
15.04011637
 10
16.8292256941
 20
15.0384899069
 10
16.8408661022
 20
15.0371807049
 10
16.8526009441
 20
15.03619171
  0
LWPOLYLINE
  5
511
100
AcDbEntity
  8
0
100
AcDbPolyline
 62
253
  6
CONTINUOUS
 90
34
 70
0
 10
16.7060553454
 20
15.3990002898
 10
16.7146388094
 20
15.3942740485
 10
16.7236008676
 20
15.3897881819
 10
16.7329213494
 20
15.3855527885
 10
16.7425792831
 20
15.3815774001
 10
16.7525529254
 20
15.377870969
 10
16.7628198083
 20
15.3744418453
 10
16.7733568158
 20
15.371297749
 10
16.7841402355
 20
15.3684457548
 10
16.7951457914
 20
15.3658922825
 10
16.8063487124
 20
15.3636430787
 10
16.8177237801
 20
15.3617032059
 10
16.8292453812
 20
15.3600770309
 10
16.8408875794
 20
15.3587682128
 10
16.8526241711
 20
15.3577796959
 10
16.8644287348
 20
15.3571137038
 10
16.8762747058
 20
15.3567717337
 10
16.8881354147
 20
15.356754554
 10
16.899984143
 20
15.3570622007
 10
16.9117941888
 20
15.3576939755
 10
16.9235390038
 20
15.3586484534
 10
16.9351922299
 20
15.3599234917
 10
16.9467277445
 20
15.3615162399
 10
16.9581194724
 20
15.3634231051
 10
16.9693415317
 20
15.365639747
 10
16.9803685278
 20
15.3681611235
 10
16.9911758062
 20
15.3709815705
 10
17.0017392534
 20
15.3740947851
 10
17.0120366224
 20
15.3774942931
 10
17.0220431243
 20
15.3811719953
 10
17.0317321139
 20
15.3851178493
 10
17.041080895
 20
15.3893220114
 10
17.0500703308
 20
15.3937752538
 10
17.0586807164
 20
15.3984672612
  0
LWPOLYLINE
  5
512
100
AcDbEntity
  8
0
100
AcDbPolyline
 62
253
  6
CONTINUOUS
 90
15
 70
0
 10
4.4023973528
 20
22.1813885948
 10
4.4109796054
 20
22.1766629894
 10
4.4199403372
 20
22.1721776975
 10
4.4292593843
 20
22.1679428121
 10
4.4389157764
 20
22.1639678628
 10
4.4488877843
 20
22.1602617941
 10
4.4591529686
 20
22.1568329457
 10
4.46968823
 20
22.1536890333
 10
4.4804698617
 20
22.1508371315
 10
4.4914736021
 20
22.1482836578
 10
4.5026746903
 20
22.1460343581
 10
4.5140479209
 20
22.1440942939
 10
4.5255677015
 20
22.1424678308
 10
4.5372081096
 20
22.1411586288
 10
4.5489429514
 20
22.1401696339
  0
LWPOLYLINE
  5
513
100
AcDbEntity
  8
0
100
AcDbPolyline
 62
253
  6
CONTINUOUS
 90
34
 70
0
 10
4.4023973528
 20
22.5029782137
 10
4.4109808167
 20
22.4982519724
 10
4.419942875
 20
22.4937661058
 10
4.4292633567
 20
22.4895307124
 10
4.4389212904
 20
22.485555324
 10
4.4488949328
 20
22.4818488929
 10
4.4591618156
 20
22.4784197692
 10
4.4696988232
 20
22.4752756729
 10
4.4804822429
 20
22.4724236787
 10
4.4914877987
 20
22.4698702064
 10
4.5026907198
 20
22.4676210026
 10
4.5140657875
 20
22.4656811298
 10
4.5255873885
 20
22.4640549548
 10
4.5372295867
 20
22.4627461367
 10
4.5489661784
 20
22.4617576198
 10
4.5607707421
 20
22.4610916277
 10
4.5726167132
 20
22.4607496576
 10
4.5844774221
 20
22.4607324779
 10
4.5963261504
 20
22.4610401246
 10
4.6081361962
 20
22.4616718994
 10
4.6198810112
 20
22.4626263773
 10
4.6315342373
 20
22.4639014156
 10
4.6430697519
 20
22.4654941638
 10
4.6544614798
 20
22.467401029
 10
4.6656835391
 20
22.4696176709
 10
4.6767105351
 20
22.4721390474
 10
4.6875178136
 20
22.4749594944
 10
4.6980812608
 20
22.478072709
 10
4.7083786297
 20
22.481472217
 10
4.7183851317
 20
22.4851499192
 10
4.7280741213
 20
22.4890957732
 10
4.7374229024
 20
22.4932999353
 10
4.7464123382
 20
22.4977531777
 10
4.7550227238
 20
22.5024451851
  0
LWPOLYLINE
  5
514
100
AcDbEntity
  8
0
100
AcDbPolyline
 62
253
  6
CONTINUOUS
 90
15
 70
0
 10
-15.1146760053
 20
33.4503021454
 10
-15.1060970134
 20
33.4455782521
 10
-15.0971398162
 20
33.4410944898
 10
-15.0878245548
 20
33.4368609408
 10
-15.078172175
 20
33.4328871245
 10
-15.0682043811
 20
33.4291819762
 10
-15.0579435864
 20
33.4257538273
 10
-15.047412863
 20
33.4226103862
 10
-15.0366358902
 20
33.4197587212
 10
-15.0256369006
 20
33.4172052445
 10
-15.0144406265
 20
33.4149556978
 10
-15.0030722434
 20
33.4130151393
 10
-14.991557314
 20
33.4113879325
 10
-14.9799217305
 20
33.4100777364
 10
-14.9681916565
 20
33.409087497
  0
LWPOLYLINE
  5
515
100
AcDbEntity
  8
0
100
AcDbPolyline
 62
253
  6
CONTINUOUS
 90
34
 70
0
 10
-15.1146760053
 20
33.7708223182
 10
-15.1061110736
 20
33.766105808
 10
-15.0971652903
 20
33.7616268173
 10
-15.0878582613
 20
33.7573957012
 10
-15.0782090763
 20
33.7534217425
 10
-15.0682402891
 20
33.7497148138
 10
-15.0579782977
 20
33.7462849734
 10
-15.0474477362
 20
33.7431403728
 10
-15.0366708155
 20
33.7402875649
 10
-15.025671578
 20
33.7377329232
 10
-15.0144746079
 20
33.7354821823
 10
-15.0031052151
 20
33.7335404542
 10
-14.9915891974
 20
33.7319121521
 10
-14.9799525611
 20
33.7306009458
 10
-14.9682213772
 20
33.7296097656
 10
-14.9564219547
 20
33.7289408348
 10
-14.9445807989
 20
33.7285956608
 10
-14.9327245737
 20
33.7285750255
 10
-14.9208799655
 20
33.7288789781
 10
-14.90907362
 20
33.7295068364
 10
-14.8973320864
 20
33.7304571899
 10
-14.8856817775
 20
33.7317279027
 10
-14.8741488957
 20
33.7333161183
 10
-14.8627593827
 20
33.7352182658
 10
-14.851538865
 20
33.7374300665
 10
-14.8405125815
 20
33.7399465461
 10
-14.8297053314
 20
33.7427620453
 10
-14.8191414259
 20
33.7458702315
 10
-14.8088446206
 20
33.7492641157
 10
-14.7988380807
 20
33.7529360633
 10
-14.789144331
 20
33.7568778083
 10
-14.7797851789
 20
33.7610804813
 10
-14.7707816675
 20
33.7655346307
 10
-14.7621540456
 20
33.7702302375
  0
LWPOLYLINE
  5
516
100
AcDbEntity
  8
0
100
AcDbPolyline
 62
253
  6
CONTINUOUS
 90
15
 70
0
 10
-27.4183339979
 20
40.5542800693
 10
-27.4097543775
 20
40.5495558459
 10
-27.400796499
 20
40.5450717889
 10
-27.3914805079
 20
40.5408379822
 10
-27.3818273662
 20
40.5368639519
 10
-27.3718587722
 20
40.5331586301
 10
-27.3615971077
 20
40.5297303379
 10
-27.3510654224
 20
40.5265867814
 10
-27.3402874224
 20
40.5237350416
 10
-27.3292873831
 20
40.5211815433
 10
-27.3180900564
 20
40.5189320317
 10
-27.3067206117
 20
40.5169915628
 10
-27.2952046187
 20
40.5153645005
 10
-27.2835679766
 20
40.514054504
 10
-27.2718368552
 20
40.5130645194
  0
LINE
  5
517
100
AcDbEntity
  8
0
100
AcDbLine
 62
7
  6
CONTINUOUS
 10
20.804320302
 20
11.7341709379
 11
20.7682191287
 21
11.7550153029
  0
LINE
  5
518
100
AcDbEntity
  8
0
100
AcDbLine
 62
7
  6
CONTINUOUS
 10
-28.3938791141
 20
40.6906539951
 11
-26.7071133898
 21
39.7167366061
  0
LINE
  5
519
100
AcDbEntity
  8
0
100
AcDbLine
 62
7
  6
CONTINUOUS
 10
-24.5391216916
 20
38.4649653708
 11
-23.8735409898
 21
38.0806674153
  0
LINE
  5
51A
100
AcDbEntity
  8
0
100
AcDbLine
 62
7
  6
CONTINUOUS
 10
-18.9237935215
 20
35.222745262
 11
-18.2582128197
 21
34.8384473065
  0
LINE
  5
51B
100
AcDbEntity
  8
0
100
AcDbLine
 62
7
  6
CONTINUOUS
 10
-16.0902211214
 20
33.5866760712
 11
-14.4034553972
 21
32.6127586822
  0
LINE
  5
51C
100
AcDbEntity
  8
0
100
AcDbLine
 62
7
  6
CONTINUOUS
 10
7.2800663759
 20
20.0929649687
 11
7.9462641636
 21
19.7083107155
  0
LINE
  5
51D
100
AcDbEntity
  8
0
100
AcDbLine
 62
7
  6
CONTINUOUS
 10
12.8960116319
 20
16.8503885622
 11
13.5622094196
 21
16.465734309
  0
LINE
  5
51E
100
AcDbEntity
  8
0
100
AcDbLine
 62
7
  6
CONTINUOUS
 10
17.4168645629
 20
14.2401047395
 11
15.7290692253
 21
15.2146166144
  0
LINE
  5
51F
100
AcDbEntity
  8
0
100
AcDbLine
 62
7
  6
CONTINUOUS
 10
5.1132065703
 20
21.3440826634
 11
3.4254112326
 21
22.3185945383
  0
LINE
  5
520
100
AcDbEntity
  8
0
100
AcDbLine
 62
7
  6
CONTINUOUS
 10
-29.0451014131
 20
41.4090126988
 11
-27.3665633427
 21
40.439845854
  0
LINE
  5
521
100
AcDbEntity
  8
0
100
AcDbLine
 62
7
  6
CONTINUOUS
 10
-16.7414434204
 20
34.3050347749
 11
-15.06290535
 21
33.3358679301
  0
LINE
  5
522
100
AcDbEntity
  8
0
100
AcDbLine
 62
7
  6
CONTINUOUS
 10
2.773777543
 20
23.0371907738
 11
4.4541680081
 21
22.0669543795
  0
LINE
  5
523
100
AcDbEntity
  8
0
100
AcDbLine
 62
7
  6
CONTINUOUS
 10
15.0774355356
 20
15.9332128499
 11
16.7578260007
 21
14.9629764556
  0
LINE
  5
524
100
AcDbEntity
  8
0
100
AcDbLine
 62
253
  6
CONTINUOUS
 10
-29.0968720684
 20
41.5234469141
 11
-27.4183339979
 21
40.5542800693
  0
LINE
  5
525
100
AcDbEntity
  8
0
100
AcDbLine
 62
253
  6
CONTINUOUS
 10
-16.7932140757
 20
34.4194689902
 11
-15.1146760053
 21
33.4503021454
  0
LINE
  5
526
100
AcDbEntity
  8
0
100
AcDbLine
 62
253
  6
CONTINUOUS
 10
2.7220068877
 20
23.1516249891
 11
4.4023973528
 21
22.1813885948
  0
LINE
  5
527
100
AcDbEntity
  8
0
100
AcDbLine
 62
253
  6
CONTINUOUS
 10
15.0256648804
 20
16.0476470652
 11
16.7060553454
 21
15.0774106709
  0
LINE
  5
528
100
AcDbEntity
  8
0
100
AcDbLine
 62
253
  6
CONTINUOUS
 10
-15.1146760053
 20
33.7708223182
 11
-16.7932140757
 21
34.739989163
  0
LINE
  5
529
100
AcDbEntity
  8
0
100
AcDbLine
 62
253
  6
CONTINUOUS
 10
-27.4183339979
 20
40.8748002421
 11
-29.0968720684
 21
41.8439670869
  0
LINE
  5
52A
100
AcDbEntity
  8
0
100
AcDbLine
 62
253
  6
CONTINUOUS
 10
16.7060553454
 20
15.3990002898
 11
15.0256648804
 21
16.3692366841
  0
LINE
  5
52B
100
AcDbEntity
  8
0
100
AcDbLine
 62
253
  6
CONTINUOUS
 10
4.4023973528
 20
22.5029782137
 11
2.7220068877
 21
23.473214608
  0
LINE
  5
52C
100
AcDbEntity
  8
0
100
AcDbLine
 62
7
  6
CONTINUOUS
 10
12.8960116319
 20
17.7097271429
 11
11.9767728164
 21
18.2404841143
  0
LINE
  5
52D
100
AcDbEntity
  8
0
100
AcDbLine
 62
7
  6
CONTINUOUS
 10
10.2797165415
 20
19.2203431383
 11
8.6533709448
 21
20.1593747029
  0
LINE
  5
52E
100
AcDbEntity
  8
0
100
AcDbLine
 62
7
  6
CONTINUOUS
 10
-18.9237935215
 20
36.0820838427
 11
-19.843032337
 21
36.612840814
  0
LINE
  5
52F
100
AcDbEntity
  8
0
100
AcDbLine
 62
7
  6
CONTINUOUS
 10
-21.5400886119
 20
37.592699838
 11
-23.1664342086
 21
38.5317314027
  0
LINE
  5
530
100
AcDbEntity
  8
0
100
AcDbLine
 62
253
  6
CONTINUOUS
 10
-14.9389277493
 20
34.0764112734
 11
-16.6174658197
 21
35.0455781183
  0
LINE
  5
531
100
AcDbEntity
  8
0
100
AcDbLine
 62
253
  6
CONTINUOUS
 10
-27.242585742
 20
41.1803891973
 11
-28.9211238124
 21
42.1495560422
  0
LINE
  5
532
100
AcDbEntity
  8
0
100
AcDbLine
 62
253
  6
CONTINUOUS
 10
16.8819064444
 20
15.7046492816
 11
15.2015159793
 21
16.6748856759
  0
LINE
  5
533
100
AcDbEntity
  8
0
100
AcDbLine
 62
253
  6
CONTINUOUS
 10
4.5782484517
 20
22.8086272055
 11
2.8978579866
 21
23.7788635998
  0
LINE
  5
534
100
AcDbEntity
  8
0
100
AcDbLine
 62
7
  6
CONTINUOUS
 10
-21.045113865
 20
37.736576913
 11
-19.9016109808
 21
37.0763326791
  0
LINE
  5
535
100
AcDbEntity
  8
0
100
AcDbLine
 62
7
  6
CONTINUOUS
 10
10.7746912884
 20
19.3642202133
 11
11.9181941726
 21
18.7039759794
  0
LINE
  5
536
100
AcDbEntity
  8
RACCORDO
100
AcDbLine
 62
7
  6
CONTINUOUS
 10
19.0127983179
 20
14.6076404621
 11
18.6589318986
 21
14.8119584977
  0
LINE
  5
537
100
AcDbEntity
  8
0
100
AcDbLine
 62
7
  6
CONTINUOUS
 10
15.2420121048
 20
16.7848451626
 11
14.6284232458
 21
17.1391236796
  0
LINE
  5
538
100
AcDbEntity
  8
0
100
AcDbLine
 62
7
  6
CONTINUOUS
 10
7.2800663759
 20
21.3819728398
 11
6.3552739059
 21
21.9159364216
  0
LINE
  5
539
100
AcDbEntity
  8
0
100
AcDbLine
 62
7
  6
CONTINUOUS
 10
2.9383541121
 20
23.8888230865
 11
-13.1608732548
 21
33.1843151974
  0
LINE
  5
53A
100
AcDbEntity
  8
0
100
AcDbLine
 62
7
  6
CONTINUOUS
 10
-16.5761452446
 20
35.1562504409
 11
-17.1913819076
 21
35.5114803794
  0
LINE
  5
53B
100
AcDbEntity
  8
0
100
AcDbLine
 62
7
  6
CONTINUOUS
 10
-24.5391216916
 20
39.7539732419
 11
-25.4645312475
 21
40.2882931213
  0
LINE
  5
53C
100
AcDbEntity
  8
0
100
AcDbLine
 62
7
  6
CONTINUOUS
 10
-24.5391216916
 20
39.8283767771
 11
-23.8735409898
 21
39.4440788216
  0
LINE
  5
53D
100
AcDbEntity
  8
0
100
AcDbLine
 62
7
  6
CONTINUOUS
 10
-18.9237935215
 20
36.5861566683
 11
-18.2582128197
 21
36.2018587127
  0
LINE
  5
53E
100
AcDbEntity
  8
0
100
AcDbLine
 62
7
  6
CONTINUOUS
 10
13.5622094196
 20
17.8298582418
 11
12.8960116319
 21
18.214512495
  0
LINE
  5
53F
100
AcDbEntity
  8
0
100
AcDbLine
 62
7
  6
CONTINUOUS
 10
7.9462641636
 20
21.0724346483
 11
7.2800663759
 21
21.4570889015
  0
LINE
  5
540
100
AcDbEntity
  8
0
100
AcDbLine
 62
253
  6
CONTINUOUS
 10
-27.3666122562
 20
40.4398741181
 11
-27.3665633427
 21
40.439845854
  0
LWPOLYLINE
  5
541
100
AcDbEntity
  8
0
100
AcDbPolyline
 62
253
  6
CONTINUOUS
 90
34
 70
0
 10
-21.3994900071
 20
39.0001962977
 10
-21.3927599761
 20
38.9961265847
 10
-21.3860433271
 20
38.9916972597
 10
-21.3793552752
 20
38.9869183565
 10
-21.3727109713
 20
38.9818007011
 10
-21.3661254666
 20
38.9763558864
 10
-21.3596136796
 20
38.9705962467
 10
-21.3531903615
 20
38.9645348296
 10
-21.3468700632
 20
38.9581853659
 10
-21.3406671021
 20
38.9515622394
 10
-21.3345955301
 20
38.9446804535
 10
-21.3286691012
 20
38.9375555976
 10
-21.3229012406
 20
38.930203812
 10
-21.3173050143
 20
38.9226417506
 10
-21.3118930998
 20
38.9148865441
 10
-21.3066777566
 20
38.9069557605
 10
-21.3016707992
 20
38.8988673655
 10
-21.2968835699
 20
38.8906396819
 10
-21.2923269135
 20
38.8822913482
 10
-21.2880111521
 20
38.8738412759
 10
-21.2839460624
 20
38.8653086073
 10
-21.2801408531
 20
38.8567126715
 10
-21.2766041442
 20
38.848072941
 10
-21.2733439476
 20
38.8394089878
 10
-21.2703676485
 20
38.8307404383
 10
-21.2676819893
 20
38.8220869297
 10
-21.2652930539
 20
38.813468065
 10
-21.2632062539
 20
38.8049033686
 10
-21.2614263166
 20
38.7964122423
 10
-21.2599572743
 20
38.7880139213
 10
-21.2588024546
 20
38.7797274305
 10
-21.2579644737
 20
38.7715715414
 10
-21.2574452299
 20
38.7635647297
 10
-21.2572458994
 20
38.7557251335
  0
LWPOLYLINE
  5
542
100
AcDbEntity
  8
0
100
AcDbPolyline
 62
253
  6
CONTINUOUS
 90
16
 70
0
 10
-29.0968720684
 20
41.5234469141
 10
-29.1050514372
 20
41.5283989659
 10
-29.1128156742
 20
41.5335696484
 10
-29.1201472376
 20
41.5389473847
 10
-29.1270297092
 20
41.5445202616
 10
-29.1334473391
 20
41.5502756644
 10
-29.1393851927
 20
41.5562002631
 10
-29.144829791
 20
41.5622805853
 10
-29.1497690413
 20
41.5685031003
 10
-29.1541918462
 20
41.5748538301
 10
-29.1580882629
 20
41.5813185058
 10
-29.1614495184
 20
41.5878825807
 10
-29.1642680436
 20
41.5945312758
 10
-29.1665374992
 20
41.6012496326
 10
-29.1682527867
 20
41.6080225512
 10
-29.169316511
 20
41.6142841837
  0
LWPOLYLINE
  5
543
100
AcDbEntity
  8
0
100
AcDbPolyline
 62
253
  6
CONTINUOUS
 90
18
 70
0
 10
-29.0968720684
 20
41.8439670869
 10
-29.1050546657
 20
41.8489211886
 10
-29.1128212644
 20
41.8540937276
 10
-29.1201543939
 20
41.859473071
 10
-29.1270375627
 20
41.8650471239
 10
-29.1334552822
 20
41.8708033466
 10
-29.1393931046
 20
41.8767287812
 10
-29.1448376723
 20
41.8828100968
 10
-29.1497767432
 20
41.8890336179
 10
-29.1541992077
 20
41.8953853445
 10
-29.1580951204
 20
41.901850991
 10
-29.161455719
 20
41.9084160133
 10
-29.1642734441
 20
41.9150656402
 10
-29.1665419601
 20
41.9217849137
 10
-29.1682561678
 20
41.9285587218
 10
-29.1694122138
 20
41.9353718264
 10
-29.1700075012
 20
41.9422089071
 10
-29.1700953609
 20
41.9459907577
  0
LWPOLYLINE
  5
544
100
AcDbEntity
  8
0
100
AcDbPolyline
 62
253
  6
CONTINUOUS
 90
16
 70
0
 10
-16.7932140757
 20
34.4194689902
 10
-16.8013961434
 20
34.4244227555
 10
-16.8091622577
 20
34.4295949223
 10
-16.8164949535
 20
34.4349738588
 10
-16.8233777324
 20
34.4405474618
 10
-16.8297951247
 20
34.4463032031
 10
-16.8357327183
 20
34.4522281595
 10
-16.8411771671
 20
34.4583090226
 10
-16.8461162072
 20
34.4645321048
 10
-16.850538711
 20
34.4708833896
 10
-16.8544347283
 20
34.4773485857
 10
-16.8577955026
 20
34.4839131606
 10
-16.8606134756
 20
34.4905623506
 10
-16.8628823099
 20
34.4972812019
 10
-16.8645969031
 20
34.5040546044
 10
-16.8655831473
 20
34.5098644004
  0
LWPOLYLINE
  5
545
100
AcDbEntity
  8
0
100
AcDbPolyline
 62
253
  6
CONTINUOUS
 90
18
 70
0
 10
-16.7932140757
 20
34.739989163
 10
-16.8013966731
 20
34.7449432647
 10
-16.8091632718
 20
34.7501158037
 10
-16.8164964012
 20
34.7554951471
 10
-16.82337957
 20
34.7610692
 10
-16.8297972895
 20
34.7668254227
 10
-16.8357351119
 20
34.7727508573
 10
-16.8411796797
 20
34.7788321729
 10
-16.8461187506
 20
34.785055694
 10
-16.8505412151
 20
34.7914074206
 10
-16.8544371278
 20
34.7978730671
 10
-16.8577977264
 20
34.8044380894
 10
-16.8606154514
 20
34.8110877163
 10
-16.8628839675
 20
34.8178069898
 10
-16.8645981752
 20
34.8245807978
 10
-16.8657542212
 20
34.8313939025
 10
-16.8663495086
 20
34.8382309832
 10
-16.8664373683
 20
34.8420128338
  0
LWPOLYLINE
  5
546
100
AcDbEntity
  8
0
100
AcDbPolyline
 62
253
  6
CONTINUOUS
 90
18
 70
0
 10
2.7220068877
 20
23.473214608
 10
2.7138352602
 20
23.478161745
 10
2.7060753011
 20
23.4833289444
 10
2.6987449654
 20
23.488704874
 10
2.6918603469
 20
23.4942785019
 10
2.685438566
 20
23.5000367895
 10
2.6794970683
 20
23.5059644715
 10
2.6740499872
 20
23.5120473052
 10
2.6691086793
 20
23.5182724535
 10
2.6646841922
 20
23.5246260188
 10
2.6607864654
 20
23.5310937901
 10
2.6574243584
 20
23.5376611362
 10
2.6546055185
 20
23.544313144
 10
2.6523363037
 20
23.5510347802
 10
2.6506217889
 20
23.5578109743
 10
2.6494658225
 20
23.5646265184
 10
2.6488710115
 20
23.5714660914
 10
2.6487835831
 20
23.5752793074
  0
LWPOLYLINE
  5
547
100
AcDbEntity
  8
0
100
AcDbPolyline
 62
253
  6
CONTINUOUS
 90
18
 70
0
 10
15.0256648804
 20
16.3692366841
 10
15.0174932529
 20
16.3741838211
 10
15.0097332938
 20
16.3793510205
 10
15.0024029581
 20
16.3847269501
 10
14.9955183396
 20
16.390300578
 10
14.9890965587
 20
16.3960588656
 10
14.983155061
 20
16.4019865476
 10
14.9777079798
 20
16.4080693813
 10
14.9727666719
 20
16.4142945296
 10
14.9683421849
 20
16.4206480949
 10
14.964444458
 20
16.4271158662
 10
14.961082351
 20
16.4336832123
 10
14.9582635112
 20
16.4403352201
 10
14.9559942963
 20
16.4470568563
 10
14.9542797815
 20
16.4538330504
 10
14.9531238151
 20
16.4606485945
 10
14.9525290042
 20
16.4674881675
 10
14.9524415757
 20
16.4713013835
  0
LWPOLYLINE
  5
548
100
AcDbEntity
  8
0
100
AcDbPolyline
 62
253
  6
CONTINUOUS
 90
16
 70
0
 10
2.7220068877
 20
23.1516249891
 10
2.7138218538
 20
23.1565806377
 10
2.7060530894
 20
23.161754846
 10
2.6987180784
 20
23.167135969
 10
2.6918333368
 20
23.1727118895
 10
2.6854143501
 20
23.1784700647
 10
2.6794755448
 20
23.1843975565
 10
2.6740302795
 20
23.1904810409
 10
2.6690908292
 20
23.1967068141
 10
2.6646683307
 20
23.2030608432
 10
2.6607727416
 20
23.20952882
 10
2.6574128239
 20
23.2160961949
 10
2.6545961397
 20
23.2227481871
 10
2.6523290282
 20
23.2294698253
 10
2.6506165916
 20
23.2362459817
 10
2.6496332767
 20
23.2420538201
  0
LWPOLYLINE
  5
549
100
AcDbEntity
  8
0
100
AcDbPolyline
 62
253
  6
CONTINUOUS
 90
18
 70
0
 10
15.0256648804
 20
16.0476470652
 10
15.017480419
 20
16.0526023503
 10
15.0097121661
 20
16.0577761645
 10
15.002377602
 20
16.0631568655
 10
14.9954932313
 20
16.0687323453
 10
14.9890745457
 20
16.0744900577
 10
14.9831359887
 20
16.0804170465
 10
14.9776909235
 20
16.0864999744
 10
14.9727516029
 20
16.0927251533
 10
14.9683291416
 20
16.0990785752
 10
14.9644334912
 20
16.1055459431
 10
14.9610734179
 20
16.1121127039
 10
14.9582564827
 20
16.1187640808
 10
14.9559890244
 20
16.1254851066
 10
14.9542761454
 20
16.1322606572
 10
14.9531216999
 20
16.139075486
 10
14.9525282859
 20
16.145914258
 10
14.9524415756
 20
16.1497157135
  0
LWPOLYLINE
  5
54A
100
AcDbEntity
  8
0
100
AcDbPolyline
 62
253
  6
CONTINUOUS
 90
18
 70
0
 10
-19.843032337
 20
37.7758661095
 10
-19.8496012537
 20
37.7798438943
 10
-19.8558349247
 20
37.7839976428
 10
-19.861719229
 20
37.7883179454
 10
-19.8672408365
 20
37.7927950152
 10
-19.8723872392
 20
37.7974187103
 10
-19.8771467787
 20
37.8021785565
 10
-19.8815086732
 20
37.8070637711
 10
-19.8854630415
 20
37.8120632877
 10
-19.8890009258
 20
37.8171657807
 10
-19.8921143116
 20
37.8223596913
 10
-19.894796146
 20
37.8276332536
 10
-19.897040354
 20
37.8329745214
 10
-19.8988418515
 20
37.8383713948
 10
-19.9001965577
 20
37.8438116484
 10
-19.9011014037
 20
37.8492829581
 10
-19.9015543397
 20
37.8547729297
 10
-19.9016109808
 20
37.8575210282
  0
LWPOLYLINE
  5
54B
100
AcDbEntity
  8
0
100
AcDbPolyline
 62
253
  6
CONTINUOUS
 90
34
 70
0
 10
4.5782484517
 20
22.8086272055
 10
4.5866165722
 20
22.8035144613
 10
4.5949678336
 20
22.7979521398
 10
4.6032833183
 20
22.7919528411
 10
4.6115441896
 20
22.785530155
 10
4.6197317346
 20
22.7786986305
 10
4.6278274067
 20
22.7714737426
 10
4.6358128671
 20
22.7638718574
 10
4.6436700269
 20
22.7559101951
 10
4.6513810876
 20
22.7476067908
 10
4.6589285819
 20
22.7389804536
 10
4.6662954128
 20
22.7300507243
 10
4.6734648926
 20
22.720837831
 10
4.6804207809
 20
22.7113626431
 10
4.6871473207
 20
22.7016466241
 10
4.6936292748
 20
22.6917117832
 10
4.6998519602
 20
22.6815806253
 10
4.7058012807
 20
22.6712760998
 10
4.7114637599
 20
22.660821549
 10
4.7168265708
 20
22.650240655
 10
4.7218775653
 20
22.6395573861
 10
4.7266053018
 20
22.6287959426
 10
4.7309990707
 20
22.6179807016
 10
4.735048919
 20
22.6071361623
 10
4.738745673
 20
22.5962868902
 10
4.7420809586
 20
22.5854574616
 10
4.7450472205
 20
22.5746724077
 10
4.7476377394
 20
22.5639561594
 10
4.7498466472
 20
22.5533329914
 10
4.7516689401
 20
22.5428269679
 10
4.7531004903
 20
22.5324618876
 10
4.7541380549
 20
22.5222612298
 10
4.7547792836
 20
22.5122481016
 10
4.7550227238
 20
22.5024451851
  0
LWPOLYLINE
  5
54C
100
AcDbEntity
  8
0
100
AcDbPolyline
 62
253
  6
CONTINUOUS
 90
34
 70
0
 10
16.8819064444
 20
15.7046492816
 10
16.8902745649
 20
15.6995365374
 10
16.8986258263
 20
15.6939742159
 10
16.9069413109
 20
15.6879749172
 10
16.9152021822
 20
15.6815522311
 10
16.9233897273
 20
15.6747207066
 10
16.9314853994
 20
15.6674958187
 10
16.9394708598
 20
15.6598939335
 10
16.9473280195
 20
15.6519322712
 10
16.9550390803
 20
15.6436288669
 10
16.9625865745
 20
15.6350025297
 10
16.9699534054
 20
15.6260728004
 10
16.9771228853
 20
15.6168599071
 10
16.9840787735
 20
15.6073847192
 10
16.9908053133
 20
15.5976687002
 10
16.9972872675
 20
15.5877338593
 10
17.0035099528
 20
15.5776027014
 10
17.0094592734
 20
15.5672981759
 10
17.0151217525
 20
15.5568436251
 10
17.0204845634
 20
15.5462627311
 10
17.025535558
 20
15.5355794622
 10
17.0302632944
 20
15.5248180187
 10
17.0346570633
 20
15.5140027777
 10
17.0387069117
 20
15.5031582384
 10
17.0424036657
 20
15.4923089663
 10
17.0457389512
 20
15.4814795377
 10
17.0487052131
 20
15.4706944838
 10
17.051295732
 20
15.4599782355
 10
17.0535046398
 20
15.4493550675
 10
17.0553269328
 20
15.438849044
 10
17.0567584829
 20
15.4284839637
 10
17.0577960475
 20
15.4182833059
 10
17.0584372762
 20
15.4082701777
 10
17.0586807164
 20
15.3984672612
  0
LWPOLYLINE
  5
54D
100
AcDbEntity
  8
0
100
AcDbPolyline
 62
253
  6
CONTINUOUS
 90
34
 70
0
 10
-27.242585742
 20
41.1803891973
 10
-27.2342224592
 20
41.1752736711
 10
-27.2258757914
 20
41.1697087135
 10
-27.2175646458
 20
41.1637069305
 10
-27.2093078489
 20
41.1572819175
 10
-27.2011241043
 20
41.1504482286
 10
-27.1930319499
 20
41.1432213436
 10
-27.1850497163
 20
41.135617633
 10
-27.1771954851
 20
41.127654321
 10
-27.1694870478
 20
41.1193494462
 10
-27.1619418657
 20
41.110721821
 10
-27.1545770305
 20
41.1017909889
 10
-27.1474092251
 20
41.0925771803
 10
-27.1404546861
 20
41.0831012664
 10
-27.1337291673
 20
41.0733847125
 10
-27.1272479033
 20
41.0634495286
 10
-27.1210255757
 20
41.0533182201
 10
-27.1150762795
 20
41.0430137368
 10
-27.1094134911
 20
41.0325594206
 10
-27.1040500381
 20
41.0219789529
 10
-27.0989980698
 20
41.0112963008
 10
-27.0942690302
 20
41.0005356628
 10
-27.0898736314
 20
40.9897214144
 10
-27.0858218302
 20
40.9788780521
 10
-27.0821228047
 20
40.9680301385
 10
-27.0787849341
 20
40.9572022468
 10
-27.0758157793
 20
40.9464189044
 10
-27.0732220662
 20
40.935704538
 10
-27.0710096702
 20
40.9250834181
 10
-27.0691836027
 20
40.9145796039
 10
-27.0677480003
 20
40.9042168889
 10
-27.0667061149
 20
40.894018747
 10
-27.0660603066
 20
40.8840082792
 10
-27.0658120383
 20
40.8742081614
  0
LWPOLYLINE
  5
54E
100
AcDbEntity
  8
0
100
AcDbPolyline
 62
253
  6
CONTINUOUS
 90
34
 70
0
 10
-14.9389277493
 20
34.0764112734
 10
-14.9305782138
 20
34.0713045334
 10
-14.9222416324
 20
34.0657473371
 10
-14.9139368767
 20
34.0597516727
 10
-14.9056816105
 20
34.0533295987
 10
-14.8974957997
 20
34.0464959488
 10
-14.8894015521
 20
34.0392688765
 10
-14.8814183934
 20
34.0316659224
 10
-14.8735631942
 20
34.0237032613
 10
-14.8658536082
 20
34.0153987751
 10
-14.8583070112
 20
34.0067711426
 10
-14.8509406154
 20
33.9978400031
 10
-14.8437712736
 20
33.9886257769
 10
-14.8368152919
 20
33.9791494331
 10
-14.8300883616
 20
33.9694323609
 10
-14.8236056808
 20
33.9594965132
 10
-14.8173819236
 20
33.9493643718
 10
-14.811431213
 20
33.9390589193
 10
-14.8057670455
 20
33.9286035234
 10
-14.8004022591
 20
33.9180218788
 10
-14.7953490084
 20
33.9073379558
 10
-14.7906187463
 20
33.8965759654
 10
-14.7862221918
 20
33.8857602905
 10
-14.7821693089
 20
33.8749154392
 10
-14.7784692853
 20
33.8640659927
 10
-14.7751305059
 20
33.853236536
 10
-14.7721605362
 20
33.8424516054
 10
-14.7695661073
 20
33.8317356417
 10
-14.7673530974
 20
33.821112921
 10
-14.7655265227
 20
33.8106075182
 10
-14.7640905246
 20
33.8002432552
 10
-14.7630483559
 20
33.7900436211
 10
-14.7624023755
 20
33.7800317203
 10
-14.7621540456
 20
33.7702302375
  0
LINE
  5
54F
100
AcDbEntity
  8
0
100
AcDbLine
 62
253
  6
CONTINUOUS
 10
-16.7467586432
 20
34.3083765869
 11
-16.7414434204
 21
34.3050347749
  0
LINE
  5
550
100
AcDbEntity
  8
0
100
AcDbLine
 62
253
  6
CONTINUOUS
 10
2.7684623156
 20
23.0405325889
 11
2.773777543
 21
23.0371907738
  0
LINE
  5
551
100
AcDbEntity
  8
0
100
AcDbLine
 62
7
  6
CONTINUOUS
 10
15.061124073
 20
15.9434899341
 11
15.0778554577
 21
15.9329720158
  0
LWPOLYLINE
  5
552
100
AcDbEntity
  8
0
100
AcDbPolyline
 62
7
  6
CONTINUOUS
 90
8
 70
0
 10
-16.7412103113
 20
34.3049006817
 10
-16.7613040787
 20
34.3177905644
 10
-16.7870423979
 20
34.3387988817
 10
-16.809912999
 20
34.3632114404
 10
-16.8293527417
 20
34.3905148103
 10
-16.845005051
 20
34.4202616816
 10
-16.8566118477
 20
34.4521386091
 10
-16.8638436574
 20
34.4856192021
  0
LWPOLYLINE
  5
553
100
AcDbEntity
  8
0
100
AcDbPolyline
 62
7
  6
CONTINUOUS
 90
8
 70
0
 10
2.7740103323
 20
23.0370568639
 10
2.7538860572
 20
23.0499684916
 10
2.7281447219
 20
23.0709864872
 10
2.7052731176
 20
23.0954100319
 10
2.6858348631
 20
23.1227250342
 10
2.6701866606
 20
23.1524837242
 10
2.6585866206
 20
23.1843725061
 10
2.6513643681
 20
23.2178644311
  0
LWPOLYLINE
  5
554
100
AcDbEntity
  8
0
100
AcDbPolyline
 62
7
  6
CONTINUOUS
 90
9
 70
0
 10
-24.9890601787
 20
42.4217577536
 10
-24.9625473179
 20
42.4041056427
 10
-24.9381698553
 20
42.3829068191
 10
-24.9165173883
 20
42.3584686609
 10
-24.898101902
 20
42.3311889809
 10
-24.8833878428
 20
42.3016264329
 10
-24.8727041544
 20
42.270403596
 10
-24.8661966758
 20
42.2378223506
 10
-24.8640662272
 20
42.2052172011
  0
LINE
  5
555
100
AcDbEntity
  8
0
100
AcDbLine
 62
7
  6
CONTINUOUS
 10
15.0338581662
 20
15.9651090125
 11
15.061124073
 21
15.9434899341
  0
LWPOLYLINE
  5
556
100
AcDbEntity
  8
0
100
AcDbPolyline
 62
253
  6
CONTINUOUS
 90
7
 70
0
 10
6.7568173095
 20
24.0007247263
 10
6.7648629802
 20
23.9931576435
 10
6.7727747217
 20
23.9852275372
 10
6.7805346121
 20
23.9769523708
 10
6.7881250736
 20
23.9683508893
 10
6.795528912
 20
23.9594425772
 10
6.802729356
 20
23.9502476137
  0
LWPOLYLINE
  5
557
100
AcDbEntity
  8
0
100
AcDbPolyline
 62
253
  6
CONTINUOUS
 90
10
 70
0
 10
6.802729356
 20
23.9502476137
 10
6.8097100949
 20
23.9407868274
 10
6.8164553159
 20
23.9310816492
 10
6.8229497395
 20
23.9211540635
 10
6.8291786543
 20
23.9110265584
 10
6.8351279505
 20
23.9007220751
 10
6.8407841516
 20
23.8902639555
 10
6.8461344451
 20
23.8796758896
 10
6.8511667112
 20
23.8689818617
 10
6.8558695509
 20
23.8582060962
  0
LWPOLYLINE
  5
558
100
AcDbEntity
  8
0
100
AcDbPolyline
 62
253
  6
CONTINUOUS
 90
15
 70
0
 10
6.8835410777
 20
23.4037797767
 10
6.8875138624
 20
23.3979364508
 10
6.8910763764
 20
23.3923353409
 10
6.894220579
 20
23.3869890889
 10
6.8969393723
 20
23.381909764
 10
6.8992266217
 20
23.3771088275
 10
6.9010771675
 20
23.3725971079
 10
6.9024868324
 20
23.3683847845
 10
6.9034524299
 20
23.3644813722
 10
6.9039717776
 20
23.3608956903
 10
6.9040437041
 20
23.3576358342
 10
6.9036680486
 20
23.3547091576
 10
6.9028456592
 20
23.3521222646
 10
6.901578392
 20
23.3498809935
 10
6.9012807958
 20
23.3494860912
  0
LWPOLYLINE
  5
559
100
AcDbEntity
  8
0
100
AcDbPolyline
 62
7
  6
CONTINUOUS
 90
3
 70
0
 10
14.4761221501
 20
24.7905704017
 10
14.4760445384
 20
24.7909265639
 10
14.4757224151
 20
24.7912532253
  0
LINE
  5
55A
100
AcDbEntity
  8
0
100
AcDbLine
 62
253
  6
CONTINUOUS
 10
25.3236224063
 20
-15.5498729258
 11
25.3236224063
 21
-15.3704520498
  0
LINE
  5
55B
100
AcDbEntity
  8
0
100
AcDbLine
 62
253
  6
CONTINUOUS
 10
25.3236224063
 20
19.1365853322
 11
25.3236224063
 21
19.6945860202
  0
LINE
  5
55C
100
AcDbEntity
  8
0
100
AcDbLine
 62
7
  6
CONTINUOUS
 10
25.4639525061
 20
-15.4688365348
 11
25.4639525061
 21
-15.283669811
  0
LINE
  5
55D
100
AcDbEntity
  8
0
100
AcDbLine
 62
7
  6
CONTINUOUS
 10
25.4639525061
 20
19.3371288507
 11
25.4639525061
 21
20.0146366663
  0
LWPOLYLINE
  5
55E
100
AcDbEntity
  8
0
100
AcDbPolyline
 62
253
  6
CONTINUOUS
 90
16
 70
0
 10
19.2588169384
 20
-22.872582878
 10
19.2577295261
 20
-22.8793997139
 10
19.2560835714
 20
-22.8861791282
 10
19.2538827742
 20
-22.8929058706
 10
19.2511320813
 20
-22.899564812
 10
19.2478376775
 20
-22.906140974
 10
19.244006973
 20
-22.9126195604
 10
19.2396485834
 20
-22.9189859982
 10
19.2347723097
 20
-22.925225969
 10
19.2293891203
 20
-22.9313254356
 10
19.2235111191
 20
-22.937270682
 10
19.217151529
 20
-22.9430483327
 10
19.2103246662
 20
-22.9486453823
 10
19.2030458921
 20
-22.9540492394
 10
19.1953315759
 20
-22.9592477541
 10
19.1871990703
 20
-22.9642292348
  0
LWPOLYLINE
  5
55F
100
AcDbEntity
  8
0
100
AcDbPolyline
 62
253
  6
CONTINUOUS
 90
12
 70
0
 10
19.1871990703
 20
-22.6365839343
 10
19.1911718551
 20
-22.625635796
 10
19.1947343691
 20
-22.6144833404
 10
19.1978785717
 20
-22.6031517391
 10
19.2005973649
 20
-22.591666574
 10
19.2028846143
 20
-22.5800537613
 10
19.2047351602
 20
-22.5683394917
 10
19.2061448251
 20
-22.556550189
 10
19.2071104225
 20
-22.544712477
 10
19.2076297702
 20
-22.5328530999
 10
19.2077016968
 20
-22.5209988352
 10
19.2073260412
 20
-22.5091764282
  0
LINE
  5
560
100
AcDbEntity
  8
0
100
AcDbLine
 62
253
  6
CONTINUOUS
 10
20.804320302
 20
-17.5055896639
 11
40.5931568618
 21
-5.2678762966
  0
LINE
  5
561
100
AcDbEntity
  8
RACCORDO
100
AcDbLine
 62
7
  6
CONTINUOUS
 10
20.3834693355
 20
-18.4255168126
 11
40.2013913165
 21
-6.1698165845
  0
LINE
  5
562
100
AcDbEntity
  8
0
100
AcDbLine
 62
7
  6
CONTINUOUS
 10
40.2013918414
 20
-6.1698162599
 11
40.2010982057
 21
-6.1699977435
  0
LINE
  5
563
100
AcDbEntity
  8
0
100
AcDbLine
 62
7
  6
CONTINUOUS
 10
20.0672831749
 20
-18.5850599794
 11
20.7682191287
 21
-18.1803476559
  0
LINE
  5
564
100
AcDbEntity
  8
0
100
AcDbLine
 62
7
  6
CONTINUOUS
 10
20.9502289297
 20
-18.075024178
 11
25.4639646122
 21
-15.4688295453
  0
LWPOLYLINE
  5
565
100
AcDbEntity
  8
0
100
AcDbPolyline
 62
7
  6
CONTINUOUS
 90
8
 70
0
 10
13.7700309392
 20
25.1239209185
 10
13.7819842019
 20
25.1250704823
 10
13.7942210613
 20
25.1256670573
 10
13.8067605447
 20
25.1256952564
 10
13.8195809425
 20
25.1251511082
 10
13.8326854844
 20
25.124022796
 10
13.8461344323
 20
25.1222779179
 10
13.8599329735
 20
25.1199058656
  0
LINE
  5
566
100
AcDbEntity
  8
0
100
AcDbLine
 62
253
  6
CONTINUOUS
 10
4.7550227238
 20
22.1808555662
 11
5.4658319413
 21
22.1156030851
  0
LWPOLYLINE
  5
567
100
AcDbEntity
  8
RACCORDO
100
AcDbPolyline
 62
7
  6
CONTINUOUS
 90
8
 70
0
 10
14.0403836598
 20
22.2016686812
 10
14.0471690181
 20
22.2008387676
 10
14.0544211097
 20
22.1994230761
 10
14.0621515467
 20
22.1973718429
 10
14.0703850669
 20
22.194600694
 10
14.079129827
 20
22.1910423459
 10
14.0883710968
 20
22.18665814
 10
14.0980931599
 20
22.1814017081
  0
LINE
  5
568
100
AcDbEntity
  8
RACCORDO
100
AcDbLine
 62
253
  6
CONTINUOUS
 10
-33.1724151789
 20
30.6230290312
 11
-35.9829028462
 21
31.0167798066
  0
LINE
  5
569
100
AcDbEntity
  8
RACCORDO
100
AcDbLine
 62
253
  6
CONTINUOUS
 10
-33.0965014453
 20
31.0591420273
 11
-35.9069891126
 21
31.4528928027
  0
LWPOLYLINE
  5
56A
100
AcDbEntity
  8
0
100
AcDbPolyline
 62
7
  6
CONTINUOUS
 90
19
 70
0
 10
14.9933083081
 20
22.8615659883
 10
15.0213292244
 20
22.8569762422
 10
15.0490610537
 20
22.8519277272
 10
15.0765037959
 20
22.8464204433
 10
15.1036801327
 20
22.8404489749
 10
15.1305673824
 20
22.8340187376
 10
15.1570975003
 20
22.8271459786
 10
15.1832695894
 20
22.8198295822
 10
15.2090845467
 20
22.812070664
 10
15.2344770189
 20
22.803888818
 10
15.25944603
 20
22.7952829362
 10
15.2839925561
 20
22.7862541266
 10
15.3080541721
 20
22.7768253064
 10
15.3316293239
 20
22.7669956292
 10
15.3547195656
 20
22.7567659416
 10
15.3772671347
 20
22.7461617007
 10
15.3992527771
 20
22.7351913922
 10
15.4206957469
 20
22.7238465305
 10
15.4415960442
 20
22.7121271155
  0
LWPOLYLINE
  5
56B
100
AcDbEntity
  8
0
100
AcDbPolyline
 62
7
  6
CONTINUOUS
 90
11
 70
0
 10
19.4486397308
 20
21.8923829887
 10
19.462779674
 20
21.8894395369
 10
19.4772733605
 20
21.8858096878
 10
19.4921120536
 20
21.8814800745
 10
19.5072826769
 20
21.876435921
 10
19.5228049463
 20
21.8706277276
 10
19.5386775686
 20
21.8640325885
 10
19.554872442
 20
21.8566407812
 10
19.5713672308
 20
21.8484209535
 10
19.5881305044
 20
21.8393613458
 10
19.5944988384
 20
21.8357358428
  0
LWPOLYLINE
  5
56C
100
AcDbEntity
  8
RACCORDO
100
AcDbPolyline
 62
7
  6
CONTINUOUS
 90
15
 70
0
 10
15.1971427631
 20
22.2554681755
 10
15.1261617865
 20
22.2815375282
 10
15.0525477455
 20
22.3035984408
 10
14.9767495496
 20
22.321638364
 10
14.8993212021
 20
22.3356293189
 10
14.8208258848
 20
22.3455671722
 10
14.7416243534
 20
22.3514837809
 10
14.662027009
 20
22.3533969842
 10
14.5824831479
 20
22.3513100578
 10
14.5034479727
 20
22.3452339522
 10
14.4252391668
 20
22.3351669131
 10
14.3482364301
 20
22.3210989678
 10
14.2729600352
 20
22.3030471651
 10
14.1998815829
 20
22.2810330495
 10
14.1294183323
 20
22.2550654346
  0
LWPOLYLINE
  5
56D
100
AcDbEntity
  8
0
100
AcDbPolyline
 62
253
  6
CONTINUOUS
 90
16
 70
0
 10
17.4347048619
 20
17.9261349416
 10
17.4282583146
 20
17.928599672
 10
17.4215650065
 20
17.9305621003
 10
17.4146399881
 20
17.932017814
 10
17.4074988306
 20
17.9329635398
 10
17.4001575916
 20
17.933397151
 10
17.3926327784
 20
17.9333176728
 10
17.3849413111
 20
17.9327252837
 10
17.3771004846
 20
17.931621316
 10
17.3691279295
 20
17.9300082518
 10
17.3610415728
 20
17.9278897183
 10
17.3528595972
 20
17.9252704792
 10
17.3446004005
 20
17.922156424
 10
17.3362825541
 20
17.918554555
 10
17.3279247614
 20
17.9144729712
 10
17.3195458155
 20
17.9099208503
  0
LWPOLYLINE
  5
56E
100
AcDbEntity
  8
0
100
AcDbPolyline
 62
253
  6
CONTINUOUS
 90
16
 70
0
 10
5.1310468693
 20
25.0301128655
 10
5.124600322
 20
25.0325775959
 10
5.1179070139
 20
25.0345400242
 10
5.1109819954
 20
25.0359957379
 10
5.103840838
 20
25.0369414637
 10
5.096499599
 20
25.0373750749
 10
5.0889747858
 20
25.0372955967
 10
5.0812833185
 20
25.0367032076
 10
5.073442492
 20
25.0355992399
 10
5.0654699369
 20
25.0339861757
 10
5.0573835801
 20
25.0318676422
 10
5.0492016045
 20
25.0292484031
 10
5.0409424078
 20
25.0261343479
 10
5.0326245615
 20
25.0225324789
 10
5.0242667688
 20
25.0184508951
 10
5.0158878229
 20
25.0138987742
  0
LWPOLYLINE
  5
56F
100
AcDbEntity
  8
RACCORDO
100
AcDbPolyline
 62
253
  6
CONTINUOUS
 90
3
 70
0
 10
-34.1835091039
 20
37.5940414242
 10
-34.1398676207
 20
37.5772460252
 10
-34.093887192
 20
37.5542499298
  0
LWPOLYLINE
  5
570
100
AcDbEntity
  8
RACCORDO
100
AcDbPolyline
 62
253
  6
CONTINUOUS
 90
7
 70
0
 10
15.3294688419
 20
22.1913099436
 10
15.3155558767
 20
22.197365902
 10
15.3001746879
 20
22.2003519123
 10
15.2835836198
 20
22.2002196728
 10
15.2660665502
 20
22.1969714462
 10
15.247923201
 20
22.1906628104
 10
15.2294640098
 20
22.1814017081
  0
LINE
  5
571
100
AcDbEntity
  8
RACCORDO
100
AcDbLine
 62
7
  6
CONTINUOUS
 10
15.2650708693
 20
22.2253875007
 11
15.1971427631
 21
22.2554681755
  0
LWPOLYLINE
  5
572
100
AcDbEntity
  8
0
100
AcDbPolyline
 62
7
  6
CONTINUOUS
 90
8
 70
0
 10
17.4435234162
 20
17.921715791
 10
17.4150316995
 20
17.9358307642
 10
17.3845437391
 20
17.9463358411
 10
17.352616781
 20
17.9528764705
 10
17.3198421433
 20
17.9552093794
 10
17.2869362809
 20
17.9532101503
 10
17.2546109531
 20
17.9469068849
 10
17.2231931475
 20
17.9363259766
  0
LWPOLYLINE
  5
573
100
AcDbEntity
  8
0
100
AcDbPolyline
 62
7
  6
CONTINUOUS
 90
8
 70
0
 10
5.1398654236
 20
25.0256937149
 10
5.1113737069
 20
25.0398086881
 10
5.0808857465
 20
25.050313765
 10
5.0489587883
 20
25.0568543944
 10
5.0161841506
 20
25.0591873033
 10
4.9832782882
 20
25.0571880742
 10
4.9509529604
 20
25.0508848088
 10
4.9195351549
 20
25.0403039005
  0
LINE
  5
574
100
AcDbEntity
  8
0
100
AcDbLine
 62
7
  6
CONTINUOUS
 10
-14.4043047594
 20
36.3079915128
 11
-14.3762428761
 21
36.2940500389
  0
LWPOLYLINE
  5
575
100
AcDbEntity
  8
0
100
AcDbPolyline
 62
7
  6
CONTINUOUS
 90
5
 70
0
 10
-15.0629090758
 20
33.3358700814
 10
-15.0352344303
 20
33.3220973164
 10
-15.0048299671
 20
33.3114967869
 10
-14.9732068272
 20
33.3048765933
 10
-14.9608215566
 20
33.3034238704
  0
LWPOLYLINE
  5
576
100
AcDbEntity
  8
0
100
AcDbPolyline
 62
253
  6
CONTINUOUS
 90
18
 70
0
 10
12.1174536955
 20
19.6481716336
 10
12.1107369275
 20
19.651866454
 10
12.1040339982
 20
19.655186655
 10
12.0973600866
 20
19.6581242238
 10
12.0907293543
 20
19.6606723471
 10
12.0841578883
 20
19.6628242584
 10
12.0776635627
 20
19.6645738522
 10
12.0712620797
 20
19.6659169869
 10
12.0649669305
 20
19.6668509223
 10
12.0587922724
 20
19.6673735481
 10
12.0527520292
 20
19.6674836582
 10
12.0468599705
 20
19.6671809732
 10
12.0411295656
 20
19.666466176
 10
12.0355738453
 20
19.6653409011
 10
12.0302053461
 20
19.663807697
 10
12.0250361982
 20
19.6618700271
 10
12.0200781026
 20
19.6595322699
 10
12.0174070798
 20
19.6580556205
  0
LWPOLYLINE
  5
577
100
AcDbEntity
  8
0
100
AcDbPolyline
 62
253
  6
CONTINUOUS
 90
18
 70
0
 10
-19.7024337322
 20
38.0203372737
 10
-19.709162879
 20
38.0240386676
 10
-19.7158749236
 20
38.0273627404
 10
-19.7225546564
 20
38.030301958
 10
-19.7291869455
 20
38.0328496599
 10
-19.7357567573
 20
38.0350000691
 10
-19.7422491914
 20
38.0367483078
 10
-19.7486495323
 20
38.0380904145
 10
-19.7549432807
 20
38.0390233496
 10
-19.7611161735
 20
38.0395449995
 10
-19.7671542245
 20
38.039654183
 10
-19.7730437504
 20
38.0393506536
 10
-19.778771401
 20
38.0386351006
 10
-19.784324197
 20
38.0375091477
 10
-19.7896895581
 20
38.0359753484
 10
-19.7948553271
 20
38.0340371801
 10
-19.7998098032
 20
38.0316990348
 10
-19.8024846133
 20
38.0302187707
  0
LWPOLYLINE
  5
578
100
AcDbEntity
  8
0
100
AcDbPolyline
 62
253
  6
CONTINUOUS
 90
34
 70
0
 10
-27.4183339979
 20
40.8748002421
 10
-27.409753795
 20
40.8700757129
 10
-27.4007952717
 20
40.8655913762
 10
-27.3914785759
 20
40.8613573191
 10
-27.3818246551
 20
40.8573830638
 10
-27.3718552274
 20
40.8536775529
 10
-27.3615927347
 20
40.8502491287
 10
-27.3510602657
 20
40.8471055035
 10
-27.3402815053
 20
40.8442537459
 10
-27.3292807009
 20
40.8417002703
 10
-27.3180825943
 20
40.8394508192
 10
-27.3067123745
 20
40.8375104516
 10
-27.295195625
 20
40.8358835325
 10
-27.2835582516
 20
40.8345737198
 10
-27.2718264278
 20
40.8335839577
 10
-27.2600265447
 20
40.8329164712
 10
-27.2481851365
 20
40.8325727598
 10
-27.2363288429
 20
40.832553595
 10
-27.2244843524
 20
40.8328590173
 10
-27.2126783377
 20
40.8334883342
 10
-27.2009373182
 20
40.8344401269
 10
-27.1892876241
 20
40.8357122606
 10
-27.1777553503
 20
40.8373018932
 10
-27.1663665456
 20
40.8392054417
 10
-27.1551470668
 20
40.8414185763
 10
-27.1441222844
 20
40.8439362663
 10
-27.1333168288
 20
40.8467528603
 10
-27.1227547909
 20
40.8498620687
 10
-27.1124583971
 20
40.8532574309
 10
-27.1024524163
 20
40.8569308635
 10
-27.0927634756
 20
40.8608723417
 10
-27.0834142553
 20
40.8650720394
 10
-27.0744238786
 20
40.8695207452
 10
-27.0658120383
 20
40.8742081614
  0
LWPOLYLINE
  5
579
100
AcDbEntity
  8
0
100
AcDbPolyline
 62
253
  6
CONTINUOUS
 90
34
 70
0
 10
10.2797165415
 20
20.3835114641
 10
10.286606848
 20
20.379718116
 10
10.2938020105
 20
20.3761183866
 10
10.3012857264
 20
20.3727204338
 10
10.309041044
 20
20.3695319563
 10
10.3170503861
 20
20.3665601824
 10
10.3252955879
 20
20.3638118525
 10
10.3337579604
 20
20.3612931955
 10
10.3424183323
 20
20.3590099166
 10
10.3512570765
 20
20.35696719
 10
10.3602541659
 20
20.3551696435
 10
10.3693892111
 20
20.3536213503
 10
10.3786415036
 20
20.3523258194
 10
10.387990075
 20
20.3512859854
 10
10.3974137435
 20
20.350504203
 10
10.4068911543
 20
20.3499822424
 10
10.4164008386
 20
20.349721285
 10
10.4259212408
 20
20.3497219212
 10
10.4354307663
 20
20.3499841474
 10
10.4449078394
 20
20.3505073644
 10
10.4543310147
 20
20.3512903838
 10
10.4636790022
 20
20.352331436
 10
10.4729307033
 20
20.353628177
 10
10.4820650679
 20
20.3551776621
 10
10.4910612122
 20
20.3569763424
 10
10.499898646
 20
20.3590201007
 10
10.5085574733
 20
20.3613043148
 10
10.5170182406
 20
20.3638238453
 10
10.5252630751
 20
20.3665734406
 10
10.5332719248
 20
20.3695464858
 10
10.5410231317
 20
20.3727347268
 10
10.5484983813
 20
20.376130114
 10
10.5556823631
 20
20.3797251581
 10
10.562559254
 20
20.3835114641
  0
LWPOLYLINE
  5
57A
100
AcDbEntity
  8
0
100
AcDbPolyline
 62
253
  6
CONTINUOUS
 90
34
 70
0
 10
-21.5400886119
 20
38.7557251335
 10
-21.5331983038
 20
38.7519317846
 10
-21.5260031396
 20
38.7483320545
 10
-21.518519422
 20
38.7449341011
 10
-21.5107641027
 20
38.741745623
 10
-21.5027547587
 20
38.7387738488
 10
-21.494509555
 20
38.7360255186
 10
-21.4860471806
 20
38.7335068614
 10
-21.4773868067
 20
38.7312235824
 10
-21.4685480604
 20
38.7291808558
 10
-21.4595509688
 20
38.7273833094
 10
-21.4504159215
 20
38.7258350165
 10
-21.4411636267
 20
38.7245394859
 10
-21.4318150532
 20
38.7234996524
 10
-21.4223913825
 20
38.7227178705
 10
-21.4129139695
 20
38.7221959106
 10
-21.403404283
 20
38.7219349539
 10
-21.3938838786
 20
38.7219355911
 10
-21.384374351
 20
38.7221978183
 10
-21.374897276
 20
38.7227210364
 10
-21.365474099
 20
38.723504057
 10
-21.35612611
 20
38.7245451105
 10
-21.3468744073
 20
38.725841853
 10
-21.3377400413
 20
38.7273913396
 10
-21.3287438965
 20
38.7291900214
 10
-21.3199064639
 20
38.7312337808
 10
-21.3112476385
 20
38.7335179959
 10
-21.3027868732
 20
38.7360375272
 10
-21.2945420392
 20
38.7387871237
 10
-21.2865331901
 20
38.7417601702
 10
-21.2787819875
 20
38.744948411
 10
-21.2713067467
 20
38.7483437955
 10
-21.2641227764
 20
38.7519388348
 10
-21.2572458994
 20
38.7557251335
  0
LWPOLYLINE
  5
57B
100
AcDbEntity
  8
0
100
AcDbPolyline
 62
7
  6
CONTINUOUS
 90
19
 70
0
 10
12.330326207
 20
19.7723685508
 10
12.3241573803
 20
19.7757748698
 10
12.318000235
 20
19.7788638148
 10
12.3118664874
 20
19.7816295038
 10
12.3057677939
 20
19.7840666609
 10
12.2997157667
 20
19.7861706492
 10
12.2937219514
 20
19.7879374788
 10
12.2877977339
 20
19.7893637731
 10
12.2819543814
 20
19.790446812
 10
12.2762030587
 20
19.7911845584
 10
12.2705546824
 20
19.7915755905
 10
12.2650199861
 20
19.7916191536
 10
12.2596095626
 20
19.7913151989
 10
12.2543336724
 20
19.7906642831
 10
12.2492023319
 20
19.7896676305
 10
12.2442253807
 20
19.7883271809
 10
12.2394122474
 20
19.7866454602
 10
12.2347720599
 20
19.7846256505
 10
12.2306023758
 20
19.782437321
  0
LWPOLYLINE
  5
57C
100
AcDbEntity
  8
0
100
AcDbPolyline
 62
7
  6
CONTINUOUS
 90
19
 70
0
 10
-19.4894789464
 20
38.1447252506
 10
-19.4956477413
 20
38.1481315951
 10
-19.5018047756
 20
38.1512206099
 10
-19.5079383332
 20
38.1539864125
 10
-19.514036759
 20
38.1564237265
 10
-19.5200884414
 20
38.1585279146
 10
-19.5260818341
 20
38.1602949876
 10
-19.5320055531
 20
38.1617215676
 10
-19.5378483327
 20
38.1628049336
 10
-19.5435990071
 20
38.1635430496
 10
-19.5492466625
 20
38.1639344918
 10
-19.5547805677
 20
38.1639785044
 10
-19.5601901283
 20
38.1636750396
 10
-19.5654650876
 20
38.1630246519
 10
-19.5705954323
 20
38.162028564
 10
-19.5755713209
 20
38.1606887167
 10
-19.5803833294
 20
38.1590076337
 10
-19.5850223336
 20
38.1569884948
 10
-19.5891908123
 20
38.154800849
  0
LWPOLYLINE
  5
57D
100
AcDbEntity
  8
0
100
AcDbPolyline
 62
253
  6
CONTINUOUS
 90
18
 70
0
 10
19.1343999475
 20
16.9454248735
 10
19.1317553577
 20
16.946888395
 10
19.1255686259
 20
16.9498490602
 10
19.1191206493
 20
16.9523128095
 10
19.112425916
 20
16.9542741161
 10
19.1054994398
 20
16.9557285821
 10
19.0983567294
 20
16.9566729385
 10
19.0910139119
 20
16.9571050407
 10
19.0834876652
 20
16.9570239199
 10
19.075795031
 20
16.9564297987
 10
19.0679532184
 20
16.9553240443
 10
19.0599797194
 20
16.9537091369
 10
19.051891242
 20
16.9515883515
 10
19.0437071707
 20
16.9489666634
 10
19.0354494999
 20
16.9458514227
 10
19.0271380792
 20
16.9422508217
 10
19.0187904469
 20
16.9381731567
 10
19.0104253666
 20
16.9336281892
  0
LWPOLYLINE
  5
57E
100
AcDbEntity
  8
0
100
AcDbPolyline
 62
253
  6
CONTINUOUS
 90
18
 70
0
 10
6.8307419548
 20
24.0494027974
 10
6.828097365
 20
24.0508663189
 10
6.8219106333
 20
24.0538269841
 10
6.8154626567
 20
24.0562907334
 10
6.8087679234
 20
24.05825204
 10
6.8018414472
 20
24.059706506
 10
6.7946987367
 20
24.0606508624
 10
6.7873559193
 20
24.0610829647
 10
6.7798296726
 20
24.0610018438
 10
6.7721370384
 20
24.0604077226
 10
6.7642952258
 20
24.0593019682
 10
6.7563217268
 20
24.0576870608
 10
6.7482332493
 20
24.0555662754
 10
6.740049178
 20
24.0529445873
 10
6.7317915072
 20
24.0498293466
 10
6.7234800866
 20
24.0462287456
 10
6.7151324542
 20
24.0421510806
 10
6.706767374
 20
24.0376061131
  0
LWPOLYLINE
  5
57F
100
AcDbEntity
  8
0
100
AcDbPolyline
 62
253
  6
CONTINUOUS
 90
3
 70
0
 10
-14.3762817372
 20
36.2940724908
 10
-14.3789293469
 20
36.2955377558
 10
-14.3851160786
 20
36.2984984211
  0
LWPOLYLINE
  5
580
100
AcDbEntity
  8
0
100
AcDbPolyline
 62
253
  6
CONTINUOUS
 90
3
 70
0
 10
17.4435234162
 20
17.921715791
 10
17.4408901528
 20
17.9231734513
 10
17.4347048619
 20
17.9261349416
  0
LWPOLYLINE
  5
581
100
AcDbEntity
  8
0
100
AcDbPolyline
 62
253
  6
CONTINUOUS
 90
3
 70
0
 10
5.1398654236
 20
25.0256937149
 10
5.1372321602
 20
25.0271513753
 10
5.1310468693
 20
25.0301128655
  0
LWPOLYLINE
  5
582
100
AcDbEntity
  8
0
100
AcDbPolyline
 62
253
  6
CONTINUOUS
 90
18
 70
0
 10
-12.685402186
 20
35.3177798297
 10
-12.6880354494
 20
35.31923749
 10
-12.6942207403
 20
35.3221989802
 10
-12.7006672876
 20
35.3246637106
 10
-12.7073605957
 20
35.3266261389
 10
-12.7142856142
 20
35.3280818526
 10
-12.7214267716
 20
35.3290275784
 10
-12.7287680106
 20
35.3294611896
 10
-12.7362928238
 20
35.3293817114
 10
-12.7439842911
 20
35.3287893223
 10
-12.7518251176
 20
35.3276853546
 10
-12.7597976727
 20
35.3260722904
 10
-12.7678840295
 20
35.3239537569
 10
-12.7760660051
 20
35.3213345178
 10
-12.7843252018
 20
35.3182204626
 10
-12.7926430481
 20
35.3146185936
 10
-12.8010008408
 20
35.3105370098
 10
-12.8093797867
 20
35.3059848889
  0
LWPOLYLINE
  5
583
100
AcDbEntity
  8
0
100
AcDbPolyline
 62
253
  6
CONTINUOUS
 90
18
 70
0
 10
-24.9890601787
 20
42.4217577536
 10
-24.9916934421
 20
42.4232154139
 10
-24.997878733
 20
42.4261769041
 10
-25.0043252803
 20
42.4286416345
 10
-25.0110185884
 20
42.4306040628
 10
-25.0179436068
 20
42.4320597765
 10
-25.0250847643
 20
42.4330055023
 10
-25.0324260033
 20
42.4334391135
 10
-25.0399508165
 20
42.4333596353
 10
-25.0476422838
 20
42.4327672463
 10
-25.0554831103
 20
42.4316632785
 10
-25.0634556654
 20
42.4300502143
 10
-25.0715420221
 20
42.4279316808
 10
-25.0797239977
 20
42.4253124417
 10
-25.0879831944
 20
42.4221983865
 10
-25.0963010408
 20
42.4185965175
 10
-25.1046588335
 20
42.4145149337
 10
-25.1130377794
 20
42.4099628128
  0
LWPOLYLINE
  5
584
100
AcDbEntity
  8
0
100
AcDbPolyline
 62
253
  6
CONTINUOUS
 90
3
 70
0
 10
-26.6799397298
 20
43.3980504147
 10
-26.6825729932
 20
43.399508075
 10
-26.6887582841
 20
43.4024695652
  0
LINE
  5
585
100
AcDbEntity
  8
0
100
AcDbLine
 62
253
  6
CONTINUOUS
 10
-18.3564610326
 20
36.9175384695
 11
-19.843032337
 21
37.7758661095
  0
LINE
  5
586
100
AcDbEntity
  8
0
100
AcDbLine
 62
253
  6
CONTINUOUS
 10
-21.5400886119
 20
38.7557251335
 11
-23.1664342086
 21
39.6947566982
  0
LINE
  5
587
100
AcDbEntity
  8
0
100
AcDbLine
 62
253
  6
CONTINUOUS
 10
13.4631818429
 20
18.5454184973
 11
11.9767728164
 21
19.4036524401
  0
LINE
  5
588
100
AcDbEntity
  8
0
100
AcDbLine
 62
253
  6
CONTINUOUS
 10
10.2797165415
 20
20.3835114641
 11
8.6533709448
 21
21.3225430288
  0
LINE
  5
589
100
AcDbEntity
  8
0
100
AcDbLine
 62
7
  6
CONTINUOUS
 10
19.7137342717
 20
15.0147279288
 11
18.6934936511
 21
15.6038020765
  0
LINE
  5
58A
100
AcDbEntity
  8
0
100
AcDbLine
 62
7
  6
CONTINUOUS
 10
-24.7615382932
 20
40.6941929016
 11
-25.4299694949
 21
41.0801367001
  0
LINE
  5
58B
100
AcDbEntity
  8
0
100
AcDbLine
 62
7
  6
CONTINUOUS
 10
11.9206459906
 20
19.5148344496
 11
11.4817980695
 21
19.7682197392
  0
LINE
  5
58C
100
AcDbEntity
  8
0
100
AcDbLine
 62
7
  6
CONTINUOUS
 10
-19.8990810799
 20
37.8871460653
 11
-20.3380070839
 21
38.1405764389
  0
LINE
  5
58D
100
AcDbEntity
  8
0
100
AcDbLine
 62
253
  6
CONTINUOUS
 10
-18.0760881355
 20
37.0813057091
 11
-19.7024337322
 21
38.0203372737
  0
LINE
  5
58E
100
AcDbEntity
  8
0
100
AcDbLine
 62
253
  6
CONTINUOUS
 10
-21.3994900071
 20
39.0001962977
 11
-23.0258356038
 21
39.9392278624
  0
LINE
  5
58F
100
AcDbEntity
  8
0
100
AcDbLine
 62
253
  6
CONTINUOUS
 10
13.7437992922
 20
18.7091400689
 11
12.1174536955
 21
19.6481716336
  0
LINE
  5
590
100
AcDbEntity
  8
0
100
AcDbLine
 62
253
  6
CONTINUOUS
 10
10.4203974207
 20
20.6280306576
 11
8.7940518239
 21
21.5670622222
  0
LINE
  5
591
100
AcDbEntity
  8
0
100
AcDbLine
 62
7
  6
CONTINUOUS
 10
-20.3380070839
 20
38.3898714993
 11
-19.759050185
 21
38.0555890419
  0
LINE
  5
592
100
AcDbEntity
  8
0
100
AcDbLine
 62
7
  6
CONTINUOUS
 10
11.4817980695
 20
20.0175147995
 11
12.0606568644
 21
19.6832889862
  0
LINE
  5
593
100
AcDbEntity
  8
0
100
AcDbLine
 62
7
  6
CONTINUOUS
 10
-23.4846322601
 20
40.4514767029
 11
-21.1865352213
 21
39.1245842746
  0
LINE
  5
594
100
AcDbEntity
  8
0
100
AcDbLine
 62
7
  6
CONTINUOUS
 10
-19.4894789464
 20
38.1447252506
 11
-17.1913819076
 21
36.8178328223
  0
LINE
  5
595
100
AcDbEntity
  8
0
100
AcDbLine
 62
7
  6
CONTINUOUS
 10
8.3351728933
 20
22.0791200031
 11
10.6332699321
 21
20.7522275748
  0
LINE
  5
596
100
AcDbEntity
  8
0
100
AcDbLine
 62
7
  6
CONTINUOUS
 10
12.330326207
 20
19.7723685508
 11
14.6284232458
 21
18.4454761225
  0
LINE
  5
597
100
AcDbEntity
  8
0
100
AcDbLine
 62
7
  6
CONTINUOUS
 10
-12.6832087924
 20
34.5321159265
 11
4.3296946149
 21
24.7090787208
  0
LINE
  5
598
100
AcDbEntity
  8
0
100
AcDbLine
 62
7
  6
CONTINUOUS
 10
6.8329383683
 20
23.2637371506
 11
7.7612598145
 21
22.7277359822
  0
LINE
  5
599
100
AcDbEntity
  8
0
100
AcDbLine
 62
7
  6
CONTINUOUS
 10
18.4821581949
 20
16.628613
 11
16.7850959368
 21
17.6084754786
  0
LINE
  5
59A
100
AcDbEntity
  8
0
100
AcDbLine
 62
7
  6
CONTINUOUS
 10
6.1785002023
 20
23.7325909239
 11
4.4814379442
 21
24.7124534025
  0
LINE
  5
59B
100
AcDbEntity
  8
0
100
AcDbLine
 62
7
  6
CONTINUOUS
 10
-13.3376469585
 20
35.0009696997
 11
-15.0347092166
 21
35.9808321783
  0
LINE
  5
59C
100
AcDbEntity
  8
0
100
AcDbLine
 62
7
  6
CONTINUOUS
 10
-25.6413049511
 20
42.1049476236
 11
-27.3383672092
 21
43.0848101022
  0
LINE
  5
59D
100
AcDbEntity
  8
0
100
AcDbLine
 62
7
  6
CONTINUOUS
 10
7.3067693021
 20
23.4043498472
 11
6.9557389347
 21
23.6070303819
  0
LINE
  5
59E
100
AcDbEntity
  8
0
100
AcDbLine
 62
7
  6
CONTINUOUS
 10
-10.052702176
 20
33.4274911134
 11
-12.5604082261
 21
34.8754091578
  0
LINE
  5
59F
100
AcDbEntity
  8
0
100
AcDbLine
 62
7
  6
CONTINUOUS
 10
14.6637785849
 20
19.2368614944
 11
13.0374329881
 21
20.175893059
  0
LINE
  5
5A0
100
AcDbEntity
  8
0
100
AcDbLine
 62
7
  6
CONTINUOUS
 10
11.3403767133
 20
21.155752083
 11
9.7140311166
 21
22.0947836477
  0
LINE
  5
5A1
100
AcDbEntity
  8
0
100
AcDbLine
 62
7
  6
CONTINUOUS
 10
-17.1560265685
 20
37.6092181941
 11
-18.7823721652
 21
38.5482497588
  0
LINE
  5
5A2
100
AcDbEntity
  8
0
100
AcDbLine
 62
7
  6
CONTINUOUS
 10
-20.4794284401
 20
39.5281087828
 11
-22.1057740368
 21
40.4671403474
  0
LINE
  5
5A3
100
AcDbEntity
  8
0
100
AcDbLine
 62
253
  6
CONTINUOUS
 10
-26.8039173305
 20
43.3862554739
 11
-25.1130377794
 21
42.4099628128
  0
LINE
  5
5A4
100
AcDbEntity
  8
0
100
AcDbLine
 62
253
  6
CONTINUOUS
 10
-14.5002593379
 20
36.28227755
 11
-12.8093797867
 21
35.3059848889
  0
LINE
  5
5A5
100
AcDbEntity
  8
0
100
AcDbLine
 62
253
  6
CONTINUOUS
 10
5.0158878229
 20
25.0138987742
 11
6.706767374
 21
24.0376061131
  0
LINE
  5
5A6
100
AcDbEntity
  8
0
100
AcDbLine
 62
253
  6
CONTINUOUS
 10
17.3195458155
 20
17.9099208503
 11
19.0104253666
 21
16.9336281892
  0
LINE
  5
5A7
100
AcDbEntity
  8
0
100
AcDbLine
 62
7
  6
CONTINUOUS
 10
-26.6799397298
 20
43.3980504147
 11
-24.9890601787
 21
42.4217577536
  0
LINE
  5
5A8
100
AcDbEntity
  8
0
100
AcDbLine
 62
7
  6
CONTINUOUS
 10
-14.3762817372
 20
36.2940724908
 11
-12.685402186
 21
35.3177798297
  0
LINE
  5
5A9
100
AcDbEntity
  8
0
100
AcDbLine
 62
7
  6
CONTINUOUS
 10
5.1398654236
 20
25.0256937149
 11
6.8307449747
 21
24.0494010538
  0
LINE
  5
5AA
100
AcDbEntity
  8
0
100
AcDbLine
 62
7
  6
CONTINUOUS
 10
17.4435234162
 20
17.921715791
 11
19.1344029674
 21
16.9454231299
  0
LINE
  5
5AB
100
AcDbEntity
  8
RACCORDO
100
AcDbLine
 62
7
  6
CONTINUOUS
 10
16.9440833576
 20
20.5381626366
 11
14.0980931599
 21
22.1814017081
  0
LINE
  5
5AC
100
AcDbEntity
  8
RACCORDO
100
AcDbLine
 62
7
  6
CONTINUOUS
 10
2.7136739828
 20
28.7546226607
 11
-1.8118094168
 21
31.367580058
  0
LINE
  5
5AD
100
AcDbEntity
  8
RACCORDO
100
AcDbLine
 62
7
  6
CONTINUOUS
 10
-14.8757217958
 20
38.9105193363
 11
-17.7217119935
 21
40.5537584078
  0
LWPOLYLINE
  5
5AE
100
AcDbEntity
  8
0
100
AcDbPolyline
 62
253
  6
CONTINUOUS
 90
7
 70
0
 10
-25.1130377794
 20
42.4099628128
 10
-25.1045928619
 20
42.4049111451
 10
-25.09616572
 20
42.3994062373
 10
-25.0877754364
 20
42.3934599557
 10
-25.0794398637
 20
42.3870842496
 10
-25.0711791694
 20
42.3802938365
 10
-25.0630156665
 20
42.3731067514
  0
LWPOLYLINE
  5
5AF
100
AcDbEntity
  8
0
100
AcDbPolyline
 62
253
  6
CONTINUOUS
 90
7
 70
0
 10
-12.8093797867
 20
35.3059848889
 10
-12.8009348693
 20
35.3009332212
 10
-12.7925077273
 20
35.2954283134
 10
-12.7841174437
 20
35.2894820317
 10
-12.7757818711
 20
35.2831063257
 10
-12.7675211768
 20
35.2763159126
 10
-12.7593576739
 20
35.2691288275
  0
LWPOLYLINE
  5
5B0
100
AcDbEntity
  8
0
100
AcDbPolyline
 62
253
  6
CONTINUOUS
 90
7
 70
0
 10
6.706767374
 20
24.0376061131
 10
6.715226192
 20
24.0325457476
 10
6.7236635192
 20
24.0270331356
 10
6.7320602432
 20
24.0210807646
 10
6.7403973435
 20
24.0147021178
 10
6.7486559348
 20
24.0079116444
 10
6.7568173095
 20
24.0007247263
  0
LWPOLYLINE
  5
5B1
100
AcDbEntity
  8
0
100
AcDbPolyline
 62
253
  6
CONTINUOUS
 90
7
 70
0
 10
19.0104253666
 20
16.9336281892
 10
19.0188841846
 20
16.9285678237
 10
19.0273215118
 20
16.9230552117
 10
19.0357182358
 20
16.9171028407
 10
19.0440553362
 20
16.9107241939
 10
19.0523139275
 20
16.9039337205
 10
19.0604753022
 20
16.8967468024
  0
LWPOLYLINE
  5
5B2
100
AcDbEntity
  8
0
100
AcDbPolyline
 62
7
  6
CONTINUOUS
 90
37
 70
0
 10
-21.1865352213
 20
39.1245842746
 10
-21.1803664512
 20
39.1208670637
 10
-21.1742094139
 20
39.1168460879
 10
-21.1680758346
 20
39.1125289994
 10
-21.1619774096
 20
39.1079240046
 10
-21.1559257449
 20
39.1030398718
 10
-21.1499323336
 20
39.0978859143
 10
-21.1440086094
 20
39.0924719292
 10
-21.138165859
 20
39.0868082166
 10
-21.1324151606
 20
39.0809055841
 10
-21.126767494
 20
39.0747752489
 10
-21.121233629
 20
39.0684288697
 10
-21.1158240394
 20
39.0618785632
 10
-21.1105490632
 20
39.055136775
 10
-21.1054187689
 20
39.0482163227
 10
-21.1004428468
 20
39.0411304246
 10
-21.0956308159
 20
39.0338925419
 10
-21.0909918715
 20
39.0265164317
 10
-21.0865347541
 20
39.0190161878
 10
-21.0822680013
 20
39.0114060563
 10
-21.0781997776
 20
39.0037004987
 10
-21.0743377244
 20
38.9959142429
 10
-21.0706892516
 20
38.9880620763
 10
-21.0672613532
 20
38.9801589171
 10
-21.0640604409
 20
38.9722198753
 10
-21.0610926699
 20
38.9642600268
 10
-21.0583637445
 20
38.956294491
 10
-21.0558787367
 20
38.9483385017
 10
-21.053642442
 20
38.9404071648
 10
-21.0516591771
 20
38.9325155427
 10
-21.0499325877
 20
38.9246787321
 10
-21.0484660277
 20
38.916911611
 10
-21.0472623524
 20
38.9092289265
 10
-21.0463237189
 20
38.9016453803
 10
-21.045651914
 20
38.894175407
 10
-21.0452483507
 20
38.8868331472
 10
-21.045113865
 20
38.879632537
  0
LWPOLYLINE
  5
5B3
100
AcDbEntity
  8
0
100
AcDbPolyline
 62
7
  6
CONTINUOUS
 90
37
 70
0
 10
10.6332699321
 20
20.7522275748
 10
10.6394386569
 20
20.7485103463
 10
10.6455955703
 20
20.7444893081
 10
10.6517289478
 20
20.7401721127
 10
10.6578270943
 20
20.7355669673
 10
10.6638784044
 20
20.7306826404
 10
10.6698713841
 20
20.7255284447
 10
10.6757946021
 20
20.7201141783
 10
10.6816367729
 20
20.7144501424
 10
10.6873868173
 20
20.7085471437
 10
10.6930337585
 20
20.7024164009
 10
10.6985668289
 20
20.6960695743
 10
10.7039755533
 20
20.6895187793
 10
10.7092495973
 20
20.6827764636
 10
10.7143788955
 20
20.6758554468
 10
10.7193537559
 20
20.6687689459
 10
10.7241646637
 20
20.6615304245
 10
10.7288024274
 20
20.654153642
 10
10.7332583044
 20
20.6466526908
 10
10.7375237622
 20
20.6390418199
 10
10.7415906405
 20
20.6313354934
 10
10.7454512957
 20
20.6235484376
 10
10.7490983233
 20
20.6156954434
 10
10.7525247344
 20
20.6077914317
 10
10.7557241146
 20
20.599851511
 10
10.7586903145
 20
20.5918907606
 10
10.7614176355
 20
20.5839243033
 10
10.7639010028
 20
20.5759673712
 10
10.766135627
 20
20.5680350739
 10
10.7681171975
 20
20.5601424773
 10
10.7698420655
 20
20.5523046764
 10
10.7713068835
 20
20.544536553
 10
10.7725088029
 20
20.5368528582
 10
10.7734456632
 20
20.5292682916
 10
10.7741156807
 20
20.5217972898
 10
10.7745174527
 20
20.5144539995
 10
10.7746501499
 20
20.5072523608
  0
LWPOLYLINE
  5
5B4
100
AcDbEntity
  8
0
100
AcDbPolyline
 62
253
  6
CONTINUOUS
 90
34
 70
0
 10
10.4203974207
 20
20.6280306576
 10
10.4271273584
 20
20.6239608901
 10
10.4338437282
 20
20.619531402
 10
10.4405313151
 20
20.6147522275
 10
10.4471749697
 20
20.609634193
 10
10.4537596419
 20
20.6041888924
 10
10.4602704155
 20
20.5984286611
 10
10.4666925412
 20
20.5923665478
 10
10.4730114711
 20
20.5860162853
 10
10.4792128906
 20
20.5793922589
 10
10.4852827516
 20
20.5725094742
 10
10.4912073039
 20
20.5653835228
 10
10.4969731264
 20
20.5580305473
 10
10.5025671578
 20
20.5504672047
 10
10.5079767256
 20
20.5427106283
 10
10.5131895756
 20
20.5347783892
 10
10.518193899
 20
20.5266884565
 10
10.5229783593
 20
20.5184591565
 10
10.5275321182
 20
20.5101091313
 10
10.5318448599
 20
20.5016572963
 10
10.5359068148
 20
20.4931227976
 10
10.5397087812
 20
20.4845249686
 10
10.5432421463
 20
20.4758832863
 10
10.5464989061
 20
20.4672173267
 10
10.5494716829
 20
20.458546721
 10
10.5521537424
 20
20.449891111
 10
10.5545390088
 20
20.4412701045
 10
10.5566220789
 20
20.4327032306
 10
10.5583982337
 20
20.4242098963
 10
10.5598634496
 20
20.4158093416
 10
10.5610144076
 20
20.4075205964
 10
10.5618485003
 20
20.3993624375
 10
10.5623638382
 20
20.3913533457
 10
10.562559254
 20
20.3835114641
  0
LWPOLYLINE
  5
5B5
100
AcDbEntity
  8
0
100
AcDbPolyline
 62
7
  6
CONTINUOUS
 90
34
 70
0
 10
6.1785002023
 20
23.7325909239
 10
6.186913594
 20
23.7275045217
 10
6.195308022
 20
23.7219672994
 10
6.2036643741
 20
23.7159917377
 10
6.2119635603
 20
23.7095912591
 10
6.2201867637
 20
23.7027803601
 10
6.2283154848
 20
23.6955745833
 10
6.2363312449
 20
23.687990228
 10
6.2442158095
 20
23.6800444151
 10
6.2519514396
 20
23.6717552148
 10
6.2595205766
 20
23.6631413829
 10
6.2669060059
 20
23.6542223919
 10
6.2740910788
 20
23.6450184952
 10
6.2810595048
 20
23.635550533
 10
6.2877954497
 20
23.6258399242
 10
6.2942836947
 20
23.6159086929
 10
6.3005095491
 20
23.6057793395
 10
6.3064588816
 20
23.5954747934
 10
6.3121182135
 20
23.5850184002
 10
6.3174747533
 20
23.5744338627
 10
6.3225163601
 20
23.5637451534
 10
6.3272315704
 20
23.5529764639
 10
6.331609752
 20
23.5421522163
 10
6.3356410022
 20
23.5312969385
 10
6.3393161056
 20
23.5204351746
 10
6.3426268062
 20
23.5095915691
 10
6.3455656405
 20
23.4987907051
 10
6.3481258293
 20
23.4880569797
 10
6.3503016628
 20
23.4774147442
 10
6.3520882655
 20
23.4668881505
 10
6.3534814272
 20
23.4565009902
 10
6.3544780025
 20
23.4462768064
 10
6.3550759127
 20
23.436238842
 10
6.3552739059
 20
23.426409888
  0
LWPOLYLINE
  5
5B6
100
AcDbEntity
  8
0
100
AcDbPolyline
 62
7
  6
CONTINUOUS
 90
34
 70
0
 10
18.4821581949
 20
16.628613
 10
18.4905715867
 20
16.6235265978
 10
18.4989660146
 20
16.6179893755
 10
18.5073223667
 20
16.6120138138
 10
18.5156215529
 20
16.6056133352
 10
18.5238447563
 20
16.5988024362
 10
18.5319734775
 20
16.5915966594
 10
18.5399892375
 20
16.5840123041
 10
18.5478738022
 20
16.5760664912
 10
18.5556094322
 20
16.5677772909
 10
18.5631785692
 20
16.559163459
 10
18.5705639986
 20
16.550244468
 10
18.5777490714
 20
16.5410405713
 10
18.5847174975
 20
16.531572609
 10
18.5914534424
 20
16.5218620003
 10
18.5979416874
 20
16.511930769
 10
18.6041675418
 20
16.5018014156
 10
18.6101168743
 20
16.4914968695
 10
18.6157762062
 20
16.4810404763
 10
18.6211327459
 20
16.4704559388
 10
18.6261743528
 20
16.4597672295
 10
18.6308895631
 20
16.44899854
 10
18.6352677447
 20
16.4381742924
 10
18.6392989948
 20
16.4273190146
 10
18.6429740982
 20
16.4164572507
 10
18.6462847988
 20
16.4056136452
 10
18.6492236331
 20
16.3948127812
 10
18.6517838219
 20
16.3840790558
 10
18.6539596555
 20
16.3734368203
 10
18.6557462582
 20
16.3629102266
 10
18.6571394198
 20
16.3525230662
 10
18.6581359952
 20
16.3422988825
 10
18.6587339054
 20
16.3322609181
 10
18.6589318986
 20
16.3224319641
  0
LWPOLYLINE
  5
5B7
100
AcDbEntity
  8
0
100
AcDbPolyline
 62
7
  6
CONTINUOUS
 90
34
 70
0
 10
-25.6413049511
 20
42.1049476236
 10
-25.6328938757
 20
42.0998598039
 10
-25.6245016581
 20
42.0943212495
 10
-25.6161474104
 20
42.0883444451
 10
-25.6078502364
 20
42.0819428227
 10
-25.599628938
 20
42.0751308778
 10
-25.5915019722
 20
42.0679241372
 10
-25.5834878069
 20
42.0603388898
 10
-25.5756046875
 20
42.0523922641
 10
-25.5678703453
 20
42.0441023365
 10
-25.5603023378
 20
42.0354878628
 10
-25.5529178808
 20
42.0265683145
 10
-25.5457336183
 20
42.0173639501
 10
-25.5387658396
 20
42.00789561
 10
-25.5320303804
 20
41.9981847127
 10
-25.5255424577
 20
41.9882532856
 10
-25.519316761
 20
41.9781238299
 10
-25.5133674231
 20
41.9678192743
 10
-25.5077079237
 20
41.9573629666
 10
-25.5023510533
 20
41.9467786103
 10
-25.4973089537
 20
41.9360901773
 10
-25.4925930925
 20
41.9253218596
 10
-25.4882141007
 20
41.9144980801
 10
-25.4841818818
 20
41.9036433657
 10
-25.4805056578
 20
41.8927822592
 10
-25.4771936835
 20
41.8819394054
 10
-25.4742534227
 20
41.8711393867
 10
-25.4716916641
 20
41.8604065964
 10
-25.4695141182
 20
41.8497653992
 10
-25.4677256573
 20
41.8392399325
 10
-25.4663304989
 20
41.828853943
 10
-25.4653317953
 20
41.8186309604
 10
-25.4647316263
 20
41.8085942444
 10
-25.4645312475
 20
41.7987665877
  0
LWPOLYLINE
  5
5B8
100
AcDbEntity
  8
0
100
AcDbPolyline
 62
7
  6
CONTINUOUS
 90
34
 70
0
 10
-13.3376469585
 20
35.0009696997
 10
-13.3292358831
 20
34.99588188
 10
-13.3208436654
 20
34.9903433256
 10
-13.3124894177
 20
34.9843665212
 10
-13.3041922438
 20
34.9779648988
 10
-13.2959709454
 20
34.9711529539
 10
-13.2878439796
 20
34.9639462133
 10
-13.2798298142
 20
34.9563609659
 10
-13.2719466949
 20
34.9484143402
 10
-13.2642123527
 20
34.9401244126
 10
-13.2566443451
 20
34.9315099389
 10
-13.2492598882
 20
34.9225903906
 10
-13.2420756256
 20
34.9133860262
 10
-13.235107847
 20
34.9039176861
 10
-13.2283723878
 20
34.8942067888
 10
-13.221884465
 20
34.8842753617
 10
-13.2156587684
 20
34.874145906
 10
-13.2097094305
 20
34.8638413504
 10
-13.2040499311
 20
34.8533850427
 10
-13.1986930607
 20
34.8428006864
 10
-13.193650961
 20
34.8321122534
 10
-13.1889350999
 20
34.8213439357
 10
-13.1845561081
 20
34.8105201562
 10
-13.1805238891
 20
34.7996654418
 10
-13.1768476652
 20
34.7888043353
 10
-13.1735356909
 20
34.7779614815
 10
-13.17059543
 20
34.7671614628
 10
-13.1680336714
 20
34.7564286725
 10
-13.1658561255
 20
34.7457874753
 10
-13.1640676646
 20
34.7352620086
 10
-13.1626725063
 20
34.7248760191
 10
-13.1616738027
 20
34.7146530365
 10
-13.1610736337
 20
34.7046163205
 10
-13.1608732548
 20
34.6947886638
  0
LWPOLYLINE
  5
5B9
100
AcDbEntity
  8
0
100
AcDbPolyline
 62
253
  6
CONTINUOUS
 90
18
 70
0
 10
11.9767728164
 20
19.4036524401
 10
11.9702148478
 20
19.4076232719
 10
11.9639882428
 20
19.411771378
 10
11.9581075297
 20
19.416087615
 10
11.9525856892
 20
19.4205631171
 10
11.9474366242
 20
19.4251873212
 10
11.9426745585
 20
19.4299477777
 10
11.9383109292
 20
19.4348329313
 10
11.9343548543
 20
19.4398324412
 10
11.9308152395
 20
19.4449350686
 10
11.9277000904
 20
19.4501293213
 10
11.925016533
 20
19.4554033724
 10
11.9227707097
 20
19.46074517
 10
11.9209677197
 20
19.4661425626
 10
11.9196116234
 20
19.4715833659
 10
11.9187054856
 20
19.4770552871
 10
11.918251364
 20
19.4825459435
 10
11.9181941727
 20
19.4853041998
  0
LWPOLYLINE
  5
5BA
100
AcDbEntity
  8
RACCORDO
100
AcDbPolyline
 62
7
  6
CONTINUOUS
 90
13
 70
0
 10
19.0121372841
 20
14.6080221348
 10
19.0598381579
 20
14.5786473178
 10
19.1068794478
 20
14.5428276464
 10
19.1524822642
 20
14.5011944834
 10
19.1958377181
 20
14.4544108572
 10
19.2362673255
 20
14.403357453
 10
19.2732505587
 20
14.3491366181
 10
19.307353848
 20
14.2933985301
 10
19.3368721383
 20
14.2364376387
 10
19.3580363905
 20
14.1773932297
 10
19.3694267614
 20
14.1166361152
 10
19.3719343504
 20
14.0557452763
 10
19.3654379847
 20
13.9956283791
  0
LWPOLYLINE
  5
5BB
100
AcDbEntity
  8
RACCORDO
100
AcDbPolyline
 62
7
  6
CONTINUOUS
 90
13
 70
0
 10
2.8136788145
 20
29.4177702457
 10
2.8674356531
 20
29.3842258708
 10
2.9166308444
 20
29.3484050306
 10
2.961215756
 20
29.3104838436
 10
3.0012628202
 20
29.2705063149
 10
3.0365882763
 20
29.2287524178
 10
3.0668628301
 20
29.1858420619
 10
3.0920257864
 20
29.1423062314
 10
3.112359977
 20
29.0981711278
 10
3.1280707919
 20
29.0534012838
 10
3.1392132799
 20
29.0081877912
 10
3.1458168517
 20
28.9629357627
 10
3.1479885579
 20
28.91794828
  0
LWPOLYLINE
  5
5BC
100
AcDbEntity
  8
0
100
AcDbPolyline
 62
7
  6
CONTINUOUS
 90
9
 70
0
 10
-12.685402186
 20
35.3177798297
 10
-12.6588893253
 20
35.3001277188
 10
-12.6345118626
 20
35.2789288952
 10
-12.6128593956
 20
35.254490737
 10
-12.5944439093
 20
35.227211057
 10
-12.5797298501
 20
35.197648509
 10
-12.5690461617
 20
35.1664256721
 10
-12.5625386831
 20
35.1338444267
 10
-12.5604082346
 20
35.1012392772
  0
LWPOLYLINE
  5
5BD
100
AcDbEntity
  8
RACCORDO
100
AcDbPolyline
 62
253
  6
CONTINUOUS
 90
24
 70
0
 10
2.8124489414
 20
29.3383072942
 10
2.8365084666
 20
29.3164864572
 10
2.8588385517
 20
29.2931461208
 10
2.8793475946
 20
29.268200487
 10
2.8981271974
 20
29.2417353538
 10
2.9141105716
 20
29.2142384469
 10
2.9271364617
 20
29.1856467876
 10
2.9373661233
 20
29.1560233545
 10
2.9442165347
 20
29.1260448085
 10
2.9474893322
 20
29.0956913372
 10
2.9473828795
 20
29.0649827529
 10
2.9439092463
 20
29.034655153
 10
2.9368706028
 20
29.0047297208
 10
2.9264647789
 20
28.975185273
 10
2.9132973335
 20
28.946694357
 10
2.8972098182
 20
28.9193218498
 10
2.8783606815
 20
28.8930028744
 10
2.8578308283
 20
28.8682153478
 10
2.8355303563
 20
28.845043901
 10
2.8115491679
 20
28.823403903
 10
2.7872378751
 20
28.8035193776
 10
2.763046682
 20
28.7854649993
 10
2.7385253846
 20
28.7691660937
 10
2.7136739828
 20
28.7546226607
  0
LWPOLYLINE
  5
5BE
100
AcDbEntity
  8
0
100
AcDbPolyline
 62
253
  6
CONTINUOUS
 90
7
 70
0
 10
19.0604753022
 20
16.8967468024
 10
19.0685209729
 20
16.8891797196
 10
19.0764327144
 20
16.8812496133
 10
19.0841926048
 20
16.8729744469
 10
19.0917830662
 20
16.8643729654
 10
19.0991869046
 20
16.8554646533
 10
19.1063873486
 20
16.8462696898
  0
LWPOLYLINE
  5
5BF
100
AcDbEntity
  8
0
100
AcDbPolyline
 62
253
  6
CONTINUOUS
 90
10
 70
0
 10
19.1063873486
 20
16.8462696898
 10
19.1133680876
 20
16.8368089035
 10
19.1201133085
 20
16.8271037253
 10
19.1266077321
 20
16.8171761396
 10
19.1328366469
 20
16.8070486345
 10
19.1387859432
 20
16.7967441512
 10
19.1444421443
 20
16.7862860316
 10
19.1497924377
 20
16.7756979657
 10
19.1548247039
 20
16.7650039378
 10
19.1595275435
 20
16.7542281723
  0
LWPOLYLINE
  5
5C0
100
AcDbEntity
  8
0
100
AcDbPolyline
 62
253
  6
CONTINUOUS
 90
15
 70
0
 10
19.1871990703
 20
16.2998018528
 10
19.1911718551
 20
16.2939585269
 10
19.1947343691
 20
16.288357417
 10
19.1978785717
 20
16.283011165
 10
19.2005973649
 20
16.2779318401
 10
19.2028846143
 20
16.2731309036
 10
19.2047351602
 20
16.268619184
 10
19.2061448251
 20
16.2644068606
 10
19.2071104225
 20
16.2605034483
 10
19.2076297702
 20
16.2569177664
 10
19.2077016968
 20
16.2536579103
 10
19.2073260412
 20
16.2507312337
 10
19.2065036518
 20
16.2481443407
 10
19.2052363846
 20
16.2459030696
 10
19.2049387884
 20
16.2455081673
  0
LINE
  5
5C1
100
AcDbEntity
  8
0
100
AcDbLine
 62
7
  6
CONTINUOUS
 10
20.073145461
 20
13.2607438816
 11
20.7682191287
 21
12.0568409753
  0
LWPOLYLINE
  5
5C2
100
AcDbEntity
  8
0
100
AcDbPolyline
 62
253
  6
CONTINUOUS
 90
12
 70
0
 10
19.1595275435
 20
16.7542281723
 10
19.1638903037
 20
16.7433950788
 10
19.1679031018
 20
16.7325291965
 10
19.1715568479
 20
16.7216551392
 10
19.1748432654
 20
16.7107975391
 10
19.1777549099
 20
16.699980991
 10
19.1802851859
 20
16.6892299968
 10
19.1824283616
 20
16.67856891
 10
19.1841795824
 20
16.6680218803
 10
19.1855348814
 20
16.6576127991
 10
19.1864911884
 20
16.6473652452
 10
19.1870463372
 20
16.6373024318
  0
LWPOLYLINE
  5
5C3
100
AcDbEntity
  8
0
100
AcDbPolyline
 62
7
  6
CONTINUOUS
 90
3
 70
0
 10
20.0665687631
 20
21.5627164915
 10
20.0665154288
 20
21.5630178561
 10
20.0661690255
 20
21.5633993083
  0
LINE
  5
5C4
100
AcDbEntity
  8
0
100
AcDbLine
 62
253
  6
CONTINUOUS
 10
17.3474211597
 20
-22.9484940527
 11
16.7944436931
 21
-23.6311697917
  0
LINE
  5
5C5
100
AcDbEntity
  8
0
100
AcDbLine
 62
253
  6
CONTINUOUS
 10
17.7694899339
 20
-22.9819819576
 11
17.0586807164
 21
-23.8595081448
  0
LWPOLYLINE
  5
5C6
100
AcDbEntity
  8
RACCORDO
100
AcDbPolyline
 62
253
  6
CONTINUOUS
 90
13
 70
0
 10
14.4041762295
 20
-24.014309755
 10
14.3588577526
 20
-24.0577911984
 10
14.3084759105
 20
-24.0970619668
 10
14.2538753818
 20
-24.1314636649
 10
14.1959715732
 20
-24.1604195299
 10
14.135735273
 20
-24.1834441013
 10
14.0741763749
 20
-24.2001513599
 10
14.0123269466
 20
-24.2102611995
 10
13.9512239267
 20
-24.2136041235
 10
13.8918917398
 20
-24.2101240858
 10
13.8353251217
 20
-24.1998794312
 10
13.7824724418
 20
-24.1830419167
 10
13.7342198035
 20
-24.1598938323
  0
LINE
  5
5C7
100
AcDbEntity
  8
0
100
AcDbLine
 62
7
  6
CONTINUOUS
 10
19.4013940188
 20
-18.9623383999
 11
19.3663472211
 21
-18.9901285644
  0
LINE
  5
5C8
100
AcDbEntity
  8
0
100
AcDbLine
 62
7
  6
CONTINUOUS
 10
20.804320302
 20
-17.8993663484
 11
19.4013940188
 21
-18.9623383999
  0
LINE
  5
5C9
100
AcDbEntity
  8
0
100
AcDbLine
 62
7
  6
CONTINUOUS
 10
19.163616087
 20
-23.0595210851
 11
19.1365824036
 21
-23.0779858933
  0
LWPOLYLINE
  5
5CA
100
AcDbEntity
  8
0
100
AcDbPolyline
 62
7
  6
CONTINUOUS
 90
16
 70
0
 10
40.2010937483
 20
-6.1699945602
 10
40.2595188535
 20
-6.1317366437
 10
40.337207535
 20
-6.0736298574
 10
40.4109611612
 20
-6.0096196227
 10
40.4802206152
 20
-5.9400999274
 10
40.5447239224
 20
-5.8652670722
 10
40.6044305941
 20
-5.7849920165
 10
40.6589584172
 20
-5.6995081617
 10
40.707917618
 20
-5.6091721749
 10
40.75118169
 20
-5.5138646616
 10
40.788413662
 20
-5.4137868908
 10
40.8192683533
 20
-5.309273984
 10
40.8435468062
 20
-5.2001852369
 10
40.8609394488
 20
-5.0865240997
 10
40.871099069
 20
-4.9686615651
 10
40.8738170508
 20
-4.8668733274
  0
LINE
  5
5CB
100
AcDbEntity
  8
RACCORDO
100
AcDbLine
 62
253
  6
CONTINUOUS
 10
19.3663632334
 20
-21.766131806
 11
20.0672831749
 21
-21.3495536858
  0
LINE
  5
5CC
100
AcDbEntity
  8
0
100
AcDbLine
 62
7
  6
CONTINUOUS
 10
19.2748963018
 20
-21.9878338345
 11
19.9655607208
 21
-21.5773508844
  0
LINE
  5
5CD
100
AcDbEntity
  8
0
100
AcDbLine
 62
253
  6
CONTINUOUS
 10
18.6589318986
 20
-23.276383369
 11
19.1871990703
 21
-22.9642292348
  0
LINE
  5
5CE
100
AcDbEntity
  8
0
100
AcDbLine
 62
7
  6
CONTINUOUS
 10
18.6079086622
 20
-23.3903802706
 11
19.1365781259
 21
-23.0779884212
  0
LINE
  5
5CF
100
AcDbEntity
  8
0
100
AcDbLine
 62
7
  6
CONTINUOUS
 10
18.6079086755
 20
-23.3903802627
 11
18.6065275419
 21
-23.39117864
  0
LINE
  5
5D0
100
AcDbEntity
  8
0
100
AcDbLine
 62
253
  6
CONTINUOUS
 10
17.0059116149
 20
-24.2960998867
 11
17.0058695706
 21
-24.2961236729
  0
LINE
  5
5D1
100
AcDbEntity
  8
0
100
AcDbLine
 62
253
  6
CONTINUOUS
 10
17.0586807164
 20
-24.1810977637
 11
18.6589318986
 21
-23.2763827127
  0
LINE
  5
5D2
100
AcDbEntity
  8
0
100
AcDbLine
 62
7
  6
CONTINUOUS
 10
17.0058695706
 20
-24.2961236729
 11
18.6065275286
 21
-23.3911786478
  0
LINE
  5
5D3
100
AcDbEntity
  8
RACCORDO
100
AcDbLine
 62
7
  6
CONTINUOUS
 10
19.274906673
 20
-21.987828691
 11
19.2625229605
 21
-21.994579169
  0
LINE
  5
5D4
100
AcDbEntity
  8
0
100
AcDbLine
 62
253
  6
CONTINUOUS
 10
17.050054547
 20
-24.1857979721
 11
17.0586807164
 21
-24.1810977637
  0
LINE
  5
5D5
100
AcDbEntity
  8
RACCORDO
100
AcDbLine
 62
253
  6
CONTINUOUS
 10
14.7136091605
 20
-24.0824804367
 11
19.3654297674
 21
-21.7654020906
  0
LINE
  5
5D6
100
AcDbEntity
  8
RACCORDO
100
AcDbLine
 62
7
  6
CONTINUOUS
 10
14.5892067346
 20
-24.322364513
 11
19.2625567334
 21
-21.9945623467
  0
LWPOLYLINE
  5
5D7
100
AcDbEntity
  8
RACCORDO
100
AcDbPolyline
 62
7
  6
CONTINUOUS
 90
8
 70
0
 10
-1.8695189169
 20
31.3878470311
 10
-1.8627335586
 20
31.3870171175
 10
-1.855481467
 20
31.385601426
 10
-1.84775103
 20
31.3835501927
 10
-1.8395175098
 20
31.3807790439
 10
-1.8307727497
 20
31.3772206958
 10
-1.8215314799
 20
31.3728364899
 10
-1.8118094168
 20
31.367580058
  0
LWPOLYLINE
  5
5D8
100
AcDbEntity
  8
0
100
AcDbPolyline
 62
7
  6
CONTINUOUS
 90
11
 70
0
 10
13.8599329735
 20
25.1199058656
 10
13.8740594828
 20
25.1168929033
 10
13.8885367585
 20
25.1131961817
 10
13.9033553036
 20
25.108802414
 10
13.9185027854
 20
25.1036969798
 10
13.9339976779
 20
25.0978312507
 10
13.9498386083
 20
25.091182396
 10
13.9659975534
 20
25.0837410106
 10
13.9824511427
 20
25.0754771293
 10
13.9991676269
 20
25.0663795066
 10
14.0040521611
 20
25.0635895794
  0
LWPOLYLINE
  5
5D9
100
AcDbEntity
  8
RACCORDO
100
AcDbPolyline
 62
7
  6
CONTINUOUS
 90
15
 70
0
 10
-0.7127598136
 20
31.4416465254
 10
-0.7837407902
 20
31.4677158781
 10
-0.8573548312
 20
31.4897767906
 10
-0.9331530271
 20
31.5078167139
 10
-1.0105813746
 20
31.5218076688
 10
-1.0890766919
 20
31.5317455221
 10
-1.1682782233
 20
31.5376621308
 10
-1.2478755677
 20
31.5395753341
 10
-1.3274194288
 20
31.5374884077
 10
-1.406454604
 20
31.5314123021
 10
-1.4846634099
 20
31.521345263
 10
-1.5616661466
 20
31.5072773177
 10
-1.6369425415
 20
31.489225515
 10
-1.7100209938
 20
31.4672113994
 10
-1.7804842444
 20
31.4412437845
  0
LWPOLYLINE
  5
5DA
100
AcDbEntity
  8
0
100
AcDbPolyline
 62
253
  6
CONTINUOUS
 90
16
 70
0
 10
-14.3851160786
 20
36.2984984211
 10
-14.3915640552
 20
36.3009621704
 10
-14.3982587885
 20
36.3029234769
 10
-14.4051852647
 20
36.304377943
 10
-14.4123279751
 20
36.3053222994
 10
-14.4196707926
 20
36.3057544016
 10
-14.4271970393
 20
36.3056732808
 10
-14.4348896735
 20
36.3050791596
 10
-14.4427314861
 20
36.3039734052
 10
-14.4507049851
 20
36.3023584978
 10
-14.4587934626
 20
36.3002377124
 10
-14.4669775339
 20
36.2976160243
 10
-14.4752352047
 20
36.2945007836
 10
-14.4835466253
 20
36.2909001826
 10
-14.4918942577
 20
36.2868225176
 10
-14.5002593379
 20
36.28227755
  0
LWPOLYLINE
  5
5DB
100
AcDbEntity
  8
0
100
AcDbPolyline
 62
253
  6
CONTINUOUS
 90
16
 70
0
 10
-26.6887582841
 20
43.4024695652
 10
-26.6952048314
 20
43.4049342956
 10
-26.7018981395
 20
43.406896724
 10
-26.708823158
 20
43.4083524377
 10
-26.7159643154
 20
43.4092981634
 10
-26.7233055544
 20
43.4097317747
 10
-26.7308303676
 20
43.4096522964
 10
-26.7385218349
 20
43.4090599074
 10
-26.7463626614
 20
43.4079559396
 10
-26.7543352165
 20
43.4063428754
 10
-26.7624215733
 20
43.4042243419
 10
-26.7706035489
 20
43.4016051028
 10
-26.7788627456
 20
43.3984910477
 10
-26.7871805919
 20
43.3948891786
 10
-26.7955383846
 20
43.3908075948
 10
-26.8039173305
 20
43.3862554739
  0
LWPOLYLINE
  5
5DC
100
AcDbEntity
  8
0
100
AcDbPolyline
 62
7
  6
CONTINUOUS
 90
16
 70
0
 10
14.4757224151
 20
24.7912532253
 10
14.4754090923
 20
24.7913824425
 10
14.4741549933
 20
24.7914866049
 10
14.4723071366
 20
24.791248585
 10
14.4698931023
 20
24.7906823747
 10
14.4669411888
 20
24.7898159379
 10
14.4634823734
 20
24.7886574426
 10
14.4595422872
 20
24.7872156927
 10
14.4551384486
 20
24.7855185419
 10
14.4502954418
 20
24.7835738184
 10
14.4450373208
 20
24.781386319
 10
14.439373886
 20
24.778979385
 10
14.4333317582
 20
24.776364158
 10
14.4269264362
 20
24.7735390868
 10
14.4201407252
 20
24.7705101828
 10
14.4054663403
 20
24.763863551
  0
LWPOLYLINE
  5
5DD
100
AcDbEntity
  8
RACCORDO
100
AcDbPolyline
 62
253
  6
CONTINUOUS
 90
7
 70
0
 10
2.8136738919
 20
29.4177730877
 10
2.7997657473
 20
29.4238262356
 10
2.7843845552
 20
29.4268122238
 10
2.767793495
 20
29.4266799652
 10
2.7502764461
 20
29.4234317275
 10
2.7321331298
 20
29.4171230936
 10
2.7136739828
 20
29.40786201
  0
LWPOLYLINE
  5
5DE
100
AcDbEntity
  8
RACCORDO
100
AcDbPolyline
 62
253
  6
CONTINUOUS
 90
7
 70
0
 10
-0.5804337348
 20
31.3774882935
 10
-0.5943467
 20
31.3835442518
 10
-0.6097278888
 20
31.3865302622
 10
-0.6263189569
 20
31.3863980227
 10
-0.6438360265
 20
31.383149796
 10
-0.6619793757
 20
31.3768411603
 10
-0.6804385669
 20
31.367580058
  0
LWPOLYLINE
  5
5DF
100
AcDbEntity
  8
RACCORDO
100
AcDbPolyline
 62
253
  6
CONTINUOUS
 90
7
 70
0
 10
-16.4903363115
 20
40.5636666434
 10
-16.5042492767
 20
40.5697226017
 10
-16.5196304654
 20
40.572708612
 10
-16.5362215336
 20
40.5725763726
 10
-16.5537386032
 20
40.5693281459
 10
-16.5718819524
 20
40.5630195102
 10
-16.5903411436
 20
40.5537584078
  0
LINE
  5
5E0
100
AcDbEntity
  8
RACCORDO
100
AcDbLine
 62
7
  6
CONTINUOUS
 10
-0.6448317074
 20
31.4115658506
 11
-0.7127598136
 21
31.4416465254
  0
LINE
  5
5E1
100
AcDbEntity
  8
RACCORDO
100
AcDbLine
 62
7
  6
CONTINUOUS
 10
-16.5547342841
 20
40.5977442005
 11
-16.6226623903
 21
40.6278248752
  0
LWPOLYLINE
  5
5E2
100
AcDbEntity
  8
0
100
AcDbPolyline
 62
7
  6
CONTINUOUS
 90
15
 70
0
 10
20.0661690255
 20
21.5633993083
 10
20.0659367265
 20
21.5635029683
 10
20.0647422783
 20
21.5636378171
 10
20.0629564923
 20
21.5634318949
 10
20.0606064525
 20
21.5628991485
 10
20.057720188
 20
21.5620669059
 10
20.0543282694
 20
21.5609432042
 10
20.0504560563
 20
21.5595369791
 10
20.0461212695
 20
21.557875825
 10
20.0413480623
 20
21.5559672481
 10
20.0361605184
 20
21.553816375
 10
20.0305698153
 20
21.5514471657
 10
20.0246030932
 20
21.5488706024
 10
20.018275693
 20
21.54608512
 10
20.0044957747
 20
21.5399135094
  0
LWPOLYLINE
  5
5E3
100
AcDbEntity
  8
0
100
AcDbPolyline
 62
7
  6
CONTINUOUS
 90
8
 70
0
 10
-26.6799397298
 20
43.3980504147
 10
-26.7084314465
 20
43.4121653879
 10
-26.7389194069
 20
43.4226704648
 10
-26.7708463651
 20
43.4292110942
 10
-26.8036210028
 20
43.431544003
 10
-26.8365268652
 20
43.429544774
 10
-26.8688521929
 20
43.4232415086
 10
-26.9002699985
 20
43.4126606002
  0
LINE
  5
5E4
100
AcDbEntity
  8
RACCORDO
100
AcDbLine
 62
7
  6
CONTINUOUS
 10
15.3294688419
 20
22.1913099436
 11
15.2650708693
 21
22.2253875007
  0
LINE
  5
5E5
100
AcDbEntity
  8
RACCORDO
100
AcDbLine
 62
7
  6
CONTINUOUS
 10
-0.5804337348
 20
31.3774882935
 11
-0.6448317074
 21
31.4115658506
  0
LINE
  5
5E6
100
AcDbEntity
  8
RACCORDO
100
AcDbLine
 62
7
  6
CONTINUOUS
 10
-16.4903363115
 20
40.5636666434
 11
-16.5547342841
 21
40.5977442005
  0
LWPOLYLINE
  5
5E7
100
AcDbEntity
  8
0
100
AcDbPolyline
 62
7
  6
CONTINUOUS
 90
25
 70
0
 10
17.6386764654
 20
24.6690663266
 10
17.6235917081
 20
24.6772638267
 10
17.606546147
 20
24.6853716625
 10
17.5890221433
 20
24.6925347364
 10
17.5710180585
 20
24.6987500584
 10
17.5525355311
 20
24.7040206185
 10
17.5336336599
 20
24.7083295933
 10
17.5143113086
 20
24.7116738857
 10
17.4945696135
 20
24.7140565928
 10
17.4744710825
 20
24.715470183
 10
17.4540143584
 20
24.7159115809
 10
17.4332007983
 20
24.7153838618
 10
17.4120969813
 20
24.7138887198
 10
17.3907021678
 20
24.7114230803
 10
17.3690170973
 20
24.7079900178
 10
17.3471105674
 20
24.7036004501
 10
17.324981817
 20
24.6982513411
 10
17.3026316071
 20
24.6919457269
 10
17.2801310182
 20
24.6847036328
 10
17.2574795071
 20
24.676522047
 10
17.234677617
 20
24.6674039813
 10
17.2117980578
 20
24.6573784965
 10
17.1888650664
 20
24.6464552793
 10
17.1658544059
 20
24.634624643
 10
17.1427660763
 20
24.6218865874
  0
LWPOLYLINE
  5
5E8
100
AcDbEntity
  8
0
100
AcDbPolyline
 62
7
  6
CONTINUOUS
 90
25
 70
0
 10
-14.181128688
 20
43.0414230263
 10
-14.1962134453
 20
43.0496205264
 10
-14.2132590064
 20
43.0577283622
 10
-14.2307830101
 20
43.0648914361
 10
-14.2487870949
 20
43.0711067581
 10
-14.2672696223
 20
43.0763773182
 10
-14.2861714935
 20
43.0806862931
 10
-14.3054938448
 20
43.0840305855
 10
-14.3252355399
 20
43.0864132926
 10
-14.3453340709
 20
43.0878268827
 10
-14.365790795
 20
43.0882682806
 10
-14.3866043551
 20
43.0877405616
 10
-14.4077081721
 20
43.0862454195
 10
-14.4291029856
 20
43.08377978
 10
-14.4507880561
 20
43.0803467176
 10
-14.472694586
 20
43.0759571498
 10
-14.4948233364
 20
43.0706080409
 10
-14.5171735463
 20
43.0643024266
 10
-14.5396741352
 20
43.0570603325
 10
-14.5623256463
 20
43.0488787467
 10
-14.5851275364
 20
43.0397606811
 10
-14.6080070956
 20
43.0297351962
 10
-14.630940087
 20
43.0188119791
 10
-14.6539507475
 20
43.0069813427
 10
-14.6770390771
 20
42.9942432872
  0
LINE
  5
5E9
100
AcDbEntity
  8
RACCORDO
100
AcDbLine
 62
253
  6
CONTINUOUS
 10
-16.5903411436
 20
40.5537584078
 11
-14.3067263722
 21
39.2352278592
  0
LINE
  5
5EA
100
AcDbEntity
  8
RACCORDO
100
AcDbLine
 62
253
  6
CONTINUOUS
 10
-0.6804385669
 20
31.367580058
 11
2.7136739828
 21
29.40786201
  0
LINE
  5
5EB
100
AcDbEntity
  8
RACCORDO
100
AcDbLine
 62
253
  6
CONTINUOUS
 10
15.2294640098
 20
22.1814017081
 11
17.5130787812
 21
20.8628711595
  0
LINE
  5
5EC
100
AcDbEntity
  8
RACCORDO
100
AcDbLine
 62
7
  6
CONTINUOUS
 10
-16.4903363115
 20
40.5636666434
 11
-14.2478009403
 21
39.2688548256
  0
LINE
  5
5ED
100
AcDbEntity
  8
RACCORDO
100
AcDbLine
 62
7
  6
CONTINUOUS
 10
-0.5804337348
 20
31.3774882935
 11
2.8136788146
 21
29.4177702457
  0
LINE
  5
5EE
100
AcDbEntity
  8
RACCORDO
100
AcDbLine
 62
7
  6
CONTINUOUS
 10
15.3294688419
 20
22.1913099436
 11
17.5720042131
 21
20.8964981258
  0
LINE
  5
5EF
100
AcDbEntity
  8
0
100
AcDbLine
 62
7
  6
CONTINUOUS
 10
-16.3782091092
 20
41.0844838152
 11
-13.7377584419
 21
39.5599206926
  0
LINE
  5
5F0
100
AcDbEntity
  8
0
100
AcDbLine
 62
7
  6
CONTINUOUS
 10
15.4415960442
 20
22.7121271155
 11
18.0820467115
 21
21.1875639928
  0
LINE
  5
5F1
100
AcDbEntity
  8
0
100
AcDbLine
 62
7
  6
CONTINUOUS
 10
-5.2162307501
 20
34.9544849221
 11
-5.1705666274
 21
34.92811903
  0
LINE
  5
5F2
100
AcDbEntity
  8
0
100
AcDbLine
 62
7
  6
CONTINUOUS
 10
-15.7225299762
 20
41.8713393224
 11
-12.7226205898
 21
40.1392292404
  0
LINE
  5
5F3
100
AcDbEntity
  8
0
100
AcDbLine
 62
7
  6
CONTINUOUS
 10
16.0972751772
 20
23.4989826226
 11
19.0971845636
 21
21.7668725406
  0
LINE
  5
5F4
100
AcDbEntity
  8
0
100
AcDbLine
 62
253
  6
CONTINUOUS
 10
19.902915315
 20
21.4909051828
 11
19.2620295412
 21
21.8609445964
  0
LINE
  5
5F5
100
AcDbEntity
  8
0
100
AcDbLine
 62
253
  6
CONTINUOUS
 10
14.3122820729
 20
24.7188667496
 11
13.6713962992
 21
25.0889061632
  0
LINE
  5
5F6
100
AcDbEntity
  8
0
100
AcDbLine
 62
253
  6
CONTINUOUS
 10
-11.9168898384
 20
39.8632618825
 11
-12.5577756122
 21
40.2333012961
  0
LINE
  5
5F7
100
AcDbEntity
  8
0
100
AcDbLine
 62
253
  6
CONTINUOUS
 10
-17.5075230805
 20
43.0912234494
 11
-18.1484088542
 21
43.461262863
  0
LINE
  5
5F8
100
AcDbEntity
  8
0
100
AcDbLine
 62
7
  6
CONTINUOUS
 10
20.0661690582
 20
21.5634006247
 11
19.5944995718
 21
21.8357366747
  0
LINE
  5
5F9
100
AcDbEntity
  8
0
100
AcDbLine
 62
7
  6
CONTINUOUS
 10
14.4757224452
 20
24.7912544343
 11
14.0040529588
 21
25.0635904843
  0
LINE
  5
5FA
100
AcDbEntity
  8
0
100
AcDbLine
 62
7
  6
CONTINUOUS
 10
-11.7536360952
 20
39.9357573244
 11
-12.2253055816
 21
40.2080933745
  0
LINE
  5
5FB
100
AcDbEntity
  8
0
100
AcDbLine
 62
7
  6
CONTINUOUS
 10
-17.3440827082
 20
43.163611134
 11
-17.8157521946
 21
43.4359471841
  0
LINE
  5
5FC
100
AcDbEntity
  8
DRAFT
100
AcDbLine
 62
7
  6
CONTINUOUS
 10
7.9996149111
 20
28.5814136646
 11
0.114738823
 21
33.1340422971
  0
LINE
  5
5FD
100
AcDbEntity
  8
DRAFT
100
AcDbLine
 62
7
  6
CONTINUOUS
 10
12.143240728
 20
26.1968725849
 11
9.6536292221
 21
27.6343430663
  0
LINE
  5
5FE
100
AcDbEntity
  8
DRAFT
100
AcDbLine
 62
7
  6
CONTINUOUS
 10
-5.2162307501
 20
36.2200138511
 11
-7.705842256
 21
37.6574843325
  0
LINE
  5
5FF
100
AcDbEntity
  8
0
100
AcDbLine
 62
7
  6
CONTINUOUS
 10
-6.9388988859
 20
37.2442410676
 11
-6.6201086044
 21
37.0601755544
  0
LINE
  5
600
100
AcDbEntity
  8
0
100
AcDbLine
 62
7
  6
CONTINUOUS
 10
-4.039168853
 20
35.5699732888
 11
-3.3168890752
 21
35.1529379974
  0
LINE
  5
601
100
AcDbEntity
  8
0
100
AcDbLine
 62
7
  6
CONTINUOUS
 10
10.017083096
 20
27.4540695796
 11
10.7393628738
 21
27.0370342882
  0
LINE
  5
602
100
AcDbEntity
  8
0
100
AcDbLine
 62
7
  6
CONTINUOUS
 10
21.0001688931
 20
21.9523953966
 11
17.8457591002
 21
23.773712077
  0
LINE
  5
603
100
AcDbEntity
  8
0
100
AcDbLine
 62
7
  6
CONTINUOUS
 10
-10.8196362603
 20
40.3247520964
 11
-13.9740460532
 21
42.1460687767
  0
LINE
  5
604
100
AcDbEntity
  8
0
100
AcDbLine
 62
253
  6
CONTINUOUS
 10
-17.7275189263
 20
44.7555521206
 11
-14.6770390771
 21
42.9942432872
  0
LINE
  5
605
100
AcDbEntity
  8
0
100
AcDbLine
 62
253
  6
CONTINUOUS
 10
-10.43439839
 20
40.5445957272
 11
-7.3839185407
 21
38.7832868938
  0
LINE
  5
606
100
AcDbEntity
  8
0
100
AcDbLine
 62
253
  6
CONTINUOUS
 10
14.0922862271
 20
26.3831954209
 11
17.1427660763
 21
24.6218865874
  0
LINE
  5
607
100
AcDbEntity
  8
0
100
AcDbLine
 62
253
  6
CONTINUOUS
 10
21.3854067634
 20
22.1722390275
 11
24.4358866126
 21
20.410930194
  0
LINE
  5
608
100
AcDbEntity
  8
0
100
AcDbLine
 62
7
  6
CONTINUOUS
 10
-17.4387274995
 20
44.9223197846
 11
-14.1811286742
 21
43.0414230502
  0
LINE
  5
609
100
AcDbEntity
  8
0
100
AcDbLine
 62
7
  6
CONTINUOUS
 10
-9.9384879871
 20
40.5917754902
 11
-6.6808891619
 21
38.7108787559
  0
LINE
  5
60A
100
AcDbEntity
  8
0
100
AcDbLine
 62
7
  6
CONTINUOUS
 10
14.3810776539
 20
26.5499630849
 11
17.6386764792
 21
24.6690663505
  0
LINE
  5
60B
100
AcDbEntity
  8
0
100
AcDbLine
 62
7
  6
CONTINUOUS
 10
21.8813171663
 20
22.2194187905
 11
25.1389159915
 21
20.3385220561
  0
LWPOLYLINE
  5
60C
100
AcDbEntity
  8
RACCORDO
100
AcDbPolyline
 62
253
  6
CONTINUOUS
 90
5
 70
0
 10
2.7136739828
 20
29.40786201
 10
2.7388376908
 20
29.3931172705
 10
2.7636135535
 20
29.3766227009
 10
2.788001571
 20
29.3583783011
 10
2.8124489414
 20
29.3383072942
  0
LINE
  5
60D
100
AcDbEntity
  8
0
100
AcDbLine
 62
7
  6
CONTINUOUS
 10
-5.9130287477
 20
36.6448393683
 11
-6.6201086044
 21
37.0601755544
  0
LINE
  5
60E
100
AcDbEntity
  8
0
100
AcDbLine
 62
7
  6
CONTINUOUS
 10
11.4464427305
 20
26.6216981021
 11
10.7393628738
 21
27.0370342882
  0
LINE
  5
60F
100
AcDbEntity
  8
0
100
AcDbLine
 62
7
  6
CONTINUOUS
 10
-2.6159798109
 20
34.7411646339
 11
-3.3168890752
 21
35.1529379974
  0
LWPOLYLINE
  5
610
100
AcDbEntity
  8
0
100
AcDbPolyline
 62
253
  6
CONTINUOUS
 90
12
 70
0
 10
-14.8741316212
 20
33.4127985762
 10
-14.8627438775
 20
33.4147009145
 10
-14.8515251264
 20
33.4169128139
 10
-14.8405005943
 20
33.4194293008
 10
-14.8296950706
 20
33.4222447168
 10
-14.8191328522
 20
33.4253527311
 10
-14.8088376893
 20
33.4287463551
 10
-14.7988327312
 20
33.432417958
 10
-14.7891404748
 20
33.436359284
 10
-14.7797827139
 20
33.4405614706
 10
-14.7707804901
 20
33.4450150689
 10
-14.7621540456
 20
33.4497100647
  0
LWPOLYLINE
  5
611
100
AcDbEntity
  8
0
100
AcDbPolyline
 62
253
  6
CONTINUOUS
 90
9
 70
0
 10
-14.9681916565
 20
33.409087497
 10
-14.9563934678
 20
33.4084194409
 10
-14.9445536936
 20
33.4080750704
 10
-14.9326989565
 20
33.4080551597
 10
-14.9208559128
 20
33.4083597536
 10
-14.9090511925
 20
33.4089881672
 10
-14.8973113394
 20
33.4099389876
 10
-14.8856627513
 20
33.4112100766
 10
-14.8741316212
 20
33.4127985762
  0
LINE
  5
612
100
AcDbEntity
  8
0
100
AcDbLine
 62
7
  6
CONTINUOUS
 10
-14.9608226204
 20
33.3034239684
 11
-14.3330636691
 21
33.245619201
  0
LINE
  5
613
100
AcDbEntity
  8
0
100
AcDbLine
 62
253
  6
CONTINUOUS
 10
-14.7621540456
 20
33.4497100647
 11
-14.0509334375
 21
33.3842200518
  0
LWPOLYLINE
  5
614
100
AcDbEntity
  8
RACCORDO
100
AcDbPolyline
 62
7
  6
CONTINUOUS
 90
15
 70
0
 10
-16.6226623903
 20
40.6278248752
 10
-16.6936433669
 20
40.6538942279
 10
-16.7672574079
 20
40.6759551405
 10
-16.8430556038
 20
40.6939950638
 10
-16.9204839513
 20
40.7079860187
 10
-16.9989792686
 20
40.7179238719
 10
-17.0781808
 20
40.7238404807
 10
-17.1577781444
 20
40.725753684
 10
-17.2373220055
 20
40.7236667575
 10
-17.3163571807
 20
40.717590652
 10
-17.3945659866
 20
40.7075236128
 10
-17.4715687233
 20
40.6934556675
 10
-17.5468451182
 20
40.6754038648
 10
-17.6199235705
 20
40.6533897493
 10
-17.6903868211
 20
40.6274221344
  0
LWPOLYLINE
  5
615
100
AcDbEntity
  8
0
100
AcDbPolyline
 62
7
  6
CONTINUOUS
 90
16
 70
0
 10
-17.344082739
 20
43.1636098964
 10
-17.3443953438
 20
43.1637388972
 10
-17.3456488565
 20
43.1638433634
 10
-17.3474958713
 20
43.16360575
 10
-17.3499087469
 20
43.1630400046
 10
-17.3528593169
 20
43.1621741125
 10
-17.3563167646
 20
43.1610162291
 10
-17.3602553961
 20
43.1595751713
 10
-17.3646575464
 20
43.1578788556
 10
-17.3694983426
 20
43.1559352469
 10
-17.3747539159
 20
43.1537489748
 10
-17.3804151417
 20
43.151343014
 10
-17.3864559705
 20
43.1487283917
 10
-17.3928606587
 20
43.1459037479
 10
-17.399645899
 20
43.1428751956
 10
-17.4143190091
 20
43.1362293677
  0
LWPOLYLINE
  5
616
100
AcDbEntity
  8
0
100
AcDbPolyline
 62
7
  6
CONTINUOUS
 90
15
 70
0
 10
-11.7536361287
 20
39.9357559783
 10
-11.7538678689
 20
39.9358594406
 10
-11.755061815
 20
39.9359945443
 10
-11.7568468414
 20
39.9357889812
 10
-11.7591957997
 20
39.9352566534
 10
-11.7620807924
 20
39.9344249119
 10
-11.7654714094
 20
39.9333017841
 10
-11.7693422305
 20
39.9318962157
 10
-11.7736753972
 20
39.9302358574
 10
-11.7784464818
 20
39.9283283459
 10
-11.7836315787
 20
39.9261786487
 10
-11.7892201581
 20
39.9238103719
 10
-11.7951856332
 20
39.9212343866
 10
-11.8015124286
 20
39.9184493129
 10
-11.8152911983
 20
39.9122784735
  0
LWPOLYLINE
  5
617
100
AcDbEntity
  8
0
100
AcDbPolyline
 62
253
  6
CONTINUOUS
 90
10
 70
0
 10
40.8738169544
 20
23.2236535294
 10
40.8708100026
 20
23.179177472
 10
40.8604208776
 20
23.1297287292
 10
40.8426889307
 20
23.0809810118
 10
40.8177461324
 20
23.0332971258
 10
40.78577812
 20
22.9870319596
 10
40.7470228162
 20
22.9425298429
 10
40.7017686583
 20
22.9001219835
 10
40.6503524514
 20
22.8601240031
 10
40.5931568618
 20
22.8228335875
  0
LWPOLYLINE
  5
618
100
AcDbEntity
  8
0
100
AcDbPolyline
 62
253
  6
CONTINUOUS
 90
9
 70
0
 10
-27.2718368552
 20
40.5130645194
 10
-27.2600376367
 20
40.512396773
 10
-27.2481968482
 20
40.5120527664
 10
-27.2363411278
 20
40.5120332739
 10
-27.2244971639
 20
40.5123383384
 10
-27.2126916097
 20
40.5129672704
 10
-27.2009509977
 20
40.5139186536
 10
-27.1893017055
 20
40.5151903497
 10
-27.1777698462
 20
40.5167795115
  0
LWPOLYLINE
  5
619
100
AcDbEntity
  8
0
100
AcDbPolyline
 62
7
  6
CONTINUOUS
 90
32
 70
0
 10
-26.6367221585
 20
40.349599509
 10
-26.6265470041
 20
40.3489090203
 10
-26.6167353003
 20
40.3486971838
 10
-26.6068324005
 20
40.3489201499
 10
-26.5968546196
 20
40.3495554984
 10
-26.5868215587
 20
40.3506020849
 10
-26.5767522158
 20
40.3520580158
 10
-26.5666610947
 20
40.3538995752
 10
-26.5565663019
 20
40.3561243747
 10
-26.5464854031
 20
40.358729625
 10
-26.5364312339
 20
40.3616909644
 10
-26.5264203425
 20
40.3650050151
 10
-26.5164688418
 20
40.3686682249
 10
-26.5065881414
 20
40.3726560114
 10
-26.4967932377
 20
40.3769642125
 10
-26.4870987912
 20
40.381588624
 10
-26.4775150283
 20
40.3865046869
 10
-26.4680554324
 20
40.3917076078
 10
-26.4587332227
 20
40.3971926289
 10
-26.4495576333
 20
40.4029353413
 10
-26.4405406832
 20
40.4089304308
 10
-26.4316941615
 20
40.4151726765
 10
-26.423026422
 20
40.4216378953
 10
-26.4145480635
 20
40.4283203321
 10
-26.4062694523
 20
40.4352143896
 10
-26.3981980925
 20
40.4422961887
 10
-26.3903431984
 20
40.4495595939
 10
-26.3827137163
 20
40.4569987193
 10
-26.3753162607
 20
40.4645901086
 10
-26.3681582277
 20
40.4723218046
 10
-26.361247639
 20
40.4801932359
 10
-26.3545914302
 20
40.4881979758
  0
LINE
  5
61A
100
AcDbEntity
  8
0
100
AcDbLine
 62
7
  6
CONTINUOUS
 10
-27.2644806131
 20
40.4074018923
 11
-26.6367216617
 21
40.3495971249
  0
LINE
  5
61B
100
AcDbEntity
  8
0
100
AcDbLine
 62
253
  6
CONTINUOUS
 10
-27.0658120383
 20
40.5536879886
 11
-26.3545914302
 21
40.4881979758
  0
LWPOLYLINE
  5
61C
100
AcDbEntity
  8
0
100
AcDbPolyline
 62
7
  6
CONTINUOUS
 90
9
 70
0
 10
-27.2644806131
 20
40.4074018923
 10
-27.2778694908
 20
40.4089999515
 10
-27.2912449761
 20
40.4113362144
 10
-27.3045510981
 20
40.4144152934
 10
-27.3177908089
 20
40.4182553506
 10
-27.3308374346
 20
40.4228341399
 10
-27.3434619444
 20
40.4280606452
 10
-27.3555779528
 20
40.4338643649
 10
-27.3666122562
 20
40.4398741181
  0
LWPOLYLINE
  5
61D
100
AcDbEntity
  8
RACCORDO
100
AcDbPolyline
 62
7
  6
CONTINUOUS
 90
8
 70
0
 10
-17.7794214936
 20
40.574025381
 10
-17.7726361353
 20
40.5731954674
 10
-17.7653840437
 20
40.5717797759
 10
-17.7576536067
 20
40.5697285426
 10
-17.7494200865
 20
40.5669573937
 10
-17.7406753264
 20
40.5633990456
 10
-17.7314340566
 20
40.5590148398
 10
-17.7217119935
 20
40.5537584078
  0
LWPOLYLINE
  5
61E
100
AcDbEntity
  8
0
100
AcDbPolyline
 62
7
  6
CONTINUOUS
 90
19
 70
0
 10
-16.8264968453
 20
41.2339226881
 10
-16.798475929
 20
41.2293329419
 10
-16.7707440997
 20
41.2242844269
 10
-16.7433013575
 20
41.218777143
 10
-16.7161250207
 20
41.2128056746
 10
-16.689237771
 20
41.2063754374
 10
-16.6627076531
 20
41.1995026784
 10
-16.636535564
 20
41.192186282
 10
-16.6107206067
 20
41.1844273638
 10
-16.5853281345
 20
41.1762455177
 10
-16.5603591234
 20
41.167639636
 10
-16.5358125973
 20
41.1586108263
 10
-16.5117509813
 20
41.1491820062
 10
-16.4881758295
 20
41.139352329
 10
-16.4650855878
 20
41.1291226413
 10
-16.4425380187
 20
41.1185184004
 10
-16.4205523763
 20
41.1075480919
 10
-16.3991094065
 20
41.0962032302
 10
-16.3782091092
 20
41.0844838152
  0
LWPOLYLINE
  5
61F
100
AcDbEntity
  8
0
100
AcDbPolyline
 62
7
  6
CONTINUOUS
 90
11
 70
0
 10
-12.3712010331
 20
40.2647462582
 10
-12.3570576959
 20
40.2618035451
 10
-12.3425608313
 20
40.258174252
 10
-12.3277199509
 20
40.2538451857
 10
-12.3125474086
 20
40.2488014563
 10
-12.2970229436
 20
40.2429933967
 10
-12.281147307
 20
40.2363978377
 10
-12.2649491419
 20
40.2290052637
 10
-12.2484518686
 20
40.220784894
 10
-12.2316874216
 20
40.211725251
 10
-12.225306298
 20
40.2080925618
  0
LWPOLYLINE
  5
620
100
AcDbEntity
  8
0
100
AcDbPolyline
 62
7
  6
CONTINUOUS
 90
11
 70
0
 10
-17.9599059996
 20
43.4922689799
 10
-17.9457761258
 20
43.4892566638
 10
-17.9312956796
 20
43.4855604026
 10
-17.9164749071
 20
43.48116708
 10
-17.9013254416
 20
43.4760619609
 10
-17.885828281
 20
43.4701962476
 10
-17.8699842525
 20
43.4635468396
 10
-17.8538219249
 20
43.4561045441
 10
-17.8373657822
 20
43.4478399863
 10
-17.820648081
 20
43.4387422057
 10
-17.8157529747
 20
43.4359462992
  0
LWPOLYLINE
  5
621
100
AcDbEntity
  8
0
100
AcDbPolyline
 62
7
  6
CONTINUOUS
 90
22
 70
0
 10
40.8738169544
 20
23.2236535294
 10
40.8731713521
 20
23.2740807052
 10
40.8661788114
 20
23.3980977028
 10
40.8517659246
 20
23.5221006679
 10
40.8301480465
 20
23.6460696883
 10
40.8015474423
 20
23.7697282374
 10
40.7662844605
 20
23.89238082
 10
40.7245291702
 20
24.0139246005
 10
40.6764182856
 20
24.1341634263
 10
40.6223979463
 20
24.2521440017
 10
40.5626244509
 20
24.3676848508
 10
40.4972010279
 20
24.4805808363
 10
40.4266982412
 20
24.5898579113
 10
40.3512426866
 20
24.6953154206
 10
40.2709224552
 20
24.7967359094
 10
40.1863326511
 20
24.8932603703
 10
40.0975810822
 20
24.9846846642
 10
40.0046795706
 20
25.0708011715
 10
39.908069506
 20
25.1509983155
 10
39.8078701273
 20
25.2249594834
 10
39.7039870843
 20
25.2924909117
 10
39.6666048282
 20
25.3146273031
  0
LINE
  5
622
100
AcDbEntity
  8
0
100
AcDbLine
 62
253
  6
CONTINUOUS
 10
40.5931568618
 20
22.8228335875
 11
40.5931568618
 21
-5.2678762966
  0
LINE
  5
623
100
AcDbEntity
  8
0
100
AcDbLine
 62
7
  6
CONTINUOUS
 10
40.8738170614
 20
23.2239206245
 11
40.8738170614
 21
-4.8667892707
  0
LWPOLYLINE
  5
624
100
AcDbEntity
  8
0
100
AcDbPolyline
 62
253
  6
CONTINUOUS
 90
14
 70
0
 10
40.5931568618
 20
-5.2678762966
 10
40.5913364658
 20
-5.3634805116
 10
40.5845776183
 20
-5.4544705473
 10
40.5731322616
 20
-5.5406846218
 10
40.5573652025
 20
-5.6215461841
 10
40.5374946444
 20
-5.6974610742
 10
40.513336628
 20
-5.7695991387
 10
40.4847604007
 20
-5.838134642
 10
40.4519790654
 20
-5.9023765089
 10
40.4151328817
 20
-5.962035465
 10
40.3743645798
 20
-6.0168946144
 10
40.3297834385
 20
-6.0668190338
 10
40.2815078506
 20
-6.1116737312
 10
40.230015178
 20
-6.151056235
  0
LWPOLYLINE
  5
625
100
AcDbEntity
  8
0
100
AcDbPolyline
 62
253
  6
CONTINUOUS
 90
10
 70
0
 10
40.8738170508
 20
-4.8668733274
 10
40.8708100856
 20
-4.9115318064
 10
40.8604210422
 20
-4.9609805904
 10
40.8426891594
 20
-5.009728365
 10
40.8177464015
 20
-5.0574123225
 10
40.7857784004
 20
-5.1036775719
 10
40.747023077
 20
-5.1481797772
 10
40.7017688675
 20
-5.1905877263
 10
40.650352574
 20
-5.2305857958
 10
40.5931568618
 20
-5.2678762966
  0
LINE
  5
626
100
AcDbEntity
  8
0
100
AcDbLine
 62
7
  6
CONTINUOUS
 10
-13.9740460532
 20
42.1460687767
 11
-15.7225299762
 21
41.8713393224
  0
LWPOLYLINE
  5
627
100
AcDbEntity
  8
0
100
AcDbPolyline
 62
7
  6
CONTINUOUS
 90
8
 70
0
 10
-12.4612003721
 20
40.2681905985
 10
-12.4492357951
 20
40.2694319955
 10
-12.4369846436
 20
40.270116527
 10
-12.4244304994
 20
40.2702291664
 10
-12.4115966611
 20
40.2697659574
 10
-12.3984788207
 20
40.2687153047
 10
-12.3850153063
 20
40.2670455161
 10
-12.3712010331
 20
40.2647462582
  0
LWPOLYLINE
  5
628
100
AcDbEntity
  8
0
100
AcDbPolyline
 62
253
  6
CONTINUOUS
 90
10
 70
0
 10
39.6666048282
 20
25.3146273031
 10
39.6265688213
 20
25.3342671841
 10
39.5785531545
 20
25.3499896224
 10
39.5274731205
 20
25.3590025386
 10
39.4737088815
 20
25.3612388484
 10
39.4176605786
 20
25.3566819023
 10
39.359745357
 20
25.3453656114
 10
39.300394254
 20
25.3273741944
 10
39.2400489912
 20
25.3028415495
 10
39.179158691
 20
25.2719502586
  0
LWPOLYLINE
  5
629
100
AcDbEntity
  8
0
100
AcDbPolyline
 62
253
  6
CONTINUOUS
 90
10
 70
0
 10
-4.3895560321
 20
50.7521025502
 10
-4.4297630777
 20
50.7718409711
 10
-4.4777787488
 20
50.7875633176
 10
-4.5288587641
 20
50.796576149
 10
-4.5826229594
 20
50.7988123869
 10
-4.6386711935
 20
50.7942553883
 10
-4.6965863262
 20
50.7829390685
 10
-4.7559373226
 20
50.7649476496
 10
-4.8162824615
 20
50.7404150332
 10
-4.877172623
 20
50.7095238038
  0
LWPOLYLINE
  5
62A
100
AcDbEntity
  8
0
100
AcDbPolyline
 62
7
  6
CONTINUOUS
 90
16
 70
0
 10
-4.3895560321
 20
50.7521025502
 10
-4.4803959022
 20
50.8013196972
 10
-4.5874684857
 20
50.8513160256
 10
-4.6945338731
 20
50.8929730987
 10
-4.8010909805
 20
50.9263936395
 10
-4.9069746785
 20
50.9518402042
 10
-5.0122011892
 20
50.9695588117
 10
-5.1163107183
 20
50.9796739664
 10
-5.218961752
 20
50.9823761753
 10
-5.3201855699
 20
50.9778430895
 10
-5.4194803594
 20
50.9662361534
 10
-5.5164492534
 20
50.9477612616
 10
-5.6111731496
 20
50.9225278653
 10
-5.703351853
 20
50.890676357
 10
-5.792371913
 20
50.8524939169
 10
-5.8544798278
 20
50.8211394394
  0
LINE
  5
62B
100
AcDbEntity
  8
0
100
AcDbLine
 62
253
  6
CONTINUOUS
 10
-4.877172623
 20
50.7095238038
 11
39.179158691
 21
25.2719502586
  0
LINE
  5
62C
100
AcDbEntity
  8
0
100
AcDbLine
 62
7
  6
CONTINUOUS
 10
-4.3894891778
 20
50.7520639597
 11
39.6668421458
 21
25.3144904089
  0
LWPOLYLINE
  5
62D
100
AcDbEntity
  8
0
100
AcDbPolyline
 62
253
  6
CONTINUOUS
 90
28
 70
0
 10
39.179158691
 20
25.2719502586
 10
39.2642966196
 20
25.2206908208
 10
39.347794661
 20
25.1646759782
 10
39.4293862262
 20
25.1043505644
 10
39.5083831905
 20
25.0405331225
 10
39.5850393147
 20
24.9733290865
 10
39.6604778419
 20
24.9018774997
 10
39.7349107511
 20
24.8259049928
 10
39.8076231097
 20
24.7460704203
 10
39.8782958377
 20
24.6627199678
 10
39.9466671684
 20
24.5761695812
 10
40.0125619189
 20
24.4866465891
 10
40.0758052985
 20
24.3943886171
 10
40.1362501247
 20
24.2995942411
 10
40.1936393189
 20
24.2026470914
 10
40.2476650437
 20
24.1040845006
 10
40.2978768998
 20
24.0048440934
 10
40.3444818863
 20
23.9046452584
 10
40.3880230159
 20
23.8021633818
 10
40.4283281985
 20
23.6973349695
 10
40.4649375335
 20
23.5908447047
 10
40.4977139694
 20
23.4824832901
 10
40.5263818588
 20
23.3722355932
 10
40.5504275102
 20
23.2609660504
 10
40.5693830775
 20
23.1498251501
 10
40.5829641037
 20
23.0395219548
 10
40.5909652807
 20
22.9303462072
 10
40.5931568618
 20
22.8228335875
  0
LWPOLYLINE
  5
62E
100
AcDbEntity
  8
0
100
AcDbPolyline
 62
253
  6
CONTINUOUS
 90
12
 70
0
 10
-27.1777698462
 20
40.5167795115
 10
-27.1663814413
 20
40.5186825568
 10
-27.1551623265
 20
40.5208951584
 10
-27.1441378675
 20
40.523412286
 10
-27.1333326909
 20
40.5262282888
 10
-27.1227708691
 20
40.5293368825
 10
-27.1124753283
 20
40.5327313636
 10
-27.1024700895
 20
40.5364038579
 10
-27.0927797805
 20
40.5403451969
 10
-27.0834266513
 20
40.5445460213
 10
-27.0744307515
 20
40.5489970052
 10
-27.0658120383
 20
40.5536879886
  0
LWPOLYLINE
  5
62F
100
AcDbEntity
  8
0
100
AcDbPolyline
 62
7
  6
CONTINUOUS
 90
8
 70
0
 10
-18.0498017956
 20
43.4962742901
 10
-18.0378507775
 20
43.4974249542
 10
-18.0256151491
 20
43.4980229276
 10
-18.0130767833
 20
43.4980526037
 10
-18.0002580844
 20
43.4975100389
 10
-17.9871551338
 20
43.4963834034
 10
-17.9737064961
 20
43.4946400024
 10
-17.9599059996
 20
43.4922689799
  0
ARC
  5
630
100
AcDbEntity
  8
0
100
AcDbCircle
 62
7
  6
CONTINUOUS
 10
19.0093969273
 20
16.7289202663
 40
0.25
100
AcDbArc
 50
0.0007993011
 51
59.999200789
  0
ARC
  5
631
100
AcDbEntity
  8
0
100
AcDbCircle
 62
7
  6
CONTINUOUS
 10
6.7057389347
 20
23.8328981902
 40
0.25
100
AcDbArc
 50
0.0007993011
 51
59.999200789
  0
ELLIPSE
  5
632
100
AcDbEntity
  8
SUPERFICI
100
AcDbEllipse
 62
7
  6
CONTINUOUS
 10
-11.1979823931
 20
17.8381745368
 30
0.0
 11
-0.4214576756
 21
1.3324008006
 31
0.0
 40
0.2019085389
 41
-1.7880770106
 42
0.5681174795
  0
ELLIPSE
  5
633
100
AcDbEntity
  8
RACCORDO
100
AcDbEllipse
 62
7
  6
CONTINUOUS
 10
19.3658232554
 20
-16.7033026958
 30
0.0
 11
-1.0003529238
 21
1.7325505656
 31
0.0
 40
0.5771558487
 41
3.0012341156
 42
3.2819384767
  0
ELLIPSE
  5
634
100
AcDbEntity
  8
RACCORDO
100
AcDbEllipse
 62
7
  6
CONTINUOUS
 10
2.1479885579
 20
27.8683513935
 30
0.0
 11
0.9999644838
 21
-0.0148582918
 31
0.0
 40
0.5672251703
 41
-0.7769700665
 42
0.0084280965
  0
ELLIPSE
  5
635
100
AcDbEntity
  8
RACCORDO
100
AcDbEllipse
 62
7
  6
CONTINUOUS
 10
19.3658232554
 20
12.1992476174
 30
0.0
 11
-1.0000483645
 21
1.7320228834
 31
0.0
 40
0.5775075436
 41
-1.7113204917
 42
-1.4303688828
  0
ELLIPSE
  5
636
100
AcDbEntity
  8
0
100
AcDbEllipse
 62
7
  6
CONTINUOUS
 10
-18.1504776994
 20
43.0518539266
 30
0.0
 11
0.2522054935
 21
0.4317367776
 31
0.0
 40
0.580680601
 41
0.689040114
 42
0.7825716451
  0
ELLIPSE
  5
637
100
AcDbEntity
  8
0
100
AcDbEllipse
 62
7
  6
CONTINUOUS
 10
-20.4794284401
 20
39.3648119639
 30
0.0
 11
-0.1000031398
 21
0.1732052219
 31
0.0
 40
0.5773316701
 41
-2.3562258892
 42
-0.7854295624
  0
ELLIPSE
  5
638
100
AcDbEntity
  8
0
100
AcDbEllipse
 62
7
  6
CONTINUOUS
 10
13.0374329881
 20
20.0125962402
 30
0.0
 11
-0.1000031398
 21
0.1732052219
 31
0.0
 40
0.5773316701
 41
-0.7854295624
 42
-0.0029086511
  0
ELLIPSE
  5
639
100
AcDbEntity
  8
0
100
AcDbEllipse
 62
7
  6
CONTINUOUS
 10
-18.7823721652
 20
38.3849529399
 30
0.0
 11
-0.1000031398
 21
0.1732052219
 31
0.0
 40
0.5773316701
 41
-0.7854295624
 42
-0.0029086511
  0
ELLIPSE
  5
63A
100
AcDbEntity
  8
RACCORDO
100
AcDbEllipse
 62
7
  6
CONTINUOUS
 10
-32.4847574446
 20
31.0038802172
 30
0.0
 11
0.7746182049
 21
0.2849299186
 31
0.0
 40
0.4306346284
 41
2.3083836553
 42
3.4861141697
  0
ELLIPSE
  5
63B
100
AcDbEntity
  8
RACCORDO
100
AcDbEllipse
 62
7
  6
CONTINUOUS
 10
-32.7545321693
 20
30.7646497709
 30
0.0
 11
0.6015820811
 21
0.76775495
 31
0.0
 40
0.4288142819
 41
0.0607957205
 42
1.168047241
  0
ELLIPSE
  5
63C
100
AcDbEntity
  8
0
100
AcDbEllipse
 62
7
  6
CONTINUOUS
 10
13.669327454
 20
24.6794972268
 30
0.0
 11
0.2522054935
 21
0.4317367776
 31
0.0
 40
0.580680601
 41
0.689040114
 42
0.7825716451
  0
ELLIPSE
  5
63D
100
AcDbEntity
  8
0
100
AcDbEllipse
 62
7
  6
CONTINUOUS
 10
11.3403767133
 20
20.9924552642
 30
0.0
 11
-0.1000031398
 21
0.1732052219
 31
0.0
 40
0.5773316701
 41
-2.3562258892
 42
-0.7854295624
  0
ELLIPSE
  5
63E
100
AcDbEntity
  8
0
100
AcDbEllipse
 62
7
  6
CONTINUOUS
 10
19.7137163216
 20
-21.14538789
 30
0.0
 11
-0.2500332324
 21
0.4330240487
 31
0.0
 40
0.5773023583
 41
-3.1343210679
 42
-2.3562893423
  0
ELLIPSE
  5
63F
100
AcDbEntity
  8
0
100
AcDbEllipse
 62
7
  6
CONTINUOUS
 10
19.7137163216
 20
14.6064962458
 30
0.0
 11
-0.2500205442
 21
0.4330020622
 31
0.0
 40
0.577360979
 41
-2.3562385877
 42
-0.7854930296
  0
ELLIPSE
  5
640
100
AcDbEntity
  8
RACCORDO
100
AcDbEllipse
 62
7
  6
CONTINUOUS
 10
4.4121244344
 20
8.4710934668
 30
0.0
 11
0.4008843016
 21
0.5444461846
 31
0.0
 40
0.6417350089
 41
-3.0701496378
 42
-1.8924191234
  0
ELLIPSE
  5
641
100
AcDbEntity
  8
0
100
AcDbEllipse
 62
7
  6
CONTINUOUS
 10
-15.9134444261
 20
33.699442068
 30
0.0
 11
0.249894357
 21
0.0119767658
 31
0.0
 40
0.6067642562
 41
3.1125202636
 42
3.8979184282
  0
ELLIPSE
  5
642
100
AcDbEntity
  8
0
100
AcDbEllipse
 62
7
  6
CONTINUOUS
 10
-28.2171024188
 20
40.8034199919
 30
0.0
 11
0.249894357
 21
0.0119767658
 31
0.0
 40
0.6067642562
 41
3.1125202636
 42
3.8979184282
  0
ELLIPSE
  5
643
100
AcDbEntity
  8
0
100
AcDbEllipse
 62
7
  6
CONTINUOUS
 10
-26.5303366945
 20
39.8295026029
 30
0.0
 11
0.249894357
 21
0.0119767658
 31
0.0
 40
0.6067642562
 41
-2.385266879
 42
-0.8202883164
  0
ELLIPSE
  5
644
100
AcDbEntity
  8
0
100
AcDbEllipse
 62
7
  6
CONTINUOUS
 10
25.1388676701
 20
19.1838308186
 30
0.0
 11
-0.7070896968
 21
1.224754734
 31
0.0
 40
0.5773595689
 41
5.1712092008
 42
6.2773917037
  0
ELLIPSE
  5
645
100
AcDbEntity
  8
0
100
AcDbEllipse
 62
7
  6
CONTINUOUS
 10
-6.6809374833
 20
37.5561875183
 30
0.0
 11
-0.7070896968
 21
1.224754734
 31
0.0
 40
0.5773595689
 41
5.1712092008
 42
6.2773917037
  0
ELLIPSE
  5
646
100
AcDbEntity
  8
0
100
AcDbEllipse
 62
7
  6
CONTINUOUS
 10
14.734489263
 20
22.8416561116
 30
0.0
 11
0.9999958657
 21
-0.0050094262
 31
0.0
 40
0.5740189913
 41
1.3118724487
 42
2.3590699999
  0
ELLIPSE
  5
647
100
AcDbEntity
  8
0
100
AcDbEllipse
 62
7
  6
CONTINUOUS
 10
14.0230794402
 20
23.6152547537
 30
0.0
 11
0.4530408369
 21
-0.002269484
 31
0.0
 40
0.5740189913
 41
-0.7825226537
 42
0.0028755098
  0
ELLIPSE
  5
648
100
AcDbEntity
  8
0
100
AcDbEllipse
 62
7
  6
CONTINUOUS
 10
-12.2062791002
 20
38.7597576439
 30
0.0
 11
0.4530408369
 21
-0.002269484
 31
0.0
 40
0.5740189913
 41
-0.7767048895
 42
0.0028755096
  0
ELLIPSE
  5
649
100
AcDbEntity
  8
0
100
AcDbEllipse
 62
7
  6
CONTINUOUS
 10
-17.0853158904
 20
41.2140128113
 30
0.0
 11
0.9999958657
 21
-0.0050094262
 31
0.0
 40
0.5740189913
 41
1.3118724487
 42
2.3590699999
  0
ELLIPSE
  5
64A
100
AcDbEntity
  8
0
100
AcDbEllipse
 62
7
  6
CONTINUOUS
 10
-17.7967257132
 20
41.9876114535
 30
0.0
 11
0.4530408369
 21
-0.002269484
 31
0.0
 40
0.5740189913
 41
-0.7825226537
 42
0.0028755098
  0
ELLIPSE
  5
64B
100
AcDbEntity
  8
0
100
AcDbEllipse
 62
7
  6
CONTINUOUS
 10
19.6135260532
 20
20.3874009441
 30
0.0
 11
0.4530408369
 21
-0.002269484
 31
0.0
 40
0.5740189913
 41
-0.7767048895
 42
0.0028755096
  0
ELLIPSE
  5
64C
100
AcDbEntity
  8
0
100
AcDbEllipse
 62
7
  6
CONTINUOUS
 10
-19.7016109808
 20
36.7030536115
 30
0.0
 11
0.1999154856
 21
0.0095814127
 31
0.0
 40
0.6067642562
 41
3.1125202645
 42
3.8979184282
  0
ELLIPSE
  5
64D
100
AcDbEntity
  8
0
100
AcDbEllipse
 62
7
  6
CONTINUOUS
 10
-21.3986672556
 20
37.6829126355
 30
0.0
 11
0.1999154856
 21
0.0095814127
 31
0.0
 40
0.6067642562
 41
-2.385266879
 42
-0.8144705522
  0
ELLIPSE
  5
64E
100
AcDbEntity
  8
0
100
AcDbEllipse
 62
7
  6
CONTINUOUS
 10
-6.8558526473
 20
38.6756592007
 30
0.0
 11
-0.3535448484
 21
0.612377367
 31
0.0
 40
0.5773595689
 41
-3.1241152003
 42
-2.2255673615
  0
ELLIPSE
  5
64F
100
AcDbEntity
  8
RACCORDO
100
AcDbEllipse
 62
7
  6
CONTINUOUS
 10
-35.2952451118
 20
31.3976309926
 30
0.0
 11
0.7746182049
 21
0.2849299186
 31
0.0
 40
0.4306346284
 41
2.3083836553
 42
3.4861141697
  0
ELLIPSE
  5
650
100
AcDbEntity
  8
0
100
AcDbEllipse
 62
7
  6
CONTINUOUS
 10
69.0038243324
 20
49.5145986248
 30
0.0
 11
60.4168506882
 21
35.2934066151
 31
0.0
 40
0.0050378458
 41
2.5166802681
 42
2.6876229173
  0
ELLIPSE
  5
651
100
AcDbEntity
  8
0
100
AcDbEllipse
 62
7
  6
CONTINUOUS
 10
19.9008704029
 20
21.0814824277
 30
0.0
 11
0.247841934
 21
0.4342563559
 31
0.0
 40
0.5739631936
 41
0.6832219561
 42
0.7767534872
  0
ELLIPSE
  5
652
100
AcDbEntity
  8
0
100
AcDbEllipse
 62
7
  6
CONTINUOUS
 10
69.0038243324
 20
49.5145986248
 30
0.0
 11
60.4168506882
 21
35.2934066151
 31
0.0
 40
0.0050378458
 41
-2.6935087662
 42
-2.5225661169
  0
ELLIPSE
  5
653
100
AcDbEntity
  8
RACCORDO
100
AcDbEllipse
 62
7
  6
CONTINUOUS
 10
-31.2078085812
 20
35.0222821395
 30
0.0
 11
0.6015820811
 21
0.76775495
 31
0.0
 40
0.4288142819
 41
0.7451893432
 42
1.168047241
  0
ELLIPSE
  5
654
100
AcDbEntity
  8
0
100
AcDbEllipse
 62
7
  6
CONTINUOUS
 10
37.184019179
 20
67.8869553245
 30
0.0
 11
60.4168506882
 21
35.2934066151
 31
0.0
 40
0.0050378458
 41
2.5166802681
 42
2.6876229173
  0
ELLIPSE
  5
655
100
AcDbEntity
  8
0
100
AcDbEllipse
 62
7
  6
CONTINUOUS
 10
-11.9189347505
 20
39.4538391275
 30
0.0
 11
0.247841934
 21
0.4342563559
 31
0.0
 40
0.5739631936
 41
0.6832219561
 42
0.7767534872
  0
ELLIPSE
  5
656
100
AcDbEntity
  8
RACCORDO
100
AcDbEllipse
 62
7
  6
CONTINUOUS
 10
8.499560965
 20
12.0957446138
 30
0.0
 11
0.999848249
 21
0.5167871588
 31
0.0
 40
0.3220421599
 41
5.3795463147
 42
5.8024042125
  0
ELLIPSE
  5
657
100
AcDbEntity
  8
0
100
AcDbEllipse
 62
7
  6
CONTINUOUS
 10
37.184019179
 20
67.8869553245
 30
0.0
 11
60.4168506882
 21
35.2934066151
 31
0.0
 40
0.0050378458
 41
-2.6935087662
 42
-2.5225661169
  0
ELLIPSE
  5
658
100
AcDbEntity
  8
0
100
AcDbEllipse
 62
7
  6
CONTINUOUS
 10
12.1181941726
 20
18.3306969117
 30
0.0
 11
0.1999154856
 21
0.0095814127
 31
0.0
 40
0.6067642562
 41
3.1125202645
 42
3.8979184282
  0
ELLIPSE
  5
659
100
AcDbEntity
  8
0
100
AcDbEllipse
 62
7
  6
CONTINUOUS
 10
10.4211378978
 20
19.3105559357
 30
0.0
 11
0.1999154856
 21
0.0095814127
 31
0.0
 40
0.6067642562
 41
-2.385266879
 42
-0.8144705522
  0
ELLIPSE
  5
65A
100
AcDbEntity
  8
0
100
AcDbEllipse
 62
7
  6
CONTINUOUS
 10
24.9639525061
 20
20.3033025009
 30
0.0
 11
-0.3535448484
 21
0.612377367
 31
0.0
 40
0.5773595689
 41
-3.1241152003
 42
-2.2255673615
  0
ELLIPSE
  5
65B
100
AcDbEntity
  8
0
100
AcDbEllipse
 62
7
  6
CONTINUOUS
 10
17.5936412582
 20
14.3528707363
 30
0.0
 11
0.249894357
 21
0.0119767658
 31
0.0
 40
0.6067642562
 41
-2.385266879
 42
-0.8197065399
  0
ELLIPSE
  5
65C
100
AcDbEntity
  8
0
100
AcDbEllipse
 62
7
  6
CONTINUOUS
 10
15.9058459206
 20
15.3273826112
 30
0.0
 11
0.249894357
 21
0.0119767658
 31
0.0
 40
0.6067642562
 41
3.1125202637
 42
3.8979184282
  0
ELLIPSE
  5
65D
100
AcDbEntity
  8
0
100
AcDbEllipse
 62
7
  6
CONTINUOUS
 10
5.2899832656
 20
21.4568486602
 30
0.0
 11
0.249894357
 21
0.0119767658
 31
0.0
 40
0.6067642562
 41
-2.385266879
 42
-0.81970654
  0
ELLIPSE
  5
65E
100
AcDbEntity
  8
0
100
AcDbEllipse
 62
7
  6
CONTINUOUS
 10
-14.2266787019
 20
32.725524679
 30
0.0
 11
0.249894357
 21
0.0119767658
 31
0.0
 40
0.6067642562
 41
-2.385266879
 42
-0.8202883164
  0
ELLIPSE
  5
65F
100
AcDbEntity
  8
0
100
AcDbEllipse
 62
7
  6
CONTINUOUS
 10
3.6021879279
 20
22.4313605351
 30
0.0
 11
0.249894357
 21
0.0119767658
 31
0.0
 40
0.6067642562
 41
3.1125202637
 42
3.8979184282
  0
ENDSEC
  0
SECTION
  2
OBJECTS
  0
DICTIONARY
  5
C
100
AcDbDictionary
280
0
281
1
  3
ACAD_GROUP
350
D
  3
ACAD_MLINESTYLE
350
17
  3
ACAD_LAYOUT
350
1A
  3
ACAD_PLOTSETTINGS
350
19
  3
ACAD_PLOTSTYLENAME
350
E
  0
DICTIONARY
  5
D
102
{ACAD_REACTORS
330
C
102
}
100
AcDbDictionary
280
0
281
1
  0
ACDBDICTIONARYWDFLT
  5
E
102
{ACAD_REACTORS
330
C
102
}
100
AcDbDictionary
281
1
  3
Normal
350
F
100
AcDbDictionaryWithDefault
340
F
  0
DICTIONARY
  5
17
102
{ACAD_REACTORS
330
C
102
}
100
AcDbDictionary
280
0
281
1
  3
Standard
350
18
  0
DICTIONARY
  5
19
102
{ACAD_REACTORS
330
C
102
}
100
AcDbDictionary
281
1
  0
DICTIONARY
  5
1A
102
{ACAD_REACTORS
330
C
102
}
100
AcDbDictionary
281
1
  3
Model
350
660
  3
Layout1
350
661
  0
ACDBPLACEHOLDER
  5
F
102
{ACAD_REACTORS
330
E
102
}
  0
MLINESTYLE
  5
18
102
{ACAD_REACTORS
330
17
102
}
100
AcDbMlineStyle
  2
STANDARD
 70
0
  3

 62
256
 51
90.0
 52
90.0
 71
2
 49
0.5
 62
256
  6
BYLAYER
 49
-0.5
 62
256
  6
BYLAYER
  0
LAYOUT
  5
660
102
{ACAD_REACTORS
330
1A
102
}
100
AcDbPlotSettings
  1

  2
none_device
  4
ISO_A4_(297.00_x_210.00_MM)
  6

 40
0.0
 41
0.0
 42
0.0
 43
0.0
 44
297.0
 45
210.0
 46
0.0
 47
0.0
 48
0.0
 49
0.0
140
0.0
141
0.0
142
1.0
143
1.0
 70
1024
 72
1
 73
0
 74
0
  7

 75
0
147
1.0
148
0.0
149
0.0
100
AcDbLayout
  1
Model
 70
0
 71
0
 10
0.0
 20
0.0
 11
297.0
 21
210.0
 12
0.0
 22
0.0
 32
0.0
 14
0.0
 24
0.0
 34
0.0
 15
0.0
 25
0.0
 35
0.0
146
0.0
 13
0.0
 23
0.0
 33
0.0
 16
1.0
 26
0.0
 36
0.0
 17
0.0
 27
1.0
 37
0.0
 76
0
330
2F6
345
0
346
0
  0
LAYOUT
  5
661
102
{ACAD_REACTORS
330
1A
102
}
100
AcDbPlotSettings
  1

  2
none_device
  4
ISO_A4_(297.00_x_210.00_MM)
  6

 40
0.0
 41
0.0
 42
0.0
 43
0.0
 44
297.0
 45
210.0
 46
0.0
 47
0.0
 48
0.0
 49
0.0
140
0.0
141
0.0
142
1.0
143
1.0
 70
0
 72
1
 73
0
 74
0
  7

 75
0
147
1.0
148
0.0
149
0.0
100
AcDbLayout
  1
Layout1
 70
0
 71
1
 10
0.0
 20
0.0
 11
297.0
 21
210.0
 12
0.0
 22
0.0
 32
0.0
 14
0.0
 24
0.0
 34
0.0
 15
0.0
 25
0.0
 35
0.0
146
0.0
 13
0.0
 23
0.0
 33
0.0
 16
1.0
 26
0.0
 36
0.0
 17
0.0
 27
1.0
 37
0.0
 76
0
330
2F7
345
0
346
0
  0
ENDSEC
  0
EOF
