  0
SECTION
  2
HEADER
  9
$ACADVER
  1
AC1015
  9
$DWGCODEPAGE
  3
ANSI_1252
  9
$EXTMAX
 10
297.0
 20
210.0
 30
0.0
  9
$EXTMIN
 10
0.0
 20
0.0
 30
0.0
  9
$LIMMIN
 10
0.0
 20
0.0
  9
$LIMMAX
 10
297.0
 20
210.0
  9
$VIEWCTR
 10
148.5
 20
105.0
  9
$VIEWSIZE
 40
210.0
  9
$CLAYER
  8
0
  9
$LTSCALE
 40
16.335
  9
$CELTYPE
  6
BYLAYER
  9
$DIMSCALE
 40
1.0
  9
$DIMASZ
 40
3.0
  9
$DIMEXO
 40
1.85625
  9
$DIMDLI
 40
11.286
  9
$DIMEXE
 40
5.346
  9
$DIMCEN
 40
2.673
  9
$DIMLFAC
 40
1.0
  9
$DIMBLK
  1
_FILLED
  9
$DIMTXT
 40
3.0
  9
$DIMTOL
 70
1
  9
$DIMLIM
 70
0
  9
$DIMTFAC
 40
1.0
  9
$DIMTP
 40
0.01
  9
$DIMTM
 40
0.01
  9
$PDMODE
 70
3
  9
$PDSIZE
 40
3.0
  9
$HANDSEED
  5
298
  9
$TILEMODE
 70
1
  9
$MEASUREMENT
 70
1
  9
$INSUNITS
 70
4
  0
ENDSEC
  0
SECTION
  2
CLASSES
  0
CLASS
  1
ACDBDICTIONARYWDFLT
  2
AcDbDictionaryWithDefault
  3
AutoCAD 2000
 90
0
280
0
281
0
  0
CLASS
  1
ACDBPLACEHOLDER
  2
AcDbPlaceHolder
  3
AutoCAD 2000
 90
0
280
0
281
0
  0
CLASS
  1
LAYOUT
  2
AcDbLayout
  3
AutoCAD 2000
 90
0
280
0
281
0
  0
ENDSEC
  0
SECTION
  2
TABLES
  0
TABLE
  2
VPORT
  5
8
100
AcDbSymbolTable
 70
2
  0
VPORT
  5
1F4
100
AcDbSymbolTableRecord
100
AcDbViewportTableRecord
  2
*ACTIVE
 70
0
 10
0.0
 20
0.0
 11
1.0
 21
1.0
 12
148.5
 22
105.0
 13
0.0
 23
0.0
 14
1.0
 24
1.0
 15
0.0
 25
0.0
 16
0.0
 26
0.0
 36
1.0
 17
0.0
 27
0.0
 37
0.0
 40
210.0
 41
1.4142857143
 42
50.0
 43
0.0
 44
0.0
 50
0.0
 51
0.0
 71
0
 72
100
 73
1
 74
1
 75
0
 76
0
 77
0
 78
0
  0
ENDTAB
  0
TABLE
  2
LTYPE
  5
5
100
AcDbSymbolTable
 70
6
  0
LTYPE
  5
14
100
AcDbSymbolTableRecord
100
AcDbLinetypeTableRecord
  2
BYBLOCK
 70
0
  3

 72
65
 73
0
 40
0.0
  0
LTYPE
  5
15
100
AcDbSymbolTableRecord
100
AcDbLinetypeTableRecord
  2
BYLAYER
 70
0
  3

 72
65
 73
0
 40
0.0
  0
LTYPE
  5
16
100
AcDbSymbolTableRecord
100
AcDbLinetypeTableRecord
  2
CONTINUOUS
 70
64
  3
Solid line
 72
65
 73
0
 40
0.0
  0
LTYPE
  5
1F5
100
AcDbSymbolTableRecord
100
AcDbLinetypeTableRecord
  2
CENTER
 70
64
  3
____ _ ____ _ ____ _ ____ _ ____ _ ____ _ ____
 72
65
 73
4
 40
0.6
 49
0.375
 74
0
 49
-0.075
 74
0
 49
0.075
 74
0
 49
-0.075
 74
0
  0
LTYPE
  5
1F6
100
AcDbSymbolTableRecord
100
AcDbLinetypeTableRecord
  2
HIDDEN
 70
64
  3
- - - - - - - - - - - - - - - - - - - -
 72
65
 73
2
 40
0.2
 49
0.1
 74
0
 49
-0.1
 74
0
  0
LTYPE
  5
1F7
100
AcDbSymbolTableRecord
100
AcDbLinetypeTableRecord
  2
PHANTOM
 70
64
  3
_____ _ _ _____ _ _ _____ _ _ _____
 72
65
 73
6
 40
0.8
 49
0.45
 74
0
 49
-0.05
 74
0
 49
0.1
 74
0
 49
-0.05
 74
0
 49
0.1
 74
0
 49
-0.05
 74
0
  0
LTYPE
  5
1F8
100
AcDbSymbolTableRecord
100
AcDbLinetypeTableRecord
  2
DOT
 70
64
  3
. . . . . . . . . . . . . . . . . . . .
 72
65
 73
2
 40
0.2
 49
0.1
 74
0
 49
-0.1
 74
0
  0
LTYPE
  5
1F9
100
AcDbSymbolTableRecord
100
AcDbLinetypeTableRecord
  2
DASHED
 70
64
  3
- - - - - - - - - - - - - - - - - - - -
 72
65
 73
2
 40
0.2
 49
0.1
 74
0
 49
-0.1
 74
0
  0
ENDTAB
  0
TABLE
  2
LAYER
  5
2
100
AcDbSymbolTable
 70
36
  0
LAYER
  5
10
100
AcDbSymbolTableRecord
100
AcDbLayerTableRecord
  2
0
 70
0
 62
7
  6
CONTINUOUS
370
-3
390
F
  0
LAYER
  5
1FA
100
AcDbSymbolTableRecord
100
AcDbLayerTableRecord
  2
DEFAULT_1
 70
0
 62
7
  6
CENTER
370
-3
390
F
  0
LAYER
  5
1FB
100
AcDbSymbolTableRecord
100
AcDbLayerTableRecord
  2
DEFAULT_2
 70
0
 62
7
  6
HIDDEN
370
-3
390
F
  0
LAYER
  5
1FC
100
AcDbSymbolTableRecord
100
AcDbLayerTableRecord
  2
DEFAULT_3
 70
0
 62
7
  6
PHANTOM
370
-3
390
F
  0
LAYER
  5
1FD
100
AcDbSymbolTableRecord
100
AcDbLayerTableRecord
  2
ASSI
 70
0
 62
7
  6
CONTINUOUS
370
-3
390
F
  0
LAYER
  5
1FE
100
AcDbSymbolTableRecord
100
AcDbLayerTableRecord
  2
COLOR9
 70
0
 62
7
  6
CONTINUOUS
370
-3
390
F
  0
LAYER
  5
1FF
100
AcDbSymbolTableRecord
100
AcDbLayerTableRecord
  2
COORDINATE
 70
0
 62
7
  6
CONTINUOUS
370
-3
390
F
  0
LAYER
  5
200
100
AcDbSymbolTableRecord
100
AcDbLayerTableRecord
  2
COORD_ORIGINE
 70
0
 62
7
  6
CONTINUOUS
370
-3
390
F
  0
LAYER
  5
201
100
AcDbSymbolTableRecord
100
AcDbLayerTableRecord
  2
CURVE
 70
0
 62
7
  6
CONTINUOUS
370
-3
390
F
  0
LAYER
  5
202
100
AcDbSymbolTableRecord
100
AcDbLayerTableRecord
  2
DRAFT
 70
0
 62
7
  6
CONTINUOUS
370
-3
390
F
  0
LAYER
  5
203
100
AcDbSymbolTableRecord
100
AcDbLayerTableRecord
  2
IGS_SIMBOLO
 70
0
 62
7
  6
CONTINUOUS
370
-3
390
F
  0
LAYER
  5
204
100
AcDbSymbolTableRecord
100
AcDbLayerTableRecord
  2
PIANI
 70
0
 62
7
  6
CONTINUOUS
370
-3
390
F
  0
LAYER
  5
205
100
AcDbSymbolTableRecord
100
AcDbLayerTableRecord
  2
PIANI_ORIGINE
 70
0
 62
7
  6
CONTINUOUS
370
-3
390
F
  0
LAYER
  5
206
100
AcDbSymbolTableRecord
100
AcDbLayerTableRecord
  2
PIANI_RIFERIMENTO
 70
0
 62
7
  6
CONTINUOUS
370
-3
390
F
  0
LAYER
  5
207
100
AcDbSymbolTableRecord
100
AcDbLayerTableRecord
  2
RACCORDO
 70
0
 62
7
  6
CONTINUOUS
370
-3
390
F
  0
LAYER
  5
208
100
AcDbSymbolTableRecord
100
AcDbLayerTableRecord
  2
SMUSSO
 70
0
 62
7
  6
CONTINUOUS
370
-3
390
F
  0
LAYER
  5
209
100
AcDbSymbolTableRecord
100
AcDbLayerTableRecord
  2
SNAPLINE
 70
0
 62
7
  6
CONTINUOUS
370
-3
390
F
  0
LAYER
  5
20A
100
AcDbSymbolTableRecord
100
AcDbLayerTableRecord
  2
SUPERFICI
 70
0
 62
7
  6
CONTINUOUS
370
-3
390
F
  0
LAYER
  5
20B
100
AcDbSymbolTableRecord
100
AcDbLayerTableRecord
  2
TRASH
 70
0
 62
7
  6
CONTINUOUS
370
-3
390
F
  0
LAYER
  5
20C
100
AcDbSymbolTableRecord
100
AcDbLayerTableRecord
  2
XSEC_DATUMS
 70
0
 62
7
  6
CONTINUOUS
370
-3
390
F
  0
ENDTAB
  0
TABLE
  2
STYLE
  5
3
100
AcDbSymbolTable
 70
1
  0
STYLE
  5
11
100
AcDbSymbolTableRecord
100
AcDbTextStyleTableRecord
  2
STANDARD
 70
0
 40
0.0
 41
0.8
 50
0.0
 71
0
 42
0.2
  3
txt
  4

  0
STYLE
  5
20D
100
AcDbSymbolTableRecord
100
AcDbTextStyleTableRecord
  2
TEXTSTYLE_1
 70
0
 40
0.0
 41
0.8
 50
0.0
 71
0
 42
0.2
  3
gdt
  4

  0
ENDTAB
  0
TABLE
  2
VIEW
  5
6
100
AcDbSymbolTable
 70
0
  0
ENDTAB
  0
TABLE
  2
UCS
  5
7
100
AcDbSymbolTable
 70
0
  0
ENDTAB
  0
TABLE
  2
APPID
  5
9
100
AcDbSymbolTable
 70
1
  0
APPID
  5
20E
100
AcDbSymbolTableRecord
100
AcDbRegAppTableRecord
  2
ACAD
 70
0
  0
ENDTAB
  0
TABLE
  2
BLOCK_RECORD
  5
1
100
AcDbSymbolTable
 70
0
  0
BLOCK_RECORD
  5
20F
100
AcDbSymbolTableRecord
100
AcDbBlockTableRecord
  2
*Model_Space
  0
BLOCK_RECORD
  5
210
100
AcDbSymbolTableRecord
100
AcDbBlockTableRecord
  2
*Paper_Space
  0
ENDTAB
  0
TABLE
  2
DIMSTYLE
  5
A
100
AcDbSymbolTable
 70
1
100
AcDbDimStyleTable
 71
0
  0
DIMSTYLE
105
211
100
AcDbSymbolTableRecord
100
AcDbDimStyleTableRecord
  2
STANDARD
 70
0
  3

  4

 40
1.0
 41
3.0
 42
0.0625
 43
0.38
 44
0.18
 45
0.0
 46
0.0
 47
0.01
 48
0.01
140
3.0
141
0.09
142
0.0
143
25.4
144
1.0
145
0.0
146
1.0
147
0.09
 71
1.0
 72
0.0
 73
0
 74
0
 75
0
 76
0
 77
1
 78
8
170
0
171
2
172
0
173
0
174
0
175
0
176
0
177
0
178
0
270
2
271
2
272
2
273
2
274
2
275
0
280
0
281
0
282
0
283
1
284
8
285
0
286
0
287
3
288
0
340
11
  0
ENDTAB
  0
ENDSEC
  0
SECTION
  2
BLOCKS
  0
BLOCK
  5
20
100
AcDbEntity
  8
0
100
AcDbBlockBegin
  2
*Model_Space
 70
0
 10
0.0
 20
0.0
 30
0.0
  3
*Model_Space
  1

  0
ENDBLK
  5
21
100
AcDbEntity
  8
0
100
AcDbBlockEnd
  0
BLOCK
  5
1C
100
AcDbEntity
  8
0
100
AcDbBlockBegin
  2
*Paper_Space
 70
0
 10
0.0
 20
0.0
 30
0.0
  3
*Paper_Space
  1

  0
ENDBLK
  5
1D
100
AcDbEntity
  8
0
100
AcDbBlockEnd
  0
ENDSEC
  0
SECTION
  2
ENTITIES
  0
LWPOLYLINE
  5
212
100
AcDbEntity
  8
RACCORDO
100
AcDbPolyline
 62
7
  6
CONTINUOUS
 90
14
 70
0
 10
-16.7144611995
 20
26.2852285215
 10
-16.7856648374
 20
26.2386430062
 10
-16.8497267435
 20
26.1886549708
 10
-16.9105703139
 20
26.1331498977
 10
-16.9679858746
 20
26.0724937596
 10
-17.0213923407
 20
26.0074644561
 10
-17.0707623665
 20
25.9382963099
 10
-17.1159315809
 20
25.865223813
 10
-17.1562446591
 20
25.7893619231
 10
-17.1916077884
 20
25.7110005232
 10
-17.2218438052
 20
25.6303613912
 10
-17.2464805174
 20
25.5485965713
 10
-17.2653288872
 20
25.4662028409
 10
-17.2790447801
 20
25.3767931924
  0
LINE
  5
213
100
AcDbEntity
  8
RACCORDO
100
AcDbLine
 62
7
  6
CONTINUOUS
 10
-16.7145853825
 20
26.2851722163
 11
-14.9399217818
 21
27.3371738124
  0
LINE
  5
214
100
AcDbEntity
  8
RACCORDO
100
AcDbLine
 62
253
  6
CONTINUOUS
 10
-16.4808627046
 20
26.2766735136
 11
-14.7048555746
 21
27.3294715394
  0
LWPOLYLINE
  5
215
100
AcDbEntity
  8
RACCORDO
100
AcDbPolyline
 62
7
  6
CONTINUOUS
 90
10
 70
0
 10
-17.2790399279
 20
25.376918282
 10
-17.402419758
 20
24.2428675578
 10
-17.5201045491
 20
23.0460428113
 10
-17.6243802831
 20
21.8540460391
 10
-17.7152179326
 20
20.6671673584
 10
-17.7925986572
 20
19.485646481
 10
-17.8565060203
 20
18.3097047289
 10
-17.9069237463
 20
17.1395814336
 10
-17.943839499
 20
15.9755607291
 10
-17.9662022969
 20
14.888327842
  0
LWPOLYLINE
  5
216
100
AcDbEntity
  8
RACCORDO
100
AcDbPolyline
 62
7
  6
CONTINUOUS
 90
9
 70
0
 10
-17.2032420146
 20
-11.6108462056
 10
-17.1735728139
 20
-11.6668322598
 10
-17.1400102115
 20
-11.7191084367
 10
-17.1028347609
 20
-11.7675016108
 10
-17.0620525309
 20
-11.8121685654
 10
-17.0179986027
 20
-11.852814637
 10
-16.97100126
 20
-11.889215405
 10
-16.9209696094
 20
-11.9214351401
 10
-16.8819197643
 20
-11.9425593522
  0
LWPOLYLINE
  5
217
100
AcDbEntity
  8
RACCORDO
100
AcDbPolyline
 62
7
  6
CONTINUOUS
 90
10
 70
0
 10
-17.9662004526
 20
-1.5649446562
 10
-17.9436750907
 20
-2.6351700295
 10
-17.9066679691
 20
-3.7615776099
 10
-17.8561418202
 20
-4.8802878106
 10
-17.7921047199
 20
-5.9910275395
 10
-17.714568647
 20
-7.0935732574
 10
-17.6235455188
 20
-8.1877197552
 10
-17.5190498531
 20
-9.2732444512
 10
-17.401106426
 20
-10.3498837388
 10
-17.2781359801
 20
-11.3525443967
  0
LWPOLYLINE
  5
218
100
AcDbEntity
  8
RACCORDO
100
AcDbPolyline
 62
7
  6
CONTINUOUS
 90
10
 70
0
 10
-17.9662023099
 20
14.8883279641
 10
-17.9903879931
 20
13.097009275
 10
-18.0092602364
 20
11.2442883594
 10
-18.0218387297
 20
9.3947341605
 10
-18.0281230863
 20
7.548384588
 10
-18.028113199
 20
5.7052711319
 10
-18.0218090126
 20
3.8654228738
 10
-18.0092105276
 20
2.0288713167
 10
-17.9903180239
 20
0.1956540966
 10
-17.9662004759
 20
-1.564944806
  0
LWPOLYLINE
  5
219
100
AcDbEntity
  8
RACCORDO
100
AcDbPolyline
 62
7
  6
CONTINUOUS
 90
12
 70
0
 10
13.9218805171
 20
-27.3444649126
 10
13.9378421762
 20
-27.3522109594
 10
13.9924549732
 20
-27.3750725794
 10
14.0493486382
 20
-27.3933730602
 10
14.1080444192
 20
-27.4068608612
 10
14.1682422899
 20
-27.4153824472
 10
14.2298747575
 20
-27.4188117582
 10
14.2925880837
 20
-27.4169984829
 10
14.3559543828
 20
-27.4098328503
 10
14.4198926559
 20
-27.3971700032
 10
14.4841769816
 20
-27.3788574939
 10
14.5415648911
 20
-27.357673565
  0
LWPOLYLINE
  5
21A
100
AcDbEntity
  8
RACCORDO
100
AcDbPolyline
 62
7
  6
CONTINUOUS
 90
12
 70
0
 10
-1.9527087737
 20
-19.4071644716
 10
-1.9367763498
 20
-19.4148984182
 10
-1.882147042
 20
-19.4377776592
 10
-1.8252113515
 20
-19.4560999993
 10
-1.7664292817
 20
-19.4696052649
 10
-1.7061150871
 20
-19.4781264026
 10
-1.6443873583
 20
-19.4815408273
 10
-1.5816075332
 20
-19.4797013972
 10
-1.5181964093
 20
-19.4724983772
 10
-1.4542619795
 20
-19.4597948762
 10
-1.3900519102
 20
-19.4414758915
 10
-1.3722336657
 20
-19.4348965622
  0
LINE
  5
21B
100
AcDbEntity
  8
RACCORDO
100
AcDbLine
 62
7
  6
CONTINUOUS
 10
-1.007220388
 20
-19.8799187765
 11
-1.0075144291
 21
-19.8797719194
  0
LINE
  5
21C
100
AcDbEntity
  8
RACCORDO
100
AcDbLine
 62
7
  6
CONTINUOUS
 10
-16.881838751
 20
-11.9426096649
 11
-16.882061447
 21
-11.9424984105
  0
LINE
  5
21D
100
AcDbEntity
  8
ASSI
100
AcDbLine
 62
7
  6
CONTINUOUS
 10
-1.0075325038
 20
-19.8797628821
 11
13.9225714263
 21
-27.3448148471
  0
LINE
  5
21E
100
AcDbEntity
  8
ASSI
100
AcDbLine
 62
7
  6
CONTINUOUS
 10
-1.9519761357
 20
-19.4075410661
 11
-16.8820794171
 21
-11.9424894254
  0
LINE
  5
21F
100
AcDbEntity
  8
RACCORDO
100
AcDbLine
 62
253
  6
CONTINUOUS
 10
-1.2573024657
 20
-19.4651856201
 11
13.6683669923
 21
-26.9280203491
  0
LINE
  5
220
100
AcDbEntity
  8
RACCORDO
100
AcDbLine
 62
253
  6
CONTINUOUS
 10
-2.2061802454
 20
-18.9907467303
 11
-17.1318497033
 21
-11.5279120013
  0
LINE
  5
221
100
AcDbEntity
  8
RACCORDO
100
AcDbLine
 62
7
  6
CONTINUOUS
 10
-1.9526289113
 20
-19.407213941
 11
-1.9519951794
 21
-19.4075315443
  0
LINE
  5
222
100
AcDbEntity
  8
RACCORDO
100
AcDbLine
 62
7
  6
CONTINUOUS
 10
13.9219590874
 20
-27.3445080313
 11
13.9225525689
 21
-27.3448054184
  0
LWPOLYLINE
  5
223
100
AcDbEntity
  8
RACCORDO
100
AcDbPolyline
 62
7
  6
CONTINUOUS
 90
5
 70
0
 10
-17.2780819917
 20
-11.3528451092
 10
-17.2664941639
 20
-11.4217931121
 10
-17.2498903508
 20
-11.488435018
 10
-17.2287183917
 20
-11.5514437258
 10
-17.2032420146
 20
-11.6108462056
  0
LINE
  5
224
100
AcDbEntity
  8
RACCORDO
100
AcDbLine
 62
7
  6
CONTINUOUS
 10
-17.2781359801
 20
-11.3525443967
 11
-17.2780966484
 21
-11.3528470216
  0
LWPOLYLINE
  5
225
100
AcDbEntity
  8
RACCORDO
100
AcDbPolyline
 62
7
  6
CONTINUOUS
 90
14
 70
0
 10
-0.8398994115
 20
18.3479680477
 10
-0.9104665705
 20
18.3018305683
 10
-0.9743580959
 20
18.2520748388
 10
-1.0351003504
 20
18.1967823727
 10
-1.0924704959
 20
18.1363169907
 10
-1.1458846281
 20
18.0714470143
 10
-1.1953116029
 20
18.002375573
 10
-1.2405851105
 20
17.9293457325
 10
-1.2810224826
 20
17.8534608512
 10
-1.316531519
 20
17.7750026194
 10
-1.3469194422
 20
17.6942035458
 10
-1.3716895419
 20
17.6122378571
 10
-1.3906558789
 20
17.5296050818
 10
-1.4044933631
 20
17.4395274699
  0
LINE
  5
226
100
AcDbEntity
  8
RACCORDO
100
AcDbLine
 62
7
  6
CONTINUOUS
 10
-0.8400381447
 20
18.3478985976
 11
0.9346254559
 21
19.3999001936
  0
LINE
  5
227
100
AcDbEntity
  8
RACCORDO
100
AcDbLine
 62
253
  6
CONTINUOUS
 10
-0.606315467
 20
18.3393998948
 11
1.1696916631
 21
19.3921979206
  0
LINE
  5
228
100
AcDbEntity
  8
RACCORDO
100
AcDbLine
 62
253
  6
CONTINUOUS
 10
0.2953790386
 20
19.8293542329
 11
-1.5437301821
 21
18.8081072523
  0
LINE
  5
229
100
AcDbEntity
  8
RACCORDO
100
AcDbLine
 62
253
  6
CONTINUOUS
 10
0.3562553709
 20
19.057048595
 11
-1.1751598657
 21
18.2066623489
  0
LINE
  5
22A
100
AcDbEntity
  8
RACCORDO
100
AcDbLine
 62
253
  6
CONTINUOUS
 10
-1.9452018304
 20
-9.679508007
 11
12.9561645307
 21
-17.1301911876
  0
LINE
  5
22B
100
AcDbEntity
  8
RACCORDO
100
AcDbLine
 62
253
  6
CONTINUOUS
 10
-2.918382707
 20
-9.1929175688
 11
-17.8197490681
 21
-1.7422343882
  0
LWPOLYLINE
  5
22C
100
AcDbEntity
  8
RACCORDO
100
AcDbPolyline
 62
7
  6
CONTINUOUS
 90
9
 70
0
 10
-1.3290023247
 20
-19.5474771574
 10
-1.2993708387
 20
-19.6035114137
 10
-1.2658213572
 20
-19.6558749122
 10
-1.2286243293
 20
-19.7043802487
 10
-1.1877991974
 20
-19.7491479793
 10
-1.1436872598
 20
-19.7898835949
 10
-1.0966191349
 20
-19.8263667407
 10
-1.0465294594
 20
-19.8586492056
 10
-1.007301636
 20
-19.8798740495
  0
LWPOLYLINE
  5
22D
100
AcDbEntity
  8
RACCORDO
100
AcDbPolyline
 62
7
  6
CONTINUOUS
 90
5
 70
0
 10
-1.4035440574
 20
-19.2900776246
 10
-1.3920454903
 20
-19.3585724229
 10
-1.3755184595
 20
-19.4250914509
 10
-1.3544230312
 20
-19.4880613152
 10
-1.3290023247
 20
-19.5474771574
  0
LWPOLYLINE
  5
22E
100
AcDbEntity
  8
RACCORDO
100
AcDbPolyline
 62
7
  6
CONTINUOUS
 90
10
 70
0
 10
-2.0916532254
 20
-9.5022182695
 10
-2.0691280854
 20
-10.5724360189
 10
-2.0321212114
 20
-11.698838367
 10
-1.9815953562
 20
-12.8175458573
 10
-1.9175585374
 20
-13.928284657
 10
-1.8400226664
 20
-15.0308304993
 10
-1.7489996714
 20
-16.1249781808
 10
-1.6445039089
 20
-17.2105057125
 10
-1.5265600034
 20
-18.2871500916
 10
-1.4035887344
 20
-19.2898179919
  0
LWPOLYLINE
  5
22F
100
AcDbEntity
  8
RACCORDO
100
AcDbPolyline
 62
7
  6
CONTINUOUS
 90
10
 70
0
 10
-1.4044927027
 20
17.4396446401
 10
-1.5278717083
 20
16.3056020231
 10
-1.6455560225
 20
15.1087828473
 10
-1.7498316608
 20
13.9167889996
 10
-1.8406694428
 20
12.7299113643
 10
-1.9180503685
 20
11.5483904049
 10
-1.9819580124
 20
10.37244744
 10
-2.0323760307
 20
9.2023211365
 10
-2.06929203
 20
8.0382949537
 10
-2.0916550489
 20
6.951054238
  0
LINE
  5
230
100
AcDbEntity
  8
RACCORDO
100
AcDbLine
 62
253
  6
CONTINUOUS
 10
16.1699262762
 20
11.8920806141
 11
14.3308170555
 21
10.8708336335
  0
LINE
  5
231
100
AcDbEntity
  8
RACCORDO
100
AcDbLine
 62
7
  6
CONTINUOUS
 10
-1.4035887344
 20
-19.2898179919
 11
-1.40355484
 21
-19.2900790307
  0
LWPOLYLINE
  5
232
100
AcDbEntity
  8
RACCORDO
100
AcDbPolyline
 62
7
  6
CONTINUOUS
 90
10
 70
0
 10
-2.0916550725
 20
6.9510543453
 10
-2.1158407483
 20
5.1597363131
 10
-2.1347129888
 20
3.3070158494
 10
-2.1472914846
 20
1.4574618907
 10
-2.1535758462
 20
-0.3888875926
 10
-2.1535659638
 20
-2.2320010513
 10
-2.1472617825
 20
-4.0718494037
 10
-2.1346632999
 20
-5.9084012039
 10
-2.1157707934
 20
-7.7416188731
 10
-2.0916532381
 20
-9.5022184245
  0
LINE
  5
233
100
AcDbEntity
  8
RACCORDO
100
AcDbLine
 62
253
  6
CONTINUOUS
 10
16.5231627576
 20
11.2821209185
 11
14.699387372
 21
10.2693887301
  0
LINE
  5
234
100
AcDbEntity
  8
DRAFT
100
AcDbLine
 62
7
  6
CONTINUOUS
 10
14.2466543225
 20
-7.849729395
 11
14.265102373
 21
-7.8589534202
  0
LINE
  5
235
100
AcDbEntity
  8
RACCORDO
100
AcDbLine
 62
253
  6
CONTINUOUS
 10
14.2470719406
 20
-7.6224145752
 11
14.4926260018
 21
-7.7451916058
  0
LINE
  5
236
100
AcDbEntity
  8
RACCORDO
100
AcDbLine
 62
7
  6
CONTINUOUS
 10
14.2472107086
 20
-7.5468813837
 11
14.6267900805
 21
-7.7366710696
  0
LINE
  5
237
100
AcDbEntity
  8
DRAFT
100
AcDbLine
 62
7
  6
CONTINUOUS
 10
16.4902026587
 20
-10.8914584254
 11
17.5553616826
 21
-11.5383277331
  0
LINE
  5
238
100
AcDbEntity
  8
RACCORDO
100
AcDbLine
 62
253
  6
CONTINUOUS
 10
14.2609727461
 20
-4.6827994384
 11
14.3573750031
 21
-4.7310005668
  0
LINE
  5
239
100
AcDbEntity
  8
RACCORDO
100
AcDbLine
 62
7
  6
CONTINUOUS
 10
14.2618483326
 20
-4.5633373467
 11
14.5748114434
 21
-4.719818902
  0
LINE
  5
23A
100
AcDbEntity
  8
RACCORDO
100
AcDbLine
 62
253
  6
CONTINUOUS
 10
-1.9452018304
 20
6.7749746649
 11
12.9561645307
 21
-0.6757085157
  0
LINE
  5
23B
100
AcDbEntity
  8
RACCORDO
100
AcDbLine
 62
253
  6
CONTINUOUS
 10
-2.918382707
 20
7.2615651031
 11
-17.8197490681
 21
14.7122482837
  0
LINE
  5
23C
100
AcDbEntity
  8
DRAFT
100
AcDbLine
 62
7
  6
CONTINUOUS
 10
17.5553616826
 20
-2.5091320429
 11
14.2636889317
 21
-4.3122121595
  0
LINE
  5
23D
100
AcDbEntity
  8
RACCORDO
100
AcDbLine
 62
7
  6
CONTINUOUS
 10
14.2602788454
 20
-4.7774729239
 11
14.3573750031
 21
-4.7310005668
  0
LINE
  5
23E
100
AcDbEntity
  8
RACCORDO
100
AcDbLine
 62
7
  6
CONTINUOUS
 10
14.265102373
 20
-6.0403000723
 11
14.4926260018
 21
-5.9265382579
  0
LINE
  5
23F
100
AcDbEntity
  8
RACCORDO
100
AcDbLine
 62
7
  6
CONTINUOUS
 10
14.7047580362
 20
-8.4693420271
 11
14.7047580362
 21
-7.8989332098
  0
LINE
  5
240
100
AcDbEntity
  8
RACCORDO
100
AcDbLine
 62
7
  6
CONTINUOUS
 10
14.7047580362
 20
-5.5606646196
 11
14.7047580362
 21
-4.9902558022
  0
LINE
  5
241
100
AcDbEntity
  8
RACCORDO
100
AcDbLine
 62
7
  6
CONTINUOUS
 10
14.2461777288
 20
-9.1339561082
 11
14.3573750031
 21
-9.0759802956
  0
LINE
  5
242
100
AcDbEntity
  8
RACCORDO
100
AcDbLine
 62
7
  6
CONTINUOUS
 10
14.265102373
 20
-7.8589534202
 11
14.4926260018
 21
-7.7451916058
  0
LINE
  5
243
100
AcDbEntity
  8
RACCORDO
100
AcDbLine
 62
253
  6
CONTINUOUS
 10
-1.2573024657
 20
17.2728547395
 11
13.6683669923
 21
9.8100200105
  0
LINE
  5
244
100
AcDbEntity
  8
RACCORDO
100
AcDbLine
 62
253
  6
CONTINUOUS
 10
-2.2061802454
 20
17.7472936294
 11
-17.1318497033
 21
25.2101283583
  0
LINE
  5
245
100
AcDbEntity
  8
DRAFT
100
AcDbLine
 62
7
  6
CONTINUOUS
 10
16.5231627576
 20
10.5778095935
 11
17.5553616826
 21
-1.8275774653
  0
LINE
  5
246
100
AcDbEntity
  8
RACCORDO
100
AcDbLine
 62
7
  6
CONTINUOUS
 10
16.5231627576
 20
11.2821209185
 11
16.5231627576
 21
10.5778095935
  0
LINE
  5
247
100
AcDbEntity
  8
RACCORDO
100
AcDbLine
 62
7
  6
CONTINUOUS
 10
16.5231627576
 20
-25.6220522847
 11
16.5231627576
 21
-26.3263636096
  0
LINE
  5
248
100
AcDbEntity
  8
DRAFT
100
AcDbLine
 62
7
  6
CONTINUOUS
 10
16.4902026587
 20
-10.8914584254
 11
14.2559044712
 21
-11.8252132241
  0
LINE
  5
249
100
AcDbEntity
  8
DRAFT
100
AcDbLine
 62
7
  6
CONTINUOUS
 10
14.2636889317
 20
-12.9139790423
 11
17.5553616826
 21
-11.5383277331
  0
LINE
  5
24A
100
AcDbEntity
  8
RACCORDO
100
AcDbLine
 62
253
  6
CONTINUOUS
 10
-0.606315467
 20
18.3393998948
 11
14.3308170555
 21
10.8708336335
  0
LINE
  5
24B
100
AcDbEntity
  8
RACCORDO
100
AcDbLine
 62
253
  6
CONTINUOUS
 10
-1.5437301821
 20
18.8081072523
 11
-16.4808627046
 21
26.2766735136
  0
LINE
  5
24C
100
AcDbEntity
  8
DRAFT
100
AcDbLine
 62
7
  6
CONTINUOUS
 10
17.5553616826
 20
-12.2198823107
 11
17.5553616826
 21
-11.5383277331
  0
LINE
  5
24D
100
AcDbEntity
  8
DRAFT
100
AcDbLine
 62
7
  6
CONTINUOUS
 10
17.5553616826
 20
-2.5091320429
 11
17.5553616826
 21
-1.8275774653
  0
LINE
  5
24E
100
AcDbEntity
  8
DRAFT
100
AcDbLine
 62
7
  6
CONTINUOUS
 10
17.5553616826
 20
-12.2198823107
 11
16.5231627576
 21
-25.6220522847
  0
LINE
  5
24F
100
AcDbEntity
  8
RACCORDO
100
AcDbLine
 62
7
  6
CONTINUOUS
 10
1.1696916631
 20
19.3921979206
 11
16.1699262762
 21
11.8920806141
  0
LINE
  5
250
100
AcDbEntity
  8
RACCORDO
100
AcDbLine
 62
7
  6
CONTINUOUS
 10
0.2953790386
 20
19.8293542329
 11
-14.7048555746
 21
27.3294715394
  0
LINE
  5
251
100
AcDbEntity
  8
RACCORDO
100
AcDbLine
 62
253
  6
CONTINUOUS
 10
14.699387372
 20
-27.0748308389
 11
16.5231627576
 21
-26.3263636096
  0
LINE
  5
252
100
AcDbEntity
  8
RACCORDO
100
AcDbLine
 62
7
  6
CONTINUOUS
 10
14.5418910028
 20
-27.3575577787
 11
16.3803990374
 21
-26.6030443526
  0
ARC
  5
253
100
AcDbEntity
  8
RACCORDO
100
AcDbCircle
 62
253
  6
CONTINUOUS
 10
523.2524968893
 20
6.48210912
 40
541.1348649258
100
AcDbArc
 50
179.1285528318
 51
180.8708335905
  0
ARC
  5
254
100
AcDbEntity
  8
RACCORDO
100
AcDbCircle
 62
253
  6
CONTINUOUS
 10
539.1270431304
 20
-1.4551644991
 40
541.1348639294
100
AcDbArc
 50
179.1285528302
 51
180.8708335921
  0
ARC
  5
255
100
AcDbEntity
  8
RACCORDO
100
AcDbCircle
 62
253
  6
CONTINUOUS
 10
539.7986358933
 20
-8.948655977
 40
526.907421936
100
AcDbArc
 50
179.1003648243
 51
179.9149017825
  0
ARC
  5
256
100
AcDbEntity
  8
RACCORDO
100
AcDbCircle
 62
253
  6
CONTINUOUS
 10
540.3747550674
 20
-8.9560059816
 40
526.7826754396
100
AcDbArc
 50
179.1005833355
 51
179.8220408109
  0
ARC
  5
257
100
AcDbEntity
  8
RACCORDO
100
AcDbCircle
 62
253
  6
CONTINUOUS
 10
516.9104970137
 20
-0.9684458983
 40
519.8939077347
100
AcDbArc
 50
179.0929601618
 51
180.9064294435
  0
ARC
  5
258
100
AcDbEntity
  8
RACCORDO
100
AcDbCircle
 62
253
  6
CONTINUOUS
 10
517.0825974164
 20
-0.9715332434
 40
519.3651254691
100
AcDbArc
 50
179.0929446432
 51
180.906444963
  0
ARC
  5
259
100
AcDbEntity
  8
RACCORDO
100
AcDbCircle
 62
253
  6
CONTINUOUS
 10
529.2015205155
 20
-8.9408536943
 40
516.3103067192
100
AcDbArc
 50
179.9140209984
 51
180.9088219732
  0
ARC
  5
25A
100
AcDbEntity
  8
RACCORDO
100
AcDbCircle
 62
253
  6
CONTINUOUS
 10
529.7850849301
 20
-8.9395921232
 40
516.1930056639
100
AcDbArc
 50
179.8202118714
 51
180.9085982909
  0
ARC
  5
25B
100
AcDbEntity
  8
0
100
AcDbCircle
 62
7
  6
CONTINUOUS
 10
12.7924736676
 20
-6.7184192525
 40
1.8626469047
100
AcDbArc
 50
321.3451640805
 51
322.242625672
  0
ARC
  5
25C
100
AcDbEntity
  8
0
100
AcDbCircle
 62
7
  6
CONTINUOUS
 10
14.1336420922
 20
-6.4919714313
 40
0.4704134586
100
AcDbArc
 50
73.7722072793
 51
75.3494409324
  0
SPLINE
  5
25D
100
AcDbEntity
  8
RACCORDO
100
AcDbSpline
 62
253
  6
CONTINUOUS
 70
0
 71
3
 72
10
 73
6
 74
4
 42
0.0000001
 43
0.0000001
 44
0.0000000001
 12
-0.0027054777
 22
-0.2434013956
 32
0.0
 13
0.213900539
 23
-0.1068620552
 33
0.0
 40
0.0
 40
0.0
 40
0.0
 40
0.0
 40
0.1746352254
 40
0.5387868825
 40
1.0
 40
1.0
 40
1.0
 40
1.0
 10
-17.9657300551
 20
14.8883225929
 30
0.0
 10
-17.9658875457
 20
14.8741537737
 30
0.0
 10
-17.9593905873
 20
14.8302475011
 30
0.0
 10
-17.9088045321
 20
14.7642068487
 30
0.0
 10
-17.8526336305
 20
14.7286770184
 30
0.0
 10
-17.8197490524
 20
14.7122482912
 30
0.0
 11
-17.9657300551
 21
14.8883225929
 31
0.0
 11
-17.9594950582
 21
14.846565931
 31
0.0
 11
-17.9109077208
 21
14.774311035
 31
0.0
 11
-17.8197490524
 21
14.7122482912
 31
0.0
  0
SPLINE
  5
25E
100
AcDbEntity
  8
RACCORDO
100
AcDbSpline
 62
253
  6
CONTINUOUS
 70
0
 71
3
 72
11
 73
7
 74
5
 42
0.0000001
 43
0.0000001
 44
0.0000000001
 12
-0.4520371527
 22
0.225022055
 32
0.0
 13
-0.06483241
 23
0.4979746577
 33
0.0
 40
0.0
 40
0.0
 40
0.0
 40
0.0
 40
0.0673122146
 40
0.3477869065
 40
0.6549488811
 40
1.0
 40
1.0
 40
1.0
 40
1.0
 10
-16.8820390141
 20
-11.9424533462
 30
0.0
 10
-16.8921815547
 20
-11.9374044352
 30
0.0
 10
-16.9433662315
 20
-11.9089265721
 30
0.0
 10
-17.0253704148
 20
-11.8325253456
 30
0.0
 10
-17.0996251628
 20
-11.6926702591
 30
0.0
 10
-17.1243928714
 20
-11.5851875722
 30
0.0
 10
-17.1318497033
 20
-11.5279120013
 30
0.0
 11
-16.8820390141
 21
-11.9424533462
 31
0.0
 11
-16.911708407
 21
-11.9259280036
 31
0.0
 11
-17.015925476
 21
-11.8311811559
 31
0.0
 11
-17.0905852332
 21
-11.6962037177
 31
0.0
 11
-17.1318497033
 21
-11.5279120013
 31
0.0
  0
SPLINE
  5
25F
100
AcDbEntity
  8
RACCORDO
100
AcDbSpline
 62
253
  6
CONTINUOUS
 70
0
 71
3
 72
10
 73
6
 74
4
 42
0.0000001
 43
0.0000001
 44
0.0000000001
 12
0.0037927095
 22
-0.2436631692
 32
0.0
 13
0.2143183493
 23
-0.1072448602
 33
0.0
 40
0.0
 40
0.0
 40
0.0
 40
0.0
 40
0.1662090682
 40
0.5377698008
 40
1.0
 40
1.0
 40
1.0
 40
1.0
 10
-17.9657861126
 20
-1.5649383562
 30
0.0
 10
-17.965575985
 20
-1.5784380323
 30
0.0
 10
-17.9587756131
 20
-1.6220261727
 30
0.0
 10
-17.9095854425
 20
-1.6893080011
 30
0.0
 10
-17.8527705388
 20
-1.7257104504
 30
0.0
 10
-17.8197490678
 20
-1.7422343881
 30
0.0
 11
-17.9657861126
 21
-1.5649383562
 31
0.0
 11
-17.9594950748
 21
-1.6046742376
 31
0.0
 11
-17.9109077381
 21
-1.6792961688
 31
0.0
 11
-17.8197490678
 21
-1.7422343881
 31
0.0
  0
SPLINE
  5
260
100
AcDbEntity
  8
RACCORDO
100
AcDbSpline
 62
253
  6
CONTINUOUS
 70
0
 71
3
 72
13
 73
9
 74
7
 42
0.0000001
 43
0.0000001
 44
0.0000000001
 12
0.1472413939
 22
1.280325297
 32
0.0
 13
1.1132408483
 23
0.6493132587
 33
0.0
 40
0.0
 40
0.0
 40
0.0
 40
0.0
 40
0.1662781842
 40
0.3399156795
 40
0.5154595891
 40
0.6872859805
 40
0.8501855781
 40
1.0
 40
1.0
 40
1.0
 40
1.0
 10
-17.1318497033
 20
25.2101283583
 30
0.0
 10
-17.1236886928
 20
25.2810917468
 30
0.0
 10
-17.0948066195
 20
25.4249283523
 30
0.0
 10
-17.0202941708
 20
25.634155875
 30
0.0
 10
-16.9169456059
 20
25.8334739728
 30
0.0
 10
-16.7898290052
 20
26.0129850165
 30
0.0
 10
-16.6452595636
 20
26.1638222932
 30
0.0
 10
-16.5364558827
 20
26.2442480168
 30
0.0
 10
-16.4808627046
 20
26.2766735136
 30
0.0
 11
-17.1318497033
 21
25.2101283583
 31
0.0
 11
-17.0905851738
 21
25.4204112155
 31
0.0
 11
-17.0159237639
 21
25.6313665759
 31
0.0
 11
-16.9117057716
 21
25.832166835
 31
0.0
 11
-16.7832613342
 21
26.0125534522
 31
0.0
 11
-16.6371490554
 21
26.1633037417
 31
0.0
 11
-16.4808627046
 21
26.2766735136
 31
0.0
  0
SPLINE
  5
261
100
AcDbEntity
  8
RACCORDO
100
AcDbSpline
 62
253
  6
CONTINUOUS
 70
0
 71
3
 72
10
 73
6
 74
4
 42
0.0000001
 43
0.0000001
 44
0.0000000001
 12
0.1591875879
 22
10.5229457096
 32
0.0
 13
1.1906145314
 23
10.456584726
 33
0.0
 40
0.0
 40
0.0
 40
0.0
 40
0.0
 40
0.3279357548
 40
0.6613609489
 40
1.0
 40
1.0
 40
1.0
 40
1.0
 10
-17.8197490681
 20
14.7122482837
 30
0.0
 10
-17.8023479675
 20
15.862531665
 30
0.0
 10
-17.7270114074
 20
18.1819273056
 30
0.0
 10
-17.4966733573
 20
21.6829696246
 30
0.0
 10
-17.266245895
 20
24.0297923819
 30
0.0
 10
-17.1318497033
 20
25.2101283583
 30
0.0
 11
-17.8197490681
 21
14.7122482837
 31
0.0
 11
-17.7087049417
 21
18.1617063721
 31
0.0
 11
-17.4792601457
 21
21.6632136192
 31
0.0
 11
-17.1318497033
 21
25.2101283583
 31
0.0
  0
SPLINE
  5
262
100
AcDbEntity
  8
RACCORDO
100
AcDbSpline
 62
253
  6
CONTINUOUS
 70
0
 71
3
 72
10
 73
6
 74
4
 42
0.0000001
 43
0.0000001
 44
0.0000000001
 12
-1.2564193304
 22
9.7337049615
 32
0.0
 13
-0.1508147493
 23
9.8132999914
 33
0.0
 40
0.0
 40
0.0
 40
0.0
 40
0.0
 40
0.3266719668
 40
0.6600587593
 40
1.0
 40
1.0
 40
1.0
 40
1.0
 10
-17.1318497033
 20
-11.5279120013
 30
0.0
 10
-17.2686620279
 20
-10.4680024866
 30
0.0
 10
-17.5018498436
 20
-8.320588472
 30
0.0
 10
-17.7300827488
 20
-5.0563793092
 30
0.0
 10
-17.8026596838
 20
-2.8542161797
 30
0.0
 10
-17.8197490681
 20
-1.7422343882
 30
0.0
 11
-17.1318497033
 21
-11.5279120013
 31
0.0
 11
-17.4792601458
 21
-8.3406815251
 31
0.0
 11
-17.708704941
 21
-5.0767252288
 31
0.0
 11
-17.8197490681
 21
-1.7422343882
 31
0.0
  0
SPLINE
  5
263
100
AcDbEntity
  8
RACCORDO
100
AcDbSpline
 62
253
  6
CONTINUOUS
 70
0
 71
3
 72
10
 73
6
 74
4
 42
0.0000001
 43
0.0000001
 44
0.0000000001
 12
0.0295350683
 22
-0.2364555629
 32
0.0
 13
0.2106770343
 23
-0.1059206232
 33
0.0
 40
0.0
 40
0.0
 40
0.0
 40
0.0
 40
0.1152635029
 40
0.5223458332
 40
1.0
 40
1.0
 40
1.0
 40
1.0
 10
-17.2779237974
 20
-11.3528254312
 30
0.0
 10
-17.2767890256
 20
-11.3619103301
 30
0.0
 10
-17.2684883914
 20
-11.4025980717
 30
0.0
 10
-17.2243378788
 20
-11.4714624904
 30
0.0
 10
-17.1653932755
 20
-11.511047515
 30
0.0
 10
-17.1318496877
 20
-11.5279119906
 30
0.0
 11
-17.2779237974
 21
-11.3528254312
 31
0.0
 11
-17.2724069362
 21
-11.3796373897
 31
0.0
 11
-17.2232442707
 21
-11.4620843704
 31
0.0
 11
-17.1318496877
 21
-11.5279119906
 31
0.0
  0
SPLINE
  5
264
100
AcDbEntity
  8
RACCORDO
100
AcDbSpline
 62
253
  6
CONTINUOUS
 70
0
 71
3
 72
12
 73
8
 74
6
 42
0.0000001
 43
0.0000001
 44
0.0000000001
 12
-0.0374173727
 22
0.7304973285
 32
0.0
 13
-0.6492235038
 23
0.3369499204
 33
0.0
 40
0.0
 40
0.0
 40
0.0
 40
0.0
 40
0.1928248883
 40
0.4024743955
 40
0.6157948216
 40
0.8188882926
 40
1.0
 40
1.0
 40
1.0
 40
1.0
 10
-1.1751598657
 20
18.2066623489
 30
0.0
 10
-1.1775648659
 20
18.2536150375
 30
0.0
 10
-1.1953849967
 20
18.3510834116
 30
0.0
 10
-1.2504335643
 20
18.4915432351
 30
0.0
 10
-1.3304555164
 20
18.622521136
 30
0.0
 10
-1.4279531851
 20
18.7318015264
 30
0.0
 10
-1.5045361878
 20
18.7877653949
 30
0.0
 10
-1.5437301802
 20
18.8081072534
 30
0.0
 11
-1.1751598657
 21
18.2066623489
 31
0.0
 11
-1.1988081498
 21
18.3457084189
 31
0.0
 11
-1.2540981633
 21
18.4887433274
 31
0.0
 11
-1.3356258909
 21
18.6217844095
 31
0.0
 11
-1.4354218752
 21
18.7318251893
 31
0.0
 11
-1.5437301802
 21
18.8081072534
 31
0.0
  0
SPLINE
  5
265
100
AcDbEntity
  8
RACCORDO
100
AcDbSpline
 62
253
  6
CONTINUOUS
 70
0
 71
3
 72
13
 73
9
 74
7
 42
0.0000001
 43
0.0000001
 44
0.0000000001
 12
-1.1243753254
 22
-0.6346851539
 32
0.0
 13
-0.1502373935
 23
-1.2823703999
 33
0.0
 40
0.0
 40
0.0
 40
0.0
 40
0.0
 40
0.1506528206
 40
0.3139376193
 40
0.4857612582
 40
0.661013207
 40
0.8341945333
 40
1.0
 40
1.0
 40
1.0
 40
1.0
 10
-1.5437301821
 20
18.8081072523
 30
0.0
 10
-1.6001936202
 20
18.7762348828
 30
0.0
 10
-1.7107759533
 20
18.6969185758
 30
0.0
 10
-1.8579730835
 20
18.5473361997
 30
0.0
 10
-1.9873959597
 20
18.368904955
 30
0.0
 10
-2.0926186844
 20
18.1704397581
 30
0.0
 10
-2.1684809922
 20
17.9617946661
 30
0.0
 10
-2.1978768517
 20
17.8181683036
 30
0.0
 10
-2.2061802454
 20
17.7472936294
 30
0.0
 11
-1.5437301821
 21
18.8081072523
 31
0.0
 11
-1.7027680867
 21
18.6961132573
 31
0.0
 11
-1.8514526636
 21
18.5466491169
 31
0.0
 11
-1.9821594528
 21
18.3673936757
 31
0.0
 11
-2.0882133822
 21
18.1675113851
 31
0.0
 11
-2.1641892484
 21
17.9572132528
 31
0.0
 11
-2.2061802454
 21
17.7472936294
 31
0.0
  0
SPLINE
  5
266
100
AcDbEntity
  8
RACCORDO
100
AcDbSpline
 62
253
  6
CONTINUOUS
 70
0
 71
3
 72
13
 73
9
 74
7
 42
0.0000001
 43
0.0000001
 44
0.0000000001
 12
-0.5649007918
 22
-0.3137649179
 32
0.0
 13
-0.0759299748
 23
-0.6417133061
 33
0.0
 40
0.0
 40
0.0
 40
0.0
 40
0.0
 40
0.1503949944
 40
0.3140664194
 40
0.4862341423
 40
0.6618227409
 40
0.8351244514
 40
1.0
 40
1.0
 40
1.0
 40
1.0
 10
-1.1751598657
 20
18.2066623489
 30
0.0
 10
-1.2034792828
 20
18.1909327912
 30
0.0
 10
-1.2591449951
 20
18.1516462607
 30
0.0
 10
-1.3334181641
 20
18.0772273859
 30
0.0
 10
-1.3988644377
 20
17.9881236449
 30
0.0
 10
-1.4520554992
 20
17.8888724871
 30
0.0
 10
-1.4902976878
 20
17.7846488032
 30
0.0
 10
-1.5050776647
 20
17.7129560316
 30
0.0
 10
-1.5092506634
 20
17.6776884205
 30
0.0
 11
-1.1751598657
 21
18.2066623489
 31
0.0
 11
-1.255028119
 21
18.1512932468
 31
0.0
 11
-1.3301434275
 21
18.076838809
 31
0.0
 11
-1.3962203161
 21
17.9873341567
 31
0.0
 11
-1.4498457263
 21
17.8873426704
 31
0.0
 11
-1.4881957414
 21
17.7821281404
 31
0.0
 11
-1.5092506634
 21
17.6776884205
 31
0.0
  0
SPLINE
  5
267
100
AcDbEntity
  8
RACCORDO
100
AcDbSpline
 62
253
  6
CONTINUOUS
 70
0
 71
3
 72
12
 73
8
 74
6
 42
0.0000001
 43
0.0000001
 44
0.0000000001
 12
-0.6829449765
 22
-0.2057438199
 32
0.0
 13
-0.6370569042
 23
0.3207847582
 33
0.0
 40
0.0
 40
0.0
 40
0.0
 40
0.0
 40
0.178991559
 40
0.3846561193
 40
0.601408074
 40
0.8119724668
 40
1.0
 40
1.0
 40
1.0
 40
1.0
 10
-1.5092506634
 20
17.6776884205
 30
0.0
 10
-1.5499977921
 20
17.6654129515
 30
0.0
 10
-1.640702081
 20
17.6494927811
 30
0.0
 10
-1.7839776627
 20
17.6458722455
 30
0.0
 10
-1.9341350724
 20
17.6609743971
 30
0.0
 10
-2.0771310407
 20
17.6934147546
 30
0.0
 10
-2.1662521401
 20
17.7271881819
 30
0.0
 10
-2.2061802195
 20
17.7472936375
 30
0.0
 11
-1.5092506634
 21
17.6776884205
 31
0.0
 11
-1.6346145984
 21
17.6535425196
 31
0.0
 11
-1.7812350488
 21
17.6489308599
 31
0.0
 11
-1.9350708968
 21
17.6642950772
 31
0.0
 11
-2.0813900415
 21
17.6981638165
 31
0.0
 11
-2.2061802195
 21
17.7472936375
 31
0.0
  0
SPLINE
  5
268
100
AcDbEntity
  8
RACCORDO
100
AcDbSpline
 62
253
  6
CONTINUOUS
 70
0
 71
3
 72
10
 73
6
 74
4
 42
0.0000001
 43
0.0000001
 44
0.0000000001
 12
-1.2333610046
 22
-10.4413333522
 32
0.0
 13
-0.1646941828
 23
-10.5126351295
 33
0.0
 40
0.0
 40
0.0
 40
0.0
 40
0.0
 40
0.338503449
 40
0.6719195811
 40
1.0
 40
1.0
 40
1.0
 40
1.0
 10
-2.2061802454
 20
17.7472936294
 30
0.0
 10
-2.3453458967
 20
16.5691511787
 30
0.0
 10
-2.5839501655
 20
14.2259212114
 30
0.0
 10
-2.8224113864
 20
10.728796457
 30
0.0
 10
-2.9003717281
 20
8.4112283487
 30
0.0
 10
-2.918382707
 20
7.2615651031
 30
0.0
 11
-2.2061802454
 21
17.7472936294
 31
0.0
 11
-2.5658645043
 21
14.2065157985
 31
0.0
 11
-2.8034154546
 21
10.7090616285
 31
0.0
 11
-2.918382707
 21
7.2615651031
 31
0.0
  0
SPLINE
  5
269
100
AcDbEntity
  8
RACCORDO
100
AcDbSpline
 62
253
  6
CONTINUOUS
 70
0
 71
3
 72
10
 73
6
 74
4
 42
0.0000001
 43
0.0000001
 44
0.0000000001
 12
-1.226625861
 22
-10.3832836415
 32
0.0
 13
-0.1637962409
 23
-10.4542030291
 33
0.0
 40
0.0
 40
0.0
 40
0.0
 40
0.0
 40
0.3384992912
 40
0.6719204008
 40
1.0
 40
1.0
 40
1.0
 40
1.0
 10
-1.5092506634
 20
17.6776884205
 30
0.0
 10
-1.6476546583
 20
16.5061103695
 30
0.0
 10
-1.8849572637
 20
14.1759042006
 30
0.0
 10
-2.1221166712
 20
10.6982187798
 30
0.0
 10
-2.1996512182
 20
8.3935179426
 30
0.0
 10
-2.2175639533
 20
7.2502476959
 30
0.0
 11
-1.5092506634
 21
17.6776884205
 31
0.0
 11
-1.8669674621
 21
14.1566380304
 31
0.0
 11
-2.1032251696
 21
10.6785732564
 31
0.0
 11
-2.2175639533
 21
7.2502476959
 31
0.0
  0
SPLINE
  5
26A
100
AcDbEntity
  8
RACCORDO
100
AcDbSpline
 62
253
  6
CONTINUOUS
 70
0
 71
3
 72
12
 73
8
 74
6
 42
0.0000001
 43
0.0000001
 44
0.0000000001
 12
-0.6536252216
 22
-0.3006429918
 32
0.0
 13
-0.6433918551
 23
0.3219612705
 33
0.0
 40
0.0
 40
0.0
 40
0.0
 40
0.0
 40
0.1853209334
 40
0.3926176208
 40
0.6076569801
 40
0.8148562734
 40
1.0
 40
1.0
 40
1.0
 40
1.0
 10
-2.2175639533
 20
7.2502476959
 30
0.0
 10
-2.2579407653
 20
7.2316758826
 30
0.0
 10
-2.3485037545
 20
7.2031416933
 30
0.0
 10
-2.4934335692
 20
7.1836689075
 30
0.0
 10
-2.6449893684
 20
7.1861138316
 30
0.0
 10
-2.7891494785
 20
7.2102496792
 30
0.0
 10
-2.8786760512
 20
7.2416954002
 30
0.0
 10
-2.9183827064
 20
7.2615651034
 30
0.0
 11
-2.2175639533
 21
7.2502476959
 31
0.0
 11
-2.3441206411
 21
7.2082929874
 31
0.0
 11
-2.4918144409
 21
7.1875727756
 31
0.0
 11
-2.6465049121
 21
7.1900708467
 31
0.0
 11
-2.7933817415
 21
7.2155480314
 31
0.0
 11
-2.9183827064
 21
7.2615651034
 31
0.0
  0
SPLINE
  5
26B
100
AcDbEntity
  8
RACCORDO
100
AcDbSpline
 62
253
  6
CONTINUOUS
 70
0
 71
3
 72
10
 73
6
 74
4
 42
0.0000001
 43
0.0000001
 44
0.0000000001
 12
0.1554735441
 22
-9.7728237234
 32
0.0
 13
1.2919079965
 23
-9.6883037359
 33
0.0
 40
0.0
 40
0.0
 40
0.0
 40
0.0
 40
0.3396597139
 40
0.6730411276
 40
1.0
 40
1.0
 40
1.0
 40
1.0
 10
-2.2175639533
 20
-9.1877804933
 30
0.0
 10
-2.1999612534
 20
-10.2942586632
 30
0.0
 10
-2.1251706065
 20
-12.4863772403
 30
0.0
 10
-1.8900992436
 20
-15.7366430302
 30
0.0
 10
-1.650050924
 20
-17.8753187364
 30
0.0
 10
-1.5092506634
 20
-18.9312110248
 30
0.0
 11
-2.2175639533
 21
-9.1877804933
 31
0.0
 11
-2.1032265222
 21
-12.5056655291
 31
0.0
 11
-1.8669696848
 21
-15.7555793955
 31
0.0
 11
-1.5092506634
 21
-18.9312110248
 31
0.0
  0
SPLINE
  5
26C
100
AcDbEntity
  8
RACCORDO
100
AcDbSpline
 62
253
  6
CONTINUOUS
 70
0
 71
3
 72
12
 73
8
 74
6
 42
0.0000001
 43
0.0000001
 44
0.0000000001
 12
-0.6435066155
 22
-0.3254382531
 32
0.0
 13
-0.6450904627
 23
0.3222873186
 33
0.0
 40
0.0
 40
0.0
 40
0.0
 40
0.0
 40
0.1872054437
 40
0.3949938513
 40
0.6095144592
 40
0.8156996815
 40
1.0
 40
1.0
 40
1.0
 40
1.0
 10
-2.2175639533
 20
-9.1877804933
 30
0.0
 10
-2.2577199338
 20
-9.2080884308
 30
0.0
 10
-2.3479761575
 20
-9.2401445758
 30
0.0
 10
-2.4930738336
 20
-9.2641367586
 30
0.0
 10
-2.6447997153
 20
-9.2652925909
 30
0.0
 10
-2.789156881
 20
-9.243514723
 30
0.0
 10
-2.8787525549
 20
-9.2127167736
 30
0.0
 10
-2.9183826808
 20
-9.1929175551
 30
0.0
 11
-2.2175639533
 21
-9.1877804933
 31
0.0
 11
-2.3441206412
 21
-9.2347660295
 31
0.0
 11
-2.4918144366
 21
-9.2600354101
 31
0.0
 11
-2.6465049007
 21
-9.2611693046
 31
0.0
 11
-2.7933817223
 21
-9.238059152
 31
0.0
 11
-2.9183826808
 21
-9.1929175551
 31
0.0
  0
SPLINE
  5
26D
100
AcDbEntity
  8
RACCORDO
100
AcDbSpline
 62
253
  6
CONTINUOUS
 70
0
 71
3
 72
10
 73
6
 74
4
 42
0.0000001
 43
0.0000001
 44
0.0000000001
 12
0.1563246321
 22
-9.8273811165
 32
0.0
 13
1.2990084512
 23
-9.742403915
 33
0.0
 40
0.0
 40
0.0
 40
0.0
 40
0.0
 40
0.3396642762
 40
0.6730407124
 40
1.0
 40
1.0
 40
1.0
 40
1.0
 10
-2.918382707
 20
-9.1929175688
 30
0.0
 10
-2.9006834093
 20
-10.3055876667
 30
0.0
 10
-2.8254815868
 20
-12.5099425908
 30
0.0
 10
-2.5891192495
 20
-15.7783544645
 30
0.0
 10
-2.347754538
 20
-17.9289569157
 30
0.0
 10
-2.2061802454
 20
-18.9907467303
 30
0.0
 11
-2.918382707
 21
-9.1929175688
 31
0.0
 11
-2.8034154548
 21
-12.5293699719
 31
0.0
 11
-2.5658645034
 21
-15.7973793463
 31
0.0
 11
-2.2061802454
 21
-18.9907467303
 31
0.0
  0
SPLINE
  5
26E
100
AcDbEntity
  8
RACCORDO
100
AcDbSpline
 62
253
  6
CONTINUOUS
 70
0
 71
3
 72
12
 73
8
 74
6
 42
0.0000001
 43
0.0000001
 44
0.0000000001
 12
-0.6046174956
 22
-0.4017074569
 32
0.0
 13
-0.6499819662
 23
0.3231944316
 33
0.0
 40
0.0
 40
0.0
 40
0.0
 40
0.0
 40
0.1936713396
 40
0.4031475138
 40
0.6158379107
 40
0.8185003666
 40
1.0
 40
1.0
 40
1.0
 40
1.0
 10
-1.5092506635
 20
-18.9312110248
 30
0.0
 10
-1.5482830236
 20
-18.9571440986
 30
0.0
 10
-1.6366229358
 20
-19.0006981474
 30
0.0
 10
-1.7811856657
 20
-19.0397660505
 30
0.0
 10
-1.9326593334
 20
-19.0529205958
 30
0.0
 10
-2.0771933119
 20
-19.0389842808
 30
0.0
 10
-2.1668408024
 20
-19.010289261
 30
0.0
 10
-2.2061646319
 20
-18.9907360374
 30
0.0
 11
-1.5092506635
 21
-18.9312110248
 31
0.0
 11
-1.6346125953
 21
-18.9948414508
 31
0.0
 11
-1.7812296949
 21
-19.0351565598
 31
0.0
 11
-1.9350616086
 21
-19.0482956946
 31
0.0
 11
-2.0813770773
 21
-19.0330006245
 31
0.0
 11
-2.2061646319
 21
-18.9907360374
 31
0.0
  0
SPLINE
  5
26F
100
AcDbEntity
  8
RACCORDO
100
AcDbSpline
 62
253
  6
CONTINUOUS
 70
0
 71
3
 72
11
 73
7
 74
5
 42
0.0000001
 43
0.0000001
 44
0.0000000001
 12
0.0663561126
 22
-0.5014011449
 32
0.0
 13
0.4547146587
 23
-0.2274964913
 33
0.0
 40
0.0
 40
0.0
 40
0.0
 40
0.0
 40
0.3436398356
 40
0.6510174651
 40
0.9334054958
 40
1.0
 40
1.0
 40
1.0
 40
1.0
 10
-2.2061802454
 20
-18.9907467303
 30
0.0
 10
-2.1985793775
 20
-19.0481805326
 30
0.0
 10
-2.1732614886
 20
-19.1561687945
 30
0.0
 10
-2.0975343944
 20
-19.2966820351
 30
0.0
 10
-2.014408425
 20
-19.3733338609
 30
0.0
 10
-1.9627029153
 20
-19.402124303
 30
0.0
 10
-1.9526090828
 20
-19.4071743084
 30
0.0
 11
-2.2061802454
 21
-18.9907467303
 31
0.0
 11
-2.1641892978
 21
-19.1594016854
 31
0.0
 11
-2.0882151276
 21
-19.2950363301
 31
0.0
 11
-1.9821629015
 21
-19.3907007563
 31
0.0
 11
-1.9526090828
 21
-19.4071743084
 31
0.0
  0
SPLINE
  5
270
100
AcDbEntity
  8
RACCORDO
100
AcDbSpline
 62
253
  6
CONTINUOUS
 70
0
 71
3
 72
10
 73
6
 74
4
 42
0.0000001
 43
0.0000001
 44
0.0000000001
 12
0.0264282377
 22
-0.1980256816
 32
0.0
 13
0.1482432509
 23
-0.1355460715
 33
0.0
 40
0.0
 40
0.0
 40
0.0
 40
0.0
 40
0.4338727147
 40
0.8251632991
 40
1.0
 40
1.0
 40
1.0
 40
1.0
 10
-1.5092506634
 20
-18.9312110248
 30
0.0
 10
-1.5054284997
 20
-18.9598503382
 30
0.0
 10
-1.4926742973
 20
-19.0138987426
 30
0.0
 10
-1.4605043784
 20
-19.0733003068
 30
0.0
 10
-1.4346519716
 20
-19.1012336949
 30
0.0
 10
-1.426012518
 20
-19.1091331709
 30
0.0
 11
-1.5092506634
 21
-18.9312110248
 31
0.0
 11
-1.4882032883
 21
-19.0152965815
 31
0.0
 11
-1.4498912514
 21
-19.0834371893
 31
0.0
 11
-1.426012518
 21
-19.1091331709
 31
0.0
  0
SPLINE
  5
271
100
AcDbEntity
  8
RACCORDO
100
AcDbSpline
 62
253
  6
CONTINUOUS
 70
0
 71
3
 72
10
 73
6
 74
4
 42
0.0000001
 43
0.0000001
 44
0.0000000001
 12
-0.0205765413
 22
-0.2356343627
 32
0.0
 13
0.208579061
 23
-0.1035512403
 33
0.0
 40
0.0
 40
0.0
 40
0.0
 40
0.0
 40
0.1868216559
 40
0.5329446675
 40
1.0
 40
1.0
 40
1.0
 40
1.0
 10
-17.2784507463
 20
25.376741319
 30
0.0
 10
-17.2797321275
 20
25.3620674517
 30
0.0
 10
-17.273278533
 20
25.3184529235
 30
0.0
 10
-17.2182367961
 20
25.2591412467
 30
0.0
 10
-17.1643109314
 20
25.2262533439
 30
0.0
 10
-17.1318382772
 20
25.2101319576
 30
0.0
 11
-17.2784507463
 21
25.376741319
 31
0.0
 11
-17.2723959362
 21
25.3329648157
 31
0.0
 11
-17.223232303
 21
25.2690936687
 31
0.0
 11
-17.1318382772
 21
25.2101319576
 31
0.0
  0
SPLINE
  5
272
100
AcDbEntity
  8
RACCORDO
100
AcDbSpline
 62
253
  6
CONTINUOUS
 70
0
 71
3
 72
10
 73
6
 74
4
 42
0.0000001
 43
0.0000001
 44
0.0000000001
 12
0.2096662629
 22
0.125662029
 32
0.0
 13
0.2178488738
 23
-0.1049258497
 33
0.0
 40
0.0
 40
0.0
 40
0.0
 40
0.0
 40
0.1202879444
 40
0.5250759036
 40
1.0
 40
1.0
 40
1.0
 40
1.0
 10
-16.7143718846
 20
26.2850796695
 30
0.0
 10
-16.7059651101
 20
26.2901182119
 30
0.0
 10
-16.6675682792
 20
26.3090991604
 30
0.0
 10
-16.5839974042
 20
26.3162610113
 30
0.0
 10
-16.5153499312
 20
26.2932841184
 30
0.0
 10
-16.4808627046
 20
26.2766735136
 30
0.0
 11
-16.7143718846
 21
26.2850796695
 31
0.0
 11
-16.6880848818
 21
26.2980160006
 31
0.0
 11
-16.5908900243
 21
26.3095599512
 31
0.0
 11
-16.4808627046
 21
26.2766735136
 31
0.0
  0
SPLINE
  5
273
100
AcDbEntity
  8
RACCORDO
100
AcDbSpline
 62
7
  6
CONTINUOUS
 70
0
 71
3
 72
12
 73
8
 74
6
 42
0.0000001
 43
0.0000001
 44
0.0000000001
 12
0.6455900074
 22
0.3365964277
 32
0.0
 13
0.0
 23
0.7280684121
 33
0.0
 40
0.0
 40
0.0
 40
0.0
 40
0.0
 40
0.1818548793
 40
0.3838969317
 40
0.5958306062
 40
0.8051753149
 40
1.0
 40
1.0
 40
1.0
 40
1.0
 10
14.3573750031
 20
-9.0759802956
 30
0.0
 10
14.3965095674
 20
-9.0555763947
 30
0.0
 10
14.4724612067
 20
-8.9994622775
 30
0.0
 10
14.5673484832
 20
-8.8891841787
 30
0.0
 10
14.642774574
 20
-8.7569737911
 30
0.0
 10
14.6918513153
 20
-8.6148725213
 30
0.0
 10
14.7047580362
 20
-8.5166239268
 30
0.0
 10
14.7047580362
 20
-8.4693420271
 30
0.0
 11
14.3573750031
 21
-9.0759802956
 31
0.0
 11
14.4651427748
 21
-8.9990608116
 31
0.0
 11
14.5620019717
 21
-8.8883502234
 31
0.0
 11
14.6386791766
 21
-8.754448097
 31
0.0
 11
14.6878332207
 21
-8.6101743848
 31
0.0
 11
14.7047580362
 21
-8.4693420271
 31
0.0
  0
SPLINE
  5
274
100
AcDbEntity
  8
RACCORDO
100
AcDbSpline
 62
7
  6
CONTINUOUS
 70
0
 71
3
 72
10
 73
6
 74
4
 42
0.0000001
 43
0.0000001
 44
0.0000000001
 12
0.0
 22
0.1883492632
 32
0.0
 13
-0.1693711156
 23
0.0856661315
 33
0.0
 40
0.0
 40
0.0
 40
0.0
 40
0.0
 40
0.4024867061
 40
0.7464906306
 40
1.0
 40
1.0
 40
1.0
 40
1.0
 10
14.7047580362
 20
-7.8989332098
 30
0.0
 10
14.7047580362
 20
-7.8736638516
 30
0.0
 10
14.6993042909
 20
-7.8264096513
 30
0.0
 10
14.671255254
 20
-7.768323725
 30
0.0
 10
14.6410021259
 20
-7.7439094355
 30
0.0
 10
14.6266897377
 20
-7.7366703798
 30
0.0
 11
14.7047580362
 21
-7.8989332098
 31
0.0
 11
14.6943755554
 21
-7.82383948
 31
0.0
 11
14.6642444227
 21
-7.7664789284
 31
0.0
 11
14.6266897377
 21
-7.7366703798
 31
0.0
  0
SPLINE
  5
275
100
AcDbEntity
  8
RACCORDO
100
AcDbSpline
 62
7
  6
CONTINUOUS
 70
0
 71
3
 72
10
 73
6
 74
4
 42
0.0000001
 43
0.0000001
 44
0.0000000001
 12
0.0
 22
0.3139581966
 32
0.0
 13
-0.2822128627
 23
0.1425574897
 33
0.0
 40
0.0
 40
0.0
 40
0.0
 40
0.0
 40
0.3983272342
 40
0.7393582082
 40
1.0
 40
1.0
 40
1.0
 40
1.0
 10
14.7047580362
 20
-4.9902558022
 30
0.0
 10
14.7047580362
 20
-4.9485697689
 30
0.0
 10
14.6958364276
 20
-4.8705684007
 30
0.0
 10
14.6496974689
 20
-4.7735718047
 30
0.0
 10
14.599185728
 20
-4.7321889184
 30
0.0
 10
14.574666906
 20
-4.7198034385
 30
0.0
 11
14.7047580362
 21
-4.9902558022
 31
0.0
 11
14.6878332207
 21
-4.86634826
 31
0.0
 11
14.6386791766
 21
-4.7712285919
 31
0.0
 11
14.574666906
 21
-4.7198034385
 31
0.0
  0
SPLINE
  5
276
100
AcDbEntity
  8
RACCORDO
100
AcDbSpline
 62
7
  6
CONTINUOUS
 70
0
 71
3
 72
12
 73
8
 74
6
 42
0.0000001
 43
0.0000001
 44
0.0000000001
 12
0.3944092024
 22
0.1972046012
 32
0.0
 13
0.0
 23
0.4409628938
 33
0.0
 40
0.0
 40
0.0
 40
0.0
 40
0.0
 40
0.1809478284
 40
0.3827074375
 40
0.5948883335
 40
0.8047353557
 40
1.0
 40
1.0
 40
1.0
 40
1.0
 10
14.4926260018
 20
-5.9265382579
 30
0.0
 10
14.5164151647
 20
-5.9146436764
 30
0.0
 10
14.5627198992
 20
-5.8813088502
 30
0.0
 10
14.6206273086
 20
-5.8150611621
 30
0.0
 10
14.6667661391
 20
-5.7351523578
 30
0.0
 10
14.6968336175
 20
-5.649010962
 30
0.0
 10
14.7047580362
 20
-5.5893661071
 30
0.0
 10
14.7047580362
 20
-5.5606646196
 30
0.0
 11
14.4926260018
 21
-5.9265382579
 31
0.0
 11
14.5581784055
 21
-5.881046166
 31
0.0
 11
14.6173140832
 21
-5.8145753768
 31
0.0
 11
14.6642444227
 21
-5.7336325144
 31
0.0
 11
14.6943755554
 21
-5.6461408301
 31
0.0
 11
14.7047580362
 21
-5.5606646196
 31
0.0
  0
SPLINE
  5
277
100
AcDbEntity
  8
RACCORDO
100
AcDbSpline
 62
7
  6
CONTINUOUS
 70
0
 71
3
 72
10
 73
6
 74
4
 42
0.0000001
 43
0.0000001
 44
0.0000000001
 12
-0.2011591128
 22
0.1016138594
 32
0.0
 13
-0.2018574724
 23
-0.0966134269
 33
0.0
 40
0.0
 40
0.0
 40
0.0
 40
0.0
 40
0.0618729487
 40
0.4990950563
 40
1.0
 40
1.0
 40
1.0
 40
1.0
 10
14.574666906
 20
-4.7198034385
 30
0.0
 10
14.5705181368
 20
-4.7177077222
 30
0.0
 10
14.5364431901
 20
-4.7020825259
 30
0.0
 10
14.4593560583
 20
-4.6929474208
 30
0.0
 10
14.391078805
 20
-4.7148691858
 30
0.0
 10
14.3573750031
 20
-4.7310005668
 30
0.0
 11
14.574666906
 21
-4.7198034385
 31
0.0
 11
14.5620019717
 21
-4.7140036704
 31
0.0
 11
14.4651427748
 21
-4.7001522791
 31
0.0
 11
14.3573750031
 21
-4.7310005668
 31
0.0
  0
SPLINE
  5
278
100
AcDbEntity
  8
RACCORDO
100
AcDbSpline
 62
7
  6
CONTINUOUS
 70
0
 71
3
 72
10
 73
6
 74
4
 42
0.0000001
 43
0.0000001
 44
0.0000000001
 12
-0.1244127156
 22
0.0629266449
 32
0.0
 13
-0.1237469035
 23
-0.0618734518
 33
0.0
 40
0.0
 40
0.0
 40
0.0
 40
0.0
 40
0.0738055611
 40
0.5045064121
 40
1.0
 40
1.0
 40
1.0
 40
1.0
 10
14.6266897377
 20
-7.7366703798
 30
0.0
 10
14.6236289543
 20
-7.7351222677
 30
0.0
 10
14.6022449463
 20
-7.7255151266
 30
0.0
 10
14.5544662286
 20
-7.7208322346
 30
0.0
 10
14.5130646009
 20
-7.7349723063
 30
0.0
 10
14.4926260018
 20
-7.7451916058
 30
0.0
 11
14.6266897377
 21
-7.7366703798
 31
0.0
 11
14.6173140832
 21
-7.7324664055
 31
0.0
 11
14.5581784055
 21
-7.725131294
 31
0.0
 11
14.4926260018
 21
-7.7451916058
 31
0.0
  0
SPLINE
  5
279
100
AcDbEntity
  8
RACCORDO
100
AcDbSpline
 62
253
  6
CONTINUOUS
 70
0
 71
3
 72
10
 73
6
 74
4
 42
0.0000001
 43
0.0000001
 44
0.0000000001
 12
0.0294848967
 22
-0.2365056115
 32
0.0
 13
0.2107140913
 23
-0.1059392552
 33
0.0
 40
0.0
 40
0.0
 40
0.0
 40
0.0
 40
0.1154191115
 40
0.5224298434
 40
1.0
 40
1.0
 40
1.0
 40
1.0
 10
-1.4033817399
 20
-19.2900574505
 30
0.0
 10
-1.4022473663
 20
-19.2991565397
 30
0.0
 10
-1.3939489088
 20
-19.3398595721
 30
0.0
 10
-1.3497906293
 20
-19.4087361029
 30
0.0
 10
-1.290846027
 20
-19.4483211268
 30
0.0
 10
-1.2573024398
 20
-19.4651856024
 30
0.0
 11
-1.4033817399
 21
-19.2900574505
 31
0.0
 11
-1.3978596875
 21
-19.3169110046
 31
0.0
 11
-1.3486970214
 21
-19.3993579832
 31
0.0
 11
-1.2573024398
 21
-19.4651856024
 31
0.0
  0
SPLINE
  5
27A
100
AcDbEntity
  8
RACCORDO
100
AcDbSpline
 62
253
  6
CONTINUOUS
 70
0
 71
3
 72
11
 73
7
 74
5
 42
0.0000001
 43
0.0000001
 44
0.0000000001
 12
-0.4520369798
 22
0.2250227216
 32
0.0
 13
-0.0648591103
 23
0.4979708966
 33
0.0
 40
0.0
 40
0.0
 40
0.0
 40
0.0
 40
0.0673055425
 40
0.3477810584
 40
0.6549483813
 40
1.0
 40
1.0
 40
1.0
 40
1.0
 10
-1.0074920306
 20
-19.8797269241
 30
0.0
 10
-1.017633562
 20
-19.8746784986
 30
0.0
 10
-1.0688174575
 20
-19.8462012569
 30
0.0
 10
-1.1508217755
 20
-19.7698007214
 30
0.0
 10
-1.2250789785
 20
-19.6299449801
 30
0.0
 10
-1.249842552
 20
-19.5224608414
 30
0.0
 10
-1.2573024657
 20
-19.4651856201
 30
0.0
 11
-1.0074920306
 21
-19.8797269241
 31
0.0
 11
-1.0371585339
 21
-19.8632033043
 31
0.0
 11
-1.1413765262
 21
-19.7684569745
 31
0.0
 11
-1.2160379362
 21
-19.6334774803
 31
0.0
 11
-1.2573024657
 21
-19.4651856201
 31
0.0
  0
SPLINE
  5
27B
100
AcDbEntity
  8
RACCORDO
100
AcDbSpline
 62
253
  6
CONTINUOUS
 70
0
 71
3
 72
10
 73
6
 74
4
 42
0.0000001
 43
0.0000001
 44
0.0000000001
 12
0.0037927092
 22
-0.2436631694
 32
0.0
 13
0.2143183494
 23
-0.1072448602
 33
0.0
 40
0.0
 40
0.0
 40
0.0
 40
0.0
 40
0.166209069
 40
0.5377698013
 40
1.0
 40
1.0
 40
1.0
 40
1.0
 10
-2.0912388748
 20
-9.5022119748
 30
0.0
 10
-2.0910287472
 20
-9.515711651
 30
0.0
 10
-2.0842283753
 20
-9.5592997914
 30
0.0
 10
-2.0350382046
 20
-9.6265816198
 30
0.0
 10
-1.978223301
 20
-9.6629840691
 30
0.0
 10
-1.9452018299
 20
-9.6795080068
 30
0.0
 11
-2.0912388748
 21
-9.5022119748
 31
0.0
 11
-2.0849478369
 21
-9.5419478564
 31
0.0
 11
-2.0363605003
 21
-9.6165697875
 31
0.0
 11
-1.9452018299
 21
-9.6795080068
 31
0.0
  0
SPLINE
  5
27C
100
AcDbEntity
  8
RACCORDO
100
AcDbSpline
 62
253
  6
CONTINUOUS
 70
0
 71
3
 72
10
 73
6
 74
4
 42
0.0000001
 43
0.0000001
 44
0.0000000001
 12
-0.0027054947
 22
-0.2434014048
 32
0.0
 13
0.2139005477
 23
-0.1068620594
 33
0.0
 40
0.0
 40
0.0
 40
0.0
 40
0.0
 40
0.1746352708
 40
0.5387869088
 40
1.0
 40
1.0
 40
1.0
 40
1.0
 10
-2.0911828072
 20
6.9510489889
 30
0.0
 10
-2.0913402988
 20
6.9368801655
 30
0.0
 10
-2.0848433406
 20
6.8929738883
 30
0.0
 10
-2.0342572828
 20
6.826933234
 30
0.0
 10
-1.9780863819
 20
6.7914034042
 30
0.0
 10
-1.9452018043
 20
6.7749746773
 30
0.0
 11
-2.0911828072
 21
6.9510489889
 31
0.0
 11
-2.0849478093
 21
6.9092923143
 31
0.0
 11
-2.0363604715
 21
6.8370374198
 31
0.0
 11
-1.9452018043
 21
6.7749746773
 31
0.0
  0
SPLINE
  5
27D
100
AcDbEntity
  8
RACCORDO
100
AcDbSpline
 62
253
  6
CONTINUOUS
 70
0
 71
3
 72
10
 73
6
 74
4
 42
0.0000001
 43
0.0000001
 44
0.0000000001
 12
-0.0165468547
 22
-0.3390218031
 32
0.0
 13
-0.3156128558
 23
-0.1301074377
 33
0.0
 40
0.0
 40
0.0
 40
0.0
 40
0.0
 40
0.3832352101
 40
0.71429869
 40
1.0
 40
1.0
 40
1.0
 40
1.0
 10
14.699387372
 20
-27.0748308389
 30
0.0
 10
14.6972735929
 20
-27.1181392029
 30
0.0
 10
14.6839631715
 20
-27.1990338788
 30
0.0
 10
14.630055297
 20
-27.3015866912
 30
0.0
 10
14.5719466439
 20
-27.3451638554
 30
0.0
 10
14.5418896418
 20
-27.3575544772
 30
0.0
 11
14.699387372
 21
-27.0748308389
 31
0.0
 11
14.6757382685
 21
-27.2027427695
 31
0.0
 11
14.6204470405
 21
-27.3005701636
 31
0.0
 11
14.5418896418
 21
-27.3575544772
 31
0.0
  0
SPLINE
  5
27E
100
AcDbEntity
  8
RACCORDO
100
AcDbSpline
 62
253
  6
CONTINUOUS
 70
0
 71
3
 72
12
 73
8
 74
6
 42
0.0000001
 43
0.0000001
 44
0.0000000001
 12
-0.6046194799
 22
-0.4017131214
 32
0.0
 13
-0.649986311
 23
0.3231964464
 33
0.0
 40
0.0
 40
0.0
 40
0.0
 40
0.0
 40
0.1936714751
 40
0.4031478295
 40
0.6158383286
 40
0.8185006976
 40
1.0
 40
1.0
 40
1.0
 40
1.0
 10
14.3652965741
 20
-26.8684846436
 30
0.0
 10
14.3262640586
 20
-26.8944181012
 30
0.0
 10
14.2379236877
 20
-26.9379728753
 30
0.0
 10
14.0933600631
 20
-26.977041655
 30
0.0
 10
13.941885391
 20
-26.9901968412
 30
0.0
 10
13.7973504887
 20
-26.9762608667
 30
0.0
 10
13.707702439
 20
-26.9475658321
 30
0.0
 10
13.6683784184
 20
-26.9280125223
 30
0.0
 11
14.3652965741
 21
-26.8684846436
 31
0.0
 11
14.2399340219
 21
-26.9321161131
 31
0.0
 11
14.0933159942
 21
-26.9724321226
 31
0.0
 11
13.9394830389
 21
-26.9855718995
 31
0.0
 11
13.7931666253
 21
-26.9702771428
 31
0.0
 11
13.6683784184
 21
-26.9280125223
 31
0.0
  0
SPLINE
  5
27F
100
AcDbEntity
  8
RACCORDO
100
AcDbSpline
 62
253
  6
CONTINUOUS
 70
0
 71
3
 72
11
 73
7
 74
5
 42
0.0000001
 43
0.0000001
 44
0.0000000001
 12
0.0663897918
 22
-0.5014423901
 32
0.0
 13
0.4547828629
 23
-0.2274638644
 33
0.0
 40
0.0
 40
0.0
 40
0.0
 40
0.0
 40
0.3436093442
 40
0.6509646631
 40
0.9333297301
 40
1.0
 40
1.0
 40
1.0
 40
1.0
 10
13.6683669923
 20
-26.9280203491
 30
0.0
 10
13.6759710432
 20
-26.9854537793
 30
0.0
 10
13.7012846501
 20
-27.0934435277
 30
0.0
 10
13.7770143863
 20
-27.2339576985
 30
0.0
 10
13.8601520898
 20
-27.3106191933
 30
0.0
 10
13.9118721016
 20
-27.3394133257
 30
0.0
 10
13.9219789337
 20
-27.3444683514
 30
0.0
 11
13.6683669923
 21
-26.9280203491
 31
0.0
 11
13.7103579893
 21
-27.096675443
 31
0.0
 11
13.7863338554
 21
-27.2323121654
 31
0.0
 11
13.8923877848
 21
-27.3279764636
 31
0.0
 11
13.9219789337
 21
-27.3444683514
 31
0.0
  0
SPLINE
  5
280
100
AcDbEntity
  8
RACCORDO
100
AcDbSpline
 62
253
  6
CONTINUOUS
 70
0
 71
3
 72
13
 73
9
 74
7
 42
0.0000001
 43
0.0000001
 44
0.0000000001
 12
0.0616843186
 22
-0.4617499569
 32
0.0
 13
0.4309917409
 23
0.1768165634
 33
0.0
 40
0.0
 40
0.0
 40
0.0
 40
0.0
 40
0.1861161513
 40
0.354036159
 40
0.5088226952
 40
0.6610105626
 40
0.8223059318
 40
1.0
 40
1.0
 40
1.0
 40
1.0
 10
14.3652965742
 20
-26.8684846437
 30
0.0
 10
14.3691233902
 20
-26.8971310186
 30
0.0
 10
14.3818793311
 20
-26.951204731
 30
0.0
 10
14.420060284
 20
-27.0216803563
 30
0.0
 10
14.4755641886
 20
-27.0726341901
 30
0.0
 10
14.5450472344
 20
-27.0992696493
 30
0.0
 10
14.6226359566
 20
-27.1000946411
 30
0.0
 10
14.6738591467
 20
-27.0853039237
 30
0.0
 10
14.699387372
 20
-27.0748308389
 30
0.0
 11
14.3652965742
 21
-26.8684846437
 31
0.0
 11
14.3863514962
 21
-26.9525918617
 31
0.0
 11
14.4247015113
 21
-27.0207722126
 31
0.0
 11
14.4783269216
 21
-27.0689782422
 31
0.0
 11
14.5444038101
 21
-27.0946731849
 31
0.0
 11
14.6195191186
 21
-27.0965896125
 31
0.0
 11
14.699387372
 21
-27.0748308389
 31
0.0
  0
SPLINE
  5
281
100
AcDbEntity
  8
RACCORDO
100
AcDbSpline
 62
253
  6
CONTINUOUS
 70
0
 71
3
 72
12
 73
8
 74
6
 42
0.0000001
 43
0.0000001
 44
0.0000000001
 12
-0.6435066183
 22
-0.3254382732
 32
0.0
 13
-0.6450904732
 23
0.3222873235
 33
0.0
 40
0.0
 40
0.0
 40
0.0
 40
0.0
 40
0.1872054419
 40
0.394993849
 40
0.6095144575
 40
0.8156996807
 40
1.0
 40
1.0
 40
1.0
 40
1.0
 10
13.6569832844
 20
-17.1250541121
 30
0.0
 10
13.6168273041
 20
-17.1453620507
 30
0.0
 10
13.5265710799
 20
-17.1774181976
 30
0.0
 10
13.3814734021
 20
-17.2014103822
 30
0.0
 10
13.2297475176
 20
-17.2025662156
 30
0.0
 10
13.085390349
 20
-17.1807883481
 30
0.0
 10
12.9957946731
 20
-17.1499903983
 30
0.0
 10
12.9561645464
 20
-17.1301911794
 30
0.0
 11
13.6569832844
 21
-17.1250541121
 31
0.0
 11
13.5304265965
 21
-17.1720396508
 31
0.0
 11
13.3827327993
 21
-17.1973090335
 31
0.0
 11
13.2280423323
 21
-17.1984429292
 31
0.0
 11
13.0811655075
 21
-17.1753327769
 31
0.0
 11
12.9561645464
 21
-17.1301911794
 31
0.0
  0
SPLINE
  5
282
100
AcDbEntity
  8
RACCORDO
100
AcDbSpline
 62
253
  6
CONTINUOUS
 70
0
 71
3
 72
10
 73
6
 74
4
 42
0.0000001
 43
0.0000001
 44
0.0000000001
 12
0.156324235
 22
-9.8273811228
 32
0.0
 13
1.2990080107
 23
-9.7424039738
 33
0.0
 40
0.0
 40
0.0
 40
0.0
 40
0.0
 40
0.3396642758
 40
0.6730407119
 40
1.0
 40
1.0
 40
1.0
 40
1.0
 10
12.9561645307
 20
-17.1301911876
 30
0.0
 10
12.9738637834
 20
-18.2428612849
 30
0.0
 10
13.0490656791
 20
-20.4472162055
 30
0.0
 10
13.2854279583
 20
-23.7156280837
 30
0.0
 10
13.5267927475
 20
-25.8662305267
 30
0.0
 10
13.6683669923
 20
-26.9280203491
 30
0.0
 11
12.9561645307
 21
-17.1301911876
 31
0.0
 11
13.0711317831
 21
-20.4666435866
 31
0.0
 11
13.3086827334
 21
-23.7346529607
 31
0.0
 11
13.6683669923
 21
-26.9280203491
 31
0.0
  0
SPLINE
  5
283
100
AcDbEntity
  8
RACCORDO
100
AcDbSpline
 62
253
  6
CONTINUOUS
 70
0
 71
3
 72
10
 73
6
 74
4
 42
0.0000001
 43
0.0000001
 44
0.0000000001
 12
0.1554727679
 22
-9.7728237361
 32
0.0
 13
1.2919071341
 23
-9.6883038514
 33
0.0
 40
0.0
 40
0.0
 40
0.0
 40
0.0
 40
0.339662259
 40
0.6730436273
 40
1.0
 40
1.0
 40
1.0
 40
1.0
 10
13.6569832844
 20
-17.1250541121
 30
0.0
 10
13.6745860282
 20
-18.2315405746
 30
0.0
 10
13.7493774569
 20
-20.4236672861
 30
0.0
 10
13.984449538
 20
-23.673933026
 30
0.0
 10
14.2244974841
 20
-25.8126004153
 30
0.0
 10
14.3652965742
 20
-26.8684846437
 30
0.0
 11
13.6569832844
 21
-17.1250541121
 31
0.0
 11
13.771322068
 21
-20.4429639928
 31
0.0
 11
14.0075797756
 21
-23.6928773506
 31
0.0
 11
14.3652965742
 21
-26.8684846437
 31
0.0
  0
SPLINE
  5
284
100
AcDbEntity
  8
RACCORDO
100
AcDbSpline
 62
253
  6
CONTINUOUS
 70
0
 71
3
 72
12
 73
8
 74
6
 42
0.0000001
 43
0.0000001
 44
0.0000000001
 12
-0.6536252217
 22
-0.3006429922
 32
0.0
 13
-0.6433918553
 23
0.3219612705
 33
0.0
 40
0.0
 40
0.0
 40
0.0
 40
0.0
 40
0.1853209333
 40
0.3926176208
 40
0.60765698
 40
0.8148562734
 40
1.0
 40
1.0
 40
1.0
 40
1.0
 10
13.6569832844
 20
-0.6870259229
 30
0.0
 10
13.6166064723
 20
-0.7055977362
 30
0.0
 10
13.5260434832
 20
-0.7341319256
 30
0.0
 10
13.3811136684
 20
-0.7536047114
 30
0.0
 10
13.2295578691
 20
-0.7511597873
 30
0.0
 10
13.085397759
 20
-0.7270239397
 30
0.0
 10
12.9958711863
 20
-0.6955782187
 30
0.0
 10
12.956164531
 20
-0.6757085156
 30
0.0
 11
13.6569832844
 21
-0.6870259229
 31
0.0
 11
13.5304265966
 21
-0.7289806315
 31
0.0
 11
13.3827327967
 21
-0.7497008433
 31
0.0
 11
13.2280423255
 21
-0.7472027722
 31
0.0
 11
13.081165496
 21
-0.7217255875
 31
0.0
 11
12.956164531
 21
-0.6757085156
 31
0.0
  0
SPLINE
  5
285
100
AcDbEntity
  8
RACCORDO
100
AcDbSpline
 62
253
  6
CONTINUOUS
 70
0
 71
3
 72
10
 73
6
 74
4
 42
0.0000001
 43
0.0000001
 44
0.0000000001
 12
-1.233361378
 22
-10.4413333081
 32
0.0
 13
-0.1646945952
 23
-10.512635123
 33
0.0
 40
0.0
 40
0.0
 40
0.0
 40
0.0
 40
0.3385034486
 40
0.6719195807
 40
1.0
 40
1.0
 40
1.0
 40
1.0
 10
13.6683669923
 20
9.8100200105
 30
0.0
 10
13.529201299
 20
8.6318775663
 30
0.0
 10
13.2905970992
 20
6.2886475931
 30
0.0
 10
13.0521358235
 20
2.7915228423
 30
0.0
 10
12.9741755546
 20
0.4739547307
 30
0.0
 10
12.9561645307
 20
-0.6757085157
 30
0.0
 11
13.6683669923
 21
9.8100200105
 31
0.0
 11
13.3086827342
 21
6.269242184
 31
0.0
 11
13.0711317829
 21
2.7717880145
 31
0.0
 11
12.9561645307
 21
-0.6757085157
 31
0.0
  0
SPLINE
  5
286
100
AcDbEntity
  8
RACCORDO
100
AcDbSpline
 62
253
  6
CONTINUOUS
 70
0
 71
3
 72
10
 73
6
 74
4
 42
0.0000001
 43
0.0000001
 44
0.0000000001
 12
-1.2266265892
 22
-10.3832835558
 32
0.0
 13
-0.1637970463
 23
-10.4542030168
 33
0.0
 40
0.0
 40
0.0
 40
0.0
 40
0.0
 40
0.3385018326
 40
0.6719229049
 40
1.0
 40
1.0
 40
1.0
 40
1.0
 10
14.3652965742
 20
9.7404148017
 30
0.0
 10
14.2268914581
 20
8.5688279644
 30
0.0
 10
13.9895884404
 20
6.2386130548
 30
0.0
 10
13.7524297041
 20
2.7609275869
 30
0.0
 10
13.6748959707
 20
0.4562355962
 30
0.0
 10
13.6569832844
 20
-0.6870259229
 30
0.0
 11
14.3652965742
 21
9.7404148017
 31
0.0
 11
14.0075775529
 21
6.2193379289
 31
0.0
 11
13.7713207154
 21
2.7412734866
 31
0.0
 11
13.6569832844
 21
-0.6870259229
 31
0.0
  0
SPLINE
  5
287
100
AcDbEntity
  8
RACCORDO
100
AcDbSpline
 62
253
  6
CONTINUOUS
 70
0
 71
3
 72
12
 73
8
 74
6
 42
0.0000001
 43
0.0000001
 44
0.0000000001
 12
-0.6829449821
 22
-0.2057438377
 32
0.0
 13
-0.6370569157
 23
0.3207847589
 33
0.0
 40
0.0
 40
0.0
 40
0.0
 40
0.0
 40
0.1789915567
 40
0.3846561164
 40
0.6014080718
 40
0.8119724658
 40
1.0
 40
1.0
 40
1.0
 40
1.0
 10
14.3652965742
 20
9.7404148017
 30
0.0
 10
14.3245494457
 20
9.7281393317
 30
0.0
 10
14.2338451563
 20
9.71221916
 30
0.0
 10
14.090569573
 20
9.7085986233
 30
0.0
 10
13.9404121607
 20
9.7237007743
 30
0.0
 10
13.7974161896
 20
9.7561411322
 30
0.0
 10
13.7082950882
 20
9.7899145597
 30
0.0
 10
13.6683670078
 20
9.8100200154
 30
0.0
 11
14.3652965742
 21
9.7404148017
 31
0.0
 11
14.2399326393
 21
9.7162688988
 31
0.0
 11
14.0933121873
 21
9.7116572377
 31
0.0
 11
13.9394763365
 21
9.7270214546
 31
0.0
 11
13.7931571886
 21
9.7608901941
 31
0.0
 11
13.6683670078
 21
9.8100200154
 31
0.0
  0
SPLINE
  5
288
100
AcDbEntity
  8
RACCORDO
100
AcDbSpline
 62
253
  6
CONTINUOUS
 70
0
 71
3
 72
12
 73
8
 74
6
 42
0.0000001
 43
0.0000001
 44
0.0000000001
 12
-0.0374174657
 22
0.7304973096
 32
0.0
 13
-0.6492234488
 23
0.3369499956
 33
0.0
 40
0.0
 40
0.0
 40
0.0
 40
0.0
 40
0.1928259683
 40
0.4024760466
 40
0.6157963649
 40
0.8188891738
 40
1.0
 40
1.0
 40
1.0
 40
1.0
 10
14.699387372
 20
10.2693887301
 30
0.0
 10
14.6969823523
 20
10.3163416804
 30
0.0
 10
14.6791620699
 20
10.4138104473
 30
0.0
 10
14.6241131899
 20
10.5542705519
 30
0.0
 10
14.5440910937
 20
10.6852483034
 30
0.0
 10
14.4465935752
 20
10.7945282791
 30
0.0
 10
14.3700108567
 20
10.850491871
 30
0.0
 10
14.3308170583
 20
10.8708336351
 30
0.0
 11
14.699387372
 21
10.2693887301
 31
0.0
 11
14.6757388598
 21
10.4084355599
 31
0.0
 11
14.6204485152
 21
10.5514707851
 31
0.0
 11
14.5389206502
 21
10.6845116869
 31
0.0
 11
14.4391248695
 21
10.7945519937
 31
0.0
 11
14.3308170583
 21
10.8708336351
 31
0.0
  0
SPLINE
  5
289
100
AcDbEntity
  8
RACCORDO
100
AcDbSpline
 62
253
  6
CONTINUOUS
 70
0
 71
3
 72
13
 73
9
 74
7
 42
0.0000001
 43
0.0000001
 44
0.0000000001
 12
-1.1243365392
 22
-0.6347540669
 32
0.0
 13
-0.1501815405
 23
-1.2823770443
 33
0.0
 40
0.0
 40
0.0
 40
0.0
 40
0.0
 40
0.1506530788
 40
0.3139409544
 40
0.4857657827
 40
0.6610165553
 40
0.8341947043
 40
1.0
 40
1.0
 40
1.0
 40
1.0
 10
14.3308170555
 20
10.8708336335
 30
0.0
 10
14.2743554684
 20
10.8389577487
 30
0.0
 10
14.1637689456
 20
10.7596458902
 30
0.0
 10
14.0165720037
 20
10.6100595104
 30
0.0
 10
13.8871481934
 20
10.4316277076
 30
0.0
 10
13.7819270223
 20
10.2331628596
 30
0.0
 10
13.7060674001
 20
10.0245194315
 30
0.0
 10
13.6766672905
 20
9.8808949789
 30
0.0
 10
13.6683669923
 20
9.8100200105
 30
0.0
 11
14.3308170555
 21
10.8708336335
 31
0.0
 11
14.1717788272
 21
10.7588394927
 31
0.0
 11
14.0230916435
 21
10.6093723185
 31
0.0
 11
13.8923843362
 21
10.4301153329
 31
0.0
 11
13.7863321101
 21
10.2302338377
 31
0.0
 11
13.7103579399
 21
10.0199394359
 31
0.0
 11
13.6683669923
 21
9.8100200105
 31
0.0
  0
SPLINE
  5
28A
100
AcDbEntity
  8
RACCORDO
100
AcDbSpline
 62
253
  6
CONTINUOUS
 70
0
 71
3
 72
13
 73
9
 74
7
 42
0.0000001
 43
0.0000001
 44
0.0000000001
 12
-0.5648618469
 22
-0.3138350159
 32
0.0
 13
-0.0758656678
 23
-0.641720908
 33
0.0
 40
0.0
 40
0.0
 40
0.0
 40
0.0
 40
0.1504377925
 40
0.3142368106
 40
0.4865325906
 40
0.6620001987
 40
0.8351706748
 40
1.0
 40
1.0
 40
1.0
 40
1.0
 10
14.699387372
 20
10.2693887301
 30
0.0
 10
14.6710618489
 20
10.2536511811
 30
0.0
 10
14.6153637558
 20
10.21434735
 30
0.0
 10
14.5410527191
 20
10.1398730336
 30
0.0
 10
14.4756082853
 20
10.0507314666
 30
0.0
 10
14.422450415
 20
9.9514934599
 30
0.0
 10
14.384241095
 20
9.8473276536
 30
0.0
 10
14.3694648698
 20
9.7756729431
 30
0.0
 10
14.3652965742
 20
9.7404148017
 30
0.0
 11
14.699387372
 21
10.2693887301
 31
0.0
 11
14.6194974436
 21
10.2140023536
 31
0.0
 11
14.5443306785
 21
10.1394827109
 31
0.0
 11
14.4782238364
 21
10.0498973197
 31
0.0
 11
14.4246559863
 21
9.9499636841
 31
0.0
 11
14.3863439493
 21
9.8448255723
 31
0.0
 11
14.3652965742
 21
9.7404148017
 31
0.0
  0
SPLINE
  5
28B
100
AcDbEntity
  8
RACCORDO
100
AcDbSpline
 62
253
  6
CONTINUOUS
 70
0
 71
3
 72
10
 73
6
 74
4
 42
0.0000001
 43
0.0000001
 44
0.0000000001
 12
-1.2564189157
 22
9.733705015
 32
0.0
 13
-0.1508143791
 23
9.8132999971
 33
0.0
 40
0.0
 40
0.0
 40
0.0
 40
0.0
 40
0.3266719672
 40
0.6600587598
 40
1.0
 40
1.0
 40
1.0
 40
1.0
 10
-1.2573024657
 20
-19.4651856201
 30
0.0
 10
-1.3941147453
 20
-18.4052760983
 30
0.0
 10
-1.6273026321
 20
-16.2578620908
 30
0.0
 10
-1.8555354868
 20
-12.9936529241
 30
0.0
 10
-1.9281124881
 20
-10.7914897976
 30
0.0
 10
-1.9452018304
 20
-9.679508007
 30
0.0
 11
-1.2573024657
 21
-19.4651856201
 31
0.0
 11
-1.6047129081
 21
-16.2779551399
 31
0.0
 11
-1.834157704
 21
-13.013998843
 31
0.0
 11
-1.9452018304
 21
-9.679508007
 31
0.0
  0
SPLINE
  5
28C
100
AcDbEntity
  8
RACCORDO
100
AcDbSpline
 62
253
  6
CONTINUOUS
 70
0
 71
3
 72
10
 73
6
 74
4
 42
0.0000001
 43
0.0000001
 44
0.0000000001
 12
0.1591879723
 22
10.5229457037
 32
0.0
 13
1.1906148778
 23
10.4565846866
 33
0.0
 40
0.0
 40
0.0
 40
0.0
 40
0.0
 40
0.3279357552
 40
0.6613609494
 40
1.0
 40
1.0
 40
1.0
 40
1.0
 10
-1.9452018304
 20
6.7749746649
 30
0.0
 10
-1.9278006878
 20
7.925258047
 30
0.0
 10
-1.8524641935
 20
10.2446536906
 30
0.0
 10
-1.6221260967
 20
13.7456960068
 30
0.0
 10
-1.3916986963
 20
16.0925187691
 30
0.0
 10
-1.2573024657
 20
17.2728547395
 30
0.0
 11
-1.9452018304
 21
6.7749746649
 31
0.0
 11
-1.8341577034
 21
10.2244327576
 31
0.0
 11
-1.6047129082
 21
13.7259400052
 31
0.0
 11
-1.2573024657
 21
17.2728547395
 31
0.0
  0
SPLINE
  5
28D
100
AcDbEntity
  8
RACCORDO
100
AcDbSpline
 62
253
  6
CONTINUOUS
 70
0
 71
3
 72
13
 73
9
 74
7
 42
0.0000001
 43
0.0000001
 44
0.0000000001
 12
0.1471877045
 22
1.2803313658
 32
0.0
 13
1.1132105842
 23
0.6493649373
 33
0.0
 40
0.0
 40
0.0
 40
0.0
 40
0.0
 40
0.1662780416
 40
0.3399123786
 40
0.5154551559
 40
0.6872827108
 40
0.8501853746
 40
1.0
 40
1.0
 40
1.0
 40
1.0
 10
-1.2573024657
 20
17.2728547395
 30
0.0
 10
-1.2491444379
 20
17.3438184036
 30
0.0
 10
-1.2202582133
 20
17.4876530835
 30
0.0
 10
-1.1457487283
 20
17.6968791486
 30
0.0
 10
-1.0424002395
 20
17.896196019
 30
0.0
 10
-0.9152837964
 20
18.0757083955
 30
0.0
 10
-0.7707141743
 20
18.2265489688
 30
0.0
 10
-0.6619072093
 20
18.3069717731
 30
0.0
 10
-0.606315467
 20
18.3393998948
 30
0.0
 11
-1.2573024657
 21
17.2728547395
 31
0.0
 11
-1.2160379955
 21
17.4831374036
 31
0.0
 11
-1.1413782383
 21
17.6940890119
 31
0.0
 11
-1.0371611694
 21
17.8948880857
 31
0.0
 11
-0.9087166589
 21
18.0752764697
 31
0.0
 11
-0.7626019459
 21
18.2260298793
 31
0.0
 11
-0.606315467
 21
18.3393998948
 31
0.0
  0
SPLINE
  5
28E
100
AcDbEntity
  8
RACCORDO
100
AcDbSpline
 62
253
  6
CONTINUOUS
 70
0
 71
3
 72
10
 73
6
 74
4
 42
0.0000001
 43
0.0000001
 44
0.0000000001
 12
-0.0205928071
 22
-0.2356380936
 32
0.0
 13
0.2085852542
 23
-0.1035542269
 33
0.0
 40
0.0
 40
0.0
 40
0.0
 40
0.0
 40
0.1868470084
 40
0.5329596228
 40
1.0
 40
1.0
 40
1.0
 40
1.0
 10
-1.403899547
 20
17.4394755754
 30
0.0
 10
-1.4051821152
 20
17.4247994844
 30
0.0
 10
-1.3987287976
 20
17.3811818269
 30
0.0
 10
-1.34368525
 20
17.3218688245
 30
0.0
 10
-1.2897594308
 20
17.2889809952
 30
0.0
 10
-1.2572868522
 20
17.2728596601
 30
0.0
 11
-1.403899547
 21
17.4394755754
 31
0.0
 11
-1.3978447719
 21
17.3956918691
 31
0.0
 11
-1.3486807433
 21
17.3318210789
 31
0.0
 11
-1.2572868522
 21
17.2728596601
 31
0.0
  0
SPLINE
  5
28F
100
AcDbEntity
  8
RACCORDO
100
AcDbSpline
 62
253
  6
CONTINUOUS
 70
0
 71
3
 72
10
 73
6
 74
4
 42
0.0000001
 43
0.0000001
 44
0.0000000001
 12
0.2096624774
 22
0.1256296853
 32
0.0
 13
0.2178317665
 23
-0.1049176113
 33
0.0
 40
0.0
 40
0.0
 40
0.0
 40
0.0
 40
0.1202188596
 40
0.5250386082
 40
1.0
 40
1.0
 40
1.0
 40
1.0
 10
-0.8398081821
 20
18.3478159176
 30
0.0
 10
-0.8314063875
 20
18.3528502701
 30
0.0
 10
-0.7930144788
 20
18.3718261041
 30
0.0
 10
-0.7094501663
 20
18.3789873928
 30
0.0
 10
-0.6408026933
 20
18.3560104997
 30
0.0
 10
-0.606315467
 20
18.3393998948
 30
0.0
 11
-0.8398081821
 21
18.3478159176
 31
0.0
 11
-0.8135376439
 21
18.360742382
 31
0.0
 11
-0.7163427862
 21
18.3722863326
 31
0.0
 11
-0.606315467
 21
18.3393998948
 31
0.0
  0
ELLIPSE
  5
290
100
AcDbEntity
  8
RACCORDO
100
AcDbEllipse
 62
7
  6
CONTINUOUS
 10
-14.7044848092
 20
26.8954898565
 30
0.0
 11
-0.2233600088
 21
0.4482653189
 31
0.0
 40
0.6115397683
 41
-0.6826457435
 42
0.0447037554
  0
ELLIPSE
  5
291
100
AcDbEntity
  8
RACCORDO
100
AcDbEllipse
 62
7
  6
CONTINUOUS
 10
0.2950082733
 20
19.3957433152
 30
0.0
 11
-0.2229437124
 21
0.4478985596
 31
0.0
 40
0.6127966524
 41
-2.2284212222
 42
-0.6832251299
  0
ELLIPSE
  5
292
100
AcDbEntity
  8
DRAFT
100
AcDbEllipse
 62
7
  6
CONTINUOUS
 10
372.9633534085
 20
164.5830241553
 30
0.0
 11
229.3329881914
 21
442.7632432818
 31
0.0
 40
0.6229838795
 41
-4.0287440768
 42
-4.0088230397
  0
ELLIPSE
  5
293
100
AcDbEntity
  8
RACCORDO
100
AcDbEllipse
 62
7
  6
CONTINUOUS
 10
1.1700624284
 20
18.9582162377
 30
0.0
 11
-0.2233600088
 21
0.4482653189
 31
0.0
 40
0.6115397683
 41
-0.6826457435
 42
0.0447037554
  0
ELLIPSE
  5
294
100
AcDbEntity
  8
RACCORDO
100
AcDbEllipse
 62
7
  6
CONTINUOUS
 10
16.1695555109
 20
-26.1491051409
 30
0.0
 11
-0.2233600088
 21
0.4482653189
 31
0.0
 40
0.6115397683
 41
-3.1862959099
 42
-2.2544905934
  0
ELLIPSE
  5
295
100
AcDbEntity
  8
RACCORDO
100
AcDbEllipse
 62
7
  6
CONTINUOUS
 10
16.1695555109
 20
11.4584696964
 30
0.0
 11
-0.2229437124
 21
0.4478985596
 31
0.0
 40
0.6127966524
 41
-2.2529729335
 42
-0.6832251299
  0
ENDSEC
  0
SECTION
  2
OBJECTS
  0
DICTIONARY
  5
C
100
AcDbDictionary
280
0
281
1
  3
ACAD_GROUP
350
D
  3
ACAD_MLINESTYLE
350
17
  3
ACAD_LAYOUT
350
1A
  3
ACAD_PLOTSETTINGS
350
19
  3
ACAD_PLOTSTYLENAME
350
E
  0
DICTIONARY
  5
D
102
{ACAD_REACTORS
330
C
102
}
100
AcDbDictionary
280
0
281
1
  0
ACDBDICTIONARYWDFLT
  5
E
102
{ACAD_REACTORS
330
C
102
}
100
AcDbDictionary
281
1
  3
Normal
350
F
100
AcDbDictionaryWithDefault
340
F
  0
DICTIONARY
  5
17
102
{ACAD_REACTORS
330
C
102
}
100
AcDbDictionary
280
0
281
1
  3
Standard
350
18
  0
DICTIONARY
  5
19
102
{ACAD_REACTORS
330
C
102
}
100
AcDbDictionary
281
1
  0
DICTIONARY
  5
1A
102
{ACAD_REACTORS
330
C
102
}
100
AcDbDictionary
281
1
  3
Model
350
296
  3
Layout1
350
297
  0
ACDBPLACEHOLDER
  5
F
102
{ACAD_REACTORS
330
E
102
}
  0
MLINESTYLE
  5
18
102
{ACAD_REACTORS
330
17
102
}
100
AcDbMlineStyle
  2
STANDARD
 70
0
  3

 62
256
 51
90.0
 52
90.0
 71
2
 49
0.5
 62
256
  6
BYLAYER
 49
-0.5
 62
256
  6
BYLAYER
  0
LAYOUT
  5
296
102
{ACAD_REACTORS
330
1A
102
}
100
AcDbPlotSettings
  1

  2
none_device
  4
ISO_A4_(297.00_x_210.00_MM)
  6

 40
0.0
 41
0.0
 42
0.0
 43
0.0
 44
297.0
 45
210.0
 46
0.0
 47
0.0
 48
0.0
 49
0.0
140
0.0
141
0.0
142
1.0
143
1.0
 70
1024
 72
1
 73
0
 74
0
  7

 75
0
147
1.0
148
0.0
149
0.0
100
AcDbLayout
  1
Model
 70
0
 71
0
 10
0.0
 20
0.0
 11
297.0
 21
210.0
 12
0.0
 22
0.0
 32
0.0
 14
0.0
 24
0.0
 34
0.0
 15
0.0
 25
0.0
 35
0.0
146
0.0
 13
0.0
 23
0.0
 33
0.0
 16
1.0
 26
0.0
 36
0.0
 17
0.0
 27
1.0
 37
0.0
 76
0
330
20F
345
0
346
0
  0
LAYOUT
  5
297
102
{ACAD_REACTORS
330
1A
102
}
100
AcDbPlotSettings
  1

  2
none_device
  4
ISO_A4_(297.00_x_210.00_MM)
  6

 40
0.0
 41
0.0
 42
0.0
 43
0.0
 44
297.0
 45
210.0
 46
0.0
 47
0.0
 48
0.0
 49
0.0
140
0.0
141
0.0
142
1.0
143
1.0
 70
0
 72
1
 73
0
 74
0
  7

 75
0
147
1.0
148
0.0
149
0.0
100
AcDbLayout
  1
Layout1
 70
0
 71
1
 10
0.0
 20
0.0
 11
297.0
 21
210.0
 12
0.0
 22
0.0
 32
0.0
 14
0.0
 24
0.0
 34
0.0
 15
0.0
 25
0.0
 35
0.0
146
0.0
 13
0.0
 23
0.0
 33
0.0
 16
1.0
 26
0.0
 36
0.0
 17
0.0
 27
1.0
 37
0.0
 76
0
330
210
345
0
346
0
  0
ENDSEC
  0
EOF
