  0
SECTION
  2
HEADER
  9
$ACADVER
  1
AC1015
  9
$DWGCODEPAGE
  3
ANSI_1252
  9
$EXTMAX
 10
297.0
 20
210.0
 30
0.0
  9
$EXTMIN
 10
0.0
 20
0.0
 30
0.0
  9
$LIMMIN
 10
0.0
 20
0.0
  9
$LIMMAX
 10
297.0
 20
210.0
  9
$VIEWCTR
 10
148.5
 20
105.0
  9
$VIEWSIZE
 40
210.0
  9
$CLAYER
  8
0
  9
$LTSCALE
 40
16.335
  9
$CELTYPE
  6
BYLAYER
  9
$DIMSCALE
 40
1.0
  9
$DIMASZ
 40
3.0
  9
$DIMEXO
 40
1.85625
  9
$DIMDLI
 40
11.286
  9
$DIMEXE
 40
5.346
  9
$DIMCEN
 40
2.673
  9
$DIMLFAC
 40
1.0
  9
$DIMBLK
  1
_FILLED
  9
$DIMTXT
 40
3.0
  9
$DIMTOL
 70
1
  9
$DIMLIM
 70
0
  9
$DIMTFAC
 40
1.0
  9
$DIMTP
 40
0.01
  9
$DIMTM
 40
0.01
  9
$PDMODE
 70
3
  9
$PDSIZE
 40
3.0
  9
$HANDSEED
  5
3E9
  9
$TILEMODE
 70
1
  9
$MEASUREMENT
 70
1
  9
$INSUNITS
 70
4
  0
ENDSEC
  0
SECTION
  2
CLASSES
  0
CLASS
  1
ACDBDICTIONARYWDFLT
  2
AcDbDictionaryWithDefault
  3
AutoCAD 2000
 90
0
280
0
281
0
  0
CLASS
  1
ACDBPLACEHOLDER
  2
AcDbPlaceHolder
  3
AutoCAD 2000
 90
0
280
0
281
0
  0
CLASS
  1
LAYOUT
  2
AcDbLayout
  3
AutoCAD 2000
 90
0
280
0
281
0
  0
ENDSEC
  0
SECTION
  2
TABLES
  0
TABLE
  2
VPORT
  5
8
100
AcDbSymbolTable
 70
2
  0
VPORT
  5
1F4
100
AcDbSymbolTableRecord
100
AcDbViewportTableRecord
  2
*ACTIVE
 70
0
 10
0.0
 20
0.0
 11
1.0
 21
1.0
 12
148.5
 22
105.0
 13
0.0
 23
0.0
 14
1.0
 24
1.0
 15
0.0
 25
0.0
 16
0.0
 26
0.0
 36
1.0
 17
0.0
 27
0.0
 37
0.0
 40
210.0
 41
1.4142857143
 42
50.0
 43
0.0
 44
0.0
 50
0.0
 51
0.0
 71
0
 72
100
 73
1
 74
1
 75
0
 76
0
 77
0
 78
0
  0
ENDTAB
  0
TABLE
  2
LTYPE
  5
5
100
AcDbSymbolTable
 70
6
  0
LTYPE
  5
14
100
AcDbSymbolTableRecord
100
AcDbLinetypeTableRecord
  2
BYBLOCK
 70
0
  3

 72
65
 73
0
 40
0.0
  0
LTYPE
  5
15
100
AcDbSymbolTableRecord
100
AcDbLinetypeTableRecord
  2
BYLAYER
 70
0
  3

 72
65
 73
0
 40
0.0
  0
LTYPE
  5
16
100
AcDbSymbolTableRecord
100
AcDbLinetypeTableRecord
  2
CONTINUOUS
 70
64
  3
Solid line
 72
65
 73
0
 40
0.0
  0
LTYPE
  5
1F5
100
AcDbSymbolTableRecord
100
AcDbLinetypeTableRecord
  2
CENTER
 70
64
  3
____ _ ____ _ ____ _ ____ _ ____ _ ____ _ ____
 72
65
 73
4
 40
0.6
 49
0.375
 74
0
 49
-0.075
 74
0
 49
0.075
 74
0
 49
-0.075
 74
0
  0
LTYPE
  5
1F6
100
AcDbSymbolTableRecord
100
AcDbLinetypeTableRecord
  2
HIDDEN
 70
64
  3
- - - - - - - - - - - - - - - - - - - -
 72
65
 73
2
 40
0.2
 49
0.1
 74
0
 49
-0.1
 74
0
  0
LTYPE
  5
1F7
100
AcDbSymbolTableRecord
100
AcDbLinetypeTableRecord
  2
PHANTOM
 70
64
  3
_____ _ _ _____ _ _ _____ _ _ _____
 72
65
 73
6
 40
0.8
 49
0.45
 74
0
 49
-0.05
 74
0
 49
0.1
 74
0
 49
-0.05
 74
0
 49
0.1
 74
0
 49
-0.05
 74
0
  0
LTYPE
  5
1F8
100
AcDbSymbolTableRecord
100
AcDbLinetypeTableRecord
  2
DOT
 70
64
  3
. . . . . . . . . . . . . . . . . . . .
 72
65
 73
2
 40
0.2
 49
0.1
 74
0
 49
-0.1
 74
0
  0
LTYPE
  5
1F9
100
AcDbSymbolTableRecord
100
AcDbLinetypeTableRecord
  2
DASHED
 70
64
  3
- - - - - - - - - - - - - - - - - - - -
 72
65
 73
2
 40
0.2
 49
0.1
 74
0
 49
-0.1
 74
0
  0
ENDTAB
  0
TABLE
  2
LAYER
  5
2
100
AcDbSymbolTable
 70
36
  0
LAYER
  5
10
100
AcDbSymbolTableRecord
100
AcDbLayerTableRecord
  2
0
 70
0
 62
7
  6
CONTINUOUS
370
-3
390
F
  0
LAYER
  5
1FA
100
AcDbSymbolTableRecord
100
AcDbLayerTableRecord
  2
DEFAULT_1
 70
0
 62
7
  6
CENTER
370
-3
390
F
  0
LAYER
  5
1FB
100
AcDbSymbolTableRecord
100
AcDbLayerTableRecord
  2
DEFAULT_2
 70
0
 62
7
  6
HIDDEN
370
-3
390
F
  0
LAYER
  5
1FC
100
AcDbSymbolTableRecord
100
AcDbLayerTableRecord
  2
DEFAULT_3
 70
0
 62
7
  6
PHANTOM
370
-3
390
F
  0
LAYER
  5
1FD
100
AcDbSymbolTableRecord
100
AcDbLayerTableRecord
  2
ASSI
 70
0
 62
7
  6
CONTINUOUS
370
-3
390
F
  0
LAYER
  5
1FE
100
AcDbSymbolTableRecord
100
AcDbLayerTableRecord
  2
COLOR9
 70
0
 62
7
  6
CONTINUOUS
370
-3
390
F
  0
LAYER
  5
1FF
100
AcDbSymbolTableRecord
100
AcDbLayerTableRecord
  2
COORDINATE
 70
0
 62
7
  6
CONTINUOUS
370
-3
390
F
  0
LAYER
  5
200
100
AcDbSymbolTableRecord
100
AcDbLayerTableRecord
  2
COORD_ORIGINE
 70
0
 62
7
  6
CONTINUOUS
370
-3
390
F
  0
LAYER
  5
201
100
AcDbSymbolTableRecord
100
AcDbLayerTableRecord
  2
COPY_PUBLISH
 70
0
 62
7
  6
CONTINUOUS
370
-3
390
F
  0
LAYER
  5
202
100
AcDbSymbolTableRecord
100
AcDbLayerTableRecord
  2
COSMETIC
 70
0
 62
7
  6
CONTINUOUS
370
-3
390
F
  0
LAYER
  5
203
100
AcDbSymbolTableRecord
100
AcDbLayerTableRecord
  2
CURVE
 70
0
 62
7
  6
CONTINUOUS
370
-3
390
F
  0
LAYER
  5
204
100
AcDbSymbolTableRecord
100
AcDbLayerTableRecord
  2
DRAFT
 70
0
 62
7
  6
CONTINUOUS
370
-3
390
F
  0
LAYER
  5
205
100
AcDbSymbolTableRecord
100
AcDbLayerTableRecord
  2
IGS_SCRITTE
 70
0
 62
7
  6
CONTINUOUS
370
-3
390
F
  0
LAYER
  5
206
100
AcDbSymbolTableRecord
100
AcDbLayerTableRecord
  2
IMPORT
 70
0
 62
7
  6
CONTINUOUS
370
-3
390
F
  0
LAYER
  5
207
100
AcDbSymbolTableRecord
100
AcDbLayerTableRecord
  2
IMPORT_IGES
 70
0
 62
7
  6
CONTINUOUS
370
-3
390
F
  0
LAYER
  5
208
100
AcDbSymbolTableRecord
100
AcDbLayerTableRecord
  2
INTFCLR_2
 70
0
 62
7
  6
CONTINUOUS
370
-3
390
F
  0
LAYER
  5
209
100
AcDbSymbolTableRecord
100
AcDbLayerTableRecord
  2
INTF_2
 70
0
 62
7
  6
CONTINUOUS
370
-3
390
F
  0
LAYER
  5
20A
100
AcDbSymbolTableRecord
100
AcDbLayerTableRecord
  2
INTF_YELLOW
 70
0
 62
7
  6
CONTINUOUS
370
-3
390
F
  0
LAYER
  5
20B
100
AcDbSymbolTableRecord
100
AcDbLayerTableRecord
  2
PIANI
 70
0
 62
7
  6
CONTINUOUS
370
-3
390
F
  0
LAYER
  5
20C
100
AcDbSymbolTableRecord
100
AcDbLayerTableRecord
  2
PIANI_ORIGINE
 70
0
 62
7
  6
CONTINUOUS
370
-3
390
F
  0
LAYER
  5
20D
100
AcDbSymbolTableRecord
100
AcDbLayerTableRecord
  2
PIANI_RIFERIMENTO
 70
0
 62
7
  6
CONTINUOUS
370
-3
390
F
  0
LAYER
  5
20E
100
AcDbSymbolTableRecord
100
AcDbLayerTableRecord
  2
RACCORDO
 70
0
 62
7
  6
CONTINUOUS
370
-3
390
F
  0
LAYER
  5
20F
100
AcDbSymbolTableRecord
100
AcDbLayerTableRecord
  2
SMUSSO
 70
0
 62
7
  6
CONTINUOUS
370
-3
390
F
  0
LAYER
  5
210
100
AcDbSymbolTableRecord
100
AcDbLayerTableRecord
  2
SNAPLINE
 70
0
 62
7
  6
CONTINUOUS
370
-3
390
F
  0
LAYER
  5
211
100
AcDbSymbolTableRecord
100
AcDbLayerTableRecord
  2
SUPERFICI
 70
0
 62
7
  6
CONTINUOUS
370
-3
390
F
  0
LAYER
  5
212
100
AcDbSymbolTableRecord
100
AcDbLayerTableRecord
  2
TRASH
 70
0
 62
7
  6
CONTINUOUS
370
-3
390
F
  0
LAYER
  5
213
100
AcDbSymbolTableRecord
100
AcDbLayerTableRecord
  2
WHITE
 70
0
 62
7
  6
CONTINUOUS
370
-3
390
F
  0
LAYER
  5
214
100
AcDbSymbolTableRecord
100
AcDbLayerTableRecord
  2
XSEC_DATUMS
 70
0
 62
7
  6
CONTINUOUS
370
-3
390
F
  0
ENDTAB
  0
TABLE
  2
STYLE
  5
3
100
AcDbSymbolTable
 70
1
  0
STYLE
  5
11
100
AcDbSymbolTableRecord
100
AcDbTextStyleTableRecord
  2
STANDARD
 70
0
 40
0.0
 41
0.8
 50
0.0
 71
0
 42
0.2
  3
txt
  4

  0
STYLE
  5
215
100
AcDbSymbolTableRecord
100
AcDbTextStyleTableRecord
  2
TEXTSTYLE_1
 70
0
 40
0.0
 41
0.8
 50
0.0
 71
0
 42
0.2
  3
gdt
  4

  0
ENDTAB
  0
TABLE
  2
VIEW
  5
6
100
AcDbSymbolTable
 70
0
  0
ENDTAB
  0
TABLE
  2
UCS
  5
7
100
AcDbSymbolTable
 70
0
  0
ENDTAB
  0
TABLE
  2
APPID
  5
9
100
AcDbSymbolTable
 70
1
  0
APPID
  5
216
100
AcDbSymbolTableRecord
100
AcDbRegAppTableRecord
  2
ACAD
 70
0
  0
ENDTAB
  0
TABLE
  2
BLOCK_RECORD
  5
1
100
AcDbSymbolTable
 70
0
  0
BLOCK_RECORD
  5
217
100
AcDbSymbolTableRecord
100
AcDbBlockTableRecord
  2
*Model_Space
  0
BLOCK_RECORD
  5
218
100
AcDbSymbolTableRecord
100
AcDbBlockTableRecord
  2
*Paper_Space
  0
ENDTAB
  0
TABLE
  2
DIMSTYLE
  5
A
100
AcDbSymbolTable
 70
1
100
AcDbDimStyleTable
 71
0
  0
DIMSTYLE
105
219
100
AcDbSymbolTableRecord
100
AcDbDimStyleTableRecord
  2
STANDARD
 70
0
  3

  4

 40
1.0
 41
3.0
 42
0.0625
 43
0.38
 44
0.18
 45
0.0
 46
0.0
 47
0.01
 48
0.01
140
3.0
141
0.09
142
0.0
143
25.4
144
1.0
145
0.0
146
1.0
147
0.09
 71
1.0
 72
0.0
 73
0
 74
0
 75
0
 76
0
 77
1
 78
8
170
0
171
2
172
0
173
0
174
0
175
0
176
0
177
0
178
0
270
2
271
2
272
2
273
2
274
2
275
0
280
0
281
0
282
0
283
1
284
8
285
0
286
0
287
3
288
0
340
11
  0
ENDTAB
  0
ENDSEC
  0
SECTION
  2
BLOCKS
  0
BLOCK
  5
20
100
AcDbEntity
  8
0
100
AcDbBlockBegin
  2
*Model_Space
 70
0
 10
0.0
 20
0.0
 30
0.0
  3
*Model_Space
  1

  0
ENDBLK
  5
21
100
AcDbEntity
  8
0
100
AcDbBlockEnd
  0
BLOCK
  5
1C
100
AcDbEntity
  8
0
100
AcDbBlockBegin
  2
*Paper_Space
 70
0
 10
0.0
 20
0.0
 30
0.0
  3
*Paper_Space
  1

  0
ENDBLK
  5
1D
100
AcDbEntity
  8
0
100
AcDbBlockEnd
  0
ENDSEC
  0
SECTION
  2
ENTITIES
  0
LWPOLYLINE
  5
21A
100
AcDbEntity
  8
0
100
AcDbPolyline
 62
7
  6
CONTINUOUS
 90
43
 70
0
 10
-6.8696153342
 20
22.3251360515
 10
-6.8854381194
 20
22.315382962
 10
-6.9068090758
 20
22.3015103026
 10
-6.9279409851
 20
22.2869791118
 10
-6.9488457099
 20
22.2717807339
 10
-6.9694996985
 20
22.2559314832
 10
-6.9898451728
 20
22.2394779318
 10
-7.0098808141
 20
22.2224259345
 10
-7.0296027421
 20
22.2047823519
 10
-7.0489539311
 20
22.1866039952
 10
-7.0679344079
 20
22.1678996501
 10
-7.0865431469
 20
22.1486773372
 10
-7.1047263296
 20
22.1290025624
 10
-7.1224814501
 20
22.108890818
 10
-7.1398135788
 20
22.0883474471
 10
-7.1566840198
 20
22.067431445
 10
-7.1730859557
 20
22.0461664472
 10
-7.1890309111
 20
22.0245517706
 10
-7.204508425
 20
22.0026144871
 10
-7.2195178906
 20
21.9803680801
 10
-7.234062184
 20
21.9578199319
 10
-7.2481348829
 20
21.9349900229
 10
-7.2617340374
 20
21.9118916799
 10
-7.2748611407
 20
21.8885305287
 10
-7.2875142224
 20
21.8649166394
 10
-7.2996909398
 20
21.8410597195
 10
-7.3113892909
 20
21.816966661
 10
-7.3226070381
 20
21.7926437866
 10
-7.3333413158
 20
21.7680958809
 10
-7.343586471
 20
21.7433327143
 10
-7.3533350379
 20
21.7183673724
 10
-7.3625822611
 20
21.6932042529
 10
-7.3713212115
 20
21.6678522937
 10
-7.3795409763
 20
21.6423301224
 10
-7.3872350006
 20
21.6166434048
 10
-7.3943954071
 20
21.5907987517
 10
-7.4010106774
 20
21.5648144435
 10
-7.4070724474
 20
21.5386965947
 10
-7.4125711406
 20
21.5124509846
 10
-7.4174950529
 20
21.486092066
 10
-7.4218332092
 20
21.4596268055
 10
-7.425574387
 20
21.4330592925
 10
-7.427963105
 20
21.4132302673
  0
LINE
  5
21B
100
AcDbEntity
  8
0
100
AcDbLine
 62
7
  6
CONTINUOUS
 10
-6.8696145841
 20
22.3251365366
 11
-5.104130335
 21
23.389181621
  0
LINE
  5
21C
100
AcDbEntity
  8
0
100
AcDbLine
 62
253
  6
CONTINUOUS
 10
-6.6300227771
 20
22.3200672003
 11
-4.8785770118
 21
23.3756513881
  0
LWPOLYLINE
  5
21D
100
AcDbEntity
  8
0
100
AcDbPolyline
 62
7
  6
CONTINUOUS
 90
30
 70
0
 10
7.8329152343
 20
-23.3370257369
 10
7.8443054652
 20
-23.3425932946
 10
7.8638514001
 20
-23.3515639202
 10
7.8836580377
 20
-23.3599295097
 10
7.9037154956
 20
-23.3676869067
 10
7.92403281
 20
-23.3748389476
 10
7.9445915907
 20
-23.3813776819
 10
7.9653733937
 20
-23.3872960878
 10
7.9863888847
 20
-23.3925947868
 10
8.0076205818
 20
-23.3972657409
 10
8.0290495546
 20
-23.4013017453
 10
8.0506859908
 20
-23.4047007107
 10
8.072512524
 20
-23.407454693
 10
8.0945103533
 20
-23.4095563119
 10
8.1166889945
 20
-23.4110008126
 10
8.1390321974
 20
-23.4117804296
 10
8.1615202006
 20
-23.4118878573
 10
8.184158785
 20
-23.4113157248
 10
8.206933207
 20
-23.4100563496
 10
8.2298225984
 20
-23.4081029567
 10
8.2528252349
 20
-23.4054471743
 10
8.2759246098
 20
-23.4020819751
 10
8.2991024176
 20
-23.3980014473
 10
8.3223562223
 20
-23.3931966763
 10
8.3456704568
 20
-23.3876607724
 10
8.3690276288
 20
-23.3813881214
 10
8.3924247205
 20
-23.374369005
 10
8.41585076
 20
-23.3665951064
 10
8.4392840723
 20
-23.3580624108
 10
8.4561990496
 20
-23.3514267175
  0
LINE
  5
21E
100
AcDbEntity
  8
0
100
AcDbLine
 62
7
  6
CONTINUOUS
 10
-7.0330699959
 20
-15.9040331466
 11
7.8329489819
 21
-23.3370426355
  0
LINE
  5
21F
100
AcDbEntity
  8
0
100
AcDbLine
 62
7
  6
CONTINUOUS
 10
7.8329171947
 20
-23.3370267405
 11
7.832945784
 21
-23.3370410366
  0
LINE
  5
220
100
AcDbEntity
  8
0
100
AcDbLine
 62
253
  6
CONTINUOUS
 10
-7.2806543044
 20
-15.4905487113
 11
7.5765588946
 21
-22.9191553108
  0
LWPOLYLINE
  5
221
100
AcDbEntity
  8
0
100
AcDbPolyline
 62
7
  6
CONTINUOUS
 90
22
 70
0
 10
-7.4279628003
 20
21.4132331204
 10
-7.4831220218
 20
20.9095876358
 10
-7.5366028268
 20
20.4007061934
 10
-7.5877266481
 20
19.8926615879
 10
-7.6364910866
 20
19.3854758027
 10
-7.6828942386
 20
18.8791679288
 10
-7.726934352
 20
18.3737559006
 10
-7.7686096222
 20
17.8692585725
 10
-7.8079183431
 20
17.3656955087
 10
-7.8448588862
 20
16.8630857095
 10
-7.8794296472
 20
16.3614482948
 10
-7.9116291612
 20
15.8608029697
 10
-7.9414560065
 20
15.3611696053
 10
-7.9689088278
 20
14.8625678586
 10
-7.993986495
 20
14.3650166444
 10
-8.0166879202
 20
13.8685347139
 10
-8.0370120216
 20
13.3731413644
 10
-8.0549579151
 20
12.878855052
 10
-8.0705247842
 20
12.3856932685
 10
-8.0837118178
 20
11.8936746079
 10
-8.0945183443
 20
11.4028203179
 10
-8.1028499856
 20
10.9194763834
  0
LINE
  5
222
100
AcDbEntity
  8
0
100
AcDbLine
 62
253
  6
CONTINUOUS
 10
10.1285103709
 20
15.8721076967
 11
8.250314735
 21
14.8798984443
  0
LINE
  5
223
100
AcDbEntity
  8
0
100
AcDbLine
 62
253
  6
CONTINUOUS
 10
10.5262523145
 20
15.2863027047
 11
8.6098174698
 21
14.2738925232
  0
LINE
  5
224
100
AcDbEntity
  8
0
100
AcDbLine
 62
253
  6
CONTINUOUS
 10
6.8521974777
 20
-13.1152466717
 11
-7.9563947139
 21
-5.7109505759
  0
LWPOLYLINE
  5
225
100
AcDbEntity
  8
0
100
AcDbPolyline
 62
7
  6
CONTINUOUS
 90
36
 70
0
 10
-7.4270741564
 20
-15.3141375384
 10
-7.4245913213
 20
-15.3322839802
 10
-7.4206857912
 20
-15.3566312484
 10
-7.4161865311
 20
-15.3805602122
 10
-7.4111077296
 20
-15.4040593243
 10
-7.4054615798
 20
-15.4271293762
 10
-7.3992571619
 20
-15.4497792077
 10
-7.3925064948
 20
-15.4720030781
 10
-7.3852222185
 20
-15.4937947946
 10
-7.3774130401
 20
-15.5151586134
 10
-7.3690914206
 20
-15.5360865638
 10
-7.3602698996
 20
-15.5565723211
 10
-7.3509567391
 20
-15.5766191458
 10
-7.3411658093
 20
-15.5962170485
 10
-7.3309094577
 20
-15.6153604148
 10
-7.3201932475
 20
-15.6340560246
 10
-7.3090307272
 20
-15.6522951771
 10
-7.2974354947
 20
-15.6700699317
 10
-7.2854126099
 20
-15.687385483
 10
-7.2729771722
 20
-15.7042320176
 10
-7.2601427378
 20
-15.7206027666
 10
-7.2469112905
 20
-15.7365049849
 10
-7.2332980368
 20
-15.7519291053
 10
-7.219317137
 20
-15.7668680911
 10
-7.2049676763
 20
-15.7813302869
 10
-7.1902642483
 20
-15.795306905
 10
-7.1752217417
 20
-15.8087899048
 10
-7.1598382879
 20
-15.8217861802
 10
-7.1441293081
 20
-15.8342867929
 10
-7.1281093794
 20
-15.8462843275
 10
-7.1117738505
 20
-15.8577851848
 10
-7.0951377103
 20
-15.8687808519
 10
-7.0782161619
 20
-15.8792636812
 10
-7.0610033718
 20
-15.8892385478
 10
-7.0435070303
 20
-15.8987007473
 10
-7.0330458677
 20
-15.9040451861
  0
LWPOLYLINE
  5
226
100
AcDbEntity
  8
0
100
AcDbPolyline
 62
7
  6
CONTINUOUS
 90
22
 70
0
 10
-8.1028481856
 20
-5.5335254922
 10
-8.0945031938
 20
-6.0086169148
 10
-8.0836892429
 20
-6.4880856577
 10
-8.0704926611
 20
-6.9662001947
 10
-8.0549137895
 20
-7.4429398051
 10
-8.0369531071
 20
-7.918286605
 10
-8.0166110958
 20
-8.3922238646
 10
-7.9938883066
 20
-8.8647338965
 10
-7.9687854877
 20
-9.3357983913
 10
-7.9413033872
 20
-9.8053996801
 10
-7.9114427991
 20
-10.2735198855
 10
-7.879204742
 20
-10.7401406309
 10
-7.8445902917
 20
-11.2052435059
 10
-7.8076005736
 20
-11.6688101983
 10
-7.7682368514
 20
-12.1308231382
 10
-7.7265003992
 20
-12.5912650346
 10
-7.6823925788
 20
-13.0501179787
 10
-7.6359148496
 20
-13.5073648776
 10
-7.5870686002
 20
-13.9629896558
 10
-7.5358553783
 20
-14.4169751424
 10
-7.4822772385
 20
-14.8693016926
 10
-7.42707482
 20
-15.314132439
  0
LWPOLYLINE
  5
227
100
AcDbEntity
  8
0
100
AcDbPolyline
 62
7
  6
CONTINUOUS
 90
33
 70
0
 10
-8.1643292496
 20
3.0040674894
 10
-8.1641598556
 20
2.9935852029
 10
-8.1635787841
 20
2.9822511437
 10
-8.1625879077
 20
2.9709695884
 10
-8.1611901713
 20
2.9597445001
 10
-8.1593839656
 20
2.9485584897
 10
-8.1571707158
 20
2.9374259236
 10
-8.1545526307
 20
2.9263614393
 10
-8.1515235381
 20
2.9153485714
 10
-8.1480832161
 20
2.9044009152
 10
-8.1442329752
 20
2.8935342873
 10
-8.1399635362
 20
2.882736388
 10
-8.1352741278
 20
2.872021692
 10
-8.1301651897
 20
2.8614058156
 10
-8.1246241431
 20
2.8508789854
 10
-8.1186476579
 20
2.8404529314
 10
-8.1122372987
 20
2.8301467804
 10
-8.1053837153
 20
2.8199618576
 10
-8.0980833827
 20
2.809910062
 10
-8.0903380855
 20
2.8000093947
 10
-8.0821432444
 20
2.7902686713
 10
-8.0734977402
 20
2.7807011321
 10
-8.0644012397
 20
2.7713201546
 10
-8.0548468688
 20
2.7621319801
 10
-8.0448326941
 20
2.75314835
 10
-8.0343566931
 20
2.744380741
 10
-8.023406904
 20
2.7358324644
 10
-8.011975962
 20
2.7275120577
 10
-8.0000620386
 20
2.719432534
 10
-7.987655606
 20
2.7116014854
 10
-7.974746848
 20
2.7040276275
 10
-7.9613306435
 20
2.6967229083
 10
-7.9529159494
 20
2.6924146253
  0
LWPOLYLINE
  5
228
100
AcDbEntity
  8
0
100
AcDbPolyline
 62
7
  6
CONTINUOUS
 90
10
 70
0
 10
-8.1643293313
 20
2.3161527628
 10
-8.1630949834
 20
1.446361213
 10
-8.160455445
 20
0.5704201433
 10
-8.1564150004
 20
-0.3047630354
 10
-8.1509736587
 20
-1.1791843387
 10
-8.1441314382
 20
-2.0528404272
 10
-8.1358883572
 20
-2.9257281489
 10
-8.1262444401
 20
-3.7978440733
 10
-8.1151997305
 20
-4.6691841251
 10
-8.1028481859
 20
-5.5335254906
  0
LWPOLYLINE
  5
229
100
AcDbEntity
  8
0
100
AcDbPolyline
 62
7
  6
CONTINUOUS
 90
10
 70
0
 10
-8.1028499859
 20
10.9194763819
 10
-8.115207969
 20
10.0414030568
 10
-8.1262514483
 20
9.1582514327
 10
-8.1358942282
 20
8.2758221358
 10
-8.1441362528
 20
7.3941192946
 10
-8.1509774856
 20
6.513146372
 10
-8.156417896
 20
5.6329065468
 10
-8.1604574535
 20
4.7534031848
 10
-8.1630961368
 20
3.8746402871
 10
-8.1643293319
 20
3.0040478789
  0
LINE
  5
22A
100
AcDbEntity
  8
0
100
AcDbLine
 62
7
  6
CONTINUOUS
 10
0.797615252
 20
20.5375552562
 11
0.6541109776
 21
20.2485050634
  0
LWPOLYLINE
  5
22B
100
AcDbEntity
  8
0
100
AcDbPolyline
 62
7
  6
CONTINUOUS
 90
31
 70
0
 10
-7.9671958939
 20
2.6221704775
 10
-7.9753177052
 20
2.6176223548
 10
-7.9888999981
 20
2.6095329509
 10
-8.0019305018
 20
2.6011545616
 10
-8.0144153792
 20
2.5925001464
 10
-8.0263621233
 20
2.5835815472
 10
-8.037774474
 20
2.5744127969
 10
-8.0486557606
 20
2.5650088936
 10
-8.0590112915
 20
2.5553831165
 10
-8.0688429829
 20
2.5455519954
 10
-8.0781478981
 20
2.5355389273
 10
-8.0869364069
 20
2.525354026
 10
-8.0952254822
 20
2.5149971514
 10
-8.10301317
 20
2.5044905165
 10
-8.1103058513
 20
2.4938466716
 10
-8.1171259059
 20
2.4830510378
 10
-8.1234730492
 20
2.4721197344
 10
-8.1293474158
 20
2.4610701924
 10
-8.1347644517
 20
2.4498886413
 10
-8.1397234861
 20
2.4385885237
 10
-8.1442220018
 20
2.4271894253
 10
-8.1482672834
 20
2.415686228
 10
-8.1518575099
 20
2.4040956584
 10
-8.1549916697
 20
2.3924346795
 10
-8.1576742053
 20
2.3806983645
 10
-8.1599033115
 20
2.3689045252
 10
-8.1616785366
 20
2.3570693875
 10
-8.1630023538
 20
2.345185451
 10
-8.1638734543
 20
2.3332615772
 10
-8.1642899396
 20
2.3213231477
 10
-8.1643292596
 20
2.3161397614
  0
LINE
  5
22C
100
AcDbEntity
  8
0
100
AcDbLine
 62
7
  6
CONTINUOUS
 10
-7.8933039159
 20
2.6626085805
 11
-7.9671865303
 21
2.6221756337
  0
LINE
  5
22D
100
AcDbEntity
  8
0
100
AcDbLine
 62
253
  6
CONTINUOUS
 10
-7.8279741292
 20
2.6299436872
 11
-7.8487112234
 21
2.6185951198
  0
LINE
  5
22E
100
AcDbEntity
  8
0
100
AcDbLine
 62
7
  6
CONTINUOUS
 10
-2.8333546633
 20
0.3062706056
 11
-2.8333546633
 21
0.6952361608
  0
LINE
  5
22F
100
AcDbEntity
  8
0
100
AcDbLine
 62
7
  6
CONTINUOUS
 10
-2.4897537357
 20
0.3145868953
 11
-2.4897537357
 21
0.9358437963
  0
LINE
  5
230
100
AcDbEntity
  8
0
100
AcDbLine
 62
253
  6
CONTINUOUS
 10
-2.8976553511
 20
1.139794604
 11
-3.0136615129
 21
0.9203905349
  0
LINE
  5
231
100
AcDbEntity
  8
0
100
AcDbLine
 62
253
  6
CONTINUOUS
 10
-2.6608937852
 20
1.021413821
 11
-2.8333546633
 21
0.6952361608
  0
LINE
  5
232
100
AcDbEntity
  8
0
100
AcDbLine
 62
253
  6
CONTINUOUS
 10
-3.0136615129
 20
0.9203905349
 11
-3.9036808958
 21
0.4736503336
  0
LINE
  5
233
100
AcDbEntity
  8
0
100
AcDbLine
 62
253
  6
CONTINUOUS
 10
-2.8333574329
 20
0.69600373
 11
-3.7622649245
 21
0.2297438623
  0
LINE
  5
234
100
AcDbEntity
  8
0
100
AcDbLine
 62
253
  6
CONTINUOUS
 10
-2.8333546633
 20
0.3062706056
 11
-3.7972759507
 21
-0.1775642392
  0
LINE
  5
235
100
AcDbEntity
  8
0
100
AcDbLine
 62
7
  6
CONTINUOUS
 10
-3.6643931552
 20
1.4765272609
 11
-3.6644550124
 21
1.4764975097
  0
LINE
  5
236
100
AcDbEntity
  8
0
100
AcDbLine
 62
253
  6
CONTINUOUS
 10
-3.4047747155
 20
1.3933542862
 11
-3.7972759507
 21
1.2046581743
  0
LINE
  5
237
100
AcDbEntity
  8
0
100
AcDbLine
 62
253
  6
CONTINUOUS
 10
-3.0073917359
 20
1.1946627964
 11
-3.7622881691
 21
0.8317441376
  0
LINE
  5
238
100
AcDbEntity
  8
0
100
AcDbLine
 62
7
  6
CONTINUOUS
 10
-2.922564949
 20
1.152249403
 11
-3.8158321361
 21
0.7228086012
  0
LWPOLYLINE
  5
239
100
AcDbEntity
  8
0
100
AcDbPolyline
 62
7
  6
CONTINUOUS
 90
25
 70
0
 10
-3.6644565098
 20
1.4764967447
 10
-3.6636634567
 20
1.4768723371
 10
-3.6602206809
 20
1.4783533533
 10
-3.6566367292
 20
1.4796557292
 10
-3.6529135721
 20
1.4807768404
 10
-3.6490137113
 20
1.4817256911
 10
-3.6448563708
 20
1.4825111973
 10
-3.640417744
 20
1.4831211372
 10
-3.6357072307
 20
1.4835382535
 10
-3.6306967481
 20
1.4837487605
 10
-3.6253806415
 20
1.4837355469
 10
-3.6197744669
 20
1.4834823347
 10
-3.613884872
 20
1.4829745309
 10
-3.6077202507
 20
1.4821990772
 10
-3.6012979376
 20
1.481145389
 10
-3.5946377899
 20
1.4798054314
 10
-3.5877556395
 20
1.4781727002
 10
-3.5806681569
 20
1.4762423574
 10
-3.573393376
 20
1.4740113694
 10
-3.5659481621
 20
1.4714780727
 10
-3.5583476666
 20
1.4686415464
 10
-3.5506027844
 20
1.4655000762
 10
-3.5427263595
 20
1.4620535106
 10
-3.5347360863
 20
1.4583049696
 10
-3.5308031949
 20
1.4563684851
  0
LINE
  5
23A
100
AcDbEntity
  8
0
100
AcDbLine
 62
253
  6
CONTINUOUS
 10
-3.5827758436
 20
-1.0305657091
 11
2.3541103006
 21
-3.9990087813
  0
LINE
  5
23B
100
AcDbEntity
  8
0
100
AcDbLine
 62
253
  6
CONTINUOUS
 10
-3.4425892411
 20
-0.7867547971
 11
2.4942969032
 21
-3.7551978692
  0
LINE
  5
23C
100
AcDbEntity
  8
0
100
AcDbLine
 62
253
  6
CONTINUOUS
 10
-8.0178823963
 20
2.1388467465
 11
-4.0792207358
 21
0.1695159165
  0
LINE
  5
23D
100
AcDbEntity
  8
0
100
AcDbLine
 62
253
  6
CONTINUOUS
 10
6.7862646217
 20
-5.2632267625
 11
2.8476029613
 21
-3.293895932
  0
LINE
  5
23E
100
AcDbEntity
  8
0
100
AcDbLine
 62
253
  6
CONTINUOUS
 10
-2.4798147349
 20
-0.3034955727
 11
-3.4425892411
 21
-0.7867547971
  0
LINE
  5
23F
100
AcDbEntity
  8
0
100
AcDbLine
 62
253
  6
CONTINUOUS
 10
-2.5291994494
 20
-0.2802106866
 11
-2.1835675179
 21
-0.2135062136
  0
LWPOLYLINE
  5
240
100
AcDbEntity
  8
0
100
AcDbPolyline
 62
7
  6
CONTINUOUS
 90
26
 70
0
 10
-4.0141469821
 20
0.723030229
 10
-4.0092117152
 20
0.72063894
 10
-4.0017974079
 20
0.7173265355
 10
-3.9942702541
 20
0.7142928766
 10
-3.986638524
 20
0.711540764
 10
-3.9789024369
 20
0.7090703226
 10
-3.9710740465
 20
0.7068858501
 10
-3.9631658633
 20
0.7049910702
 10
-3.9551782014
 20
0.7033867838
 10
-3.9471235598
 20
0.7020766831
 10
-3.9390146023
 20
0.7010635489
 10
-3.9308513519
 20
0.7003485056
 10
-3.9226467595
 20
0.699934301
 10
-3.9144136483
 20
0.6998229857
 10
-3.9061513318
 20
0.700016374
 10
-3.8978712052
 20
0.7005163951
 10
-3.8895881804
 20
0.7013241065
 10
-3.881306163
 20
0.7024413147
 10
-3.8730378751
 20
0.7038687516
 10
-3.8647966778
 20
0.7056060307
 10
-3.8565862255
 20
0.7076545911
 10
-3.8484191227
 20
0.7100139323
 10
-3.8403077278
 20
0.7126828282
 10
-3.832253656
 20
0.7156632796
 10
-3.8242646966
 20
0.7189558343
 10
-3.81586662
 20
0.7227920999
  0
LWPOLYLINE
  5
241
100
AcDbEntity
  8
0
100
AcDbPolyline
 62
7
  6
CONTINUOUS
 90
40
 70
0
 10
6.8512285783
 20
-4.7096576175
 10
6.8594833631
 20
-4.7136913905
 10
6.8734088602
 20
-4.7200886636
 10
6.8875031264
 20
-4.7260749156
 10
6.9017642093
 20
-4.731665939
 10
6.9161812865
 20
-4.7368720596
 10
6.9307273626
 20
-4.7416973755
 10
6.9453948068
 20
-4.7461524779
 10
6.9601787512
 20
-4.7502471348
 10
6.975048108
 20
-4.7539837225
 10
6.9899948272
 20
-4.7573705051
 10
7.0050144161
 20
-4.7604156709
 10
7.0200748486
 20
-4.7631213156
 10
7.0351617311
 20
-4.7654935398
 10
7.0502759944
 20
-4.7675400439
 10
7.0654036467
 20
-4.7692653878
 10
7.080532989
 20
-4.7706742849
 10
7.0956624572
 20
-4.7717715232
 10
7.1107902246
 20
-4.7725610188
 10
7.1259093306
 20
-4.7730452762
 10
7.141014021
 20
-4.7732264303
 10
7.156103246
 20
-4.7731057117
 10
7.1711708371
 20
-4.7726835843
 10
7.1862106764
 20
-4.7719599289
 10
7.2012222333
 20
-4.7709334454
 10
7.2161999092
 20
-4.7696024523
 10
7.2311373576
 20
-4.7679644102
 10
7.2460350021
 20
-4.7660154181
 10
7.2608883393
 20
-4.7637508632
 10
7.2756900851
 20
-4.7611658739
 10
7.2904395983
 20
-4.7582533839
 10
7.3051318527
 20
-4.755005837
 10
7.3197598144
 20
-4.7514151894
 10
7.3343242279
 20
-4.7474698819
 10
7.3488196896
 20
-4.7431585397
 10
7.3632374755
 20
-4.7384690013
 10
7.3775798844
 20
-4.7333837729
 10
7.3918440807
 20
-4.7278842668
 10
7.4060154143
 20
-4.7219543542
 10
7.4140405836
 20
-4.7183774806
  0
LINE
  5
242
100
AcDbEntity
  8
0
100
AcDbLine
 62
7
  6
CONTINUOUS
 10
2.9089847769
 20
-2.9978953286
 11
-2.4798147349
 21
-0.3034955727
  0
LINE
  5
243
100
AcDbEntity
  8
0
100
AcDbLine
 62
253
  6
CONTINUOUS
 10
-7.8426484049
 20
2.4431340883
 11
-3.9036808958
 21
0.4736503336
  0
LINE
  5
244
100
AcDbEntity
  8
0
100
AcDbLine
 62
253
  6
CONTINUOUS
 10
6.9614986131
 20
-4.9589394207
 11
3.0225311037
 21
-2.9894556662
  0
LINE
  5
245
100
AcDbEntity
  8
0
100
AcDbLine
 62
7
  6
CONTINUOUS
 10
3.1409487228
 20
-2.8757643339
 11
-2.1835675179
 21
-0.2135062136
  0
LINE
  5
246
100
AcDbEntity
  8
0
100
AcDbLine
 62
7
  6
CONTINUOUS
 10
-7.9529091558
 20
2.6924112005
 11
-4.0141340279
 21
0.7230236366
  0
LINE
  5
247
100
AcDbEntity
  8
0
100
AcDbLine
 62
7
  6
CONTINUOUS
 10
6.8512378622
 20
-4.7096623085
 11
2.912462535
 21
-2.7402746449
  0
LINE
  5
248
100
AcDbEntity
  8
0
100
AcDbLine
 62
253
  6
CONTINUOUS
 10
-8.0178823963
 20
2.8278019176
 11
-4.0792207358
 21
0.8584710871
  0
LINE
  5
249
100
AcDbEntity
  8
0
100
AcDbLine
 62
253
  6
CONTINUOUS
 10
6.7862646217
 20
-4.5742715915
 11
2.8476029613
 21
-2.6049407614
  0
LINE
  5
24A
100
AcDbEntity
  8
0
100
AcDbLine
 62
7
  6
CONTINUOUS
 10
2.4060883026
 20
-1.5120772228
 11
-3.5307978417
 21
1.4563658493
  0
LINE
  5
24B
100
AcDbEntity
  8
0
100
AcDbLine
 62
253
  6
CONTINUOUS
 10
2.3541103006
 20
-1.40338302
 11
-3.5827758436
 21
1.5650600521
  0
LWPOLYLINE
  5
24C
100
AcDbEntity
  8
0
100
AcDbPolyline
 62
7
  6
CONTINUOUS
 90
58
 70
0
 10
2.4060905669
 20
-1.512078392
 10
2.4110491707
 20
-1.51460487
 10
2.4199709672
 20
-1.5193852646
 10
2.4290699166
 20
-1.5245666863
 10
2.4383331137
 20
-1.5301549603
 10
2.4477431356
 20
-1.5361521548
 10
2.4572785628
 20
-1.5425563759
 10
2.4669246302
 20
-1.5493689352
 10
2.4766663082
 20
-1.556590055
 10
2.4864828018
 20
-1.564214537
 10
2.4963584808
 20
-1.5722399771
 10
2.5062787733
 20
-1.5806639377
 10
2.5162256288
 20
-1.5894799645
 10
2.5261839458
 20
-1.5986832199
 10
2.5361392704
 20
-1.6082686633
 10
2.5460755328
 20
-1.61822869
 10
2.5559781702
 20
-1.6285563372
 10
2.565832976
 20
-1.6392442606
 10
2.575625289
 20
-1.6502836352
 10
2.5853420595
 20
-1.6616666939
 10
2.5949685703
 20
-1.6733830224
 10
2.6044885059
 20
-1.6854189967
 10
2.6138893243
 20
-1.6977646528
 10
2.6231572676
 20
-1.7104077113
 10
2.6322752267
 20
-1.7233299005
 10
2.6412309199
 20
-1.7365182708
 10
2.6500124456
 20
-1.7499596312
 10
2.6586044517
 20
-1.7636341638
 10
2.6669959185
 20
-1.7775273294
 10
2.6751762072
 20
-1.7916243581
 10
2.6831317878
 20
-1.8059040991
 10
2.6908530786
 20
-1.8203507339
 10
2.698330919
 20
-1.8349482828
 10
2.7055537212
 20
-1.8496745516
 10
2.7125135404
 20
-1.8645128364
 10
2.7192028427
 20
-1.8794462454
 10
2.7256120339
 20
-1.8944516727
 10
2.7317348471
 20
-1.9095115808
 10
2.7375656719
 20
-1.9246088069
 10
2.7430973045
 20
-1.9397203419
 10
2.7483253138
 20
-1.9548282493
 10
2.7532460539
 20
-1.9699153722
 10
2.7578548526
 20
-1.9849595403
 10
2.76214936
 20
-1.9999433879
 10
2.7661277124
 20
-2.0148494107
 10
2.7697873211
 20
-2.0296549753
 10
2.7731279065
 20
-2.0443432613
 10
2.7761496676
 20
-2.0588971183
 10
2.7788522144
 20
-2.0732932491
 10
2.7812374161
 20
-2.0875153877
 10
2.7833077431
 20
-2.1015472128
 10
2.7850653374
 20
-2.1153652189
 10
2.7865143764
 20
-2.1289542893
 10
2.7876597194
 20
-2.142299783
 10
2.7885063007
 20
-2.1553790107
 10
2.789060567
 20
-2.1681750052
 10
2.7893300561
 20
-2.1806764631
 10
2.789360122
 20
-2.1871656797
  0
LINE
  5
24D
100
AcDbEntity
  8
0
100
AcDbLine
 62
253
  6
CONTINUOUS
 10
-2.4897537357
 20
0.3145868953
 11
-2.8353856672
 21
0.2478824223
  0
LINE
  5
24E
100
AcDbEntity
  8
0
100
AcDbLine
 62
253
  6
CONTINUOUS
 10
0.6611048566
 20
20.1822398325
 11
0.6541109776
 21
20.2485050634
  0
LINE
  5
24F
100
AcDbEntity
  8
DRAFT
100
AcDbLine
 62
7
  6
CONTINUOUS
 10
0.8462107223
 20
20.0771254933
 11
0.797615252
 21
20.5375552562
  0
LWPOLYLINE
  5
250
100
AcDbEntity
  8
0
100
AcDbPolyline
 62
7
  6
CONTINUOUS
 90
30
 70
0
 10
2.789024379
 20
-2.5342514951
 10
2.7890364729
 20
-2.536879795
 10
2.7893139611
 20
-2.5464867183
 10
2.7899548688
 20
-2.5560051647
 10
2.7909547437
 20
-2.5654245428
 10
2.7923095737
 20
-2.5747389014
 10
2.794015938
 20
-2.5839425551
 10
2.7960691537
 20
-2.593023872
 10
2.7984642057
 20
-2.6019708854
 10
2.8011956516
 20
-2.6107723811
 10
2.8042558468
 20
-2.6194133053
 10
2.8076377569
 20
-2.6278824943
 10
2.8113349094
 20
-2.6361714086
 10
2.8153358917
 20
-2.6442628196
 10
2.8196323273
 20
-2.6521480293
 10
2.8242221373
 20
-2.6598288645
 10
2.8290950393
 20
-2.667292696
 10
2.8342397775
 20
-2.6745273253
 10
2.8396539818
 20
-2.681533102
 10
2.8453265594
 20
-2.6882982957
 10
2.8512451781
 20
-2.6948116518
 10
2.8574067559
 20
-2.701072406
 10
2.8637988997
 20
-2.7070697466
 10
2.8704088003
 20
-2.7127938458
 10
2.8772336552
 20
-2.7182440469
 10
2.8842598381
 20
-2.7234106451
 10
2.8914741634
 20
-2.7282854261
 10
2.8988755598
 20
-2.732868318
 10
2.9064547642
 20
-2.7371533596
 10
2.912478087
 20
-2.7402823184
  0
LINE
  5
251
100
AcDbEntity
  8
0
100
AcDbLine
 62
7
  6
CONTINUOUS
 10
2.7890243142
 20
-3.2231763043
 11
2.7893601498
 21
-3.5699067207
  0
LINE
  5
252
100
AcDbEntity
  8
0
100
AcDbLine
 62
7
  6
CONTINUOUS
 10
2.7893601493
 20
-2.1871673804
 11
2.7890243142
 21
-2.534239162
  0
LWPOLYLINE
  5
253
100
AcDbEntity
  8
0
100
AcDbPolyline
 62
7
  6
CONTINUOUS
 90
31
 70
0
 10
2.7893601238
 20
-3.5699072429
 10
2.7892851888
 20
-3.5795887522
 10
2.7889451599
 20
-3.5915235737
 10
2.7883431699
 20
-3.6030678508
 10
2.7874941057
 20
-3.6141956584
 10
2.7864113039
 20
-3.6249171241
 10
2.7851027981
 20
-3.6352721071
 10
2.7835800588
 20
-3.6452534129
 10
2.7818559425
 20
-3.6548503223
 10
2.7799360688
 20
-3.6640893116
 10
2.7778315544
 20
-3.6729616418
 10
2.7755555261
 20
-3.6814548496
 10
2.773114634
 20
-3.6895817142
 10
2.770521449
 20
-3.6973324117
 10
2.7677907749
 20
-3.7046946833
 10
2.7649332842
 20
-3.7116705289
 10
2.7619640523
 20
-3.7182516567
 10
2.7589011578
 20
-3.7244271251
 10
2.7557626982
 20
-3.7301908848
 10
2.7525695098
 20
-3.7355355213
 10
2.749340258
 20
-3.7404613501
 10
2.746092272
 20
-3.7449736366
 10
2.7428509289
 20
-3.7490693193
 10
2.7396294749
 20
-3.7527644877
 10
2.7364235556
 20
-3.7560930547
 10
2.7332564408
 20
-3.7590578057
 10
2.7301247517
 20
-3.7616892076
 10
2.7269684026
 20
-3.7640542153
 10
2.7237554469
 20
-3.7661812093
 10
2.7204899357
 20
-3.7680713372
 10
2.7196070978
 20
-3.7685378281
  0
LINE
  5
254
100
AcDbEntity
  8
0
100
AcDbLine
 62
7
  6
CONTINUOUS
 10
11.1219979194
 20
-3.1428215917
 11
11.0016825431
 21
-3.0826639035
  0
LWPOLYLINE
  5
255
100
AcDbEntity
  8
0
100
AcDbPolyline
 62
7
  6
CONTINUOUS
 90
33
 70
0
 10
2.9314766901
 20
-2.9846031417
 10
2.923461531
 20
-2.9889656679
 10
2.9158931462
 20
-2.9934545455
 10
2.9084341072
 20
-2.9982493058
 10
2.9011010676
 20
-3.0033435839
 10
2.8939221177
 20
-3.008720365
 10
2.8868990383
 20
-3.0143796136
 10
2.8800382844
 20
-3.0203187862
 10
2.8733666658
 20
-3.0265156888
 10
2.8668781531
 20
-3.0329767946
 10
2.8605799853
 20
-3.0396977346
 10
2.8545095603
 20
-3.0466381691
 10
2.8486617242
 20
-3.0538022832
 10
2.8430349543
 20
-3.0611924499
 10
2.837662785
 20
-3.0687635307
 10
2.8325381074
 20
-3.076522299
 10
2.8276581713
 20
-3.0844739549
 10
2.8230536421
 20
-3.0925669769
 10
2.818718626
 20
-3.1008081561
 10
2.8146491551
 20
-3.1092063667
 10
2.8108703785
 20
-3.1177090255
 10
2.8073778238
 20
-3.1263232459
 10
2.804168758
 20
-3.1350586151
 10
2.8012631229
 20
-3.1438620151
 10
2.7986588287
 20
-3.1527364376
 10
2.7963540708
 20
-3.161693034
 10
2.7943612316
 20
-3.1706862449
 10
2.792680254
 20
-3.1797162468
 10
2.7913109651
 20
-3.1887914942
 10
2.7902605354
 20
-3.1978737798
 10
2.7895302813
 20
-3.2069497513
 10
2.7891200976
 20
-3.2160329049
 10
2.7890243645
 20
-3.2231752205
  0
LINE
  5
256
100
AcDbEntity
  8
0
100
AcDbLine
 62
7
  6
CONTINUOUS
 10
3.1617871764
 20
-2.8649369656
 11
2.9315106887
 21
-2.9845853998
  0
LINE
  5
257
100
AcDbEntity
  8
0
100
AcDbLine
 62
253
  6
CONTINUOUS
 10
3.2129483329
 20
-2.8905175438
 11
3.0225311037
 21
-2.9894556662
  0
LINE
  5
258
100
AcDbEntity
  8
0
100
AcDbLine
 62
253
  6
CONTINUOUS
 10
2.7883781321
 20
-3.6023973861
 11
2.4942969032
 21
-3.7551978692
  0
LINE
  5
259
100
AcDbEntity
  8
0
100
AcDbLine
 62
7
  6
CONTINUOUS
 10
2.7196067798
 20
-3.768537994
 11
2.7196729903
 21
-3.7685036089
  0
LINE
  5
25A
100
AcDbEntity
  8
0
100
AcDbLine
 62
7
  6
CONTINUOUS
 10
-3.2972624402
 20
7.9593963124
 11
-3.4178046742
 21
8.0329355532
  0
LINE
  5
25B
100
AcDbEntity
  8
DRAFT
100
AcDbLine
 62
7
  6
CONTINUOUS
 10
-3.2972624402
 20
7.9593963124
 11
-3.4178046742
 21
8.0329355532
  0
LINE
  5
25C
100
AcDbEntity
  8
0
100
AcDbLine
 62
7
  6
CONTINUOUS
 10
-3.1527352336
 20
7.9005862498
 11
-3.2972624402
 21
7.9593963124
  0
LINE
  5
25D
100
AcDbEntity
  8
DRAFT
100
AcDbLine
 62
7
  6
CONTINUOUS
 10
-3.1527352336
 20
7.9005862498
 11
-3.2972624402
 21
7.9593963124
  0
LINE
  5
25E
100
AcDbEntity
  8
0
100
AcDbLine
 62
7
  6
CONTINUOUS
 10
0.997220295
 20
5.8328011251
 11
0.7258533045
 21
5.9486134815
  0
LINE
  5
25F
100
AcDbEntity
  8
DRAFT
100
AcDbLine
 62
7
  6
CONTINUOUS
 10
0.997220295
 20
5.8328011251
 11
0.7258533045
 21
5.9486134815
  0
LINE
  5
260
100
AcDbEntity
  8
DRAFT
100
AcDbLine
 62
253
  6
CONTINUOUS
 10
-7.9563947139
 20
10.743532096
 11
-3.8039400115
 21
8.6673047448
  0
LINE
  5
261
100
AcDbEntity
  8
0
100
AcDbLine
 62
253
  6
CONTINUOUS
 10
-3.8039400115
 20
8.6673047448
 11
-2.5005010351
 21
8.0155852566
  0
LINE
  5
262
100
AcDbEntity
  8
DRAFT
100
AcDbLine
 62
253
  6
CONTINUOUS
 10
-2.5005010351
 20
8.0155852566
 11
-0.2468744038
 21
6.8887719409
  0
LINE
  5
263
100
AcDbEntity
  8
0
100
AcDbLine
 62
253
  6
CONTINUOUS
 10
-0.2468744038
 20
6.8887719409
 11
1.7888245263
 21
5.8709224759
  0
LINE
  5
264
100
AcDbEntity
  8
DRAFT
100
AcDbLine
 62
253
  6
CONTINUOUS
 10
1.7888245263
 20
5.8709224759
 11
6.8521974777
 21
3.3392360002
  0
LINE
  5
265
100
AcDbEntity
  8
0
100
AcDbLine
 62
7
  6
CONTINUOUS
 10
-2.9114665706
 20
9.3485452401
 11
-2.6968409363
 21
9.2411381372
  0
LINE
  5
266
100
AcDbEntity
  8
DRAFT
100
AcDbLine
 62
7
  6
CONTINUOUS
 10
-2.9114665706
 20
9.3485452401
 11
-2.6968409363
 21
9.2411381372
  0
LINE
  5
267
100
AcDbEntity
  8
0
100
AcDbLine
 62
253
  6
CONTINUOUS
 10
11.1219979194
 20
-3.1428215917
 11
7.3087737353
 21
-4.9601473596
  0
LINE
  5
268
100
AcDbEntity
  8
0
100
AcDbLine
 62
253
  6
CONTINUOUS
 10
11.2988284974
 20
-3.447685536
 11
7.4808159734
 21
-5.2672933553
  0
LINE
  5
269
100
AcDbEntity
  8
0
100
AcDbLine
 62
253
  6
CONTINUOUS
 10
11.2988284974
 20
-2.8415831447
 11
7.4808159734
 21
-4.582329603
  0
LINE
  5
26A
100
AcDbEntity
  8
0
100
AcDbLine
 62
7
  6
CONTINUOUS
 10
11.2308404255
 20
-2.9781839497
 11
7.4140280691
 21
-4.7183832157
  0
LINE
  5
26B
100
AcDbEntity
  8
0
100
AcDbLine
 62
7
  6
CONTINUOUS
 10
0.7615376137
 20
9.9970682805
 11
1.0328824448
 21
9.8602066868
  0
LINE
  5
26C
100
AcDbEntity
  8
DRAFT
100
AcDbLine
 62
7
  6
CONTINUOUS
 10
0.7615376137
 20
9.9970682805
 11
1.0328824448
 21
9.8602066868
  0
LINE
  5
26D
100
AcDbEntity
  8
0
100
AcDbLine
 62
7
  6
CONTINUOUS
 10
10.5262523145
 20
15.2863027047
 11
11.2988284974
 21
8.2002984493
  0
LINE
  5
26E
100
AcDbEntity
  8
0
100
AcDbLine
 62
7
  6
CONTINUOUS
 10
11.2988284974
 20
-3.447685536
 11
11.2988284974
 21
-14.4895671299
  0
LINE
  5
26F
100
AcDbEntity
  8
0
100
AcDbLine
 62
7
  6
CONTINUOUS
 10
11.2988284974
 20
-2.8415831447
 11
11.2988284974
 21
8.2002984493
  0
LINE
  5
270
100
AcDbEntity
  8
0
100
AcDbLine
 62
7
  6
CONTINUOUS
 10
10.5262523145
 20
-22.2960103311
 11
11.2988284974
 21
-14.4895671299
  0
LINE
  5
271
100
AcDbEntity
  8
0
100
AcDbLine
 62
253
  6
CONTINUOUS
 10
7.5765588946
 20
13.8188850488
 11
-7.2806543044
 21
21.2474916483
  0
LINE
  5
272
100
AcDbEntity
  8
0
100
AcDbLine
 62
253
  6
CONTINUOUS
 10
8.250314735
 20
14.8798984443
 11
-6.6300227771
 21
22.3200672003
  0
LINE
  5
273
100
AcDbEntity
  8
0
100
AcDbLine
 62
7
  6
CONTINUOUS
 10
4.4523181071
 20
18.7102038287
 11
3.917741151
 21
18.6166899766
  0
LINE
  5
274
100
AcDbEntity
  8
0
100
AcDbLine
 62
7
  6
CONTINUOUS
 10
0.7057992615
 20
20.1473312237
 11
3.7244804606
 21
18.6379906241
  0
LINE
  5
275
100
AcDbEntity
  8
0
100
AcDbLine
 62
7
  6
CONTINUOUS
 10
-4.8785770118
 20
23.3756513881
 11
0.797615252
 21
20.5375552562
  0
LINE
  5
276
100
AcDbEntity
  8
0
100
AcDbLine
 62
7
  6
CONTINUOUS
 10
4.4523181071
 20
18.7102038287
 11
10.1285103709
 21
15.8721076967
  0
LINE
  5
277
100
AcDbEntity
  8
0
100
AcDbLine
 62
253
  6
CONTINUOUS
 10
8.6098174698
 20
-23.0707045539
 11
10.5262523145
 21
-22.2960103311
  0
LINE
  5
278
100
AcDbEntity
  8
0
100
AcDbLine
 62
7
  6
CONTINUOUS
 10
8.4562056512
 20
-23.3514240826
 11
10.3469408824
 21
-22.5871185992
  0
ARC
  5
279
100
AcDbEntity
  8
0
100
AcDbCircle
 62
7
  6
CONTINUOUS
 10
1.3498345098
 20
7.5805025748
 40
1.2677689047
100
AcDbArc
 50
242.1339460887
 51
244.6664952195
  0
ARC
  5
27A
100
AcDbEntity
  8
0
100
AcDbCircle
 62
7
  6
CONTINUOUS
 10
1.4629334883
 20
6.1219350837
 40
0.9599499088
100
AcDbArc
 50
42.6714159704
 51
43.2797486579
  0
ARC
  5
27B
100
AcDbEntity
  8
DRAFT
100
AcDbCircle
 62
7
  6
CONTINUOUS
 10
1.1690896802
 20
7.0565899135
 40
0.7519960092
100
AcDbArc
 50
321.3533027392
 51
324.9915691151
  0
ARC
  5
27C
100
AcDbEntity
  8
0
100
AcDbCircle
 62
7
  6
CONTINUOUS
 10
1.2691952277
 20
6.957718929
 40
0.6106963342
100
AcDbArc
 50
302.7385985758
 51
304.1631662098
  0
ARC
  5
27D
100
AcDbEntity
  8
0
100
AcDbCircle
 62
7
  6
CONTINUOUS
 10
1.2710541354
 20
6.9548393831
 40
0.6072689034
100
AcDbArc
 50
301.9718932949
 51
302.7380008531
  0
ARC
  5
27E
100
AcDbEntity
  8
0
100
AcDbCircle
 62
7
  6
CONTINUOUS
 10
1.2722620227
 20
6.9529057909
 40
0.6049890416
100
AcDbArc
 50
301.3367401467
 51
301.9718159033
  0
ARC
  5
27F
100
AcDbEntity
  8
DRAFT
100
AcDbCircle
 62
7
  6
CONTINUOUS
 10
1.2739466799
 20
6.9503587118
 40
0.6019391449
100
AcDbArc
 50
292.8921854569
 51
304.1823548331
  0
ARC
  5
280
100
AcDbEntity
  8
0
100
AcDbCircle
 62
7
  6
CONTINUOUS
 10
1.2754855963
 20
6.9473800951
 40
0.5985929419
100
AcDbArc
 50
292.8673915586
 51
301.3482640557
  0
ARC
  5
281
100
AcDbEntity
  8
DRAFT
100
AcDbCircle
 62
7
  6
CONTINUOUS
 10
2.4395404673
 20
8.069067193
 40
0.4679646651
100
AcDbArc
 50
230.0594499474
 51
231.8916883554
  0
ARC
  5
282
100
AcDbEntity
  8
DRAFT
100
AcDbCircle
 62
7
  6
CONTINUOUS
 10
-1.2932685773
 20
9.4402570866
 40
0.4380815193
100
AcDbArc
 50
200.5842474196
 51
201.887738091
  0
ARC
  5
283
100
AcDbEntity
  8
DRAFT
100
AcDbCircle
 62
7
  6
CONTINUOUS
 10
-2.252560546
 20
12.2911094638
 40
0.3159949752
100
AcDbArc
 50
175.961788833
 51
176.8311633871
  0
ARC
  5
284
100
AcDbEntity
  8
0
100
AcDbCircle
 62
7
  6
CONTINUOUS
 10
-1.8015389833
 20
9.267854312
 40
0.2965753927
100
AcDbArc
 50
356.4425443219
 51
358.1366692423
  0
ARC
  5
285
100
AcDbEntity
  8
DRAFT
100
AcDbCircle
 62
7
  6
CONTINUOUS
 10
1.0733857906
 20
8.9432051326
 40
0.2608416672
100
AcDbArc
 50
227.5440401538
 51
230.0368829708
  0
ARC
  5
286
100
AcDbEntity
  8
0
100
AcDbCircle
 62
7
  6
CONTINUOUS
 10
-2.4245851123
 20
12.3593280337
 40
0.1258205692
100
AcDbArc
 50
121.6164928722
 51
124.1641114805
  0
ARC
  5
287
100
AcDbEntity
  8
DRAFT
100
AcDbCircle
 62
7
  6
CONTINUOUS
 10
0.9635578733
 20
8.8201724365
 40
0.1216246895
100
AcDbArc
 50
138.7558234459
 51
139.9569027731
  0
ARC
  5
288
100
AcDbEntity
  8
DRAFT
100
AcDbCircle
 62
7
  6
CONTINUOUS
 10
1.2389703529
 20
-11.0361072853
 40
0.1133598922
100
AcDbArc
 50
124.1963877734
 51
127.137223015
  0
ARC
  5
289
100
AcDbEntity
  8
DRAFT
100
AcDbCircle
 62
7
  6
CONTINUOUS
 10
1.7915454002
 20
9.7759429237
 40
0.1103816548
100
AcDbArc
 50
134.2973927139
 51
138.489837783
  0
ARC
  5
28A
100
AcDbEntity
  8
DRAFT
100
AcDbCircle
 62
7
  6
CONTINUOUS
 10
1.5011431827
 20
-13.4965565365
 40
0.1050940776
100
AcDbArc
 50
286.6984466813
 51
288.9598670663
  0
ARC
  5
28B
100
AcDbEntity
  8
0
100
AcDbCircle
 62
7
  6
CONTINUOUS
 10
1.5016883203
 20
-13.4981372278
 40
0.103422026
100
AcDbArc
 50
288.9588157702
 51
291.5674376793
  0
ARC
  5
28C
100
AcDbEntity
  8
DRAFT
100
AcDbCircle
 62
7
  6
CONTINUOUS
 10
2.0020161027
 20
6.7883216891
 40
0.1032619153
100
AcDbArc
 50
124.1681253258
 51
124.4963892173
  0
ARC
  5
28D
100
AcDbEntity
  8
0
100
AcDbCircle
 62
7
  6
CONTINUOUS
 10
2.0002928369
 20
6.7908906418
 40
0.100168557
100
AcDbArc
 50
121.8999386544
 51
124.1779387227
  0
ARC
  5
28E
100
AcDbEntity
  8
DRAFT
100
AcDbCircle
 62
7
  6
CONTINUOUS
 10
1.7806137734
 20
9.7870678585
 40
0.0947848228
100
AcDbArc
 50
131.0329174074
 51
134.2644054665
  0
ARC
  5
28F
100
AcDbEntity
  8
0
100
AcDbCircle
 62
253
  6
CONTINUOUS
 10
2.9543991672
 20
-2.6564036387
 40
0.0937704803
100
AcDbArc
 50
241.6817573422
 51
243.4345113584
  0
ARC
  5
290
100
AcDbEntity
  8
DRAFT
100
AcDbCircle
 62
7
  6
CONTINUOUS
 10
1.7757438389
 20
9.7925848285
 40
0.0874261325
100
AcDbArc
 50
130.3410920377
 51
130.999034787
  0
ARC
  5
291
100
AcDbEntity
  8
DRAFT
100
AcDbCircle
 62
7
  6
CONTINUOUS
 10
1.7738396666
 20
9.7948324738
 40
0.0844803273
100
AcDbArc
 50
129.2292231053
 51
130.3435436579
  0
ARC
  5
292
100
AcDbEntity
  8
DRAFT
100
AcDbCircle
 62
7
  6
CONTINUOUS
 10
1.7721042017
 20
9.7969524214
 40
0.0817406188
100
AcDbArc
 50
128.5472407877
 51
129.2266838676
  0
ARC
  5
293
100
AcDbEntity
  8
DRAFT
100
AcDbCircle
 62
7
  6
CONTINUOUS
 10
1.7704840689
 20
9.7989917175
 40
0.0791360949
100
AcDbArc
 50
127.3439243885
 51
128.5499269015
  0
ARC
  5
294
100
AcDbEntity
  8
DRAFT
100
AcDbCircle
 62
7
  6
CONTINUOUS
 10
1.769160686
 20
9.8007185948
 40
0.0769604512
100
AcDbArc
 50
126.8451861077
 51
127.3405142895
  0
ARC
  5
295
100
AcDbEntity
  8
DRAFT
100
AcDbCircle
 62
7
  6
CONTINUOUS
 10
1.7677815578
 20
9.8025698403
 40
0.0746519751
100
AcDbArc
 50
125.3488220193
 51
126.8501358419
  0
ARC
  5
296
100
AcDbEntity
  8
DRAFT
100
AcDbCircle
 62
7
  6
CONTINUOUS
 10
1.7664512212
 20
9.8044350977
 40
0.0723609176
100
AcDbArc
 50
124.6967354617
 51
125.3441247337
  0
ARC
  5
297
100
AcDbEntity
  8
DRAFT
100
AcDbCircle
 62
7
  6
CONTINUOUS
 10
1.7656197544
 20
9.8056349144
 40
0.0709011585
100
AcDbArc
 50
124.1553630183
 51
124.6962202862
  0
ARC
  5
298
100
AcDbEntity
  8
DRAFT
100
AcDbCircle
 62
7
  6
CONTINUOUS
 10
-1.5729890087
 20
9.1961561214
 40
0.0502635709
100
AcDbArc
 50
285.5837762535
 51
288.9474977456
  0
ARC
  5
299
100
AcDbEntity
  8
0
100
AcDbCircle
 62
7
  6
CONTINUOUS
 10
159.1503197668
 20
-129.8551723331
 40
210.487741126
100
AcDbArc
 50
138.6452026827
 51
138.760384101
  0
ARC
  5
29A
100
AcDbEntity
  8
DRAFT
100
AcDbCircle
 62
7
  6
CONTINUOUS
 10
159.1503185687
 20
-129.8551712788
 40
210.4877395301
100
AcDbArc
 50
138.6452026826
 51
138.760383882
  0
ARC
  5
29B
100
AcDbEntity
  8
0
100
AcDbCircle
 62
7
  6
CONTINUOUS
 10
115.9487871527
 20
-61.2494438679
 40
132.2812261381
100
AcDbArc
 50
149.2530507236
 51
149.3688556737
  0
ARC
  5
29C
100
AcDbEntity
  8
DRAFT
100
AcDbCircle
 62
7
  6
CONTINUOUS
 10
115.9487871283
 20
-61.2494438534
 40
132.2812261098
100
AcDbArc
 50
149.2530507203
 51
149.3688556737
  0
ARC
  5
29D
100
AcDbEntity
  8
DRAFT
100
AcDbCircle
 62
7
  6
CONTINUOUS
 10
105.4115199123
 20
-37.8387815489
 40
116.1175413319
100
AcDbArc
 50
155.9066217375
 51
156.047727349
  0
ARC
  5
29E
100
AcDbEntity
  8
0
100
AcDbCircle
 62
7
  6
CONTINUOUS
 10
105.4115199068
 20
-37.8387815465
 40
116.1175413259
100
AcDbArc
 50
155.9066217375
 51
156.047727349
  0
ARC
  5
29F
100
AcDbEntity
  8
0
100
AcDbCircle
 62
7
  6
CONTINUOUS
 10
99.3569635419
 20
-23.2485816633
 40
104.7143563166
100
AcDbArc
 50
161.9934817603
 51
162.2329822986
  0
ARC
  5
2A0
100
AcDbEntity
  8
DRAFT
100
AcDbCircle
 62
7
  6
CONTINUOUS
 10
99.3569635376
 20
-23.2485816619
 40
104.714356312
100
AcDbArc
 50
161.9934817603
 51
162.2329822986
  0
ARC
  5
2A1
100
AcDbEntity
  8
0
100
AcDbCircle
 62
7
  6
CONTINUOUS
 10
123.806486515
 20
39.2571797621
 40
127.9942423117
100
AcDbArc
 50
194.0422857312
 51
194.2887765721
  0
ARC
  5
2A2
100
AcDbEntity
  8
DRAFT
100
AcDbCircle
 62
7
  6
CONTINUOUS
 10
123.806486513
 20
39.2571797616
 40
127.9942423097
100
AcDbArc
 50
194.0422857312
 51
194.2887765721
  0
ARC
  5
2A3
100
AcDbEntity
  8
DRAFT
100
AcDbCircle
 62
7
  6
CONTINUOUS
 10
114.5868736878
 20
29.5107241689
 40
117.3001525727
100
AcDbArc
 50
190.4068550464
 51
190.5862759934
  0
ARC
  5
2A4
100
AcDbEntity
  8
0
100
AcDbCircle
 62
7
  6
CONTINUOUS
 10
114.5868736748
 20
29.5107241665
 40
117.3001525595
100
AcDbArc
 50
190.4068550463
 51
190.5862759934
  0
ARC
  5
2A5
100
AcDbEntity
  8
DRAFT
100
AcDbCircle
 62
7
  6
CONTINUOUS
 10
103.7380213712
 20
14.7642602217
 40
104.720045363
100
AcDbArc
 50
183.3349170993
 51
183.5270008478
  0
ARC
  5
2A6
100
AcDbEntity
  8
0
100
AcDbCircle
 62
7
  6
CONTINUOUS
 10
103.7380213674
 20
14.7642602215
 40
104.7200453592
100
AcDbArc
 50
183.3349170993
 51
183.5270008478
  0
ARC
  5
2A7
100
AcDbEntity
  8
0
100
AcDbCircle
 62
7
  6
CONTINUOUS
 10
99.0901628155
 20
6.5046626148
 40
101.8238014757
100
AcDbArc
 50
176.7322854212
 51
178.4600122324
  0
ARC
  5
2A8
100
AcDbEntity
  8
DRAFT
100
AcDbCircle
 62
7
  6
CONTINUOUS
 10
99.0030822985
 20
6.5079143392
 40
101.7366631577
100
AcDbArc
 50
176.8342670327
 51
178.4605248893
  0
ARC
  5
2A9
100
AcDbEntity
  8
0
100
AcDbCircle
 62
7
  6
CONTINUOUS
 10
100.8573714865
 20
8.4869713162
 40
101.2206689851
100
AcDbArc
 50
179.8767510506
 51
180.1619182363
  0
ARC
  5
2AA
100
AcDbEntity
  8
DRAFT
100
AcDbCircle
 62
7
  6
CONTINUOUS
 10
100.8573714868
 20
8.4869713162
 40
101.2206689854
100
AcDbArc
 50
179.8767510506
 51
180.1619182363
  0
ARC
  5
2AB
100
AcDbEntity
  8
0
100
AcDbCircle
 62
7
  6
CONTINUOUS
 10
99.2701796889
 20
5.9529515308
 40
100.8294889238
100
AcDbArc
 50
177.5930359198
 51
178.1214686976
  0
ARC
  5
2AC
100
AcDbEntity
  8
DRAFT
100
AcDbCircle
 62
7
  6
CONTINUOUS
 10
99.2701789075
 20
5.9529515607
 40
100.8294881418
100
AcDbArc
 50
177.5930359181
 51
178.1214692673
  0
ARC
  5
2AD
100
AcDbEntity
  8
0
100
AcDbCircle
 62
7
  6
CONTINUOUS
 10
97.1971068235
 20
-14.370439175
 40
100.7248381235
100
AcDbArc
 50
166.4070898517
 51
166.5825409629
  0
ARC
  5
2AE
100
AcDbEntity
  8
DRAFT
100
AcDbCircle
 62
7
  6
CONTINUOUS
 10
97.1971068221
 20
-14.3704391746
 40
100.724838122
100
AcDbArc
 50
166.4070898517
 51
166.5825409629
  0
ARC
  5
2AF
100
AcDbEntity
  8
0
100
AcDbCircle
 62
7
  6
CONTINUOUS
 10
97.6491567352
 20
6.3595456423
 40
99.9573750831
100
AcDbArc
 50
177.5293004843
 51
178.78076706
  0
ARC
  5
2B0
100
AcDbEntity
  8
DRAFT
100
AcDbCircle
 62
7
  6
CONTINUOUS
 10
97.6491567334
 20
6.3595456424
 40
99.9573750812
100
AcDbArc
 50
177.5293004843
 51
178.7807670601
  0
ARC
  5
2B1
100
AcDbEntity
  8
0
100
AcDbCircle
 62
7
  6
CONTINUOUS
 10
97.6859034355
 20
1.0075646466
 40
98.7883926741
100
AcDbArc
 50
175.3581634521
 51
175.5500145105
  0
ARC
  5
2B2
100
AcDbEntity
  8
DRAFT
100
AcDbCircle
 62
7
  6
CONTINUOUS
 10
97.6859034306
 20
1.007564647
 40
98.7883926691
100
AcDbArc
 50
175.3581634521
 51
175.5500145105
  0
ARC
  5
2B3
100
AcDbEntity
  8
DRAFT
100
AcDbCircle
 62
7
  6
CONTINUOUS
 10
91.3470592292
 20
-15.9959302102
 40
98.3384787007
100
AcDbArc
 50
165.2531478231
 51
165.3813527822
  0
ARC
  5
2B4
100
AcDbEntity
  8
0
100
AcDbCircle
 62
7
  6
CONTINUOUS
 10
91.347059224
 20
-15.9959302088
 40
98.3384786954
100
AcDbArc
 50
165.2531478231
 51
165.3813527822
  0
ARC
  5
2B5
100
AcDbEntity
  8
DRAFT
100
AcDbCircle
 62
7
  6
CONTINUOUS
 10
92.4441603134
 20
-9.3778393884
 40
96.3994711332
100
AcDbArc
 50
169.320494354
 51
169.457412583
  0
ARC
  5
2B6
100
AcDbEntity
  8
0
100
AcDbCircle
 62
7
  6
CONTINUOUS
 10
92.4441603106
 20
-9.3778393878
 40
96.3994711304
100
AcDbArc
 50
169.320494354
 51
169.457412583
  0
ARC
  5
2B7
100
AcDbEntity
  8
DRAFT
100
AcDbCircle
 62
7
  6
CONTINUOUS
 10
90.5892046329
 20
-7.8905509535
 40
91.3643530941
100
AcDbArc
 50
181.4260853008
 51
181.9615040831
  0
ARC
  5
2B8
100
AcDbEntity
  8
DRAFT
100
AcDbCircle
 62
7
  6
CONTINUOUS
 10
92.4503455837
 20
-8.8211214292
 40
91.3643530935
100
AcDbArc
 50
181.4260853009
 51
181.9615040831
  0
ARC
  5
2B9
100
AcDbEntity
  8
0
100
AcDbCircle
 62
7
  6
CONTINUOUS
 10
92.4503455827
 20
-8.8211214293
 40
91.3643530924
100
AcDbArc
 50
181.4260853031
 51
181.9615040831
  0
ARC
  5
2BA
100
AcDbEntity
  8
0
100
AcDbCircle
 62
7
  6
CONTINUOUS
 10
90.5892046308
 20
-7.8905509536
 40
91.364353092
100
AcDbArc
 50
181.4260853033
 51
181.9615040831
  0
ARC
  5
2BB
100
AcDbEntity
  8
DRAFT
100
AcDbCircle
 62
7
  6
CONTINUOUS
 10
87.8626672254
 20
-6.9853034671
 40
90.4985966067
100
AcDbArc
 50
181.423693559
 51
182.7707067367
  0
ARC
  5
2BC
100
AcDbEntity
  8
0
100
AcDbCircle
 62
7
  6
CONTINUOUS
 10
87.8626671958
 20
-6.9853034679
 40
90.498596577
100
AcDbArc
 50
181.4236935615
 51
182.7707067745
  0
ARC
  5
2BD
100
AcDbEntity
  8
0
100
AcDbCircle
 62
7
  6
CONTINUOUS
 10
91.6496093585
 20
-9.0717437721
 40
90.138765716
100
AcDbArc
 50
181.4210058274
 51
182.773396664
  0
ARC
  5
2BE
100
AcDbEntity
  8
DRAFT
100
AcDbCircle
 62
7
  6
CONTINUOUS
 10
91.6496093143
 20
-9.0717437741
 40
90.1387656718
100
AcDbArc
 50
181.4210058838
 51
182.7733966666
  0
ARC
  5
2BF
100
AcDbEntity
  8
DRAFT
100
AcDbCircle
 62
7
  6
CONTINUOUS
 10
88.6486033775
 20
-7.9606076756
 40
89.4224783627
100
AcDbArc
 50
182.2318412394
 51
182.775379593
  0
ARC
  5
2C0
100
AcDbEntity
  8
0
100
AcDbCircle
 62
7
  6
CONTINUOUS
 10
88.6486033478
 20
-7.9606076768
 40
89.422478333
100
AcDbArc
 50
182.2318412394
 51
182.775379631
  0
ARC
  5
2C1
100
AcDbEntity
  8
DRAFT
100
AcDbCircle
 62
7
  6
CONTINUOUS
 10
90.5097441487
 20
-8.8911781586
 40
89.4224781823
100
AcDbArc
 50
182.2318412392
 51
182.7753798207
  0
ARC
  5
2C2
100
AcDbEntity
  8
0
100
AcDbCircle
 62
7
  6
CONTINUOUS
 10
90.509744111
 20
-8.8911781601
 40
89.4224781446
100
AcDbArc
 50
182.2318412392
 51
182.7753798686
  0
ARC
  5
2C3
100
AcDbEntity
  8
0
100
AcDbCircle
 62
253
  6
CONTINUOUS
 10
95.0225754709
 20
-11.6996363969
 40
88.1817413522
100
AcDbArc
 50
180.9198273597
 51
182.7433747292
  0
ARC
  5
2C4
100
AcDbEntity
  8
0
100
AcDbCircle
 62
7
  6
CONTINUOUS
 10
131.5036105561
 20
48.4827779757
 40
138.2904727421
100
AcDbArc
 50
197.0388817881
 51
197.1957159812
  0
ARC
  5
2C5
100
AcDbEntity
  8
DRAFT
100
AcDbCircle
 62
7
  6
CONTINUOUS
 10
131.5036105546
 20
48.4827779752
 40
138.2904727406
100
AcDbArc
 50
197.0388817881
 51
197.1957159812
  0
ARC
  5
2C6
100
AcDbEntity
  8
0
100
AcDbCircle
 62
7
  6
CONTINUOUS
 10
131.0782203285
 20
41.6000630157
 40
133.1096020793
100
AcDbArc
 50
193.8861000203
 51
194.6246389696
  0
ARC
  5
2C7
100
AcDbEntity
  8
DRAFT
100
AcDbCircle
 62
7
  6
CONTINUOUS
 10
131.0766962513
 20
41.5997935576
 40
133.1080587309
100
AcDbArc
 50
193.8346610477
 51
194.6798643599
  0
ARC
  5
2C8
100
AcDbEntity
  8
DRAFT
100
AcDbCircle
 62
7
  6
CONTINUOUS
 10
177.5515038319
 20
96.6418384942
 40
198.8017070041
100
AcDbArc
 50
206.5869606285
 51
206.7494967832
  0
ARC
  5
2C9
100
AcDbEntity
  8
0
100
AcDbCircle
 62
7
  6
CONTINUOUS
 10
177.5515038168
 20
96.6418384866
 40
198.8017069872
100
AcDbArc
 50
206.5869606285
 51
206.7494967832
  0
ARC
  5
2CA
100
AcDbEntity
  8
0
100
AcDbCircle
 62
7
  6
CONTINUOUS
 10
156.7097234783
 20
75.244989526
 40
171.2425277811
100
AcDbArc
 50
203.2678466019
 51
203.3962354728
  0
ARC
  5
2CB
100
AcDbEntity
  8
DRAFT
100
AcDbCircle
 62
7
  6
CONTINUOUS
 10
156.7097234665
 20
75.2449895209
 40
171.2425277682
100
AcDbArc
 50
203.2678466019
 51
203.3962354728
  0
ARC
  5
2CC
100
AcDbEntity
  8
0
100
AcDbCircle
 62
7
  6
CONTINUOUS
 10
147.1549268238
 20
64.55869051
 40
158.2301422981
100
AcDbArc
 50
199.3018020634
 51
200.0392075948
  0
ARC
  5
2CD
100
AcDbEntity
  8
DRAFT
100
AcDbCircle
 62
7
  6
CONTINUOUS
 10
147.1549268236
 20
64.55869051
 40
158.2301422979
100
AcDbArc
 50
199.3018020634
 51
200.0392075948
  0
ARC
  5
2CE
100
AcDbEntity
  8
DRAFT
100
AcDbCircle
 62
7
  6
CONTINUOUS
 10
146.3097067269
 20
64.8867204993
 40
158.1116330598
100
AcDbArc
 50
200.054306652
 51
200.2917317166
  0
ARC
  5
2CF
100
AcDbEntity
  8
0
100
AcDbCircle
 62
7
  6
CONTINUOUS
 10
146.2799235512
 20
64.8757894587
 40
158.0799073453
100
AcDbArc
 50
200.054286608
 51
200.5885611343
  0
ARC
  5
2D0
100
AcDbEntity
  8
0
100
AcDbCircle
 62
7
  6
CONTINUOUS
 10
-122.532829687
 20
600.825043115
 40
624.2707110467
100
AcDbArc
 50
281.1136553439
 51
281.2535198829
  0
ARC
  5
2D1
100
AcDbEntity
  8
0
100
AcDbCircle
 62
7
  6
CONTINUOUS
 10
-120.6716887327
 20
599.8944726248
 40
624.270711032
100
AcDbArc
 50
281.1136553439
 51
281.2535198829
  0
ARC
  5
2D2
100
AcDbEntity
  8
DRAFT
100
AcDbCircle
 62
7
  6
CONTINUOUS
 10
-120.6716886979
 20
599.8944724491
 40
624.2707108529
100
AcDbArc
 50
281.1136553436
 51
281.2535198829
  0
ARC
  5
2D3
100
AcDbEntity
  8
DRAFT
100
AcDbCircle
 62
7
  6
CONTINUOUS
 10
-122.532829645
 20
600.8250429029
 40
624.2707108306
100
AcDbArc
 50
281.1136553436
 51
281.2535198829
  0
ARC
  5
2D4
100
AcDbEntity
  8
0
100
AcDbCircle
 62
253
  6
CONTINUOUS
 10
549.0705751608
 20
2.4578944898
 40
557.0885930236
100
AcDbArc
 50
179.1478023813
 51
179.9619555368
  0
ARC
  5
2D5
100
AcDbEntity
  8
0
100
AcDbCircle
 62
253
  6
CONTINUOUS
 10
535.2848508161
 20
2.4687322621
 40
543.3028366317
100
AcDbArc
 50
180.0347891595
 51
180.8626478474
  0
ARC
  5
2D6
100
AcDbEntity
  8
0
100
AcDbCircle
 62
253
  6
CONTINUOUS
 10
524.6181293347
 20
-4.9322767727
 40
517.8319852743
100
AcDbArc
 50
179.0847554233
 51
179.9603883344
  0
ARC
  5
2D7
100
AcDbEntity
  8
0
100
AcDbCircle
 62
253
  6
CONTINUOUS
 10
524.7758944806
 20
-4.938311946
 40
517.295197802
100
AcDbArc
 50
179.0847234553
 51
179.9605712804
  0
ARC
  5
2D8
100
AcDbEntity
  8
0
100
AcDbCircle
 62
253
  6
CONTINUOUS
 10
512.6287013526
 20
-4.9426207572
 40
505.8425252561
100
AcDbArc
 50
180.0363144078
 51
180.9257373986
  0
ARC
  5
2D9
100
AcDbEntity
  8
0
100
AcDbCircle
 62
253
  6
CONTINUOUS
 10
512.8016295706
 20
-4.9486454619
 40
505.3209009939
100
AcDbArc
 50
180.0361298734
 51
180.9257679369
  0
ARC
  5
2DA
100
AcDbEntity
  8
DRAFT
100
AcDbCircle
 62
7
  6
CONTINUOUS
 10
329.1116549851
 20
271.5218051506
 40
434.302425864
100
AcDbArc
 50
220.2636777005
 51
220.5838004209
  0
ARC
  5
2DB
100
AcDbEntity
  8
DRAFT
100
AcDbCircle
 62
7
  6
CONTINUOUS
 10
330.9727959357
 20
270.5912346743
 40
434.302425863
100
AcDbArc
 50
220.2636777005
 51
220.5838004209
  0
ARC
  5
2DC
100
AcDbEntity
  8
0
100
AcDbCircle
 62
7
  6
CONTINUOUS
 10
330.9727958273
 20
270.5912345816
 40
434.3024257204
100
AcDbArc
 50
220.2636776905
 51
220.583800421
  0
ARC
  5
2DD
100
AcDbEntity
  8
0
100
AcDbCircle
 62
7
  6
CONTINUOUS
 10
329.111654876
 20
271.5218050574
 40
434.3024257205
100
AcDbArc
 50
220.2636776905
 51
220.583800421
  0
SPLINE
  5
2DE
100
AcDbEntity
  8
0
100
AcDbSpline
 62
7
  6
CONTINUOUS
 70
0
 71
3
 72
29
 73
25
 74
23
 42
0.0000001
 43
0.0000001
 44
0.0000000001
 12
-0.5336654305
 22
-0.1833666259
 32
0.0
 13
-0.0419969989
 23
0.561895778
 33
0.0
 40
0.0
 40
0.0
 40
0.0
 40
0.0
 40
0.0233515295
 40
0.0595796269
 40
0.0971566489
 40
0.1367459867
 40
0.1785666444
 40
0.2226524587
 40
0.2694591995
 40
0.3190622695
 40
0.370907424
 40
0.4244029959
 40
0.4796515811
 40
0.5359967914
 40
0.5924865426
 40
0.6485379418
 40
0.7047770017
 40
0.7615631959
 40
0.8190453408
 40
0.8778118168
 40
0.9078703272
 40
0.9382530021
 40
0.9688725515
 40
1.0
 40
1.0
 40
1.0
 40
1.0
 10
1.5352889401
 20
-13.5959488519
 30
0.0
 10
1.5311349721
 20
-13.597376149
 30
0.0
 10
1.5203054201
 20
-13.6003488582
 30
0.0
 10
1.50208218
 20
-13.6024230052
 30
0.0
 10
1.4807288862
 20
-13.601380737
 30
0.0
 10
1.458724236
 20
-13.5971065346
 30
0.0
 10
1.4362852057
 20
-13.5897152847
 30
0.0
 10
1.4135653951
 20
-13.5793560957
 30
0.0
 10
1.3907069539
 20
-13.5660951294
 30
0.0
 10
1.367938655
 20
-13.5500065418
 30
0.0
 10
1.3455785789
 20
-13.531335501
 30
0.0
 10
1.3239046487
 20
-13.5103221011
 30
0.0
 10
1.3031975933
 20
-13.4872100438
 30
0.0
 10
1.2837197781
 20
-13.4623374937
 30
0.0
 10
1.2657756513
 20
-13.4361548324
 30
0.0
 10
1.249518059
 20
-13.4089170963
 30
0.0
 10
1.2349365162
 20
-13.3806844304
 30
0.0
 10
1.2220149956
 20
-13.3513588946
 30
0.0
 10
1.2108382163
 20
-13.3208177173
 30
0.0
 10
1.2032232924
 20
-13.29438297
 30
0.0
 10
1.1983794572
 20
-13.2725173774
 30
0.0
 10
1.1954499004
 20
-13.2556587898
 30
0.0
 10
1.1934501171
 20
-13.2384626938
 30
0.0
 10
1.1925916308
 20
-13.226896155
 30
0.0
 10
1.1921558776
 20
-13.2210660277
 30
0.0
 11
1.5352889401
 21
-13.5959488519
 31
0.0
 11
1.5225928634
 21
-13.59944512
 31
0.0
 11
1.5023219558
 21
-13.6018511153
 31
0.0
 11
1.481169613
 21
-13.6009101119
 31
0.0
 11
1.4592549001
 21
-13.5967443733
 31
0.0
 11
1.4368451184
 21
-13.5894586048
 31
0.0
 11
1.4142128779
 21
-13.5792192961
 31
0.0
 11
1.391369236
 21
-13.5660379076
 31
0.0
 11
1.3685076771
 21
-13.5499592406
 31
0.0
 11
1.3460552268
 21
-13.5312702903
 31
0.0
 11
1.3243921884
 21
-13.5103108089
 31
0.0
 11
1.3035962968
 21
-13.4871452912
 31
0.0
 11
1.2840075398
 21
-13.4621604094
 31
0.0
 11
1.2660105177
 21
-13.435906858
 31
0.0
 11
1.2498182137
 21
-13.4087906562
 31
0.0
 11
1.2352763932
 21
-13.3806356408
 31
0.0
 11
1.222383523
 21
-13.351351226
 31
0.0
 11
1.2112777519
 21
-13.3209256877
 31
0.0
 11
1.2021728855
 21
-13.2890893116
 31
0.0
 11
1.1985191266
 21
-13.2725512562
 31
0.0
 11
1.1956158853
 21
-13.2556797127
 31
0.0
 11
1.1935796195
 21
-13.2385473133
 31
0.0
 11
1.1921558776
 21
-13.2210660277
 31
0.0
  0
SPLINE
  5
2DF
100
AcDbEntity
  8
0
100
AcDbSpline
 62
7
  6
CONTINUOUS
 70
0
 71
3
 72
29
 73
25
 74
23
 42
0.0000001
 43
0.0000001
 44
0.0000000001
 12
-0.5482094695
 22
-0.023477207
 32
0.0
 13
-0.0366534344
 23
0.5474863581
 33
0.0
 40
0.0
 40
0.0
 40
0.0
 40
0.0
 40
0.037745888
 40
0.075797877
 40
0.1148122238
 40
0.1551748172
 40
0.1971237314
 40
0.2424099533
 40
0.2926330367
 40
0.3464583893
 40
0.4021736198
 40
0.4592677705
 40
0.5169621256
 40
0.5743919674
 40
0.6318412276
 40
0.6899373706
 40
0.7489368518
 40
0.808942111
 40
0.8396178131
 40
0.8707973457
 40
0.9025710842
 40
0.9347494719
 40
0.967197292
 40
1.0
 40
1.0
 40
1.0
 40
1.0
 10
-0.339867638
 20
-12.6691352172
 30
0.0
 10
-0.3467651891
 20
-12.6694306065
 30
0.0
 10
-0.3606184483
 20
-12.6700203758
 30
0.0
 10
-0.3816409152
 20
-12.6695331155
 30
0.0
 10
-0.4029727539
 20
-12.6664148761
 30
0.0
 10
-0.4242209957
 20
-12.6597425195
 30
0.0
 10
-0.445512122
 20
-12.6500852011
 30
0.0
 10
-0.4673250861
 20
-12.637516674
 30
0.0
 10
-0.4898004576
 20
-12.6219445485
 30
0.0
 10
-0.5124720004
 20
-12.6034626482
 30
0.0
 10
-0.5346019455
 20
-12.582465687
 30
0.0
 10
-0.5556338392
 20
-12.5594042727
 30
0.0
 10
-0.5752417658
 20
-12.5347229732
 30
0.0
 10
-0.5932832967
 20
-12.5087982761
 30
0.0
 10
-0.6097277443
 20
-12.4817464634
 30
0.0
 10
-0.6246011051
 20
-12.4534745241
 30
0.0
 10
-0.6378720459
 20
-12.4239023095
 30
0.0
 10
-0.6474325468
 20
-12.398223961
 30
0.0
 10
-0.6540910175
 20
-12.3769484823
 30
0.0
 10
-0.6585789392
 20
-12.3604171029
 30
0.0
 10
-0.6624362876
 20
-12.3434443645
 30
0.0
 10
-0.6655503498
 20
-12.3260829589
 30
0.0
 10
-0.6677837615
 20
-12.3083925587
 30
0.0
 10
-0.6685843177
 20
-12.2964815283
 30
0.0
 10
-0.668985095
 20
-12.2904951833
 30
0.0
 11
-0.339867638
 21
-12.6691352172
 31
0.0
 11
-0.3605688426
 21
-12.6697919674
 31
0.0
 11
-0.3814375441
 21
-12.6691180248
 31
0.0
 11
-0.4026027361
 21
-12.6659052964
 31
0.0
 11
-0.4237794483
 21
-12.6594202495
 31
0.0
 11
-0.4447903808
 21
-12.6500200859
 31
0.0
 11
-0.4663659208
 21
-12.6376923367
 31
0.0
 11
-0.489049903
 21
-12.6220436741
 31
0.0
 11
-0.5119630906
 21
-12.6034082439
 31
0.0
 11
-0.5341586821
 21
-12.582384942
 31
0.0
 11
-0.555290124
 21
-12.5592565839
 31
0.0
 11
-0.5750026696
 21
-12.5344852689
 31
0.0
 11
-0.5930092143
 21
-12.5086241351
 31
0.0
 11
-0.6093847221
 21
-12.4816881315
 31
0.0
 11
-0.6242278801
 21
-12.4534765985
 31
0.0
 11
-0.6374731218
 21
-12.4239364337
 31
0.0
 11
-0.6489393097
 21
-12.393071861
 31
0.0
 11
-0.6539614541
 21
-12.3770064176
 31
0.0
 11
-0.6584364046
 21
-12.360493441
 31
0.0
 11
-0.662289739
 21
-12.3434899667
 31
0.0
 11
-0.6653913576
 21
-12.326107855
 31
0.0
 11
-0.6676037081
 21
-12.3084413341
 31
0.0
 11
-0.668985095
 21
-12.2904951833
 31
0.0
  0
SPLINE
  5
2E0
100
AcDbEntity
  8
0
100
AcDbSpline
 62
7
  6
CONTINUOUS
 70
0
 71
3
 72
15
 73
11
 74
9
 42
0.0000001
 43
0.0000001
 44
0.0000000001
 12
0.0100406514
 22
0.1708082442
 32
0.0
 13
0.1416918684
 23
0.0962558643
 33
0.0
 40
0.0
 40
0.0
 40
0.0
 40
0.0
 40
0.1495497596
 40
0.2957929149
 40
0.4346385518
 40
0.562336732
 40
0.6805737232
 40
0.7932462332
 40
0.9033977382
 40
1.0
 40
1.0
 40
1.0
 40
1.0
 10
1.1142915663
 20
-11.0949347812
 30
0.0
 10
1.114792092
 20
-11.0864200039
 30
0.0
 10
1.1157825988
 20
-11.0695775628
 30
0.0
 10
1.1181484198
 20
-11.0448924932
 30
0.0
 10
1.1221671442
 20
-11.0216489443
 30
0.0
 10
1.1287909043
 20
-11.0006426084
 30
0.0
 10
1.1378266976
 20
-10.9822091894
 30
0.0
 10
1.1489132679
 20
-10.9661397338
 30
0.0
 10
1.161423347
 20
-10.9528004895
 30
0.0
 10
1.1706960122
 20
-10.9454449862
 30
0.0
 10
1.1752585972
 20
-10.9423454748
 30
0.0
 11
1.1142915663
 21
-11.0949347812
 31
0.0
 11
1.1159520414
 21
-11.069400286
 31
0.0
 11
1.118510697
 21
-11.0445087883
 31
0.0
 11
1.1228165835
 21
-11.0211453437
 31
0.0
 11
1.1294830557
 21
-11.0003376244
 31
0.0
 11
1.1384094298
 21
-10.9821826883
 31
0.0
 11
1.1493745518
 21
-10.9663261084
 31
0.0
 11
1.1622875946
 21
-10.9525975729
 31
0.0
 11
1.1752585972
 21
-10.9423454748
 31
0.0
  0
SPLINE
  5
2E1
100
AcDbEntity
  8
0
100
AcDbSpline
 62
7
  6
CONTINUOUS
 70
0
 71
3
 72
15
 73
11
 74
9
 42
0.0000001
 43
0.0000001
 44
0.0000000001
 12
0.0100424877
 22
0.1708536655
 32
0.0
 13
0.1417939137
 23
0.0962310269
 33
0.0
 40
0.0
 40
0.0
 40
0.0
 40
0.0
 40
0.1568327631
 40
0.3082656939
 40
0.4498675678
 40
0.577893795
 40
0.694961467
 40
0.8087257896
 40
0.924596502
 40
1.0
 40
1.0
 40
1.0
 40
1.0
 10
-0.7468493851
 20
-10.1643643058
 30
0.0
 10
-0.7463243881
 20
-10.1554324883
 30
0.0
 10
-0.7452915499
 20
-10.1378749543
 30
0.0
 10
-0.7427557935
 20
-10.1123248602
 30
0.0
 10
-0.738410262
 20
-10.0886438164
 30
0.0
 10
-0.7313544875
 20
-10.0676518153
 30
0.0
 10
-0.7219654894
 20
-10.0493750925
 30
0.0
 10
-0.7103647425
 20
-10.0332641587
 30
0.0
 10
-0.6980918441
 20
-10.0208206275
 30
0.0
 10
-0.6894032226
 20
-10.0141655285
 30
0.0
 10
-0.6858393036
 20
-10.0117468099
 30
0.0
 11
-0.7468493851
 21
-10.1643643058
 31
0.0
 11
-0.7450910426
 21
-10.1375802602
 31
0.0
 11
-0.7423338437
 21
-10.1118098111
 31
0.0
 11
-0.7376807411
 21
-10.088025747
 31
0.0
 11
-0.7306250688
 21
-10.0672813148
 31
0.0
 11
-0.7214458471
 21
-10.0494717196
 31
0.0
 11
-0.7100534536
 21
-10.0336819256
 31
0.0
 11
-0.6960993181
 21
-10.0195909778
 31
0.0
 11
-0.6858393036
 21
-10.0117468099
 31
0.0
  0
SPLINE
  5
2E2
100
AcDbEntity
  8
0
100
AcDbSpline
 62
7
  6
CONTINUOUS
 70
0
 71
3
 72
29
 73
25
 74
23
 42
0.0000001
 43
0.0000001
 44
0.0000000001
 12
-0.5482094695
 22
-0.023477207
 32
0.0
 13
-0.0366534344
 23
0.5474863581
 33
0.0
 40
0.0
 40
0.0
 40
0.0
 40
0.0
 40
0.037745888
 40
0.075797877
 40
0.1148122238
 40
0.1551748172
 40
0.1971237314
 40
0.2424099533
 40
0.2926330367
 40
0.3464583893
 40
0.4021736198
 40
0.4592677705
 40
0.5169621256
 40
0.5743919674
 40
0.6318412276
 40
0.6899373706
 40
0.7489368518
 40
0.808942111
 40
0.8396178131
 40
0.8707973457
 40
0.9025710842
 40
0.9347494719
 40
0.967197292
 40
1.0
 40
1.0
 40
1.0
 40
1.0
 10
-2.2010085894
 20
-11.7385647415
 30
0.0
 10
-2.2079061405
 20
-11.7388601308
 30
0.0
 10
-2.2217593997
 20
-11.7394499001
 30
0.0
 10
-2.2427818667
 20
-11.7389626398
 30
0.0
 10
-2.2641137054
 20
-11.7358444003
 30
0.0
 10
-2.2853619471
 20
-11.7291720438
 30
0.0
 10
-2.3066530734
 20
-11.7195147254
 30
0.0
 10
-2.3284660375
 20
-11.7069461983
 30
0.0
 10
-2.350941409
 20
-11.6913740728
 30
0.0
 10
-2.3736129518
 20
-11.6728921725
 30
0.0
 10
-2.3957428969
 20
-11.6518952113
 30
0.0
 10
-2.4167747906
 20
-11.628833797
 30
0.0
 10
-2.4363827172
 20
-11.6041524975
 30
0.0
 10
-2.4544242482
 20
-11.5782278004
 30
0.0
 10
-2.4708686957
 20
-11.5511759876
 30
0.0
 10
-2.4857420565
 20
-11.5229040484
 30
0.0
 10
-2.4990129973
 20
-11.4933318338
 30
0.0
 10
-2.5085734982
 20
-11.4676534853
 30
0.0
 10
-2.515231969
 20
-11.4463780066
 30
0.0
 10
-2.5197198906
 20
-11.4298466272
 30
0.0
 10
-2.5235772391
 20
-11.4128738888
 30
0.0
 10
-2.5266913012
 20
-11.3955124831
 30
0.0
 10
-2.5289247129
 20
-11.377822083
 30
0.0
 10
-2.5297252691
 20
-11.3659110526
 30
0.0
 10
-2.5301260464
 20
-11.3599247076
 30
0.0
 11
-2.2010085894
 21
-11.7385647415
 31
0.0
 11
-2.221709794
 21
-11.7392214916
 31
0.0
 11
-2.2425784955
 21
-11.7385475491
 31
0.0
 11
-2.2637436875
 21
-11.7353348207
 31
0.0
 11
-2.2849203997
 21
-11.7288497738
 31
0.0
 11
-2.3059313322
 21
-11.7194496102
 31
0.0
 11
-2.3275068722
 21
-11.707121861
 31
0.0
 11
-2.3501908544
 21
-11.6914731984
 31
0.0
 11
-2.3731040421
 21
-11.6728377682
 31
0.0
 11
-2.3952996335
 21
-11.6518144663
 31
0.0
 11
-2.4164310754
 21
-11.6286861082
 31
0.0
 11
-2.436143621
 21
-11.6039147932
 31
0.0
 11
-2.4541501657
 21
-11.5780536594
 31
0.0
 11
-2.4705256735
 21
-11.5511176557
 31
0.0
 11
-2.4853688315
 21
-11.5229061228
 31
0.0
 11
-2.4986140732
 21
-11.493365958
 31
0.0
 11
-2.5100802611
 21
-11.4625013853
 31
0.0
 11
-2.5151024056
 21
-11.4464359419
 31
0.0
 11
-2.519577356
 21
-11.4299229653
 31
0.0
 11
-2.5234306904
 21
-11.412919491
 31
0.0
 11
-2.526532309
 21
-11.3955373793
 31
0.0
 11
-2.5287446595
 21
-11.3778708584
 31
0.0
 11
-2.5301260464
 21
-11.3599247076
 31
0.0
  0
SPLINE
  5
2E3
100
AcDbEntity
  8
0
100
AcDbSpline
 62
7
  6
CONTINUOUS
 70
0
 71
3
 72
15
 73
11
 74
9
 42
0.0000001
 43
0.0000001
 44
0.0000000001
 12
0.0100424877
 22
0.1708536655
 32
0.0
 13
0.1417939137
 23
0.0962310269
 33
0.0
 40
0.0
 40
0.0
 40
0.0
 40
0.0
 40
0.1568327631
 40
0.3082656939
 40
0.4498675679
 40
0.5778937951
 40
0.6949614672
 40
0.8087257898
 40
0.9245965021
 40
1.0
 40
1.0
 40
1.0
 40
1.0
 10
-2.6079903366
 20
-9.2337938301
 30
0.0
 10
-2.6074653395
 20
-9.2248620126
 30
0.0
 10
-2.6064325013
 20
-9.2073044786
 30
0.0
 10
-2.603896745
 20
-9.1817543845
 30
0.0
 10
-2.5995512135
 20
-9.1580733406
 30
0.0
 10
-2.592495439
 20
-9.1370813396
 30
0.0
 10
-2.5831064408
 20
-9.1188046167
 30
0.0
 10
-2.5715056939
 20
-9.102693683
 30
0.0
 10
-2.5592327955
 20
-9.0902501517
 30
0.0
 10
-2.550544174
 20
-9.0835950528
 30
0.0
 10
-2.546980255
 20
-9.0811763342
 30
0.0
 11
-2.6079903366
 21
-9.2337938301
 31
0.0
 11
-2.606231994
 21
-9.2070097845
 31
0.0
 11
-2.6034747951
 21
-9.1812393354
 31
0.0
 11
-2.5988216925
 21
-9.1574552713
 31
0.0
 11
-2.5917660202
 21
-9.1367108391
 31
0.0
 11
-2.5825867985
 21
-9.1189012439
 31
0.0
 11
-2.571194405
 21
-9.1031114499
 31
0.0
 11
-2.5572402695
 21
-9.0890205021
 31
0.0
 11
-2.546980255
 21
-9.0811763342
 31
0.0
  0
SPLINE
  5
2E4
100
AcDbEntity
  8
0
100
AcDbSpline
 62
7
  6
CONTINUOUS
 70
0
 71
3
 72
30
 73
26
 74
24
 42
0.0000001
 43
0.0000001
 44
0.0000000001
 12
0.4711916009
 22
0.3200956787
 32
0.0
 13
0.0504063656
 23
-0.5668301546
 33
0.0
 40
0.0
 40
0.0
 40
0.0
 40
0.0
 40
0.004160537
 40
0.0384105898
 40
0.0738311801
 40
0.11039093
 40
0.1481046409
 40
0.1876463157
 40
0.2292533526
 40
0.2729847371
 40
0.3193161613
 40
0.3683439723
 40
0.419544033
 40
0.4723559015
 40
0.5268999373
 40
0.5825431326
 40
0.6383595872
 40
0.693789383
 40
0.7494623953
 40
0.8057447294
 40
0.86279787
 40
0.9212294578
 40
0.9511644687
 40
0.9814604332
 40
1.0
 40
1.0
 40
1.0
 40
1.0
 10
1.1752585972
 20
-10.9423454748
 30
0.0
 10
1.1759120672
 20
-10.9419015514
 30
0.0
 10
1.1819885564
 20
-10.9378670601
 30
0.0
 10
1.1944290062
 20
-10.9312733966
 30
0.0
 10
1.2137727281
 20
-10.925232367
 30
0.0
 10
1.2345293594
 20
-10.922709573
 30
0.0
 10
1.2561808584
 20
-10.9235951694
 30
0.0
 10
1.2784079014
 20
-10.927763207
 30
0.0
 10
1.3009885165
 20
-10.9350998443
 30
0.0
 10
1.323765466
 20
-10.945453349
 30
0.0
 10
1.3465941417
 20
-10.9587561936
 30
0.0
 10
1.3692440692
 20
-10.9749324337
 30
0.0
 10
1.3913995531
 20
-10.9937328061
 30
0.0
 10
1.4127865815
 20
-11.0149139031
 30
0.0
 10
1.433129027
 20
-11.0382278533
 30
0.0
 10
1.4521730778
 20
-11.0633299301
 30
0.0
 10
1.4696260846
 20
-11.0897634589
 30
0.0
 10
1.4853439934
 20
-11.1172694292
 30
0.0
 10
1.4993431476
 20
-11.1457863882
 30
0.0
 10
1.5116404496
 20
-11.175412701
 30
0.0
 10
1.522150831
 20
-11.2062735289
 30
0.0
 10
1.5291727344
 20
-11.2329776353
 30
0.0
 10
1.533519703
 20
-11.2550662655
 30
0.0
 10
1.5357267741
 20
-11.2698496279
 30
0.0
 10
1.5366793874
 20
-11.2790649659
 30
0.0
 10
1.5369908915
 20
-11.2825678945
 30
0.0
 11
1.1752585972
 21
-10.9423454748
 31
0.0
 11
1.1772330888
 21
-10.9410346281
 31
0.0
 11
1.1944606514
 21
-10.9319241375
 31
0.0
 11
1.2136895857
 21
-10.9258874812
 31
0.0
 11
1.2343291968
 21
-10.9232900154
 31
0.0
 11
1.2557735434
 21
-10.9240832824
 31
0.0
 11
1.2779026145
 21
-10.9281471058
 31
0.0
 11
1.3004454968
 21
-10.9353783769
 31
0.0
 11
1.3231276188
 21
-10.9456100839
 31
0.0
 11
1.3459358553
 21
-10.9588299293
 31
0.0
 11
1.3686739304
 21
-10.9749918102
 31
0.0
 11
1.3909171236
 21
-10.9938055146
 31
0.0
 11
1.41229092
 21
-11.014927852
 31
0.0
 11
1.4327196826
 21
-11.0382915749
 31
0.0
 11
1.4518714623
 21
-11.063503054
 31
0.0
 11
1.4693748878
 21
-11.0900038403
 31
0.0
 11
1.4850298823
 21
-11.1173836956
 31
0.0
 11
1.4989911699
 21
-11.1458189975
 31
0.0
 11
1.5112609379
 21
-11.1753997767
 31
0.0
 11
1.5217028107
 21
-11.2061377083
 31
0.0
 11
1.5300984686
 21
-11.2383076483
 31
0.0
 11
1.5333783223
 21
-11.2550218339
 31
0.0
 11
1.5358961886
 21
-11.2720752935
 31
0.0
 11
1.5369908915
 21
-11.2825678945
 31
0.0
  0
SPLINE
  5
2E5
100
AcDbEntity
  8
0
100
AcDbSpline
 62
7
  6
CONTINUOUS
 70
0
 71
3
 72
9
 73
5
 74
3
 42
0.0000001
 43
0.0000001
 44
0.0000000001
 12
0.0021748107
 22
-0.0244562023
 32
0.0
 13
0.0012535431
 23
-0.0245176964
 33
0.0
 40
0.0
 40
0.0
 40
0.0
 40
0.0
 40
0.2789495508
 40
1.0
 40
1.0
 40
1.0
 40
1.0
 10
1.5369908915
 20
-11.2825678945
 30
0.0
 10
1.5371931123
 20
-11.28484191
 30
0.0
 10
1.5378423005
 20
-11.2930007524
 30
0.0
 10
1.5382543003
 20
-11.3011742793
 30
0.0
 10
1.5385555895
 20
-11.3070671113
 30
0.0
 11
1.5369908915
 21
-11.2825678945
 31
0.0
 11
1.5375368375
 21
-11.2893948635
 31
0.0
 11
1.5385555895
 21
-11.3070671113
 31
0.0
  0
SPLINE
  5
2E6
100
AcDbEntity
  8
0
100
AcDbSpline
 62
7
  6
CONTINUOUS
 70
0
 71
3
 72
22
 73
18
 74
16
 42
0.0000001
 43
0.0000001
 44
0.0000000001
 12
0.2412378187
 22
0.1637204477
 32
0.0
 13
0.1913477231
 23
-0.2194803835
 33
0.0
 40
0.0
 40
0.0
 40
0.0
 40
0.0
 40
0.0240038604
 40
0.091800568
 40
0.1602637493
 40
0.2302600265
 40
0.3021866658
 40
0.3775467936
 40
0.4582109108
 40
0.5455515448
 40
0.6408281135
 40
0.6923510322
 40
0.7468664569
 40
0.8048422948
 40
0.8662934717
 40
0.9313596683
 40
1.0
 40
1.0
 40
1.0
 40
1.0
 10
-0.6858393036
 20
-10.0117468099
 30
0.0
 10
-0.6839090906
 20
-10.0104368356
 30
0.0
 10
-0.6763715515
 20
-10.0056567423
 30
0.0
 10
-0.6622368942
 20
-9.9989533526
 30
0.0
 10
-0.6427756131
 20
-9.9938125157
 30
0.0
 10
-0.6223377189
 20
-9.992077671
 30
0.0
 10
-0.6012252033
 20
-9.9935319173
 30
0.0
 10
-0.5795087767
 20
-9.9980799254
 30
0.0
 10
-0.5571143704
 20
-10.005759974
 30
0.0
 10
-0.5339622655
 20
-10.0166848864
 30
0.0
 10
-0.5144622553
 20
-10.028430799
 30
0.0
 10
-0.4984633922
 20
-10.0396578458
 30
0.0
 10
-0.4858743709
 20
-10.0494117295
 30
0.0
 10
-0.4730286292
 20
-10.0603767171
 30
0.0
 10
-0.4599774068
 20
-10.0726472087
 30
0.0
 10
-0.4468248181
 20
-10.0862908112
 30
0.0
 10
-0.4382974622
 20
-10.0960768848
 30
0.0
 10
-0.4339194051
 20
-10.1010986203
 30
0.0
 11
-0.6858393036
 21
-10.0117468099
 31
0.0
 11
-0.67992907
 21
-10.008001345
 31
0.0
 11
-0.6620879266
 21
-9.9995514009
 31
0.0
 11
-0.6428258266
 21
-9.994415338
 31
0.0
 11
-0.6225245094
 21
-9.9926093101
 31
0.0
 11
-0.601625487
 21
-9.9939746535
 31
0.0
 11
-0.5801323064
 21
-9.9983965521
 31
0.0
 11
-0.557886879
 21
-10.0059341483
 31
0.0
 11
-0.5348545039
 21
-10.0167177914
 31
0.0
 11
-0.5110540005
 21
-10.0309721877
 31
0.0
 11
-0.498769209
 21
-10.0395836149
 31
0.0
 11
-0.4862167292
 21
-10.0493002103
 31
0.0
 11
-0.4733728024
 21
-10.060255332
 31
0.0
 11
-0.4603330149
 21
-10.0725083028
 31
0.0
 11
-0.4471802543
 21
-10.0861447985
 31
0.0
 11
-0.4339194051
 21
-10.1010986203
 31
0.0
  0
LINE
  5
2E7
100
AcDbEntity
  8
0
100
AcDbLine
 62
7
  6
CONTINUOUS
 10
1.6164199176
 20
-13.4331984751
 11
1.615543038
 21
-13.4552285639
  0
SPLINE
  5
2E8
100
AcDbEntity
  8
0
100
AcDbSpline
 62
7
  6
CONTINUOUS
 70
0
 71
3
 72
17
 73
13
 74
11
 42
0.0000001
 43
0.0000001
 44
0.0000000001
 12
-0.0082544709
 22
-0.1682317385
 32
0.0
 13
-0.1568550501
 23
-0.0620126523
 33
0.0
 40
0.0
 40
0.0
 40
0.0
 40
0.0
 40
0.019018273
 40
0.1654141303
 40
0.3040266147
 40
0.4310011905
 40
0.5481016687
 40
0.6593532083
 40
0.7679278953
 40
0.8767744527
 40
0.9892478793
 40
1.0
 40
1.0
 40
1.0
 40
1.0
 10
1.615543038
 20
-13.4552285639
 30
0.0
 10
1.6154907094
 20
-13.4562950563
 30
0.0
 10
1.6150167238
 20
-13.4655701767
 30
0.0
 10
1.6137996962
 20
-13.4826018468
 30
0.0
 10
1.6104097732
 20
-13.5055276299
 30
0.0
 10
1.6044037872
 20
-13.526240701
 30
0.0
 10
1.5959534757
 20
-13.5443977577
 30
0.0
 10
1.5854217008
 20
-13.56019887
 30
0.0
 10
1.5728971423
 20
-13.5738526619
 30
0.0
 10
1.5582684935
 20
-13.585356616
 30
0.0
 10
1.5466883111
 20
-13.5914917882
 30
0.0
 10
1.5402680267
 20
-13.5940959615
 30
0.0
 10
1.5397058519
 20
-13.5943182173
 30
0.0
 11
1.615543038
 21
-13.4552285639
 31
0.0
 11
1.6153792302
 21
-13.4584277327
 31
0.0
 11
1.6134508111
 21
-13.4830098319
 31
0.0
 11
1.6097739043
 21
-13.5060651336
 31
0.0
 11
1.6037145899
 21
-13.5265752776
 31
0.0
 11
1.5953654116
 21
-13.5444443153
 31
0.0
 11
1.5849524567
 21
-13.5600228731
 31
0.0
 11
1.5725693396
 21
-13.5734796911
 31
0.0
 11
1.5581319178
 21
-13.5847785981
 31
0.0
 11
1.5413863718
 21
-13.5936365287
 31
0.0
 11
1.5397058519
 21
-13.5943182173
 31
0.0
  0
SPLINE
  5
2E9
100
AcDbEntity
  8
0
100
AcDbSpline
 62
7
  6
CONTINUOUS
 70
0
 71
3
 72
22
 73
18
 74
16
 42
0.0000001
 43
0.0000001
 44
0.0000000001
 12
0.2412378187
 22
0.1637204477
 32
0.0
 13
0.1913477231
 23
-0.2194803835
 33
0.0
 40
0.0
 40
0.0
 40
0.0
 40
0.0
 40
0.0240038605
 40
0.0918005681
 40
0.1602637495
 40
0.2302600267
 40
0.302186666
 40
0.3775467939
 40
0.458210911
 40
0.545551545
 40
0.6408281137
 40
0.6923510324
 40
0.7468664571
 40
0.804842295
 40
0.8662934718
 40
0.9313596683
 40
1.0
 40
1.0
 40
1.0
 40
1.0
 10
-2.546980255
 20
-9.0811763342
 30
0.0
 10
-2.545050042
 20
-9.0798663599
 30
0.0
 10
-2.537512503
 20
-9.0750862666
 30
0.0
 10
-2.5233778457
 20
-9.0683828769
 30
0.0
 10
-2.5039165645
 20
-9.06324204
 30
0.0
 10
-2.4834786703
 20
-9.0615071953
 30
0.0
 10
-2.4623661547
 20
-9.0629614416
 30
0.0
 10
-2.4406497281
 20
-9.0675094497
 30
0.0
 10
-2.4182553218
 20
-9.0751894983
 30
0.0
 10
-2.3951032169
 20
-9.0861144107
 30
0.0
 10
-2.3756032066
 20
-9.0978603234
 30
0.0
 10
-2.3596043436
 20
-9.1090873701
 30
0.0
 10
-2.3470153223
 20
-9.1188412538
 30
0.0
 10
-2.3341695806
 20
-9.1298062414
 30
0.0
 10
-2.3211183582
 20
-9.142076733
 30
0.0
 10
-2.3079657695
 20
-9.1557203355
 30
0.0
 10
-2.2994384136
 20
-9.1655064091
 30
0.0
 10
-2.2950603566
 20
-9.1705281446
 30
0.0
 11
-2.546980255
 21
-9.0811763342
 31
0.0
 11
-2.5410700214
 21
-9.0774308693
 31
0.0
 11
-2.523228878
 21
-9.0689809252
 31
0.0
 11
-2.503966778
 21
-9.0638448623
 31
0.0
 11
-2.4836654608
 21
-9.0620388344
 31
0.0
 11
-2.4627664384
 21
-9.0634041778
 31
0.0
 11
-2.4412732577
 21
-9.0678260764
 31
0.0
 11
-2.4190278303
 21
-9.0753636727
 31
0.0
 11
-2.3959954553
 21
-9.0861473157
 31
0.0
 11
-2.3721949519
 21
-9.1004017121
 31
0.0
 11
-2.3599101604
 21
-9.1090131392
 31
0.0
 11
-2.3473576806
 21
-9.1187297346
 31
0.0
 11
-2.3345137538
 21
-9.1296848563
 31
0.0
 11
-2.3214739663
 21
-9.1419378271
 31
0.0
 11
-2.3083212057
 21
-9.1555743228
 31
0.0
 11
-2.2950603566
 21
-9.1705281446
 31
0.0
  0
SPLINE
  5
2EA
100
AcDbEntity
  8
0
100
AcDbSpline
 62
7
  6
CONTINUOUS
 70
0
 71
3
 72
16
 73
12
 74
10
 42
0.0000001
 43
0.0000001
 44
0.0000000001
 12
-0.1510364523
 22
-0.0518886497
 32
0.0
 13
-0.1222549402
 23
0.1022930601
 33
0.0
 40
0.0
 40
0.0
 40
0.0
 40
0.0
 40
0.0479468274
 40
0.1303790279
 40
0.2194539011
 40
0.3186020047
 40
0.4304582919
 40
0.5567294128
 40
0.6972613565
 40
0.8475729313
 40
1.0
 40
1.0
 40
1.0
 40
1.0
 10
2.2820149792
 20
7.6543135958
 30
0.0
 10
2.2796010729
 20
7.6534842971
 30
0.0
 10
2.2728884195
 20
7.6516580954
 30
0.0
 10
2.2612162151
 20
7.6504860005
 30
0.0
 10
2.2468146421
 20
7.6515800099
 30
0.0
 10
2.2312207377
 20
7.6551316664
 30
0.0
 10
2.214339109
 20
7.6612602424
 30
0.0
 10
2.1962176026
 20
7.6700728368
 30
0.0
 10
2.1771906798
 20
7.6814857689
 30
0.0
 10
2.1579139208
 20
7.6950485691
 30
0.0
 10
2.1453236475
 20
7.7050750511
 30
0.0
 10
2.1391119934
 20
7.7102724616
 30
0.0
 11
2.2820149792
 21
7.6543135958
 31
0.0
 11
2.2746339154
 21
7.6522939283
 31
0.0
 11
2.2615686292
 21
7.6508932324
 31
0.0
 11
2.2474030824
 21
7.6518678259
 31
0.0
 11
2.2319702549
 21
7.6552763978
 31
0.0
 11
2.215175993
 21
7.6612664018
 31
0.0
 11
2.1970340338
 21
7.6699852735
 31
0.0
 11
2.1777812819
 21
7.6814378829
 31
0.0
 11
2.1581476896
 21
7.695172071
 31
0.0
 11
2.1391119934
 21
7.7102724616
 31
0.0
  0
SPLINE
  5
2EB
100
AcDbEntity
  8
0
100
AcDbSpline
 62
7
  6
CONTINUOUS
 70
0
 71
3
 72
13
 73
9
 74
7
 42
0.0000001
 43
0.0000001
 44
0.0000000001
 12
0.2033739935
 22
0.1380174493
 32
0.0
 13
0.1410342712
 23
0.2012248896
 33
0.0
 40
0.0
 40
0.0
 40
0.0
 40
0.0
 40
0.0592802421
 40
0.2422048252
 40
0.4272360294
 40
0.6149016153
 40
0.8056857034
 40
1.0
 40
1.0
 40
1.0
 40
1.0
 10
1.6121327042
 20
6.4524032853
 30
0.0
 10
1.6161513907
 20
6.4551305212
 30
0.0
 10
1.6324383402
 20
6.4664685524
 30
0.0
 10
1.6601850043
 20
6.4878425413
 30
0.0
 10
1.6942025409
 20
6.5181314106
 30
0.0
 10
1.7264914788
 20
6.551161459
 30
0.0
 10
1.756983726
 20
6.5868583094
 30
0.0
 10
1.7758902817
 20
6.6121384606
 30
0.0
 10
1.7850252734
 20
6.6251720849
 30
0.0
 11
1.6121327042
 21
6.4524032853
 31
0.0
 11
1.6240905647
 21
6.4607272169
 31
0.0
 11
1.6597098746
 21
6.4881450082
 31
0.0
 11
1.6936810007
 21
6.5183648348
 31
0.0
 11
1.7259344362
 21
6.5513235353
 31
0.0
 11
1.7564043314
 21
6.5869522915
 31
0.0
 11
1.7850252734
 21
6.6251720849
 31
0.0
  0
SPLINE
  5
2EC
100
AcDbEntity
  8
0
100
AcDbSpline
 62
7
  6
CONTINUOUS
 70
0
 71
3
 72
20
 73
16
 74
14
 42
0.0000001
 43
0.0000001
 44
0.0000000001
 12
-0.2067919486
 22
-0.0710026259
 32
0.0
 13
-0.0767554648
 23
0.2043204068
 33
0.0
 40
0.0
 40
0.0
 40
0.0
 40
0.0
 40
0.0434579519
 40
0.092018707
 40
0.1424821285
 40
0.1969255164
 40
0.2562196845
 40
0.3206370289
 40
0.3906936614
 40
0.468388914
 40
0.5546963588
 40
0.6497218362
 40
0.7548613045
 40
0.8715783102
 40
1.0
 40
1.0
 40
1.0
 40
1.0
 10
-1.5566692854
 20
9.1486156839
 30
0.0
 10
-1.5596648703
 20
9.147587141
 30
0.0
 10
-1.5662158389
 20
9.1460125683
 30
0.0
 10
-1.5766401368
 20
9.1455895477
 30
0.0
 10
-1.5877429723
 20
9.1472242724
 30
0.0
 10
-1.5991579941
 20
9.1509072734
 30
0.0
 10
-1.6108203738
 20
9.1566538548
 30
0.0
 10
-1.6226044977
 20
9.1644507497
 30
0.0
 10
-1.634482405
 20
9.1743520155
 30
0.0
 10
-1.6464476068
 20
9.1865033409
 30
0.0
 10
-1.6584348793
 20
9.201074405
 30
0.0
 10
-1.6703283381
 20
9.2182157131
 30
0.0
 10
-1.6820055739
 20
9.2381183954
 30
0.0
 10
-1.6933016149
 20
9.260984476
 30
0.0
 10
-1.7000967144
 20
9.2774909975
 30
0.0
 10
-1.7033824033
 20
9.2862373881
 30
0.0
 11
-1.5566692854
 21
9.1486156839
 31
0.0
 11
-1.565893003
 21
9.1463901456
 31
0.0
 11
-1.5764815092
 21
9.1459195618
 31
0.0
 11
-1.5873863909
 21
9.1474677806
 31
0.0
 11
-1.5987150574
 21
9.1510545506
 31
0.0
 11
-1.6103529519
 21
9.1567154492
 31
0.0
 11
-1.6221124226
 21
9.1644222069
 31
0.0
 11
-1.6338932414
 21
9.1741698949
 31
0.0
 11
-1.6458291069
 21
9.1862158774
 31
0.0
 11
-1.6578358532
 21
9.2007311771
 31
0.0
 11
-1.6696979202
 21
9.21774461
 31
0.0
 11
-1.6813496528
 21
9.2375144008
 31
0.0
 11
-1.6926724471
 21
9.2603346341
 31
0.0
 11
-1.7033824033
 21
9.2862373881
 31
0.0
  0
LINE
  5
2ED
100
AcDbEntity
  8
0
100
AcDbLine
 62
7
  6
CONTINUOUS
 10
1.4363587403
 20
9.5413590382
 11
1.7088893751
 21
9.8491013793
  0
SPLINE
  5
2EE
100
AcDbEntity
  8
0
100
AcDbSpline
 62
7
  6
CONTINUOUS
 70
0
 71
3
 72
10
 73
6
 74
4
 42
0.0000001
 43
0.0000001
 44
0.0000000001
 12
0.0151278241
 22
0.0170522794
 32
0.0
 13
0.0188836264
 23
0.0128116856
 33
0.0
 40
0.0
 40
0.0
 40
0.0
 40
0.0
 40
0.4774603826
 40
0.9501776977
 40
1.0
 40
1.0
 40
1.0
 40
1.0
 10
1.7088896097
 20
9.8491011711
 30
0.0
 10
1.7112972552
 20
9.8518151004
 30
0.0
 10
1.7163343479
 20
9.8570069277
 30
0.0
 10
1.7222279752
 20
9.8618357205
 30
0.0
 10
1.725498905
 20
9.8640937555
 30
0.0
 10
1.7258125136
 20
9.8643065247
 30
0.0
 11
1.7088896097
 21
9.8491011711
 31
0.0
 11
1.7165016255
 21
9.8568804298
 31
0.0
 11
1.7248769007
 21
9.8636607533
 31
0.0
 11
1.7258125136
 21
9.8643065247
 31
0.0
  0
SPLINE
  5
2EF
100
AcDbEntity
  8
0
100
AcDbSpline
 62
7
  6
CONTINUOUS
 70
0
 71
3
 72
10
 73
6
 74
4
 42
0.0000001
 43
0.0000001
 44
0.0000000001
 12
-1.2338087734
 22
1.0323357075
 32
0.0
 13
-1.2326957314
 23
1.0336645181
 33
0.0
 40
0.0
 40
0.0
 40
0.0
 40
0.0
 40
0.3334211011
 40
0.666753238
 40
1.0
 40
1.0
 40
1.0
 40
1.0
 10
2.1391119362
 20
7.7102723931
 30
0.0
 10
2.0019859762
 20
7.8250065626
 30
0.0
 10
1.727811812
 20
8.0544934948
 30
0.0
 10
1.316727583
 20
8.3988268302
 30
0.0
 10
1.0427899812
 20
8.6284505917
 30
0.0
 10
0.9058593608
 20
8.7432723763
 30
0.0
 11
2.1391119362
 21
7.7102723931
 31
0.0
 11
1.7277958406
 21
8.0545487301
 31
0.0
 11
1.3167131097
 21
8.3988808405
 31
0.0
 11
0.9058593608
 21
8.7432723763
 31
0.0
  0
SPLINE
  5
2F0
100
AcDbEntity
  8
0
100
AcDbSpline
 62
7
  6
CONTINUOUS
 70
0
 71
3
 72
24
 73
20
 74
18
 42
0.0000001
 43
0.0000001
 44
0.0000000001
 12
-0.1397991366
 22
0.1172355667
 32
0.0
 13
0.1202751541
 23
0.1371926488
 33
0.0
 40
0.0
 40
0.0
 40
0.0
 40
0.0
 40
0.0696220816
 40
0.1416647014
 40
0.2123943008
 40
0.279397326
 40
0.3422922352
 40
0.4017807488
 40
0.4591656278
 40
0.515864613
 40
0.5719721806
 40
0.6262104329
 40
0.6780866947
 40
0.7289403955
 40
0.7804177985
 40
0.8334343673
 40
0.8885345063
 40
0.9448226524
 40
1.0
 40
1.0
 40
1.0
 40
1.0
 10
0.9058591558
 20
8.7432721318
 30
0.0
 10
0.9026147868
 20
8.7459928598
 30
0.0
 10
0.8961393454
 20
8.7516818437
 30
0.0
 10
0.8868952236
 20
8.7607138205
 30
0.0
 10
0.878326457
 20
8.7701779912
 30
0.0
 10
0.8707666873
 20
8.7797685655
 30
0.0
 10
0.8643222114
 20
8.7893285948
 30
0.0
 10
0.8589555292
 20
8.7988683926
 30
0.0
 10
0.8546037841
 20
8.8085021227
 30
0.0
 10
0.8512762314
 20
8.8183223786
 30
0.0
 10
0.8490687405
 20
8.8282610398
 30
0.0
 10
0.8480584708
 20
8.838098304
 30
0.0
 10
0.8482195676
 20
8.8476657101
 30
0.0
 10
0.8494912302
 20
8.8569794217
 30
0.0
 10
0.8518669746
 20
8.8661458557
 30
0.0
 10
0.8553802503
 20
8.8752162563
 30
0.0
 10
0.8600194858
 20
8.8840959425
 30
0.0
 10
0.8656308259
 20
8.8925493627
 30
0.0
 10
0.8698947531
 20
8.8978319561
 30
0.0
 10
0.8721069078
 20
8.9003552649
 30
0.0
 11
0.9058591558
 21
8.7432721318
 31
0.0
 11
0.8963247921
 21
8.7516656117
 31
0.0
 11
0.8869353571
 21
8.7608638527
 31
0.0
 11
0.8782892578
 21
8.7704437189
 31
0.0
 11
0.870738123
 21
8.780057433
 31
0.0
 11
0.8643412406
 21
8.7895842049
 31
0.0
 11
0.8590375163
 21
8.7990537721
 31
0.0
 11
0.854745917
 21
8.8086036531
 31
0.0
 11
0.8514452567
 21
8.8184076794
 31
0.0
 11
0.8492433775
 21
8.8284048883
 31
0.0
 11
0.8482448619
 21
8.838250145
 31
0.0
 11
0.8484097582
 21
8.847713526
 31
0.0
 11
0.8496641686
 21
8.8569065887
 31
0.0
 11
0.8520138711
 21
8.8659999611
 31
0.0
 11
0.8554956851
 21
8.8750244453
 31
0.0
 11
0.8601350566
 21
8.8839429269
 31
0.0
 11
0.8657980015
 21
8.8925102563
 31
0.0
 11
0.8721069078
 21
8.9003552649
 31
0.0
  0
LINE
  5
2F1
100
AcDbEntity
  8
0
100
AcDbLine
 62
7
  6
CONTINUOUS
 10
1.1513659899
 20
9.2182606567
 11
0.7560496068
 21
9.4549271038
  0
LINE
  5
2F2
100
AcDbEntity
  8
0
100
AcDbLine
 62
7
  6
CONTINUOUS
 10
0.7560496068
 20
9.4549271038
 11
0.3655072137
 21
9.5188436292
  0
LINE
  5
2F3
100
AcDbEntity
  8
0
100
AcDbLine
 62
7
  6
CONTINUOUS
 10
0.3655072137
 20
9.5188436292
 11
0.0241941016
 21
9.4032386795
  0
SPLINE
  5
2F4
100
AcDbEntity
  8
0
100
AcDbSpline
 62
7
  6
CONTINUOUS
 70
0
 71
3
 72
16
 73
12
 74
10
 42
0.0000001
 43
0.0000001
 44
0.0000000001
 12
0.0098852395
 22
0.1766199386
 32
0.0
 13
0.1465413014
 23
0.0994428717
 33
0.0
 40
0.0
 40
0.0
 40
0.0
 40
0.0
 40
0.0018818054
 40
0.1562456875
 40
0.3050302512
 40
0.4468087881
 40
0.5811970602
 40
0.7095548588
 40
0.8330635896
 40
0.9519660529
 40
1.0
 40
1.0
 40
1.0
 40
1.0
 10
-2.5680617727
 20
12.3087673203
 30
0.0
 10
-2.568055572
 20
12.3088781084
 30
0.0
 10
-2.5675359135
 20
12.3180766199
 30
0.0
 10
-2.5657395905
 20
12.3360024388
 30
0.0
 10
-2.5606509441
 20
12.3617824502
 30
0.0
 10
-2.5532560989
 20
12.3857766597
 30
0.0
 10
-2.5436591464
 20
12.4076759486
 30
0.0
 10
-2.5319468365
 20
12.4272862607
 30
0.0
 10
-2.5182110308
 20
12.4443934483
 30
0.0
 10
-2.5055567554
 20
12.4560366865
 30
0.0
 10
-2.4975878853
 20
12.4618438489
 30
0.0
 10
-2.4952415663
 20
12.4634360601
 30
0.0
 11
-2.5680617727
 21
12.3087673203
 31
0.0
 11
-2.5680429965
 21
12.3090996777
 31
0.0
 11
-2.5652706446
 21
12.3362654554
 31
0.0
 11
-2.5601163976
 21
12.3620757384
 31
0.0
 11
-2.5526673124
 21
12.3860245249
 31
0.0
 11
-2.5430625067
 21
12.407771084
 31
0.0
 11
-2.5313599492
 21
12.4272295377
 31
0.0
 11
-2.5176299836
 21
12.4442251296
 31
0.0
 11
-2.5021161801
 21
12.4584287018
 31
0.0
 11
-2.4952415663
 21
12.4634360601
 31
0.0
  0
LINE
  5
2F5
100
AcDbEntity
  8
0
100
AcDbLine
 62
7
  6
CONTINUOUS
 10
-3.6427070112
 20
9.199083705
 11
-3.5236692441
 21
9.2962783013
  0
LINE
  5
2F6
100
AcDbEntity
  8
0
100
AcDbLine
 62
7
  6
CONTINUOUS
 10
-3.7027157525
 20
9.1241882073
 11
-3.6427070112
 21
9.199083705
  0
LINE
  5
2F7
100
AcDbEntity
  8
0
100
AcDbLine
 62
7
  6
CONTINUOUS
 10
-3.7521426294
 20
9.0360133489
 11
-3.7027157525
 21
9.1241882073
  0
LINE
  5
2F8
100
AcDbEntity
  8
0
100
AcDbLine
 62
7
  6
CONTINUOUS
 10
-3.8039400115
 20
8.6673047448
 11
-3.8043936534
 21
8.684616027
  0
LINE
  5
2F9
100
AcDbEntity
  8
0
100
AcDbLine
 62
7
  6
CONTINUOUS
 10
-3.8043936534
 20
8.684616027
 11
-3.8048443273
 21
8.70192872
  0
LINE
  5
2FA
100
AcDbEntity
  8
0
100
AcDbLine
 62
7
  6
CONTINUOUS
 10
-3.8048443273
 20
8.70192872
 11
-3.8079159424
 21
8.8231570124
  0
LINE
  5
2FB
100
AcDbEntity
  8
0
100
AcDbLine
 62
7
  6
CONTINUOUS
 10
-3.8035334642
 20
8.6518500391
 11
-3.8039400115
 21
8.6673047448
  0
LINE
  5
2FC
100
AcDbEntity
  8
0
100
AcDbLine
 62
7
  6
CONTINUOUS
 10
-3.7564930788
 20
8.4694445973
 11
-3.7826323718
 21
8.570778265
  0
LINE
  5
2FD
100
AcDbEntity
  8
0
100
AcDbLine
 62
7
  6
CONTINUOUS
 10
-3.7826323718
 20
8.570778265
 11
-3.8035334642
 21
8.6518500391
  0
LINE
  5
2FE
100
AcDbEntity
  8
0
100
AcDbLine
 62
7
  6
CONTINUOUS
 10
-3.6690785737
 20
8.2968204248
 11
-3.7564930788
 21
8.4694445973
  0
LINE
  5
2FF
100
AcDbEntity
  8
0
100
AcDbLine
 62
7
  6
CONTINUOUS
 10
1.7850252734
 20
6.6251720849
 11
1.8786885065
 21
6.7851312435
  0
LINE
  5
300
100
AcDbEntity
  8
0
100
AcDbLine
 62
7
  6
CONTINUOUS
 10
-3.5160800235
 20
8.1136319027
 11
-3.6690785737
 21
8.2968204248
  0
LINE
  5
301
100
AcDbEntity
  8
0
100
AcDbLine
 62
7
  6
CONTINUOUS
 10
-3.4178046742
 20
8.0329355532
 11
-3.5160800235
 21
8.1136319027
  0
SPLINE
  5
302
100
AcDbEntity
  8
0
100
AcDbSpline
 62
7
  6
CONTINUOUS
 70
0
 71
3
 72
12
 73
8
 74
6
 42
0.0000001
 43
0.0000001
 44
0.0000000001
 12
0.0467161957
 22
0.1010533253
 32
0.0
 13
0.0922134068
 23
0.0625929415
 33
0.0
 40
0.0
 40
0.0
 40
0.0
 40
0.0
 40
0.2792704039
 40
0.518204352
 40
0.7229435348
 40
0.9013413894
 40
1.0
 40
1.0
 40
1.0
 40
1.0
 10
1.8786885051
 20
6.7851312442
 30
0.0
 10
1.883037322
 20
6.7945383118
 30
0.0
 10
1.8916820647
 20
6.8117418869
 30
0.0
 10
1.9058013446
 20
6.8346020969
 30
0.0
 10
1.9200079319
 20
6.8528663372
 30
0.0
 10
1.9327806583
 20
6.8654646334
 30
0.0
 10
1.9409891111
 20
6.8717013381
 30
0.0
 10
1.94402166
 20
6.8737597823
 30
0.0
 11
1.8786885051
 21
6.7851312442
 31
0.0
 11
1.8927836214
 21
6.8128435857
 31
0.0
 11
1.9068947427
 21
6.8353924837
 31
0.0
 11
1.9210113697
 21
6.8532883386
 31
0.0
 11
1.9352526173
 21
6.8671317996
 31
0.0
 11
1.94402166
 21
6.8737597823
 31
0.0
  0
LINE
  5
303
100
AcDbEntity
  8
0
100
AcDbLine
 62
7
  6
CONTINUOUS
 10
-2.9874235795
 20
7.8677193164
 11
-3.1527352336
 21
7.9005862498
  0
LINE
  5
304
100
AcDbEntity
  8
0
100
AcDbLine
 62
7
  6
CONTINUOUS
 10
-2.8133352674
 20
7.8722976772
 11
-2.9874235795
 21
7.8677193164
  0
LINE
  5
305
100
AcDbEntity
  8
0
100
AcDbLine
 62
7
  6
CONTINUOUS
 10
-2.6500372503
 20
7.9187601644
 11
-2.8133352674
 21
7.8722976772
  0
LINE
  5
306
100
AcDbEntity
  8
0
100
AcDbLine
 62
7
  6
CONTINUOUS
 10
-0.4333271135
 20
9.7786513292
 11
-0.2404678904
 21
9.9412576841
  0
LINE
  5
307
100
AcDbEntity
  8
0
100
AcDbLine
 62
7
  6
CONTINUOUS
 10
-0.5900194043
 20
9.5632971583
 11
-0.4333271135
 21
9.7786513292
  0
LINE
  5
308
100
AcDbEntity
  8
0
100
AcDbLine
 62
7
  6
CONTINUOUS
 10
1.747118818
 20
5.8458103776
 11
1.6955820241
 21
5.8313264913
  0
LINE
  5
309
100
AcDbEntity
  8
0
100
AcDbLine
 62
7
  6
CONTINUOUS
 10
1.6955820241
 20
5.8313264913
 11
1.5152256507
 21
5.7806442984
  0
LINE
  5
30A
100
AcDbEntity
  8
0
100
AcDbLine
 62
7
  6
CONTINUOUS
 10
1.5152256507
 20
5.7806442984
 11
1.262803789
 21
5.7765560081
  0
LINE
  5
30B
100
AcDbEntity
  8
0
100
AcDbLine
 62
7
  6
CONTINUOUS
 10
1.262803789
 20
5.7765560081
 11
0.997220295
 21
5.8328011251
  0
LINE
  5
30C
100
AcDbEntity
  8
0
100
AcDbLine
 62
7
  6
CONTINUOUS
 10
0.7258533045
 20
5.9486134815
 11
0.456401893
 21
6.1198886516
  0
LINE
  5
30D
100
AcDbEntity
  8
0
100
AcDbLine
 62
7
  6
CONTINUOUS
 10
-0.2649076275
 20
6.9138734841
 11
-0.4533665638
 21
7.2467068325
  0
LINE
  5
30E
100
AcDbEntity
  8
0
100
AcDbLine
 62
7
  6
CONTINUOUS
 10
0.456401893
 20
6.1198886516
 11
0.1966561835
 21
6.3424959265
  0
LINE
  5
30F
100
AcDbEntity
  8
0
100
AcDbLine
 62
7
  6
CONTINUOUS
 10
-0.2468744038
 20
6.8887719409
 11
-0.2649076275
 21
6.9138734841
  0
LINE
  5
310
100
AcDbEntity
  8
0
100
AcDbLine
 62
7
  6
CONTINUOUS
 10
0.1966561835
 20
6.3424959265
 11
-0.0461970694
 21
6.6095200142
  0
LINE
  5
311
100
AcDbEntity
  8
0
100
AcDbLine
 62
7
  6
CONTINUOUS
 10
-0.0461970694
 20
6.6095200142
 11
-0.2468744038
 21
6.8887719409
  0
SPLINE
  5
312
100
AcDbEntity
  8
0
100
AcDbSpline
 62
7
  6
CONTINUOUS
 70
0
 71
3
 72
20
 73
16
 74
14
 42
0.0000001
 43
0.0000001
 44
0.0000000001
 12
0.0591470416
 22
-0.2257585891
 32
0.0
 13
-0.2211252121
 23
-0.0759676786
 33
0.0
 40
0.0
 40
0.0
 40
0.0
 40
0.0
 40
0.1147768824
 40
0.2307653717
 40
0.3419610243
 40
0.4438762211
 40
0.5353263102
 40
0.617045818
 40
0.6902843644
 40
0.7568801886
 40
0.8180480325
 40
0.8743129355
 40
0.927245455
 40
0.9793098269
 40
1.0
 40
1.0
 40
1.0
 40
1.0
 10
2.3137018243
 20
7.8678105239
 30
0.0
 10
2.3159647287
 20
7.8591732349
 30
0.0
 10
2.3201806313
 20
7.8417173067
 30
0.0
 10
2.3252404084
 20
7.8155897665
 30
0.0
 10
2.3287296969
 20
7.7902118017
 30
0.0
 10
2.3304507773
 20
7.7665630388
 30
0.0
 10
2.3304226451
 20
7.7451410403
 30
0.0
 10
2.3287536654
 20
7.7260177333
 30
0.0
 10
2.3255318219
 20
7.7090515915
 30
0.0
 10
2.3207821152
 20
7.6941068504
 30
0.0
 10
2.3144894002
 20
7.6811804374
 30
0.0
 10
2.3066658466
 20
7.6703864922
 30
0.0
 10
2.2973586054
 20
7.6618374547
 30
0.0
 10
2.2888259114
 20
7.6569012092
 30
0.0
 10
2.2835400188
 20
7.654837524
 30
0.0
 10
2.2820149792
 20
7.6543135958
 30
0.0
 11
2.3137018243
 21
7.8678105239
 31
0.0
 11
2.3199602406
 21
7.8417654907
 31
0.0
 11
2.3250629766
 21
7.815181622
 31
0.0
 11
2.3285408113
 21
7.7894650956
 31
0.0
 11
2.3302008753
 21
7.7657383261
 31
0.0
 11
2.3300994798
 21
7.7443961211
 31
0.0
 11
2.3283614174
 21
7.7254039429
 31
0.0
 11
2.3250866146
 21
7.7086283238
 31
0.0
 11
2.3202871441
 21
7.6938459352
 31
0.0
 11
2.3139480839
 21
7.6810553679
 31
0.0
 11
2.3061709294
 21
7.6704752501
 31
0.0
 11
2.2970370248
 21
7.6621580661
 31
0.0
 11
2.2865184181
 21
7.6560754672
 31
0.0
 11
2.2820149792
 21
7.6543135958
 31
0.0
  0
SPLINE
  5
313
100
AcDbEntity
  8
0
100
AcDbSpline
 62
7
  6
CONTINUOUS
 70
0
 71
3
 72
24
 73
20
 74
18
 42
0.0000001
 43
0.0000001
 44
0.0000000001
 12
0.3600036047
 22
0.2215889544
 32
0.0
 13
0.1395818878
 23
-0.3985413638
 33
0.0
 40
0.0
 40
0.0
 40
0.0
 40
0.0
 40
0.0149216343
 40
0.0627155985
 40
0.1110144674
 40
0.1602492948
 40
0.210792854
 40
0.2634807544
 40
0.3190055546
 40
0.3772683728
 40
0.4379626562
 40
0.5013707597
 40
0.5677482974
 40
0.6364880144
 40
0.7067899573
 40
0.7786045091
 40
0.8519863601
 40
0.9261262996
 40
1.0
 40
1.0
 40
1.0
 40
1.0
 10
-2.4905441624
 20
12.4664738192
 30
0.0
 10
-2.4887535484
 20
12.4675759757
 30
0.0
 10
-2.4811106704
 20
12.4720180681
 30
0.0
 10
-2.4667657602
 20
12.4783958716
 30
0.0
 10
-2.4468603724
 20
12.4835040771
 30
0.0
 10
-2.4260101583
 20
12.4853443063
 30
0.0
 10
-2.4045176052
 20
12.4839290721
 30
0.0
 10
-2.3825844501
 20
12.4793058942
 30
0.0
 10
-2.3604195136
 20
12.4715177701
 30
0.0
 10
-2.3383262123
 20
12.4606717977
 30
0.0
 10
-2.3165883159
 20
12.4469359785
 30
0.0
 10
-2.2953936573
 20
12.4304511787
 30
0.0
 10
-2.2749405642
 20
12.4113588352
 30
0.0
 10
-2.2555078574
 20
12.3899051569
 30
0.0
 10
-2.2373505745
 20
12.3663909679
 30
0.0
 10
-2.2206318283
 20
12.3410489115
 30
0.0
 10
-2.2055105728
 20
12.3141016793
 30
0.0
 10
-2.1921972911
 20
12.2858984274
 30
0.0
 10
-2.1846243826
 20
12.2664680498
 30
0.0
 10
-2.1811872391
 20
12.2566541414
 30
0.0
 11
-2.4905441624
 21
12.4664738192
 31
0.0
 11
-2.4850905812
 21
12.4696422506
 31
0.0
 11
-2.4666467157
 21
12.4778367472
 31
0.0
 11
-2.4468967903
 21
12.4829277189
 31
0.0
 11
-2.4261905583
 21
12.4848006136
 31
0.0
 11
-2.4048894174
 21
12.4834580252
 31
0.0
 11
-2.383105007
 21
12.4789354407
 31
0.0
 11
-2.3609607152
 21
12.4712291872
 31
0.0
 11
-2.3388458985
 21
12.4604474244
 31
0.0
 11
-2.3171471939
 21
12.4468072431
 31
0.0
 11
-2.2959794751
 21
12.4304099228
 31
0.0
 11
-2.2754586499
 21
12.4113164095
 31
0.0
 11
-2.255944101
 21
12.3898277387
 31
0.0
 11
-2.2377774879
 21
12.3663482141
 31
0.0
 11
-2.2210603419
 21
12.3410463677
 31
0.0
 11
-2.2058843296
 21
12.3140294418
 31
0.0
 11
-2.1925143932
 21
12.2857202105
 31
0.0
 11
-2.1811872391
 21
12.2566541414
 31
0.0
  0
SPLINE
  5
314
100
AcDbEntity
  8
0
100
AcDbSpline
 62
7
  6
CONTINUOUS
 70
0
 71
3
 72
19
 73
15
 74
13
 42
0.0000001
 43
0.0000001
 44
0.0000000001
 12
0.2156091566
 22
0.1341525902
 32
0.0
 13
0.173893231
 23
-0.1846817306
 33
0.0
 40
0.0
 40
0.0
 40
0.0
 40
0.0
 40
0.0102635851
 40
0.0731482582
 40
0.1330974791
 40
0.1934992693
 40
0.2568259907
 40
0.3253028845
 40
0.4019257238
 40
0.4898160492
 40
0.5911943178
 40
0.7079965805
 40
0.8433896786
 40
1.0
 40
1.0
 40
1.0
 40
1.0
 10
1.9473600225
 20
6.8759309673
 30
0.0
 10
1.9480976635
 20
6.8763899295
 30
0.0
 10
1.9533986868
 20
6.8795908799
 30
0.0
 10
1.9636132914
 20
6.884464074
 30
0.0
 10
1.9786920837
 20
6.8884112195
 30
0.0
 10
1.9942764862
 20
6.8894510481
 30
0.0
 10
2.0105041719
 20
6.8876488728
 30
0.0
 10
2.0275632026
 20
6.8829892414
 30
0.0
 10
2.0457565373
 20
6.8753069909
 30
0.0
 10
2.0653975269
 20
6.8642871892
 30
0.0
 10
2.0867205367
 20
6.8495674368
 30
0.0
 10
2.1099727557
 20
6.8307378016
 30
0.0
 10
2.1354268516
 20
6.8073242226
 30
0.0
 10
2.152713708
 20
6.7896803986
 30
0.0
 10
2.1617915329
 20
6.7800393769
 30
0.0
 11
1.9473600225
 21
6.8759309673
 31
0.0
 11
1.9495914163
 21
6.8772779025
 31
0.0
 11
1.9640171361
 21
6.8840863161
 31
0.0
 11
1.9787311278
 21
6.8879272577
 31
0.0
 11
1.9940160033
 21
6.8889910809
 31
0.0
 11
2.009990785
 21
6.8873022331
 31
0.0
 11
2.0267749595
 21
6.8828282779
 31
0.0
 11
2.0447261762
 21
6.8753761523
 31
0.0
 11
2.0642297136
 21
6.8645748701
 31
0.0
 11
2.0854621192
 21
6.8500660305
 31
0.0
 11
2.1085608814
 21
6.8315105066
 31
0.0
 11
2.1339134413
 21
6.8083416358
 31
0.0
 11
2.1617915329
 21
6.7800393769
 31
0.0
  0
LINE
  5
315
100
AcDbEntity
  8
0
100
AcDbLine
 62
7
  6
CONTINUOUS
 10
0.0241941016
 20
9.4032386795
 11
-0.2286255787
 21
9.1212635641
  0
LINE
  5
316
100
AcDbEntity
  8
0
100
AcDbLine
 62
7
  6
CONTINUOUS
 10
0.0249796835
 20
7.1630592713
 11
0.366612564
 21
6.7451534348
  0
LINE
  5
317
100
AcDbEntity
  8
0
100
AcDbLine
 62
7
  6
CONTINUOUS
 10
-3.0754772974
 20
9.3868488541
 11
-2.9114665706
 21
9.3485452401
  0
LINE
  5
318
100
AcDbEntity
  8
0
100
AcDbLine
 62
7
  6
CONTINUOUS
 10
-3.2362238425
 20
9.3901861096
 11
-3.0754772974
 21
9.3868488541
  0
LINE
  5
319
100
AcDbEntity
  8
0
100
AcDbLine
 62
7
  6
CONTINUOUS
 10
-3.386734272
 20
9.3597200468
 11
-3.2362238425
 21
9.3901861096
  0
LINE
  5
31A
100
AcDbEntity
  8
0
100
AcDbLine
 62
7
  6
CONTINUOUS
 10
-3.5236692441
 20
9.2962783013
 11
-3.386734272
 21
9.3597200468
  0
SPLINE
  5
31B
100
AcDbEntity
  8
0
100
AcDbSpline
 62
7
  6
CONTINUOUS
 70
0
 71
3
 72
11
 73
7
 74
5
 42
0.0000001
 43
0.0000001
 44
0.0000000001
 12
0.0276067567
 22
0.0187299346
 32
0.0
 13
0.0332396072
 23
-0.0030199772
 33
0.0
 40
0.0
 40
0.0
 40
0.0
 40
0.0
 40
0.2676452196
 40
0.5408790066
 40
0.7910600416
 40
1.0
 40
1.0
 40
1.0
 40
1.0
 10
1.7258125136
 20
9.8643065247
 30
0.0
 10
1.7282754524
 20
9.8659775172
 30
0.0
 10
1.7334692649
 20
9.8690394902
 30
0.0
 10
1.7416999378
 20
9.8722528754
 30
0.0
 10
1.7497510896
 20
9.8737385617
 30
0.0
 10
1.7548789384
 20
9.8737158661
 30
0.0
 10
1.7571939658
 20
9.8735055348
 30
0.0
 11
1.7258125136
 21
9.8643065247
 31
0.0
 11
1.7335218268
 21
9.868796084
 31
0.0
 11
1.74202379
 21
9.872056475
 31
0.0
 11
1.7502283757
 21
9.8735389275
 31
0.0
 11
1.7571939658
 21
9.8735055348
 31
0.0
  0
SPLINE
  5
31C
100
AcDbEntity
  8
0
100
AcDbSpline
 62
7
  6
CONTINUOUS
 70
0
 71
3
 72
19
 73
15
 74
13
 42
0.0000001
 43
0.0000001
 44
0.0000000001
 12
0.1326614908
 22
-0.0120529304
 32
0.0
 13
0.0317967362
 23
-0.1291480568
 33
0.0
 40
0.0
 40
0.0
 40
0.0
 40
0.0
 40
0.0072212535
 40
0.0670165038
 40
0.1305457886
 40
0.1996419087
 40
0.2737637696
 40
0.3523580192
 40
0.4372331702
 40
0.5312696517
 40
0.6361019159
 40
0.7521123031
 40
0.875991354
 40
1.0
 40
1.0
 40
1.0
 40
1.0
 10
1.7571939658
 20
9.8735055348
 30
0.0
 10
1.7575132932
 20
9.8734765224
 30
0.0
 10
1.7604735139
 20
9.8731719585
 30
0.0
 10
1.7661650537
 20
9.8719391851
 30
0.0
 10
1.7740600843
 20
9.8685859485
 30
0.0
 10
1.7817912286
 20
9.8635875812
 30
0.0
 10
1.789187095
 20
9.8570599033
 30
0.0
 10
1.7961729689
 20
9.8491463531
 30
0.0
 10
1.8028070723
 20
9.8398338198
 30
0.0
 10
1.8091646086
 20
9.8289616303
 30
0.0
 10
1.8152410808
 20
9.8163789643
 30
0.0
 10
1.8209056767
 20
9.8021720534
 30
0.0
 10
1.8259413596
 20
9.786835373
 30
0.0
 10
1.8288110002
 20
9.7762213347
 30
0.0
 10
1.8301253569
 20
9.7708828428
 30
0.0
 11
1.7571939658
 21
9.8735055348
 31
0.0
 11
1.7581507944
 21
9.8734070752
 31
0.0
 11
1.7659278054
 21
9.8717429896
 31
0.0
 11
1.7737210321
 21
9.8684775592
 31
0.0
 11
1.7814682434
 21
9.8635339846
 31
0.0
 11
1.7888962285
 21
9.8570519869
 31
0.0
 11
1.7958507471
 21
9.8492475979
 31
0.0
 11
1.8024358807
 21
9.8400784616
 31
0.0
 11
1.8087845151
 21
9.8293022165
 31
0.0
 11
1.8148827758
 21
9.8167633227
 31
0.0
 11
1.8206308343
 21
9.8024440075
 31
0.0
 11
1.825799545
 21
9.7867992089
 31
0.0
 11
1.8301253569
 21
9.7708828428
 31
0.0
  0
LINE
  5
31D
100
AcDbEntity
  8
0
100
AcDbLine
 62
7
  6
CONTINUOUS
 10
0.366612564
 20
6.7451534348
 11
0.7572715566
 21
6.4597407169
  0
SPLINE
  5
31E
100
AcDbEntity
  8
0
100
AcDbSpline
 62
7
  6
CONTINUOUS
 70
0
 71
3
 72
14
 73
10
 74
8
 42
0.0000001
 43
0.0000001
 44
0.0000000001
 12
0.3256172657
 22
-0.154057688
 32
0.0
 13
0.3592295102
 23
-0.0262113117
 33
0.0
 40
0.0
 40
0.0
 40
0.0
 40
0.0
 40
0.1522377132
 40
0.3012270892
 40
0.4469951548
 40
0.5896257307
 40
0.7292344427
 40
0.8659699109
 40
1.0
 40
1.0
 40
1.0
 40
1.0
 10
0.807373349
 20
6.4346518495
 30
0.0
 10
0.8238970917
 20
6.4268340528
 30
0.0
 10
0.8569367827
 20
6.4120953648
 30
0.0
 10
0.9069431881
 20
6.3925570404
 30
0.0
 10
0.9567580683
 20
6.3758697011
 30
0.0
 10
1.0062817044
 20
6.3620683068
 30
0.0
 10
1.0554185059
 20
6.3511814269
 30
0.0
 10
1.1040690109
 20
6.3432326207
 30
0.0
 10
1.1364263329
 20
6.3398715805
 30
0.0
 10
1.1524755207
 20
6.3387005456
 30
0.0
 11
0.807373349
 21
6.4346518495
 31
0.0
 11
0.8574614702
 21
6.4123379338
 31
0.0
 11
0.90745564
 21
6.3928348109
 31
0.0
 11
0.9572491782
 21
6.3761851761
 31
0.0
 11
1.0067446087
 21
6.3624221591
 31
0.0
 11
1.0558452525
 21
6.3515733182
 31
0.0
 11
1.1044554429
 21
6.343660574
 31
0.0
 11
1.1524755207
 21
6.3387005456
 31
0.0
  0
LINE
  5
31F
100
AcDbEntity
  8
0
100
AcDbLine
 62
7
  6
CONTINUOUS
 10
1.1524755207
 20
6.3387005456
 11
1.5080985848
 21
6.3958325381
  0
SPLINE
  5
320
100
AcDbEntity
  8
0
100
AcDbSpline
 62
7
  6
CONTINUOUS
 70
0
 71
3
 72
23
 73
19
 74
17
 42
0.0000001
 43
0.0000001
 44
0.0000000001
 12
0.2945076381
 22
-0.3195091979
 32
0.0
 13
-0.1816965319
 23
-0.3946891559
 33
0.0
 40
0.0
 40
0.0
 40
0.0
 40
0.0
 40
0.0702663005
 40
0.154516079
 40
0.2304287189
 40
0.2996986007
 40
0.3631215959
 40
0.4215434981
 40
0.4765111861
 40
0.5295714716
 40
0.581504677
 40
0.6330431797
 40
0.6855706412
 40
0.7404369335
 40
0.7983830118
 40
0.8600922552
 40
0.9269396185
 40
1.0
 40
1.0
 40
1.0
 40
1.0
 10
2.1687393731
 20
6.7725823616
 30
0.0
 10
2.1756373605
 20
6.7650987852
 30
0.0
 10
2.1905374583
 20
6.7483925468
 30
0.0
 10
2.2116826823
 20
6.7225534403
 30
0.0
 10
2.2313097321
 20
6.6957170627
 30
0.0
 10
2.2476672486
 20
6.6702915154
 30
0.0
 10
2.2611080518
 20
6.6460698226
 30
0.0
 10
2.2719531532
 20
6.6228469442
 30
0.0
 10
2.2805219734
 20
6.6002888613
 30
0.0
 10
2.2870379583
 20
6.5780302022
 30
0.0
 10
2.2916006221
 20
6.5557956146
 30
0.0
 10
2.2942392834
 20
6.5333278561
 30
0.0
 10
2.2949109365
 20
6.5102887486
 30
0.0
 10
2.2934659468
 20
6.486353239
 30
0.0
 10
2.2896877466
 20
6.4613269881
 30
0.0
 10
2.2833355607
 20
6.4350385945
 30
0.0
 10
2.2741346388
 20
6.4072929681
 30
0.0
 10
2.2662771586
 20
6.388591349
 30
0.0
 10
2.2618522193
 20
6.3789793023
 30
0.0
 11
2.1687393731
 21
6.7725823616
 31
0.0
 11
2.189039925
 21
6.7497761371
 31
0.0
 11
2.2121721454
 21
6.7214043381
 31
0.0
 11
2.2315948836
 21
6.6947449863
 31
0.0
 11
2.2478333548
 21
6.6694032935
 31
0.0
 11
2.2611629261
 21
6.6452840369
 31
0.0
 11
2.271868325
 21
6.6222673497
 31
0.0
 11
2.2803196355
 21
6.5999289562
 31
0.0
 11
2.2867731825
 21
6.5777957495
 31
0.0
 11
2.2912932436
 21
6.5556879428
 31
0.0
 11
2.2938986884
 21
6.5334463757
 31
0.0
 11
2.2945679448
 21
6.5106328323
 31
0.0
 11
2.2931483858
 21
6.4868355469
 31
0.0
 11
2.289420951
 21
6.461935224
 31
0.0
 11
2.28316766
 21
6.4358617412
 31
0.0
 11
2.2740819727
 21
6.4082739589
 31
0.0
 11
2.2618522193
 21
6.3789793023
 31
0.0
  0
LINE
  5
321
100
AcDbEntity
  8
0
100
AcDbLine
 62
7
  6
CONTINUOUS
 10
-2.5504504839
 20
7.9736861986
 11
-2.6500372503
 21
7.9187601644
  0
LINE
  5
322
100
AcDbEntity
  8
0
100
AcDbLine
 62
7
  6
CONTINUOUS
 10
-2.5005010351
 20
8.0155852566
 11
-2.5504504839
 21
7.9736861986
  0
LINE
  5
323
100
AcDbEntity
  8
0
100
AcDbLine
 62
7
  6
CONTINUOUS
 10
-2.4616150301
 20
8.0481982323
 11
-2.4961816973
 21
8.019208266
  0
LINE
  5
324
100
AcDbEntity
  8
0
100
AcDbLine
 62
7
  6
CONTINUOUS
 10
-2.4961816973
 20
8.019208266
 11
-2.5005010351
 21
8.0155852566
  0
LINE
  5
325
100
AcDbEntity
  8
0
100
AcDbLine
 62
7
  6
CONTINUOUS
 10
-2.386165415
 20
8.1432365774
 11
-2.4616150301
 21
8.0481982323
  0
LINE
  5
326
100
AcDbEntity
  8
0
100
AcDbLine
 62
7
  6
CONTINUOUS
 10
-2.3280088958
 20
8.2600170241
 11
-2.386165415
 21
8.1432365774
  0
LINE
  5
327
100
AcDbEntity
  8
0
100
AcDbLine
 62
7
  6
CONTINUOUS
 10
2.1253954838
 20
6.1490598189
 11
1.9524437917
 21
5.9694243007
  0
SPLINE
  5
328
100
AcDbEntity
  8
0
100
AcDbSpline
 62
7
  6
CONTINUOUS
 70
0
 71
3
 72
16
 73
12
 74
10
 42
0.0000001
 43
0.0000001
 44
0.0000000001
 12
-0.0074411071
 22
-0.1191818946
 32
0.0
 13
-0.113100057
 23
-0.0388332383
 33
0.0
 40
0.0
 40
0.0
 40
0.0
 40
0.0
 40
0.1298448964
 40
0.3059593664
 40
0.4577950739
 40
0.5898660335
 40
0.7059476886
 40
0.8087286459
 40
0.9023091529
 40
0.9915893994
 40
1.0
 40
1.0
 40
1.0
 40
1.0
 10
-1.5055350683
 20
9.2494519782
 30
0.0
 10
-1.5058571316
 20
9.2442935913
 30
0.0
 10
-1.5069509559
 20
9.232157878
 30
0.0
 10
-1.5099785986
 20
9.2141641837
 30
0.0
 10
-1.5149816731
 20
9.1965127039
 30
0.0
 10
-1.5212388779
 20
9.1818252021
 30
0.0
 10
-1.5285638687
 20
9.1698686382
 30
0.0
 10
-1.5367911766
 20
9.1604596857
 30
0.0
 10
-1.5458050686
 20
9.1534162147
 30
0.0
 10
-1.5526820462
 20
9.1500261828
 30
0.0
 10
-1.5563522056
 20
9.1487245542
 30
0.0
 10
-1.5566692854
 20
9.1486156839
 30
0.0
 11
-1.5055350683
 21
9.2494519782
 31
0.0
 11
-1.5069529721
 21
9.2340129365
 31
0.0
 11
-1.5105422716
 21
9.2132982484
 31
0.0
 11
-1.5155837828
 21
9.1958883922
 31
0.0
 11
-1.5218565826
 21
9.1814242834
 31
0.0
 11
-1.5291776115
 21
9.1696590742
 31
0.0
 11
-1.5373145118
 21
9.1604761308
 31
0.0
 11
-1.5461513645
 21
9.1536422857
 31
0.0
 11
-1.5557214173
 21
9.148951865
 31
0.0
 11
-1.5566692854
 21
9.1486156839
 31
0.0
  0
LINE
  5
329
100
AcDbEntity
  8
0
100
AcDbLine
 62
7
  6
CONTINUOUS
 10
1.9524437917
 20
5.9694243007
 11
1.7888245263
 21
5.8709224759
  0
LINE
  5
32A
100
AcDbEntity
  8
0
100
AcDbLine
 62
7
  6
CONTINUOUS
 10
-1.4957025354
 20
10.3390599986
 11
-1.4703512642
 21
10.1874969714
  0
LINE
  5
32B
100
AcDbEntity
  8
0
100
AcDbLine
 62
7
  6
CONTINUOUS
 10
0.2285755776
 20
10.0918002988
 11
0.4909586641
 21
10.075280548
  0
LINE
  5
32C
100
AcDbEntity
  8
0
100
AcDbLine
 62
7
  6
CONTINUOUS
 10
-0.0176974936
 20
10.0469613569
 11
0.2285755776
 21
10.0918002988
  0
LINE
  5
32D
100
AcDbEntity
  8
0
100
AcDbLine
 62
7
  6
CONTINUOUS
 10
-0.2404678904
 20
9.9412576841
 11
-0.0176974936
 21
10.0469613569
  0
LINE
  5
32E
100
AcDbEntity
  8
0
100
AcDbLine
 62
7
  6
CONTINUOUS
 10
1.7888245263
 20
5.8709224759
 11
1.7841903761
 21
5.8681321523
  0
LINE
  5
32F
100
AcDbEntity
  8
0
100
AcDbLine
 62
7
  6
CONTINUOUS
 10
1.7841903761
 20
5.8681321523
 11
1.7795562674
 21
5.8653418488
  0
LINE
  5
330
100
AcDbEntity
  8
0
100
AcDbLine
 62
7
  6
CONTINUOUS
 10
1.7795562674
 20
5.8653418488
 11
1.7749222058
 21
5.8625515688
  0
LINE
  5
331
100
AcDbEntity
  8
0
100
AcDbLine
 62
7
  6
CONTINUOUS
 10
1.7749222058
 20
5.8625515688
 11
1.7702881963
 21
5.8597613152
  0
LINE
  5
332
100
AcDbEntity
  8
0
100
AcDbLine
 62
7
  6
CONTINUOUS
 10
1.7702881963
 20
5.8597613152
 11
1.7656542242
 21
5.8569710794
  0
LINE
  5
333
100
AcDbEntity
  8
0
100
AcDbLine
 62
7
  6
CONTINUOUS
 10
1.7656542242
 20
5.8569710794
 11
1.7610203065
 21
5.8541808714
  0
LINE
  5
334
100
AcDbEntity
  8
0
100
AcDbLine
 62
7
  6
CONTINUOUS
 10
1.7610203065
 20
5.8541808714
 11
1.7563864289
 21
5.8513906827
  0
LINE
  5
335
100
AcDbEntity
  8
0
100
AcDbLine
 62
7
  6
CONTINUOUS
 10
1.7563864289
 20
5.8513906827
 11
1.7517526
 21
5.8486005184
  0
LINE
  5
336
100
AcDbEntity
  8
0
100
AcDbLine
 62
7
  6
CONTINUOUS
 10
1.7517526
 20
5.8486005184
 11
1.747118818
 21
5.8458103776
  0
LINE
  5
337
100
AcDbEntity
  8
0
100
AcDbLine
 62
7
  6
CONTINUOUS
 10
0.4909586641
 20
10.075280548
 11
0.7615376137
 21
9.9970682805
  0
LINE
  5
338
100
AcDbEntity
  8
0
100
AcDbLine
 62
7
  6
CONTINUOUS
 10
1.0328824448
 20
9.8602066868
 11
1.4363587403
 21
9.5413590382
  0
LINE
  5
339
100
AcDbEntity
  8
0
100
AcDbLine
 62
7
  6
CONTINUOUS
 10
1.8301257686
 20
9.7708829442
 11
1.8587813345
 21
9.6547514608
  0
LINE
  5
33A
100
AcDbEntity
  8
0
100
AcDbLine
 62
7
  6
CONTINUOUS
 10
2.2812782655
 20
7.9918212069
 11
2.313702026
 21
7.8678105768
  0
SPLINE
  5
33B
100
AcDbEntity
  8
DRAFT
100
AcDbSpline
 62
7
  6
CONTINUOUS
 70
0
 71
3
 72
31
 73
27
 74
25
 42
0.0000001
 43
0.0000001
 44
0.0000000001
 12
0.4915218766
 22
0.3339067005
 32
0.0
 13
0.0303073724
 23
-0.5927732621
 33
0.0
 40
0.0
 40
0.0
 40
0.0
 40
0.0
 40
0.0039885386
 40
0.0368219667
 40
0.0707775174
 40
0.1058251108
 40
0.1419789359
 40
0.1798851179
 40
0.2197712361
 40
0.2616938364
 40
0.3061089354
 40
0.3531088954
 40
0.402191258
 40
0.4528187622
 40
0.505106789
 40
0.5584485127
 40
0.6119563296
 40
0.6650934803
 40
0.7184637878
 40
0.7724182148
 40
0.8271115667
 40
0.8831263516
 40
0.9118232133
 40
0.9408660991
 40
0.9701764795
 40
1.0
 40
1.0
 40
1.0
 40
1.0
 10
1.1752585529
 20
-10.9423455037
 30
0.0
 10
1.1759120376
 20
-10.9419015704
 30
0.0
 10
1.1819885457
 20
-10.9378670681
 30
0.0
 10
1.1944290042
 20
-10.9312733967
 30
0.0
 10
1.2137727286
 20
-10.925232367
 30
0.0
 10
1.2345293592
 20
-10.922709573
 30
0.0
 10
1.2561808584
 20
-10.9235951694
 30
0.0
 10
1.2784079014
 20
-10.927763207
 30
0.0
 10
1.3009885165
 20
-10.9350998443
 30
0.0
 10
1.323765466
 20
-10.945453349
 30
0.0
 10
1.3465941417
 20
-10.9587561936
 30
0.0
 10
1.3692440692
 20
-10.9749324337
 30
0.0
 10
1.3913995531
 20
-10.9937328061
 30
0.0
 10
1.4127865815
 20
-11.0149139031
 30
0.0
 10
1.433129027
 20
-11.0382278533
 30
0.0
 10
1.4521730778
 20
-11.0633299301
 30
0.0
 10
1.4696260846
 20
-11.0897634589
 30
0.0
 10
1.4853439934
 20
-11.1172694292
 30
0.0
 10
1.4993431476
 20
-11.1457863882
 30
0.0
 10
1.5116404496
 20
-11.175412701
 30
0.0
 10
1.522150831
 20
-11.2062735289
 30
0.0
 10
1.5291727344
 20
-11.2329776353
 30
0.0
 10
1.533519703
 20
-11.2550662655
 30
0.0
 10
1.5360639948
 20
-11.2721083933
 30
0.0
 10
1.5376652676
 20
-11.2894886326
 30
0.0
 10
1.5382543033
 20
-11.301174339
 30
0.0
 10
1.5385555941
 20
-11.3070672009
 30
0.0
 11
1.1752585529
 21
-10.9423455037
 31
0.0
 11
1.1772330888
 21
-10.9410346281
 31
0.0
 11
1.1944606514
 21
-10.9319241375
 31
0.0
 11
1.2136895857
 21
-10.9258874812
 31
0.0
 11
1.2343291968
 21
-10.9232900154
 31
0.0
 11
1.2557735434
 21
-10.9240832824
 31
0.0
 11
1.2779026145
 21
-10.9281471058
 31
0.0
 11
1.3004454968
 21
-10.9353783769
 31
0.0
 11
1.3231276188
 21
-10.9456100839
 31
0.0
 11
1.3459358553
 21
-10.9588299293
 31
0.0
 11
1.3686739304
 21
-10.9749918102
 31
0.0
 11
1.3909171236
 21
-10.9938055146
 31
0.0
 11
1.41229092
 21
-11.014927852
 31
0.0
 11
1.4327196826
 21
-11.0382915749
 31
0.0
 11
1.4518714623
 21
-11.063503054
 31
0.0
 11
1.4693748878
 21
-11.0900038403
 31
0.0
 11
1.4850298823
 21
-11.1173836956
 31
0.0
 11
1.4989911699
 21
-11.1458189975
 31
0.0
 11
1.5112609379
 21
-11.1753997767
 31
0.0
 11
1.5217028107
 21
-11.2061377083
 31
0.0
 11
1.5300984686
 21
-11.2383076483
 31
0.0
 11
1.5333783223
 21
-11.2550218339
 31
0.0
 11
1.5358961886
 21
-11.2720752935
 31
0.0
 11
1.5375368375
 21
-11.2893948635
 31
0.0
 11
1.5385555941
 21
-11.3070672009
 31
0.0
  0
SPLINE
  5
33C
100
AcDbEntity
  8
DRAFT
100
AcDbSpline
 62
7
  6
CONTINUOUS
 70
0
 71
3
 72
22
 73
18
 74
16
 42
0.0000001
 43
0.0000001
 44
0.0000000001
 12
0.2412381127
 22
0.1637206098
 32
0.0
 13
0.1913478043
 23
-0.2194804758
 33
0.0
 40
0.0
 40
0.0
 40
0.0
 40
0.0
 40
0.0240040145
 40
0.0918006935
 40
0.1602638458
 40
0.2302600933
 40
0.3021867021
 40
0.3775467981
 40
0.458210881
 40
0.545551478
 40
0.6408280064
 40
0.6923509033
 40
0.746866305
 40
0.8048421183
 40
0.8662932691
 40
0.9313594382
 40
1.0
 40
1.0
 40
1.0
 40
1.0
 10
-0.6858393498
 20
-10.0117468365
 30
0.0
 10
-0.6839091221
 20
-10.0104368525
 30
0.0
 10
-0.6763715599
 20
-10.0056567494
 30
0.0
 10
-0.6622368965
 20
-9.9989533525
 30
0.0
 10
-0.6427756125
 20
-9.9938125158
 30
0.0
 10
-0.6223377191
 20
-9.992077671
 30
0.0
 10
-0.6012252033
 20
-9.9935319173
 30
0.0
 10
-0.5795087767
 20
-9.9980799254
 30
0.0
 10
-0.5571143704
 20
-10.005759974
 30
0.0
 10
-0.5339622655
 20
-10.0166848864
 30
0.0
 10
-0.5144622553
 20
-10.028430799
 30
0.0
 10
-0.4984633922
 20
-10.0396578458
 30
0.0
 10
-0.4858743709
 20
-10.0494117295
 30
0.0
 10
-0.4730286292
 20
-10.0603767171
 30
0.0
 10
-0.4599774068
 20
-10.0726472087
 30
0.0
 10
-0.4468248006
 20
-10.0862908293
 30
0.0
 10
-0.4382974291
 20
-10.0960769228
 30
0.0
 10
-0.4339193555
 20
-10.1010986772
 30
0.0
 11
-0.6858393498
 21
-10.0117468365
 31
0.0
 11
-0.67992907
 21
-10.008001345
 31
0.0
 11
-0.6620879266
 21
-9.9995514009
 31
0.0
 11
-0.6428258266
 21
-9.994415338
 31
0.0
 11
-0.6225245094
 21
-9.9926093101
 31
0.0
 11
-0.601625487
 21
-9.9939746535
 31
0.0
 11
-0.5801323064
 21
-9.9983965521
 31
0.0
 11
-0.557886879
 21
-10.0059341483
 31
0.0
 11
-0.5348545039
 21
-10.0167177914
 31
0.0
 11
-0.5110540005
 21
-10.0309721877
 31
0.0
 11
-0.498769209
 21
-10.0395836149
 31
0.0
 11
-0.4862167292
 21
-10.0493002103
 31
0.0
 11
-0.4733728024
 21
-10.060255332
 31
0.0
 11
-0.4603330149
 21
-10.0725083028
 31
0.0
 11
-0.4471802543
 21
-10.0861447985
 31
0.0
 11
-0.4339193555
 21
-10.1010986772
 31
0.0
  0
SPLINE
  5
33D
100
AcDbEntity
  8
DRAFT
100
AcDbSpline
 62
7
  6
CONTINUOUS
 70
0
 71
3
 72
22
 73
18
 74
16
 42
0.0000001
 43
0.0000001
 44
0.0000000001
 12
0.2412381127
 22
0.1637206098
 32
0.0
 13
0.1913478043
 23
-0.2194804758
 33
0.0
 40
0.0
 40
0.0
 40
0.0
 40
0.0
 40
0.0240040146
 40
0.0918006936
 40
0.1602638459
 40
0.2302600935
 40
0.3021867023
 40
0.3775467983
 40
0.4582108813
 40
0.5455514783
 40
0.6408280066
 40
0.6923509035
 40
0.7468663052
 40
0.8048421185
 40
0.8662932692
 40
0.9313594382
 40
1.0
 40
1.0
 40
1.0
 40
1.0
 10
-2.5469803013
 20
-9.0811763608
 30
0.0
 10
-2.5450500735
 20
-9.0798663768
 30
0.0
 10
-2.5375125113
 20
-9.0750862737
 30
0.0
 10
-2.5233778479
 20
-9.0683828768
 30
0.0
 10
-2.5039165639
 20
-9.06324204
 30
0.0
 10
-2.4834786705
 20
-9.0615071953
 30
0.0
 10
-2.4623661547
 20
-9.0629614416
 30
0.0
 10
-2.4406497281
 20
-9.0675094497
 30
0.0
 10
-2.4182553217
 20
-9.0751894983
 30
0.0
 10
-2.3951032169
 20
-9.0861144107
 30
0.0
 10
-2.3756032066
 20
-9.0978603234
 30
0.0
 10
-2.3596043436
 20
-9.1090873701
 30
0.0
 10
-2.3470153223
 20
-9.1188412538
 30
0.0
 10
-2.3341695806
 20
-9.1298062414
 30
0.0
 10
-2.3211183582
 20
-9.142076733
 30
0.0
 10
-2.307965752
 20
-9.1557203536
 30
0.0
 10
-2.2994383806
 20
-9.1655064471
 30
0.0
 10
-2.295060307
 20
-9.1705282014
 30
0.0
 11
-2.5469803013
 21
-9.0811763608
 31
0.0
 11
-2.5410700214
 21
-9.0774308693
 31
0.0
 11
-2.523228878
 21
-9.0689809252
 31
0.0
 11
-2.503966778
 21
-9.0638448623
 31
0.0
 11
-2.4836654608
 21
-9.0620388344
 31
0.0
 11
-2.4627664384
 21
-9.0634041778
 31
0.0
 11
-2.4412732577
 21
-9.0678260764
 31
0.0
 11
-2.4190278303
 21
-9.0753636727
 31
0.0
 11
-2.3959954553
 21
-9.0861473157
 31
0.0
 11
-2.3721949519
 21
-9.1004017121
 31
0.0
 11
-2.3599101604
 21
-9.1090131392
 31
0.0
 11
-2.3473576806
 21
-9.1187297346
 31
0.0
 11
-2.3345137538
 21
-9.1296848563
 31
0.0
 11
-2.3214739663
 21
-9.1419378271
 31
0.0
 11
-2.3083212057
 21
-9.1555743228
 31
0.0
 11
-2.295060307
 21
-9.1705282014
 31
0.0
  0
SPLINE
  5
33E
100
AcDbEntity
  8
DRAFT
100
AcDbSpline
 62
7
  6
CONTINUOUS
 70
0
 71
3
 72
18
 73
14
 74
12
 42
0.0000001
 43
0.0000001
 44
0.0000000001
 12
-0.0068846173
 22
-0.1950673413
 32
0.0
 13
-0.1848666737
 23
-0.0635197308
 33
0.0
 40
0.0
 40
0.0
 40
0.0
 40
0.0
 40
0.1293655633
 40
0.2556926078
 40
0.3166381401
 40
0.3753450035
 40
0.484913151
 40
0.5859608008
 40
0.6819613192
 40
0.7756519438
 40
0.8695771693
 40
0.9666320712
 40
1.0
 40
1.0
 40
1.0
 40
1.0
 10
1.6164199174
 20
-13.4331984789
 30
0.0
 10
1.61612304
 20
-13.4416101444
 30
0.0
 10
1.6155387857
 20
-13.4582354185
 30
0.0
 10
1.6140769693
 20
-13.4787979969
 30
0.0
 10
1.6120052138
 20
-13.4946736597
 30
0.0
 10
1.6093071759
 20
-13.5093475475
 30
0.0
 10
1.6044022309
 20
-13.5262407628
 30
0.0
 10
1.5959538562
 20
-13.5443977426
 30
0.0
 10
1.5854216037
 20
-13.5601988739
 30
0.0
 10
1.5728971681
 20
-13.5738526609
 30
0.0
 10
1.5582684863
 20
-13.5853566162
 30
0.0
 10
1.5452952902
 20
-13.5922298096
 30
0.0
 10
1.5373450624
 20
-13.5952423736
 30
0.0
 10
1.5352888564
 20
-13.5959488808
 30
0.0
 11
1.6164199174
 21
-13.4331984789
 31
0.0
 11
1.6153792302
 21
-13.4584277327
 31
0.0
 11
1.6134508111
 21
-13.4830098319
 31
0.0
 11
1.6118824265
 21
-13.4948018737
 31
0.0
 11
1.6097739043
 21
-13.5060651336
 31
0.0
 11
1.6037145899
 21
-13.5265752776
 31
0.0
 11
1.5953654116
 21
-13.5444443153
 31
0.0
 11
1.5849524567
 21
-13.5600228731
 31
0.0
 11
1.5725693396
 21
-13.5734796911
 31
0.0
 11
1.5581319178
 21
-13.5847785981
 31
0.0
 11
1.5413863718
 21
-13.5936365287
 31
0.0
 11
1.5352888564
 21
-13.5959488808
 31
0.0
  0
LINE
  5
33F
100
AcDbEntity
  8
0
100
AcDbLine
 62
253
  6
CONTINUOUS
 10
-4.0792207358
 20
0.1695159165
 11
-4.0788789796
 21
-0.1772263373
  0
SPLINE
  5
340
100
AcDbEntity
  8
0
100
AcDbSpline
 62
253
  6
CONTINUOUS
 70
0
 71
3
 72
25
 73
21
 74
19
 42
0.0000001
 43
0.0000001
 44
0.0000000001
 12
0.0013679978
 22
-1.030979939
 32
0.0
 13
0.9221315856
 23
-0.4610800852
 33
0.0
 40
0.0
 40
0.0
 40
0.0
 40
0.0
 40
0.0517111695
 40
0.1054687607
 40
0.1609428989
 40
0.2177747134
 40
0.2755783827
 40
0.3340718422
 40
0.3930757175
 40
0.4523670836
 40
0.5116426782
 40
0.5705934818
 40
0.6289162034
 40
0.6863254509
 40
0.7426250879
 40
0.7976683067
 40
0.8512195929
 40
0.9029630781
 40
0.9526297894
 40
1.0
 40
1.0
 40
1.0
 40
1.0
 10
-4.0788789796
 20
-0.1772263373
 30
0.0
 10
-4.0788553993
 20
-0.1949973968
 30
0.0
 10
-4.0775068183
 20
-0.2312512846
 30
0.0
 10
-4.0717941094
 20
-0.2863013612
 30
0.0
 10
-4.0623498522
 20
-0.3426207523
 30
0.0
 10
-4.0492443541
 20
-0.3996268746
 30
0.0
 10
-4.0326011363
 20
-0.4567820891
 30
0.0
 10
-4.0125656035
 20
-0.5136287654
 30
0.0
 10
-3.9892839988
 20
-0.5697779441
 30
0.0
 10
-3.9629162786
 20
-0.6248435138
 30
0.0
 10
-3.9336582448
 20
-0.6784086524
 30
0.0
 10
-3.9017432763
 20
-0.7300441322
 30
0.0
 10
-3.8674291408
 20
-0.779338903
 30
0.0
 10
-3.8309783757
 20
-0.8259255514
 30
0.0
 10
-3.7926425774
 20
-0.8694858202
 30
0.0
 10
-3.7526803867
 20
-0.9097146209
 30
0.0
 10
-3.7114062484
 20
-0.9462796456
 30
0.0
 10
-3.6692079383
 20
-0.9788379055
 30
0.0
 10
-3.6265323058
 20
-1.0070810718
 30
0.0
 10
-3.5973363661
 20
-1.0232852222
 30
0.0
 10
-3.5827758436
 20
-1.0305657091
 30
0.0
 11
-4.0788789796
 21
-0.1772263373
 31
0.0
 11
-4.0769572305
 21
-0.2305049153
 31
0.0
 11
-4.0712895041
 21
-0.2856374013
 31
0.0
 11
-4.0618743678
 21
-0.3420498875
 31
0.0
 11
-4.0487813542
 21
-0.3991607926
 31
0.0
 11
-4.0321456956
 21
-0.4563862801
 31
0.0
 11
-4.0121172714
 21
-0.5132688961
 31
0.0
 11
-3.9888274434
 21
-0.5694658689
 31
0.0
 11
-3.9624298703
 21
-0.6246005463
 31
0.0
 11
-3.9331305867
 21
-0.6782310306
 31
0.0
 11
-3.901165508
 21
-0.7299233476
 31
0.0
 11
-3.8667956823
 21
-0.7792618209
 31
0.0
 11
-3.8303001438
 21
-0.8258587676
 31
0.0
 11
-3.791925066
 21
-0.8694069205
 31
0.0
 11
-3.7518983951
 21
-0.9096345026
 31
0.0
 11
-3.7105352076
 21
-0.9462031984
 31
0.0
 11
-3.6682590105
 21
-0.9787389743
 31
0.0
 11
-3.6255167206
 21
-1.0069363593
 31
0.0
 11
-3.5827758436
 21
-1.0305657091
 31
0.0
  0
SPLINE
  5
341
100
AcDbEntity
  8
0
100
AcDbSpline
 62
253
  6
CONTINUOUS
 70
0
 71
3
 72
16
 73
12
 74
10
 42
0.0000001
 43
0.0000001
 44
0.0000000001
 12
0.0002132448
 22
-0.2420061412
 32
0.0
 13
0.2161631018
 23
-0.1080865612
 33
0.0
 40
0.0
 40
0.0
 40
0.0
 40
0.0
 40
0.0648036486
 40
0.1603105626
 40
0.2594144596
 40
0.3638844934
 40
0.4750731679
 40
0.5939080801
 40
0.7209241388
 40
0.856311814
 40
1.0
 40
1.0
 40
1.0
 40
1.0
 10
-8.1643283854
 20
2.3161383313
 30
0.0
 10
-8.164323779
 20
2.3109107043
 30
0.0
 10
-8.1635126999
 20
2.2979785928
 30
0.0
 10
-8.1590413388
 20
2.2774544884
 30
0.0
 10
-8.1499748017
 20
2.2550175275
 30
0.0
 10
-8.1369317889
 20
2.2331679526
 30
0.0
 10
-8.1200494835
 20
2.2120710468
 30
0.0
 10
-8.0994815375
 20
2.1918790972
 30
0.0
 10
-8.0753999905
 20
2.1727384417
 30
0.0
 10
-8.0480008437
 20
2.1547916471
 30
0.0
 10
-8.0282357573
 20
2.1440236671
 30
0.0
 10
-8.017882396
 20
2.1388467465
 30
0.0
 11
-8.1643283854
 21
2.3161383313
 31
0.0
 11
-8.1633490524
 21
2.3004960565
 31
0.0
 11
-8.1584903465
 21
2.2779311159
 31
0.0
 11
-8.1496008391
 21
2.2556904472
 31
0.0
 11
-8.1367530231
 21
2.2339554332
 31
0.0
 11
-8.1200518828
 21
2.2129035888
 31
0.0
 11
-8.0996334776
 21
2.1927063631
 31
0.0
 11
-8.0756641966
 21
2.1735284155
 31
0.0
 11
-8.0483406527
 21
2.1555269138
 31
0.0
 11
-8.017882396
 21
2.1388467465
 31
0.0
  0
SPLINE
  5
342
100
AcDbEntity
  8
DRAFT
100
AcDbSpline
 62
7
  6
CONTINUOUS
 70
0
 71
3
 72
28
 73
24
 74
22
 42
0.0000001
 43
0.0000001
 44
0.0000000001
 12
-0.5216264952
 22
-0.0223387845
 32
0.0
 13
-0.0645432221
 23
0.5181770665
 33
0.0
 40
0.0
 40
0.0
 40
0.0
 40
0.0
 40
0.0396694771
 40
0.0796606602
 40
0.1206632446
 40
0.1630827844
 40
0.2071694867
 40
0.2547635716
 40
0.3075461088
 40
0.364114493
 40
0.4226690665
 40
0.4826728324
 40
0.5433073901
 40
0.6036639544
 40
0.6640409267
 40
0.725097748
 40
0.7871039433
 40
0.8501671727
 40
0.8824061608
 40
0.9151746554
 40
0.9485676378
 40
0.9823858908
 40
1.0
 40
1.0
 40
1.0
 40
1.0
 10
-0.3398676409
 20
-12.6691352173
 30
0.0
 10
-0.346765191
 20
-12.6694306066
 30
0.0
 10
-0.3606184493
 20
-12.6700203758
 30
0.0
 10
-0.3816409152
 20
-12.6695331155
 30
0.0
 10
-0.4029727539
 20
-12.6664148761
 30
0.0
 10
-0.4242209957
 20
-12.6597425195
 30
0.0
 10
-0.445512122
 20
-12.6500852011
 30
0.0
 10
-0.4673250861
 20
-12.637516674
 30
0.0
 10
-0.4898004576
 20
-12.6219445485
 30
0.0
 10
-0.5124720004
 20
-12.6034626482
 30
0.0
 10
-0.5346019455
 20
-12.582465687
 30
0.0
 10
-0.5556338392
 20
-12.5594042727
 30
0.0
 10
-0.5752417658
 20
-12.5347229732
 30
0.0
 10
-0.5932832967
 20
-12.5087982761
 30
0.0
 10
-0.6097277443
 20
-12.4817464634
 30
0.0
 10
-0.6246011051
 20
-12.4534745241
 30
0.0
 10
-0.6378720459
 20
-12.4239023095
 30
0.0
 10
-0.6474325468
 20
-12.398223961
 30
0.0
 10
-0.6540910175
 20
-12.3769484823
 30
0.0
 10
-0.6585789392
 20
-12.3604171029
 30
0.0
 10
-0.6624362876
 20
-12.3434443645
 30
0.0
 10
-0.665043577
 20
-12.3289083002
 30
0.0
 10
-0.6662768478
 20
-12.3200399613
 30
0.0
 10
-0.6666558049
 20
-12.3169975522
 30
0.0
 11
-0.3398676409
 21
-12.6691352173
 31
0.0
 11
-0.3605688426
 21
-12.6697919674
 31
0.0
 11
-0.3814375441
 21
-12.6691180248
 31
0.0
 11
-0.4026027361
 21
-12.6659052964
 31
0.0
 11
-0.4237794483
 21
-12.6594202495
 31
0.0
 11
-0.4447903808
 21
-12.6500200859
 31
0.0
 11
-0.4663659208
 21
-12.6376923367
 31
0.0
 11
-0.489049903
 21
-12.6220436741
 31
0.0
 11
-0.5119630906
 21
-12.6034082439
 31
0.0
 11
-0.5341586821
 21
-12.582384942
 31
0.0
 11
-0.555290124
 21
-12.5592565839
 31
0.0
 11
-0.5750026696
 21
-12.5344852689
 31
0.0
 11
-0.5930092143
 21
-12.5086241351
 31
0.0
 11
-0.6093847221
 21
-12.4816881315
 31
0.0
 11
-0.6242278801
 21
-12.4534765985
 31
0.0
 11
-0.6374731218
 21
-12.4239364337
 31
0.0
 11
-0.6489393097
 21
-12.393071861
 31
0.0
 11
-0.6539614541
 21
-12.3770064176
 31
0.0
 11
-0.6584364046
 21
-12.360493441
 31
0.0
 11
-0.662289739
 21
-12.3434899667
 31
0.0
 11
-0.6653913576
 21
-12.326107855
 31
0.0
 11
-0.6666558049
 21
-12.3169975522
 31
0.0
  0
SPLINE
  5
343
100
AcDbEntity
  8
DRAFT
100
AcDbSpline
 62
7
  6
CONTINUOUS
 70
0
 71
3
 72
9
 73
5
 74
3
 42
0.0000001
 43
0.0000001
 44
0.0000000001
 12
-0.0032892394
 22
0.0264072413
 32
0.0
 13
-0.0017773486
 23
0.0265479662
 33
0.0
 40
0.0
 40
0.0
 40
0.0
 40
0.0
 40
0.3235227925
 40
1.0
 40
1.0
 40
1.0
 40
1.0
 10
-0.6666558049
 20
-12.3169975522
 30
0.0
 10
-0.6670105196
 20
-12.3141497707
 30
0.0
 10
-0.6679893913
 20
-12.3053331192
 30
0.0
 10
-0.6685843203
 20
-12.296481489
 30
0.0
 10
-0.6689850989
 20
-12.2904951243
 30
0.0
 11
-0.6666558049
 21
-12.3169975522
 31
0.0
 11
-0.6676037081
 21
-12.3084413341
 31
0.0
 11
-0.6689850989
 21
-12.2904951243
 31
0.0
  0
SPLINE
  5
344
100
AcDbEntity
  8
DRAFT
100
AcDbSpline
 62
7
  6
CONTINUOUS
 70
0
 71
3
 72
29
 73
25
 74
23
 42
0.0000001
 43
0.0000001
 44
0.0000000001
 12
-0.5365389924
 22
-0.1609805692
 32
0.0
 13
-0.0416882967
 23
0.5577654872
 33
0.0
 40
0.0
 40
0.0
 40
0.0
 40
0.0
 40
0.01611925
 40
0.0526156189
 40
0.0904709012
 40
0.1303534006
 40
0.1724837431
 40
0.2168960158
 40
0.2640493636
 40
0.3140197476
 40
0.3662488189
 40
0.420140529
 40
0.4757982336
 40
0.5325606839
 40
0.5894687454
 40
0.645935209
 40
0.7025907228
 40
0.7597974226
 40
0.8177052265
 40
0.8769068721
 40
0.9071879678
 40
0.9377956284
 40
0.9686419176
 40
1.0
 40
1.0
 40
1.0
 40
1.0
 10
1.5313403424
 20
-13.5972188268
 30
0.0
 10
1.5284574737
 20
-13.5980837888
 30
0.0
 10
1.5189266692
 20
-13.6005057859
 30
0.0
 10
1.5020821801
 20
-13.6024230052
 30
0.0
 10
1.4807288862
 20
-13.6013807371
 30
0.0
 10
1.458724236
 20
-13.5971065346
 30
0.0
 10
1.4362852057
 20
-13.5897152847
 30
0.0
 10
1.4135653951
 20
-13.5793560957
 30
0.0
 10
1.3907069539
 20
-13.5660951294
 30
0.0
 10
1.367938655
 20
-13.5500065418
 30
0.0
 10
1.3455785789
 20
-13.531335501
 30
0.0
 10
1.3239046487
 20
-13.5103221011
 30
0.0
 10
1.3031975933
 20
-13.4872100438
 30
0.0
 10
1.2837197781
 20
-13.4623374937
 30
0.0
 10
1.2657756513
 20
-13.4361548324
 30
0.0
 10
1.249518059
 20
-13.4089170963
 30
0.0
 10
1.2349365162
 20
-13.3806844304
 30
0.0
 10
1.2220149956
 20
-13.3513588946
 30
0.0
 10
1.2108382163
 20
-13.3208177173
 30
0.0
 10
1.2032232924
 20
-13.29438297
 30
0.0
 10
1.1983794572
 20
-13.2725173774
 30
0.0
 10
1.1954499004
 20
-13.2556587898
 30
0.0
 10
1.1934501142
 20
-13.2384626691
 30
0.0
 10
1.1925916271
 20
-13.2268961055
 30
0.0
 10
1.1921558721
 20
-13.2210659534
 30
0.0
 11
1.5313403424
 21
-13.5972188268
 31
0.0
 11
1.5225928634
 21
-13.59944512
 31
0.0
 11
1.5023219558
 21
-13.6018511153
 31
0.0
 11
1.481169613
 21
-13.6009101119
 31
0.0
 11
1.4592549001
 21
-13.5967443733
 31
0.0
 11
1.4368451184
 21
-13.5894586048
 31
0.0
 11
1.4142128779
 21
-13.5792192961
 31
0.0
 11
1.391369236
 21
-13.5660379076
 31
0.0
 11
1.3685076771
 21
-13.5499592406
 31
0.0
 11
1.3460552268
 21
-13.5312702903
 31
0.0
 11
1.3243921884
 21
-13.5103108089
 31
0.0
 11
1.3035962968
 21
-13.4871452912
 31
0.0
 11
1.2840075398
 21
-13.4621604094
 31
0.0
 11
1.2660105177
 21
-13.435906858
 31
0.0
 11
1.2498182137
 21
-13.4087906562
 31
0.0
 11
1.2352763932
 21
-13.3806356408
 31
0.0
 11
1.222383523
 21
-13.351351226
 31
0.0
 11
1.2112777519
 21
-13.3209256877
 31
0.0
 11
1.2021728855
 21
-13.2890893116
 31
0.0
 11
1.1985191266
 21
-13.2725512562
 31
0.0
 11
1.1956158853
 21
-13.2556797127
 31
0.0
 11
1.1935796195
 21
-13.2385473133
 31
0.0
 11
1.1921558721
 21
-13.2210659534
 31
0.0
  0
SPLINE
  5
345
100
AcDbEntity
  8
0
100
AcDbSpline
 62
253
  6
CONTINUOUS
 70
0
 71
3
 72
16
 73
12
 74
10
 42
0.0000001
 43
0.0000001
 44
0.0000000001
 12
0.0036161428
 22
-0.2418106433
 32
0.0
 13
0.2159330076
 23
-0.1081392175
 33
0.0
 40
0.0
 40
0.0
 40
0.0
 40
0.0
 40
0.0103930785
 40
0.1125792596
 40
0.2175952951
 40
0.3277075658
 40
0.4447150986
 40
0.5698908689
 40
0.7040051976
 40
0.8473880295
 40
1.0
 40
1.0
 40
1.0
 40
1.0
 10
-8.1028479793
 20
-5.5335254891
 30
0.0
 10
-8.1028354517
 20
-5.5343632081
 30
0.0
 10
-8.1026123412
 20
-5.543436104
 30
0.0
 10
-8.1003430856
 20
-5.5609084853
 30
0.0
 10
-8.0924463067
 20
-5.5853411327
 30
0.0
 10
-8.0800012498
 20
-5.6091340873
 30
0.0
 10
-8.0631693724
 20
-5.6320756296
 30
0.0
 10
-8.042133477
 20
-5.6539779749
 30
0.0
 10
-8.017096842
 20
-5.6746646614
 30
0.0
 10
-7.9882920655
 20
-5.6939638021
 30
0.0
 10
-7.9673793678
 20
-5.7054494629
 30
0.0
 10
-7.9563947139
 20
-5.7109505759
 30
0.0
 11
-8.1028479793
 21
-5.5335254891
 31
0.0
 11
-8.1027861529
 21
-5.5360381074
 31
0.0
 11
-8.0996440079
 21
-5.5605149807
 31
0.0
 11
-8.091928051
 21
-5.5846738537
 31
0.0
 11
-8.0797093282
 21
-5.6082922791
 31
0.0
 11
-8.0631003457
 21
-5.6311527862
 31
0.0
 11
-8.0422540336
 21
-5.6530448827
 31
0.0
 11
-8.0173623381
 21
-5.6737669932
 31
0.0
 11
-7.9886544539
 21
-5.6931283152
 31
0.0
 11
-7.9563947139
 21
-5.7109505759
 31
0.0
  0
SPLINE
  5
346
100
AcDbEntity
  8
DRAFT
100
AcDbSpline
 62
7
  6
CONTINUOUS
 70
0
 71
3
 72
16
 73
12
 74
10
 42
0.0000001
 43
0.0000001
 44
0.0000000001
 12
0.0097000674
 22
0.1650143416
 32
0.0
 13
0.1319327994
 23
0.0998904208
 33
0.0
 40
0.0
 40
0.0
 40
0.0
 40
0.0
 40
0.1548006555
 40
0.3061786287
 40
0.379346547
 40
0.4499489955
 40
0.5821308515
 40
0.704519322
 40
0.821147934
 40
0.9351670246
 40
1.0
 40
1.0
 40
1.0
 40
1.0
 10
1.1142915665
 20
-11.0949347776
 30
0.0
 10
1.1147920921
 20
-11.0864200015
 30
0.0
 10
1.1157844051
 20
-11.0695793651
 30
0.0
 10
1.1177726057
 20
-11.0487587818
 30
0.0
 10
1.1202686666
 20
-11.0326826434
 30
0.0
 10
1.1233781811
 20
-11.0177927088
 30
0.0
 10
1.1287924267
 20
-11.0006425754
 30
0.0
 10
1.1378263234
 20
-10.9822091975
 30
0.0
 10
1.1489133637
 20
-10.9661397317
 30
0.0
 10
1.1600929912
 20
-10.9542190126
 30
0.0
 10
1.1676808375
 20
-10.9478964311
 30
0.0
 10
1.1705320361
 20
-10.9457377
 30
0.0
 11
1.1142915665
 21
-11.0949347776
 31
0.0
 11
1.1159520414
 21
-11.069400286
 31
0.0
 11
1.118510697
 21
-11.0445087883
 31
0.0
 11
1.1203950478
 21
-11.0325618839
 31
0.0
 11
1.1228165835
 21
-11.0211453437
 31
0.0
 11
1.1294830557
 21
-11.0003376244
 31
0.0
 11
1.1384094298
 21
-10.9821826883
 31
0.0
 11
1.1493745518
 21
-10.9663261084
 31
0.0
 11
1.1622875946
 21
-10.9525975729
 31
0.0
 11
1.1705320361
 21
-10.9457377
 31
0.0
  0
SPLINE
  5
347
100
AcDbEntity
  8
0
100
AcDbSpline
 62
253
  6
CONTINUOUS
 70
0
 71
3
 72
15
 73
11
 74
9
 42
0.0000001
 43
0.0000001
 44
0.0000000001
 12
0.0300726947
 22
-0.2369264389
 32
0.0
 13
0.212901185
 23
-0.1076269919
 33
0.0
 40
0.0
 40
0.0
 40
0.0
 40
0.0
 40
0.0550931567
 40
0.1745137589
 40
0.296845199
 40
0.4238112969
 40
0.5567963666
 40
0.6968012762
 40
0.8444460351
 40
1.0
 40
1.0
 40
1.0
 40
1.0
 10
-7.4270731425
 20
-15.3141374097
 30
0.0
 10
-7.426520876
 20
-15.3184884181
 30
0.0
 10
-7.4242504251
 20
-15.3322045134
 30
0.0
 10
-7.4176046031
 20
-15.3549616955
 30
0.0
 10
-7.4050066215
 20
-15.3815652564
 30
0.0
 10
-7.3880236044
 20
-15.40690136
 30
0.0
 10
-7.366840194
 20
-15.4307428819
 30
0.0
 10
-7.3416685052
 20
-15.4528856965
 30
0.0
 10
-7.312751481
 20
-15.4731409046
 30
0.0
 10
-7.2916935121
 20
-15.4849681094
 30
0.0
 10
-7.2806543042
 20
-15.4905487112
 30
0.0
 11
-7.4270731425
 21
-15.3141374097
 31
0.0
 11
-7.4249242265
 21
-15.3271150161
 31
0.0
 11
-7.4169749243
 21
-15.3544723726
 31
0.0
 11
-7.4045491809
 21
-15.3808781528
 31
0.0
 11
-7.3877614658
 21
-15.4060890991
 31
0.0
 11
-7.366766432
 21
-15.4298729613
 31
0.0
 11
-7.3417574917
 21
-15.4520106358
 31
0.0
 11
-7.3129650344
 21
-15.4722981839
 31
0.0
 11
-7.2806543042
 21
-15.4905487112
 31
0.0
  0
SPLINE
  5
348
100
AcDbEntity
  8
0
100
AcDbSpline
 62
253
  6
CONTINUOUS
 70
0
 71
3
 72
17
 73
13
 74
11
 42
0.0000001
 43
0.0000001
 44
0.0000000001
 12
-0.4490454683
 22
0.2244921923
 32
0.0
 13
-0.0642170787
 23
0.4975369701
 33
0.0
 40
0.0
 40
0.0
 40
0.0
 40
0.0
 40
0.0141433469
 40
0.110987772
 40
0.2091836501
 40
0.3097334593
 40
0.4135124114
 40
0.5212378599
 40
0.6334551414
 40
0.7505392329
 40
0.8726989505
 40
1.0
 40
1.0
 40
1.0
 40
1.0
 10
-7.0330667606
 20
-15.9040344975
 30
0.0
 10
-7.0351837625
 20
-15.9029761406
 30
0.0
 10
-7.0517150081
 20
-15.8945077819
 30
0.0
 10
-7.0816151747
 20
-15.8761537015
 30
0.0
 10
-7.1200766385
 20
-15.8448856603
 30
0.0
 10
-7.1550606338
 20
-15.8081652647
 30
0.0
 10
-7.186344996
 20
-15.7662550018
 30
0.0
 10
-7.2137393393
 20
-15.7194443471
 30
0.0
 10
-7.2370816919
 20
-15.6680467839
 30
0.0
 10
-7.2562357734
 20
-15.6123977384
 30
0.0
 10
-7.271089701
 20
-15.5528603582
 30
0.0
 10
-7.2779293373
 20
-15.5116610375
 30
0.0
 10
-7.2806543044
 20
-15.4905487113
 30
0.0
 11
-7.0330667606
 21
-15.9040344975
 31
0.0
 11
-7.0393861376
 21
-15.9007972467
 31
0.0
 11
-7.0808055379
 21
-15.8754047822
 31
0.0
 11
-7.1190679587
 21
-15.8443778995
 31
0.0
 11
-7.1539258517
 21
-15.8079177045
 31
0.0
 11
-7.1851534569
 21
-15.7662606917
 31
0.0
 11
-7.2125486063
 21
-15.7196769768
 31
0.0
 11
-7.235933967
 21
-15.668468629
 31
0.0
 11
-7.2551584334
 21
-15.6129669028
 31
0.0
 11
-7.2700973092
 21
-15.5535324529
 31
0.0
 11
-7.2806543044
 21
-15.4905487113
 31
0.0
  0
SPLINE
  5
349
100
AcDbEntity
  8
0
100
AcDbSpline
 62
253
  6
CONTINUOUS
 70
0
 71
3
 72
25
 73
21
 74
19
 42
0.0000001
 43
0.0000001
 44
0.0000000001
 12
0.6854043212
 22
-0.342691353
 32
0.0
 13
-0.0009861391
 23
0.7662998593
 33
0.0
 40
0.0
 40
0.0
 40
0.0
 40
0.0
 40
0.061085803
 40
0.1199598877
 40
0.1764975307
 40
0.2307315046
 40
0.2828399094
 40
0.3332340219
 40
0.3825108723
 40
0.4312987645
 40
0.4801991043
 40
0.5298040701
 40
0.5806584433
 40
0.6332310846
 40
0.6879608856
 40
0.745226354
 40
0.805199179
 40
0.8678083036
 40
0.9328528654
 40
1.0
 40
1.0
 40
1.0
 40
1.0
 10
2.3541103006
 20
-3.9990087813
 30
0.0
 10
2.3680664584
 20
-4.0059866401
 30
0.0
 10
2.3960571952
 20
-4.0185673541
 30
0.0
 10
2.438771584
 20
-4.0332001886
 30
0.0
 10
2.4810590718
 20
-4.0430330365
 30
0.0
 10
2.5224721503
 20
-4.0479044088
 30
0.0
 10
2.562612983
 20
-4.0477444492
 30
0.0
 10
2.6011497809
 20
-4.0425493884
 30
0.0
 10
2.6378027955
 20
-4.0323500121
 30
0.0
 10
2.6722937824
 20
-4.017207213
 30
0.0
 10
2.7043304902
 20
-3.997235706
 30
0.0
 10
2.7336331183
 20
-3.9726132291
 30
0.0
 10
2.7599607215
 20
-3.9435666707
 30
0.0
 10
2.7831243804
 20
-3.9103447051
 30
0.0
 10
2.8029795545
 20
-3.8731914886
 30
0.0
 10
2.8193955858
 20
-3.8323628051
 30
0.0
 10
2.8322410618
 20
-3.7881844707
 30
0.0
 10
2.8414072653
 20
-3.7410813669
 30
0.0
 10
2.8468381622
 20
-3.6915694229
 30
0.0
 10
2.8479608787
 20
-3.6577868437
 30
0.0
 10
2.8479388066
 20
-3.6406352304
 30
0.0
 11
2.3541103006
 21
-3.9990087813
 31
0.0
 11
2.3968431753
 21
-4.0181159818
 31
0.0
 11
2.4395550139
 21
-4.032644703
 31
0.0
 11
2.4817771764
 21
-4.0423570322
 31
0.0
 11
2.5230637237
 21
-4.0471125339
 31
0.0
 11
2.5629936407
 21
-4.0468630441
 31
0.0
 11
2.6012548411
 21
-4.0416327669
 31
0.0
 11
2.6376213837
 21
-4.0314662412
 31
0.0
 11
2.6718486565
 21
-4.0164256065
 31
0.0
 11
2.7036598136
 21
-3.9966208687
 31
0.0
 11
2.7327965062
 21
-3.972207986
 31
0.0
 11
2.7590254941
 21
-3.9433864637
 31
0.0
 11
2.7821436388
 21
-3.910393302
 31
0.0
 11
2.8019998946
 21
-3.8734521523
 31
0.0
 11
2.818464834
 21
-3.8327755675
 31
0.0
 11
2.8313905033
 21
-3.7886735062
 31
0.0
 11
2.8406442235
 21
-3.7415969742
 31
0.0
 11
2.8461590908
 21
-3.6920593253
 31
0.0
 11
2.8479388066
 21
-3.6406352304
 31
0.0
  0
SPLINE
  5
34A
100
AcDbEntity
  8
DRAFT
100
AcDbSpline
 62
7
  6
CONTINUOUS
 70
0
 71
3
 72
16
 73
12
 74
10
 42
0.0000001
 43
0.0000001
 44
0.0000000001
 12
0.0099952474
 22
0.1700499621
 32
0.0
 13
0.1404309925
 23
0.0967983317
 33
0.0
 40
0.0
 40
0.0
 40
0.0
 40
0.0
 40
0.1575739746
 40
0.3097226195
 40
0.3824464957
 40
0.4520504627
 40
0.5806817774
 40
0.6983027438
 40
0.8126047482
 40
0.9290230977
 40
1.0
 40
1.0
 40
1.0
 40
1.0
 10
-0.7468493849
 20
-10.1643643018
 30
0.0
 10
-0.746324388
 20
-10.1554324856
 30
0.0
 10
-0.7452893545
 20
-10.1378772959
 30
0.0
 10
-0.7431517149
 20
-10.1162500577
 30
0.0
 10
-0.740436108
 20
-10.0997439614
 30
0.0
 10
-0.7370963777
 20
-10.0847173738
 30
0.0
 10
-0.7313527409
 20
-10.067651882
 30
0.0
 10
-0.7219659251
 20
-10.0493750758
 30
0.0
 10
-0.7103646248
 20
-10.0332641632
 30
0.0
 10
-0.6982833889
 20
-10.0210148225
 30
0.0
 10
-0.6898351068
 20
-10.0144975061
 30
0.0
 10
-0.6865126545
 20
-10.0122073575
 30
0.0
 11
-0.7468493849
 21
-10.1643643018
 31
0.0
 11
-0.7450910426
 21
-10.1375802602
 31
0.0
 11
-0.7423338437
 21
-10.1118098111
 31
0.0
 11
-0.7402920036
 21
-10.0995912047
 31
0.0
 11
-0.7376807411
 21
-10.088025747
 31
0.0
 11
-0.7306250688
 21
-10.0672813148
 31
0.0
 11
-0.7214458471
 21
-10.0494717196
 31
0.0
 11
-0.7100534536
 21
-10.0336819256
 31
0.0
 11
-0.6960993181
 21
-10.0195909778
 31
0.0
 11
-0.6865126545
 21
-10.0122073575
 31
0.0
  0
SPLINE
  5
34B
100
AcDbEntity
  8
DRAFT
100
AcDbSpline
 62
7
  6
CONTINUOUS
 70
0
 71
3
 72
16
 73
12
 74
10
 42
0.0000001
 43
0.0000001
 44
0.0000000001
 12
0.0099952474
 22
0.1700499621
 32
0.0
 13
0.1404309926
 23
0.0967983317
 33
0.0
 40
0.0
 40
0.0
 40
0.0
 40
0.0
 40
0.1575739746
 40
0.3097226195
 40
0.3824464958
 40
0.4520504628
 40
0.5806817775
 40
0.6983027439
 40
0.8126047483
 40
0.9290230978
 40
1.0
 40
1.0
 40
1.0
 40
1.0
 10
-2.6079903363
 20
-9.2337938261
 30
0.0
 10
-2.6074653394
 20
-9.2248620099
 30
0.0
 10
-2.6064303059
 20
-9.2073068202
 30
0.0
 10
-2.6042926663
 20
-9.1856795819
 30
0.0
 10
-2.6015770594
 20
-9.1691734857
 30
0.0
 10
-2.5982373291
 20
-9.154146898
 30
0.0
 10
-2.5924936923
 20
-9.1370814063
 30
0.0
 10
-2.5831068766
 20
-9.1188046001
 30
0.0
 10
-2.5715055762
 20
-9.1026936874
 30
0.0
 10
-2.5594243403
 20
-9.0904443468
 30
0.0
 10
-2.5509760582
 20
-9.0839270304
 30
0.0
 10
-2.547653606
 20
-9.0816368818
 30
0.0
 11
-2.6079903363
 21
-9.2337938261
 31
0.0
 11
-2.606231994
 21
-9.2070097845
 31
0.0
 11
-2.6034747951
 21
-9.1812393354
 31
0.0
 11
-2.601432955
 21
-9.169020729
 31
0.0
 11
-2.5988216925
 21
-9.1574552713
 31
0.0
 11
-2.5917660202
 21
-9.1367108391
 31
0.0
 11
-2.5825867985
 21
-9.1189012439
 31
0.0
 11
-2.571194405
 21
-9.1031114499
 31
0.0
 11
-2.5572402695
 21
-9.0890205021
 31
0.0
 11
-2.547653606
 21
-9.0816368818
 31
0.0
  0
SPLINE
  5
34C
100
AcDbEntity
  8
0
100
AcDbSpline
 62
253
  6
CONTINUOUS
 70
0
 71
3
 72
24
 73
20
 74
18
 42
0.0000001
 43
0.0000001
 44
0.0000000001
 12
-0.3225383244
 22
-0.1537130007
 32
0.0
 13
-0.3195746824
 23
0.1597832272
 33
0.0
 40
0.0
 40
0.0
 40
0.0
 40
0.0
 40
0.0524615654
 40
0.107361924
 40
0.1644333274
 40
0.2233882223
 40
0.2839081625
 40
0.3456504897
 40
0.4082523028
 40
0.471338673
 40
0.5345272048
 40
0.5974348098
 40
0.6596815778
 40
0.7208978296
 40
0.7807286732
 40
0.8388423596
 40
0.8949344924
 40
0.9487351326
 40
1.0
 40
1.0
 40
1.0
 40
1.0
 10
7.3087737353
 20
-4.9601473596
 30
0.0
 10
7.3031334469
 20
-4.9628353678
 30
0.0
 10
7.2913926092
 20
-4.9679279466
 30
0.0
 10
7.2729613886
 20
-4.9745794204
 30
0.0
 10
7.2534351621
 20
-4.9803736027
 30
0.0
 10
7.2329752671
 20
-4.9852620932
 30
0.0
 10
7.2117469692
 20
-4.9892054697
 30
0.0
 10
7.1899223477
 20
-4.9921716188
 30
0.0
 10
7.1676783656
 20
-4.9941364125
 30
0.0
 10
7.145195674
 20
-4.9950838279
 30
0.0
 10
7.1226567811
 20
-4.9950061513
 30
0.0
 10
7.1002447284
 20
-4.9939040219
 30
0.0
 10
7.0781414401
 20
-4.991786427
 30
0.0
 10
7.0565263874
 20
-4.988670644
 30
0.0
 10
7.0355747497
 20
-4.9845820125
 30
0.0
 10
7.0154562606
 20
-4.9795538048
 30
0.0
 10
6.9963332454
 20
-4.9736264955
 30
0.0
 10
6.9783634693
 20
-4.966849466
 30
0.0
 10
6.9669595977
 20
-4.9616698427
 30
0.0
 10
6.9614986131
 20
-4.9589394207
 30
0.0
 11
7.3087737353
 21
-4.9601473596
 31
0.0
 11
7.291589281
 21
-4.9676332602
 31
0.0
 11
7.2731469162
 21
-4.9743152269
 31
0.0
 11
7.2536039441
 21
-4.980135451
 31
0.0
 11
7.2331201842
 21
-4.9850462733
 31
0.0
 11
7.2118627581
 21
-4.989007649
 31
0.0
 11
7.1900047814
 21
-4.9919873023
 31
0.0
 11
7.1677247991
 21
-4.993960879
 31
0.0
 11
7.1452045357
 21
-4.9949122804
 31
0.0
 11
7.1226278195
 21
-4.9948337446
 31
0.0
 11
7.1001786584
 21
-4.9937259116
 31
0.0
 11
7.0780403397
 21
-4.9915978249
 31
0.0
 11
7.0563934277
 21
-4.9884668481
 31
0.0
 11
7.0354147337
 21
-4.9843585755
 31
0.0
 11
7.0152750906
 21
-4.9793064807
 31
0.0
 11
6.9961388086
 21
-4.9733517647
 31
0.0
 11
6.9781623697
 21
-4.9665431847
 31
0.0
 11
6.9614986131
 21
-4.9589394207
 31
0.0
  0
SPLINE
  5
34D
100
AcDbEntity
  8
0
100
AcDbSpline
 62
253
  6
CONTINUOUS
 70
0
 71
3
 72
24
 73
20
 74
18
 42
0.0000001
 43
0.0000001
 44
0.0000000001
 12
-0.2069070545
 22
-0.1132347234
 32
0.0
 13
0.2109635569
 23
-0.1054846409
 33
0.0
 40
0.0
 40
0.0
 40
0.0
 40
0.0
 40
0.0723084565
 40
0.1403925101
 40
0.2042230953
 40
0.2639531599
 40
0.3199190832
 40
0.372664796
 40
0.4229511015
 40
0.471739489
 40
0.5201305468
 40
0.5692652515
 40
0.6202107546
 40
0.6738716889
 40
0.7309421857
 40
0.791900623
 40
0.8570248301
 40
0.9264177063
 40
1.0
 40
1.0
 40
1.0
 40
1.0
 10
-7.8487112234
 20
2.6185951198
 30
0.0
 10
-7.8536982667
 20
2.6158658437
 30
0.0
 10
-7.8631929106
 20
2.6102100665
 30
0.0
 10
-7.8762620483
 20
2.6008466534
 30
0.0
 10
-7.887635311
 20
2.5909233548
 30
0.0
 10
-7.8972166559
 20
2.5805153111
 30
0.0
 10
-7.9049241467
 20
2.569697879
 30
0.0
 10
-7.9106844718
 20
2.5585502313
 30
0.0
 10
-7.9144331264
 20
2.5471597206
 30
0.0
 10
-7.9161191193
 20
2.5356274504
 30
0.0
 10
-7.9157156044
 20
2.524068509
 30
0.0
 10
-7.9132287108
 20
2.5126025902
 30
0.0
 10
-7.9086955348
 20
2.5013404602
 30
0.0
 10
-7.9021735238
 20
2.490377759
 30
0.0
 10
-7.8937312658
 20
2.4797977295
 30
0.0
 10
-7.8834457628
 20
2.4696769318
 30
0.0
 10
-7.8714030984
 20
2.4600888055
 30
0.0
 10
-7.8577045305
 20
2.4511066453
 30
0.0
 10
-7.847822799
 20
2.4457213556
 30
0.0
 10
-7.8426484049
 20
2.4431340883
 30
0.0
 11
-7.8487112234
 21
2.6185951198
 31
0.0
 11
-7.863343234
 21
2.6098326888
 31
0.0
 11
-7.8763708873
 21
2.6004432327
 31
0.0
 11
-7.88768162
 21
2.5905067452
 31
0.0
 11
-7.8971828057
 21
2.5801044891
 31
0.0
 11
-7.9047969566
 21
2.5693213366
 31
0.0
 11
-7.910462032
 21
2.5582450993
 31
0.0
 11
-7.9141317176
 21
2.5469662545
 31
0.0
 11
-7.9157760691
 21
2.5355768367
 31
0.0
 11
-7.9153816897
 21
2.5241698611
 31
0.0
 11
-7.9129518187
 21
2.5128382639
 31
0.0
 11
-7.9085062971
 21
2.5016745399
 31
0.0
 11
-7.9020814003
 21
2.4907697412
 31
0.0
 11
-7.8937296507
 21
2.4802129389
 31
0.0
 11
-7.8835191075
 21
2.4700901017
 31
0.0
 11
-7.871533026
 21
2.4604838083
 31
0.0
 11
-7.8578695695
 21
2.4514726079
 31
0.0
 11
-7.8426484049
 21
2.4431340883
 31
0.0
  0
SPLINE
  5
34E
100
AcDbEntity
  8
DRAFT
100
AcDbSpline
 62
7
  6
CONTINUOUS
 70
0
 71
3
 72
28
 73
24
 74
22
 42
0.0000001
 43
0.0000001
 44
0.0000000001
 12
-0.5216264952
 22
-0.0223387845
 32
0.0
 13
-0.0645432221
 23
0.5181770665
 33
0.0
 40
0.0
 40
0.0
 40
0.0
 40
0.0
 40
0.0396694771
 40
0.0796606602
 40
0.1206632446
 40
0.1630827844
 40
0.2071694867
 40
0.2547635716
 40
0.3075461088
 40
0.364114493
 40
0.4226690665
 40
0.4826728324
 40
0.5433073901
 40
0.6036639544
 40
0.6640409267
 40
0.725097748
 40
0.7871039433
 40
0.8501671727
 40
0.8824061608
 40
0.9151746554
 40
0.9485676378
 40
0.9823858908
 40
1.0
 40
1.0
 40
1.0
 40
1.0
 10
-2.2010085924
 20
-11.7385647416
 30
0.0
 10
-2.2079061425
 20
-11.7388601309
 30
0.0
 10
-2.2217594007
 20
-11.7394499001
 30
0.0
 10
-2.2427818667
 20
-11.7389626398
 30
0.0
 10
-2.2641137054
 20
-11.7358444003
 30
0.0
 10
-2.2853619471
 20
-11.7291720438
 30
0.0
 10
-2.3066530734
 20
-11.7195147254
 30
0.0
 10
-2.3284660375
 20
-11.7069461983
 30
0.0
 10
-2.350941409
 20
-11.6913740728
 30
0.0
 10
-2.3736129518
 20
-11.6728921725
 30
0.0
 10
-2.3957428969
 20
-11.6518952113
 30
0.0
 10
-2.4167747906
 20
-11.628833797
 30
0.0
 10
-2.4363827172
 20
-11.6041524975
 30
0.0
 10
-2.4544242482
 20
-11.5782278004
 30
0.0
 10
-2.4708686957
 20
-11.5511759876
 30
0.0
 10
-2.4857420565
 20
-11.5229040484
 30
0.0
 10
-2.4990129973
 20
-11.4933318338
 30
0.0
 10
-2.5085734982
 20
-11.4676534853
 30
0.0
 10
-2.515231969
 20
-11.4463780066
 30
0.0
 10
-2.5197198906
 20
-11.4298466272
 30
0.0
 10
-2.5235772391
 20
-11.4128738888
 30
0.0
 10
-2.5261845284
 20
-11.3983378245
 30
0.0
 10
-2.5274177992
 20
-11.3894694856
 30
0.0
 10
-2.5277967564
 20
-11.3864270764
 30
0.0
 11
-2.2010085924
 21
-11.7385647416
 31
0.0
 11
-2.221709794
 21
-11.7392214916
 31
0.0
 11
-2.2425784955
 21
-11.7385475491
 31
0.0
 11
-2.2637436875
 21
-11.7353348207
 31
0.0
 11
-2.2849203997
 21
-11.7288497738
 31
0.0
 11
-2.3059313322
 21
-11.7194496102
 31
0.0
 11
-2.3275068722
 21
-11.707121861
 31
0.0
 11
-2.3501908544
 21
-11.6914731984
 31
0.0
 11
-2.3731040421
 21
-11.6728377682
 31
0.0
 11
-2.3952996335
 21
-11.6518144663
 31
0.0
 11
-2.4164310754
 21
-11.6286861082
 31
0.0
 11
-2.436143621
 21
-11.6039147932
 31
0.0
 11
-2.4541501657
 21
-11.5780536594
 31
0.0
 11
-2.4705256735
 21
-11.5511176557
 31
0.0
 11
-2.4853688315
 21
-11.5229061228
 31
0.0
 11
-2.4986140732
 21
-11.493365958
 31
0.0
 11
-2.5100802611
 21
-11.4625013853
 31
0.0
 11
-2.5151024056
 21
-11.4464359419
 31
0.0
 11
-2.519577356
 21
-11.4299229653
 31
0.0
 11
-2.5234306904
 21
-11.412919491
 31
0.0
 11
-2.526532309
 21
-11.3955373793
 31
0.0
 11
-2.5277967564
 21
-11.3864270764
 31
0.0
  0
SPLINE
  5
34F
100
AcDbEntity
  8
DRAFT
100
AcDbSpline
 62
7
  6
CONTINUOUS
 70
0
 71
3
 72
9
 73
5
 74
3
 42
0.0000001
 43
0.0000001
 44
0.0000000001
 12
-0.0032892394
 22
0.0264072413
 32
0.0
 13
-0.0017773486
 23
0.0265479662
 33
0.0
 40
0.0
 40
0.0
 40
0.0
 40
0.0
 40
0.3235227925
 40
1.0
 40
1.0
 40
1.0
 40
1.0
 10
-2.5277967564
 20
-11.3864270764
 30
0.0
 10
-2.528151471
 20
-11.383579295
 30
0.0
 10
-2.5291303428
 20
-11.3747626435
 30
0.0
 10
-2.5297252718
 20
-11.3659110133
 30
0.0
 10
-2.5301260504
 20
-11.3599246486
 30
0.0
 11
-2.5277967564
 21
-11.3864270764
 31
0.0
 11
-2.5287446595
 21
-11.3778708584
 31
0.0
 11
-2.5301260504
 21
-11.3599246486
 31
0.0
  0
LINE
  5
350
100
AcDbEntity
  8
0
100
AcDbLine
 62
253
  6
CONTINUOUS
 10
-3.7976175715
 20
0.1690393184
 11
-3.7972759507
 21
-0.1775642392
  0
SPLINE
  5
351
100
AcDbEntity
  8
0
100
AcDbSpline
 62
253
  6
CONTINUOUS
 70
0
 71
3
 72
22
 73
18
 74
16
 42
0.0000001
 43
0.0000001
 44
0.0000000001
 12
-0.0655858747
 22
-0.0329221375
 32
0.0
 13
0.0000471525
 23
-0.073385093
 33
0.0
 40
0.0
 40
0.0
 40
0.0
 40
0.0
 40
0.0579869479
 40
0.1187473503
 40
0.1820445595
 40
0.2476066467
 40
0.3150958793
 40
0.3841229638
 40
0.4542578669
 40
0.5250431496
 40
0.5960073816
 40
0.6666752253
 40
0.7365778015
 40
0.8052652089
 40
0.8723170094
 40
0.9373544651
 40
1.0
 40
1.0
 40
1.0
 40
1.0
 10
-3.7622649245
 20
0.2297438623
 30
0.0
 10
-3.7635326327
 20
0.2291075109
 30
0.0
 10
-3.766062781
 20
0.227669771
 30
0.0
 10
-3.7697215907
 20
0.2251221065
 30
0.0
 10
-3.7732967676
 20
0.2221588925
 30
0.0
 10
-3.7767487692
 20
0.2188128713
 30
0.0
 10
-3.7800409357
 20
0.2151199343
 30
0.0
 10
-3.7831379452
 20
0.2111197867
 30
0.0
 10
-3.7860065344
 20
0.2068554816
 30
0.0
 10
-3.7886158291
 20
0.2023729659
 30
0.0
 10
-3.7909377484
 20
0.1977205277
 30
0.0
 10
-3.7929473092
 20
0.1929482623
 30
0.0
 10
-3.7946228841
 20
0.1881075083
 30
0.0
 10
-3.7959464523
 20
0.1832503532
 30
0.0
 10
-3.7969037079
 20
0.1784288139
 30
0.0
 10
-3.7974842012
 20
0.1736964022
 30
0.0
 10
-3.7976185561
 20
0.1705717345
 30
0.0
 10
-3.7976175715
 20
0.1690393184
 30
0.0
 11
-3.7622649245
 21
0.2297438623
 31
0.0
 11
-3.7659694651
 21
0.2276499129
 31
0.0
 11
-3.7696335856
 21
0.2251090296
 31
0.0
 11
-3.7732144694
 21
0.2221503187
 31
0.0
 11
-3.7766732305
 21
0.2188058613
 31
0.0
 11
-3.7799723451
 21
0.2151119303
 31
0.0
 11
-3.7830760355
 21
0.2111085562
 31
0.0
 11
-3.7859505718
 21
0.2068392257
 31
0.0
 11
-3.7885647117
 21
0.2023503514
 31
0.0
 11
-3.7908901065
 21
0.1976906449
 31
0.0
 11
-3.7929015496
 21
0.1929106497
 31
0.0
 11
-3.7945772262
 21
0.1880622439
 31
0.0
 11
-3.7958989859
 21
0.1831979936
 31
0.0
 11
-3.7968524935
 21
0.1783706586
 31
0.0
 11
-3.797427438
 21
0.1736326343
 31
0.0
 11
-3.7976175715
 21
0.1690393184
 31
0.0
  0
LINE
  5
352
100
AcDbEntity
  8
0
100
AcDbLine
 62
253
  6
CONTINUOUS
 10
2.8479388066
 20
-3.6406352304
 11
2.8476029613
 21
-3.293895932
  0
SPLINE
  5
353
100
AcDbEntity
  8
0
100
AcDbSpline
 62
253
  6
CONTINUOUS
 70
0
 71
3
 72
14
 73
10
 74
8
 42
0.0000001
 43
0.0000001
 44
0.0000000001
 12
0.0001328357
 22
-0.0966958706
 32
0.0
 13
0.0862726655
 23
-0.0431378031
 33
0.0
 40
0.0
 40
0.0
 40
0.0
 40
0.0
 40
0.0662389742
 40
0.1937930657
 40
0.328967632
 40
0.4754360574
 40
0.6355289519
 40
0.8103497432
 40
1.0
 40
1.0
 40
1.0
 40
1.0
 10
2.7893619462
 20
-3.5699072404
 30
0.0
 10
2.7893648791
 20
-3.5720422521
 30
0.0
 10
2.7897684033
 20
-3.5782882226
 30
0.0
 10
2.7924081209
 20
-3.5886289304
 30
0.0
 10
2.7984092738
 20
-3.6004404653
 30
0.0
 10
2.8071534703
 20
-3.6117218894
 30
0.0
 10
2.8184852821
 20
-3.6223431282
 30
0.0
 10
2.8322345807
 20
-3.6321794069
 30
0.0
 10
2.8424849289
 20
-3.6379081986
 30
0.0
 10
2.8479388066
 20
-3.6406352304
 30
0.0
 11
2.7893619462
 21
-3.5699072404
 31
0.0
 11
2.7897752612
 21
-3.5762940016
 31
0.0
 11
2.7927582575
 21
-3.5882303196
 31
0.0
 11
2.798576422
 21
-3.5998986656
 31
0.0
 11
2.8071458517
 21
-3.6111307719
 31
0.0
 11
2.818342968
 21
-3.6217646617
 31
0.0
 11
2.8320062987
 21
-3.6316469851
 31
0.0
 11
2.8479388066
 21
-3.6406352304
 31
0.0
  0
SPLINE
  5
354
100
AcDbEntity
  8
0
100
AcDbSpline
 62
7
  6
CONTINUOUS
 70
0
 71
3
 72
23
 73
19
 74
17
 42
0.0000001
 43
0.0000001
 44
0.0000000001
 12
-0.0022138358
 22
0.3062104756
 32
0.0
 13
-0.294150225
 23
0.0851199245
 33
0.0
 40
0.0
 40
0.0
 40
0.0
 40
0.0
 40
0.0575100427
 40
0.1165761008
 40
0.177127049
 40
0.2390306071
 40
0.3021040242
 40
0.3661248615
 40
0.4308411866
 40
0.4959816051
 40
0.5612644497
 40
0.6264061518
 40
0.6911290767
 40
0.7551685812
 40
0.8182793104
 40
0.8802413563
 40
0.9408657873
 40
1.0
 40
1.0
 40
1.0
 40
1.0
 10
-2.8333574329
 20
0.69600373
 30
0.0
 10
-2.8333998722
 20
0.7018737891
 30
0.0
 10
-2.8341148728
 20
0.7137756698
 30
0.0
 10
-2.8369570644
 20
0.731656393
 30
0.0
 10
-2.8415358681
 20
0.7496357988
 30
0.0
 10
-2.847788505
 20
0.7675348843
 30
0.0
 10
-2.855637106
 20
0.7851805901
 30
0.0
 10
-2.8649894513
 20
0.8024033935
 30
0.0
 10
-2.8757400569
 20
0.8190404474
 30
0.0
 10
-2.8877715544
 20
0.8349370371
 30
0.0
 10
-2.9009562771
 20
0.8499482447
 30
0.0
 10
-2.9151579628
 20
0.8639402249
 30
0.0
 10
-2.9302334693
 20
0.8767912203
 30
0.0
 10
-2.9460345275
 20
0.8883923055
 30
0.0
 10
-2.9624091421
 20
0.8986478045
 30
0.0
 10
-2.9792038658
 20
0.907475762
 30
0.0
 10
-2.9962623171
 20
0.9148071951
 30
0.0
 10
-3.0078633989
 20
0.9187127016
 30
0.0
 10
-3.0136615129
 20
0.9203905349
 30
0.0
 11
-2.8333574329
 21
0.69600373
 31
0.0
 11
-2.8343865652
 21
0.7135842717
 31
0.0
 11
-2.8372009461
 21
0.7314510877
 31
0.0
 11
-2.8417555639
 21
0.7494248051
 31
0.0
 11
-2.8479890277
 21
0.7673266031
 31
0.0
 11
-2.8558240967
 21
0.7849802652
 31
0.0
 11
-2.8651686049
 21
0.8022142789
 31
0.0
 11
-2.8759166793
 21
0.8188637728
 31
0.0
 11
-2.8879502631
 21
0.8347723756
 31
0.0
 11
-2.9011407927
 21
0.8497937786
 31
0.0
 11
-2.9153509392
 21
0.8637929999
 31
0.0
 11
-2.9304363982
 21
0.876647407
 31
0.0
 11
-2.9462476127
 21
0.888247438
 31
0.0
 11
-2.9626313568
 21
0.8984970481
 31
0.0
 11
-2.9794322777
 21
0.9073140104
 31
0.0
 11
-2.9964942349
 21
0.914629995
 31
0.0
 11
-3.0136615129
 21
0.9203905349
 31
0.0
  0
SPLINE
  5
355
100
AcDbEntity
  8
0
100
AcDbSpline
 62
253
  6
CONTINUOUS
 70
0
 71
3
 72
20
 73
16
 74
14
 42
0.0000001
 43
0.0000001
 44
0.0000000001
 12
-0.0021210958
 22
0.2940834108
 32
0.0
 13
-0.2621036391
 23
0.1333837845
 33
0.0
 40
0.0
 40
0.0
 40
0.0
 40
0.0
 40
0.0726108853
 40
0.1483763
 40
0.2267469669
 40
0.3070818632
 40
0.3886752783
 40
0.4707818461
 40
0.5526404025
 40
0.633497392
 40
0.71263049
 40
0.7893731368
 40
0.8631407822
 40
0.9334597867
 40
1.0
 40
1.0
 40
1.0
 40
1.0
 10
-3.7622649245
 20
0.2297438623
 30
0.0
 10
-3.7623162627
 20
0.2368617479
 30
0.0
 10
-3.7631473248
 20
0.2514085157
 30
0.0
 10
-3.7663782126
 20
0.2734258475
 30
0.0
 10
-3.771574862
 20
0.2958413983
 30
0.0
 10
-3.7786619226
 20
0.3183301364
 30
0.0
 10
-3.7875370471
 20
0.3405689878
 30
0.0
 10
-3.7980721087
 20
0.3622369523
 30
0.0
 10
-3.8101150539
 20
0.3830213726
 30
0.0
 10
-3.8234921449
 20
0.4026222835
 30
0.0
 10
-3.8380108008
 20
0.4207570778
 30
0.0
 10
-3.8534622126
 20
0.4371643999
 30
0.0
 10
-3.8696265223
 20
0.4516087166
 30
0.0
 10
-3.8862705926
 20
0.4638803459
 30
0.0
 10
-3.8978674185
 20
0.4706918718
 30
0.0
 10
-3.9036808958
 20
0.4736503336
 30
0.0
 11
-3.7622649245
 21
0.2297438623
 31
0.0
 11
-3.7634369443
 21
0.2510658873
 31
0.0
 11
-3.7666358429
 21
0.2731169984
 31
0.0
 11
-3.771814978
 21
0.2955756727
 31
0.0
 11
-3.7788988337
 21
0.3181144442
 31
0.0
 11
-3.7877841221
 21
0.3404046792
 31
0.0
 11
-3.7983412887
 21
0.3621213675
 31
0.0
 11
-3.8104164015
 21
0.3829478614
 31
0.0
 11
-3.8238333956
 21
0.4025804929
 31
0.0
 11
-3.8383966402
 21
0.4207330014
 31
0.0
 11
-3.8538937909
 21
0.4371407072
 31
0.0
 11
-3.8700988861
 21
0.4515643718
 31
0.0
 11
-3.8867756416
 21
0.4637936853
 31
0.0
 11
-3.9036808958
 21
0.4736503336
 31
0.0
  0
SPLINE
  5
356
100
AcDbEntity
  8
0
100
AcDbSpline
 62
253
  6
CONTINUOUS
 70
0
 71
3
 72
20
 73
16
 74
14
 42
0.0000001
 43
0.0000001
 44
0.0000000001
 12
-0.2600540592
 22
-0.1280284117
 32
0.0
 13
-0.2592604236
 23
0.1296280088
 33
0.0
 40
0.0
 40
0.0
 40
0.0
 40
0.0
 40
0.0681704626
 40
0.14058288
 40
0.2166436927
 40
0.2956446117
 40
0.3767929276
 40
0.4592380186
 40
0.5420956298
 40
0.6244710023
 40
0.7054816653
 40
0.7842806241
 40
0.8600807692
 40
0.9321816167
 40
1.0
 40
1.0
 40
1.0
 40
1.0
 10
-3.7976175715
 20
0.1690393184
 30
0.0
 10
-3.8035269067
 20
0.1661300664
 30
0.0
 10
-3.8160114318
 20
0.1607244129
 30
0.0
 10
-3.8358608484
 20
0.154017745
 30
0.0
 10
-3.8571658079
 20
0.1485415119
 30
0.0
 10
-3.8796215213
 20
0.1443747261
 30
0.0
 10
-3.9029088301
 20
0.1415767358
 30
0.0
 10
-3.9266950081
 20
0.1401878607
 30
0.0
 10
-3.9506400286
 20
0.1402280839
 30
0.0
 10
-3.9744013704
 20
0.1416968236
 30
0.0
 10
-3.9976393851
 20
0.1445729458
 30
0.0
 10
-4.0200220943
 20
0.1488150105
 30
0.0
 10
-4.0412314704
 20
0.154362626
 30
0.0
 10
-4.0609641538
 20
0.1611357833
 30
0.0
 10
-4.0733598616
 20
0.1665855292
 30
0.0
 10
-4.0792207358
 20
0.1695159165
 30
0.0
 11
-3.7976175715
 21
0.1690393184
 31
0.0
 11
-3.8157278427
 21
0.1611352699
 31
0.0
 11
-3.8355984925
 21
0.154373774
 31
0.0
 11
-3.8569429688
 21
0.1488523374
 31
0.0
 11
-3.8794534656
 21
0.1446505839
 31
0.0
 11
-3.902805362
 21
0.1418291065
 31
0.0
 11
-3.9266619033
 21
0.1404285933
 31
0.0
 11
-3.9506790573
 21
0.140469241
 31
0.0
 11
-3.9745104758
 21
0.1419504635
 31
0.0
 11
-3.9978124889
 21
0.1448509001
 31
0.0
 11
-4.0202490614
 21
0.1491287241
 31
0.0
 11
-4.0414966382
 21
0.1547222455
 31
0.0
 11
-4.0612488109
 21
0.1615508009
 31
0.0
 11
-4.0792207358
 21
0.1695159165
 31
0.0
  0
SPLINE
  5
357
100
AcDbEntity
  8
0
100
AcDbSpline
 62
253
  6
CONTINUOUS
 70
0
 71
3
 72
20
 73
16
 74
14
 42
0.0000001
 43
0.0000001
 44
0.0000000001
 12
-0.259967497
 22
-0.1282386903
 32
0.0
 13
-0.2592749559
 23
0.1296331687
 33
0.0
 40
0.0
 40
0.0
 40
0.0
 40
0.0
 40
0.0681897816
 40
0.1406165617
 40
0.2166870805
 40
0.2956934298
 40
0.376843348
 40
0.459286723
 40
0.5421398701
 40
0.6245086617
 40
0.7055113234
 40
0.7843016265
 40
0.860093305
 40
0.9321868072
 40
1.0
 40
1.0
 40
1.0
 40
1.0
 10
-3.7972759086
 20
-0.1775642606
 30
0.0
 10
-3.8031849508
 20
-0.1804791167
 30
0.0
 10
-3.8156689465
 20
-0.1858960256
 30
0.0
 10
-3.8355184291
 20
-0.1926191092
 30
0.0
 10
-3.8568234597
 20
-0.1981112618
 30
0.0
 10
-3.8792792453
 20
-0.2022932467
 30
0.0
 10
-3.9025666264
 20
-0.2051055032
 30
0.0
 10
-3.9263528775
 20
-0.2065075106
 30
0.0
 10
-3.9502979735
 20
-0.2064790993
 30
0.0
 10
-3.9740593955
 20
-0.2050206827
 30
0.0
 10
-3.9972974985
 20
-0.2021532462
 30
0.0
 10
-4.0196803068
 20
-0.1979181034
 30
0.0
 10
-4.040889798
 20
-0.1923755419
 30
0.0
 10
-4.0606226111
 20
-0.1856054932
 30
0.0
 10
-4.0730181998
 20
-0.1801566042
 30
0.0
 10
-4.078878954
 20
-0.1772263245
 30
0.0
 11
-3.7972759086
 21
-0.1775642606
 31
0.0
 11
-3.8153861655
 21
-0.1854849359
 31
0.0
 11
-3.8352568018
 21
-0.1922628182
 31
0.0
 11
-3.8566012656
 21
-0.1978001648
 31
0.0
 11
-3.879111751
 21
-0.202017122
 31
0.0
 11
-3.9024636368
 21
-0.2048528778
 31
0.0
 11
-3.9263201684
 21
-0.206266538
 31
0.0
 11
-3.9503373137
 21
-0.2062377163
 31
0.0
 11
-3.9741687242
 21
-0.2047668285
 31
0.0
 11
-3.9974707301
 21
-0.201875086
 31
0.0
 11
-4.019907296
 21
-0.1976041903
 31
0.0
 11
-4.0411548669
 21
-0.1920157314
 31
0.0
 11
-4.0609070341
 21
-0.1851902999
 31
0.0
 11
-4.078878954
 21
-0.1772263245
 31
0.0
  0
SPLINE
  5
358
100
AcDbEntity
  8
0
100
AcDbSpline
 62
253
  6
CONTINUOUS
 70
0
 71
3
 72
20
 73
16
 74
14
 42
0.0000001
 43
0.0000001
 44
0.0000000001
 12
-0.2614947987
 22
-0.1335423045
 32
0.0
 13
0.0007194237
 23
-0.2936197528
 33
0.0
 40
0.0
 40
0.0
 40
0.0
 40
0.0
 40
0.0669653201
 40
0.1375889044
 40
0.2115461446
 40
0.2883738356
 40
0.3675014617
 40
0.4482791819
 40
0.5300033974
 40
0.6119407464
 40
0.693351267
 40
0.7735113792
 40
0.8517373174
 40
0.9274096971
 40
1.0
 40
1.0
 40
1.0
 40
1.0
 10
-3.4425892411
 20
-0.7867547971
 30
0.0
 10
-3.4484262687
 20
-0.7897356981
 30
0.0
 10
-3.4600593147
 20
-0.7965838448
 30
0.0
 10
-3.4767396626
 20
-0.8089024475
 30
0.0
 10
-3.4929066504
 20
-0.8233772079
 30
0.0
 10
-3.5083286731
 20
-0.8397993505
 30
0.0
 10
-3.5227878245
 20
-0.8579346924
 30
0.0
 10
-3.5360776563
 20
-0.8775236747
 30
0.0
 10
-3.5480082396
 20
-0.898285859
 30
0.0
 10
-3.5584087115
 20
-0.919923753
 30
0.0
 10
-3.5671300398
 20
-0.9421273991
 30
0.0
 10
-3.5740472008
 20
-0.9645786362
 30
0.0
 10
-3.5790609474
 20
-0.9869572931
 30
0.0
 10
-3.5820990177
 20
-1.0089411539
 30
0.0
 10
-3.5827932514
 20
-1.0234610602
 30
0.0
 10
-3.5827758436
 20
-1.0305657091
 30
0.0
 11
-3.4425892411
 21
-0.7867547971
 31
0.0
 11
-3.4595642468
 21
-0.7966774551
 31
0.0
 11
-3.4762756537
 21
-0.8089547935
 31
0.0
 11
-3.4924815442
 21
-0.8234090831
 31
0.0
 11
-3.5079473185
 21
-0.8398310806
 31
0.0
 11
-3.522449091
 21
-0.8579830582
 31
0.0
 11
-3.5357769313
 21
-0.8776022441
 31
0.0
 11
-3.547737903
 21
-0.8984046271
 31
0.0
 11
-3.5581588566
 21
-0.9200890679
 31
0.0
 11
-3.5668889363
 21
-0.9423416583
 31
0.0
 11
-3.5738017639
 21
-0.9648402653
 31
0.0
 11
-3.5787972678
 21
-0.9872591948
 31
0.0
 11
-3.5818031322
 21
-1.0092739058
 31
0.0
 11
-3.5827758436
 21
-1.0305657091
 31
0.0
  0
SPLINE
  5
359
100
AcDbEntity
  8
0
100
AcDbSpline
 62
253
  6
CONTINUOUS
 70
0
 71
3
 72
20
 73
16
 74
14
 42
0.0000001
 43
0.0000001
 44
0.0000000001
 12
-0.2614947987
 22
-0.1335423045
 32
0.0
 13
0.0007194237
 23
-0.2936197528
 33
0.0
 40
0.0
 40
0.0
 40
0.0
 40
0.0
 40
0.0669653077
 40
0.1375888791
 40
0.2115461067
 40
0.2883737863
 40
0.3675014029
 40
0.4482791167
 40
0.5300033292
 40
0.6119406795
 40
0.6933512058
 40
0.7735113279
 40
0.85173728
 40
0.9274096771
 40
1.0
 40
1.0
 40
1.0
 40
1.0
 10
2.4942969032
 20
-3.7551978692
 30
0.0
 10
2.4884598766
 20
-3.7581787697
 30
0.0
 10
2.4768268327
 20
-3.765026915
 30
0.0
 10
2.4601464875
 20
-3.7773455151
 30
0.0
 10
2.4439795018
 20
-3.7918202724
 30
0.0
 10
2.4285574805
 20
-3.8082424119
 30
0.0
 10
2.4140983299
 20
-3.8263777509
 30
0.0
 10
2.400808498
 20
-3.8459667309
 30
0.0
 10
2.3888779139
 20
-3.8667289138
 30
0.0
 10
2.3784774405
 20
-3.8883668075
 30
0.0
 10
2.3697561102
 20
-3.9105704546
 30
0.0
 10
2.3628389472
 20
-3.9330216941
 30
0.0
 10
2.3578251987
 20
-3.9554003547
 30
0.0
 10
2.3547871269
 20
-3.9773842204
 30
0.0
 10
2.3540928929
 20
-3.9919041304
 30
0.0
 10
2.3541103006
 20
-3.9990087813
 30
0.0
 11
2.4942969032
 21
-3.7551978692
 31
0.0
 11
2.4773219005
 21
-3.7651205253
 31
0.0
 11
2.4606104963
 21
-3.777397861
 31
0.0
 11
2.4444046081
 21
-3.7918521474
 31
0.0
 11
2.4289388353
 21
-3.8082741418
 31
0.0
 11
2.4144370635
 21
-3.8264261164
 31
0.0
 11
2.4011092231
 21
-3.8460452999
 31
0.0
 11
2.3891482506
 21
-3.8668476815
 31
0.0
 11
2.3787272956
 21
-3.8885321221
 31
0.0
 11
2.3699972139
 21
-3.9107847134
 31
0.0
 11
2.3630843842
 21
-3.9332833229
 31
0.0
 11
2.3580888784
 21
-3.9557022561
 31
0.0
 11
2.3550830126
 21
-3.9777169721
 31
0.0
 11
2.3541103006
 21
-3.9990087813
 31
0.0
  0
SPLINE
  5
35A
100
AcDbEntity
  8
0
100
AcDbSpline
 62
253
  6
CONTINUOUS
 70
0
 71
3
 72
13
 73
9
 74
7
 42
0.0000001
 43
0.0000001
 44
0.0000000001
 12
-0.0848427479
 22
0.0416326943
 32
0.0
 13
-0.0840051722
 23
-0.0436277022
 33
0.0
 40
0.0
 40
0.0
 40
0.0
 40
0.0
 40
0.1971729627
 40
0.3826519041
 40
0.5574081624
 40
0.7232801305
 40
0.8829657922
 40
1.0
 40
1.0
 40
1.0
 40
1.0
 10
3.0225311037
 20
-2.9894556662
 30
0.0
 10
3.0169548718
 20
-2.9867193856
 30
0.0
 10
3.0058166696
 20
-2.9820161355
 30
0.0
 10
2.9888286004
 20
-2.9773577197
 30
0.0
 10
2.9723017139
 20
-2.9753921685
 30
0.0
 10
2.9564782017
 20
-2.9761748319
 30
0.0
 10
2.9428330252
 20
-2.9794288024
 30
0.0
 10
2.9347879626
 20
-2.9828839913
 30
0.0
 10
2.931510803
 20
-2.9845859692
 30
0.0
 11
3.0225311037
 21
-2.9894556662
 31
0.0
 11
3.0053371944
 21
-2.9822720854
 31
0.0
 11
2.988412357
 21
-2.9777094364
 31
0.0
 11
2.9720034731
 21
-2.9758341928
 31
0.0
 11
2.9563499033
 21
-2.9766736422
 31
0.0
 11
2.9416799995
 21
-2.9802154874
 31
0.0
 11
2.931510803
 21
-2.9845859692
 31
0.0
  0
SPLINE
  5
35B
100
AcDbEntity
  8
0
100
AcDbSpline
 62
253
  6
CONTINUOUS
 70
0
 71
3
 72
21
 73
17
 74
15
 42
0.0000001
 43
0.0000001
 44
0.0000000001
 12
-0.0027086902
 22
0.3665006289
 32
0.0
 13
-0.3229569199
 23
0.1732884182
 33
0.0
 40
0.0
 40
0.0
 40
0.0
 40
0.0
 40
0.0675515959
 40
0.1379106431
 40
0.2106182696
 40
0.2851460248
 40
0.3609149152
 40
0.4373129787
 40
0.5137119671
 40
0.5894836089
 40
0.6640158703
 40
0.7367296364
 40
0.807096282
 40
0.8746567019
 40
0.9390424877
 40
1.0
 40
1.0
 40
1.0
 40
1.0
 10
7.4808159734
 20
-5.2672933553
 30
0.0
 10
7.4807549813
 20
-5.2590407878
 30
0.0
 10
7.4798716364
 20
-5.2421915364
 30
0.0
 10
7.4764615013
 20
-5.2166630548
 30
0.0
 10
7.4709799049
 20
-5.1906265326
 30
0.0
 10
7.4634953747
 20
-5.1644079285
 30
0.0
 10
7.4541011752
 20
-5.138332579
 30
0.0
 10
7.4429143737
 20
-5.1127254606
 30
0.0
 10
7.4300743991
 20
-5.0879056416
 30
0.0
 10
7.4157412542
 20
-5.0641824603
 30
0.0
 10
7.400093438
 20
-5.0418514376
 30
0.0
 10
7.3833253909
 20
-5.0211904367
 30
0.0
 10
7.3656452513
 20
-5.0024564013
 30
0.0
 10
7.3472701722
 20
-4.9858813446
 30
0.0
 10
7.3284289624
 20
-4.9716729134
 30
0.0
 10
7.3153359521
 20
-4.9636684366
 30
0.0
 10
7.3087737353
 20
-4.9601473596
 30
0.0
 11
7.4808159734
 21
-5.2672933553
 31
0.0
 11
7.4795658216
 21
-5.2425665595
 31
0.0
 11
7.4761880837
 21
-5.2170013927
 31
0.0
 11
7.4707252206
 21
-5.1909192274
 31
0.0
 11
7.4632459043
 21
-5.1646479349
 31
0.0
 11
7.4538441552
 21
-5.1385177644
 31
0.0
 11
7.4426381603
 21
-5.1128571906
 31
0.0
 11
7.429768787
 21
-5.0879887853
 31
0.0
 11
7.4153978125
 21
-5.0642251619
 31
0.0
 11
7.3997058903
 21
-5.0418650459
 31
0.0
 11
7.3828902792
 21
-5.0211895198
 31
0.0
 11
7.3651623632
 21
-5.0024584893
 31
0.0
 11
7.346744995
 21
-4.9859074167
 31
0.0
 11
7.3278696937
 21
-4.9717443603
 31
0.0
 11
7.3087737353
 21
-4.9601473596
 31
0.0
  0
SPLINE
  5
35C
100
AcDbEntity
  8
0
100
AcDbSpline
 62
253
  6
CONTINUOUS
 70
0
 71
3
 72
21
 73
17
 74
15
 42
0.0000001
 43
0.0000001
 44
0.0000000001
 12
-0.0002388647
 22
0.366496343
 32
0.0
 13
0.3261638297
 23
0.1671430007
 33
0.0
 40
0.0
 40
0.0
 40
0.0
 40
0.0
 40
0.0673600565
 40
0.1374002827
 40
0.20970425
 40
0.2837859084
 40
0.3591077597
 40
0.43509822
 40
0.5111676838
 40
0.5867244983
 40
0.661190688
 40
0.7340180538
 40
0.804705104
 40
0.8728149463
 40
0.9379952469
 40
1.0
 40
1.0
 40
1.0
 40
1.0
 10
2.8476029613
 20
-3.293895932
 30
0.0
 10
2.847597598
 20
-3.2856668606
 30
0.0
 10
2.8483657826
 20
-3.268873507
 30
0.0
 10
2.8516652139
 20
-3.2434423206
 30
0.0
 10
2.8570945095
 20
-3.2175399377
 30
0.0
 10
2.8645862277
 20
-3.1914875871
 30
0.0
 10
2.8740477902
 20
-3.1656052144
 30
0.0
 10
2.8853623808
 20
-3.1402121605
 30
0.0
 10
2.898390351
 20
-3.1156216577
 30
0.0
 10
2.9129709709
 20
-3.0921371698
 30
0.0
 10
2.9289244837
 20
-3.0700484205
 30
0.0
 10
2.946054627
 20
-3.0496276866
 30
0.0
 10
2.9641508454
 20
-3.0311266571
 30
0.0
 10
2.9829928876
 20
-3.0147725752
 30
0.0
 10
3.0023481465
 20
-3.0007687639
 30
0.0
 10
3.0157898708
 20
-2.9929102211
 30
0.0
 10
3.0225311067
 20
-2.9894556676
 30
0.0
 11
2.8476029613
 21
-3.293895932
 31
0.0
 11
2.8486857472
 21
-3.2692324695
 31
0.0
 11
2.8519519114
 21
-3.2437716171
 31
0.0
 11
2.8573607895
 21
-3.2178303616
 31
0.0
 11
2.864845052
 21
-3.1917316204
 31
0.0
 11
2.8743115221
 21
-3.1658003188
 31
0.0
 11
2.8856423585
 21
-3.1403592584
 31
0.0
 11
2.8986964994
 21
-3.1157251677
 31
0.0
 11
2.9133114366
 21
-3.0922047123
 31
0.0
 11
2.9293052299
 21
-3.0700906993
 31
0.0
 11
2.946478767
 21
-3.0496584345
 31
0.0
 11
2.9646182631
 21
-3.0311622711
 31
0.0
 11
2.9834978852
 21
-3.0148324829
 31
0.0
 11
3.0028826152
 21
-3.0008723483
 31
0.0
 11
3.0225311067
 21
-2.9894556676
 31
0.0
  0
SPLINE
  5
35D
100
AcDbEntity
  8
0
100
AcDbSpline
 62
253
  6
CONTINUOUS
 70
0
 71
3
 72
20
 73
16
 74
14
 42
0.0000001
 43
0.0000001
 44
0.0000000001
 12
-0.0002381714
 22
0.3665499159
 32
0.0
 13
0.3264447576
 23
0.1667114809
 33
0.0
 40
0.0
 40
0.0
 40
0.0
 40
0.0
 40
0.0726405182
 40
0.1483504569
 40
0.2266011449
 40
0.3067738655
 40
0.3881861555
 40
0.4701162103
 40
0.5518261734
 40
0.6325849852
 40
0.7116914169
 40
0.7884979378
 40
0.8624361474
 40
0.9330446154
 40
1.0
 40
1.0
 40
1.0
 40
1.0
 10
6.7862646217
 20
-5.2632267625
 30
0.0
 10
6.7862588548
 20
-5.2543513039
 30
0.0
 10
6.7871556862
 20
-5.2362158533
 30
0.0
 10
6.7909882546
 20
-5.208763461
 30
0.0
 10
6.7972824053
 20
-5.1808250411
 30
0.0
 10
6.8059476801
 20
-5.1528017521
 30
0.0
 10
6.816860101
 20
-5.1250921322
 30
0.0
 10
6.8298636693
 20
-5.0980921396
 30
0.0
 10
6.8447725709
 20
-5.0721874696
 30
0.0
 10
6.8613738844
 20
-5.0477482659
 30
0.0
 10
6.8794310171
 20
-5.0251234295
 30
0.0
 10
6.8986868674
 20
-5.0046358738
 30
0.0
 10
6.9188701143
 20
-4.9865769444
 30
0.0
 10
6.9396924164
 20
-4.9712063929
 30
0.0
 10
6.9542128684
 20
-4.9626601645
 30
0.0
 10
6.9614986131
 20
-4.9589394207
 30
0.0
 11
6.7862646217
 21
-5.2632267625
 31
0.0
 11
6.7875236892
 21
-5.2366301661
 31
0.0
 11
6.7913164486
 21
-5.2091390861
 31
0.0
 11
6.7975881495
 21
-5.1811503712
 31
0.0
 11
6.8062482564
 21
-5.1530680538
 31
0.0
 11
6.8171717559
 21
-5.1252975175
 31
0.0
 11
6.8302009613
 21
-5.0982396451
 31
0.0
 11
6.8451477891
 21
-5.0722850319
 31
0.0
 11
6.8617964734
 21
-5.0478083467
 31
0.0
 11
6.8799066816
 21
-5.025162924
 31
0.0
 11
6.8992169828
 21
-5.0046756628
 31
0.0
 11
6.9194486223
 21
-4.9866423078
 31
0.0
 11
6.9403095454
 21
-4.9713231805
 31
0.0
 11
6.9614986131
 21
-4.9589394207
 31
0.0
  0
SPLINE
  5
35E
100
AcDbEntity
  8
0
100
AcDbSpline
 62
253
  6
CONTINUOUS
 70
0
 71
3
 72
14
 73
10
 74
8
 42
0.0000001
 43
0.0000001
 44
0.0000000001
 12
-0.1114318116
 22
0.0519160148
 32
0.0
 13
-0.1079759424
 23
-0.059107575
 33
0.0
 40
0.0
 40
0.0
 40
0.0
 40
0.0
 40
0.1792241588
 40
0.3490913004
 40
0.5102138971
 40
0.6637824952
 40
0.8115744805
 40
0.9558839415
 40
1.0
 40
1.0
 40
1.0
 40
1.0
 10
-7.8487112234
 20
2.6185951198
 30
0.0
 10
-7.8553683143
 20
2.6216966545
 30
0.0
 10
-7.8686680199
 20
2.62706147
 30
0.0
 10
-7.8889070191
 20
2.6325163201
 30
0.0
 10
-7.9086629273
 20
2.6350861899
 30
0.0
 10
-7.9276873377
 20
2.6347186478
 30
0.0
 10
-7.9457332775
 20
2.6313965467
 30
0.0
 10
-7.958715067
 20
2.6265709183
 30
0.0
 10
-7.9655984194
 20
2.623044308
 30
0.0
 10
-7.9671862437
 20
2.6221751102
 30
0.0
 11
-7.8487112234
 21
2.6185951198
 31
0.0
 11
-7.8691689297
 21
2.6267749513
 31
0.0
 11
-7.8893500763
 21
2.6321401185
 31
0.0
 11
-7.909000972
 21
2.6346231773
 31
0.0
 11
-7.927874591
 21
2.6341929137
 31
0.0
 11
-7.9457336786
 21
2.6308547362
 31
0.0
 11
-7.9623537332
 21
2.624650608
 31
0.0
 11
-7.9671862437
 21
2.6221751102
 31
0.0
  0
SPLINE
  5
35F
100
AcDbEntity
  8
0
100
AcDbSpline
 62
253
  6
CONTINUOUS
 70
0
 71
3
 72
22
 73
18
 74
16
 42
0.0000001
 43
0.0000001
 44
0.0000000001
 12
-0.3267616783
 22
-0.1663014622
 32
0.0
 13
0.0002363469
 23
-0.3666460349
 33
0.0
 40
0.0
 40
0.0
 40
0.0
 40
0.0
 40
0.0578583767
 40
0.1184759793
 40
0.1816637084
 40
0.2471480336
 40
0.3145891376
 40
0.3835950222
 40
0.4537333458
 40
0.5245448518
 40
0.5955542455
 40
0.6662818465
 40
0.7362540252
 40
0.8050157227
 40
0.8721410225
 40
0.937245152
 40
1.0
 40
1.0
 40
1.0
 40
1.0
 10
-3.9036808958
 20
0.4736503336
 30
0.0
 10
-3.9099828626
 20
0.4704430227
 30
0.0
 10
-3.922554122
 20
0.4632044457
 30
0.0
 10
-3.9407235148
 20
0.4503991412
 30
0.0
 10
-3.9584724703
 20
0.4355216441
 30
0.0
 10
-3.9756096941
 20
0.4187332539
 30
0.0
 10
-3.9919531935
 20
0.4002139709
 30
0.0
 10
-4.0073277807
 20
0.3801628788
 30
0.0
 10
-4.0215685574
 20
0.3587955179
 30
0.0
 10
-4.0345224282
 20
0.3363418022
 30
0.0
 10
-4.0460500556
 20
0.3130433588
 30
0.0
 10
-4.0560273476
 20
0.2891509914
 30
0.0
 10
-4.0643469012
 20
0.2649217034
 30
0.0
 10
-4.0709191213
 20
0.2406161771
 30
0.0
 10
-4.0756731156
 20
0.2164947697
 30
0.0
 10
-4.0785574165
 20
0.1928183845
 30
0.0
 10
-4.0792256798
 20
0.1771855219
 30
0.0
 10
-4.0792207358
 20
0.1695159165
 30
0.0
 11
-3.9036808958
 21
0.4736503336
 31
0.0
 11
-3.9220892292
 21
0.4631076623
 31
0.0
 11
-3.9402809464
 21
0.4503396826
 31
0.0
 11
-3.958059102
 21
0.4354846542
 31
0.0
 11
-3.9752306747
 21
0.4187038112
 31
0.0
 11
-3.9916094274
 21
0.4001791815
 31
0.0
 11
-4.0070178091
 21
0.3801115663
 31
0.0
 11
-4.0212886159
 21
0.3587187211
 31
0.0
 11
-4.0342670954
 21
0.3362326332
 31
0.0
 11
-4.045812472
 21
0.3128972081
 31
0.0
 11
-4.0557995467
 21
0.2889654937
 31
0.0
 11
-4.0641199556
 21
0.2646971765
 31
0.0
 11
-4.0706835049
 21
0.2403553426
 31
0.0
 11
-4.075419002
 21
0.2162039924
 31
0.0
 11
-4.0782750565
 21
0.1925052952
 31
0.0
 11
-4.0792207358
 21
0.1695159165
 31
0.0
  0
SPLINE
  5
360
100
AcDbEntity
  8
0
100
AcDbSpline
 62
253
  6
CONTINUOUS
 70
0
 71
3
 72
20
 73
16
 74
14
 42
0.0000001
 43
0.0000001
 44
0.0000000001
 12
-0.3264447576
 22
-0.1667114809
 32
0.0
 13
0.0002381714
 23
-0.3665499159
 33
0.0
 40
0.0
 40
0.0
 40
0.0
 40
0.0
 40
0.0669553846
 40
0.1375638526
 40
0.2115020622
 40
0.2883085831
 40
0.3674150148
 40
0.4481738266
 40
0.5298837897
 40
0.6118138445
 40
0.6932261345
 40
0.7733988551
 40
0.8516495431
 40
0.9273594818
 40
1.0
 40
1.0
 40
1.0
 40
1.0
 10
-7.8426484049
 20
2.4431340883
 30
0.0
 10
-7.8499341497
 20
2.4394133445
 30
0.0
 10
-7.8644546016
 20
2.4308671161
 30
0.0
 10
-7.8852769038
 20
2.4154965646
 30
0.0
 10
-7.9054601506
 20
2.3974376352
 30
0.0
 10
-7.9247160009
 20
2.3769500795
 30
0.0
 10
-7.9427731336
 20
2.3543252431
 30
0.0
 10
-7.9593744472
 20
2.3298860394
 30
0.0
 10
-7.9742833488
 20
2.3039813694
 30
0.0
 10
-7.9872869171
 20
2.2769813768
 30
0.0
 10
-7.998199338
 20
2.2492717569
 30
0.0
 10
-8.0068646127
 20
2.2212484679
 30
0.0
 10
-8.0131587634
 20
2.1933100481
 30
0.0
 10
-8.0169913319
 20
2.1658576557
 30
0.0
 10
-8.0178881633
 20
2.1477222052
 30
0.0
 10
-8.0178823963
 20
2.1388467465
 30
0.0
 11
-7.8426484049
 21
2.4431340883
 31
0.0
 11
-7.8638374727
 21
2.4307503285
 31
0.0
 11
-7.8846983957
 21
2.4154312012
 31
0.0
 11
-7.9049300352
 21
2.3973978462
 31
0.0
 11
-7.9242403365
 21
2.376910585
 31
0.0
 11
-7.9423505446
 21
2.3542651623
 31
0.0
 11
-7.958999229
 21
2.3297884772
 31
0.0
 11
-7.9739460567
 21
2.3038338639
 31
0.0
 11
-7.9869752622
 21
2.2767759915
 31
0.0
 11
-7.9978987617
 21
2.2490054552
 31
0.0
 11
-8.0065588686
 21
2.2209231378
 31
0.0
 11
-8.0128305694
 21
2.192934423
 31
0.0
 11
-8.0166233289
 21
2.1654433429
 31
0.0
 11
-8.0178823963
 21
2.1388467465
 31
0.0
  0
SPLINE
  5
361
100
AcDbEntity
  8
0
100
AcDbSpline
 62
253
  6
CONTINUOUS
 70
0
 71
3
 72
25
 73
21
 74
19
 42
0.0000001
 43
0.0000001
 44
0.0000000001
 12
-0.000757334
 22
-0.7366336906
 32
0.0
 13
0.6597887701
 23
-0.3275798322
 33
0.0
 40
0.0
 40
0.0
 40
0.0
 40
0.0
 40
0.051748946
 40
0.1055075461
 40
0.1609703983
 40
0.2177810138
 40
0.27555619
 40
0.3340164365
 40
0.3929847655
 40
0.4522405501
 40
0.5114828257
 40
0.5704048586
 40
0.6287056831
 40
0.6861019223
 40
0.7423992876
 40
0.7974527767
 40
0.8510286208
 40
0.902812426
 40
0.9525361961
 40
1.0
 40
1.0
 40
1.0
 40
1.0
 10
-3.7972759507
 20
-0.1775642392
 30
0.0
 10
-3.7972890145
 20
-0.1902709115
 30
0.0
 10
-3.7963813961
 20
-0.2161860652
 30
0.0
 10
-3.7923710349
 20
-0.2555336538
 30
0.0
 10
-3.7856839706
 20
-0.295776384
 30
0.0
 10
-3.7763695233
 20
-0.3365034132
 30
0.0
 10
-3.7645155245
 20
-0.3773307167
 30
0.0
 10
-3.7502257993
 20
-0.4179315525
 30
0.0
 10
-3.7336048459
 20
-0.4580282663
 30
0.0
 10
-3.7147670447
 20
-0.4973452604
 30
0.0
 10
-3.693852454
 20
-0.535585057
 30
0.0
 10
-3.6710280552
 20
-0.5724414212
 30
0.0
 10
-3.6464783415
 20
-0.6076211428
 30
0.0
 10
-3.6203912858
 20
-0.6408621798
 30
0.0
 10
-3.592947089
 20
-0.6719375515
 30
0.0
 10
-3.5643310228
 20
-0.7006296927
 30
0.0
 10
-3.5347683142
 20
-0.726701602
 30
0.0
 10
-3.5045368646
 20
-0.7499088295
 30
0.0
 10
-3.4739528708
 20
-0.7700340645
 30
0.0
 10
-3.453027936
 20
-0.7815720688
 30
0.0
 10
-3.4425892411
 20
-0.7867547971
 30
0.0
 11
-3.7972759507
 21
-0.1775642392
 31
0.0
 11
-3.7959846777
 21
-0.2156623999
 31
0.0
 11
-3.7920070151
 21
-0.2550625423
 31
0.0
 11
-3.785340989
 21
-0.2953708876
 31
0.0
 11
-3.7760357254
 21
-0.3361718724
 31
0.0
 11
-3.7641874445
 21
-0.3770485242
 31
0.0
 11
-3.7499031278
 21
-0.4176742552
 31
0.0
 11
-3.7332766695
 21
-0.4578043903
 31
0.0
 11
-3.7144179414
 21
-0.4971700615
 31
0.0
 11
-3.6934743098
 21
-0.5354558728
 31
0.0
 11
-3.6706145782
 21
-0.5723521861
 31
0.0
 11
-3.6460255436
 21
-0.60756256
 31
0.0
 11
-3.6199070081
 21
-0.6408104576
 31
0.0
 11
-3.5924353199
 21
-0.6718767338
 31
0.0
 11
-3.5637737736
 21
-0.7005675875
 31
0.0
 11
-3.5341480326
 21
-0.7266417944
 31
0.0
 11
-3.503861487
 21
-0.7498327576
 31
0.0
 11
-3.4732344082
 21
-0.7699227754
 31
0.0
 11
-3.4425892411
 21
-0.7867547971
 31
0.0
  0
SPLINE
  5
362
100
AcDbEntity
  8
0
100
AcDbSpline
 62
253
  6
CONTINUOUS
 70
0
 71
3
 72
14
 73
10
 74
8
 42
0.0000001
 43
0.0000001
 44
0.0000000001
 12
0.0000697795
 22
-0.0966939972
 32
0.0
 13
0.0862708267
 23
-0.043136146
 33
0.0
 40
0.0
 40
0.0
 40
0.0
 40
0.0
 40
0.0665190495
 40
0.1939722711
 40
0.3290694317
 40
0.4754842845
 40
0.6355449033
 40
0.8103509468
 40
1.0
 40
1.0
 40
1.0
 40
1.0
 10
2.7890261638
 20
-3.2231763029
 30
0.0
 10
2.789027711
 20
-3.2253203005
 30
0.0
 10
2.7894299695
 20
-3.2315721999
 30
0.0
 10
2.7920728673
 20
-3.2419153584
 30
0.0
 10
2.7980742914
 20
-3.253718
 30
0.0
 10
2.8068185384
 20
-3.2649922148
 30
0.0
 10
2.8181502497
 20
-3.2756081595
 30
0.0
 10
2.8318993871
 20
-3.2854411639
 30
0.0
 10
2.842149302
 20
-3.2911689884
 30
0.0
 10
2.8476030288
 20
-3.2938958982
 30
0.0
 11
2.7890261638
 21
-3.2231763029
 31
0.0
 11
2.7894395067
 21
-3.2295900028
 31
0.0
 11
2.7924225003
 21
-3.2415159789
 31
0.0
 11
2.7982406619
 21
-3.2531756226
 31
0.0
 11
2.8068100881
 21
-3.2644007918
 31
0.0
 11
2.8180072002
 21
-3.2750296101
 31
0.0
 11
2.831670526
 21
-3.284908801
 31
0.0
 11
2.8476030288
 21
-3.2938958982
 31
0.0
  0
SPLINE
  5
363
100
AcDbEntity
  8
0
100
AcDbSpline
 62
7
  6
CONTINUOUS
 70
0
 71
3
 72
21
 73
17
 74
15
 42
0.0000001
 43
0.0000001
 44
0.0000000001
 12
-0.5915274717
 22
0.264958924
 32
0.0
 13
0.0423664672
 23
0.6467712607
 33
0.0
 40
0.0
 40
0.0
 40
0.0
 40
0.0
 40
0.0694600577
 40
0.1392164793
 40
0.2093379249
 40
0.2797947565
 40
0.3506134331
 40
0.4217576998
 40
0.49323684
 40
0.5650227023
 40
0.637079555
 40
0.7093945533
 40
0.7818927783
 40
0.8545471584
 40
0.9272554323
 40
1.0
 40
1.0
 40
1.0
 40
1.0
 10
-2.5291994494
 20
-0.2802106866
 30
0.0
 10
-2.5428952935
 20
-0.2740759992
 30
0.0
 10
-2.5697615829
 20
-0.2604304827
 30
0.0
 10
-2.6080235917
 20
-0.2361982359
 30
0.0
 10
-2.6440718369
 20
-0.2084246275
 30
0.0
 10
-2.6776577059
 20
-0.1773856305
 30
0.0
 10
-2.7085509342
 20
-0.1433690956
 30
0.0
 10
-2.7365494532
 20
-0.1066570106
 30
0.0
 10
-2.7614634113
 20
-0.0675389911
 30
0.0
 10
-2.7831182161
 20
-0.0263048267
 30
0.0
 10
-2.8013499045
 20
0.0167489311
 30
0.0
 10
-2.8160015626
 20
0.0613112878
 30
0.0
 10
-2.8269283961
 20
0.1070634168
 30
0.0
 10
-2.8339935998
 20
0.1536569576
 30
0.0
 10
-2.8370787644
 20
0.2007333466
 30
0.0
 10
-2.8364129773
 20
0.2321993904
 30
0.0
 10
-2.8353856672
 20
0.2478824223
 30
0.0
 11
-2.5291994494
 21
-0.2802106866
 31
0.0
 11
-2.5693506961
 21
-0.2598447297
 31
0.0
 11
-2.6075606085
 21
-0.2356738683
 31
0.0
 11
-2.6435768175
 21
-0.2079518404
 31
0.0
 11
-2.6771279238
 21
-0.1769710617
 31
0.0
 11
-2.7079998519
 21
-0.1430021745
 31
0.0
 11
-2.7359739756
 21
-0.1063439182
 31
0.0
 11
-2.7608704047
 21
-0.0672720374
 31
0.0
 11
-2.7825096939
 21
-0.0260816766
 31
0.0
 11
-2.8007244839
 21
0.0169241589
 31
0.0
 11
-2.8153639518
 21
0.0614508187
 31
0.0
 11
-2.8262754337
 21
0.107156661
 31
0.0
 11
-2.8333278661
 21
0.1537170514
 31
0.0
 11
-2.83639778
 21
0.2007433586
 31
0.0
 11
-2.8353856672
 21
0.2478824223
 31
0.0
  0
SPLINE
  5
364
100
AcDbEntity
  8
0
100
AcDbSpline
 62
253
  6
CONTINUOUS
 70
0
 71
3
 72
15
 73
11
 74
9
 42
0.0000001
 43
0.0000001
 44
0.0000000001
 12
0.2093084492
 22
-0.1053936194
 32
0.0
 13
0.2081712521
 23
0.1080486012
 33
0.0
 40
0.0
 40
0.0
 40
0.0
 40
0.0
 40
0.1424281152
 40
0.2796141743
 40
0.4113377379
 40
0.5376844843
 40
0.6590805482
 40
0.7764967003
 40
0.8913367444
 40
1.0
 40
1.0
 40
1.0
 40
1.0
 10
2.4942969032
 20
-3.7551978692
 30
0.0
 10
2.5042340392
 20
-3.7602015407
 30
0.0
 10
2.5241621229
 20
-3.7692236939
 30
0.0
 10
2.5545796917
 20
-3.7797283561
 30
0.0
 10
2.5846950747
 20
-3.7868003997
 30
0.0
 10
2.6141943594
 20
-3.7903256861
 30
0.0
 10
2.6427943002
 20
-3.7902535974
 30
0.0
 10
2.6702584824
 20
-3.7865809922
 30
0.0
 10
2.6960040925
 20
-3.7794359095
 30
0.0
 10
2.712066582
 20
-3.772451614
 30
0.0
 10
2.7196067706
 20
-3.7685379764
 30
0.0
 11
2.4942969032
 21
-3.7551978692
 31
0.0
 11
2.5247300092
 21
-3.7689046798
 31
0.0
 11
2.5551406888
 21
-3.7793327747
 31
0.0
 11
2.5852087454
 21
-3.7863182444
 31
0.0
 11
2.6146167877
 21
-3.789760342
 31
0.0
 11
2.6430650904
 21
-3.789624153
 31
0.0
 11
2.6703314776
 21
-3.785926606
 31
0.0
 11
2.6962551027
 21
-3.77869922
 31
0.0
 11
2.7196067706
 21
-3.7685379764
 31
0.0
  0
SPLINE
  5
365
100
AcDbEntity
  8
0
100
AcDbSpline
 62
253
  6
CONTINUOUS
 70
0
 71
3
 72
14
 73
10
 74
8
 42
0.0000001
 43
0.0000001
 44
0.0000000001
 12
-1.2351234507
 22
9.729772274
 32
0.0
 13
-0.1480682749
 23
9.806736166
 33
0.0
 40
0.0
 40
0.0
 40
0.0
 40
0.0
 40
0.1390919771
 40
0.2794596784
 40
0.4210921229
 40
0.5639768728
 40
0.7081001078
 40
0.8534466426
 40
1.0
 40
1.0
 40
1.0
 40
1.0
 10
-7.2806543044
 20
-15.4905487113
 30
0.0
 10
-7.3379195586
 20
-15.039437624
 30
0.0
 10
-7.4452872944
 20
-14.132084164
 30
0.0
 10
-7.5843752875
 20
-12.7623993417
 30
0.0
 10
-7.7021928567
 20
-11.3782737506
 30
0.0
 10
-7.7986986074
 20
-9.9801946769
 30
0.0
 10
-7.8738593931
 20
-8.568646332
 30
0.0
 10
-7.9276491723
 20
-7.1441246252
 30
0.0
 10
-7.949161413
 20
-6.1900206125
 30
0.0
 10
-7.9563947139
 20
-5.7109505759
 30
0.0
 11
-7.2806543044
 21
-15.4905487113
 31
0.0
 11
-7.4410661219
 21
-14.1358189409
 31
0.0
 11
-7.5802537724
 21
-12.7661671754
 31
0.0
 11
-7.6981688556
 21
-11.3820705282
 31
0.0
 11
-7.7947703638
 21
-9.9840112304
 31
0.0
 11
-7.870024714
 21
-8.5724762212
 31
0.0
 11
-7.9239057394
 21
-7.1479572746
 31
0.0
 11
-7.9563947139
 21
-5.7109505759
 31
0.0
  0
SPLINE
  5
366
100
AcDbEntity
  8
0
100
AcDbSpline
 62
253
  6
CONTINUOUS
 70
0
 71
3
 72
17
 73
13
 74
11
 42
0.0000001
 43
0.0000001
 44
0.0000000001
 12
-0.0146233495
 22
-0.3374304751
 32
0.0
 13
-0.3134643983
 23
-0.1267186416
 33
0.0
 40
0.0
 40
0.0
 40
0.0
 40
0.0
 40
0.1257612106
 40
0.2463557878
 40
0.361548946
 40
0.4712938634
 40
0.5757615065
 40
0.6753678851
 40
0.7707922496
 40
0.8629762818
 40
0.9530928601
 40
1.0
 40
1.0
 40
1.0
 40
1.0
 10
8.6098174698
 20
-23.0707045539
 30
0.0
 10
8.6092044531
 20
-23.0848497756
 30
0.0
 10
8.6069535164
 20
-23.1125285838
 30
0.0
 10
8.6002734672
 20
-23.1527309408
 30
0.0
 10
8.5904142116
 20
-23.1904233308
 30
0.0
 10
8.5774606435
 20
-23.225245726
 30
0.0
 10
8.5615232143
 20
-23.2568665592
 30
0.0
 10
8.5427376759
 20
-23.2849780206
 30
0.0
 10
8.5212667252
 20
-23.3092968904
 30
0.0
 10
8.497304618
 20
-23.3295654717
 30
0.0
 10
8.4751827608
 20
-23.3430574214
 30
0.0
 10
8.4611065176
 20
-23.3494418234
 30
0.0
 10
8.4562052781
 20
-23.3514231598
 30
0.0
 11
8.6098174698
 21
-23.0707045539
 31
0.0
 11
8.6063067346
 21
-23.1130347147
 31
0.0
 11
8.5995533494
 21
-23.1532014149
 31
0.0
 11
8.5896222018
 21
-23.1908187256
 31
0.0
 11
8.5766087121
 21
-23.225525213
 31
0.0
 11
8.5606379163
 21
-23.2569874107
 31
0.0
 11
8.5418632647
 21
-23.2849030242
 31
0.0
 11
8.5204651476
 21
-23.3090038354
 31
0.0
 11
8.4966491618
 21
-23.3290582792
 31
0.0
 11
8.4706441358
 21
-23.3448736689
 31
0.0
 11
8.4562052781
 21
-23.3514231598
 31
0.0
  0
SPLINE
  5
367
100
AcDbEntity
  8
0
100
AcDbSpline
 62
253
  6
CONTINUOUS
 70
0
 71
3
 72
24
 73
20
 74
18
 42
0.0000001
 43
0.0000001
 44
0.0000000001
 12
0.0639176263
 22
-0.471755543
 32
0.0
 13
0.4413698157
 23
0.1784136797
 33
0.0
 40
0.0
 40
0.0
 40
0.0
 40
0.0
 40
0.0674512844
 40
0.1324311861
 40
0.1949898754
 40
0.2552641307
 40
0.3134712979
 40
0.3699079251
 40
0.4249470964
 40
0.4790280917
 40
0.5326394702
 40
0.5862943446
 40
0.6405041212
 40
0.6957504662
 40
0.7524628335
 40
0.8110020712
 40
0.8716523998
 40
0.9346160448
 40
1.0
 40
1.0
 40
1.0
 40
1.0
 10
8.2671584714
 20
-22.8626230807
 30
0.0
 10
8.26859558
 20
-22.8732299198
 30
0.0
 10
8.2722069705
 20
-22.8939592672
 30
0.0
 10
8.2800368505
 20
-22.9239329653
 30
0.0
 10
8.2901338718
 20
-22.9520203673
 30
0.0
 10
8.3024378639
 20
-22.9780344685
 30
0.0
 10
8.316875637
 20
-23.0018044503
 30
0.0
 10
8.3333597392
 20
-23.0231704663
 30
0.0
 10
8.3517872846
 20
-23.0419853567
 30
0.0
 10
8.3720390114
 20
-23.0581165489
 30
0.0
 10
8.3939789676
 20
-23.0714490559
 30
0.0
 10
8.4174559268
 20
-23.0818889175
 30
0.0
 10
8.4423063207
 20
-23.0893657095
 30
0.0
 10
8.4683581609
 20
-23.0938333835
 30
0.0
 10
8.495434402
 20
-23.0952692111
 30
0.0
 10
8.5233550443
 20
-23.0936720198
 30
0.0
 10
8.5519386809
 20
-23.0890597347
 30
0.0
 10
8.580996423
 20
-23.081470754
 30
0.0
 10
8.6001979684
 20
-23.0745930179
 30
0.0
 10
8.6098174698
 20
-23.0707045539
 30
0.0
 11
8.2671584714
 21
-22.8626230807
 31
0.0
 11
8.2727170422
 21
-22.8942495751
 31
0.0
 11
8.2805845176
 21
-22.9241671202
 31
0.0
 11
8.2907091674
 21
-22.9521753787
 31
0.0
 11
8.3030253351
 21
-22.9780923115
 31
0.0
 11
8.3174534374
 21
-23.001750266
 31
0.0
 11
8.3339000778
 21
-23.0229958186
 31
0.0
 11
8.3522587794
 21
-23.0416911979
 31
0.0
 11
8.3724106197
 21
-23.0577151161
 31
0.0
 11
8.3942251926
 21
-23.0709636995
 31
0.0
 11
8.4175610858
 21
-23.081350906
 31
0.0
 11
8.4422672539
 21
-23.0888093604
 31
0.0
 11
8.4681835822
 21
-23.0932905836
 31
0.0
 11
8.4951420949
 21
-23.0947654203
 31
0.0
 11
8.5229679832
 21
-23.0932242433
 31
0.0
 11
8.5514812077
 21
-23.0886769186
 31
0.0
 11
8.5804964151
 21
-23.0811530176
 31
0.0
 11
8.6098174698
 21
-23.0707045539
 31
0.0
  0
SPLINE
  5
368
100
AcDbEntity
  8
0
100
AcDbSpline
 62
253
  6
CONTINUOUS
 70
0
 71
3
 72
17
 73
13
 74
11
 42
0.0000001
 43
0.0000001
 44
0.0000000001
 12
0.067445826
 22
-0.505778278
 32
0.0
 13
0.4566914101
 23
-0.2283664154
 33
0.0
 40
0.0
 40
0.0
 40
0.0
 40
0.0
 40
0.1256435706
 40
0.2465078752
 40
0.3626962374
 40
0.4744474142
 40
0.5821550421
 40
0.6863671934
 40
0.7877835026
 40
0.887237492
 40
0.98566527
 40
1.0
 40
1.0
 40
1.0
 40
1.0
 10
7.5765588946
 20
-22.9191553108
 30
0.0
 10
7.5793836061
 20
-22.9403379071
 30
0.0
 10
7.5864791805
 20
-22.9817122294
 30
0.0
 10
7.6018711659
 20
-23.0415245794
 30
0.0
 10
7.6217185386
 20
-23.0975226798
 30
0.0
 10
7.6459044208
 20
-23.1493394079
 30
0.0
 10
7.6742859365
 20
-23.196635144
 30
0.0
 10
7.7066924578
 20
-23.2390922326
 30
0.0
 10
7.7429233037
 20
-23.2764179205
 30
0.0
 10
7.782745306
 20
-23.3083479721
 30
0.0
 10
7.8136502611
 20
-23.3271896712
 30
0.0
 10
7.8307351036
 20
-23.335935367
 30
0.0
 10
7.8329172863
 20
-23.3370265573
 30
0.0
 11
7.5765588946
 21
-22.9191553108
 31
0.0
 11
7.5874911031
 21
-22.982326659
 31
0.0
 11
7.6029609078
 21
-23.0420265734
 31
0.0
 11
7.6228686479
 21
-23.0978699364
 31
0.0
 11
7.6470851507
 21
-23.1494938553
 31
0.0
 11
7.6754539642
 21
-23.1965644023
 31
0.0
 11
7.7077914417
 21
-23.2387763512
 31
0.0
 11
7.7438882348
 21
-23.2758559962
 31
0.0
 11
7.7835105575
 21
-23.3075628299
 31
0.0
 11
7.8264020634
 21
-23.3336913473
 31
0.0
 11
7.8329172863
 21
-23.3370265573
 31
0.0
  0
SPLINE
  5
369
100
AcDbEntity
  8
0
100
AcDbSpline
 62
253
  6
CONTINUOUS
 70
0
 71
3
 72
23
 73
19
 74
17
 42
0.0000001
 43
0.0000001
 44
0.0000000001
 12
-0.6046759295
 22
-0.3899802186
 32
0.0
 13
-0.6449849906
 23
0.3189230512
 33
0.0
 40
0.0
 40
0.0
 40
0.0
 40
0.0
 40
0.0585684745
 40
0.119304633
 40
0.1819257049
 40
0.2461072518
 40
0.3114924432
 40
0.3777006155
 40
0.4443353353
 40
0.510992154
 40
0.5772662104
 40
0.6427598264
 40
0.707090237
 40
0.7698976121
 40
0.8308535514
 40
0.8896702699
 40
0.9461107309
 40
1.0
 40
1.0
 40
1.0
 40
1.0
 10
8.2671584714
 20
-22.8626230807
 30
0.0
 10
8.2553534891
 20
-22.8702365962
 30
0.0
 10
8.2307029613
 20
-22.8848256742
 30
0.0
 10
8.1916706236
 20
-22.9043970233
 30
0.0
 10
8.1502076828
 20
-22.9219112115
 30
0.0
 10
8.1066954627
 20
-22.9372071044
 30
0.0
 10
8.0615307585
 20
-22.9501456997
 30
0.0
 10
8.0151268815
 20
-22.9606086167
 30
0.0
 10
7.9679084511
 20
-22.9685001727
 30
0.0
 10
7.9203077534
 20
-22.9737481191
 30
0.0
 10
7.8727605608
 20
-22.9763044103
 30
0.0
 10
7.8257020253
 20
-22.9761456186
 30
0.0
 10
7.7795625912
 20
-22.9732731218
 30
0.0
 10
7.7347637663
 20
-22.9677129027
 30
0.0
 10
7.6917146721
 20
-22.9595153846
 30
0.0
 10
7.6508062803
 20
-22.9487537141
 30
0.0
 10
7.6124146227
 20
-22.9355259925
 30
0.0
 10
7.5881448345
 20
-22.9248841428
 30
0.0
 10
7.5765589112
 20
-22.9191552995
 30
0.0
 11
8.2671584714
 21
-22.8626230807
 31
0.0
 11
8.2309227648
 21
-22.884137787
 31
0.0
 11
8.1918794915
 21
-22.9037699347
 31
0.0
 11
8.1503883292
 21
-22.9213386669
 31
0.0
 11
8.1068315061
 21
-22.9366821356
 31
0.0
 11
8.0616102798
 21
-22.9496589924
 31
0.0
 11
8.0151412411
 21
-22.9601496908
 31
0.0
 11
7.9678524758
 21
-22.9680575876
 31
0.0
 11
7.9201796212
 21
-22.9733098331
 31
0.0
 11
7.8725618532
 21
-22.9758580419
 31
0.0
 11
7.82543784
 21
-22.9756787395
 31
0.0
 11
7.7792417012
 21
-22.9727735774
 31
0.0
 11
7.7343990087
 21
-22.9671693189
 31
0.0
 11
7.6913228659
 21
-22.9589175921
 31
0.0
 11
7.6504101025
 21
-22.948094414
 31
0.0
 11
7.6120376182
 21
-22.934799491
 31
0.0
 11
7.5765589112
 21
-22.9191552995
 31
0.0
  0
SPLINE
  5
36A
100
AcDbEntity
  8
0
100
AcDbSpline
 62
253
  6
CONTINUOUS
 70
0
 71
3
 72
14
 73
10
 74
8
 42
0.0000001
 43
0.0000001
 44
0.0000000001
 12
0.158239717
 22
-9.7804105383
 32
0.0
 13
1.3132407354
 23
-9.6931351418
 33
0.0
 40
0.0
 40
0.0
 40
0.0
 40
0.0
 40
0.1462535848
 40
0.2913922093
 40
0.4354041483
 40
0.5782791196
 40
0.7200082118
 40
0.8605838961
 40
1.0
 40
1.0
 40
1.0
 40
1.0
 10
7.5466862262
 20
-13.1131130716
 30
0.0
 10
7.5544006015
 20
-13.5899197723
 30
0.0
 10
7.5773486311
 20
-14.5397940923
 30
0.0
 10
7.6347076118
 20
-15.958358326
 30
0.0
 10
7.7148533729
 20
-17.3647891829
 30
0.0
 10
7.8177581662
 20
-18.7585914059
 30
0.0
 10
7.9433867174
 20
-20.1392825551
 30
0.0
 10
8.0916948014
 20
-21.5063755265
 30
0.0
 10
8.2061295024
 20
-22.4121633687
 30
0.0
 10
8.2671584714
 20
-22.8626230807
 30
0.0
 11
7.5466862262
 21
-13.1131130716
 31
0.0
 11
7.5813258324
 21
-14.5433009511
 31
0.0
 11
7.6387736079
 21
-15.961839284
 31
0.0
 11
7.7190095633
 21
-17.3682326012
 31
0.0
 11
7.8220058006
 21
-18.7619909213
 31
0.0
 11
7.9477265136
 21
-20.1426288044
 31
0.0
 11
8.0961279792
 21
-21.5096652263
 31
0.0
 11
8.2671584714
 21
-22.8626230807
 31
0.0
  0
SPLINE
  5
36B
100
AcDbEntity
  8
0
100
AcDbSpline
 62
253
  6
CONTINUOUS
 70
0
 71
3
 72
13
 73
9
 74
7
 42
0.0000001
 43
0.0000001
 44
0.0000000001
 12
0.3372918096
 22
-7.0217132762
 32
0.0
 13
0.9436153181
 23
-6.9661166279
 33
0.0
 40
0.0
 40
0.0
 40
0.0
 40
0.0
 40
0.0084928324
 40
0.209999854
 40
0.4099155935
 40
0.6082275623
 40
0.8049252062
 40
1.0
 40
1.0
 40
1.0
 40
1.0
 10
6.9418967741
 20
-15.9202463303
 30
0.0
 10
6.9428516283
 20
-15.9401244083
 30
0.0
 10
6.9666322049
 20
-16.4316358608
 30
0.0
 10
7.021272341
 20
-17.3906582918
 30
0.0
 10
7.1247325724
 20
-18.7922370136
 30
0.0
 10
7.2510392112
 20
-20.1806292794
 30
0.0
 10
7.400147836
 20
-21.5553455746
 30
0.0
 10
7.5152003734
 20
-22.466184056
 30
0.0
 10
7.5765588946
 20
-22.9191553108
 30
0.0
 11
6.9418967741
 21
-15.9202463303
 31
0.0
 11
6.9447819889
 21
-15.9798795727
 31
0.0
 11
7.025451055
 21
-17.3941219398
 31
0.0
 11
7.129003254
 21
-18.795656583
 31
0.0
 11
7.2554025866
 21
-20.1839953548
 31
0.0
 11
7.4046050943
 21
-21.558654549
 31
0.0
 11
7.5765588946
 21
-22.9191553108
 31
0.0
  0
SPLINE
  5
36C
100
AcDbEntity
  8
0
100
AcDbSpline
 62
253
  6
CONTINUOUS
 70
0
 71
3
 72
23
 73
19
 74
17
 42
0.0000001
 43
0.0000001
 44
0.0000000001
 12
-0.6423463248
 22
-0.3139621741
 32
0.0
 13
-0.6396924869
 23
0.3193345735
 33
0.0
 40
0.0
 40
0.0
 40
0.0
 40
0.0
 40
0.0560459375
 40
0.1147633706
 40
0.1758533728
 40
0.2389680004
 40
0.3037206074
 40
0.3696950256
 40
0.4364539816
 40
0.5035470266
 40
0.5705181849
 40
0.6369134918
 40
0.7022885703
 40
0.7662164078
 40
0.8282955157
 40
0.8881587155
 40
0.9454828706
 40
1.0
 40
1.0
 40
1.0
 40
1.0
 10
7.5466862262
 20
-13.1131130716
 30
0.0
 10
7.5346859256
 20
-13.1189785064
 30
0.0
 10
7.5096519654
 20
-13.1300618481
 30
0.0
 10
7.4702591522
 20
-13.1444446523
 30
0.0
 10
7.4284458982
 20
-13.1568699118
 30
0.0
 10
7.384595908
 20
-13.167223133
 30
0.0
 10
7.3391085556
 20
-13.1754100459
 30
0.0
 10
7.2923998684
 20
-13.1813554938
 30
0.0
 10
7.244897186
 20
-13.1850049226
 30
0.0
 10
7.1970354628
 20
-13.1863247998
 30
0.0
 10
7.1492530305
 20
-13.1853030189
 30
0.0
 10
7.1019874557
 20
-13.1819490036
 30
0.0
 10
7.0556714078
 20
-13.1762936153
 30
0.0
 10
7.0107284215
 20
-13.1683887472
 30
0.0
 10
6.9675692678
 20
-13.1583069272
 30
0.0
 10
6.9265865035
 20
-13.1461397176
 30
0.0
 10
6.8881560065
 20
-13.1319990695
 30
0.0
 10
6.8638222107
 20
-13.1210497397
 30
0.0
 10
6.852197478
 20
-13.1152466716
 30
0.0
 11
7.5466862262
 21
-13.1131130716
 31
0.0
 11
7.510073939
 21
-13.1293991175
 31
0.0
 11
7.470658955
 21
-13.1438516892
 31
0.0
 11
7.4288041948
 21
-13.1563377121
 31
0.0
 11
7.3848950436
 21
-13.166742219
 31
0.0
 11
7.3393358027
 21
-13.1749694083
 31
0.0
 11
7.292545967
 21
-13.180943527
 31
0.0
 11
7.2449563622
 21
-13.184609567
 31
0.0
 11
7.1970051782
 21
-13.1859337728
 31
0.0
 11
7.1491339341
 21
-13.1849039515
 31
0.0
 11
7.1017834128
 21
-13.1815295854
 31
0.0
 11
7.0553896029
 21
-13.1758417445
 31
0.0
 11
7.0103796835
 21
-13.1678928006
 31
0.0
 11
6.9671680916
 21
-13.157755945
 31
0.0
 11
6.9261527056
 21
-13.1455245148
 31
0.0
 11
6.887711182
 21
-13.1313111329
 31
0.0
 11
6.852197478
 21
-13.1152466716
 31
0.0
  0
SPLINE
  5
36D
100
AcDbEntity
  8
0
100
AcDbSpline
 62
253
  6
CONTINUOUS
 70
0
 71
3
 72
24
 73
20
 74
18
 42
0.0000001
 43
0.0000001
 44
0.0000000001
 12
-0.6460862046
 22
-0.304878012
 32
0.0
 13
-0.6389911945
 23
0.3194812035
 33
0.0
 40
0.0
 40
0.0
 40
0.0
 40
0.0
 40
0.0524130601
 40
0.1072526005
 40
0.1642769652
 40
0.2231970448
 40
0.2836937504
 40
0.3454234336
 40
0.4080221722
 40
0.471113914
 40
0.5343150546
 40
0.5972413851
 40
0.659511693
 40
0.720754763
 40
0.7806140493
 40
0.83875596
 40
0.8948743246
 40
0.9486963408
 40
1.0
 40
1.0
 40
1.0
 40
1.0
 10
7.4808159734
 20
-5.2672933553
 30
0.0
 10
7.4695281884
 20
-5.2726198851
 30
0.0
 10
7.4460377177
 20
-5.2827025393
 30
0.0
 10
7.4091708454
 20
-5.2958533085
 30
0.0
 10
7.3701200792
 20
-5.3072905617
 30
0.0
 10
7.3292022718
 20
-5.3169210143
 30
0.0
 10
7.2867480337
 20
-5.3246668885
 30
0.0
 10
7.2431014506
 20
-5.3304651442
 30
0.0
 10
7.1986164076
 20
-5.3342686087
 30
0.0
 10
7.1536541529
 20
-5.336046273
 30
0.0
 10
7.1085796029
 20
-5.3357836698
 30
0.0
 10
7.0637587113
 20
-5.3334829494
 30
0.0
 10
7.0195552016
 20
-5.3291628579
 30
0.0
 10
6.9763279423
 20
-5.3228586199
 30
0.0
 10
6.9344272583
 20
-5.3146215088
 30
0.0
 10
6.8941925623
 20
-5.3045185026
 30
0.0
 10
6.8559485868
 20
-5.2926310701
 30
0.0
 10
6.8200055488
 20
-5.2790560183
 30
0.0
 10
6.7971921509
 20
-5.2686902808
 30
0.0
 10
6.7862646221
 20
-5.2632267625
 30
0.0
 11
7.4808159734
 21
-5.2672933553
 31
0.0
 11
7.4464308791
 21
-5.2821169642
 31
0.0
 11
7.4095472556
 21
-5.2953266735
 31
0.0
 11
7.370462386
 21
-5.3068161889
 31
0.0
 11
7.3294964478
 21
-5.3164912989
 31
0.0
 11
7.2869835044
 21
-5.3242731515
 31
0.0
 11
7.2432697794
 21
-5.3300983562
 31
0.0
 11
7.1987123053
 21
-5.3339193164
 31
0.0
 11
7.1536744769
 21
-5.3357048793
 31
0.0
 11
7.1085238862
 21
-5.3354404919
 31
0.0
 11
7.0636283484
 21
-5.3331283111
 31
0.0
 11
7.0193542937
 21
-5.3287871947
 31
0.0
 11
6.9760627952
 21
-5.3224525429
 31
0.0
 11
6.934107419
 21
-5.314176118
 31
0.0
 11
6.8938298186
 21
-5.3040253351
 31
0.0
 11
6.85555845
 21
-5.2920829379
 31
0.0
 11
6.8196067607
 21
-5.2784468168
 31
0.0
 11
6.7862646221
 21
-5.2632267625
 31
0.0
  0
LINE
  5
36E
100
AcDbEntity
  8
DRAFT
100
AcDbLine
 62
7
  6
CONTINUOUS
 10
1.7888245263
 20
5.8709224759
 11
1.747118818
 21
5.8458103776
  0
LINE
  5
36F
100
AcDbEntity
  8
DRAFT
100
AcDbLine
 62
7
  6
CONTINUOUS
 10
-2.5504504839
 20
7.9736861986
 11
-2.6500372503
 21
7.9187601644
  0
LINE
  5
370
100
AcDbEntity
  8
DRAFT
100
AcDbLine
 62
7
  6
CONTINUOUS
 10
-2.5005010351
 20
8.0155852566
 11
-2.5504504839
 21
7.9736861986
  0
SPLINE
  5
371
100
AcDbEntity
  8
DRAFT
100
AcDbSpline
 62
7
  6
CONTINUOUS
 70
0
 71
3
 72
19
 73
15
 74
13
 42
0.0000001
 43
0.0000001
 44
0.0000000001
 12
0.2134052879
 22
0.1448554136
 32
0.0
 13
0.1766203206
 23
-0.1875779975
 33
0.0
 40
0.0
 40
0.0
 40
0.0
 40
0.0
 40
0.0255456224
 40
0.087459333
 40
0.146482916
 40
0.2059520803
 40
0.2683010138
 40
0.3357205993
 40
0.4111603537
 40
0.4976936203
 40
0.5975065711
 40
0.7125053639
 40
0.8458079428
 40
1.0
 40
1.0
 40
1.0
 40
1.0
 10
1.9440218184
 20
6.8737598898
 30
0.0
 10
1.9458390087
 20
6.8749933637
 30
0.0
 10
1.9521951168
 20
6.8790166795
 30
0.0
 10
1.9636132914
 20
6.884464074
 30
0.0
 10
1.9786920837
 20
6.8884112195
 30
0.0
 10
1.9942764862
 20
6.8894510481
 30
0.0
 10
2.0105041719
 20
6.8876488728
 30
0.0
 10
2.0275632026
 20
6.8829892414
 30
0.0
 10
2.0457565373
 20
6.8753069909
 30
0.0
 10
2.0653975269
 20
6.8642871892
 30
0.0
 10
2.0867205367
 20
6.8495674368
 30
0.0
 10
2.1099727557
 20
6.8307378016
 30
0.0
 10
2.1354268425
 20
6.807324231
 30
0.0
 10
2.1527136908
 20
6.7896804162
 30
0.0
 10
2.1617915076
 20
6.7800394038
 30
0.0
 11
1.9440218184
 21
6.8737598898
 31
0.0
 11
1.9495914163
 21
6.8772779025
 31
0.0
 11
1.9640171361
 21
6.8840863161
 31
0.0
 11
1.9787311278
 21
6.8879272577
 31
0.0
 11
1.9940160033
 21
6.8889910809
 31
0.0
 11
2.009990785
 21
6.8873022331
 31
0.0
 11
2.0267749595
 21
6.8828282779
 31
0.0
 11
2.0447261762
 21
6.8753761523
 31
0.0
 11
2.0642297136
 21
6.8645748701
 31
0.0
 11
2.0854621192
 21
6.8500660305
 31
0.0
 11
2.1085608814
 21
6.8315105066
 31
0.0
 11
2.1339134413
 21
6.8083416358
 31
0.0
 11
2.1617915076
 21
6.7800394038
 31
0.0
  0
SPLINE
  5
372
100
AcDbEntity
  8
DRAFT
100
AcDbSpline
 62
7
  6
CONTINUOUS
 70
0
 71
3
 72
22
 73
18
 74
16
 42
0.0000001
 43
0.0000001
 44
0.0000000001
 12
0.1377948007
 22
0.0934855437
 32
0.0
 13
0.0397617408
 23
-0.1615161205
 33
0.0
 40
0.0
 40
0.0
 40
0.0
 40
0.0
 40
0.0536180702
 40
0.1083599743
 40
0.1584833005
 40
0.2061181871
 40
0.2539306567
 40
0.304728872
 40
0.3599783463
 40
0.4192464187
 40
0.4820906271
 40
0.5499570639
 40
0.6251489293
 40
0.7089731365
 40
0.8017354058
 40
0.9007894833
 40
1.0
 40
1.0
 40
1.0
 40
1.0
 10
1.7258130888
 20
9.864306915
 30
0.0
 10
1.7282758526
 20
9.8659777531
 30
0.0
 10
1.7334694817
 20
9.8690395748
 30
0.0
 10
1.7416999378
 20
9.8722528754
 30
0.0
 10
1.7500679282
 20
9.8737970283
 30
0.0
 10
1.7581910736
 20
9.8736663294
 30
0.0
 10
1.7661650537
 20
9.8719391851
 30
0.0
 10
1.7740600843
 20
9.8685859485
 30
0.0
 10
1.7817912286
 20
9.8635875812
 30
0.0
 10
1.789187095
 20
9.8570599033
 30
0.0
 10
1.7961729689
 20
9.8491463531
 30
0.0
 10
1.8028070723
 20
9.8398338198
 30
0.0
 10
1.8091646086
 20
9.8289616303
 30
0.0
 10
1.8152410808
 20
9.8163789643
 30
0.0
 10
1.8209056767
 20
9.8021720534
 30
0.0
 10
1.8259422736
 20
9.7868325893
 30
0.0
 10
1.8288125294
 20
9.7762156784
 30
0.0
 10
1.830127457
 20
9.7708743124
 30
0.0
 11
1.7258130888
 21
9.864306915
 31
0.0
 11
1.7335218268
 21
9.868796084
 31
0.0
 11
1.74202379
 21
9.872056475
 31
0.0
 11
1.7502283757
 21
9.8735389275
 31
0.0
 11
1.7581507944
 21
9.8734070752
 31
0.0
 11
1.7659278054
 21
9.8717429896
 31
0.0
 11
1.7737210321
 21
9.8684775592
 31
0.0
 11
1.7814682434
 21
9.8635339846
 31
0.0
 11
1.7888962285
 21
9.8570519869
 31
0.0
 11
1.7958507471
 21
9.8492475979
 31
0.0
 11
1.8024358807
 21
9.8400784616
 31
0.0
 11
1.8087845151
 21
9.8293022165
 31
0.0
 11
1.8148827758
 21
9.8167633227
 31
0.0
 11
1.8206308343
 21
9.8024440075
 31
0.0
 11
1.825799545
 21
9.7867992089
 31
0.0
 11
1.830127457
 21
9.7708743124
 31
0.0
  0
SPLINE
  5
373
100
AcDbEntity
  8
DRAFT
100
AcDbSpline
 62
7
  6
CONTINUOUS
 70
0
 71
3
 72
24
 73
20
 74
18
 42
0.0000001
 43
0.0000001
 44
0.0000000001
 12
0.3544391778
 22
0.2405214097
 32
0.0
 13
0.1414290308
 23
-0.4038154215
 33
0.0
 40
0.0
 40
0.0
 40
0.0
 40
0.0
 40
0.0277873145
 40
0.0749570625
 40
0.1226251208
 40
0.1712169136
 40
0.2211003453
 40
0.2731001119
 40
0.3278997269
 40
0.3854015997
 40
0.4453031814
 40
0.5078831392
 40
0.5733937488
 40
0.6412356863
 40
0.7106194461
 40
0.7814960592
 40
0.8539195018
 40
0.9270911317
 40
1.0
 40
1.0
 40
1.0
 40
1.0
 10
-2.4952413875
 20
12.4634361814
 30
0.0
 10
-2.4919584165
 20
12.4656639961
 30
0.0
 10
-2.4828206453
 20
12.4712578066
 30
0.0
 10
-2.4667657602
 20
12.4783958716
 30
0.0
 10
-2.4468603724
 20
12.4835040771
 30
0.0
 10
-2.4260101583
 20
12.4853443063
 30
0.0
 10
-2.4045176052
 20
12.4839290721
 30
0.0
 10
-2.3825844501
 20
12.4793058942
 30
0.0
 10
-2.3604195136
 20
12.4715177701
 30
0.0
 10
-2.3383262123
 20
12.4606717977
 30
0.0
 10
-2.3165883159
 20
12.4469359785
 30
0.0
 10
-2.2953936573
 20
12.4304511787
 30
0.0
 10
-2.2749405642
 20
12.4113588352
 30
0.0
 10
-2.2555078574
 20
12.3899051569
 30
0.0
 10
-2.2373505745
 20
12.3663909679
 30
0.0
 10
-2.2206318283
 20
12.3410489115
 30
0.0
 10
-2.2055105728
 20
12.3141016793
 30
0.0
 10
-2.1921972911
 20
12.2858984274
 30
0.0
 10
-2.1846243826
 20
12.2664680498
 30
0.0
 10
-2.1811872391
 20
12.2566541413
 30
0.0
 11
-2.4952413875
 21
12.4634361814
 31
0.0
 11
-2.4850905812
 21
12.4696422506
 31
0.0
 11
-2.4666467157
 21
12.4778367472
 31
0.0
 11
-2.4468967903
 21
12.4829277189
 31
0.0
 11
-2.4261905583
 21
12.4848006136
 31
0.0
 11
-2.4048894174
 21
12.4834580252
 31
0.0
 11
-2.383105007
 21
12.4789354407
 31
0.0
 11
-2.3609607152
 21
12.4712291872
 31
0.0
 11
-2.3388458985
 21
12.4604474244
 31
0.0
 11
-2.3171471939
 21
12.4468072431
 31
0.0
 11
-2.2959794751
 21
12.4304099228
 31
0.0
 11
-2.2754586499
 21
12.4113164095
 31
0.0
 11
-2.255944101
 21
12.3898277387
 31
0.0
 11
-2.2377774879
 21
12.3663482141
 31
0.0
 11
-2.2210603419
 21
12.3410463677
 31
0.0
 11
-2.2058843296
 21
12.3140294418
 31
0.0
 11
-2.1925143932
 21
12.2857202105
 31
0.0
 11
-2.1811872391
 21
12.2566541413
 31
0.0
  0
LINE
  5
374
100
AcDbEntity
  8
DRAFT
100
AcDbLine
 62
7
  6
CONTINUOUS
 10
0.2285755776
 20
10.0918002988
 11
0.4909586641
 21
10.075280548
  0
LINE
  5
375
100
AcDbEntity
  8
DRAFT
100
AcDbLine
 62
7
  6
CONTINUOUS
 10
-0.0176974936
 20
10.0469613569
 11
0.2285755776
 21
10.0918002988
  0
LINE
  5
376
100
AcDbEntity
  8
DRAFT
100
AcDbLine
 62
7
  6
CONTINUOUS
 10
-0.2404678904
 20
9.9412576841
 11
-0.0176974936
 21
10.0469613569
  0
LINE
  5
377
100
AcDbEntity
  8
DRAFT
100
AcDbLine
 62
7
  6
CONTINUOUS
 10
-2.4616150301
 20
8.0481982323
 11
-2.5005010351
 21
8.0155852566
  0
LINE
  5
378
100
AcDbEntity
  8
DRAFT
100
AcDbLine
 62
7
  6
CONTINUOUS
 10
-2.386165415
 20
8.1432365774
 11
-2.4616150301
 21
8.0481982323
  0
LINE
  5
379
100
AcDbEntity
  8
DRAFT
100
AcDbLine
 62
7
  6
CONTINUOUS
 10
-2.3280088958
 20
8.2600170241
 11
-2.386165415
 21
8.1432365774
  0
SPLINE
  5
37A
100
AcDbEntity
  8
DRAFT
100
AcDbSpline
 62
7
  6
CONTINUOUS
 70
0
 71
3
 72
16
 73
12
 74
10
 42
0.0000001
 43
0.0000001
 44
0.0000000001
 12
-0.0042006042
 22
-0.1280697495
 32
0.0
 13
-0.121403965
 23
-0.041687108
 33
0.0
 40
0.0
 40
0.0
 40
0.0
 40
0.0
 40
0.1893759118
 40
0.3534432063
 40
0.4948925359
 40
0.6179291325
 40
0.7260701791
 40
0.8218203668
 40
0.9089994645
 40
0.9921724627
 40
1.0
 40
1.0
 40
1.0
 40
1.0
 10
-1.5051204433
 20
9.2582100099
 30
0.0
 10
-1.5053856077
 20
9.2501255681
 30
0.0
 10
-1.5064652808
 20
9.2350443114
 30
0.0
 10
-1.5099785986
 20
9.2141641837
 30
0.0
 10
-1.5149816731
 20
9.1965127039
 30
0.0
 10
-1.5212388779
 20
9.1818252021
 30
0.0
 10
-1.5285638687
 20
9.1698686382
 30
0.0
 10
-1.5367911766
 20
9.1604596857
 30
0.0
 10
-1.5458050686
 20
9.1534162147
 30
0.0
 10
-1.5526817477
 20
9.1500263299
 30
0.0
 10
-1.5563515819
 20
9.1487247754
 30
0.0
 10
-1.5566683466
 20
9.1486160062
 30
0.0
 11
-1.5051204433
 21
9.2582100099
 31
0.0
 11
-1.5069529721
 21
9.2340129365
 31
0.0
 11
-1.5105422716
 21
9.2132982484
 31
0.0
 11
-1.5155837828
 21
9.1958883922
 31
0.0
 11
-1.5218565826
 21
9.1814242834
 31
0.0
 11
-1.5291776115
 21
9.1696590742
 31
0.0
 11
-1.5373145118
 21
9.1604761308
 31
0.0
 11
-1.5461513645
 21
9.1536422857
 31
0.0
 11
-1.5557214173
 21
9.148951865
 31
0.0
 11
-1.5566683466
 21
9.1486160062
 31
0.0
  0
LINE
  5
37B
100
AcDbEntity
  8
DRAFT
100
AcDbLine
 62
7
  6
CONTINUOUS
 10
-1.4957025354
 20
10.3390599986
 11
-1.4703512642
 21
10.1874969714
  0
LINE
  5
37C
100
AcDbEntity
  8
DRAFT
100
AcDbLine
 62
7
  6
CONTINUOUS
 10
-3.0754772974
 20
9.3868488541
 11
-2.9114665706
 21
9.3485452401
  0
LINE
  5
37D
100
AcDbEntity
  8
DRAFT
100
AcDbLine
 62
7
  6
CONTINUOUS
 10
-3.2362238425
 20
9.3901861096
 11
-3.0754772974
 21
9.3868488541
  0
LINE
  5
37E
100
AcDbEntity
  8
DRAFT
100
AcDbLine
 62
7
  6
CONTINUOUS
 10
-3.386734272
 20
9.3597200468
 11
-3.2362238425
 21
9.3901861096
  0
LINE
  5
37F
100
AcDbEntity
  8
DRAFT
100
AcDbLine
 62
7
  6
CONTINUOUS
 10
-3.5236692441
 20
9.2962783013
 11
-3.386734272
 21
9.3597200468
  0
LINE
  5
380
100
AcDbEntity
  8
DRAFT
100
AcDbLine
 62
7
  6
CONTINUOUS
 10
1.9524437917
 20
5.9694243007
 11
1.7888245263
 21
5.8709224759
  0
LINE
  5
381
100
AcDbEntity
  8
DRAFT
100
AcDbLine
 62
7
  6
CONTINUOUS
 10
2.1253954838
 20
6.1490598189
 11
1.9524437917
 21
5.9694243007
  0
SPLINE
  5
382
100
AcDbEntity
  8
DRAFT
100
AcDbSpline
 62
7
  6
CONTINUOUS
 70
0
 71
3
 72
23
 73
19
 74
17
 42
0.0000001
 43
0.0000001
 44
0.0000000001
 12
0.3048481976
 22
-0.3237612422
 32
0.0
 13
-0.1859584326
 23
-0.4039470598
 33
0.0
 40
0.0
 40
0.0
 40
0.0
 40
0.0
 40
0.0915745117
 40
0.1738934033
 40
0.2480662318
 40
0.3157485449
 40
0.3777179739
 40
0.4348009279
 40
0.4885088335
 40
0.5403530515
 40
0.5910960206
 40
0.641453333
 40
0.6927769387
 40
0.7463857723
 40
0.8030038076
 40
0.8632987616
 40
0.928614077
 40
1.0
 40
1.0
 40
1.0
 40
1.0
 10
2.1617915076
 20
6.7800394038
 30
0.0
 10
2.1710969492
 20
6.7701566446
 30
0.0
 10
2.188385007
 20
6.7510228059
 30
0.0
 10
2.2116826823
 20
6.7225534403
 30
0.0
 10
2.2313097321
 20
6.6957170627
 30
0.0
 10
2.2476672486
 20
6.6702915154
 30
0.0
 10
2.2611080518
 20
6.6460698226
 30
0.0
 10
2.2719531532
 20
6.6228469442
 30
0.0
 10
2.2805219734
 20
6.6002888613
 30
0.0
 10
2.2870379583
 20
6.5780302022
 30
0.0
 10
2.2916006221
 20
6.5557956146
 30
0.0
 10
2.2942392834
 20
6.5333278561
 30
0.0
 10
2.2949109365
 20
6.5102887486
 30
0.0
 10
2.2934659468
 20
6.486353239
 30
0.0
 10
2.2896877466
 20
6.4613269881
 30
0.0
 10
2.2833355607
 20
6.4350385945
 30
0.0
 10
2.2741346396
 20
6.4072929705
 30
0.0
 10
2.2662771605
 20
6.3885913536
 30
0.0
 10
2.2618522224
 20
6.3789793091
 30
0.0
 11
2.1617915076
 21
6.7800394038
 31
0.0
 11
2.189039925
 21
6.7497761371
 31
0.0
 11
2.2121721454
 21
6.7214043381
 31
0.0
 11
2.2315948836
 21
6.6947449863
 31
0.0
 11
2.2478333548
 21
6.6694032935
 31
0.0
 11
2.2611629261
 21
6.6452840369
 31
0.0
 11
2.271868325
 21
6.6222673497
 31
0.0
 11
2.2803196355
 21
6.5999289562
 31
0.0
 11
2.2867731825
 21
6.5777957495
 31
0.0
 11
2.2912932436
 21
6.5556879428
 31
0.0
 11
2.2938986884
 21
6.5334463757
 31
0.0
 11
2.2945679448
 21
6.5106328323
 31
0.0
 11
2.2931483858
 21
6.4868355469
 31
0.0
 11
2.289420951
 21
6.461935224
 31
0.0
 11
2.28316766
 21
6.4358617412
 31
0.0
 11
2.2740819727
 21
6.4082739589
 31
0.0
 11
2.2618522224
 21
6.3789793091
 31
0.0
  0
LINE
  5
383
100
AcDbEntity
  8
DRAFT
100
AcDbLine
 62
7
  6
CONTINUOUS
 10
1.1524755207
 20
6.3387005456
 11
1.5080985848
 21
6.3958325381
  0
SPLINE
  5
384
100
AcDbEntity
  8
DRAFT
100
AcDbSpline
 62
7
  6
CONTINUOUS
 70
0
 71
3
 72
15
 73
11
 74
9
 42
0.0000001
 43
0.0000001
 44
0.0000000001
 12
0.3679988422
 22
-0.1944567851
 32
0.0
 13
0.4151134441
 23
-0.0302889033
 33
0.0
 40
0.0
 40
0.0
 40
0.0
 40
0.0
 40
0.1346312601
 40
0.2663662539
 40
0.3952981912
 40
0.5214424815
 40
0.6448716613
 40
0.7656857904
 40
0.8840134813
 40
1.0
 40
1.0
 40
1.0
 40
1.0
 10
0.7572715566
 20
6.4597407169
 30
0.0
 10
0.7737862725
 20
6.4510140629
 30
0.0
 10
0.8068350326
 20
6.4344452435
 30
0.0
 10
0.8569378141
 20
6.4120949618
 30
0.0
 10
0.9069431881
 20
6.3925570404
 30
0.0
 10
0.9567580683
 20
6.3758697011
 30
0.0
 10
1.0062817044
 20
6.3620683068
 30
0.0
 10
1.0554185059
 20
6.3511814269
 30
0.0
 10
1.1040690109
 20
6.3432326207
 30
0.0
 10
1.1364263329
 20
6.3398715805
 30
0.0
 10
1.1524755207
 20
6.3387005456
 30
0.0
 11
0.7572715566
 21
6.4597407169
 31
0.0
 11
0.8073763513
 21
6.434650429
 31
0.0
 11
0.8574614702
 21
6.4123379338
 31
0.0
 11
0.90745564
 21
6.3928348109
 31
0.0
 11
0.9572491782
 21
6.3761851761
 31
0.0
 11
1.0067446087
 21
6.3624221591
 31
0.0
 11
1.0558452525
 21
6.3515733182
 31
0.0
 11
1.1044554429
 21
6.343660574
 31
0.0
 11
1.1524755207
 21
6.3387005456
 31
0.0
  0
LINE
  5
385
100
AcDbEntity
  8
DRAFT
100
AcDbLine
 62
7
  6
CONTINUOUS
 10
0.366612564
 20
6.7451534348
 11
0.7572715566
 21
6.4597407169
  0
LINE
  5
386
100
AcDbEntity
  8
DRAFT
100
AcDbLine
 62
7
  6
CONTINUOUS
 10
0.0249796835
 20
7.1630592713
 11
0.366612564
 21
6.7451534348
  0
LINE
  5
387
100
AcDbEntity
  8
DRAFT
100
AcDbLine
 62
7
  6
CONTINUOUS
 10
0.0241941016
 20
9.4032386795
 11
-0.2286255787
 21
9.1212635641
  0
SPLINE
  5
388
100
AcDbEntity
  8
DRAFT
100
AcDbSpline
 62
7
  6
CONTINUOUS
 70
0
 71
3
 72
20
 73
16
 74
14
 42
0.0000001
 43
0.0000001
 44
0.0000000001
 12
0.0591498971
 22
-0.2257625843
 32
0.0
 13
-0.2211287702
 23
-0.0759714902
 33
0.0
 40
0.0
 40
0.0
 40
0.0
 40
0.0
 40
0.1147969591
 40
0.2307831613
 40
0.3419766215
 40
0.4438898088
 40
0.5353380947
 40
0.6170559912
 40
0.6902930935
 40
0.7568876046
 40
0.8180542424
 40
0.874318036
 40
0.9272495118
 40
0.9793128571
 40
1.0
 40
1.0
 40
1.0
 40
1.0
 10
2.313700503
 20
7.8678155674
 30
0.0
 10
2.3159639124
 20
7.8591766147
 30
0.0
 10
2.3201803008
 20
7.8417190136
 30
0.0
 10
2.3252404084
 20
7.8155897665
 30
0.0
 10
2.3287296969
 20
7.7902118017
 30
0.0
 10
2.3304507773
 20
7.7665630388
 30
0.0
 10
2.3304226451
 20
7.7451410403
 30
0.0
 10
2.3287536654
 20
7.7260177333
 30
0.0
 10
2.3255318219
 20
7.7090515915
 30
0.0
 10
2.3207821152
 20
7.6941068504
 30
0.0
 10
2.3144894002
 20
7.6811804374
 30
0.0
 10
2.3066658466
 20
7.6703864922
 30
0.0
 10
2.2973586054
 20
7.6618374547
 30
0.0
 10
2.2888260895
 20
7.6569013122
 30
0.0
 10
2.2835403998
 20
7.6548376727
 30
0.0
 10
2.282015559
 20
7.654313795
 30
0.0
 11
2.313700503
 21
7.8678155674
 31
0.0
 11
2.3199602406
 21
7.8417654907
 31
0.0
 11
2.3250629766
 21
7.815181622
 31
0.0
 11
2.3285408113
 21
7.7894650956
 31
0.0
 11
2.3302008753
 21
7.7657383261
 31
0.0
 11
2.3300994798
 21
7.7443961211
 31
0.0
 11
2.3283614174
 21
7.7254039429
 31
0.0
 11
2.3250866146
 21
7.7086283238
 31
0.0
 11
2.3202871441
 21
7.6938459352
 31
0.0
 11
2.3139480839
 21
7.6810553679
 31
0.0
 11
2.3061709294
 21
7.6704752501
 31
0.0
 11
2.2970370248
 21
7.6621580661
 31
0.0
 11
2.2865184181
 21
7.6560754672
 31
0.0
 11
2.282015559
 21
7.654313795
 31
0.0
  0
LINE
  5
389
100
AcDbEntity
  8
DRAFT
100
AcDbLine
 62
7
  6
CONTINUOUS
 10
1.0328824448
 20
9.8602066868
 11
1.4363587403
 21
9.5413590382
  0
LINE
  5
38A
100
AcDbEntity
  8
DRAFT
100
AcDbLine
 62
7
  6
CONTINUOUS
 10
0.4909586641
 20
10.075280548
 11
0.7615376137
 21
9.9970682805
  0
LINE
  5
38B
100
AcDbEntity
  8
DRAFT
100
AcDbLine
 62
7
  6
CONTINUOUS
 10
-0.5900194043
 20
9.5632971583
 11
-0.4333271135
 21
9.7786513292
  0
LINE
  5
38C
100
AcDbEntity
  8
DRAFT
100
AcDbLine
 62
7
  6
CONTINUOUS
 10
-0.2649076275
 20
6.9138734841
 11
-0.4533665638
 21
7.2467068325
  0
LINE
  5
38D
100
AcDbEntity
  8
DRAFT
100
AcDbLine
 62
7
  6
CONTINUOUS
 10
-0.2468744038
 20
6.8887719409
 11
-0.2649076275
 21
6.9138734841
  0
LINE
  5
38E
100
AcDbEntity
  8
DRAFT
100
AcDbLine
 62
7
  6
CONTINUOUS
 10
-2.8133352674
 20
7.8722976772
 11
-2.9874235795
 21
7.8677193164
  0
LINE
  5
38F
100
AcDbEntity
  8
DRAFT
100
AcDbLine
 62
7
  6
CONTINUOUS
 10
-2.6500372503
 20
7.9187601644
 11
-2.8133352674
 21
7.8722976772
  0
LINE
  5
390
100
AcDbEntity
  8
DRAFT
100
AcDbLine
 62
7
  6
CONTINUOUS
 10
0.1966561835
 20
6.3424959265
 11
-0.0461970694
 21
6.6095200142
  0
SPLINE
  5
391
100
AcDbEntity
  8
0
100
AcDbSpline
 62
253
  6
CONTINUOUS
 70
0
 71
3
 72
21
 73
17
 74
15
 42
0.0000001
 43
0.0000001
 44
0.0000000001
 12
-0.0000362057
 22
-0.0547362603
 32
0.0
 13
0.0493468823
 23
0.0236842712
 33
0.0
 40
0.0
 40
0.0
 40
0.0
 40
0.0
 40
0.0862249992
 40
0.1682021631
 40
0.2458426076
 40
0.3192760216
 40
0.3888823541
 40
0.4553122428
 40
0.519480397
 40
0.5825165966
 40
0.6456680115
 40
0.7101695164
 40
0.7771176343
 40
0.8473811292
 40
0.9215607868
 40
1.0
 40
1.0
 40
1.0
 40
1.0
 10
-3.7976175715
 20
0.8577189069
 30
0.0
 10
-3.7976186121
 20
0.8561456956
 30
0.0
 10
-3.7974832772
 20
0.8530742517
 30
0.0
 10
-3.7968352626
 20
0.848627638
 30
0.0
 10
-3.795753524
 20
0.844505111
 30
0.0
 10
-3.7942490385
 20
0.8407577068
 30
0.0
 10
-3.7923371784
 20
0.8374323849
 30
0.0
 10
-3.7900382292
 20
0.8345730515
 30
0.0
 10
-3.7873786951
 20
0.8322201517
 30
0.0
 10
-3.7843928386
 20
0.8304090125
 30
0.0
 10
-3.781122708
 20
0.829166628
 30
0.0
 10
-3.7776155343
 20
0.8285090085
 30
0.0
 10
-3.7739201294
 20
0.8284411648
 30
0.0
 10
-3.770084475
 20
0.8289593454
 30
0.0
 10
-3.7661562526
 20
0.8300527959
 30
0.0
 10
-3.7635784127
 20
0.831124879
 30
0.0
 10
-3.7622881691
 20
0.8317441376
 30
0.0
 11
-3.7976175715
 21
0.8577189069
 31
0.0
 11
-3.7973989138
 21
0.8530043397
 31
0.0
 11
-3.7967393851
 21
0.8485659496
 31
0.0
 11
-3.7956471772
 21
0.8444589502
 31
0.0
 11
-3.7941358756
 21
0.8407344211
 31
0.0
 11
-3.7922242805
 21
0.837438691
 31
0.0
 11
-3.7899361682
 21
0.8346127498
 31
0.0
 11
-3.7873000003
 21
0.8322917479
 31
0.0
 11
-3.7843485659
 21
0.8305045534
 31
0.0
 11
-3.7811185753
 21
0.8292733956
 31
0.0
 11
-3.777650205
 21
0.8286135883
 31
0.0
 11
-3.7739865934
 21
0.8285333383
 31
0.0
 11
-3.7701733119
 21
0.8290336445
 31
0.0
 11
-3.7662577878
 21
0.830108285
 31
0.0
 11
-3.7622881691
 21
0.8317441376
 31
0.0
  0
LINE
  5
392
100
AcDbEntity
  8
0
100
AcDbLine
 62
253
  6
CONTINUOUS
 10
-3.7972759507
 20
1.2046581743
 11
-3.7976175715
 21
0.8577189069
  0
LINE
  5
393
100
AcDbEntity
  8
DRAFT
100
AcDbLine
 62
7
  6
CONTINUOUS
 10
0.456401893
 20
6.1198886516
 11
0.1966561835
 21
6.3424959265
  0
LINE
  5
394
100
AcDbEntity
  8
DRAFT
100
AcDbLine
 62
7
  6
CONTINUOUS
 10
-1.703381151
 20
9.2862345754
 11
-1.7342238216
 21
9.3684089692
  0
LINE
  5
395
100
AcDbEntity
  8
DRAFT
100
AcDbLine
 62
7
  6
CONTINUOUS
 10
-1.7342238216
 20
9.3684089692
 11
-1.7608919451
 21
9.4395731719
  0
LINE
  5
396
100
AcDbEntity
  8
DRAFT
100
AcDbLine
 62
7
  6
CONTINUOUS
 10
-1.7608919451
 20
9.4395731719
 11
-1.7919864175
 21
9.5226809594
  0
LINE
  5
397
100
AcDbEntity
  8
DRAFT
100
AcDbLine
 62
7
  6
CONTINUOUS
 10
-1.7919864175
 20
9.5226809594
 11
-1.8182448831
 21
9.592974275
  0
LINE
  5
398
100
AcDbEntity
  8
DRAFT
100
AcDbLine
 62
7
  6
CONTINUOUS
 10
-1.8182448831
 20
9.592974275
 11
-1.8495506824
 21
9.6769125393
  0
LINE
  5
399
100
AcDbEntity
  8
DRAFT
100
AcDbLine
 62
7
  6
CONTINUOUS
 10
-1.8495506824
 20
9.6769125393
 11
-1.8754404222
 21
9.7464390775
  0
LINE
  5
39A
100
AcDbEntity
  8
DRAFT
100
AcDbLine
 62
7
  6
CONTINUOUS
 10
-1.8754404222
 20
9.7464390775
 11
-1.9068028643
 21
9.8307964485
  0
LINE
  5
39B
100
AcDbEntity
  8
DRAFT
100
AcDbLine
 62
7
  6
CONTINUOUS
 10
-1.9068028643
 20
9.8307964485
 11
-1.9324784013
 21
9.8999671238
  0
LINE
  5
39C
100
AcDbEntity
  8
DRAFT
100
AcDbLine
 62
7
  6
CONTINUOUS
 10
-1.9324784013
 20
9.8999671238
 11
-1.9640132373
 21
9.98505865
  0
LINE
  5
39D
100
AcDbEntity
  8
DRAFT
100
AcDbLine
 62
7
  6
CONTINUOUS
 10
-1.9640132373
 20
9.98505865
 11
-1.9893588035
 21
10.0535583469
  0
LINE
  5
39E
100
AcDbEntity
  8
DRAFT
100
AcDbLine
 62
7
  6
CONTINUOUS
 10
0.7258533045
 20
5.9486134815
 11
0.456401893
 21
6.1198886516
  0
SPLINE
  5
39F
100
AcDbEntity
  8
DRAFT
100
AcDbSpline
 62
7
  6
CONTINUOUS
 70
0
 71
3
 72
15
 73
11
 74
9
 42
0.0000001
 43
0.0000001
 44
0.0000000001
 12
0.0121436917
 22
0.1718990826
 32
0.0
 13
0.1427278475
 23
0.0968547081
 33
0.0
 40
0.0
 40
0.0
 40
0.0
 40
0.0
 40
0.1336997023
 40
0.286459722
 40
0.4320265171
 40
0.5700055827
 40
0.7017930435
 40
0.8286018716
 40
0.9506813547
 40
1.0
 40
1.0
 40
1.0
 40
1.0
 10
-2.5677710027
 20
12.3133623812
 30
0.0
 10
-2.5672298001
 20
12.3210233332
 30
0.0
 10
-2.5654634592
 20
12.3374013705
 30
0.0
 10
-2.5606509441
 20
12.3617824502
 30
0.0
 10
-2.5532560989
 20
12.3857766597
 30
0.0
 10
-2.5436591464
 20
12.4076759486
 30
0.0
 10
-2.5319468365
 20
12.4272862607
 30
0.0
 10
-2.5182110308
 20
12.4443934483
 30
0.0
 10
-2.5055567022
 20
12.4560367354
 30
0.0
 10
-2.4975877688
 20
12.4618439338
 30
0.0
 10
-2.4952413875
 20
12.4634361814
 30
0.0
 11
-2.5677710027
 21
12.3133623812
 31
0.0
 11
-2.5652706446
 21
12.3362654554
 31
0.0
 11
-2.5601163976
 21
12.3620757384
 31
0.0
 11
-2.5526673124
 21
12.3860245249
 31
0.0
 11
-2.5430625067
 21
12.407771084
 31
0.0
 11
-2.5313599492
 21
12.4272295377
 31
0.0
 11
-2.5176299836
 21
12.4442251296
 31
0.0
 11
-2.5021161801
 21
12.4584287018
 31
0.0
 11
-2.4952413875
 21
12.4634361814
 31
0.0
  0
LINE
  5
3A0
100
AcDbEntity
  8
DRAFT
100
AcDbLine
 62
7
  6
CONTINUOUS
 10
-2.5783226749
 20
12.1262556648
 11
-2.5680886279
 21
12.3085780743
  0
SPLINE
  5
3A1
100
AcDbEntity
  8
DRAFT
100
AcDbSpline
 62
7
  6
CONTINUOUS
 70
0
 71
3
 72
12
 73
8
 74
6
 42
0.0000001
 43
0.0000001
 44
0.0000000001
 12
0.16385957
 22
0.111201435
 32
0.0
 13
0.1237195474
 23
0.1546230008
 33
0.0
 40
0.0
 40
0.0
 40
0.0
 40
0.0
 40
0.0735755578
 40
0.300612056
 40
0.530263183
 40
0.7631839679
 40
1.0
 40
1.0
 40
1.0
 40
1.0
 10
1.6121327045
 20
6.4524032855
 30
0.0
 10
1.6161513909
 20
6.4551305213
 30
0.0
 10
1.6324383403
 20
6.4664685524
 30
0.0
 10
1.6601850043
 20
6.4878425413
 30
0.0
 10
1.6942025409
 20
6.5181314106
 30
0.0
 10
1.7264926203
 20
6.5511626267
 30
0.0
 10
1.7466411328
 20
6.5747503792
 30
0.0
 10
1.7564073903
 20
6.5869561144
 30
0.0
 11
1.6121327045
 21
6.4524032855
 31
0.0
 11
1.6240905647
 21
6.4607272169
 31
0.0
 11
1.6597098746
 21
6.4881450082
 31
0.0
 11
1.6936810007
 21
6.5183648348
 31
0.0
 11
1.7259344362
 21
6.5513235353
 31
0.0
 11
1.7564073903
 21
6.5869561144
 31
0.0
  0
LINE
  5
3A2
100
AcDbEntity
  8
DRAFT
100
AcDbLine
 62
7
  6
CONTINUOUS
 10
1.262803789
 20
5.7765560081
 11
0.997220295
 21
5.8328011251
  0
SPLINE
  5
3A3
100
AcDbEntity
  8
0
100
AcDbSpline
 62
253
  6
CONTINUOUS
 70
0
 71
3
 72
14
 73
10
 74
8
 42
0.0000001
 43
0.0000001
 44
0.0000000001
 12
-0.0000299056
 22
-0.0966765461
 32
0.0
 13
0.0862550155
 23
-0.0431267739
 33
0.0
 40
0.0
 40
0.0
 40
0.0
 40
0.0
 40
0.0669431194
 40
0.194213961
 40
0.329176483
 40
0.475505675
 40
0.635524886
 40
0.8103264345
 40
1.0
 40
1.0
 40
1.0
 40
1.0
 10
2.7890261125
 20
-2.5342514956
 30
0.0
 10
2.7890254452
 20
-2.5364087722
 30
0.0
 10
2.7894257174
 20
-2.5426677745
 30
0.0
 10
2.792073807
 20
-2.5530113474
 30
0.0
 10
2.7980757697
 20
-2.5647963298
 30
0.0
 10
2.8068201196
 20
-2.5760562332
 30
0.0
 10
2.8181516378
 20
-2.586661672
 30
0.0
 10
2.8319004658
 20
-2.5964881826
 30
0.0
 10
2.8421495292
 20
-2.6022140918
 30
0.0
 10
2.8476029613
 20
-2.6049407614
 30
0.0
 11
2.7890261125
 21
-2.5342514956
 31
0.0
 11
2.7894394512
 21
-2.5407050017
 31
0.0
 11
2.7924224374
 21
-2.5526104403
 31
0.0
 11
2.7982405933
 21
-2.5642528056
 31
0.0
 11
2.8068100161
 21
-2.5754642044
 31
0.0
 11
2.8180071273
 21
-2.5860829586
 31
0.0
 11
2.8316704547
 21
-2.5959559366
 31
0.0
 11
2.8476029613
 21
-2.6049407614
 31
0.0
  0
SPLINE
  5
3A4
100
AcDbEntity
  8
DRAFT
100
AcDbSpline
 62
7
  6
CONTINUOUS
 70
0
 71
3
 72
16
 73
12
 74
10
 42
0.0000001
 43
0.0000001
 44
0.0000000001
 12
-0.1363084252
 22
-0.0402270704
 32
0.0
 13
-0.1116563076
 23
0.0875111823
 33
0.0
 40
0.0
 40
0.0
 40
0.0
 40
0.0
 40
0.0355465392
 40
0.12818533
 40
0.2282892759
 40
0.3397136996
 40
0.4654198087
 40
0.6073255675
 40
0.7652578955
 40
0.9341807491
 40
1.0
 40
1.0
 40
1.0
 40
1.0
 10
2.2795325455
 20
7.6535215464
 30
0.0
 10
2.2779174479
 20
7.653044902
 30
0.0
 10
2.2720205766
 20
7.6515709486
 30
0.0
 10
2.2612162151
 20
7.6504860005
 30
0.0
 10
2.2468146421
 20
7.6515800099
 30
0.0
 10
2.2312207377
 20
7.6551316664
 30
0.0
 10
2.214339109
 20
7.6612602424
 30
0.0
 10
2.1962176026
 20
7.6700728368
 30
0.0
 10
2.1771906798
 20
7.6814857689
 30
0.0
 10
2.1619956435
 20
7.6921767383
 30
0.0
 10
2.1531857737
 20
7.6989313272
 30
0.0
 10
2.1507360622
 20
7.7008513007
 30
0.0
 11
2.2795325455
 21
7.6535215464
 31
0.0
 11
2.2746339154
 21
7.6522939283
 31
0.0
 11
2.2615686292
 21
7.6508932324
 31
0.0
 11
2.2474030824
 21
7.6518678259
 31
0.0
 11
2.2319702549
 21
7.6552763978
 31
0.0
 11
2.215175993
 21
7.6612664018
 31
0.0
 11
2.1970340338
 21
7.6699852735
 31
0.0
 11
2.1777812819
 21
7.6814378829
 31
0.0
 11
2.1581476896
 21
7.695172071
 31
0.0
 11
2.1507360622
 21
7.7008513007
 31
0.0
  0
LINE
  5
3A5
100
AcDbEntity
  8
DRAFT
100
AcDbLine
 62
7
  6
CONTINUOUS
 10
1.5152256507
 20
5.7806442984
 11
1.262803789
 21
5.7765560081
  0
SPLINE
  5
3A6
100
AcDbEntity
  8
0
100
AcDbSpline
 62
253
  6
CONTINUOUS
 70
0
 71
3
 72
14
 73
10
 74
8
 42
0.0000001
 43
0.0000001
 44
0.0000000001
 12
-0.0001155285
 22
-0.0966860448
 32
0.0
 13
0.0862634717
 23
-0.0431302254
 33
0.0
 40
0.0
 40
0.0
 40
0.0
 40
0.0
 40
0.0673337195
 40
0.1944885203
 40
0.3293576332
 40
0.475615947
 40
0.6355839671
 40
0.8103500931
 40
1.0
 40
1.0
 40
1.0
 40
1.0
 10
2.7893619257
 20
-2.1871673825
 30
0.0
 10
2.7893593327
 20
-2.1893374595
 30
0.0
 10
2.7897578577
 20
-2.1956063106
 30
0.0
 10
2.7924101158
 20
-2.2059560502
 30
0.0
 10
2.7984123689
 20
-2.2177321329
 30
0.0
 10
2.8071567865
 20
-2.2289848236
 30
0.0
 10
2.8184882212
 20
-2.2395849672
 30
0.0
 10
2.8322369049
 20
-2.2494082035
 30
0.0
 10
2.8424855457
 20
-2.2551331463
 30
0.0
 10
2.8479388322
 20
-2.257859694
 30
0.0
 11
2.7893619257
 21
-2.1871673825
 31
0.0
 11
2.789775235
 21
-2.1936592806
 31
0.0
 11
2.7927582382
 21
-2.2055543721
 31
0.0
 11
2.7985764105
 21
-2.2171880314
 31
0.0
 11
2.8071458488
 21
-2.2283924909
 31
0.0
 11
2.8183429743
 21
-2.2390061725
 31
0.0
 11
2.8320063146
 21
-2.2488760174
 31
0.0
 11
2.8479388322
 21
-2.257859694
 31
0.0
  0
LINE
  5
3A7
100
AcDbEntity
  8
DRAFT
100
AcDbLine
 62
7
  6
CONTINUOUS
 10
1.747118818
 20
5.8458103776
 11
1.5152256507
 21
5.7806442984
  0
LINE
  5
3A8
100
AcDbEntity
  8
DRAFT
100
AcDbLine
 62
7
  6
CONTINUOUS
 10
-3.6427070112
 20
9.199083705
 11
-3.5236692441
 21
9.2962783013
  0
LINE
  5
3A9
100
AcDbEntity
  8
DRAFT
100
AcDbLine
 62
7
  6
CONTINUOUS
 10
-3.7027157525
 20
9.1241882073
 11
-3.6427070112
 21
9.199083705
  0
LINE
  5
3AA
100
AcDbEntity
  8
DRAFT
100
AcDbLine
 62
7
  6
CONTINUOUS
 10
-3.7521426294
 20
9.0360133489
 11
-3.7027157525
 21
9.1241882073
  0
LINE
  5
3AB
100
AcDbEntity
  8
DRAFT
100
AcDbLine
 62
7
  6
CONTINUOUS
 10
-3.8039400115
 20
8.6673047448
 11
-3.8079159424
 21
8.8231570124
  0
LINE
  5
3AC
100
AcDbEntity
  8
DRAFT
100
AcDbLine
 62
7
  6
CONTINUOUS
 10
-0.0461970694
 20
6.6095200142
 11
-0.2468744038
 21
6.8887719409
  0
SPLINE
  5
3AD
100
AcDbEntity
  8
0
100
AcDbSpline
 62
253
  6
CONTINUOUS
 70
0
 71
3
 72
15
 73
11
 74
9
 42
0.0000001
 43
0.0000001
 44
0.0000000001
 12
-0.1135582898
 22
0.0567633398
 32
0.0
 13
0.0003097963
 23
0.1267475287
 33
0.0
 40
0.0
 40
0.0
 40
0.0
 40
0.0
 40
0.0447388324
 40
0.1620897557
 40
0.2831551449
 40
0.4101452646
 40
0.5446645301
 40
0.687668225
 40
0.8395053477
 40
1.0
 40
1.0
 40
1.0
 40
1.0
 10
2.4060886915
 20
-1.5120764448
 30
0.0
 10
2.4043952031
 20
-1.5112299362
 30
0.0
 10
2.3983754665
 20
-1.5079317632
 30
0.0
 10
2.388709309
 20
-1.5007556425
 30
0.0
 10
2.3782098951
 20
-1.4893212126
 30
0.0
 10
2.3694649227
 20
-1.4756406082
 30
0.0
 10
2.3625811476
 20
-1.459931262
 30
0.0
 10
2.3576375419
 20
-1.4424248226
 30
0.0
 10
2.3546901086
 20
-1.4233732695
 30
0.0
 10
2.3540937271
 20
-1.4101637868
 30
0.0
 10
2.3541103006
 20
-1.40338302
 30
0.0
 11
2.4060886915
 21
-1.5120764448
 31
0.0
 11
2.4011092129
 21
-1.5093475728
 31
0.0
 11
2.3891482413
 21
-1.5005061614
 31
0.0
 11
2.3787272877
 21
-1.4892426741
 31
0.0
 11
2.369997208
 21
-1.4757201635
 31
0.0
 11
2.3630843804
 21
-1.460134384
 31
0.0
 11
2.3580888764
 21
-1.4427109585
 31
0.0
 11
2.355083012
 21
-1.4237021119
 31
0.0
 11
2.3541103006
 21
-1.40338302
 31
0.0
  0
SPLINE
  5
3AE
100
AcDbEntity
  8
DRAFT
100
AcDbSpline
 62
7
  6
CONTINUOUS
 70
0
 71
3
 72
20
 73
16
 74
14
 42
0.0000001
 43
0.0000001
 44
0.0000000001
 12
-0.1981579679
 22
-0.0552791032
 32
0.0
 13
-0.076584253
 23
0.1905744877
 33
0.0
 40
0.0
 40
0.0
 40
0.0
 40
0.0
 40
0.0318511174
 40
0.0834655486
 40
0.1371022927
 40
0.1949692779
 40
0.2579920779
 40
0.3264602181
 40
0.4009222652
 40
0.4835032766
 40
0.5752380459
 40
0.6762390693
 40
0.787990088
 40
0.9120466815
 40
1.0
 40
1.0
 40
1.0
 40
1.0
 10
-1.559485847
 20
9.147740306
 30
0.0
 10
-1.5615896979
 20
9.1471534055
 30
0.0
 10
-1.5672028876
 20
9.1459725137
 30
0.0
 10
-1.5766401368
 20
9.1455895477
 30
0.0
 10
-1.5877429723
 20
9.1472242724
 30
0.0
 10
-1.5991579941
 20
9.1509072734
 30
0.0
 10
-1.6108203738
 20
9.1566538548
 30
0.0
 10
-1.6226044977
 20
9.1644507497
 30
0.0
 10
-1.634482405
 20
9.1743520155
 30
0.0
 10
-1.6464476068
 20
9.1865033409
 30
0.0
 10
-1.6584348793
 20
9.201074405
 30
0.0
 10
-1.6703283381
 20
9.2182157131
 30
0.0
 10
-1.6820055739
 20
9.2381183954
 30
0.0
 10
-1.6918287498
 20
9.2580030197
 30
0.0
 10
-1.6975261731
 20
9.2713578048
 30
0.0
 10
-1.6997714529
 20
9.2769450244
 30
0.0
 11
-1.559485847
 21
9.147740306
 31
0.0
 11
-1.565893003
 21
9.1463901456
 31
0.0
 11
-1.5764815092
 21
9.1459195618
 31
0.0
 11
-1.5873863909
 21
9.1474677806
 31
0.0
 11
-1.5987150574
 21
9.1510545506
 31
0.0
 11
-1.6103529519
 21
9.1567154492
 31
0.0
 11
-1.6221124226
 21
9.1644222069
 31
0.0
 11
-1.6338932414
 21
9.1741698949
 31
0.0
 11
-1.6458291069
 21
9.1862158774
 31
0.0
 11
-1.6578358532
 21
9.2007311771
 31
0.0
 11
-1.6696979202
 21
9.21774461
 31
0.0
 11
-1.6813496528
 21
9.2375144008
 31
0.0
 11
-1.6926724471
 21
9.2603346341
 31
0.0
 11
-1.6997714529
 21
9.2769450244
 31
0.0
  0
SPLINE
  5
3AF
100
AcDbEntity
  8
0
100
AcDbSpline
 62
253
  6
CONTINUOUS
 70
0
 71
3
 72
15
 73
11
 74
9
 42
0.0000001
 43
0.0000001
 44
0.0000000001
 12
-0.1135484491
 22
0.056769664
 32
0.0
 13
0.0003097817
 23
0.1267415717
 33
0.0
 40
0.0
 40
0.0
 40
0.0
 40
0.0
 40
0.0446938406
 40
0.1620502741
 40
0.2831213512
 40
0.4101174419
 40
0.544643039
 40
0.6876534734
 40
0.8394977621
 40
1.0
 40
1.0
 40
1.0
 40
1.0
 10
-3.5308027898
 20
1.4563692954
 30
0.0
 10
-3.5324944285
 20
1.4572150469
 30
0.0
 10
-3.5385122753
 20
1.4605124957
 30
0.0
 10
-3.548176826
 20
1.4676874213
 30
0.0
 10
-3.5586762415
 20
1.4791218494
 30
0.0
 10
-3.5674212159
 20
1.492802453
 30
0.0
 10
-3.5743049931
 20
1.5085117997
 30
0.0
 10
-3.5792486007
 20
1.5260182411
 30
0.0
 10
-3.5821960354
 20
1.5450697978
 30
0.0
 10
-3.5827924172
 20
1.5582792835
 30
0.0
 10
-3.5827758436
 20
1.5650600521
 30
0.0
 11
-3.5308027898
 21
1.4563692954
 31
0.0
 11
-3.5357769212
 21
1.4590954933
 31
0.0
 11
-3.5477378936
 21
1.4679369024
 31
0.0
 11
-3.5581588487
 21
1.4792003879
 31
0.0
 11
-3.5668889304
 21
1.4927228976
 31
0.0
 11
-3.57380176
 21
1.5083086774
 31
0.0
 11
-3.5787972659
 21
1.5257321047
 31
0.0
 11
-3.5818031317
 21
1.5447409549
 31
0.0
 11
-3.5827758436
 21
1.5650600521
 31
0.0
  0
SPLINE
  5
3B0
100
AcDbEntity
  8
0
100
AcDbSpline
 62
253
  6
CONTINUOUS
 70
0
 71
3
 72
18
 73
14
 74
12
 42
0.0000001
 43
0.0000001
 44
0.0000000001
 12
-0.2876108102
 22
-0.1383719514
 32
0.0
 13
0.0003282022
 23
-0.3188987864
 33
0.0
 40
0.0
 40
0.0
 40
0.0
 40
0.0
 40
0.0216267561
 40
0.1060204079
 40
0.1915861431
 40
0.2792455233
 40
0.3697942491
 40
0.4639816636
 40
0.5624575826
 40
0.6655197582
 40
0.7730517324
 40
0.8847164838
 40
1.0
 40
1.0
 40
1.0
 40
1.0
 10
-3.6644548592
 20
1.4764971912
 30
0.0
 10
-3.6665282221
 20
1.475499679
 30
0.0
 10
-3.6766030808
 20
1.470424092
 30
0.0
 10
-3.6939535177
 20
1.4596296328
 30
0.0
 10
-3.7150149082
 20
1.4419907178
 30
0.0
 10
-3.7339442187
 20
1.4211964733
 30
0.0
 10
-3.7506040787
 20
1.3974250273
 30
0.0
 10
-3.7648889567
 20
1.3708515006
 30
0.0
 10
-3.7767035208
 20
1.3416594041
 30
0.0
 10
-3.7859520894
 20
1.3100822334
 30
0.0
 10
-3.792555645
 20
1.2764241329
 30
0.0
 10
-3.7964735892
 20
1.2410489463
 30
0.0
 10
-3.7972885628
 20
1.2169127654
 30
0.0
 10
-3.7972759507
 20
1.2046581743
 30
0.0
 11
-3.6644548592
 21
1.4764971912
 31
0.0
 11
-3.6706187973
 21
1.4733916131
 31
0.0
 11
-3.6934782663
 21
1.4591875012
 31
0.0
 11
-3.7144214798
 21
1.4416960018
 31
0.0
 11
-3.733279684
 21
1.4210605626
 31
0.0
 11
-3.7499056755
 21
1.3974513765
 31
0.0
 11
-3.7641897393
 21
1.3710289822
 31
0.0
 11
-3.7760378083
 21
1.3419458915
 31
0.0
 11
-3.7853425906
 21
1.3104241117
 31
0.0
 11
-3.7920079025
 21
1.2767862832
 31
0.0
 11
-3.7959849324
 21
1.2413992921
 31
0.0
 11
-3.7972759507
 21
1.2046581743
 31
0.0
  0
SPLINE
  5
3B1
100
AcDbEntity
  8
DRAFT
100
AcDbSpline
 62
7
  6
CONTINUOUS
 70
0
 71
3
 72
12
 73
8
 74
6
 42
0.0000001
 43
0.0000001
 44
0.0000000001
 12
0.0464682913
 22
0.1005170717
 32
0.0
 13
0.0913676062
 23
0.0627862286
 33
0.0
 40
0.0
 40
0.0
 40
0.0
 40
0.0
 40
0.2807602415
 40
0.5209688889
 40
0.7268003439
 40
0.9061499411
 40
1.0
 40
1.0
 40
1.0
 40
1.0
 10
1.8786885076
 20
6.7851312496
 30
0.0
 10
1.8830373238
 20
6.7945383154
 30
0.0
 10
1.8916820657
 20
6.8117418886
 30
0.0
 10
1.9058013446
 20
6.8346020969
 30
0.0
 10
1.9200079319
 20
6.8528663372
 30
0.0
 10
1.9326399773
 20
6.8653258736
 30
0.0
 10
1.940674988
 20
6.8714620598
 30
0.0
 10
1.943533273
 20
6.8734262236
 30
0.0
 11
1.8786885076
 21
6.7851312496
 31
0.0
 11
1.8927836214
 21
6.8128435857
 31
0.0
 11
1.9068947427
 21
6.8353924837
 31
0.0
 11
1.9210113697
 21
6.8532883386
 31
0.0
 11
1.9352526173
 21
6.8671317996
 31
0.0
 11
1.943533273
 21
6.8734262236
 31
0.0
  0
LINE
  5
3B2
100
AcDbEntity
  8
DRAFT
100
AcDbLine
 62
7
  6
CONTINUOUS
 10
1.7850252734
 20
6.6251720849
 11
1.8786885095
 21
6.7851312487
  0
SPLINE
  5
3B3
100
AcDbEntity
  8
0
100
AcDbSpline
 62
253
  6
CONTINUOUS
 70
0
 71
3
 72
15
 73
11
 74
9
 42
0.0000001
 43
0.0000001
 44
0.0000000001
 12
0.1153322253
 22
0.0554336565
 32
0.0
 13
0.0009759845
 23
0.1277471043
 33
0.0
 40
0.0
 40
0.0
 40
0.0
 40
0.0
 40
0.047566805
 40
0.1642761824
 40
0.2848048207
 40
0.4113568049
 40
0.5455185949
 40
0.6882203265
 40
0.8397824692
 40
1.0
 40
1.0
 40
1.0
 40
1.0
 10
-3.8158327219
 20
0.7228093541
 30
0.0
 10
-3.8140040601
 20
0.7236882881
 30
0.0
 10
-3.8078118606
 20
0.7269797994
 30
0.0
 10
-3.7979450313
 20
0.7341641813
 30
0.0
 10
-3.7873096958
 20
0.7455462143
 30
0.0
 10
-3.778408755
 20
0.7592111961
 30
0.0
 10
-3.7713515089
 20
0.774940511
 30
0.0
 10
-3.7662197438
 20
0.7925008152
 30
0.0
 10
-3.7630725358
 20
0.8116377569
 30
0.0
 10
-3.7623408502
 20
0.8249214275
 30
0.0
 10
-3.7622887269
 20
0.8317438694
 30
0.0
 11
-3.8158327219
 21
0.7228093541
 31
0.0
 11
-3.8104601128
 21
0.7256658992
 31
0.0
 11
-3.7983879261
 21
0.7344158742
 31
0.0
 11
-3.7878319514
 21
0.7456256256
 31
0.0
 11
-3.7789459949
 21
0.7591317572
 31
0.0
 11
-3.7718594799
 21
0.7747374048
 31
0.0
 11
-3.7666755804
 21
0.7922150977
 31
0.0
 11
-3.7634697698
 21
0.8113100492
 31
0.0
 11
-3.7622887269
 21
0.8317438694
 31
0.0
  0
LINE
  5
3B4
100
AcDbEntity
  8
0
100
AcDbLine
 62
253
  6
CONTINUOUS
 10
2.8476029613
 20
-2.6049407614
 11
2.8479388066
 21
-2.2578597068
  0
SPLINE
  5
3B5
100
AcDbEntity
  8
0
100
AcDbSpline
 62
253
  6
CONTINUOUS
 70
0
 71
3
 72
25
 73
21
 74
19
 42
0.0000001
 43
0.0000001
 44
0.0000000001
 12
0.0013250352
 22
1.0310567724
 32
0.0
 13
-0.9222022395
 23
0.4611104566
 33
0.0
 40
0.0
 40
0.0
 40
0.0
 40
0.0
 40
0.0517712578
 40
0.1055833468
 40
0.1611047615
 40
0.2179753071
 40
0.2758082027
 40
0.3343208643
 40
0.39333376
 40
0.4526241089
 40
0.5118891576
 40
0.5708208062
 40
0.6291170965
 40
0.6864943681
 40
0.7427585482
 40
0.7977652175
 40
0.8512816643
 40
0.9029951849
 40
0.9526401167
 40
1.0
 40
1.0
 40
1.0
 40
1.0
 10
2.8479388066
 20
-2.2578597068
 30
0.0
 10
2.8479616728
 20
-2.2400666714
 30
0.0
 10
2.8467097857
 20
-2.2037673464
 30
0.0
 10
2.8411494451
 20
-2.1486417486
 30
0.0
 10
2.8318659569
 20
-2.092242486
 30
0.0
 10
2.8189274744
 20
-2.0351532127
 30
0.0
 10
2.8024551046
 20
-1.9779127647
 30
0.0
 10
2.7825918889
 20
-1.9209799675
 30
0.0
 10
2.7594817402
 20
-1.8647449424
 30
0.0
 10
2.7332821649
 20
-1.8095950036
 30
0.0
 10
2.7041863335
 20
-1.7559482721
 30
0.0
 10
2.6724249242
 20
-1.7042353203
 30
0.0
 10
2.6382530832
 20
-1.6548685091
 30
0.0
 10
2.6019309366
 20
-1.6082164655
 30
0.0
 10
2.5637079252
 20
-1.5645985333
 30
0.0
 10
2.52384071
 20
-1.5243207951
 30
0.0
 10
2.4826419051
 20
-1.4877165159
 30
0.0
 10
2.4404977733
 20
-1.4551294975
 30
0.0
 10
2.3978542085
 20
-1.426868754
 30
0.0
 10
2.3686687641
 20
-1.4106623991
 30
0.0
 10
2.3541103006
 20
-1.40338302
 30
0.0
 11
2.8479388066
 21
-2.2578597068
 31
0.0
 11
2.8461588302
 21
-2.2045102424
 31
0.0
 11
2.8406431852
 21
-2.1493017158
 31
0.0
 11
2.8313885895
 21
-2.0928089592
 31
0.0
 11
2.8184623731
 21
-2.0356146556
 31
0.0
 11
2.8019972669
 21
-1.9783038919
 31
0.0
 11
2.7821407935
 21
-1.9213353004
 31
0.0
 11
2.7590221416
 21
-1.8650527396
 31
0.0
 11
2.7327925723
 21
-1.8098340603
 31
0.0
 11
2.7036554382
 21
-1.7561225012
 31
0.0
 11
2.6718439635
 21
-1.7043533822
 31
0.0
 11
2.6376165865
 21
-1.6549436846
 31
0.0
 11
2.6012498984
 21
-1.6082823128
 31
0.0
 11
2.5629879803
 21
-1.5646775799
 31
0.0
 11
2.5230569196
 21
-1.5244021928
 31
0.0
 11
2.4817699648
 21
-1.4877953806
 31
0.0
 11
2.439549049
 21
-1.455231964
 31
0.0
 11
2.3968401042
 21
-1.4270179066
 31
0.0
 11
2.3541103006
 21
-1.40338302
 31
0.0
  0
SPLINE
  5
3B6
100
AcDbEntity
  8
0
100
AcDbSpline
 62
253
  6
CONTINUOUS
 70
0
 71
3
 72
25
 73
21
 74
19
 42
0.0000001
 43
0.0000001
 44
0.0000000001
 12
-0.6872512317
 22
0.3436185866
 32
0.0
 13
-0.0010180798
 23
-0.7683664178
 33
0.0
 40
0.0
 40
0.0
 40
0.0
 40
0.0
 40
0.0609317246
 40
0.1196815743
 40
0.1761292338
 40
0.2303102636
 40
0.2824033742
 40
0.3328178653
 40
0.3821462731
 40
0.4310099693
 40
0.4800013293
 40
0.5297024317
 40
0.5806481233
 40
0.6332985629
 40
0.6880858653
 40
0.7453837099
 40
0.8053607091
 40
0.8679445139
 40
0.9329346442
 40
1.0
 40
1.0
 40
1.0
 40
1.0
 10
-3.5827758436
 20
1.5650600521
 30
0.0
 10
-3.5967343112
 20
1.5720391432
 30
0.0
 10
-3.6247385248
 20
1.5846186744
 30
0.0
 10
-3.6674880278
 20
1.5992347683
 30
0.0
 10
-3.7098323866
 20
1.6090392053
 30
0.0
 10
-3.7513226763
 20
1.6138710215
 30
0.0
 10
-3.7915592133
 20
1.613661334
 30
0.0
 10
-3.8302082005
 20
1.6084077493
 30
0.0
 10
-3.8669880188
 20
1.598142636
 30
0.0
 10
-3.9016187379
 20
1.5829284832
 30
0.0
 10
-3.9338064493
 20
1.5628813524
 30
0.0
 10
-3.9632694221
 20
1.5381799366
 30
0.0
 10
-3.9897643257
 20
1.5090518301
 30
0.0
 10
-4.0130995149
 20
1.4757464241
 30
0.0
 10
-4.0331276769
 20
1.4385087578
 30
0.0
 10
-4.0497154686
 20
1.3975956721
 30
0.0
 10
-4.062728819
 20
1.3533341993
 30
0.0
 10
-4.0720564153
 20
1.3061505316
 30
0.0
 10
-4.0776399844
 20
1.2565618959
 30
0.0
 10
-4.0788562203
 20
1.2227261087
 30
0.0
 10
-4.0788789796
 20
1.2055491863
 30
0.0
 11
-3.5827758436
 21
1.5650600521
 31
0.0
 11
-3.6255197933
 21
1.5841617152
 31
0.0
 11
-3.6682649816
 21
1.5986737615
 31
0.0
 11
-3.7105424306
 21
1.6083584475
 31
0.0
 11
-3.7519052136
 21
1.6130758314
 31
0.0
 11
-3.7919307414
 21
1.6127785361
 31
0.0
 11
-3.8303051026
 21
1.6074916786
 31
0.0
 11
-3.866800498
 21
1.5972607265
 31
0.0
 11
-3.9011702221
 21
1.5821488661
 31
0.0
 11
-3.9331349848
 21
1.5622673255
 31
0.0
 11
-3.9624338277
 21
1.5377733677
 31
0.0
 11
-3.988830819
 21
1.5088678436
 31
0.0
 11
-4.0121201394
 21
1.4757890941
 31
0.0
 11
-4.0321483482
 21
1.4387619679
 31
0.0
 11
-4.0487838434
 21
1.3980001052
 31
0.0
 11
-4.0618763098
 21
1.3538146453
 31
0.0
 11
-4.0712905644
 21
1.3066578462
 31
0.0
 11
-4.0769575016
 21
1.2570441623
 31
0.0
 11
-4.0788789796
 21
1.2055491863
 31
0.0
  0
SPLINE
  5
3B7
100
AcDbEntity
  8
0
100
AcDbSpline
 62
253
  6
CONTINUOUS
 70
0
 71
3
 72
24
 73
20
 74
18
 42
0.0000001
 43
0.0000001
 44
0.0000000001
 12
-0.5758666271
 22
-0.3042233697
 32
0.0
 13
-0.0777829837
 23
-0.6466251143
 33
0.0
 40
0.0
 40
0.0
 40
0.0
 40
0.0
 40
0.0519582665
 40
0.1056635754
 40
0.1609993099
 40
0.2178301849
 40
0.2759955306
 40
0.3353112988
 40
0.3955750479
 40
0.4565697034
 40
0.5180677486
 40
0.5798336796
 40
0.6416287848
 40
0.7032135043
 40
0.7643514447
 40
0.8248126549
 40
0.884378031
 40
0.942840414
 40
1.0
 40
1.0
 40
1.0
 40
1.0
 10
8.6098174698
 20
14.2738925232
 30
0.0
 10
8.5998437926
 20
14.2686235502
 30
0.0
 10
8.5799612001
 20
14.2571355946
 30
0.0
 10
8.5509672439
 20
14.2375716397
 30
0.0
 10
8.5224775462
 20
14.2155072404
 30
0.0
 10
8.4946795712
 20
14.1910877285
 30
0.0
 10
8.4677510202
 20
14.1644704729
 30
0.0
 10
8.4418650482
 20
14.1358271813
 30
0.0
 10
8.4171881518
 20
14.1053426492
 30
0.0
 10
8.3938791804
 20
14.0732135083
 30
0.0
 10
8.3720882791
 20
14.0396470478
 30
0.0
 10
8.351955823
 20
14.0048597624
 30
0.0
 10
8.3336115816
 20
13.969076095
 30
0.0
 10
8.3171737783
 20
13.932526836
 30
0.0
 10
8.3027483837
 20
13.8954476758
 30
0.0
 10
8.2904283336
 20
13.8580776378
 30
0.0
 10
8.2802930905
 20
13.8206570094
 30
0.0
 10
8.2724086842
 20
13.7834310637
 30
0.0
 10
8.2686404857
 20
13.7585966392
 30
0.0
 10
8.2671584714
 20
13.7462763646
 30
0.0
 11
8.6098174698
 21
14.2738925232
 31
0.0
 11
8.5804964151
 21
14.2569986611
 31
0.0
 11
8.5514812077
 21
14.2374654434
 31
0.0
 11
8.5229679832
 21
14.2154237561
 31
0.0
 11
8.4951420949
 21
14.1910168725
 31
0.0
 11
8.4681835822
 21
14.164402816
 31
0.0
 11
8.4422672539
 21
14.1357542257
 31
0.0
 11
8.4175610858
 21
14.1052568968
 31
0.0
 11
8.3942251926
 21
14.0731086179
 31
0.0
 11
8.3724106197
 21
14.0395176161
 31
0.0
 11
8.3522587794
 21
14.0047018029
 31
0.0
 11
8.3339000778
 21
13.9688866573
 31
0.0
 11
8.3174534374
 21
13.9323043644
 31
0.0
 11
8.3030253351
 21
13.8951919869
 31
0.0
 11
8.2907091674
 21
13.8577900419
 31
0.0
 11
8.2805845176
 21
13.8203403948
 31
0.0
 11
8.2727170423
 21
13.7830863101
 31
0.0
 11
8.2671584714
 21
13.7462763646
 31
0.0
  0
SPLINE
  5
3B8
100
AcDbEntity
  8
0
100
AcDbSpline
 62
253
  6
CONTINUOUS
 70
0
 71
3
 72
24
 73
20
 74
18
 42
0.0000001
 43
0.0000001
 44
0.0000000001
 12
-1.1409520113
 22
-0.6228814933
 32
0.0
 13
-0.1525069354
 23
-1.2909277599
 33
0.0
 40
0.0
 40
0.0
 40
0.0
 40
0.0
 40
0.0516145933
 40
0.1050196318
 40
0.1601135726
 40
0.216759811
 40
0.2747955835
 40
0.3340340083
 40
0.3942691926
 40
0.455280054
 40
0.516834566
 40
0.5786922511
 40
0.6406090466
 40
0.7023396235
 40
0.7636413716
 40
0.8242777393
 40
0.8840226573
 40
0.9426616273
 40
1.0
 40
1.0
 40
1.0
 40
1.0
 10
8.250314735
 20
14.8798984443
 30
0.0
 10
8.2306848103
 20
14.8691818526
 30
0.0
 10
8.1915614554
 20
14.8458498863
 30
0.0
 10
8.1345515743
 20
14.8062275644
 30
0.0
 10
8.0785389083
 20
14.7616176762
 30
0.0
 10
8.0238864325
 20
14.7123102571
 30
0.0
 10
7.9709433997
 20
14.6586229144
 30
0.0
 10
7.9200501725
 20
14.6009018817
 30
0.0
 10
7.8715340465
 20
14.5395194763
 30
0.0
 10
7.8257073055
 20
14.4748715688
 30
0.0
 10
7.7828651264
 20
14.4073752149
 30
0.0
 10
7.7432834715
 20
14.3374657046
 30
0.0
 10
7.7072174415
 20
14.2655940351
 30
0.0
 10
7.6748994517
 20
14.1922237043
 30
0.0
 10
7.6465378098
 20
14.117827845
 30
0.0
 10
7.6223152668
 20
14.0428860302
 30
0.0
 10
7.6023878945
 20
13.9678802344
 30
0.0
 10
7.5868846025
 20
13.8932964647
 30
0.0
 10
7.5794737278
 20
13.8435582811
 30
0.0
 10
7.5765588946
 20
13.8188850488
 30
0.0
 11
8.250314735
 21
14.8798984443
 31
0.0
 11
8.1926463758
 21
14.8456059688
 31
0.0
 11
8.1355968248
 21
14.8060498104
 31
0.0
 11
8.0795343358
 21
14.7614855237
 31
0.0
 11
8.024823383
 21
14.7122028253
 31
0.0
 11
7.9718179125
 21
14.6585207739
 31
0.0
 11
7.9208616151
 21
14.6007875841
 31
0.0
 11
7.8722847351
 21
14.5393776595
 31
0.0
 11
7.8264020634
 21
14.474689252
 31
0.0
 11
7.7835105575
 21
14.4071413343
 31
0.0
 11
7.7438882348
 21
14.3371720799
 31
0.0
 11
7.7077914417
 21
14.2652345419
 31
0.0
 11
7.6754539642
 21
14.1917949878
 31
0.0
 11
7.6470851507
 21
14.1173292914
 31
0.0
 11
7.6228686479
 21
14.0423200118
 31
0.0
 11
7.6029609078
 21
13.9672521824
 31
0.0
 11
7.5874911031
 21
13.8926133922
 31
0.0
 11
7.5765588946
 21
13.8188850488
 31
0.0
  0
SPLINE
  5
3B9
100
AcDbEntity
  8
0
100
AcDbSpline
 62
253
  6
CONTINUOUS
 70
0
 71
3
 72
23
 73
19
 74
17
 42
0.0000001
 43
0.0000001
 44
0.0000000001
 12
-0.0329920175
 22
0.7305177617
 32
0.0
 13
-0.6438725758
 23
0.3466594575
 33
0.0
 40
0.0
 40
0.0
 40
0.0
 40
0.0
 40
0.0580995651
 40
0.1185560023
 40
0.1810679187
 40
0.2452874271
 40
0.3108305459
 40
0.377286697
 40
0.4442275909
 40
0.5112157315
 40
0.5778127323
 40
0.6435876149
 40
0.7081252581
 40
0.7710351832
 40
0.8319608978
 40
0.8905900742
 40
0.9466659013
 40
1.0
 40
1.0
 40
1.0
 40
1.0
 10
8.6098174698
 20
14.2738925232
 30
0.0
 10
8.6091785292
 20
14.2880401113
 30
0.0
 10
8.6067428494
 20
14.3168670159
 30
0.0
 10
8.5999415137
 20
14.360507734
 30
0.0
 10
8.589979498
 20
14.4050666221
 30
0.0
 10
8.5769521404
 20
14.4501165159
 30
0.0
 10
8.5609836163
 20
14.4952293859
 30
0.0
 10
8.5422262489
 20
14.5399747423
 30
0.0
 10
8.5208590361
 20
14.5839256177
 30
0.0
 10
8.4970859699
 20
14.6266623691
 30
0.0
 10
8.4711340381
 20
14.6677769648
 30
0.0
 10
8.4432509546
 20
14.7068769838
 30
0.0
 10
8.4137026957
 20
14.7435894547
 30
0.0
 10
8.3827705988
 20
14.7775645723
 30
0.0
 10
8.3507489634
 20
14.8084787451
 30
0.0
 10
8.3179398437
 20
14.8360386881
 30
0.0
 10
8.2846567849
 20
14.8599800982
 30
0.0
 10
8.2617615228
 20
14.873735521
 30
0.0
 10
8.250314735
 20
14.8798984443
 30
0.0
 11
8.6098174698
 21
14.2738925232
 31
0.0
 11
8.6063067349
 21
14.3162332505
 31
0.0
 11
8.5995533503
 21
14.3599239052
 31
0.0
 11
8.5896222035
 21
14.4045446998
 31
0.0
 11
8.5766087148
 21
14.4496669096
 31
0.0
 11
8.56063792
 21
14.4948569923
 31
0.0
 11
8.5418632693
 21
14.5396807536
 31
0.0
 11
8.520465153
 21
14.5837075185
 31
0.0
 11
8.4966491678
 21
14.6265142699
 31
0.0
 11
8.470644142
 21
14.6676897128
 31
0.0
 11
8.4426999367
 21
14.706838226
 31
0.0
 11
8.4130850447
 21
14.7435836633
 31
0.0
 11
8.3820840113
 21
14.7775729679
 31
0.0
 11
8.3499947001
 21
14.8084795642
 31
0.0
 11
8.3171254311
 21
14.836006496
 31
0.0
 11
8.2837920182
 21
14.8598892794
 31
0.0
 11
8.250314735
 21
14.8798984443
 31
0.0
  0
SPLINE
  5
3BA
100
AcDbEntity
  8
0
100
AcDbSpline
 62
253
  6
CONTINUOUS
 70
0
 71
3
 72
14
 73
10
 74
8
 42
0.0000001
 43
0.0000001
 44
0.0000000001
 12
-1.2480797241
 22
-10.3760296651
 32
0.0
 13
-0.1665521711
 23
-10.4494954415
 33
0.0
 40
0.0
 40
0.0
 40
0.0
 40
0.0
 40
0.1456426861
 40
0.2903891758
 40
0.4342191091
 40
0.577113113
 40
0.7190527633
 40
0.8600205889
 40
1.0
 40
1.0
 40
1.0
 40
1.0
 10
8.2671584714
 20
13.7462763646
 30
0.0
 10
8.2065672435
 20
13.2425454206
 30
0.0
 10
8.0928495372
 20
12.2373147954
 30
0.0
 10
7.9443821646
 20
10.7319192875
 30
0.0
 10
7.8185920456
 20
9.2340640786
 30
0.0
 10
7.7155235341
 20
7.7442752386
 30
0.0
 10
7.6352124223
 20
6.2630691133
 30
0.0
 10
7.5776868513
 20
4.7909667897
 30
0.0
 10
7.5544575178
 20
3.8124865236
 30
0.0
 10
7.5466862262
 20
3.3249151177
 30
0.0
 11
8.2671584714
 21
13.7462763646
 31
0.0
 11
8.0961279792
 21
12.233829996
 31
0.0
 11
7.9477265136
 21
10.7284069687
 31
0.0
 11
7.8220058006
 21
9.2305326241
 31
0.0
 11
7.7190095633
 21
7.7407287589
 31
0.0
 11
7.6387736079
 21
6.2595142028
 31
0.0
 11
7.5813258324
 21
4.7874049526
 31
0.0
 11
7.5466862262
 21
3.3249151177
 31
0.0
  0
SPLINE
  5
3BB
100
AcDbEntity
  8
0
100
AcDbSpline
 62
253
  6
CONTINUOUS
 70
0
 71
3
 72
14
 73
10
 74
8
 42
0.0000001
 43
0.0000001
 44
0.0000000001
 12
-1.2548133014
 22
-10.4340820304
 32
0.0
 13
-0.1674516993
 23
-10.5079295852
 33
0.0
 40
0.0
 40
0.0
 40
0.0
 40
0.0
 40
0.1456431457
 40
0.2903898856
 40
0.4342199459
 40
0.5771139416
 40
0.7190534359
 40
0.8600209452
 40
1.0
 40
1.0
 40
1.0
 40
1.0
 10
7.5765588946
 20
13.8188850488
 30
0.0
 10
7.5156405758
 20
13.3123342057
 30
0.0
 10
7.4013090551
 20
12.3014773401
 30
0.0
 10
7.2520402435
 20
10.7876578876
 30
0.0
 10
7.1255711274
 20
9.2814233379
 30
0.0
 10
7.0219462582
 20
7.7833023594
 30
0.0
 10
6.9412016201
 20
6.2938141854
 30
0.0
 10
6.883365498
 20
4.8134823486
 30
0.0
 10
6.8600107213
 20
3.829532684
 30
0.0
 10
6.8521974777
 20
3.3392360002
 30
0.0
 11
7.5765588946
 21
13.8188850488
 31
0.0
 11
7.4046050943
 21
12.2979724695
 31
0.0
 11
7.2554025866
 21
10.7841256248
 31
0.0
 11
7.129003254
 21
9.2778717698
 31
0.0
 11
7.025451055
 21
7.7797356183
 31
0.0
 11
6.9447819889
 21
6.290238901
 31
0.0
 11
6.8870241053
 21
4.8099004999
 31
0.0
 11
6.8521974777
 21
3.3392360002
 31
0.0
  0
SPLINE
  5
3BC
100
AcDbEntity
  8
0
100
AcDbSpline
 62
253
  6
CONTINUOUS
 70
0
 71
3
 72
23
 73
19
 74
17
 42
0.0000001
 43
0.0000001
 44
0.0000000001
 12
-0.6799508922
 22
-0.1955363183
 32
0.0
 13
-0.6310151845
 23
0.3199804751
 33
0.0
 40
0.0
 40
0.0
 40
0.0
 40
0.0
 40
0.0528154803
 40
0.1089711468
 40
0.1681323067
 40
0.2299100122
 40
0.2938721208
 40
0.3595527436
 40
0.4264606859
 40
0.4940872657
 40
0.5619137685
 40
0.6294187141
 40
0.696085076
 40
0.7614075783
 40
0.8249002174
 40
0.8861041996
 40
0.9445965752
 40
1.0
 40
1.0
 40
1.0
 40
1.0
 10
8.2671584714
 20
13.7462763646
 30
0.0
 10
8.255187827
 20
13.7428339164
 30
0.0
 10
8.2302329949
 20
13.7366046009
 30
0.0
 10
8.1912364494
 20
13.7293200253
 30
0.0
 10
8.1498111695
 20
13.7238580068
 30
0.0
 10
8.1063369011
 20
13.7202699571
 30
0.0
 10
8.0612099524
 20
13.7185894252
 30
0.0
 10
8.0148435952
 20
13.7188326217
 30
0.0
 10
7.9676627376
 20
13.7209978803
 30
0.0
 10
7.9201001754
 20
13.7250657183
 30
0.0
 10
7.8725923574
 20
13.7309989815
 30
0.0
 10
7.82557526
 20
13.7387431989
 30
0.0
 10
7.779480264
 20
13.7482270899
 30
0.0
 10
7.7347299798
 20
13.7593632848
 30
0.0
 10
7.6917344785
 20
13.7720490599
 30
0.0
 10
7.6508863507
 20
13.7861678164
 30
0.0
 10
7.6125602876
 20
13.8015887872
 30
0.0
 10
7.5882123623
 20
13.8129757108
 30
0.0
 10
7.5765588948
 20
13.8188850488
 30
0.0
 11
8.2671584714
 21
13.7462763646
 31
0.0
 11
8.2309227647
 21
13.7371497806
 31
0.0
 11
8.1918794911
 21
13.7297916322
 31
0.0
 11
8.1503883282
 21
13.724269705
 31
0.0
 11
8.1068315043
 21
13.7206348683
 31
0.0
 11
8.0616102771
 21
13.7189206074
 31
0.0
 11
8.0151412373
 21
13.7191427144
 31
0.0
 11
7.9678524707
 21
13.7212991434
 31
0.0
 11
7.9201796149
 21
13.7253700286
 31
0.0
 11
7.8725618454
 21
13.7313178679
 31
0.0
 11
7.8254378308
 21
13.7390878682
 31
0.0
 11
7.7792416906
 21
13.74860845
 31
0.0
 11
7.7343989967
 21
13.759791907
 31
0.0
 11
7.6913228527
 21
13.7725352141
 31
0.0
 11
7.650410088
 21
13.7867209763
 31
0.0
 11
7.6120376027
 21
13.8022185105
 31
0.0
 11
7.5765588948
 21
13.8188850488
 31
0.0
  0
SPLINE
  5
3BD
100
AcDbEntity
  8
0
100
AcDbSpline
 62
253
  6
CONTINUOUS
 70
0
 71
3
 72
24
 73
20
 74
18
 42
0.0000001
 43
0.0000001
 44
0.0000000001
 12
-0.6485049914
 22
-0.2987146101
 32
0.0
 13
-0.6386138778
 23
0.3193140417
 33
0.0
 40
0.0
 40
0.0
 40
0.0
 40
0.0
 40
0.0522396472
 40
0.1069396419
 40
0.1638567434
 40
0.2227000889
 40
0.2831484521
 40
0.3448558843
 40
0.4074558835
 40
0.4705695986
 40
0.5338103769
 40
0.5967907472
 40
0.6591259906
 40
0.7204411152
 40
0.7803755101
 40
0.8385911682
 40
0.8947773451
 40
0.9486558637
 40
1.0
 40
1.0
 40
1.0
 40
1.0
 10
7.4808159734
 20
-4.582329603
 30
0.0
 10
7.4695234161
 20
-4.587531185
 30
0.0
 10
7.4460241037
 20
-4.5973637072
 30
0.0
 10
7.4091582607
 20
-4.6101469891
 30
0.0
 10
7.3701085569
 20
-4.6212239918
 30
0.0
 10
7.3291918423
 20
-4.6305044068
 30
0.0
 10
7.2867386867
 20
-4.6379132141
 30
0.0
 10
7.2430931802
 20
-4.6433901021
 30
0.0
 10
7.198609203
 20
-4.6468904803
 30
0.0
 10
7.1536480191
 20
-4.648385793
 30
0.0
 10
7.1085745604
 20
-4.6478638595
 30
0.0
 10
7.0637547979
 20
-4.6453289381
 30
0.0
 10
7.0195524714
 20
-4.6408016837
 30
0.0
 10
6.9763264707
 20
-4.634319019
 30
0.0
 10
6.9344271605
 20
-4.625933691
 30
0.0
 10
6.8941939563
 20
-4.6157139164
 30
0.0
 10
6.855951679
 20
-4.6037421831
 30
0.0
 10
6.820010362
 20
-4.5901159912
 30
0.0
 10
6.7971943147
 20
-4.579736559
 30
0.0
 10
6.7862646221
 20
-4.5742715911
 30
0.0
 11
7.4808159734
 21
-4.582329603
 31
0.0
 11
7.4464309143
 21
-4.5967820234
 31
0.0
 11
7.409547299
 21
-4.6096246721
 31
0.0
 11
7.3704624541
 21
-4.6207541644
 31
0.0
 11
7.3294965266
 21
-4.630079277
 31
0.0
 11
7.2869836104
 21
-4.6375239958
 31
0.0
 11
7.243269904
 21
-4.6430276878
 31
0.0
 11
7.1987124459
 21
-4.6465453829
 31
0.0
 11
7.1536746292
 21
-4.6480484055
 31
0.0
 11
7.1085240565
 21
-4.647524512
 31
0.0
 11
7.063628538
 21
-4.6449779778
 31
0.0
 11
7.0193544956
 21
-4.6404295766
 31
0.0
 11
6.9760630008
 21
-4.633916402
 31
0.0
 11
6.9341076229
 21
-4.6254916764
 31
0.0
 11
6.8938300487
 21
-4.6152240351
 31
0.0
 11
6.8555586432
 21
-4.6031971498
 31
0.0
 11
6.8196070474
 21
-4.589509674
 31
0.0
 11
6.7862646221
 21
-4.5742715911
 31
0.0
  0
SPLINE
  5
3BE
100
AcDbEntity
  8
0
100
AcDbSpline
 62
253
  6
CONTINUOUS
 70
0
 71
3
 72
23
 73
19
 74
17
 42
0.0000001
 43
0.0000001
 44
0.0000000001
 12
-0.652070591
 22
-0.2893505204
 32
0.0
 13
-0.6378613039
 23
0.3194569396
 33
0.0
 40
0.0
 40
0.0
 40
0.0
 40
0.0
 40
0.0553082065
 40
0.1134378537
 40
0.1740835217
 40
0.2368890949
 40
0.3014583347
 40
0.3673641945
 40
0.4341572969
 40
0.5013738793
 40
0.5685434279
 40
0.6351961753
 40
0.7008706123
 40
0.7651211698
 40
0.8275262498
 40
0.887696843
 40
0.9452860561
 40
1.0
 40
1.0
 40
1.0
 40
1.0
 10
7.5466862262
 20
3.3249151177
 30
0.0
 10
7.5346646079
 20
3.3195806316
 30
0.0
 10
7.509591345
 20
3.3095617284
 30
0.0
 10
7.4702030777
 20
3.2967443444
 30
0.0
 10
7.4283946619
 20
3.2858545773
 30
0.0
 10
7.384549578
 20
3.2769929528
 30
0.0
 10
7.339067117
 20
3.2702403228
 30
0.0
 10
7.2923632905
 20
3.2656588448
 30
0.0
 10
7.2448654682
 20
3.2632906858
 30
0.0
 10
7.1970086659
 20
3.2631577052
 30
0.0
 10
7.1492312997
 20
3.2652611667
 30
0.0
 10
7.1019710414
 20
3.2695817322
 30
0.0
 10
7.0556606805
 20
3.2760796428
 30
0.0
 10
7.0107238952
 20
3.284695191
 30
0.0
 10
6.9675715825
 20
3.2953491909
 30
0.0
 10
6.9265965146
 20
3.3079445445
 30
0.0
 10
6.8881744086
 20
3.3223651361
 30
0.0
 10
6.8638307803
 20
3.3334097505
 30
0.0
 10
6.8521974777
 20
3.3392360002
 30
0.0
 11
7.5466862262
 21
3.3249151177
 31
0.0
 11
7.510073939
 21
3.3102071314
 31
0.0
 11
7.470658955
 21
3.2973180891
 31
0.0
 11
7.4288041948
 21
3.2863666688
 31
0.0
 11
7.3848950436
 21
3.2774537078
 31
0.0
 11
7.3393358027
 21
3.2706612737
 31
0.0
 11
7.2925459669
 21
3.266051909
 31
0.0
 11
7.2449563622
 21
3.2636680553
 31
0.0
 11
7.1970051782
 21
3.2635316624
 31
0.0
 11
7.149133934
 21
3.2656439862
 31
0.0
 11
7.1017834127
 21
3.2699855769
 31
0.0
 11
7.0553896027
 21
3.2765164588
 31
0.0
 11
7.0103796833
 21
3.2851764974
 31
0.0
 11
6.9671680914
 21
3.2958859539
 31
0.0
 11
6.9261527053
 21
3.3085462192
 31
0.0
 11
6.8877111817
 21
3.3230407215
 31
0.0
 11
6.8521974777
 21
3.3392360002
 31
0.0
  0
LINE
  5
3BF
100
AcDbEntity
  8
0
100
AcDbLine
 62
253
  6
CONTINUOUS
 10
-4.0788789796
 20
1.2055491863
 11
-4.0792207358
 21
0.8584710871
  0
SPLINE
  5
3C0
100
AcDbEntity
  8
0
100
AcDbSpline
 62
253
  6
CONTINUOUS
 70
0
 71
3
 72
24
 73
20
 74
18
 42
0.0000001
 43
0.0000001
 44
0.0000000001
 12
0.146489364
 22
1.2866556801
 32
0.0
 13
1.1186804295
 23
0.6523005976
 33
0.0
 40
0.0
 40
0.0
 40
0.0
 40
0.0
 40
0.0576586026
 40
0.1166403177
 40
0.1767355377
 40
0.2377154065
 40
0.2993401779
 40
0.3613602909
 40
0.4235208224
 40
0.4855648487
 40
0.5472374607
 40
0.6082881201
 40
0.6684755805
 40
0.727570453
 40
0.7853595476
 40
0.841649841
 40
0.8962737263
 40
0.9490914259
 40
1.0
 40
1.0
 40
1.0
 40
1.0
 10
-7.2806543044
 20
21.2474916483
 30
0.0
 10
-7.2778388471
 20
21.2722205711
 30
0.0
 10
-7.2706812714
 20
21.3220896449
 30
0.0
 10
-7.2557115248
 20
21.3969306845
 30
0.0
 10
-7.2364704001
 20
21.4722703098
 30
0.0
 10
-7.2130820936
 20
21.5476204676
 30
0.0
 10
-7.1856973318
 20
21.622496378
 30
0.0
 10
-7.1544924974
 20
21.6964152749
 30
0.0
 10
-7.1196687429
 20
21.7689004014
 30
0.0
 10
-7.0814504882
 20
21.8394842373
 30
0.0
 10
-7.0400840828
 20
21.9077114013
 30
0.0
 10
-6.9958360193
 20
21.9731418861
 30
0.0
 10
-6.9489913462
 20
22.0353536283
 30
0.0
 10
-6.8998515981
 20
22.0939454782
 30
0.0
 10
-6.8487328073
 20
22.1485396748
 30
0.0
 10
-6.7959634798
 20
22.1987842372
 30
0.0
 10
-6.7418807826
 20
22.2443560231
 30
0.0
 10
-6.6868346675
 20
22.2849585864
 30
0.0
 10
-6.6490062522
 20
22.3089979692
 30
0.0
 10
-6.6300227771
 20
22.3200672003
 30
0.0
 11
-7.2806543044
 21
21.2474916483
 31
0.0
 11
-7.2700973092
 21
21.3214075984
 31
0.0
 11
-7.2551584334
 21
21.3963118529
 31
0.0
 11
-7.235933967
 21
21.4717213193
 31
0.0
 11
-7.2125486063
 21
21.5471461699
 31
0.0
 11
-7.1851534569
 21
21.6220986983
 31
0.0
 11
-7.1539258517
 21
21.6960931886
 31
0.0
 11
-7.1190679587
 21
21.7686501767
 31
0.0
 11
-7.0808055379
 21
21.839299382
 31
0.0
 11
-7.0393861376
 21
21.9075833526
 31
0.0
 11
-6.9950782328
 21
21.9730591435
 31
0.0
 11
-6.9481685897
 21
22.0353026865
 31
0.0
 11
-6.8989611925
 21
22.0939103263
 31
0.0
 11
-6.8477749581
 21
22.1485019958
 31
0.0
 11
-6.7949417597
 21
22.1987235715
 31
0.0
 11
-6.7408034547
 21
22.2442499502
 31
0.0
 11
-6.6857118648
 21
22.2847850891
 31
0.0
 11
-6.6300227771
 21
22.3200672003
 31
0.0
  0
LINE
  5
3C1
100
AcDbEntity
  8
DRAFT
100
AcDbLine
 62
7
  6
CONTINUOUS
 10
-3.8035334642
 20
8.6518500391
 11
-3.8039400115
 21
8.6673047448
  0
SPLINE
  5
3C2
100
AcDbEntity
  8
0
100
AcDbSpline
 62
253
  6
CONTINUOUS
 70
0
 71
3
 72
14
 73
10
 74
8
 42
0.0000001
 43
0.0000001
 44
0.0000000001
 12
0.1564340241
 22
10.5284993935
 32
0.0
 13
1.1692844034
 23
10.464537499
 33
0.0
 40
0.0
 40
0.0
 40
0.0
 40
0.0
 40
0.1398137881
 40
0.2806783165
 40
0.4225727613
 40
0.5654753199
 40
0.7093632731
 40
0.8542129924
 40
1.0
 40
1.0
 40
1.0
 40
1.0
 10
-7.9563947139
 20
10.743532096
 30
0.0
 10
-7.9491041694
 20
11.2342085571
 30
0.0
 10
-7.927308941
 20
12.2191568627
 30
0.0
 10
-7.8733513139
 20
13.7014047757
 30
0.0
 10
-7.7980236046
 20
15.1935777848
 30
0.0
 10
-7.7013521512
 20
16.695152081
 30
0.0
 10
-7.5833705069
 20
18.2056069196
 30
0.0
 10
-7.4441201359
 20
19.724412751
 30
0.0
 10
-7.3374764625
 20
20.7389604456
 30
0.0
 10
-7.2806543044
 20
21.2474916483
 30
0.0
 11
-7.9563947139
 21
10.743532096
 31
0.0
 11
-7.9239057394
 21
12.2153654223
 31
0.0
 11
-7.870024714
 21
13.6976422525
 31
0.0
 11
-7.7947703638
 21
15.1898463277
 31
0.0
 11
-7.6981688556
 21
16.6914578246
 31
0.0
 11
-7.5802537724
 21
18.2019538043
 31
0.0
 11
-7.4410661219
 21
19.7208080776
 31
0.0
 11
-7.2806543044
 21
21.2474916483
 31
0.0
  0
LINE
  5
3C3
100
AcDbEntity
  8
DRAFT
100
AcDbLine
 62
7
  6
CONTINUOUS
 10
-3.7564930788
 20
8.4694445973
 11
-3.8035334642
 21
8.6518500391
  0
SPLINE
  5
3C4
100
AcDbEntity
  8
0
100
AcDbSpline
 62
253
  6
CONTINUOUS
 70
0
 71
3
 72
16
 73
12
 74
10
 42
0.0000001
 43
0.0000001
 44
0.0000000001
 12
0.1455886086
 22
0.0663845925
 32
0.0
 13
0.0011727778
 23
0.1597768909
 33
0.0
 40
0.0
 40
0.0
 40
0.0
 40
0.0
 40
0.0093594255
 40
0.1141485695
 40
0.221479261
 40
0.3333982392
 40
0.4515010804
 40
0.5768639497
 40
0.7100553997
 40
0.8511906641
 40
1.0
 40
1.0
 40
1.0
 40
1.0
 10
7.4140405519
 20
-4.7183774112
 30
0.0
 10
7.4144947605
 20
-4.718170304
 30
0.0
 10
7.4200128273
 20
-4.7155973275
 30
0.0
 10
7.430189815
 20
-4.7094952605
 30
0.0
 10
7.4431749977
 20
-4.6979867854
 30
0.0
 10
7.454427429
 20
-4.6838755123
 30
0.0
 10
7.4638208931
 20
-4.6673644194
 30
0.0
 10
7.4712579866
 20
-4.6486721188
 30
0.0
 10
7.4766630211
 20
-4.6280331123
 30
0.0
 10
7.4799803895
 20
-4.60570375
 30
0.0
 10
7.4807578
 20
-4.590255034
 30
0.0
 10
7.4808159734
 20
-4.582329603
 30
0.0
 11
7.4140405519
 21
-4.7183774112
 31
0.0
 11
7.4153978153
 21
-4.7177445246
 31
0.0
 11
7.4297687896
 21
-4.7091529966
 31
0.0
 11
7.4426381626
 21
-4.697818004
 31
0.0
 11
7.453844157
 21
-4.6838820357
 31
0.0
 11
7.4632459055
 21
-4.6675202765
 31
0.0
 11
7.4707252213
 21
-4.6489384053
 31
0.0
 11
7.4761880841
 21
-4.6283700095
 31
0.0
 11
7.4795658217
 21
-4.6060736484
 31
0.0
 11
7.4808159734
 21
-4.582329603
 31
0.0
  0
SPLINE
  5
3C5
100
AcDbEntity
  8
0
100
AcDbSpline
 62
253
  6
CONTINUOUS
 70
0
 71
3
 72
15
 73
11
 74
9
 42
0.0000001
 43
0.0000001
 44
0.0000000001
 12
-0.1415034438
 22
0.0707504849
 32
0.0
 13
0.0001025625
 23
0.1579480455
 33
0.0
 40
0.0
 40
0.0
 40
0.0
 40
0.0
 40
0.0438261668
 40
0.1613511118
 40
0.2825672305
 40
0.4096880124
 40
0.5443237634
 40
0.6874371797
 40
0.8393852428
 40
1.0
 40
1.0
 40
1.0
 40
1.0
 10
6.8512290339
 20
-4.7096567063
 30
0.0
 10
6.8491618494
 20
-4.7086231321
 30
0.0
 10
6.8416916241
 20
-4.7045377438
 30
0.0
 10
6.8296552625
 20
-4.6956353692
 30
0.0
 10
6.8165274732
 20
-4.681393978
 30
0.0
 10
6.8055846121
 20
-4.6643497685
 30
0.0
 10
6.7969601145
 20
-4.6447730904
 30
0.0
 10
6.790752756
 20
-4.6229519949
 30
0.0
 10
6.787032721
 20
-4.5991998049
 30
0.0
 10
6.7862591307
 20
-4.5827278538
 30
0.0
 10
6.7862646217
 20
-4.5742715915
 30
0.0
 11
6.8512290339
 21
-4.7096567063
 31
0.0
 11
6.8451477891
 21
-4.7063301547
 31
0.0
 11
6.8302009613
 21
-4.6953223692
 31
0.0
 11
6.8171717559
 21
-4.6812937023
 31
0.0
 11
6.8062482564
 21
-4.6644466655
 31
0.0
 11
6.7975881495
 21
-4.645024455
 31
0.0
 11
6.7913164486
 21
-4.623307441
 31
0.0
 11
6.7875236892
 21
-4.5996091204
 31
0.0
 11
6.7862646217
 21
-4.5742715915
 31
0.0
  0
LINE
  5
3C6
100
AcDbEntity
  8
DRAFT
100
AcDbLine
 62
7
  6
CONTINUOUS
 10
0.3655072137
 20
9.5188436292
 11
0.0241941016
 21
9.4032386795
  0
SPLINE
  5
3C7
100
AcDbEntity
  8
0
100
AcDbSpline
 62
253
  6
CONTINUOUS
 70
0
 71
3
 72
16
 73
12
 74
10
 42
0.0000001
 43
0.0000001
 44
0.0000000001
 12
-0.1366353228
 22
0.0736268298
 32
0.0
 13
0.000099559
 23
0.1550204711
 33
0.0
 40
0.0
 40
0.0
 40
0.0
 40
0.0
 40
0.0340881156
 40
0.137721555
 40
0.2440805408
 40
0.3546854538
 40
0.4707177371
 40
0.5929855177
 40
0.7219304926
 40
0.8576608948
 40
1.0
 40
1.0
 40
1.0
 40
1.0
 10
2.9099174029
 20
-2.7389522645
 30
0.0
 10
2.908364856
 20
-2.7381156646
 30
0.0
 10
2.9021877914
 20
-2.7345587218
 30
0.0
 10
2.8919978216
 20
-2.7270255968
 30
0.0
 10
2.8804209352
 20
-2.7150776143
 30
0.0
 10
2.870443654
 20
-2.7009823642
 30
0.0
 10
2.8621633296
 20
-2.6849070921
 30
0.0
 10
2.8556566007
 20
-2.6670323796
 30
0.0
 10
2.8509826548
 20
-2.6475516365
 30
0.0
 10
2.8481838498
 20
-2.6266747326
 30
0.0
 10
2.8475982376
 20
-2.6122959198
 30
0.0
 10
2.8476029613
 20
-2.6049407614
 30
0.0
 11
2.9099174029
 21
-2.7389522645
 31
0.0
 11
2.9053332116
 21
-2.7363123809
 31
0.0
 11
2.892399961
 21
-2.726782158
 31
0.0
 11
2.8808948176
 21
-2.714971993
 31
0.0
 11
2.8709425441
 21
-2.7010099526
 31
0.0
 11
2.862651128
 21
-2.6850475479
 31
0.0
 11
2.8561104477
 21
-2.6672578289
 31
0.0
 11
2.8513914504
 21
-2.6478337259
 31
0.0
 11
2.8485453462
 21
-2.626986108
 31
0.0
 11
2.8476029613
 21
-2.6049407614
 31
0.0
  0
LINE
  5
3C8
100
AcDbEntity
  8
DRAFT
100
AcDbLine
 62
7
  6
CONTINUOUS
 10
0.7560496068
 20
9.4549271038
 11
0.3655072137
 21
9.5188436292
  0
LINE
  5
3C9
100
AcDbEntity
  8
DRAFT
100
AcDbLine
 62
7
  6
CONTINUOUS
 10
1.1513659899
 20
9.2182606567
 11
0.7560496068
 21
9.4549271038
  0
SPLINE
  5
3CA
100
AcDbEntity
  8
DRAFT
100
AcDbSpline
 62
7
  6
CONTINUOUS
 70
0
 71
3
 72
24
 73
20
 74
18
 42
0.0000001
 43
0.0000001
 44
0.0000000001
 12
-0.1243197688
 22
0.1138344555
 32
0.0
 13
0.1084512435
 23
0.1290643911
 33
0.0
 40
0.0
 40
0.0
 40
0.0
 40
0.0
 40
0.007957433
 40
0.0859458321
 40
0.1625128454
 40
0.2350457251
 40
0.3031314401
 40
0.3675296249
 40
0.4296505591
 40
0.4910289918
 40
0.5517671963
 40
0.6104818083
 40
0.6666394913
 40
0.72169022
 40
0.7774161259
 40
0.8348082271
 40
0.8944558585
 40
0.9553895449
 40
1.0
 40
1.0
 40
1.0
 40
1.0
 10
0.8973115869
 20
8.7507570874
 30
0.0
 10
0.8969818315
 20
8.7510590308
 30
0.0
 10
0.8934290861
 20
8.7543299049
 30
0.0
 10
0.8868952236
 20
8.7607138205
 30
0.0
 10
0.878326457
 20
8.7701779912
 30
0.0
 10
0.8707666873
 20
8.7797685655
 30
0.0
 10
0.8643222114
 20
8.7893285948
 30
0.0
 10
0.8589555292
 20
8.7988683926
 30
0.0
 10
0.8546037841
 20
8.8085021227
 30
0.0
 10
0.8512762314
 20
8.8183223786
 30
0.0
 10
0.8490687405
 20
8.8282610398
 30
0.0
 10
0.8480584708
 20
8.838098304
 30
0.0
 10
0.8482195676
 20
8.8476657101
 30
0.0
 10
0.8494912302
 20
8.8569794217
 30
0.0
 10
0.8518669746
 20
8.8661458557
 30
0.0
 10
0.8553802503
 20
8.8752162563
 30
0.0
 10
0.8600194858
 20
8.8840959425
 30
0.0
 10
0.8651602668
 20
8.8918404707
 30
0.0
 10
0.8688341009
 20
8.896502132
 30
0.0
 10
0.8704467874
 20
8.8984213391
 30
0.0
 11
0.8973115869
 21
8.7507570874
 31
0.0
 11
0.8963247921
 21
8.7516656117
 31
0.0
 11
0.8869353571
 21
8.7608638527
 31
0.0
 11
0.8782892578
 21
8.7704437189
 31
0.0
 11
0.870738123
 21
8.780057433
 31
0.0
 11
0.8643412406
 21
8.7895842049
 31
0.0
 11
0.8590375163
 21
8.7990537721
 31
0.0
 11
0.854745917
 21
8.8086036531
 31
0.0
 11
0.8514452567
 21
8.8184076794
 31
0.0
 11
0.8492433775
 21
8.8284048883
 31
0.0
 11
0.8482448619
 21
8.838250145
 31
0.0
 11
0.8484097582
 21
8.847713526
 31
0.0
 11
0.8496641686
 21
8.8569065887
 31
0.0
 11
0.8520138711
 21
8.8659999611
 31
0.0
 11
0.8554956851
 21
8.8750244453
 31
0.0
 11
0.8601350566
 21
8.8839429269
 31
0.0
 11
0.8657980015
 21
8.8925102563
 31
0.0
 11
0.8704467874
 21
8.8984213391
 31
0.0
  0
SPLINE
  5
3CB
100
AcDbEntity
  8
DRAFT
100
AcDbSpline
 62
7
  6
CONTINUOUS
 70
0
 71
3
 72
10
 73
6
 74
4
 42
0.0000001
 43
0.0000001
 44
0.0000000001
 12
-1.0967687188
 22
0.9176734174
 32
0.0
 13
-1.0958893709
 23
0.9187233702
 33
0.0
 40
0.0
 40
0.0
 40
0.0
 40
0.0
 40
0.3750829157
 40
0.7500656937
 40
1.0
 40
1.0
 40
1.0
 40
1.0
 10
2.1391106431
 20
7.7102734751
 30
0.0
 10
2.0019842401
 20
7.8250080154
 30
0.0
 10
1.7278092111
 20
8.0544956723
 30
0.0
 10
1.3623844126
 20
8.3605836503
 30
0.0
 10
1.1340814896
 20
8.5519316145
 30
0.0
 10
1.042781373
 20
8.6284717773
 30
0.0
 11
2.1391106431
 21
7.7102734751
 31
0.0
 11
1.7277932188
 21
8.0545509253
 31
0.0
 11
1.3167092232
 21
8.3988840971
 31
0.0
 11
1.042781373
 21
8.6284717773
 31
0.0
  0
LINE
  5
3CC
100
AcDbEntity
  8
DRAFT
100
AcDbLine
 62
7
  6
CONTINUOUS
 10
1.042781373
 20
8.6284717773
 11
0.9818745838
 21
8.6795348864
  0
LINE
  5
3CD
100
AcDbEntity
  8
DRAFT
100
AcDbLine
 62
7
  6
CONTINUOUS
 10
0.9818745838
 20
8.6795348864
 11
0.9058488657
 21
8.7432811768
  0
LINE
  5
3CE
100
AcDbEntity
  8
DRAFT
100
AcDbLine
 62
7
  6
CONTINUOUS
 10
-3.6690785737
 20
8.2968204248
 11
-3.7564930788
 21
8.4694445973
  0
SPLINE
  5
3CF
100
AcDbEntity
  8
0
100
AcDbSpline
 62
253
  6
CONTINUOUS
 70
0
 71
3
 72
16
 73
12
 74
10
 42
0.0000001
 43
0.0000001
 44
0.0000000001
 12
-0.0001144465
 22
-0.2411427022
 32
0.0
 13
0.215388779
 23
-0.1076918604
 33
0.0
 40
0.0
 40
0.0
 40
0.0
 40
0.0
 40
0.0650110013
 40
0.1599114603
 40
0.2585742621
 40
0.362783844
 40
0.4738920228
 40
0.5928151438
 40
0.7200706689
 40
0.8558301047
 40
1.0
 40
1.0
 40
1.0
 40
1.0
 10
-8.164328397
 20
3.0040478708
 30
0.0
 10
-8.1643308771
 20
2.9988222279
 30
0.0
 10
-8.1635235309
 20
2.985967167
 30
0.0
 10
-8.1590346119
 20
2.965591814
 30
0.0
 10
-8.1499637684
 20
2.9433633893
 30
0.0
 10
-8.1369183354
 20
2.9216953824
 30
0.0
 10
-8.1200355951
 20
2.9007501886
 30
0.0
 10
-8.0994686375
 20
2.8806780531
 30
0.0
 10
-8.0753888407
 20
2.8616240617
 30
0.0
 10
-8.0479917957
 20
2.8437301925
 30
0.0
 10
-8.0282332552
 20
2.832977226
 30
0.0
 10
-8.017882396
 20
2.8278019179
 30
0.0
 11
-8.164328397
 21
3.0040478708
 31
0.0
 11
-8.1633490417
 21
2.9884119565
 31
0.0
 11
-8.1584903173
 21
2.9660813691
 31
0.0
 11
-8.149600789
 21
2.9440479894
 31
0.0
 11
-8.1367529518
 21
2.9224915069
 31
0.0
 11
-8.1200517908
 21
2.9015879745
 31
0.0
 11
-8.0996333476
 21
2.881507613
 31
0.0
 11
-8.0756640631
 21
2.8624141738
 31
0.0
 11
-8.0483404136
 21
2.8444640327
 31
0.0
 11
-8.017882396
 21
2.8278019179
 31
0.0
  0
SPLINE
  5
3D0
100
AcDbEntity
  8
0
100
AcDbSpline
 62
253
  6
CONTINUOUS
 70
0
 71
3
 72
16
 73
12
 74
10
 42
0.0000001
 43
0.0000001
 44
0.0000000001
 12
-0.0036353576
 22
-0.2411711045
 32
0.0
 13
0.2154610374
 23
-0.1075527502
 33
0.0
 40
0.0
 40
0.0
 40
0.0
 40
0.0
 40
0.0250841714
 40
0.123103841
 40
0.2245996124
 40
0.3319275334
 40
0.4468917723
 40
0.5707121922
 40
0.7040753644
 40
0.8472162423
 40
1.0
 40
1.0
 40
1.0
 40
1.0
 10
-8.1028489351
 20
10.919476366
 30
0.0
 10
-8.1028793318
 20
10.9174598402
 30
0.0
 10
-8.1027773754
 20
10.9075600667
 30
0.0
 10
-8.100322673
 20
10.8895829695
 30
0.0
 10
-8.0924026684
 20
10.8661174508
 30
0.0
 10
-8.0799420287
 20
10.8431798249
 30
0.0
 10
-8.0631052062
 20
10.8209658428
 30
0.0
 10
-8.0420726237
 20
10.7996510623
 30
0.0
 10
-8.0170440484
 20
10.7794045395
 30
0.0
 10
-7.9882490857
 20
10.760394048
 30
0.0
 10
-7.9673676959
 20
10.7490095339
 30
0.0
 10
-7.9563947136
 20
10.7435320961
 30
0.0
 11
-8.1028489351
 21
10.919476366
 31
0.0
 11
-8.1027861527
 21
10.913427328
 31
0.0
 11
-8.0996440076
 21
10.8900329572
 31
0.0
 11
-8.0919280507
 21
10.8668413088
 31
0.0
 11
-8.0797093279
 21
10.8440659243
 31
0.0
 11
-8.0631003454
 21
10.821916512
 31
0.0
 11
-8.0422540333
 21
10.8005970165
 31
0.0
 11
-8.0173623378
 21
10.780303741
 31
0.0
 11
-7.9886544536
 21
10.7612235395
 31
0.0
 11
-7.9563947136
 21
10.7435320961
 31
0.0
  0
LINE
  5
3D1
100
AcDbEntity
  8
DRAFT
100
AcDbLine
 62
7
  6
CONTINUOUS
 10
-3.5160800235
 20
8.1136319027
 11
-3.6690785737
 21
8.2968204248
  0
SPLINE
  5
3D2
100
AcDbEntity
  8
0
100
AcDbSpline
 62
253
  6
CONTINUOUS
 70
0
 71
3
 72
15
 73
11
 74
9
 42
0.0000001
 43
0.0000001
 44
0.0000000001
 12
-0.0001025643
 22
-0.1579508346
 32
0.0
 13
0.1415080454
 23
-0.0707475364
 33
0.0
 40
0.0
 40
0.0
 40
0.0
 40
0.0
 40
0.160611921
 40
0.312557301
 40
0.4556681902
 40
0.5903015638
 40
0.717420101
 40
0.8386340793
 40
0.956156949
 40
1.0
 40
1.0
 40
1.0
 40
1.0
 10
-8.0178823963
 20
2.8278019176
 30
0.0
 10
-8.0178878873
 20
2.8193456552
 30
0.0
 10
-8.0171142971
 20
2.8028737042
 30
0.0
 10
-8.013394262
 20
2.7791215141
 30
0.0
 10
-8.0071869035
 20
2.7573004186
 30
0.0
 10
-7.9985624059
 20
2.7377237406
 30
0.0
 10
-7.9876195448
 20
2.720679531
 30
0.0
 10
-7.9744917555
 20
2.7064381398
 30
0.0
 10
-7.9624546418
 20
2.6975352089
 30
0.0
 10
-7.9549835335
 20
2.6934494827
 30
0.0
 10
-7.9529154854
 20
2.6924155534
 30
0.0
 11
-8.0178823963
 21
2.8278019176
 31
0.0
 11
-8.0166233289
 21
2.8024643886
 31
0.0
 11
-8.0128305694
 21
2.778766068
 31
0.0
 11
-8.0065588686
 21
2.757049054
 31
0.0
 11
-7.9978987617
 21
2.7376268435
 31
0.0
 11
-7.9869752622
 21
2.7207798067
 31
0.0
 11
-7.9739460567
 21
2.7067511398
 31
0.0
 11
-7.958999229
 21
2.6957433543
 31
0.0
 11
-7.9529154854
 21
2.6924155534
 31
0.0
  0
SPLINE
  5
3D3
100
AcDbEntity
  8
0
100
AcDbSpline
 62
253
  6
CONTINUOUS
 70
0
 71
3
 72
15
 73
11
 74
9
 42
0.0000001
 43
0.0000001
 44
0.0000000001
 12
-0.0001033419
 22
-0.1580748852
 32
0.0
 13
0.1415592458
 23
-0.0708180172
 33
0.0
 40
0.0
 40
0.0
 40
0.0
 40
0.0
 40
0.1493203648
 40
0.2912134686
 40
0.4255076795
 40
0.5524118719
 40
0.6725727114
 40
0.7871133038
 40
0.8976252152
 40
1.0
 40
1.0
 40
1.0
 40
1.0
 10
-4.0792207358
 20
0.8584710871
 30
0.0
 10
-4.0792258795
 20
0.850603154
 30
0.0
 10
-4.0785539367
 20
0.8352461559
 30
0.0
 10
-4.0753344507
 20
0.8130174185
 30
0.0
 10
-4.0699600721
 20
0.7924179972
 30
0.0
 10
-4.0624852269
 20
0.773702792
 30
0.0
 10
-4.0529860472
 20
0.7571061695
 30
0.0
 10
-4.0415627346
 20
0.742847245
 30
0.0
 10
-4.0285874303
 20
0.7313420471
 30
0.0
 10
-4.0189768691
 20
0.7254464116
 30
0.0
 10
-4.01414617
 20
0.7230297519
 30
0.0
 11
-4.0792207358
 21
0.8584710871
 31
0.0
 11
-4.0781341599
 21
0.8348923055
 31
0.0
 11
-4.0748565735
 21
0.8127033285
 31
0.0
 11
-4.0694287811
 21
0.7921804082
 31
0.0
 11
-4.0619183476
 21
0.773579015
 31
0.0
 11
-4.0524187757
 21
0.7571307344
 31
0.0
 11
-4.0410483187
 21
0.7430403207
 31
0.0
 11
-4.0279485316
 21
0.7314831939
 31
0.0
 11
-4.01414617
 21
0.7230297519
 31
0.0
  0
LINE
  5
3D4
100
AcDbEntity
  8
DRAFT
100
AcDbLine
 62
7
  6
CONTINUOUS
 10
1.4363587403
 20
9.5413590382
 11
1.7088871674
 21
9.8490988911
  0
LINE
  5
3D5
100
AcDbEntity
  8
DRAFT
100
AcDbLine
 62
7
  6
CONTINUOUS
 10
-3.4178046742
 20
8.0329355532
 11
-3.5160800235
 21
8.1136319027
  0
SPLINE
  5
3D6
100
AcDbEntity
  8
0
100
AcDbSpline
 62
253
  6
CONTINUOUS
 70
0
 71
3
 72
20
 73
16
 74
14
 42
0.0000001
 43
0.0000001
 44
0.0000000001
 12
-0.2602256366
 22
-0.1276101153
 32
0.0
 13
-0.259231404
 23
0.1296179102
 33
0.0
 40
0.0
 40
0.0
 40
0.0
 40
0.0
 40
0.0681321071
 40
0.1405160194
 40
0.2165575776
 40
0.295547733
 40
0.3766928831
 40
0.4591413919
 40
0.5420078709
 40
0.6243963064
 40
0.7054228461
 40
0.7842389759
 40
0.8600559133
 40
0.9321713266
 40
1.0
 40
1.0
 40
1.0
 40
1.0
 10
-3.7976175715
 20
0.8577189069
 30
0.0
 10
-3.8035274785
 20
0.8548207916
 30
0.0
 10
-3.8160130353
 20
0.8494375056
 30
0.0
 10
-3.835862292
 20
0.8427634574
 30
0.0
 10
-3.8571670835
 20
0.8373188599
 30
0.0
 10
-3.8796226281
 20
0.8331822795
 30
0.0
 10
-3.9029097691
 20
0.8304126432
 30
0.0
 10
-3.9266957783
 20
0.8290498698
 30
0.0
 10
-3.9506406255
 20
0.8291135724
 30
0.0
 10
-3.9744017847
 20
0.8306028337
 30
0.0
 10
-3.9976396019
 20
0.8334962243
 30
0.0
 10
-4.0200220927
 20
0.8377520528
 30
0.0
 10
-4.0412312202
 20
0.8433097201
 30
0.0
 10
-4.0609636278
 20
0.8500890631
 30
0.0
 10
-4.0733595609
 20
0.8555405172
 30
0.0
 10
-4.0792206683
 20
0.8584711208
 30
0.0
 11
-3.7976175715
 21
0.8577189069
 31
0.0
 11
-3.8157278408
 21
0.8498478966
 31
0.0
 11
-3.8355984892
 21
0.843118963
 31
0.0
 11
-3.8569429639
 21
0.8376291431
 31
0.0
 11
-3.8794534587
 21
0.833457605
 31
0.0
 11
-3.9028053519
 21
0.8306645059
 31
0.0
 11
-3.9266618887
 21
0.8292901244
 31
0.0
 11
-3.9506790367
 21
0.8293542801
 31
0.0
 11
-3.9745104478
 21
0.8308560476
 31
0.0
 11
-3.9978124525
 21
0.8337737697
 31
0.0
 11
-4.0202490161
 21
0.8380653702
 31
0.0
 11
-4.0414965843
 21
0.8436689604
 31
0.0
 11
-4.0612487493
 21
0.8505037317
 31
0.0
 11
-4.0792206683
 21
0.8584711208
 31
0.0
  0
SPLINE
  5
3D7
100
AcDbEntity
  8
0
100
AcDbSpline
 62
253
  6
CONTINUOUS
 70
0
 71
3
 72
20
 73
16
 74
14
 42
0.0000001
 43
0.0000001
 44
0.0000000001
 12
-0.2603119505
 22
-0.1273992352
 32
0.0
 13
-0.2592168644
 23
0.1296128617
 33
0.0
 40
0.0
 40
0.0
 40
0.0
 40
0.0
 40
0.0681127847
 40
0.1404823319
 40
0.2165141814
 40
0.2954989039
 40
0.3766424495
 40
0.4590926729
 40
0.5419636158
 40
0.6243586334
 40
0.7053931767
 40
0.7842179652
 40
0.8600433721
 40
0.9321661335
 40
1.0
 40
1.0
 40
1.0
 40
1.0
 10
-3.7972759507
 20
1.2046581743
 30
0.0
 10
-3.8031861413
 20
1.2017656687
 30
0.0
 10
-3.8156722084
 20
1.1963936494
 30
0.0
 10
-3.8355213706
 20
1.1897360288
 30
0.0
 10
-3.8568260642
 20
1.1843073624
 30
0.0
 10
-3.8792815123
 20
1.1801859922
 30
0.0
 10
-3.9025685596
 20
1.1774306327
 30
0.0
 10
-3.9263544779
 20
1.1760810016
 30
0.0
 10
-3.9502992353
 20
1.1761565258
 30
0.0
 10
-3.9740603037
 20
1.1776561196
 30
0.0
 10
-3.9972980255
 20
1.1805582052
 30
0.0
 10
-4.0196804127
 20
1.1848209649
 30
0.0
 10
-4.040889423
 20
1.1903836953
 30
0.0
 10
-4.0606217001
 20
1.1971661557
 30
0.0
 10
-4.0730177522
 20
1.2026184725
 30
0.0
 10
-4.0788789796
 20
1.2055491863
 30
0.0
 11
-3.7972759507
 21
1.2046581743
 31
0.0
 11
-3.8153862057
 21
1.1968038035
 31
0.0
 11
-3.8352568394
 21
1.1900912689
 31
0.0
 11
-3.8566013002
 21
1.1846173711
 31
0.0
 11
-3.8791117821
 21
1.1804610485
 31
0.0
 11
-3.9024636646
 21
1.1776822388
 31
0.0
 11
-3.926320193
 21
1.1763210149
 31
0.0
 11
-3.9503373355
 21
1.1763970068
 31
0.0
 11
-3.9741687439
 21
1.1779091187
 31
0.0
 11
-3.9974707486
 21
1.1808355447
 31
0.0
 11
-4.0199073143
 21
1.185134083
 31
0.0
 11
-4.0411548862
 21
1.190742745
 31
0.0
 11
-4.0609070558
 21
1.197580649
 31
0.0
 11
-4.0788789796
 21
1.2055491863
 31
0.0
  0
SPLINE
  5
3D8
100
AcDbEntity
  8
0
100
AcDbSpline
 62
253
  6
CONTINUOUS
 70
0
 71
3
 72
16
 73
12
 74
10
 42
0.0000001
 43
0.0000001
 44
0.0000000001
 12
-0.0259735561
 22
-0.2334778767
 32
0.0
 13
0.2102073142
 23
-0.1036159374
 33
0.0
 40
0.0
 40
0.0
 40
0.0
 40
0.0
 40
0.0580156198
 40
0.1427327581
 40
0.2336418451
 40
0.3333522654
 40
0.443572188
 40
0.5652362368
 40
0.6986743667
 40
0.8437563701
 40
1.0
 40
1.0
 40
1.0
 40
1.0
 10
-7.4279609486
 20
21.4132300275
 30
0.0
 10
-7.4284632393
 20
21.4087149062
 30
0.0
 10
-7.4287571389
 20
21.3974990839
 30
0.0
 10
-7.4254898786
 20
21.3793824284
 30
0.0
 10
-7.4172448547
 20
21.3593691785
 30
0.0
 10
-7.4045342307
 20
21.3394820949
 30
0.0
 10
-7.3875197857
 20
21.3198519079
 30
0.0
 10
-7.366365199
 20
21.3006150827
 30
0.0
 10
-7.3412567355
 20
21.2819204625
 30
0.0
 10
-7.3124157177
 20
21.2639251502
 30
0.0
 10
-7.2916021391
 20
21.2528880969
 30
0.0
 10
-7.2806542878
 20
21.2474916536
 30
0.0
 11
-7.4279609486
 21
21.4132300275
 31
0.0
 11
-7.4283238412
 21
21.3996217654
 31
0.0
 11
-7.4249242105
 21
21.3800609057
 31
0.0
 11
-7.4169749075
 21
21.360294248
 31
0.0
 11
-7.4045491636
 21
21.3405038886
 31
0.0
 11
-7.3877614482
 21
21.3208721416
 31
0.0
 11
-7.3667664143
 21
21.3015798602
 31
0.0
 11
-7.3417574743
 21
21.2828047705
 31
0.0
 11
-7.3129650174
 21
21.2647198338
 31
0.0
 11
-7.2806542878
 21
21.2474916536
 31
0.0
  0
SPLINE
  5
3D9
100
AcDbEntity
  8
0
100
AcDbSpline
 62
253
  6
CONTINUOUS
 70
0
 71
3
 72
15
 73
11
 74
9
 42
0.0000001
 43
0.0000001
 44
0.0000000001
 12
0.2138260264
 22
0.1288774273
 32
0.0
 13
0.2262039465
 23
-0.1050008836
 33
0.0
 40
0.0
 40
0.0
 40
0.0
 40
0.0
 40
0.0551471039
 40
0.1752178842
 40
0.2980738439
 40
0.4253691613
 40
0.5584328593
 40
0.6982239716
 40
0.8453312178
 40
1.0
 40
1.0
 40
1.0
 40
1.0
 10
-6.8696140486
 20
22.3251356482
 30
0.0
 10
-6.8656834199
 20
22.3275047204
 30
0.0
 10
-6.8529138213
 20
22.334565759
 30
0.0
 10
-6.829862043
 20
22.3439391996
 30
0.0
 10
-6.7997734849
 20
22.3509558769
 30
0.0
 10
-6.7679159948
 20
22.3535536256
 30
0.0
 10
-6.7346087397
 20
22.3517331928
 30
0.0
 10
-6.7001705766
 20
22.3455351226
 30
0.0
 10
-6.6649279699
 20
22.3350375567
 30
0.0
 10
-6.6416850067
 20
22.3254806532
 30
0.0
 10
-6.6300227771
 20
22.3200672003
 30
0.0
 11
-6.8696140486
 21
22.3251356482
 31
0.0
 11
-6.8575679891
 21
22.3317957847
 31
0.0
 11
-6.8298438556
 21
22.3431101273
 31
0.0
 11
-6.8000220195
 21
22.3501371994
 31
0.0
 11
-6.7683890144
 21
22.3528094835
 31
0.0
 11
-6.7352487759
 21
22.3511013039
 31
0.0
 11
-6.7009197215
 21
22.3450290731
 31
0.0
 11
-6.6657316909
 21
22.3346511342
 31
0.0
 11
-6.6300227771
 21
22.3200672003
 31
0.0
  0
LINE
  5
3DA
100
AcDbEntity
  8
DRAFT
100
AcDbLine
 62
7
  6
CONTINUOUS
 10
-2.9874235795
 20
7.8677193164
 11
-3.1527352336
 21
7.9005862498
  0
LINE
  5
3DB
100
AcDbEntity
  8
DRAFT
100
AcDbLine
 62
7
  6
CONTINUOUS
 10
-0.4333271135
 20
9.7786513292
 11
-0.2404678904
 21
9.9412576841
  0
ELLIPSE
  5
3DC
100
AcDbEntity
  8
0
100
AcDbEllipse
 62
7
  6
CONTINUOUS
 10
11.1219440489
 20
-3.3593092516
 30
0.0
 11
-0.1119259236
 21
0.2235783474
 31
0.0
 40
0.6126250184
 41
-2.2559124555
 42
-0.6854206804
  0
ELLIPSE
  5
3DD
100
AcDbEntity
  8
0
100
AcDbEllipse
 62
7
  6
CONTINUOUS
 10
-2.0815054452
 20
0.2354627501
 30
0.0
 11
-0.1766168088
 21
0.4707043043
 31
0.0
 40
0.7819490857
 41
1.1233983706
 42
2.4415144422
  0
ELLIPSE
  5
3DE
100
AcDbEntity
  8
0
100
AcDbEllipse
 62
7
  6
CONTINUOUS
 10
10.1725650635
 20
-22.1183008958
 30
0.0
 11
-0.1636538045
 21
0.4728376251
 31
0.0
 40
0.6698239279
 41
-3.1074453008
 42
-2.1734470421
  0
ELLIPSE
  5
3DF
100
AcDbEntity
  8
0
100
AcDbEllipse
 62
7
  6
CONTINUOUS
 10
-3.0883295223
 20
-0.1759339196
 30
0.0
 11
0.2019581784
 21
0.6462737877
 31
0.0
 40
0.2408330052
 41
-0.782904198
 42
-0.6566021467
  0
ELLIPSE
  5
3E0
100
AcDbEntity
  8
0
100
AcDbEllipse
 62
7
  6
CONTINUOUS
 10
-3.114417338
 20
0.5549141079
 30
0.0
 11
0.267840801
 21
0.1862215711
 31
0.0
 40
0.4574719885
 41
-0.3079479467
 42
-0.3035085127
  0
ELLIPSE
  5
3E1
100
AcDbEntity
  8
0
100
AcDbEllipse
 62
7
  6
CONTINUOUS
 10
-3.0883295223
 20
-0.1759339196
 30
0.0
 11
0.7033808676
 21
-0.2019690766
 31
0.0
 40
0.1166564694
 41
0.5598402935
 42
0.6861423449
  0
ELLIPSE
  5
3E2
100
AcDbEntity
  8
0
100
AcDbEllipse
 62
7
  6
CONTINUOUS
 10
11.1219440489
 20
-2.7530749805
 30
0.0
 11
-0.1119858744
 21
0.2236318019
 31
0.0
 40
0.6122594231
 41
-3.1638967375
 42
-2.2563502278
  0
ELLIPSE
  5
3E3
100
AcDbEntity
  8
0
100
AcDbEllipse
 62
7
  6
CONTINUOUS
 10
-4.8362466356
 20
22.9668441522
 30
0.0
 11
-0.2720523469
 21
0.4197313364
 31
0.0
 40
0.5481321568
 41
-0.7497282617
 42
-0.0179092059
  0
ELLIPSE
  5
3E4
100
AcDbEntity
  8
0
100
AcDbEllipse
 62
7
  6
CONTINUOUS
 10
10.1725650635
 20
15.4624383026
 30
0.0
 11
-0.2728317464
 21
0.4206766339
 31
0.0
 40
0.5454741544
 41
-2.3165924025
 42
-0.7476225753
  0
ELLIPSE
  5
3E5
100
AcDbEntity
  8
0
100
AcDbEllipse
 62
7
  6
CONTINUOUS
 10
3.8660528671
 20
18.7178638163
 30
0.0
 11
0.2000483059
 21
0.0091089057
 31
0.0
 40
0.5313026362
 41
-2.3809156154
 42
-1.3337180642
  0
ELLIPSE
  5
3E6
100
AcDbEntity
  8
0
100
AcDbEllipse
 62
7
  6
CONTINUOUS
 10
0.8473716679
 20
20.2272044159
 30
0.0
 11
0.2000483059
 21
0.0091089057
 31
0.0
 40
0.5313026362
 41
2.8550721406
 42
3.9022696918
  0
ENDSEC
  0
SECTION
  2
OBJECTS
  0
DICTIONARY
  5
C
100
AcDbDictionary
280
0
281
1
  3
ACAD_GROUP
350
D
  3
ACAD_MLINESTYLE
350
17
  3
ACAD_LAYOUT
350
1A
  3
ACAD_PLOTSETTINGS
350
19
  3
ACAD_PLOTSTYLENAME
350
E
  0
DICTIONARY
  5
D
102
{ACAD_REACTORS
330
C
102
}
100
AcDbDictionary
280
0
281
1
  0
ACDBDICTIONARYWDFLT
  5
E
102
{ACAD_REACTORS
330
C
102
}
100
AcDbDictionary
281
1
  3
Normal
350
F
100
AcDbDictionaryWithDefault
340
F
  0
DICTIONARY
  5
17
102
{ACAD_REACTORS
330
C
102
}
100
AcDbDictionary
280
0
281
1
  3
Standard
350
18
  0
DICTIONARY
  5
19
102
{ACAD_REACTORS
330
C
102
}
100
AcDbDictionary
281
1
  0
DICTIONARY
  5
1A
102
{ACAD_REACTORS
330
C
102
}
100
AcDbDictionary
281
1
  3
Model
350
3E7
  3
Layout1
350
3E8
  0
ACDBPLACEHOLDER
  5
F
102
{ACAD_REACTORS
330
E
102
}
  0
MLINESTYLE
  5
18
102
{ACAD_REACTORS
330
17
102
}
100
AcDbMlineStyle
  2
STANDARD
 70
0
  3

 62
256
 51
90.0
 52
90.0
 71
2
 49
0.5
 62
256
  6
BYLAYER
 49
-0.5
 62
256
  6
BYLAYER
  0
LAYOUT
  5
3E7
102
{ACAD_REACTORS
330
1A
102
}
100
AcDbPlotSettings
  1

  2
none_device
  4
ISO_A4_(297.00_x_210.00_MM)
  6

 40
0.0
 41
0.0
 42
0.0
 43
0.0
 44
297.0
 45
210.0
 46
0.0
 47
0.0
 48
0.0
 49
0.0
140
0.0
141
0.0
142
1.0
143
1.0
 70
1024
 72
1
 73
0
 74
0
  7

 75
0
147
1.0
148
0.0
149
0.0
100
AcDbLayout
  1
Model
 70
0
 71
0
 10
0.0
 20
0.0
 11
297.0
 21
210.0
 12
0.0
 22
0.0
 32
0.0
 14
0.0
 24
0.0
 34
0.0
 15
0.0
 25
0.0
 35
0.0
146
0.0
 13
0.0
 23
0.0
 33
0.0
 16
1.0
 26
0.0
 36
0.0
 17
0.0
 27
1.0
 37
0.0
 76
0
330
217
345
0
346
0
  0
LAYOUT
  5
3E8
102
{ACAD_REACTORS
330
1A
102
}
100
AcDbPlotSettings
  1

  2
none_device
  4
ISO_A4_(297.00_x_210.00_MM)
  6

 40
0.0
 41
0.0
 42
0.0
 43
0.0
 44
297.0
 45
210.0
 46
0.0
 47
0.0
 48
0.0
 49
0.0
140
0.0
141
0.0
142
1.0
143
1.0
 70
0
 72
1
 73
0
 74
0
  7

 75
0
147
1.0
148
0.0
149
0.0
100
AcDbLayout
  1
Layout1
 70
0
 71
1
 10
0.0
 20
0.0
 11
297.0
 21
210.0
 12
0.0
 22
0.0
 32
0.0
 14
0.0
 24
0.0
 34
0.0
 15
0.0
 25
0.0
 35
0.0
146
0.0
 13
0.0
 23
0.0
 33
0.0
 16
1.0
 26
0.0
 36
0.0
 17
0.0
 27
1.0
 37
0.0
 76
0
330
218
345
0
346
0
  0
ENDSEC
  0
EOF
