  0
SECTION
  2
HEADER
  9
$ACADVER
  1
AC1015
  9
$DWGCODEPAGE
  3
ANSI_1252
  9
$EXTMAX
 10
210.0
 20
297.0
 30
0.0
  9
$EXTMIN
 10
0.0
 20
0.0
 30
0.0
  9
$LIMMIN
 10
0.0
 20
0.0
  9
$LIMMAX
 10
210.0
 20
297.0
  9
$VIEWCTR
 10
105.0
 20
148.5
  9
$VIEWSIZE
 40
297.0
  9
$CLAYER
  8
0
  9
$LTSCALE
 40
19.36
  9
$CELTYPE
  6
BYLAYER
  9
$DIMSCALE
 40
1.0
  9
$DIMASZ
 40
3.0
  9
$DIMEXO
 40
0.5
  9
$DIMDLI
 40
13.376
  9
$DIMEXE
 40
1.5
  9
$DIMCEN
 40
3.168
  9
$DIMLFAC
 40
1.0
  9
$DIMBLK
  1
_FILLED
  9
$DIMTXT
 40
3.0
  9
$DIMTOL
 70
1
  9
$DIMLIM
 70
0
  9
$DIMTFAC
 40
1.0
  9
$DIMTP
 40
0.01
  9
$DIMTM
 40
0.01
  9
$DIMGAP
 40
0.625
  9
$DIMDSEP
 70
44
  9
$PDMODE
 70
3
  9
$PDSIZE
 40
3.0
  9
$HANDSEED
  5
408
  9
$TILEMODE
 70
1
  9
$MEASUREMENT
 70
1
  9
$INSUNITS
 70
4
  0
ENDSEC
  0
SECTION
  2
CLASSES
  0
CLASS
  1
ACDBDICTIONARYWDFLT
  2
AcDbDictionaryWithDefault
  3
AutoCAD 2000
 90
0
280
0
281
0
  0
CLASS
  1
ACDBPLACEHOLDER
  2
AcDbPlaceHolder
  3
AutoCAD 2000
 90
0
280
0
281
0
  0
CLASS
  1
LAYOUT
  2
AcDbLayout
  3
AutoCAD 2000
 90
0
280
0
281
0
  0
ENDSEC
  0
SECTION
  2
TABLES
  0
TABLE
  2
VPORT
  5
8
100
AcDbSymbolTable
 70
2
  0
VPORT
  5
1F4
100
AcDbSymbolTableRecord
100
AcDbViewportTableRecord
  2
*ACTIVE
 70
0
 10
0.0
 20
0.0
 11
1.0
 21
1.0
 12
105.0
 22
148.5
 13
0.0
 23
0.0
 14
1.0
 24
1.0
 15
0.0
 25
0.0
 16
0.0
 26
0.0
 36
1.0
 17
0.0
 27
0.0
 37
0.0
 40
297.0
 41
0.7070707071
 42
50.0
 43
0.0
 44
0.0
 50
0.0
 51
0.0
 71
0
 72
100
 73
1
 74
1
 75
0
 76
0
 77
0
 78
0
  0
ENDTAB
  0
TABLE
  2
LTYPE
  5
5
100
AcDbSymbolTable
 70
6
  0
LTYPE
  5
14
100
AcDbSymbolTableRecord
100
AcDbLinetypeTableRecord
  2
BYBLOCK
 70
0
  3

 72
65
 73
0
 40
0.0
  0
LTYPE
  5
15
100
AcDbSymbolTableRecord
100
AcDbLinetypeTableRecord
  2
BYLAYER
 70
0
  3

 72
65
 73
0
 40
0.0
  0
LTYPE
  5
16
100
AcDbSymbolTableRecord
100
AcDbLinetypeTableRecord
  2
CONTINUOUS
 70
64
  3
Solid line
 72
65
 73
0
 40
0.0
  0
LTYPE
  5
1F5
100
AcDbSymbolTableRecord
100
AcDbLinetypeTableRecord
  2
CENTER
 70
64
  3
____ _ ____ _ ____ _ ____ _ ____ _ ____ _ ____
 72
65
 73
4
 40
0.6
 49
0.375
 74
0
 49
-0.075
 74
0
 49
0.075
 74
0
 49
-0.075
 74
0
  0
LTYPE
  5
1F6
100
AcDbSymbolTableRecord
100
AcDbLinetypeTableRecord
  2
HIDDEN
 70
64
  3
- - - - - - - - - - - - - - - - - - - -
 72
65
 73
2
 40
0.2
 49
0.1
 74
0
 49
-0.1
 74
0
  0
LTYPE
  5
1F7
100
AcDbSymbolTableRecord
100
AcDbLinetypeTableRecord
  2
PHANTOM
 70
64
  3
_____ _ _ _____ _ _ _____ _ _ _____
 72
65
 73
6
 40
0.8
 49
0.45
 74
0
 49
-0.05
 74
0
 49
0.1
 74
0
 49
-0.05
 74
0
 49
0.1
 74
0
 49
-0.05
 74
0
  0
LTYPE
  5
1F8
100
AcDbSymbolTableRecord
100
AcDbLinetypeTableRecord
  2
DOT
 70
64
  3
. . . . . . . . . . . . . . . . . . . .
 72
65
 73
2
 40
0.2
 49
0.1
 74
0
 49
-0.1
 74
0
  0
LTYPE
  5
1F9
100
AcDbSymbolTableRecord
100
AcDbLinetypeTableRecord
  2
DASHED
 70
64
  3
- - - - - - - - - - - - - - - - - - - -
 72
65
 73
2
 40
0.2
 49
0.1
 74
0
 49
-0.1
 74
0
  0
ENDTAB
  0
TABLE
  2
LAYER
  5
2
100
AcDbSymbolTable
 70
36
  0
LAYER
  5
10
100
AcDbSymbolTableRecord
100
AcDbLayerTableRecord
  2
0
 70
0
 62
7
  6
CONTINUOUS
370
-3
390
F
  0
LAYER
  5
1FA
100
AcDbSymbolTableRecord
100
AcDbLayerTableRecord
  2
DEFAULT_1
 70
0
 62
7
  6
CENTER
370
-3
390
F
  0
LAYER
  5
1FB
100
AcDbSymbolTableRecord
100
AcDbLayerTableRecord
  2
DEFAULT_2
 70
0
 62
7
  6
HIDDEN
370
-3
390
F
  0
LAYER
  5
1FC
100
AcDbSymbolTableRecord
100
AcDbLayerTableRecord
  2
DEFAULT_3
 70
0
 62
7
  6
PHANTOM
370
-3
390
F
  0
LAYER
  5
1FD
100
AcDbSymbolTableRecord
100
AcDbLayerTableRecord
  2
ASSI
 70
0
 62
7
  6
CONTINUOUS
370
-3
390
F
  0
LAYER
  5
1FE
100
AcDbSymbolTableRecord
100
AcDbLayerTableRecord
  2
COLOR9
 70
0
 62
7
  6
CONTINUOUS
370
-3
390
F
  0
LAYER
  5
1FF
100
AcDbSymbolTableRecord
100
AcDbLayerTableRecord
  2
COORDINATE
 70
0
 62
7
  6
CONTINUOUS
370
-3
390
F
  0
LAYER
  5
200
100
AcDbSymbolTableRecord
100
AcDbLayerTableRecord
  2
COORD_ORIGINE
 70
0
 62
7
  6
CONTINUOUS
370
-3
390
F
  0
LAYER
  5
201
100
AcDbSymbolTableRecord
100
AcDbLayerTableRecord
  2
COPY_GEOMETRY
 70
0
 62
7
  6
CONTINUOUS
370
-3
390
F
  0
LAYER
  5
202
100
AcDbSymbolTableRecord
100
AcDbLayerTableRecord
  2
COPY_PUBLISH
 70
0
 62
7
  6
CONTINUOUS
370
-3
390
F
  0
LAYER
  5
203
100
AcDbSymbolTableRecord
100
AcDbLayerTableRecord
  2
COSMETIC
 70
0
 62
7
  6
CONTINUOUS
370
-3
390
F
  0
LAYER
  5
204
100
AcDbSymbolTableRecord
100
AcDbLayerTableRecord
  2
COSMETICI
 70
0
 62
7
  6
CONTINUOUS
370
-3
390
F
  0
LAYER
  5
205
100
AcDbSymbolTableRecord
100
AcDbLayerTableRecord
  2
CURVE
 70
0
 62
7
  6
CONTINUOUS
370
-3
390
F
  0
LAYER
  5
206
100
AcDbSymbolTableRecord
100
AcDbLayerTableRecord
  2
DRAFT
 70
0
 62
7
  6
CONTINUOUS
370
-3
390
F
  0
LAYER
  5
207
100
AcDbSymbolTableRecord
100
AcDbLayerTableRecord
  2
IGES
 70
0
 62
7
  6
CONTINUOUS
370
-3
390
F
  0
LAYER
  5
208
100
AcDbSymbolTableRecord
100
AcDbLayerTableRecord
  2
IGS_SCRITTE
 70
0
 62
7
  6
CONTINUOUS
370
-3
390
F
  0
LAYER
  5
209
100
AcDbSymbolTableRecord
100
AcDbLayerTableRecord
  2
IMPORT_IGES
 70
0
 62
7
  6
CONTINUOUS
370
-3
390
F
  0
LAYER
  5
20A
100
AcDbSymbolTableRecord
100
AcDbLayerTableRecord
  2
INTFCLR_13457
 70
0
 62
7
  6
CONTINUOUS
370
-3
390
F
  0
LAYER
  5
20B
100
AcDbSymbolTableRecord
100
AcDbLayerTableRecord
  2
INTFCLR_20107
 70
0
 62
7
  6
CONTINUOUS
370
-3
390
F
  0
LAYER
  5
20C
100
AcDbSymbolTableRecord
100
AcDbLayerTableRecord
  2
INTFCLR_35047
 70
0
 62
7
  6
CONTINUOUS
370
-3
390
F
  0
LAYER
  5
20D
100
AcDbSymbolTableRecord
100
AcDbLayerTableRecord
  2
INTF_11
 70
0
 62
7
  6
CONTINUOUS
370
-3
390
F
  0
LAYER
  5
20E
100
AcDbSymbolTableRecord
100
AcDbLayerTableRecord
  2
INTF_20
 70
0
 62
7
  6
CONTINUOUS
370
-3
390
F
  0
LAYER
  5
20F
100
AcDbSymbolTableRecord
100
AcDbLayerTableRecord
  2
INTF_25
 70
0
 62
7
  6
CONTINUOUS
370
-3
390
F
  0
LAYER
  5
210
100
AcDbSymbolTableRecord
100
AcDbLayerTableRecord
  2
INTF_YELLOW
 70
0
 62
7
  6
CONTINUOUS
370
-3
390
F
  0
LAYER
  5
211
100
AcDbSymbolTableRecord
100
AcDbLayerTableRecord
  2
NOTE
 70
0
 62
7
  6
CONTINUOUS
370
-3
390
F
  0
LAYER
  5
212
100
AcDbSymbolTableRecord
100
AcDbLayerTableRecord
  2
PIANI
 70
0
 62
7
  6
CONTINUOUS
370
-3
390
F
  0
LAYER
  5
213
100
AcDbSymbolTableRecord
100
AcDbLayerTableRecord
  2
PIANI_ORIGINE
 70
0
 62
7
  6
CONTINUOUS
370
-3
390
F
  0
LAYER
  5
214
100
AcDbSymbolTableRecord
100
AcDbLayerTableRecord
  2
PIANI_RIFERIMENTO
 70
0
 62
7
  6
CONTINUOUS
370
-3
390
F
  0
LAYER
  5
215
100
AcDbSymbolTableRecord
100
AcDbLayerTableRecord
  2
PUBLISH_GEOMETRY
 70
0
 62
7
  6
CONTINUOUS
370
-3
390
F
  0
LAYER
  5
216
100
AcDbSymbolTableRecord
100
AcDbLayerTableRecord
  2
PUNTI
 70
0
 62
7
  6
CONTINUOUS
370
-3
390
F
  0
LAYER
  5
217
100
AcDbSymbolTableRecord
100
AcDbLayerTableRecord
  2
RACCORDO
 70
0
 62
7
  6
CONTINUOUS
370
-3
390
F
  0
LAYER
  5
218
100
AcDbSymbolTableRecord
100
AcDbLayerTableRecord
  2
SIMBOLI
 70
0
 62
7
  6
CONTINUOUS
370
-3
390
F
  0
LAYER
  5
219
100
AcDbSymbolTableRecord
100
AcDbLayerTableRecord
  2
SMUSSO
 70
0
 62
7
  6
CONTINUOUS
370
-3
390
F
  0
LAYER
  5
21A
100
AcDbSymbolTableRecord
100
AcDbLayerTableRecord
  2
SNAPLINE
 70
0
 62
7
  6
CONTINUOUS
370
-3
390
F
  0
LAYER
  5
21B
100
AcDbSymbolTableRecord
100
AcDbLayerTableRecord
  2
SOLIDO
 70
0
 62
7
  6
CONTINUOUS
370
-3
390
F
  0
LAYER
  5
21C
100
AcDbSymbolTableRecord
100
AcDbLayerTableRecord
  2
SUPERFICI
 70
0
 62
7
  6
CONTINUOUS
370
-3
390
F
  0
LAYER
  5
21D
100
AcDbSymbolTableRecord
100
AcDbLayerTableRecord
  2
TRASH
 70
0
 62
7
  6
CONTINUOUS
370
-3
390
F
  0
LAYER
  5
21E
100
AcDbSymbolTableRecord
100
AcDbLayerTableRecord
  2
WHITE
 70
0
 62
7
  6
CONTINUOUS
370
-3
390
F
  0
LAYER
  5
21F
100
AcDbSymbolTableRecord
100
AcDbLayerTableRecord
  2
XSEC_DATUMS
 70
0
 62
7
  6
CONTINUOUS
370
-3
390
F
  0
ENDTAB
  0
TABLE
  2
STYLE
  5
3
100
AcDbSymbolTable
 70
1
  0
STYLE
  5
11
100
AcDbSymbolTableRecord
100
AcDbTextStyleTableRecord
  2
STANDARD
 70
0
 40
0.0
 41
0.8
 50
0.0
 71
0
 42
0.2
  3
txt
  4

  0
STYLE
  5
220
100
AcDbSymbolTableRecord
100
AcDbTextStyleTableRecord
  2
TEXTSTYLE_1
 70
0
 40
0.0
 41
0.8
 50
0.0
 71
0
 42
0.2
  3
gdt
  4

  0
ENDTAB
  0
TABLE
  2
VIEW
  5
6
100
AcDbSymbolTable
 70
0
  0
ENDTAB
  0
TABLE
  2
UCS
  5
7
100
AcDbSymbolTable
 70
0
  0
ENDTAB
  0
TABLE
  2
APPID
  5
9
100
AcDbSymbolTable
 70
1
  0
APPID
  5
221
100
AcDbSymbolTableRecord
100
AcDbRegAppTableRecord
  2
ACAD
 70
0
  0
ENDTAB
  0
TABLE
  2
BLOCK_RECORD
  5
1
100
AcDbSymbolTable
 70
0
  0
BLOCK_RECORD
  5
222
100
AcDbSymbolTableRecord
100
AcDbBlockTableRecord
  2
*Model_Space
  0
BLOCK_RECORD
  5
223
100
AcDbSymbolTableRecord
100
AcDbBlockTableRecord
  2
*Paper_Space
  0
ENDTAB
  0
TABLE
  2
DIMSTYLE
  5
A
100
AcDbSymbolTable
 70
1
100
AcDbDimStyleTable
 71
0
  0
DIMSTYLE
105
224
100
AcDbSymbolTableRecord
100
AcDbDimStyleTableRecord
  2
STANDARD
 70
0
  3

  4

 40
1.0
 41
3.0
 42
0.5
 43
0.38
 44
1.5
 45
0.0
 46
0.0
 47
0.01
 48
0.01
140
3.0
141
0.09
142
0.0
143
25.4
144
1.0
145
0.0
146
1.0
147
0.625
 71
1.0
 72
0.0
 73
0
 74
0
 75
0
 76
0
 77
1
 78
8
170
0
171
2
172
0
173
0
174
0
175
0
176
0
177
0
178
0
270
2
271
2
272
2
273
2
274
2
275
0
280
0
281
0
282
0
283
1
284
8
285
0
286
0
287
3
288
0
340
11
278
44
  0
ENDTAB
  0
ENDSEC
  0
SECTION
  2
BLOCKS
  0
BLOCK
  5
20
100
AcDbEntity
  8
0
100
AcDbBlockBegin
  2
*Model_Space
 70
0
 10
0.0
 20
0.0
 30
0.0
  3
*Model_Space
  1

  0
ENDBLK
  5
21
100
AcDbEntity
  8
0
100
AcDbBlockEnd
  0
BLOCK
  5
1C
100
AcDbEntity
  8
0
100
AcDbBlockBegin
  2
*Paper_Space
 70
0
 10
0.0
 20
0.0
 30
0.0
  3
*Paper_Space
  1

  0
ENDBLK
  5
1D
100
AcDbEntity
  8
0
100
AcDbBlockEnd
  0
ENDSEC
  0
SECTION
  2
ENTITIES
  0
LINE
  5
225
100
AcDbEntity
  8
0
100
AcDbLine
 62
7
  6
CONTINUOUS
 10
-17.7634442654
 20
45.5065166914
 11
-15.9973495357
 21
46.5709297083
  0
LWPOLYLINE
  5
226
100
AcDbEntity
  8
0
100
AcDbPolyline
 62
7
  6
CONTINUOUS
 90
49
 70
0
 10
-17.7634447755
 20
45.5065163718
 10
-17.7788170605
 20
45.4970470458
 10
-17.7974390311
 20
45.4850195956
 10
-17.8158843701
 20
45.472489813
 10
-17.8341606891
 20
45.4594520036
 10
-17.8522522332
 20
45.4459167649
 10
-17.8701204868
 20
45.4319140291
 10
-17.8877640396
 20
45.4174474438
 10
-17.9051802755
 20
45.4025211269
 10
-17.9223315566
 20
45.3871704354
 10
-17.9392176407
 20
45.3714003797
 10
-17.9558371887
 20
45.3552161117
 10
-17.9721536423
 20
45.3386585848
 10
-17.9881671855
 20
45.3217346615
 10
-18.0038781356
 20
45.3044499395
 10
-18.0192527631
 20
45.2868492286
 10
-18.0342878925
 20
45.2689455166
 10
-18.0489892659
 20
45.250740444
 10
-18.063338231
 20
45.2322661507
 10
-18.077331614
 20
45.2135363989
 10
-18.0909754455
 20
45.1945523298
 10
-18.1042647605
 20
45.175329167
 10
-18.1171996934
 20
45.1558746997
 10
-18.1297813441
 20
45.1361946959
 10
-18.1420054179
 20
45.1163023992
 10
-18.1538706351
 20
45.0962065119
 10
-18.1653779972
 20
45.0759108373
 10
-18.176526198
 20
45.0554221933
 10
-18.1873137904
 20
45.0347471889
 10
-18.1977397264
 20
45.0138903587
 10
-18.2078028795
 20
44.9928557889
 10
-18.2175014064
 20
44.9716475746
 10
-18.2268322399
 20
44.9502715311
 10
-18.2357918229
 20
44.9287340542
 10
-18.2443775639
 20
44.9070376868
 10
-18.252585061
 20
44.8851889223
 10
-18.2604076466
 20
44.8631994513
 10
-18.2678413984
 20
44.841073119
 10
-18.2748817291
 20
44.8188145867
 10
-18.2815213009
 20
44.7964359081
 10
-18.2877553839
 20
44.773940803
 10
-18.2935784325
 20
44.7513334199
 10
-18.2989828341
 20
44.7286252766
 10
-18.3039627023
 20
44.7058203152
 10
-18.3085114557
 20
44.682922293
 10
-18.3126212559
 20
44.6599403827
 10
-18.31628465
 20
44.6368791484
 10
-18.3194940701
 20
44.6137414404
 10
-18.3217959808
 20
44.5945819035
  0
LINE
  5
227
100
AcDbEntity
  8
0
100
AcDbLine
 62
253
  6
CONTINUOUS
 10
-17.5238524584
 20
45.5014473551
 11
-15.7717974964
 21
46.5573987016
  0
LWPOLYLINE
  5
228
100
AcDbEntity
  8
0
100
AcDbPolyline
 62
7
  6
CONTINUOUS
 90
36
 70
0
 10
-3.0609262622
 20
-0.1499513139
 10
-3.0519773477
 20
-0.1543467798
 10
-3.0359327601
 20
-0.1618380897
 10
-3.0197078717
 20
-0.168920581
 10
-3.0033081825
 20
-0.1755924153
 10
-2.9867287583
 20
-0.1818553959
 10
-2.9699799444
 20
-0.1877050492
 10
-2.9530719982
 20
-0.1931373722
 10
-2.9359990575
 20
-0.1981532359
 10
-2.9187711346
 20
-0.202748108
 10
-2.901398596
 20
-0.2069178715
 10
-2.8838753241
 20
-0.2106622331
 10
-2.866210937
 20
-0.2139767979
 10
-2.8484161016
 20
-0.2168573009
 10
-2.8304855375
 20
-0.2193019134
 10
-2.8124292161
 20
-0.2213062829
 10
-2.7942574267
 20
-0.2228663744
 10
-2.7759646983
 20
-0.2239792394
 10
-2.7575604087
 20
-0.2246403801
 10
-2.7390553033
 20
-0.2248457692
 10
-2.7204452238
 20
-0.2245914133
 10
-2.7017380355
 20
-0.2238727953
 10
-2.6829458223
 20
-0.2226858201
 10
-2.6640700038
 20
-0.2210260473
 10
-2.6451200507
 20
-0.2188895146
 10
-2.6261060938
 20
-0.2162725363
 10
-2.6070296662
 20
-0.2131702764
 10
-2.5878998604
 20
-0.2095790824
 10
-2.5687267663
 20
-0.20549568
 10
-2.5495124887
 20
-0.2009149938
 10
-2.5302657119
 20
-0.1958333825
 10
-2.5109958497
 20
-0.1902476776
 10
-2.4917049417
 20
-0.1841523978
 10
-2.4723994117
 20
-0.1775431062
 10
-2.4530912885
 20
-0.1704176436
 10
-2.437651296
 20
-0.1643444726
  0
LINE
  5
229
100
AcDbEntity
  8
0
100
AcDbLine
 62
7
  6
CONTINUOUS
 10
-17.9269000354
 20
7.2830355378
 11
-3.0609047974
 21
-0.1499620812
  0
LINE
  5
22A
100
AcDbEntity
  8
0
100
AcDbLine
 62
253
  6
CONTINUOUS
 10
-18.1744878515
 20
7.6965497496
 11
-3.3172992459
 21
0.2679554467
  0
LINE
  5
22B
100
AcDbEntity
  8
0
100
AcDbLine
 62
7
  6
CONTINUOUS
 10
-12.9474137171
 20
11.7102056569
 11
-12.5231444641
 21
11.4980710304
  0
LINE
  5
22C
100
AcDbEntity
  8
ASSI
100
AcDbLine
 62
7
  6
CONTINUOUS
 10
-12.9474137171
 20
11.7102056569
 11
-12.5231444641
 21
11.4980710304
  0
LINE
  5
22D
100
AcDbEntity
  8
0
100
AcDbLine
 62
7
  6
CONTINUOUS
 10
-10.1896921692
 20
10.3313448829
 11
-9.7654280002
 21
10.1192127985
  0
LINE
  5
22E
100
AcDbEntity
  8
ASSI
100
AcDbLine
 62
7
  6
CONTINUOUS
 10
-10.1896921692
 20
10.3313448829
 11
-9.7654280002
 21
10.1192127985
  0
LWPOLYLINE
  5
22F
100
AcDbEntity
  8
0
100
AcDbPolyline
 62
7
  6
CONTINUOUS
 90
28
 70
0
 10
-18.3217958375
 20
44.5945832339
 10
-18.3649730092
 20
44.2019839206
 10
-18.4071289938
 20
43.8062873208
 10
-18.4478619973
 20
43.4110902572
 10
-18.4871708628
 20
43.0164030893
 10
-18.5250546535
 20
42.6222347656
 10
-18.5615125061
 20
42.2285936318
 10
-18.5965435416
 20
41.8354882911
 10
-18.6301468586
 20
41.4429282231
 10
-18.6623215589
 20
41.0509230857
 10
-18.6930667953
 20
40.6594821571
 10
-18.7223818071
 20
40.2686144692
 10
-18.7502658315
 20
39.8783293056
 10
-18.7767181371
 20
39.4886357445
 10
-18.801738057
 20
39.0995428575
 10
-18.825324928
 20
38.7110599142
 10
-18.8474781162
 20
38.3231959791
 10
-18.8681970558
 20
37.9359600519
 10
-18.8874811883
 20
37.5493613008
 10
-18.9053299841
 20
37.1634086587
 10
-18.9217429728
 20
36.77811124
 10
-18.9367196888
 20
36.3934784793
 10
-18.9502596916
 20
36.0095196572
 10
-18.9623626329
 20
35.6262431487
 10
-18.9730281829
 20
35.2436570283
 10
-18.9822560083
 20
34.8617699657
 10
-18.990045821
 20
34.4805919581
 10
-18.9963417307
 20
34.1038819092
  0
LINE
  5
230
100
AcDbEntity
  8
0
100
AcDbLine
 62
253
  6
CONTINUOUS
 10
-0.7646904829
 20
39.0538451949
 11
-2.6435394024
 21
38.0612908271
  0
LINE
  5
231
100
AcDbEntity
  8
0
100
AcDbLine
 62
7
  6
CONTINUOUS
 10
-12.9698841364
 20
12.2185854409
 11
-12.5456148835
 21
12.0064508144
  0
LINE
  5
232
100
AcDbEntity
  8
ASSI
100
AcDbLine
 62
7
  6
CONTINUOUS
 10
-12.9698841364
 20
12.2185854409
 11
-12.5456148835
 21
12.0064508144
  0
LINE
  5
233
100
AcDbEntity
  8
0
100
AcDbLine
 62
7
  6
CONTINUOUS
 10
-10.2121625885
 20
10.8397246668
 11
-9.7878984196
 21
10.6275925823
  0
LINE
  5
234
100
AcDbEntity
  8
ASSI
100
AcDbLine
 62
7
  6
CONTINUOUS
 10
-10.2121625885
 20
10.8397246668
 11
-9.7878984196
 21
10.6275925823
  0
LWPOLYLINE
  5
235
100
AcDbEntity
  8
0
100
AcDbPolyline
 62
7
  6
CONTINUOUS
 90
39
 70
0
 10
-18.3209082144
 20
7.8729653718
 10
-18.3183518403
 20
7.8543138864
 10
-18.314796954
 20
7.8320616043
 10
-18.3107409855
 20
7.8101340444
 10
-18.3061918054
 20
7.7885351118
 10
-18.3011578233
 20
7.7672699756
 10
-18.2956484606
 20
7.7463476878
 10
-18.2896725907
 20
7.7257737612
 10
-18.283238946
 20
7.7055522167
 10
-18.2763578565
 20
7.685691921
 10
-18.2690391002
 20
7.6661988656
 10
-18.261292431
 20
7.6470776376
 10
-18.253129466
 20
7.6283368111
 10
-18.2445629372
 20
7.6099860597
 10
-18.2356022271
 20
7.5920263887
 10
-18.226254582
 20
7.5744552346
 10
-18.2165338936
 20
7.5572828312
 10
-18.2064493559
 20
7.5405099778
 10
-18.1960002179
 20
7.5241222979
 10
-18.1851973435
 20
7.5081258846
 10
-18.1740519915
 20
7.4925268171
 10
-18.1625622642
 20
7.4773133431
 10
-18.1507381065
 20
7.4624909751
 10
-18.1385913659
 20
7.4480670531
 10
-18.1261217092
 20
7.4340347886
 10
-18.1133397985
 20
7.4204006847
 10
-18.1002570739
 20
7.4071712129
 10
-18.0868733983
 20
7.3943414209
 10
-18.0731999928
 20
7.3819181208
 10
-18.0592480705
 20
7.3699073978
 10
-18.0450166383
 20
7.3583048642
 10
-18.0305173673
 20
7.3471172328
 10
-18.0157614566
 20
7.3363502675
 10
-18.0007462635
 20
7.3259999485
 10
-17.9854832751
 20
7.3160726292
 10
-17.9699841357
 20
7.306574105
 10
-17.9542455195
 20
7.2975012885
 10
-17.9382737726
 20
7.2888577591
 10
-17.9268806666
 20
7.2830258886
  0
LWPOLYLINE
  5
236
100
AcDbEntity
  8
0
100
AcDbPolyline
 62
7
  6
CONTINUOUS
 90
28
 70
0
 10
-18.9963399307
 20
17.6508800347
 10
-18.9900360589
 20
17.2804913196
 10
-18.9822418351
 20
16.9075195671
 10
-18.9730084044
 20
16.5353595084
 10
-18.9623358908
 20
16.1640208634
 10
-18.950224466
 20
15.7935120869
 10
-18.9366743035
 20
15.4238411477
 10
-18.9216855906
 20
15.0550161339
 10
-18.9052586068
 20
14.6870459379
 10
-18.8873936638
 20
14.3199397307
 10
-18.8680910726
 20
13.9537062063
 10
-18.8473512028
 20
13.5883538126
 10
-18.8251744616
 20
13.2238913427
 10
-18.8015612565
 20
12.8603272739
 10
-18.7765120624
 20
12.497670071
 10
-18.7500273928
 20
12.1359285003
 10
-18.7221077571
 20
11.7751110008
 10
-18.6927537283
 20
11.4152259455
 10
-18.6619659207
 20
11.0562819935
 10
-18.6297449379
 20
10.6982874415
 10
-18.5960914693
 20
10.3412507381
 10
-18.5610062655
 20
9.9851807599
 10
-18.5244900706
 20
9.6300860986
 10
-18.4865436065
 20
9.2759744927
 10
-18.4471675889
 20
8.9228535348
 10
-18.4063628014
 20
8.5707312764
 10
-18.36413024
 20
8.2196168849
 10
-18.3209085252
 20
7.8729677731
  0
LWPOLYLINE
  5
237
100
AcDbEntity
  8
0
100
AcDbPolyline
 62
7
  6
CONTINUOUS
 90
37
 70
0
 10
-19.0578210349
 20
26.1884626646
 10
-19.0578113496
 20
26.1857937583
 10
-19.0575632085
 20
26.1755910176
 10
-19.0569803578
 20
26.1653966565
 10
-19.0560637946
 20
26.1552265597
 10
-19.054814293
 20
26.1450866311
 10
-19.0532307401
 20
26.1349728582
 10
-19.0513135344
 20
26.1248958014
 10
-19.0490636683
 20
26.1148665607
 10
-19.0464788693
 20
26.1048820105
 10
-19.0435596488
 20
26.0949524144
 10
-19.0403072709
 20
26.0850889923
 10
-19.0367186311
 20
26.0752901055
 10
-19.0327943923
 20
26.0655661342
 10
-19.028536012
 20
26.0559278586
 10
-19.0239396223
 20
26.0463741788
 10
-19.0190075232
 20
26.0369178583
 10
-19.01373995
 20
26.0275666002
 10
-19.0081270965
 20
26.0183118577
 10
-19.0021711338
 20
26.0091667694
 10
-18.9958710115
 20
26.000138587
 10
-18.989207375
 20
25.9912109228
 10
-18.9821764074
 20
25.9823922177
 10
-18.9747789089
 20
25.9736960043
 10
-18.9669968842
 20
25.9651145895
 10
-18.9588196966
 20
25.9566517217
 10
-18.9502515675
 20
25.9483265156
 10
-18.9412934611
 20
25.9401528525
 10
-18.9319406213
 20
25.9321389057
 10
-18.9221916507
 20
25.9242957087
 10
-18.9120508759
 20
25.9166377212
 10
-18.9015139843
 20
25.9091722092
 10
-18.8905779732
 20
25.9019076294
 10
-18.8792469433
 20
25.8948565045
 10
-18.8675181927
 20
25.8880266646
 10
-18.8553847131
 20
25.8814236291
 10
-18.8464045413
 20
25.8768185685
  0
LWPOLYLINE
  5
238
100
AcDbEntity
  8
0
100
AcDbPolyline
 62
7
  6
CONTINUOUS
 90
10
 70
0
 10
-19.0578210762
 20
25.5005582748
 10
-19.0565827508
 20
24.6289705467
 10
-19.0539424134
 20
23.7535738972
 10
-19.0499029063
 20
22.8789342033
 10
-19.0444642389
 20
22.0050554425
 10
-19.0376264292
 20
21.1319409479
 10
-19.0293894957
 20
20.259593866
 10
-19.0197534626
 20
19.3880176203
 10
-19.0087183733
 20
18.5172162786
 10
-18.9963399308
 20
17.6508800358
  0
LWPOLYLINE
  5
239
100
AcDbEntity
  8
0
100
AcDbPolyline
 62
7
  6
CONTINUOUS
 90
10
 70
0
 10
-18.9963417308
 20
34.1038819082
 10
-19.0087237825
 20
33.2239976342
 10
-19.0197579793
 20
32.3413948362
 10
-19.0293932131
 20
31.4595134758
 10
-19.037629428
 20
30.5783576734
 10
-19.0444665875
 20
29.6979308857
 10
-19.0499046612
 20
28.8182362854
 10
-19.0539436187
 20
27.9392772321
 10
-19.0565834386
 20
27.0610577197
 10
-19.0578210768
 20
26.1884534173
  0
LINE
  5
23A
100
AcDbEntity
  8
0
100
AcDbLine
 62
7
  6
CONTINUOUS
 10
-10.2390996917
 20
43.4302474691
 11
-10.0955954172
 21
43.719297662
  0
LINE
  5
23B
100
AcDbEntity
  8
0
100
AcDbLine
 62
253
  6
CONTINUOUS
 10
-0.3669485393
 20
38.4680402028
 11
-2.2840366676
 21
37.4552849061
  0
LINE
  5
23C
100
AcDbEntity
  8
0
100
AcDbLine
 62
253
  6
CONTINUOUS
 10
-4.0412942672
 20
10.0691588546
 11
-18.8498864588
 21
17.4734549505
  0
LWPOLYLINE
  5
23D
100
AcDbEntity
  8
0
100
AcDbPolyline
 62
7
  6
CONTINUOUS
 90
37
 70
0
 10
-18.8606824429
 20
25.8065788659
 10
-18.8688428746
 20
25.8020087622
 10
-18.8801779701
 20
25.7953001411
 10
-18.8911271978
 20
25.7883923322
 10
-18.9016936945
 20
25.7812934624
 10
-18.9118826039
 20
25.7740104155
 10
-18.9216980059
 20
25.7665503313
 10
-18.9311422108
 20
25.7589216338
 10
-18.9402189389
 20
25.7511317866
 10
-18.9489313583
 20
25.7431884222
 10
-18.9572804987
 20
25.735101225
 10
-18.9652695831
 20
25.7268783092
 10
-18.9729025164
 20
25.7185269159
 10
-18.9801771192
 20
25.7100612416
 10
-18.9870993246
 20
25.7014869179
 10
-18.99368222
 20
25.6927992083
 10
-18.9999254722
 20
25.6840092588
 10
-19.0058310737
 20
25.6751255428
 10
-19.0114118466
 20
25.6661389313
 10
-19.0166676337
 20
25.6570587156
 10
-19.0215983442
 20
25.6478947325
 10
-19.0262132885
 20
25.6386380595
 10
-19.0305122329
 20
25.629295985
 10
-19.0344935058
 20
25.6198800265
 10
-19.0381614704
 20
25.6103872843
 10
-19.0415151304
 20
25.6008268166
 10
-19.044553532
 20
25.5912087174
 10
-19.0472792924
 20
25.5815316221
 10
-19.0496913797
 20
25.5718058437
 10
-19.0517895013
 20
25.5620405604
 10
-19.053575738
 20
25.5522326597
 10
-19.0550491907
 20
25.542391938
 10
-19.0562094175
 20
25.5325281627
 10
-19.0570574165
 20
25.5226381072
 10
-19.0575926435
 20
25.5127272523
 10
-19.0578143662
 20
25.5028098233
 10
-19.0578210339
 20
25.500545543
  0
LINE
  5
23E
100
AcDbEntity
  8
0
100
AcDbLine
 62
7
  6
CONTINUOUS
 10
-18.7867956608
 20
25.8470141069
 11
-18.8606782752
 21
25.8065811601
  0
LINE
  5
23F
100
AcDbEntity
  8
0
100
AcDbLine
 62
253
  6
CONTINUOUS
 10
-18.7214658741
 20
25.8143492135
 11
-18.7422029683
 21
25.8030006461
  0
LINE
  5
240
100
AcDbEntity
  8
0
100
AcDbLine
 62
253
  6
CONTINUOUS
 10
-12.1044382016
 20
30.5479151149
 11
-12.1158049283
 21
30.5422317516
  0
LINE
  5
241
100
AcDbEntity
  8
0
100
AcDbLine
 62
7
  6
CONTINUOUS
 10
-13.7268464082
 20
23.8796416872
 11
-13.7268464082
 21
23.4906761319
  0
LINE
  5
242
100
AcDbEntity
  8
0
100
AcDbLine
 62
7
  6
CONTINUOUS
 10
-13.3832454806
 20
24.1202493227
 11
-13.3832454806
 21
23.4989924217
  0
LINE
  5
243
100
AcDbEntity
  8
0
100
AcDbLine
 62
253
  6
CONTINUOUS
 10
-13.9071532578
 20
24.1047960612
 11
-13.791147096
 21
24.3242001304
  0
LINE
  5
244
100
AcDbEntity
  8
0
100
AcDbLine
 62
253
  6
CONTINUOUS
 10
-13.7268464082
 20
23.8796416872
 11
-13.55438553
 21
24.2058193474
  0
LINE
  5
245
100
AcDbEntity
  8
0
100
AcDbLine
 62
253
  6
CONTINUOUS
 10
-14.2982653917
 20
24.5777592782
 11
-14.6907676978
 21
24.3890619315
  0
LWPOLYLINE
  5
246
100
AcDbEntity
  8
0
100
AcDbPolyline
 62
7
  6
CONTINUOUS
 90
28
 70
0
 10
-14.557917997
 20
24.6609168184
 10
-14.5563842524
 20
24.6616303233
 10
-14.5533732611
 20
24.6628922372
 10
-14.5502564316
 20
24.664018642
 10
-14.547036196
 20
24.6650079345
 10
-14.543686932
 20
24.6658665899
 10
-14.5401528434
 20
24.6666026368
 10
-14.5364183437
 20
24.6672094003
 10
-14.5324877716
 20
24.6676763814
 10
-14.5283368157
 20
24.667996382
 10
-14.5239601429
 20
24.6681586034
 10
-14.519366157
 20
24.6681519751
 10
-14.5145530348
 20
24.6679665203
 10
-14.5095238892
 20
24.6675925885
 10
-14.504289265
 20
24.667021717
 10
-14.4988589139
 20
24.6662467119
 10
-14.4932415758
 20
24.6652612993
 10
-14.4874478873
 20
24.664060304
 10
-14.4814892473
 20
24.6626397491
 10
-14.4753764532
 20
24.6609965975
 10
-14.4691199553
 20
24.6591284578
 10
-14.4627283184
 20
24.6570330122
 10
-14.4562122791
 20
24.6547093905
 10
-14.4495813221
 20
24.6521569485
 10
-14.4428393927
 20
24.6493732074
 10
-14.4359937779
 20
24.64635727
 10
-14.4290566895
 20
24.6431110041
 10
-14.424291789
 20
24.6407724607
  0
LINE
  5
247
100
AcDbEntity
  8
0
100
AcDbLine
 62
253
  6
CONTINUOUS
 10
-8.5393814443
 20
19.1853967451
 11
-14.4762675885
 21
22.1538398172
  0
LINE
  5
248
100
AcDbEntity
  8
0
100
AcDbLine
 62
253
  6
CONTINUOUS
 10
-14.797171422
 20
23.6580564717
 11
-13.9071532578
 21
24.1047960612
  0
LINE
  5
249
100
AcDbEntity
  8
0
100
AcDbLine
 62
253
  6
CONTINUOUS
 10
-14.6557566694
 20
23.4141493887
 11
-13.7268491778
 21
23.8804092563
  0
LINE
  5
24A
100
AcDbEntity
  8
0
100
AcDbLine
 62
253
  6
CONTINUOUS
 10
-13.7268464082
 20
23.4906761319
 11
-14.6907676976
 21
23.0068428943
  0
LINE
  5
24B
100
AcDbEntity
  8
0
100
AcDbLine
 62
253
  6
CONTINUOUS
 10
-13.3733064798
 20
22.8809099537
 11
-14.3360795425
 21
22.3976500076
  0
LINE
  5
24C
100
AcDbEntity
  8
0
100
AcDbLine
 62
253
  6
CONTINUOUS
 10
-13.9008834808
 20
24.3790683228
 11
-14.6557566694
 21
24.0161608389
  0
LINE
  5
24D
100
AcDbEntity
  8
0
100
AcDbLine
 62
7
  6
CONTINUOUS
 10
-13.8160566939
 20
24.3366549293
 11
-14.7092820245
 21
23.9072342502
  0
LWPOLYLINE
  5
24E
100
AcDbEntity
  8
0
100
AcDbPolyline
 62
7
  6
CONTINUOUS
 90
30
 70
0
 10
-14.9076342151
 20
23.9074333871
 10
-14.9015456507
 20
23.9045052847
 10
-14.8950332127
 20
23.9016235497
 10
-14.8884329974
 20
23.8989558085
 10
-14.8817507753
 20
23.8965040925
 10
-14.8749873015
 20
23.8942688
 10
-14.868150757
 20
23.8922529662
 10
-14.8612494863
 20
23.8904591234
 10
-14.8542841419
 20
23.8888877748
 10
-14.8472630181
 20
23.8875414018
 10
-14.8401947079
 20
23.8864221334
 10
-14.8330800238
 20
23.8855307329
 10
-14.8259273471
 20
23.8848690355
 10
-14.8187455766
 20
23.8844385157
 10
-14.8115360165
 20
23.8842401297
 10
-14.804307482
 20
23.8842752016
 10
-14.7970686481
 20
23.8845444801
 10
-14.7898202343
 20
23.8850489492
 10
-14.7825708023
 20
23.8857893119
 10
-14.775329307
 20
23.8867658294
 10
-14.7680966042
 20
23.8879796476
 10
-14.7608804225
 20
23.8894309625
 10
-14.7536903872
 20
23.8911192488
 10
-14.7465294513
 20
23.8930453571
 10
-14.7394055483
 20
23.8952087233
 10
-14.7323270153
 20
23.8976082651
 10
-14.7252962148
 20
23.9002449001
 10
-14.7183188257
 20
23.9031184496
 10
-14.7114047374
 20
23.9062265688
 10
-14.7092899023
 20
23.9072304895
  0
LWPOLYLINE
  5
24F
100
AcDbEntity
  8
0
100
AcDbPolyline
 62
7
  6
CONTINUOUS
 90
43
 70
0
 10
-4.0422586423
 20
18.4747456191
 10
-4.0328924909
 20
18.4701829444
 10
-4.0201128655
 20
18.4643301055
 10
-4.0071844049
 20
18.4588202734
 10
-3.9941062835
 20
18.4536409145
 10
-3.9808888346
 20
18.4487853129
 10
-3.9675589917
 20
18.4442527474
 10
-3.9541225781
 20
18.4400347873
 10
-3.9405834734
 20
18.4361236667
 10
-3.9269721853
 20
18.4325191566
 10
-3.9132947416
 20
18.4292141094
 10
-3.8995550369
 20
18.4262016087
 10
-3.8857855836
 20
18.4234810489
 10
-3.8719984035
 20
18.4210469153
 10
-3.8581922723
 20
18.4188918332
 10
-3.8443838434
 20
18.4170120707
 10
-3.8305885569
 20
18.4154032981
 10
-3.8168016487
 20
18.4140594136
 10
-3.8030120768
 20
18.4129750464
 10
-3.789226043
 20
18.4121474698
 10
-3.7754471549
 20
18.4115742658
 10
-3.7616615554
 20
18.411253211
 10
-3.7478738986
 20
18.4111839643
 10
-3.7340890063
 20
18.4113664216
 10
-3.7202933485
 20
18.4118018254
 10
-3.7064906639
 20
18.4124920467
 10
-3.6926868574
 20
18.4134393762
 10
-3.6788707604
 20
18.4146481839
 10
-3.6650391553
 20
18.4161235412
 10
-3.6512055581
 20
18.4178696195
 10
-3.6373816745
 20
18.4198906116
 10
-3.623566961
 20
18.4221931777
 10
-3.6097724711
 20
18.4247827056
 10
-3.5960238536
 20
18.4276617055
 10
-3.5823249767
 20
18.4308369773
 10
-3.5686819445
 20
18.4343155861
 10
-3.5551190197
 20
18.4381003045
 10
-3.5416402171
 20
18.4421991562
 10
-3.5282515937
 20
18.4466208495
 10
-3.5149742781
 20
18.4513693923
 10
-3.5018169161
 20
18.4564532963
 10
-3.488781096
 20
18.4618848858
 10
-3.479457986
 20
18.466024917
  0
LINE
  5
250
100
AcDbEntity
  8
0
100
AcDbLine
 62
253
  6
CONTINUOUS
 10
-8.3991961545
 20
19.4292083136
 11
-14.3360795425
 21
22.3976500076
  0
LINE
  5
251
100
AcDbEntity
  8
0
100
AcDbLine
 62
253
  6
CONTINUOUS
 10
-18.9113725621
 20
25.3232514834
 11
-14.9727124798
 21
23.3539200111
  0
LINE
  5
252
100
AcDbEntity
  8
0
100
AcDbLine
 62
253
  6
CONTINUOUS
 10
-8.0458887827
 20
19.8905081626
 11
-4.1072287022
 21
17.9211795534
  0
LINE
  5
253
100
AcDbEntity
  8
0
100
AcDbLine
 62
7
  6
CONTINUOUS
 10
-13.3733064798
 20
22.8809099537
 11
-7.9845123904
 21
20.186512909
  0
LINE
  5
254
100
AcDbEntity
  8
0
100
AcDbLine
 62
253
  6
CONTINUOUS
 10
-7.8709594435
 20
20.1949504824
 11
-3.9319931318
 21
18.2254661056
  0
LINE
  5
255
100
AcDbEntity
  8
0
100
AcDbLine
 62
253
  6
CONTINUOUS
 10
-18.7361401498
 20
25.6275396147
 11
-14.797171422
 21
23.6580564717
  0
LINE
  5
256
100
AcDbEntity
  8
0
100
AcDbLine
 62
7
  6
CONTINUOUS
 10
-13.0770592627
 20
22.9708993127
 11
-7.7525430221
 21
20.3086411924
  0
LINE
  5
257
100
AcDbEntity
  8
0
100
AcDbLine
 62
7
  6
CONTINUOUS
 10
-4.0422538827
 20
18.4747432178
 11
-7.9810290132
 21
20.4441307831
  0
LINE
  5
258
100
AcDbEntity
  8
0
100
AcDbLine
 62
7
  6
CONTINUOUS
 10
-14.9076257702
 20
23.9074291616
 11
-18.8464009008
 21
25.8768167269
  0
LINE
  5
259
100
AcDbEntity
  8
0
100
AcDbLine
 62
253
  6
CONTINUOUS
 10
-4.1072287022
 20
18.6101347244
 11
-8.0458887827
 21
20.5794661977
  0
LINE
  5
25A
100
AcDbEntity
  8
0
100
AcDbLine
 62
253
  6
CONTINUOUS
 10
-14.9727124798
 20
24.0428780462
 11
-18.9113725621
 21
26.0122066544
  0
LINE
  5
25B
100
AcDbEntity
  8
0
100
AcDbLine
 62
7
  6
CONTINUOUS
 10
-14.4242895866
 20
24.6407713757
 11
-8.4874034423
 21
21.6723283035
  0
LINE
  5
25C
100
AcDbEntity
  8
0
100
AcDbLine
 62
253
  6
CONTINUOUS
 10
-14.4762675885
 20
24.7494655785
 11
-8.5393814443
 21
21.7810225064
  0
LWPOLYLINE
  5
25D
100
AcDbEntity
  8
0
100
AcDbPolyline
 62
7
  6
CONTINUOUS
 90
67
 70
0
 10
-8.4874024324
 20
21.6723277736
 10
-8.4823436794
 20
21.669749342
 10
-8.4747017736
 20
21.6656702617
 10
-8.466926961
 20
21.6612960046
 10
-8.4590272623
 20
21.6566226314
 10
-8.4510136715
 20
21.6516485249
 10
-8.4428999211
 20
21.6463745532
 10
-8.4346952191
 20
21.6407993367
 10
-8.4264090505
 20
21.6349221523
 10
-8.4180550959
 20
21.6287459299
 10
-8.40964317
 20
21.6222714369
 10
-8.4011826024
 20
21.6154995024
 10
-8.3926857443
 20
21.6084340352
 10
-8.3841623168
 20
21.6010773908
 10
-8.3756214946
 20
21.5934318449
 10
-8.3670742465
 20
21.5855018507
 10
-8.358530004
 20
21.5772910193
 10
-8.3499979046
 20
21.5688030546
 10
-8.3414879619
 20
21.5600430336
 10
-8.3330093089
 20
21.5510157044
 10
-8.324570889
 20
21.5417259965
 10
-8.3161819753
 20
21.53217964
 10
-8.3078508268
 20
21.5223817469
 10
-8.2995866905
 20
21.5123389812
 10
-8.2913998659
 20
21.5020598457
 10
-8.2832983145
 20
21.4915505879
 10
-8.2752907702
 20
21.4808189068
 10
-8.2673881414
 20
21.4698760553
 10
-8.2595983258
 20
21.4587299516
 10
-8.2519290025
 20
21.447388737
 10
-8.2443901367
 20
21.4358645449
 10
-8.2369889883
 20
21.4241661849
 10
-8.2297325763
 20
21.4123026844
 10
-8.2226298864
 20
21.4002869425
 10
-8.2156874539
 20
21.3881285249
 10
-8.2089115513
 20
21.3758371809
 10
-8.2023101459
 20
21.3634264656
 10
-8.1958889679
 20
21.3509065701
 10
-8.1896534617
 20
21.3382877999
 10
-8.1836105185
 20
21.3255842249
 10
-8.1777649639
 20
21.3128064742
 10
-8.1721213636
 20
21.2999652961
 10
-8.1666855229
 20
21.287075241
 10
-8.1614613455
 20
21.2741473702
 10
-8.1564523778
 20
21.2611925756
 10
-8.151663146
 20
21.2482253931
 10
-8.1470965498
 20
21.2352571079
 10
-8.1427550893
 20
21.222298639
 10
-8.1386419384
 20
21.2093641448
 10
-8.1347588577
 20
21.1964646522
 10
-8.131107377
 20
21.1836112739
 10
-8.1276895469
 20
21.1708184176
 10
-8.124505994
 20
21.1580968748
 10
-8.1215571404
 20
21.1454576381
 10
-8.1188438803
 20
21.1329154805
 10
-8.1163656565
 20
21.1204808321
 10
-8.1141216855
 20
21.1081643112
 10
-8.1121115851
 20
21.0959809721
 10
-8.1103335767
 20
21.0839408635
 10
-8.1087855931
 20
21.0720540618
 10
-8.1074658048
 20
21.0603356256
 10
-8.1063711513
 20
21.0487947954
 10
-8.1054982339
 20
21.0374406122
 10
-8.1048436557
 20
21.026287606
 10
-8.1044031355
 20
21.0153465209
 10
-8.1041717832
 20
21.0046243207
 10
-8.1041316066
 20
20.9972388392
  0
LINE
  5
25E
100
AcDbEntity
  8
0
100
AcDbLine
 62
253
  6
CONTINUOUS
 10
-10.2390996917
 20
43.4302474691
 11
-10.232105966
 21
43.3639836914
  0
LINE
  5
25F
100
AcDbEntity
  8
0
100
AcDbLine
 62
7
  6
CONTINUOUS
 10
-10.0955954172
 20
43.719297662
 11
-10.0469999469
 21
43.2588678991
  0
LWPOLYLINE
  5
260
100
AcDbEntity
  8
0
100
AcDbPolyline
 62
7
  6
CONTINUOUS
 90
33
 70
0
 10
-8.1044674174
 20
20.6501596988
 10
-8.104437524
 20
20.6461126869
 10
-8.1041598545
 20
20.6375519518
 10
-8.1035931121
 20
20.6290591148
 10
-8.102739797
 20
20.6206395391
 10
-8.1016026886
 20
20.6122999598
 10
-8.1001853683
 20
20.604051854
 10
-8.0984918907
 20
20.5959045973
 10
-8.0965260909
 20
20.5878649995
 10
-8.0942931087
 20
20.5799441943
 10
-8.0918000355
 20
20.572155941
 10
-8.0890515569
 20
20.5645043043
 10
-8.0860499237
 20
20.5569882673
 10
-8.0828017482
 20
20.5496181183
 10
-8.0793133821
 20
20.5424018594
 10
-8.0755858553
 20
20.5353370879
 10
-8.0716257789
 20
20.5284329902
 10
-8.0674405057
 20
20.5216984369
 10
-8.0630311287
 20
20.5151322803
 10
-8.0584047652
 20
20.5087431953
 10
-8.0535693868
 20
20.5025398264
 10
-8.0485265896
 20
20.4965222602
 10
-8.0432842235
 20
20.4906985693
 10
-8.0378508453
 20
20.485076748
 10
-8.0322285119
 20
20.4796577824
 10
-8.0264257771
 20
20.4744490182
 10
-8.0204518179
 20
20.4694575593
 10
-8.0143091856
 20
20.4646847919
 10
-8.0080071752
 20
20.4601375345
 10
-8.0015552825
 20
20.4558218326
 10
-7.9949558661
 20
20.4517387532
 10
-7.9882160862
 20
20.4478927615
 10
-7.9810200629
 20
20.4441263113
  0
LINE
  5
261
100
AcDbEntity
  8
0
100
AcDbLine
 62
7
  6
CONTINUOUS
 10
-8.1044674307
 20
19.961229222
 11
-8.1041315951
 21
19.6144988056
  0
LINE
  5
262
100
AcDbEntity
  8
0
100
AcDbLine
 62
7
  6
CONTINUOUS
 10
-8.1041315956
 20
20.997238146
 11
-8.1044674307
 21
20.6501663643
  0
LWPOLYLINE
  5
263
100
AcDbEntity
  8
0
100
AcDbPolyline
 62
7
  6
CONTINUOUS
 90
37
 70
0
 10
-8.1041316125
 20
19.6144983518
 10
-8.1041657399
 20
19.6077038475
 10
-8.1043736423
 20
19.5977636103
 10
-8.1047630645
 20
19.5880885382
 10
-8.1053258658
 20
19.5786933562
 10
-8.1060545432
 20
19.5695730205
 10
-8.1069439485
 20
19.5607052729
 10
-8.1079874138
 20
19.5520944223
 10
-8.1091778226
 20
19.543745933
 10
-8.1105115487
 20
19.5356427392
 10
-8.1119823117
 20
19.5277895089
 10
-8.1135830955
 20
19.5201930089
 10
-8.1153104959
 20
19.5128427699
 10
-8.1171579135
 20
19.505744057
 10
-8.1191179109
 20
19.4989036914
 10
-8.1211861974
 20
19.4923168682
 10
-8.12335527
 20
19.4859891561
 10
-8.1256167182
 20
19.4799270479
 10
-8.1279643233
 20
19.4741300923
 10
-8.1303893651
 20
19.4686030888
 10
-8.1328819224
 20
19.4633516953
 10
-8.1354326436
 20
19.4583787719
 10
-8.1380305865
 20
19.4536884627
 10
-8.1406650679
 20
19.4492823836
 10
-8.1433257415
 20
19.4451603796
 10
-8.1459995498
 20
19.4413247681
 10
-8.1486767629
 20
19.4377710552
 10
-8.1513520714
 20
19.4344889947
 10
-8.1540120395
 20
19.4314779106
 10
-8.1566510904
 20
19.4287265346
 10
-8.1592791663
 20
19.4262098463
 10
-8.1618857668
 20
19.4239246442
 10
-8.1644746751
 20
19.4218542468
 10
-8.1670860477
 20
19.419958843
 10
-8.1697404577
 20
19.4182217188
 10
-8.1724349362
 20
19.4166435046
 10
-8.1738481225
 20
19.4158866802
  0
LINE
  5
264
100
AcDbEntity
  8
0
100
AcDbLine
 62
253
  6
CONTINUOUS
 10
-13.4226911943
 20
22.9041948398
 11
-13.0770592627
 21
22.9708993127
  0
LINE
  5
265
100
AcDbEntity
  8
0
100
AcDbLine
 62
253
  6
CONTINUOUS
 10
-13.3832454806
 20
23.4989924217
 11
-13.7288774121
 21
23.4322879487
  0
LINE
  5
266
100
AcDbEntity
  8
RACCORDO
100
AcDbLine
 62
7
  6
CONTINUOUS
 10
0.2285061745
 20
20.0415839347
 11
0.1081907982
 21
20.1017416228
  0
LWPOLYLINE
  5
267
100
AcDbEntity
  8
0
100
AcDbPolyline
 62
7
  6
CONTINUOUS
 90
37
 70
0
 10
-7.9619478909
 20
20.1998373323
 10
-7.964248144
 20
20.1986261938
 10
-7.9711952138
 20
20.1947726708
 10
-7.9780522939
 20
20.1906701305
 10
-7.9848182079
 20
20.1863161084
 10
-7.9914805052
 20
20.18171557
 10
-7.998017974
 20
20.176881304
 10
-8.0044284256
 20
20.171813729
 10
-8.0107076293
 20
20.1665145271
 10
-8.0168366918
 20
20.1609984151
 10
-8.0228195132
 20
20.1552610439
 10
-8.0286503252
 20
20.1493058021
 10
-8.0343019557
 20
20.1431602082
 10
-8.0397782889
 20
20.1368208259
 10
-8.045078952
 20
20.1302870767
 10
-8.0501771967
 20
20.1235927609
 10
-8.0550774315
 20
20.1167340002
 10
-8.0597821811
 20
20.109707072
 10
-8.0642679291
 20
20.1025479636
 10
-8.0685398744
 20
20.095250769
 10
-8.0726002779
 20
20.0878105733
 10
-8.0764275541
 20
20.0802679231
 10
-8.0800252958
 20
20.0726180617
 10
-8.0833966367
 20
20.0648533843
 10
-8.0865245662
 20
20.0570128523
 10
-8.0894120603
 20
20.049091028
 10
-8.0920604626
 20
20.0410811586
 10
-8.094456266
 20
20.0330234446
 10
-8.0966002248
 20
20.0249170662
 10
-8.0984939403
 20
20.0167532408
 10
-8.1001293426
 20
20.0085634601
 10
-8.1015065734
 20
20.0003472152
 10
-8.1026251584
 20
19.9920998034
 10
-8.1034803234
 20
19.9838494624
 10
-8.1040710892
 20
19.9756059112
 10
-8.1043973526
 20
19.9673598336
 10
-8.1044674145
 20
19.9612307743
  0
LINE
  5
268
100
AcDbEntity
  8
0
100
AcDbLine
 62
7
  6
CONTINUOUS
 10
-7.7317045685
 20
20.3194685608
 11
-7.9619392269
 21
20.1998418605
  0
LINE
  5
269
100
AcDbEntity
  8
0
100
AcDbLine
 62
253
  6
CONTINUOUS
 10
-7.680543412
 20
20.2938879825
 11
-7.8709594435
 21
20.1949504824
  0
LINE
  5
26A
100
AcDbEntity
  8
0
100
AcDbLine
 62
253
  6
CONTINUOUS
 10
-8.1051276824
 20
19.5820017524
 11
-8.3991961545
 21
19.4292083136
  0
LINE
  5
26B
100
AcDbEntity
  8
0
100
AcDbLine
 62
253
  6
CONTINUOUS
 10
-3.5847180096
 20
18.2242581668
 11
0.2285061745
 21
20.0415839347
  0
LINE
  5
26C
100
AcDbEntity
  8
0
100
AcDbLine
 62
253
  6
CONTINUOUS
 10
0.4053367525
 20
20.3428223817
 11
-3.412674397
 21
18.60207655
  0
LINE
  5
26D
100
AcDbEntity
  8
0
100
AcDbLine
 62
7
  6
CONTINUOUS
 10
0.3373467871
 20
20.2062207134
 11
-3.4794636758
 21
18.4660223107
  0
LINE
  5
26E
100
AcDbEntity
  8
0
100
AcDbLine
 62
253
  6
CONTINUOUS
 10
-18.8498864588
 20
33.9279376224
 11
-12.1093037874
 21
30.5576462867
  0
LINE
  5
26F
100
AcDbEntity
  8
ASSI
100
AcDbLine
 62
253
  6
CONTINUOUS
 10
-12.1093037874
 20
30.5576462867
 11
-10.781876532
 21
29.893932659
  0
LINE
  5
270
100
AcDbEntity
  8
0
100
AcDbLine
 62
253
  6
CONTINUOUS
 10
-10.781876532
 20
29.893932659
 11
-4.0412942672
 21
26.5236415266
  0
LINE
  5
271
100
AcDbEntity
  8
0
100
AcDbLine
 62
253
  6
CONTINUOUS
 10
-3.412674397
 20
17.9171128261
 11
0.4053367525
 21
19.7367199904
  0
LINE
  5
272
100
AcDbEntity
  8
0
100
AcDbLine
 62
7
  6
CONTINUOUS
 10
0.4053367525
 20
19.7367199904
 11
0.4053367525
 21
8.6948383965
  0
LINE
  5
273
100
AcDbEntity
  8
0
100
AcDbLine
 62
7
  6
CONTINUOUS
 10
0.4053367525
 20
20.3428223817
 11
0.4053367525
 21
31.3847039756
  0
LINE
  5
274
100
AcDbEntity
  8
0
100
AcDbLine
 62
7
  6
CONTINUOUS
 10
-0.3669485393
 20
38.4680402028
 11
0.4053367525
 21
31.3847039756
  0
LINE
  5
275
100
AcDbEntity
  8
0
100
AcDbLine
 62
7
  6
CONTINUOUS
 10
-0.3669485393
 20
0.8913344838
 11
0.4053367525
 21
8.6948383965
  0
LINE
  5
276
100
AcDbEntity
  8
0
100
AcDbLine
 62
253
  6
CONTINUOUS
 10
-3.3172992459
 20
37.0002435417
 11
-18.1744878515
 21
44.4288378446
  0
LINE
  5
277
100
AcDbEntity
  8
0
100
AcDbLine
 62
253
  6
CONTINUOUS
 10
-2.6435394024
 20
38.0612908271
 11
-17.5238524584
 21
45.5014473551
  0
LINE
  5
278
100
AcDbEntity
  8
0
100
AcDbLine
 62
7
  6
CONTINUOUS
 10
-6.9754695182
 20
41.7984323824
 11
-6.4408925622
 21
41.8919462345
  0
LINE
  5
279
100
AcDbEntity
  8
0
100
AcDbLine
 62
7
  6
CONTINUOUS
 10
-10.1874114077
 20
43.3290736295
 11
-7.1687302086
 21
41.8197330299
  0
LINE
  5
27A
100
AcDbEntity
  8
0
100
AcDbLine
 62
7
  6
CONTINUOUS
 10
-15.7717974964
 20
46.5573987016
 11
-10.0955954172
 21
43.719297662
  0
LINE
  5
27B
100
AcDbEntity
  8
0
100
AcDbLine
 62
7
  6
CONTINUOUS
 10
-6.4408925622
 20
41.8919462345
 11
-0.7646904829
 21
39.0538451949
  0
LINE
  5
27C
100
AcDbEntity
  8
0
100
AcDbLine
 62
253
  6
CONTINUOUS
 10
-2.2840366676
 20
0.1163761795
 11
-0.3669485393
 21
0.8913344838
  0
LINE
  5
27D
100
AcDbEntity
  8
0
100
AcDbLine
 62
7
  6
CONTINUOUS
 10
-2.4376484862
 20
-0.1643433492
 11
-0.5462562006
 21
0.6002277401
  0
ARC
  5
27E
100
AcDbEntity
  8
0
100
AcDbCircle
 62
7
  6
CONTINUOUS
 10
-11.9950390879
 20
9.7672315596
 40
0.1273615327
100
AcDbArc
 50
328.1289527193
 51
330.8528348094
  0
ARC
  5
27F
100
AcDbEntity
  8
ASSI
100
AcDbCircle
 62
7
  6
CONTINUOUS
 10
-11.9747894586
 20
10.4133122046
 40
0.1210310454
100
AcDbArc
 50
148.4005490841
 51
151.0807348146
  0
ARC
  5
280
100
AcDbEntity
  8
0
100
AcDbCircle
 62
7
  6
CONTINUOUS
 10
-12.5004325629
 20
13.0752802535
 40
0.4956709027
100
AcDbArc
 50
22.0548827351
 51
25.4347923233
  0
ARC
  5
281
100
AcDbEntity
  8
ASSI
100
AcDbCircle
 62
7
  6
CONTINUOUS
 10
-11.722370916
 20
12.8264056661
 40
0.4912588953
100
AcDbArc
 50
202.4093521063
 51
203.5427643534
  0
ARC
  5
282
100
AcDbEntity
  8
ASSI
100
AcDbCircle
 62
7
  6
CONTINUOUS
 10
-11.515693333
 20
11.4915374628
 40
0.3028883876
100
AcDbArc
 50
149.9255845274
 51
152.070554483
  0
ARC
  5
283
100
AcDbEntity
  8
ASSI
100
AcDbCircle
 62
7
  6
CONTINUOUS
 10
-11.5318503146
 20
11.5009622024
 40
0.2841835746
100
AcDbArc
 50
144.1087152937
 51
149.9375361717
  0
ARC
  5
284
100
AcDbEntity
  8
ASSI
100
AcDbCircle
 62
7
  6
CONTINUOUS
 10
-11.545713607
 20
11.510601147
 40
0.2673018611
100
AcDbArc
 50
143.1308843327
 51
144.0404373161
  0
ARC
  5
285
100
AcDbEntity
  8
ASSI
100
AcDbCircle
 62
7
  6
CONTINUOUS
 10
-11.55468972
 20
11.5174657041
 40
0.2560022599
100
AcDbArc
 50
136.2549299261
 51
143.1546377288
  0
ARC
  5
286
100
AcDbEntity
  8
ASSI
100
AcDbCircle
 62
7
  6
CONTINUOUS
 10
-12.4130271366
 20
11.7181998932
 40
0.2461352109
100
AcDbArc
 50
243.4239355108
 51
245.2097244492
  0
ARC
  5
287
100
AcDbEntity
  8
0
100
AcDbCircle
 62
7
  6
CONTINUOUS
 10
-13.079881494
 20
11.998658479
 40
0.2459009704
100
AcDbArc
 50
63.4278887823
 51
65.1857127564
  0
ARC
  5
288
100
AcDbEntity
  8
ASSI
100
AcDbCircle
 62
7
  6
CONTINUOUS
 10
-11.5635779404
 20
11.5255526052
 40
0.2439896948
100
AcDbArc
 50
135.8865081845
 51
136.183635699
  0
ARC
  5
289
100
AcDbEntity
  8
ASSI
100
AcDbCircle
 62
7
  6
CONTINUOUS
 10
-11.5648667371
 20
11.5268090336
 40
0.2421898102
100
AcDbArc
 50
134.5895370096
 51
135.8876816723
  0
ARC
  5
28A
100
AcDbEntity
  8
ASSI
100
AcDbCircle
 62
7
  6
CONTINUOUS
 10
-11.5667170283
 20
11.5286842863
 40
0.239555394
100
AcDbArc
 50
133.3896100932
 51
134.5892446845
  0
ARC
  5
28B
100
AcDbEntity
  8
ASSI
100
AcDbCircle
 62
7
  6
CONTINUOUS
 10
-11.5696412074
 20
11.5318025279
 40
0.2352805891
100
AcDbArc
 50
129.3336121743
 51
133.3937731316
  0
ARC
  5
28C
100
AcDbEntity
  8
ASSI
100
AcDbCircle
 62
7
  6
CONTINUOUS
 10
-11.5725682131
 20
11.5352839958
 40
0.2307325526
100
AcDbArc
 50
128.2932108409
 51
129.3193904518
  0
ARC
  5
28D
100
AcDbEntity
  8
ASSI
100
AcDbCircle
 62
7
  6
CONTINUOUS
 10
-11.5747239706
 20
11.5380676529
 40
0.2272119094
100
AcDbArc
 50
120.7443669441
 51
128.3015444229
  0
ARC
  5
28E
100
AcDbEntity
  8
0
100
AcDbCircle
 62
7
  6
CONTINUOUS
 10
-11.5753192523
 20
11.5386674256
 40
0.2263970175
100
AcDbArc
 50
112.6564791625
 51
116.5611635072
  0
ARC
  5
28F
100
AcDbEntity
  8
ASSI
100
AcDbCircle
 62
7
  6
CONTINUOUS
 10
-11.5759441847
 20
11.539947629
 40
0.22497249
100
AcDbArc
 50
116.5645953129
 51
119.7549272816
  0
ARC
  5
290
100
AcDbEntity
  8
ASSI
100
AcDbCircle
 62
7
  6
CONTINUOUS
 10
-11.5760668569
 20
11.5401704924
 40
0.2247181287
100
AcDbArc
 50
119.7559743209
 51
120.4858978016
  0
ARC
  5
291
100
AcDbEntity
  8
0
100
AcDbCircle
 62
7
  6
CONTINUOUS
 10
-12.3122912607
 20
13.3941636328
 40
0.1080708608
100
AcDbArc
 50
110.568089701
 51
116.5528496322
  0
ARC
  5
292
100
AcDbEntity
  8
ASSI
100
AcDbCircle
 62
7
  6
CONTINUOUS
 10
-12.312644671
 20
13.3949114822
 40
0.1072439116
100
AcDbArc
 50
116.5637013193
 51
119.9186126608
  0
ARC
  5
293
100
AcDbEntity
  8
ASSI
100
AcDbCircle
 62
7
  6
CONTINUOUS
 10
-11.9035079173
 20
12.5042565137
 40
0.1053949468
100
AcDbArc
 50
296.2322537274
 51
296.5644220916
  0
ARC
  5
294
100
AcDbEntity
  8
0
100
AcDbCircle
 62
7
  6
CONTINUOUS
 10
-11.9034419923
 20
12.504125254
 40
0.105248061
100
AcDbArc
 50
296.5622839246
 51
299.9326081881
  0
ARC
  5
295
100
AcDbEntity
  8
0
100
AcDbCircle
 62
7
  6
CONTINUOUS
 10
-11.0136291263
 20
9.5012563441
 40
0.50946115
100
AcDbArc
 50
23.5444827098
 51
26.3480654554
  0
ARC
  5
296
100
AcDbEntity
  8
0
100
AcDbCircle
 62
7
  6
CONTINUOUS
 10
-10.7472459518
 20
8.9674559969
 40
0.4796206185
100
AcDbArc
 50
22.8401086377
 51
23.8759464545
  0
ARC
  5
297
100
AcDbEntity
  8
0
100
AcDbCircle
 62
7
  6
CONTINUOUS
 10
-11.2290449622
 20
10.8499430056
 40
0.3129766585
100
AcDbArc
 50
330.2281297046
 51
336.5041433444
  0
ARC
  5
298
100
AcDbEntity
  8
0
100
AcDbCircle
 62
7
  6
CONTINUOUS
 10
-11.1991927045
 20
10.8329687449
 40
0.2786361013
100
AcDbArc
 50
323.9993459037
 51
330.2097756324
  0
ARC
  5
299
100
AcDbEntity
  8
ASSI
100
AcDbCircle
 62
7
  6
CONTINUOUS
 10
-10.073836966
 20
10.5630164462
 40
0.2590253681
100
AcDbArc
 50
241.7049525733
 51
243.4311063695
  0
ARC
  5
29A
100
AcDbEntity
  8
0
100
AcDbCircle
 62
7
  6
CONTINUOUS
 10
-11.1775654831
 20
10.8172525246
 40
0.2519015492
100
AcDbArc
 50
316.4106527195
 51
323.999851378
  0
ARC
  5
29B
100
AcDbEntity
  8
ASSI
100
AcDbCircle
 62
7
  6
CONTINUOUS
 10
-9.6553105975
 20
10.3393418159
 40
0.2461353829
100
AcDbArc
 50
243.4239359678
 51
245.209685461
  0
ARC
  5
29C
100
AcDbEntity
  8
0
100
AcDbCircle
 62
7
  6
CONTINUOUS
 10
-11.1678208511
 20
10.8083385347
 40
0.2386975944
100
AcDbArc
 50
314.8882893076
 51
316.3476739792
  0
ARC
  5
29D
100
AcDbEntity
  8
0
100
AcDbCircle
 62
7
  6
CONTINUOUS
 10
-11.1656676002
 20
10.8061793262
 40
0.2356482227
100
AcDbArc
 50
313.5419367772
 51
314.8878680005
  0
ARC
  5
29E
100
AcDbEntity
  8
0
100
AcDbCircle
 62
7
  6
CONTINUOUS
 10
-11.1621790382
 20
10.8024563781
 40
0.2305463517
100
AcDbArc
 50
309.3388682167
 51
313.5508659539
  0
ARC
  5
29F
100
AcDbEntity
  8
0
100
AcDbCircle
 62
7
  6
CONTINUOUS
 10
-11.1575752769
 20
10.7968209252
 40
0.2232694839
100
AcDbArc
 50
300.7779684604
 51
309.3418832474
  0
ARC
  5
2A0
100
AcDbEntity
  8
ASSI
100
AcDbCircle
 62
7
  6
CONTINUOUS
 10
-11.1568102494
 20
10.7960004126
 40
0.2221783482
100
AcDbArc
 50
292.609083021
 51
296.5607531914
  0
ARC
  5
2A1
100
AcDbEntity
  8
0
100
AcDbCircle
 62
7
  6
CONTINUOUS
 10
-11.1561356976
 20
10.794617738
 40
0.2206399772
100
AcDbArc
 50
296.5646149135
 51
300.7495527997
  0
ARC
  5
2A2
100
AcDbEntity
  8
0
100
AcDbCircle
 62
7
  6
CONTINUOUS
 10
-10.4037932931
 20
8.9722423558
 40
0.1273902463
100
AcDbArc
 50
330.5993921069
 51
333.1084530254
  0
ARC
  5
2A3
100
AcDbEntity
  8
0
100
AcDbCircle
 62
7
  6
CONTINUOUS
 10
-10.4001557474
 20
8.9694222459
 40
0.1228385903
100
AcDbArc
 50
323.6067388788
 51
330.9124559502
  0
ARC
  5
2A4
100
AcDbEntity
  8
0
100
AcDbCircle
 62
7
  6
CONTINUOUS
 10
-10.3845262665
 20
8.9566990659
 40
0.1026411363
100
AcDbArc
 50
310.5319299128
 51
314.0690412385
  0
ARC
  5
2A5
100
AcDbEntity
  8
0
100
AcDbCircle
 62
7
  6
CONTINUOUS
 10
-10.3832333431
 20
8.9551994366
 40
0.1006611181
100
AcDbArc
 50
307.8173321365
 51
310.5273126715
  0
ARC
  5
2A6
100
AcDbEntity
  8
0
100
AcDbCircle
 62
7
  6
CONTINUOUS
 10
-10.3823681875
 20
8.9540844855
 40
0.099249874
100
AcDbArc
 50
304.2347368038
 51
307.817436786
  0
ARC
  5
2A7
100
AcDbEntity
  8
0
100
AcDbCircle
 62
7
  6
CONTINUOUS
 10
-10.381951891
 20
8.9535017992
 40
0.0985339434
100
AcDbArc
 50
296.5682591183
 51
304.2252246721
  0
ARC
  5
2A8
100
AcDbEntity
  8
0
100
AcDbCircle
 62
7
  6
CONTINUOUS
 10
-10.744330601
 20
11.9295276643
 40
0.116882863
100
AcDbArc
 50
312.907354082
 51
321.4153664384
  0
ARC
  5
2A9
100
AcDbEntity
  8
ASSI
100
AcDbCircle
 62
7
  6
CONTINUOUS
 10
-10.7177019643
 20
12.5943237144
 40
0.1136968203
100
AcDbArc
 50
132.2990892802
 51
132.6823363043
  0
ARC
  5
2AA
100
AcDbEntity
  8
ASSI
100
AcDbCircle
 62
7
  6
CONTINUOUS
 10
-10.719640323
 20
12.5965142335
 40
0.1107721114
100
AcDbArc
 50
123.4042002849
 51
132.3200529383
  0
ARC
  5
2AB
100
AcDbEntity
  8
0
100
AcDbCircle
 62
7
  6
CONTINUOUS
 10
-10.7385922352
 20
11.9234602729
 40
0.108532028
100
AcDbArc
 50
303.4613884156
 51
312.8691713241
  0
ARC
  5
2AC
100
AcDbEntity
  8
ASSI
100
AcDbCircle
 62
7
  6
CONTINUOUS
 10
-10.721306898
 20
12.5988571186
 40
0.1078987815
100
AcDbArc
 50
123.0448665596
 51
123.3503486557
  0
ARC
  5
2AD
100
AcDbEntity
  8
ASSI
100
AcDbCircle
 62
7
  6
CONTINUOUS
 10
-10.7213674018
 20
12.5989501627
 40
0.1077877954
100
AcDbArc
 50
122.5858443086
 51
123.0448769908
  0
ARC
  5
2AE
100
AcDbEntity
  8
0
100
AcDbCircle
 62
7
  6
CONTINUOUS
 10
-10.7215237544
 20
12.5991595374
 40
0.1075286764
100
AcDbArc
 50
113.6728940331
 51
116.5631933575
  0
ARC
  5
2AF
100
AcDbEntity
  8
ASSI
100
AcDbCircle
 62
7
  6
CONTINUOUS
 10
-10.721552399
 20
12.5992389996
 40
0.107444793
100
AcDbArc
 50
116.5671870752
 51
122.585674094
  0
ARC
  5
2B0
100
AcDbEntity
  8
0
100
AcDbCircle
 62
7
  6
CONTINUOUS
 10
-10.7368350636
 20
11.920969975
 40
0.1054856586
100
AcDbArc
 50
296.5700081369
 51
303.4109579887
  0
ARC
  5
2B1
100
AcDbEntity
  8
0
100
AcDbCircle
 62
253
  6
CONTINUOUS
 10
-7.9392688515
 20
20.5276524512
 40
0.0933797579
100
AcDbArc
 50
242.2745198752
 51
243.4353625807
  0
ARC
  5
2B2
100
AcDbEntity
  8
0
100
AcDbCircle
 62
253
  6
CONTINUOUS
 10
84.523370466
 20
11.4968991089
 40
88.5761721995
100
AcDbArc
 50
180.9235783337
 51
182.6848509295
  0
ARC
  5
2B3
100
AcDbEntity
  8
0
100
AcDbCircle
 62
253
  6
CONTINUOUS
 10
77.1884860836
 20
11.0945269182
 40
81.2305122558
100
AcDbArc
 50
182.6436957419
 51
187.6592925001
  0
ARC
  5
2B4
100
AcDbEntity
  8
0
100
AcDbCircle
 62
7
  6
CONTINUOUS
 10
-10.5899913137
 20
29.7605914145
 40
0.2226713286
100
AcDbArc
 50
342.0747991188
 51
347.2641073867
  0
ARC
  5
2B5
100
AcDbEntity
  8
0
100
AcDbCircle
 62
7
  6
CONTINUOUS
 10
-10.5628261632
 20
29.7517483424
 40
0.1941031279
100
AcDbArc
 50
335.7681622799
 51
342.0904625933
  0
ARC
  5
2B6
100
AcDbEntity
  8
0
100
AcDbCircle
 62
7
  6
CONTINUOUS
 10
-10.5429907003
 20
29.7429632107
 40
0.1724096931
100
AcDbArc
 50
331.1416360686
 51
335.7249694443
  0
ARC
  5
2B7
100
AcDbEntity
  8
0
100
AcDbCircle
 62
7
  6
CONTINUOUS
 10
-10.5328880608
 20
29.7374827188
 40
0.1609165251
100
AcDbArc
 50
328.7133608595
 51
331.11454015
  0
ARC
  5
2B8
100
AcDbEntity
  8
0
100
AcDbCircle
 62
7
  6
CONTINUOUS
 10
-10.5221948623
 20
29.7308079349
 40
0.1483120611
100
AcDbArc
 50
321.527651501
 51
328.771674317
  0
ARC
  5
2B9
100
AcDbEntity
  8
0
100
AcDbCircle
 62
7
  6
CONTINUOUS
 10
-10.5100677286
 20
29.7212023448
 40
0.1328416355
100
AcDbArc
 50
313.2037372984
 51
321.5171107799
  0
ARC
  5
2BA
100
AcDbEntity
  8
0
100
AcDbCircle
 62
7
  6
CONTINUOUS
 10
-10.5026870411
 20
29.7134458542
 40
0.1221349844
100
AcDbArc
 50
304.2241576218
 51
313.1709421214
  0
ARC
  5
2BB
100
AcDbEntity
  8
0
100
AcDbCircle
 62
7
  6
CONTINUOUS
 10
-10.4999439784
 20
29.7096012637
 40
0.1174133709
100
AcDbArc
 50
299.8405563302
 51
304.1725471958
  0
ARC
  5
2BC
100
AcDbEntity
  8
0
100
AcDbCircle
 62
7
  6
CONTINUOUS
 10
-10.4993542794
 20
29.7085932102
 40
0.116245545
100
AcDbArc
 50
296.5696817982
 51
299.8356681336
  0
ARC
  5
2BD
100
AcDbEntity
  8
0
100
AcDbCircle
 62
7
  6
CONTINUOUS
 10
-10.4992488299
 20
29.7083997443
 40
0.1160253451
100
AcDbArc
 50
292.258182059
 51
296.5658406327
  0
ARC
  5
2BE
100
AcDbEntity
  8
ASSI
100
AcDbCircle
 62
7
  6
CONTINUOUS
 10
-11.3762579898
 20
33.2693570707
 40
0.6558547005
100
AcDbArc
 50
155.8027925908
 51
160.1443179348
  0
ARC
  5
2BF
100
AcDbEntity
  8
ASSI
100
AcDbCircle
 62
7
  6
CONTINUOUS
 10
-11.4161730228
 20
33.2867108654
 40
0.6123338803
100
AcDbArc
 50
154.1379314983
 51
155.7530861202
  0
ARC
  5
2C0
100
AcDbEntity
  8
ASSI
100
AcDbCircle
 62
7
  6
CONTINUOUS
 10
-10.6667022381
 20
31.1646874698
 40
0.4415827377
100
AcDbArc
 50
193.5648534352
 51
194.8057655731
  0
ARC
  5
2C1
100
AcDbEntity
  8
0
100
AcDbCircle
 62
7
  6
CONTINUOUS
 10
-12.0417212826
 20
34.6754688257
 40
0.4396187804
100
AcDbArc
 50
11.7747088973
 51
13.0261227347
  0
ARC
  5
2C2
100
AcDbEntity
  8
ASSI
100
AcDbCircle
 62
7
  6
CONTINUOUS
 10
-11.8663651452
 20
36.0620115829
 40
0.4356967241
100
AcDbArc
 50
191.3261423952
 51
192.5982190051
  0
ARC
  5
2C3
100
AcDbEntity
  8
ASSI
100
AcDbCircle
 62
7
  6
CONTINUOUS
 10
-11.5863033858
 20
33.4168958311
 40
0.3953788226
100
AcDbArc
 50
116.5717136055
 51
120.995000199
  0
ARC
  5
2C4
100
AcDbEntity
  8
0
100
AcDbCircle
 62
7
  6
CONTINUOUS
 10
-11.5877625414
 20
33.4197143451
 40
0.3922053101
100
AcDbArc
 50
114.9375511636
 51
116.5657886321
  0
ARC
  5
2C5
100
AcDbEntity
  8
0
100
AcDbCircle
 62
7
  6
CONTINUOUS
 10
-9.5081635544
 20
30.7132984803
 40
0.389143234
100
AcDbArc
 50
39.9562232741
 51
44.0068954918
  0
ARC
  5
2C6
100
AcDbEntity
  8
0
100
AcDbCircle
 62
7
  6
CONTINUOUS
 10
-11.1408205918
 20
32.3879356543
 40
0.3850651817
100
AcDbArc
 50
296.5711296133
 51
301.0728632759
  0
ARC
  5
2C7
100
AcDbEntity
  8
ASSI
100
AcDbCircle
 62
7
  6
CONTINUOUS
 10
-11.1395563168
 20
32.3854868628
 40
0.3823095129
100
AcDbArc
 50
294.9355743798
 51
296.5652773745
  0
ARC
  5
2C8
100
AcDbEntity
  8
ASSI
100
AcDbCircle
 62
7
  6
CONTINUOUS
 10
-9.9376609724
 20
31.6691432123
 40
0.3781819914
100
AcDbArc
 50
222.6691242646
 51
224.0469683147
  0
ARC
  5
2C9
100
AcDbEntity
  8
ASSI
100
AcDbCircle
 62
7
  6
CONTINUOUS
 10
-13.2334139596
 20
35.0867672917
 40
0.3693633149
100
AcDbArc
 50
222.2446874557
 51
223.6523069401
  0
ARC
  5
2CA
100
AcDbEntity
  8
ASSI
100
AcDbCircle
 62
7
  6
CONTINUOUS
 10
-12.4441561443
 20
34.2482961895
 40
0.3606051889
100
AcDbArc
 50
223.7486604128
 51
225.1766183479
  0
ARC
  5
2CB
100
AcDbEntity
  8
0
100
AcDbCircle
 62
7
  6
CONTINUOUS
 10
-10.3579525943
 20
34.9945720381
 40
0.2101816149
100
AcDbArc
 50
334.8001997775
 51
336.8407928665
  0
ARC
  5
2CC
100
AcDbEntity
  8
0
100
AcDbCircle
 62
7
  6
CONTINUOUS
 10
-11.9446941945
 20
31.4642055208
 40
0.2043130901
100
AcDbArc
 50
336.7411430737
 51
342.9492472184
  0
ARC
  5
2CD
100
AcDbEntity
  8
0
100
AcDbCircle
 62
7
  6
CONTINUOUS
 10
-12.2573756185
 20
30.5989838987
 40
0.1523532799
100
AcDbArc
 50
323.1971169952
 51
330.3660449264
  0
ARC
  5
2CE
100
AcDbEntity
  8
ASSI
100
AcDbCircle
 62
7
  6
CONTINUOUS
 10
-12.0067180798
 20
31.7269532246
 40
0.1467341443
100
AcDbArc
 50
142.2467637809
 51
142.5831522972
  0
ARC
  5
2CF
100
AcDbEntity
  8
0
100
AcDbCircle
 62
7
  6
CONTINUOUS
 10
-9.2905360993
 20
33.0914810536
 40
0.1429754429
100
AcDbArc
 50
88.599314533
 51
91.2037502332
  0
ARC
  5
2D0
100
AcDbEntity
  8
ASSI
100
AcDbCircle
 62
7
  6
CONTINUOUS
 10
-9.997166305
 20
32.7861817397
 40
0.1423450057
100
AcDbArc
 50
268.4224006855
 51
271.0750654418
  0
ARC
  5
2D1
100
AcDbEntity
  8
ASSI
100
AcDbCircle
 62
7
  6
CONTINUOUS
 10
-13.4267198061
 20
32.7275540138
 40
0.1411805367
100
AcDbArc
 50
268.1743369066
 51
270.8273020008
  0
ARC
  5
2D2
100
AcDbEntity
  8
ASSI
100
AcDbCircle
 62
7
  6
CONTINUOUS
 10
-12.5970473243
 20
32.7356915811
 40
0.1367766012
100
AcDbArc
 50
270.8895817039
 51
273.6027063564
  0
ARC
  5
2D3
100
AcDbEntity
  8
0
100
AcDbCircle
 62
7
  6
CONTINUOUS
 10
-12.2441038871
 20
30.5890810211
 40
0.1357941336
100
AcDbArc
 50
315.0211925079
 51
323.1881008732
  0
ARC
  5
2D4
100
AcDbEntity
  8
ASSI
100
AcDbCircle
 62
7
  6
CONTINUOUS
 10
-12.0176119431
 20
31.7365604865
 40
0.1321970782
100
AcDbArc
 50
134.1654155627
 51
134.4394812293
  0
ARC
  5
2D5
100
AcDbEntity
  8
ASSI
100
AcDbCircle
 62
7
  6
CONTINUOUS
 10
-12.0179443069
 20
31.7369029104
 40
0.1317198781
100
AcDbArc
 50
133.7514362846
 51
134.1654863814
  0
ARC
  5
2D6
100
AcDbEntity
  8
ASSI
100
AcDbCircle
 62
7
  6
CONTINUOUS
 10
-12.150330178
 20
36.1311329395
 40
0.1299765699
100
AcDbArc
 50
116.5678408998
 51
119.4058804365
  0
ARC
  5
2D7
100
AcDbEntity
  8
0
100
AcDbCircle
 62
7
  6
CONTINUOUS
 10
-12.1507936795
 20
36.1320505032
 40
0.1289485918
100
AcDbArc
 50
113.6924152432
 51
116.5661317181
  0
ARC
  5
2D8
100
AcDbEntity
  8
0
100
AcDbCircle
 62
7
  6
CONTINUOUS
 10
-10.4190222836
 20
35.266234201
 40
0.1288352879
100
AcDbArc
 50
108.1000697551
 51
116.5630366556
  0
ARC
  5
2D9
100
AcDbEntity
  8
ASSI
100
AcDbCircle
 62
7
  6
CONTINUOUS
 10
-12.0208042591
 20
31.7399670263
 40
0.1275287893
100
AcDbArc
 50
125.7054001092
 51
133.7752726242
  0
ARC
  5
2DA
100
AcDbEntity
  8
0
100
AcDbCircle
 62
7
  6
CONTINUOUS
 10
-10.6941168892
 20
34.0812305614
 40
0.1262402885
100
AcDbArc
 50
287.3532764361
 51
296.5632373677
  0
ARC
  5
2DB
100
AcDbEntity
  8
0
100
AcDbCircle
 62
7
  6
CONTINUOUS
 10
-12.2356737066
 20
30.5807481091
 40
0.1239408293
100
AcDbArc
 50
306.1556872207
 51
314.9914237864
  0
ARC
  5
2DC
100
AcDbEntity
  8
ASSI
100
AcDbCircle
 62
7
  6
CONTINUOUS
 10
-12.0237608535
 20
31.7438371368
 40
0.1226607107
100
AcDbArc
 50
124.8061289956
 51
125.6389895628
  0
ARC
  5
2DD
100
AcDbEntity
  8
ASSI
100
AcDbCircle
 62
7
  6
CONTINUOUS
 10
-12.0242604214
 20
31.7445606462
 40
0.1217814917
100
AcDbArc
 50
122.7191264694
 51
124.8074420632
  0
ARC
  5
2DE
100
AcDbEntity
  8
0
100
AcDbCircle
 62
7
  6
CONTINUOUS
 10
-12.0249774906
 20
31.7449382936
 40
0.1211323624
100
AcDbArc
 50
104.9145317982
 51
108.2079995577
  0
ARC
  5
2DF
100
AcDbEntity
  8
ASSI
100
AcDbCircle
 62
7
  6
CONTINUOUS
 10
-12.0251576629
 20
31.7459742997
 40
0.1201071643
100
AcDbArc
 50
117.26243242
 51
122.7235310212
  0
ARC
  5
2E0
100
AcDbEntity
  8
0
100
AcDbCircle
 62
7
  6
CONTINUOUS
 10
-12.025482071
 20
31.7464929802
 40
0.1194978566
100
AcDbArc
 50
108.2111036034
 51
116.5528069369
  0
ARC
  5
2E1
100
AcDbEntity
  8
0
100
AcDbCircle
 62
7
  6
CONTINUOUS
 10
-12.2320162603
 20
30.5769266016
 40
0.1188006054
100
AcDbArc
 50
282.3532859975
 51
291.1969402547
  0
ARC
  5
2E2
100
AcDbEntity
  8
0
100
AcDbCircle
 62
7
  6
CONTINUOUS
 10
-12.231799312
 20
30.5756004153
 40
0.1174987093
100
AcDbArc
 50
296.5993749712
 51
306.111211569
  0
ARC
  5
2E3
100
AcDbEntity
  8
ASSI
100
AcDbCircle
 62
7
  6
CONTINUOUS
 10
-12.2312773317
 20
30.574769606
 40
0.1165221553
100
AcDbArc
 50
288.6069338351
 51
296.5536347353
  0
ARC
  5
2E4
100
AcDbEntity
  8
0
100
AcDbCircle
 62
7
  6
CONTINUOUS
 10
-12.2311365382
 20
30.5744452802
 40
0.1161691027
100
AcDbArc
 50
291.2349077731
 51
296.5621798664
  0
ARC
  5
2E5
100
AcDbEntity
  8
0
100
AcDbCircle
 62
253
  6
CONTINUOUS
 10
97.3157766407
 20
24.7825869944
 40
101.3720232308
100
AcDbArc
 50
173.0777148224
 51
179.015902235
  0
ARC
  5
2E6
100
AcDbEntity
  8
0
100
AcDbCircle
 62
253
  6
CONTINUOUS
 10
97.4266217987
 20
24.7779835852
 40
100.7882988313
100
AcDbArc
 50
173.0763611421
 51
179.0157271549
  0
ARC
  5
2E7
100
AcDbEntity
  8
0
100
AcDbCircle
 62
253
  6
CONTINUOUS
 10
90.4437865063
 20
32.17053971
 40
109.3078011746
100
AcDbArc
 50
173.5610330675
 51
179.0787865036
  0
ARC
  5
2E8
100
AcDbEntity
  8
0
100
AcDbCircle
 62
253
  6
CONTINUOUS
 10
515.2728008108
 20
18.2397477035
 40
519.3801615806
100
AcDbArc
 50
179.0861178094
 51
179.9591404977
  0
ARC
  5
2E9
100
AcDbEntity
  8
0
100
AcDbCircle
 62
253
  6
CONTINUOUS
 10
515.3991441011
 20
18.2341697813
 40
518.8119489456
100
AcDbArc
 50
179.0860824883
 51
179.9593696581
  0
ARC
  5
2EA
100
AcDbEntity
  8
0
100
AcDbCircle
 62
253
  6
CONTINUOUS
 10
503.2991810223
 20
18.255649734
 40
507.4065199619
100
AcDbArc
 50
180.0377680033
 51
180.9244495484
  0
ARC
  5
2EB
100
AcDbEntity
  8
0
100
AcDbCircle
 62
253
  6
CONTINUOUS
 10
503.4076973222
 20
18.2488909304
 40
506.8204803146
100
AcDbArc
 50
180.0375073368
 51
180.9245131756
  0
ARC
  5
2EC
100
AcDbEntity
  8
0
100
AcDbCircle
 62
253
  6
CONTINUOUS
 10
536.3772020134
 20
25.6570604235
 40
555.2886881461
100
AcDbArc
 50
179.1465630573
 51
179.9633553106
  0
ARC
  5
2ED
100
AcDbEntity
  8
0
100
AcDbCircle
 62
253
  6
CONTINUOUS
 10
522.6119165769
 20
25.6397710035
 40
541.5233816416
100
AcDbArc
 50
180.0334892902
 51
180.864068286
  0
SPLINE
  5
2EE
100
AcDbEntity
  8
0
100
AcDbSpline
 62
7
  6
CONTINUOUS
 70
0
 71
3
 72
9
 73
5
 74
0
 42
0.0000001
 43
0.0000001
 44
0.0000000001
 40
0.0
 40
0.0
 40
0.0
 40
0.0
 40
0.4571416696
 40
1.0
 40
1.0
 40
1.0
 40
1.0
 10
-9.6339376465
 20
10.1093554369
 30
0.0
 10
-9.6524057343
 20
10.1001212609
 30
0.0
 10
-9.6996566506
 20
10.0931036147
 30
0.0
 10
-9.7434969783
 20
10.1082472875
 30
0.0
 10
-9.7654280002
 20
10.1192127985
 30
0.0
  0
SPLINE
  5
2EF
100
AcDbEntity
  8
0
100
AcDbSpline
 62
7
  6
CONTINUOUS
 70
0
 71
3
 72
9
 73
5
 74
0
 42
0.0000001
 43
0.0000001
 44
0.0000000001
 40
0.0
 40
0.0
 40
0.0
 40
0.0
 40
0.5120016925
 40
1.0
 40
1.0
 40
1.0
 40
1.0
 10
-11.777805455
 20
11.6433222144
 30
0.0
 10
-11.7656273756
 20
11.6643427607
 30
0.0
 10
-11.73657189
 20
11.7027237348
 30
0.0
 10
-11.6972633432
 20
11.7308149565
 30
0.0
 10
-11.6765533364
 20
11.7411699435
 30
0.0
  0
SPLINE
  5
2F0
100
AcDbEntity
  8
0
100
AcDbSpline
 62
7
  6
CONTINUOUS
 70
0
 71
3
 72
9
 73
5
 74
0
 42
0.0000001
 43
0.0000001
 44
0.0000000001
 40
0.0
 40
0.0
 40
0.0
 40
0.0
 40
0.2406520246
 40
1.0
 40
1.0
 40
1.0
 40
1.0
 10
-10.3378812376
 20
8.8653728283
 30
0.0
 10
-10.3422105276
 20
8.8632082114
 30
0.0
 10
-10.360859702
 20
8.8555238236
 30
0.0
 10
-10.3815961745
 20
8.8535701584
 30
0.0
 10
-10.3968309179
 20
8.8546492612
 30
0.0
  0
SPLINE
  5
2F1
100
AcDbEntity
  8
0
100
AcDbSpline
 62
7
  6
CONTINUOUS
 70
0
 71
3
 72
10
 73
6
 74
0
 42
0.0000001
 43
0.0000001
 44
0.0000000001
 40
0.0
 40
0.0
 40
0.0
 40
0.0
 40
0.202645055
 40
0.4464538086
 40
1.0
 40
1.0
 40
1.0
 40
1.0
 10
-10.3968309179
 20
8.8546492612
 30
0.0
 10
-10.4216504361
 20
8.85640727
 30
0.0
 10
-10.4752311701
 20
8.8744543048
 30
0.0
 10
-10.5748773202
 20
8.9475721764
 30
0.0
 10
-10.6326961292
 20
9.0312760024
 30
0.0
 10
-10.6602344004
 20
9.0934141806
 30
0.0
  0
SPLINE
  5
2F2
100
AcDbEntity
  8
0
100
AcDbSpline
 62
7
  6
CONTINUOUS
 70
0
 71
3
 72
11
 73
7
 74
0
 42
0.0000001
 43
0.0000001
 44
0.0000000001
 40
0.0
 40
0.0
 40
0.0
 40
0.0
 40
0.3058728501
 40
0.5776630833
 40
0.8053267168
 40
1.0
 40
1.0
 40
1.0
 40
1.0
 10
-12.4018260161
 20
13.1886211033
 30
0.0
 10
-12.4145366703
 20
13.21979949
 30
0.0
 10
-12.4326546008
 20
13.2814171343
 30
0.0
 10
-12.4364589218
 20
13.3709921812
 30
0.0
 10
-12.414830072
 20
13.446433595
 30
0.0
 10
-12.3797686933
 20
13.4812528731
 30
0.0
 10
-12.3606014331
 20
13.4908354394
 30
0.0
  0
SPLINE
  5
2F3
100
AcDbEntity
  8
0
100
AcDbSpline
 62
7
  6
CONTINUOUS
 70
0
 71
3
 72
9
 73
5
 74
0
 42
0.0000001
 43
0.0000001
 44
0.0000000001
 40
0.0
 40
0.0
 40
0.0
 40
0.0
 40
0.2619808952
 40
1.0
 40
1.0
 40
1.0
 40
1.0
 10
-10.8174618329
 20
12.6496166071
 30
0.0
 10
-10.814485474
 20
12.6546224932
 30
0.0
 10
-10.8020060624
 20
12.6730260508
 30
0.0
 10
-10.7842832371
 20
12.688000702
 30
0.0
 10
-10.7696089219
 20
12.6953376687
 30
0.0
  0
SPLINE
  5
2F4
100
AcDbEntity
  8
0
100
AcDbSpline
 62
7
  6
CONTINUOUS
 70
0
 71
3
 72
13
 73
9
 74
0
 42
0.0000001
 43
0.0000001
 44
0.0000000001
 40
0.0
 40
0.0
 40
0.0
 40
0.0
 40
0.2654438849
 40
0.5578164812
 40
0.6930724309
 40
0.81159297
 40
0.9118669493
 40
1.0
 40
1.0
 40
1.0
 40
1.0
 10
-12.9474137171
 20
11.7102056569
 30
0.0
 10
-12.9964790051
 20
11.7347383009
 30
0.0
 10
-13.0835406262
 20
11.8168136972
 30
0.0
 10
-13.1509817625
 20
11.9461030039
 30
0.0
 10
-13.1734473828
 20
12.0575404117
 30
0.0
 10
-13.1707003124
 20
12.1315140888
 30
0.0
 10
-13.1481260248
 20
12.1924740298
 30
0.0
 10
-13.1179492454
 20
12.2201553021
 30
0.0
 10
-13.1016585687
 20
12.2283007631
 30
0.0
  0
SPLINE
  5
2F5
100
AcDbEntity
  8
0
100
AcDbSpline
 62
7
  6
CONTINUOUS
 70
0
 71
3
 72
9
 73
5
 74
0
 42
0.0000001
 43
0.0000001
 44
0.0000000001
 40
0.0
 40
0.0
 40
0.0
 40
0.0
 40
0.7405582223
 40
1.0
 40
1.0
 40
1.0
 40
1.0
 10
-11.9288760989
 20
9.6608694697
 30
0.0
 10
-11.9390142023
 20
9.6558006139
 30
0.0
 10
-11.9540432214
 20
9.6513484629
 30
0.0
 10
-11.9692958977
 20
9.6500486807
 30
0.0
 10
-11.9732638566
 20
9.6498958493
 30
0.0
  0
SPLINE
  5
2F6
100
AcDbEntity
  8
0
100
AcDbSpline
 62
7
  6
CONTINUOUS
 70
0
 71
3
 72
13
 73
9
 74
0
 42
0.0000001
 43
0.0000001
 44
0.0000000001
 40
0.0
 40
0.0
 40
0.0
 40
0.0
 40
0.2161293117
 40
0.3524076456
 40
0.4982846158
 40
0.644349904
 40
0.7812515327
 40
1.0
 40
1.0
 40
1.0
 40
1.0
 10
-11.9732638566
 20
9.6498958493
 30
0.0
 10
-12.0193540964
 20
9.6481206201
 30
0.0
 10
-12.09366318
 20
9.6842490623
 30
0.0
 10
-12.1703164346
 20
9.7569068561
 30
0.0
 10
-12.2245405139
 20
9.8313948512
 30
0.0
 10
-12.2646482721
 20
9.914462165
 30
0.0
 10
-12.2927733266
 20
10.0170943197
 30
0.0
 10
-12.2899131582
 20
10.10006944
 30
0.0
 10
-12.2670848054
 20
10.1407904852
 30
0.0
  0
SPLINE
  5
2F7
100
AcDbEntity
  8
0
100
AcDbSpline
 62
7
  6
CONTINUOUS
 70
0
 71
3
 72
9
 73
5
 74
0
 42
0.0000001
 43
0.0000001
 44
0.0000000001
 40
0.0
 40
0.0
 40
0.0
 40
0.0
 40
0.2624900768
 40
1.0
 40
1.0
 40
1.0
 40
1.0
 10
-12.0807281731
 20
10.471839999
 30
0.0
 10
-12.0780153992
 20
10.4767489647
 30
0.0
 10
-12.0664601637
 20
10.4947429911
 30
0.0
 10
-12.0494256688
 20
10.5092663267
 30
0.0
 10
-12.0353309259
 20
10.5163138652
 30
0.0
  0
SPLINE
  5
2F8
100
AcDbEntity
  8
0
100
AcDbSpline
 62
7
  6
CONTINUOUS
 70
0
 71
3
 72
11
 73
7
 74
0
 42
0.0000001
 43
0.0000001
 44
0.0000000001
 40
0.0
 40
0.0
 40
0.0
 40
0.0
 40
0.3100483376
 40
0.5829077196
 40
0.8085578682
 40
1.0
 40
1.0
 40
1.0
 40
1.0
 10
-10.8993817106
 20
9.6359814074
 30
0.0
 10
-10.9128300765
 20
9.6666596898
 30
0.0
 10
-10.9325538988
 20
9.727108508
 30
0.0
 10
-10.9392464251
 20
9.8151527837
 30
0.0
 10
-10.9205620043
 20
9.889521324
 30
0.0
 10
-10.8868433446
 20
9.9238530911
 30
0.0
 10
-10.8683439915
 20
9.9331023423
 30
0.0
  0
SPLINE
  5
2F9
100
AcDbEntity
  8
0
100
AcDbSpline
 62
7
  6
CONTINUOUS
 70
0
 71
3
 72
9
 73
5
 74
0
 42
0.0000001
 43
0.0000001
 44
0.0000000001
 40
0.0
 40
0.0
 40
0.0
 40
0.0
 40
0.4571416696
 40
1.0
 40
1.0
 40
1.0
 40
1.0
 10
-12.3916541104
 20
11.4882136688
 30
0.0
 10
-12.4101221981
 20
11.4789794928
 30
0.0
 10
-12.4573731145
 20
11.4719618467
 30
0.0
 10
-12.5012134422
 20
11.4871055194
 30
0.0
 10
-12.5231444641
 20
11.4980710304
 30
0.0
  0
SPLINE
  5
2FA
100
AcDbEntity
  8
0
100
AcDbSpline
 62
7
  6
CONTINUOUS
 70
0
 71
3
 72
13
 73
9
 74
0
 42
0.0000001
 43
0.0000001
 44
0.0000000001
 40
0.0
 40
0.0
 40
0.0
 40
0.0
 40
0.2654438849
 40
0.5578164812
 40
0.6930724309
 40
0.81159297
 40
0.9118669493
 40
1.0
 40
1.0
 40
1.0
 40
1.0
 10
-10.1896921692
 20
10.3313448829
 30
0.0
 10
-10.2387574572
 20
10.3558775269
 30
0.0
 10
-10.3258190783
 20
10.4379529232
 30
0.0
 10
-10.3932602146
 20
10.5672422299
 30
0.0
 10
-10.4157258349
 20
10.6786796377
 30
0.0
 10
-10.4129787645
 20
10.7526533149
 30
0.0
 10
-10.3904044769
 20
10.8136132558
 30
0.0
 10
-10.3602276974
 20
10.8412945282
 30
0.0
 10
-10.3439370208
 20
10.8494399891
 30
0.0
  0
SPLINE
  5
2FB
100
AcDbEntity
  8
0
100
AcDbSpline
 62
7
  6
CONTINUOUS
 70
0
 71
3
 72
8
 73
4
 74
0
 42
0.0000001
 43
0.0000001
 44
0.0000000001
 40
0.0
 40
0.0
 40
0.0
 40
0.0
 40
1.0
 40
1.0
 40
1.0
 40
1.0
 10
-10.6896522804
 20
11.8266248154
 30
0.0
 10
-10.7018312616
 20
11.8205354961
 30
0.0
 10
-10.7154154919
 20
11.8168430127
 30
0.0
 10
-10.7289697421
 20
11.8155431304
 30
0.0
  0
SPLINE
  5
2FC
100
AcDbEntity
  8
0
100
AcDbSpline
 62
7
  6
CONTINUOUS
 70
0
 71
3
 72
13
 73
9
 74
0
 42
0.0000001
 43
0.0000001
 44
0.0000000001
 40
0.0
 40
0.0
 40
0.0
 40
0.0
 40
0.2127344193
 40
0.3470969361
 40
0.4919064722
 40
0.6380570249
 40
0.7762006558
 40
1.0
 40
1.0
 40
1.0
 40
1.0
 10
-10.7289697421
 20
11.8155431304
 30
0.0
 10
-10.7748240284
 20
11.8111456041
 30
0.0
 10
-10.8511061323
 20
11.8450962688
 30
0.0
 10
-10.928042979
 20
11.9177107154
 30
0.0
 10
-10.9822018137
 20
11.9932252833
 30
0.0
 10
-11.02150704
 20
12.0782548514
 30
0.0
 10
-11.0480078551
 20
12.1844591512
 30
0.0
 10
-11.0422939913
 20
12.2699092521
 30
0.0
 10
-11.0176642262
 20
12.3116442114
 30
0.0
  0
SPLINE
  5
2FD
100
AcDbEntity
  8
0
100
AcDbSpline
 62
7
  6
CONTINUOUS
 70
0
 71
3
 72
12
 73
8
 74
0
 42
0.0000001
 43
0.0000001
 44
0.0000000001
 40
0.0
 40
0.0
 40
0.0
 40
0.0
 40
0.1865170629
 40
0.2969472019
 40
0.4206116852
 40
0.7002262103
 40
1.0
 40
1.0
 40
1.0
 40
1.0
 10
-11.8563781752
 20
12.4099862533
 30
0.0
 10
-11.880282617
 20
12.3980353977
 30
0.0
 10
-11.9266006266
 20
12.3951191378
 30
0.0
 10
-11.9835611334
 20
12.4151437568
 30
0.0
 10
-12.047190066
 20
12.4531796151
 30
0.0
 10
-12.1184711828
 20
12.5265369094
 30
0.0
 10
-12.1601578698
 20
12.5994171342
 30
0.0
 10
-12.1765318166
 20
12.6391273211
 30
0.0
  0
SPLINE
  5
2FE
100
AcDbEntity
  8
0
100
AcDbSpline
 62
7
  6
CONTINUOUS
 70
0
 71
3
 72
15
 73
11
 74
0
 42
0.0000001
 43
0.0000001
 44
0.0000000001
 40
0.0
 40
0.0
 40
0.0
 40
0.0
 40
0.0907970576
 40
0.1991689579
 40
0.3287724916
 40
0.4738044734
 40
0.6237959908
 40
0.7671293285
 40
0.8940363945
 40
1.0
 40
1.0
 40
1.0
 40
1.0
 10
-11.0574640028
 20
10.5972705917
 30
0.0
 10
-11.0980327521
 20
10.5769863305
 30
0.0
 10
-11.202468776
 20
10.5622753648
 30
0.0
 10
-11.3607682978
 20
10.6184291738
 30
0.0
 10
-11.5159471818
 20
10.7337106745
 30
0.0
 10
-11.6540233935
 20
10.8968483302
 30
0.0
 10
-11.7604303823
 20
11.0898312265
 30
0.0
 10
-11.8231203383
 20
11.2919794526
 30
0.0
 10
-11.8356042171
 20
11.4814007111
 30
0.0
 10
-11.8043406145
 20
11.5975199553
 30
0.0
 10
-11.777805455
 20
11.6433222144
 30
0.0
  0
SPLINE
  5
2FF
100
AcDbEntity
  8
0
100
AcDbSpline
 62
7
  6
CONTINUOUS
 70
0
 71
3
 72
11
 73
7
 74
0
 42
0.0000001
 43
0.0000001
 44
0.0000000001
 40
0.0
 40
0.0
 40
0.0
 40
0.0
 40
0.3053274953
 40
0.5774105455
 40
0.8058924015
 40
1.0
 40
1.0
 40
1.0
 40
1.0
 10
-11.8169652876
 20
12.7112947421
 30
0.0
 10
-11.8045071841
 20
12.6808826159
 30
0.0
 10
-11.7865164169
 20
12.6207869934
 30
0.0
 10
-11.7815796354
 20
12.5332645259
 30
0.0
 10
-11.8005361696
 20
12.4590809396
 30
0.0
 10
-11.8328188831
 20
12.4233416097
 30
0.0
 10
-11.8509252067
 20
12.4129159257
 30
0.0
  0
SPLINE
  5
300
100
AcDbEntity
  8
0
100
AcDbSpline
 62
7
  6
CONTINUOUS
 70
0
 71
3
 72
8
 73
4
 74
0
 42
0.0000001
 43
0.0000001
 44
0.0000000001
 40
0.0
 40
0.0
 40
0.0
 40
0.0
 40
1.0
 40
1.0
 40
1.0
 40
1.0
 10
-10.6423841489
 20
11.8720534872
 30
0.0
 10
-10.6455424073
 20
11.8666784472
 30
0.0
 10
-10.6490714553
 20
11.8615004512
 30
0.0
 10
-10.652964697
 20
11.8566313321
 30
0.0
  0
SPLINE
  5
301
100
AcDbEntity
  8
0
100
AcDbSpline
 62
7
  6
CONTINUOUS
 70
0
 71
3
 72
11
 73
7
 74
0
 42
0.0000001
 43
0.0000001
 44
0.0000000001
 40
0.0
 40
0.0
 40
0.0
 40
0.0
 40
0.1855403551
 40
0.4173287358
 40
0.6968383542
 40
1.0
 40
1.0
 40
1.0
 40
1.0
 10
-10.8683439915
 20
9.9331023423
 30
0.0
 10
-10.8459965294
 20
9.9442755594
 30
0.0
 10
-10.7855018151
 20
9.9485434417
 30
0.0
 10
-10.6991936755
 20
9.9062961987
 30
0.0
 10
-10.6183459461
 20
9.8305565034
 30
0.0
 10
-10.5752084019
 20
9.7639518153
 30
0.0
 10
-10.5570936422
 20
9.7273669698
 30
0.0
  0
SPLINE
  5
302
100
AcDbEntity
  8
0
100
AcDbSpline
 62
7
  6
CONTINUOUS
 70
0
 71
3
 72
9
 73
5
 74
0
 42
0.0000001
 43
0.0000001
 44
0.0000000001
 40
0.0
 40
0.0
 40
0.0
 40
0.0
 40
0.7405269458
 40
1.0
 40
1.0
 40
1.0
 40
1.0
 10
-12.0353309259
 20
10.5163138652
 30
0.0
 10
-12.0247124774
 20
10.5216232154
 30
0.0
 10
-12.0089437519
 20
10.5262505086
 30
0.0
 10
-11.9929566183
 20
10.5274877443
 30
0.0
 10
-11.9887986727
 20
10.5276110001
 30
0.0
  0
SPLINE
  5
303
100
AcDbEntity
  8
0
100
AcDbSpline
 62
7
  6
CONTINUOUS
 70
0
 71
3
 72
12
 73
8
 74
0
 42
0.0000001
 43
0.0000001
 44
0.0000000001
 40
0.0
 40
0.0
 40
0.0
 40
0.0
 40
0.2137357878
 40
0.3474311226
 40
0.491065097
 40
0.7730947061
 40
1.0
 40
1.0
 40
1.0
 40
1.0
 10
-11.9887986727
 20
10.5276110001
 30
0.0
 10
-11.9445238382
 20
10.5289234586
 30
0.0
 10
-11.873357895
 20
10.4953846597
 30
0.0
 10
-11.7990655497
 20
10.426699285
 30
0.0
 10
-11.7290856824
 20
10.3330642517
 30
0.0
 10
-11.675876384
 20
10.2072466535
 30
0.0
 10
-11.6731198852
 20
10.0948766653
 30
0.0
 10
-11.6909989436
 20
10.0513847129
 30
0.0
  0
SPLINE
  5
304
100
AcDbEntity
  8
0
100
AcDbSpline
 62
7
  6
CONTINUOUS
 70
0
 71
3
 72
8
 73
4
 74
0
 42
0.0000001
 43
0.0000001
 44
0.0000000001
 40
0.0
 40
0.0
 40
0.0
 40
0.0
 40
1.0
 40
1.0
 40
1.0
 40
1.0
 10
-11.6909989436
 20
10.0513847129
 30
0.0
 10
-11.6932202718
 20
10.0459811901
 30
0.0
 10
-11.695769282
 20
10.0406959193
 30
0.0
 10
-11.6986827732
 20
10.035631936
 30
0.0
  0
SPLINE
  5
305
100
AcDbEntity
  8
0
100
AcDbSpline
 62
7
  6
CONTINUOUS
 70
0
 71
3
 72
13
 73
9
 74
0
 42
0.0000001
 43
0.0000001
 44
0.0000000001
 40
0.0
 40
0.0
 40
0.0
 40
0.0
 40
0.2654918936
 40
0.5581124198
 40
0.693514038
 40
0.8120688709
 40
0.9121840591
 40
1.0
 40
1.0
 40
1.0
 40
1.0
 10
-12.5456148835
 20
12.0064508144
 30
0.0
 10
-12.4965784717
 20
11.9819326085
 30
0.0
 10
-12.4096561648
 20
11.8996669227
 30
0.0
 10
-12.3426456603
 20
11.7702054134
 30
0.0
 10
-12.3203128439
 20
11.6587520459
 30
0.0
 10
-12.3230132605
 20
11.5848439873
 30
0.0
 10
-12.3453896979
 20
11.5239698473
 30
0.0
 10
-12.375434533
 20
11.4963235736
 30
0.0
 10
-12.3916541104
 20
11.4882136688
 30
0.0
  0
SPLINE
  5
306
100
AcDbEntity
  8
0
100
AcDbSpline
 62
7
  6
CONTINUOUS
 70
0
 71
3
 72
9
 73
5
 74
0
 42
0.0000001
 43
0.0000001
 44
0.0000000001
 40
0.0
 40
0.0
 40
0.0
 40
0.0
 40
0.2602471554
 40
1.0
 40
1.0
 40
1.0
 40
1.0
 10
-11.8868787569
 20
9.6999834904
 30
0.0
 10
-11.8895271228
 20
9.6957256997
 30
0.0
 10
-11.9006470474
 20
9.6799808331
 30
0.0
 10
-11.9161277395
 20
9.6672434031
 30
0.0
 10
-11.9288760989
 20
9.6608694697
 30
0.0
  0
SPLINE
  5
307
100
AcDbEntity
  8
0
100
AcDbSpline
 62
7
  6
CONTINUOUS
 70
0
 71
3
 72
9
 73
5
 74
0
 42
0.0000001
 43
0.0000001
 44
0.0000000001
 40
0.0
 40
0.0
 40
0.0
 40
0.0
 40
0.2634831129
 40
1.0
 40
1.0
 40
1.0
 40
1.0
 10
-10.3052315927
 20
9.15362593
 30
0.0
 10
-10.3007161041
 20
9.1429049939
 30
0.0
 10
-10.2850791548
 20
9.1016281872
 30
0.0
 10
-10.2751722005
 20
9.0579667782
 30
0.0
 10
-10.2726983176
 20
9.0255430102
 30
0.0
  0
SPLINE
  5
308
100
AcDbEntity
  8
0
100
AcDbSpline
 62
7
  6
CONTINUOUS
 70
0
 71
3
 72
9
 73
5
 74
0
 42
0.0000001
 43
0.0000001
 44
0.0000000001
 40
0.0
 40
0.0
 40
0.0
 40
0.0
 40
0.2784101007
 40
1.0
 40
1.0
 40
1.0
 40
1.0
 10
-10.2726983176
 20
9.0255430102
 30
0.0
 10
-10.271900585
 20
9.0150875852
 30
0.0
 10
-10.2708975638
 20
8.9775442641
 30
0.0
 10
-10.2778808267
 20
8.9388592229
 30
0.0
 10
-10.2901784842
 20
8.914623348
 30
0.0
  0
SPLINE
  5
309
100
AcDbEntity
  8
0
100
AcDbSpline
 62
7
  6
CONTINUOUS
 70
0
 71
3
 72
8
 73
4
 74
0
 42
0.0000001
 43
0.0000001
 44
0.0000000001
 40
0.0
 40
0.0
 40
0.0
 40
0.0
 40
1.0
 40
1.0
 40
1.0
 40
1.0
 10
-10.3012751551
 20
8.8965391357
 30
0.0
 10
-10.3048488494
 20
8.8917041927
 30
0.0
 10
-10.3088164594
 20
8.8871323794
 30
0.0
 10
-10.3131368242
 20
8.8829511819
 30
0.0
  0
SPLINE
  5
30A
100
AcDbEntity
  8
0
100
AcDbSpline
 62
7
  6
CONTINUOUS
 70
0
 71
3
 72
13
 73
9
 74
0
 42
0.0000001
 43
0.0000001
 44
0.0000000001
 40
0.0
 40
0.0
 40
0.0
 40
0.0
 40
0.2654918936
 40
0.5581124198
 40
0.693514038
 40
0.8120688709
 40
0.9121840591
 40
1.0
 40
1.0
 40
1.0
 40
1.0
 10
-9.7878984196
 20
10.6275925823
 30
0.0
 10
-9.7388620078
 20
10.6030743764
 30
0.0
 10
-9.651939701
 20
10.5208086906
 30
0.0
 10
-9.5849291965
 20
10.3913471814
 30
0.0
 10
-9.5625963801
 20
10.2798938139
 30
0.0
 10
-9.5652967966
 20
10.2059857554
 30
0.0
 10
-9.5876732341
 20
10.1451116154
 30
0.0
 10
-9.6177180691
 20
10.1174653416
 30
0.0
 10
-9.6339376465
 20
10.1093554369
 30
0.0
  0
SPLINE
  5
30B
100
AcDbEntity
  8
0
100
AcDbSpline
 62
7
  6
CONTINUOUS
 70
0
 71
3
 72
9
 73
5
 74
0
 42
0.0000001
 43
0.0000001
 44
0.0000000001
 40
0.0
 40
0.0
 40
0.0
 40
0.0
 40
0.4604716128
 40
1.0
 40
1.0
 40
1.0
 40
1.0
 10
-13.1016585687
 20
12.2283007631
 30
0.0
 10
-13.0840330352
 20
12.2371136626
 30
0.0
 10
-13.0395932485
 20
12.2445308922
 30
0.0
 10
-12.9976408667
 20
12.2315435595
 30
0.0
 10
-12.9766821602
 20
12.2218561151
 30
0.0
  0
SPLINE
  5
30C
100
AcDbEntity
  8
0
100
AcDbSpline
 62
7
  6
CONTINUOUS
 70
0
 71
3
 72
8
 73
4
 74
0
 42
0.0000001
 43
0.0000001
 44
0.0000000001
 40
0.0
 40
0.0
 40
0.0
 40
0.0
 40
1.0
 40
1.0
 40
1.0
 40
1.0
 10
-10.7646980817
 20
12.6976399604
 30
0.0
 10
-10.753760455
 20
12.7024352551
 30
0.0
 10
-10.7418853492
 20
12.7053980311
 30
0.0
 10
-10.7300000106
 20
12.7065664727
 30
0.0
  0
SPLINE
  5
30D
100
AcDbEntity
  8
0
100
AcDbSpline
 62
7
  6
CONTINUOUS
 70
0
 71
3
 72
12
 73
8
 74
0
 42
0.0000001
 43
0.0000001
 44
0.0000000001
 40
0.0
 40
0.0
 40
0.0
 40
0.0
 40
0.2098917235
 40
0.3414775593
 40
0.4839578648
 40
0.7674764529
 40
1.0
 40
1.0
 40
1.0
 40
1.0
 10
-10.7300000106
 20
12.7065664727
 30
0.0
 10
-10.6860985741
 20
12.7108824008
 30
0.0
 10
-10.6129403673
 20
12.6801531146
 30
0.0
 10
-10.5380609881
 20
12.6121648657
 30
0.0
 10
-10.4674294532
 20
12.5173470475
 30
0.0
 10
-10.4148648959
 20
12.3873351419
 30
0.0
 10
-10.4152703793
 20
12.2719182296
 30
0.0
 10
-10.4345183843
 20
12.2269988129
 30
0.0
  0
SPLINE
  5
30E
100
AcDbEntity
  8
0
100
AcDbSpline
 62
7
  6
CONTINUOUS
 70
0
 71
3
 72
8
 73
4
 74
0
 42
0.0000001
 43
0.0000001
 44
0.0000000001
 40
0.0
 40
0.0
 40
0.0
 40
0.0
 40
1.0
 40
1.0
 40
1.0
 40
1.0
 10
-10.4345183843
 20
12.2269988129
 30
0.0
 10
-10.4371055205
 20
12.2209611664
 30
0.0
 10
-10.4400623715
 20
12.2150647518
 30
0.0
 10
-10.4434086656
 20
12.209412428
 30
0.0
  0
SPLINE
  5
30F
100
AcDbEntity
  8
0
100
AcDbSpline
 62
7
  6
CONTINUOUS
 70
0
 71
3
 72
11
 73
7
 74
0
 42
0.0000001
 43
0.0000001
 44
0.0000000001
 40
0.0
 40
0.0
 40
0.0
 40
0.0
 40
0.1911431364
 40
0.4245993442
 40
0.7010066286
 40
1.0
 40
1.0
 40
1.0
 40
1.0
 10
-12.3502587442
 20
13.4953455539
 30
0.0
 10
-12.3270001771
 20
13.5040756738
 30
0.0
 10
-12.2681847324
 20
13.5043469582
 30
0.0
 10
-12.1855346535
 20
13.461576207
 30
0.0
 10
-12.1094530984
 20
13.3874323853
 30
0.0
 10
-12.0694906482
 20
13.3232585216
 30
0.0
 10
-12.0528047313
 20
13.2881627753
 30
0.0
  0
SPLINE
  5
310
100
AcDbEntity
  8
0
100
AcDbSpline
 62
7
  6
CONTINUOUS
 70
0
 71
3
 72
15
 73
11
 74
0
 42
0.0000001
 43
0.0000001
 44
0.0000000001
 40
0.0
 40
0.0
 40
0.0
 40
0.0
 40
0.0915614655
 40
0.1999598857
 40
0.3280971493
 40
0.4709430613
 40
0.6192707561
 40
0.7624996057
 40
0.8912140832
 40
1.0
 40
1.0
 40
1.0
 40
1.0
 10
-11.6625285579
 20
11.7475936004
 30
0.0
 10
-11.6216801848
 20
11.7646466744
 30
0.0
 10
-11.5204113801
 20
11.7741007114
 30
0.0
 10
-11.3686031391
 20
11.7181762776
 30
0.0
 10
-11.2201904681
 20
11.6072737554
 30
0.0
 10
-11.0878409197
 20
11.4518380174
 30
0.0
 10
-10.9840936218
 20
11.2678364827
 30
0.0
 10
-10.9193481787
 20
11.0737223933
 30
0.0
 10
-10.899654645
 20
10.8892179761
 30
0.0
 10
-10.9209953585
 20
10.7733725454
 30
0.0
 10
-10.9420175404
 20
10.7251646105
 30
0.0
  0
SPLINE
  5
311
100
AcDbEntity
  8
0
100
AcDbSpline
 62
7
  6
CONTINUOUS
 70
0
 71
3
 72
9
 73
5
 74
0
 42
0.0000001
 43
0.0000001
 44
0.0000000001
 40
0.0
 40
0.0
 40
0.0
 40
0.0
 40
0.4578113169
 40
1.0
 40
1.0
 40
1.0
 40
1.0
 10
-10.3439370208
 20
10.8494399891
 30
0.0
 10
-10.3254030698
 20
10.8587071042
 30
0.0
 10
-10.2780771648
 20
10.8658219506
 30
0.0
 10
-10.2341125237
 20
10.8506996345
 30
0.0
 10
-10.2121625885
 20
10.8397246669
 30
0.0
  0
SPLINE
  5
312
100
AcDbEntity
  8
0
100
AcDbSpline
 62
7
  6
CONTINUOUS
 70
0
 71
3
 72
16
 73
12
 74
0
 42
0.0000001
 43
0.0000001
 44
0.0000000001
 40
0.0
 40
0.0
 40
0.0
 40
0.0
 40
0.0464433638
 40
0.0943842022
 40
0.1998344351
 40
0.3226181836
 40
0.4602428018
 40
0.6054414866
 40
0.7490633371
 40
0.8824871286
 40
1.0
 40
1.0
 40
1.0
 40
1.0
 10
-10.9685776701
 20
32.0435411566
 30
0.0
 10
-10.998343308
 20
32.0286580173
 30
0.0
 10
-11.06315845
 20
32.0063440301
 30
0.0
 10
-11.2073395095
 20
31.9957586572
 30
0.0
 10
-11.4030932836
 20
32.0530318353
 30
0.0
 10
-11.6187955177
 20
32.2076374436
 30
0.0
 10
-11.8076013119
 20
32.4319934232
 30
0.0
 10
-11.9510348828
 20
32.704276717
 30
0.0
 10
-12.0346797535
 20
32.9975280952
 30
0.0
 10
-12.0499349542
 20
33.2823298207
 30
0.0
 10
-12.0090723262
 20
33.4614030711
 30
0.0
 10
-11.9744893585
 20
33.5381778619
 30
0.0
  0
SPLINE
  5
313
100
AcDbEntity
  8
0
100
AcDbSpline
 62
7
  6
CONTINUOUS
 70
0
 71
3
 72
13
 73
9
 74
0
 42
0.0000001
 43
0.0000001
 44
0.0000000001
 40
0.0
 40
0.0
 40
0.0
 40
0.0
 40
0.0955295533
 40
0.1964902861
 40
0.3077435025
 40
0.4310667789
 40
0.7072323285
 40
1.0
 40
1.0
 40
1.0
 40
1.0
 10
-11.6930191586
 20
34.4959049305
 30
0.0
 10
-11.7064969666
 20
34.4891659717
 30
0.0
 10
-11.737059053
 20
34.4803881309
 30
0.0
 10
-11.7862850704
 20
34.4840350857
 30
0.0
 10
-11.8362734728
 20
34.5032254656
 30
0.0
 10
-11.9031235007
 20
34.5492094469
 30
0.0
 10
-11.9728114654
 20
34.6361802251
 30
0.0
 10
-12.006761154
 20
34.7207856446
 30
0.0
 10
-12.017252487
 20
34.7657588299
 30
0.0
  0
SPLINE
  5
314
100
AcDbEntity
  8
0
100
AcDbSpline
 62
7
  6
CONTINUOUS
 70
0
 71
3
 72
9
 73
5
 74
0
 42
0.0000001
 43
0.0000001
 44
0.0000000001
 40
0.0
 40
0.0
 40
0.0
 40
0.0
 40
0.2686178605
 40
1.0
 40
1.0
 40
1.0
 40
1.0
 10
-10.5457713875
 20
35.306900203
 30
0.0
 10
-10.5418413487
 20
35.3152162659
 30
0.0
 10
-10.5252851908
 20
35.3451556196
 30
0.0
 10
-10.4990349298
 20
35.3702700054
 30
0.0
 10
-10.4766351243
 20
35.3814700114
 30
0.0
  0
SPLINE
  5
315
100
AcDbEntity
  8
0
100
AcDbSpline
 62
7
  6
CONTINUOUS
 70
0
 71
3
 72
14
 73
10
 74
0
 42
0.0000001
 43
0.0000001
 44
0.0000000001
 40
0.0
 40
0.0
 40
0.0
 40
0.0
 40
0.2259965008
 40
0.3661097271
 40
0.513579875
 40
0.657716528
 40
0.7889001888
 40
0.9019395151
 40
1.0
 40
1.0
 40
1.0
 40
1.0
 10
-9.994495581
 20
32.6438617906
 30
0.0
 10
-10.0487641241
 20
32.6428359157
 30
0.0
 10
-10.1347336952
 20
32.6922251757
 30
0.0
 10
-10.2107259545
 20
32.7884696332
 30
0.0
 10
-10.2562515871
 20
32.8830283027
 30
0.0
 10
-10.27878345
 20
32.982909298
 30
0.0
 10
-10.2761402632
 20
33.0773323995
 30
0.0
 10
-10.2476570244
 20
33.1565093582
 30
0.0
 10
-10.2089104587
 20
33.1932748542
 30
0.0
 10
-10.1878454017
 20
33.203807434
 30
0.0
  0
SPLINE
  5
316
100
AcDbEntity
  8
0
100
AcDbSpline
 62
7
  6
CONTINUOUS
 70
0
 71
3
 72
11
 73
7
 74
0
 42
0.0000001
 43
0.0000001
 44
0.0000000001
 40
0.0
 40
0.0
 40
0.0
 40
0.0
 40
0.2142848601
 40
0.4459409486
 40
0.7073030941
 40
1.0
 40
1.0
 40
1.0
 40
1.0
 10
-12.4874549559
 20
33.9309780173
 30
0.0
 10
-12.5029455387
 20
33.9232326413
 30
0.0
 10
-12.5391149368
 20
33.9141381572
 30
0.0
 10
-12.5967469532
 20
33.923258359
 30
0.0
 10
-12.654080628
 20
33.9523186642
 30
0.0
 10
-12.6882907917
 20
33.9818510623
 30
0.0
 10
-12.7046501674
 20
33.9989390837
 30
0.0
  0
SPLINE
  5
317
100
AcDbEntity
  8
0
100
AcDbSpline
 62
7
  6
CONTINUOUS
 70
0
 71
3
 72
13
 73
9
 74
0
 42
0.0000001
 43
0.0000001
 44
0.0000000001
 40
0.0
 40
0.0
 40
0.0
 40
0.0
 40
0.2805437783
 40
0.5613995815
 40
0.6894441115
 40
0.8044842688
 40
0.9066292071
 40
1.0
 40
1.0
 40
1.0
 40
1.0
 10
-10.2094868844
 20
31.4062130083
 30
0.0
 10
-10.2442782612
 20
31.442177001
 30
0.0
 10
-10.3000540984
 20
31.5279111755
 30
0.0
 10
-10.3334570392
 20
31.6487676675
 30
0.0
 10
-10.3323564175
 20
31.7428252065
 30
0.0
 10
-10.3176542343
 20
31.8033072666
 30
0.0
 10
-10.2894391892
 20
31.8520661345
 30
0.0
 10
-10.2613733713
 20
31.8745313879
 30
0.0
 10
-10.2464777608
 20
31.8819792899
 30
0.0
  0
SPLINE
  5
318
100
AcDbEntity
  8
0
100
AcDbSpline
 62
7
  6
CONTINUOUS
 70
0
 71
3
 72
11
 73
7
 74
0
 42
0.0000001
 43
0.0000001
 44
0.0000000001
 40
0.0
 40
0.0
 40
0.0
 40
0.0
 40
0.2982811249
 40
0.5656933034
 40
0.7964928568
 40
1.0
 40
1.0
 40
1.0
 40
1.0
 10
-11.0936234039
 20
31.0518440718
 30
0.0
 10
-11.1013169053
 20
31.080954107
 30
0.0
 10
-11.1104526383
 20
31.1378755829
 30
0.0
 10
-11.1037862588
 20
31.2189362459
 30
0.0
 10
-11.0760505344
 20
31.2858334876
 30
0.0
 10
-11.0419430812
 20
31.3165339274
 30
0.0
 10
-11.0235691679
 20
31.3257210181
 30
0.0
  0
SPLINE
  5
319
100
AcDbEntity
  8
0
100
AcDbSpline
 62
7
  6
CONTINUOUS
 70
0
 71
3
 72
9
 73
5
 74
0
 42
0.0000001
 43
0.0000001
 44
0.0000000001
 40
0.0
 40
0.0
 40
0.0
 40
0.0
 40
0.521016575
 40
1.0
 40
1.0
 40
1.0
 40
1.0
 10
-12.1436146111
 20
31.781027696
 30
0.0
 10
-12.1368056582
 20
31.7967406201
 30
0.0
 10
-12.1195424291
 20
31.8254475813
 30
0.0
 10
-12.0929814192
 20
31.846345854
 30
0.0
 10
-12.0789002949
 20
31.8533865304
 30
0.0
  0
SPLINE
  5
31A
100
AcDbEntity
  8
0
100
AcDbSpline
 62
7
  6
CONTINUOUS
 70
0
 71
3
 72
9
 73
5
 74
0
 42
0.0000001
 43
0.0000001
 44
0.0000000001
 40
0.0
 40
0.0
 40
0.0
 40
0.0
 40
0.7436312499
 40
1.0
 40
1.0
 40
1.0
 40
1.0
 10
-12.5406142877
 20
32.6118863873
 30
0.0
 10
-12.5530514762
 20
32.605667754
 30
0.0
 10
-12.5714636884
 20
32.6002479487
 30
0.0
 10
-12.5901305262
 20
32.5990064453
 30
0.0
 10
-12.5949237984
 20
32.5989314653
 30
0.0
  0
SPLINE
  5
31B
100
AcDbEntity
  8
0
100
AcDbSpline
 62
7
  6
CONTINUOUS
 70
0
 71
3
 72
9
 73
5
 74
0
 42
0.0000001
 43
0.0000001
 44
0.0000000001
 40
0.0
 40
0.0
 40
0.0
 40
0.0
 40
0.2769683586
 40
1.0
 40
1.0
 40
1.0
 40
1.0
 10
-12.513051673
 20
30.7595202295
 30
0.0
 10
-12.5166568789
 20
30.7758191939
 30
0.0
 10
-12.5262259097
 20
30.8351203768
 30
0.0
 10
-12.5215135377
 20
30.8985658096
 30
0.0
 10
-12.5045180698
 20
30.9386922198
 30
0.0
  0
SPLINE
  5
31C
100
AcDbEntity
  8
0
100
AcDbSpline
 62
7
  6
CONTINUOUS
 70
0
 71
3
 72
11
 73
7
 74
0
 42
0.0000001
 43
0.0000001
 44
0.0000000001
 40
0.0
 40
0.0
 40
0.0
 40
0.0
 40
0.1954634997
 40
0.436894944
 40
0.7150110099
 40
1.0
 40
1.0
 40
1.0
 40
1.0
 10
-12.206600182
 20
30.460876583
 30
0.0
 10
-12.2360534806
 20
30.4544121558
 30
0.0
 10
-12.3072021318
 20
30.4660281061
 30
0.0
 10
-12.3976012213
 20
30.5330074368
 30
0.0
 10
-12.4719985164
 20
30.63421386
 30
0.0
 10
-12.5035563403
 20
30.7165922807
 30
0.0
 10
-12.513051673
 20
30.7595202295
 30
0.0
  0
SPLINE
  5
31D
100
AcDbEntity
  8
0
100
AcDbSpline
 62
7
  6
CONTINUOUS
 70
0
 71
3
 72
14
 73
10
 74
0
 42
0.0000001
 43
0.0000001
 44
0.0000000001
 40
0.0
 40
0.0
 40
0.0
 40
0.0
 40
0.226952469
 40
0.3680299488
 40
0.516270652
 40
0.660667251
 40
0.7913955958
 40
0.9032929414
 40
1.0
 40
1.0
 40
1.0
 40
1.0
 10
-13.4246813508
 20
32.5863881941
 30
0.0
 10
-13.4788936984
 20
32.5855972474
 30
0.0
 10
-13.5645113095
 20
32.6350493373
 30
0.0
 10
-13.6414105235
 20
32.7304705981
 30
0.0
 10
-13.6881703449
 20
32.8243164021
 30
0.0
 10
-13.7122948423
 20
32.9233868413
 30
0.0
 10
-13.7113863894
 20
33.0170067956
 30
0.0
 10
-13.6845691872
 20
33.0956021033
 30
0.0
 10
-13.646615155
 20
33.1320417818
 30
0.0
 10
-13.6259512617
 20
33.1423737922
 30
0.0
  0
SPLINE
  5
31E
100
AcDbEntity
  8
0
100
AcDbSpline
 62
7
  6
CONTINUOUS
 70
0
 71
3
 72
13
 73
9
 74
0
 42
0.0000001
 43
0.0000001
 44
0.0000000001
 40
0.0
 40
0.0
 40
0.0
 40
0.0
 40
0.2783338725
 40
0.5581387243
 40
0.6864151422
 40
0.8022152524
 40
0.9054908439
 40
1.0
 40
1.0
 40
1.0
 40
1.0
 10
-13.5006638262
 20
34.8318030448
 30
0.0
 10
-13.5351771472
 20
34.8679747902
 30
0.0
 10
-13.5900927886
 20
34.954531613
 30
0.0
 10
-13.6215238224
 20
35.0762995186
 30
0.0
 10
-13.6187351271
 20
35.1709748803
 30
0.0
 10
-13.6028289572
 20
35.2319934033
 30
0.0
 10
-13.5735531675
 20
35.2811869146
 30
0.0
 10
-13.5449118563
 20
35.3039406623
 30
0.0
 10
-13.5297279334
 20
35.311532711
 30
0.0
  0
SPLINE
  5
31F
100
AcDbEntity
  8
0
100
AcDbSpline
 62
7
  6
CONTINUOUS
 70
0
 71
3
 72
9
 73
5
 74
0
 42
0.0000001
 43
0.0000001
 44
0.0000000001
 40
0.0
 40
0.0
 40
0.0
 40
0.0
 40
0.2398956334
 40
1.0
 40
1.0
 40
1.0
 40
1.0
 10
-10.4553006587
 20
29.6010198628
 30
0.0
 10
-10.4613989715
 20
29.5985239026
 30
0.0
 10
-10.4877079882
 20
29.5902550898
 30
0.0
 10
-10.5164317189
 20
29.5913927594
 30
0.0
 10
-10.5367882783
 20
29.596030384
 30
0.0
  0
SPLINE
  5
320
100
AcDbEntity
  8
0
100
AcDbSpline
 62
7
  6
CONTINUOUS
 70
0
 71
3
 72
9
 73
5
 74
0
 42
0.0000001
 43
0.0000001
 44
0.0000000001
 40
0.0
 40
0.0
 40
0.0
 40
0.0
 40
0.2188255698
 40
1.0
 40
1.0
 40
1.0
 40
1.0
 10
-10.5367882783
 20
29.596030384
 30
0.0
 10
-10.5527746588
 20
29.599672396
 30
0.0
 10
-10.6234423037
 20
29.6267498653
 30
0.0
 10
-10.6787486313
 20
29.6840761548
 30
0.0
 10
-10.7115481493
 20
29.7325539561
 30
0.0
  0
SPLINE
  5
321
100
AcDbEntity
  8
0
100
AcDbSpline
 62
7
  6
CONTINUOUS
 70
0
 71
3
 72
8
 73
4
 74
0
 42
0.0000001
 43
0.0000001
 44
0.0000000001
 40
0.0
 40
0.0
 40
0.0
 40
0.0
 40
1.0
 40
1.0
 40
1.0
 40
1.0
 10
-10.7115481493
 20
29.7325539561
 30
0.0
 10
-10.740290136
 20
29.7750347119
 30
0.0
 10
-10.7623806639
 20
29.8228375108
 30
0.0
 10
-10.7759451377
 20
29.8723018561
 30
0.0
  0
SPLINE
  5
322
100
AcDbEntity
  8
0
100
AcDbSpline
 62
7
  6
CONTINUOUS
 70
0
 71
3
 72
11
 73
7
 74
0
 42
0.0000001
 43
0.0000001
 44
0.0000000001
 40
0.0
 40
0.0
 40
0.0
 40
0.0
 40
0.2934202198
 40
0.5598210895
 40
0.793045591
 40
1.0
 40
1.0
 40
1.0
 40
1.0
 10
-12.2915718356
 20
35.9669805044
 30
0.0
 10
-12.2982298472
 20
35.9967741531
 30
0.0
 10
-12.3051249191
 20
36.0551885738
 30
0.0
 10
-12.2947454715
 20
36.1380053364
 30
0.0
 10
-12.26357328
 20
36.20623711
 30
0.0
 10
-12.2277224643
 20
36.2377549492
 30
0.0
 10
-12.208463418
 20
36.2473845424
 30
0.0
  0
SPLINE
  5
323
100
AcDbEntity
  8
0
100
AcDbSpline
 62
7
  6
CONTINUOUS
 70
0
 71
3
 72
9
 73
5
 74
0
 42
0.0000001
 43
0.0000001
 44
0.0000000001
 40
0.0
 40
0.0
 40
0.0
 40
0.0
 40
0.5204899749
 40
1.0
 40
1.0
 40
1.0
 40
1.0
 10
-11.9744893585
 20
33.5381778619
 30
0.0
 10
-11.9517735906
 20
33.5886072624
 30
0.0
 10
-11.8947942001
 20
33.6806103212
 30
0.0
 10
-11.8087417174
 20
33.7477232156
 30
0.0
 10
-11.7631666034
 20
33.7705111813
 30
0.0
  0
SPLINE
  5
324
100
AcDbEntity
  8
0
100
AcDbSpline
 62
7
  6
CONTINUOUS
 70
0
 71
3
 72
11
 73
7
 74
0
 42
0.0000001
 43
0.0000001
 44
0.0000000001
 40
0.0
 40
0.0
 40
0.0
 40
0.0
 40
0.2121630012
 40
0.4433587228
 40
0.7056328956
 40
1.0
 40
1.0
 40
1.0
 40
1.0
 10
-9.1895385843
 20
30.5087576968
 30
0.0
 10
-9.2048186697
 20
30.5011175427
 30
0.0
 10
-9.2407115706
 20
30.4922743574
 30
0.0
 10
-9.2979239644
 20
30.5016380729
 30
0.0
 10
-9.3551601929
 20
30.5306737312
 30
0.0
 10
-9.3895293629
 20
30.5600581159
 30
0.0
 10
-9.4060381421
 20
30.5770665898
 30
0.0
  0
SPLINE
  5
325
100
AcDbEntity
  8
0
100
AcDbSpline
 62
7
  6
CONTINUOUS
 70
0
 71
3
 72
8
 73
4
 74
0
 42
0.0000001
 43
0.0000001
 44
0.0000000001
 40
0.0
 40
0.0
 40
0.0
 40
0.0
 40
1.0
 40
1.0
 40
1.0
 40
1.0
 10
-9.1022970219
 20
32.6734257326
 30
0.0
 10
-9.1191693988
 20
32.6649894955
 30
0.0
 10
-9.138442782
 20
32.6604987027
 30
0.0
 10
-9.157302945
 20
32.6601226042
 30
0.0
  0
SPLINE
  5
326
100
AcDbEntity
  8
0
100
AcDbSpline
 62
7
  6
CONTINUOUS
 70
0
 71
3
 72
13
 73
9
 74
0
 42
0.0000001
 43
0.0000001
 44
0.0000000001
 40
0.0
 40
0.0
 40
0.0
 40
0.0
 40
0.0962269285
 40
0.2051973399
 40
0.3302107937
 40
0.4681888014
 40
0.7527835952
 40
1.0
 40
1.0
 40
1.0
 40
1.0
 10
-10.6564641415
 20
33.9607362419
 30
0.0
 10
-10.6766325193
 20
33.9544386762
 30
0.0
 10
-10.7235786709
 20
33.9523693943
 30
0.0
 10
-10.7922459214
 20
33.9799346351
 30
0.0
 10
-10.8563255077
 20
34.0320986158
 30
0.0
 10
-10.9293850133
 20
34.1287838221
 30
0.0
 10
-10.9805018075
 20
34.2699873464
 30
0.0
 10
-10.9732369684
 20
34.3937966809
 30
0.0
 10
-10.95005187
 20
34.4428778346
 30
0.0
  0
SPLINE
  5
327
100
AcDbEntity
  8
0
100
AcDbSpline
 62
7
  6
CONTINUOUS
 70
0
 71
3
 72
14
 73
10
 74
0
 42
0.0000001
 43
0.0000001
 44
0.0000000001
 40
0.0
 40
0.0
 40
0.0
 40
0.0
 40
0.2282761052
 40
0.368525832
 40
0.5155868412
 40
0.6590668107
 40
0.7896245955
 40
0.9022247313
 40
1.0
 40
1.0
 40
1.0
 40
1.0
 10
-9.2870411878
 20
33.2344137751
 30
0.0
 10
-9.2326557022
 20
33.2330905718
 30
0.0
 10
-9.1485543265
 20
33.1819490184
 30
0.0
 10
-9.0746248111
 20
33.084582051
 30
0.0
 10
-9.0312198064
 20
32.9902152707
 30
0.0
 10
-9.0104444703
 20
32.8911943054
 30
0.0
 10
-9.0142195882
 20
32.7979811863
 30
0.0
 10
-9.0430618645
 20
32.7200289055
 30
0.0
 10
-9.0814557332
 20
32.6838464371
 30
0.0
 10
-9.1022970219
 20
32.6734257326
 30
0.0
  0
SPLINE
  5
328
100
AcDbEntity
  8
0
100
AcDbSpline
 62
7
  6
CONTINUOUS
 70
0
 71
3
 72
13
 73
9
 74
0
 42
0.0000001
 43
0.0000001
 44
0.0000000001
 40
0.0
 40
0.0
 40
0.0
 40
0.0
 40
0.28570578
 40
0.5655115998
 40
0.6920419171
 40
0.8056912885
 40
0.9069541609
 40
1.0
 40
1.0
 40
1.0
 40
1.0
 10
-9.2098715132
 20
30.963207093
 30
0.0
 10
-9.1788712205
 20
30.9262406903
 30
0.0
 10
-9.130061851
 20
30.8421559683
 30
0.0
 10
-9.1025560391
 20
30.7263329804
 30
0.0
 10
-9.1063044822
 20
30.6380552853
 30
0.0
 10
-9.1215508788
 20
30.5818275626
 30
0.0
 10
-9.1489492969
 20
30.5366430404
 30
0.0
 10
-9.1754855668
 20
30.5157843081
 30
0.0
 10
-9.1895385843
 20
30.5087576968
 30
0.0
  0
SPLINE
  5
329
100
AcDbEntity
  8
0
100
AcDbSpline
 62
7
  6
CONTINUOUS
 70
0
 71
3
 72
9
 73
5
 74
0
 42
0.0000001
 43
0.0000001
 44
0.0000000001
 40
0.0
 40
0.0
 40
0.0
 40
0.0
 40
0.7435973053
 40
1.0
 40
1.0
 40
1.0
 40
1.0
 10
-13.6259512617
 20
33.1423737922
 30
0.0
 10
-13.6135120295
 20
33.1485934467
 30
0.0
 10
-13.595096159
 20
33.1540138257
 30
0.0
 10
-13.5764256552
 20
33.1552584069
 30
0.0
 10
-13.5716307544
 20
33.1553342126
 30
0.0
  0
SPLINE
  5
32A
100
AcDbEntity
  8
0
100
AcDbSpline
 62
7
  6
CONTINUOUS
 70
0
 71
3
 72
9
 73
5
 74
0
 42
0.0000001
 43
0.0000001
 44
0.0000000001
 40
0.0
 40
0.0
 40
0.0
 40
0.0
 40
0.26120451
 40
1.0
 40
1.0
 40
1.0
 40
1.0
 10
-10.3807205054
 20
29.8767934374
 30
0.0
 10
-10.3780614374
 20
29.8670306427
 30
0.0
 10
-10.3691482263
 20
29.8293383343
 30
0.0
 10
-10.3653591737
 20
29.7903024163
 30
0.0
 10
-10.3664331022
 20
29.7617034002
 30
0.0
  0
SPLINE
  5
32B
100
AcDbEntity
  8
0
100
AcDbSpline
 62
7
  6
CONTINUOUS
 70
0
 71
3
 72
9
 73
5
 74
0
 42
0.0000001
 43
0.0000001
 44
0.0000000001
 40
0.0
 40
0.0
 40
0.0
 40
0.0
 40
0.2586672318
 40
1.0
 40
1.0
 40
1.0
 40
1.0
 10
-10.3664331022
 20
29.7617034002
 30
0.0
 10
-10.3665969574
 20
29.7573398914
 30
0.0
 10
-10.3675841107
 20
29.7404877916
 30
0.0
 10
-10.3700279723
 20
29.7237058842
 30
0.0
 10
-10.3727984499
 20
29.7115018992
 30
0.0
  0
SPLINE
  5
32C
100
AcDbEntity
  8
0
100
AcDbSpline
 62
7
  6
CONTINUOUS
 70
0
 71
3
 72
8
 73
4
 74
0
 42
0.0000001
 43
0.0000001
 44
0.0000000001
 40
0.0
 40
0.0
 40
0.0
 40
0.0
 40
1.0
 40
1.0
 40
1.0
 40
1.0
 10
-12.1158049283
 20
30.5422317516
 30
0.0
 10
-12.1184873341
 20
30.5358713853
 30
0.0
 10
-12.1215293849
 20
30.5296475816
 30
0.0
 10
-12.1249498348
 20
30.5236517428
 30
0.0
  0
SPLINE
  5
32D
100
AcDbEntity
  8
0
100
AcDbSpline
 62
7
  6
CONTINUOUS
 70
0
 71
3
 72
14
 73
10
 74
0
 42
0.0000001
 43
0.0000001
 44
0.0000000001
 40
0.0
 40
0.0
 40
0.0
 40
0.0
 40
0.2268696232
 40
0.3677048306
 40
0.5158239945
 40
0.6602843761
 40
0.791200417
 40
0.9032657152
 40
1.0
 40
1.0
 40
1.0
 40
1.0
 10
-12.739784338
 20
33.1689219152
 30
0.0
 10
-12.6855528113
 20
33.1698361572
 30
0.0
 10
-12.599764224
 20
33.1204338108
 30
0.0
 10
-12.5233438094
 20
33.0246071643
 30
0.0
 10
-12.4771449035
 20
32.9304770089
 30
0.0
 10
-12.4535884038
 20
32.8311636319
 30
0.0
 10
-12.4549155802
 20
32.7373945721
 30
0.0
 10
-12.4819259471
 20
32.658730433
 30
0.0
 10
-12.5199289765
 20
32.6222291077
 30
0.0
 10
-12.5406142877
 20
32.6118863873
 30
0.0
  0
SPLINE
  5
32E
100
AcDbEntity
  8
0
100
AcDbSpline
 62
7
  6
CONTINUOUS
 70
0
 71
3
 72
13
 73
9
 74
0
 42
0.0000001
 43
0.0000001
 44
0.0000000001
 40
0.0
 40
0.0
 40
0.0
 40
0.0
 40
0.2789547138
 40
0.5593012441
 40
0.6876257222
 40
0.8032258053
 40
0.9060521951
 40
1.0
 40
1.0
 40
1.0
 40
1.0
 10
-12.518265412
 20
34.4098345091
 30
0.0
 10
-12.4837691054
 20
34.3736612939
 30
0.0
 10
-12.4288998041
 20
34.2871342157
 30
0.0
 10
-12.397258498
 20
34.1655548792
 30
0.0
 10
-12.3996356331
 20
34.0710373941
 30
0.0
 10
-12.4151494607
 20
34.0101927211
 30
0.0
 10
-12.4440011582
 20
33.961155009
 30
0.0
 10
-12.4723980282
 20
33.9385065633
 30
0.0
 10
-12.4874549559
 20
33.9309780173
 30
0.0
  0
SPLINE
  5
32F
100
AcDbEntity
  8
0
100
AcDbSpline
 62
7
  6
CONTINUOUS
 70
0
 71
3
 72
13
 73
9
 74
0
 42
0.0000001
 43
0.0000001
 44
0.0000000001
 40
0.0
 40
0.0
 40
0.0
 40
0.0
 40
0.0950720876
 40
0.2035236353
 40
0.3278300043
 40
0.46493551
 40
0.7494198208
 40
1.0
 40
1.0
 40
1.0
 40
1.0
 10
-12.0561542818
 20
31.8619898075
 30
0.0
 10
-12.0369107499
 20
31.8671167663
 30
0.0
 10
-11.9926495922
 20
31.8675494385
 30
0.0
 10
-11.9278578526
 20
31.8414692681
 30
0.0
 10
-11.8661880934
 20
31.7932527254
 30
0.0
 10
-11.7935850974
 20
31.7039227484
 30
0.0
 10
-11.7373632417
 20
31.5718674459
 30
0.0
 10
-11.7339079044
 20
31.4544597899
 30
0.0
 10
-11.7493616052
 20
31.4042971046
 30
0.0
  0
SPLINE
  5
330
100
AcDbEntity
  8
0
100
AcDbSpline
 62
7
  6
CONTINUOUS
 70
0
 71
3
 72
16
 73
12
 74
0
 42
0.0000001
 43
0.0000001
 44
0.0000000001
 40
0.0
 40
0.0
 40
0.0
 40
0.0
 40
0.0469414146
 40
0.0954123551
 40
0.2016287457
 40
0.3245812516
 40
0.4619708125
 40
0.6068124821
 40
0.7501024125
 40
0.883148075
 40
1.0
 40
1.0
 40
1.0
 40
1.0
 10
-11.7531281415
 20
33.7753535212
 30
0.0
 10
-11.7227576727
 20
33.7894749607
 30
0.0
 10
-11.6569883504
 20
33.8102176202
 30
0.0
 10
-11.5120119444
 20
33.8179324312
 30
0.0
 10
-11.3169785628
 20
33.7579891686
 30
0.0
 10
-11.1038033752
 20
33.6008670479
 30
0.0
 10
-10.9192766708
 20
33.3749736031
 30
0.0
 10
-10.7805404351
 20
33.1025293699
 30
0.0
 10
-10.7005121099
 20
32.8105144561
 30
0.0
 10
-10.6866398783
 20
32.5280036716
 30
0.0
 10
-10.7266252207
 20
32.3504489256
 30
0.0
 10
-10.7604849739
 20
32.2742594469
 30
0.0
  0
SPLINE
  5
331
100
AcDbEntity
  8
0
100
AcDbSpline
 62
7
  6
CONTINUOUS
 70
0
 71
3
 72
11
 73
7
 74
0
 42
0.0000001
 43
0.0000001
 44
0.0000000001
 40
0.0
 40
0.0
 40
0.0
 40
0.0
 40
0.2946575373
 40
0.5609113453
 40
0.7934359218
 40
1.0
 40
1.0
 40
1.0
 40
1.0
 10
-11.6113531538
 20
34.7651791692
 30
0.0
 10
-11.6053419775
 20
34.7363383904
 30
0.0
 10
-11.5993393726
 20
34.6800485568
 30
0.0
 10
-11.6098876393
 20
34.6005218083
 30
0.0
 10
-11.6401076945
 20
34.5352269444
 30
0.0
 10
-11.6745467906
 20
34.5051411897
 30
0.0
 10
-11.6930191586
 20
34.4959049305
 30
0.0
  0
SPLINE
  5
332
100
AcDbEntity
  8
0
100
AcDbSpline
 62
7
  6
CONTINUOUS
 70
0
 71
3
 72
13
 73
9
 74
0
 42
0.0000001
 43
0.0000001
 44
0.0000000001
 40
0.0
 40
0.0
 40
0.0
 40
0.0
 40
0.0936696571
 40
0.1937624481
 40
0.3050028759
 40
0.4288652843
 40
0.7066486806
 40
1.0
 40
1.0
 40
1.0
 40
1.0
 10
-11.0235691679
 20
31.3257210181
 30
0.0
 10
-11.0103920063
 20
31.3323096951
 30
0.0
 10
-10.9802610774
 20
31.3407606087
 30
0.0
 10
-10.9316594581
 20
31.3367582998
 30
0.0
 10
-10.8819514127
 20
31.3175085718
 30
0.0
 10
-10.8148682871
 20
31.2717431118
 30
0.0
 10
-10.744017508
 20
31.1857680163
 30
0.0
 10
-10.7080206151
 20
31.1020069506
 30
0.0
 10
-10.6963146485
 20
31.0573777147
 30
0.0
  0
SPLINE
  5
333
100
AcDbEntity
  8
0
100
AcDbSpline
 62
7
  6
CONTINUOUS
 70
0
 71
3
 72
9
 73
5
 74
0
 42
0.0000001
 43
0.0000001
 44
0.0000000001
 40
0.0
 40
0.0
 40
0.0
 40
0.0
 40
0.5205456248
 40
1.0
 40
1.0
 40
1.0
 40
1.0
 10
-10.7604849739
 20
32.2742594469
 30
0.0
 10
-10.7806142004
 20
32.2289656946
 30
0.0
 10
-10.8299561721
 20
32.1459344162
 30
0.0
 10
-10.9029742217
 20
32.0816827885
 30
0.0
 10
-10.942077777
 20
32.0581228472
 30
0.0
  0
SPLINE
  5
334
100
AcDbEntity
  8
0
100
AcDbSpline
 62
7
  6
CONTINUOUS
 70
0
 71
3
 72
12
 73
8
 74
0
 42
0.0000001
 43
0.0000001
 44
0.0000000001
 40
0.0
 40
0.0
 40
0.0
 40
0.0
 40
0.096548426
 40
0.1986678336
 40
0.4327760175
 40
0.7082769661
 40
1.0
 40
1.0
 40
1.0
 40
1.0
 10
-12.2026086484
 20
36.2501307654
 30
0.0
 10
-12.1888492976
 20
36.2561681347
 30
0.0
 10
-12.1580498538
 20
36.2635309673
 30
0.0
 10
-12.0900206532
 20
36.2562638666
 30
0.0
 10
-12.0050849897
 20
36.2049701847
 30
0.0
 10
-11.9278417286
 20
36.1049325449
 30
0.0
 10
-11.8954505157
 20
36.0211557462
 30
0.0
 10
-11.8856311781
 20
35.9768300983
 30
0.0
  0
SPLINE
  5
335
100
AcDbEntity
  8
0
100
AcDbSpline
 62
7
  6
CONTINUOUS
 70
0
 71
3
 72
11
 73
7
 74
0
 42
0.0000001
 43
0.0000001
 44
0.0000000001
 40
0.0
 40
0.0
 40
0.0
 40
0.0
 40
0.2132223075
 40
0.4446852852
 40
0.7064975409
 40
1.0
 40
1.0
 40
1.0
 40
1.0
 10
-10.2464777608
 20
31.8819792899
 30
0.0
 10
-10.231092356
 20
31.8896720922
 30
0.0
 10
-10.1950578939
 20
31.8986392057
 30
0.0
 10
-10.137630763
 20
31.8894077311
 30
0.0
 10
-10.0803422544
 20
31.8603591515
 30
0.0
 10
-10.0460599539
 20
31.830894372
 30
0.0
 10
-10.0296297525
 20
31.813844622
 30
0.0
  0
SPLINE
  5
336
100
AcDbEntity
  8
0
100
AcDbSpline
 62
7
  6
CONTINUOUS
 70
0
 71
3
 72
8
 73
4
 74
0
 42
0.0000001
 43
0.0000001
 44
0.0000000001
 40
0.0
 40
0.0
 40
0.0
 40
0.0
 40
1.0
 40
1.0
 40
1.0
 40
1.0
 10
-10.1878454017
 20
33.203807434
 30
0.0
 10
-10.1709694549
 20
33.2122454484
 30
0.0
 10
-10.1516925861
 20
33.2167367724
 30
0.0
 10
-10.1328284981
 20
33.2171160523
 30
0.0
  0
SPLINE
  5
337
100
AcDbEntity
  8
0
100
AcDbSpline
 62
7
  6
CONTINUOUS
 70
0
 71
3
 72
13
 73
9
 74
0
 42
0.0000001
 43
0.0000001
 44
0.0000000001
 40
0.0
 40
0.0
 40
0.0
 40
0.0
 40
0.0965369923
 40
0.2047680987
 40
0.328481892
 40
0.4652264227
 40
0.7494500385
 40
1.0
 40
1.0
 40
1.0
 40
1.0
 10
-10.4590485199
 20
35.3886941202
 30
0.0
 10
-10.4390251832
 20
35.3952351676
 30
0.0
 10
-10.3925414539
 20
35.3981142342
 30
0.0
 10
-10.3241572261
 20
35.3720281457
 30
0.0
 10
-10.260509969
 20
35.3212025908
 30
0.0
 10
-10.1878678085
 20
35.2259603843
 30
0.0
 10
-10.1365873126
 20
35.0851167754
 30
0.0
 10
-10.1432003707
 20
34.9621725076
 30
0.0
 10
-10.1647083427
 20
34.9119102545
 30
0.0
  0
SPLINE
  5
338
100
AcDbEntity
  8
0
100
AcDbSpline
 62
7
  6
CONTINUOUS
 70
0
 71
3
 72
11
 73
7
 74
0
 42
0.0000001
 43
0.0000001
 44
0.0000000001
 40
0.0
 40
0.0
 40
0.0
 40
0.0
 40
0.2153305015
 40
0.4472540297
 40
0.7081604388
 40
1.0
 40
1.0
 40
1.0
 40
1.0
 10
-13.5297279334
 20
35.311532711
 30
0.0
 10
-13.5141322448
 20
35.319330645
 30
0.0
 10
-13.4778214674
 20
35.3285483332
 30
0.0
 10
-13.4199748073
 20
35.3195626337
 30
0.0
 10
-13.362586589
 20
35.2904897987
 30
0.0
 10
-13.3284633432
 20
35.2608759304
 30
0.0
 10
-13.3121829159
 20
35.2437465477
 30
0.0
  0
SPLINE
  5
339
100
AcDbEntity
  8
0
100
AcDbSpline
 62
7
  6
CONTINUOUS
 70
0
 71
3
 72
9
 73
5
 74
0
 42
0.0000001
 43
0.0000001
 44
0.0000000001
 40
0.0
 40
0.0
 40
0.0
 40
0.0
 40
0.2693983086
 40
1.0
 40
1.0
 40
1.0
 40
1.0
 10
-10.5699515502
 20
34.0421109608
 30
0.0
 10
-10.5736973474
 20
34.033827356
 30
0.0
 10
-10.5896900461
 20
34.004123835
 30
0.0
 10
-10.6156121442
 20
33.9793423755
 30
0.0
 10
-10.6376640904
 20
33.9683160276
 30
0.0
  0
SPLINE
  5
33A
100
AcDbEntity
  8
ASSI
100
AcDbSpline
 62
7
  6
CONTINUOUS
 70
0
 71
3
 72
11
 73
7
 74
0
 42
0.0000001
 43
0.0000001
 44
0.0000000001
 40
0.0
 40
0.0
 40
0.0
 40
0.0
 40
0.2608898966
 40
0.5122979633
 40
0.7574434642
 40
1.0
 40
1.0
 40
1.0
 40
1.0
 10
-10.9573782991
 20
10.6945351135
 30
0.0
 10
-10.9635011172
 20
10.6838619824
 30
0.0
 10
-10.9768631192
 20
10.6636291678
 30
0.0
 10
-11.0006047368
 20
10.636771501
 30
0.0
 10
-11.0274274976
 20
10.6143020198
 30
0.0
 10
-11.0472317379
 20
10.6023866971
 30
0.0
 10
-11.0574639787
 20
10.5972706037
 30
0.0
  0
SPLINE
  5
33B
100
AcDbEntity
  8
ASSI
100
AcDbSpline
 62
7
  6
CONTINUOUS
 70
0
 71
3
 72
10
 73
6
 74
0
 42
0.0000001
 43
0.0000001
 44
0.0000000001
 40
0.0
 40
0.0
 40
0.0
 40
0.0
 40
0.511681406
 40
0.7572373061
 40
1.0
 40
1.0
 40
1.0
 40
1.0
 10
-10.6423841489
 20
11.8720534872
 30
0.0
 10
-10.6481176341
 20
11.8622956688
 30
0.0
 10
-10.6584772971
 20
11.8487759757
 30
0.0
 10
-10.6755456873
 20
11.8346100954
 30
0.0
 10
-10.6848516896
 20
11.8290249068
 30
0.0
 10
-10.6896544254
 20
11.826623743
 30
0.0
  0
SPLINE
  5
33C
100
AcDbEntity
  8
ASSI
100
AcDbSpline
 62
7
  6
CONTINUOUS
 70
0
 71
3
 72
10
 73
6
 74
0
 42
0.0000001
 43
0.0000001
 44
0.0000000001
 40
0.0
 40
0.0
 40
0.0
 40
0.0
 40
0.5114303369
 40
0.7568421127
 40
1.0
 40
1.0
 40
1.0
 40
1.0
 10
-11.8838051446
 20
9.7051995527
 30
0.0
 10
-11.8891251923
 20
9.6956638615
 30
0.0
 10
-11.8988956278
 20
9.6824239135
 30
0.0
 10
-11.9152591243
 20
9.6686067154
 30
0.0
 10
-11.9242366965
 20
9.6631887842
 30
0.0
 10
-11.9288803244
 20
9.6608673328
 30
0.0
  0
SPLINE
  5
33D
100
AcDbEntity
  8
ASSI
100
AcDbSpline
 62
7
  6
CONTINUOUS
 70
0
 71
3
 72
10
 73
6
 74
0
 42
0.0000001
 43
0.0000001
 44
0.0000000001
 40
0.0
 40
0.0
 40
0.0
 40
0.0
 40
0.5114315637
 40
0.7568426451
 40
1.0
 40
1.0
 40
1.0
 40
1.0
 10
-10.2928098143
 20
8.9097048286
 30
0.0
 10
-10.2981296331
 20
8.9001690957
 30
0.0
 10
-10.3078996603
 20
8.8869290412
 30
0.0
 10
-10.3242625907
 20
8.8731114846
 30
0.0
 10
-10.3332398844
 20
8.8676933337
 30
0.0
 10
-10.3378833826
 20
8.8653717558
 30
0.0
  0
SPLINE
  5
33E
100
AcDbEntity
  8
ASSI
100
AcDbSpline
 62
7
  6
CONTINUOUS
 70
0
 71
3
 72
13
 73
9
 74
0
 42
0.0000001
 43
0.0000001
 44
0.0000000001
 40
0.0
 40
0.0
 40
0.0
 40
0.0
 40
0.2906415481
 40
0.4282358061
 40
0.5589258385
 40
0.6817369033
 40
0.7962199652
 40
1.0
 40
1.0
 40
1.0
 40
1.0
 10
-10.3086693665
 20
9.1615861503
 30
0.0
 10
-10.2984657286
 20
9.138534176
 30
0.0
 10
-10.2860131113
 20
9.103304671
 30
0.0
 10
-10.275855383
 20
9.0558513411
 30
0.0
 10
-10.2718678567
 20
9.0221109586
 30
0.0
 10
-10.2715072164
 20
8.9901074245
 30
0.0
 10
-10.2756255241
 20
8.95206214
 30
0.0
 10
-10.2841294167
 20
8.9251016927
 30
0.0
 10
-10.2928098143
 20
8.9097048286
 30
0.0
  0
SPLINE
  5
33F
100
AcDbEntity
  8
ASSI
100
AcDbSpline
 62
7
  6
CONTINUOUS
 70
0
 71
3
 72
11
 73
7
 74
0
 42
0.0000001
 43
0.0000001
 44
0.0000000001
 40
0.0
 40
0.0
 40
0.0
 40
0.0
 40
0.2227853067
 40
0.4589235859
 40
0.7165996832
 40
1.0
 40
1.0
 40
1.0
 40
1.0
 10
-10.3439361243
 20
10.8494404377
 30
0.0
 10
-10.3348557327
 20
10.8539805987
 30
0.0
 10
-10.3146427752
 20
10.860549348
 30
0.0
 10
-10.2816733187
 20
10.8618016045
 30
0.0
 10
-10.2466727981
 20
10.8548789219
 30
0.0
 10
-10.2237135384
 20
10.8455001418
 30
0.0
 10
-10.2121625885
 20
10.8397246669
 30
0.0
  0
SPLINE
  5
340
100
AcDbEntity
  8
ASSI
100
AcDbSpline
 62
7
  6
CONTINUOUS
 70
0
 71
3
 72
17
 73
13
 74
0
 42
0.0000001
 43
0.0000001
 44
0.0000000001
 40
0.0
 40
0.0
 40
0.0
 40
0.0
 40
0.0438960679
 40
0.089105852
 40
0.136459013
 40
0.1865877931
 40
0.2964411888
 40
0.4199272664
 40
0.5555826375
 40
0.7003009676
 40
0.849972185
 40
1.0
 40
1.0
 40
1.0
 40
1.0
 10
-10.8683421073
 20
9.9331032876
 30
0.0
 10
-10.8627006052
 20
9.9359237618
 30
0.0
 10
-10.8506782154
 20
9.9405731572
 30
0.0
 10
-10.8313218543
 20
9.9442464783
 30
0.0
 10
-10.8107347946
 20
9.9446654512
 30
0.0
 10
-10.7811017319
 20
9.9407901807
 30
0.0
 10
-10.7422196385
 20
9.9272938402
 30
0.0
 10
-10.6964891153
 20
9.8999372322
 30
0.0
 10
-10.6520848229
 20
9.862226086
 30
0.0
 10
-10.6109608802
 20
9.8158607808
 30
0.0
 10
-10.5749321063
 20
9.7629486022
 30
0.0
 10
-10.555189439
 20
9.7245294823
 30
0.0
 10
-10.5465805053
 20
9.704766169
 30
0.0
  0
SPLINE
  5
341
100
AcDbEntity
  8
ASSI
100
AcDbSpline
 62
7
  6
CONTINUOUS
 70
0
 71
3
 72
23
 73
19
 74
0
 42
0.0000001
 43
0.0000001
 44
0.0000000001
 40
0.0
 40
0.0
 40
0.0
 40
0.0
 40
0.0441736251
 40
0.0912422917
 40
0.1428900304
 40
0.1999666149
 40
0.2624926564
 40
0.3299107016
 40
0.4012513464
 40
0.4752517286
 40
0.55048592
 40
0.6254454374
 40
0.6986407211
 40
0.7686779203
 40
0.8344203092
 40
0.8950569658
 40
0.9502088222
 40
1.0
 40
1.0
 40
1.0
 40
1.0
 10
-12.0353309257
 20
10.5163138648
 30
0.0
 10
-12.0262142278
 20
10.5208723226
 30
0.0
 10
-12.0058349613
 20
10.5274308616
 30
0.0
 10
-11.9725326857
 20
10.5284587234
 30
0.0
 10
-11.9370581927
 20
10.5211263153
 30
0.0
 10
-11.9004412512
 20
10.505752166
 30
0.0
 10
-11.8636397982
 20
10.4829322015
 30
0.0
 10
-11.8276771319
 20
10.45335194
 30
0.0
 10
-11.7935932502
 20
10.4178794266
 30
0.0
 10
-11.7623590211
 20
10.3775800073
 30
0.0
 10
-11.7349019826
 20
10.333635003
 30
0.0
 10
-11.712016236
 20
10.2873526951
 30
0.0
 10
-11.6943665941
 20
10.2401016773
 30
0.0
 10
-11.6825104208
 20
10.1932535102
 30
0.0
 10
-11.6767202983
 20
10.1481795402
 30
0.0
 10
-11.6771717439
 20
10.1061320887
 30
0.0
 10
-11.6838389228
 20
10.0683232685
 30
0.0
 10
-11.6929533004
 20
10.0455904197
 30
0.0
 10
-11.698682772
 20
10.0356319382
 30
0.0
  0
SPLINE
  5
342
100
AcDbEntity
  8
ASSI
100
AcDbSpline
 62
7
  6
CONTINUOUS
 70
0
 71
3
 72
11
 73
7
 74
0
 42
0.0000001
 43
0.0000001
 44
0.0000000001
 40
0.0
 40
0.0
 40
0.0
 40
0.0
 40
0.2227861382
 40
0.4589241834
 40
0.7166002678
 40
1.0
 40
1.0
 40
1.0
 40
1.0
 10
-13.1016597922
 20
12.2283001218
 30
0.0
 10
-13.0925793816
 20
12.2328407205
 30
0.0
 10
-13.0723660593
 20
12.2394097802
 30
0.0
 10
-13.0393960476
 20
12.240662578
 30
0.0
 10
-13.0043949026
 20
12.2337398977
 30
0.0
 10
-12.9814352615
 20
12.2243610034
 30
0.0
 10
-12.9698841364
 20
12.2185854409
 30
0.0
  0
SPLINE
  5
343
100
AcDbEntity
  8
ASSI
100
AcDbSpline
 62
7
  6
CONTINUOUS
 70
0
 71
3
 72
23
 73
19
 74
0
 42
0.0000001
 43
0.0000001
 44
0.0000000001
 40
0.0
 40
0.0
 40
0.0
 40
0.0
 40
0.0450836718
 40
0.092657868
 40
0.1443850128
 40
0.2011370705
 40
0.2630528776
 40
0.329693612
 40
0.4001942367
 40
0.473394386
 40
0.5479473264
 40
0.6224172601
 40
0.6953726099
 40
0.7654767171
 40
0.8315889054
 40
0.8928747176
 40
0.9489420712
 40
1.0
 40
1.0
 40
1.0
 40
1.0
 10
-10.7696067537
 20
12.6953387527
 30
0.0
 10
-10.7602394588
 20
12.700022014
 30
0.0
 10
-10.7394400995
 20
12.7067988533
 30
0.0
 10
-10.7055699765
 20
12.7080609851
 30
0.0
 10
-10.6697584484
 20
12.7008239577
 30
0.0
 10
-10.6330421096
 20
12.6854905534
 30
0.0
 10
-10.5963977638
 20
12.6625992472
 30
0.0
 10
-10.5608380939
 20
12.6328410311
 30
0.0
 10
-10.5273707357
 20
12.5970917204
 30
0.0
 10
-10.4969623983
 20
12.5564023025
 30
0.0
 10
-10.4704986313
 20
12.5119732406
 30
0.0
 10
-10.4487521517
 20
12.4651171649
 30
0.0
 10
-10.4323571553
 20
12.4172168085
 30
0.0
 10
-10.4217917716
 20
12.3696774738
 30
0.0
 10
-10.4173653971
 20
12.3238837386
 30
0.0
 10
-10.419231317
 20
12.2811388146
 30
0.0
 10
-10.4273728151
 20
12.242674577
 30
0.0
 10
-10.4373664317
 20
12.219618543
 30
0.0
 10
-10.4434086656
 20
12.209412428
 30
0.0
  0
SPLINE
  5
344
100
AcDbEntity
  8
ASSI
100
AcDbSpline
 62
7
  6
CONTINUOUS
 70
0
 71
3
 72
18
 73
14
 74
0
 42
0.0000001
 43
0.0000001
 44
0.0000000001
 40
0.0
 40
0.0
 40
0.0
 40
0.0
 40
0.0450935865
 40
0.0912521972
 40
0.1392813909
 40
0.189816617
 40
0.2432969448
 40
0.2999680868
 40
0.4228698158
 40
0.55759347
 40
0.7013441344
 40
0.8502753306
 40
1.0
 40
1.0
 40
1.0
 40
1.0
 10
-12.3606033465
 20
13.4908344827
 30
0.0
 10
-12.354791538
 20
13.4937402092
 30
0.0
 10
-12.3424647933
 20
13.4985536608
 30
0.0
 10
-12.3226816729
 20
13.5024540672
 30
0.0
 10
-12.3017478013
 20
13.5030573138
 30
0.0
 10
-12.2799289765
 20
13.5003786067
 30
0.0
 10
-12.2574749978
 20
13.4944735496
 30
0.0
 10
-12.2261944271
 20
13.4820736292
 30
0.0
 10
-12.1871025077
 20
13.4585861646
 30
0.0
 10
-12.1431832354
 20
13.4206148141
 30
0.0
 10
-12.102856214
 20
13.37379672
 30
0.0
 10
-12.0679309096
 20
13.320266873
 30
0.0
 10
-12.0491311325
 20
13.281398728
 30
0.0
 10
-12.0410325773
 20
13.2614019795
 30
0.0
  0
SPLINE
  5
345
100
AcDbEntity
  8
ASSI
100
AcDbSpline
 62
7
  6
CONTINUOUS
 70
0
 71
3
 72
25
 73
21
 74
0
 42
0.0000001
 43
0.0000001
 44
0.0000000001
 40
0.0
 40
0.0
 40
0.0
 40
0.0
 40
0.0221826243
 40
0.0447728842
 40
0.0680471334
 40
0.0922391902
 40
0.1439801007
 40
0.2009272395
 40
0.2631697298
 40
0.3302163872
 40
0.401152613
 40
0.4747709906
 40
0.5496812439
 40
0.6244082231
 40
0.6974848706
 40
0.7675458645
 40
0.8334279873
 40
0.8942853269
 40
0.9497295224
 40
1.0
 40
1.0
 40
1.0
 40
1.0
 10
-11.6765533399
 20
11.7411699417
 30
0.0
 10
-11.6666057464
 20
11.7461437308
 30
0.0
 10
-11.6457491717
 20
11.7547001076
 30
0.0
 10
-11.6125401101
 20
11.7629774997
 30
0.0
 10
-11.5775076672
 20
11.7667189374
 30
0.0
 10
-11.5276633315
 20
11.7656166298
 30
0.0
 10
-11.4618367335
 20
11.7520847597
 30
0.0
 10
-11.3824220962
 20
11.7187849562
 30
0.0
 10
-11.3028786936
 20
11.6692322747
 30
0.0
 10
-11.2254507834
 20
11.6049199294
 30
0.0
 10
-11.1523212081
 20
11.5277477922
 30
0.0
 10
-11.0856005796
 20
11.4399969085
 30
0.0
 10
-11.0272196123
 20
11.3442697884
 30
0.0
 10
-10.9788677933
 20
11.2434068928
 30
0.0
 10
-10.941937245
 20
11.1403929202
 30
0.0
 10
-10.9174872486
 20
11.0382528253
 30
0.0
 10
-10.9062181338
 20
10.939956642
 30
0.0
 10
-10.9085019452
 20
10.848286808
 30
0.0
 10
-10.924354621
 20
10.7658633968
 30
0.0
 10
-10.9448366464
 20
10.7163973837
 30
0.0
 10
-10.9573782991
 20
10.6945351135
 30
0.0
  0
SPLINE
  5
346
100
AcDbEntity
  8
ASSI
100
AcDbSpline
 62
7
  6
CONTINUOUS
 70
0
 71
3
 72
16
 73
12
 74
0
 42
0.0000001
 43
0.0000001
 44
0.0000000001
 40
0.0
 40
0.0
 40
0.0
 40
0.0
 40
0.1561327454
 40
0.3060293565
 40
0.4471674844
 40
0.5777153097
 40
0.6968414711
 40
0.8050817833
 40
0.9046954206
 40
0.9526036751
 40
1.0
 40
1.0
 40
1.0
 40
1.0
 10
-11.8169652876
 20
12.7112947421
 30
0.0
 10
-11.8104460672
 20
12.6953803333
 30
0.0
 10
-11.7992891753
 20
12.6634884482
 30
0.0
 10
-11.7883083114
 20
12.6153617471
 30
0.0
 10
-11.7836361987
 20
12.5690237741
 30
0.0
 10
-11.7854328822
 20
12.5258443587
 30
0.0
 10
-11.7937150295
 20
12.4870673441
 30
0.0
 10
-11.8083603738
 20
12.4538388963
 30
0.0
 10
-11.8259950037
 20
12.4313803849
 30
0.0
 10
-11.8426524541
 20
12.4177295798
 30
0.0
 10
-11.8517053597
 20
12.4123225971
 30
0.0
 10
-11.8563748993
 20
12.4099878901
 30
0.0
  0
SPLINE
  5
347
100
AcDbEntity
  8
ASSI
100
AcDbSpline
 62
7
  6
CONTINUOUS
 70
0
 71
3
 72
22
 73
18
 74
0
 42
0.0000001
 43
0.0000001
 44
0.0000000001
 40
0.0
 40
0.0
 40
0.0
 40
0.0
 40
0.0607872785
 40
0.1258831835
 40
0.1946402042
 40
0.2661866407
 40
0.4133187435
 40
0.486800437
 40
0.5586750968
 40
0.6279031436
 40
0.6935846588
 40
0.7550275721
 40
0.8118277897
 40
0.8639662227
 40
0.9119164097
 40
0.9567277368
 40
1.0
 40
1.0
 40
1.0
 40
1.0
 10
-12.5456148835
 20
12.0064508144
 30
0.0
 10
-12.5343302606
 20
12.000808503
 30
0.0
 10
-12.5118142143
 20
11.9873707904
 30
0.0
 10
-12.479871342
 20
11.9625061652
 30
0.0
 10
-12.4492169853
 20
11.9327616795
 30
0.0
 10
-12.4106823231
 20
11.8871262442
 30
0.0
 10
-12.3781512513
 20
11.835479477
 30
0.0
 10
-12.3528534603
 20
11.7802302333
 30
0.0
 10
-12.3380832469
 20
11.7381382356
 30
0.0
 10
-12.3278549766
 20
11.6963818091
 30
0.0
 10
-12.3224010618
 20
11.6559081517
 30
0.0
 10
-12.3218526382
 20
11.6176337528
 30
0.0
 10
-12.3262463605
 20
11.5824109425
 30
0.0
 10
-12.3355369461
 20
11.551022422
 30
0.0
 10
-12.3496238122
 20
11.5241904942
 30
0.0
 10
-12.3682922473
 20
11.5026460893
 30
0.0
 10
-12.3836218428
 20
11.4922297721
 30
0.0
 10
-12.3916549695
 20
11.488213239
 30
0.0
  0
SPLINE
  5
348
100
AcDbEntity
  8
ASSI
100
AcDbSpline
 62
7
  6
CONTINUOUS
 70
0
 71
3
 72
22
 73
18
 74
0
 42
0.0000001
 43
0.0000001
 44
0.0000000001
 40
0.0
 40
0.0
 40
0.0
 40
0.0
 40
0.060787279
 40
0.1258831843
 40
0.1946402053
 40
0.266186642
 40
0.4133187448
 40
0.4868004382
 40
0.5586750979
 40
0.6279031446
 40
0.6935846596
 40
0.7550275729
 40
0.8118277903
 40
0.8639662235
 40
0.9119164105
 40
0.9567277375
 40
1.0
 40
1.0
 40
1.0
 40
1.0
 10
-9.7878984196
 20
10.6275925823
 30
0.0
 10
-9.7766137966
 20
10.6219502708
 30
0.0
 10
-9.7540977503
 20
10.6085125582
 30
0.0
 10
-9.7221548778
 20
10.5836479328
 30
0.0
 10
-9.691500521
 20
10.553903447
 30
0.0
 10
-9.6529658588
 20
10.5082680117
 30
0.0
 10
-9.6204347871
 20
10.4566212444
 30
0.0
 10
-9.5951369963
 20
10.4013720008
 30
0.0
 10
-9.5803667829
 20
10.3592800031
 30
0.0
 10
-9.5701385127
 20
10.3175235767
 30
0.0
 10
-9.564684598
 20
10.2770499195
 30
0.0
 10
-9.5641361743
 20
10.2387755206
 30
0.0
 10
-9.5685298968
 20
10.2035527104
 30
0.0
 10
-9.5778204822
 20
10.1721641898
 30
0.0
 10
-9.5919073485
 20
10.1453322622
 30
0.0
 10
-9.6105757834
 20
10.1237878573
 30
0.0
 10
-9.6259053789
 20
10.1133715404
 30
0.0
 10
-9.6339385053
 20
10.1093550072
 30
0.0
  0
SPLINE
  5
349
100
AcDbEntity
  8
0
100
AcDbSpline
 62
253
  6
CONTINUOUS
 70
0
 71
3
 72
22
 73
18
 74
0
 42
0.0000001
 43
0.0000001
 44
0.0000000001
 40
0.0
 40
0.0
 40
0.0
 40
0.0
 40
0.1485908106
 40
0.2178811816
 40
0.2837890834
 40
0.3464937008
 40
0.4063356113
 40
0.4638240356
 40
0.519628264
 40
0.5745465076
 40
0.6294503458
 40
0.6852127368
 40
0.7426358397
 40
0.8023946236
 40
0.8650046236
 40
0.9308109697
 40
1.0
 40
1.0
 40
1.0
 40
1.0
 10
-8.0455529383
 20
19.5437702959
 30
0.0
 10
-8.0455040433
 20
19.5058259694
 30
0.0
 10
-8.0496625841
 20
19.4499596853
 30
0.0
 10
-8.0654893372
 20
19.3791393462
 30
0.0
 10
-8.0816679947
 20
19.3311490759
 30
0.0
 10
-8.1022910846
 20
19.2875360117
 30
0.0
 10
-8.1271903284
 20
19.2487227477
 30
0.0
 10
-8.1561523404
 20
19.2151090807
 30
0.0
 10
-8.1889126139
 20
19.1870588394
 30
0.0
 10
-8.2251460252
 20
19.1648894815
 30
0.0
 10
-8.2644677311
 20
19.1488503774
 30
0.0
 10
-8.3064493512
 20
19.1391055618
 30
0.0
 10
-8.3506427205
 20
19.1357308361
 30
0.0
 10
-8.3965969569
 20
19.1387245688
 30
0.0
 10
-8.4438656222
 20
19.1480233221
 30
0.0
 10
-8.4919974363
 20
19.1635065593
 30
0.0
 10
-8.5235784541
 20
19.1774954114
 30
0.0
 10
-8.5393814443
 20
19.1853967451
 30
0.0
  0
SPLINE
  5
34A
100
AcDbEntity
  8
0
100
AcDbSpline
 62
253
  6
CONTINUOUS
 70
0
 71
3
 72
14
 73
10
 74
0
 42
0.0000001
 43
0.0000001
 44
0.0000000001
 40
0.0
 40
0.0
 40
0.0
 40
0.0
 40
0.1033837742
 40
0.2094444369
 40
0.3205707024
 40
0.4386693675
 40
0.5650944607
 40
0.7006697296
 40
1.0
 40
1.0
 40
1.0
 40
1.0
 10
-18.9963399193
 20
17.6508800348
 30
0.0
 10
-18.9962144098
 20
17.6425613504
 30
0.0
 10
-18.9943336644
 20
17.625691538
 30
0.0
 10
-18.9867207114
 20
17.6009036838
 30
0.0
 10
-18.9744294418
 20
17.5767469037
 30
0.0
 10
-18.9576277347
 20
17.5534563136
 30
0.0
 10
-18.9365030886
 20
17.5312204892
 30
0.0
 10
-18.9017145473
 20
17.5022865426
 30
0.0
 10
-18.8714246043
 20
17.4842412505
 30
0.0
 10
-18.8498864588
 20
17.4734549505
 30
0.0
  0
SPLINE
  5
34B
100
AcDbEntity
  8
0
100
AcDbSpline
 62
253
  6
CONTINUOUS
 70
0
 71
3
 72
13
 73
9
 74
0
 42
0.0000001
 43
0.0000001
 44
0.0000000001
 40
0.0
 40
0.0
 40
0.0
 40
0.0
 40
0.1108284146
 40
0.2233032765
 40
0.3389497036
 40
0.4590758335
 40
0.7162020855
 40
1.0
 40
1.0
 40
1.0
 40
1.0
 10
-18.3209081572
 20
7.8729653791
 30
0.0
 10
-18.3197993899
 20
7.8642276577
 30
0.0
 10
-18.3162097803
 20
7.8467653401
 30
0.0
 10
-18.306850159
 20
7.8214072597
 30
0.0
 10
-18.2935929708
 20
7.7970079266
 30
0.0
 10
-18.2703804658
 20
7.7653274747
 30
0.0
 10
-18.2315599383
 20
7.7292100398
 30
0.0
 10
-18.1946161515
 20
7.706725097
 30
0.0
 10
-18.1744878515
 20
7.6965497496
 30
0.0
  0
SPLINE
  5
34C
100
AcDbEntity
  8
0
100
AcDbSpline
 62
253
  6
CONTINUOUS
 70
0
 71
3
 72
14
 73
10
 74
0
 42
0.0000001
 43
0.0000001
 44
0.0000000001
 40
0.0
 40
0.0
 40
0.0
 40
0.0
 40
0.110686102
 40
0.2231372617
 40
0.3388387465
 40
0.4590514657
 40
0.5847580044
 40
0.7166456885
 40
1.0
 40
1.0
 40
1.0
 40
1.0
 10
-17.9268966149
 20
7.2830338653
 30
0.0
 10
-17.9434451949
 20
7.2913080552
 30
0.0
 10
-17.9755718316
 20
7.3105929482
 30
0.0
 10
-18.0193368407
 20
7.3468550755
 30
0.0
 10
-18.0584978287
 20
7.3902113263
 30
0.0
 10
-18.0927191032
 20
7.4402396685
 30
0.0
 10
-18.1217450054
 20
7.496497846
 30
0.0
 10
-18.1539780073
 20
7.5811319771
 30
0.0
 10
-18.1684264935
 20
7.6495748633
 30
0.0
 10
-18.1744878515
 20
7.6965497496
 30
0.0
  0
LINE
  5
34D
100
AcDbEntity
  8
ASSI
100
AcDbLine
 62
7
  6
CONTINUOUS
 10
-11.6908766506
 20
11.7333464452
 11
-11.690072268
 21
11.7338222509
  0
SPLINE
  5
34E
100
AcDbEntity
  8
ASSI
100
AcDbSpline
 62
7
  6
CONTINUOUS
 70
0
 71
3
 72
11
 73
7
 74
0
 42
0.0000001
 43
0.0000001
 44
0.0000000001
 40
0.0
 40
0.0
 40
0.0
 40
0.0
 40
0.2241186125
 40
0.4608638707
 40
0.7180689947
 40
1.0
 40
1.0
 40
1.0
 40
1.0
 10
-9.6339385053
 20
10.1093550072
 30
0.0
 10
-9.6425439297
 20
10.1050523271
 30
0.0
 10
-9.6615983855
 20
10.098718247
 30
0.0
 10
-9.6926723141
 20
10.096979031
 30
0.0
 10
-9.7257289678
 20
10.1026558142
 30
0.0
 10
-9.7475268401
 20
10.1108141758
 30
0.0
 10
-9.7585148246
 20
10.1158882095
 30
0.0
  0
SPLINE
  5
34F
100
AcDbEntity
  8
ASSI
100
AcDbSpline
 62
7
  6
CONTINUOUS
 70
0
 71
3
 72
17
 73
13
 74
0
 42
0.0000001
 43
0.0000001
 44
0.0000000001
 40
0.0
 40
0.0
 40
0.0
 40
0.0
 40
0.0435466328
 40
0.0885845678
 40
0.1359133258
 40
0.1861275532
 40
0.2963412024
 40
0.4202151233
 40
0.5561195245
 40
0.700866665
 40
0.8503403197
 40
1.0
 40
1.0
 40
1.0
 40
1.0
 10
-10.3404590468
 20
8.8641302453
 30
0.0
 10
-10.3460922992
 20
8.8615144915
 30
0.0
 10
-10.3580820272
 20
8.8572697566
 30
0.0
 10
-10.3773051322
 20
8.8541467318
 30
0.0
 10
-10.3977247119
 20
8.8542026869
 30
0.0
 10
-10.4271143797
 20
8.8586229683
 30
0.0
 10
-10.4656173968
 20
8.8725643001
 30
0.0
 10
-10.5109333065
 20
8.9000925038
 30
0.0
 10
-10.5549969216
 20
8.9376701613
 30
0.0
 10
-10.5958863615
 20
8.9836374005
 30
0.0
 10
-10.6318097064
 20
9.0359505536
 30
0.0
 10
-10.6515857988
 20
9.0738992174
 30
0.0
 10
-10.6602344002
 20
9.0934141801
 30
0.0
  0
SPLINE
  5
350
100
AcDbEntity
  8
ASSI
100
AcDbSpline
 62
7
  6
CONTINUOUS
 70
0
 71
3
 72
15
 73
11
 74
0
 42
0.0000001
 43
0.0000001
 44
0.0000000001
 40
0.0
 40
0.0
 40
0.0
 40
0.0
 40
0.154695716
 40
0.3035156863
 40
0.4441031041
 40
0.5747203742
 40
0.6945121273
 40
0.8038209395
 40
0.9044937658
 40
1.0
 40
1.0
 40
1.0
 40
1.0
 10
-12.4018260162
 20
13.1886211036
 30
0.0
 10
-12.408161188
 20
13.2041608573
 30
0.0
 10
-12.419031189
 20
13.2353185907
 30
0.0
 10
-12.4298201514
 20
13.2823762856
 30
0.0
 10
-12.4345700442
 20
13.3278201345
 30
0.0
 10
-12.4331222022
 20
13.3703679085
 30
0.0
 10
-12.4254700536
 20
13.4088397188
 30
0.0
 10
-12.4117082597
 20
13.4421616683
 30
0.0
 10
-12.3920732589
 20
13.4692830211
 30
0.0
 10
-12.375114456
 20
13.4826958669
 30
0.0
 10
-12.3661346446
 20
13.4878635091
 30
0.0
  0
SPLINE
  5
351
100
AcDbEntity
  8
ASSI
100
AcDbSpline
 62
7
  6
CONTINUOUS
 70
0
 71
3
 72
24
 73
20
 74
0
 42
0.0000001
 43
0.0000001
 44
0.0000000001
 40
0.0
 40
0.0
 40
0.0
 40
0.0
 40
0.0217524876
 40
0.0439848334
 40
0.0909008462
 40
0.1425544354
 40
0.1997298957
 40
0.2624287058
 40
0.3300608766
 40
0.4016169964
 40
0.4758083957
 40
0.551182086
 40
0.6262216544
 40
0.699440624
 40
0.769471612
 40
0.835165054
 40
0.8661330272
 40
0.8957442386
 40
1.0
 40
1.0
 40
1.0
 40
1.0
 10
-11.9288803244
 20
9.6608673328
 30
0.0
 10
-11.9333610071
 20
9.6586273412
 30
0.0
 10
-11.9427833969
 20
9.6547863583
 30
0.0
 10
-11.9631820499
 20
9.6498081354
 30
0.0
 10
-11.9913407796
 20
9.6490850461
 30
0.0
 10
-12.0266679692
 20
9.6566058407
 30
0.0
 10
-12.0632428944
 20
9.6720354079
 30
0.0
 10
-12.1000656175
 20
9.6948651896
 30
0.0
 10
-12.1361174947
 20
9.7244061585
 30
0.0
 10
-12.1703581149
 20
9.7597889449
 30
0.0
 10
-12.2017849367
 20
9.799969172
 30
0.0
 10
-12.2294713943
 20
9.843759944
 30
0.0
 10
-12.2526015143
 20
9.8898695971
 30
0.0
 10
-12.2704974051
 20
9.9369454331
 30
0.0
 10
-12.2826332954
 20
9.9836135868
 30
0.0
 10
-12.28775493
 20
10.0217719666
 30
0.0
 10
-12.2885013468
 20
10.0508859789
 30
0.0
 10
-12.2865699935
 20
10.0887317461
 30
0.0
 10
-12.2788253738
 20
10.1198477469
 30
0.0
 10
-12.2670848054
 20
10.1407904852
 30
0.0
  0
SPLINE
  5
352
100
AcDbEntity
  8
ASSI
100
AcDbSpline
 62
7
  6
CONTINUOUS
 70
0
 71
3
 72
11
 73
7
 74
0
 42
0.0000001
 43
0.0000001
 44
0.0000000001
 40
0.0
 40
0.0
 40
0.0
 40
0.0
 40
0.2241186499
 40
0.4608639242
 40
0.7180690339
 40
1.0
 40
1.0
 40
1.0
 40
1.0
 10
-12.3916549695
 20
11.488213239
 30
0.0
 10
-12.4002603845
 20
11.4839105639
 30
0.0
 10
-12.4193148165
 20
11.4775764879
 30
0.0
 10
-12.4503887062
 20
11.4758372612
 30
0.0
 10
-12.4834453193
 20
11.4815140176
 30
0.0
 10
-12.5052431671
 20
11.4896723536
 30
0.0
 10
-12.5162311395
 20
11.4947463727
 30
0.0
  0
SPLINE
  5
353
100
AcDbEntity
  8
ASSI
100
AcDbSpline
 62
7
  6
CONTINUOUS
 70
0
 71
3
 72
9
 73
5
 74
0
 42
0.0000001
 43
0.0000001
 44
0.0000000001
 40
0.0
 40
0.0
 40
0.0
 40
0.0
 40
0.2540768436
 40
1.0
 40
1.0
 40
1.0
 40
1.0
 10
-10.8174618329
 20
12.6496166071
 30
0.0
 10
-10.8166451184
 20
12.650990225
 30
0.0
 10
-10.8133395655
 20
12.6563416219
 30
0.0
 10
-10.809664061
 20
12.6614662076
 30
0.0
 10
-10.8067190791
 20
12.6651184344
 30
0.0
  0
SPLINE
  5
354
100
AcDbEntity
  8
ASSI
100
AcDbSpline
 62
7
  6
CONTINUOUS
 70
0
 71
3
 72
9
 73
5
 74
0
 42
0.0000001
 43
0.0000001
 44
0.0000000001
 40
0.0
 40
0.0
 40
0.0
 40
0.0
 40
0.2530735394
 40
1.0
 40
1.0
 40
1.0
 40
1.0
 10
-10.8067190791
 20
12.6651184344
 30
0.0
 10
-10.8057923055
 20
12.6662677751
 30
0.0
 10
-10.8020501123
 20
12.6707439475
 30
0.0
 10
-10.797984189
 20
12.6749507692
 30
0.0
 10
-10.7947807988
 20
12.6779049336
 30
0.0
  0
SPLINE
  5
355
100
AcDbEntity
  8
ASSI
100
AcDbSpline
 62
7
  6
CONTINUOUS
 70
0
 71
3
 72
23
 73
19
 74
0
 42
0.0000001
 43
0.0000001
 44
0.0000000001
 40
0.0
 40
0.0
 40
0.0
 40
0.0
 40
0.0449134755
 40
0.092716795
 40
0.1449240844
 40
0.2022548259
 40
0.2647260153
 40
0.3318140014
 40
0.4026024437
 40
0.475908902
 40
0.5503886707
 40
0.6246282525
 40
0.6972335495
 40
0.7669156869
 40
0.8325860791
 40
0.8934604321
 40
0.9491877293
 40
1.0
 40
1.0
 40
1.0
 40
1.0
 10
-10.694524123
 20
11.8243423271
 30
0.0
 10
-10.7039963956
 20
11.8201951623
 30
0.0
 10
-10.7249267004
 20
11.8145311343
 30
0.0
 10
-10.75861719
 20
11.8147233452
 30
0.0
 10
-10.7941195262
 20
11.823132491
 30
0.0
 10
-10.8304529714
 20
11.8393547775
 30
0.0
 10
-10.8666713288
 20
11.8628548571
 30
0.0
 10
-10.9017860819
 20
11.8929463521
 30
0.0
 10
-10.9348128161
 20
11.9287660461
 30
0.0
 10
-10.9648069294
 20
11.9692865451
 30
0.0
 10
-10.9909025712
 20
12.0133422751
 30
0.0
 10
-11.0123435604
 20
12.0596647262
 30
0.0
 10
-11.0285084538
 20
12.1069218796
 30
0.0
 10
-11.0389279001
 20
12.1537621695
 30
0.0
 10
-11.0432972572
 20
12.1988542303
 30
0.0
 10
-11.041465045
 20
12.2409434311
 30
0.0
 10
-11.0334469762
 20
12.2788401083
 30
0.0
 10
-11.0236098662
 20
12.3015693672
 30
0.0
 10
-11.0176642262
 20
12.3116442114
 30
0.0
  0
SPLINE
  5
356
100
AcDbEntity
  8
ASSI
100
AcDbSpline
 62
7
  6
CONTINUOUS
 70
0
 71
3
 72
21
 73
17
 74
0
 42
0.0000001
 43
0.0000001
 44
0.0000000001
 40
0.0
 40
0.0
 40
0.0
 40
0.0
 40
0.0605483801
 40
0.1253705311
 40
0.1938235684
 40
0.265049828
 40
0.4115838744
 40
0.5564271169
 40
0.6256364547
 40
0.6914351291
 40
0.7531368784
 40
0.8103251007
 40
0.8629393652
 40
0.9113768632
 40
0.9565739701
 40
1.0
 40
1.0
 40
1.0
 40
1.0
 10
-12.9474137171
 20
11.7102056569
 30
0.0
 10
-12.958580272
 20
11.7157889343
 30
0.0
 10
-12.9808709611
 20
11.7290558573
 30
0.0
 10
-13.0125453281
 20
11.7535550412
 30
0.0
 10
-13.0429985182
 20
11.7828321963
 30
0.0
 10
-13.0813856054
 20
11.8277570032
 30
0.0
 10
-13.1219187261
 20
11.8910753738
 30
0.0
 10
-13.1507509235
 20
11.9600858433
 30
0.0
 10
-13.165087567
 20
12.0160690325
 30
0.0
 10
-13.1709858678
 20
12.0562834417
 30
0.0
 10
-13.1720548482
 20
12.0944494604
 30
0.0
 10
-13.1682485347
 20
12.1297339185
 30
0.0
 10
-13.1596062513
 20
12.1613644886
 30
0.0
 10
-13.1462264212
 20
12.188630078
 30
0.0
 10
-13.1283155918
 20
12.2108203318
 30
0.0
 10
-13.1134523798
 20
12.2218602799
 30
0.0
 10
-13.1056250084
 20
12.2262086262
 30
0.0
  0
SPLINE
  5
357
100
AcDbEntity
  8
ASSI
100
AcDbSpline
 62
7
  6
CONTINUOUS
 70
0
 71
3
 72
18
 73
14
 74
0
 42
0.0000001
 43
0.0000001
 44
0.0000000001
 40
0.0
 40
0.0
 40
0.0
 40
0.0
 40
0.0448927022
 40
0.0909015709
 40
0.1388148374
 40
0.189252155
 40
0.2426410413
 40
0.2992204309
 40
0.4219426925
 40
0.5565294055
 40
0.7002898084
 40
0.8495216483
 40
1.0
 40
1.0
 40
1.0
 40
1.0
 10
-11.8569222042
 20
12.4097162253
 30
0.0
 10
-11.8625815651
 20
12.4069275146
 30
0.0
 10
-11.8745778933
 20
12.4023084414
 30
0.0
 10
-11.8938130387
 20
12.398557357
 30
0.0
 10
-11.9141754986
 20
12.3979546982
 30
0.0
 10
-11.9354196689
 20
12.4004855628
 30
0.0
 10
-11.9573141675
 20
12.406098422
 30
0.0
 10
-11.9878755106
 20
12.4179105425
 30
0.0
 10
-12.0262112264
 20
12.4403293147
 30
0.0
 10
-12.0695695114
 20
12.4766692134
 30
0.0
 10
-12.1097419574
 20
12.5216159494
 30
0.0
 10
-12.1449823038
 20
12.5732108725
 30
0.0
 10
-12.1642917035
 20
12.610792608
 30
0.0
 10
-12.1727385021
 20
12.6301804396
 30
0.0
  0
SPLINE
  5
358
100
AcDbEntity
  8
ASSI
100
AcDbSpline
 62
7
  6
CONTINUOUS
 70
0
 71
3
 72
24
 73
20
 74
0
 42
0.0000001
 43
0.0000001
 44
0.0000000001
 40
0.0
 40
0.0
 40
0.0
 40
0.0
 40
0.0219895146
 40
0.0445183068
 40
0.0920689372
 40
0.144200042
 40
0.2015539176
 40
0.2640877161
 40
0.3312376595
 40
0.4020671162
 40
0.475388472
 40
0.5498649525
 40
0.6240998249
 40
0.6967190358
 40
0.7664526557
 40
0.8322209939
 40
0.8932327218
 40
0.9491035216
 40
1.0
 40
1.0
 40
1.0
 40
1.0
 10
-11.0713956335
 20
10.5908966295
 30
0.0
 10
-11.0813901203
 20
10.5867338527
 30
0.0
 10
-11.1022694445
 20
10.5797749207
 30
0.0
 10
-11.1469709946
 20
10.571543942
 30
0.0
 10
-11.2078010892
 20
10.5727000775
 30
0.0
 10
-11.2833545553
 20
10.5912976719
 30
0.0
 10
-11.3609520796
 20
10.6261942032
 30
0.0
 10
-11.438556282
 20
10.6763149703
 30
0.0
 10
-11.5141117438
 20
10.7402300417
 30
0.0
 10
-11.5855343755
 20
10.816156494
 30
0.0
 10
-11.6508229488
 20
10.9019724783
 30
0.0
 10
-11.7081298717
 20
10.9952763713
 30
0.0
 10
-11.75582836
 20
11.0934572492
 30
0.0
 10
-11.792564539
 20
11.1937736361
 30
0.0
 10
-11.8172948614
 20
11.2934396441
 30
0.0
 10
-11.8293142868
 20
11.3897032802
 30
0.0
 10
-11.8282373404
 20
11.4799602298
 30
0.0
 10
-11.8140276429
 20
11.5617290411
 30
0.0
 10
-11.795041632
 20
11.6112656917
 30
0.0
 10
-11.783302806
 20
11.6334055187
 30
0.0
  0
LINE
  5
359
100
AcDbEntity
  8
0
100
AcDbLine
 62
253
  6
CONTINUOUS
 10
-8.0458887827
 20
19.8905081626
 11
-8.0455529383
 21
19.5437702959
  0
SPLINE
  5
35A
100
AcDbEntity
  8
ASSI
100
AcDbSpline
 62
7
  6
CONTINUOUS
 70
0
 71
3
 72
9
 73
5
 74
0
 42
0.0000001
 43
0.0000001
 44
0.0000000001
 40
0.0
 40
0.0
 40
0.0
 40
0.0
 40
0.5101380336
 40
1.0
 40
1.0
 40
1.0
 40
1.0
 10
-12.0778754676
 20
10.4767297787
 30
0.0
 10
-12.0726453499
 20
10.4852291187
 30
0.0
 10
-12.0602241534
 20
10.500696738
 30
0.0
 10
-12.0439021557
 20
10.5120281474
 30
0.0
 10
-12.0353309257
 20
10.5163138648
 30
0.0
  0
LINE
  5
35B
100
AcDbEntity
  8
0
100
AcDbLine
 62
253
  6
CONTINUOUS
 10
-14.9723707245
 20
23.007179189
 11
-14.9727124798
 21
23.3539200111
  0
SPLINE
  5
35C
100
AcDbEntity
  8
ASSI
100
AcDbSpline
 62
7
  6
CONTINUOUS
 70
0
 71
3
 72
16
 73
12
 74
0
 42
0.0000001
 43
0.0000001
 44
0.0000000001
 40
0.0
 40
0.0
 40
0.0
 40
0.0
 40
0.1576889405
 40
0.3086294547
 40
0.4502983534
 40
0.5808874591
 40
0.6996093551
 40
0.8070798109
 40
0.9056959037
 40
0.9530891445
 40
1.0
 40
1.0
 40
1.0
 40
1.0
 10
-10.8993817113
 20
9.6359814091
 30
0.0
 10
-10.9062198591
 20
9.6515805258
 30
0.0
 10
-10.9180625179
 20
9.6828200601
 30
0.0
 10
-10.9302353892
 20
9.7300160194
 30
0.0
 10
-10.9361894623
 20
9.7754686272
 30
0.0
 10
-10.9357293274
 20
9.8178608501
 30
0.0
 10
-10.9287998664
 20
9.8559966846
 30
0.0
 10
-10.9154795481
 20
9.8887711553
 30
0.0
 10
-10.89888728
 20
9.9110319849
 30
0.0
 10
-10.8829953544
 20
9.9246132567
 30
0.0
 10
-10.8743039418
 20
9.9300147789
 30
0.0
 10
-10.8698096247
 20
9.9323545172
 30
0.0
  0
SPLINE
  5
35D
100
AcDbEntity
  8
0
100
AcDbSpline
 62
253
  6
CONTINUOUS
 70
0
 71
3
 72
15
 73
11
 74
0
 42
0.0000001
 43
0.0000001
 44
0.0000000001
 40
0.0
 40
0.0
 40
0.0
 40
0.0
 40
0.1103418896
 40
0.2299455539
 40
0.356874074
 40
0.4884727712
 40
0.6216799541
 40
0.7533046779
 40
0.8802928245
 40
1.0
 40
1.0
 40
1.0
 40
1.0
 10
-14.4762675885
 20
22.1538398172
 30
0.0
 10
-14.510162625
 20
22.1707877188
 30
0.0
 10
-14.5773577918
 20
22.2131924157
 30
0.0
 10
-14.6696768531
 20
22.2944194689
 30
0.0
 10
-14.7547313138
 20
22.3930599007
 30
0.0
 10
-14.8293327911
 20
22.5054172028
 30
0.0
 10
-14.8907179159
 20
22.6273034952
 30
0.0
 10
-14.9365828639
 20
22.7541763137
 30
0.0
 10
-14.96520622
 20
22.8812647491
 30
0.0
 10
-14.9723163325
 20
22.9660668238
 30
0.0
 10
-14.9723707245
 20
23.007179189
 30
0.0
  0
SPLINE
  5
35E
100
AcDbEntity
  8
0
100
AcDbSpline
 62
253
  6
CONTINUOUS
 70
0
 71
3
 72
19
 73
15
 74
0
 42
0.0000001
 43
0.0000001
 44
0.0000000001
 40
0.0
 40
0.0
 40
0.0
 40
0.0
 40
0.1486199561
 40
0.2158060325
 40
0.2784147732
 40
0.3916487132
 40
0.444347453
 40
0.4958851259
 40
0.5476210155
 40
0.6008922113
 40
0.7161582846
 40
0.7800515878
 40
0.8486082643
 40
1.0
 40
1.0
 40
1.0
 40
1.0
 10
-18.7422029683
 20
25.8030006461
 30
0.0
 10
-18.7524422692
 20
25.7973969881
 30
0.0
 10
-18.7667799021
 20
25.7881246951
 30
0.0
 10
-18.7830620759
 20
25.7734593299
 30
0.0
 10
-18.7956504804
 20
25.7590815715
 30
0.0
 10
-18.8047255763
 20
25.7431881455
 30
0.0
 10
-18.8089599521
 20
25.7265503463
 30
0.0
 10
-18.8097165264
 20
25.7142481124
 30
0.0
 10
-18.8081030823
 20
25.7019843402
 30
0.0
 10
-18.8027042075
 20
25.6854581715
 30
0.0
 10
-18.7925512037
 20
25.6698861501
 30
0.0
 10
-18.7790017288
 20
25.6558967598
 30
0.0
 10
-18.7617399709
 20
25.6417206178
 30
0.0
 10
-18.7467749001
 20
25.6328571033
 30
0.0
 10
-18.7361401498
 20
25.6275396147
 30
0.0
  0
SPLINE
  5
35F
100
AcDbEntity
  8
0
100
AcDbSpline
 62
253
  6
CONTINUOUS
 70
0
 71
3
 72
15
 73
11
 74
0
 42
0.0000001
 43
0.0000001
 44
0.0000000001
 40
0.0
 40
0.0
 40
0.0
 40
0.0
 40
0.1119536838
 40
0.2340710956
 40
0.3635534603
 40
0.4970561024
 40
0.6309609358
 40
0.7616235347
 40
0.8856178222
 40
1.0
 40
1.0
 40
1.0
 40
1.0
 10
-3.9319931318
 20
18.2254661056
 30
0.0
 10
-3.9200722534
 20
18.2195057937
 30
0.0
 10
-3.8941272283
 20
18.2090455187
 30
0.0
 10
-3.8522027588
 20
18.1979560698
 30
0.0
 10
-3.8067926962
 20
18.1910687994
 30
0.0
 10
-3.7595325505
 20
18.1886390716
 30
0.0
 10
-3.7121171481
 20
18.1907535793
 30
0.0
 10
-3.6662483432
 20
18.197337157
 30
0.0
 10
-3.6235799273
 20
18.2081456319
 30
0.0
 10
-3.5970104189
 20
18.2183998979
 30
0.0
 10
-3.5847180096
 20
18.2242581668
 30
0.0
  0
LINE
  5
360
100
AcDbEntity
  8
0
100
AcDbLine
 62
253
  6
CONTINUOUS
 10
-14.6907676976
 20
23.0068428943
 11
-14.6911093164
 21
23.3534448447
  0
SPLINE
  5
361
100
AcDbEntity
  8
0
100
AcDbSpline
 62
253
  6
CONTINUOUS
 70
0
 71
3
 72
11
 73
7
 74
0
 42
0.0000001
 43
0.0000001
 44
0.0000000001
 40
0.0
 40
0.0
 40
0.0
 40
0.0
 40
0.2461316446
 40
0.5105502335
 40
0.7691932565
 40
1.0
 40
1.0
 40
1.0
 40
1.0
 10
-14.6911093164
 20
23.3534448447
 30
0.0
 10
-14.6911131682
 20
23.3594480493
 30
0.0
 10
-14.689039383
 20
23.3719238761
 30
0.0
 10
-14.6814979797
 20
23.389276732
 30
0.0
 10
-14.6703947436
 20
23.4041339385
 30
0.0
 10
-14.6607878223
 20
23.4116239264
 30
0.0
 10
-14.6557566694
 20
23.4141493887
 30
0.0
  0
SPLINE
  5
362
100
AcDbEntity
  8
0
100
AcDbSpline
 62
253
  6
CONTINUOUS
 70
0
 71
3
 72
13
 73
9
 74
0
 42
0.0000001
 43
0.0000001
 44
0.0000000001
 40
0.0
 40
0.0
 40
0.0
 40
0.0
 40
0.1130626245
 40
0.2273580822
 40
0.3442280194
 40
0.4648538571
 40
0.7206138076
 40
1.0
 40
1.0
 40
1.0
 40
1.0
 10
-8.1738491787
 20
19.4158861293
 30
0.0
 10
-8.1816831222
 20
19.4118176292
 30
0.0
 10
-8.1980449428
 20
19.4047523391
 30
0.0
 10
-8.2240555808
 20
19.3976664986
 30
0.0
 10
-8.2513757658
 20
19.394116341
 30
0.0
 10
-8.2899803009
 20
19.3941181524
 30
0.0
 10
-8.3407695875
 20
19.4035603168
 30
0.0
 10
-8.3797134583
 20
19.4193980588
 30
0.0
 10
-8.3991961504
 20
19.4292083157
 30
0.0
  0
SPLINE
  5
363
100
AcDbEntity
  8
0
100
AcDbSpline
 62
253
  6
CONTINUOUS
 70
0
 71
3
 72
14
 73
10
 74
0
 42
0.0000001
 43
0.0000001
 44
0.0000000001
 40
0.0
 40
0.0
 40
0.0
 40
0.0
 40
0.102440582
 40
0.2076685484
 40
0.3182036724
 40
0.4360398968
 40
0.5625742001
 40
0.6986380804
 40
1.0
 40
1.0
 40
1.0
 40
1.0
 10
-19.0578210401
 20
25.5005468485
 30
0.0
 10
-19.0578152106
 20
25.4922975601
 30
0.0
 10
-19.0561442967
 20
25.4755321777
 30
0.0
 10
-19.04874312
 20
25.4508549218
 30
0.0
 10
-19.0365680573
 20
25.4267662827
 30
0.0
 10
-19.0197928826
 20
25.4035037234
 30
0.0
 10
-18.9986097451
 20
25.3812562323
 30
0.0
 10
-18.9635887809
 20
25.3522217287
 30
0.0
 10
-18.9330783002
 20
25.334104772
 30
0.0
 10
-18.9113725618
 20
25.323251483
 30
0.0
  0
SPLINE
  5
364
100
AcDbEntity
  8
ASSI
100
AcDbSpline
 62
7
  6
CONTINUOUS
 70
0
 71
3
 72
21
 73
17
 74
0
 42
0.0000001
 43
0.0000001
 44
0.0000000001
 40
0.0
 40
0.0
 40
0.0
 40
0.0
 40
0.0616530747
 40
0.1274615032
 40
0.1967348819
 40
0.268583579
 40
0.4157099181
 40
0.5602813783
 40
0.629074852
 40
0.694313308
 40
0.7553571254
 40
0.8118488837
 40
0.8638036302
 40
0.9117079521
 40
0.9565922328
 40
1.0
 40
1.0
 40
1.0
 40
1.0
 10
-10.1966181247
 20
10.3349398617
 30
0.0
 10
-10.2077526856
 20
10.3409311442
 30
0.0
 10
-10.2299143496
 20
10.3549531209
 30
0.0
 10
-10.2612971858
 20
10.3804305231
 30
0.0
 10
-10.2913211933
 20
10.410528922
 30
0.0
 10
-10.328903752
 20
10.4562558376
 30
0.0
 10
-10.3682219524
 20
10.5200817776
 30
0.0
 10
-10.3957023873
 20
10.5891963016
 30
0.0
 10
-10.4088363199
 20
10.6448947905
 30
0.0
 10
-10.4138250127
 20
10.6846769991
 30
0.0
 10
-10.4139975176
 20
10.7222636458
 30
0.0
 10
-10.4093242446
 20
10.7568402251
 30
0.0
 10
-10.3998574561
 20
10.7876525514
 30
0.0
 10
-10.3857072634
 20
10.814002183
 30
0.0
 10
-10.3670994602
 20
10.8351841283
 30
0.0
 10
-10.3518985825
 20
10.8454592391
 30
0.0
 10
-10.3439361243
 20
10.8494404377
 30
0.0
  0
SPLINE
  5
365
100
AcDbEntity
  8
0
100
AcDbSpline
 62
253
  6
CONTINUOUS
 70
0
 71
3
 72
11
 73
7
 74
0
 42
0.0000001
 43
0.0000001
 44
0.0000000001
 40
0.0
 40
0.0
 40
0.0
 40
0.0
 40
0.2796565411
 40
0.5358863845
 40
0.7732721726
 40
1.0
 40
1.0
 40
1.0
 40
1.0
 10
-7.8709606411
 20
20.1949498602
 30
0.0
 10
-7.878855334
 20
20.1988281819
 30
0.0
 10
-7.8946277308
 20
20.2050704393
 30
0.0
 10
-7.9187555552
 20
20.2093898524
 30
0.0
 10
-7.9416090258
 20
20.2080035648
 30
0.0
 10
-7.9556113292
 20
20.2031298602
 30
0.0
 10
-7.9619392126
 20
20.1998418329
 30
0.0
  0
SPLINE
  5
366
100
AcDbEntity
  8
0
100
AcDbSpline
 62
253
  6
CONTINUOUS
 70
0
 71
3
 72
12
 73
8
 74
0
 42
0.0000001
 43
0.0000001
 44
0.0000000001
 40
0.0
 40
0.0
 40
0.0
 40
0.0
 40
0.3021804086
 40
0.5648105928
 40
0.7925873228
 40
0.8977249529
 40
1.0
 40
1.0
 40
1.0
 40
1.0
 10
-8.0458887836
 20
19.8905095943
 30
0.0
 10
-8.0545693952
 20
19.8948499739
 30
0.0
 10
-8.0702593689
 20
19.9041682999
 30
0.0
 10
-8.0893083401
 20
19.9213563822
 30
0.0
 10
-8.0997470082
 20
19.937810399
 30
0.0
 10
-8.1037960897
 20
19.9512656836
 30
0.0
 10
-8.104465338
 20
19.9579444131
 30
0.0
 10
-8.1044674291
 20
19.961229222
 30
0.0
  0
SPLINE
  5
367
100
AcDbEntity
  8
0
100
AcDbSpline
 62
253
  6
CONTINUOUS
 70
0
 71
3
 72
12
 73
8
 74
0
 42
0.0000001
 43
0.0000001
 44
0.0000000001
 40
0.0
 40
0.0
 40
0.0
 40
0.0
 40
0.3020699391
 40
0.564665065
 40
0.7924870478
 40
0.897670783
 40
1.0
 40
1.0
 40
1.0
 40
1.0
 10
-8.045552923
 20
19.5437703036
 30
0.0
 10
-8.0542305635
 20
19.5481092696
 30
0.0
 10
-8.0699164714
 20
19.5574263686
 30
0.0
 10
-8.0889615383
 20
19.5746151088
 30
0.0
 10
-8.0994004193
 20
19.5910711494
 30
0.0
 10
-8.1034543341
 20
19.6045300654
 30
0.0
 10
-8.1041273527
 20
19.6112117177
 30
0.0
 10
-8.1041316111
 20
19.6144983518
 30
0.0
  0
SPLINE
  5
368
100
AcDbEntity
  8
0
100
AcDbSpline
 62
253
  6
CONTINUOUS
 70
0
 71
3
 72
15
 73
11
 74
0
 42
0.0000001
 43
0.0000001
 44
0.0000000001
 40
0.0
 40
0.0
 40
0.0
 40
0.0
 40
0.119546555
 40
0.2463681183
 40
0.3778467689
 40
0.5109548848
 40
0.6425299745
 40
0.7695365912
 40
0.8893376959
 40
1.0
 40
1.0
 40
1.0
 40
1.0
 10
-8.5393814443
 20
19.1853967451
 30
0.0
 10
-8.5394100985
 20
19.1970914382
 30
0.0
 10
-8.5374822195
 20
19.2212217534
 30
0.0
 10
-8.5294905733
 20
19.2574096267
 30
0.0
 10
-8.5166003418
 20
19.2935671332
 30
0.0
 10
-8.4992908006
 20
19.328342995
 30
0.0
 10
-8.4782057511
 20
19.3604494059
 30
0.0
 10
-8.4541191603
 20
19.3886976207
 30
0.0
 10
-8.4279259672
 20
19.4120367455
 30
0.0
 10
-8.408836001
 20
19.424284031
 30
0.0
 10
-8.3991948417
 20
19.4292076572
 30
0.0
  0
SPLINE
  5
369
100
AcDbEntity
  8
0
100
AcDbSpline
 62
253
  6
CONTINUOUS
 70
0
 71
3
 72
15
 73
11
 74
0
 42
0.0000001
 43
0.0000001
 44
0.0000000001
 40
0.0
 40
0.0
 40
0.0
 40
0.0
 40
0.1195465551
 40
0.2463681183
 40
0.377846769
 40
0.5109548849
 40
0.6425299745
 40
0.7695365912
 40
0.8893376959
 40
1.0
 40
1.0
 40
1.0
 40
1.0
 10
-14.4762675885
 20
22.1538398172
 30
0.0
 10
-14.4762962427
 20
22.1655345103
 30
0.0
 10
-14.4743683638
 20
22.1896648256
 30
0.0
 10
-14.4663767176
 20
22.2258526988
 30
0.0
 10
-14.4534864861
 20
22.2620102053
 30
0.0
 10
-14.4361769449
 20
22.2967860671
 30
0.0
 10
-14.4150918953
 20
22.328892478
 30
0.0
 10
-14.3910053045
 20
22.3571406929
 30
0.0
 10
-14.3648121115
 20
22.3804798176
 30
0.0
 10
-14.3457221452
 20
22.3927271032
 30
0.0
 10
-14.336080986
 20
22.3976507293
 30
0.0
  0
SPLINE
  5
36A
100
AcDbEntity
  8
0
100
AcDbSpline
 62
253
  6
CONTINUOUS
 70
0
 71
3
 72
15
 73
11
 74
0
 42
0.0000001
 43
0.0000001
 44
0.0000000001
 40
0.0
 40
0.0
 40
0.0
 40
0.0
 40
0.1123860522
 40
0.2351236788
 40
0.3652603797
 40
0.4992809458
 40
0.6334000617
 40
0.7638257356
 40
0.887022131
 40
1.0
 40
1.0
 40
1.0
 40
1.0
 10
-14.9723707245
 20
23.007179189
 30
0.0
 10
-14.9626610818
 20
23.0023245332
 30
0.0
 10
-14.9415083254
 20
22.9938137364
 30
0.0
 10
-14.9073215985
 20
22.984813281
 30
0.0
 10
-14.870297071
 20
22.9792528774
 30
0.0
 10
-14.8318132754
 20
22.9773460548
 30
0.0
 10
-14.7932973065
 20
22.9791632337
 30
0.0
 10
-14.7561777775
 20
22.9846373989
 30
0.0
 10
-14.7218371825
 20
22.9935583115
 30
0.0
 10
-14.7005545385
 20
23.0020135609
 30
0.0
 10
-14.6907676956
 20
23.0068412872
 30
0.0
  0
SPLINE
  5
36B
100
AcDbEntity
  8
0
100
AcDbSpline
 62
253
  6
CONTINUOUS
 70
0
 71
3
 72
15
 73
11
 74
0
 42
0.0000001
 43
0.0000001
 44
0.0000000001
 40
0.0
 40
0.0
 40
0.0
 40
0.0
 40
0.1123956834
 40
0.2351469087
 40
0.3652971484
 40
0.4993277642
 40
0.6334505065
 40
0.763870889
 40
0.8870510049
 40
1.0
 40
1.0
 40
1.0
 40
1.0
 10
-14.9727124591
 20
23.3539214537
 30
0.0
 10
-14.9630025248
 20
23.349066569
 30
0.0
 10
-14.9418496838
 20
23.3405536337
 30
0.0
 10
-14.9076634596
 20
23.3315451704
 30
0.0
 10
-14.8706393523
 20
23.3259719104
 30
0.0
 10
-14.8321559156
 20
23.3240478822
 30
0.0
 10
-14.7936402837
 20
23.325844158
 30
0.0
 10
-14.7565210886
 20
23.3312944802
 30
0.0
 10
-14.7221808292
 20
23.3401894737
 30
0.0
 10
-14.7008969218
 20
23.3486262641
 30
0.0
 10
-14.6911093164
 20
23.3534448447
 30
0.0
  0
SPLINE
  5
36C
100
AcDbEntity
  8
0
100
AcDbSpline
 62
253
  6
CONTINUOUS
 70
0
 71
3
 72
15
 73
11
 74
0
 42
0.0000001
 43
0.0000001
 44
0.0000000001
 40
0.0
 40
0.0
 40
0.0
 40
0.0
 40
0.1100317686
 40
0.2295119178
 40
0.3564643404
 40
0.488185421
 40
0.6215584114
 40
0.753330849
 40
0.8803814394
 40
1.0
 40
1.0
 40
1.0
 40
1.0
 10
-14.7971726407
 20
23.65805586
 30
0.0
 10
-14.7875640248
 20
23.6531660631
 30
0.0
 10
-14.7685132638
 20
23.6409621588
 30
0.0
 10
-14.7423331098
 20
23.6176739295
 30
0.0
 10
-14.7181762038
 20
23.5894389442
 30
0.0
 10
-14.6969466341
 20
23.5573142503
 30
0.0
 10
-14.6794295153
 20
23.5224975201
 30
0.0
 10
-14.6662810894
 20
23.4862876724
 30
0.0
 10
-14.6579935078
 20
23.4500478569
 30
0.0
 10
-14.6558412028
 20
23.4258696902
 30
0.0
 10
-14.6557566694
 20
23.4141493887
 30
0.0
  0
SPLINE
  5
36D
100
AcDbEntity
  8
0
100
AcDbSpline
 62
7
  6
CONTINUOUS
 70
0
 71
3
 72
13
 73
9
 74
0
 42
0.0000001
 43
0.0000001
 44
0.0000000001
 40
0.0
 40
0.0
 40
0.0
 40
0.0
 40
0.237746694
 40
0.365087992
 40
0.495195759
 40
0.6258306891
 40
0.7548299639
 40
1.0
 40
1.0
 40
1.0
 40
1.0
 10
-13.7268491778
 20
23.8804092563
 30
0.0
 10
-13.7270241727
 20
23.9046139672
 30
0.0
 10
-13.7354169897
 20
23.9419476877
 30
0.0
 10
-13.7578484424
 20
23.9871901744
 30
0.0
 10
-13.7806095419
 20
24.0196889268
 30
0.0
 10
-13.8079438282
 20
24.0486562789
 30
0.0
 10
-13.8482474117
 20
24.0806965281
 30
0.0
 10
-13.8831758657
 20
24.0978575868
 30
0.0
 10
-13.9071532578
 20
24.1047960612
 30
0.0
  0
SPLINE
  5
36E
100
AcDbEntity
  8
0
100
AcDbSpline
 62
253
  6
CONTINUOUS
 70
0
 71
3
 72
11
 73
7
 74
0
 42
0.0000001
 43
0.0000001
 44
0.0000000001
 40
0.0
 40
0.0
 40
0.0
 40
0.0
 40
0.2784868438
 40
0.53448376
 40
0.7723645852
 40
1.0
 40
1.0
 40
1.0
 40
1.0
 10
-18.7422029683
 20
25.8030006461
 30
0.0
 10
-18.7525329017
 20
25.807813356
 30
0.0
 10
-18.7731757654
 20
25.8154639839
 30
0.0
 10
-18.8046560885
 20
25.8203379638
 30
0.0
 10
-18.8343855343
 20
25.817822951
 30
0.0
 10
-18.8525066833
 20
25.8110529372
 30
0.0
 10
-18.8606782548
 20
25.8065811229
 30
0.0
  0
SPLINE
  5
36F
100
AcDbEntity
  8
0
100
AcDbSpline
 62
253
  6
CONTINUOUS
 70
0
 71
3
 72
15
 73
11
 74
0
 42
0.0000001
 43
0.0000001
 44
0.0000000001
 40
0.0
 40
0.0
 40
0.0
 40
0.0
 40
0.1106430306
 40
0.2304140871
 40
0.3573861119
 40
0.4889317595
 40
0.6220257603
 40
0.7535149252
 40
0.8803785591
 40
1.0
 40
1.0
 40
1.0
 40
1.0
 10
-18.7361401498
 20
25.6275396147
 30
0.0
 10
-18.7481738988
 20
25.6213941212
 30
0.0
 10
-18.7720021443
 20
25.6061117039
 30
0.0
 10
-18.804702776
 20
25.5769931871
 30
0.0
 10
-18.8347807149
 20
25.54175156
 30
0.0
 10
-18.8611215029
 20
25.50169451
 30
0.0
 10
-18.882761046
 20
25.4583010982
 30
0.0
 10
-18.8988966309
 20
25.413173772
 30
0.0
 10
-18.9089297781
 20
25.367994554
 30
0.0
 10
-18.9113836334
 20
25.3378608979
 30
0.0
 10
-18.9113741412
 20
25.3232522729
 30
0.0
  0
SPLINE
  5
370
100
AcDbEntity
  8
0
100
AcDbSpline
 62
253
  6
CONTINUOUS
 70
0
 71
3
 72
15
 73
11
 74
0
 42
0.0000001
 43
0.0000001
 44
0.0000000001
 40
0.0
 40
0.0
 40
0.0
 40
0.0
 40
0.1195920532
 40
0.2464193283
 40
0.3778737336
 40
0.5109430024
 40
0.6424811383
 40
0.7694688668
 40
0.8892835394
 40
1.0
 40
1.0
 40
1.0
 40
1.0
 10
-14.9727124799
 20
23.3539200112
 30
0.0
 10
-14.9727219465
 20
23.3685278861
 30
0.0
 10
-14.9702642955
 20
23.3986595139
 30
0.0
 10
-14.9602133135
 20
23.4438318903
 30
0.0
 10
-14.9440489051
 20
23.4889468135
 30
0.0
 10
-14.9223705945
 20
23.532322687
 30
0.0
 10
-14.8959825566
 20
23.572357798
 30
0.0
 10
-14.8658505758
 20
23.6075738251
 30
0.0
 10
-14.8330912024
 20
23.6366639721
 30
0.0
 10
-14.8092240635
 20
23.6519224934
 30
0.0
 10
-14.7971714305
 20
23.6580564759
 30
0.0
  0
SPLINE
  5
371
100
AcDbEntity
  8
0
100
AcDbSpline
 62
253
  6
CONTINUOUS
 70
0
 71
3
 72
15
 73
11
 74
0
 42
0.0000001
 43
0.0000001
 44
0.0000000001
 40
0.0
 40
0.0
 40
0.0
 40
0.0
 40
0.1105685606
 40
0.2302961925
 40
0.3572526271
 40
0.4888060637
 40
0.6219251599
 40
0.7534494349
 40
0.8803499676
 40
1.0
 40
1.0
 40
1.0
 40
1.0
 10
-7.8709594351
 20
20.1949504782
 30
0.0
 10
-7.8829743181
 20
20.1887933564
 30
0.0
 10
-7.90676425
 20
20.1734874545
 30
0.0
 10
-7.9394067421
 20
20.1443403543
 30
0.0
 10
-7.969431319
 20
20.1090727291
 30
0.0
 10
-7.995725378
 20
20.0689930956
 30
0.0
 10
-8.0173265273
 20
20.0255813525
 30
0.0
 10
-8.0334334138
 20
19.9804407101
 30
0.0
 10
-8.0434487057
 20
19.9352538384
 30
0.0
 10
-8.0458982214
 20
19.9051176764
 30
0.0
 10
-8.0458887826
 20
19.8905081625
 30
0.0
  0
SPLINE
  5
372
100
AcDbEntity
  8
0
100
AcDbSpline
 62
253
  6
CONTINUOUS
 70
0
 71
3
 72
15
 73
11
 74
0
 42
0.0000001
 43
0.0000001
 44
0.0000000001
 40
0.0
 40
0.0
 40
0.0
 40
0.0
 40
0.1106430306
 40
0.230414087
 40
0.3573861119
 40
0.4889317596
 40
0.6220257603
 40
0.7535149252
 40
0.8803785591
 40
1.0
 40
1.0
 40
1.0
 40
1.0
 10
-3.9319931318
 20
18.2254661056
 30
0.0
 10
-3.9440268807
 20
18.2193206122
 30
0.0
 10
-3.9678551263
 20
18.2040381948
 30
0.0
 10
-4.000555758
 20
18.174919678
 30
0.0
 10
-4.0306336968
 20
18.1396780509
 30
0.0
 10
-4.0569744849
 20
18.0996210009
 30
0.0
 10
-4.0786140279
 20
18.056227589
 30
0.0
 10
-4.0947496128
 20
18.0111002628
 30
0.0
 10
-4.1047827601
 20
17.9659210448
 30
0.0
 10
-4.1072366153
 20
17.9357873887
 30
0.0
 10
-4.1072271232
 20
17.9211787637
 30
0.0
  0
SPLINE
  5
373
100
AcDbEntity
  8
0
100
AcDbSpline
 62
253
  6
CONTINUOUS
 70
0
 71
3
 72
15
 73
11
 74
0
 42
0.0000001
 43
0.0000001
 44
0.0000000001
 40
0.0
 40
0.0
 40
0.0
 40
0.0
 40
0.1088998117
 40
0.2277140854
 40
0.354424518
 40
0.4862579835
 40
0.6200073077
 40
0.7523120972
 40
0.8799268977
 40
1.0
 40
1.0
 40
1.0
 40
1.0
 10
-3.5847180096
 20
18.2242581668
 30
0.0
 10
-3.5730005665
 20
18.2179709592
 30
0.0
 10
-3.5497877667
 20
18.2023597063
 30
0.0
 10
-3.5179683437
 20
18.1728266479
 30
0.0
 10
-3.4886042717
 20
18.1371510446
 30
0.0
 10
-3.4627947646
 20
18.0966668153
 30
0.0
 10
-3.4414944891
 20
18.0528824178
 30
0.0
 10
-3.4255017598
 20
18.0074321504
 30
0.0
 10
-3.4154148305
 20
17.9620276412
 30
0.0
 10
-3.4127841307
 20
17.9317737785
 30
0.0
 10
-3.4126757715
 20
17.9171121711
 30
0.0
  0
SPLINE
  5
374
100
AcDbEntity
  8
0
100
AcDbSpline
 62
7
  6
CONTINUOUS
 70
0
 71
3
 72
15
 73
11
 74
0
 42
0.0000001
 43
0.0000001
 44
0.0000000001
 40
0.0
 40
0.0
 40
0.0
 40
0.0
 40
0.1188786833
 40
0.2410773754
 40
0.3661295771
 40
0.4932192224
 40
0.6212801618
 40
0.7491420441
 40
0.8756897533
 40
1.0
 40
1.0
 40
1.0
 40
1.0
 10
-13.4226911943
 20
22.9041948398
 30
0.0
 10
-13.4461160468
 20
22.9146873765
 30
0.0
 10
-13.491917532
 20
22.9399848782
 30
0.0
 10
-13.5543875105
 20
22.988933318
 30
0.0
 10
-13.6097562913
 20
23.0482553895
 30
0.0
 10
-13.6562437973
 20
23.1162875982
 30
0.0
 10
-13.6924085463
 20
23.190992171
 30
0.0
 10
-13.7172109423
 20
23.2700745603
 30
0.0
 10
-13.7300815492
 20
23.3511087754
 30
0.0
 10
-13.7306318061
 20
23.4055051719
 30
0.0
 10
-13.7288774121
 20
23.4322879487
 30
0.0
  0
SPLINE
  5
375
100
AcDbEntity
  8
0
100
AcDbSpline
 62
253
  6
CONTINUOUS
 70
0
 71
3
 72
15
 73
11
 74
0
 42
0.0000001
 43
0.0000001
 44
0.0000000001
 40
0.0
 40
0.0
 40
0.0
 40
0.0
 40
0.1104634446
 40
0.2301078952
 40
0.3570181038
 40
0.4885635798
 40
0.6217068756
 40
0.7532803128
 40
0.8802521287
 40
1.0
 40
1.0
 40
1.0
 40
1.0
 10
-14.3360795379
 20
22.3976500099
 30
0.0
 10
-14.3603582497
 20
22.4097040886
 30
0.0
 10
-14.4084881293
 20
22.4398900523
 30
0.0
 10
-14.4746147362
 20
22.4977958496
 30
0.0
 10
-14.5355082346
 20
22.568161805
 30
0.0
 10
-14.588884443
 20
22.6483550541
 30
0.0
 10
-14.6327627199
 20
22.735389831
 30
0.0
 10
-14.6654914142
 20
22.8260240972
 30
0.0
 10
-14.6858370606
 20
22.9168486236
 30
0.0
 10
-14.6907979937
 20
22.97745823
 30
0.0
 10
-14.6907676947
 20
23.0068428958
 30
0.0
  0
SPLINE
  5
376
100
AcDbEntity
  8
0
100
AcDbSpline
 62
253
  6
CONTINUOUS
 70
0
 71
3
 72
15
 73
11
 74
0
 42
0.0000001
 43
0.0000001
 44
0.0000000001
 40
0.0
 40
0.0
 40
0.0
 40
0.0
 40
0.1119961762
 40
0.2341762448
 40
0.3637222285
 40
0.497273052
 40
0.6311964336
 40
0.7618356627
 40
0.8857542355
 40
1.0
 40
1.0
 40
1.0
 40
1.0
 10
-4.1072287019
 20
17.921179553
 30
0.0
 10
-4.0833836138
 20
17.9092574702
 30
0.0
 10
-4.0314927057
 20
17.8883141197
 30
0.0
 10
-3.9476503762
 20
17.8660430041
 30
0.0
 10
-3.8568355487
 20
17.8521176684
 30
0.0
 10
-3.7623193705
 20
17.8470545452
 30
0.0
 10
-3.6674919156
 20
17.8510346095
 30
0.0
 10
-3.5757572242
 20
17.8639163501
 30
0.0
 10
-3.4904231863
 20
17.8852215481
 30
0.0
 10
-3.4372685288
 20
17.9055071592
 30
0.0
 10
-3.412674397
 20
17.9171128196
 30
0.0
  0
SPLINE
  5
377
100
AcDbEntity
  8
0
100
AcDbSpline
 62
253
  6
CONTINUOUS
 70
0
 71
3
 72
15
 73
11
 74
0
 42
0.0000001
 43
0.0000001
 44
0.0000000001
 40
0.0
 40
0.0
 40
0.0
 40
0.0
 40
0.1147456638
 40
0.2389504106
 40
0.3696873249
 40
0.5035534842
 40
0.6369334605
 40
0.7662442199
 40
0.8881828225
 40
1.0
 40
1.0
 40
1.0
 40
1.0
 10
-3.3468055187
 20
10.0712924548
 30
0.0
 10
-3.3713642816
 20
10.0592887703
 30
0.0
 10
-3.4244586223
 20
10.0382007006
 30
0.0
 10
-3.5097951876
 20
10.0157620304
 30
0.0
 10
-3.6015333084
 20
10.001831964
 30
0.0
 10
-3.6963654921
 20
9.9969254612
 30
0.0
 10
-3.790888755
 20
10.001216634
 30
0.0
 10
-3.8817149453
 20
10.0145527059
 30
0.0
 10
-3.9655739734
 20
10.0364394695
 30
0.0
 10
-4.017461156
 20
10.0572613625
 30
0.0
 10
-4.0412942671
 20
10.0691588547
 30
0.0
  0
SPLINE
  5
378
100
AcDbEntity
  8
0
100
AcDbSpline
 62
253
  6
CONTINUOUS
 70
0
 71
3
 72
9
 73
5
 74
0
 42
0.0000001
 43
0.0000001
 44
0.0000000001
 40
0.0
 40
0.0
 40
0.0
 40
0.0
 40
0.5069885049
 40
1.0
 40
1.0
 40
1.0
 40
1.0
 10
-3.3468055187
 20
10.0712924548
 30
0.0
 10
-3.3200746556
 20
8.419120948
 30
0.0
 10
-3.1773316284
 20
5.1610432049
 30
0.0
 10
-2.8423661581
 20
1.9167670105
 30
0.0
 10
-2.6266977019
 20
0.3244726819
 30
0.0
  0
SPLINE
  5
379
100
AcDbEntity
  8
0
100
AcDbSpline
 62
253
  6
CONTINUOUS
 70
0
 71
3
 72
15
 73
11
 74
0
 42
0.0000001
 43
0.0000001
 44
0.0000000001
 40
0.0
 40
0.0
 40
0.0
 40
0.0
 40
0.1192921784
 40
0.2460992968
 40
0.37770638
 40
0.5110149771
 40
0.6427973723
 40
0.7699415044
 40
0.8897050034
 40
1.0
 40
1.0
 40
1.0
 40
1.0
 10
-2.6266977019
 20
0.3244726819
 30
0.0
 10
-2.6507300729
 20
0.30897431
 30
0.0
 10
-2.7028399025
 20
0.2808309175
 30
0.0
 10
-2.7875738946
 20
0.2483396067
 30
0.0
 10
-2.87877835
 20
0.2251353264
 30
0.0
 10
-2.9731667024
 20
0.212061309
 30
0.0
 10
-3.0673595948
 20
0.2095804347
 30
0.0
 10
-3.1579976187
 20
0.2177900048
 30
0.0
 10
-3.2418276266
 20
0.236391839
 30
0.0
 10
-3.2935986993
 20
0.2562363159
 30
0.0
 10
-3.3172992398
 20
0.2679554509
 30
0.0
  0
SPLINE
  5
37A
100
AcDbEntity
  8
0
100
AcDbSpline
 62
253
  6
CONTINUOUS
 70
0
 71
3
 72
14
 73
10
 74
0
 42
0.0000001
 43
0.0000001
 44
0.0000000001
 40
0.0
 40
0.0
 40
0.0
 40
0.0
 40
0.2800729751
 40
0.4111020064
 40
0.5365246677
 40
0.6570447537
 40
0.7736295562
 40
0.8874851937
 40
1.0
 40
1.0
 40
1.0
 40
1.0
 10
-3.3172992459
 20
0.2679554467
 30
0.0
 10
-3.3110067479
 20
0.2207546652
 30
0.0
 10
-3.2959719529
 20
0.1519106777
 30
0.0
 10
-3.2626270887
 20
0.0668461324
 30
0.0
 10
-3.2325507267
 20
0.0100707902
 30
0.0
 10
-3.1970976769
 20
-0.0405550883
 30
0.0
 10
-3.156539892
 20
-0.0845844867
 30
0.0
 10
-3.1112301269
 20
-0.1215931537
 30
0.0
 10
-3.0780344969
 20
-0.1413962916
 30
0.0
 10
-3.0609245426
 20
-0.1499521705
 30
0.0
  0
SPLINE
  5
37B
100
AcDbEntity
  8
0
100
AcDbSpline
 62
253
  6
CONTINUOUS
 70
0
 71
3
 72
18
 73
14
 74
0
 42
0.0000001
 43
0.0000001
 44
0.0000000001
 40
0.0
 40
0.0
 40
0.0
 40
0.0
 40
0.1404328553
 40
0.2700200475
 40
0.3906093325
 40
0.4486688696
 40
0.505879129
 40
0.5628442434
 40
0.6201829386
 40
0.6784911071
 40
0.7383081269
 40
0.8640102759
 40
1.0
 40
1.0
 40
1.0
 40
1.0
 10
-2.6266977019
 20
0.3244726819
 30
0.0
 10
-2.623709221
 20
0.3024092727
 30
0.0
 10
-2.6146097549
 20
0.2603095825
 30
0.0
 10
-2.5900908411
 20
0.2029884085
 30
0.0
 10
-2.5609781022
 20
0.1630768093
 30
0.0
 10
-2.5334467535
 20
0.1376309971
 30
0.0
 10
-2.5110507875
 20
0.1218609006
 30
0.0
 10
-2.4868319158
 20
0.1093145283
 30
0.0
 10
-2.4609816806
 20
0.100085752
 30
0.0
 10
-2.4337028378
 20
0.0942426779
 30
0.0
 10
-2.3950951718
 20
0.0909556138
 30
0.0
 10
-2.3439051083
 20
0.095901969
 30
0.0
 10
-2.3040257461
 20
0.1082959758
 30
0.0
 10
-2.2840366676
 20
0.1163761795
 30
0.0
  0
SPLINE
  5
37C
100
AcDbEntity
  8
0
100
AcDbSpline
 62
253
  6
CONTINUOUS
 70
0
 71
3
 72
14
 73
10
 74
0
 42
0.0000001
 43
0.0000001
 44
0.0000000001
 40
0.0
 40
0.0
 40
0.0
 40
0.0
 40
0.290680336
 40
0.424791307
 40
0.5512793604
 40
0.6707065075
 40
0.7841556848
 40
0.8932354118
 40
1.0
 40
1.0
 40
1.0
 40
1.0
 10
-2.2840366676
 20
0.1163761795
 30
0.0
 10
-2.2854526893
 20
0.0837017991
 30
0.0
 10
-2.2916817435
 20
0.0358642558
 30
0.0
 10
-2.3101269557
 20
-0.0234821303
 30
0.0
 10
-2.3279123391
 20
-0.0625104724
 30
0.0
 10
-2.349802669
 20
-0.0966842147
 30
0.0
 10
-2.3755502043
 20
-0.1255184056
 30
0.0
 10
-2.4048154161
 20
-0.1485537103
 30
0.0
 10
-2.4265117404
 20
-0.1598413067
 30
0.0
 10
-2.4376485049
 20
-0.164343303
 30
0.0
  0
SPLINE
  5
37D
100
AcDbEntity
  8
0
100
AcDbSpline
 62
253
  6
CONTINUOUS
 70
0
 71
3
 72
9
 73
5
 74
0
 42
0.0000001
 43
0.0000001
 44
0.0000000001
 40
0.0
 40
0.0
 40
0.0
 40
0.0
 40
0.4923750401
 40
1.0
 40
1.0
 40
1.0
 40
1.0
 10
-18.1744878515
 20
7.6965497496
 30
0.0
 10
-18.3770685801
 20
9.292825097
 30
0.0
 10
-18.6913396238
 20
12.547725826
 30
0.0
 10
-18.8248419823
 20
15.8147287658
 30
0.0
 10
-18.8498864588
 20
17.4734549505
 30
0.0
  0
SPLINE
  5
37E
100
AcDbEntity
  8
ASSI
100
AcDbSpline
 62
7
  6
CONTINUOUS
 70
0
 71
3
 72
11
 73
7
 74
0
 42
0.0000001
 43
0.0000001
 44
0.0000000001
 40
0.0
 40
0.0
 40
0.0
 40
0.0
 40
0.2676995115
 40
0.5210102468
 40
0.763525141
 40
1.0
 40
1.0
 40
1.0
 40
1.0
 10
-12.1158049284
 20
30.5422317515
 30
0.0
 10
-12.1191902849
 20
30.5342045889
 30
0.0
 10
-12.1268888055
 20
30.5190112417
 30
0.0
 10
-12.141634189
 20
30.4988629833
 30
0.0
 10
-12.1590285596
 20
30.4823760617
 30
0.0
 10
-12.1723046958
 20
30.473980473
 30
0.0
 10
-12.1791878071
 20
30.4705386408
 30
0.0
  0
SPLINE
  5
37F
100
AcDbEntity
  8
ASSI
100
AcDbSpline
 62
7
  6
CONTINUOUS
 70
0
 71
3
 72
11
 73
7
 74
0
 42
0.0000001
 43
0.0000001
 44
0.0000000001
 40
0.0
 40
0.0
 40
0.0
 40
0.0
 40
0.271992626
 40
0.5263273694
 40
0.7670312962
 40
1.0
 40
1.0
 40
1.0
 40
1.0
 10
-10.3781286463
 20
29.6920587161
 30
0.0
 10
-10.3813298495
 20
29.6821959734
 30
0.0
 10
-10.3889628371
 20
29.6635245811
 30
0.0
 10
-10.4047332647
 20
29.6386947394
 30
0.0
 10
-10.4241541054
 20
29.6185859881
 30
0.0
 10
-10.4394176973
 20
29.6085953031
 30
0.0
 10
-10.4473614725
 20
29.6046231434
 30
0.0
  0
SPLINE
  5
380
100
AcDbEntity
  8
ASSI
100
AcDbSpline
 62
7
  6
CONTINUOUS
 70
0
 71
3
 72
10
 73
6
 74
0
 42
0.0000001
 43
0.0000001
 44
0.0000000001
 40
0.0
 40
0.0
 40
0.0
 40
0.0
 40
0.5199923437
 40
0.7632580594
 40
1.0
 40
1.0
 40
1.0
 40
1.0
 10
-10.5699515514
 20
34.0421109582
 30
0.0
 10
-10.5772250872
 20
34.026025972
 30
0.0
 10
-10.5914272216
 20
34.0036381713
 30
0.0
 10
-10.6165626503
 20
33.9806163656
 30
0.0
 10
-10.6304755493
 20
33.9719104181
 30
0.0
 10
-10.6376640923
 20
33.9683160319
 30
0.0
  0
SPLINE
  5
381
100
AcDbEntity
  8
ASSI
100
AcDbSpline
 62
7
  6
CONTINUOUS
 70
0
 71
3
 72
23
 73
19
 74
0
 42
0.0000001
 43
0.0000001
 44
0.0000000001
 40
0.0
 40
0.0
 40
0.0
 40
0.0
 40
0.0509477963
 40
0.1058717462
 40
0.16537171
 40
0.2294054908
 40
0.2974200794
 40
0.3684888523
 40
0.441435519
 40
0.5149444894
 40
0.5876605188
 40
0.6582876478
 40
0.7256866841
 40
0.7889834559
 40
0.8476912467
 40
0.9018486735
 40
0.9521511018
 40
1.0
 40
1.0
 40
1.0
 40
1.0
 10
-9.2935397062
 20
33.2344249433
 30
0.0
 10
-9.2812013636
 20
33.2346857724
 30
0.0
 10
-9.2554185979
 20
33.231819181
 30
0.0
 10
-9.2173376716
 20
33.218566195
 30
0.0
 10
-9.1797185116
 20
33.1968199939
 30
0.0
 10
-9.1436818229
 20
33.1673181345
 30
0.0
 10
-9.1102749058
 20
33.1309983227
 30
0.0
 10
-9.0804998274
 20
33.0889933837
 30
0.0
 10
-9.0552548953
 20
33.0426097123
 30
0.0
 10
-9.0353050145
 20
32.9932870939
 30
0.0
 10
-9.021253614
 20
32.9425510489
 30
0.0
 10
-9.0135258642
 20
32.8919618144
 30
0.0
 10
-9.0123603614
 20
32.8430625729
 30
0.0
 10
-9.0178142833
 20
32.7973300195
 30
0.0
 10
-9.029775755
 20
32.7561378732
 30
0.0
 10
-9.0480067257
 20
32.7207385485
 30
0.0
 10
-9.0720896028
 20
32.6923258032
 30
0.0
 10
-9.0919331367
 20
32.6786075007
 30
0.0
 10
-9.1023000214
 20
32.6734242309
 30
0.0
  0
SPLINE
  5
382
100
AcDbEntity
  8
ASSI
100
AcDbSpline
 62
7
  6
CONTINUOUS
 70
0
 71
3
 72
18
 73
14
 74
0
 42
0.0000001
 43
0.0000001
 44
0.0000000001
 40
0.0
 40
0.0
 40
0.0
 40
0.0
 40
0.1378564134
 40
0.2813625741
 40
0.4249256065
 40
0.5629363503
 40
0.6283951681
 40
0.6908140485
 40
0.8053032289
 40
0.8576287318
 40
0.907027322
 40
0.9541732983
 40
1.0
 40
1.0
 40
1.0
 40
1.0
 10
-9.2282698711
 20
30.9836537697
 30
0.0
 10
-9.2111684112
 20
30.965966559
 30
0.0
 10
-9.1797536037
 20
30.9263866857
 30
0.0
 10
-9.1429906543
 20
30.8597019988
 30
0.0
 10
-9.1173024322
 20
30.7879768547
 30
0.0
 10
-9.1062746674
 20
30.7266754785
 30
0.0
 10
-9.1046160925
 20
30.6791700534
 30
0.0
 10
-9.1075612273
 20
30.6359788483
 30
0.0
 10
-9.117139012
 20
30.5956398542
 30
0.0
 10
-9.1341832656
 20
30.5608649934
 30
0.0
 10
-9.1497093822
 20
30.539134532
 30
0.0
 10
-9.16811399
 20
30.5214028387
 30
0.0
 10
-9.1822229125
 20
30.5124156378
 30
0.0
 10
-9.189537983
 20
30.5087579975
 30
0.0
  0
SPLINE
  5
383
100
AcDbEntity
  8
ASSI
100
AcDbSpline
 62
7
  6
CONTINUOUS
 70
0
 71
3
 72
14
 73
10
 74
0
 42
0.0000001
 43
0.0000001
 44
0.0000000001
 40
0.0
 40
0.0
 40
0.0
 40
0.0
 40
0.2941154868
 40
0.431595247
 40
0.5608317933
 40
0.6813594933
 40
0.7935897229
 40
0.898968593
 40
1.0
 40
1.0
 40
1.0
 40
1.0
 10
-11.6134150356
 20
34.7745568208
 30
0.0
 10
-11.606556847
 20
34.7449093992
 30
0.0
 10
-11.6008695651
 20
34.7000975256
 30
0.0
 10
-11.6043375549
 20
34.6420469815
 30
0.0
 10
-11.6121986404
 20
34.6026084696
 30
0.0
 10
-11.6252246463
 20
34.5673071561
 30
0.0
 10
-11.6431837633
 20
34.537019864
 30
0.0
 10
-11.665708793
 20
34.5125915152
 30
0.0
 10
-11.6836693121
 20
34.5005799508
 30
0.0
 10
-11.6930188348
 20
34.4959051584
 30
0.0
  0
SPLINE
  5
384
100
AcDbEntity
  8
ASSI
100
AcDbSpline
 62
7
  6
CONTINUOUS
 70
0
 71
3
 72
11
 73
7
 74
0
 42
0.0000001
 43
0.0000001
 44
0.0000000001
 40
0.0
 40
0.0
 40
0.0
 40
0.0
 40
0.267603098
 40
0.5211396887
 40
0.7638192052
 40
1.0
 40
1.0
 40
1.0
 40
1.0
 10
-10.7604849739
 20
32.2742594469
 30
0.0
 10
-10.7719553438
 20
32.2484494094
 30
0.0
 10
-10.7977723785
 20
32.1996139655
 30
0.0
 10
-10.8464150512
 20
32.1348668862
 30
0.0
 10
-10.9032013332
 20
32.0818143413
 30
0.0
 10
-10.9462850086
 20
32.0546874598
 30
0.0
 10
-10.968580955
 20
32.0435395141
 30
0.0
  0
SPLINE
  5
385
100
AcDbEntity
  8
ASSI
100
AcDbSpline
 62
7
  6
CONTINUOUS
 70
0
 71
3
 72
11
 73
7
 74
0
 42
0.0000001
 43
0.0000001
 44
0.0000000001
 40
0.0
 40
0.0
 40
0.0
 40
0.0
 40
0.2727916636
 40
0.5325446095
 40
0.7756471923
 40
1.0
 40
1.0
 40
1.0
 40
1.0
 10
-10.3807205054
 20
29.8767934373
 30
0.0
 10
-10.3762497148
 20
29.860378885
 30
0.0
 10
-10.369320891
 20
29.8278048318
 30
0.0
 10
-10.3651686201
 20
29.7794740399
 30
0.0
 10
-10.3675759967
 20
29.7340318478
 30
0.0
 10
-10.3738091351
 20
29.7053669083
 30
0.0
 10
-10.3781286463
 20
29.6920587161
 30
0.0
  0
SPLINE
  5
386
100
AcDbEntity
  8
ASSI
100
AcDbSpline
 62
7
  6
CONTINUOUS
 70
0
 71
3
 72
25
 73
21
 74
0
 42
0.0000001
 43
0.0000001
 44
0.0000000001
 40
0.0
 40
0.0
 40
0.0
 40
0.0
 40
0.0234107143
 40
0.0469470754
 40
0.0708277056
 40
0.0952533975
 40
0.1463282353
 40
0.2012480629
 40
0.2604414111
 40
0.3238358502
 40
0.3909558422
 40
0.4610226834
 40
0.5330451502
 40
0.6059008103
 40
0.6784111189
 40
0.7494139105
 40
0.8178371545
 40
0.882778264
 40
0.9435934189
 40
1.0
 40
1.0
 40
1.0
 40
1.0
 10
-11.7631632909
 20
33.7705128376
 30
0.0
 10
-11.7481108677
 20
33.7780390068
 30
0.0
 10
-11.7169132471
 20
33.7911992601
 30
0.0
 10
-11.667715304
 20
33.8048157981
 30
0.0
 10
-11.6164638153
 20
33.8122167861
 30
0.0
 10
-11.5448873025
 20
33.813765397
 30
0.0
 10
-11.4514369827
 20
33.7991929532
 30
0.0
 10
-11.3395647665
 20
33.7574387289
 30
0.0
 10
-11.2290007654
 20
33.6926313962
 30
0.0
 10
-11.1225869579
 20
33.6066404508
 30
0.0
 10
-11.0230193709
 20
33.5018326736
 30
0.0
 10
-10.9328680374
 20
33.3810491918
 30
0.0
 10
-10.85446583
 20
33.2475563188
 30
0.0
 10
-10.7898426364
 20
33.1049581671
 30
0.0
 10
-10.7406655826
 20
32.957094909
 30
0.0
 10
-10.7082002222
 20
32.8079291845
 30
0.0
 10
-10.6932820867
 20
32.6614400738
 30
0.0
 10
-10.696326036
 20
32.5214797642
 30
0.0
 10
-10.7172943301
 20
32.3917719211
 30
0.0
 10
-10.7440175294
 20
32.3113136454
 30
0.0
 10
-10.7604849739
 20
32.2742594469
 30
0.0
  0
SPLINE
  5
387
100
AcDbEntity
  8
ASSI
100
AcDbSpline
 62
7
  6
CONTINUOUS
 70
0
 71
3
 72
18
 73
14
 74
0
 42
0.0000001
 43
0.0000001
 44
0.0000000001
 40
0.0
 40
0.0
 40
0.0
 40
0.0
 40
0.0480952625
 40
0.0966205446
 40
0.1463958765
 40
0.1981204235
 40
0.2523210028
 40
0.3093319339
 40
0.4320125955
 40
0.5656537678
 40
0.707555306
 40
0.8538198838
 40
1.0
 40
1.0
 40
1.0
 40
1.0
 10
-12.2084631276
 20
36.2473846875
 30
0.0
 10
-12.2016473283
 20
36.2507925796
 30
0.0
 10
-12.1873119187
 20
36.2564329464
 30
0.0
 10
-12.1644480341
 20
36.2609714721
 30
0.0
 10
-12.1405717098
 20
36.2615323183
 30
0.0
 10
-12.1160400186
 20
36.2581246045
 30
0.0
 10
-12.0911887566
 20
36.2508205219
 30
0.0
 10
-12.0572625333
 20
36.2356810405
 30
0.0
 10
-12.0160341502
 20
36.2072292486
 30
0.0
 10
-11.9719034854
 20
36.1616831238
 30
0.0
 10
-11.9339907763
 20
36.1062845773
 30
0.0
 10
-11.9042217741
 20
36.0439646243
 30
0.0
 10
-11.8906405304
 20
35.9994429056
 30
0.0
 10
-11.8856311781
 20
35.9768300983
 30
0.0
  0
SPLINE
  5
388
100
AcDbEntity
  8
ASSI
100
AcDbSpline
 62
7
  6
CONTINUOUS
 70
0
 71
3
 72
14
 73
10
 74
0
 42
0.0000001
 43
0.0000001
 44
0.0000000001
 40
0.0
 40
0.0
 40
0.0
 40
0.0
 40
0.1070519846
 40
0.2158905873
 40
0.328943627
 40
0.4481053892
 40
0.5745954252
 40
0.7089524583
 40
1.0
 40
1.0
 40
1.0
 40
1.0
 10
-13.5297270765
 20
35.31153314
 30
0.0
 10
-13.5219525632
 20
35.3154203788
 30
0.0
 10
-13.5053989983
 20
35.321633605
 30
0.0
 10
-13.4788174631
 20
35.3256607921
 30
0.0
 10
-13.4509893387
 20
35.3243749489
 30
0.0
 10
-13.4224642489
 20
35.3178504266
 30
0.0
 10
-13.3937429908
 20
35.3062547814
 30
0.0
 10
-13.35485433
 20
35.2837732936
 30
0.0
 10
-13.3284632629
 20
35.260875846
 30
0.0
 10
-13.3121829159
 20
35.2437465477
 30
0.0
  0
SPLINE
  5
389
100
AcDbEntity
  8
ASSI
100
AcDbSpline
 62
7
  6
CONTINUOUS
 70
0
 71
3
 72
9
 73
5
 74
0
 42
0.0000001
 43
0.0000001
 44
0.0000000001
 40
0.0
 40
0.0
 40
0.0
 40
0.0
 40
0.4936987032
 40
1.0
 40
1.0
 40
1.0
 40
1.0
 10
-13.6259502008
 20
33.1423743232
 30
0.0
 10
-13.617677849
 20
33.1465104284
 30
0.0
 10
-13.5998843309
 20
33.1529536151
 30
0.0
 10
-13.5811143997
 20
33.1551842796
 30
0.0
 10
-13.5716307544
 20
33.1553342126
 30
0.0
  0
SPLINE
  5
38A
100
AcDbEntity
  8
ASSI
100
AcDbSpline
 62
7
  6
CONTINUOUS
 70
0
 71
3
 72
22
 73
18
 74
0
 42
0.0000001
 43
0.0000001
 44
0.0000000001
 40
0.0
 40
0.0
 40
0.0
 40
0.0
 40
0.0462199655
 40
0.094045919
 40
0.1449956825
 40
0.2000290407
 40
0.2595173915
 40
0.3233229176
 40
0.3909066993
 40
0.4614347772
 40
0.5338682228
 40
0.6070468121
 40
0.6797633492
 40
0.7508369771
 40
0.8191888545
 40
0.8839202105
 40
1.0
 40
1.0
 40
1.0
 40
1.0
 10
-12.078900991
 20
31.8533861824
 30
0.0
 10
-12.0695599613
 20
31.8580568488
 30
0.0
 10
-12.0491849656
 20
31.865048183
 30
0.0
 10
-12.0161901569
 20
31.8674102471
 30
0.0
 10
-11.9816115056
 20
31.8618272693
 30
0.0
 10
-11.9464154053
 20
31.8486060281
 30
0.0
 10
-11.9114802097
 20
31.8281993753
 30
0.0
 10
-11.877685485
 20
31.8011887172
 30
0.0
 10
-11.8458960726
 20
31.7683066666
 30
0.0
 10
-11.8169404519
 20
31.7304357094
 30
0.0
 10
-11.7915806962
 20
31.6885917348
 30
0.0
 10
-11.7704876734
 20
31.6438994469
 30
0.0
 10
-11.754220548
 20
31.5975548603
 30
0.0
 10
-11.7432085102
 20
31.5508125155
 30
0.0
 10
-11.737750625
 20
31.5048697734
 30
0.0
 10
-11.7380456678
 20
31.4485391505
 30
0.0
 10
-11.7465960611
 20
31.4076085896
 30
0.0
 10
-11.7569855924
 20
31.383525167
 30
0.0
  0
SPLINE
  5
38B
100
AcDbEntity
  8
ASSI
100
AcDbSpline
 62
7
  6
CONTINUOUS
 70
0
 71
3
 72
18
 73
14
 74
0
 42
0.0000001
 43
0.0000001
 44
0.0000000001
 40
0.0
 40
0.0
 40
0.0
 40
0.0
 40
0.0465207685
 40
0.0938087226
 40
0.1427215727
 40
0.1939543405
 40
0.2479977928
 40
0.3051315236
 40
0.4286639443
 40
0.5635411204
 40
0.7066422694
 40
0.8537131022
 40
1.0
 40
1.0
 40
1.0
 40
1.0
 10
-11.0235681976
 20
31.3257215035
 30
0.0
 10
-11.0170063031
 20
31.3290024279
 30
0.0
 10
-11.0031241293
 20
31.3343983848
 30
0.0
 10
-10.9808941827
 20
31.3385971353
 30
0.0
 10
-10.9575349746
 20
31.3388881367
 30
0.0
 10
-10.9333919436
 20
31.3352934378
 30
0.0
 10
-10.908787937
 20
31.3278919598
 30
0.0
 10
-10.8749348662
 20
31.3127142118
 30
0.0
 10
-10.8334703555
 20
31.2844708574
 30
0.0
 10
-10.788465505
 20
31.2395179789
 30
0.0
 10
-10.7490863914
 20
31.1849386399
 30
0.0
 10
-10.717358902
 20
31.1236018947
 30
0.0
 10
-10.7021676982
 20
31.0796925858
 30
0.0
 10
-10.6963146485
 20
31.0573777147
 30
0.0
  0
SPLINE
  5
38C
100
AcDbEntity
  8
ASSI
100
AcDbSpline
 62
7
  6
CONTINUOUS
 70
0
 71
3
 72
14
 73
10
 74
0
 42
0.0000001
 43
0.0000001
 44
0.0000000001
 40
0.0
 40
0.0
 40
0.0
 40
0.0
 40
0.1058197156
 40
0.2138052376
 40
0.3264242606
 40
0.4455527473
 40
0.572353081
 40
0.7072886486
 40
1.0
 40
1.0
 40
1.0
 40
1.0
 10
-10.2464768611
 20
31.88197974
 30
0.0
 10
-10.23882064
 20
31.8858078264
 30
0.0
 10
-10.2224716725
 20
31.8919061112
 30
0.0
 10
-10.1961735319
 20
31.8957738055
 30
0.0
 10
-10.1685641342
 20
31.8943680728
 30
0.0
 10
-10.1401843084
 20
31.8877707877
 30
0.0
 10
-10.1115268291
 20
31.8761515976
 30
0.0
 10
-10.0725868944
 20
31.8536896661
 30
0.0
 10
-10.0460598681
 20
31.8308942829
 30
0.0
 10
-10.0296297525
 20
31.813844622
 30
0.0
  0
SPLINE
  5
38D
100
AcDbEntity
  8
ASSI
100
AcDbSpline
 62
7
  6
CONTINUOUS
 70
0
 71
3
 72
9
 73
5
 74
0
 42
0.0000001
 43
0.0000001
 44
0.0000000001
 40
0.0
 40
0.0
 40
0.0
 40
0.0
 40
0.4947270297
 40
1.0
 40
1.0
 40
1.0
 40
1.0
 10
-10.1878443582
 20
33.2038079563
 30
0.0
 10
-10.1794432159
 20
33.2080084553
 30
0.0
 10
-10.1614302273
 20
33.2145767954
 30
0.0
 10
-10.1424195121
 20
33.2169232161
 30
0.0
 10
-10.1328284981
 20
33.2171160523
 30
0.0
  0
SPLINE
  5
38E
100
AcDbEntity
  8
ASSI
100
AcDbSpline
 62
7
  6
CONTINUOUS
 70
0
 71
3
 72
22
 73
18
 74
0
 42
0.0000001
 43
0.0000001
 44
0.0000000001
 40
0.0
 40
0.0
 40
0.0
 40
0.0
 40
0.047479674
 40
0.0960589695
 40
0.1472271788
 40
0.2020121718
 40
0.2609001702
 40
0.3238771749
 40
0.3905211341
 40
0.4601024513
 40
0.5316772032
 40
0.60417104
 40
0.6764544376
 40
0.7474143361
 40
0.8160248696
 40
0.8814185749
 40
1.0
 40
1.0
 40
1.0
 40
1.0
 10
-10.4766368103
 20
35.3814691459
 30
0.0
 10
-10.4669421388
 20
35.3863166044
 30
0.0
 10
-10.4459786608
 20
35.3936535215
 30
0.0
 10
-10.412163352
 20
35.396461849
 30
0.0
 10
-10.3769992393
 20
35.3911376407
 30
0.0
 10
-10.3415064348
 20
35.3779685519
 30
0.0
 10
-10.3065973428
 20
35.357419419
 30
0.0
 10
-10.2731610412
 20
35.3300946261
 30
0.0
 10
-10.242054811
 20
35.2967526182
 30
0.0
 10
-10.2140865052
 20
35.2583020463
 30
0.0
 10
-10.1899865556
 20
35.2157843521
 30
0.0
 10
-10.1703841289
 20
35.1703474989
 30
0.0
 10
-10.1557895514
 20
35.1232077644
 30
0.0
 10
-10.146578509
 20
35.0756346444
 30
0.0
 10
-10.1429980008
 20
35.0288437889
 30
0.0
 10
-10.1457390377
 20
34.9712037389
 30
0.0
 10
-10.1562448998
 20
34.9295744912
 30
0.0
 10
-10.16777427
 20
34.9050817252
 30
0.0
  0
SPLINE
  5
38F
100
AcDbEntity
  8
ASSI
100
AcDbSpline
 62
7
  6
CONTINUOUS
 70
0
 71
3
 72
23
 73
19
 74
0
 42
0.0000001
 43
0.0000001
 44
0.0000000001
 40
0.0
 40
0.0
 40
0.0
 40
0.0
 40
0.0508771338
 40
0.1059528589
 40
0.1657737256
 40
0.230237021
 40
0.2987324755
 40
0.3702818113
 40
0.4436620774
 40
0.5175150513
 40
0.5904483645
 40
0.661134183
 40
0.7284113913
 40
0.7913978904
 40
0.8496195242
 40
0.9031560246
 40
0.9527793867
 40
1.0
 40
1.0
 40
1.0
 40
1.0
 10
-12.739784338
 20
33.1689219152
 30
0.0
 10
-12.7275296842
 20
33.1691285058
 30
0.0
 10
-12.7018846838
 20
33.1661593614
 30
0.0
 10
-12.663956848
 20
33.1528688674
 30
0.0
 10
-12.6263365766
 20
33.1311811736
 30
0.0
 10
-12.5901394157
 20
33.1018211137
 30
0.0
 10
-12.5564168826
 20
33.065713087
 30
0.0
 10
-12.5261824744
 20
33.0239765397
 30
0.0
 10
-12.5003517378
 20
32.9779051322
 30
0.0
 10
-12.4797115935
 20
32.9289270624
 30
0.0
 10
-12.4648909926
 20
32.8785580145
 30
0.0
 10
-12.4563423619
 20
32.8283496765
 30
0.0
 10
-12.4543317313
 20
32.7798371143
 30
0.0
 10
-12.4589430281
 20
32.7344873887
 30
0.0
 10
-12.4700912654
 20
32.6936619722
 30
0.0
 10
-12.4875683262
 20
32.6585997642
 30
0.0
 10
-12.5109897909
 20
32.6304894469
 30
0.0
 10
-12.530440731
 20
32.6169730781
 30
0.0
 10
-12.5406153514
 20
32.6118858549
 30
0.0
  0
SPLINE
  5
390
100
AcDbEntity
  8
ASSI
100
AcDbSpline
 62
7
  6
CONTINUOUS
 70
0
 71
3
 72
18
 73
14
 74
0
 42
0.0000001
 43
0.0000001
 44
0.0000000001
 40
0.0
 40
0.0
 40
0.0
 40
0.0
 40
0.1366989928
 40
0.2791650927
 40
0.4219833137
 40
0.5596905873
 40
0.6251952101
 40
0.6877980505
 40
0.8030479421
 40
0.8559081127
 40
0.9058972527
 40
0.9536371551
 40
1.0
 40
1.0
 40
1.0
 40
1.0
 10
-12.518265412
 20
34.4098345091
 30
0.0
 10
-12.5013094765
 20
34.3920543244
 30
0.0
 10
-12.4702722693
 20
34.3522098197
 30
0.0
 10
-12.4343414676
 20
34.2850504505
 30
0.0
 10
-12.4096912003
 20
34.2127797696
 30
0.0
 10
-12.3996669446
 20
34.1510380649
 30
0.0
 10
-12.3988294361
 20
34.1031881934
 30
0.0
 10
-12.4025613096
 20
34.0595698022
 30
0.0
 10
-12.4129441906
 20
34.0188618313
 30
0.0
 10
-12.4307170842
 20
33.9837696147
 30
0.0
 10
-12.446748812
 20
33.9617946985
 30
0.0
 10
-12.4656099598
 20
33.9438378771
 30
0.0
 10
-12.4800026169
 20
33.9347041662
 30
0.0
 10
-12.4874557482
 20
33.9309776209
 30
0.0
  0
SPLINE
  5
391
100
AcDbEntity
  8
ASSI
100
AcDbSpline
 62
7
  6
CONTINUOUS
 70
0
 71
3
 72
18
 73
14
 74
0
 42
0.0000001
 43
0.0000001
 44
0.0000000001
 40
0.0
 40
0.0
 40
0.0
 40
0.0
 40
0.0459705475
 40
0.092910164
 40
0.1416613464
 40
0.1928878878
 40
0.2470410124
 40
0.3043598273
 40
0.4283587979
 40
0.563639727
 40
0.7069533959
 40
0.8539906772
 40
1.0
 40
1.0
 40
1.0
 40
1.0
 10
-10.4497468486
 20
29.6034642958
 30
0.0
 10
-10.4562578807
 20
29.6003927454
 30
0.0
 10
-10.4700333311
 20
29.5954096926
 30
0.0
 10
-10.4920320728
 20
29.5917774596
 30
0.0
 10
-10.5151448174
 20
29.5919713411
 30
0.0
 10
-10.5390399243
 20
29.5959602648
 30
0.0
 10
-10.5634071945
 20
29.6036613563
 30
0.0
 10
-10.5969733883
 20
29.6191225716
 30
0.0
 10
-10.6381316832
 20
29.6474467005
 30
0.0
 10
-10.6829698983
 20
29.6921577743
 30
0.0
 10
-10.7223923216
 20
29.7462247095
 30
0.0
 10
-10.7543799796
 20
29.8068561692
 30
0.0
 10
-10.7698980132
 20
29.8502503518
 30
0.0
 10
-10.7759451377
 20
29.8723018559
 30
0.0
  0
SPLINE
  5
392
100
AcDbEntity
  8
0
100
AcDbSpline
 62
253
  6
CONTINUOUS
 70
0
 71
3
 72
12
 73
8
 74
0
 42
0.0000001
 43
0.0000001
 44
0.0000000001
 40
0.0
 40
0.0
 40
0.0
 40
0.0
 40
0.1075242471
 40
0.217248558
 40
0.4500708776
 40
0.7099230109
 40
1.0
 40
1.0
 40
1.0
 40
1.0
 10
-14.7092820247
 20
23.9072342506
 30
0.0
 10
-14.7051615795
 20
23.9092151842
 30
0.0
 10
-14.6971883284
 20
23.9140004002
 30
0.0
 10
-14.6827470095
 20
23.9266915923
 30
0.0
 10
-14.668259422
 20
23.9483783649
 30
0.0
 10
-14.6580125151
 20
23.98036701
 30
0.0
 10
-14.6558450005
 20
24.0038271955
 30
0.0
 10
-14.6557566694
 20
24.0161608389
 30
0.0
  0
SPLINE
  5
393
100
AcDbEntity
  8
0
100
AcDbSpline
 62
253
  6
CONTINUOUS
 70
0
 71
3
 72
21
 73
17
 74
0
 42
0.0000001
 43
0.0000001
 44
0.0000000001
 40
0.0
 40
0.0
 40
0.0
 40
0.0
 40
0.1484730172
 40
0.217758832
 40
0.2836982452
 40
0.3464676766
 40
0.4064021007
 40
0.4640019722
 40
0.51992483
 40
0.5749551103
 40
0.6299503516
 40
0.6857712931
 40
0.7432113609
 40
0.8029409782
 40
0.865475076
 40
1.0
 40
1.0
 40
1.0
 40
1.0
 10
-14.9723707245
 20
24.3899547127
 30
0.0
 10
-14.9723204731
 20
24.4279639573
 30
0.0
 10
-14.9679930242
 20
24.4839279129
 30
0.0
 10
-14.9519189638
 20
24.5548550582
 30
0.0
 10
-14.9355493631
 20
24.6029393206
 30
0.0
 10
-14.9147318959
 20
24.6466470039
 30
0.0
 10
-14.8896388471
 20
24.6855539244
 30
0.0
 10
-14.8604878346
 20
24.7192589595
 30
0.0
 10
-14.8275473758
 20
24.7473974339
 30
0.0
 10
-14.7911457872
 20
24.7696511586
 30
0.0
 10
-14.7516704466
 20
24.7857695723
 30
0.0
 10
-14.7095512991
 20
24.7955863869
 30
0.0
 10
-14.6652410502
 20
24.7990237774
 30
0.0
 10
-14.6191851593
 20
24.7960787279
 30
0.0
 10
-14.5545344587
 20
24.7834318034
 30
0.0
 10
-14.5070704471
 20
24.7648667969
 30
0.0
 10
-14.4762675885
 20
24.7494655785
 30
0.0
  0
LINE
  5
394
100
AcDbEntity
  8
0
100
AcDbLine
 62
253
  6
CONTINUOUS
 10
-14.9727124798
 20
24.0428780462
 11
-14.9723707245
 21
24.3899547127
  0
SPLINE
  5
395
100
AcDbEntity
  8
0
100
AcDbSpline
 62
253
  6
CONTINUOUS
 70
0
 71
3
 72
14
 73
10
 74
0
 42
0.0000001
 43
0.0000001
 44
0.0000000001
 40
0.0
 40
0.0
 40
0.0
 40
0.0
 40
0.1077899548
 40
0.2177058422
 40
0.331670248
 40
0.4512255399
 40
0.5774564842
 40
0.7109866505
 40
1.0
 40
1.0
 40
1.0
 40
1.0
 10
-14.9076337254
 20
23.9074331453
 30
0.0
 10
-14.9127119481
 20
23.9099728025
 30
0.0
 10
-14.9225223803
 20
23.9160524525
 30
0.0
 10
-14.9355632517
 20
23.9278041295
 30
0.0
 10
-14.9468358626
 20
23.9420550618
 30
0.0
 10
-14.9562062449
 20
23.9586027775
 30
0.0
 10
-14.9635798669
 20
23.9772365072
 30
0.0
 10
-14.9708337108
 20
24.0052746099
 30
0.0
 10
-14.9727223393
 20
24.0276541805
 30
0.0
 10
-14.9727124799
 20
24.0428780463
 30
0.0
  0
SPLINE
  5
396
100
AcDbEntity
  8
ASSI
100
AcDbSpline
 62
7
  6
CONTINUOUS
 70
0
 71
3
 72
9
 73
5
 74
0
 42
0.0000001
 43
0.0000001
 44
0.0000000001
 40
0.0
 40
0.0
 40
0.0
 40
0.0
 40
0.4973386531
 40
1.0
 40
1.0
 40
1.0
 40
1.0
 10
-9.189537983
 20
30.5087579975
 30
0.0
 10
-9.1950180438
 20
30.5060178884
 30
0.0
 10
-9.2064806436
 20
30.5013543279
 30
0.0
 10
-9.2185202424
 20
30.4985055937
 30
0.0
 10
-9.2246345599
 20
30.4975246746
 30
0.0
  0
SPLINE
  5
397
100
AcDbEntity
  8
ASSI
100
AcDbSpline
 62
7
  6
CONTINUOUS
 70
0
 71
3
 72
13
 73
9
 74
0
 42
0.0000001
 43
0.0000001
 44
0.0000000001
 40
0.0
 40
0.0
 40
0.0
 40
0.0
 40
0.1054034758
 40
0.2150942513
 40
0.3302147165
 40
0.4515077371
 40
0.7133313777
 40
1.0
 40
1.0
 40
1.0
 40
1.0
 10
-9.2246345599
 20
30.4975246746
 30
0.0
 10
-9.2317574757
 20
30.4963819463
 30
0.0
 10
-9.2465166242
 20
30.4952929288
 30
0.0
 10
-9.2691175388
 20
30.4971923984
 30
0.0
 10
-9.2922701547
 20
30.5025460423
 30
0.0
 10
-9.3242986448
 20
30.5144825343
 30
0.0
 10
-9.364070155
 20
30.5380174537
 30
0.0
 10
-9.3923729876
 20
30.5629878127
 30
0.0
 10
-9.4060381399
 20
30.5770665877
 30
0.0
  0
SPLINE
  5
398
100
AcDbEntity
  8
ASSI
100
AcDbSpline
 62
7
  6
CONTINUOUS
 70
0
 71
3
 72
9
 73
5
 74
0
 42
0.0000001
 43
0.0000001
 44
0.0000000001
 40
0.0
 40
0.0
 40
0.0
 40
0.0
 40
0.4947842386
 40
1.0
 40
1.0
 40
1.0
 40
1.0
 10
-9.1023000214
 20
32.6734242309
 30
0.0
 10
-9.1107001139
 20
32.6692243243
 30
0.0
 10
-9.128708787
 20
32.662657453
 30
0.0
 10
-9.1477153224
 20
32.6603137952
 30
0.0
 10
-9.157302944
 20
32.6601226043
 30
0.0
  0
SPLINE
  5
399
100
AcDbEntity
  8
ASSI
100
AcDbSpline
 62
7
  6
CONTINUOUS
 70
0
 71
3
 72
22
 73
18
 74
0
 42
0.0000001
 43
0.0000001
 44
0.0000000001
 40
0.0
 40
0.0
 40
0.0
 40
0.0
 40
0.0469915935
 40
0.0953030336
 40
0.146435993
 40
0.2013705723
 40
0.2605282898
 40
0.3238223988
 40
0.3907833059
 40
0.4606411988
 40
0.5324243464
 40
0.6050423052
 40
0.7480168478
 40
0.8164654418
 40
0.8816509047
 40
0.9429590141
 40
1.0
 40
1.0
 40
1.0
 40
1.0
 10
-10.6391034713
 20
33.9676076548
 30
0.0
 10
-10.6487104643
 20
33.9629549047
 30
0.0
 10
-10.6695052352
 20
33.9560015662
 30
0.0
 10
-10.7030032439
 20
33.9536551836
 30
0.0
 10
-10.7378838543
 20
33.9593884906
 30
0.0
 10
-10.7731575912
 20
33.9728255899
 30
0.0
 10
-10.8079321627
 20
33.9935204965
 30
0.0
 10
-10.8413425041
 20
34.0208508834
 30
0.0
 10
-10.8725269909
 20
34.0540871629
 30
0.0
 10
-10.9006711245
 20
34.0923348234
 30
0.0
 10
-10.9250489179
 20
34.1345795608
 30
0.0
 10
-10.9514724454
 20
34.1943625513
 30
0.0
 10
-10.9681363319
 20
34.2573438926
 30
0.0
 10
-10.9735450331
 20
34.3200629949
 30
0.0
 10
-10.9718643988
 20
34.3644470469
 30
0.0
 10
-10.9645516925
 20
34.4056294724
 30
0.0
 10
-10.9555861958
 20
34.4311620725
 30
0.0
 10
-10.9500518713
 20
34.442877832
 30
0.0
  0
SPLINE
  5
39A
100
AcDbEntity
  8
ASSI
100
AcDbSpline
 62
7
  6
CONTINUOUS
 70
0
 71
3
 72
9
 73
5
 74
0
 42
0.0000001
 43
0.0000001
 44
0.0000000001
 40
0.0
 40
0.0
 40
0.0
 40
0.0
 40
0.2543034826
 40
1.0
 40
1.0
 40
1.0
 40
1.0
 10
-12.1436146107
 20
31.7810276967
 30
0.0
 10
-12.1429013322
 20
31.7826737196
 30
0.0
 10
-12.1400050533
 20
31.7891062027
 30
0.0
 10
-12.1367376475
 20
31.7953729733
 30
0.0
 10
-12.1340868456
 20
31.7999165821
 30
0.0
  0
SPLINE
  5
39B
100
AcDbEntity
  8
ASSI
100
AcDbSpline
 62
7
  6
CONTINUOUS
 70
0
 71
3
 72
9
 73
5
 74
0
 42
0.0000001
 43
0.0000001
 44
0.0000000001
 40
0.0
 40
0.0
 40
0.0
 40
0.0
 40
0.2538895301
 40
1.0
 40
1.0
 40
1.0
 40
1.0
 10
-12.1340868456
 20
31.7999165821
 30
0.0
 10
-12.1332557898
 20
31.8013410538
 30
0.0
 10
-12.1298991137
 20
31.8069024255
 30
0.0
 10
-12.1262043828
 20
31.8122610453
 30
0.0
 10
-12.123259618
 20
31.8161102713
 30
0.0
  0
SPLINE
  5
39C
100
AcDbEntity
  8
ASSI
100
AcDbSpline
 62
7
  6
CONTINUOUS
 70
0
 71
3
 72
9
 73
5
 74
0
 42
0.0000001
 43
0.0000001
 44
0.0000000001
 40
0.0
 40
0.0
 40
0.0
 40
0.0
 40
0.2532796671
 40
1.0
 40
1.0
 40
1.0
 40
1.0
 10
-12.1227341636
 20
31.8167929563
 30
0.0
 10
-12.1217554083
 20
31.8180568823
 30
0.0
 10
-12.1178097613
 20
31.8229834464
 30
0.0
 10
-12.113535462
 20
31.8276481336
 30
0.0
 10
-12.1101704546
 20
31.8309479296
 30
0.0
  0
SPLINE
  5
39D
100
AcDbEntity
  8
ASSI
100
AcDbSpline
 62
7
  6
CONTINUOUS
 70
0
 71
3
 72
10
 73
6
 74
0
 42
0.0000001
 43
0.0000001
 44
0.0000000001
 40
0.0
 40
0.0
 40
0.0
 40
0.0
 40
0.2710966974
 40
0.5298024634
 40
1.0
 40
1.0
 40
1.0
 40
1.0
 10
-12.513051673
 20
30.7595202295
 30
0.0
 10
-12.5161852197
 20
30.7736868453
 30
0.0
 10
-12.5209120002
 20
30.8017260753
 30
0.0
 10
-12.5238913793
 20
30.8551891813
 30
0.0
 10
-12.5190353912
 20
30.8945949947
 30
0.0
 10
-12.5117375095
 20
30.9186784237
 30
0.0
  0
SPLINE
  5
39E
100
AcDbEntity
  8
ASSI
100
AcDbSpline
 62
7
  6
CONTINUOUS
 70
0
 71
3
 72
9
 73
5
 74
0
 42
0.0000001
 43
0.0000001
 44
0.0000000001
 40
0.0
 40
0.0
 40
0.0
 40
0.0
 40
0.254443788
 40
1.0
 40
1.0
 40
1.0
 40
1.0
 10
-12.5117375095
 20
30.9186784237
 30
0.0
 10
-12.5112140555
 20
30.920405852
 30
0.0
 10
-12.509071169
 20
30.9271685028
 30
0.0
 10
-12.5065807812
 20
30.9338221447
 30
0.0
 10
-12.5045180698
 20
30.9386922197
 30
0.0
  0
SPLINE
  5
39F
100
AcDbEntity
  8
0
100
AcDbSpline
 62
253
  6
CONTINUOUS
 70
0
 71
3
 72
14
 73
10
 74
0
 42
0.0000001
 43
0.0000001
 44
0.0000000001
 40
0.0
 40
0.0
 40
0.0
 40
0.0
 40
0.1058927227
 40
0.214204778
 40
0.327081719
 40
0.446206229
 40
0.5727188072
 40
0.7072288564
 40
1.0
 40
1.0
 40
1.0
 40
1.0
 10
-3.4794580073
 20
18.4660249637
 30
0.0
 10
-3.4743282146
 20
18.468364303
 30
0.0
 10
-3.4643830721
 20
18.4741117972
 30
0.0
 10
-3.4511310572
 20
18.4855513802
 30
0.0
 10
-3.4396366871
 20
18.4996689184
 30
0.0
 10
-3.430040219
 20
18.5162508693
 30
0.0
 10
-3.4224397041
 20
18.5350755657
 30
0.0
 10
-3.4148666005
 20
18.5636299126
 30
0.0
 10
-3.4127901854
 20
18.5864883987
 30
0.0
 10
-3.4126757715
 20
18.6020759233
 30
0.0
  0
SPLINE
  5
3A0
100
AcDbEntity
  8
0
100
AcDbSpline
 62
253
  6
CONTINUOUS
 70
0
 71
3
 72
14
 73
10
 74
0
 42
0.0000001
 43
0.0000001
 44
0.0000000001
 40
0.0
 40
0.0
 40
0.0
 40
0.0
 40
0.1076871322
 40
0.2175253918
 40
0.3314430534
 40
0.4509848065
 40
0.5772347839
 40
0.7108138012
 40
1.0
 40
1.0
 40
1.0
 40
1.0
 10
-4.0422586162
 20
18.4747456712
 30
0.0
 10
-4.0473286148
 20
18.4772810365
 30
0.0
 10
-4.0571236608
 20
18.4833528983
 30
0.0
 10
-4.0701423986
 20
18.4950936186
 30
0.0
 10
-4.0813956003
 20
18.5093349345
 30
0.0
 10
-4.0907496666
 20
18.5258744928
 30
0.0
 10
-4.0981104081
 20
18.5445016518
 30
0.0
 10
-4.105352133
 20
18.5725355349
 30
0.0
 10
-4.1072370079
 20
18.5949113275
 30
0.0
 10
-4.1072271232
 20
18.6101339349
 30
0.0
  0
SPLINE
  5
3A1
100
AcDbEntity
  8
0
100
AcDbSpline
 62
253
  6
CONTINUOUS
 70
0
 71
3
 72
14
 73
10
 74
0
 42
0.0000001
 43
0.0000001
 44
0.0000000001
 40
0.0
 40
0.0
 40
0.0
 40
0.0
 40
0.1076871985
 40
0.2175254132
 40
0.3314429755
 40
0.4509846273
 40
0.5772345424
 40
0.7108135634
 40
1.0
 40
1.0
 40
1.0
 40
1.0
 10
-18.8464045152
 20
25.8768186207
 30
0.0
 10
-18.8514745908
 20
25.8793539399
 30
0.0
 10
-18.8612697926
 20
25.8854257279
 30
0.0
 10
-18.8742887538
 20
25.8971664042
 30
0.0
 10
-18.8855421532
 20
25.9114077326
 30
0.0
 10
-18.8948963865
 20
25.9279473548
 30
0.0
 10
-18.9022572606
 20
25.9465746238
 30
0.0
 10
-18.9094991189
 20
25.9746087195
 30
0.0
 10
-18.911384026
 20
25.9969847041
 30
0.0
 10
-18.9113741412
 20
26.0122074441
 30
0.0
  0
SPLINE
  5
3A2
100
AcDbEntity
  8
ASSI
100
AcDbSpline
 62
7
  6
CONTINUOUS
 70
0
 71
3
 72
11
 73
7
 74
0
 42
0.0000001
 43
0.0000001
 44
0.0000000001
 40
0.0
 40
0.0
 40
0.0
 40
0.0
 40
0.266625788
 40
0.5202116769
 40
0.7634408718
 40
1.0
 40
1.0
 40
1.0
 40
1.0
 10
-10.545771386
 20
35.3069002057
 30
0.0
 10
-10.541841423
 20
35.3152161085
 30
0.0
 10
-10.5330717381
 20
35.3309568779
 30
0.0
 10
-10.5168256106
 20
35.3518267373
 30
0.0
 10
-10.4980654184
 20
35.3689851654
 30
0.0
 10
-10.4839357971
 20
35.3778195602
 30
0.0
 10
-10.4766368103
 20
35.3814691459
 30
0.0
  0
SPLINE
  5
3A3
100
AcDbEntity
  8
0
100
AcDbSpline
 62
253
  6
CONTINUOUS
 70
0
 71
3
 72
15
 73
11
 74
0
 42
0.0000001
 43
0.0000001
 44
0.0000000001
 40
0.0
 40
0.0
 40
0.0
 40
0.0
 40
0.1007342446
 40
0.2045380774
 40
0.3141116193
 40
0.4315533454
 40
0.5582965397
 40
0.6951599158
 40
0.8424358527
 40
1.0
 40
1.0
 40
1.0
 40
1.0
 10
-18.9963416837
 20
34.1038819075
 30
0.0
 10
-18.9964618577
 20
34.0957971714
 30
0.0
 10
-18.9950080772
 20
34.0793102856
 30
0.0
 10
-18.9878224572
 20
34.0549907085
 30
0.0
 10
-18.9757637593
 20
34.0311861276
 30
0.0
 10
-18.9590130364
 20
34.0081311041
 30
0.0
 10
-18.9377684609
 20
33.9860147366
 30
0.0
 10
-18.9122476015
 20
33.9650228509
 30
0.0
 10
-18.8827002917
 20
33.94533796
 30
0.0
 10
-18.8612021825
 20
33.9335861482
 30
0.0
 10
-18.8498864587
 20
33.9279376224
 30
0.0
  0
SPLINE
  5
3A4
100
AcDbEntity
  8
0
100
AcDbSpline
 62
253
  6
CONTINUOUS
 70
0
 71
3
 72
15
 73
11
 74
0
 42
0.0000001
 43
0.0000001
 44
0.0000000001
 40
0.0
 40
0.0
 40
0.0
 40
0.0
 40
0.0897739116
 40
0.184445223
 40
0.2880303719
 40
0.403287272
 40
0.5317950534
 40
0.6742021021
 40
0.8304569368
 40
1.0
 40
1.0
 40
1.0
 40
1.0
 10
-18.3217959516
 20
44.5945819002
 30
0.0
 10
-18.3225740771
 20
44.587613065
 30
0.0
 10
-18.3222465302
 20
44.5730176999
 30
0.0
 10
-18.3160970485
 20
44.5511745049
 30
0.0
 10
-18.3045426983
 20
44.5294096499
 30
0.0
 10
-18.2878171808
 20
44.5079122821
 30
0.0
 10
-18.2661322619
 20
44.4868352974
 30
0.0
 10
-18.239715939
 20
44.4663600999
 30
0.0
 10
-18.2088410873
 20
44.446682322
 30
0.0
 10
-18.1863660142
 20
44.434692887
 30
0.0
 10
-18.1744878455
 20
44.4288378465
 30
0.0
  0
LINE
  5
3A5
100
AcDbEntity
  8
0
100
AcDbLine
 62
253
  6
CONTINUOUS
 10
-14.6911093164
 20
24.0421244333
 11
-14.6907676978
 21
24.3890619315
  0
SPLINE
  5
3A6
100
AcDbEntity
  8
0
100
AcDbSpline
 62
253
  6
CONTINUOUS
 70
0
 71
3
 72
15
 73
11
 74
0
 42
0.0000001
 43
0.0000001
 44
0.0000000001
 40
0.0
 40
0.0
 40
0.0
 40
0.0
 40
0.1345518867
 40
0.2568320808
 40
0.3702377663
 40
0.4804409095
 40
0.5940723672
 40
0.716740213
 40
0.8517543429
 40
1.0
 40
1.0
 40
1.0
 40
1.0
 10
-14.6557566694
 20
24.0161608389
 30
0.0
 10
-14.657966317
 20
24.0150985898
 30
0.0
 10
-14.6623875053
 20
24.0134464495
 30
0.0
 10
-14.6691527141
 20
24.0125973521
 30
0.0
 10
-14.675474206
 20
24.0135974711
 30
0.0
 10
-14.6810307271
 20
24.0164648728
 30
0.0
 10
-14.685519576
 20
24.0210408989
 30
0.0
 10
-14.6887715389
 20
24.0270577493
 30
0.0
 10
-14.6907199552
 20
24.034246691
 30
0.0
 10
-14.6911110485
 20
24.039423198
 30
0.0
 10
-14.6911093164
 20
24.0421244333
 30
0.0
  0
SPLINE
  5
3A7
100
AcDbEntity
  8
0
100
AcDbSpline
 62
253
  6
CONTINUOUS
 70
0
 71
3
 72
13
 73
9
 74
0
 42
0.0000001
 43
0.0000001
 44
0.0000000001
 40
0.0
 40
0.0
 40
0.0
 40
0.0
 40
0.1114372883
 40
0.2244503611
 40
0.3404999892
 40
0.460840152
 40
0.7176620812
 40
1.0
 40
1.0
 40
1.0
 40
1.0
 10
-17.7634442299
 20
45.5065166324
 30
0.0
 10
-17.7555151591
 20
45.5112954774
 30
0.0
 10
-17.7387866926
 20
45.5197205589
 30
0.0
 10
-17.7118161928
 20
45.5285661745
 30
0.0
 10
-17.6831308433
 20
45.5335975253
 30
0.0
 10
-17.6420816185
 20
45.5352152378
 30
0.0
 10
-17.5873983345
 20
45.5269623736
 30
0.0
 10
-17.54512778
 20
45.5113230783
 30
0.0
 10
-17.5238524584
 20
45.5014473551
 30
0.0
  0
SPLINE
  5
3A8
100
AcDbEntity
  8
0
100
AcDbSpline
 62
253
  6
CONTINUOUS
 70
0
 71
3
 72
15
 73
11
 74
0
 42
0.0000001
 43
0.0000001
 44
0.0000000001
 40
0.0
 40
0.0
 40
0.0
 40
0.0
 40
0.1124148258
 40
0.2351930642
 40
0.365370192
 40
0.4994207627
 40
0.6335507018
 40
0.7639605711
 40
0.8871083529
 40
1.0
 40
1.0
 40
1.0
 40
1.0
 10
-14.9727124807
 20
24.0428766135
 30
0.0
 10
-14.9630019654
 20
24.0380212732
 30
0.0
 10
-14.9418489554
 20
24.0295040866
 30
0.0
 10
-14.907663733
 20
24.0204797124
 30
0.0
 10
-14.8706404724
 20
24.0148809114
 30
0.0
 10
-14.8321577706
 20
24.012922703
 30
0.0
 10
-14.7936428398
 20
24.0146774539
 30
0.0
 10
-14.7565243484
 20
24.0200804109
 30
0.0
 10
-14.7221848029
 20
24.0289239141
 30
0.0
 10
-14.7008984205
 20
24.0373240264
 30
0.0
 10
-14.6911093164
 20
24.0421244333
 30
0.0
  0
SPLINE
  5
3A9
100
AcDbEntity
  8
0
100
AcDbSpline
 62
253
  6
CONTINUOUS
 70
0
 71
3
 72
15
 73
11
 74
0
 42
0.0000001
 43
0.0000001
 44
0.0000000001
 40
0.0
 40
0.0
 40
0.0
 40
0.0
 40
0.112424457
 40
0.2352162871
 40
0.3654069457
 40
0.4994675609
 40
0.6336011265
 40
0.7640057103
 40
0.8871372216
 40
1.0
 40
1.0
 40
1.0
 40
1.0
 10
-14.9723707091
 20
24.3899547203
 30
0.0
 10
-14.9626599038
 20
24.3850991492
 30
0.0
 10
-14.9415068147
 20
24.3765798176
 30
0.0
 10
-14.9073221074
 20
24.3675474234
 30
0.0
 10
-14.8702992867
 20
24.3619357512
 30
0.0
 10
-14.8318169713
 20
24.3599603201
 30
0.0
 10
-14.7933024122
 20
24.3616941491
 30
0.0
 10
-14.756184296
 20
24.3670732431
 30
0.0
 10
-14.7218451333
 20
24.3758908066
 30
0.0
 10
-14.7005575211
 20
24.384272438
 30
0.0
 10
-14.6907676701
 20
24.3890636876
 30
0.0
  0
SPLINE
  5
3AA
100
AcDbEntity
  8
0
100
AcDbSpline
 62
253
  6
CONTINUOUS
 70
0
 71
3
 72
12
 73
8
 74
0
 42
0.0000001
 43
0.0000001
 44
0.0000000001
 40
0.0
 40
0.0
 40
0.0
 40
0.0
 40
0.2896306973
 40
0.5493120099
 40
0.7823182111
 40
0.8922405058
 40
1.0
 40
1.0
 40
1.0
 40
1.0
 10
-14.4762675885
 20
24.7494655785
 30
0.0
 10
-14.4762974546
 20
24.7372464253
 30
0.0
 10
-14.4743739114
 20
24.7139755715
 30
0.0
 10
-14.4645299203
 20
24.6821547094
 30
0.0
 10
-14.450393692
 20
24.6604750109
 30
0.0
 10
-14.4362132572
 20
24.6476787731
 30
0.0
 10
-14.4283579887
 20
24.6428057864
 30
0.0
 10
-14.4242917813
 20
24.6407724761
 30
0.0
  0
SPLINE
  5
3AB
100
AcDbEntity
  8
0
100
AcDbSpline
 62
253
  6
CONTINUOUS
 70
0
 71
3
 72
12
 73
8
 74
0
 42
0.0000001
 43
0.0000001
 44
0.0000000001
 40
0.0
 40
0.0
 40
0.0
 40
0.0
 40
0.2896313042
 40
0.549312463
 40
0.7823181431
 40
0.8922403351
 40
1.0
 40
1.0
 40
1.0
 40
1.0
 10
-8.5393814443
 20
21.7810225064
 30
0.0
 10
-8.5394113109
 20
21.7688030929
 30
0.0
 10
-8.5374876877
 20
21.745531768
 30
0.0
 10
-8.5276432625
 20
21.7137103535
 30
0.0
 10
-8.5135063985
 20
21.6920304792
 30
0.0
 10
-8.4993253741
 20
21.6792343671
 30
0.0
 10
-8.4914697997
 20
21.6743615253
 30
0.0
 10
-8.4874034411
 20
21.672328306
 30
0.0
  0
SPLINE
  5
3AC
100
AcDbEntity
  8
0
100
AcDbSpline
 62
253
  6
CONTINUOUS
 70
0
 71
3
 72
12
 73
8
 74
0
 42
0.0000001
 43
0.0000001
 44
0.0000000001
 40
0.0
 40
0.0
 40
0.0
 40
0.0
 40
0.3025105303
 40
0.5652460253
 40
0.7928878773
 40
0.8978874802
 40
1.0
 40
1.0
 40
1.0
 40
1.0
 10
-8.0455529383
 20
20.9265458196
 30
0.0
 10
-8.0542422536
 20
20.9308903288
 30
0.0
 10
-8.0699440912
 20
20.9402120945
 30
0.0
 10
-8.0890045178
 20
20.9573976738
 30
0.0
 10
-8.099442697
 20
20.9738450777
 30
0.0
 10
-8.1034776591
 20
20.9872890896
 30
0.0
 10
-8.104135858
 20
20.9939588869
 30
0.0
 10
-8.1041315932
 20
20.997238146
 30
0.0
  0
SPLINE
  5
3AD
100
AcDbEntity
  8
0
100
AcDbSpline
 62
253
  6
CONTINUOUS
 70
0
 71
3
 72
12
 73
8
 74
0
 42
0.0000001
 43
0.0000001
 44
0.0000000001
 40
0.0
 40
0.0
 40
0.0
 40
0.0
 40
0.3023966112
 40
0.56509744
 40
0.792787167
 40
0.8978336898
 40
1.0
 40
1.0
 40
1.0
 40
1.0
 10
-8.045888762
 20
20.5794647757
 30
0.0
 10
-8.0545744805
 20
20.583807561
 30
0.0
 10
-8.0702712444
 20
20.5931274079
 30
0.0
 10
-8.0893269467
 20
20.610312152
 30
0.0
 10
-8.0997656284
 20
20.6267600361
 30
0.0
 10
-8.1038064295
 20
20.6402065724
 30
0.0
 10
-8.1044691158
 20
20.6468788213
 30
0.0
 10
-8.1044674154
 20
20.6501596988
 30
0.0
  0
SPLINE
  5
3AE
100
AcDbEntity
  8
0
100
AcDbSpline
 62
253
  6
CONTINUOUS
 70
0
 71
3
 72
14
 73
10
 74
0
 42
0.0000001
 43
0.0000001
 44
0.0000000001
 40
0.0
 40
0.0
 40
0.0
 40
0.0
 40
0.2889890529
 40
0.4226076631
 40
0.548968025
 40
0.6686486605
 40
0.7826720237
 40
0.8925064062
 40
1.0
 40
1.0
 40
1.0
 40
1.0
 10
-8.0458887826
 20
20.5794661976
 30
0.0
 10
-8.0458984809
 20
20.5644452988
 30
0.0
 10
-8.0440662016
 20
20.5423635694
 30
0.0
 10
-8.0370367594
 20
20.5146559448
 30
0.0
 10
-8.0298881411
 20
20.4962025774
 30
0.0
 10
-8.0208009251
 20
20.4797695026
 30
0.0
 10
-8.0098640628
 20
20.4655590687
 30
0.0
 10
-7.9972030928
 20
20.453766025
 30
0.0
 10
-7.9876582028
 20
20.4475933028
 30
0.0
 10
-7.9827124527
 20
20.4449939205
 30
0.0
  0
SPLINE
  5
3AF
100
AcDbEntity
  8
0
100
AcDbSpline
 62
253
  6
CONTINUOUS
 70
0
 71
3
 72
14
 73
10
 74
0
 42
0.0000001
 43
0.0000001
 44
0.0000000001
 40
0.0
 40
0.0
 40
0.0
 40
0.0
 40
0.2890032679
 40
0.4224491531
 40
0.5485703234
 40
0.6680275081
 40
0.781955798
 40
0.8919543424
 40
1.0
 40
1.0
 40
1.0
 40
1.0
 10
-14.6907676946
 20
24.389061933
 30
0.0
 10
-14.6907993848
 20
24.419764882
 30
0.0
 10
-14.6869557168
 20
24.4649001729
 30
0.0
 10
-14.6721345352
 20
24.5213799453
 30
0.0
 10
-14.657066856
 20
24.5588535488
 30
0.0
 10
-14.6379189156
 20
24.5920602839
 30
0.0
 10
-14.6148893477
 20
24.6205659108
 30
0.0
 10
-14.5882606511
 20
24.643954609
 30
0.0
 10
-14.5682616466
 20
24.6559417847
 30
0.0
 10
-14.5579174579
 20
24.6609170806
 30
0.0
  0
SPLINE
  5
3B0
100
AcDbEntity
  8
0
100
AcDbSpline
 62
253
  6
CONTINUOUS
 70
0
 71
3
 72
14
 73
10
 74
0
 42
0.0000001
 43
0.0000001
 44
0.0000000001
 40
0.0
 40
0.0
 40
0.0
 40
0.0
 40
0.3025167443
 40
0.4389035918
 40
0.5655612618
 40
0.6833047522
 40
0.7935269911
 40
0.8982380699
 40
1.0
 40
1.0
 40
1.0
 40
1.0
 10
-18.9113725618
 20
26.0122066551
 30
0.0
 10
-18.9330832245
 20
26.023061663
 30
0.0
 10
-18.9635988746
 20
26.04114405
 30
0.0
 10
-18.9986538114
 20
26.0700805753
 30
0.0
 10
-19.0198415934
 20
26.0922088195
 30
0.0
 10
-19.0366156402
 20
26.1153163172
 30
0.0
 10
-19.0487837969
 20
26.1392169551
 30
0.0
 10
-19.0561708885
 20
26.163676619
 30
0.0
 10
-19.057826238
 20
26.1802883155
 30
0.0
 10
-19.0578210467
 20
26.1884534121
 30
0.0
  0
SPLINE
  5
3B1
100
AcDbEntity
  8
0
100
AcDbSpline
 62
253
  6
CONTINUOUS
 70
0
 71
3
 72
15
 73
11
 74
0
 42
0.0000001
 43
0.0000001
 44
0.0000000001
 40
0.0
 40
0.0
 40
0.0
 40
0.0
 40
0.1241149317
 40
0.2531143469
 40
0.384733784
 40
0.5165443191
 40
0.6461056695
 40
0.7711190636
 40
0.889588426
 40
1.0
 40
1.0
 40
1.0
 40
1.0
 10
-18.1744878515
 20
44.4288378446
 30
0.0
 10
-18.1684313027
 20
44.4820472193
 30
0.0
 10
-18.1492757188
 20
44.5898667811
 30
0.0
 10
-18.1022864919
 20
44.7493901098
 30
0.0
 10
-18.0376725221
 20
44.9062312816
 30
0.0
 10
-17.9572882423
 20
45.0558713723
 30
0.0
 10
-17.8634356546
 20
45.1940376181
 30
0.0
 10
-17.7587721359
 20
45.316792663
 30
0.0
 10
-17.6462954671
 20
45.4206178946
 30
0.0
 10
-17.5650073509
 20
45.4774500993
 30
0.0
 10
-17.5238524584
 20
45.5014473551
 30
0.0
  0
SPLINE
  5
3B2
100
AcDbEntity
  8
0
100
AcDbSpline
 62
253
  6
CONTINUOUS
 70
0
 71
3
 72
15
 73
11
 74
0
 42
0.0000001
 43
0.0000001
 44
0.0000000001
 40
0.0
 40
0.0
 40
0.0
 40
0.0
 40
0.1134189628
 40
0.2368692385
 40
0.3673531968
 40
0.5013761999
 40
0.6352115851
 40
0.7651447124
 40
0.8877180538
 40
1.0
 40
1.0
 40
1.0
 40
1.0
 10
-3.3468055187
 20
26.509320644
 30
0.0
 10
-3.3714485911
 20
26.4983855
 30
0.0
 10
-3.4246821869
 20
26.4794499686
 30
0.0
 10
-3.5099796436
 20
26.4600390808
 30
0.0
 10
-3.6016789927
 20
26.448903199
 30
0.0
 10
-3.6964722668
 20
26.4464589518
 30
0.0
 10
-3.7909544391
 20
26.4527938341
 30
0.0
 10
-3.8817330689
 20
26.4676801503
 30
0.0
 10
-3.9655357672
 20
26.4905655481
 30
0.0
 10
-4.0174298541
 20
26.5116896299
 30
0.0
 10
-4.0412942672
 20
26.5236415266
 30
0.0
  0
SPLINE
  5
3B3
100
AcDbEntity
  8
0
100
AcDbSpline
 62
253
  6
CONTINUOUS
 70
0
 71
3
 72
15
 73
11
 74
0
 42
0.0000001
 43
0.0000001
 44
0.0000000001
 40
0.0
 40
0.0
 40
0.0
 40
0.0
 40
0.1139174468
 40
0.23765228
 40
0.368233234
 40
0.5021996139
 40
0.6358657859
 40
0.7655655808
 40
0.8878984138
 40
1.0
 40
1.0
 40
1.0
 40
1.0
 10
-3.412674397
 20
18.6020765564
 30
0.0
 10
-3.4372898596
 20
18.590738079
 30
0.0
 10
-3.4904794759
 20
18.5709893461
 30
0.0
 10
-3.5758032727
 20
18.5504347325
 30
0.0
 10
-3.6675278796
 20
18.5382407588
 30
0.0
 10
-3.7623452522
 20
18.5348614022
 30
0.0
 10
-3.8568508107
 20
18.5404170373
 30
0.0
 10
-3.9476533911
 20
18.5547085616
 30
0.0
 10
-4.0314812666
 20
18.577205728
 30
0.0
 10
-4.0833750696
 20
18.5982075537
 30
0.0
 10
-4.1072287019
 20
18.6101347252
 30
0.0
  0
SPLINE
  5
3B4
100
AcDbEntity
  8
0
100
AcDbSpline
 62
253
  6
CONTINUOUS
 70
0
 71
3
 72
15
 73
11
 74
0
 42
0.0000001
 43
0.0000001
 44
0.0000000001
 40
0.0
 40
0.0
 40
0.0
 40
0.0
 40
0.1089522157
 40
0.2298885266
 40
0.3595373138
 40
0.4940819619
 40
0.6294239531
 40
0.7614202722
 40
0.8861172901
 40
1.0
 40
1.0
 40
1.0
 40
1.0
 10
-2.6266977019
 20
36.9276518197
 30
0.0
 10
-2.6513847854
 20
36.9205513356
 30
0.0
 10
-2.7045696615
 20
36.9093074024
 30
0.0
 10
-2.7890011143
 20
36.9005676171
 30
0.0
 10
-2.8799063781
 20
36.8992863487
 30
0.0
 10
-2.9739937085
 20
36.9055325193
 30
0.0
 10
-3.0678668385
 20
36.9190872235
 30
0.0
 10
-3.1581329684
 20
36.9394583245
 30
0.0
 10
-3.2415216523
 20
36.965889928
 30
0.0
 10
-3.293351793
 20
36.9881001123
 30
0.0
 10
-3.3172992458
 20
37.0002435418
 30
0.0
  0
SPLINE
  5
3B5
100
AcDbEntity
  8
0
100
AcDbSpline
 62
253
  6
CONTINUOUS
 70
0
 71
3
 72
15
 73
11
 74
0
 42
0.0000001
 43
0.0000001
 44
0.0000000001
 40
0.0
 40
0.0
 40
0.0
 40
0.0
 40
0.1185433252
 40
0.2452800679
 40
0.3772941907
 40
0.5112413594
 40
0.6436287271
 40
0.7710828201
 40
0.8906276938
 40
1.0
 40
1.0
 40
1.0
 40
1.0
 10
-2.2840366676
 20
37.4552849061
 30
0.0
 10
-2.2853396538
 20
37.4841359626
 30
0.0
 10
-2.2927758967
 20
37.5436682574
 30
0.0
 10
-2.3158926146
 20
37.6328484028
 30
0.0
 10
-2.3505569181
 20
37.722242622
 30
0.0
 10
-2.3954746536
 20
37.8084887993
 30
0.0
 10
-2.4489647143
 20
37.8883706945
 30
0.0
 10
-2.5090445582
 20
37.9589141772
 30
0.0
 10
-2.573461862
 20
38.017486383
 30
0.0
 10
-2.6200776129
 20
38.0486590557
 30
0.0
 10
-2.6435394024
 20
38.0612908271
 30
0.0
  0
SPLINE
  5
3B6
100
AcDbEntity
  8
0
100
AcDbSpline
 62
253
  6
CONTINUOUS
 70
0
 71
3
 72
15
 73
11
 74
0
 42
0.0000001
 43
0.0000001
 44
0.0000000001
 40
0.0
 40
0.0
 40
0.0
 40
0.0
 40
0.1117716511
 40
0.2310745281
 40
0.3564357403
 40
0.4859267145
 40
0.6173362536
 40
0.7483283637
 40
0.8765933667
 40
1.0
 40
1.0
 40
1.0
 40
1.0
 10
-2.6435394024
 20
38.0612908271
 30
0.0
 10
-2.6860296948
 20
38.0380941017
 30
0.0
 10
-2.7700230814
 20
37.9828782222
 30
0.0
 10
-2.886571489
 20
37.8810485191
 30
0.0
 10
-2.9950218784
 20
37.7601313753
 30
0.0
 10
-3.0922679347
 20
37.623597164
 30
0.0
 10
-3.1755571932
 20
37.4753389914
 30
0.0
 10
-3.242505976
 20
37.3195874302
 30
0.0
 10
-3.2911923484
 20
37.1608288814
 30
0.0
 10
-3.3110300368
 20
37.0533237167
 30
0.0
 10
-3.3172992459
 20
37.0002435417
 30
0.0
  0
SPLINE
  5
3B7
100
AcDbEntity
  8
0
100
AcDbSpline
 62
253
  6
CONTINUOUS
 70
0
 71
3
 72
15
 73
11
 74
0
 42
0.0000001
 43
0.0000001
 44
0.0000000001
 40
0.0
 40
0.0
 40
0.0
 40
0.0
 40
0.1124395087
 40
0.2321484515
 40
0.3576757108
 40
0.4871281772
 40
0.6183395223
 40
0.7490256679
 40
0.8769349157
 40
1.0
 40
1.0
 40
1.0
 40
1.0
 10
-2.2840366676
 20
37.4552849061
 30
0.0
 10
-2.3056104865
 20
37.4438877992
 30
0.0
 10
-2.3482729321
 20
37.4166885942
 30
0.0
 10
-2.4075563778
 20
37.3662852705
 30
0.0
 10
-2.462724873
 20
37.3062975936
 30
0.0
 10
-2.5121982151
 20
37.2384456121
 30
0.0
 10
-2.5545752313
 20
37.1646626187
 30
0.0
 10
-2.5886415504
 20
37.0870525797
 30
0.0
 10
-2.6134167785
 20
37.0078514735
 30
0.0
 10
-2.6235091397
 20
36.9541657752
 30
0.0
 10
-2.6266977019
 20
36.9276518197
 30
0.0
  0
SPLINE
  5
3B8
100
AcDbEntity
  8
ASSI
100
AcDbSpline
 62
7
  6
CONTINUOUS
 70
0
 71
3
 72
25
 73
21
 74
0
 42
0.0000001
 43
0.0000001
 44
0.0000000001
 40
0.0
 40
0.0
 40
0.0
 40
0.0
 40
0.0230396909
 40
0.0462629572
 40
0.069880793
 40
0.0940838564
 40
0.1447946741
 40
0.1993773766
 40
0.2581972653
 40
0.3211539142
 40
0.3877790175
 40
0.4573315034
 40
0.5288816912
 40
0.6013854547
 40
0.6737514653
 40
0.7449045297
 40
0.8138477514
 40
0.879726312
 40
0.9418960527
 40
1.0
 40
1.0
 40
1.0
 40
1.0
 10
-10.9783750441
 20
32.0388153165
 30
0.0
 10
-10.9929604527
 20
32.0320340979
 30
0.0
 10
-11.0231454789
 20
32.0202612235
 30
0.0
 10
-11.0705807213
 20
32.0083589425
 30
0.0
 10
-11.1199271853
 20
32.0022570123
 30
0.0
 10
-11.1888501669
 20
32.0018809572
 30
0.0
 10
-11.2787636061
 20
32.0167654397
 30
0.0
 10
-11.3866351811
 20
32.0570668116
 30
0.0
 10
-11.4937420668
 20
32.1187723218
 30
0.0
 10
-11.5975008584
 20
32.2002392973
 30
0.0
 10
-11.6954102222
 20
32.2994027363
 30
0.0
 10
-11.7850366036
 20
32.413785705
 30
0.0
 10
-11.8641207346
 20
32.5405337513
 30
0.0
 10
-11.9306466734
 20
32.6764811672
 30
0.0
 10
-11.9829087049
 20
32.8182309755
 30
0.0
 10
-12.01956113
 20
32.9622469959
 30
0.0
 10
-12.0396567222
 20
33.1049417035
 30
0.0
 10
-12.0426545593
 20
33.2427966666
 30
0.0
 10
-12.028450088
 20
33.3723659345
 30
0.0
 10
-12.0069116818
 20
33.4539708
 30
0.0
 10
-11.9931228677
 20
33.4921195242
 30
0.0
  0
LINE
  5
3B9
100
AcDbEntity
  8
0
100
AcDbLine
 62
253
  6
CONTINUOUS
 10
-8.0455529383
 20
20.9265458196
 11
-8.0458887827
 21
20.5794661977
  0
LINE
  5
3BA
100
AcDbEntity
  8
ASSI
100
AcDbLine
 62
7
  6
CONTINUOUS
 10
-11.6930188348
 20
34.4959051584
 11
-11.6932491266
 21
34.4957903059
  0
SPLINE
  5
3BB
100
AcDbEntity
  8
ASSI
100
AcDbSpline
 62
7
  6
CONTINUOUS
 70
0
 71
3
 72
18
 73
14
 74
0
 42
0.0000001
 43
0.0000001
 44
0.0000000001
 40
0.0
 40
0.0
 40
0.0
 40
0.0
 40
0.0475493907
 40
0.0956408374
 40
0.1451127413
 40
0.1966664328
 40
0.2508172483
 40
0.3078795356
 40
0.4308769534
 40
0.5649552733
 40
0.7072594939
 40
0.8537804576
 40
1.0
 40
1.0
 40
1.0
 40
1.0
 10
-11.6932491266
 20
34.4957903059
 30
0.0
 10
-11.6999795961
 20
34.4924422348
 30
0.0
 10
-11.7141592004
 20
34.4869180786
 30
0.0
 10
-11.7367964473
 20
34.4825427679
 30
0.0
 10
-11.7604786619
 20
34.4821173249
 30
0.0
 10
-11.784855712
 20
34.4856256737
 30
0.0
 10
-11.8095991506
 20
34.4929912858
 30
0.0
 10
-11.8434704891
 20
34.5081698425
 30
0.0
 10
-11.8847464458
 20
34.5365556797
 30
0.0
 10
-11.929152324
 20
34.5818778258
 30
0.0
 10
-11.9675437421
 20
34.636967531
 30
0.0
 10
-11.9979366266
 20
34.6989345886
 30
0.0
 10
-12.0120009209
 20
34.7432469472
 30
0.0
 10
-12.0172524869
 20
34.7657588293
 30
0.0
  0
SPLINE
  5
3BC
100
AcDbEntity
  8
0
100
AcDbSpline
 62
253
  6
CONTINUOUS
 70
0
 71
3
 72
15
 73
11
 74
0
 42
0.0000001
 43
0.0000001
 44
0.0000000001
 40
0.0
 40
0.0
 40
0.0
 40
0.0
 40
0.1103017194
 40
0.2298286745
 40
0.3566787134
 40
0.4882243087
 40
0.6214214326
 40
0.7530867889
 40
0.8801644201
 40
1.0
 40
1.0
 40
1.0
 40
1.0
 10
-8.5393814443
 20
21.7810225064
 30
0.0
 10
-8.5054962758
 20
21.7640796725
 30
0.0
 10
-8.4383464837
 20
21.7216582027
 30
0.0
 10
-8.346183416
 20
21.6403353243
 30
0.0
 10
-8.2613829928
 20
21.5415536798
 30
0.0
 10
-8.1871099012
 20
21.4290230483
 30
0.0
 10
-8.126098502
 20
21.3069456396
 30
0.0
 10
-8.0806224432
 20
21.1798786854
 30
0.0
 10
-8.052374843
 20
21.0526063397
 30
0.0
 10
-8.0454999581
 20
20.9677052234
 30
0.0
 10
-8.0455529383
 20
20.9265458196
 30
0.0
  0
SPLINE
  5
3BD
100
AcDbEntity
  8
ASSI
100
AcDbSpline
 62
7
  6
CONTINUOUS
 70
0
 71
3
 72
14
 73
10
 74
0
 42
0.0000001
 43
0.0000001
 44
0.0000000001
 40
0.0
 40
0.0
 40
0.0
 40
0.0
 40
0.107175193
 40
0.2161708508
 40
0.3293447677
 40
0.4485437314
 40
0.5749736072
 40
0.7091939521
 40
1.0
 40
1.0
 40
1.0
 40
1.0
 10
-12.4874557482
 20
33.9309776209
 30
0.0
 10
-12.4949380452
 20
33.9272364929
 30
0.0
 10
-12.5108517554
 20
33.9212217997
 30
0.0
 10
-12.5363987168
 20
33.9171597564
 30
0.0
 10
-12.5631802623
 20
33.9180723482
 30
0.0
 10
-12.590701989
 20
33.9238966413
 30
0.0
 10
-12.6185113701
 20
33.9344876034
 30
0.0
 10
-12.6563442676
 20
33.9552233361
 30
0.0
 10
-12.6822546237
 20
33.976525208
 30
0.0
 10
-12.6983552947
 20
33.992525014
 30
0.0
  0
SPLINE
  5
3BE
100
AcDbEntity
  8
ASSI
100
AcDbSpline
 62
7
  6
CONTINUOUS
 70
0
 71
3
 72
23
 73
19
 74
0
 42
0.0000001
 43
0.0000001
 44
0.0000000001
 40
0.0
 40
0.0
 40
0.0
 40
0.0
 40
0.051342302
 40
0.1068606292
 40
0.1670022394
 40
0.2316067794
 40
0.3000437996
 40
0.3713456392
 40
0.4443248493
 40
0.5176783065
 40
0.5900830206
 40
0.6602884968
 40
0.7272108277
 40
0.7900343932
 40
0.8483268564
 40
0.9021672218
 40
0.9522650677
 40
1.0
 40
1.0
 40
1.0
 40
1.0
 10
-10.0010851802
 20
32.6438906891
 30
0.0
 10
-10.0133942019
 20
32.6442280717
 30
0.0
 10
-10.0389857619
 20
32.6482304042
 30
0.0
 10
-10.0765598761
 20
32.6627755602
 30
0.0
 10
-10.1135975386
 20
32.6854714264
 30
0.0
 10
-10.1490182976
 20
32.7155850351
 30
0.0
 10
-10.1818057928
 20
32.7521930785
 30
0.0
 10
-10.2109856957
 20
32.7941875478
 30
0.0
 10
-10.2356830041
 20
32.8402984447
 30
0.0
 10
-10.2551516763
 20
32.8891319433
 30
0.0
 10
-10.2688027817
 20
32.9392152178
 30
0.0
 10
-10.2762218888
 20
32.9890448356
 30
0.0
 10
-10.2771779836
 20
33.0371354222
 30
0.0
 10
-10.2716188618
 20
33.0820663255
 30
0.0
 10
-10.2596593769
 20
33.1225149677
 30
0.0
 10
-10.241541027
 20
33.1572731063
 30
0.0
 10
-10.2176850341
 20
33.1851873801
 30
0.0
 10
-10.1980842194
 20
33.1986881136
 30
0.0
 10
-10.1878443582
 20
33.2038079563
 30
0.0
  0
SPLINE
  5
3BF
100
AcDbEntity
  8
ASSI
100
AcDbSpline
 62
7
  6
CONTINUOUS
 70
0
 71
3
 72
18
 73
14
 74
0
 42
0.0000001
 43
0.0000001
 44
0.0000000001
 40
0.0
 40
0.0
 40
0.0
 40
0.0
 40
0.1386525418
 40
0.2822667331
 40
0.42542151
 40
0.5627850767
 40
0.6279315226
 40
0.6900982573
 40
0.8043912982
 40
0.8568043686
 40
0.9064090513
 40
0.953847777
 40
1.0
 40
1.0
 40
1.0
 40
1.0
 10
-10.2157306033
 20
31.4128252477
 30
0.0
 10
-10.2322598387
 20
31.4307549796
 30
0.0
 10
-10.2625095837
 20
31.4704935407
 30
0.0
 10
-10.2976616134
 20
31.5368856374
 30
0.0
 10
-10.3218229882
 20
31.6077940958
 30
0.0
 10
-10.3317188149
 20
31.6681301019
 30
0.0
 10
-10.3326113358
 20
31.7147535378
 30
0.0
 10
-10.329045543
 20
31.7571353582
 30
0.0
 10
-10.3189901164
 20
31.7966655931
 30
0.0
 10
-10.3017169487
 20
31.8307140717
 30
0.0
 10
-10.286118749
 20
31.8520368088
 30
0.0
 10
-10.2677511368
 20
31.8694726903
 30
0.0
 10
-10.2537371847
 20
31.8783496011
 30
0.0
 10
-10.2464768611
 20
31.88197974
 30
0.0
  0
SPLINE
  5
3C0
100
AcDbEntity
  8
ASSI
100
AcDbSpline
 62
7
  6
CONTINUOUS
 70
0
 71
3
 72
14
 73
10
 74
0
 42
0.0000001
 43
0.0000001
 44
0.0000000001
 40
0.0
 40
0.0
 40
0.0
 40
0.0
 40
0.291078503
 40
0.427625156
 40
0.5565995091
 40
0.6775998439
 40
0.7909317775
 40
0.8977315219
 40
1.0
 40
1.0
 40
1.0
 40
1.0
 10
-12.2935767418
 20
35.9764435566
 30
0.0
 10
-12.2992359119
 20
36.0047011542
 30
0.0
 10
-12.3034849331
 20
36.0472864781
 30
0.0
 10
-12.2990647504
 20
36.1023287577
 30
0.0
 10
-12.2910062953
 20
36.1398708917
 30
0.0
 10
-12.2782865224
 20
36.1736751791
 30
0.0
 10
-12.2611258034
 20
36.2029838824
 30
0.0
 10
-12.239858975
 20
36.2270717933
 30
0.0
 10
-12.2229687507
 20
36.23939271
 30
0.0
 10
-12.2141477857
 20
36.2443637732
 30
0.0
  0
SPLINE
  5
3C1
100
AcDbEntity
  8
ASSI
100
AcDbSpline
 62
7
  6
CONTINUOUS
 70
0
 71
3
 72
14
 73
10
 74
0
 42
0.0000001
 43
0.0000001
 44
0.0000000001
 40
0.0
 40
0.0
 40
0.0
 40
0.0
 40
0.2969365077
 40
0.4346317962
 40
0.5635026108
 40
0.683293784
 40
0.7946609567
 40
0.8993136651
 40
1.0
 40
1.0
 40
1.0
 40
1.0
 10
-11.0959670516
 20
31.0611160733
 30
0.0
 10
-11.102797538
 20
31.0894293022
 30
0.0
 10
-11.1087727613
 20
31.1321261845
 30
0.0
 10
-11.1061833904
 20
31.1874625302
 30
0.0
 10
-11.0991950023
 20
31.2248545144
 30
0.0
 10
-11.0872386072
 20
31.2582636804
 30
0.0
 10
-11.0705123729
 20
31.286895924
 30
0.0
 10
-11.0493446224
 20
31.309977892
 30
0.0
 10
-11.032401556
 20
31.3213048551
 30
0.0
 10
-11.0235681976
 20
31.3257215035
 30
0.0
  0
SPLINE
  5
3C2
100
AcDbEntity
  8
ASSI
100
AcDbSpline
 62
7
  6
CONTINUOUS
 70
0
 71
3
 72
17
 73
13
 74
0
 42
0.0000001
 43
0.0000001
 44
0.0000000001
 40
0.0
 40
0.0
 40
0.0
 40
0.0
 40
0.1375101284
 40
0.2801181463
 40
0.4225706948
 40
0.5596720145
 40
0.6870756421
 40
0.8021457106
 40
0.8550946855
 40
0.9052875985
 40
0.9533157318
 40
1.0
 40
1.0
 40
1.0
 40
1.0
 10
-13.5068464069
 20
34.8384450108
 30
0.0
 10
-13.523222682
 20
34.8564749641
 30
0.0
 10
-13.5530824518
 20
34.8964889395
 30
0.0
 10
-13.5873914427
 20
34.9633585917
 30
0.0
 10
-13.6105199862
 20
35.0348219844
 30
0.0
 10
-13.6210110244
 20
35.1065204879
 30
0.0
 10
-13.6182056824
 20
35.1741234286
 30
0.0
 10
-13.6043140539
 20
35.2252306778
 30
0.0
 10
-13.5863255935
 20
35.2595951367
 30
0.0
 10
-13.5702321534
 20
35.2811564651
 30
0.0
 10
-13.5514162594
 20
35.2988140046
 30
0.0
 10
-13.5371232038
 20
35.3078350932
 30
0.0
 10
-13.5297270765
 20
35.31153314
 30
0.0
  0
SPLINE
  5
3C3
100
AcDbEntity
  8
ASSI
100
AcDbSpline
 62
7
  6
CONTINUOUS
 70
0
 71
3
 72
9
 73
5
 74
0
 42
0.0000001
 43
0.0000001
 44
0.0000000001
 40
0.0
 40
0.0
 40
0.0
 40
0.0
 40
0.4951581663
 40
1.0
 40
1.0
 40
1.0
 40
1.0
 10
-12.5406153514
 20
32.6118858549
 30
0.0
 10
-12.5479593631
 20
32.6082139118
 30
0.0
 10
-12.5635989396
 20
32.6023149101
 30
0.0
 10
-12.5800978074
 20
32.5997123417
 30
0.0
 10
-12.5884526026
 20
32.5991852831
 30
0.0
  0
SPLINE
  5
3C4
100
AcDbEntity
  8
ASSI
100
AcDbSpline
 62
7
  6
CONTINUOUS
 70
0
 71
3
 72
23
 73
19
 74
0
 42
0.0000001
 43
0.0000001
 44
0.0000000001
 40
0.0
 40
0.0
 40
0.0
 40
0.0
 40
0.0513134734
 40
0.1070157751
 40
0.1674990732
 40
0.2325435888
 40
0.3014631557
 40
0.3732398978
 40
0.4466412314
 40
0.5203234461
 40
0.592927802
 40
0.6631743932
 40
0.7299591404
 40
0.7924599578
 40
0.8502580214
 40
0.9034736988
 40
0.9528924123
 40
1.0
 40
1.0
 40
1.0
 40
1.0
 10
-13.4312175978
 20
32.5864451416
 30
0.0
 10
-13.4434515165
 20
32.586833337
 30
0.0
 10
-13.4689205717
 20
32.5909282259
 30
0.0
 10
-13.5063706874
 20
32.6054964123
 30
0.0
 10
-13.5434357796
 20
32.6281248995
 30
0.0
 10
-13.5790378579
 20
32.6580920498
 30
0.0
 10
-13.6121552007
 20
32.6944862232
 30
0.0
 10
-13.6418020716
 20
32.7362112972
 30
0.0
 10
-13.6670869688
 20
32.782009137
 30
0.0
 10
-13.6872429377
 20
32.8304971446
 30
0.0
 10
-13.7016568467
 20
32.8802126244
 30
0.0
 10
-13.709888235
 20
32.9296612508
 30
0.0
 10
-13.7116796334
 20
32.9773665201
 30
0.0
 10
-13.7069526476
 20
33.0219177902
 30
0.0
 10
-13.6957954599
 20
33.0620045446
 30
0.0
 10
-13.6784198488
 20
33.0964310198
 30
0.0
 10
-13.6552149916
 20
33.1240476631
 30
0.0
 10
-13.6360007559
 20
33.1373491316
 30
0.0
 10
-13.6259502008
 20
33.1423743232
 30
0.0
  0
SPLINE
  5
3C5
100
AcDbEntity
  8
ASSI
100
AcDbSpline
 62
7
  6
CONTINUOUS
 70
0
 71
3
 72
17
 73
13
 74
0
 42
0.0000001
 43
0.0000001
 44
0.0000000001
 40
0.0
 40
0.0
 40
0.0
 40
0.0
 40
0.045736043
 40
0.0929662456
 40
0.1424177053
 40
0.1946151069
 40
0.308100147
 40
0.4339332037
 40
0.5700179778
 40
0.7127389772
 40
0.8576376687
 40
1.0
 40
1.0
 40
1.0
 40
1.0
 10
-12.194098141
 20
30.4643380867
 30
0.0
 10
-12.2010070252
 20
30.4620115653
 30
0.0
 10
-12.2155253968
 20
30.4585932276
 30
0.0
 10
-12.2382969496
 20
30.4573664934
 30
0.0
 10
-12.2619833471
 20
30.4599633236
 30
0.0
 10
-12.2952546398
 20
30.4686818611
 30
0.0
 10
-12.3373846361
 20
30.4893996095
 30
0.0
 10
-12.3847540392
 20
30.5264873352
 30
0.0
 10
-12.4281772545
 20
30.5745595922
 30
0.0
 10
-12.4654640395
 20
30.6311615399
 30
0.0
 10
-12.494726577
 20
30.6933779568
 30
0.0
 10
-12.508150874
 20
30.7373639497
 30
0.0
 10
-12.513051673
 20
30.7595202295
 30
0.0
  0
SPLINE
  5
3C6
100
AcDbEntity
  8
ASSI
100
AcDbSpline
 62
7
  6
CONTINUOUS
 70
0
 71
3
 72
11
 73
7
 74
0
 42
0.0000001
 43
0.0000001
 44
0.0000000001
 40
0.0
 40
0.0
 40
0.0
 40
0.0
 40
0.2645774265
 40
0.5178823641
 40
0.7620833612
 40
1.0
 40
1.0
 40
1.0
 40
1.0
 10
-11.9671796795
 20
33.5538146753
 30
0.0
 10
-11.9567003996
 20
33.5754261238
 30
0.0
 10
-11.9336216639
 20
33.6165571919
 30
0.0
 10
-11.8918444659
 20
33.6719789399
 30
0.0
 10
-11.8441549929
 20
33.7190462638
 30
0.0
 10
-11.8084234284
 20
33.7446981304
 30
0.0
 10
-11.7899089587
 20
33.7558193977
 30
0.0
  0
ELLIPSE
  5
3C7
100
AcDbEntity
  8
0
100
AcDbEllipse
 62
7
  6
CONTINUOUS
 10
49.9943208547
 20
48.1603770544
 30
0.0
 11
-28.3378823478
 21
99.5817335985
 31
0.0
 40
0.6808569335
 41
-4.5517697485
 42
-4.5459924586
  0
ELLIPSE
  5
3C8
100
AcDbEntity
  8
0
100
AcDbEllipse
 62
7
  6
CONTINUOUS
 10
53.8808441866
 20
46.2171153885
 30
0.0
 11
71.1613499862
 21
64.4303683499
 31
0.0
 40
0.284524016
 41
2.395440244
 42
2.401216876
  0
ELLIPSE
  5
3C9
100
AcDbEntity
  8
0
100
AcDbEllipse
 62
7
  6
CONTINUOUS
 10
53.8808441866
 20
46.2171153885
 30
0.0
 11
71.1613499862
 21
64.4303683499
 31
0.0
 40
0.284524016
 41
2.4330141865
 42
2.4388019667
  0
ELLIPSE
  5
3CA
100
AcDbEntity
  8
0
100
AcDbEllipse
 62
7
  6
CONTINUOUS
 10
49.9943208547
 20
48.1603770544
 30
0.0
 11
-28.3378823562
 21
99.5817335997
 31
0.0
 40
0.6808569335
 41
-4.5141895242
 42
-4.5084003543
  0
ELLIPSE
  5
3CB
100
AcDbEntity
  8
0
100
AcDbEllipse
 62
7
  6
CONTINUOUS
 10
50.4842185453
 20
47.9154282091
 30
0.0
 11
-28.3378823562
 21
99.5817335997
 31
0.0
 40
0.6808569335
 41
-4.5551047089
 42
-4.5493280769
  0
ELLIPSE
  5
3CC
100
AcDbEntity
  8
0
100
AcDbEllipse
 62
7
  6
CONTINUOUS
 10
54.3707418774
 20
45.9721665431
 30
0.0
 11
71.1613499862
 21
64.4303683499
 31
0.0
 40
0.284524016
 41
2.3987752044
 42
2.4045524943
  0
ELLIPSE
  5
3CD
100
AcDbEntity
  8
0
100
AcDbEllipse
 62
7
  6
CONTINUOUS
 10
54.3707418774
 20
45.9721665431
 30
0.0
 11
71.1613499862
 21
64.4303683499
 31
0.0
 40
0.284524016
 41
2.4363554287
 42
2.4421445986
  0
ELLIPSE
  5
3CE
100
AcDbEntity
  8
0
100
AcDbEllipse
 62
7
  6
CONTINUOUS
 10
50.4842185453
 20
47.9154282091
 30
0.0
 11
-28.3378823562
 21
99.5817335997
 31
0.0
 40
0.6808569335
 41
-4.5175307664
 42
-4.5117430325
  0
ELLIPSE
  5
3CF
100
AcDbEntity
  8
0
100
AcDbEllipse
 62
7
  6
CONTINUOUS
 10
50.5587509842
 20
61.3708377807
 30
0.0
 11
63.9411270782
 21
68.0188954017
 31
0.0
 40
0.3766652282
 41
-4.0025136072
 42
-3.9896399599
  0
ELLIPSE
  5
3D0
100
AcDbEntity
  8
0
100
AcDbEllipse
 62
7
  6
CONTINUOUS
 10
44.6110319547
 20
64.3446972954
 30
0.0
 11
166.2815946985
 21
13.6233300341
 31
0.0
 40
0.1730669803
 41
-1.9195402268
 42
-1.9142153264
  0
ELLIPSE
  5
3D1
100
AcDbEntity
  8
0
100
AcDbEllipse
 62
7
  6
CONTINUOUS
 10
59.7540331772
 20
56.7731966842
 30
0.0
 11
159.8026151649
 21
-150.2223648315
 31
0.0
 40
0.3063756265
 41
-1.7246059819
 42
-1.7192869015
  0
ELLIPSE
  5
3D2
100
AcDbEntity
  8
0
100
AcDbEllipse
 62
7
  6
CONTINUOUS
 10
345.4901776179
 20
197.0202326939
 30
0.0
 11
-43.8574058383
 21
535.3081353593
 31
0.0
 40
0.7101741329
 41
-4.4535483199
 42
-4.453505865
  0
ELLIPSE
  5
3D3
100
AcDbEntity
  8
0
100
AcDbEllipse
 62
7
  6
CONTINUOUS
 10
53.347093215
 20
59.9766666652
 30
0.0
 11
-7.8943330509
 21
96.3554643647
 31
0.0
 40
0.7101741329
 41
-4.4661483241
 42
-4.4535483199
  0
ELLIPSE
  5
3D4
100
AcDbEntity
  8
0
100
AcDbEllipse
 62
7
  6
CONTINUOUS
 10
50.5587509841
 20
61.3708377807
 30
0.0
 11
63.9411270791
 21
68.0188954013
 31
0.0
 40
0.3766652282
 41
-3.9495436347
 42
-3.936706903
  0
ELLIPSE
  5
3D5
100
AcDbEntity
  8
0
100
AcDbEllipse
 62
7
  6
CONTINUOUS
 10
44.6110319462
 20
64.3446972996
 30
0.0
 11
166.2815948874
 21
13.6233299232
 31
0.0
 40
0.1730669804
 41
-1.9414630442
 42
-1.9361439638
  0
ELLIPSE
  5
3D6
100
AcDbEntity
  8
0
100
AcDbEllipse
 62
7
  6
CONTINUOUS
 10
59.7540331719
 20
56.7731966868
 30
0.0
 11
159.8026150397
 21
-150.2223647679
 31
0.0
 40
0.3063756267
 41
-1.7465346199
 42
-1.7412097195
  0
ELLIPSE
  5
3D7
100
AcDbEntity
  8
0
100
AcDbEllipse
 62
7
  6
CONTINUOUS
 10
53.347093215
 20
59.9766666652
 30
0.0
 11
-7.8943330509
 21
96.3554643647
 31
0.0
 40
0.7101741329
 41
-4.5191102469
 42
-4.5062391899
  0
ELLIPSE
  5
3D8
100
AcDbEntity
  8
0
100
AcDbEllipse
 62
7
  6
CONTINUOUS
 10
43.5023765556
 20
64.899024995
 30
0.0
 11
166.2815947426
 21
13.6233300082
 31
0.0
 40
0.1730669803
 41
-1.9133694604
 42
-1.9080424572
  0
ELLIPSE
  5
3D9
100
AcDbEntity
  8
0
100
AcDbEllipse
 62
7
  6
CONTINUOUS
 10
60.8626885689
 20
56.2188689883
 30
0.0
 11
159.8026150557
 21
-150.222364776
 31
0.0
 40
0.3063756267
 41
-1.7307713228
 42
-1.7254508658
  0
ELLIPSE
  5
3DA
100
AcDbEntity
  8
0
100
AcDbEllipse
 62
7
  6
CONTINUOUS
 10
53.8063133368
 20
59.7470566043
 30
0.0
 11
-7.894333049
 21
96.3554643643
 31
0.0
 40
0.7101741329
 41
-4.4687009272
 42
-4.4558641955
  0
ELLIPSE
  5
3DB
100
AcDbEntity
  8
0
100
AcDbEllipse
 62
7
  6
CONTINUOUS
 10
338.5977789544
 20
200.4664320256
 30
0.0
 11
355.228483751
 21
377.8827522404
 31
0.0
 40
0.3766652282
 41
2.3487942798
 42
2.3488367347
  0
ELLIPSE
  5
3DC
100
AcDbEntity
  8
0
100
AcDbEllipse
 62
7
  6
CONTINUOUS
 10
51.0179711061
 20
61.1412277197
 30
0.0
 11
63.9411270752
 21
68.0188954033
 31
0.0
 40
0.3766652282
 41
-3.9469910315
 42
-3.9343910274
  0
ELLIPSE
  5
3DD
100
AcDbEntity
  8
0
100
AcDbEllipse
 62
7
  6
CONTINUOUS
 10
43.5023765556
 20
64.899024995
 30
0.0
 11
166.2815947426
 21
13.6233300082
 31
0.0
 40
0.1730669803
 41
-1.9352990803
 42
-1.9299786233
  0
ELLIPSE
  5
3DE
100
AcDbEntity
  8
0
100
AcDbEllipse
 62
7
  6
CONTINUOUS
 10
60.8626885689
 20
56.2188689883
 30
0.0
 11
159.8026150557
 21
-150.222364776
 31
0.0
 40
0.3063756267
 41
-1.7527074889
 42
-1.7473804857
  0
ELLIPSE
  5
3DF
100
AcDbEntity
  8
0
100
AcDbEllipse
 62
7
  6
CONTINUOUS
 10
53.8063133368
 20
59.7470566044
 30
0.0
 11
-7.894333049
 21
96.3554643643
 31
0.0
 40
0.7101741329
 41
-4.5216708996
 42
-4.508797221
  0
ELLIPSE
  5
3E0
100
AcDbEntity
  8
0
100
AcDbEllipse
 62
7
  6
CONTINUOUS
 10
51.0179711061
 20
61.1412277197
 30
0.0
 11
63.9411270752
 21
68.0188954033
 31
0.0
 40
0.3766652282
 41
-3.9999529544
 42
-3.9870819289
  0
ELLIPSE
  5
3E1
100
AcDbEntity
  8
0
100
AcDbEllipse
 62
7
  6
CONTINUOUS
 10
0.228452304
 20
19.8250962748
 30
0.0
 11
-0.1119259236
 21
0.2235783474
 31
0.0
 40
0.6126250184
 41
-2.2559124555
 42
-0.6854206804
  0
ELLIPSE
  5
3E2
100
AcDbEntity
  8
ASSI
100
AcDbEllipse
 62
7
  6
CONTINUOUS
 10
50.4842185453
 20
47.9154282091
 30
0.0
 11
-28.3378823562
 21
99.5817335997
 31
0.0
 40
0.6808569335
 41
-4.5551047089
 42
-4.5493280769
  0
ELLIPSE
  5
3E3
100
AcDbEntity
  8
ASSI
100
AcDbEllipse
 62
7
  6
CONTINUOUS
 10
54.3707418774
 20
45.9721665431
 30
0.0
 11
71.1613499862
 21
64.4303683499
 31
0.0
 40
0.284524016
 41
2.3987752044
 42
2.4045524943
  0
ELLIPSE
  5
3E4
100
AcDbEntity
  8
ASSI
100
AcDbEllipse
 62
7
  6
CONTINUOUS
 10
54.3707418774
 20
45.9721665431
 30
0.0
 11
71.1613499862
 21
64.4303683499
 31
0.0
 40
0.284524016
 41
2.4363554287
 42
2.4421445986
  0
ELLIPSE
  5
3E5
100
AcDbEntity
  8
ASSI
100
AcDbEllipse
 62
7
  6
CONTINUOUS
 10
50.4842185453
 20
47.9154282091
 30
0.0
 11
-28.3378823562
 21
99.5817335997
 31
0.0
 40
0.6808569335
 41
-4.5175307664
 42
-4.5117430325
  0
ELLIPSE
  5
3E6
100
AcDbEntity
  8
0
100
AcDbEllipse
 62
7
  6
CONTINUOUS
 10
-12.9749971901
 20
23.4198682764
 30
0.0
 11
-0.1766168088
 21
0.4707043043
 31
0.0
 40
0.7819490857
 41
1.1233983706
 42
2.4415144422
  0
ELLIPSE
  5
3E7
100
AcDbEntity
  8
0
100
AcDbEllipse
 62
7
  6
CONTINUOUS
 10
-0.7206357903
 20
1.0690439191
 30
0.0
 11
-0.1636538045
 21
0.4728376251
 31
0.0
 40
0.6698239279
 41
-3.107440583
 42
-2.1734470421
  0
ELLIPSE
  5
3E8
100
AcDbEntity
  8
ASSI
100
AcDbEllipse
 62
7
  6
CONTINUOUS
 10
49.9943208547
 20
48.1603770544
 30
0.0
 11
-28.3378823478
 21
99.5817335985
 31
0.0
 40
0.6808569335
 41
-4.5517697485
 42
-4.5459924586
  0
ELLIPSE
  5
3E9
100
AcDbEntity
  8
ASSI
100
AcDbEllipse
 62
7
  6
CONTINUOUS
 10
53.8808441866
 20
46.2171153885
 30
0.0
 11
71.1613499862
 21
64.4303683499
 31
0.0
 40
0.284524016
 41
2.395440244
 42
2.401216876
  0
ELLIPSE
  5
3EA
100
AcDbEntity
  8
ASSI
100
AcDbEllipse
 62
7
  6
CONTINUOUS
 10
53.8808441866
 20
46.2171153885
 30
0.0
 11
71.1613499862
 21
64.4303683499
 31
0.0
 40
0.284524016
 41
2.4330141865
 42
2.4388019667
  0
ELLIPSE
  5
3EB
100
AcDbEntity
  8
ASSI
100
AcDbEllipse
 62
7
  6
CONTINUOUS
 10
49.9943208547
 20
48.1603770544
 30
0.0
 11
-28.3378823562
 21
99.5817335997
 31
0.0
 40
0.6808569335
 41
-4.5141895242
 42
-4.5084003543
  0
ELLIPSE
  5
3EC
100
AcDbEntity
  8
0
100
AcDbEllipse
 62
7
  6
CONTINUOUS
 10
-14.0079090829
 20
23.7393196343
 30
0.0
 11
0.267840801
 21
0.1862215711
 31
0.0
 40
0.4574719885
 41
-0.3079479467
 42
-0.3035085127
  0
ELLIPSE
  5
3ED
100
AcDbEntity
  8
0
100
AcDbEllipse
 62
7
  6
CONTINUOUS
 10
-13.9818212672
 20
23.0084716068
 30
0.0
 11
0.2019581784
 21
0.6462737877
 31
0.0
 40
0.2408330052
 41
-0.782904198
 42
-0.6566021467
  0
ELLIPSE
  5
3EE
100
AcDbEntity
  8
0
100
AcDbEllipse
 62
7
  6
CONTINUOUS
 10
-13.9818212672
 20
23.0084716068
 30
0.0
 11
0.7033808676
 21
-0.2019690766
 31
0.0
 40
0.1166564694
 41
0.5598402935
 42
0.6861423449
  0
ELLIPSE
  5
3EF
100
AcDbEntity
  8
0
100
AcDbEllipse
 62
7
  6
CONTINUOUS
 10
0.228452304
 20
20.4313305458
 30
0.0
 11
-0.1119858744
 21
0.2236318019
 31
0.0
 40
0.6122594231
 41
-3.1639192418
 42
-2.2563502278
  0
ELLIPSE
  5
3F0
100
AcDbEntity
  8
ASSI
100
AcDbEllipse
 62
7
  6
CONTINUOUS
 10
338.5977789544
 20
200.4664320256
 30
0.0
 11
355.228483751
 21
377.8827522404
 31
0.0
 40
0.3766652282
 41
-3.9343910274
 42
-3.9343485724
  0
ELLIPSE
  5
3F1
100
AcDbEntity
  8
ASSI
100
AcDbEllipse
 62
7
  6
CONTINUOUS
 10
51.0179711061
 20
61.1412277197
 30
0.0
 11
63.9411270752
 21
68.0188954033
 31
0.0
 40
0.3766652282
 41
-3.9999529544
 42
-3.9870819289
  0
ELLIPSE
  5
3F2
100
AcDbEntity
  8
ASSI
100
AcDbEllipse
 62
7
  6
CONTINUOUS
 10
43.5023765556
 20
64.899024995
 30
0.0
 11
166.2815947426
 21
13.6233300082
 31
0.0
 40
0.1730669803
 41
-1.9133694604
 42
-1.9080424572
  0
ELLIPSE
  5
3F3
100
AcDbEntity
  8
ASSI
100
AcDbEllipse
 62
7
  6
CONTINUOUS
 10
60.8626885689
 20
56.2188689883
 30
0.0
 11
159.8026150557
 21
-150.222364776
 31
0.0
 40
0.3063756267
 41
-1.7307713228
 42
-1.7254508658
  0
ELLIPSE
  5
3F4
100
AcDbEntity
  8
ASSI
100
AcDbEllipse
 62
7
  6
CONTINUOUS
 10
60.8626885689
 20
56.2188689883
 30
0.0
 11
159.8026150557
 21
-150.222364776
 31
0.0
 40
0.3063756267
 41
-1.7527074889
 42
-1.7473804857
  0
ELLIPSE
  5
3F5
100
AcDbEntity
  8
ASSI
100
AcDbEllipse
 62
7
  6
CONTINUOUS
 10
53.8063133368
 20
59.7470566044
 30
0.0
 11
-7.894333049
 21
96.3554643643
 31
0.0
 40
0.7101741329
 41
-4.5216708996
 42
-4.508797221
  0
ELLIPSE
  5
3F6
100
AcDbEntity
  8
ASSI
100
AcDbEllipse
 62
7
  6
CONTINUOUS
 10
53.8063133368
 20
59.7470566043
 30
0.0
 11
-7.894333049
 21
96.3554643643
 31
0.0
 40
0.7101741329
 41
-4.4687009272
 42
-4.4558641955
  0
ELLIPSE
  5
3F7
100
AcDbEntity
  8
ASSI
100
AcDbEllipse
 62
7
  6
CONTINUOUS
 10
51.0179711061
 20
61.1412277197
 30
0.0
 11
63.9411270752
 21
68.0188954033
 31
0.0
 40
0.3766652282
 41
-3.9469910315
 42
-3.9343910274
  0
ELLIPSE
  5
3F8
100
AcDbEntity
  8
0
100
AcDbEllipse
 62
7
  6
CONTINUOUS
 10
-15.7294671202
 20
46.1485914656
 30
0.0
 11
-0.2720523469
 21
0.4197313364
 31
0.0
 40
0.5481321568
 41
-0.7497282617
 42
-0.0179151498
  0
ELLIPSE
  5
3F9
100
AcDbEntity
  8
0
100
AcDbEllipse
 62
7
  6
CONTINUOUS
 10
-7.0271578021
 20
41.8996062221
 30
0.0
 11
0.2000483059
 21
0.0091089057
 31
0.0
 40
0.5313026362
 41
-2.3809156154
 42
-1.3337180642
  0
ELLIPSE
  5
3FA
100
AcDbEntity
  8
0
100
AcDbEllipse
 62
7
  6
CONTINUOUS
 10
-0.7206357903
 20
38.6441758007
 30
0.0
 11
-0.2728317464
 21
0.4206766339
 31
0.0
 40
0.5454741544
 41
-2.3165924025
 42
-0.7476225753
  0
ELLIPSE
  5
3FB
100
AcDbEntity
  8
ASSI
100
AcDbEllipse
 62
7
  6
CONTINUOUS
 10
43.5023765556
 20
64.899024995
 30
0.0
 11
166.2815947426
 21
13.6233300082
 31
0.0
 40
0.1730669803
 41
-1.9352990803
 42
-1.9299786233
  0
ELLIPSE
  5
3FC
100
AcDbEntity
  8
ASSI
100
AcDbEllipse
 62
7
  6
CONTINUOUS
 10
53.347093215
 20
59.9766666652
 30
0.0
 11
-7.8943330509
 21
96.3554643647
 31
0.0
 40
0.7101741329
 41
-4.4661483241
 42
-4.4535483199
  0
ELLIPSE
  5
3FD
100
AcDbEntity
  8
ASSI
100
AcDbEllipse
 62
7
  6
CONTINUOUS
 10
50.5587509841
 20
61.3708377807
 30
0.0
 11
63.9411270791
 21
68.0188954013
 31
0.0
 40
0.3766652282
 41
-3.9495436347
 42
-3.936706903
  0
ELLIPSE
  5
3FE
100
AcDbEntity
  8
0
100
AcDbEllipse
 62
7
  6
CONTINUOUS
 10
-10.0458390013
 20
43.4089468217
 30
0.0
 11
0.2000483059
 21
0.0091089057
 31
0.0
 40
0.5313026362
 41
2.8550721406
 42
3.9022696918
  0
ELLIPSE
  5
3FF
100
AcDbEntity
  8
ASSI
100
AcDbEllipse
 62
7
  6
CONTINUOUS
 10
345.4901776179
 20
197.0202326939
 30
0.0
 11
-43.8574058383
 21
535.3081353593
 31
0.0
 40
0.7101741329
 41
-4.4535483199
 42
-4.453505865
  0
ELLIPSE
  5
400
100
AcDbEntity
  8
ASSI
100
AcDbEllipse
 62
7
  6
CONTINUOUS
 10
50.5587509842
 20
61.3708377807
 30
0.0
 11
63.9411270782
 21
68.0188954017
 31
0.0
 40
0.3766652282
 41
-4.0025136072
 42
-3.9896399599
  0
ELLIPSE
  5
401
100
AcDbEntity
  8
ASSI
100
AcDbEllipse
 62
7
  6
CONTINUOUS
 10
44.6110319547
 20
64.3446972954
 30
0.0
 11
166.2815946985
 21
13.6233300341
 31
0.0
 40
0.1730669803
 41
-1.9195402268
 42
-1.9142153264
  0
ELLIPSE
  5
402
100
AcDbEntity
  8
ASSI
100
AcDbEllipse
 62
7
  6
CONTINUOUS
 10
59.7540331772
 20
56.7731966842
 30
0.0
 11
159.8026151649
 21
-150.2223648315
 31
0.0
 40
0.3063756265
 41
-1.7246059819
 42
-1.7192869015
  0
ELLIPSE
  5
403
100
AcDbEntity
  8
ASSI
100
AcDbEllipse
 62
7
  6
CONTINUOUS
 10
44.6110319462
 20
64.3446972996
 30
0.0
 11
166.2815948874
 21
13.6233299232
 31
0.0
 40
0.1730669804
 41
-1.9414630442
 42
-1.9361439638
  0
ELLIPSE
  5
404
100
AcDbEntity
  8
ASSI
100
AcDbEllipse
 62
7
  6
CONTINUOUS
 10
53.347093215
 20
59.9766666652
 30
0.0
 11
-7.8943330509
 21
96.3554643647
 31
0.0
 40
0.7101741329
 41
-4.5191102469
 42
-4.5062391899
  0
ELLIPSE
  5
405
100
AcDbEntity
  8
ASSI
100
AcDbEllipse
 62
7
  6
CONTINUOUS
 10
59.7540331719
 20
56.7731966868
 30
0.0
 11
159.8026150397
 21
-150.2223647679
 31
0.0
 40
0.3063756267
 41
-1.7465346199
 42
-1.7412097195
  0
ENDSEC
  0
SECTION
  2
OBJECTS
  0
DICTIONARY
  5
C
100
AcDbDictionary
280
0
281
1
  3
ACAD_GROUP
350
D
  3
ACAD_MLINESTYLE
350
17
  3
ACAD_LAYOUT
350
1A
  3
ACAD_PLOTSETTINGS
350
19
  3
ACAD_PLOTSTYLENAME
350
E
  0
DICTIONARY
  5
D
102
{ACAD_REACTORS
330
C
102
}
100
AcDbDictionary
280
0
281
1
  0
ACDBDICTIONARYWDFLT
  5
E
102
{ACAD_REACTORS
330
C
102
}
100
AcDbDictionary
281
1
  3
Normal
350
F
100
AcDbDictionaryWithDefault
340
F
  0
DICTIONARY
  5
17
102
{ACAD_REACTORS
330
C
102
}
100
AcDbDictionary
280
0
281
1
  3
Standard
350
18
  0
DICTIONARY
  5
19
102
{ACAD_REACTORS
330
C
102
}
100
AcDbDictionary
281
1
  0
DICTIONARY
  5
1A
102
{ACAD_REACTORS
330
C
102
}
100
AcDbDictionary
281
1
  3
Model
350
406
  3
Layout1
350
407
  0
ACDBPLACEHOLDER
  5
F
102
{ACAD_REACTORS
330
E
102
}
  0
MLINESTYLE
  5
18
102
{ACAD_REACTORS
330
17
102
}
100
AcDbMlineStyle
  2
STANDARD
 70
0
  3

 62
256
 51
90.0
 52
90.0
 71
2
 49
0.5
 62
256
  6
BYLAYER
 49
-0.5
 62
256
  6
BYLAYER
  0
LAYOUT
  5
406
102
{ACAD_REACTORS
330
1A
102
}
100
AcDbPlotSettings
  1

  2
none_device
  4

  6

 40
0.0
 41
0.0
 42
0.0
 43
0.0
 44
210.0
 45
297.0
 46
0.0
 47
0.0
 48
0.0
 49
0.0
140
0.0
141
0.0
142
1.0
143
1.0
 70
1024
 72
1
 73
0
 74
0
  7

 75
0
147
1.0
148
0.0
149
0.0
100
AcDbLayout
  1
Model
 70
0
 71
0
 10
0.0
 20
0.0
 11
210.0
 21
297.0
 12
0.0
 22
0.0
 32
0.0
 14
0.0
 24
0.0
 34
0.0
 15
0.0
 25
0.0
 35
0.0
146
0.0
 13
0.0
 23
0.0
 33
0.0
 16
1.0
 26
0.0
 36
0.0
 17
0.0
 27
1.0
 37
0.0
 76
0
330
222
345
0
346
0
  0
LAYOUT
  5
407
102
{ACAD_REACTORS
330
1A
102
}
100
AcDbPlotSettings
  1

  2
none_device
  4

  6

 40
0.0
 41
0.0
 42
0.0
 43
0.0
 44
210.0
 45
297.0
 46
0.0
 47
0.0
 48
0.0
 49
0.0
140
0.0
141
0.0
142
1.0
143
1.0
 70
0
 72
1
 73
0
 74
0
  7

 75
0
147
1.0
148
0.0
149
0.0
100
AcDbLayout
  1
Layout1
 70
0
 71
1
 10
0.0
 20
0.0
 11
210.0
 21
297.0
 12
0.0
 22
0.0
 32
0.0
 14
0.0
 24
0.0
 34
0.0
 15
0.0
 25
0.0
 35
0.0
146
0.0
 13
0.0
 23
0.0
 33
0.0
 16
1.0
 26
0.0
 36
0.0
 17
0.0
 27
1.0
 37
0.0
 76
0
330
223
345
0
346
0
  0
ENDSEC
  0
EOF
