0
SECTION
2
HEADER
9
$ACADVER
1
AC1014
9
$HANDSEED
5
       2D9
9
$EXTMAX
10
297.0000000000
20
210.0000000000
9
$EXTMIN
10
0.0000000000
20
0.0000000000
9
$LIMMIN
10
0.0000000000
20
0.0000000000
9
$LIMMAX
10
297.0000000000
20
210.0000000000
9
$VIEWCTR
10
148.5000000000
20
105.0000000000
9
$VIEWSIZE
40
210.0000000000
9
$CLAYER
8
0
9
$LTSCALE
40
16.3350000000
9
$CELTYPE
6
BYLAYER
9
$DIMSCALE
40
1
9
$DIMASZ
40
3.0000000000
9
$DIMEXO
40
1.8562500000
9
$DIMDLI
40
11.2860000000
9
$DIMEXE
40
5.3460000000
9
$DIMCEN
40
2.6730000000
9
$DIMLFAC
40
1.0000000000
9
$DIMTXT
40
3.0000000000
9
$DIMTOL
70
1
9
$DIMLIM
70
0
9
$DIMTFAC
40
1.0000000000
9
$DIMTP
40
0.0100000000
9
$DIMTM
40
0.0100000000
9
$MEASUREMENT
70
1
0
ENDSEC
0
SECTION
2
CLASSES
0
ENDSEC
0
SECTION
2
TABLES
0
TABLE
2
VPORT
5
8
100
AcDbSymbolTable
70
2
0
VPORT
5
1F4
100
AcDbSymbolTableRecord
100
AcDbViewportTableRecord
2
*ACTIVE
70
0
10
0.0
20
0.0
11
1.0
21
1.0
12
148.5000000000
22
105.0000000000
13
0.0
23
0.0
14
1.0
24
1.0
15
0.0
25
0.0
16
0.0
26
0.0
36
1.0
17
0.0
27
0.0
37
0.0
40
210.0000000000
41
1.4142857143
42
50.0
43
0.0
44
0.0
50
0.0
51
0.0
71
0
72
100
73
1
74
1
75
0
76
0
77
0
78
0
0
ENDTAB
0
TABLE
2
LTYPE
5
5
100
AcDbSymbolTable
70
6
0
LTYPE
5
14
100
AcDbSymbolTableRecord
100
AcDbLinetypeTableRecord
2
BYBLOCK
70
0
3

72
65
73
0
40
0.0
0
LTYPE
5
15
100
AcDbSymbolTableRecord
100
AcDbLinetypeTableRecord
2
BYLAYER
70
0
3

72
65
73
0
40
0.0
0
LTYPE
5
16
100
AcDbSymbolTableRecord
100
AcDbLinetypeTableRecord
2
CONTINUOUS
70
64
3
Solid line
72
65
73
0
40
0
0
LTYPE
5
1F5
100
AcDbSymbolTableRecord
100
AcDbLinetypeTableRecord
2
CENTER
70
64
3
____ _ ____ _ ____ _ ____ _ ____ _ ____ _ ____
72
65
73
4
40
0.6
49
0.375
74
0
49
-0.075
74
0
49
0.075
74
0
49
-0.075
74
0
0
LTYPE
5
1F6
100
AcDbSymbolTableRecord
100
AcDbLinetypeTableRecord
2
HIDDEN
70
64
3
- - - - - - - - - - - - - - - - - - - -
72
65
73
2
40
0.2
49
0.1
74
0
49
-0.1
74
0
0
LTYPE
5
1F7
100
AcDbSymbolTableRecord
100
AcDbLinetypeTableRecord
2
PHANTOM
70
64
3
_____ _ _ _____ _ _ _____ _ _ _____
72
65
73
6
40
0.8
49
0.45
74
0
49
-0.05
74
0
49
0.1
74
0
49
-0.05
74
0
49
0.1
74
0
49
-0.05
74
0
0
LTYPE
5
1F8
100
AcDbSymbolTableRecord
100
AcDbLinetypeTableRecord
2
DOT
70
64
3
. . . . . . . . . . . . . . . . . . . .
72
65
73
2
40
0.2
49
0.1
74
0
49
-0.1
74
0
0
LTYPE
5
1F9
100
AcDbSymbolTableRecord
100
AcDbLinetypeTableRecord
2
DASHED
70
64
3
- - - - - - - - - - - - - - - - - - - -
72
65
73
2
40
0.2
49
0.1
74
0
49
-0.1
74
0
0
ENDTAB
0
TABLE
2
LAYER
5
2
100
AcDbSymbolTable
70
36
0
LAYER
5
10
100
AcDbSymbolTableRecord
100
AcDbLayerTableRecord
2
0
70
0
62
7
6
CONTINUOUS
0
LAYER
5
1FA
100
AcDbSymbolTableRecord
100
AcDbLayerTableRecord
2
DEFAULT_1
70
0
62
7
6
CENTER
0
LAYER
5
1FB
100
AcDbSymbolTableRecord
100
AcDbLayerTableRecord
2
DEFAULT_2
70
0
62
8
6
HIDDEN
0
LAYER
5
1FC
100
AcDbSymbolTableRecord
100
AcDbLayerTableRecord
2
DEFAULT_3
70
0
62
7
6
PHANTOM
0
LAYER
5
1FD
100
AcDbSymbolTableRecord
100
AcDbLayerTableRecord
2
ASSI
70
0
62
7
6
CONTINUOUS
0
LAYER
5
1FE
100
AcDbSymbolTableRecord
100
AcDbLayerTableRecord
2
COLORE_MATERIALE
70
0
62
7
6
CONTINUOUS
0
LAYER
5
1FF
100
AcDbSymbolTableRecord
100
AcDbLayerTableRecord
2
COORDINATE
70
0
62
7
6
CONTINUOUS
0
LAYER
5
200
100
AcDbSymbolTableRecord
100
AcDbLayerTableRecord
2
COORD_ORIGINE
70
0
62
7
6
CONTINUOUS
0
LAYER
5
201
100
AcDbSymbolTableRecord
100
AcDbLayerTableRecord
2
COPY
70
0
62
7
6
CONTINUOUS
0
LAYER
5
202
100
AcDbSymbolTableRecord
100
AcDbLayerTableRecord
2
CURVE
70
0
62
7
6
CONTINUOUS
0
LAYER
5
203
100
AcDbSymbolTableRecord
100
AcDbLayerTableRecord
2
DRAFT
70
0
62
7
6
CONTINUOUS
0
LAYER
5
204
100
AcDbSymbolTableRecord
100
AcDbLayerTableRecord
2
IGS
70
0
62
7
6
CONTINUOUS
0
LAYER
5
205
100
AcDbSymbolTableRecord
100
AcDbLayerTableRecord
2
INC_LASER
70
0
62
7
6
CONTINUOUS
0
LAYER
5
206
100
AcDbSymbolTableRecord
100
AcDbLayerTableRecord
2
PIANI
70
0
62
7
6
CONTINUOUS
0
LAYER
5
207
100
AcDbSymbolTableRecord
100
AcDbLayerTableRecord
2
PIANI_ORIGINE
70
0
62
7
6
CONTINUOUS
0
LAYER
5
208
100
AcDbSymbolTableRecord
100
AcDbLayerTableRecord
2
PIANI_RIFERIMENTO
70
0
62
7
6
CONTINUOUS
0
LAYER
5
209
100
AcDbSymbolTableRecord
100
AcDbLayerTableRecord
2
RACCORDO
70
0
62
7
6
CONTINUOUS
0
LAYER
5
20A
100
AcDbSymbolTableRecord
100
AcDbLayerTableRecord
2
SMUSSO
70
0
62
7
6
CONTINUOUS
0
LAYER
5
20B
100
AcDbSymbolTableRecord
100
AcDbLayerTableRecord
2
SNAPLINE
70
0
62
7
6
CONTINUOUS
0
LAYER
5
20C
100
AcDbSymbolTableRecord
100
AcDbLayerTableRecord
2
SUPERFICI
70
0
62
7
6
CONTINUOUS
0
LAYER
5
20D
100
AcDbSymbolTableRecord
100
AcDbLayerTableRecord
2
TRASH
70
0
62
7
6
CONTINUOUS
0
ENDTAB
0
TABLE
2
STYLE
5
3
100
AcDbSymbolTable
70
1
0
STYLE
5
11
100
AcDbSymbolTableRecord
100
AcDbTextStyleTableRecord
2
STANDARD
70
0
40
0.0
41
0.8000000000
50
0.0
71
0
42
0.2
3
txt
4

0
ENDTAB
0
TABLE
2
VIEW
5
6
100
AcDbSymbolTable
70
0
0
ENDTAB
0
TABLE
2
UCS
5
7
100
AcDbSymbolTable
70
0
0
ENDTAB
0
TABLE
2
APPID
5
9
100
AcDbSymbolTable
70
1
0
APPID
5
20E
100
AcDbSymbolTableRecord
100
AcDbRegAppTableRecord
2
ACAD
70
0
0
ENDTAB
0
TABLE
2
DIMSTYLE
5
A
100
AcDbSymbolTable
70
1
0
DIMSTYLE
105
20F
100
AcDbSymbolTableRecord
100
AcDbDimStyleTableRecord
2
STANDARD
70
0
3

4

5

6

7

40
1.0
41
3.0000000000
42
0.0625
43
0.38
44
0.18
45
0.0
46
0.0
47
0.0100000000
48
0.0100000000
140
3.0000000000
141
0.09
142
0.0
143
25.4
144
1.0000000000
145
0.0
146
1.0000000000
147
0.09
71
1
72
0
73
0
74
0
75
0
76
0
77
1
78
8
170
0
171
2
172
0
173
0
174
0
175
0
176
0
177
0
178
0
270
2
271
2
272
2
273
2
274
2
340
11
275
0
280
0
281
0
282
0
283
1
284
8
285
0
286
0
287
3
288
0
0
ENDTAB
0
TABLE
2
BLOCK_RECORD
5
1
100
AcDbSymbolTable
70
0
0
BLOCK_RECORD
5
1B
100
AcDbSymbolTableRecord
100
AcDbBlockTableRecord
2
*MODEL_SPACE
0
BLOCK_RECORD
5
1C
100
AcDbSymbolTableRecord
100
AcDbBlockTableRecord
2
*PAPER_SPACE
0
ENDTAB
0
ENDSEC
0
SECTION
2
BLOCKS
0
BLOCK
5
1E
100
AcDbEntity
8
0
100
AcDbBlockBegin
2
*MODEL_SPACE
70
0
10
0.0
20
0.0
30
0.0
3
*MODEL_SPACE
1

0
ENDBLK
5
1F
100
AcDbEntity
8
0
100
AcDbBlockEnd
0
BLOCK
5
20
100
AcDbEntity
8
0
100
AcDbBlockBegin
2
*PAPER_SPACE
70
0
10
0.0
20
0.0
30
0.0
3
*PAPER_SPACE
1

0
ENDBLK
5
21
100
AcDbEntity
8
0
100
AcDbBlockEnd
0
ENDSEC
0
SECTION
2
ENTITIES
0
LINE
5
210
100
AcDbEntity
8
0
100
AcDbLine
62
7
6
CONTINUOUS
10
-7.2760169611
20
23.9396016682
11
-4.7301868358
21
25.4240538114
0
LINE
5
211
100
AcDbEntity
8
0
100
AcDbLine
62
9
6
CONTINUOUS
10
-7.0426629135
20
23.9308342750
11
-4.4988307243
21
25.4141214385
0
LINE
5
212
100
AcDbEntity
8
0
100
AcDbLine
62
7
6
CONTINUOUS
10
-4.7280299640
20
25.4252909963
11
-3.7958998053
21
25.9511859301
0
LINE
5
213
100
AcDbEntity
8
0
100
AcDbLine
62
9
6
CONTINUOUS
10
-4.4988307243
20
25.4141214385
11
-3.5641737677
21
25.9414419567
0
LINE
5
214
100
AcDbEntity
8
0
100
AcDbLine
62
7
6
CONTINUOUS
10
2.3401678552
20
22.9892711453
11
0.7845329366
21
22.1116034559
0
LINE
5
215
100
AcDbEntity
8
0
100
AcDbLine
62
7
6
CONTINUOUS
10
2.3401678552
20
21.6874113400
11
1.8664499920
21
21.4201462784
0
LINE
5
216
100
AcDbEntity
8
0
100
AcDbLine
62
7
6
CONTINUOUS
10
5.5221483706
20
21.3982808876
11
3.9665134520
21
20.5206131982
0
LINE
5
217
100
AcDbEntity
8
0
100
AcDbLine
62
7
6
CONTINUOUS
10
-7.4492908535
20
-14.2914757113
11
7.4438326598
21
-21.7380374680
0
LINE
5
218
100
AcDbEntity
8
0
100
AcDbLine
62
9
6
CONTINUOUS
10
-7.6990772805
20
-13.8768902168
11
7.1896446910
21
-21.3212512025
0
LINE
5
219
100
AcDbEntity
8
0
100
AcDbLine
62
9
6
CONTINUOUS
10
11.4264899935
20
18.4461100762
11
10.4918330369
21
17.9187895579
0
LINE
5
21A
100
AcDbEntity
8
0
100
AcDbLine
62
9
6
CONTINUOUS
10
11.7800433841
20
17.8357264357
11
10.8608045685
21
17.3171046193
0
LINE
5
21B
100
AcDbEntity
8
0
100
AcDbLine
62
9
6
CONTINUOUS
10
10.4918330369
20
17.9187895579
11
7.8576176917
21
16.4806939724
0
LINE
5
21C
100
AcDbEntity
8
0
100
AcDbLine
62
9
6
CONTINUOUS
10
10.8608045685
20
17.3175006708
11
8.2234504317
21
15.8776915267
0
LINE
5
21D
100
AcDbEntity
8
0
100
AcDbLine
62
9
6
CONTINUOUS
10
-3.3003239409
20
2.7455759055
11
-3.4163301027
21
2.5261718363
0
LINE
5
21E
100
AcDbEntity
8
0
100
AcDbLine
62
7
6
CONTINUOUS
10
-8.3237159734
20
4.2822616158
11
-8.3926979365
21
4.2457947687
0
LINE
5
21F
100
AcDbEntity
8
0
100
AcDbLine
62
9
6
CONTINUOUS
10
-8.2593193458
20
4.2500633020
11
-8.2774013511
21
4.2405043725
0
LINE
5
220
100
AcDbEntity
8
0
100
AcDbLine
62
9
6
CONTINUOUS
10
6.4774422294
20
-11.5234220410
11
-8.3869766453
21
-4.0912126037
0
LINE
5
221
100
AcDbEntity
8
0
100
AcDbLine
62
7
6
CONTINUOUS
10
-3.2360232531
20
1.9120519070
11
-3.2360232531
21
2.3010174622
0
LINE
5
222
100
AcDbEntity
8
0
100
AcDbLine
62
7
6
CONTINUOUS
10
-2.8924223255
20
1.9203681967
11
-2.8924223255
21
2.5416250978
0
LINE
5
223
100
AcDbEntity
8
0
100
AcDbLine
62
9
6
CONTINUOUS
10
-3.0635623750
20
2.6271951225
11
-3.2360232531
21
2.3010174622
0
LINE
5
224
100
AcDbEntity
8
0
100
AcDbLine
62
7
6
CONTINUOUS
10
12.2411283373
20
11.6700697796
11
11.7815089295
21
11.4451725737
0
LINE
5
225
100
AcDbEntity
8
0
100
AcDbLine
62
7
6
CONTINUOUS
10
11.7800433841
20
10.3601543724
11
12.9983115592
21
11.0978219405
0
LINE
5
226
100
AcDbEntity
8
0
100
AcDbLine
62
9
6
CONTINUOUS
10
-3.4163301027
20
2.5261718363
11
-4.3063494857
21
2.0794316350
0
LINE
5
227
100
AcDbEntity
8
0
100
AcDbLine
62
9
6
CONTINUOUS
10
-3.2360260228
20
2.3017850314
11
-4.1649335143
21
1.8355251637
0
LINE
5
228
100
AcDbEntity
8
0
100
AcDbLine
62
9
6
CONTINUOUS
10
-3.2360232531
20
1.9120519070
11
-4.1999445406
21
1.4282170623
0
LINE
5
229
100
AcDbEntity
8
0
100
AcDbLine
62
7
6
CONTINUOUS
10
11.7800433841
20
11.1996132828
11
11.8861094013
21
11.2515126380
0
LINE
5
22A
100
AcDbEntity
8
0
100
AcDbLine
62
7
6
CONTINUOUS
10
-4.0670617430
20
3.0823085634
11
-4.0671258699
21
3.0822777199
0
LINE
5
22B
100
AcDbEntity
8
0
100
AcDbLine
62
9
6
CONTINUOUS
10
-3.8074433054
20
2.9991355877
11
-4.1999445121
21
2.8104394894
0
LINE
5
22C
100
AcDbEntity
8
0
100
AcDbLine
62
9
6
CONTINUOUS
10
-3.4100603257
20
2.8004440979
11
-4.1649335143
21
2.4375366139
0
LINE
5
22D
100
AcDbEntity
8
0
100
AcDbLine
62
7
6
CONTINUOUS
10
-3.3252335389
20
2.7580307044
11
-4.2184588695
21
2.3286100253
0
LINE
5
22E
100
AcDbEntity
8
0
100
AcDbLine
62
9
6
CONTINUOUS
10
0.7845329366
20
21.9611048060
11
0.7845329366
21
22.1116034559
0
LINE
5
22F
100
AcDbEntity
8
0
100
AcDbLine
62
7
6
CONTINUOUS
10
2.3401678552
20
22.9892711453
11
2.3401678552
21
21.6874113400
0
LINE
5
230
100
AcDbEntity
8
0
100
AcDbLine
62
9
6
CONTINUOUS
10
-2.8824833248
20
1.3022857287
11
-3.8452578309
21
0.8190265044
0
LINE
5
231
100
AcDbEntity
8
0
100
AcDbLine
62
9
6
CONTINUOUS
10
-3.9854444335
20
0.5752155923
11
1.9514417108
21
-2.3932274798
0
LINE
5
232
100
AcDbEntity
8
0
100
AcDbLine
62
9
6
CONTINUOUS
10
-3.8452578309
20
0.8190265044
11
2.0916283134
21
-2.1494165677
0
LINE
5
233
100
AcDbEntity
8
0
100
AcDbLine
62
7
6
CONTINUOUS
10
11.7800433841
20
6.7424976684
11
12.9983115592
21
7.5092660057
0
LINE
5
234
100
AcDbEntity
8
0
100
AcDbLine
62
9
6
CONTINUOUS
10
-8.4495759597
20
3.7591405347
11
-4.4818893257
21
1.7752972180
0
LINE
5
235
100
AcDbEntity
8
0
100
AcDbLine
62
9
6
CONTINUOUS
10
6.4126210054
20
-3.6719579478
11
2.4449343714
21
-1.6881146306
0
LINE
5
236
100
AcDbEntity
8
0
100
AcDbLine
62
7
6
CONTINUOUS
10
2.5063222488
20
-1.3921170581
11
-2.8824833248
21
1.3022857287
0
LINE
5
237
100
AcDbEntity
8
0
100
AcDbLine
62
9
6
CONTINUOUS
10
-8.2743419683
20
4.0634278765
11
-4.3063494857
21
2.0794316350
0
LINE
5
238
100
AcDbEntity
8
0
100
AcDbLine
62
9
6
CONTINUOUS
10
6.5878549968
20
-3.3676706060
11
2.6198625139
21
-1.3836743647
0
LINE
5
239
100
AcDbEntity
8
0
100
AcDbLine
62
7
6
CONTINUOUS
10
2.7382801329
20
-1.2699830325
11
-2.5862361077
21
1.3922750878
0
LINE
5
23A
100
AcDbEntity
8
0
100
AcDbLine
62
7
6
CONTINUOUS
10
6.4775942459
20
-3.1183934938
11
2.5097941392
21
-1.1344934405
0
LINE
5
23B
100
AcDbEntity
8
0
100
AcDbLine
62
7
6
CONTINUOUS
10
-4.4168026124
20
2.3288049353
11
-8.3846027193
21
4.3127049887
0
LINE
5
23C
100
AcDbEntity
8
0
100
AcDbLine
62
9
6
CONTINUOUS
10
6.4126210054
20
-2.9830027768
11
2.4449343714
21
-0.9991594600
0
LINE
5
23D
100
AcDbEntity
8
0
100
AcDbLine
62
9
6
CONTINUOUS
10
-4.4818893257
20
2.4642523886
11
-8.4495759597
21
4.4480957058
0
LINE
5
23E
100
AcDbEntity
8
0
100
AcDbLine
62
7
6
CONTINUOUS
10
-3.9334664315
20
3.0621471508
11
2.0034197127
21
0.0937040786
0
LINE
5
23F
100
AcDbEntity
8
0
100
AcDbLine
62
9
6
CONTINUOUS
10
-3.9854444335
20
3.1708413536
11
1.9514417108
21
0.2023982814
0
LINE
5
240
100
AcDbEntity
8
0
100
AcDbLine
62
7
6
CONTINUOUS
10
2.7591185865
20
-1.2591556642
11
2.5288218039
21
-1.3788146433
0
LINE
5
241
100
AcDbEntity
8
0
100
AcDbLine
62
9
6
CONTINUOUS
10
2.8102797430
20
-1.2847362424
11
2.6198625139
21
-1.3836743647
0
LINE
5
242
100
AcDbEntity
8
0
100
AcDbLine
62
9
6
CONTINUOUS
10
2.3856968733
20
-1.9966226673
11
2.0916283134
21
-2.1494165677
0
LINE
5
243
100
AcDbEntity
8
0
100
AcDbLine
62
7
6
CONTINUOUS
10
2.3169523385
20
-2.1627493476
11
2.3170044005
21
-2.1627223074
0
LINE
5
244
100
AcDbEntity
8
0
100
AcDbLine
62
7
6
CONTINUOUS
10
10.6840278722
20
-1.5193895616
11
10.5675452086
21
-1.4611482298
0
LINE
5
245
100
AcDbEntity
8
0
100
AcDbLine
62
9
6
CONTINUOUS
10
10.6840278722
20
-1.5193895616
11
6.9382951186
21
-3.3673438624
0
LINE
5
246
100
AcDbEntity
8
0
100
AcDbLine
62
9
6
CONTINUOUS
10
10.8608045685
20
-1.8242595299
11
7.1135023593
21
-3.6729881204
0
LINE
5
247
100
AcDbEntity
8
0
100
AcDbLine
62
9
6
CONTINUOUS
10
11.7800433841
20
-0.7682638220
11
10.8608045685
21
-1.2180582338
0
LINE
5
248
100
AcDbEntity
8
0
100
AcDbLine
62
7
6
CONTINUOUS
10
11.7143455517
20
-0.9038470575
11
10.7944807850
21
-1.3539477546
0
LINE
5
249
100
AcDbEntity
8
0
100
AcDbLine
62
7
6
CONTINUOUS
10
10.7933196099
20
-1.3545060477
11
10.7944804700
21
-1.3539479089
0
LINE
5
24A
100
AcDbEntity
8
0
100
AcDbLine
62
9
6
CONTINUOUS
10
10.8608045685
20
-1.2180912088
11
7.1135023593
21
-2.9880902975
0
LINE
5
24B
100
AcDbEntity
8
0
100
AcDbLine
62
7
6
CONTINUOUS
10
10.7933189618
20
-1.3545063538
11
7.0466110312
21
-3.1242247413
0
LINE
5
24C
100
AcDbEntity
8
0
100
AcDbLine
62
9
6
CONTINUOUS
10
-2.9318680392
20
1.3255706149
11
-2.5862361077
21
1.3922750878
0
LINE
5
24D
100
AcDbEntity
8
0
100
AcDbLine
62
9
6
CONTINUOUS
10
-2.8924223255
20
1.9203681967
11
-3.2380542571
21
1.8536637238
0
LINE
5
24E
100
AcDbEntity
8
0
100
AcDbLine
62
7
6
CONTINUOUS
10
10.8608045685
20
-1.8242595299
11
10.8608045685
21
-12.8661081589
0
LINE
5
24F
100
AcDbEntity
8
0
100
AcDbLine
62
7
6
CONTINUOUS
10
10.8608045685
20
-1.2180582338
11
10.8608045685
21
17.3171046193
0
LINE
5
250
100
AcDbEntity
8
0
100
AcDbLine
62
7
6
CONTINUOUS
10
11.7800433841
20
-0.7682638220
11
11.7800433841
21
17.8357264357
0
LINE
5
251
100
AcDbEntity
8
0
100
AcDbLine
62
7
6
CONTINUOUS
10
11.7815089295
20
11.2003303915
11
11.7815089295
21
11.4451725737
0
LINE
5
252
100
AcDbEntity
8
0
100
AcDbLine
62
7
6
CONTINUOUS
10
10.1013067942
20
-20.6786577255
11
10.8608045685
21
-12.8661081589
0
LINE
5
253
100
AcDbEntity
8
0
100
AcDbLine
62
9
6
CONTINUOUS
10
-8.3869766453
20
12.3632700682
11
6.4774422294
21
4.9310606309
0
LINE
5
254
100
AcDbEntity
8
0
100
AcDbLine
62
9
6
CONTINUOUS
10
12.9983115592
20
11.0978219405
11
12.9983115592
21
7.5092660057
0
LINE
5
255
100
AcDbEntity
8
0
100
AcDbLine
62
7
6
CONTINUOUS
10
13.1543093862
20
11.3148975215
11
13.1543093862
21
7.7327146985
0
LINE
5
256
100
AcDbEntity
8
0
100
AcDbLine
62
7
6
CONTINUOUS
10
11.7815089295
20
11.4451725737
11
11.8861094013
21
11.2515126380
0
LINE
5
257
100
AcDbEntity
8
0
100
AcDbLine
62
7
6
CONTINUOUS
10
12.7361030841
20
11.6674245884
11
12.2411283373
21
11.6700697796
0
LINE
5
258
100
AcDbEntity
8
0
100
AcDbLine
62
7
6
CONTINUOUS
10
12.9492841330
20
11.5608340639
11
12.7361030841
21
11.6674245884
0
LINE
5
259
100
AcDbEntity
8
0
100
AcDbLine
62
9
6
CONTINUOUS
10
7.1896446910
20
15.4167891571
11
-7.6990772805
21
22.8611501429
0
LINE
5
25A
100
AcDbEntity
8
0
100
AcDbLine
62
9
6
CONTINUOUS
10
7.8576176917
20
16.4806939724
11
-7.0426629135
21
23.9308342750
0
LINE
5
25B
100
AcDbEntity
8
0
100
AcDbLine
62
7
6
CONTINUOUS
10
0.7845329366
20
21.9611048060
11
3.6836707395
21
20.5115359046
0
LINE
5
25C
100
AcDbEntity
8
0
100
AcDbLine
62
7
6
CONTINUOUS
10
-3.5641737677
20
25.9414419567
11
2.3401678552
21
22.9892711453
0
LINE
5
25D
100
AcDbEntity
8
0
100
AcDbLine
62
7
6
CONTINUOUS
10
5.5221483706
20
21.3982808876
11
11.4264899935
21
18.4461100762
0
LINE
5
25E
100
AcDbEntity
8
0
100
AcDbLine
62
9
6
CONTINUOUS
10
8.2234504317
20
-21.4669055505
11
10.1013067942
21
-20.6786577255
0
LINE
5
25F
100
AcDbEntity
8
0
100
AcDbLine
62
7
6
CONTINUOUS
10
8.0696431863
20
-21.7481012488
11
9.9249183255
21
-20.9693321041
0
SPLINE
5
260
100
AcDbEntity
8
0
100
AcDbSpline
62
7
6
CONTINUOUS
70
0
71
3
72
21
73
17
74
15
42
0.0000001000
43
0.0000001000
44
0.0000000001
12
0.3292372444
22
-0.1646186222
32
0.0000000000
13
0.0000000000
23
-0.3680984296
33
0.0000000000
40
0.0000000000
40
0.0000000000
40
0.0000000000
40
0.0000000000
40
0.0616652658
40
0.1268747662
40
0.1949321227
40
0.2652924598
40
0.3382327675
40
0.4129548400
40
0.4884091301
40
0.5643914551
40
0.6407001256
40
0.7162468014
40
0.7901286326
40
0.8625362355
40
0.9327983986
40
1.0000000000
40
1.0000000000
40
1.0000000000
40
1.0000000000
10
10.6840278722
20
-1.5193895616
30
0.0000000000
10
10.6907953729
20
-1.5227733119
30
0.0000000000
10
10.7043365245
20
-1.5305209195
30
0.0000000000
10
10.7238546653
20
-1.5444020820
30
0.0000000000
10
10.7428612351
20
-1.5606675326
30
0.0000000000
10
10.7611297005
20
-1.5791122953
30
0.0000000000
10
10.7784522755
20
-1.5995306664
30
0.0000000000
10
10.7945996404
20
-1.6216669862
30
0.0000000000
10
10.8093450449
20
-1.6452009784
30
0.0000000000
10
10.8225290536
20
-1.6698643665
30
0.0000000000
10
10.8339974092
20
-1.6953835720
30
0.0000000000
10
10.8435812587
20
-1.7213947017
30
0.0000000000
10
10.8511665101
20
-1.7475599081
30
0.0000000000
10
10.8566705101
20
-1.7735808956
30
0.0000000000
10
10.8600195096
20
-1.7991398589
30
0.0000000000
10
10.8608045685
20
-1.8160139286
30
0.0000000000
10
10.8608045685
20
-1.8242595299
30
0.0000000000
11
10.6840278722
21
-1.5193895616
31
0.0000000000
11
10.7037604249
21
-1.5306085570
31
0.0000000000
11
10.7233529289
21
-1.5444758749
31
0.0000000000
11
10.7424151732
21
-1.5607308381
31
0.0000000000
11
10.7606655439
21
-1.5791077150
31
0.0000000000
11
10.7780555715
21
-1.5995641849
31
0.0000000000
11
10.7942799841
21
-1.6217744917
31
0.0000000000
11
10.8090357897
21
-1.6453052146
31
0.0000000000
11
10.8222238055
21
-1.6699697595
31
0.0000000000
11
10.8337336054
21
-1.6955924476
31
0.0000000000
11
10.8433363521
21
-1.7216904589
31
0.0000000000
11
10.8508894405
21
-1.7478163395
31
0.0000000000
11
10.8563774316
21
-1.7738983452
31
0.0000000000
11
10.8597003678
21
-1.7995473829
31
0.0000000000
11
10.8608045685
21
-1.8242595299
31
0.0000000000
0
SPLINE
5
261
100
AcDbEntity
8
0
100
AcDbSpline
62
7
6
CONTINUOUS
70
0
71
3
72
18
73
14
74
12
42
0.0000001000
43
0.0000001000
44
0.0000000001
12
0.0002842886
22
-0.2188151767
32
0.0000000000
13
-0.1943749003
23
-0.1008618524
33
0.0000000000
40
0.0000000000
40
0.0000000000
40
0.0000000000
40
0.0000000000
40
0.1377729755
40
0.2738359632
40
0.3980746463
40
0.5113086972
40
0.6138587642
40
0.7056801974
40
0.7864267553
40
0.8558227087
40
0.9144998768
40
0.9648309136
40
1.0000000000
40
1.0000000000
40
1.0000000000
40
1.0000000000
10
2.3866915504
20
-1.9641257457
30
0.0000000000
10
2.3867046061
20
-1.9741746850
30
0.0000000000
10
2.3861772102
20
-1.9941540358
30
0.0000000000
10
2.3836030463
20
-2.0230938331
30
0.0000000000
10
2.3793278861
20
-2.0500235081
30
0.0000000000
10
2.3736354068
20
-2.0741860178
30
0.0000000000
10
2.3667378090
20
-2.0955628003
30
0.0000000000
10
2.3588846288
20
-2.1140602754
30
0.0000000000
10
2.3503845629
20
-2.1295638462
30
0.0000000000
10
2.3415866360
20
-2.1420402549
30
0.0000000000
10
2.3327703356
20
-2.1516648271
30
0.0000000000
10
2.3245964232
20
-2.1583415328
30
0.0000000000
10
2.3192309237
20
-2.1615660324
30
0.0000000000
10
2.3169522611
20
-2.1627484388
30
0.0000000000
11
2.3866915504
21
-1.9641257457
31
0.0000000000
11
2.3858591790
21
-1.9942606653
31
0.0000000000
11
2.3831724981
21
-2.0239103926
31
0.0000000000
11
2.3788576850
21
-2.0507497631
31
0.0000000000
11
2.3731189122
21
-2.0748521076
31
0.0000000000
11
2.3661660437
21
-2.0961861291
31
0.0000000000
11
2.3582467892
21
-2.1146504638
31
0.0000000000
11
2.3496817476
21
-2.1301032388
31
0.0000000000
11
2.3408610723
21
-2.1424626141
31
0.0000000000
11
2.3321280815
21
-2.1518738040
31
0.0000000000
11
2.3235572687
21
-2.1587889953
31
0.0000000000
11
2.3169522611
21
-2.1627484388
31
0.0000000000
0
SPLINE
5
262
100
AcDbEntity
8
0
100
AcDbSpline
62
7
6
CONTINUOUS
70
0
71
3
72
10
73
6
74
4
42
0.0000001000
43
0.0000001000
44
0.0000000001
12
0.0002233277
22
-0.3467305126
32
0.0000000000
13
0.0004483805
23
-0.3467302947
33
0.0000000000
40
0.0000000000
40
0.0000000000
40
0.0000000000
40
0.0000000000
40
0.3286219323
40
0.6728624461
40
1.0000000000
40
1.0000000000
40
1.0000000000
40
1.0000000000
10
2.3863557244
20
-1.6173950028
30
0.0000000000
10
2.3863801879
20
-1.6553760865
30
0.0000000000
10
2.3864385672
20
-1.7331433951
30
0.0000000000
10
2.3865505639
20
-1.8487202031
30
0.0000000000
10
2.3866426659
20
-1.9263159191
30
0.0000000000
10
2.3866915599
20
-1.9641254193
30
0.0000000000
11
2.3863557244
21
-1.6173950028
31
0.0000000000
11
2.3864412621
21
-1.7313382454
31
0.0000000000
11
2.3865569250
21
-1.8506969039
31
0.0000000000
11
2.3866915599
21
-1.9641254193
31
0.0000000000
0
SPLINE
5
263
100
AcDbEntity
8
0
100
AcDbSpline
62
7
6
CONTINUOUS
70
0
71
3
72
18
73
14
74
12
42
0.0000001000
43
0.0000001000
44
0.0000000001
12
-0.2586699574
22
-0.1345707816
32
0.0000000000
13
0.0001839905
23
-0.2914917113
33
0.0000000000
40
0.0000000000
40
0.0000000000
40
0.0000000000
40
0.0000000000
40
0.0627969179
40
0.1544309222
40
0.2475450832
40
0.3419841461
40
0.4372120658
40
0.5328471065
40
0.6285116860
40
0.7239134318
40
0.8187553067
40
0.9129048281
40
1.0000000000
40
1.0000000000
40
1.0000000000
40
1.0000000000
10
2.5287790052
20
-1.3788371763
30
0.0000000000
10
2.5233644465
20
-1.3816540531
30
0.0000000000
10
2.5103073442
20
-1.3890902830
30
0.0000000000
10
2.4905512506
20
-1.4028818153
30
0.0000000000
10
2.4700408560
20
-1.4207086745
30
0.0000000000
10
2.4512555256
20
-1.4408224053
30
0.0000000000
10
2.4344645796
20
-1.4629352287
30
0.0000000000
10
2.4199011162
20
-1.4867127434
30
0.0000000000
10
2.4077466814
20
-1.5118255037
30
0.0000000000
10
2.3981539907
20
-1.5379420759
30
0.0000000000
10
2.3912479926
20
-1.5647440395
30
0.0000000000
10
2.3872224417
20
-1.5913087504
30
0.0000000000
10
2.3863504470
20
-1.6089314889
30
0.0000000000
10
2.3863557886
20
-1.6173939958
30
0.0000000000
11
2.5287790052
21
-1.3788371763
31
0.0000000000
11
2.5128665957
21
-1.3878947727
31
0.0000000000
11
2.4909576863
21
-1.4031692902
31
0.0000000000
11
2.4704633598
21
-1.4209604118
31
0.0000000000
11
2.4516642430
21
-1.4410662304
31
0.0000000000
11
2.4348698642
21
-1.4631639649
31
0.0000000000
11
2.4203058190
21
-1.4869305513
31
0.0000000000
11
2.4081590735
21
-1.5120283332
31
0.0000000000
11
2.3985786164
21
-1.5381317970
31
0.0000000000
11
2.3916929683
21
-1.5649033416
31
0.0000000000
11
2.3875973862
21
-1.5920370528
31
0.0000000000
11
2.3863557886
21
-1.6173939958
31
0.0000000000
0
SPLINE
5
264
100
AcDbEntity
8
0
100
AcDbSpline
62
7
6
CONTINUOUS
70
0
71
3
72
18
73
14
74
12
42
0.0000001000
43
0.0000001000
44
0.0000000001
12
-0.3443237012
22
-0.1820330099
32
0.0000000000
13
0.0002491206
23
-0.3894648187
33
0.0000000000
40
0.0000000000
40
0.0000000000
40
0.0000000000
40
0.0000000000
40
0.0956329413
40
0.2019630363
40
0.3031961374
40
0.3998136961
40
0.4924048380
40
0.5819497288
40
0.6693294182
40
0.7551752054
40
0.8399448045
40
0.9240737629
40
1.0000000000
40
1.0000000000
40
1.0000000000
40
1.0000000000
10
-8.3927041494
20
4.2457914648
30
0.0000000000
10
-8.4036803788
20
4.2399886807
30
0.0000000000
10
-8.4264050242
20
4.2268473689
30
0.0000000000
10
-8.4586789629
20
4.2042237413
30
0.0000000000
10
-8.4887012881
20
4.1784797365
30
0.0000000000
10
-8.5147755618
20
4.1511623268
30
0.0000000000
10
-8.5370240030
20
4.1225487373
30
0.0000000000
10
-8.5556066701
20
4.0928361808
30
0.0000000000
10
-8.5706614940
20
4.0621628446
30
0.0000000000
10
-8.5822622973
20
4.0306843327
30
0.0000000000
10
-8.5904419576
20
3.9985833540
30
0.0000000000
10
-8.5950624218
20
3.9670868880
30
0.0000000000
10
-8.5960290820
20
3.9462947051
30
0.0000000000
10
-8.5960227771
20
3.9364378390
30
0.0000000000
11
-8.3927041494
21
4.2457914648
31
0.0000000000
11
-8.4249263802
21
4.2271109845
31
0.0000000000
11
-8.4587995445
21
4.2032977990
31
0.0000000000
11
-8.4886945749
21
4.1776011340
31
0.0000000000
11
-8.5146456115
21
4.1503596403
31
0.0000000000
11
-8.5367556919
21
4.1218785060
31
0.0000000000
11
-8.5552277184
21
4.0923035168
31
0.0000000000
11
-8.5702060202
21
4.0617510006
31
0.0000000000
11
-8.5817553943
21
4.0303802303
31
0.0000000000
11
-8.5898993628
21
3.9983904549
31
0.0000000000
11
-8.5946497498
21
3.9659760168
31
0.0000000000
11
-8.5960227771
21
3.9364378390
31
0.0000000000
0
SPLINE
5
265
100
AcDbEntity
8
0
100
AcDbSpline
62
7
6
CONTINUOUS
70
0
71
3
72
17
73
13
74
11
42
0.0000001000
43
0.0000001000
44
0.0000000001
12
0.5777492428
22
-0.2888963472
32
0.0000000000
13
0.5954870295
23
0.2499488907
33
0.0000000000
40
0.0000000000
40
0.0000000000
40
0.0000000000
40
0.0000000000
40
0.0675994872
40
0.1663480438
40
0.2655763719
40
0.3657196749
40
0.4672154435
40
0.5705136150
40
0.6760444787
40
0.7842077534
40
0.8954510686
40
1.0000000000
40
1.0000000000
40
1.0000000000
40
1.0000000000
10
7.4438028851
20
-21.7380222964
30
0.0000000000
10
7.4568214026
20
-21.7445320447
30
0.0000000000
10
7.4893689600
20
-21.7595478471
30
0.0000000000
10
7.5430434600
20
-21.7794393072
30
0.0000000000
10
7.6050878198
20
-21.7961724478
30
0.0000000000
10
7.6689795910
20
-21.8072868431
30
0.0000000000
10
7.7344901436
20
-21.8126305979
30
0.0000000000
10
7.8013758595
20
-21.8120263682
30
0.0000000000
10
7.8693659256
20
-21.8052798799
30
0.0000000000
10
7.9381676229
20
-21.7921895556
30
0.0000000000
10
8.0053401674
20
-21.7731569213
30
0.0000000000
10
8.0488838099
20
-21.7568147128
30
0.0000000000
10
8.0696363208
20
-21.7481040829
30
0.0000000000
11
7.4438028851
21
-21.7380222964
31
0.0000000000
11
7.4834514364
21
-21.7563139283
31
0.0000000000
11
7.5432426589
21
-21.7784788452
31
0.0000000000
11
7.6051067932
21
-21.7951734802
31
0.0000000000
11
7.6688154461
21
-21.8062711583
31
0.0000000000
11
7.7341382218
21
-21.8116195866
31
0.0000000000
11
7.8008410039
21
-21.8110427202
31
0.0000000000
11
7.8686581715
21
-21.8043455627
31
0.0000000000
11
7.9372815272
21
-21.7913290335
31
0.0000000000
11
8.0064090545
21
-21.7717898404
31
0.0000000000
11
8.0696363208
21
-21.7481040829
31
0.0000000000
0
SPLINE
5
266
100
AcDbEntity
8
0
100
AcDbSpline
62
7
6
CONTINUOUS
70
0
71
3
72
10
73
6
74
4
42
0.0000001000
43
0.0000001000
44
0.0000000001
12
0.0050048074
22
-7.8506770771
32
0.0000000000
13
0.1206247541
23
-7.8497519172
33
0.0000000000
40
0.0000000000
40
0.0000000000
40
0.0000000000
40
0.0000000000
40
0.3338718480
40
0.6677367820
40
1.0000000000
40
1.0000000000
40
1.0000000000
40
1.0000000000
10
-8.5960228981
20
3.9364430043
30
0.0000000000
10
-8.5954659100
20
3.0627363163
30
0.0000000000
10
-8.5901046497
20
1.3153405869
30
0.0000000000
10
-8.5692576356
20
-1.3014787317
30
0.0000000000
10
-8.5467877764
20
-3.0445284087
30
0.0000000000
10
-8.5334280534
20
-3.9139230195
30
0.0000000000
11
-8.5960228981
21
3.9364430043
31
0.0000000000
11
-8.5879647854
21
1.3153347985
31
0.0000000000
11
-8.5670681441
21
-1.3056481931
31
0.0000000000
11
-8.5334280534
21
-3.9139230195
31
0.0000000000
0
SPLINE
5
267
100
AcDbEntity
8
0
100
AcDbSpline
62
7
6
CONTINUOUS
70
0
71
3
72
14
73
10
74
8
42
0.0000001000
43
0.0000001000
44
0.0000000001
12
0.1508352321
22
-9.8157033000
32
0.0000000000
13
1.2566144044
23
-9.7361033607
33
0.0000000000
40
0.0000000000
40
0.0000000000
40
0.0000000000
40
0.0000000000
40
0.1460469363
40
0.2914717922
40
0.4357109648
40
0.5787514431
40
0.7205804749
40
0.8611878292
40
1.0000000000
40
1.0000000000
40
1.0000000000
40
1.0000000000
10
-8.5334280532
20
-3.9139230214
30
0.0000000000
10
-8.5260850453
20
-4.3917741528
30
0.0000000000
10
-8.5042212499
20
-5.3453468999
30
0.0000000000
10
-8.4495189408
20
-6.7701236390
30
0.0000000000
10
-8.3729367756
20
-8.1840447033
30
0.0000000000
10
-8.2745653450
20
-9.5848220733
30
0.0000000000
10
-8.1544331440
20
-10.9719757565
30
0.0000000000
10
-8.0127666444
20
-12.3431839870
30
0.0000000000
10
-7.9035080554
20
-13.2510258796
30
0.0000000000
10
-7.8453635977
20
-13.7015224270
30
0.0000000000
11
-8.5334280532
21
-3.9139230214
31
0.0000000000
11
-8.5004764303
21
-5.3472669128
31
0.0000000000
11
-8.4456146145
21
-6.7738279578
31
0.0000000000
11
-8.3689398526
21
-8.1877263613
31
0.0000000000
11
-8.2704736615
21
-9.5884782467
31
0.0000000000
11
-8.1502455174
21
-10.9755934834
31
0.0000000000
11
-8.0082912995
21
-12.3485975344
31
0.0000000000
11
-7.8453635977
21
-13.7015224270
31
0.0000000000
0
SPLINE
5
268
100
AcDbEntity
8
0
100
AcDbSpline
62
7
6
CONTINUOUS
70
0
71
3
72
19
73
15
74
13
42
0.0000001000
43
0.0000001000
44
0.0000000001
12
0.0947569373
22
-0.7341078800
32
0.0000000000
13
0.6621929487
23
-0.3310821790
33
0.0000000000
40
0.0000000000
40
0.0000000000
40
0.0000000000
40
0.0000000000
40
0.0896868208
40
0.1845696460
40
0.2765261299
40
0.3659230962
40
0.4530837196
40
0.5383350542
40
0.6219477536
40
0.7042180608
40
0.7854656727
40
0.8659874281
40
0.9460904703
40
1.0000000000
40
1.0000000000
40
1.0000000000
40
1.0000000000
10
-7.8453629809
20
-13.7015270625
30
0.0000000000
10
-7.8425301648
20
-13.7234736631
30
0.0000000000
10
-7.8351035496
20
-13.7684499913
30
0.0000000000
10
-7.8188600355
20
-13.8347835725
30
0.0000000000
10
-7.7972866547
20
-13.8995119467
30
0.0000000000
10
-7.7711755165
20
-13.9604784344
30
0.0000000000
10
-7.7408139301
20
-14.0175766600
30
0.0000000000
10
-7.7064916082
20
-14.0706937945
30
0.0000000000
10
-7.6684926478
20
-14.1197276642
30
0.0000000000
10
-7.6270898908
20
-14.1645876394
30
0.0000000000
10
-7.5825360052
20
-14.2051947373
30
0.0000000000
10
-7.5350609641
20
-14.2414719263
30
0.0000000000
10
-7.4903248755
20
-14.2698761944
30
0.0000000000
10
-7.4611709825
20
-14.2855356004
30
0.0000000000
10
-7.4492714790
20
-14.2914850953
30
0.0000000000
11
-7.8453629809
21
-13.7015270625
31
0.0000000000
11
-7.8345062070
21
-13.7670181941
31
0.0000000000
11
-7.8177554688
21
-13.8352176774
31
0.0000000000
11
-7.7961940614
21
-13.8997726671
31
0.0000000000
11
-7.7701104488
21
-13.9605806208
31
0.0000000000
11
-7.7397954072
21
-14.0175250057
31
0.0000000000
11
-7.7055294795
21
-14.0705078517
31
0.0000000000
11
-7.6676057508
21
-14.1194112787
31
0.0000000000
11
-7.6262962484
21
-14.1641471035
31
0.0000000000
11
-7.5818439075
21
-14.2046458618
31
0.0000000000
11
-7.5344844933
21
-14.2408248868
31
0.0000000000
11
-7.4844309837
21
-14.2725997053
31
0.0000000000
11
-7.4492714790
21
-14.2914850953
31
0.0000000000
0
SPLINE
5
269
100
AcDbEntity
8
0
100
AcDbSpline
62
7
6
CONTINUOUS
70
0
71
3
72
23
73
19
74
17
42
0.0000001000
43
0.0000001000
44
0.0000000001
12
0.0000000000
22
-0.6405357964
32
0.0000000000
13
0.5729126332
23
-0.2864563166
33
0.0000000000
40
0.0000000000
40
0.0000000000
40
0.0000000000
40
0.0000000000
40
0.0673970871
40
0.1340336291
40
0.1995322818
40
0.2637255589
40
0.3269679149
40
0.3893367484
40
0.4510708762
40
0.5122412532
40
0.5730220274
40
0.6335913412
40
0.6940262775
40
0.7545474558
40
0.8152247309
40
0.8764438646
40
0.9381194039
40
1.0000000000
40
1.0000000000
40
1.0000000000
40
1.0000000000
10
-2.8924223255
20
1.9203681967
30
0.0000000000
10
-2.8924223255
20
1.9059781145
30
0.0000000000
10
-2.8913462512
20
1.8773497164
30
0.0000000000
10
-2.8866908459
20
1.8349690663
30
0.0000000000
10
-2.8792605910
20
1.7936817672
30
0.0000000000
10
-2.8693031219
20
1.7536801156
30
0.0000000000
10
-2.8570160693
20
1.7150338861
30
0.0000000000
10
-2.8425272517
20
1.6777221310
30
0.0000000000
10
-2.8259437024
20
1.6417802511
30
0.0000000000
10
-2.8073318449
20
1.6072303254
30
0.0000000000
10
-2.7867356365
20
1.5741172791
30
0.0000000000
10
-2.7641728667
20
1.5425030315
30
0.0000000000
10
-2.7396348283
20
1.5124656363
30
0.0000000000
10
-2.7131099569
20
1.4841323715
30
0.0000000000
10
-2.6845289086
20
1.4576234213
30
0.0000000000
10
-2.6538564005
20
1.4331589394
30
0.0000000000
10
-2.6211253170
20
1.4110590677
30
0.0000000000
10
-2.5980534994
20
1.3981837837
30
0.0000000000
10
-2.5862361077
20
1.3922750878
30
0.0000000000
11
-2.8924223255
21
1.9203681967
31
0.0000000000
11
-2.8908215235
21
1.8772276399
31
0.0000000000
11
-2.8861765363
21
1.8347980475
31
0.0000000000
11
-2.8787558679
21
1.7935052971
31
0.0000000000
11
-2.8688296439
21
1.7536033228
31
0.0000000000
11
-2.8565582546
21
1.7149977337
31
0.0000000000
11
-2.8420966766
21
1.6777576619
31
0.0000000000
11
-2.8255268390
21
1.6418538612
31
0.0000000000
11
-2.8069389453
21
1.6073617617
31
0.0000000000
11
-2.7863685385
21
1.5743075735
31
0.0000000000
11
-2.7638208982
21
1.5427354867
31
0.0000000000
11
-2.7393186083
21
1.5127661827
31
0.0000000000
11
-2.7128110731
21
1.4844792269
31
0.0000000000
11
-2.6842994492
21
1.4580661491
31
0.0000000000
11
-2.6536260898
21
1.4336364941
31
0.0000000000
11
-2.6208663511
21
1.4115576486
31
0.0000000000
11
-2.5862361077
21
1.3922750878
31
0.0000000000
0
SPLINE
5
26A
100
AcDbEntity
8
0
100
AcDbSpline
62
7
6
CONTINUOUS
70
0
71
3
72
18
73
14
74
12
42
0.0000001000
43
0.0000001000
44
0.0000000001
12
-0.0345150339
22
-0.3550377926
32
0.0000000000
13
-0.3291677819
23
-0.1381652588
33
0.0000000000
40
0.0000000000
40
0.0000000000
40
0.0000000000
40
0.0000000000
40
0.1159046782
40
0.2281524206
40
0.3364578978
40
0.4408720734
40
0.5412882252
40
0.6380992490
40
0.7314616710
40
0.8221177008
40
0.9105145987
40
0.9976740407
40
1.0000000000
40
1.0000000000
40
1.0000000000
40
1.0000000000
10
10.1013067942
20
-20.6786577255
30
0.0000000000
10
10.0999733095
20
-20.6923745725
30
0.0000000000
10
10.0963493819
20
-20.7192916013
30
0.0000000000
10
10.0878619071
20
-20.7584315042
30
0.0000000000
10
10.0764708218
20
-20.7954072741
30
0.0000000000
10
10.0622722714
20
-20.8298876532
30
0.0000000000
10
10.0453736197
20
-20.8615951671
30
0.0000000000
10
10.0259215423
20
-20.8902375489
30
0.0000000000
10
10.0040613282
20
-20.9155833450
30
0.0000000000
10
9.9799905158
20
-20.9373875899
30
0.0000000000
10
9.9538951023
20
-20.9554678398
30
0.0000000000
10
9.9349830233
20
-20.9650861199
30
0.0000000000
10
9.9251721034
20
-20.9692255735
30
0.0000000000
10
9.9249168932
20
-20.9693326957
30
0.0000000000
11
10.1013067942
21
-20.6786577255
31
0.0000000000
11
10.0957412178
21
-20.7196259451
31
0.0000000000
11
10.0872010695
21
-20.7587446448
31
0.0000000000
11
10.0757669894
21
-20.7956476711
31
0.0000000000
11
10.0615225751
21
-20.8300619400
31
0.0000000000
11
10.0446134754
21
-20.8616392434
31
0.0000000000
11
10.0251534279
21
-20.8901677680
31
0.0000000000
11
10.0033523916
21
-20.9153438442
31
0.0000000000
11
9.9793473162
21
-20.9370119303
31
0.0000000000
11
9.9534046733
21
-20.9549356158
31
0.0000000000
11
9.9256819256
21
-20.9690099107
31
0.0000000000
11
9.9249168932
21
-20.9693326957
31
0.0000000000
0
SPLINE
5
26B
100
AcDbEntity
8
0
100
AcDbSpline
62
9
6
CONTINUOUS
70
0
71
3
72
15
73
11
74
9
42
0.0000001000
43
0.0000001000
44
0.0000000001
12
0.0037095528
22
-0.2416982311
32
0.0000000000
13
0.2158647374
23
-0.1080186725
33
0.0000000000
40
0.0000000000
40
0.0000000000
40
0.0000000000
40
0.0000000000
40
0.1042369794
40
0.2101565184
40
0.3211465757
40
0.4391036804
40
0.5653742541
40
0.7007759626
40
0.8456627244
40
1.0000000000
40
1.0000000000
40
1.0000000000
40
1.0000000000
10
-8.5334280510
20
-3.9139230213
30
0.0000000000
10
-8.5332991601
20
-3.9223209859
30
0.0000000000
10
-8.5313930174
20
-3.9392269817
30
0.0000000000
10
-8.5237237021
20
-3.9640488928
30
0.0000000000
10
-8.5114150030
20
-3.9881513338
30
0.0000000000
10
-8.4946093609
20
-4.0113914796
30
0.0000000000
10
-8.4734956076
20
-4.0335748812
30
0.0000000000
10
-8.4482833522
20
-4.0545194356
30
0.0000000000
10
-8.4192123788
20
-4.0740477930
30
0.0000000000
10
-8.3980819704
20
-4.0856555011
30
0.0000000000
10
-8.3869766453
20
-4.0912126037
30
0.0000000000
11
-8.5334280510
21
-3.9139230213
31
0.0000000000
11
-8.5306425351
21
-3.9389286016
31
0.0000000000
11
-8.5231788235
21
-3.9633820675
31
0.0000000000
11
-8.5111032298
21
-3.9872973789
31
0.0000000000
11
-8.4945294812
21
-4.0104493032
31
0.0000000000
11
-8.4736136681
21
-4.0326197971
31
0.0000000000
11
-8.4485527740
21
-4.0536000605
31
0.0000000000
11
-8.4195828208
21
-4.0731925027
31
0.0000000000
11
-8.3869766453
21
-4.0912126037
31
0.0000000000
0
SPLINE
5
26C
100
AcDbEntity
8
0
100
AcDbSpline
62
9
6
CONTINUOUS
70
0
71
3
72
10
73
6
74
4
42
0.0000001000
43
0.0000001000
44
0.0000000001
12
0.0002272656
22
-0.3467423534
32
0.0000000000
13
0.0004562842
23
-0.3467421277
33
0.0000000000
40
0.0000000000
40
0.0000000000
40
0.0000000000
40
0.0000000000
40
0.3333694106
40
0.6667027409
40
1.0000000000
40
1.0000000000
40
1.0000000000
40
1.0000000000
10
-4.4818893257
20
1.7752972180
30
0.0000000000
10
-4.4818640712
20
1.7367661200
30
0.0000000000
10
-4.4818050856
20
1.6597080995
30
0.0000000000
10
-4.4816911682
20
1.5441273455
30
0.0000000000
10
-4.4815982622
20
1.4670776977
30
0.0000000000
10
-4.4815475694
20
1.4285549641
30
0.0000000000
11
-4.4818893257
21
1.7752972180
31
0.0000000000
11
-4.4818008411
21
1.6597039330
31
0.0000000000
11
-4.4816869223
21
1.5441231809
31
0.0000000000
11
-4.4815475694
21
1.4285549641
31
0.0000000000
0
SPLINE
5
26D
100
AcDbEntity
8
0
100
AcDbSpline
62
9
6
CONTINUOUS
70
0
71
3
72
15
73
11
74
9
42
0.0000001000
43
0.0000001000
44
0.0000000001
12
0.0304416774
22
-0.2359456065
32
0.0000000000
13
0.2123059121
23
-0.1067395601
33
0.0000000000
40
0.0000000000
40
0.0000000000
40
0.0000000000
40
0.0000000000
40
0.0442889916
40
0.1650396768
40
0.2886391881
40
0.4169084200
40
0.5513144599
40
0.6929202648
40
0.8423858227
40
1.0000000000
40
1.0000000000
40
1.0000000000
40
1.0000000000
10
-7.8453620471
20
-13.7015269420
30
0.0000000000
10
-7.8449126367
20
-13.7050102063
30
0.0000000000
10
-7.8428426155
20
-13.7179391295
30
0.0000000000
10
-7.8366562225
20
-13.7400559908
30
0.0000000000
10
-7.8242024708
20
-13.7669475916
30
0.0000000000
10
-7.8072548564
20
-13.7925501204
30
0.0000000000
10
-7.7860036138
20
-13.8166284045
30
0.0000000000
10
-7.7606675207
20
-13.8389719961
30
0.0000000000
10
-7.7314971426
20
-13.8593866238
30
0.0000000000
10
-7.7102314209
20
-13.8712823273
30
0.0000000000
10
-7.6990772803
20
-13.8768902166
30
0.0000000000
11
-7.8453620471
21
-13.7015269420
31
0.0000000000
11
-7.8436959781
21
-13.7119288853
31
0.0000000000
11
-7.8360018677
21
-13.7395718335
31
0.0000000000
11
-7.8237245678
21
-13.7662534232
31
0.0000000000
11
-7.8069797335
21
-13.7917223071
31
0.0000000000
11
-7.7859251054
21
-13.8157385617
31
0.0000000000
11
-7.7607590237
21
-13.8380759479
31
0.0000000000
11
-7.7317185591
21
-13.8585240416
31
0.0000000000
11
-7.6990772803
21
-13.8768902166
31
0.0000000000
0
SPLINE
5
26E
100
AcDbEntity
8
0
100
AcDbSpline
62
9
6
CONTINUOUS
70
0
71
3
72
9
73
5
74
3
42
0.0000001000
43
0.0000001000
44
0.0000000001
12
-0.0076188073
22
0.0038089059
32
0.0000000000
13
-0.0075284463
23
0.0039843953
33
0.0000000000
40
0.0000000000
40
0.0000000000
40
0.0000000000
40
0.0000000000
40
0.8389926930
40
1.0000000000
40
1.0000000000
40
1.0000000000
40
1.0000000000
10
-7.4492891775
20
-14.2914762931
30
0.0000000000
10
-7.4514198854
20
-14.2904110783
30
0.0000000000
10
-7.4539471532
20
-14.2891167941
30
0.0000000000
10
-7.4564591146
20
-14.2877933450
30
0.0000000000
10
-7.4568631596
20
-14.2875795061
30
0.0000000000
11
-7.4492891775
21
-14.2914762931
31
0.0000000000
11
-7.4556498295
21
-14.2882187589
31
0.0000000000
11
-7.4568631596
21
-14.2875795061
31
0.0000000000
0
SPLINE
5
26F
100
AcDbEntity
8
0
100
AcDbSpline
62
9
6
CONTINUOUS
70
0
71
3
72
16
73
12
74
10
42
0.0000001000
43
0.0000001000
44
0.0000000001
12
-0.4380892935
22
0.2318567262
32
0.0000000000
13
-0.0639211602
23
0.4911636945
33
0.0000000000
40
0.0000000000
40
0.0000000000
40
0.0000000000
40
0.0000000000
40
0.0961482480
40
0.1963546766
40
0.2988550602
40
0.4045291603
40
0.5141024090
40
0.6281304979
40
0.7469999017
40
0.8709308961
40
1.0000000000
40
1.0000000000
40
1.0000000000
40
1.0000000000
10
-7.4568631596
20
-14.2875795061
30
0.0000000000
10
-7.4709036656
20
-14.2801486334
30
0.0000000000
10
-7.4985928786
20
-14.2631139769
30
0.0000000000
10
-7.5370402096
20
-14.2319703883
30
0.0000000000
10
-7.5723380127
20
-14.1950995994
30
0.0000000000
10
-7.6039052092
20
-14.1530527257
30
0.0000000000
10
-7.6315486418
20
-14.1061199942
30
0.0000000000
10
-7.6551040074
20
-14.0546159117
30
0.0000000000
10
-7.6744332391
20
-13.9988769571
30
0.0000000000
10
-7.6894230857
20
-13.9392672960
30
0.0000000000
10
-7.6963271982
20
-13.8980215694
30
0.0000000000
10
-7.6990772805
20
-13.8768902168
30
0.0000000000
11
-7.4568631596
21
-14.2875795061
31
0.0000000000
11
-7.4974383373
21
-14.2626442444
31
0.0000000000
11
-7.5360423221
21
-14.2314489204
31
0.0000000000
11
-7.5712119082
21
-14.1948348036
31
0.0000000000
11
-7.6027191804
21
-14.1530392310
31
0.0000000000
11
-7.6303600049
21
-14.1063331084
31
0.0000000000
11
-7.6539552953
21
-14.0550192481
31
0.0000000000
11
-7.6733524569
21
-13.9994295506
31
0.0000000000
11
-7.6884255379
21
-13.9399252350
31
0.0000000000
11
-7.6990772805
21
-13.8768902168
31
0.0000000000
0
SPLINE
5
270
100
AcDbEntity
8
0
100
AcDbSpline
62
9
6
CONTINUOUS
70
0
71
3
72
25
73
21
74
19
42
0.0000001000
43
0.0000001000
44
0.0000000001
12
0.0013679956
22
-1.0309799390
32
0.0000000000
13
0.9221315869
23
-0.4610800825
33
0.0000000000
40
0.0000000000
40
0.0000000000
40
0.0000000000
40
0.0000000000
40
0.0517111543
40
0.1054687234
40
0.1609428515
40
0.2177746693
40
0.2755783500
40
0.3340718202
40
0.3930757028
40
0.4523670745
40
0.5116426745
40
0.5705934836
40
0.6289162109
40
0.6863254656
40
0.7426251122
40
0.7976683404
40
0.8512196291
40
0.9029631058
40
0.9526297993
40
1.0000000000
40
1.0000000000
40
1.0000000000
40
1.0000000000
10
-4.4815475694
20
1.4285549641
30
0.0000000000
10
-4.4815239892
20
1.4107839099
30
0.0000000000
10
-4.4801754090
20
1.3745300349
30
0.0000000000
10
-4.4744627036
20
1.3194799743
30
0.0000000000
10
-4.4650184507
20
1.2631605926
30
0.0000000000
10
-4.4519129549
20
1.2061544681
30
0.0000000000
10
-4.4352697367
20
1.1489992446
30
0.0000000000
10
-4.4152342021
20
1.0921525583
30
0.0000000000
10
-4.3919525952
20
1.0360033717
30
0.0000000000
10
-4.3655848728
20
0.9809377960
30
0.0000000000
10
-4.3363268366
20
0.9273726523
30
0.0000000000
10
-4.3044118652
20
0.8757371675
30
0.0000000000
10
-4.2700977258
20
0.8264423917
30
0.0000000000
10
-4.2336469554
20
0.7798557376
30
0.0000000000
10
-4.1953111503
20
0.7362954629
30
0.0000000000
10
-4.1553489532
20
0.6960666582
30
0.0000000000
10
-4.1140748124
20
0.6595016345
30
0.0000000000
10
-4.0718765073
20
0.6269433814
30
0.0000000000
10
-4.0292008844
20
0.5987002232
30
0.0000000000
10
-4.0000049529
20
0.5824960777
30
0.0000000000
10
-3.9854444335
20
0.5752155923
30
0.0000000000
11
-4.4815475694
21
1.4285549641
31
0.0000000000
11
-4.4796258214
21
1.3752764017
31
0.0000000000
11
-4.4739580992
21
1.3201439383
31
0.0000000000
11
-4.4645429672
21
1.2637314619
31
0.0000000000
11
-4.4514499555
21
1.2066205528
31
0.0000000000
11
-4.4348142958
21
1.1493950534
31
0.0000000000
11
-4.4147858693
21
1.0925124265
31
0.0000000000
11
-4.3914960394
21
1.0363154464
31
0.0000000000
11
-4.3650984644
21
0.9811807635
31
0.0000000000
11
-4.3357991784
21
0.9275502740
31
0.0000000000
11
-4.3038340968
21
0.8758579522
31
0.0000000000
11
-4.2694642675
21
0.8265194743
31
0.0000000000
11
-4.2329687240
21
0.7799225222
31
0.0000000000
11
-4.1945936387
21
0.7363743626
31
0.0000000000
11
-4.1545669597
21
0.6961467750
31
0.0000000000
11
-4.1132037687
21
0.6595780793
31
0.0000000000
11
-4.0709275771
21
0.6270423105
31
0.0000000000
11
-4.0281853017
21
0.5988449369
31
0.0000000000
11
-3.9854444335
21
0.5752155923
31
0.0000000000
0
SPLINE
5
271
100
AcDbEntity
8
0
100
AcDbSpline
62
9
6
CONTINUOUS
70
0
71
3
72
25
73
21
74
19
42
0.0000001000
43
0.0000001000
44
0.0000000001
12
0.6854043203
22
-0.3426913547
32
0.0000000000
13
-0.0009861399
23
0.7662998593
33
0.0000000000
40
0.0000000000
40
0.0000000000
40
0.0000000000
40
0.0000000000
40
0.0610857857
40
0.1199598482
40
0.1764974838
40
0.2307314636
40
0.2828398805
40
0.3332340031
40
0.3825108599
40
0.4312987569
40
0.4801991011
40
0.5298040715
40
0.5806584499
40
0.6332310983
40
0.6879609098
40
0.7452263900
40
0.8051992208
40
0.8678083382
40
0.9328528789
40
1.0000000000
40
1.0000000000
40
1.0000000000
40
1.0000000000
10
1.9514417108
20
-2.3932274798
30
0.0000000000
10
1.9653978646
20
-2.4002053367
30
0.0000000000
10
1.9933885921
20
-2.4127860468
30
0.0000000000
10
2.0361029687
20
-2.4274188795
30
0.0000000000
10
2.0783904498
20
-2.4372517293
30
0.0000000000
10
2.1198035305
20
-2.4421231058
30
0.0000000000
10
2.1599443705
20
-2.4419631497
30
0.0000000000
10
2.1984811760
20
-2.4367680903
30
0.0000000000
10
2.2351341963
20
-2.4265687142
30
0.0000000000
10
2.2696251873
20
-2.4114259145
30
0.0000000000
10
2.3016618985
20
-2.3914544061
30
0.0000000000
10
2.3309645294
20
-2.3668319270
30
0.0000000000
10
2.3572921353
20
-2.3377853651
30
0.0000000000
10
2.3804557967
20
-2.3045633941
30
0.0000000000
10
2.4003109729
20
-2.2674101701
30
0.0000000000
10
2.4167270046
20
-2.2265814790
30
0.0000000000
10
2.4295724787
20
-2.1824031413
30
0.0000000000
10
2.4387386786
20
-2.1353000427
30
0.0000000000
10
2.4441695728
20
-2.0857881092
30
0.0000000000
10
2.4452922889
20
-2.0520055388
30
0.0000000000
10
2.4452702167
20
-2.0348539290
30
0.0000000000
11
1.9514417108
21
-2.3932274798
31
0.0000000000
11
1.9941745731
21
-2.4123346755
31
0.0000000000
11
2.0368863949
21
-2.4268633932
31
0.0000000000
11
2.0791085511
21
-2.4365757246
31
0.0000000000
11
2.1203951025
21
-2.4413312308
31
0.0000000000
11
2.1603250287
21
-2.4410817443
31
0.0000000000
11
2.1985862372
21
-2.4358514684
31
0.0000000000
11
2.2349527849
21
-2.4256849430
31
0.0000000000
11
2.2691800615
21
-2.4106443078
31
0.0000000000
11
2.3009912218
21
-2.3908395687
31
0.0000000000
11
2.3301279171
21
-2.3664266838
31
0.0000000000
11
2.3563569074
21
-2.3376051583
31
0.0000000000
11
2.3794750544
21
-2.3046119916
31
0.0000000000
11
2.3993313126
21
-2.2676708341
31
0.0000000000
11
2.4157962532
21
-2.2269942399
31
0.0000000000
11
2.4287219210
21
-2.1828921736
31
0.0000000000
11
2.4379756377
21
-2.1358156465
31
0.0000000000
11
2.4434905017
21
-2.0862780136
31
0.0000000000
11
2.4452702167
21
-2.0348539290
31
0.0000000000
0
SPLINE
5
272
100
AcDbEntity
8
0
100
AcDbSpline
62
9
6
CONTINUOUS
70
0
71
3
72
10
73
6
74
4
42
0.0000001000
43
0.0000001000
44
0.0000000001
12
-0.0004483936
22
0.3467391765
32
0.0000000000
13
-0.0002233342
23
0.3467393945
33
0.0000000000
40
0.0000000000
40
0.0000000000
40
0.0000000000
40
0.0000000000
40
0.3332966219
40
0.6666299523
40
1.0000000000
40
1.0000000000
40
1.0000000000
40
1.0000000000
10
2.4452702167
20
-2.0348539290
30
0.0000000000
10
2.4452204007
20
-1.9963315969
30
0.0000000000
10
2.4451291015
20
-1.9192826789
30
0.0000000000
10
2.4450171544
20
-1.8037029102
30
0.0000000000
10
2.4449591891
20
-1.7266454734
30
0.0000000000
10
2.4449343714
20
-1.6881146306
30
0.0000000000
11
2.4452702167
21
-2.0348539290
31
0.0000000000
11
2.4451332740
21
-1.9192869173
31
0.0000000000
11
2.4450213256
21
-1.8037071503
31
0.0000000000
11
2.4449343714
21
-1.6881146306
31
0.0000000000
0
SPLINE
5
273
100
AcDbEntity
8
0
100
AcDbSpline
62
9
6
CONTINUOUS
70
0
71
3
72
24
73
20
74
18
42
0.0000001000
43
0.0000001000
44
0.0000000001
12
-0.3235755358
22
-0.1596315065
32
0.0000000000
13
-0.3227193546
23
0.1613553947
33
0.0000000000
40
0.0000000000
40
0.0000000000
40
0.0000000000
40
0.0000000000
40
0.0520628373
40
0.1066359878
40
0.1634537828
40
0.2222278042
40
0.2826364033
40
0.3443318355
40
0.4069445003
40
0.4700915858
40
0.5333818762
40
0.5964228665
40
0.6588248058
40
0.7202080747
40
0.7802079466
40
0.8384833196
40
0.8947210955
40
0.9486435905
40
1.0000000000
40
1.0000000000
40
1.0000000000
40
1.0000000000
10
6.9382951186
20
-3.3673438624
30
0.0000000000
10
6.9326796984
20
-3.3701141521
30
0.0000000000
10
6.9209672260
20
-3.3753682229
30
0.0000000000
10
6.9025371492
20
-3.3822420490
30
0.0000000000
10
6.8829606757
20
-3.3882479758
30
0.0000000000
10
6.8624031549
20
-3.3933347353
30
0.0000000000
10
6.8410343434
20
-3.3974604023
30
0.0000000000
10
6.8190313594
20
-3.4005906241
30
0.0000000000
10
6.7965766411
20
-3.4026993630
30
0.0000000000
10
6.7738566857
20
-3.4037690313
30
0.0000000000
10
6.7510601135
20
-3.4037907209
30
0.0000000000
10
6.7283762674
20
-3.4027642571
30
0.0000000000
10
6.7059934658
20
-3.4006982016
30
0.0000000000
10
6.6840975891
20
-3.3976097980
30
0.0000000000
10
6.6628701313
20
-3.3935247379
30
0.0000000000
10
6.6424869717
20
-3.3884770258
30
0.0000000000
10
6.6231163075
20
-3.3825082182
30
0.0000000000
10
6.6049215390
20
-3.3756691682
30
0.0000000000
10
6.5933795659
20
-3.3704328173
30
0.0000000000
10
6.5878549968
20
-3.3676706060
30
0.0000000000
11
6.9382951186
21
-3.3673438624
31
0.0000000000
11
6.9211687764
21
-3.3750610795
31
0.0000000000
11
6.9027290140
21
-3.3819669425
31
0.0000000000
11
6.8831365820
21
-3.3880003937
31
0.0000000000
11
6.8625553715
21
-3.3931108973
31
0.0000000000
11
6.8411571365
21
-3.3972558281
31
0.0000000000
11
6.8191201125
21
-3.4004006449
31
0.0000000000
11
6.7966284237
21
-3.4025190559
31
0.0000000000
11
6.7738697114
21
-3.4035933866
31
0.0000000000
11
6.7510339964
21
-3.4036146717
31
0.0000000000
11
6.7283116421
21
-3.4025827339
31
0.0000000000
11
6.7058924054
21
-3.4005061889
31
0.0000000000
11
6.6839633184
21
-3.3974023670
31
0.0000000000
11
6.6627075940
21
-3.3932972214
31
0.0000000000
11
6.6423022681
21
-3.3882249634
31
0.0000000000
11
6.6229176221
21
-3.3822279030
31
0.0000000000
11
6.6047157990
21
-3.3753562694
31
0.0000000000
11
6.5878549968
21
-3.3676706060
31
0.0000000000
0
SPLINE
5
274
100
AcDbEntity
8
0
100
AcDbSpline
62
9
6
CONTINUOUS
70
0
71
3
72
14
73
10
74
8
42
0.0000001000
43
0.0000001000
44
0.0000000001
12
0.0001324625
22
-0.0966960666
32
0.0000000000
13
0.0862728400
23
-0.0431378904
33
0.0000000000
40
0.0000000000
40
0.0000000000
40
0.0000000000
40
0.0000000000
40
0.0662408637
40
0.1937946971
40
0.3289689898
40
0.4754371188
40
0.6355296894
40
0.8103501270
40
1.0000000000
40
1.0000000000
40
1.0000000000
40
1.0000000000
10
2.3866933561
20
-1.9641257432
30
0.0000000000
10
2.3866962809
20
-1.9662608202
30
0.0000000000
10
2.3870997972
20
-1.9725068576
30
0.0000000000
10
2.3897395311
20
-1.9828476290
30
0.0000000000
10
2.3957406840
20
-1.9946591639
30
0.0000000000
10
2.4044848805
20
-2.0059405879
30
0.0000000000
10
2.4158166923
20
-2.0165618268
30
0.0000000000
10
2.4295659908
20
-2.0263981055
30
0.0000000000
10
2.4398163390
20
-2.0321268972
30
0.0000000000
10
2.4452702167
20
-2.0348539290
30
0.0000000000
11
2.3866933561
21
-1.9641257432
31
0.0000000000
11
2.3871066714
21
-1.9705127001
31
0.0000000000
11
2.3900896676
21
-1.9824490181
31
0.0000000000
11
2.3959078321
21
-1.9941173641
31
0.0000000000
11
2.4044772619
21
-2.0053494704
31
0.0000000000
11
2.4156743781
21
-2.0159833603
31
0.0000000000
11
2.4293377088
21
-2.0258656837
31
0.0000000000
11
2.4452702167
21
-2.0348539290
31
0.0000000000
0
SPLINE
5
275
100
AcDbEntity
8
0
100
AcDbSpline
62
9
6
CONTINUOUS
70
0
71
3
72
24
73
20
74
18
42
0.0000001000
43
0.0000001000
44
0.0000000001
12
-0.2115313032
22
-0.1118275522
32
0.0000000000
13
0.2140098144
23
-0.1070079111
33
0.0000000000
40
0.0000000000
40
0.0000000000
40
0.0000000000
40
0.0000000000
40
0.0728729396
40
0.1415012203
40
0.2058305976
40
0.2659892935
40
0.3222901230
40
0.3752566615
40
0.4256358481
40
0.4743860483
40
0.5226183929
40
0.5714973779
40
0.6221214930
40
0.6754276074
40
0.7321374712
40
0.7927499948
40
0.8575561611
40
0.9266655309
40
1.0000000000
40
1.0000000000
40
1.0000000000
40
1.0000000000
10
-8.2774013511
20
4.2405043725
30
0.0000000000
10
-8.2825396537
20
4.2377879716
30
0.0000000000
10
-8.2923316978
20
4.2321495963
30
0.0000000000
10
-8.3058421263
20
4.2227873467
30
0.0000000000
10
-8.3176357984
20
4.2128396654
30
0.0000000000
10
-8.3276113852
20
4.2023836925
30
0.0000000000
10
-8.3356824479
20
4.1914967896
30
0.0000000000
10
-8.3417716861
20
4.1802598764
30
0.0000000000
10
-8.3458106426
20
4.1687617717
30
0.0000000000
10
-8.3477439078
20
4.1571053548
30
0.0000000000
10
-8.3475401015
20
4.1454088908
30
0.0000000000
10
-8.3452021749
20
4.1337969994
30
0.0000000000
10
-8.3407665275
20
4.1223859128
30
0.0000000000
10
-8.3342919289
20
4.1112758444
30
0.0000000000
10
-8.3258491499
20
4.1005534041
30
0.0000000000
10
-8.3155176127
20
4.0902978079
30
0.0000000000
10
-8.3033860207
20
4.0805849089
30
0.0000000000
10
-8.2895587445
20
4.0714904137
30
0.0000000000
10
-8.2795734003
20
4.0660436659
30
0.0000000000
10
-8.2743419683
20
4.0634278765
30
0.0000000000
11
-8.2774013511
21
4.2405043725
31
0.0000000000
11
-8.2924917325
21
4.2317688545
31
0.0000000000
11
-8.3059624749
21
4.2223783433
31
0.0000000000
11
-8.3176946329
21
4.2124146063
31
0.0000000000
11
-8.3275899305
21
4.2019609944
31
0.0000000000
11
-8.3355658218
21
4.1911047477
31
0.0000000000
11
-8.3415558376
21
4.1799362890
31
0.0000000000
11
-8.3455098881
21
4.1685489352
31
0.0000000000
11
-8.3473949726
21
4.1570377275
31
0.0000000000
11
-8.3471953779
21
4.1454988239
31
0.0000000000
11
-8.3449127939
21
4.1340283801
31
0.0000000000
11
-8.3405662851
21
4.1227221646
31
0.0000000000
11
-8.3341921288
21
4.1116744978
31
0.0000000000
11
-8.3258436260
21
4.1009776819
31
0.0000000000
11
-8.3155903620
21
4.0907208121
31
0.0000000000
11
-8.3035178487
21
4.0809894725
31
0.0000000000
11
-8.2897272244
21
4.0718650570
31
0.0000000000
11
-8.2743419683
21
4.0634278765
31
0.0000000000
0
SPLINE
5
276
100
AcDbEntity
8
0
100
AcDbSpline
62
9
6
CONTINUOUS
70
0
71
3
72
14
73
10
74
8
42
0.0000001000
43
0.0000001000
44
0.0000000001
12
0.0000697795
22
-0.0966939972
32
0.0000000000
13
0.0862708267
23
-0.0431361460
33
0.0000000000
40
0.0000000000
40
0.0000000000
40
0.0000000000
40
0.0000000000
40
0.0665190497
40
0.1939722712
40
0.3290694318
40
0.4754842846
40
0.6355449034
40
0.8103509468
40
1.0000000000
40
1.0000000000
40
1.0000000000
40
1.0000000000
10
2.3863575739
20
-1.6173950015
30
0.0000000000
10
2.3863591211
20
-1.6195389991
30
0.0000000000
10
2.3867613796
20
-1.6257908984
30
0.0000000000
10
2.3894042774
20
-1.6361340570
30
0.0000000000
10
2.3954057015
20
-1.6479366986
30
0.0000000000
10
2.4041499486
20
-1.6592109134
30
0.0000000000
10
2.4154816599
20
-1.6698268580
30
0.0000000000
10
2.4292307972
20
-1.6796598624
30
0.0000000000
10
2.4394807121
20
-1.6853876870
30
0.0000000000
10
2.4449344390
20
-1.6881145968
30
0.0000000000
11
2.3863575739
21
-1.6173950015
31
0.0000000000
11
2.3867709169
21
-1.6238087013
31
0.0000000000
11
2.3897539105
21
-1.6357346775
31
0.0000000000
11
2.3955720721
21
-1.6473943212
31
0.0000000000
11
2.4041414983
21
-1.6586194904
31
0.0000000000
11
2.4153386103
21
-1.6692483087
31
0.0000000000
11
2.4290019362
21
-1.6791274996
31
0.0000000000
11
2.4449344390
21
-1.6881145968
31
0.0000000000
0
SPLINE
5
277
100
AcDbEntity
8
0
100
AcDbSpline
62
7
6
CONTINUOUS
70
0
71
3
72
23
73
19
74
17
42
0.0000001000
43
0.0000001000
44
0.0000000001
12
-0.0022138358
22
0.3062104756
32
0.0000000000
13
-0.2941502250
23
0.0851199245
33
0.0000000000
40
0.0000000000
40
0.0000000000
40
0.0000000000
40
0.0000000000
40
0.0575100427
40
0.1165761008
40
0.1771270490
40
0.2390306071
40
0.3021040242
40
0.3661248615
40
0.4308411866
40
0.4959816051
40
0.5612644497
40
0.6264061518
40
0.6911290767
40
0.7551685812
40
0.8182793104
40
0.8802413563
40
0.9408657873
40
1.0000000000
40
1.0000000000
40
1.0000000000
40
1.0000000000
10
-3.2360260228
20
2.3017850314
30
0.0000000000
10
-3.2360684620
20
2.3076550906
30
0.0000000000
10
-3.2367834627
20
2.3195569712
30
0.0000000000
10
-3.2396256543
20
2.3374376945
30
0.0000000000
10
-3.2442044580
20
2.3554171002
30
0.0000000000
10
-3.2504570949
20
2.3733161857
30
0.0000000000
10
-3.2583056959
20
2.3909618916
30
0.0000000000
10
-3.2676580411
20
2.4081846950
30
0.0000000000
10
-3.2784086468
20
2.4248217489
30
0.0000000000
10
-3.2904401443
20
2.4407183385
30
0.0000000000
10
-3.3036248670
20
2.4557295462
30
0.0000000000
10
-3.3178265526
20
2.4697215263
30
0.0000000000
10
-3.3329020591
20
2.4825725217
30
0.0000000000
10
-3.3487031174
20
2.4941736069
30
0.0000000000
10
-3.3650777319
20
2.5044291059
30
0.0000000000
10
-3.3818724557
20
2.5132570635
30
0.0000000000
10
-3.3989309069
20
2.5205884966
30
0.0000000000
10
-3.4105319887
20
2.5244940031
30
0.0000000000
10
-3.4163301027
20
2.5261718363
30
0.0000000000
11
-3.2360260228
21
2.3017850314
31
0.0000000000
11
-3.2370551551
21
2.3193655732
31
0.0000000000
11
-3.2398695359
21
2.3372323892
31
0.0000000000
11
-3.2444241537
21
2.3552061066
31
0.0000000000
11
-3.2506576176
21
2.3731079045
31
0.0000000000
11
-3.2584926865
21
2.3907615666
31
0.0000000000
11
-3.2678371947
21
2.4079955804
31
0.0000000000
11
-3.2785852691
21
2.4246450743
31
0.0000000000
11
-3.2906188529
21
2.4405536771
31
0.0000000000
11
-3.3038093825
21
2.4555750800
31
0.0000000000
11
-3.3180195291
21
2.4695743013
31
0.0000000000
11
-3.3331049880
21
2.4824287085
31
0.0000000000
11
-3.3489162025
21
2.4940287394
31
0.0000000000
11
-3.3652999466
21
2.5042783495
31
0.0000000000
11
-3.3821008675
21
2.5130953119
31
0.0000000000
11
-3.3991628248
21
2.5204112964
31
0.0000000000
11
-3.4163301027
21
2.5261718363
31
0.0000000000
0
SPLINE
5
278
100
AcDbEntity
8
0
100
AcDbSpline
62
9
6
CONTINUOUS
70
0
71
3
72
20
73
16
74
14
42
0.0000001000
43
0.0000001000
44
0.0000000001
12
-0.0021210958
22
0.2940834108
32
0.0000000000
13
-0.2621036391
23
0.1333837845
33
0.0000000000
40
0.0000000000
40
0.0000000000
40
0.0000000000
40
0.0000000000
40
0.0726108853
40
0.1483763001
40
0.2267469670
40
0.3070818633
40
0.3886752785
40
0.4707818463
40
0.5526404027
40
0.6334973921
40
0.7126304901
40
0.7893731369
40
0.8631407823
40
0.9334597868
40
1.0000000000
40
1.0000000000
40
1.0000000000
40
1.0000000000
10
-4.1649335143
20
1.8355251637
30
0.0000000000
10
-4.1649848525
20
1.8426430493
30
0.0000000000
10
-4.1658159147
20
1.8571898172
30
0.0000000000
10
-4.1690468024
20
1.8792071489
30
0.0000000000
10
-4.1742434519
20
1.9016226997
30
0.0000000000
10
-4.1813305125
20
1.9241114378
30
0.0000000000
10
-4.1902056369
20
1.9463502893
30
0.0000000000
10
-4.2007406986
20
1.9680182538
30
0.0000000000
10
-4.2127836438
20
1.9888026741
30
0.0000000000
10
-4.2261607348
20
2.0084035850
30
0.0000000000
10
-4.2406793907
20
2.0265383793
30
0.0000000000
10
-4.2561308025
20
2.0429457014
30
0.0000000000
10
-4.2722951122
20
2.0573900180
30
0.0000000000
10
-4.2889391824
20
2.0696616473
30
0.0000000000
10
-4.3005360083
20
2.0764731732
30
0.0000000000
10
-4.3063494857
20
2.0794316350
30
0.0000000000
11
-4.1649335143
21
1.8355251637
31
0.0000000000
11
-4.1661055342
21
1.8568471887
31
0.0000000000
11
-4.1693044328
21
1.8788982999
31
0.0000000000
11
-4.1744835678
21
1.9013569741
31
0.0000000000
11
-4.1815674236
21
1.9238957457
31
0.0000000000
11
-4.1904527120
21
1.9461859807
31
0.0000000000
11
-4.2010098785
21
1.9679026690
31
0.0000000000
11
-4.2130849914
21
1.9887291629
31
0.0000000000
11
-4.2265019855
21
2.0083617944
31
0.0000000000
11
-4.2410652301
21
2.0265143028
31
0.0000000000
11
-4.2565623807
21
2.0429220087
31
0.0000000000
11
-4.2727674759
21
2.0573456733
31
0.0000000000
11
-4.2894442314
21
2.0695749868
31
0.0000000000
11
-4.3063494857
21
2.0794316350
31
0.0000000000
0
SPLINE
5
279
100
AcDbEntity
8
0
100
AcDbSpline
62
9
6
CONTINUOUS
70
0
71
3
72
20
73
16
74
14
42
0.0000001000
43
0.0000001000
44
0.0000000001
12
-0.2600540592
22
-0.1280284117
32
0.0000000000
13
-0.2592604236
23
0.1296280088
33
0.0000000000
40
0.0000000000
40
0.0000000000
40
0.0000000000
40
0.0000000000
40
0.0681704626
40
0.1405828800
40
0.2166436927
40
0.2956446117
40
0.3767929276
40
0.4592380186
40
0.5420956298
40
0.6244710023
40
0.7054816653
40
0.7842806241
40
0.8600807692
40
0.9321816167
40
1.0000000000
40
1.0000000000
40
1.0000000000
40
1.0000000000
10
-4.2002861613
20
1.7748206198
30
0.0000000000
10
-4.2061954965
20
1.7719113678
30
0.0000000000
10
-4.2186800216
20
1.7665057144
30
0.0000000000
10
-4.2385294382
20
1.7597990464
30
0.0000000000
10
-4.2598343978
20
1.7543228134
30
0.0000000000
10
-4.2822901111
20
1.7501560275
30
0.0000000000
10
-4.3055774200
20
1.7473580373
30
0.0000000000
10
-4.3293635980
20
1.7459691621
30
0.0000000000
10
-4.3533086185
20
1.7460093853
30
0.0000000000
10
-4.3770699602
20
1.7474781250
30
0.0000000000
10
-4.4003079750
20
1.7503542472
30
0.0000000000
10
-4.4226906841
20
1.7545963119
30
0.0000000000
10
-4.4439000602
20
1.7601439275
30
0.0000000000
10
-4.4636327436
20
1.7669170847
30
0.0000000000
10
-4.4760284514
20
1.7723668306
30
0.0000000000
10
-4.4818893257
20
1.7752972180
30
0.0000000000
11
-4.2002861613
21
1.7748206198
31
0.0000000000
11
-4.2183964326
21
1.7669165714
31
0.0000000000
11
-4.2382670823
21
1.7601550755
31
0.0000000000
11
-4.2596115586
21
1.7546336388
31
0.0000000000
11
-4.2821220555
21
1.7504318853
31
0.0000000000
11
-4.3054739518
21
1.7476104079
31
0.0000000000
11
-4.3293304931
21
1.7462098947
31
0.0000000000
11
-4.3533476471
21
1.7462505425
31
0.0000000000
11
-4.3771790656
21
1.7477317649
31
0.0000000000
11
-4.4004810788
21
1.7506322016
31
0.0000000000
11
-4.4229176512
21
1.7549100256
31
0.0000000000
11
-4.4441652281
21
1.7605035470
31
0.0000000000
11
-4.4639174007
21
1.7673321023
31
0.0000000000
11
-4.4818893257
21
1.7752972180
31
0.0000000000
0
SPLINE
5
27A
100
AcDbEntity
8
0
100
AcDbSpline
62
9
6
CONTINUOUS
70
0
71
3
72
20
73
16
74
14
42
0.0000001000
43
0.0000001000
44
0.0000000001
12
-0.2599674970
22
-0.1282386903
32
0.0000000000
13
-0.2592749560
23
0.1296331686
33
0.0000000000
40
0.0000000000
40
0.0000000000
40
0.0000000000
40
0.0000000000
40
0.0681897816
40
0.1406165617
40
0.2166870805
40
0.2956934298
40
0.3768433480
40
0.4592867230
40
0.5421398701
40
0.6245086616
40
0.7055113233
40
0.7843016264
40
0.8600933050
40
0.9321868072
40
1.0000000000
40
1.0000000000
40
1.0000000000
40
1.0000000000
10
-4.1999444984
20
1.4282170408
30
0.0000000000
10
-4.2058535407
20
1.4253021847
30
0.0000000000
10
-4.2183375364
20
1.4198852759
30
0.0000000000
10
-4.2381870190
20
1.4131621922
30
0.0000000000
10
-4.2594920496
20
1.4076700397
30
0.0000000000
10
-4.2819478352
20
1.4034880548
30
0.0000000000
10
-4.3052352163
20
1.4006757982
30
0.0000000000
10
-4.3290214674
20
1.3992737908
30
0.0000000000
10
-4.3529665633
20
1.3993022021
30
0.0000000000
10
-4.3767279854
20
1.4007606188
30
0.0000000000
10
-4.3999660883
20
1.4036280553
30
0.0000000000
10
-4.4223488966
20
1.4078631981
30
0.0000000000
10
-4.4435583878
20
1.4134057595
30
0.0000000000
10
-4.4632912010
20
1.4201758083
30
0.0000000000
10
-4.4756867896
20
1.4256246972
30
0.0000000000
10
-4.4815475438
20
1.4285549769
30
0.0000000000
11
-4.1999444984
21
1.4282170408
31
0.0000000000
11
-4.2180547553
21
1.4202963656
31
0.0000000000
11
-4.2379253917
21
1.4135184832
31
0.0000000000
11
-4.2592698555
21
1.4079811367
31
0.0000000000
11
-4.2817803408
21
1.4037641794
31
0.0000000000
11
-4.3051322267
21
1.4009284237
31
0.0000000000
11
-4.3289887583
21
1.3995147635
31
0.0000000000
11
-4.3530059035
21
1.3995435851
31
0.0000000000
11
-4.3768373141
21
1.4010144729
31
0.0000000000
11
-4.4001393200
21
1.4039062154
31
0.0000000000
11
-4.4225758859
21
1.4081771111
31
0.0000000000
11
-4.4438234568
21
1.4137655700
31
0.0000000000
11
-4.4635756239
21
1.4205910015
31
0.0000000000
11
-4.4815475438
21
1.4285549769
31
0.0000000000
0
SPLINE
5
27B
100
AcDbEntity
8
0
100
AcDbSpline
62
9
6
CONTINUOUS
70
0
71
3
72
20
73
16
74
14
42
0.0000001000
43
0.0000001000
44
0.0000000001
12
-0.2614947987
22
-0.1335423045
32
0.0000000000
13
0.0007194237
23
-0.2936197528
33
0.0000000000
40
0.0000000000
40
0.0000000000
40
0.0000000000
40
0.0000000000
40
0.0669653201
40
0.1375889044
40
0.2115461446
40
0.2883738356
40
0.3675014617
40
0.4482791819
40
0.5300033974
40
0.6119407464
40
0.6933512670
40
0.7735113792
40
0.8517373174
40
0.9274096971
40
1.0000000000
40
1.0000000000
40
1.0000000000
40
1.0000000000
10
-3.8452578309
20
0.8190265044
30
0.0000000000
10
-3.8510948585
20
0.8160456033
30
0.0000000000
10
-3.8627279045
20
0.8091974566
30
0.0000000000
10
-3.8794082524
20
0.7968788539
30
0.0000000000
10
-3.8955752403
20
0.7824040935
30
0.0000000000
10
-3.9109972630
20
0.7659819509
30
0.0000000000
10
-3.9254564143
20
0.7478466090
30
0.0000000000
10
-3.9387462462
20
0.7282576267
30
0.0000000000
10
-3.9506768294
20
0.7074954424
30
0.0000000000
10
-3.9610773013
20
0.6858575484
30
0.0000000000
10
-3.9697986297
20
0.6636539023
30
0.0000000000
10
-3.9767157907
20
0.6412026653
30
0.0000000000
10
-3.9817295372
20
0.6188240083
30
0.0000000000
10
-3.9847676076
20
0.5968401476
30
0.0000000000
10
-3.9854618412
20
0.5823202413
30
0.0000000000
10
-3.9854444335
20
0.5752155923
30
0.0000000000
11
-3.8452578309
21
0.8190265044
31
0.0000000000
11
-3.8622328367
21
0.8091038463
31
0.0000000000
11
-3.8789442436
21
0.7968265079
31
0.0000000000
11
-3.8951501340
21
0.7823722184
31
0.0000000000
11
-3.9106159083
21
0.7659502208
31
0.0000000000
11
-3.9251176809
21
0.7477982433
31
0.0000000000
11
-3.9384455212
21
0.7281790574
31
0.0000000000
11
-3.9504064928
21
0.7073766743
31
0.0000000000
11
-3.9608274464
21
0.6856922335
31
0.0000000000
11
-3.9695575262
21
0.6634396431
31
0.0000000000
11
-3.9764703537
21
0.6409410361
31
0.0000000000
11
-3.9814658577
21
0.6185221066
31
0.0000000000
11
-3.9844717221
21
0.5965073956
31
0.0000000000
11
-3.9854444335
21
0.5752155923
31
0.0000000000
0
SPLINE
5
27C
100
AcDbEntity
8
0
100
AcDbSpline
62
9
6
CONTINUOUS
70
0
71
3
72
20
73
16
74
14
42
0.0000001000
43
0.0000001000
44
0.0000000001
12
-0.2614947987
22
-0.1335423045
32
0.0000000000
13
0.0007194237
23
-0.2936197528
33
0.0000000000
40
0.0000000000
40
0.0000000000
40
0.0000000000
40
0.0000000000
40
0.0669653077
40
0.1375888792
40
0.2115461067
40
0.2883737863
40
0.3675014030
40
0.4482791167
40
0.5300033293
40
0.6119406796
40
0.6933512058
40
0.7735113279
40
0.8517372800
40
0.9274096771
40
1.0000000000
40
1.0000000000
40
1.0000000000
40
1.0000000000
10
2.0916283134
20
-2.1494165677
30
0.0000000000
10
2.0857912868
20
-2.1523974683
30
0.0000000000
10
2.0741582429
20
-2.1592456136
30
0.0000000000
10
2.0574778977
20
-2.1715642136
30
0.0000000000
10
2.0413109119
20
-2.1860389710
30
0.0000000000
10
2.0258888907
20
-2.2024611105
30
0.0000000000
10
2.0114297400
20
-2.2205964495
30
0.0000000000
10
1.9981399081
20
-2.2401854295
30
0.0000000000
10
1.9862093240
20
-2.2609476124
30
0.0000000000
10
1.9758088506
20
-2.2825855061
30
0.0000000000
10
1.9670875204
20
-2.3047891532
30
0.0000000000
10
1.9601703573
20
-2.3272403927
30
0.0000000000
10
1.9551566088
20
-2.3496190533
30
0.0000000000
10
1.9521185371
20
-2.3716029189
30
0.0000000000
10
1.9514243031
20
-2.3861228289
30
0.0000000000
10
1.9514417108
20
-2.3932274798
30
0.0000000000
11
2.0916283134
21
-2.1494165677
31
0.0000000000
11
2.0746533106
21
-2.1593392238
31
0.0000000000
11
2.0579419064
21
-2.1716165595
31
0.0000000000
11
2.0417360182
21
-2.1860708460
31
0.0000000000
11
2.0262702455
21
-2.2024928404
31
0.0000000000
11
2.0117684737
21
-2.2206448150
31
0.0000000000
11
1.9984406333
21
-2.2402639985
31
0.0000000000
11
1.9864796608
21
-2.2610663801
31
0.0000000000
11
1.9760587057
21
-2.2827508206
31
0.0000000000
11
1.9673286240
21
-2.3050034120
31
0.0000000000
11
1.9604157944
21
-2.3275020215
31
0.0000000000
11
1.9554202885
21
-2.3499209547
31
0.0000000000
11
1.9524144227
21
-2.3719356707
31
0.0000000000
11
1.9514417108
21
-2.3932274798
31
0.0000000000
0
SPLINE
5
27D
100
AcDbEntity
8
0
100
AcDbSpline
62
9
6
CONTINUOUS
70
0
71
3
72
13
73
9
74
7
42
0.0000001000
43
0.0000001000
44
0.0000000001
12
-0.0848685491
22
0.0416226190
32
0.0000000000
13
-0.0840217549
23
-0.0436363352
33
0.0000000000
40
0.0000000000
40
0.0000000000
40
0.0000000000
40
0.0000000000
40
0.1971679753
40
0.3826471415
40
0.5574068300
40
0.7232826624
40
0.8829692522
40
1.0000000000
40
1.0000000000
40
1.0000000000
40
1.0000000000
10
2.6198625139
20
-1.3836743647
30
0.0000000000
10
2.6142847272
20
-1.3809388156
30
0.0000000000
10
2.6031434884
20
-1.3762370132
30
0.0000000000
10
2.5861512489
20
-1.3715808533
30
0.0000000000
10
2.5696205956
20
-1.3696173557
30
0.0000000000
10
2.5537938149
20
-1.3704017910
30
0.0000000000
10
2.5401460962
20
-1.3736570695
30
0.0000000000
10
2.5320995581
20
-1.3771129838
30
0.0000000000
10
2.5288218485
20
-1.3788152481
30
0.0000000000
11
2.6198625139
21
-1.3836743647
31
0.0000000000
11
2.6026641488
21
-1.3764930947
31
0.0000000000
11
2.5857351035
21
-1.3719326299
31
0.0000000000
11
2.5693223711
21
-1.3700593857
31
0.0000000000
11
2.5536654192
21
-1.3709005940
31
0.0000000000
11
2.5389927025
21
-1.3744439035
31
0.0000000000
11
2.5288218485
21
-1.3788152481
31
0.0000000000
0
SPLINE
5
27E
100
AcDbEntity
8
0
100
AcDbSpline
62
9
6
CONTINUOUS
70
0
71
3
72
21
73
17
74
15
42
0.0000001000
43
0.0000001000
44
0.0000000001
12
-0.0026710390
22
0.3672501656
32
0.0000000000
13
-0.3261118675
23
0.1689108300
33
0.0000000000
40
0.0000000000
40
0.0000000000
40
0.0000000000
40
0.0000000000
40
0.0673928350
40
0.1375555479
40
0.2100479423
40
0.2843591485
40
0.3599266302
40
0.4361537534
40
0.5124264577
40
0.5881294902
40
0.6626626099
40
0.7354571675
40
0.8059935095
40
0.8738197350
40
0.9385724257
40
1.0000000000
40
1.0000000000
40
1.0000000000
40
1.0000000000
10
7.1135023593
20
-3.6729881204
30
0.0000000000
10
7.1134423564
20
-3.6647381105
30
0.0000000000
10
7.1125472219
20
-3.6478975913
30
0.0000000000
10
7.1090790421
20
-3.6223933049
30
0.0000000000
10
7.1034999816
20
-3.5963995518
30
0.0000000000
10
7.0958798903
20
-3.5702418271
30
0.0000000000
10
7.0863137904
20
-3.5442446515
30
0.0000000000
10
7.0749209278
20
-3.5187320189
30
0.0000000000
10
7.0618433167
20
-3.4940218197
30
0.0000000000
10
7.0472439257
20
-3.4704220504
30
0.0000000000
10
7.0313045680
20
-3.4482267441
30
0.0000000000
10
7.0142233136
20
-3.4277121606
30
0.0000000000
10
6.9962122123
20
-3.4091335466
30
0.0000000000
10
6.9774925809
20
-3.3927211901
30
0.0000000000
10
6.9582976680
20
-3.3786809155
30
0.0000000000
10
6.9449725389
20
-3.3708024566
30
0.0000000000
10
6.9382951186
20
-3.3673438624
30
0.0000000000
11
7.1135023593
21
-3.6729881204
31
0.0000000000
11
7.1122349380
21
-3.6482699080
31
0.0000000000
11
7.1087999417
21
-3.6227319359
31
0.0000000000
11
7.1032405594
21
-3.5966952968
31
0.0000000000
11
7.0956266901
21
-3.5704873533
31
0.0000000000
11
7.0860540640
21
-3.5444376216
31
0.0000000000
11
7.0746430392
21
-3.5188736288
31
0.0000000000
11
7.0615370885
21
-3.4941167949
31
0.0000000000
11
7.0469009948
21
-3.4704783909
31
0.0000000000
11
7.0309187800
21
-3.4482556260
31
0.0000000000
11
7.0137913908
21
-3.4277279101
31
0.0000000000
11
6.9957341724
21
-3.4091533411
31
0.0000000000
11
6.9769741610
21
-3.3927654594
31
0.0000000000
11
6.9577472287
21
-3.3787703123
31
0.0000000000
11
6.9382951186
21
-3.3673438624
31
0.0000000000
0
SPLINE
5
27F
100
AcDbEntity
8
0
100
AcDbSpline
62
9
6
CONTINUOUS
70
0
71
3
72
21
73
17
74
15
42
0.0000001000
43
0.0000001000
44
0.0000000001
12
-0.0002388648
22
0.3664963430
32
0.0000000000
13
0.3261638296
23
0.1671430009
33
0.0000000000
40
0.0000000000
40
0.0000000000
40
0.0000000000
40
0.0000000000
40
0.0673600564
40
0.1374002827
40
0.2097042500
40
0.2837859084
40
0.3591077597
40
0.4350982200
40
0.5111676838
40
0.5867244983
40
0.6611906880
40
0.7340180538
40
0.8047051040
40
0.8728149463
40
0.9379952469
40
1.0000000000
40
1.0000000000
40
1.0000000000
40
1.0000000000
10
2.4449343714
20
-1.6881146306
30
0.0000000000
10
2.4449290081
20
-1.6798855591
30
0.0000000000
10
2.4456971928
20
-1.6630922056
30
0.0000000000
10
2.4489966241
20
-1.6376610192
30
0.0000000000
10
2.4544259197
20
-1.6117586362
30
0.0000000000
10
2.4619176379
20
-1.5857062857
30
0.0000000000
10
2.4713792004
20
-1.5598239129
30
0.0000000000
10
2.4826937909
20
-1.5344308591
30
0.0000000000
10
2.4957217611
20
-1.5098403563
30
0.0000000000
10
2.5103023811
20
-1.4863558684
30
0.0000000000
10
2.5262558938
20
-1.4642671191
30
0.0000000000
10
2.5433860371
20
-1.4438463851
30
0.0000000000
10
2.5614822556
20
-1.4253453556
30
0.0000000000
10
2.5803242977
20
-1.4089912738
30
0.0000000000
10
2.5996795566
20
-1.3949874625
30
0.0000000000
10
2.6131212809
20
-1.3871289197
30
0.0000000000
10
2.6198625168
20
-1.3836743662
30
0.0000000000
11
2.4449343714
21
-1.6881146306
31
0.0000000000
11
2.4460171574
21
-1.6634511680
31
0.0000000000
11
2.4492833216
21
-1.6379903157
31
0.0000000000
11
2.4546921996
21
-1.6120490602
31
0.0000000000
11
2.4621764622
21
-1.5859503189
31
0.0000000000
11
2.4716429322
21
-1.5600190174
31
0.0000000000
11
2.4829737686
21
-1.5345779570
31
0.0000000000
11
2.4960279095
21
-1.5099438662
31
0.0000000000
11
2.5106428468
21
-1.4864234108
31
0.0000000000
11
2.5266366400
21
-1.4643093978
31
0.0000000000
11
2.5438101772
21
-1.4438771331
31
0.0000000000
11
2.5619496732
21
-1.4253809696
31
0.0000000000
11
2.5808292954
21
-1.4090511815
31
0.0000000000
11
2.6002140254
21
-1.3950910468
31
0.0000000000
11
2.6198625168
21
-1.3836743662
31
0.0000000000
0
SPLINE
5
280
100
AcDbEntity
8
0
100
AcDbSpline
62
9
6
CONTINUOUS
70
0
71
3
72
20
73
16
74
14
42
0.0000001000
43
0.0000001000
44
0.0000000001
12
-0.0002381714
22
0.3665499159
32
0.0000000000
13
0.3264447576
23
0.1667114809
33
0.0000000000
40
0.0000000000
40
0.0000000000
40
0.0000000000
40
0.0000000000
40
0.0726405182
40
0.1483504569
40
0.2266011449
40
0.3067738655
40
0.3881861555
40
0.4701162103
40
0.5518261734
40
0.6325849852
40
0.7116914169
40
0.7884979378
40
0.8624361474
40
0.9330446154
40
1.0000000000
40
1.0000000000
40
1.0000000000
40
1.0000000000
10
6.4126210054
20
-3.6719579478
30
0.0000000000
10
6.4126152384
20
-3.6630824892
30
0.0000000000
10
6.4135120698
20
-3.6449470386
30
0.0000000000
10
6.4173446383
20
-3.6174946463
30
0.0000000000
10
6.4236387890
20
-3.5895562264
30
0.0000000000
10
6.4323040637
20
-3.5615329375
30
0.0000000000
10
6.4432164846
20
-3.5338233175
30
0.0000000000
10
6.4562200529
20
-3.5068233250
30
0.0000000000
10
6.4711289546
20
-3.4809186549
30
0.0000000000
10
6.4877302681
20
-3.4564794512
30
0.0000000000
10
6.5057874008
20
-3.4338546148
30
0.0000000000
10
6.5250432511
20
-3.4133670591
30
0.0000000000
10
6.5452264980
20
-3.3953081297
30
0.0000000000
10
6.5660488001
20
-3.3799375782
30
0.0000000000
10
6.5805692521
20
-3.3713913498
30
0.0000000000
10
6.5878549968
20
-3.3676706060
30
0.0000000000
11
6.4126210054
21
-3.6719579478
31
0.0000000000
11
6.4138800729
21
-3.6453613514
31
0.0000000000
11
6.4176728323
21
-3.6178702714
31
0.0000000000
11
6.4239445332
21
-3.5898815565
31
0.0000000000
11
6.4326046400
21
-3.5617992391
31
0.0000000000
11
6.4435281396
21
-3.5340287028
31
0.0000000000
11
6.4565573450
21
-3.5069708304
31
0.0000000000
11
6.4715041727
21
-3.4810162172
31
0.0000000000
11
6.4881528571
21
-3.4565395320
31
0.0000000000
11
6.5062630653
21
-3.4338941093
31
0.0000000000
11
6.5255733665
21
-3.4134068481
31
0.0000000000
11
6.5458050060
21
-3.3953734932
31
0.0000000000
11
6.5666659290
21
-3.3800543658
31
0.0000000000
11
6.5878549968
21
-3.3676706060
31
0.0000000000
0
SPLINE
5
281
100
AcDbEntity
8
0
100
AcDbSpline
62
9
6
CONTINUOUS
70
0
71
3
72
14
73
10
74
8
42
0.0000001000
43
0.0000001000
44
0.0000000001
12
-0.1077950128
22
0.0520285912
32
0.0000000000
13
-0.1059532281
23
-0.0560315926
33
0.0000000000
40
0.0000000000
40
0.0000000000
40
0.0000000000
40
0.0000000000
40
0.1820587560
40
0.3542526090
40
0.5172574478
40
0.6723682971
40
0.8215092213
40
0.9671545407
40
1.0000000000
40
1.0000000000
40
1.0000000000
40
1.0000000000
10
-8.2774013511
20
4.2405043725
30
0.0000000000
10
-8.2839430264
20
4.2436617927
30
0.0000000000
10
-8.2970111265
20
4.2491404456
30
0.0000000000
10
-8.3169203402
20
4.2547777353
30
0.0000000000
10
-8.3363567483
20
4.2575254044
30
0.0000000000
10
-8.3550763517
20
4.2573274836
30
0.0000000000
10
-8.3728353036
20
4.2541630231
30
0.0000000000
10
-8.3851653806
20
4.2496118374
30
0.0000000000
10
-8.3915377107
20
4.2464078548
30
0.0000000000
10
-8.3926977382
20
4.2457943937
30
0.0000000000
11
-8.2774013511
21
4.2405043725
31
0.0000000000
11
-8.2975248069
21
4.2488657055
31
0.0000000000
11
-8.3173758520
21
4.2544095470
31
0.0000000000
11
-8.3367048965
21
4.2570661933
31
0.0000000000
11
-8.3552689135
21
4.2568022418
31
0.0000000000
11
-8.3728344948
21
4.2536210111
31
0.0000000000
11
-8.3891807859
21
4.2475624990
31
0.0000000000
11
-8.3926977382
21
4.2457943937
31
0.0000000000
0
SPLINE
5
282
100
AcDbEntity
8
0
100
AcDbSpline
62
9
6
CONTINUOUS
70
0
71
3
72
22
73
18
74
16
42
0.0000001000
43
0.0000001000
44
0.0000000001
12
-0.3267616776
22
-0.1663014637
32
0.0000000000
13
0.0002363447
23
-0.3666460349
33
0.0000000000
40
0.0000000000
40
0.0000000000
40
0.0000000000
40
0.0000000000
40
0.0578583769
40
0.1184759795
40
0.1816637085
40
0.2471480337
40
0.3145891376
40
0.3835950222
40
0.4537333458
40
0.5245448518
40
0.5955542454
40
0.6662818464
40
0.7362540251
40
0.8050157225
40
0.8721410223
40
0.9372451517
40
1.0000000000
40
1.0000000000
40
1.0000000000
40
1.0000000000
10
-4.3063494857
20
2.0794316350
30
0.0000000000
10
-4.3126514524
20
2.0762243241
30
0.0000000000
10
-4.3252227119
20
2.0689857472
30
0.0000000000
10
-4.3433921047
20
2.0561804426
30
0.0000000000
10
-4.3611410602
20
2.0413029456
30
0.0000000000
10
-4.3782782839
20
2.0245145553
30
0.0000000000
10
-4.3946217833
20
2.0059952723
30
0.0000000000
10
-4.4099963705
20
1.9859441802
30
0.0000000000
10
-4.4242371473
20
1.9645768194
30
0.0000000000
10
-4.4371910180
20
1.9421231037
30
0.0000000000
10
-4.4487186455
20
1.9188246603
30
0.0000000000
10
-4.4586959374
20
1.8949322928
30
0.0000000000
10
-4.4670154910
20
1.8707030049
30
0.0000000000
10
-4.4735877111
20
1.8463974786
30
0.0000000000
10
-4.4783417054
20
1.8222760712
30
0.0000000000
10
-4.4812260064
20
1.7985996860
30
0.0000000000
10
-4.4818942696
20
1.7829668234
30
0.0000000000
10
-4.4818893257
20
1.7752972180
30
0.0000000000
11
-4.3063494857
21
2.0794316350
31
0.0000000000
11
-4.3247578190
21
2.0688889637
31
0.0000000000
11
-4.3429495363
21
2.0561209840
31
0.0000000000
11
-4.3607276918
21
2.0412659556
31
0.0000000000
11
-4.3778992646
21
2.0244851126
31
0.0000000000
11
-4.3942780173
21
2.0059604830
31
0.0000000000
11
-4.4096863989
21
1.9858928677
31
0.0000000000
11
-4.4239572058
21
1.9645000225
31
0.0000000000
11
-4.4369356852
21
1.9420139346
31
0.0000000000
11
-4.4484810619
21
1.9186785096
31
0.0000000000
11
-4.4584681366
21
1.8947467952
31
0.0000000000
11
-4.4667885454
21
1.8704784780
31
0.0000000000
11
-4.4733520947
21
1.8461366441
31
0.0000000000
11
-4.4780875918
21
1.8219852939
31
0.0000000000
11
-4.4809436463
21
1.7982865968
31
0.0000000000
11
-4.4818893257
21
1.7752972180
31
0.0000000000
0
SPLINE
5
283
100
AcDbEntity
8
0
100
AcDbSpline
62
9
6
CONTINUOUS
70
0
71
3
72
20
73
16
74
14
42
0.0000001000
43
0.0000001000
44
0.0000000001
12
-0.3264447576
22
-0.1667114809
32
0.0000000000
13
0.0002381714
23
-0.3665499159
33
0.0000000000
40
0.0000000000
40
0.0000000000
40
0.0000000000
40
0.0000000000
40
0.0669553846
40
0.1375638526
40
0.2115020622
40
0.2883085831
40
0.3674150148
40
0.4481738266
40
0.5298837897
40
0.6118138445
40
0.6932261345
40
0.7733988551
40
0.8516495431
40
0.9273594818
40
1.0000000000
40
1.0000000000
40
1.0000000000
40
1.0000000000
10
-8.2743419683
20
4.0634278765
30
0.0000000000
10
-8.2816277130
20
4.0597071327
30
0.0000000000
10
-8.2961481650
20
4.0511609043
30
0.0000000000
10
-8.3169704671
20
4.0357903528
30
0.0000000000
10
-8.3371537139
20
4.0177314234
30
0.0000000000
10
-8.3564095643
20
3.9972438677
30
0.0000000000
10
-8.3744666970
20
3.9746190313
30
0.0000000000
10
-8.3910680105
20
3.9501798276
30
0.0000000000
10
-8.4059769121
20
3.9242751576
30
0.0000000000
10
-8.4189804804
20
3.8972751650
30
0.0000000000
10
-8.4298929013
20
3.8695655451
30
0.0000000000
10
-8.4385581761
20
3.8415422561
30
0.0000000000
10
-8.4448523268
20
3.8136038363
30
0.0000000000
10
-8.4486848952
20
3.7861514440
30
0.0000000000
10
-8.4495817266
20
3.7680159934
30
0.0000000000
10
-8.4495759597
20
3.7591405347
30
0.0000000000
11
-8.2743419683
21
4.0634278765
31
0.0000000000
11
-8.2955310360
21
4.0510441167
31
0.0000000000
11
-8.3163919591
21
4.0357249894
31
0.0000000000
11
-8.3366235986
21
4.0176916344
31
0.0000000000
11
-8.3559338998
21
3.9972043732
31
0.0000000000
11
-8.3740441080
21
3.9745589505
31
0.0000000000
11
-8.3906927923
21
3.9500822654
31
0.0000000000
11
-8.4056396201
21
3.9241276521
31
0.0000000000
11
-8.4186688255
21
3.8970697797
31
0.0000000000
11
-8.4295923250
21
3.8692992434
31
0.0000000000
11
-8.4382524319
21
3.8412169260
31
0.0000000000
11
-8.4445241328
21
3.8132282112
31
0.0000000000
11
-8.4483168922
21
3.7857371311
31
0.0000000000
11
-8.4495759597
21
3.7591405347
31
0.0000000000
0
SPLINE
5
284
100
AcDbEntity
8
0
100
AcDbSpline
62
9
6
CONTINUOUS
70
0
71
3
72
10
73
6
74
4
42
0.0000001000
43
0.0000001000
44
0.0000000001
12
0.0002271755
22
-0.3466036571
32
0.0000000000
13
0.0004561032
23
-0.3466034314
33
0.0000000000
40
0.0000000000
40
0.0000000000
40
0.0000000000
40
0.0000000000
40
0.3333694102
40
0.6667027409
40
1.0000000000
40
1.0000000000
40
1.0000000000
40
1.0000000000
10
-4.2002861613
20
1.7748206198
30
0.0000000000
10
-4.2002609169
20
1.7363049343
30
0.0000000000
10
-4.2002019547
20
1.6592777368
30
0.0000000000
10
-4.2000880825
20
1.5437432149
30
0.0000000000
10
-4.1999952132
20
1.4667243868
30
0.0000000000
10
-4.1999445406
20
1.4282170623
30
0.0000000000
11
-4.2002861613
21
1.7748206198
31
0.0000000000
11
-4.2001977118
21
1.6592735721
31
0.0000000000
11
-4.2000838383
21
1.5437390520
31
0.0000000000
11
-4.1999445406
21
1.4282170623
31
0.0000000000
0
SPLINE
5
285
100
AcDbEntity
8
0
100
AcDbSpline
62
9
6
CONTINUOUS
70
0
71
3
72
22
73
18
74
16
42
0.0000001000
43
0.0000001000
44
0.0000000001
12
-0.0655858746
22
-0.0329221378
32
0.0000000000
13
0.0000471514
23
-0.0733850930
33
0.0000000000
40
0.0000000000
40
0.0000000000
40
0.0000000000
40
0.0000000000
40
0.0579869690
40
0.1187473720
40
0.1820445807
40
0.2476066659
40
0.3150958946
40
0.3841229729
40
0.4542578688
40
0.5250431461
40
0.5960073746
40
0.6666752164
40
0.7365777920
40
0.8052652000
40
0.8723170017
40
0.9373544590
40
1.0000000000
40
1.0000000000
40
1.0000000000
40
1.0000000000
10
-4.1649335143
20
1.8355251637
30
0.0000000000
10
-4.1662012230
20
1.8348888121
30
0.0000000000
10
-4.1687313717
20
1.8334510719
30
0.0000000000
10
-4.1723901818
20
1.8309034070
30
0.0000000000
10
-4.1759653586
20
1.8279401930
30
0.0000000000
10
-4.1794173600
20
1.8245941718
30
0.0000000000
10
-4.1827095262
20
1.8209012349
30
0.0000000000
10
-4.1858065354
20
1.8169010876
30
0.0000000000
10
-4.1886751244
20
1.8126367828
30
0.0000000000
10
-4.1912844189
20
1.8081542676
30
0.0000000000
10
-4.1936063381
20
1.8035018295
30
0.0000000000
10
-4.1956158988
20
1.7987295644
30
0.0000000000
10
-4.1972914737
20
1.7938888104
30
0.0000000000
10
-4.1986150420
20
1.7890316553
30
0.0000000000
10
-4.1995722976
20
1.7842101159
30
0.0000000000
10
-4.2001527911
20
1.7794777040
30
0.0000000000
10
-4.2002871459
20
1.7763530361
30
0.0000000000
10
-4.2002861613
20
1.7748206198
30
0.0000000000
11
-4.1649335143
21
1.8355251637
31
0.0000000000
11
-4.1686380563
21
1.8334312135
31
0.0000000000
11
-4.1723021767
21
1.8308903300
31
0.0000000000
11
-4.1758830604
21
1.8279316191
31
0.0000000000
11
-4.1793418213
21
1.8245871617
31
0.0000000000
11
-4.1826409356
21
1.8208932309
31
0.0000000000
11
-4.1857446258
21
1.8168898571
31
0.0000000000
11
-4.1886191618
21
1.8126205270
31
0.0000000000
11
-4.1912333014
21
1.8081316530
31
0.0000000000
11
-4.1935586961
21
1.8034719468
31
0.0000000000
11
-4.1955701392
21
1.7986919518
31
0.0000000000
11
-4.1972458158
21
1.7938435460
31
0.0000000000
11
-4.1985675756
21
1.7889792957
31
0.0000000000
11
-4.1995210833
21
1.7841519606
31
0.0000000000
11
-4.2000960278
21
1.7794139362
31
0.0000000000
11
-4.2002861613
21
1.7748206198
31
0.0000000000
0
SPLINE
5
286
100
AcDbEntity
8
0
100
AcDbSpline
62
7
6
CONTINUOUS
70
0
71
3
72
10
73
6
74
4
42
0.0000001000
43
0.0000001000
44
0.0000000001
12
0.0000055493
22
-0.0007675556
32
0.0000000000
13
0.0000000000
23
-0.0007675757
33
0.0000000000
40
0.0000000000
40
0.0000000000
40
0.0000000000
40
0.0000000000
40
0.3329314802
40
0.6662635300
40
1.0000000000
40
1.0000000000
40
1.0000000000
40
1.0000000000
10
-3.2360260228
20
2.3017850314
30
0.0000000000
10
-3.2360254069
20
2.3016998503
30
0.0000000000
10
-3.2360243808
20
2.3015293839
30
0.0000000000
10
-3.2360234579
20
2.3012735268
30
0.0000000000
10
-3.2360232531
20
2.3011028516
30
0.0000000000
10
-3.2360232531
20
2.3010174622
30
0.0000000000
11
-3.2360260228
21
2.3017850314
31
0.0000000000
11
-3.2360244841
21
2.3015294859
31
0.0000000000
11
-3.2360235609
21
2.3012736300
31
0.0000000000
11
-3.2360232531
21
2.3010174622
31
0.0000000000
0
SPLINE
5
287
100
AcDbEntity
8
0
100
AcDbSpline
62
9
6
CONTINUOUS
70
0
71
3
72
25
73
21
74
19
42
0.0000001000
43
0.0000001000
44
0.0000000001
12
-0.0007573343
22
-0.7366336906
32
0.0000000000
13
0.6597887704
23
-0.3275798318
33
0.0000000000
40
0.0000000000
40
0.0000000000
40
0.0000000000
40
0.0000000000
40
0.0517489184
40
0.1055074968
40
0.1609703396
40
0.2177809597
40
0.2755561487
40
0.3340164075
40
0.3929847456
40
0.4522405380
40
0.5114828214
40
0.5704048623
40
0.6287056947
40
0.6861019430
40
0.7423993195
40
0.7974528194
40
0.8510286671
40
0.9028124646
40
0.9525362174
40
1.0000000000
40
1.0000000000
40
1.0000000000
40
1.0000000000
10
-4.1999445406
20
1.4282170623
30
0.0000000000
10
-4.1999576043
20
1.4155103967
30
0.0000000000
10
-4.1990499868
20
1.3895952551
30
0.0000000000
10
-4.1950396290
20
1.3502476807
30
0.0000000000
10
-4.1883525681
20
1.3100049565
30
0.0000000000
10
-4.1790381227
20
1.2692779249
30
0.0000000000
10
-4.1671841238
20
1.2284506138
30
0.0000000000
10
-4.1528943972
20
1.1878497696
30
0.0000000000
10
-4.1362734419
20
1.1477530488
30
0.0000000000
10
-4.1174356387
20
1.1084360489
30
0.0000000000
10
-4.0965210455
20
1.0701962471
30
0.0000000000
10
-4.0736966436
20
1.0333398779
30
0.0000000000
10
-4.0491469261
20
0.9981601515
30
0.0000000000
10
-4.0230598657
20
0.9649191094
30
0.0000000000
10
-3.9956156629
20
0.9338437327
30
0.0000000000
10
-3.9669995911
20
0.9051515883
30
0.0000000000
10
-3.9374368798
20
0.8790796795
30
0.0000000000
10
-3.9072054330
20
0.8558724569
30
0.0000000000
10
-3.8766214479
20
0.8357472296
30
0.0000000000
10
-3.8556965212
20
0.8242092304
30
0.0000000000
10
-3.8452578309
20
0.8190265044
30
0.0000000000
11
-4.1999445406
21
1.4282170623
31
0.0000000000
11
-4.1986532690
21
1.3901189218
31
0.0000000000
11
-4.1946756098
21
1.3507187952
31
0.0000000000
11
-4.1880095872
21
1.3104104563
31
0.0000000000
11
-4.1787043253
21
1.2696094676
31
0.0000000000
11
-4.1668560437
21
1.2287328062
31
0.0000000000
11
-4.1525717253
21
1.1881070662
31
0.0000000000
11
-4.1359452653
21
1.1479769245
31
0.0000000000
11
-4.1170865353
21
1.1086112479
31
0.0000000000
11
-4.0961429013
21
1.0703254313
31
0.0000000000
11
-4.0732831665
21
1.0334291131
31
0.0000000000
11
-4.0486941283
21
0.9982187345
31
0.0000000000
11
-4.0225755882
21
0.9649708321
31
0.0000000000
11
-3.9951038936
21
0.9339045505
31
0.0000000000
11
-3.9664423405
21
0.9052136924
31
0.0000000000
11
-3.9368165961
21
0.8791394854
31
0.0000000000
11
-3.9065300536
21
0.8559485274
31
0.0000000000
11
-3.8759029846
21
0.8358585180
31
0.0000000000
11
-3.8452578309
21
0.8190265044
31
0.0000000000
0
SPLINE
5
288
100
AcDbEntity
8
0
100
AcDbSpline
62
7
6
CONTINUOUS
70
0
71
3
72
10
73
6
74
4
42
0.0000001000
43
0.0000001000
44
0.0000000001
12
0.0498318238
22
-0.0223208338
32
0.0000000000
13
0.0488379384
23
-0.0244189692
33
0.0000000000
40
0.0000000000
40
0.0000000000
40
0.0000000000
40
0.0000000000
40
0.3557856526
40
0.6884210240
40
1.0000000000
40
1.0000000000
40
1.0000000000
40
1.0000000000
10
-2.9318680392
20
1.3255706149
30
0.0000000000
10
-2.9259582232
20
1.3229234707
30
0.0000000000
10
-2.9145531043
20
1.3177340478
30
0.0000000000
10
-2.8980880084
20
1.3099758436
30
0.0000000000
10
-2.8875556164
20
1.3048218745
30
0.0000000000
10
-2.8824833248
20
1.3022857287
30
0.0000000000
11
-2.9318680392
21
1.3255706149
31
0.0000000000
11
-2.9141883224
21
1.3175190755
31
0.0000000000
11
-2.8977612176
21
1.3097708866
31
0.0000000000
11
-2.8824833248
21
1.3022857287
31
0.0000000000
0
SPLINE
5
289
100
AcDbEntity
8
0
100
AcDbSpline
62
7
6
CONTINUOUS
70
0
71
3
72
21
73
17
74
15
42
0.0000001000
43
0.0000001000
44
0.0000000001
12
-0.5915274717
22
0.2649589240
32
0.0000000000
13
0.0423664672
23
0.6467712607
33
0.0000000000
40
0.0000000000
40
0.0000000000
40
0.0000000000
40
0.0000000000
40
0.0694600577
40
0.1392164793
40
0.2093379249
40
0.2797947565
40
0.3506134331
40
0.4217576998
40
0.4932368400
40
0.5650227023
40
0.6370795550
40
0.7093945533
40
0.7818927783
40
0.8545471584
40
0.9272554323
40
1.0000000000
40
1.0000000000
40
1.0000000000
40
1.0000000000
10
-2.9318680392
20
1.3255706149
30
0.0000000000
10
-2.9455638833
20
1.3317053023
30
0.0000000000
10
-2.9724301727
20
1.3453508187
30
0.0000000000
10
-3.0106921815
20
1.3695830655
30
0.0000000000
10
-3.0467404267
20
1.3973566739
30
0.0000000000
10
-3.0803262957
20
1.4283956709
30
0.0000000000
10
-3.1112195240
20
1.4624122059
30
0.0000000000
10
-3.1392180430
20
1.4991242909
30
0.0000000000
10
-3.1641320012
20
1.5382423103
30
0.0000000000
10
-3.1857868060
20
1.5794764747
30
0.0000000000
10
-3.2040184943
20
1.6225302325
30
0.0000000000
10
-3.2186701525
20
1.6670925892
30
0.0000000000
10
-3.2295969859
20
1.7128447183
30
0.0000000000
10
-3.2366621897
20
1.7594382590
30
0.0000000000
10
-3.2397473542
20
1.8065146480
30
0.0000000000
10
-3.2390815672
20
1.8379806919
30
0.0000000000
10
-3.2380542571
20
1.8536637238
30
0.0000000000
11
-2.9318680392
21
1.3255706149
31
0.0000000000
11
-2.9720192860
21
1.3459365717
31
0.0000000000
11
-3.0102291983
21
1.3701074331
31
0.0000000000
11
-3.0462454073
21
1.3978294610
31
0.0000000000
11
-3.0797965136
21
1.4288102398
31
0.0000000000
11
-3.1106684417
21
1.4627791269
31
0.0000000000
11
-3.1386425654
21
1.4994373833
31
0.0000000000
11
-3.1635389945
21
1.5385092640
31
0.0000000000
11
-3.1851782837
21
1.5796996248
31
0.0000000000
11
-3.2033930737
21
1.6227054604
31
0.0000000000
11
-3.2180325416
21
1.6672321202
31
0.0000000000
11
-3.2289440236
21
1.7129379624
31
0.0000000000
11
-3.2359964559
21
1.7594983528
31
0.0000000000
11
-3.2390663698
21
1.8065246600
31
0.0000000000
11
-3.2380542571
21
1.8536637238
31
0.0000000000
0
SPLINE
5
28A
100
AcDbEntity
8
0
100
AcDbSpline
62
9
6
CONTINUOUS
70
0
71
3
72
15
73
11
74
9
42
0.0000001000
43
0.0000001000
44
0.0000000001
12
0.2093226755
22
-0.1054007829
32
0.0000000000
13
0.2081761056
23
0.1080738366
33
0.0000000000
40
0.0000000000
40
0.0000000000
40
0.0000000000
40
0.0000000000
40
0.1424183618
40
0.2795950491
40
0.4113096468
40
0.5376478241
40
0.6590356695
40
0.7764438690
40
0.8912761271
40
1.0000000000
40
1.0000000000
40
1.0000000000
40
1.0000000000
10
2.0916283134
20
-2.1494165677
30
0.0000000000
10
2.1015654442
20
-2.1544202367
30
0.0000000000
10
2.1214935190
20
-2.1634423864
30
0.0000000000
10
2.1519110771
20
-2.1739470472
30
0.0000000000
10
2.1820264560
20
-2.1810190931
30
0.0000000000
10
2.2115257432
20
-2.1845443833
30
0.0000000000
10
2.2401256900
20
-2.1844722976
30
0.0000000000
10
2.2675898787
20
-2.1807996938
30
0.0000000000
10
2.2933406285
20
-2.1736531864
30
0.0000000000
10
2.3094077587
20
-2.1666660658
30
0.0000000000
10
2.3169523295
20
-2.1627493304
30
0.0000000000
11
2.0916283134
21
-2.1494165677
31
0.0000000000
11
2.1220614034
21
-2.1631233720
31
0.0000000000
11
2.1524720716
21
-2.1735514654
31
0.0000000000
11
2.1825401244
21
-2.1805369375
31
0.0000000000
11
2.2119481704
21
-2.1839790390
31
0.0000000000
11
2.2403964806
21
-2.1838428529
31
0.0000000000
11
2.2676628745
21
-2.1801453073
31
0.0000000000
11
2.2935865043
21
-2.1729179216
31
0.0000000000
11
2.3169523295
21
-2.1627493304
31
0.0000000000
0
SPLINE
5
28B
100
AcDbEntity
8
0
100
AcDbSpline
62
9
6
CONTINUOUS
70
0
71
3
72
10
73
6
74
4
42
0.0000001000
43
0.0000001000
44
0.0000000001
12
0.0051907621
22
-7.8517975429
32
0.0000000000
13
0.1248911419
23
-7.8508059332
33
0.0000000000
40
0.0000000000
40
0.0000000000
40
0.0000000000
40
0.0000000000
40
0.3341548768
40
0.6674862484
40
1.0000000000
40
1.0000000000
40
1.0000000000
40
1.0000000000
10
6.4126210054
20
-3.6719579478
30
0.0000000000
10
6.4131991782
20
-4.5465300947
30
0.0000000000
10
6.4187551061
20
-6.2935195357
30
0.0000000000
10
6.4403460688
20
-8.9107070350
30
0.0000000000
10
6.4635995554
20
-10.6532550631
30
0.0000000000
10
6.4774422294
20
-11.5234220410
30
0.0000000000
11
6.4126210054
21
-3.6719579478
31
0.0000000000
11
6.4209813626
21
-6.2956616418
31
0.0000000000
11
6.4425884881
21
-8.9128234663
31
0.0000000000
11
6.4774422294
21
-11.5234220410
31
0.0000000000
0
SPLINE
5
28C
100
AcDbEntity
8
0
100
AcDbSpline
62
9
6
CONTINUOUS
70
0
71
3
72
10
73
6
74
4
42
0.0000001000
43
0.0000001000
44
0.0000000001
12
0.0051613906
22
-7.8456299840
32
0.0000000000
13
0.1247951653
23
-7.8446391028
33
0.0000000000
40
0.0000000000
40
0.0000000000
40
0.0000000000
40
0.0000000000
40
0.3341547242
40
0.6674862505
40
1.0000000000
40
1.0000000000
40
1.0000000000
40
1.0000000000
10
7.1135023593
20
-3.6729881204
30
0.0000000000
10
7.1140772603
20
-4.5468728950
30
0.0000000000
10
7.1196241885
20
-6.2924901027
30
0.0000000000
10
7.1411942832
20
-8.9076218419
30
0.0000000000
10
7.1644289470
20
-10.6488015118
30
0.0000000000
10
7.1782609831
20
-11.5182849656
30
0.0000000000
11
7.1135023593
21
-3.6729881204
31
0.0000000000
11
7.1218491939
21
-6.2946297240
31
0.0000000000
11
7.1434354540
21
-8.9097370177
31
0.0000000000
11
7.1782609831
21
-11.5182849656
31
0.0000000000
0
SPLINE
5
28D
100
AcDbEntity
8
0
100
AcDbSpline
62
9
6
CONTINUOUS
70
0
71
3
72
24
73
20
74
18
42
0.0000001000
43
0.0000001000
44
0.0000000001
12
-0.6482004200
22
-0.3166893926
32
0.0000000000
13
-0.6452669907
23
0.3226243427
33
0.0000000000
40
0.0000000000
40
0.0000000000
40
0.0000000000
40
0.0000000000
40
0.0520124514
40
0.1065230505
40
0.1632923871
40
0.2220304804
40
0.2824150369
40
0.3440973107
40
0.4067066657
40
0.4698591488
40
0.5331623138
40
0.5962225104
40
0.6586486579
40
0.7200595696
40
0.7800888305
40
0.8383934560
40
0.8946585325
40
0.9486034529
40
1.0000000000
40
1.0000000000
40
1.0000000000
40
1.0000000000
10
7.1135023593
20
-3.6729881204
30
0.0000000000
10
7.1022641951
20
-3.6784787176
30
0.0000000000
10
7.0788302409
20
-3.6888830879
30
0.0000000000
10
7.0419655709
20
-3.7024763917
30
0.0000000000
10
7.0028143105
20
-3.7143347045
30
0.0000000000
10
6.9617012717
20
-3.7243591570
30
0.0000000000
10
6.9189660436
20
-3.7324670071
30
0.0000000000
10
6.8749627874
20
-3.7385907853
30
0.0000000000
10
6.8300563357
20
-3.7426795446
30
0.0000000000
10
6.7846196269
20
-3.7446991918
30
0.0000000000
10
6.7390297984
20
-3.7446329134
30
0.0000000000
10
6.6936654029
20
-3.7424812717
30
0.0000000000
10
6.6489029490
20
-3.7382621985
30
0.0000000000
10
6.6051141203
20
-3.7320108826
30
0.0000000000
10
6.5626618686
20
-3.7237793307
30
0.0000000000
10
6.5218978957
20
-3.7136360076
30
0.0000000000
10
6.4831586781
20
-3.7016645700
30
0.0000000000
10
6.4467655685
20
-3.6879647308
30
0.0000000000
10
6.4236758375
20
-3.6774852069
30
0.0000000000
10
6.4126210057
20
-3.6719579478
30
0.0000000000
11
7.1135023593
21
-3.6729881204
31
0.0000000000
11
7.0792332921
21
-3.6882726871
31
0.0000000000
11
7.0423548483
21
-3.7019279436
31
0.0000000000
11
7.0031710452
21
-3.7138415052
31
0.0000000000
11
6.9620102124
21
-3.7239134484
31
0.0000000000
11
6.9192156736
21
-3.7320598110
31
0.0000000000
11
6.8751438914
21
-3.7382127202
31
0.0000000000
11
6.8301630545
21
-3.7423207520
31
0.0000000000
11
6.7846483884
21
-3.7443496477
31
0.0000000000
11
6.7389798676
21
-3.7442824911
31
0.0000000000
11
6.6935380138
21
-3.7421198449
31
0.0000000000
11
6.6487021924
21
-3.7378797489
31
0.0000000000
11
6.6048464083
21
-3.7315975687
31
0.0000000000
11
6.5623370278
21
-3.7233258134
31
0.0000000000
11
6.5215281084
21
-3.7131333968
31
0.0000000000
11
6.4827600429
21
-3.7011052992
31
0.0000000000
11
6.4463576118
21
-3.6873423716
31
0.0000000000
11
6.4126210057
21
-3.6719579478
31
0.0000000000
0
SPLINE
5
28E
100
AcDbEntity
8
0
100
AcDbSpline
62
9
6
CONTINUOUS
70
0
71
3
72
23
73
19
74
17
42
0.0000001000
43
0.0000001000
44
0.0000000001
12
-0.6443380764
22
-0.3258587914
32
0.0000000000
13
-0.6459239892
23
0.3227037478
33
0.0000000000
40
0.0000000000
40
0.0000000000
40
0.0000000000
40
0.0000000000
40
0.0556281291
40
0.1140071817
40
0.1748406011
40
0.2377791880
40
0.3024321348
40
0.3683767896
40
0.4351675646
40
0.5023442938
40
0.5694402713
40
0.6359901542
40
0.7015378926
40
0.7656448561
40
0.8278983525
40
0.8879207922
40
0.9453798382
40
1.0000000000
40
1.0000000000
40
1.0000000000
40
1.0000000000
10
7.1782609831
20
-11.5182849656
30
0.0000000000
10
7.1663132092
20
-11.5243272705
30
0.0000000000
10
7.1413357902
20
-11.5357569159
30
0.0000000000
10
7.1019344053
20
-11.5506132204
30
0.0000000000
10
7.0599978578
20
-11.5634862737
30
0.0000000000
10
7.0159196259
20
-11.5742548242
30
0.0000000000
10
6.9701100975
20
-11.5828186668
30
0.0000000000
10
6.9229976740
20
-11.5890974173
30
0.0000000000
10
6.8750231184
20
-11.5930321617
30
0.0000000000
10
6.8266356556
20
-11.5945859230
30
0.0000000000
10
6.7782884889
20
-11.5937441192
30
0.0000000000
10
6.7304344182
20
-11.5905146966
30
0.0000000000
10
6.6835214612
20
-11.5849280512
30
0.0000000000
10
6.6379883677
20
-11.5770366167
30
0.0000000000
10
6.5942607616
20
-11.5669144534
30
0.0000000000
10
6.5527453957
20
-11.5546555807
30
0.0000000000
10
6.5138316531
20
-11.5403753598
30
0.0000000000
10
6.4892023873
20
-11.5292974179
30
0.0000000000
10
6.4774422297
20
-11.5234220409
30
0.0000000000
11
7.1782609831
21
-11.5182849656
31
0.0000000000
11
7.1417683028
21
-11.5350662956
31
0.0000000000
11
7.1023481863
21
-11.5499959076
31
0.0000000000
11
7.0603718897
21
-11.5629331953
31
0.0000000000
11
7.0162347426
21
-11.5737563165
31
0.0000000000
11
6.9703524255
21
-11.5823633397
31
0.0000000000
11
6.9231570550
21
-11.5886732045
31
0.0000000000
11
6.8750931135
21
-11.5926264852
31
0.0000000000
11
6.8266132639
21
-11.5941859499
31
0.0000000000
11
6.7781740859
21
-11.5933369119
31
0.0000000000
11
6.7302317763
21
-11.5900873671
31
0.0000000000
11
6.6832378524
21
-11.5844679198
31
0.0000000000
11
6.6376348995
21
-11.5765314933
31
0.0000000000
11
6.5938524031
21
-11.5663528323
31
0.0000000000
11
6.5523027035
21
-11.5540277989
31
0.0000000000
11
6.5133771129
21
-11.5396724693
31
0.0000000000
11
6.4774422297
21
-11.5234220409
31
0.0000000000
0
SPLINE
5
28F
100
AcDbEntity
8
0
100
AcDbSpline
62
9
6
CONTINUOUS
70
0
71
3
72
14
73
10
74
8
42
0.0000001000
43
0.0000001000
44
0.0000000001
12
0.1563307411
22
-9.8278864341
32
0.0000000000
13
1.2990769458
23
-9.7429046054
33
0.0000000000
40
0.0000000000
40
0.0000000000
40
0.0000000000
40
0.0000000000
40
0.1463296915
40
0.2915210750
40
0.4355612897
40
0.5784387774
40
0.7201433508
40
0.8606662077
40
1.0000000000
40
1.0000000000
40
1.0000000000
40
1.0000000000
10
6.4774422294
20
-11.5234220410
30
0.0000000000
10
6.4850675058
20
-12.0027925711
30
0.0000000000
10
6.5077492658
20
-12.9577033760
30
0.0000000000
10
6.5644478844
20
-14.3836983147
30
0.0000000000
10
6.6436714580
20
-15.7972962515
30
0.0000000000
10
6.7453925106
20
-17.1979999018
30
0.0000000000
10
6.8695760982
20
-18.5853242295
30
0.0000000000
10
7.0161784884
20
-19.9587801551
30
0.0000000000
10
7.1293095852
20
-20.8687459204
30
0.0000000000
10
7.1896446910
20
-21.3212512025
30
0.0000000000
11
6.4774422294
21
-11.5234220410
31
0.0000000000
11
6.5116843491
21
-12.9613078942
31
0.0000000000
11
6.5684728604
21
-14.3872825020
31
0.0000000000
11
6.6477879880
21
-15.8008490226
31
0.0000000000
11
6.7496021039
21
-17.2015148343
31
0.0000000000
11
6.8738797536
21
-18.5887919562
31
0.0000000000
11
7.0205776464
21
-19.9621969239
31
0.0000000000
11
7.1896446910
21
-21.3212512025
31
0.0000000000
0
SPLINE
5
290
100
AcDbEntity
8
0
100
AcDbSpline
62
9
6
CONTINUOUS
70
0
71
3
72
14
73
10
74
8
42
0.0000001000
43
0.0000001000
44
0.0000000001
12
0.1554777486
22
-9.7733263511
32
0.0000000000
13
1.2919777946
23
-9.6888015087
33
0.0000000000
40
0.0000000000
40
0.0000000000
40
0.0000000000
40
0.0000000000
40
0.1463291684
40
0.2915202962
40
0.4355603893
40
0.5784378966
40
0.7201426377
40
0.8606658170
40
1.0000000000
40
1.0000000000
40
1.0000000000
40
1.0000000000
10
7.1782609831
20
-11.5182849656
30
0.0000000000
10
7.1858446263
20
-11.9949925382
30
0.0000000000
10
7.2084025179
20
-12.9445995446
30
0.0000000000
10
7.2647915179
20
-14.3626748941
30
0.0000000000
10
7.3435824911
20
-15.7684236338
30
0.0000000000
10
7.4447481039
20
-17.1613507830
30
0.0000000000
10
7.5682536023
20
-18.5409739976
30
0.0000000000
10
7.7140554515
20
-19.9068066104
30
0.0000000000
10
7.8265687161
20
-20.8117217496
30
0.0000000000
10
7.8865742729
20
-21.2617154971
30
0.0000000000
11
7.1782609831
21
-11.5182849656
31
0.0000000000
11
7.2123160815
21
-12.9481831589
31
0.0000000000
11
7.2687944840
21
-14.3662387128
31
0.0000000000
11
7.3476764999
21
-15.7719561765
31
0.0000000000
11
7.4489346531
21
-17.1648456633
31
0.0000000000
11
7.5725336824
21
-18.5444219004
31
0.0000000000
11
7.7184305332
21
-19.9102041064
31
0.0000000000
11
7.8865742729
21
-21.2617154971
31
0.0000000000
0
SPLINE
5
291
100
AcDbEntity
8
0
100
AcDbSpline
62
9
6
CONTINUOUS
70
0
71
3
72
23
73
19
74
17
42
0.0000001000
43
0.0000001000
44
0.0000000001
12
-0.6056151219
22
-0.4023882148
32
0.0000000000
13
-0.6510636317
23
0.3237315225
33
0.0000000000
40
0.0000000000
40
0.0000000000
40
0.0000000000
40
0.0000000000
40
0.0582016287
40
0.1186361138
40
0.1810237927
40
0.2450401802
40
0.3103258128
40
0.3764952984
40
0.4431458135
40
0.5098652489
40
0.5762401761
40
0.6418637887
40
0.7063439712
40
0.7693116575
40
0.8304296728
40
0.8894022833
40
0.9459857257
40
1.0000000000
40
1.0000000000
40
1.0000000000
40
1.0000000000
10
7.8865742729
20
-21.2617154971
30
0.0000000000
10
7.8748250108
20
-21.2695220469
30
0.0000000000
10
7.8502377576
20
-21.2844912037
30
0.0000000000
10
7.8111994164
20
-21.3045870528
30
0.0000000000
10
7.7696158801
20
-21.3225971247
30
0.0000000000
10
7.7258781462
20
-21.3383520747
30
0.0000000000
10
7.6803938991
20
-21.3517056193
30
0.0000000000
10
7.6335886564
20
-21.3625328778
30
0.0000000000
10
7.5859002779
20
-21.3707326359
30
0.0000000000
10
7.5377751283
20
-21.3762281458
30
0.0000000000
10
7.4896636619
20
-21.3789679678
30
0.0000000000
10
7.4420160802
20
-21.3789264295
30
0.0000000000
10
7.3952780065
20
-21.3761038412
30
0.0000000000
10
7.3498860112
20
-21.3705262981
30
0.0000000000
10
7.3062639433
20
-21.3622455122
30
0.0000000000
10
7.2648168714
20
-21.3513370165
30
0.0000000000
10
7.2259343141
20
-21.3379024709
30
0.0000000000
10
7.2013669508
20
-21.3270798989
30
0.0000000000
10
7.1896447076
20
-21.3212511912
30
0.0000000000
11
7.8865742729
21
-21.2617154971
31
0.0000000000
11
7.8504605615
21
-21.2837764643
31
0.0000000000
11
7.8114151210
21
-21.3039355205
31
0.0000000000
11
7.7698057695
21
-21.3220027620
31
0.0000000000
11
7.7260244778
21
-21.3378079910
31
0.0000000000
11
7.6804836766
21
-21.3512023181
31
0.0000000000
11
7.6336123721
21
-21.3620595654
31
0.0000000000
11
7.5858521038
21
-21.3702774548
31
0.0000000000
11
7.5376527857
21
-21.3757785716
31
0.0000000000
11
7.4894684676
21
-21.3785110941
31
0.0000000000
11
7.4417530580
21
-21.3784492811
31
0.0000000000
11
7.3949560484
21
-21.3755937148
31
0.0000000000
11
7.3495182784
21
-21.3699712956
31
0.0000000000
11
7.3058677835
21
-21.3616349880
31
0.0000000000
11
7.2644157624
21
-21.3506633221
31
0.0000000000
11
7.2255527038
21
-21.3371596538
31
0.0000000000
11
7.1896447076
21
-21.3212511912
31
0.0000000000
0
SPLINE
5
292
100
AcDbEntity
8
0
100
AcDbSpline
62
9
6
CONTINUOUS
70
0
71
3
72
17
73
13
74
11
42
0.0000001000
43
0.0000001000
44
0.0000000001
12
0.0666317704
22
-0.5037103054
32
0.0000000000
13
0.4547679524
23
-0.2274005114
33
0.0000000000
40
0.0000000000
40
0.0000000000
40
0.0000000000
40
0.0000000000
40
0.1260634145
40
0.2472563962
40
0.3636729769
40
0.4755446794
40
0.5832607795
40
0.6873689506
40
0.7885735162
40
0.8877185443
40
0.9857565790
40
1.0000000000
40
1.0000000000
40
1.0000000000
40
1.0000000000
10
7.1896446910
20
-21.3212512025
30
0.0000000000
10
7.1924446338
20
-21.3424176828
30
0.0000000000
10
7.1994766874
20
-21.3837508928
30
0.0000000000
10
7.2147355072
20
-21.4434980101
30
0.0000000000
10
7.2344113126
20
-21.4994114550
30
0.0000000000
10
7.2583883527
20
-21.5511250731
30
0.0000000000
10
7.2865252606
20
-21.5983002877
30
0.0000000000
10
7.3186534022
20
-21.6406205060
30
0.0000000000
10
7.3545744711
20
-21.6777938624
30
0.0000000000
10
7.3940578406
20
-21.7095567021
30
0.0000000000
10
7.4247059280
20
-21.7282710453
30
0.0000000000
10
7.4416456952
20
-21.7369436692
30
0.0000000000
10
7.4438048457
20
-21.7380233230
30
0.0000000000
11
7.1896446910
21
-21.3212512025
31
0.0000000000
11
7.2004839992
21
-21.3843800036
31
0.0000000000
11
7.2158224890
21
-21.4440170235
31
0.0000000000
11
7.2355612155
21
-21.4997775035
31
0.0000000000
11
7.2595719870
21
-21.5512991043
31
0.0000000000
11
7.2876995336
21
-21.5982485880
31
0.0000000000
11
7.3197616101
21
-21.6403215628
31
0.0000000000
11
7.3555504905
21
-21.6772453267
31
0.0000000000
11
7.3948342452
21
-21.7087805357
31
0.0000000000
11
7.4373585986
21
-21.7347229730
31
0.0000000000
11
7.4438048457
21
-21.7380233230
31
0.0000000000
0
SPLINE
5
293
100
AcDbEntity
8
0
100
AcDbSpline
62
9
6
CONTINUOUS
70
0
71
3
72
24
73
20
74
18
42
0.0000001000
43
0.0000001000
44
0.0000000001
12
0.0621864859
22
-0.4663236849
32
0.0000000000
13
0.4337870126
23
0.1820817558
33
0.0000000000
40
0.0000000000
40
0.0000000000
40
0.0000000000
40
0.0000000000
40
0.0681284858
40
0.1336799835
40
0.1966948042
40
0.2573024574
40
0.3157164688
40
0.3722341226
40
0.4272349264
40
0.4811709792
40
0.5345499975
40
0.5879095709
40
0.6417889625
40
0.6966986312
40
0.7530953989
40
0.8113642802
40
0.8718094578
40
0.9346486296
40
1.0000000000
40
1.0000000000
40
1.0000000000
40
1.0000000000
10
7.8865742729
20
-21.2617154971
30
0.0000000000
10
7.8879864966
20
-21.2723054726
30
0.0000000000
10
7.8915340205
20
-21.2929923310
30
0.0000000000
10
7.8992299715
20
-21.3228990694
30
0.0000000000
10
7.9091544741
20
-21.3509005680
30
0.0000000000
10
7.9212485541
20
-21.3768108082
30
0.0000000000
10
7.9354406344
20
-21.4004599819
30
0.0000000000
10
7.9516453365
20
-21.4216892551
30
0.0000000000
10
7.9697622157
20
-21.4403522774
30
0.0000000000
10
7.9896745888
20
-21.4563169770
30
0.0000000000
10
8.0112489129
20
-21.4694686281
30
0.0000000000
10
8.0343359959
20
-21.4797135838
30
0.0000000000
10
8.0587739967
20
-21.4869821553
30
0.0000000000
10
8.0843926556
20
-21.4912296505
30
0.0000000000
10
8.1110169927
20
-21.4924352381
30
0.0000000000
10
8.1384695790
20
-21.4905999211
30
0.0000000000
10
8.1665720398
20
-21.4857438089
30
0.0000000000
10
8.1951389117
20
-21.4779074013
30
0.0000000000
10
8.2140009065
20
-21.4708719812
30
0.0000000000
10
8.2234504317
20
-21.4669055505
30
0.0000000000
11
7.8865742729
21
-21.2617154971
31
0.0000000000
11
7.8920395059
21
-21.2932972773
31
0.0000000000
11
7.8997749422
21
-21.3231501839
31
0.0000000000
11
7.9097296613
21
-21.3510742882
31
0.0000000000
11
7.9218390447
21
-21.3768881021
31
0.0000000000
11
7.9360247742
21
-21.4004246547
31
0.0000000000
11
7.9521949400
21
-21.4215313328
31
0.0000000000
11
7.9702447746
21
-21.4400713159
31
0.0000000000
11
7.9900572867
21
-21.4559243994
31
0.0000000000
11
8.0115042056
21
-21.4689879039
31
0.0000000000
11
8.0344464536
21
-21.4791770834
31
0.0000000000
11
8.0587355011
21
-21.4864259451
31
0.0000000000
11
8.0842139232
21
-21.4906874669
31
0.0000000000
11
8.1107165876
21
-21.4919340076
31
0.0000000000
11
8.1380716654
21
-21.4901574973
31
0.0000000000
11
8.1661022036
21
-21.4853693836
31
0.0000000000
11
8.1946260385
21
-21.4776008419
31
0.0000000000
11
8.2234504317
21
-21.4669055505
31
0.0000000000
0
SPLINE
5
294
100
AcDbEntity
8
0
100
AcDbSpline
62
9
6
CONTINUOUS
70
0
71
3
72
17
73
13
74
11
42
0.0000001000
43
0.0000001000
44
0.0000000001
12
-0.0143932901
22
-0.3376442498
32
0.0000000000
13
-0.3119368616
23
-0.1309286533
33
0.0000000000
40
0.0000000000
40
0.0000000000
40
0.0000000000
40
0.0000000000
40
0.1258486274
40
0.2466401294
40
0.3621658582
40
0.4724040736
40
0.5775478727
40
0.6780295861
40
0.7745351835
40
0.8679993480
40
0.9595712428
40
1.0000000000
40
1.0000000000
40
1.0000000000
40
1.0000000000
10
8.2234504317
20
-21.4669055505
30
0.0000000000
10
8.2228466398
20
-21.4810695723
30
0.0000000000
10
8.2205922101
20
-21.5087982889
30
0.0000000000
10
8.2138426438
20
-21.5490860488
30
0.0000000000
10
8.2038487970
20
-21.5868882597
30
0.0000000000
10
8.1906967894
20
-21.6218427477
30
0.0000000000
10
8.1744992241
20
-21.6536155220
30
0.0000000000
10
8.1553951743
20
-21.6818960656
30
0.0000000000
10
8.1335519604
20
-21.7063986791
30
0.0000000000
10
8.1091694818
20
-21.7268640714
30
0.0000000000
10
8.0873718934
20
-21.7400989012
30
0.0000000000
10
8.0738465678
20
-21.7463359674
30
0.0000000000
10
8.0696428279
20
-21.7481003950
30
0.0000000000
11
8.2234504317
21
-21.4669055505
31
0.0000000000
11
8.2199361971
21
-21.5092907703
31
0.0000000000
11
8.2131146830
21
-21.5495383745
31
0.0000000000
11
8.2030515080
21
-21.5872612069
31
0.0000000000
11
8.1898434736
21
-21.6220963982
31
0.0000000000
11
8.1736176324
21
-21.6537088561
31
0.0000000000
11
8.1545300667
21
-21.6817944890
31
0.0000000000
11
8.1327643867
21
-21.7060831312
31
0.0000000000
11
8.1085299641
21
-21.7263411414
31
0.0000000000
11
8.0820599187
21
-21.7423736506
31
0.0000000000
11
8.0696428279
21
-21.7481003950
31
0.0000000000
0
SPLINE
5
295
100
AcDbEntity
8
0
100
AcDbSpline
62
9
6
CONTINUOUS
70
0
71
3
72
16
73
12
74
10
42
0.0000001000
43
0.0000001000
44
0.0000000001
12
0.0001853563
22
-0.2420196852
32
0.0000000000
13
0.2161653040
23
-0.1080858688
33
0.0000000000
40
0.0000000000
40
0.0000000000
40
0.0000000000
40
0.0000000000
40
0.0562552043
40
0.1526295023
40
0.2525225596
40
0.3577935128
40
0.4698693694
40
0.5897318131
40
0.7179494228
40
0.8547284375
40
1.0000000000
40
1.0000000000
40
1.0000000000
40
1.0000000000
10
-8.5960216407
20
3.9364368898
30
0.0000000000
10
-8.5960181650
20
3.9318986008
30
0.0000000000
10
-8.5953488193
20
3.9195856396
30
0.0000000000
10
-8.5912947614
20
3.8995404394
30
0.0000000000
10
-8.5824232103
20
3.8768076089
30
0.0000000000
10
-8.5694749834
20
3.8546652020
30
0.0000000000
10
-8.5525916607
20
3.8332851629
30
0.0000000000
10
-8.5319317251
20
3.8128250304
30
0.0000000000
10
-8.5076724422
20
3.7934359316
30
0.0000000000
10
-8.4800158546
20
3.7752651308
30
0.0000000000
10
-8.4600435165
20
3.7643744690
30
0.0000000000
10
-8.4495759593
20
3.7591405347
30
0.0000000000
11
-8.5960216407
21
3.9364368898
31
0.0000000000
11
-8.5952828154
21
3.9228489326
31
0.0000000000
11
-8.5907186953
21
3.9000085924
31
0.0000000000
11
-8.5820272461
21
3.8774850489
31
0.0000000000
11
-8.5692809636
21
3.8554661868
31
0.0000000000
11
-8.5525863871
21
3.8341359522
31
0.0000000000
11
-8.5320826251
21
3.8136720220
31
0.0000000000
11
-8.5079405774
21
3.7942450422
31
0.0000000000
11
-8.4803628096
21
3.7760178640
31
0.0000000000
11
-8.4495759593
21
3.7591405347
31
0.0000000000
0
SPLINE
5
296
100
AcDbEntity
8
0
100
AcDbSpline
62
9
6
CONTINUOUS
70
0
71
3
72
10
73
6
74
4
42
0.0000001000
43
0.0000001000
44
0.0000000001
12
-0.1206266828
22
7.8497390048
32
0.0000000000
13
-0.0050121687
23
7.8506641832
33
0.0000000000
40
0.0000000000
40
0.0000000000
40
0.0000000000
40
0.0000000000
40
0.3324836803
40
0.6658152438
40
1.0000000000
40
1.0000000000
40
1.0000000000
40
1.0000000000
10
-8.3869766453
20
-4.0912126037
30
0.0000000000
10
-8.4003454464
20
-3.2212425657
30
0.0000000000
10
-8.4228024785
20
-1.4790144891
30
0.0000000000
10
-8.4436527595
20
1.1378004995
30
0.0000000000
10
-8.4490176295
20
2.8846164360
30
0.0000000000
10
-8.4495759597
20
3.7591405347
30
0.0000000000
11
-8.3869766453
21
-4.0912126037
31
0.0000000000
11
-8.4206356875
21
-1.4812113785
31
0.0000000000
11
-8.4415021746
21
1.1355801269
31
0.0000000000
11
-8.4495759597
21
3.7591405347
31
0.0000000000
0
SPLINE
5
297
100
AcDbEntity
8
0
100
AcDbSpline
62
9
6
CONTINUOUS
70
0
71
3
72
14
73
10
74
8
42
0.0000001000
43
0.0000001000
44
0.0000000001
12
-1.2564815592
22
9.7341744173
32
0.0000000000
13
-0.1508202281
23
9.8137735226
33
0.0000000000
40
0.0000000000
40
0.0000000000
40
0.0000000000
40
0.0000000000
40
0.1391721989
40
0.2795914017
40
0.4212478168
40
0.5641301952
40
0.7082259028
40
0.8535209374
40
1.0000000000
40
1.0000000000
40
1.0000000000
40
1.0000000000
10
-7.6990772805
20
-13.8768902168
30
0.0000000000
10
-7.7573663810
20
-13.4253147307
30
0.0000000000
10
-7.8666562536
20
-12.5170909393
30
0.0000000000
10
-8.0082498595
20
-11.1461499822
30
0.0000000000
10
-8.1281902049
20
-9.7609583431
30
0.0000000000
10
-8.2264350730
20
-8.3620039863
30
0.0000000000
10
-8.3029506800
20
-6.9497714873
30
0.0000000000
10
-8.3577104755
20
-5.5247573046
30
0.0000000000
10
-8.3796126434
20
-4.5703833858
30
0.0000000000
10
-8.3869766453
20
-4.0912126037
30
0.0000000000
11
-7.6990772805
21
-13.8768902168
31
0.0000000000
11
-7.8623751050
21
-12.5207205482
31
0.0000000000
11
-8.0040670995
21
-11.1498185296
31
0.0000000000
11
-8.1241039161
21
-9.7646618243
31
0.0000000000
11
-8.2224437415
21
-8.3657331579
31
0.0000000000
11
-8.2990523308
21
-6.9535199064
31
0.0000000000
11
-8.3539029989
21
-5.5285142202
31
0.0000000000
11
-8.3869766453
21
-4.0912126037
31
0.0000000000
0
SPLINE
5
298
100
AcDbEntity
8
0
100
AcDbSpline
62
7
6
CONTINUOUS
70
0
71
3
72
10
73
6
74
4
42
0.0000001000
43
0.0000001000
44
0.0000000001
12
0.0038194220
22
0.0583077270
32
0.0000000000
13
0.0000000000
23
0.0584326879
33
0.0000000000
40
0.0000000000
40
0.0000000000
40
0.0000000000
40
0.0000000000
40
0.3510198703
40
0.6836721356
40
1.0000000000
40
1.0000000000
40
1.0000000000
40
1.0000000000
10
-3.2380542571
20
1.8536637238
30
0.0000000000
10
-3.2376073594
20
1.8604861141
30
0.0000000000
10
-3.2368634573
20
1.8737826753
30
0.0000000000
10
-3.2361816743
20
1.8932496536
30
0.0000000000
10
-3.2360232531
20
1.9058906112
30
0.0000000000
10
-3.2360232531
20
1.9120519070
30
0.0000000000
11
-3.2380542571
21
1.8536637238
31
0.0000000000
11
-3.2369166997
21
1.8741431891
31
0.0000000000
11
-3.2362451725
21
1.8935693519
31
0.0000000000
11
-3.2360232531
21
1.9120519070
31
0.0000000000
0
SPLINE
5
299
100
AcDbEntity
8
0
100
AcDbSpline
62
7
6
CONTINUOUS
70
0
71
3
72
15
73
11
74
9
42
0.0000001000
43
0.0000001000
44
0.0000000001
12
-0.0000242185
22
-0.2845411288
32
0.0000000000
13
-0.2405322935
23
-0.1513891199
33
0.0000000000
40
0.0000000000
40
0.0000000000
40
0.0000000000
40
0.0000000000
40
0.0957470284
40
0.2051252931
40
0.3188316418
40
0.4383992277
40
0.5657125527
40
0.7017797008
40
0.8466956899
40
1.0000000000
40
1.0000000000
40
1.0000000000
40
1.0000000000
10
13.1543091771
20
7.7327202068
30
0.0000000000
10
13.1543084042
20
7.7236388843
30
0.0000000000
10
13.1528190636
20
7.7041824320
30
0.0000000000
10
13.1457262596
20
7.6746826593
30
0.0000000000
10
13.1332006933
20
7.6445998211
30
0.0000000000
10
13.1156134990
20
7.6151908297
30
0.0000000000
10
13.0930886686
20
7.5866382476
30
0.0000000000
10
13.0657766295
20
7.5591430732
30
0.0000000000
10
13.0339547098
20
7.5329720369
30
0.0000000000
10
13.0106031050
20
7.5170022073
30
0.0000000000
10
12.9983115592
20
7.5092660057
30
0.0000000000
11
13.1543091771
21
7.7327202068
31
0.0000000000
11
13.1522482963
21
7.7055793721
31
0.0000000000
11
13.1450552046
21
7.6753368023
31
0.0000000000
11
13.1327377151
21
7.6454600033
31
0.0000000000
11
13.1154095550
21
7.6162278408
31
0.0000000000
11
13.0931067369
21
7.5877351797
31
0.0000000000
11
13.0659480883
21
7.5602054197
31
0.0000000000
11
13.0342151890
21
7.5339501621
31
0.0000000000
11
12.9983115592
21
7.5092660057
31
0.0000000000
0
SPLINE
5
29A
100
AcDbEntity
8
0
100
AcDbSpline
62
7
6
CONTINUOUS
70
0
71
3
72
17
73
13
74
11
42
0.0000001000
43
0.0000001000
44
0.0000000001
12
0.0000323735
22
0.3368576794
32
0.0000000000
13
-0.3009267091
23
0.1504633546
33
0.0000000000
40
0.0000000000
40
0.0000000000
40
0.0000000000
40
0.0000000000
40
0.0096160356
40
0.0985447878
40
0.1898465675
40
0.2850786191
40
0.3858889915
40
0.4931585349
40
0.6080849401
40
0.7311365362
40
0.8620180964
40
1.0000000000
40
1.0000000000
40
1.0000000000
40
1.0000000000
10
13.1543091545
20
11.3149003185
30
0.0000000000
10
13.1543092583
20
11.3159800636
30
0.0000000000
10
13.1542053121
20
11.3270451657
30
0.0000000000
10
13.1519237012
20
11.3483214366
30
0.0000000000
10
13.1434331772
20
11.3781704083
30
0.0000000000
10
13.1297885884
20
11.4074987364
30
0.0000000000
10
13.1111445018
20
11.4360724217
30
0.0000000000
10
13.0876353278
20
11.4637426135
30
0.0000000000
10
13.0594069470
20
11.4903451169
30
0.0000000000
10
13.0266407155
20
11.5156907582
30
0.0000000000
10
12.9896604319
20
11.5395306895
30
0.0000000000
10
12.9631249464
20
11.5539136572
30
0.0000000000
10
12.9492841330
20
11.5608340639
30
0.0000000000
11
13.1543091545
21
11.3149003185
31
0.0000000000
11
13.1542786847
21
11.3181393359
31
0.0000000000
11
13.1511270949
21
11.3478926356
31
0.0000000000
11
13.1428096933
21
11.3774633181
31
0.0000000000
11
13.1294065982
21
11.4065657025
31
0.0000000000
11
13.1109889526
21
11.4350467825
31
0.0000000000
11
13.0877275525
21
11.4626407512
31
0.0000000000
11
13.0596789765
21
11.4892561687
31
0.0000000000
11
13.0270067095
21
11.5146826097
31
0.0000000000
11
12.9900540765
21
11.5386315189
31
0.0000000000
11
12.9492841330
21
11.5608340639
31
0.0000000000
0
SPLINE
5
29B
100
AcDbEntity
8
0
100
AcDbSpline
62
7
6
CONTINUOUS
70
0
71
3
72
15
73
11
74
9
42
0.0000001000
43
0.0000001000
44
0.0000000001
12
0.1255825888
22
0.0604728796
32
0.0000000000
13
0.1245674872
23
-0.0622854619
33
0.0000000000
40
0.0000000000
40
0.0000000000
40
0.0000000000
40
0.0000000000
40
0.0595924451
40
0.1467495319
40
0.2489836202
40
0.3701281084
40
0.5106314718
40
0.6693046275
40
0.8446238363
40
1.0000000000
40
1.0000000000
40
1.0000000000
40
1.0000000000
10
-4.0671269215
20
3.0822759981
30
0.0000000000
10
-4.0646323303
20
3.0834772403
30
0.0000000000
10
-4.0582899519
20
3.0860392692
30
0.0000000000
10
-4.0469985221
20
3.0887154192
30
0.0000000000
10
-4.0325833418
20
3.0898885022
30
0.0000000000
10
-4.0156724474
20
3.0890165259
30
0.0000000000
10
-3.9963986300
20
3.0857504975
30
0.0000000000
10
-3.9751403356
20
3.0798626353
30
0.0000000000
10
-3.9538628653
20
3.0718350574
30
0.0000000000
10
-3.9399235870
20
3.0653759021
30
0.0000000000
10
-3.9334719809
20
3.0621500101
30
0.0000000000
11
-4.0671269215
21
3.0822759981
31
0.0000000000
11
-4.0594297006
21
3.0853956479
31
0.0000000000
11
-4.0476393373
21
3.0882737774
31
0.0000000000
11
-4.0334586802
21
3.0895281901
31
0.0000000000
11
-4.0166068200
21
3.0887614848
31
0.0000000000
11
-3.9973012964
21
3.0855856203
31
0.0000000000
11
-3.9759857975
21
3.0797680167
31
0.0000000000
11
-3.9531191875
21
3.0712171692
31
0.0000000000
11
-3.9334719809
21
3.0621500101
31
0.0000000000
0
SPLINE
5
29C
100
AcDbEntity
8
0
100
AcDbSpline
62
7
6
CONTINUOUS
70
0
71
3
72
26
73
22
74
20
42
0.0000001000
43
0.0000001000
44
0.0000000001
12
0.7238398569
22
-0.3618965835
32
0.0000000000
13
-0.0010566046
23
-0.8092536377
33
0.0000000000
40
0.0000000000
40
0.0000000000
40
0.0000000000
40
0.0000000000
40
0.0320441307
40
0.0734033257
40
0.1183558964
40
0.1666101153
40
0.2178577019
40
0.2717729214
40
0.3280082497
40
0.3861419385
40
0.4456853394
40
0.5061305673
40
0.5669574135
40
0.6276414946
40
0.6876605495
40
0.7465110721
40
0.8037203099
40
0.8588344830
40
0.9114195393
40
0.9610725993
40
1.0000000000
40
1.0000000000
40
1.0000000000
40
1.0000000000
10
2.0034221172
20
0.0937029614
30
0.0000000000
10
2.0111537235
20
0.0898374076
30
0.0000000000
10
2.0285539823
20
0.0803491545
30
0.0000000000
10
2.0554673557
20
0.0631299715
30
0.0000000000
10
2.0846182746
20
0.0414565924
30
0.0000000000
10
2.1143089575
20
0.0161841101
30
0.0000000000
10
2.1441092004
20
-0.0125641570
30
0.0000000000
10
2.1736112709
20
-0.0446104652
30
0.0000000000
10
2.2024204144
20
-0.0797183716
30
0.0000000000
10
2.2301494414
20
-0.1175835519
30
0.0000000000
10
2.2564257510
20
-0.1578335464
30
0.0000000000
10
2.2809061562
20
-0.2000419781
30
0.0000000000
10
2.3032883249
20
-0.2437453869
30
0.0000000000
10
2.3233148125
20
-0.2884512751
30
0.0000000000
10
2.3407778487
20
-0.3336485596
30
0.0000000000
10
2.3555234842
20
-0.3788193524
30
0.0000000000
10
2.3674530846
20
-0.4234466246
30
0.0000000000
10
2.3765241053
20
-0.4670171776
30
0.0000000000
10
2.3827527825
20
-0.5090260112
30
0.0000000000
10
2.3860451544
20
-0.5469832312
30
0.0000000000
10
2.3867053252
20
-0.5708835847
30
0.0000000000
10
2.3866916149
20
-0.5813842982
30
0.0000000000
11
2.0034221172
21
0.0937029614
31
0.0000000000
11
2.0262107645
21
0.0813262745
31
0.0000000000
11
2.0544369087
21
0.0633440862
31
0.0000000000
11
2.0836625561
21
0.0416872244
31
0.0000000000
11
2.1134294314
21
0.0164168062
31
0.0000000000
11
2.1433050120
21
-0.0123431855
31
0.0000000000
11
2.1728811264
21
-0.0444154972
31
0.0000000000
11
2.2017705047
21
-0.0795740345
31
0.0000000000
11
2.2295822286
21
-0.1175133411
31
0.0000000000
11
2.2559343144
21
-0.1578503508
31
0.0000000000
11
2.2804815017
21
-0.2001563390
31
0.0000000000
11
2.3029195464
21
-0.2439649989
31
0.0000000000
11
2.3229896515
21
-0.2887812506
31
0.0000000000
11
2.3404819770
21
-0.3340886840
31
0.0000000000
11
2.3552416118
21
-0.3793650108
31
0.0000000000
11
2.3671711593
21
-0.4240947463
31
0.0000000000
11
2.3762282542
21
-0.4677633140
31
0.0000000000
11
2.3824290259
21
-0.5098604714
31
0.0000000000
11
2.3858536030
21
-0.5498930981
31
0.0000000000
11
2.3866916149
21
-0.5813842982
31
0.0000000000
0
SPLINE
5
29D
100
AcDbEntity
8
0
100
AcDbSpline
62
7
6
CONTINUOUS
70
0
71
3
72
17
73
13
74
11
42
0.0000001000
43
0.0000001000
44
0.0000000001
12
-0.0001456123
22
-0.2530355953
32
0.0000000000
13
0.2263811467
23
-0.1131706928
33
0.0000000000
40
0.0000000000
40
0.0000000000
40
0.0000000000
40
0.0000000000
40
0.0829512870
40
0.1955910878
40
0.3064200439
40
0.4155480090
40
0.5230130347
40
0.6292001640
40
0.7344446112
40
0.8390283802
40
0.9432047577
40
1.0000000000
40
1.0000000000
40
1.0000000000
40
1.0000000000
10
2.3863557972
20
-0.9284702843
30
0.0000000000
10
2.3863517710
20
-0.9354668271
30
0.0000000000
10
2.3870251031
20
-0.9519716851
30
0.0000000000
10
2.3906644005
20
-0.9776046320
30
0.0000000000
10
2.3978698920
20
-1.0047725791
30
0.0000000000
10
2.4081019371
20
-1.0304812780
30
0.0000000000
10
2.4211545255
20
-1.0544340987
30
0.0000000000
10
2.4367995972
20
-1.0763784184
30
0.0000000000
10
2.4548054702
20
-1.0961024139
30
0.0000000000
10
2.4749255592
20
-1.1134067009
30
0.0000000000
10
2.4935752966
20
-1.1258860623
30
0.0000000000
10
2.5055256321
20
-1.1323592046
30
0.0000000000
10
2.5098114228
20
-1.1345017236
30
0.0000000000
11
2.3863557972
21
-0.9284702843
31
0.0000000000
11
2.3872196176
21
-0.9494406988
31
0.0000000000
11
2.3912416067
21
-0.9776443436
31
0.0000000000
11
2.3984420532
21
-1.0047347360
31
0.0000000000
11
2.4086590701
21
-1.0303748347
31
0.0000000000
11
2.4216722536
21
-1.0542373306
31
0.0000000000
11
2.4372681054
21
-1.0761020483
31
0.0000000000
11
2.4552177994
21
-1.0957579662
31
0.0000000000
11
2.4752740640
21
-1.1130039776
31
0.0000000000
11
2.4971731619
21
-1.1276555231
31
0.0000000000
11
2.5098114228
21
-1.1345017236
31
0.0000000000
0
SPLINE
5
29E
100
AcDbEntity
8
0
100
AcDbSpline
62
7
6
CONTINUOUS
70
0
71
3
72
10
73
6
74
4
42
0.0000001000
43
0.0000001000
44
0.0000000001
12
-0.0004482331
22
-0.3470716705
32
0.0000000000
13
-0.0002234013
23
-0.3470718881
33
0.0000000000
40
0.0000000000
40
0.0000000000
40
0.0000000000
40
0.0000000000
40
0.3264943455
40
0.6720028098
40
1.0000000000
40
1.0000000000
40
1.0000000000
40
1.0000000000
10
2.3866915602
20
-0.5813860686
30
0.0000000000
10
2.3866427783
20
-0.6191583813
30
0.0000000000
10
2.3865505911
20
-0.6969027714
30
0.0000000000
10
2.3864385853
20
-0.8125933713
30
0.0000000000
10
2.3863801494
20
-0.8905116593
30
0.0000000000
10
2.3863557244
20
-0.9284578607
30
0.0000000000
11
2.3866915602
21
-0.5813860686
31
0.0000000000
11
2.3865571933
21
-0.6947030214
31
0.0000000000
11
2.3864410980
21
-0.8146192650
31
0.0000000000
11
2.3863557244
21
-0.9284578607
31
0.0000000000
0
SPLINE
5
29F
100
AcDbEntity
8
0
100
AcDbSpline
62
7
6
CONTINUOUS
70
0
71
3
72
15
73
11
74
9
42
0.0000001000
43
0.0000001000
44
0.0000000001
12
0.0000000000
22
-0.1586170184
32
0.0000000000
13
-0.1426622300
23
-0.0698199333
33
0.0000000000
40
0.0000000000
40
0.0000000000
40
0.0000000000
40
0.0000000000
40
0.1490203725
40
0.2913555966
40
0.4257556220
40
0.5521837592
40
0.6725441562
40
0.7873917674
40
0.8976345025
40
1.0000000000
40
1.0000000000
40
1.0000000000
40
1.0000000000
10
11.7800433841
20
-0.7682638220
30
0.0000000000
10
11.7800433841
20
-0.7761428777
30
0.0000000000
10
11.7793584525
20
-0.7915595986
30
0.0000000000
10
11.7761026271
20
-0.8138747886
30
0.0000000000
10
11.7706710588
20
-0.8345393803
30
0.0000000000
10
11.7631275363
20
-0.8532920662
30
0.0000000000
10
11.7535384113
20
-0.8699161206
30
0.0000000000
10
11.7419937614
20
-0.8841766741
30
0.0000000000
10
11.7288935525
20
-0.8956341847
30
0.0000000000
10
11.7192142523
20
-0.9014642398
30
0.0000000000
10
11.7143463556
20
-0.9038466239
30
0.0000000000
11
11.7800433841
21
-0.7682638220
31
0.0000000000
11
11.7789390518
21
-0.7918751778
31
0.0000000000
11
11.7756154919
21
-0.8142059938
31
0.0000000000
11
11.7701261745
21
-0.8348052685
31
0.0000000000
11
11.7625717969
21
-0.8533816089
31
0.0000000000
11
11.7529670651
21
-0.8698808005
31
0.0000000000
11
11.7414538853
21
-0.8839980938
31
0.0000000000
11
11.7282628477
21
-0.8954771966
31
0.0000000000
11
11.7143463556
21
-0.9038466239
31
0.0000000000
0
SPLINE
5
2A0
100
AcDbEntity
8
0
100
AcDbSpline
62
7
6
CONTINUOUS
70
0
71
3
72
16
73
12
74
10
42
0.0000001000
43
0.0000001000
44
0.0000000001
12
0.1837516560
22
-0.0918881402
32
0.0000000000
13
0.1851434367
23
0.0889880866
33
0.0000000000
40
0.0000000000
40
0.0000000000
40
0.0000000000
40
0.0000000000
40
0.0608506620
40
0.1807652389
40
0.3009660544
40
0.4217416418
40
0.5434200997
40
0.6663725338
40
0.7908076973
40
0.9170004163
40
1.0000000000
40
1.0000000000
40
1.0000000000
40
1.0000000000
10
-4.4168136017
20
2.3288107551
30
0.0000000000
10
-4.4130864651
20
2.3269469371
30
0.0000000000
10
-4.4018547801
20
2.3217248093
30
0.0000000000
10
-4.3824697265
20
2.3146396045
30
0.0000000000
10
-4.3584163206
20
2.3088012450
30
0.0000000000
10
-4.3337413228
20
2.3056780085
30
0.0000000000
10
-4.3086829004
20
2.3053332441
30
0.0000000000
10
-4.2834936796
20
2.3078173443
30
0.0000000000
10
-4.2584357874
20
2.3131619670
30
0.0000000000
10
-4.2367301775
20
2.3203921470
30
0.0000000000
10
-4.2235958669
20
2.3261411151
30
0.0000000000
10
-4.2184735908
20
2.3286031065
30
0.0000000000
11
-4.4168136017
21
2.3288107551
31
0.0000000000
11
-4.4054780550
21
2.3235406446
31
0.0000000000
11
-4.3823539812
21
2.3150873370
31
0.0000000000
11
-4.3583712990
21
2.3092641474
31
0.0000000000
11
-4.3337704496
21
2.3061471517
31
0.0000000000
11
-4.3087899711
21
2.3057989121
31
0.0000000000
11
-4.2836667572
21
2.3082702994
31
0.0000000000
11
-4.2586781992
21
2.3135918372
31
0.0000000000
11
-4.2340931331
21
2.3217705097
31
0.0000000000
11
-4.2184735908
21
2.3286031065
31
0.0000000000
0
SPLINE
5
2A1
100
AcDbEntity
8
0
100
AcDbSpline
62
7
6
CONTINUOUS
70
0
71
3
72
20
73
16
74
14
42
0.0000001000
43
0.0000001000
44
0.0000000001
12
0.5247112978
22
-0.2623686500
32
0.0000000000
13
0.5304523781
23
0.2505707844
33
0.0000000000
40
0.0000000000
40
0.0000000000
40
0.0000000000
40
0.0000000000
40
0.0684162159
40
0.1471885111
40
0.2256756033
40
0.3041085411
40
0.3825897645
40
0.4611320448
40
0.5396846684
40
0.6182016335
40
0.6966553498
40
0.7750783197
40
0.8535879441
40
0.9324263671
40
1.0000000000
40
1.0000000000
40
1.0000000000
40
1.0000000000
10
6.4775827118
20
-3.1183876781
30
0.0000000000
10
6.4895489656
20
-3.1243711015
30
0.0000000000
10
6.5158200113
20
-3.1362148966
30
0.0000000000
10
6.5573903753
20
-3.1511411069
30
0.0000000000
10
6.6018631311
20
-3.1633760511
30
0.0000000000
10
6.6470196323
20
-3.1724603913
30
0.0000000000
10
6.6926807978
20
-3.1785740187
30
0.0000000000
10
6.7386559941
20
-3.1818238358
30
0.0000000000
10
6.7847501462
20
-3.1822609858
30
0.0000000000
10
6.8307684192
20
-3.1798872572
30
0.0000000000
10
6.8765262088
20
-3.1746538248
30
0.0000000000
10
6.9218482504
20
-3.1664536011
30
0.0000000000
10
6.9665705832
20
-3.1551043704
30
0.0000000000
10
7.0082970909
20
-3.1410787427
30
0.0000000000
10
7.0346758387
20
-3.1298625868
30
0.0000000000
10
7.0466240367
20
-3.1242185941
30
0.0000000000
11
6.4775827118
21
-3.1183876781
31
0.0000000000
11
6.5141534501
21
-3.1349259676
31
0.0000000000
11
6.5576199100
21
-3.1505985104
31
0.0000000000
11
6.6019965347
21
-3.1628559663
31
0.0000000000
11
6.6470926356
21
-3.1719635382
31
0.0000000000
11
6.6927173812
21
-3.1780950681
31
0.0000000000
11
6.7386726388
21
-3.1813548342
31
0.0000000000
11
6.7847473557
21
-3.1817922255
31
0.0000000000
11
6.8307415435
21
-3.1794092738
31
0.0000000000
11
6.8764597922
21
-3.1741586047
31
0.0000000000
11
6.9217195697
21
-3.1659354200
31
0.0000000000
11
6.9663448748
21
-3.1545631151
31
0.0000000000
11
7.0101598590
21
-3.1397713973
31
0.0000000000
11
7.0466240367
21
-3.1242185941
31
0.0000000000
0
SPLINE
5
2A2
100
AcDbEntity
8
0
100
AcDbSpline
62
7
6
CONTINUOUS
70
0
71
3
72
18
73
14
74
12
42
0.0000001000
43
0.0000001000
44
0.0000000001
12
-0.0002652406
22
-0.3972258224
32
0.0000000000
13
0.3551900494
23
-0.1776056172
33
0.0000000000
40
0.0000000000
40
0.0000000000
40
0.0000000000
40
0.0000000000
40
0.0552641321
40
0.1410479350
40
0.2273956696
40
0.3146577277
40
0.4037083613
40
0.4955110344
40
0.5906690667
40
0.6896519102
40
0.7931554704
40
0.9021783673
40
1.0000000000
40
1.0000000000
40
1.0000000000
40
1.0000000000
10
-8.5960225828
20
4.6243607967
30
0.0000000000
10
-8.5960274689
20
4.6170433499
30
0.0000000000
10
-8.5953816562
20
4.5983612154
30
0.0000000000
10
-8.5916356216
20
4.5684428513
30
0.0000000000
10
-8.5836727130
20
4.5349786744
30
0.0000000000
10
-8.5719831323
20
4.5021689384
30
0.0000000000
10
-8.5565012131
20
4.4701635484
30
0.0000000000
10
-8.5371015418
20
4.4391277648
30
0.0000000000
10
-8.5136636371
20
4.4093232427
30
0.0000000000
10
-8.4861078970
20
4.3810711411
30
0.0000000000
10
-8.4543480744
20
4.3546694288
30
0.0000000000
10
-8.4202172794
20
4.3317032591
30
0.0000000000
10
-8.3961921499
20
4.3185000998
30
0.0000000000
10
-8.3846103931
20
4.3127088760
30
0.0000000000
11
-8.5960225828
21
4.6243607967
31
0.0000000000
11
-8.5952638331
21
4.6024227327
31
0.0000000000
11
-8.5910367934
21
4.5686265068
31
0.0000000000
11
-8.5831078461
21
4.5352725452
31
0.0000000000
11
-8.5714909621
21
4.5026316801
31
0.0000000000
11
-8.5561101745
21
4.4707958345
31
0.0000000000
11
-8.5368108196
21
4.4398752169
31
0.0000000000
11
-8.5134821607
21
4.4101562953
31
0.0000000000
11
-8.4860727863
21
4.3819920814
31
0.0000000000
11
-8.4545064657
21
4.3556792427
31
0.0000000000
11
-8.4186305850
21
4.3314587539
31
0.0000000000
11
-8.3846103931
21
4.3127088760
31
0.0000000000
0
SPLINE
5
2A3
100
AcDbEntity
8
0
100
AcDbSpline
62
7
6
CONTINUOUS
70
0
71
3
72
10
73
6
74
4
42
0.0000001000
43
0.0000001000
44
0.0000000001
12
-0.1197133479
22
-7.9144082398
32
0.0000000000
13
-0.0050426720
23
-7.9153119917
33
0.0000000000
40
0.0000000000
40
0.0000000000
40
0.0000000000
40
0.0000000000
40
0.3339765873
40
0.6678969881
40
1.0000000000
40
1.0000000000
40
1.0000000000
40
1.0000000000
10
-8.5334298877
20
12.5393497468
30
0.0000000000
10
-8.5467570395
20
11.6582740619
30
0.0000000000
10
-8.5691936627
20
9.8962040762
30
0.0000000000
10
-8.5900699957
20
7.2578395678
30
0.0000000000
10
-8.5954646698
20
5.5005781983
30
0.0000000000
10
-8.5960228987
20
4.6243452142
30
0.0000000000
11
-8.5334298877
21
12.5393497468
31
0.0000000000
11
-8.5670718471
21
9.8960344084
31
0.0000000000
11
-8.5879689472
21
7.2530323578
31
0.0000000000
11
-8.5960228987
21
4.6243452142
31
0.0000000000
0
SPLINE
5
2A4
100
AcDbEntity
8
0
100
AcDbSpline
62
7
6
CONTINUOUS
70
0
71
3
72
14
73
10
74
8
42
0.0000001000
43
0.0000001000
44
0.0000000001
12
-1.1894824575
22
-10.4477179712
32
0.0000000000
13
-0.1590352195
23
-10.5140093285
33
0.0000000000
40
0.0000000000
40
0.0000000000
40
0.0000000000
40
0.0000000000
40
0.1452870502
40
0.2902664424
40
0.4343058108
40
0.5773833318
40
0.7194769876
40
0.8605668147
40
1.0000000000
40
1.0000000000
40
1.0000000000
40
1.0000000000
10
-7.8462675396
20
23.0279399770
30
0.0000000000
10
-7.9038730055
20
22.5219672684
30
0.0000000000
10
-8.0122361922
20
21.5103138795
30
0.0000000000
10
-8.1538527017
20
19.9945977976
30
0.0000000000
10
-8.2739983462
20
18.4847938440
30
0.0000000000
10
-8.3724286685
20
16.9835551095
30
0.0000000000
10
-8.4491058509
20
15.4913979778
30
0.0000000000
10
-8.5039169656
20
14.0110624636
30
0.0000000000
10
-8.5260382916
20
13.0280170185
30
0.0000000000
10
-8.5334298874
20
12.5393497483
30
0.0000000000
11
-7.8462675396
21
23.0279399770
31
0.0000000000
11
-8.0089151775
21
21.5088986331
31
0.0000000000
11
-8.1506667537
21
19.9910143399
31
0.0000000000
11
-8.2707449346
21
18.4811774593
31
0.0000000000
11
-8.3691048172
21
16.9799058977
31
0.0000000000
11
-8.4457080465
21
15.4877261539
31
0.0000000000
11
-8.5005243384
21
14.0051499387
31
0.0000000000
11
-8.5334298874
21
12.5393497483
31
0.0000000000
0
SPLINE
5
2A5
100
AcDbEntity
8
0
100
AcDbSpline
62
7
6
CONTINUOUS
70
0
71
3
72
21
73
17
74
15
42
0.0000001000
43
0.0000001000
44
0.0000000001
12
-0.9607977244
22
-0.5602433398
32
0.0000000000
13
-0.1258077089
23
-1.1050464239
33
0.0000000000
40
0.0000000000
40
0.0000000000
40
0.0000000000
40
0.0000000000
40
0.0627973149
40
0.1334125647
40
0.2051645185
40
0.2777078574
40
0.3506299265
40
0.4235875774
40
0.4965171109
40
0.5693889181
40
0.6422420411
40
0.7151338502
40
0.7880513959
40
0.8609397366
40
0.9337681594
40
1.0000000000
40
1.0000000000
40
1.0000000000
40
1.0000000000
10
-7.2760178013
20
23.9396011338
30
0.0000000000
10
-7.2961296404
20
23.9278738746
30
0.0000000000
10
-7.3379370526
20
23.9013462614
30
0.0000000000
10
-7.3989594028
20
23.8558301621
30
0.0000000000
10
-7.4590938633
20
23.8034588022
30
0.0000000000
10
-7.5158894684
20
23.7462825931
30
0.0000000000
10
-7.5689007017
20
23.6849957490
30
0.0000000000
10
-7.6178395167
20
23.6202371089
30
0.0000000000
10
-7.6625530246
20
23.5525185740
30
0.0000000000
10
-7.7029712839
20
23.4821991945
30
0.0000000000
10
-7.7390216403
20
23.4095602852
30
0.0000000000
10
-7.7705933093
20
23.3348467810
30
0.0000000000
10
-7.7975173554
20
23.2583201978
30
0.0000000000
10
-7.8195740479
20
23.1802717017
30
0.0000000000
10
-7.8359999380
20
23.1033814960
30
0.0000000000
10
-7.8434903663
20
23.0523336098
30
0.0000000000
10
-7.8462678584
20
23.0279371903
30
0.0000000000
11
-7.2760178013
21
23.9396011338
31
0.0000000000
11
-7.3350160424
21
23.9022205436
31
0.0000000000
11
-7.3980041683
21
23.8553174710
31
0.0000000000
11
-7.4582179752
21
23.8029547656
31
0.0000000000
11
-7.5151114248
21
23.7457540067
31
0.0000000000
11
-7.5681980140
21
23.6844454074
31
0.0000000000
11
-7.6171429599
21
23.6197326383
31
0.0000000000
11
-7.6618517906
21
23.5520613943
31
0.0000000000
11
-7.7022478273
21
23.4818045279
31
0.0000000000
11
-7.7382681068
21
23.4092301593
31
0.0000000000
11
-7.7698143578
21
23.3345554840
31
0.0000000000
11
-7.7967104252
21
23.2580524387
31
0.0000000000
11
-7.8187275118
21
23.1800390066
31
0.0000000000
11
-7.8356097011
21
23.1008238522
31
0.0000000000
11
-7.8462678584
21
23.0279371903
31
0.0000000000
0
SPLINE
5
2A6
100
AcDbEntity
8
0
100
AcDbSpline
62
7
6
CONTINUOUS
70
0
71
3
72
15
73
11
74
9
42
0.0000001000
43
0.0000001000
44
0.0000000001
12
0.2104886928
22
0.1187733918
32
0.0000000000
13
0.2159430699
23
-0.1079715349
33
0.0000000000
40
0.0000000000
40
0.0000000000
40
0.0000000000
40
0.0000000000
40
0.0353229671
40
0.1600319998
40
0.2866181198
40
0.4168912916
40
0.5523816586
40
0.6942589918
40
0.8433240829
40
1.0000000000
40
1.0000000000
40
1.0000000000
40
1.0000000000
10
-3.7958818489
20
25.9511953299
30
0.0000000000
10
-3.7934034872
20
25.9525938061
30
0.0000000000
10
-3.7820316783
20
25.9586749694
30
0.0000000000
10
-3.7605834018
20
25.9674284188
30
0.0000000000
10
-3.7305532644
20
25.9744138109
30
0.0000000000
10
-3.6989581454
20
25.9768459305
30
0.0000000000
10
-3.6661206978
20
25.9747273006
30
0.0000000000
10
-3.6323587592
20
25.9681041916
30
0.0000000000
10
-3.5979942780
20
25.9570626018
30
0.0000000000
10
-3.5754514605
20
25.9470808032
30
0.0000000000
10
-3.5641737677
20
25.9414419567
30
0.0000000000
11
-3.7958818489
21
25.9511953299
31
0.0000000000
11
-3.7883540018
21
25.9552201715
31
0.0000000000
11
-3.7604843825
21
25.9666139815
31
0.0000000000
11
-3.7307295218
21
25.9735909477
31
0.0000000000
11
-3.6993765588
21
25.9760858556
31
0.0000000000
11
-3.6667266604
21
25.9740765290
31
0.0000000000
11
-3.6330939584
21
25.9675837437
31
0.0000000000
11
-3.5987995204
21
25.9566703431
31
0.0000000000
11
-3.5641737677
21
25.9414419567
31
0.0000000000
0
SPLINE
5
2A7
100
AcDbEntity
8
0
100
AcDbSpline
62
7
6
CONTINUOUS
70
0
71
3
72
8
73
4
74
2
42
0.0000001000
43
0.0000001000
44
0.0000000001
12
0.0021437015
22
0.0012501913
32
0.0000000000
13
0.0021612088
23
0.0012196308
33
0.0000000000
40
0.0000000000
40
0.0000000000
40
0.0000000000
40
0.0000000000
40
1.0000000000
40
1.0000000000
40
1.0000000000
40
1.0000000000
10
-4.7301839863
20
25.4240543350
30
0.0000000000
10
-4.7294694192
20
25.4244710655
30
0.0000000000
10
-4.7287518993
20
25.4248827267
30
0.0000000000
10
-4.7280314964
20
25.4252892703
30
0.0000000000
11
-4.7301839863
21
25.4240543350
31
0.0000000000
11
-4.7280314964
21
25.4252892703
31
0.0000000000
0
SPLINE
5
2A8
100
AcDbEntity
8
0
100
AcDbSpline
62
7
6
CONTINUOUS
70
0
71
3
72
20
73
16
74
14
42
0.0000001000
43
0.0000001000
44
0.0000000001
12
-0.2546964071
22
-0.1436961876
32
0.0000000000
13
-0.2615627712
23
0.1307813856
33
0.0000000000
40
0.0000000000
40
0.0000000000
40
0.0000000000
40
0.0000000000
40
0.0690276386
40
0.1424014245
40
0.2189911839
40
0.2981390837
40
0.3797188185
40
0.4622911183
40
0.5446377027
40
0.6268480155
40
0.7076872300
40
0.7857575633
40
0.8609969340
40
0.9327675956
40
1.0000000000
40
1.0000000000
40
1.0000000000
40
1.0000000000
10
3.9665134520
20
20.5206131982
30
0.0000000000
10
3.9606530881
20
20.5173068621
30
0.0000000000
10
3.9482177271
20
20.5110868785
30
0.0000000000
10
3.9283572208
20
20.5032007931
30
0.0000000000
10
3.9070034650
20
20.4965870544
30
0.0000000000
10
3.8844551055
20
20.4913359853
30
0.0000000000
10
3.8610286595
20
20.4875271816
30
0.0000000000
10
3.8370941230
20
20.4852245587
30
0.0000000000
10
3.8130003018
20
20.4844542549
30
0.0000000000
10
3.7890749812
20
20.4852260367
30
0.0000000000
10
3.7656665844
20
20.4875345048
30
0.0000000000
10
3.7431419812
20
20.4913380769
30
0.0000000000
10
3.7218134256
20
20.4965771744
30
0.0000000000
10
3.7019764750
20
20.5031809127
30
0.0000000000
10
3.6895325708
20
20.5086049889
30
0.0000000000
10
3.6836707395
20
20.5115359046
30
0.0000000000
11
3.9665134520
21
20.5206131982
31
0.0000000000
11
3.9484846717
21
20.5115332979
31
0.0000000000
11
3.9285587139
21
20.5035730764
31
0.0000000000
11
3.9071736761
21
20.4969147727
31
0.0000000000
11
3.8846365563
21
20.4916420418
31
0.0000000000
11
3.8610913180
21
20.4877986874
31
0.0000000000
11
3.8370558024
21
20.4854797799
31
0.0000000000
11
3.8129869377
21
20.4847118730
31
0.0000000000
11
3.7889584951
21
20.4854968319
31
0.0000000000
11
3.7654341388
21
20.4878353226
31
0.0000000000
11
3.7429268194
21
20.4916636405
31
0.0000000000
11
3.7215682386
21
20.4969485329
31
0.0000000000
11
3.7016699863
21
20.5036245764
31
0.0000000000
11
3.6836707395
21
20.5115359046
31
0.0000000000
0
SPLINE
5
2A9
100
AcDbEntity
8
0
100
AcDbSpline
62
7
6
CONTINUOUS
70
0
71
3
72
14
73
10
74
8
42
0.0000001000
43
0.0000001000
44
0.0000000001
12
-0.0883080709
22
0.0441540354
32
0.0000000000
13
0.0000004760
23
0.0989485630
33
0.0000000000
40
0.0000000000
40
0.0000000000
40
0.0000000000
40
0.0000000000
40
0.1858534981
40
0.3589084347
40
0.5180908163
40
0.6648903870
40
0.8029660880
40
0.9348805166
40
1.0000000000
40
1.0000000000
40
1.0000000000
40
1.0000000000
10
0.7845329366
20
21.9611048060
30
0.0000000000
10
0.7790621487
20
21.9638402000
30
0.0000000000
10
0.7687451443
20
21.9696474790
30
0.0000000000
10
0.7549384765
20
21.9797288474
30
0.0000000000
10
0.7435718125
20
21.9907392919
30
0.0000000000
10
0.7348238848
20
22.0025402573
30
0.0000000000
10
0.7288566389
20
22.0149977457
30
0.0000000000
10
0.7263227001
20
22.0258275177
30
0.0000000000
10
0.7259557640
20
22.0323260909
30
0.0000000000
10
0.7259557743
20
22.0344739174
30
0.0000000000
11
0.7845329366
21
21.9611048060
31
0.0000000000
11
0.7685789997
21
21.9701700697
31
0.0000000000
11
0.7548320821
21
21.9803166111
31
0.0000000000
11
0.7436115734
21
21.9913212635
31
0.0000000000
11
0.7350592218
21
22.0030227811
31
0.0000000000
11
0.7292454651
21
22.0153533469
31
0.0000000000
11
0.7263209661
21
22.0280448588
31
0.0000000000
11
0.7259557743
21
22.0344739174
31
0.0000000000
0
SPLINE
5
2AA
100
AcDbEntity
8
0
100
AcDbSpline
62
7
6
CONTINUOUS
70
0
71
3
72
23
73
19
74
17
42
0.0000001000
43
0.0000001000
44
0.0000000001
12
0.6590293427
22
-0.3295146714
32
0.0000000000
13
0.0000000000
23
-0.7368172048
33
0.0000000000
40
0.0000000000
40
0.0000000000
40
0.0000000000
40
0.0000000000
40
0.0538651871
40
0.1101972075
40
0.1688512193
40
0.2296202518
40
0.2922378073
40
0.3563939263
40
0.4217412955
40
0.4879093266
40
0.5545032484
40
0.6211290129
40
0.6873778417
40
0.7528638649
40
0.8172018574
40
0.8800436731
40
0.9410678659
40
1.0000000000
40
1.0000000000
40
1.0000000000
40
1.0000000000
10
11.4264899935
20
18.4461100762
30
0.0000000000
10
11.4383229064
20
18.4401936197
30
0.0000000000
10
11.4619467553
20
18.4268935237
30
0.0000000000
10
11.4962068972
20
18.4034453763
30
0.0000000000
10
11.5297943725
20
18.3762608095
30
0.0000000000
10
11.5623884010
20
18.3456004395
30
0.0000000000
10
11.5936826573
20
18.3117538152
30
0.0000000000
10
11.6233793186
20
18.2750423995
30
0.0000000000
10
11.6511955875
20
18.2358145640
30
0.0000000000
10
11.6768648142
20
18.1944443452
30
0.0000000000
10
11.7001411810
20
18.1513255140
30
0.0000000000
10
11.7208000806
20
18.1068712937
30
0.0000000000
10
11.7386430358
20
18.0615056430
30
0.0000000000
10
11.7534971552
20
18.0156644794
30
0.0000000000
10
11.7652191908
20
17.9697858982
30
0.0000000000
10
11.7736952139
20
17.9243092342
30
0.0000000000
10
11.7788426084
20
17.8796727961
30
0.0000000000
10
11.7800433841
20
17.8502005058
30
0.0000000000
10
11.7800433841
20
17.8357264357
30
0.0000000000
11
11.4264899935
21
18.4461100762
31
0.0000000000
11
11.4611157462
21
18.4267127098
31
0.0000000000
11
11.4954101842
21
18.4033316724
31
0.0000000000
11
11.5290428863
21
18.3761917556
31
0.0000000000
11
11.5616927846
21
18.3455511839
31
0.0000000000
11
11.5930457476
21
18.3117033131
31
0.0000000000
11
11.6228006083
21
18.2749714860
31
0.0000000000
11
11.6506702276
21
18.2357080568
31
0.0000000000
11
11.6763864655
21
18.1942882230
31
0.0000000000
11
11.6996990644
21
18.1511124551
31
0.0000000000
11
11.7203841907
21
18.1065922039
31
0.0000000000
11
11.7382387634
21
18.0611614849
31
0.0000000000
11
11.7530913850
21
18.0152530903
31
0.0000000000
11
11.7647958105
21
17.9693153861
31
0.0000000000
11
11.7732389861
21
17.9237887544
31
0.0000000000
11
11.7783381031
21
17.8791151482
31
0.0000000000
11
11.7800433841
21
17.8357264357
31
0.0000000000
0
SPLINE
5
2AB
100
AcDbEntity
8
0
100
AcDbSpline
62
9
6
CONTINUOUS
70
0
71
3
72
15
73
11
74
9
42
0.0000001000
43
0.0000001000
44
0.0000000001
12
-0.0035983300
22
-0.2413202102
32
0.0000000000
13
0.2154941241
23
-0.1076581907
33
0.0000000000
40
0.0000000000
40
0.0000000000
40
0.0000000000
40
0.0000000000
40
0.0689056520
40
0.1761340286
40
0.2889199381
40
0.4098380416
40
0.5406748498
40
0.6824675769
40
0.8356153513
40
1.0000000000
40
1.0000000000
40
1.0000000000
40
1.0000000000
10
-8.5334278477
20
12.5393497164
30
0.0000000000
10
-8.5335104961
20
12.5338069409
30
0.0000000000
10
-8.5327374850
20
12.5196226002
30
0.0000000000
10
-8.5273989030
20
12.4968787980
30
0.0000000000
10
-8.5160176017
20
12.4718112895
30
0.0000000000
10
-8.4994657391
20
12.4475195578
30
0.0000000000
10
-8.4779701468
20
12.4242252456
30
0.0000000000
10
-8.4517763263
20
12.4021362841
30
0.0000000000
10
-8.4211651845
20
12.3814597390
30
0.0000000000
10
-8.3987846203
20
12.3691691863
30
0.0000000000
10
-8.3869766450
20
12.3632700684
30
0.0000000000
11
-8.5334278477
21
12.5393497164
31
0.0000000000
11
-8.5325258830
21
12.5227576176
31
0.0000000000
11
-8.5267226520
21
12.4975877124
31
0.0000000000
11
-8.5156347222
21
12.4727842369
31
0.0000000000
11
-8.4993808935
21
12.4486129442
31
0.0000000000
11
-8.4781353153
21
12.4253328141
31
0.0000000000
11
-8.4521256201
21
12.4031932780
31
0.0000000000
11
-8.4216304847
21
12.3824315466
31
0.0000000000
11
-8.3869766450
21
12.3632700684
31
0.0000000000
0
SPLINE
5
2AC
100
AcDbEntity
8
0
100
AcDbSpline
62
9
6
CONTINUOUS
70
0
71
3
72
18
73
14
74
12
42
0.0000001000
43
0.0000001000
44
0.0000000001
12
-0.2876066935
22
-0.1383746874
32
0.0000000000
13
0.0003281823
23
-0.3188962752
33
0.0000000000
40
0.0000000000
40
0.0000000000
40
0.0000000000
40
0.0000000000
40
0.0216213829
40
0.1060142172
40
0.1915790852
40
0.2792374879
40
0.3697848211
40
0.4639700907
40
0.5624435651
40
0.6655047354
40
0.7730387464
40
0.8847088633
40
1.0000000000
40
1.0000000000
40
1.0000000000
40
1.0000000000
10
-4.0671257167
20
3.0822774016
30
0.0000000000
10
-4.0691985348
20
3.0812801175
30
0.0000000000
10
-4.0792726807
20
3.0762047801
30
0.0000000000
10
-4.0966223109
20
3.0654107585
30
0.0000000000
10
-4.1176833136
20
3.0477721646
30
0.0000000000
10
-4.1366122894
20
3.0269783854
30
0.0000000000
10
-4.1532718521
20
3.0032076011
30
0.0000000000
10
-4.1675565060
20
2.9766349505
30
0.0000000000
10
-4.1793710321
20
2.9474437514
30
0.0000000000
10
-4.1886198222
20
2.9158670727
30
0.0000000000
10
-4.1952237779
20
2.8822086296
30
0.0000000000
10
-4.1991420908
20
2.8468321538
30
0.0000000000
10
-4.1999571527
20
2.8226947804
30
0.0000000000
10
-4.1999445406
20
2.8104394757
30
0.0000000000
11
-4.0671257167
21
3.0822774016
31
0.0000000000
11
-4.0732880480
21
3.0791725662
31
0.0000000000
11
-4.0961470775
21
3.0649686425
31
0.0000000000
11
-4.1170899112
21
3.0474774551
31
0.0000000000
11
-4.1359478031
21
3.0268424509
31
0.0000000000
11
-4.1525735163
21
3.0032338902
31
0.0000000000
11
-4.1668573293
21
2.9768124067
31
0.0000000000
11
-4.1787052858
21
2.9477303789
31
0.0000000000
11
-4.1880102393
21
2.9162092538
31
0.0000000000
11
-4.1946759482
21
2.8825711170
31
0.0000000000
11
-4.1986533666
21
2.8471827300
31
0.0000000000
11
-4.1999445406
21
2.8104394757
31
0.0000000000
0
SPLINE
5
2AD
100
AcDbEntity
8
0
100
AcDbSpline
62
9
6
CONTINUOUS
70
0
71
3
72
16
73
12
74
10
42
0.0000001000
43
0.0000001000
44
0.0000000001
12
-0.0267372739
22
-0.2341399521
32
0.0000000000
13
0.2105572242
23
-0.1045334519
33
0.0000000000
40
0.0000000000
40
0.0000000000
40
0.0000000000
40
0.0000000000
40
0.0070911070
40
0.0963229140
40
0.1906387497
40
0.2938462970
40
0.4085467335
40
0.5362243865
40
0.6774812495
40
0.8322579078
40
1.0000000000
40
1.0000000000
40
1.0000000000
40
1.0000000000
10
-7.8462674759
20
23.0279371466
30
0.0000000000
10
-7.8463306748
20
23.0273837094
30
0.0000000000
10
-7.8471102566
20
23.0198572191
30
0.0000000000
10
-7.8465106506
20
23.0047644866
30
0.0000000000
10
-7.8401182166
20
22.9830193030
30
0.0000000000
10
-7.8284303188
20
22.9613623355
30
0.0000000000
10
-7.8116717260
20
22.9399602964
30
0.0000000000
10
-7.7900473890
20
22.9189715816
30
0.0000000000
10
-7.7637806864
20
22.8985738325
30
0.0000000000
10
-7.7331387131
20
22.8789604946
30
0.0000000000
10
-7.7108503638
20
22.8669950357
30
0.0000000000
10
-7.6990772607
20
22.8611501491
30
0.0000000000
11
-7.8462674759
21
23.0279371466
31
0.0000000000
11
-7.8464395905
21
23.0262749997
31
0.0000000000
11
-7.8456960398
21
23.0053117624
31
0.0000000000
11
-7.8396345101
21
22.9839848773
31
0.0000000000
11
-7.8283199627
21
22.9625229046
31
0.0000000000
11
-7.8118736556
21
22.9411558522
31
0.0000000000
11
-7.7904718438
21
22.9201127106
31
0.0000000000
11
-7.7643438904
21
22.8996189993
31
0.0000000000
11
-7.7337698086
21
22.8798943491
31
0.0000000000
11
-7.6990772607
21
22.8611501491
31
0.0000000000
0
SPLINE
5
2AE
100
AcDbEntity
8
0
100
AcDbSpline
62
7
6
CONTINUOUS
70
0
71
3
72
15
73
11
74
9
42
0.0000001000
43
0.0000001000
44
0.0000000001
12
0.2080686651
22
0.1174189873
32
0.0000000000
13
0.2142262278
23
-0.1051461597
33
0.0000000000
40
0.0000000000
40
0.0000000000
40
0.0000000000
40
0.0000000000
40
0.0342625972
40
0.1564557240
40
0.2814484916
40
0.4110983656
40
0.5469016716
40
0.6899395375
40
0.8408778922
40
1.0000000000
40
1.0000000000
40
1.0000000000
40
1.0000000000
10
-4.7280314964
20
25.4252892703
30
0.0000000000
10
-4.7256551721
20
25.4266302967
30
0.0000000000
10
-4.7146607461
20
25.4324996491
30
0.0000000000
10
-4.6937998696
20
25.4409041884
30
0.0000000000
10
-4.6644308288
20
25.4474978994
30
0.0000000000
10
-4.6333350158
20
25.4496334786
30
0.0000000000
10
-4.6008279446
20
25.4473206370
30
0.0000000000
10
-4.5672224098
20
25.4406092585
30
0.0000000000
10
-4.5328373923
20
25.4295864304
30
0.0000000000
10
-4.5101934339
20
25.4196984647
30
0.0000000000
10
-4.4988307243
20
25.4141214385
30
0.0000000000
11
-4.7280314964
21
25.4252892703
31
0.0000000000
11
-4.7208109114
21
25.4291435623
31
0.0000000000
11
-4.6937768610
21
25.4400737344
31
0.0000000000
11
-4.6646891237
21
25.4466784538
31
0.0000000000
11
-4.6338290988
21
25.4488949500
31
0.0000000000
11
-4.6014953241
21
25.4467032449
31
0.0000000000
11
-4.5680005099
21
25.4401263166
31
0.0000000000
11
-4.5336684339
21
25.4292298306
31
0.0000000000
11
-4.4988307243
21
25.4141214385
31
0.0000000000
0
SPLINE
5
2AF
100
AcDbEntity
8
0
100
AcDbSpline
62
9
6
CONTINUOUS
70
0
71
3
72
15
73
11
74
9
42
0.0000001000
43
0.0000001000
44
0.0000000001
12
0.2101496634
22
0.1225567917
32
0.0000000000
13
0.2189156061
23
-0.1054718720
33
0.0000000000
40
0.0000000000
40
0.0000000000
40
0.0000000000
40
0.0000000000
40
0.0444396947
40
0.1654975731
40
0.2893449324
40
0.4177654184
40
0.5521963875
40
0.6936782529
40
0.8428541365
40
1.0000000000
40
1.0000000000
40
1.0000000000
40
1.0000000000
10
-7.2760164772
20
23.9396008384
30
0.0000000000
10
-7.2729034815
20
23.9414163005
30
0.0000000000
10
-7.2611053358
20
23.9478252408
30
0.0000000000
10
-7.2392792649
20
23.9566468459
30
0.0000000000
10
-7.2096739182
20
23.9633823899
30
0.0000000000
10
-7.1783258194
20
23.9656741674
30
0.0000000000
10
-7.1455506740
20
23.9635278670
30
0.0000000000
10
-7.1116623721
20
23.9569889125
30
0.0000000000
10
-7.0769815922
20
23.9461398093
30
0.0000000000
10
-7.0541301408
20
23.9363590978
30
0.0000000000
10
-7.0426629135
20
23.9308342750
30
0.0000000000
11
-7.2760164772
21
23.9396008384
31
0.0000000000
11
-7.2665179168
21
23.9447598866
31
0.0000000000
11
-7.2392581671
21
23.9558170256
31
0.0000000000
11
-7.2099293047
21
23.9625632464
31
0.0000000000
11
-7.1788134545
21
23.9649336549
31
0.0000000000
11
-7.1462099310
21
23.9629054491
31
0.0000000000
11
-7.1124323593
21
23.9564981392
31
0.0000000000
11
-7.0778056579
21
23.9457733593
31
0.0000000000
11
-7.0426629135
21
23.9308342750
31
0.0000000000
0
SPLINE
5
2B0
100
AcDbEntity
8
0
100
AcDbSpline
62
9
6
CONTINUOUS
70
0
71
3
72
14
73
10
74
8
42
0.0000001000
43
0.0000001000
44
0.0000000001
12
0.1153081391
22
0.0554688665
32
0.0000000000
13
0.0009146832
23
0.1277168697
33
0.0000000000
40
0.0000000000
40
0.0000000000
40
0.0000000000
40
0.0000000000
40
0.1056245671
40
0.2340045112
40
0.3684343965
40
0.5112402913
40
0.6638494794
40
0.8268285416
40
1.0000000000
40
1.0000000000
40
1.0000000000
40
1.0000000000
10
-4.2184590377
20
2.3286103752
30
0.0000000000
10
-4.2143992469
20
2.3305633335
30
0.0000000000
10
-4.2057958423
20
2.3357056786
30
0.0000000000
10
-4.1940716690
20
2.3462911686
30
0.0000000000
10
-4.1837027107
20
2.3602246922
30
0.0000000000
10
-4.1754712186
20
2.3766607309
30
0.0000000000
10
-4.1694857389
20
2.3953062156
30
0.0000000000
10
-4.1658234786
20
2.4158431170
30
0.0000000000
10
-4.1649863133
20
2.4301643084
30
0.0000000000
10
-4.1649335143
20
2.4375366139
30
0.0000000000
11
-4.2184590377
21
2.3286103752
31
0.0000000000
11
-4.2068681971
21
2.3355277038
31
0.0000000000
11
-4.1946566478
21
2.3464698243
31
0.0000000000
11
-4.1843348958
21
2.3601902428
31
0.0000000000
11
-4.1760795311
21
2.3764542211
31
0.0000000000
11
-4.1700317908
21
2.3949835047
31
0.0000000000
11
-4.1662951424
21
2.4154610832
31
0.0000000000
11
-4.1649335143
21
2.4375366139
31
0.0000000000
0
SPLINE
5
2B1
100
AcDbEntity
8
0
100
AcDbSpline
62
9
6
CONTINUOUS
70
0
71
3
72
15
73
11
74
9
42
0.0000001000
43
0.0000001000
44
0.0000000001
12
-0.1415587716
22
0.0708183319
32
0.0000000000
13
0.0001013376
23
0.1580746030
33
0.0000000000
40
0.0000000000
40
0.0000000000
40
0.0000000000
40
0.0000000000
40
0.1023731481
40
0.2128853324
40
0.3274263084
40
0.4475873309
40
0.5744915587
40
0.7087863309
40
0.8506788504
40
1.0000000000
40
1.0000000000
40
1.0000000000
40
1.0000000000
10
-4.4168150158
20
2.3288111814
30
0.0000000000
10
-4.4216456214
20
2.3312278132
30
0.0000000000
10
-4.4312560938
20
2.3371234138
30
0.0000000000
10
-4.4442313366
20
2.3486285561
30
0.0000000000
10
-4.4556546548
20
2.3628874914
30
0.0000000000
10
-4.4651538299
20
2.3794841133
30
0.0000000000
10
-4.4726286775
20
2.3981993241
30
0.0000000000
10
-4.4780030311
20
2.4187987098
30
0.0000000000
10
-4.4812225714
20
2.4410274469
30
0.0000000000
10
-4.4818943696
20
2.4563844281
30
0.0000000000
10
-4.4818893257
20
2.4642523886
30
0.0000000000
11
-4.4168150158
21
2.3288111814
31
0.0000000000
11
-4.4306171198
21
2.3372644944
31
0.0000000000
11
-4.4437169162
21
2.3488216286
31
0.0000000000
11
-4.4550873891
21
2.3629120655
31
0.0000000000
11
-4.4645869553
21
2.3793603435
31
0.0000000000
11
-4.4720973753
21
2.3979617094
31
0.0000000000
11
-4.4775251780
21
2.4184846794
31
0.0000000000
11
-4.4808027443
21
2.4406735254
31
0.0000000000
11
-4.4818893257
21
2.4642523886
31
0.0000000000
0
SPLINE
5
2B2
100
AcDbEntity
8
0
100
AcDbSpline
62
9
6
CONTINUOUS
70
0
71
3
72
14
73
10
74
8
42
0.0000001000
43
0.0000001000
44
0.0000000001
12
-0.0862372286
22
0.0431178797
32
0.0000000000
13
0.0000551013
23
0.0966600361
33
0.0000000000
40
0.0000000000
40
0.0000000000
40
0.0000000000
40
0.0000000000
40
0.2048390489
40
0.3921995422
40
0.5623428208
40
0.7169656680
40
0.8595214153
40
0.9952865690
40
1.0000000000
40
1.0000000000
40
1.0000000000
40
1.0000000000
10
2.4449344487
20
-0.9991594214
30
0.0000000000
10
2.4390461981
20
-0.9962153463
30
0.0000000000
10
2.4280377828
20
-0.9900134195
30
0.0000000000
10
2.4134444464
20
-0.9792647640
30
0.0000000000
10
2.4017121962
20
-0.9676188492
30
0.0000000000
10
2.3930545456
20
-0.9552275469
30
0.0000000000
10
2.3876762587
20
-0.9422560768
30
0.0000000000
10
2.3863741474
20
-0.9331483602
30
0.0000000000
10
2.3863557362
20
-0.9286221511
30
0.0000000000
10
2.3863558228
20
-0.9284702843
30
0.0000000000
11
2.4449344487
21
-0.9991594214
31
0.0000000000
11
2.4277737200
21
-0.9893838878
31
0.0000000000
11
2.4132963501
21
-0.9785796058
31
0.0000000000
11
2.4017473098
21
-0.9669293940
31
0.0000000000
11
2.3933220200
21
-0.9546303852
31
0.0000000000
11
2.3881630446
21
-0.9418906904
31
0.0000000000
11
2.3863576785
21
-0.9289258774
31
0.0000000000
11
2.3863558228
21
-0.9284702843
31
0.0000000000
0
SPLINE
5
2B3
100
AcDbEntity
8
0
100
AcDbSpline
62
9
6
CONTINUOUS
70
0
71
3
72
14
73
10
74
8
42
0.0000001000
43
0.0000001000
44
0.0000000001
12
-0.0862638137
22
0.0431295527
32
0.0000000000
13
0.0001155981
23
0.0966860497
33
0.0000000000
40
0.0000000000
40
0.0000000000
40
0.0000000000
40
0.0000000000
40
0.1896493586
40
0.3644157165
40
0.5243839190
40
0.6706423503
40
0.8055115183
40
0.9326663230
40
1.0000000000
40
1.0000000000
40
1.0000000000
40
1.0000000000
10
2.4452702174
20
-0.6520784050
30
0.0000000000
10
2.4398169251
20
-0.6493519077
30
0.0000000000
10
2.4295682579
20
-0.6436270215
30
0.0000000000
10
2.4158196232
20
-0.6338037195
30
0.0000000000
10
2.4044881923
20
-0.6232035486
30
0.0000000000
10
2.3957437849
20
-0.6119508340
30
0.0000000000
10
2.3897415413
20
-0.6001747398
30
0.0000000000
10
2.3870892917
20
-0.5898249970
30
0.0000000000
10
2.3866907715
20
-0.5835561465
30
0.0000000000
10
2.3866933661
20
-0.5813860708
30
0.0000000000
11
2.4452702174
21
-0.6520784050
31
0.0000000000
11
2.4293377052
21
-0.6430948244
31
0.0000000000
11
2.4156743718
21
-0.6332249304
31
0.0000000000
11
2.4044772544
21
-0.6226112135
31
0.0000000000
11
2.3959078255
21
-0.6114067316
31
0.0000000000
11
2.3900896633
21
-0.5997730606
31
0.0000000000
11
2.3871066702
21
-0.5878779655
31
0.0000000000
11
2.3866933661
21
-0.5813860708
31
0.0000000000
0
SPLINE
5
2B4
100
AcDbEntity
8
0
100
AcDbSpline
62
9
6
CONTINUOUS
70
0
71
3
72
15
73
11
74
9
42
0.0000001000
43
0.0000001000
44
0.0000000001
12
-0.0003097963
22
-0.1267475288
32
0.0000000000
13
0.1135582900
23
-0.0567633396
33
0.0000000000
40
0.0000000000
40
0.0000000000
40
0.0000000000
40
0.0000000000
40
0.1604946916
40
0.3123318492
40
0.4553355717
40
0.5898548544
40
0.7168449816
40
0.8379103712
40
0.9552612898
40
1.0000000000
40
1.0000000000
40
1.0000000000
40
1.0000000000
10
1.9514417108
20
0.2023982815
30
0.0000000000
10
1.9514251372
20
0.1956175129
30
0.0000000000
10
1.9520215190
20
0.1824080271
30
0.0000000000
10
1.9549689538
20
0.1633564699
30
0.0000000000
10
1.9599125618
20
0.1458500275
30
0.0000000000
10
1.9667963397
20
0.1301406801
30
0.0000000000
10
1.9755413148
20
0.1164600762
30
0.0000000000
10
1.9860407311
20
0.1050256481
30
0.0000000000
10
1.9957068857
20
0.0978495326
30
0.0000000000
10
2.0017266179
20
0.0945513628
30
0.0000000000
10
2.0034201018
20
0.0937048566
30
0.0000000000
11
1.9514417108
21
0.2023982815
31
0.0000000000
11
1.9524144227
21
0.1820791846
31
0.0000000000
11
1.9554202886
21
0.1630703337
31
0.0000000000
11
1.9604157949
21
0.1456469052
31
0.0000000000
11
1.9673286253
21
0.1300611246
31
0.0000000000
11
1.9760587077
21
0.1165386146
31
0.0000000000
11
1.9864796635
21
0.1052751293
31
0.0000000000
11
1.9984406365
21
0.0964337207
31
0.0000000000
11
2.0034201018
21
0.0937048566
31
0.0000000000
0
SPLINE
5
2B5
100
AcDbEntity
8
0
100
AcDbSpline
62
9
6
CONTINUOUS
70
0
71
3
72
19
73
15
74
13
42
0.0000001000
43
0.0000001000
44
0.0000000001
12
0.2592221136
22
-0.1296132623
32
0.0000000000
13
0.2602163001
23
0.1276055607
33
0.0000000000
40
0.0000000000
40
0.0000000000
40
0.0000000000
40
0.0000000000
40
0.0736801644
40
0.1523386976
40
0.2352112726
40
0.3213796291
40
0.4098159462
40
0.4994215491
40
0.5890625015
40
0.6776038139
40
0.7639436113
40
0.8470485961
40
0.9259924984
40
1.0000000000
40
1.0000000000
40
1.0000000000
40
1.0000000000
10
-4.4818893257
20
2.4642523886
30
0.0000000000
10
-4.4755228164
20
2.4610690798
30
0.0000000000
10
-4.4620012349
20
2.4551901005
30
0.0000000000
10
-4.4404143278
20
2.4480170052
30
0.0000000000
10
-4.4171555664
20
2.4422923155
30
0.0000000000
10
-4.3926146493
20
2.4381129580
30
0.0000000000
10
-4.3672002528
20
2.4355487416
30
0.0000000000
10
-4.3413379708
20
2.4346430672
30
0.0000000000
10
-4.3154611114
20
2.4354112041
30
0.0000000000
10
-4.2900032444
20
2.4378402018
30
0.0000000000
10
-4.2653907361
20
2.4418889343
30
0.0000000000
10
-4.2420335608
20
2.4474897447
30
0.0000000000
10
-4.2203231474
20
2.4545477591
30
0.0000000000
10
-4.2067054808
20
2.4603522855
30
0.0000000000
10
-4.2002861613
20
2.4635002084
30
0.0000000000
11
-4.4818893257
21
2.4642523886
31
0.0000000000
11
-4.4623356121
21
2.4556707019
31
0.0000000000
11
-4.4407197818
21
2.4484283861
31
0.0000000000
11
-4.4174075955
21
2.4426479882
31
0.0000000000
11
-4.3927935177
21
2.4384273180
31
0.0000000000
11
-4.3672940422
21
2.4358377934
31
0.0000000000
11
-4.3413406446
21
2.4349232314
31
0.0000000000
11
-4.3153724812
21
2.4356991075
31
0.0000000000
11
-4.2898289583
21
2.4381522931
31
0.0000000000
11
-4.2651422968
21
2.4422412778
31
0.0000000000
11
-4.2417302187
21
2.4478968722
31
0.0000000000
11
-4.2199888788
21
2.4550233781
31
0.0000000000
11
-4.2002861613
21
2.4635002084
31
0.0000000000
0
SPLINE
5
2B6
100
AcDbEntity
8
0
100
AcDbSpline
62
9
6
CONTINUOUS
70
0
71
3
72
20
73
16
74
14
42
0.0000001000
43
0.0000001000
44
0.0000000001
12
0.2592152129
22
-0.1296164212
32
0.0000000000
13
0.2603119529
23
0.1273994914
33
0.0000000000
40
0.0000000000
40
0.0000000000
40
0.0000000000
40
0.0000000000
40
0.0678341329
40
0.1399569070
40
0.2157823075
40
0.2946070765
40
0.3756415919
40
0.4580365766
40
0.5409074850
40
0.6233576740
40
0.7045011872
40
0.7834858804
40
0.8595177047
40
0.9318872307
40
1.0000000000
40
1.0000000000
40
1.0000000000
40
1.0000000000
10
-4.4815475687
20
2.8113304881
30
0.0000000000
10
-4.4756863557
20
2.8083996822
30
0.0000000000
10
-4.4632903224
20
2.8029472291
30
0.0000000000
10
-4.4435580011
20
2.7961647842
30
0.0000000000
10
-4.4223489888
20
2.7906020367
30
0.0000000000
10
-4.3999665948
20
2.7863392875
30
0.0000000000
10
-4.3767288697
20
2.7834372173
30
0.0000000000
10
-4.3529677994
20
2.7819376472
30
0.0000000000
10
-4.3290230422
20
2.7818621507
30
0.0000000000
10
-4.3052371259
20
2.7832118112
30
0.0000000000
10
-4.2819500821
20
2.7859672004
30
0.0000000000
10
-4.2594946386
20
2.7900885991
30
0.0000000000
10
-4.2381899502
20
2.7955172914
30
0.0000000000
10
-4.2183407932
20
2.8021749342
30
0.0000000000
10
-4.2058547292
20
2.8075469653
30
0.0000000000
10
-4.1999445399
20
2.8104394760
30
0.0000000000
11
-4.4815475687
21
2.8113304881
31
0.0000000000
11
-4.4635756406
21
2.8033617509
31
0.0000000000
11
-4.4438234655
21
2.7965238263
31
0.0000000000
11
-4.4225758879
21
2.7909151591
31
0.0000000000
11
-4.4001393174
21
2.7866166274
31
0.0000000000
11
-4.3768373096
21
2.7836902176
31
0.0000000000
11
-4.3530058997
21
2.7821781288
31
0.0000000000
11
-4.3289887577
21
2.7821021643
31
0.0000000000
11
-4.3051322314
21
2.7834634176
31
0.0000000000
11
-4.2817803525
21
2.7862422568
31
0.0000000000
11
-4.2592698752
21
2.7903986078
31
0.0000000000
11
-4.2379254196
21
2.7958725313
31
0.0000000000
11
-4.2180547909
21
2.8025850879
31
0.0000000000
11
-4.1999445399
21
2.8104394760
31
0.0000000000
0
SPLINE
5
2B7
100
AcDbEntity
8
0
100
AcDbSpline
62
9
6
CONTINUOUS
70
0
71
3
72
15
73
11
74
9
42
0.0000001000
43
0.0000001000
44
0.0000000001
12
-0.0001009172
22
-0.1578689825
32
0.0000000000
13
0.1413862063
23
-0.0707059851
33
0.0000000000
40
0.0000000000
40
0.0000000000
40
0.0000000000
40
0.0000000000
40
0.1495025598
40
0.2915335673
40
0.4259147471
40
0.5528454098
40
0.6729673418
40
0.7874022721
40
0.8977459094
40
1.0000000000
40
1.0000000000
40
1.0000000000
40
1.0000000000
10
2.4449343714
20
-0.9991594600
30
0.0000000000
10
2.4449293423
20
-1.0070267323
30
0.0000000000
10
2.4455985748
20
-1.0223805086
30
0.0000000000
10
2.4488064488
20
-1.0446028203
30
0.0000000000
10
2.4541613935
20
-1.0651921120
30
0.0000000000
10
2.4616093243
20
-1.0838938486
30
0.0000000000
10
2.4710744917
20
-1.1004739813
30
0.0000000000
10
2.4824574078
20
-1.1147137582
30
0.0000000000
10
2.4953912057
20
-1.1262008275
30
0.0000000000
10
2.5049751130
20
-1.1320834464
30
0.0000000000
10
2.5097942190
20
-1.1344934385
30
0.0000000000
11
2.4449343714
21
-0.9991594600
31
0.0000000000
11
2.4460171677
21
-1.0227364306
31
0.0000000000
11
2.4492833171
21
-1.0449195682
31
0.0000000000
11
2.4546922059
21
-1.0654330811
31
0.0000000000
11
2.4621764569
21
-1.0840213626
31
0.0000000000
11
2.4716429187
21
-1.1004530884
31
0.0000000000
11
2.4829737666
21
-1.1145237129
31
0.0000000000
11
2.4960279089
21
-1.1260580200
31
0.0000000000
11
2.5097942190
21
-1.1344934385
31
0.0000000000
0
SPLINE
5
2B8
100
AcDbEntity
8
0
100
AcDbSpline
62
9
6
CONTINUOUS
70
0
71
3
72
9
73
5
74
3
42
0.0000001000
43
0.0000001000
44
0.0000000001
12
-0.0004482462
22
-0.3470809405
32
0.0000000000
13
-0.0002234080
23
-0.3470811581
33
0.0000000000
40
0.0000000000
40
0.0000000000
40
0.0000000000
40
0.0000000000
40
0.5000409878
40
1.0000000000
40
1.0000000000
40
1.0000000000
40
1.0000000000
10
2.4452702165
20
-0.6520783970
30
0.0000000000
10
2.4451955026
20
-0.7099299625
30
0.0000000000
10
2.4450648167
20
-0.8256236343
30
0.0000000000
10
2.4449716030
20
-0.9413173423
30
0.0000000000
10
2.4449343714
20
-0.9991594600
30
0.0000000000
11
2.4452702165
21
-0.6520783970
31
0.0000000000
11
2.4450741756
21
-0.8256331274
31
0.0000000000
11
2.4449343714
21
-0.9991594600
31
0.0000000000
0
SPLINE
5
2B9
100
AcDbEntity
8
0
100
AcDbSpline
62
9
6
CONTINUOUS
70
0
71
3
72
25
73
21
74
19
42
0.0000001000
43
0.0000001000
44
0.0000000001
12
0.0013249608
22
1.0310567618
32
0.0000000000
13
-0.9222021593
23
0.4611105929
33
0.0000000000
40
0.0000000000
40
0.0000000000
40
0.0000000000
40
0.0000000000
40
0.0517733937
40
0.1055884445
40
0.1611112032
40
0.2179812574
40
0.2758126122
40
0.3343238355
40
0.3933357501
40
0.4526253368
40
0.5118896427
40
0.5708205552
40
0.6291160713
40
0.6864923771
40
0.7427552703
40
0.7977606713
40
0.8512767621
40
0.9029913937
40
0.9526386977
40
1.0000000000
40
1.0000000000
40
1.0000000000
40
1.0000000000
10
2.4452702165
20
-0.6520783970
30
0.0000000000
10
2.4452930824
20
-0.6342846278
30
0.0000000000
10
2.4440410844
20
-0.5979835498
30
0.0000000000
10
2.4384802693
20
-0.5428557699
30
0.0000000000
10
2.4291962144
20
-0.4864552708
30
0.0000000000
10
2.4162574189
20
-0.4293663128
30
0.0000000000
10
2.3997850932
20
-0.3721270968
30
0.0000000000
10
2.3799221305
20
-0.3151956559
30
0.0000000000
10
2.3568122714
20
-0.2589616963
30
0.0000000000
10
2.3306129835
20
-0.2038125689
30
0.0000000000
10
2.3015174784
20
-0.1501665386
30
0.0000000000
10
2.2697564693
20
-0.0984542518
30
0.0000000000
10
2.2355851430
20
-0.0490881216
30
0.0000000000
10
2.1992637057
20
-0.0024368471
30
0.0000000000
10
2.1610416138
20
0.0411802779
30
0.0000000000
10
2.1211752811
20
0.0814574768
30
0.0000000000
10
2.0799768238
20
0.1180618789
30
0.0000000000
10
2.0378320310
20
0.1506498011
30
0.0000000000
10
1.9951871777
20
0.1789116600
30
0.0000000000
10
1.9660006092
20
0.1951186821
30
0.0000000000
10
1.9514417108
20
0.2023982814
30
0.0000000000
11
2.4452702165
21
-0.6520783970
31
0.0000000000
11
2.4434900924
21
-0.5987267348
31
0.0000000000
11
2.4379739014
21
-0.5435151943
31
0.0000000000
11
2.4287187243
21
-0.4870211293
31
0.0000000000
11
2.4157922536
21
-0.4298274032
31
0.0000000000
11
2.3993272962
21
-0.3725182503
31
0.0000000000
11
2.3794711136
21
-0.3155511286
31
0.0000000000
11
2.3563527186
21
-0.2592695565
31
0.0000000000
11
2.3301234064
21
-0.2040516258
31
0.0000000000
11
2.3009865960
21
-0.1503407632
31
0.0000000000
11
2.2691755133
21
-0.0985722949
31
0.0000000000
11
2.2349486211
21
-0.0491632333
31
0.0000000000
11
2.1985826154
21
-0.0025025928
31
0.0000000000
11
2.1603216942
21
0.0411012488
31
0.0000000000
11
2.1203917336
21
0.0813758841
31
0.0000000000
11
2.0791052683
21
0.1179826942
31
0.0000000000
11
2.0368836375
21
0.1505470586
31
0.0000000000
11
1.9941727660
21
0.1787626359
31
0.0000000000
11
1.9514417108
21
0.2023982814
31
0.0000000000
0
SPLINE
5
2BA
100
AcDbEntity
8
0
100
AcDbSpline
62
9
6
CONTINUOUS
70
0
71
3
72
15
73
11
74
9
42
0.0000001000
43
0.0000001000
44
0.0000000001
12
-0.2128797394
22
0.1064396284
32
0.0000000000
13
-0.0052311644
23
0.2383063429
33
0.0000000000
40
0.0000000000
40
0.0000000000
40
0.0000000000
40
0.0000000000
40
0.1564056529
40
0.3029659939
40
0.4396025969
40
0.5666050493
40
0.6847491957
40
0.7953653709
40
0.9003786248
40
1.0000000000
40
1.0000000000
40
1.0000000000
40
1.0000000000
10
-8.4495759593
20
4.4480957061
30
0.0000000000
10
-8.4606744909
20
4.4536449593
30
0.0000000000
10
-8.4817851495
20
4.4652019575
30
0.0000000000
10
-8.5108487708
20
4.4845671853
30
0.0000000000
10
-8.5360537602
20
4.5052510478
30
0.0000000000
10
-8.5571631673
20
4.5270795156
30
0.0000000000
10
-8.5739694218
20
4.5498749925
30
0.0000000000
10
-8.5862851237
20
4.5734510519
30
0.0000000000
10
-8.5938869187
20
4.5974251942
30
0.0000000000
10
-8.5958195332
20
4.6136453340
30
0.0000000000
10
-8.5959932452
20
4.6215588025
30
0.0000000000
11
-8.4495759593
21
4.4480957061
31
0.0000000000
11
-8.4821831914
21
4.4660543514
31
0.0000000000
11
-8.5111508272
21
4.4854876655
31
0.0000000000
11
-8.5362099361
21
4.5062149185
31
0.0000000000
11
-8.5571231990
21
4.5280399742
31
0.0000000000
11
-8.5736940353
21
4.5507576088
31
0.0000000000
11
-8.5857663810
21
4.5741539726
31
0.0000000000
11
-8.5932264074
21
4.5980085491
31
0.0000000000
11
-8.5959932452
21
4.6215588025
31
0.0000000000
0
SPLINE
5
2BB
100
AcDbEntity
8
0
100
AcDbSpline
62
9
6
CONTINUOUS
70
0
71
3
72
9
73
5
74
3
42
0.0000001000
43
0.0000001000
44
0.0000000001
12
-0.0000611554
22
0.0027859414
32
0.0000000000
13
0.0000022061
23
0.0027866617
33
0.0000000000
40
0.0000000000
40
0.0000000000
40
0.0000000000
40
0.0000000000
40
0.1930444904
40
1.0000000000
40
1.0000000000
40
1.0000000000
40
1.0000000000
10
-8.5959932452
20
4.6215588025
30
0.0000000000
10
-8.5959971804
20
4.6217380727
30
0.0000000000
10
-8.5960155262
20
4.6226667653
30
0.0000000000
10
-8.5960232903
20
4.6235956498
30
0.0000000000
10
-8.5960226969
20
4.6243452205
30
0.0000000000
11
-8.5959932452
21
4.6215588025
31
0.0000000000
11
-8.5960038692
21
4.6220966378
31
0.0000000000
11
-8.5960226969
21
4.6243452205
31
0.0000000000
0
SPLINE
5
2BC
100
AcDbEntity
8
0
100
AcDbSpline
62
9
6
CONTINUOUS
70
0
71
3
72
10
73
6
74
4
42
0.0000001000
43
0.0000001000
44
0.0000000001
12
0.0050502121
22
7.9154818157
32
0.0000000000
13
0.1197180598
23
7.9145780345
33
0.0000000000
40
0.0000000000
40
0.0000000000
40
0.0000000000
40
0.0000000000
40
0.3325044104
40
0.6658360585
40
1.0000000000
40
1.0000000000
40
1.0000000000
40
1.0000000000
10
-8.4495759597
20
4.4480957058
30
0.0000000000
10
-8.4490162204
20
5.3254065772
30
0.0000000000
10
-8.4436162861
20
7.0822113186
30
0.0000000000
10
-8.4227337663
20
9.7206323832
30
0.0000000000
10
-8.4003117982
20
11.4816812046
30
0.0000000000
10
-8.3869766453
20
12.3632700682
30
0.0000000000
11
-8.4495759597
21
4.4480957058
31
0.0000000000
11
-8.4415021746
21
7.0800164721
31
0.0000000000
11
-8.4206356875
21
9.7184150956
31
0.0000000000
11
-8.3869766453
21
12.3632700682
31
0.0000000000
0
SPLINE
5
2BD
100
AcDbEntity
8
0
100
AcDbSpline
62
9
6
CONTINUOUS
70
0
71
3
72
14
73
10
74
8
42
0.0000001000
43
0.0000001000
44
0.0000000001
12
0.1591919133
22
10.5233295456
32
0.0000000000
13
1.1906596437
23
10.4569659273
33
0.0000000000
40
0.0000000000
40
0.0000000000
40
0.0000000000
40
0.0000000000
40
0.1398556385
40
0.2807463514
40
0.4226523539
40
0.5655528729
40
0.7094262094
40
0.8542497444
40
1.0000000000
40
1.0000000000
40
1.0000000000
40
1.0000000000
10
-8.3869766453
20
12.3632700682
30
0.0000000000
10
-8.3795553497
20
12.8538523926
30
0.0000000000
10
-8.3573699632
20
13.8385523198
30
0.0000000000
10
-8.3024422467
20
15.3203229692
30
0.0000000000
10
-8.2257597232
20
16.8118256885
30
0.0000000000
10
-8.1273492645
20
18.3125365520
30
0.0000000000
10
-8.0072450892
20
19.8219349983
30
0.0000000000
10
-7.8654894994
20
21.3394915085
30
0.0000000000
10
-7.7569235963
20
22.3531149905
30
0.0000000000
10
-7.6990772805
20
22.8611501429
30
0.0000000000
11
-8.3869766453
21
12.3632700682
31
0.0000000000
11
-8.3539029989
21
13.8348138044
31
0.0000000000
11
-8.2990523308
21
15.3166080020
31
0.0000000000
11
-8.2224437415
21
16.8081363810
31
0.0000000000
11
-8.1241039161
21
18.3088791633
31
0.0000000000
11
-8.0040670995
21
19.8183135183
31
0.0000000000
11
-7.8623751050
21
21.3359134298
31
0.0000000000
11
-7.6990772805
21
22.8611501429
31
0.0000000000
0
SPLINE
5
2BE
100
AcDbEntity
8
0
100
AcDbSpline
62
9
6
CONTINUOUS
70
0
71
3
72
24
73
20
74
18
42
0.0000001000
43
0.0000001000
44
0.0000000001
12
0.1479833929
22
1.2876767174
32
0.0000000000
13
1.1243420888
23
0.6448761744
33
0.0000000000
40
0.0000000000
40
0.0000000000
40
0.0000000000
40
0.0000000000
40
0.0575845141
40
0.1164862026
40
0.1764990203
40
0.2373975463
40
0.2989453122
40
0.3608958539
40
0.4229972205
40
0.4849953401
40
0.5466380124
40
0.6076772476
40
0.6678741881
40
0.7270016475
40
0.7848484223
40
0.8412232156
40
0.8959598502
40
0.9489195632
40
1.0000000000
40
1.0000000000
40
1.0000000000
40
1.0000000000
10
-7.6990772805
20
22.8611501429
30
0.0000000000
10
-7.6962367632
20
22.8858668889
30
0.0000000000
10
-7.6890152459
20
22.9357066050
30
0.0000000000
10
-7.6739106648
20
23.0104881659
30
0.0000000000
10
-7.6544961382
20
23.0857486412
30
0.0000000000
10
-7.6308971755
20
23.1610003351
30
0.0000000000
10
-7.6032659919
20
23.2357590325
30
0.0000000000
10
-7.5717807264
20
23.3095426575
30
0.0000000000
10
-7.5366444856
20
23.3818752970
30
0.0000000000
10
-7.4980838369
20
23.4522904396
30
0.0000000000
10
-7.4563474428
20
23.5203338585
30
0.0000000000
10
-7.4117042603
20
23.5855668319
30
0.0000000000
10
-7.3644419330
20
23.6475686963
30
0.0000000000
10
-7.3148647056
20
23.7059398059
30
0.0000000000
10
-7.2632914078
20
23.7603039664
30
0.0000000000
10
-7.2100534531
20
23.8103108516
30
0.0000000000
10
-7.1554909336
20
23.8556389107
30
0.0000000000
10
-7.0999569439
20
23.8959935058
30
0.0000000000
10
-7.0618068752
20
23.9198540895
30
0.0000000000
10
-7.0426629135
20
23.9308342750
30
0.0000000000
11
-7.6990772805
21
22.8611501429
31
0.0000000000
11
-7.6884255389
21
22.9350244622
31
0.0000000000
11
-7.6733524586
21
23.0098672664
31
0.0000000000
11
-7.6539552965
21
23.0851956935
31
0.0000000000
11
-7.6303600065
21
23.1605203249
31
0.0000000000
11
-7.6027191814
21
23.2353539966
31
0.0000000000
11
-7.5712119085
21
23.3092116480
31
0.0000000000
11
-7.5360423216
21
23.3816146470
31
0.0000000000
11
-7.4974383365
21
23.4520937265
31
0.0000000000
11
-7.4556498274
21
23.5201925964
31
0.0000000000
11
-7.4109477588
21
23.5854696068
31
0.0000000000
11
-7.3636215091
21
23.6475021159
31
0.0000000000
11
-7.3139777888
21
23.7058880070
31
0.0000000000
11
-7.2623383309
21
23.7602488397
31
0.0000000000
11
-7.2090379083
21
23.8102321886
31
0.0000000000
11
-7.1544213044
21
23.8555146838
31
0.0000000000
11
-7.0988433888
21
23.8958020629
31
0.0000000000
11
-7.0426629135
21
23.9308342750
31
0.0000000000
0
SPLINE
5
2BF
100
AcDbEntity
8
0
100
AcDbSpline
62
7
6
CONTINUOUS
70
0
71
3
72
23
73
19
74
17
42
0.0000001000
43
0.0000001000
44
0.0000000001
12
0.0000000000
22
0.7339931418
32
0.0000000000
13
-0.6540409708
23
0.3331311163
33
0.0000000000
40
0.0000000000
40
0.0000000000
40
0.0000000000
40
0.0000000000
40
0.0581111666
40
0.1182776021
40
0.1804856928
40
0.2444046212
40
0.3096657223
40
0.3758721091
40
0.4426077113
40
0.5094459445
40
0.5759581860
40
0.6417222158
40
0.7063307795
40
0.7694004379
40
0.8305809018
40
0.8895650878
40
0.9461001781
40
1.0000000000
40
1.0000000000
40
1.0000000000
40
1.0000000000
10
10.8608045685
20
17.3171046193
30
0.0000000000
10
10.8608045685
20
17.3313223519
30
0.0000000000
10
10.8574597259
20
17.3601723620
30
0.0000000000
10
10.8509259702
20
17.4038285358
30
0.0000000000
10
10.8406623057
20
17.4482935261
30
0.0000000000
10
10.8273739739
20
17.4932173063
30
0.0000000000
10
10.8110137726
20
17.5381676869
30
0.0000000000
10
10.7917859399
20
17.5827146290
30
0.0000000000
10
10.7698610588
20
17.6264305460
30
0.0000000000
10
10.7454528513
20
17.6688958383
30
0.0000000000
10
10.7187945238
20
17.7097028606
30
0.0000000000
10
10.6901422260
20
17.7484601510
30
0.0000000000
10
10.6597708613
20
17.7847963310
30
0.0000000000
10
10.6279714434
20
17.8183638971
30
0.0000000000
10
10.5950484267
20
17.8488423256
30
0.0000000000
10
10.5613143441
20
17.8759421344
30
0.0000000000
10
10.5270935080
20
17.8994037240
30
0.0000000000
10
10.5035839341
20
17.9128043220
30
0.0000000000
10
10.4918330369
20
17.9187895579
30
0.0000000000
11
10.8608045685
21
17.3171046193
31
0.0000000000
11
10.8572916876
21
17.3596129119
31
0.0000000000
11
10.8504409971
21
17.4032400628
31
0.0000000000
11
10.8403166649
21
17.4477637867
31
0.0000000000
11
10.8270148525
21
17.4927546525
31
0.0000000000
11
10.8106627635
21
17.5377783597
31
0.0000000000
11
10.7914174135
21
17.5824000340
31
0.0000000000
11
10.7694640962
21
17.6261885327
31
0.0000000000
11
10.7450145626
21
17.6687207162
31
0.0000000000
11
10.7183049319
21
17.7095856406
31
0.0000000000
11
10.6895933547
21
17.7483886266
31
0.0000000000
11
10.6591574547
21
17.7847551646
31
0.0000000000
11
10.6272915738
21
17.8183346137
31
0.0000000000
11
10.5943038506
21
17.8488036576
31
0.0000000000
11
10.5605131622
21
17.8758694806
31
0.0000000000
11
10.5262459613
21
17.8992726330
31
0.0000000000
11
10.4918330369
21
17.9187895579
31
0.0000000000
0
SPLINE
5
2C0
100
AcDbEntity
8
0
100
AcDbSpline
62
9
6
CONTINUOUS
70
0
71
3
72
10
73
6
74
4
42
0.0000001000
43
0.0000001000
44
0.0000000001
12
-0.1238870970
22
-7.9071942042
32
0.0000000000
13
-0.0051992261
23
-7.9081629449
33
0.0000000000
40
0.0000000000
40
0.0000000000
40
0.0000000000
40
0.0000000000
40
0.3341367043
40
0.6674683186
40
1.0000000000
40
1.0000000000
40
1.0000000000
40
1.0000000000
10
7.1782609831
20
4.9197432237
30
0.0000000000
10
7.1644625743
20
4.0390486199
30
0.0000000000
10
7.1412629476
20
2.2797097323
30
0.0000000000
10
7.1196606271
20
-0.3562665320
30
0.0000000000
10
7.1140786618
20
-2.1115187239
30
0.0000000000
10
7.1135023593
20
-2.9880902975
30
0.0000000000
11
7.1782609831
21
4.9197432237
31
0.0000000000
11
7.1434354539
21
2.2775646503
31
0.0000000000
11
7.1218491939
21
-0.3583882549
31
0.0000000000
11
7.1135023593
21
-2.9880902975
31
0.0000000000
0
SPLINE
5
2C1
100
AcDbEntity
8
0
100
AcDbSpline
62
9
6
CONTINUOUS
70
0
71
3
72
22
73
18
74
16
42
0.0000001000
43
0.0000001000
44
0.0000000001
12
-0.6543926149
22
-0.3009959648
32
0.0000000000
13
-0.6441472341
23
0.3223392715
33
0.0000000000
40
0.0000000000
40
0.0000000000
40
0.0000000000
40
0.0000000000
40
0.0586380402
40
0.1205603965
40
0.1853917733
40
0.2526884815
40
0.3219537238
40
0.3926509489
40
0.4642159671
40
0.5360683131
40
0.6076222068
40
0.6782973892
40
0.7475300887
40
0.8147843939
40
0.8795643883
40
0.9414275335
40
1.0000000000
40
1.0000000000
40
1.0000000000
40
1.0000000000
10
7.1782609831
20
4.9197432237
30
0.0000000000
10
7.1654702163
20
4.9138599525
30
0.0000000000
10
7.1386638117
20
4.9028489025
30
0.0000000000
10
7.0963588461
20
4.8889044839
30
0.0000000000
10
7.0512311353
20
4.8771966614
30
0.0000000000
10
7.0037616212
20
4.8678511298
30
0.0000000000
10
6.9544526663
20
4.8609670220
30
0.0000000000
10
6.9038286195
20
4.8566181023
30
0.0000000000
10
6.8524281166
20
4.8548509647
30
0.0000000000
10
6.8007985575
20
4.8556846210
30
0.0000000000
10
6.7494898649
20
4.8591101899
30
0.0000000000
10
6.6990484502
20
4.8650909947
30
0.0000000000
10
6.6500109854
20
4.8735630770
30
0.0000000000
10
6.6028988995
20
4.8844357870
30
0.0000000000
10
6.5582107364
20
4.8975938397
30
0.0000000000
10
6.5164227087
20
4.9128960928
30
0.0000000000
10
6.4900186602
20
4.9247672288
30
0.0000000000
10
6.4774422294
20
4.9310606309
30
0.0000000000
11
7.1782609831
21
4.9197432237
31
0.0000000000
11
7.1392274040
21
4.9036085077
31
0.0000000000
11
7.0968906377
21
4.8895734794
31
0.0000000000
11
7.0517042953
21
4.8777885150
31
0.0000000000
11
7.0041525189
21
4.8683798827
31
0.0000000000
11
6.9547447951
21
4.8614483899
31
0.0000000000
11
6.9040104954
21
4.8570683031
31
0.0000000000
11
6.8524932049
21
4.8552865520
31
0.0000000000
11
6.8007448980
21
4.8561222269
31
0.0000000000
11
6.7493200241
21
4.8595663742
31
0.0000000000
11
6.6987695673
21
4.8655820919
31
0.0000000000
11
6.6496351430
21
4.8741049257
31
0.0000000000
11
6.6024431945
21
4.8850435589
31
0.0000000000
11
6.5576993531
21
4.8982807911
31
0.0000000000
11
6.5158830197
21
4.9136747940
31
0.0000000000
11
6.4774422294
21
4.9310606309
31
0.0000000000
0
SPLINE
5
2C2
100
AcDbEntity
8
0
100
AcDbSpline
62
9
6
CONTINUOUS
70
0
71
3
72
10
73
6
74
4
42
0.0000001000
43
0.0000001000
44
0.0000000001
12
-0.1239825528
22
-7.9134236847
32
0.0000000000
13
-0.0052288054
23
-7.9143931382
33
0.0000000000
40
0.0000000000
40
0.0000000000
40
0.0000000000
40
0.0000000000
40
0.3341363882
40
0.6674678476
40
1.0000000000
40
1.0000000000
40
1.0000000000
40
1.0000000000
10
6.4774422294
20
4.9310606309
30
0.0000000000
10
6.4636332020
20
4.0496730281
30
0.0000000000
10
6.4404147795
20
2.2889493514
30
0.0000000000
10
6.4187915795
20
-0.3491035519
30
0.0000000000
10
6.4132005874
20
-2.1057393818
30
0.0000000000
10
6.4126210054
20
-2.9830027768
30
0.0000000000
11
6.4774422294
21
4.9310606309
31
0.0000000000
11
6.4425884880
21
2.2868030078
31
0.0000000000
11
6.4209813626
21
-0.3512252965
31
0.0000000000
11
6.4126210054
21
-2.9830027768
31
0.0000000000
0
SPLINE
5
2C3
100
AcDbEntity
8
0
100
AcDbSpline
62
9
6
CONTINUOUS
70
0
71
3
72
23
73
19
74
17
42
0.0000001000
43
0.0000001000
44
0.0000000001
12
-0.6507044574
22
-0.3104572706
32
0.0000000000
13
-0.6448562856
23
0.3224288737
33
0.0000000000
40
0.0000000000
40
0.0000000000
40
0.0000000000
40
0.0000000000
40
0.0551601620
40
0.1131634749
40
0.1737152438
40
0.2364584128
40
0.3009966500
40
0.3669004777
40
0.4337158429
40
0.5009737003
40
0.5681980717
40
0.6349135435
40
0.7006527641
40
0.7649645167
40
0.8274232990
40
0.8876382747
40
0.9452589502
40
1.0000000000
40
1.0000000000
40
1.0000000000
40
1.0000000000
10
7.1135023593
20
-2.9880902975
30
0.0000000000
10
7.1015380382
20
-2.9937985886
30
0.0000000000
10
7.0765306003
20
-3.0045581135
30
0.0000000000
10
7.0371255751
20
-3.0184284670
30
0.0000000000
10
6.9951865142
20
-3.0303349912
30
0.0000000000
10
6.9511057752
20
-3.0401656999
30
0.0000000000
10
6.9052940614
20
-3.0478289285
30
0.0000000000
10
6.8581796715
20
-3.0532526573
30
0.0000000000
10
6.8102035160
20
-3.0563858907
30
0.0000000000
10
6.7618150058
20
-3.0571991281
30
0.0000000000
10
6.7134673539
20
-3.0556847221
30
0.0000000000
10
6.6656133705
20
-3.0518569199
30
0.0000000000
10
6.6187012677
20
-3.0457517581
30
0.0000000000
10
6.5731699938
20
-3.0374266178
30
0.0000000000
10
6.5294450983
20
-3.0269597185
30
0.0000000000
10
6.4879338537
20
-3.0144485797
30
0.0000000000
10
6.4490243363
20
-3.0000108065
30
0.0000000000
10
6.4243877091
20
-2.9888861414
30
0.0000000000
10
6.4126210057
20
-2.9830027764
30
0.0000000000
11
7.1135023593
21
-2.9880902975
31
0.0000000000
11
7.0770015554
21
-3.0038781856
31
0.0000000000
11
7.0375762561
21
-3.0178228179
31
0.0000000000
11
6.9955937046
21
-3.0297944838
31
0.0000000000
11
6.9514510020
21
-3.0396798885
31
0.0000000000
11
6.9055633435
21
-3.0473860880
31
0.0000000000
11
6.8583626652
21
-3.0528405246
31
0.0000000000
11
6.8102938690
21
-3.0559917756
31
0.0000000000
11
6.7618097726
21
-3.0568101831
31
0.0000000000
11
6.7133668192
21
-3.0552880642
31
0.0000000000
11
6.6654210534
21
-3.0514397446
31
0.0000000000
11
6.6184241101
21
-3.0453014638
31
0.0000000000
11
6.5728189500
21
-3.0369311002
31
0.0000000000
11
6.5290348761
21
-3.0264074876
31
0.0000000000
11
6.4874835973
21
-3.0138295467
31
0.0000000000
11
6.4485583043
21
-2.9993163964
31
0.0000000000
11
6.4126210057
21
-2.9830027764
31
0.0000000000
0
SPLINE
5
2C4
100
AcDbEntity
8
0
100
AcDbSpline
62
9
6
CONTINUOUS
70
0
71
3
72
22
73
18
74
16
42
0.0000001000
43
0.0000001000
44
0.0000000001
12
-0.6835201074
22
-0.2059171239
32
0.0000000000
13
-0.6375934082
23
0.3210548938
33
0.0000000000
40
0.0000000000
40
0.0000000000
40
0.0000000000
40
0.0000000000
40
0.0559369014
40
0.1157642744
40
0.1790687705
40
0.2453640674
40
0.3141068100
40
0.3847100973
40
0.4565554923
40
0.5290041632
40
0.6014075464
40
0.6731178054
40
0.7434983032
40
0.8119343148
40
0.8778442612
40
0.9406918831
40
1.0000000000
40
1.0000000000
40
1.0000000000
40
1.0000000000
10
7.8865742729
20
15.3471839483
30
0.0000000000
10
7.8738296073
20
15.3433444930
30
0.0000000000
10
7.8471369547
20
15.3364288689
30
0.0000000000
10
7.8052567518
20
15.3284445373
30
0.0000000000
10
7.7605437084
20
15.3225639981
30
0.0000000000
10
7.7134739796
20
15.3188518235
30
0.0000000000
10
7.6645461506
20
15.3173485527
30
0.0000000000
10
7.6142811510
20
15.3180713380
30
0.0000000000
10
7.5632145762
20
15.3210132244
30
0.0000000000
10
7.5118911239
20
15.3261432873
30
0.0000000000
10
7.4608583790
20
15.3334069265
30
0.0000000000
10
7.4106608007
20
15.3427264643
30
0.0000000000
10
7.3618335749
20
15.3540020538
30
0.0000000000
10
7.3148969962
20
15.3671126675
30
0.0000000000
10
7.2703493512
20
15.3819180663
30
0.0000000000
10
7.2286655795
20
15.3982586442
30
0.0000000000
10
7.2022495127
20
15.4104421035
30
0.0000000000
10
7.1896446912
20
15.4167891572
30
0.0000000000
11
7.8865742729
21
15.3471839483
31
0.0000000000
11
7.8479448130
21
15.3370707841
31
0.0000000000
11
7.8060070189
21
15.3289932933
31
0.0000000000
11
7.7612103381
21
15.3230380424
31
0.0000000000
11
7.7140348563
21
15.3192688537
31
0.0000000000
11
7.6649861532
21
15.3177261215
31
0.0000000000
11
7.6145898834
21
15.3184263795
31
0.0000000000
11
7.5633861436
21
15.3213621228
31
0.0000000000
11
7.5119236843
21
15.3265018892
31
0.0000000000
11
7.4607540283
21
15.3337905958
31
0.0000000000
11
7.4104255608
21
15.3431501295
31
0.0000000000
11
7.3614776518
21
15.3544801842
31
0.0000000000
11
7.3144348758
21
15.3676593359
31
0.0000000000
11
7.2698013902
21
15.3825463435
31
0.0000000000
11
7.2280555320
21
15.3989816630
31
0.0000000000
11
7.1896446912
21
15.4167891572
31
0.0000000000
0
SPLINE
5
2C5
100
AcDbEntity
8
0
100
AcDbSpline
62
9
6
CONTINUOUS
70
0
71
3
72
14
73
10
74
8
42
0.0000001000
43
0.0000001000
44
0.0000000001
12
-1.2334112269
22
-10.4417429265
32
0.0000000000
13
-0.1646990590
23
-10.5130477416
33
0.0000000000
40
0.0000000000
40
0.0000000000
40
0.0000000000
40
0.0000000000
40
0.1456783453
40
0.2904504056
40
0.4342948041
40
0.5771910431
40
0.7191195639
40
0.8600617523
40
1.0000000000
40
1.0000000000
40
1.0000000000
40
1.0000000000
10
7.1896446910
20
15.4167891571
30
0.0000000000
10
7.1297509221
20
14.9097438798
30
0.0000000000
10
7.0173422711
20
13.8979652455
30
0.0000000000
10
6.8705789931
20
12.3829011629
30
0.0000000000
10
6.7462323751
20
10.8756122188
30
0.0000000000
10
6.6443462646
20
9.3766274902
30
0.0000000000
10
6.5649560973
20
7.8864667821
30
0.0000000000
10
6.5080897200
20
6.4056538814
30
0.0000000000
10
6.4851247953
20
5.4214531240
30
0.0000000000
10
6.4774422294
20
4.9310606309
30
0.0000000000
11
7.1896446910
21
15.4167891571
31
0.0000000000
11
7.0205776464
21
13.8944370541
31
0.0000000000
11
6.8738797536
21
12.3793400918
31
0.0000000000
11
6.7496021039
21
10.8720261533
31
0.0000000000
11
6.6477879880
21
9.3730205163
31
0.0000000000
11
6.5684728604
21
7.8828454064
31
0.0000000000
11
6.5116843491
21
6.4020201304
31
0.0000000000
11
6.4774422294
21
4.9310606309
31
0.0000000000
0
SPLINE
5
2C6
100
AcDbEntity
8
0
100
AcDbSpline
62
9
6
CONTINUOUS
70
0
71
3
72
14
73
10
74
8
42
0.0000001000
43
0.0000001000
44
0.0000000001
12
-1.2266775754
22
-10.3836908117
32
0.0000000000
13
-0.1637995472
23
-10.4546134532
33
0.0000000000
40
0.0000000000
40
0.0000000000
40
0.0000000000
40
0.0000000000
40
0.1456780746
40
0.2904500298
40
0.4342943852
40
0.5771906490
40
0.7191192685
40
0.8600616355
40
1.0000000000
40
1.0000000000
40
1.0000000000
40
1.0000000000
10
7.8865742729
20
15.3471839483
30
0.0000000000
10
7.8270075972
20
14.8429585866
30
0.0000000000
10
7.7152127609
20
13.8368061902
30
0.0000000000
10
7.5692509204
20
12.3301660396
30
0.0000000000
10
7.4455832966
20
10.8312563921
30
0.0000000000
10
7.3442535424
20
9.3406037649
30
0.0000000000
10
7.2652969012
20
7.8587250743
30
0.0000000000
10
7.2087410770
20
6.3861417138
30
0.0000000000
10
7.1859015967
20
5.4074103929
30
0.0000000000
10
7.1782609831
20
4.9197432237
30
0.0000000000
11
7.8865742729
21
15.3471839483
31
0.0000000000
11
7.7184305412
21
13.8332981127
31
0.0000000000
11
7.5725336857
21
12.3266249151
31
0.0000000000
11
7.4489346529
21
10.8276904424
31
0.0000000000
11
7.3476764972
21
9.3370170538
31
0.0000000000
11
7.2687944802
21
7.8551240735
31
0.0000000000
11
7.2123160777
21
6.3825279218
31
0.0000000000
11
7.1782609831
21
4.9197432237
31
0.0000000000
0
SPLINE
5
2C7
100
AcDbEntity
8
0
100
AcDbSpline
62
9
6
CONTINUOUS
70
0
71
3
72
23
73
19
74
17
42
0.0000001000
43
0.0000001000
44
0.0000000001
12
-0.0325538561
22
0.7322260477
32
0.0000000000
13
-0.6505902219
23
0.3375605156
33
0.0000000000
40
0.0000000000
40
0.0000000000
40
0.0000000000
40
0.0000000000
40
0.0579580168
40
0.1182446757
40
0.1805712587
40
0.2446016888
40
0.3099629640
40
0.3762546982
40
0.4430580446
40
0.5099442298
40
0.5764828871
40
0.6422503595
40
0.7068381354
40
0.7698615981
40
0.8309692990
40
0.8898530129
40
0.9462588827
40
1.0000000000
40
1.0000000000
40
1.0000000000
40
1.0000000000
10
8.2234504317
20
15.8776915267
30
0.0000000000
10
8.2228215128
20
15.8918376499
30
0.0000000000
10
8.2203833779
20
15.9206562593
30
0.0000000000
10
8.2135125016
20
15.9642677523
30
0.0000000000
10
8.2034169043
20
16.0087696021
30
0.0000000000
10
8.1901934329
20
16.0537346758
30
0.0000000000
10
8.1739683473
20
16.0987354187
30
0.0000000000
10
8.1548966264
20
16.1433420077
30
0.0000000000
10
8.1331604796
20
16.1871283971
30
0.0000000000
10
8.1089676420
20
16.2296760959
30
0.0000000000
10
8.0825493427
20
16.2705784519
30
0.0000000000
10
8.0541579961
20
16.3094446376
30
0.0000000000
10
8.0240646938
20
16.3459034742
30
0.0000000000
10
7.9925562566
20
16.3796071234
30
0.0000000000
10
7.9599327952
20
16.4102341187
30
0.0000000000
10
7.9265024454
20
16.4374933945
30
0.0000000000
10
7.8925851621
20
16.4611230405
30
0.0000000000
10
7.8692721735
20
16.4746470126
30
0.0000000000
10
7.8576176917
20
16.4806939724
30
0.0000000000
11
8.2234504317
21
15.8776915267
31
0.0000000000
11
8.2199361973
21
15.9200262078
31
0.0000000000
11
8.2131146838
21
15.9636835535
31
0.0000000000
11
8.2030515096
21
16.0082436083
31
0.0000000000
11
8.1898434760
21
16.0532777331
31
0.0000000000
11
8.1736176357
21
16.0983527284
31
0.0000000000
11
8.1545300708
21
16.1430350017
31
0.0000000000
11
8.1327643914
21
16.1868947381
31
0.0000000000
11
8.1085299693
21
16.2295100352
31
0.0000000000
11
8.0820599241
21
16.2704709609
31
0.0000000000
11
8.0536088806
21
16.3093834974
31
0.0000000000
11
8.0234505197
21
16.3458733309
31
0.0000000000
11
7.9918749454
21
16.3795894527
31
0.0000000000
11
7.9591858944
21
16.4102075350
31
0.0000000000
11
7.9256978147
21
16.4374330515
31
0.0000000000
11
7.8917328400
21
16.4610041102
31
0.0000000000
11
7.8576176917
21
16.4806939724
31
0.0000000000
0
SPLINE
5
2C8
100
AcDbEntity
8
0
100
AcDbSpline
62
9
6
CONTINUOUS
70
0
71
3
72
24
73
20
74
18
42
0.0000001000
43
0.0000001000
44
0.0000000001
12
-1.1354732743
22
-0.6301702729
32
0.0000000000
13
-0.1509912535
23
-1.2898123006
33
0.0000000000
40
0.0000000000
40
0.0000000000
40
0.0000000000
40
0.0000000000
40
0.0514333599
40
0.1046866766
40
0.1596582911
40
0.2162110262
40
0.2741811240
40
0.3333803566
40
0.3936011667
40
0.4546205190
40
0.5162041635
40
0.5781091388
40
0.6400886658
40
0.7018944685
40
0.7632807510
40
0.8240075531
40
0.8838452443
40
0.9425755819
40
1.0000000000
40
1.0000000000
40
1.0000000000
40
1.0000000000
10
7.8576176917
20
16.4806939724
30
0.0000000000
10
7.8381506232
20
16.4698900476
30
0.0000000000
10
7.7993533347
20
16.4463830294
30
0.0000000000
10
7.7428378144
20
16.4065183857
30
0.0000000000
10
7.6873106557
20
16.3616711028
30
0.0000000000
10
7.6331314531
20
16.3121326282
30
0.0000000000
10
7.5806463414
20
16.2582217422
30
0.0000000000
10
7.5301926584
20
16.2002859004
30
0.0000000000
10
7.4820948641
20
16.1386985756
30
0.0000000000
10
7.4366625764
20
16.0738567750
30
0.0000000000
10
7.3941885025
20
16.0061786584
30
0.0000000000
10
7.3549463349
20
15.9361005889
30
0.0000000000
10
7.3191891124
20
15.8640746006
30
0.0000000000
10
7.2871474016
20
15.7905651931
30
0.0000000000
10
7.2590278887
20
15.7160464667
30
0.0000000000
10
7.2350118980
20
15.6409988997
30
0.0000000000
10
7.2152543210
20
15.5659053033
30
0.0000000000
10
7.1998830218
20
15.4912523501
30
0.0000000000
10
7.1925348860
20
15.4414780641
30
0.0000000000
10
7.1896446910
20
15.4167891571
30
0.0000000000
11
7.8576176917
21
16.4806939724
31
0.0000000000
11
7.8004479475
21
16.4461563948
31
0.0000000000
11
7.7438914070
21
16.4063583281
31
0.0000000000
11
7.6883130555
21
16.3615567067
31
0.0000000000
11
7.6340740831
21
16.3120426328
31
0.0000000000
11
7.5815253144
21
16.2581364554
31
0.0000000000
11
7.5310074285
21
16.2001876471
31
0.0000000000
11
7.4828478199
21
16.1385718174
31
0.0000000000
11
7.4373586013
21
16.0736883820
31
0.0000000000
11
7.3948342463
21
16.0059574351
31
0.0000000000
11
7.3555504910
21
15.9358182407
31
0.0000000000
11
7.3197616096
21
15.8637248889
31
0.0000000000
11
7.2876995322
21
15.7901446397
31
0.0000000000
11
7.2595719849
21
15.7155543292
31
0.0000000000
11
7.2355612138
21
15.6404374384
31
0.0000000000
11
7.2158224869
21
15.5652797936
31
0.0000000000
11
7.2004839977
21
15.4905696939
31
0.0000000000
11
7.1896446910
21
15.4167891571
31
0.0000000000
0
SPLINE
5
2C9
100
AcDbEntity
8
0
100
AcDbSpline
62
9
6
CONTINUOUS
70
0
71
3
72
24
73
20
74
18
42
0.0000001000
43
0.0000001000
44
0.0000000001
12
-0.5704736065
22
-0.3114443223
32
0.0000000000
13
-0.0762556405
23
-0.6454632281
33
0.0000000000
40
0.0000000000
40
0.0000000000
40
0.0000000000
40
0.0000000000
40
0.0515955916
40
0.1049982555
40
0.1600900524
40
0.2167345707
40
0.2747691639
40
0.3340070771
40
0.3942425163
40
0.4552544734
40
0.5168109623
40
0.5786715046
40
0.6405919390
40
0.7023268100
40
0.7636333964
40
0.8242749988
40
0.8840254212
40
0.9426700491
40
1.0000000000
40
1.0000000000
40
1.0000000000
40
1.0000000000
10
8.2234504317
20
15.8776915267
30
0.0000000000
10
8.2136391240
20
15.8723351420
30
0.0000000000
10
8.1940813171
20
15.8606717838
30
0.0000000000
10
8.1655801767
20
15.8408641183
30
0.0000000000
10
8.1375744369
20
15.8185606387
30
0.0000000000
10
8.1102485001
20
15.7939082594
30
0.0000000000
10
8.0837769515
20
15.7670656901
30
0.0000000000
10
8.0583299657
20
15.7382059472
30
0.0000000000
10
8.0340712017
20
15.7075150959
30
0.0000000000
10
8.0111568329
20
15.6751909939
30
0.0000000000
10
7.9897345004
20
15.6414421107
30
0.0000000000
10
7.9699422621
20
15.6064860702
30
0.0000000000
10
7.9519077633
20
15.5705483887
30
0.0000000000
10
7.9357473066
20
15.5338608665
30
0.0000000000
10
7.9215651517
20
15.4966601365
30
0.0000000000
10
7.9094527325
20
15.4591860727
30
0.0000000000
10
7.8994882313
20
15.4216797371
30
0.0000000000
10
7.8917366376
20
15.3843872501
30
0.0000000000
10
7.8880315170
20
15.3595187400
30
0.0000000000
10
7.8865742729
20
15.3471839483
30
0.0000000000
11
8.2234504317
21
15.8776915267
31
0.0000000000
11
8.1946267305
21
15.8605518709
31
0.0000000000
11
8.1661028262
21
15.8407752807
31
0.0000000000
11
8.1380722115
21
15.8184946191
31
0.0000000000
11
8.1107170533
21
15.7938546203
31
0.0000000000
11
8.0842143042
21
15.7670147174
31
0.0000000000
11
8.0587357961
21
15.7381489144
31
0.0000000000
11
8.0344466632
21
15.7074443190
31
0.0000000000
11
8.0115043324
21
15.6750999773
31
0.0000000000
11
7.9900573347
21
15.6413253153
31
0.0000000000
11
7.9702447511
21
15.6063393873
31
0.0000000000
11
7.9521948576
21
15.5703687504
31
0.0000000000
11
7.9360246500
21
15.5336465971
31
0.0000000000
11
7.9218388955
21
15.4964109229
31
0.0000000000
11
7.9097295036
21
15.4589031012
31
0.0000000000
11
7.8997747917
21
15.4213657327
31
0.0000000000
11
7.8920393755
21
15.3840427122
31
0.0000000000
11
7.8865742729
21
15.3471839483
31
0.0000000000
0
SPLINE
5
2CA
100
AcDbEntity
8
0
100
AcDbSpline
62
9
6
CONTINUOUS
70
0
71
3
72
9
73
5
74
3
42
0.0000001000
43
0.0000001000
44
0.0000000001
12
0.0002272493
22
0.3469393796
32
0.0000000000
13
0.0004559564
23
0.3469391544
33
0.0000000000
40
0.0000000000
40
0.0000000000
40
0.0000000000
40
0.0000000000
40
0.4999602818
40
1.0000000000
40
1.0000000000
40
1.0000000000
40
1.0000000000
10
-4.2002861613
20
2.4635002084
30
0.0000000000
10
-4.2002482895
20
2.5213188450
30
0.0000000000
10
-4.2001534869
20
2.6369652932
30
0.0000000000
10
-4.2000205108
20
2.7526117038
30
0.0000000000
10
-4.1999445121
20
2.8104394894
30
0.0000000000
11
-4.2002861613
21
2.4635002084
31
0.0000000000
11
-4.2001439526
21
2.6369560973
31
0.0000000000
11
-4.1999445121
21
2.8104394894
31
0.0000000000
0
SPLINE
5
2CB
100
AcDbEntity
8
0
100
AcDbSpline
62
9
6
CONTINUOUS
70
0
71
3
72
21
73
17
74
15
42
0.0000001000
43
0.0000001000
44
0.0000000001
12
-0.0493553107
22
-0.0237262286
32
0.0000000000
13
0.0000347128
23
0.0547620253
33
0.0000000000
40
0.0000000000
40
0.0000000000
40
0.0000000000
40
0.0000000000
40
0.0783820156
40
0.1525915862
40
0.2228814546
40
0.2898504378
40
0.3543674169
40
0.4175294394
40
0.4805725221
40
0.5447452924
40
0.6111780004
40
0.6807867397
40
0.7542233193
40
0.8318687671
40
0.9138517424
40
1.0000000000
40
1.0000000000
40
1.0000000000
40
1.0000000000
10
-4.1649335143
20
2.4375366139
30
0.0000000000
10
-4.1662230372
20
2.4369167107
30
0.0000000000
10
-4.1688008177
20
2.4358424226
30
0.0000000000
10
-4.1727300096
20
2.4347453580
30
0.0000000000
10
-4.1765684342
20
2.4342235639
30
0.0000000000
10
-4.1802667870
20
2.4342884457
30
0.0000000000
10
-4.1837769838
20
2.4349437764
30
0.0000000000
10
-4.1870501228
20
2.4361846346
30
0.0000000000
10
-4.1900388486
20
2.4379950437
30
0.0000000000
10
-4.1927009639
20
2.4403479867
30
0.0000000000
10
-4.1950020933
20
2.4432080473
30
0.0000000000
10
-4.1969156653
20
2.4465346678
30
0.0000000000
10
-4.1984213953
20
2.4502838476
30
0.0000000000
10
-4.1995038527
20
2.4544085338
30
0.0000000000
10
-4.2001519689
20
2.4588560655
30
0.0000000000
10
-4.2002871582
20
2.4619276573
30
0.0000000000
10
-4.2002861613
20
2.4635002084
30
0.0000000000
11
-4.1649335143
21
2.4375366139
31
0.0000000000
11
-4.1689009268
21
2.4358983275
31
0.0000000000
11
-4.1728190129
21
2.4348196166
31
0.0000000000
11
-4.1766351100
21
2.4343157616
31
0.0000000000
11
-4.1803016522
21
2.4343931024
31
0.0000000000
11
-4.1837729991
21
2.4350506839
31
0.0000000000
11
-4.1870059203
21
2.4362803498
31
0.0000000000
11
-4.1899601374
21
2.4380668109
31
0.0000000000
11
-4.1925988309
21
2.4403878279
31
0.0000000000
11
-4.1948890821
21
2.4432144378
31
0.0000000000
11
-4.1968023787
21
2.4465114064
31
0.0000000000
11
-4.1983149216
21
2.4502376606
31
0.0000000000
11
-4.1994078910
21
2.4543468109
31
0.0000000000
11
-4.2000677113
21
2.4587876147
31
0.0000000000
11
-4.2002861613
21
2.4635002084
31
0.0000000000
0
SPLINE
5
2CC
100
AcDbEntity
8
0
100
AcDbSpline
62
9
6
CONTINUOUS
70
0
71
3
72
25
73
21
74
19
42
0.0000001000
43
0.0000001000
44
0.0000000001
12
-0.6872512623
22
0.3436185113
32
0.0000000000
13
-0.0010183107
23
-0.7683664112
33
0.0000000000
40
0.0000000000
40
0.0000000000
40
0.0000000000
40
0.0000000000
40
0.0609341682
40
0.1196869637
40
0.1761355938
40
0.2303157960
40
0.2824072803
40
0.3328204096
40
0.3821479494
40
0.4310110097
40
0.4800017639
40
0.5297022485
40
0.5806472404
40
0.6332967199
40
0.6880826077
40
0.7453788443
40
0.8053550434
40
0.8679397821
40
0.9329327382
40
1.0000000000
40
1.0000000000
40
1.0000000000
40
1.0000000000
10
-3.9854444335
20
3.1708413536
30
0.0000000000
10
-3.9994034615
20
3.1778207230
30
0.0000000000
10
-4.0274089584
20
3.1904007799
30
0.0000000000
10
-4.0701601089
20
3.2050171234
30
0.0000000000
10
-4.1125053511
20
3.2148212804
30
0.0000000000
10
-4.1539953245
20
3.2196525178
30
0.0000000000
10
-4.1942308740
20
3.2194423753
30
0.0000000000
10
-4.2328788290
20
3.2141885918
30
0.0000000000
10
-4.2696578725
20
3.2039234574
30
0.0000000000
10
-4.3042880317
20
3.1887093869
30
0.0000000000
10
-4.3364752921
20
3.1686624425
30
0.0000000000
10
-4.3659378759
20
3.1439613373
30
0.0000000000
10
-4.3924324251
20
3.1148337037
30
0.0000000000
10
-4.4157672671
20
3.0815290224
30
0.0000000000
10
-4.4357951425
20
3.0442923671
30
0.0000000000
10
-4.4523828677
20
3.0033803166
30
0.0000000000
10
-4.4653964845
20
2.9591193166
30
0.0000000000
10
-4.4747245599
20
2.9119349673
30
0.0000000000
10
-4.4803085008
20
2.8623449064
30
0.0000000000
10
-4.4815248040
20
2.8285079062
30
0.0000000000
10
-4.4815475691
20
2.8113304957
30
0.0000000000
11
-3.9854444335
21
3.1708413536
31
0.0000000000
11
-4.0281901318
21
3.1899437046
31
0.0000000000
11
-4.0709375600
21
3.2044561931
31
0.0000000000
11
-4.1132158429
21
3.2141405770
31
0.0000000000
11
-4.1545780540
21
3.2188573606
31
0.0000000000
11
-4.1946023286
21
3.2185596220
31
0.0000000000
11
-4.2329756080
21
3.2132725817
31
0.0000000000
11
-4.2694703003
21
3.2030415937
31
0.0000000000
11
-4.3038395175
21
3.1879297951
31
0.0000000000
11
-4.3358038426
21
3.1680484329
31
0.0000000000
11
-4.3651023126
21
3.1435547696
31
0.0000000000
11
-4.3914989806
21
3.1146496789
31
0.0000000000
11
-4.4147879803
21
3.0815716062
31
0.0000000000
11
-4.4348158657
21
3.0445455412
31
0.0000000000
11
-4.4514511928
21
3.0037849447
31
0.0000000000
11
-4.4645438540
21
2.9596001841
31
0.0000000000
11
-4.4739585891
21
2.9124427496
31
0.0000000000
11
-4.4796259817
21
2.8628269327
31
0.0000000000
11
-4.4815475691
21
2.8113304957
31
0.0000000000
0
SPLINE
5
2CD
100
AcDbEntity
8
0
100
AcDbSpline
62
9
6
CONTINUOUS
70
0
71
3
72
9
73
5
74
3
42
0.0000001000
43
0.0000001000
44
0.0000000001
12
0.0002273394
22
0.3470782057
32
0.0000000000
13
0.0004561368
23
0.3470779804
33
0.0000000000
40
0.0000000000
40
0.0000000000
40
0.0000000000
40
0.0000000000
40
0.4999597224
40
1.0000000000
40
1.0000000000
40
1.0000000000
40
1.0000000000
10
-4.4818893257
20
2.4642523886
30
0.0000000000
10
-4.4818514388
20
2.5220940964
30
0.0000000000
10
-4.4817565851
20
2.6377868199
30
0.0000000000
10
-4.4816235980
20
2.7534795059
30
0.0000000000
10
-4.4815475691
20
2.8113304957
30
0.0000000000
11
-4.4818893257
21
2.4642523886
31
0.0000000000
11
-4.4817470609
21
2.6377774909
31
0.0000000000
11
-4.4815475691
21
2.8113304957
31
0.0000000000
0
SPLINE
5
2CE
100
AcDbEntity
8
0
100
AcDbSpline
62
9
6
CONTINUOUS
70
0
71
3
72
15
73
11
74
9
42
0.0000001000
43
0.0000001000
44
0.0000000001
12
0.1446560457
22
0.0683441725
32
0.0000000000
13
0.0011535123
23
0.1597142326
33
0.0000000000
40
0.0000000000
40
0.0000000000
40
0.0000000000
40
0.0000000000
40
0.0509875191
40
0.1667837196
40
0.2865398748
40
0.4124754443
40
0.5461737467
40
0.6885494215
40
0.8399012011
40
1.0000000000
40
1.0000000000
40
1.0000000000
40
1.0000000000
10
7.0466235058
20
-3.1242174703
30
0.0000000000
10
7.0490820568
20
-3.1230559037
30
0.0000000000
10
7.0569560281
20
-3.1189008567
30
0.0000000000
10
7.0693545971
20
-3.1098447052
30
0.0000000000
10
7.0825322247
20
-3.0956709622
30
0.0000000000
10
7.0935576611
20
-3.0786378030
30
0.0000000000
10
7.1022967248
20
-3.0590175509
30
0.0000000000
10
7.1086486554
20
-3.0371006631
30
0.0000000000
10
7.1125403646
20
-3.0132040340
30
0.0000000000
10
7.1134408007
20
-2.9966136498
30
0.0000000000
10
7.1135023593
20
-2.9880902975
30
0.0000000000
11
7.0466235058
21
-3.1242174703
31
0.0000000000
11
7.0538349413
21
-3.1204111039
31
0.0000000000
11
7.0687952448
21
-3.1095369906
31
0.0000000000
11
7.0818754224
21
-3.0955813080
31
0.0000000000
11
7.0928847725
21
-3.0787475219
31
0.0000000000
11
7.1016627846
21
-3.0592810589
31
0.0000000000
11
7.1080814802
21
-3.0374657291
31
0.0000000000
11
7.1120472782
21
-3.0136195876
31
0.0000000000
11
7.1135023593
21
-2.9880902975
31
0.0000000000
0
SPLINE
5
2CF
100
AcDbEntity
8
0
100
AcDbSpline
62
9
6
CONTINUOUS
70
0
71
3
72
15
73
11
74
9
42
0.0000001000
43
0.0000001000
44
0.0000000001
12
-0.1414993001
22
0.0707531397
32
0.0000000000
13
0.0001025609
23
0.1579455339
33
0.0000000000
40
0.0000000000
40
0.0000000000
40
0.0000000000
40
0.0000000000
40
0.0438109625
40
0.1613377762
40
0.2825558225
40
0.4096786257
40
0.5443165176
40
0.6874322096
40
0.8393826889
40
1.0000000000
40
1.0000000000
40
1.0000000000
40
1.0000000000
10
6.4775831676
20
-3.1183867666
30
0.0000000000
10
6.4755167607
20
-3.1173535122
30
0.0000000000
10
6.4680473305
20
-3.1132684282
30
0.0000000000
10
6.4560116462
20
-3.1043665545
30
0.0000000000
10
6.4428838569
20
-3.0901251633
30
0.0000000000
10
6.4319409958
20
-3.0730809538
30
0.0000000000
10
6.4233164982
20
-3.0535042757
30
0.0000000000
10
6.4171091397
20
-3.0316831802
30
0.0000000000
10
6.4133891046
20
-3.0079309902
30
0.0000000000
10
6.4126155144
20
-2.9914590391
30
0.0000000000
10
6.4126210054
20
-2.9830027768
30
0.0000000000
11
6.4775831676
21
-3.1183867666
31
0.0000000000
11
6.4715041727
21
-3.1150613400
31
0.0000000000
11
6.4565573450
21
-3.1040535545
31
0.0000000000
11
6.4435281396
21
-3.0900248876
31
0.0000000000
11
6.4326046400
21
-3.0731778508
31
0.0000000000
11
6.4239445332
21
-3.0537556403
31
0.0000000000
11
6.4176728323
21
-3.0320386263
31
0.0000000000
11
6.4138800729
21
-3.0083403057
31
0.0000000000
11
6.4126210054
21
-2.9830027768
31
0.0000000000
0
SPLINE
5
2D0
100
AcDbEntity
8
0
100
AcDbSpline
62
7
6
CONTINUOUS
70
0
71
3
72
15
73
11
74
9
42
0.0000001000
43
0.0000001000
44
0.0000000001
12
0.2388222873
22
0.1446081081
32
0.0000000000
13
0.0000268643
23
0.2795323373
33
0.0000000000
40
0.0000000000
40
0.0000000000
40
0.0000000000
40
0.0000000000
40
0.1542525337
40
0.2997595088
40
0.4360725486
40
0.5633224455
40
0.6825782622
40
0.7958090528
40
0.9046607003
40
1.0000000000
40
1.0000000000
40
1.0000000000
40
1.0000000000
10
12.9983115592
20
11.0978219405
30
0.0000000000
10
13.0105912069
20
11.1052573295
30
0.0000000000
10
13.0339190386
20
11.1206240104
30
0.0000000000
10
13.0657429639
20
11.1459011946
30
0.0000000000
10
13.0930597811
20
11.1725239530
30
0.0000000000
10
13.1155922215
20
11.2002358073
30
0.0000000000
10
13.1331889026
20
11.2288434427
30
0.0000000000
10
13.1457235776
20
11.2581710361
30
0.0000000000
10
13.1528209507
20
11.2869896177
30
0.0000000000
10
13.1543083007
20
11.3060168461
30
0.0000000000
10
13.1543091545
20
11.3149003185
30
0.0000000000
11
12.9983115592
21
11.0978219405
31
0.0000000000
11
13.0342151890
21
11.1216043326
31
0.0000000000
11
13.0659480883
21
11.1469687030
31
0.0000000000
11
13.0931067369
21
11.1736289928
31
0.0000000000
11
13.1154095550
21
11.2012831694
31
0.0000000000
11
13.1327377151
21
11.2297138144
31
0.0000000000
11
13.1450552046
21
11.2588284503
31
0.0000000000
11
13.1522482963
21
11.2883553122
31
0.0000000000
11
13.1543091545
21
11.3149003185
31
0.0000000000
0
SPLINE
5
2D1
100
AcDbEntity
8
0
100
AcDbSpline
62
7
6
CONTINUOUS
70
0
71
3
72
14
73
10
74
8
42
0.0000001000
43
0.0000001000
44
0.0000000001
12
0.0000004884
22
0.1015235991
32
0.0000000000
13
0.0882276680
23
0.0497768291
33
0.0000000000
40
0.0000000000
40
0.0000000000
40
0.0000000000
40
0.0000000000
40
0.0629537524
40
0.1933248173
40
0.3312916038
40
0.4788924452
40
0.6392180241
40
0.8133790223
40
1.0000000000
40
1.0000000000
40
1.0000000000
40
1.0000000000
10
0.7259557743
20
22.0344739174
30
0.0000000000
10
0.7259557846
20
22.0366043479
30
0.0000000000
10
0.7263222534
20
22.0431468590
30
0.0000000000
10
0.7288569160
20
22.0541345237
30
0.0000000000
10
0.7348105313
20
22.0669533258
30
0.0000000000
10
0.7435419536
20
22.0793039635
30
0.0000000000
10
0.7548975298
20
22.0910433585
30
0.0000000000
10
0.7687036097
20
22.1020190146
30
0.0000000000
10
0.7790445587
20
22.1085069891
30
0.0000000000
10
0.7845329366
20
22.1116034559
30
0.0000000000
11
0.7259557743
21
22.0344739174
31
0.0000000000
11
0.7263124392
21
22.0408514614
31
0.0000000000
11
0.7292208285
21
22.0537339321
31
0.0000000000
11
0.7350237892
21
22.0664484254
31
0.0000000000
11
0.7435738823
21
22.0787146696
31
0.0000000000
11
0.7547974673
21
22.0904536997
31
0.0000000000
11
0.7685558424
21
22.1014977125
31
0.0000000000
11
0.7845329366
21
22.1116034559
31
0.0000000000
0
SPLINE
5
2D2
100
AcDbEntity
8
0
100
AcDbSpline
62
7
6
CONTINUOUS
70
0
71
3
72
8
73
4
74
2
42
0.0000001000
43
0.0000001000
44
0.0000000001
12
0.0010630703
22
0.0005200872
32
0.0000000000
13
0.0010563603
23
0.0005335707
33
0.0000000000
40
0.0000000000
40
0.0000000000
40
0.0000000000
40
0.0000000000
40
1.0000000000
40
1.0000000000
40
1.0000000000
40
1.0000000000
10
10.7944804508
20
-1.3539478697
30
0.0000000000
10
10.7948348076
20
-1.3537745073
30
0.0000000000
10
10.7951880614
20
-1.3535988933
30
0.0000000000
10
10.7955401815
20
-1.3534210364
30
0.0000000000
11
10.7944804508
21
-1.3539478697
31
0.0000000000
11
10.7955401815
21
-1.3534210364
31
0.0000000000
0
SPLINE
5
2D3
100
AcDbEntity
8
0
100
AcDbSpline
62
7
6
CONTINUOUS
70
0
71
3
72
16
73
12
74
10
42
0.0000001000
43
0.0000001000
44
0.0000000001
12
0.1410703759
22
0.0712550555
32
0.0000000000
13
0.0000000000
23
0.1578801406
33
0.0000000000
40
0.0000000000
40
0.0000000000
40
0.0000000000
40
0.0000000000
40
0.0952883552
40
0.1922608928
40
0.2922781518
40
0.3964712850
40
0.5056923722
40
0.6205027261
40
0.7411870484
40
0.8677811229
40
1.0000000000
40
1.0000000000
40
1.0000000000
40
1.0000000000
10
10.7955401815
20
-1.3534210364
30
0.0000000000
10
10.8000209696
20
-1.3511577774
30
0.0000000000
10
10.8086913208
20
-1.3458584427
30
0.0000000000
10
10.8204335133
20
-1.3358279233
30
0.0000000000
10
10.8308424988
20
-1.3238006819
30
0.0000000000
10
10.8398228385
20
-1.3099063918
30
0.0000000000
10
10.8472978285
20
-1.2942869960
30
0.0000000000
10
10.8532022555
20
-1.2770957247
30
0.0000000000
10
10.8574979244
20
-1.2584967986
30
0.0000000000
10
10.8601046480
20
-1.2386733296
30
0.0000000000
10
10.8608045685
20
-1.2250494537
30
0.0000000000
10
10.8608045685
20
-1.2180912088
30
0.0000000000
11
10.7955401815
21
-1.3534210364
31
0.0000000000
11
10.8083829153
21
-1.3455858398
31
0.0000000000
11
10.8200431799
21
-1.3356643737
31
0.0000000000
11
10.8304087375
21
-1.3237520838
31
0.0000000000
11
10.8393797866
21
-1.3099635505
31
0.0000000000
11
10.8468699201
21
-1.2944313923
31
0.0000000000
11
10.8528069549
21
-1.2773049958
31
0.0000000000
11
10.8571336260
21
-1.2587490859
31
0.0000000000
11
10.8598081379
21
-1.2389421484
31
0.0000000000
11
10.8608045685
21
-1.2180912088
31
0.0000000000
0
SPLINE
5
2D4
100
AcDbEntity
8
0
100
AcDbSpline
62
9
6
CONTINUOUS
70
0
71
3
72
15
73
11
74
9
42
0.0000001000
43
0.0000001000
44
0.0000000001
12
-0.1415064079
22
0.0707485855
32
0.0000000000
13
0.0001025638
23
0.1579498420
33
0.0000000000
40
0.0000000000
40
0.0000000000
40
0.0000000000
40
0.0000000000
40
0.0438369527
40
0.1613605614
40
0.2825753048
40
0.4096946479
40
0.5443288792
40
0.6874406849
40
0.8393870426
40
1.0000000000
40
1.0000000000
40
1.0000000000
40
1.0000000000
10
-8.3846099380
20
4.3127097862
30
0.0000000000
10
-8.3866776746
20
4.3137435870
30
0.0000000000
10
-8.3941484647
20
4.3178291901
30
0.0000000000
10
-8.4061853085
20
4.3267319186
30
0.0000000000
10
-8.4193131001
20
4.3409733085
30
0.0000000000
10
-8.4302559637
20
4.3580175179
30
0.0000000000
10
-8.4388804635
20
4.3775941970
30
0.0000000000
10
-8.4450878239
20
4.3994152949
30
0.0000000000
10
-8.4488078602
20
4.4231674883
30
0.0000000000
10
-8.4495814507
20
4.4396394420
30
0.0000000000
10
-8.4495759597
20
4.4480957058
30
0.0000000000
11
-8.3846099380
21
4.3127097862
31
0.0000000000
11
-8.3906927802
21
4.3160371352
31
0.0000000000
11
-8.4056396096
21
4.3270449186
31
0.0000000000
11
-8.4186688172
21
4.3410735842
31
0.0000000000
11
-8.4295923192
21
4.3579206207
31
0.0000000000
11
-8.4382524283
21
4.3773428322
31
0.0000000000
11
-8.4445241311
21
4.3990598485
31
0.0000000000
11
-8.4483168918
21
4.4227581726
31
0.0000000000
11
-8.4495759597
21
4.4480957058
31
0.0000000000
0
ENDSEC
0
SECTION
2
OBJECTS
0
DICTIONARY
5
2D5
100
AcDbDictionary
3
ACAD_GROUP
350
2D6
3
ACAD_MLINESTYLE
350
2D7
0
DICTIONARY
5
2D6
102
{ACAD_REACTORS
330
2D5
102
}
100
AcDbDictionary
0
DICTIONARY
5
2D7
102
{ACAD_REACTORS
330
2D5
102
}
100
AcDbDictionary
3
STANDARD
350
2D8
0
MLINESTYLE
5
2D8
102
{ACAD_REACTORS
330
2D7
102
}
100
AcDbMlineStyle
2
STANDARD
70
0
3

62
256
51
90.0
52
90.0
71
2
49
0.5
62
256
6
BYLAYER
49
-0.5
62
256
6
BYLAYER
0
ENDSEC
0
EOF
