0
SECTION
2
HEADER
9
$ACADVER
1
AC1014
9
$HANDSEED
5
       366
9
$EXTMAX
10
297.0000000000
20
210.0000000000
9
$EXTMIN
10
0.0000000000
20
0.0000000000
9
$LIMMIN
10
0.0000000000
20
0.0000000000
9
$LIMMAX
10
297.0000000000
20
210.0000000000
9
$VIEWCTR
10
148.5000000000
20
105.0000000000
9
$VIEWSIZE
40
210.0000000000
9
$CLAYER
8
0
9
$LTSCALE
40
16.3350000000
9
$CELTYPE
6
BYLAYER
9
$DIMSCALE
40
1
9
$DIMASZ
40
3.0000000000
9
$DIMEXO
40
1.8562500000
9
$DIMDLI
40
11.2860000000
9
$DIMEXE
40
5.3460000000
9
$DIMCEN
40
2.6730000000
9
$DIMLFAC
40
1.0000000000
9
$DIMTXT
40
3.0000000000
9
$DIMTOL
70
1
9
$DIMLIM
70
0
9
$DIMTFAC
40
1.0000000000
9
$DIMTP
40
0.0100000000
9
$DIMTM
40
0.0100000000
9
$MEASUREMENT
70
1
0
ENDSEC
0
SECTION
2
CLASSES
0
ENDSEC
0
SECTION
2
TABLES
0
TABLE
2
VPORT
5
8
100
AcDbSymbolTable
70
2
0
VPORT
5
1F4
100
AcDbSymbolTableRecord
100
AcDbViewportTableRecord
2
*ACTIVE
70
0
10
0.0
20
0.0
11
1.0
21
1.0
12
148.5000000000
22
105.0000000000
13
0.0
23
0.0
14
1.0
24
1.0
15
0.0
25
0.0
16
0.0
26
0.0
36
1.0
17
0.0
27
0.0
37
0.0
40
210.0000000000
41
1.4142857143
42
50.0
43
0.0
44
0.0
50
0.0
51
0.0
71
0
72
100
73
1
74
1
75
0
76
0
77
0
78
0
0
ENDTAB
0
TABLE
2
LTYPE
5
5
100
AcDbSymbolTable
70
6
0
LTYPE
5
14
100
AcDbSymbolTableRecord
100
AcDbLinetypeTableRecord
2
BYBLOCK
70
0
3

72
65
73
0
40
0.0
0
LTYPE
5
15
100
AcDbSymbolTableRecord
100
AcDbLinetypeTableRecord
2
BYLAYER
70
0
3

72
65
73
0
40
0.0
0
LTYPE
5
16
100
AcDbSymbolTableRecord
100
AcDbLinetypeTableRecord
2
CONTINUOUS
70
64
3
Solid line
72
65
73
0
40
0
0
LTYPE
5
1F5
100
AcDbSymbolTableRecord
100
AcDbLinetypeTableRecord
2
CENTER
70
64
3
____ _ ____ _ ____ _ ____ _ ____ _ ____ _ ____
72
65
73
4
40
0.6
49
0.375
74
0
49
-0.075
74
0
49
0.075
74
0
49
-0.075
74
0
0
LTYPE
5
1F6
100
AcDbSymbolTableRecord
100
AcDbLinetypeTableRecord
2
HIDDEN
70
64
3
- - - - - - - - - - - - - - - - - - - -
72
65
73
2
40
0.2
49
0.1
74
0
49
-0.1
74
0
0
LTYPE
5
1F7
100
AcDbSymbolTableRecord
100
AcDbLinetypeTableRecord
2
PHANTOM
70
64
3
_____ _ _ _____ _ _ _____ _ _ _____
72
65
73
6
40
0.8
49
0.45
74
0
49
-0.05
74
0
49
0.1
74
0
49
-0.05
74
0
49
0.1
74
0
49
-0.05
74
0
0
LTYPE
5
1F8
100
AcDbSymbolTableRecord
100
AcDbLinetypeTableRecord
2
DOT
70
64
3
. . . . . . . . . . . . . . . . . . . .
72
65
73
2
40
0.2
49
0.1
74
0
49
-0.1
74
0
0
LTYPE
5
1F9
100
AcDbSymbolTableRecord
100
AcDbLinetypeTableRecord
2
DASHED
70
64
3
- - - - - - - - - - - - - - - - - - - -
72
65
73
2
40
0.2
49
0.1
74
0
49
-0.1
74
0
0
ENDTAB
0
TABLE
2
LAYER
5
2
100
AcDbSymbolTable
70
36
0
LAYER
5
10
100
AcDbSymbolTableRecord
100
AcDbLayerTableRecord
2
0
70
0
62
7
6
CONTINUOUS
0
LAYER
5
1FA
100
AcDbSymbolTableRecord
100
AcDbLayerTableRecord
2
DEFAULT_1
70
0
62
7
6
CENTER
0
LAYER
5
1FB
100
AcDbSymbolTableRecord
100
AcDbLayerTableRecord
2
DEFAULT_2
70
0
62
8
6
HIDDEN
0
LAYER
5
1FC
100
AcDbSymbolTableRecord
100
AcDbLayerTableRecord
2
DEFAULT_3
70
0
62
7
6
PHANTOM
0
LAYER
5
1FD
100
AcDbSymbolTableRecord
100
AcDbLayerTableRecord
2
ASSI
70
0
62
7
6
CONTINUOUS
0
LAYER
5
1FE
100
AcDbSymbolTableRecord
100
AcDbLayerTableRecord
2
COLORE_MATERIALE
70
0
62
7
6
CONTINUOUS
0
LAYER
5
1FF
100
AcDbSymbolTableRecord
100
AcDbLayerTableRecord
2
COORDINATE
70
0
62
7
6
CONTINUOUS
0
LAYER
5
200
100
AcDbSymbolTableRecord
100
AcDbLayerTableRecord
2
COORD_ORIGINE
70
0
62
7
6
CONTINUOUS
0
LAYER
5
201
100
AcDbSymbolTableRecord
100
AcDbLayerTableRecord
2
COPY
70
0
62
7
6
CONTINUOUS
0
LAYER
5
202
100
AcDbSymbolTableRecord
100
AcDbLayerTableRecord
2
CURVE
70
0
62
7
6
CONTINUOUS
0
LAYER
5
203
100
AcDbSymbolTableRecord
100
AcDbLayerTableRecord
2
DRAFT
70
0
62
7
6
CONTINUOUS
0
LAYER
5
204
100
AcDbSymbolTableRecord
100
AcDbLayerTableRecord
2
IGS
70
0
62
7
6
CONTINUOUS
0
LAYER
5
205
100
AcDbSymbolTableRecord
100
AcDbLayerTableRecord
2
INC_LASER
70
0
62
7
6
CONTINUOUS
0
LAYER
5
206
100
AcDbSymbolTableRecord
100
AcDbLayerTableRecord
2
PIANI
70
0
62
7
6
CONTINUOUS
0
LAYER
5
207
100
AcDbSymbolTableRecord
100
AcDbLayerTableRecord
2
PIANI_ORIGINE
70
0
62
7
6
CONTINUOUS
0
LAYER
5
208
100
AcDbSymbolTableRecord
100
AcDbLayerTableRecord
2
PIANI_RIFERIMENTO
70
0
62
7
6
CONTINUOUS
0
LAYER
5
209
100
AcDbSymbolTableRecord
100
AcDbLayerTableRecord
2
PUNTI
70
0
62
7
6
CONTINUOUS
0
LAYER
5
20A
100
AcDbSymbolTableRecord
100
AcDbLayerTableRecord
2
RACCORDO
70
0
62
7
6
CONTINUOUS
0
LAYER
5
20B
100
AcDbSymbolTableRecord
100
AcDbLayerTableRecord
2
SMUSSO
70
0
62
7
6
CONTINUOUS
0
LAYER
5
20C
100
AcDbSymbolTableRecord
100
AcDbLayerTableRecord
2
SUPERFICI
70
0
62
7
6
CONTINUOUS
0
LAYER
5
20D
100
AcDbSymbolTableRecord
100
AcDbLayerTableRecord
2
TRASH
70
0
62
7
6
CONTINUOUS
0
ENDTAB
0
TABLE
2
STYLE
5
3
100
AcDbSymbolTable
70
1
0
STYLE
5
11
100
AcDbSymbolTableRecord
100
AcDbTextStyleTableRecord
2
STANDARD
70
0
40
0.0
41
0.8000000000
50
0.0
71
0
42
0.2
3
txt
4

0
ENDTAB
0
TABLE
2
VIEW
5
6
100
AcDbSymbolTable
70
0
0
ENDTAB
0
TABLE
2
UCS
5
7
100
AcDbSymbolTable
70
0
0
ENDTAB
0
TABLE
2
APPID
5
9
100
AcDbSymbolTable
70
1
0
APPID
5
20E
100
AcDbSymbolTableRecord
100
AcDbRegAppTableRecord
2
ACAD
70
0
0
ENDTAB
0
TABLE
2
DIMSTYLE
5
A
100
AcDbSymbolTable
70
1
0
DIMSTYLE
105
20F
100
AcDbSymbolTableRecord
100
AcDbDimStyleTableRecord
2
STANDARD
70
0
3

4

5

6

7

40
1.0
41
3.0000000000
42
0.0625
43
0.38
44
0.18
45
0.0
46
0.0
47
0.0100000000
48
0.0100000000
140
3.0000000000
141
0.09
142
0.0
143
25.4
144
1.0000000000
145
0.0
146
1.0000000000
147
0.09
71
1
72
0
73
0
74
0
75
0
76
0
77
1
78
8
170
0
171
2
172
0
173
0
174
0
175
0
176
0
177
0
178
0
270
2
271
2
272
2
273
2
274
2
340
11
275
0
280
0
281
0
282
0
283
1
284
8
285
0
286
0
287
3
288
0
0
ENDTAB
0
TABLE
2
BLOCK_RECORD
5
1
100
AcDbSymbolTable
70
0
0
BLOCK_RECORD
5
1B
100
AcDbSymbolTableRecord
100
AcDbBlockTableRecord
2
*MODEL_SPACE
0
BLOCK_RECORD
5
1C
100
AcDbSymbolTableRecord
100
AcDbBlockTableRecord
2
*PAPER_SPACE
0
ENDTAB
0
ENDSEC
0
SECTION
2
BLOCKS
0
BLOCK
5
1E
100
AcDbEntity
8
0
100
AcDbBlockBegin
2
*MODEL_SPACE
70
0
10
0.0
20
0.0
30
0.0
3
*MODEL_SPACE
1

0
ENDBLK
5
1F
100
AcDbEntity
8
0
100
AcDbBlockEnd
0
BLOCK
5
20
100
AcDbEntity
8
0
100
AcDbBlockBegin
2
*PAPER_SPACE
70
0
10
0.0
20
0.0
30
0.0
3
*PAPER_SPACE
1

0
ENDBLK
5
21
100
AcDbEntity
8
0
100
AcDbBlockEnd
0
ENDSEC
0
SECTION
2
ENTITIES
0
LINE
5
210
100
AcDbEntity
8
0
100
AcDbLine
62
7
6
CONTINUOUS
10
-18.9252750100
20
24.0744641642
11
-16.3794448846
21
25.5589163075
0
LINE
5
211
100
AcDbEntity
8
0
100
AcDbLine
62
9
6
CONTINUOUS
10
-18.6919209624
20
24.0656967711
11
-16.1480887732
21
25.5489839346
0
LINE
5
212
100
AcDbEntity
8
0
100
AcDbLine
62
7
6
CONTINUOUS
10
-16.3772880129
20
25.5601534924
11
-15.4451578542
21
26.0860484262
0
LINE
5
213
100
AcDbEntity
8
0
100
AcDbLine
62
9
6
CONTINUOUS
10
-16.1480887732
20
25.5489839346
11
-15.2134318166
21
26.0763044528
0
LINE
5
214
100
AcDbEntity
8
0
100
AcDbLine
62
7
6
CONTINUOUS
10
-9.3090901936
20
23.1241336414
11
-10.8647251123
21
22.2464659520
0
LINE
5
215
100
AcDbEntity
8
0
100
AcDbLine
62
7
6
CONTINUOUS
10
-9.3090901936
20
21.8222738361
11
-9.7828080569
21
21.5550087745
0
LINE
5
216
100
AcDbEntity
8
0
100
AcDbLine
62
7
6
CONTINUOUS
10
-6.1271096783
20
21.5331433837
11
-7.6827445969
21
20.6554756943
0
LINE
5
217
100
AcDbEntity
8
0
100
AcDbLine
62
7
6
CONTINUOUS
10
-19.0985489023
20
-14.1566132152
11
-4.2054253891
21
-21.6031749719
0
LINE
5
218
100
AcDbEntity
8
0
100
AcDbLine
62
9
6
CONTINUOUS
10
-19.3483353294
20
-13.7420277207
11
-4.4596133579
21
-21.1863887064
0
LINE
5
219
100
AcDbEntity
8
0
100
AcDbLine
62
9
6
CONTINUOUS
10
-8.2347578120
20
-15.3699716273
11
-16.4430889444
21
-11.2658060611
0
LINE
5
21A
100
AcDbEntity
8
0
100
AcDbLine
62
9
6
CONTINUOUS
10
-8.1649715152
20
-15.2404138045
11
-16.3733026476
21
-11.1362482383
0
LINE
5
21B
100
AcDbEntity
8
0
100
AcDbLine
62
7
6
CONTINUOUS
10
-16.4239723999
20
-11.0914828752
11
-8.2377986647
21
-15.1845697428
0
LINE
5
21C
100
AcDbEntity
8
0
100
AcDbLine
62
9
6
CONTINUOUS
10
-16.4496740233
20
-11.0450558325
11
-8.2635002877
21
-15.1381427003
0
LINE
5
21D
100
AcDbEntity
8
0
100
AcDbLine
62
9
6
CONTINUOUS
10
-0.2227680554
20
18.5809725723
11
-1.1574250120
21
18.0536520540
0
LINE
5
21E
100
AcDbEntity
8
0
100
AcDbLine
62
9
6
CONTINUOUS
10
0.1307853352
20
17.9705889318
11
-0.7884534803
21
17.4519671154
0
LINE
5
21F
100
AcDbEntity
8
0
100
AcDbLine
62
9
6
CONTINUOUS
10
-1.1574250120
20
18.0536520540
11
-3.7916403571
21
16.6155564685
0
LINE
5
220
100
AcDbEntity
8
0
100
AcDbLine
62
9
6
CONTINUOUS
10
-0.7884534803
20
17.4523631669
11
-3.4258076171
21
16.0125540228
0
LINE
5
221
100
AcDbEntity
8
0
100
AcDbLine
62
7
6
CONTINUOUS
10
-17.1931717288
20
-5.4204983900
11
-17.1931604375
21
-5.4204565533
0
LINE
5
222
100
AcDbEntity
8
0
100
AcDbLine
62
9
6
CONTINUOUS
10
-14.9495819898
20
2.8804384016
11
-15.0655881516
21
2.6610343324
0
LINE
5
223
100
AcDbEntity
8
0
100
AcDbLine
62
7
6
CONTINUOUS
10
-19.9729740223
20
4.4171241119
11
-20.0419559854
21
4.3806572648
0
LINE
5
224
100
AcDbEntity
8
0
100
AcDbLine
62
9
6
CONTINUOUS
10
-19.9085773946
20
4.3849257981
11
-19.9266594000
21
4.3753668686
0
LINE
5
225
100
AcDbEntity
8
0
100
AcDbLine
62
9
6
CONTINUOUS
10
-5.1718158195
20
-11.3885595449
11
-7.8576082242
21
-10.0456633426
0
LINE
5
226
100
AcDbEntity
8
0
100
AcDbLine
62
9
6
CONTINUOUS
10
-17.3504422894
20
-5.2992463100
11
-20.0362346942
21
-3.9563501076
0
LINE
5
227
100
AcDbEntity
8
0
100
AcDbLine
62
9
6
CONTINUOUS
10
-8.5171727744
20
-9.3855475718
11
-16.7000960637
21
-5.2940859271
0
LINE
5
228
100
AcDbEntity
8
0
100
AcDbLine
62
9
6
CONTINUOUS
10
-8.4470867987
20
-9.2626320513
11
-16.6300100880
21
-5.1711704067
0
LINE
5
229
100
AcDbEntity
8
0
100
AcDbLine
62
7
6
CONTINUOUS
10
-14.8852813020
20
2.0469144031
11
-14.8852813020
21
2.4358799583
0
LINE
5
22A
100
AcDbEntity
8
0
100
AcDbLine
62
7
6
CONTINUOUS
10
-14.5416803744
20
2.0552306928
11
-14.5416803744
21
2.6764875939
0
LINE
5
22B
100
AcDbEntity
8
0
100
AcDbLine
62
9
6
CONTINUOUS
10
-14.7128204239
20
2.7620576186
11
-14.8852813020
21
2.4358799583
0
LINE
5
22C
100
AcDbEntity
8
0
100
AcDbLine
62
7
6
CONTINUOUS
10
0.5918702884
20
11.8049322757
11
0.1322508806
21
11.5800350698
0
LINE
5
22D
100
AcDbEntity
8
0
100
AcDbLine
62
7
6
CONTINUOUS
10
-16.6925861630
20
-5.1012009452
11
-8.4807323040
21
-9.2071278747
0
LINE
5
22E
100
AcDbEntity
8
0
100
AcDbLine
62
9
6
CONTINUOUS
10
-16.7185644396
20
-5.0486384606
11
-8.5067105806
21
-9.1545653901
0
LINE
5
22F
100
AcDbEntity
8
0
100
AcDbLine
62
7
6
CONTINUOUS
10
0.1307853352
20
10.4950168685
11
1.3490535103
21
11.2326844366
0
LINE
5
230
100
AcDbEntity
8
0
100
AcDbLine
62
9
6
CONTINUOUS
10
-15.0655881516
20
2.6610343324
11
-15.9556075345
21
2.2142941311
0
LINE
5
231
100
AcDbEntity
8
0
100
AcDbLine
62
9
6
CONTINUOUS
10
-14.8852840717
20
2.4366475275
11
-15.8141915632
21
1.9703876598
0
LINE
5
232
100
AcDbEntity
8
0
100
AcDbLine
62
9
6
CONTINUOUS
10
-14.8852813020
20
2.0469144031
11
-15.8492025895
21
1.5630795584
0
LINE
5
233
100
AcDbEntity
8
0
100
AcDbLine
62
7
6
CONTINUOUS
10
0.1307853352
20
11.3344757789
11
0.2368513524
21
11.3863751341
0
LINE
5
234
100
AcDbEntity
8
0
100
AcDbLine
62
7
6
CONTINUOUS
10
-15.7163197919
20
3.2171710595
11
-15.7163839187
21
3.2171402160
0
LINE
5
235
100
AcDbEntity
8
0
100
AcDbLine
62
9
6
CONTINUOUS
10
-15.4567013542
20
3.1339980838
11
-15.8492025609
21
2.9453019855
0
LINE
5
236
100
AcDbEntity
8
0
100
AcDbLine
62
9
6
CONTINUOUS
10
-15.0593183746
20
2.9353065939
11
-15.8141915632
21
2.5723991100
0
LINE
5
237
100
AcDbEntity
8
0
100
AcDbLine
62
7
6
CONTINUOUS
10
-14.9744915877
20
2.8928932005
11
-15.8677169184
21
2.4634725214
0
LINE
5
238
100
AcDbEntity
8
0
100
AcDbLine
62
9
6
CONTINUOUS
10
-10.8647251123
20
22.0959673021
11
-10.8647251123
21
22.2464659520
0
LINE
5
239
100
AcDbEntity
8
0
100
AcDbLine
62
7
6
CONTINUOUS
10
-9.3090901936
20
23.1241336414
11
-9.3090901936
21
21.8222738361
0
LINE
5
23A
100
AcDbEntity
8
0
100
AcDbLine
62
9
6
CONTINUOUS
10
-14.5317413736
20
1.4371482248
11
-15.4945158798
21
0.9538890005
0
LINE
5
23B
100
AcDbEntity
8
0
100
AcDbLine
62
9
6
CONTINUOUS
10
-15.6347024824
20
0.7100780884
11
-9.6978163381
21
-2.2583649837
0
LINE
5
23C
100
AcDbEntity
8
0
100
AcDbLine
62
9
6
CONTINUOUS
10
-15.4945158798
20
0.9538890005
11
-9.5576297355
21
-2.0145540717
0
LINE
5
23D
100
AcDbEntity
8
0
100
AcDbLine
62
7
6
CONTINUOUS
10
0.1307853352
20
6.8773601645
11
1.3490535103
21
7.6441285018
0
LINE
5
23E
100
AcDbEntity
8
0
100
AcDbLine
62
9
6
CONTINUOUS
10
-20.0988340085
20
3.8940030308
11
-16.1311473746
21
1.9101597141
0
LINE
5
23F
100
AcDbEntity
8
0
100
AcDbLine
62
9
6
CONTINUOUS
10
-5.2366370435
20
-3.5370954517
11
-9.2043236775
21
-1.5532521345
0
LINE
5
240
100
AcDbEntity
8
0
100
AcDbLine
62
7
6
CONTINUOUS
10
-9.1429358000
20
-1.2572545620
11
-14.5317413736
21
1.4371482248
0
LINE
5
241
100
AcDbEntity
8
0
100
AcDbLine
62
9
6
CONTINUOUS
10
-19.9236000171
20
4.1982903726
11
-15.9556075345
21
2.2142941311
0
LINE
5
242
100
AcDbEntity
8
0
100
AcDbLine
62
9
6
CONTINUOUS
10
-5.0614030521
20
-3.2328081099
11
-9.0293955350
21
-1.2488118686
0
LINE
5
243
100
AcDbEntity
8
0
100
AcDbLine
62
7
6
CONTINUOUS
10
-8.9109779160
20
-1.1351205364
11
-14.2354941566
21
1.5271375839
0
LINE
5
244
100
AcDbEntity
8
0
100
AcDbLine
62
7
6
CONTINUOUS
10
-5.1716638030
20
-2.9835309977
11
-9.1394639097
21
-0.9996309444
0
LINE
5
245
100
AcDbEntity
8
0
100
AcDbLine
62
7
6
CONTINUOUS
10
-16.0660606613
20
2.4636674314
11
-20.0338607682
21
4.4475674848
0
LINE
5
246
100
AcDbEntity
8
0
100
AcDbLine
62
9
6
CONTINUOUS
10
-5.2366370435
20
-2.8481402807
11
-9.2043236775
21
-0.8642969639
0
LINE
5
247
100
AcDbEntity
8
0
100
AcDbLine
62
9
6
CONTINUOUS
10
-16.1311473746
20
2.5991148847
11
-20.0988340085
21
4.5829582019
0
LINE
5
248
100
AcDbEntity
8
0
100
AcDbLine
62
7
6
CONTINUOUS
10
-15.5827244804
20
3.1970096468
11
-9.6458383361
21
0.2285665747
0
LINE
5
249
100
AcDbEntity
8
0
100
AcDbLine
62
9
6
CONTINUOUS
10
-15.6347024824
20
3.3057038497
11
-9.6978163381
21
0.3372607775
0
LINE
5
24A
100
AcDbEntity
8
0
100
AcDbLine
62
7
6
CONTINUOUS
10
-8.8901394623
20
-1.1242931681
11
-9.1204613283
21
-1.2439651802
0
LINE
5
24B
100
AcDbEntity
8
0
100
AcDbLine
62
9
6
CONTINUOUS
10
-8.8389783059
20
-1.1498737463
11
-9.0293955350
21
-1.2488118686
0
LINE
5
24C
100
AcDbEntity
8
0
100
AcDbLine
62
9
6
CONTINUOUS
10
-9.2635611756
20
-1.8617601712
11
-9.5576297355
21
-2.0145540717
0
LINE
5
24D
100
AcDbEntity
8
0
100
AcDbLine
62
7
6
CONTINUOUS
10
-9.3323057104
20
-2.0278868515
11
-9.3322536484
21
-2.0278598113
0
LINE
5
24E
100
AcDbEntity
8
0
100
AcDbLine
62
7
6
CONTINUOUS
10
-16.9889039762
20
-5.1490060304
11
-16.9898114513
21
-5.1494734243
0
LINE
5
24F
100
AcDbEntity
8
0
100
AcDbLine
62
7
6
CONTINUOUS
10
-17.0222489053
20
-5.0714231091
11
-17.0221662257
21
-5.0713831614
0
LINE
5
250
100
AcDbEntity
8
0
100
AcDbLine
62
7
6
CONTINUOUS
10
-0.9652301767
20
-1.3845270655
11
-1.0817128402
21
-1.3262857337
0
LINE
5
251
100
AcDbEntity
8
0
100
AcDbLine
62
9
6
CONTINUOUS
10
-0.9652301767
20
-1.3845270655
11
-4.7109629303
21
-3.2324813663
0
LINE
5
252
100
AcDbEntity
8
0
100
AcDbLine
62
9
6
CONTINUOUS
10
-0.7884534803
20
-1.6893970338
11
-4.5357556896
21
-3.5381256243
0
LINE
5
253
100
AcDbEntity
8
0
100
AcDbLine
62
9
6
CONTINUOUS
10
0.1307853352
20
-0.6334013259
11
-0.7884534803
21
-1.0831957377
0
LINE
5
254
100
AcDbEntity
8
0
100
AcDbLine
62
7
6
CONTINUOUS
10
0.0650875028
20
-0.7689845614
11
-0.8547772638
21
-1.2190852585
0
LINE
5
255
100
AcDbEntity
8
0
100
AcDbLine
62
7
6
CONTINUOUS
10
-0.8559384390
20
-1.2196435516
11
-0.8547775789
21
-1.2190854128
0
LINE
5
256
100
AcDbEntity
8
0
100
AcDbLine
62
9
6
CONTINUOUS
10
-0.7884534803
20
-1.0832287127
11
-4.5357556896
21
-2.8532278014
0
LINE
5
257
100
AcDbEntity
8
0
100
AcDbLine
62
7
6
CONTINUOUS
10
-0.8559390870
20
-1.2196438577
11
-4.6026470177
21
-2.9893622452
0
LINE
5
258
100
AcDbEntity
8
0
100
AcDbLine
62
9
6
CONTINUOUS
10
-14.5811260881
20
1.4604331110
11
-14.2354941566
21
1.5271375839
0
LINE
5
259
100
AcDbEntity
8
0
100
AcDbLine
62
9
6
CONTINUOUS
10
-14.5416803744
20
2.0552306928
11
-14.8873123059
21
1.9885262199
0
LINE
5
25A
100
AcDbEntity
8
0
100
AcDbLine
62
7
6
CONTINUOUS
10
-0.7884534803
20
-1.6893970338
11
-0.7884534803
21
-12.7312456628
0
LINE
5
25B
100
AcDbEntity
8
0
100
AcDbLine
62
7
6
CONTINUOUS
10
-0.7884534803
20
-1.0831957377
11
-0.7884534803
21
17.4519671154
0
LINE
5
25C
100
AcDbEntity
8
0
100
AcDbLine
62
7
6
CONTINUOUS
10
0.1307853352
20
-0.6334013259
11
0.1307853352
21
17.9705889318
0
LINE
5
25D
100
AcDbEntity
8
0
100
AcDbLine
62
7
6
CONTINUOUS
10
0.1322508806
20
11.3351928876
11
0.1322508806
21
11.5800350698
0
LINE
5
25E
100
AcDbEntity
8
0
100
AcDbLine
62
7
6
CONTINUOUS
10
-1.5479512547
20
-20.5437952294
11
-0.7884534803
21
-12.7312456628
0
LINE
5
25F
100
AcDbEntity
8
0
100
AcDbLine
62
9
6
CONTINUOUS
10
-20.0362346942
20
12.4981325643
11
-5.1718158195
21
5.0659231270
0
LINE
5
260
100
AcDbEntity
8
0
100
AcDbLine
62
9
6
CONTINUOUS
10
1.3490535103
20
11.2326844366
11
1.3490535103
21
7.6441285018
0
LINE
5
261
100
AcDbEntity
8
0
100
AcDbLine
62
7
6
CONTINUOUS
10
1.5050513373
20
11.4497600176
11
1.5050513373
21
7.8675771946
0
LINE
5
262
100
AcDbEntity
8
0
100
AcDbLine
62
9
6
CONTINUOUS
10
-7.9000242889
20
-10.0200813996
11
-7.8922450181
21
-10.0161526736
0
LINE
5
263
100
AcDbEntity
8
0
100
AcDbLine
62
7
6
CONTINUOUS
10
0.1322508806
20
11.5800350698
11
0.2368513524
21
11.3863751341
0
LINE
5
264
100
AcDbEntity
8
0
100
AcDbLine
62
7
6
CONTINUOUS
10
1.0868450352
20
11.8022870845
11
0.5918702884
21
11.8049322757
0
LINE
5
265
100
AcDbEntity
8
0
100
AcDbLine
62
7
6
CONTINUOUS
10
-7.7953129619
20
-15.2699997809
11
-7.7954709668
21
-15.2700814411
0
LINE
5
266
100
AcDbEntity
8
0
100
AcDbLine
62
9
6
CONTINUOUS
10
-7.6391493303
20
-14.9559382872
11
-7.6837375086
21
-14.9774510807
0
LINE
5
267
100
AcDbEntity
8
0
100
AcDbLine
62
7
6
CONTINUOUS
10
-7.8501952000
20
-15.2116740111
11
-7.8496111333
21
-15.2113928107
0
LINE
5
268
100
AcDbEntity
8
0
100
AcDbLine
62
7
6
CONTINUOUS
10
1.3000260842
20
11.6956965600
11
1.0868450352
21
11.8022870845
0
LINE
5
269
100
AcDbEntity
8
0
100
AcDbLine
62
9
6
CONTINUOUS
10
-4.4596133579
20
15.5516516532
11
-19.3483353294
21
22.9960126390
0
LINE
5
26A
100
AcDbEntity
8
0
100
AcDbLine
62
9
6
CONTINUOUS
10
-3.7916403571
20
16.6155564685
11
-18.6919209624
21
24.0656967711
0
LINE
5
26B
100
AcDbEntity
8
0
100
AcDbLine
62
7
6
CONTINUOUS
10
-10.8647251123
20
22.0959673021
11
-7.9655873094
21
20.6463984007
0
LINE
5
26C
100
AcDbEntity
8
0
100
AcDbLine
62
7
6
CONTINUOUS
10
-15.2134318166
20
26.0763044528
11
-9.3090901936
21
23.1241336414
0
LINE
5
26D
100
AcDbEntity
8
0
100
AcDbLine
62
7
6
CONTINUOUS
10
-6.1271096783
20
21.5331433837
11
-0.2227680554
21
18.5809725723
0
LINE
5
26E
100
AcDbEntity
8
0
100
AcDbLine
62
9
6
CONTINUOUS
10
-3.4258076171
20
-21.3320430544
11
-1.5479512547
21
-20.5437952294
0
LINE
5
26F
100
AcDbEntity
8
0
100
AcDbLine
62
7
6
CONTINUOUS
10
-3.5796148626
20
-21.6132387528
11
-1.7243397234
21
-20.8344696080
0
SPLINE
5
270
100
AcDbEntity
8
0
100
AcDbSpline
62
7
6
CONTINUOUS
70
0
71
3
72
11
73
7
74
5
42
0.0000001000
43
0.0000001000
44
0.0000000001
12
-0.3108915157
22
-0.1601160959
32
0.0000000000
13
-0.0908648214
23
-0.3372581033
33
0.0000000000
40
0.0000000000
40
0.0000000000
40
0.0000000000
40
0.0000000000
40
0.1794647207
40
0.4519088889
40
0.7421858096
40
1.0000000000
40
1.0000000000
40
1.0000000000
40
1.0000000000
10
-16.9890826933
20
-5.1491100262
30
0.0000000000
10
-17.0076807129
20
-5.1586884230
30
0.0000000000
10
-17.0524833932
20
-5.1869783506
30
0.0000000000
10
-17.1142849431
20
-5.2485169749
30
0.0000000000
10
-17.1639037221
20
-5.3310327998
30
0.0000000000
10
-17.1853420964
20
-5.3914758613
30
0.0000000000
10
-17.1931508432
20
-5.4204591696
30
0.0000000000
11
-16.9890826933
21
-5.1491100262
31
0.0000000000
11
-17.0421341719
21
-5.1826055600
31
0.0000000000
11
-17.1097927872
21
-5.2493662306
31
0.0000000000
11
-17.1625835281
21
-5.3357910215
31
0.0000000000
11
-17.1931508432
21
-5.4204591696
31
0.0000000000
0
SPLINE
5
271
100
AcDbEntity
8
0
100
AcDbSpline
62
7
6
CONTINUOUS
70
0
71
3
72
8
73
4
74
2
42
0.0000001000
43
0.0000001000
44
0.0000000001
12
-0.0142833775
22
-0.0530401497
32
0.0000000000
13
-0.0138304406
23
-0.0531659149
33
0.0000000000
40
0.0000000000
40
0.0000000000
40
0.0000000000
40
0.0000000000
40
1.0000000000
40
1.0000000000
40
1.0000000000
40
1.0000000000
10
-17.1931724734
20
-5.4205009274
30
0.0000000000
10
-17.1979335992
20
-5.4381809773
30
0.0000000000
10
-17.2026189734
20
-5.4558824090
30
0.0000000000
10
-17.2072291203
20
-5.4736043807
30
0.0000000000
11
-17.1931724734
21
-5.4205009274
31
0.0000000000
11
-17.2072291203
21
-5.4736043807
31
0.0000000000
0
SPLINE
5
272
100
AcDbEntity
8
0
100
AcDbSpline
62
7
6
CONTINUOUS
70
0
71
3
72
8
73
4
74
2
42
0.0000001000
43
0.0000001000
44
0.0000000001
12
-0.0579628908
22
-0.2228164820
32
0.0000000000
13
-0.0501508320
23
-0.2247951558
33
0.0000000000
40
0.0000000000
40
0.0000000000
40
0.0000000000
40
0.0000000000
40
1.0000000000
40
1.0000000000
40
1.0000000000
40
1.0000000000
10
-17.2072291203
20
-5.4736043807
30
0.0000000000
10
-17.2265500839
20
-5.5478765413
30
0.0000000000
10
-17.2445497405
20
-5.6225094685
30
0.0000000000
10
-17.2612666844
20
-5.6974411871
30
0.0000000000
11
-17.2072291203
21
-5.4736043807
31
0.0000000000
11
-17.2612666844
21
-5.6974411871
31
0.0000000000
0
SPLINE
5
273
100
AcDbEntity
8
0
100
AcDbSpline
62
7
6
CONTINUOUS
70
0
71
3
72
13
73
9
74
7
42
0.0000001000
43
0.0000001000
44
0.0000000001
12
-0.9537752912
22
-4.2751846119
32
0.0000000000
13
1.1086094022
23
-4.2364132283
33
0.0000000000
40
0.0000000000
40
0.0000000000
40
0.0000000000
40
0.0000000000
40
0.1038433972
40
0.2852103247
40
0.4745822155
40
0.6717580935
40
0.8762759531
40
1.0000000000
40
1.0000000000
40
1.0000000000
40
1.0000000000
10
-17.2612666844
20
-5.6974411871
30
0.0000000000
10
-17.2942811066
20
-5.8454244184
30
0.0000000000
10
-17.3712159117
20
-6.2550674055
30
0.0000000000
10
-17.4401674038
20
-6.9453379775
30
0.0000000000
10
-17.4411970141
20
-7.7753595235
30
0.0000000000
10
-17.3641943443
20
-8.6355655265
30
0.0000000000
10
-17.2321539207
20
-9.3916739002
30
0.0000000000
10
-17.1209568191
20
-9.8578880217
30
0.0000000000
10
-17.0752362719
20
-10.0326034180
30
0.0000000000
11
-17.2612666844
21
-5.6974411871
31
0.0000000000
11
-17.3455984906
21
-6.1444096019
31
0.0000000000
11
-17.4262744144
21
-6.9343199451
31
0.0000000000
11
-17.4289282419
21
-7.7633807027
31
0.0000000000
11
-17.3534370367
21
-8.6233040902
31
0.0000000000
11
-17.2007050239
21
-9.5055551306
31
0.0000000000
11
-17.0752362719
21
-10.0326034180
31
0.0000000000
0
SPLINE
5
274
100
AcDbEntity
8
0
100
AcDbSpline
62
7
6
CONTINUOUS
70
0
71
3
72
8
73
4
74
2
42
0.0000001000
43
0.0000001000
44
0.0000000001
12
0.0912437586
22
-0.3486766983
32
0.0000000000
13
0.1011123103
23
-0.3458584473
33
0.0000000000
40
0.0000000000
40
0.0000000000
40
0.0000000000
40
0.0000000000
40
1.0000000000
40
1.0000000000
40
1.0000000000
40
1.0000000000
10
-17.0752362719
20
-10.0326034180
30
0.0000000000
10
-17.0448216857
20
-10.1488289841
30
0.0000000000
10
-17.0127223578
20
-10.2646056300
30
0.0000000000
10
-16.9790182543
20
-10.3798917791
30
0.0000000000
11
-17.0752362719
21
-10.0326034180
31
0.0000000000
11
-16.9790182543
21
-10.3798917791
31
0.0000000000
0
SPLINE
5
275
100
AcDbEntity
8
0
100
AcDbSpline
62
7
6
CONTINUOUS
70
0
71
3
72
8
73
4
74
2
42
0.0000001000
43
0.0000001000
44
0.0000000001
12
0.0083260655
22
-0.0284844646
32
0.0000000000
13
0.0090722868
23
-0.0282670840
33
0.0000000000
40
0.0000000000
40
0.0000000000
40
0.0000000000
40
0.0000000000
40
1.0000000000
40
1.0000000000
40
1.0000000000
40
1.0000000000
10
-16.9790118396
20
-10.3798877564
30
0.0000000000
10
-16.9762364845
20
-10.3893825779
30
0.0000000000
10
-16.9733346586
20
-10.3988424184
30
0.0000000000
10
-16.9703105630
20
-10.4082647797
30
0.0000000000
11
-16.9790118396
21
-10.3798877564
31
0.0000000000
11
-16.9703105630
21
-10.4082647797
31
0.0000000000
0
SPLINE
5
276
100
AcDbEntity
8
0
100
AcDbSpline
62
7
6
CONTINUOUS
70
0
71
3
72
8
73
4
74
2
42
0.0000001000
43
0.0000001000
44
0.0000000001
12
0.0082291829
22
-0.0256401729
32
0.0000000000
13
0.0088233787
23
-0.0254495587
33
0.0000000000
40
0.0000000000
40
0.0000000000
40
0.0000000000
40
0.0000000000
40
1.0000000000
40
1.0000000000
40
1.0000000000
40
1.0000000000
10
-16.9703105630
20
-10.4082647797
30
0.0000000000
10
-16.9675675021
20
-10.4168115040
30
0.0000000000
10
-16.9647238409
20
-10.4253273915
30
0.0000000000
10
-16.9617827147
20
-10.4338105777
30
0.0000000000
11
-16.9703105630
21
-10.4082647797
31
0.0000000000
11
-16.9617827147
21
-10.4338105777
31
0.0000000000
0
SPLINE
5
277
100
AcDbEntity
8
0
100
AcDbSpline
62
7
6
CONTINUOUS
70
0
71
3
72
13
73
9
74
7
42
0.0000001000
43
0.0000001000
44
0.0000000001
12
0.2658956938
22
-0.7669316137
32
0.0000000000
13
0.6969076379
23
-0.4175309795
33
0.0000000000
40
0.0000000000
40
0.0000000000
40
0.0000000000
40
0.0000000000
40
0.1028752290
40
0.3101588543
40
0.5173922022
40
0.7199366523
40
0.9136579173
40
1.0000000000
40
1.0000000000
40
1.0000000000
40
1.0000000000
10
-16.9617827147
20
-10.4338105777
30
0.0000000000
10
-16.9526646879
20
-10.4601099995
30
0.0000000000
10
-16.9223505121
20
-10.5384526384
30
0.0000000000
10
-16.8589944835
20
-10.6635321278
30
0.0000000000
10
-16.7653810625
20
-10.8021215844
30
0.0000000000
10
-16.6571684958
20
-10.9248593688
30
0.0000000000
10
-16.5577051516
20
-11.0099615378
30
0.0000000000
10
-16.4943157651
20
-11.0518276391
30
0.0000000000
10
-16.4742582795
20
-11.0638444705
30
0.0000000000
11
-16.9617827147
21
-10.4338105777
31
0.0000000000
11
-16.9317118039
21
-10.5117104040
31
0.0000000000
11
-16.8559558333
21
-10.6617661983
31
0.0000000000
11
-16.7617771567
21
-10.8009508956
31
0.0000000000
11
-16.6528132405
21
-10.9238545546
31
0.0000000000
11
-16.5328621381
21
-11.0252987136
31
0.0000000000
11
-16.4742582795
21
-11.0638444705
31
0.0000000000
0
SPLINE
5
278
100
AcDbEntity
8
0
100
AcDbSpline
62
7
6
CONTINUOUS
70
0
71
3
72
8
73
4
74
2
42
0.0000001000
43
0.0000001000
44
0.0000000001
12
0.0099695915
22
-0.0059729770
32
0.0000000000
13
0.0100540656
23
-0.0058239483
33
0.0000000000
40
0.0000000000
40
0.0000000000
40
0.0000000000
40
0.0000000000
40
1.0000000000
40
1.0000000000
40
1.0000000000
40
1.0000000000
10
-16.4742582795
20
-11.0638444705
30
0.0000000000
10
-16.4709350823
20
-11.0658354628
30
0.0000000000
10
-16.4675977516
20
-11.0678020163
30
0.0000000000
10
-16.4642463964
20
-11.0697433324
30
0.0000000000
11
-16.4742582795
21
-11.0638444705
31
0.0000000000
11
-16.4642463964
21
-11.0697433324
31
0.0000000000
0
SPLINE
5
279
100
AcDbEntity
8
0
100
AcDbSpline
62
7
6
CONTINUOUS
70
0
71
3
72
8
73
4
74
2
42
0.0000001000
43
0.0000001000
44
0.0000000001
12
0.0154445451
22
-0.0089464537
32
0.0000000000
13
0.0156419233
23
-0.0085804474
33
0.0000000000
40
0.0000000000
40
0.0000000000
40
0.0000000000
40
0.0000000000
40
1.0000000000
40
1.0000000000
40
1.0000000000
40
1.0000000000
10
-16.4642463964
20
-11.0697433324
30
0.0000000000
10
-16.4590982147
20
-11.0727254836
30
0.0000000000
10
-16.4539169387
20
-11.0756480809
30
0.0000000000
10
-16.4487029643
20
-11.0785082301
30
0.0000000000
11
-16.4642463964
21
-11.0697433324
31
0.0000000000
11
-16.4487029643
21
-11.0785082301
31
0.0000000000
0
SPLINE
5
27A
100
AcDbEntity
8
0
100
AcDbSpline
62
7
6
CONTINUOUS
70
0
71
3
72
8
73
4
74
2
42
0.0000001000
43
0.0000001000
44
0.0000000001
12
0.0245132861
22
-0.0134468733
32
0.0000000000
13
0.0249905559
23
-0.0124932292
33
0.0000000000
40
0.0000000000
40
0.0000000000
40
0.0000000000
40
0.0000000000
40
1.0000000000
40
1.0000000000
40
1.0000000000
40
1.0000000000
10
-16.4487029643
20
-11.0785082301
30
0.0000000000
10
-16.4405318689
20
-11.0829905212
30
0.0000000000
10
-16.4322804670
20
-11.0873194415
30
0.0000000000
10
-16.4239502817
20
-11.0914838512
30
0.0000000000
11
-16.4487029643
21
-11.0785082301
31
0.0000000000
11
-16.4239502817
21
-11.0914838512
31
0.0000000000
0
SPLINE
5
27B
100
AcDbEntity
8
0
100
AcDbSpline
62
7
6
CONTINUOUS
70
0
71
3
72
8
73
4
74
2
42
0.0000001000
43
0.0000001000
44
0.0000000001
12
0.0254063109
22
-0.0127053037
32
0.0000000000
13
0.0259251934
23
-0.0116546806
33
0.0000000000
40
0.0000000000
40
0.0000000000
40
0.0000000000
40
0.0000000000
40
1.0000000000
40
1.0000000000
40
1.0000000000
40
1.0000000000
10
-8.2378072150
20
-15.1845560266
30
0.0000000000
10
-8.2293384447
20
-15.1887911279
30
0.0000000000
10
-8.2207811882
20
-15.1928597440
30
0.0000000000
10
-8.2121394571
20
-15.1967446375
30
0.0000000000
11
-8.2378072150
21
-15.1845560266
31
0.0000000000
11
-8.2121394571
21
-15.1967446375
31
0.0000000000
0
SPLINE
5
27C
100
AcDbEntity
8
0
100
AcDbSpline
62
7
6
CONTINUOUS
70
0
71
3
72
11
73
7
74
5
42
0.0000001000
43
0.0000001000
44
0.0000000001
12
0.3409993241
22
-0.1532963763
32
0.0000000000
13
0.3377195189
23
0.1622605939
33
0.0000000000
40
0.0000000000
40
0.0000000000
40
0.0000000000
40
0.0000000000
40
0.2018391587
40
0.5047730045
40
0.7839998865
40
1.0000000000
40
1.0000000000
40
1.0000000000
40
1.0000000000
10
-8.2121394571
20
-15.1967446375
30
0.0000000000
10
-8.1891971182
20
-15.2070583747
30
0.0000000000
10
-8.1303323799
20
-15.2296132914
30
0.0000000000
10
-8.0338507642
20
-15.2489330677
30
0.0000000000
10
-7.9334408038
20
-15.2431113799
30
0.0000000000
10
-7.8743804637
20
-15.2232845981
30
0.0000000000
10
-7.8500646456
20
-15.2116018292
30
0.0000000000
11
-8.2121394571
21
-15.1967446375
31
0.0000000000
11
-8.1416013379
21
-15.2234786098
31
0.0000000000
11
-8.0305016457
21
-15.2444829651
31
0.0000000000
11
-7.9265168160
21
-15.2374953906
31
0.0000000000
11
-7.8500646456
21
-15.2116018292
31
0.0000000000
0
SPLINE
5
27D
100
AcDbEntity
8
0
100
AcDbSpline
62
7
6
CONTINUOUS
70
0
71
3
72
8
73
4
74
2
42
0.0000001000
43
0.0000001000
44
0.0000000001
12
-0.1788263003
22
-0.0924986981
32
0.0000000000
13
-0.1788262101
23
-0.0924988725
33
0.0000000000
40
0.0000000000
40
0.0000000000
40
0.0000000000
40
0.0000000000
40
1.0000000000
40
1.0000000000
40
1.0000000000
40
1.0000000000
10
-16.8109854249
20
-5.0569747574
30
0.0000000000
10
-16.8705941917
20
-5.0878076567
30
0.0000000000
10
-16.9302029434
20
-5.1186405852
30
0.0000000000
10
-16.9898116802
20
-5.1494735427
30
0.0000000000
11
-16.8109854249
21
-5.0569747574
31
0.0000000000
11
-16.9898116802
21
-5.1494735427
31
0.0000000000
0
SPLINE
5
27E
100
AcDbEntity
8
0
100
AcDbSpline
62
9
6
CONTINUOUS
70
0
71
3
72
10
73
6
74
4
42
0.0000001000
43
0.0000001000
44
0.0000000001
12
0.2674572471
22
0.1298444068
32
0.0000000000
13
0.0646788776
23
0.2885427323
33
0.0000000000
40
0.0000000000
40
0.0000000000
40
0.0000000000
40
0.0000000000
40
0.2672173066
40
0.6134407254
40
1.0000000000
40
1.0000000000
40
1.0000000000
40
1.0000000000
10
-7.8496245596
20
-15.2113651548
30
0.0000000000
10
-7.8258014912
20
-15.1997995972
30
0.0000000000
10
-7.7750171241
20
-15.1649658984
30
0.0000000000
10
-7.7157211972
20
-15.0839091924
30
0.0000000000
10
-7.6920715819
20
-15.0146307038
30
0.0000000000
10
-7.6837375086
20
-14.9774510807
30
0.0000000000
11
-7.8496245596
21
-15.2113651548
31
0.0000000000
11
-7.7842920113
21
-15.1666268409
31
0.0000000000
11
-7.7225333196
21
-15.0849727781
31
0.0000000000
11
-7.6837375086
21
-14.9774510807
31
0.0000000000
0
SPLINE
5
27F
100
AcDbEntity
8
0
100
AcDbSpline
62
9
6
CONTINUOUS
70
0
71
3
72
13
73
9
74
7
42
0.0000001000
43
0.0000001000
44
0.0000000001
12
-0.5288366616
22
0.2643128935
32
0.0000000000
13
-0.1535608651
23
-0.5709190670
33
0.0000000000
40
0.0000000000
40
0.0000000000
40
0.0000000000
40
0.0000000000
40
0.1867531298
40
0.3553934427
40
0.5114683503
40
0.6641928520
40
0.8243290430
40
1.0000000000
40
1.0000000000
40
1.0000000000
40
1.0000000000
10
-16.7000960637
20
-5.2940859271
30
0.0000000000
10
-16.7330166976
20
-5.2776321738
30
0.0000000000
10
-16.7989821563
20
-5.2521447225
30
0.0000000000
10
-16.9004253378
20
-5.2403989770
30
0.0000000000
10
-16.9944492608
20
-5.2596651762
30
0.0000000000
10
-17.0741969482
20
-5.3102720505
30
0.0000000000
10
-17.1340729457
20
-5.3877002466
30
0.0000000000
10
-17.1583214735
20
-5.4501721740
30
0.0000000000
10
-17.1673135349
20
-5.4836034737
30
0.0000000000
11
-16.7000960637
21
-5.2940859271
31
0.0000000000
11
-16.8035928648
21
-5.2556299864
31
0.0000000000
11
-16.9027945963
21
-5.2456559924
31
0.0000000000
11
-16.9929892514
21
-5.2651302180
31
0.0000000000
11
-17.0693953887
21
-5.3132425765
31
0.0000000000
11
-17.1283237567
21
-5.3873414466
31
0.0000000000
11
-17.1673135349
21
-5.4836034737
31
0.0000000000
0
SPLINE
5
280
100
AcDbEntity
8
0
100
AcDbSpline
62
9
6
CONTINUOUS
70
0
71
3
72
11
73
7
74
5
42
0.0000001000
43
0.0000001000
44
0.0000000001
12
0.6096164922
22
4.3825410236
32
0.0000000000
13
-1.0250398335
23
4.3001383168
33
0.0000000000
40
0.0000000000
40
0.0000000000
40
0.0000000000
40
0.0000000000
40
0.1277603575
40
0.3996929728
40
0.6920314963
40
1.0000000000
40
1.0000000000
40
1.0000000000
40
1.0000000000
10
-7.7291994166
20
-14.4359542088
30
0.0000000000
10
-7.7032378096
20
-14.2493158728
30
0.0000000000
10
-7.6429002658
20
-13.6622520856
30
0.0000000000
10
-7.6361675663
20
-12.6405276647
30
0.0000000000
10
-7.7633376949
20
-11.3594666911
30
0.0000000000
10
-7.9324906617
20
-10.4898373006
30
0.0000000000
10
-8.0377173230
20
-10.0484015796
30
0.0000000000
11
-7.7291994166
21
-14.4359542088
31
0.0000000000
11
-7.6704320729
21
-13.8736989592
31
0.0000000000
11
-7.6567476859
21
-12.6716656310
31
0.0000000000
11
-7.7804175030
21
-11.3852785811
31
0.0000000000
11
-8.0377173230
21
-10.0484015796
31
0.0000000000
0
SPLINE
5
281
100
AcDbEntity
8
0
100
AcDbSpline
62
9
6
CONTINUOUS
70
0
71
3
72
8
73
4
74
2
42
0.0000001000
43
0.0000001000
44
0.0000000001
12
0.0668593878
22
-0.0334171420
32
0.0000000000
13
0.0710009181
23
-0.0239058526
33
0.0000000000
40
0.0000000000
40
0.0000000000
40
0.0000000000
40
0.0000000000
40
1.0000000000
40
1.0000000000
40
1.0000000000
40
1.0000000000
10
-8.2635002877
20
-15.1381427003
30
0.0000000000
10
-8.2412138251
20
-15.1492817477
30
0.0000000000
10
-8.2181835219
20
-15.1591114544
30
0.0000000000
10
-8.1945165492
20
-15.1670800719
30
0.0000000000
11
-8.2635002877
21
-15.1381427003
31
0.0000000000
11
-8.1945165492
21
-15.1670800719
31
0.0000000000
0
SPLINE
5
282
100
AcDbEntity
8
0
100
AcDbSpline
62
9
6
CONTINUOUS
70
0
71
3
72
12
73
8
74
6
42
0.0000001000
43
0.0000001000
44
0.0000000001
12
0.4451033146
22
-0.1122678400
32
0.0000000000
13
0.0956615863
23
0.4474392287
33
0.0000000000
40
0.0000000000
40
0.0000000000
40
0.0000000000
40
0.0000000000
40
0.2125376282
40
0.4047724695
40
0.5897233335
40
0.7838716414
40
1.0000000000
40
1.0000000000
40
1.0000000000
40
1.0000000000
10
-8.1610104713
20
-15.1769558918
30
0.0000000000
10
-8.1294767371
20
-15.1849096053
30
0.0000000000
10
-8.0675301803
20
-15.1932283819
30
0.0000000000
10
-7.9772178925
20
-15.1763740821
30
0.0000000000
10
-7.9019935502
20
-15.1281242339
30
0.0000000000
10
-7.8479559381
20
-15.0529972531
30
0.0000000000
10
-7.8280787691
20
-14.9927731514
30
0.0000000000
10
-7.8211870419
20
-14.9605383827
30
0.0000000000
11
-8.1610104713
21
-15.1769558918
31
0.0000000000
11
-8.0644115329
21
-15.1881625807
31
0.0000000000
11
-7.9782067832
21
-15.1706920047
31
0.0000000000
11
-7.9068931670
21
-15.1251324936
31
0.0000000000
11
-7.8538410048
21
-15.0538813238
31
0.0000000000
11
-7.8211870419
21
-14.9605383827
31
0.0000000000
0
SPLINE
5
283
100
AcDbEntity
8
0
100
AcDbSpline
62
9
6
CONTINUOUS
70
0
71
3
72
11
73
7
74
5
42
0.0000001000
43
0.0000001000
44
0.0000000001
12
1.0458659555
22
4.8665714356
32
0.0000000000
13
-1.1483012235
23
4.8435249302
33
0.0000000000
40
0.0000000000
40
0.0000000000
40
0.0000000000
40
0.0000000000
40
0.2225951313
40
0.4662458343
40
0.7281575495
40
1.0000000000
40
1.0000000000
40
1.0000000000
40
1.0000000000
10
-7.6837375086
20
-14.9774510807
30
0.0000000000
10
-7.6061359520
20
-14.6163593781
30
0.0000000000
10
-7.5038844699
20
-13.8465223450
30
0.0000000000
10
-7.4952140222
20
-12.6359829675
30
0.0000000000
10
-7.6224499634
20
-11.3502763861
30
0.0000000000
10
-7.7910902837
20
-10.4795049030
30
0.0000000000
10
-7.8951426232
20
-10.0406130077
30
0.0000000000
11
-7.6837375086
21
-14.9774510807
31
0.0000000000
11
-7.5305428885
21
-13.8800840585
31
0.0000000000
11
-7.5160483470
21
-12.6673540986
31
0.0000000000
11
-7.6403960363
21
-11.3695836093
31
0.0000000000
11
-7.8951426232
21
-10.0406130077
31
0.0000000000
0
SPLINE
5
284
100
AcDbEntity
8
0
100
AcDbSpline
62
9
6
CONTINUOUS
70
0
71
3
72
8
73
4
74
2
42
0.0000001000
43
0.0000001000
44
0.0000000001
12
-0.0035678643
22
0.0150259665
32
0.0000000000
13
-0.0035820372
23
0.0150223643
33
0.0000000000
40
0.0000000000
40
0.0000000000
40
0.0000000000
40
0.0000000000
40
1.0000000000
40
1.0000000000
40
1.0000000000
40
1.0000000000
10
-7.8964493360
20
-10.0351055661
30
0.0000000000
10
-7.8976386241
20
-10.0300969106
30
0.0000000000
10
-7.8988302765
20
-10.0250888544
30
0.0000000000
10
-7.9000242889
20
-10.0200813996
30
0.0000000000
11
-7.8964493360
21
-10.0351055661
31
0.0000000000
11
-7.9000242889
21
-10.0200813996
31
0.0000000000
0
SPLINE
5
285
100
AcDbEntity
8
0
100
AcDbSpline
62
9
6
CONTINUOUS
70
0
71
3
72
8
73
4
74
2
42
0.0000001000
43
0.0000001000
44
0.0000000001
12
0.0077792762
22
0.0039287155
32
0.0000000000
13
0.0077792779
23
0.0039287120
33
0.0000000000
40
0.0000000000
40
0.0000000000
40
0.0000000000
40
0.0000000000
40
1.0000000000
40
1.0000000000
40
1.0000000000
40
1.0000000000
10
-7.9000242889
20
-10.0200813996
30
0.0000000000
10
-7.8974311969
20
-10.0187718278
30
0.0000000000
10
-7.8948381045
20
-10.0174622566
30
0.0000000000
10
-7.8922450119
20
-10.0161526859
30
0.0000000000
11
-7.9000242889
21
-10.0200813996
31
0.0000000000
11
-7.8922450119
21
-10.0161526859
31
0.0000000000
0
SPLINE
5
286
100
AcDbEntity
8
0
100
AcDbSpline
62
9
6
CONTINUOUS
70
0
71
3
72
8
73
4
74
2
42
0.0000001000
43
0.0000001000
44
0.0000000001
12
0.0036281067
22
0.0018322763
32
0.0000000000
13
0.0036281071
23
0.0018322756
33
0.0000000000
40
0.0000000000
40
0.0000000000
40
0.0000000000
40
0.0000000000
40
1.0000000000
40
1.0000000000
40
1.0000000000
40
1.0000000000
10
-7.8922450119
20
-10.0161526859
30
0.0000000000
10
-7.8910356430
20
-10.0155419271
30
0.0000000000
10
-7.8898262740
20
-10.0149311685
30
0.0000000000
10
-7.8886169050
20
-10.0143204100
30
0.0000000000
11
-7.8922450119
21
-10.0161526859
31
0.0000000000
11
-7.8886169050
21
-10.0143204100
31
0.0000000000
0
SPLINE
5
287
100
AcDbEntity
8
0
100
AcDbSpline
62
9
6
CONTINUOUS
70
0
71
3
72
8
73
4
74
2
42
0.0000001000
43
0.0000001000
44
0.0000000001
12
-0.0445882006
22
-0.0215127472
32
0.0000000000
13
-0.0445882395
23
-0.0215126666
33
0.0000000000
40
0.0000000000
40
0.0000000000
40
0.0000000000
40
0.0000000000
40
1.0000000000
40
1.0000000000
40
1.0000000000
40
1.0000000000
10
-7.6391492892
20
-14.9559383723
30
0.0000000000
10
-7.6540120228
20
-14.9631092880
30
0.0000000000
10
-7.6688747621
20
-14.9702801918
30
0.0000000000
10
-7.6837375086
20
-14.9774510807
30
0.0000000000
11
-7.6391492892
21
-14.9559383723
31
0.0000000000
11
-7.6837375086
21
-14.9774510807
31
0.0000000000
0
SPLINE
5
288
100
AcDbEntity
8
0
100
AcDbSpline
62
9
6
CONTINUOUS
70
0
71
3
72
13
73
9
74
7
42
0.0000001000
43
0.0000001000
44
0.0000000001
12
0.2364530217
22
-0.8093385832
32
0.0000000000
13
0.7540992965
23
-0.3771912311
33
0.0000000000
40
0.0000000000
40
0.0000000000
40
0.0000000000
40
0.0000000000
40
0.1695508660
40
0.3454498043
40
0.5222486088
40
0.6938130353
40
0.8542810492
40
1.0000000000
40
1.0000000000
40
1.0000000000
40
1.0000000000
10
-16.9534963444
20
-10.3943837315
30
0.0000000000
10
-16.9401327396
20
-10.4401250840
30
0.0000000000
10
-16.9063655620
20
-10.5315017061
30
0.0000000000
10
-16.8387424848
20
-10.6621556982
30
0.0000000000
10
-16.7556672271
20
-10.7842893784
30
0.0000000000
10
-16.6610512034
20
-10.8920584983
30
0.0000000000
10
-16.5595152479
20
-10.9805475310
30
0.0000000000
10
-16.4863028761
20
-11.0267345290
30
0.0000000000
10
-16.4496740233
20
-11.0450558325
30
0.0000000000
11
-16.9534963444
21
-10.3943837315
31
0.0000000000
11
-16.9043450812
21
-10.5286292853
31
0.0000000000
11
-16.8363170088
21
-10.6604205731
31
0.0000000000
11
-16.7523714850
21
-10.7836096537
31
0.0000000000
11
-16.6566314613
21
-10.8920526164
31
0.0000000000
11
-16.5541451997
21
-10.9803885267
31
0.0000000000
11
-16.4496740233
21
-11.0450558325
31
0.0000000000
0
SPLINE
5
289
100
AcDbEntity
8
0
100
AcDbSpline
62
9
6
CONTINUOUS
70
0
71
3
72
11
73
7
74
5
42
0.0000001000
43
0.0000001000
44
0.0000000001
12
-1.2858575623
22
-4.7814178010
32
0.0000000000
13
1.3807805859
23
-4.7550435576
33
0.0000000000
40
0.0000000000
40
0.0000000000
40
0.0000000000
40
0.0000000000
40
0.2272998683
40
0.4714821914
40
0.7312644644
40
1.0000000000
40
1.0000000000
40
1.0000000000
40
1.0000000000
10
-17.1673135349
20
-5.4836034737
30
0.0000000000
10
-17.2647386198
20
-5.8458753524
30
0.0000000000
10
-17.4000477673
20
-6.6163132199
30
0.0000000000
10
-17.4263738417
20
-7.8267659612
30
0.0000000000
10
-17.2830180911
20
-9.0973556284
30
0.0000000000
10
-17.0829748984
20
-9.9485537029
30
0.0000000000
10
-16.9592866283
20
-10.3745034287
30
0.0000000000
11
-17.1673135349
21
-5.4836034737
31
0.0000000000
11
-17.3676995672
21
-6.5910503075
31
0.0000000000
11
-17.3996030138
21
-7.7996495883
31
0.0000000000
11
-17.2600383164
21
-9.0783158299
31
0.0000000000
11
-16.9592866283
21
-10.3745034287
31
0.0000000000
0
SPLINE
5
28A
100
AcDbEntity
8
0
100
AcDbSpline
62
9
6
CONTINUOUS
70
0
71
3
72
8
73
4
74
2
42
0.0000001000
43
0.0000001000
44
0.0000000001
12
0.0057743379
22
-0.0198852942
32
0.0000000000
13
0.0058062132
23
-0.0198753029
33
0.0000000000
40
0.0000000000
40
0.0000000000
40
0.0000000000
40
0.0000000000
40
1.0000000000
40
1.0000000000
40
1.0000000000
40
1.0000000000
10
-16.9592866283
20
-10.3745034287
30
0.0000000000
10
-16.9573618490
20
-10.3811318601
30
0.0000000000
10
-16.9554317488
20
-10.3877586305
30
0.0000000000
10
-16.9534963444
20
-10.3943837315
30
0.0000000000
11
-16.9592866283
21
-10.3745034287
31
0.0000000000
11
-16.9534963444
21
-10.3943837315
31
0.0000000000
0
SPLINE
5
28B
100
AcDbEntity
8
0
100
AcDbSpline
62
9
6
CONTINUOUS
70
0
71
3
72
11
73
7
74
5
42
0.0000001000
43
0.0000001000
44
0.0000000001
12
-0.3330699276
22
0.1662304107
32
0.0000000000
13
-0.3324906239
23
-0.1714940906
33
0.0000000000
40
0.0000000000
40
0.0000000000
40
0.0000000000
40
0.0000000000
40
0.3406641602
40
0.6463179525
40
0.9290984244
40
1.0000000000
40
1.0000000000
40
1.0000000000
40
1.0000000000
10
-16.6300100880
20
-5.1711704067
30
0.0000000000
10
-16.6678317503
20
-5.1522941589
30
0.0000000000
10
-16.7434066057
20
-5.1231901535
30
0.0000000000
10
-16.8594396335
20
-5.1099054481
30
0.0000000000
10
-16.9411770280
20
-5.1266578368
30
0.0000000000
10
-16.9812718488
20
-5.1451046235
30
0.0000000000
10
-16.9891298851
20
-5.1491576905
30
0.0000000000
11
-16.6300100880
21
-5.1711704067
31
0.0000000000
11
-16.7489290545
21
-5.1271318181
31
0.0000000000
11
-16.8621504067
21
-5.1158824908
31
0.0000000000
11
-16.9650457356
21
-5.1380888668
31
0.0000000000
11
-16.9891298851
21
-5.1491576905
31
0.0000000000
0
SPLINE
5
28C
100
AcDbEntity
8
0
100
AcDbSpline
62
9
6
CONTINUOUS
70
0
71
3
72
9
73
5
74
3
42
0.0000001000
43
0.0000001000
44
0.0000000001
12
0.0041668740
22
-0.0543177489
32
0.0000000000
13
0.0495192197
23
-0.0256681725
33
0.0000000000
40
0.0000000000
40
0.0000000000
40
0.0000000000
40
0.0000000000
40
0.6587948955
40
1.0000000000
40
1.0000000000
40
1.0000000000
40
1.0000000000
10
-8.2635002877
20
-15.1381427003
30
0.0000000000
10
-8.2625852493
20
-15.1500707856
30
0.0000000000
10
-8.2580676113
20
-15.1690538311
30
0.0000000000
10
-8.2433187725
20
-15.1814044800
30
0.0000000000
10
-8.2376867023
20
-15.1843238505
30
0.0000000000
11
-8.2635002877
21
-15.1381427003
31
0.0000000000
11
-8.2521924048
21
-15.1722041213
31
0.0000000000
11
-8.2376867023
21
-15.1843238505
31
0.0000000000
0
SPLINE
5
28D
100
AcDbEntity
8
0
100
AcDbSpline
62
9
6
CONTINUOUS
70
0
71
3
72
9
73
5
74
3
42
0.0000001000
43
0.0000001000
44
0.0000000001
12
-0.0299881256
22
0.0043587121
32
0.0000000000
13
-0.0047422831
23
0.0297688126
33
0.0000000000
40
0.0000000000
40
0.0000000000
40
0.0000000000
40
0.0000000000
40
0.8374591929
40
1.0000000000
40
1.0000000000
40
1.0000000000
40
1.0000000000
10
-16.9534961485
20
-10.3943836131
30
0.0000000000
10
-16.9618674256
20
-10.3931668653
30
0.0000000000
10
-16.9749978961
20
-10.3906770127
30
0.0000000000
10
-16.9779923988
20
-10.3813811071
30
0.0000000000
10
-16.9782493370
20
-10.3797682249
30
0.0000000000
11
-16.9534961485
21
-10.3943836131
31
0.0000000000
11
-16.9767511537
21
-10.3842232225
31
0.0000000000
11
-16.9782493370
21
-10.3797682249
31
0.0000000000
0
SPLINE
5
28E
100
AcDbEntity
8
0
100
AcDbSpline
62
7
6
CONTINUOUS
70
0
71
3
72
8
73
4
74
2
42
0.0000001000
43
0.0000001000
44
0.0000000001
12
0.0254089225
22
-0.0127079826
32
0.0000000000
13
0.0259416846
23
-0.0116666857
33
0.0000000000
40
0.0000000000
40
0.0000000000
40
0.0000000000
40
0.0000000000
40
1.0000000000
40
1.0000000000
40
1.0000000000
40
1.0000000000
10
-8.2378180334
20
-15.1845498656
30
0.0000000000
10
-8.2293483926
20
-15.1887858598
30
0.0000000000
10
-8.2207875392
20
-15.1928575710
30
0.0000000000
10
-8.2121403110
20
-15.1967464662
30
0.0000000000
11
-8.2378180334
21
-15.1845498656
31
0.0000000000
11
-8.2121403110
21
-15.1967464662
31
0.0000000000
0
SPLINE
5
28F
100
AcDbEntity
8
0
100
AcDbSpline
62
7
6
CONTINUOUS
70
0
71
3
72
8
73
4
74
2
42
0.0000001000
43
0.0000001000
44
0.0000000001
12
0.0553463577
22
-0.0248907722
32
0.0000000000
13
0.0575643724
23
-0.0193580084
33
0.0000000000
40
0.0000000000
40
0.0000000000
40
0.0000000000
40
0.0000000000
40
1.0000000000
40
1.0000000000
40
1.0000000000
40
1.0000000000
10
-8.2121403110
20
-15.1967464662
30
0.0000000000
10
-8.1936915251
20
-15.2050433903
30
0.0000000000
10
-8.1748495797
20
-15.2125081755
30
0.0000000000
10
-8.1556614556
20
-15.2189608449
30
0.0000000000
11
-8.2121403110
21
-15.1967464662
31
0.0000000000
11
-8.1556614556
21
-15.2189608449
31
0.0000000000
0
SPLINE
5
290
100
AcDbEntity
8
0
100
AcDbSpline
62
7
6
CONTINUOUS
70
0
71
3
72
10
73
6
74
4
42
0.0000001000
43
0.0000001000
44
0.0000000001
12
0.2964027338
22
-0.0996756564
32
0.0000000000
13
0.2826916441
23
0.1353526432
33
0.0000000000
40
0.0000000000
40
0.0000000000
40
0.0000000000
40
0.0000000000
40
0.1601735298
40
0.6141655829
40
1.0000000000
40
1.0000000000
40
1.0000000000
40
1.0000000000
10
-8.1556614556
20
-15.2189608449
30
0.0000000000
10
-8.1398361649
20
-15.2242826455
30
0.0000000000
10
-8.0782531584
20
-15.2420486785
30
0.0000000000
10
-7.9729761404
20
-15.2520781945
30
0.0000000000
10
-7.8866011959
20
-15.2290907030
30
0.0000000000
10
-7.8502438074
20
-15.2116828003
30
0.0000000000
11
-8.1556614556
21
-15.2189608449
31
0.0000000000
11
-8.1075055241
21
-15.2327599492
31
0.0000000000
11
-7.9663966953
21
-15.2435828359
31
0.0000000000
11
-7.8502438074
21
-15.2116828003
31
0.0000000000
0
SPLINE
5
291
100
AcDbEntity
8
0
100
AcDbSpline
62
7
6
CONTINUOUS
70
0
71
3
72
8
73
4
74
2
42
0.0000001000
43
0.0000001000
44
0.0000000001
12
0.0060817853
22
-0.0208120860
32
0.0000000000
13
0.0064848162
23
-0.0206977156
33
0.0000000000
40
0.0000000000
40
0.0000000000
40
0.0000000000
40
0.0000000000
40
1.0000000000
40
1.0000000000
40
1.0000000000
40
1.0000000000
10
-16.9790247985
20
-10.3798915433
30
0.0000000000
10
-16.9769975367
20
-10.3868289053
30
0.0000000000
10
-16.9749022047
20
-10.3937477149
30
0.0000000000
10
-16.9727405993
20
-10.4006469534
30
0.0000000000
11
-16.9790247985
21
-10.3798915433
31
0.0000000000
11
-16.9727405993
21
-10.4006469534
31
0.0000000000
0
SPLINE
5
292
100
AcDbEntity
8
0
100
AcDbSpline
62
7
6
CONTINUOUS
70
0
71
3
72
8
73
4
74
2
42
0.0000001000
43
0.0000001000
44
0.0000000001
12
0.0104405765
22
-0.0333233936
32
0.0000000000
13
0.0114488091
23
-0.0330062553
33
0.0000000000
40
0.0000000000
40
0.0000000000
40
0.0000000000
40
0.0000000000
40
1.0000000000
40
1.0000000000
40
1.0000000000
40
1.0000000000
10
-16.9727405993
20
-10.4006469534
30
0.0000000000
10
-16.9692604071
20
-10.4117547513
30
0.0000000000
10
-16.9656084269
20
-10.4228118186
30
0.0000000000
10
-16.9617921572
20
-10.4338139037
30
0.0000000000
11
-16.9727405993
21
-10.4006469534
31
0.0000000000
11
-16.9617921572
21
-10.4338139037
31
0.0000000000
0
SPLINE
5
293
100
AcDbEntity
8
0
100
AcDbSpline
62
7
6
CONTINUOUS
70
0
71
3
72
8
73
4
74
2
42
0.0000001000
43
0.0000001000
44
0.0000000001
12
0.0043148263
22
-0.0124393950
32
0.0000000000
13
0.0044536346
23
-0.0123918547
33
0.0000000000
40
0.0000000000
40
0.0000000000
40
0.0000000000
40
0.0000000000
40
1.0000000000
40
1.0000000000
40
1.0000000000
40
1.0000000000
10
-16.9617921572
20
-10.4338139037
30
0.0000000000
10
-16.9603538817
20
-10.4379603687
30
0.0000000000
10
-16.9588922709
20
-10.4420990241
30
0.0000000000
10
-16.9574077260
20
-10.4462296424
30
0.0000000000
11
-16.9617921572
21
-10.4338139037
31
0.0000000000
11
-16.9574077260
21
-10.4462296424
31
0.0000000000
0
SPLINE
5
294
100
AcDbEntity
8
0
100
AcDbSpline
62
7
6
CONTINUOUS
70
0
71
3
72
11
73
7
74
5
42
0.0000001000
43
0.0000001000
44
0.0000000001
12
0.2445662282
22
-0.6804844588
32
0.0000000000
13
0.5858570136
23
-0.4254787716
33
0.0000000000
40
0.0000000000
40
0.0000000000
40
0.0000000000
40
0.0000000000
40
0.1003647757
40
0.4069064641
40
0.7111536621
40
1.0000000000
40
1.0000000000
40
1.0000000000
40
1.0000000000
10
-16.9574077260
20
-10.4462296424
30
0.0000000000
10
-16.9492257811
20
-10.4689951991
30
0.0000000000
10
-16.9132295629
20
-10.5603032490
30
0.0000000000
10
-16.8322366767
20
-10.7117750977
30
0.0000000000
10
-16.6997958942
20
-10.8842692616
30
0.0000000000
10
-16.5939084699
20
-10.9809841920
30
0.0000000000
10
-16.5375009189
20
-11.0219501870
30
0.0000000000
11
-16.9574077260
21
-10.4462296424
31
0.0000000000
11
-16.9308391817
21
-10.5137558036
31
0.0000000000
11
-16.8268481642
21
-10.7089935482
31
0.0000000000
11
-16.6926407186
21
-10.8827476640
31
0.0000000000
11
-16.5375009189
21
-11.0219501870
31
0.0000000000
0
SPLINE
5
295
100
AcDbEntity
8
0
100
AcDbSpline
62
7
6
CONTINUOUS
70
0
71
3
72
8
73
4
74
2
42
0.0000001000
43
0.0000001000
44
0.0000000001
12
0.0613636464
22
-0.0445653603
32
0.0000000000
13
0.0650700962
23
-0.0390083318
33
0.0000000000
40
0.0000000000
40
0.0000000000
40
0.0000000000
40
0.0000000000
40
1.0000000000
40
1.0000000000
40
1.0000000000
40
1.0000000000
10
-16.5375009189
20
-11.0219501870
30
0.0000000000
10
-16.5170463701
20
-11.0368053071
30
0.0000000000
10
-16.4959555716
20
-11.0508536112
30
0.0000000000
10
-16.4742655396
20
-11.0638563885
30
0.0000000000
11
-16.5375009189
21
-11.0219501870
31
0.0000000000
11
-16.4742655396
21
-11.0638563885
31
0.0000000000
0
SPLINE
5
296
100
AcDbEntity
8
0
100
AcDbSpline
62
7
6
CONTINUOUS
70
0
71
3
72
8
73
4
74
2
42
0.0000001000
43
0.0000001000
44
0.0000000001
12
0.0105621836
22
-0.0063318358
32
0.0000000000
13
0.0106564396
23
-0.0061634890
33
0.0000000000
40
0.0000000000
40
0.0000000000
40
0.0000000000
40
0.0000000000
40
1.0000000000
40
1.0000000000
40
1.0000000000
40
1.0000000000
10
-16.4742655396
20
-11.0638563885
30
0.0000000000
10
-16.4707448117
20
-11.0659670004
30
0.0000000000
10
-16.4672082953
20
-11.0680500650
30
0.0000000000
10
-16.4636561488
20
-11.0701045613
30
0.0000000000
11
-16.4742655396
21
-11.0638563885
31
0.0000000000
11
-16.4636561488
21
-11.0701045613
31
0.0000000000
0
SPLINE
5
297
100
AcDbEntity
8
0
100
AcDbSpline
62
7
6
CONTINUOUS
70
0
71
3
72
8
73
4
74
2
42
0.0000001000
43
0.0000001000
44
0.0000000001
12
0.0391533065
22
-0.0226455535
32
0.0000000000
13
0.0403957339
23
-0.0201797301
33
0.0000000000
40
0.0000000000
40
0.0000000000
40
0.0000000000
40
0.0000000000
40
1.0000000000
40
1.0000000000
40
1.0000000000
40
1.0000000000
10
-16.4636561488
20
-11.0701045613
30
0.0000000000
10
-16.4506050466
20
-11.0776530791
30
0.0000000000
10
-16.4373429473
20
-11.0848159443
30
0.0000000000
10
-16.4238777027
20
-11.0915425210
30
0.0000000000
11
-16.4636561488
21
-11.0701045613
31
0.0000000000
11
-16.4238777027
21
-11.0915425210
31
0.0000000000
0
SPLINE
5
298
100
AcDbEntity
8
0
100
AcDbSpline
62
7
6
CONTINUOUS
70
0
71
3
72
8
73
4
74
2
42
0.0000001000
43
0.0000001000
44
0.0000000001
12
-0.0143570056
22
-0.0533106134
32
0.0000000000
13
-0.0138998351
23
-0.0534394868
33
0.0000000000
40
0.0000000000
40
0.0000000000
40
0.0000000000
40
0.0000000000
40
1.0000000000
40
1.0000000000
40
1.0000000000
40
1.0000000000
10
-17.1931723099
20
-5.4204982335
30
0.0000000000
10
-17.1979579784
20
-5.4382684380
30
0.0000000000
10
-17.2026671863
20
-5.4560605218
30
0.0000000000
10
-17.2073004647
20
-5.4738736841
30
0.0000000000
11
-17.1931723099
21
-5.4204982335
31
0.0000000000
11
-17.2073004647
21
-5.4738736841
31
0.0000000000
0
SPLINE
5
299
100
AcDbEntity
8
0
100
AcDbSpline
62
7
6
CONTINUOUS
70
0
71
3
72
8
73
4
74
2
42
0.0000001000
43
0.0000001000
44
0.0000000001
12
-0.0578805231
22
-0.2225282127
32
0.0000000000
13
-0.0500958934
23
-0.2245477026
33
0.0000000000
40
0.0000000000
40
0.0000000000
40
0.0000000000
40
0.0000000000
40
1.0000000000
40
1.0000000000
40
1.0000000000
40
1.0000000000
10
-17.2073004647
20
-5.4738736841
30
0.0000000000
10
-17.2265939724
20
-5.5480497550
30
0.0000000000
10
-17.2445708715
20
-5.6225913232
30
0.0000000000
10
-17.2612695027
20
-5.6974405574
30
0.0000000000
11
-17.2073004647
21
-5.4738736841
31
0.0000000000
11
-17.2612695027
21
-5.6974405574
31
0.0000000000
0
SPLINE
5
29A
100
AcDbEntity
8
0
100
AcDbSpline
62
7
6
CONTINUOUS
70
0
71
3
72
11
73
7
74
5
42
0.0000001000
43
0.0000001000
44
0.0000000001
12
-0.9535988484
22
-4.2743709354
32
0.0000000000
13
1.1084964254
23
-4.2351737390
33
0.0000000000
40
0.0000000000
40
0.0000000000
40
0.0000000000
40
0.0000000000
40
0.1883761615
40
0.4736707054
40
0.7772499884
40
1.0000000000
40
1.0000000000
40
1.0000000000
40
1.0000000000
10
-17.2612695027
20
-5.6974405574
30
0.0000000000
10
-17.3211479329
20
-5.9658370873
30
0.0000000000
10
-17.4303831952
20
-6.6506659088
30
0.0000000000
10
-17.4574444014
20
-7.7877862109
30
0.0000000000
10
-17.3229264357
20
-8.9672049789
30
0.0000000000
10
-17.1575569094
20
-9.7181456518
30
0.0000000000
10
-17.0752510455
20
-10.0326073184
30
0.0000000000
11
-17.2612695027
21
-5.6974405574
31
0.0000000000
11
-17.3933640151
21
-6.5118317673
31
0.0000000000
11
-17.4290873481
21
-7.7596747635
31
0.0000000000
11
-17.2835353898
21
-9.0800386242
31
0.0000000000
11
-17.0752510455
21
-10.0326073184
31
0.0000000000
0
SPLINE
5
29B
100
AcDbEntity
8
0
100
AcDbSpline
62
7
6
CONTINUOUS
70
0
71
3
72
8
73
4
74
2
42
0.0000001000
43
0.0000001000
44
0.0000000001
12
0.0912675002
22
-0.3487009169
32
0.0000000000
13
0.1011121797
23
-0.3458272654
33
0.0000000000
40
0.0000000000
40
0.0000000000
40
0.0000000000
40
0.0000000000
40
1.0000000000
40
1.0000000000
40
1.0000000000
40
1.0000000000
10
-17.0752510455
20
-10.0326073184
30
0.0000000000
10
-17.0448285455
20
-10.1488409573
30
0.0000000000
10
-17.0127229506
20
-10.2646173060
30
0.0000000000
10
-16.9790188907
20
-10.3798930612
30
0.0000000000
11
-17.0752510455
21
-10.0326073184
31
0.0000000000
11
-16.9790188907
21
-10.3798930612
31
0.0000000000
0
SPLINE
5
29C
100
AcDbEntity
8
0
100
AcDbSpline
62
7
6
CONTINUOUS
70
0
71
3
72
10
73
6
74
4
42
0.0000001000
43
0.0000001000
44
0.0000000001
12
-0.3103317484
22
-0.1598383052
32
0.0000000000
13
-0.0909041676
23
-0.3375358827
33
0.0000000000
40
0.0000000000
40
0.0000000000
40
0.0000000000
40
0.0000000000
40
0.3215067934
40
0.7213570672
40
1.0000000000
40
1.0000000000
40
1.0000000000
40
1.0000000000
10
-16.9888434197
20
-5.1489895754
30
0.0000000000
10
-17.0221013415
20
-5.1661192757
30
0.0000000000
10
-17.0910812767
20
-5.2167652117
30
0.0000000000
10
-17.1576823583
20
-5.3144206580
30
0.0000000000
10
-17.1847131723
20
-5.3891069989
30
0.0000000000
10
-17.1931564402
20
-5.4204576617
30
0.0000000000
11
-16.9888434197
21
-5.1489895754
31
0.0000000000
11
-17.0794306578
21
-5.2151976690
31
0.0000000000
11
-17.1594487896
21
-5.3291841777
31
0.0000000000
11
-17.1931564402
21
-5.4204576617
31
0.0000000000
0
SPLINE
5
29D
100
AcDbEntity
8
0
100
AcDbSpline
62
7
6
CONTINUOUS
70
0
71
3
72
8
73
4
74
2
42
0.0000001000
43
0.0000001000
44
0.0000000001
12
0.1691727488
22
0.0817049015
32
0.0000000000
13
0.1691726759
23
0.0817050524
33
0.0000000000
40
0.0000000000
40
0.0000000000
40
0.0000000000
40
0.0000000000
40
1.0000000000
40
1.0000000000
40
1.0000000000
40
1.0000000000
10
-7.8496149143
20
-15.2113946368
30
0.0000000000
10
-7.7932239980
20
-15.1841596697
30
0.0000000000
10
-7.7368330939
20
-15.1569246774
30
0.0000000000
10
-7.6804422019
20
-15.1296896599
30
0.0000000000
11
-7.8496149143
21
-15.2113946368
31
0.0000000000
11
-7.6804422019
21
-15.1296896599
31
0.0000000000
0
SPLINE
5
29E
100
AcDbEntity
8
0
100
AcDbSpline
62
7
6
CONTINUOUS
70
0
71
3
72
8
73
4
74
2
42
0.0000001000
43
0.0000001000
44
0.0000000001
12
-0.0062590156
22
-0.0032375111
32
0.0000000000
13
-0.0062590154
23
-0.0032375113
33
0.0000000000
40
0.0000000000
40
0.0000000000
40
0.0000000000
40
0.0000000000
40
1.0000000000
40
1.0000000000
40
1.0000000000
40
1.0000000000
10
-16.9835526647
20
-5.1462360315
30
0.0000000000
10
-16.9856390032
20
-5.1473152019
30
0.0000000000
10
-16.9877253417
20
-5.1483943723
30
0.0000000000
10
-16.9898116802
20
-5.1494735427
30
0.0000000000
11
-16.9835526647
21
-5.1462360315
31
0.0000000000
11
-16.9898116802
21
-5.1494735427
31
0.0000000000
0
SPLINE
5
29F
100
AcDbEntity
8
0
100
AcDbSpline
62
9
6
CONTINUOUS
70
0
71
3
72
11
73
7
74
5
42
0.0000001000
43
0.0000001000
44
0.0000000001
12
-1.2858575623
22
-4.7814178010
32
0.0000000000
13
1.3807805859
23
-4.7550435576
33
0.0000000000
40
0.0000000000
40
0.0000000000
40
0.0000000000
40
0.0000000000
40
0.2272998683
40
0.4714821914
40
0.7312644644
40
1.0000000000
40
1.0000000000
40
1.0000000000
40
1.0000000000
10
-17.1673135349
20
-5.4836034737
30
0.0000000000
10
-17.2647386198
20
-5.8458753524
30
0.0000000000
10
-17.4000477673
20
-6.6163132199
30
0.0000000000
10
-17.4263738417
20
-7.8267659612
30
0.0000000000
10
-17.2830180911
20
-9.0973556284
30
0.0000000000
10
-17.0829748984
20
-9.9485537029
30
0.0000000000
10
-16.9592866283
20
-10.3745034287
30
0.0000000000
11
-17.1673135349
21
-5.4836034737
31
0.0000000000
11
-17.3676995672
21
-6.5910503075
31
0.0000000000
11
-17.3996030138
21
-7.7996495883
31
0.0000000000
11
-17.2600383164
21
-9.0783158299
31
0.0000000000
11
-16.9592866283
21
-10.3745034287
31
0.0000000000
0
SPLINE
5
2A0
100
AcDbEntity
8
0
100
AcDbSpline
62
9
6
CONTINUOUS
70
0
71
3
72
8
73
4
74
2
42
0.0000001000
43
0.0000001000
44
0.0000000001
12
0.0057743379
22
-0.0198852942
32
0.0000000000
13
0.0058062132
23
-0.0198753029
33
0.0000000000
40
0.0000000000
40
0.0000000000
40
0.0000000000
40
0.0000000000
40
1.0000000000
40
1.0000000000
40
1.0000000000
40
1.0000000000
10
-16.9592866283
20
-10.3745034287
30
0.0000000000
10
-16.9573618490
20
-10.3811318601
30
0.0000000000
10
-16.9554317488
20
-10.3877586305
30
0.0000000000
10
-16.9534963444
20
-10.3943837315
30
0.0000000000
11
-16.9592866283
21
-10.3745034287
31
0.0000000000
11
-16.9534963444
21
-10.3943837315
31
0.0000000000
0
SPLINE
5
2A1
100
AcDbEntity
8
0
100
AcDbSpline
62
9
6
CONTINUOUS
70
0
71
3
72
8
73
4
74
2
42
0.0000001000
43
0.0000001000
44
0.0000000001
12
-0.0425223563
22
-0.0480265424
32
0.0000000000
13
-0.0319628899
23
-0.0556632106
33
0.0000000000
40
0.0000000000
40
0.0000000000
40
0.0000000000
40
0.0000000000
40
1.0000000000
40
1.0000000000
40
1.0000000000
40
1.0000000000
10
-17.0910885122
20
-5.3351824307
30
0.0000000000
10
-17.1052626309
20
-5.3511912782
30
0.0000000000
10
-17.1176694600
20
-5.3687870431
30
0.0000000000
10
-17.1283237567
20
-5.3873414466
30
0.0000000000
11
-17.0910885122
21
-5.3351824307
31
0.0000000000
11
-17.1283237567
21
-5.3873414466
31
0.0000000000
0
SPLINE
5
2A2
100
AcDbEntity
8
0
100
AcDbSpline
62
9
6
CONTINUOUS
70
0
71
3
72
8
73
4
74
2
42
0.0000001000
43
0.0000001000
44
0.0000000001
12
-0.0338646741
22
-0.0589751581
32
0.0000000000
13
-0.0228379501
23
-0.0639508396
33
0.0000000000
40
0.0000000000
40
0.0000000000
40
0.0000000000
40
0.0000000000
40
1.0000000000
40
1.0000000000
40
1.0000000000
40
1.0000000000
10
-17.1283237567
20
-5.3873414466
30
0.0000000000
10
-17.1396119813
20
-5.4069998326
30
0.0000000000
10
-17.1489329187
20
-5.4277343286
30
0.0000000000
10
-17.1565455688
20
-5.4490512752
30
0.0000000000
11
-17.1283237567
21
-5.3873414466
31
0.0000000000
11
-17.1565455688
21
-5.4490512752
31
0.0000000000
0
SPLINE
5
2A3
100
AcDbEntity
8
0
100
AcDbSpline
62
9
6
CONTINUOUS
70
0
71
3
72
8
73
4
74
2
42
0.0000001000
43
0.0000001000
44
0.0000000001
12
-0.0121882549
22
-0.0341295576
32
0.0000000000
13
-0.0093870463
23
-0.0348998015
33
0.0000000000
40
0.0000000000
40
0.0000000000
40
0.0000000000
40
0.0000000000
40
1.0000000000
40
1.0000000000
40
1.0000000000
40
1.0000000000
10
-17.1565455688
20
-5.4490512752
30
0.0000000000
10
-17.1606083204
20
-5.4604277943
30
0.0000000000
10
-17.1641845195
20
-5.4719702065
30
0.0000000000
10
-17.1673135349
20
-5.4836034737
30
0.0000000000
11
-17.1565455688
21
-5.4490512752
31
0.0000000000
11
-17.1673135349
21
-5.4836034737
31
0.0000000000
0
SPLINE
5
2A4
100
AcDbEntity
8
0
100
AcDbSpline
62
9
6
CONTINUOUS
70
0
71
3
72
13
73
9
74
7
42
0.0000001000
43
0.0000001000
44
0.0000000001
12
-0.1950197944
22
0.8180706665
32
0.0000000000
13
-0.7521486584
23
0.3762243099
33
0.0000000000
40
0.0000000000
40
0.0000000000
40
0.0000000000
40
0.0000000000
40
0.1707781318
40
0.3469736371
40
0.5234031574
40
0.6942976363
40
0.8542218320
40
1.0000000000
40
1.0000000000
40
1.0000000000
40
1.0000000000
10
-8.0377173230
20
-10.0484015796
30
0.0000000000
10
-8.0488190284
20
-10.0018320529
30
0.0000000000
10
-8.0780912173
20
-9.9087163186
30
0.0000000000
10
-8.1397492276
20
-9.7751695002
30
0.0000000000
10
-8.2177509658
20
-9.6503766874
30
0.0000000000
10
-8.3086004538
20
-9.5403895847
30
0.0000000000
10
-8.4079556386
20
-9.4503486190
30
0.0000000000
10
-8.4806238233
20
-9.4038293353
30
0.0000000000
10
-8.5171727744
20
-9.3855475718
30
0.0000000000
11
-8.0377173230
21
-10.0484015796
31
0.0000000000
11
-8.0804448305
21
-9.9112809094
31
0.0000000000
11
-8.1424678491
21
-9.7767063462
31
0.0000000000
11
-8.2212739308
21
-9.6509878783
31
0.0000000000
11
-8.3131576561
21
-9.5404744625
31
0.0000000000
11
-8.4133509964
21
-9.4507509214
31
0.0000000000
11
-8.5171727744
21
-9.3855475718
31
0.0000000000
0
SPLINE
5
2A5
100
AcDbEntity
8
0
100
AcDbSpline
62
9
6
CONTINUOUS
70
0
71
3
72
8
73
4
74
2
42
0.0000001000
43
0.0000001000
44
0.0000000001
12
0.1113071248
22
0.5207011366
32
0.0000000000
13
0.0734284570
23
0.5278781483
33
0.0000000000
40
0.0000000000
40
0.0000000000
40
0.0000000000
40
0.0000000000
40
1.0000000000
40
1.0000000000
40
1.0000000000
40
1.0000000000
10
-7.8211870419
20
-14.9605383827
30
0.0000000000
10
-7.7840846670
20
-14.7869713372
30
0.0000000000
10
-7.7536755690
20
-14.6119135915
30
0.0000000000
10
-7.7291994166
20
-14.4359542088
30
0.0000000000
11
-7.8211870419
21
-14.9605383827
31
0.0000000000
11
-7.7291994166
21
-14.4359542088
31
0.0000000000
0
SPLINE
5
2A6
100
AcDbEntity
8
0
100
AcDbSpline
62
9
6
CONTINUOUS
70
0
71
3
72
11
73
7
74
5
42
0.0000001000
43
0.0000001000
44
0.0000000001
12
0.6096164922
22
4.3825410236
32
0.0000000000
13
-1.0250398335
23
4.3001383168
33
0.0000000000
40
0.0000000000
40
0.0000000000
40
0.0000000000
40
0.0000000000
40
0.1277603575
40
0.3996929728
40
0.6920314963
40
1.0000000000
40
1.0000000000
40
1.0000000000
40
1.0000000000
10
-7.7291994166
20
-14.4359542088
30
0.0000000000
10
-7.7032378096
20
-14.2493158728
30
0.0000000000
10
-7.6429002658
20
-13.6622520856
30
0.0000000000
10
-7.6361675663
20
-12.6405276647
30
0.0000000000
10
-7.7633376949
20
-11.3594666911
30
0.0000000000
10
-7.9324906617
20
-10.4898373006
30
0.0000000000
10
-8.0377173230
20
-10.0484015796
30
0.0000000000
11
-7.7291994166
21
-14.4359542088
31
0.0000000000
11
-7.6704320729
21
-13.8736989592
31
0.0000000000
11
-7.6567476859
21
-12.6716656310
31
0.0000000000
11
-7.7804175030
21
-11.3852785811
31
0.0000000000
11
-8.0377173230
21
-10.0484015796
31
0.0000000000
0
SPLINE
5
2A7
100
AcDbEntity
8
0
100
AcDbSpline
62
9
6
CONTINUOUS
70
0
71
3
72
8
73
4
74
2
42
0.0000001000
43
0.0000001000
44
0.0000000001
12
0.0362511494
22
-0.0181187690
32
0.0000000000
13
0.0375119499
23
-0.0155454041
33
0.0000000000
40
0.0000000000
40
0.0000000000
40
0.0000000000
40
0.0000000000
40
1.0000000000
40
1.0000000000
40
1.0000000000
40
1.0000000000
10
-8.2635002877
20
-15.1381427003
30
0.0000000000
10
-8.2514165712
20
-15.1441822900
30
0.0000000000
10
-8.2391141800
20
-15.1498369589
30
0.0000000000
10
-8.2266101967
20
-15.1550187602
30
0.0000000000
11
-8.2635002877
21
-15.1381427003
31
0.0000000000
11
-8.2266101967
21
-15.1550187602
31
0.0000000000
0
SPLINE
5
2A8
100
AcDbEntity
8
0
100
AcDbSpline
62
9
6
CONTINUOUS
70
0
71
3
72
8
73
4
74
2
42
0.0000001000
43
0.0000001000
44
0.0000000001
12
0.0316727807
22
-0.0131255820
32
0.0000000000
13
0.0325042316
23
-0.0109441031
33
0.0000000000
40
0.0000000000
40
0.0000000000
40
0.0000000000
40
0.0000000000
40
1.0000000000
40
1.0000000000
40
1.0000000000
40
1.0000000000
10
-8.2266101967
20
-15.1550187602
30
0.0000000000
10
-8.2160526032
20
-15.1593939542
30
0.0000000000
10
-8.2053512931
20
-15.1634320375
30
0.0000000000
10
-8.1945165492
20
-15.1670800719
30
0.0000000000
11
-8.2266101967
21
-15.1550187602
31
0.0000000000
11
-8.1945165492
21
-15.1670800719
31
0.0000000000
0
SPLINE
5
2A9
100
AcDbEntity
8
0
100
AcDbSpline
62
9
6
CONTINUOUS
70
0
71
3
72
8
73
4
74
2
42
0.0000001000
43
0.0000001000
44
0.0000000001
12
0.0331017833
22
-0.0111452974
32
0.0000000000
13
0.0338995123
23
-0.0085504306
33
0.0000000000
40
0.0000000000
40
0.0000000000
40
0.0000000000
40
0.0000000000
40
1.0000000000
40
1.0000000000
40
1.0000000000
40
1.0000000000
10
-8.1945165492
20
-15.1670800719
30
0.0000000000
10
-8.1834826215
20
-15.1707951710
30
0.0000000000
10
-8.1723103088
20
-15.1741057483
30
0.0000000000
10
-8.1610104713
20
-15.1769558918
30
0.0000000000
11
-8.1945165492
21
-15.1670800719
31
0.0000000000
11
-8.1610104713
21
-15.1769558918
31
0.0000000000
0
SPLINE
5
2AA
100
AcDbEntity
8
0
100
AcDbSpline
62
9
6
CONTINUOUS
70
0
71
3
72
8
73
4
74
2
42
0.0000001000
43
0.0000001000
44
0.0000000001
12
0.0326987854
22
-0.0082475728
32
0.0000000000
13
0.0332890804
23
-0.0054421497
33
0.0000000000
40
0.0000000000
40
0.0000000000
40
0.0000000000
40
0.0000000000
40
1.0000000000
40
1.0000000000
40
1.0000000000
40
1.0000000000
10
-8.1610104713
20
-15.1769558918
30
0.0000000000
10
-8.1501108762
20
-15.1797050828
30
0.0000000000
10
-8.1390926303
20
-15.1820258797
30
0.0000000000
10
-8.1279962701
20
-15.1838399296
30
0.0000000000
11
-8.1610104713
21
-15.1769558918
31
0.0000000000
11
-8.1279962701
21
-15.1838399296
31
0.0000000000
0
SPLINE
5
2AB
100
AcDbEntity
8
0
100
AcDbSpline
62
9
6
CONTINUOUS
70
0
71
3
72
10
73
6
74
4
42
0.0000001000
43
0.0000001000
44
0.0000000001
12
0.1780154712
22
-0.0291022411
32
0.0000000000
13
0.1580972028
23
0.0878131176
33
0.0000000000
40
0.0000000000
40
0.0000000000
40
0.0000000000
40
0.0000000000
40
0.3540136755
40
0.8433476407
40
1.0000000000
40
1.0000000000
40
1.0000000000
40
1.0000000000
10
-8.1279962701
20
-15.1838399296
30
0.0000000000
10
-8.1069896331
20
-15.1872741267
30
0.0000000000
10
-8.0562797451
20
-15.1911287982
30
0.0000000000
10
-7.9961173282
20
-15.1799011410
30
0.0000000000
10
-7.9609206527
20
-15.1631085682
30
0.0000000000
10
-7.9526652194
20
-15.1585231909
30
0.0000000000
11
-8.1279962701
21
-15.1838399296
31
0.0000000000
11
-8.0644115329
21
-15.1881625807
31
0.0000000000
11
-7.9782067832
21
-15.1706920047
31
0.0000000000
11
-7.9526652194
21
-15.1585231909
31
0.0000000000
0
SPLINE
5
2AC
100
AcDbEntity
8
0
100
AcDbSpline
62
9
6
CONTINUOUS
70
0
71
3
72
9
73
5
74
3
42
0.0000001000
43
0.0000001000
44
0.0000000001
12
0.0749802208
22
0.0416468276
32
0.0000000000
13
0.0549156672
23
0.0656559611
33
0.0000000000
40
0.0000000000
40
0.0000000000
40
0.0000000000
40
0.0000000000
40
0.6623705803
40
1.0000000000
40
1.0000000000
40
1.0000000000
40
1.0000000000
10
-7.9526652194
20
-15.1585231909
30
0.0000000000
10
-7.9361103220
20
-15.1493279798
30
0.0000000000
10
-7.9128156116
20
-15.1323302182
30
0.0000000000
10
-7.8932641803
20
-15.1115081604
30
0.0000000000
10
-7.8870837986
20
-15.1041190323
30
0.0000000000
11
-7.9526652194
21
-15.1585231909
31
0.0000000000
11
-7.9068931670
21
-15.1251324936
31
0.0000000000
11
-7.8870837986
21
-15.1041190323
31
0.0000000000
0
SPLINE
5
2AD
100
AcDbEntity
8
0
100
AcDbSpline
62
9
6
CONTINUOUS
70
0
71
3
72
8
73
4
74
2
42
0.0000001000
43
0.0000001000
44
0.0000000001
12
0.0352171453
22
0.0661737181
32
0.0000000000
13
0.0222748337
23
0.0714369791
33
0.0000000000
40
0.0000000000
40
0.0000000000
40
0.0000000000
40
0.0000000000
40
1.0000000000
40
1.0000000000
40
1.0000000000
40
1.0000000000
10
-7.7225333196
20
-15.0849727781
30
0.0000000000
10
-7.7107942712
20
-15.0629148720
30
0.0000000000
10
-7.7014025457
20
-15.0396855769
30
0.0000000000
10
-7.6939776012
20
-15.0158732506
30
0.0000000000
11
-7.7225333196
21
-15.0849727781
31
0.0000000000
11
-7.6939776012
21
-15.0158732506
31
0.0000000000
0
SPLINE
5
2AE
100
AcDbEntity
8
0
100
AcDbSpline
62
9
6
CONTINUOUS
70
0
71
3
72
8
73
4
74
2
42
0.0000001000
43
0.0000001000
44
0.0000000001
12
0.0118536537
22
0.0380155122
32
0.0000000000
13
0.0086838791
23
0.0387401620
33
0.0000000000
40
0.0000000000
40
0.0000000000
40
0.0000000000
40
0.0000000000
40
1.0000000000
40
1.0000000000
40
1.0000000000
40
1.0000000000
10
-7.6939776012
20
-15.0158732506
30
0.0000000000
10
-7.6900263832
20
-15.0032014131
30
0.0000000000
10
-7.6866321350
20
-14.9903644680
30
0.0000000000
10
-7.6837375086
20
-14.9774510807
30
0.0000000000
11
-7.6939776012
21
-15.0158732506
31
0.0000000000
11
-7.6837375086
21
-14.9774510807
31
0.0000000000
0
SPLINE
5
2AF
100
AcDbEntity
8
0
100
AcDbSpline
62
9
6
CONTINUOUS
70
0
71
3
72
10
73
6
74
4
42
0.0000001000
43
0.0000001000
44
0.0000000001
12
0.1113884397
22
-0.0932211385
32
0.0000000000
13
0.1268404781
23
0.0707747008
33
0.0000000000
40
0.0000000000
40
0.0000000000
40
0.0000000000
40
0.0000000000
40
0.3361883159
40
0.6837509819
40
1.0000000000
40
1.0000000000
40
1.0000000000
40
1.0000000000
10
-7.8211864655
20
-14.9605380345
30
0.0000000000
10
-7.8087039682
20
-14.9709846537
30
0.0000000000
10
-7.7783283396
20
-14.9865120804
30
0.0000000000
10
-7.7295545364
20
-14.9928355962
30
0.0000000000
10
-7.6971117492
20
-14.9849090664
30
0.0000000000
10
-7.6837406903
20
-14.9774482565
30
0.0000000000
11
-7.8211864655
21
-14.9605380345
31
0.0000000000
11
-7.7781147949
21
-14.9835452621
31
0.0000000000
11
-7.7280091116
21
-14.9897098621
31
0.0000000000
11
-7.6837406903
21
-14.9774482565
31
0.0000000000
0
SPLINE
5
2B0
100
AcDbEntity
8
0
100
AcDbSpline
62
9
6
CONTINUOUS
70
0
71
3
72
9
73
5
74
3
42
0.0000001000
43
0.0000001000
44
0.0000000001
12
0.0041678919
22
-0.0543310458
32
0.0000000000
13
0.0495391740
23
-0.0256578893
33
0.0000000000
40
0.0000000000
40
0.0000000000
40
0.0000000000
40
0.0000000000
40
0.6586675793
40
1.0000000000
40
1.0000000000
40
1.0000000000
40
1.0000000000
10
-16.4496740233
20
-11.0450558325
30
0.0000000000
10
-16.4487589383
20
-11.0569845320
30
0.0000000000
10
-16.4442399387
20
-11.0759724430
30
0.0000000000
10
-16.4294847305
20
-11.0883239561
30
0.0000000000
10
-16.4238482884
20
-11.0912432459
30
0.0000000000
11
-16.4496740233
21
-11.0450558325
31
0.0000000000
11
-16.4383649940
21
-11.0791188201
31
0.0000000000
11
-16.4238482884
21
-11.0912432459
31
0.0000000000
0
SPLINE
5
2B1
100
AcDbEntity
8
0
100
AcDbSpline
62
9
6
CONTINUOUS
70
0
71
3
72
11
73
7
74
5
42
0.0000001000
43
0.0000001000
44
0.0000000001
12
1.0458659555
22
4.8665714356
32
0.0000000000
13
-1.1483012235
23
4.8435249302
33
0.0000000000
40
0.0000000000
40
0.0000000000
40
0.0000000000
40
0.0000000000
40
0.2225951313
40
0.4662458343
40
0.7281575495
40
1.0000000000
40
1.0000000000
40
1.0000000000
40
1.0000000000
10
-7.6837375086
20
-14.9774510807
30
0.0000000000
10
-7.6061359520
20
-14.6163593781
30
0.0000000000
10
-7.5038844699
20
-13.8465223450
30
0.0000000000
10
-7.4952140222
20
-12.6359829675
30
0.0000000000
10
-7.6224499634
20
-11.3502763861
30
0.0000000000
10
-7.7910902837
20
-10.4795049030
30
0.0000000000
10
-7.8951426232
20
-10.0406130077
30
0.0000000000
11
-7.6837375086
21
-14.9774510807
31
0.0000000000
11
-7.5305428885
21
-13.8800840585
31
0.0000000000
11
-7.5160483470
21
-12.6673540986
31
0.0000000000
11
-7.6403960363
21
-11.3695836093
31
0.0000000000
11
-7.8951426232
21
-10.0406130077
31
0.0000000000
0
SPLINE
5
2B2
100
AcDbEntity
8
0
100
AcDbSpline
62
9
6
CONTINUOUS
70
0
71
3
72
8
73
4
74
2
42
0.0000001000
43
0.0000001000
44
0.0000000001
12
-0.0013057595
22
0.0055076828
32
0.0000000000
13
-0.0013076658
23
0.0055072001
33
0.0000000000
40
0.0000000000
40
0.0000000000
40
0.0000000000
40
0.0000000000
40
1.0000000000
40
1.0000000000
40
1.0000000000
40
1.0000000000
10
-7.8951426232
20
-10.0406130077
30
0.0000000000
10
-7.8955778764
20
-10.0387771134
30
0.0000000000
10
-7.8960134474
20
-10.0369412995
30
0.0000000000
10
-7.8964493360
20
-10.0351055661
30
0.0000000000
11
-7.8951426232
21
-10.0406130077
31
0.0000000000
11
-7.8964493360
21
-10.0351055661
31
0.0000000000
0
SPLINE
5
2B3
100
AcDbEntity
8
0
100
AcDbSpline
62
9
6
CONTINUOUS
70
0
71
3
72
8
73
4
74
2
42
0.0000001000
43
0.0000001000
44
0.0000000001
12
-0.0035678643
22
0.0150259665
32
0.0000000000
13
-0.0035820372
23
0.0150223643
33
0.0000000000
40
0.0000000000
40
0.0000000000
40
0.0000000000
40
0.0000000000
40
1.0000000000
40
1.0000000000
40
1.0000000000
40
1.0000000000
10
-7.8964493360
20
-10.0351055661
30
0.0000000000
10
-7.8976386241
20
-10.0300969106
30
0.0000000000
10
-7.8988302765
20
-10.0250888544
30
0.0000000000
10
-7.9000242889
20
-10.0200813996
30
0.0000000000
11
-7.8964493360
21
-10.0351055661
31
0.0000000000
11
-7.9000242889
21
-10.0200813996
31
0.0000000000
0
SPLINE
5
2B4
100
AcDbEntity
8
0
100
AcDbSpline
62
9
6
CONTINUOUS
70
0
71
3
72
9
73
5
74
3
42
0.0000001000
43
0.0000001000
44
0.0000000001
12
-0.0533943802
22
0.0462622874
32
0.0000000000
13
0.0173876745
23
0.0693759758
33
0.0000000000
40
0.0000000000
40
0.0000000000
40
0.0000000000
40
0.0000000000
40
0.5976586206
40
1.0000000000
40
1.0000000000
40
1.0000000000
40
1.0000000000
10
-17.1673129422
20
-5.4836031627
30
0.0000000000
10
-17.1779501461
20
-5.4743868110
30
0.0000000000
10
-17.1938509986
20
-5.4551711036
30
0.0000000000
10
-17.1954072617
20
-5.4298268245
30
0.0000000000
10
-17.1930753347
20
-5.4205225492
30
0.0000000000
11
-17.1673129422
21
-5.4836031627
31
0.0000000000
11
-17.1918328817
21
-5.4492288444
31
0.0000000000
11
-17.1930753347
21
-5.4205225492
31
0.0000000000
0
SPLINE
5
2B5
100
AcDbEntity
8
0
100
AcDbSpline
62
9
6
CONTINUOUS
70
0
71
3
72
10
73
6
74
4
42
0.0000001000
43
0.0000001000
44
0.0000000001
12
-0.0017758720
22
0.1470280730
32
0.0000000000
13
0.1309508782
23
0.0668750735
33
0.0000000000
40
0.0000000000
40
0.0000000000
40
0.0000000000
40
0.0000000000
40
0.3329974071
40
0.6854787199
40
1.0000000000
40
1.0000000000
40
1.0000000000
40
1.0000000000
10
-16.7000960637
20
-5.2940859271
30
0.0000000000
10
-16.7002931839
20
-5.2777659381
30
0.0000000000
10
-16.6931094263
20
-5.2440142371
30
0.0000000000
10
-16.6687959253
20
-5.2008765353
30
0.0000000000
10
-16.6437390321
20
-5.1781816189
30
0.0000000000
10
-16.6300100861
20
-5.1711704076
30
0.0000000000
11
-16.7000960637
21
-5.2940859271
31
0.0000000000
11
-16.6910758094
21
-5.2459604340
31
0.0000000000
11
-16.6654043546
21
-5.2009364138
31
0.0000000000
11
-16.6300100861
21
-5.1711704076
31
0.0000000000
0
SPLINE
5
2B6
100
AcDbEntity
8
0
100
AcDbSpline
62
9
6
CONTINUOUS
70
0
71
3
72
8
73
4
74
2
42
0.0000001000
43
0.0000001000
44
0.0000000001
12
-0.0380253633
22
-0.0196687965
32
0.0000000000
13
-0.0380253473
23
-0.0196688275
33
0.0000000000
40
0.0000000000
40
0.0000000000
40
0.0000000000
40
0.0000000000
40
1.0000000000
40
1.0000000000
40
1.0000000000
40
1.0000000000
10
-16.5919847325
20
-5.1515015950
30
0.0000000000
10
-16.6046598536
20
-5.1580578605
30
0.0000000000
10
-16.6173349722
20
-5.1646141309
30
0.0000000000
10
-16.6300100880
20
-5.1711704067
30
0.0000000000
11
-16.5919847325
21
-5.1515015950
31
0.0000000000
11
-16.6300100880
21
-5.1711704067
31
0.0000000000
0
SPLINE
5
2B7
100
AcDbEntity
8
0
100
AcDbSpline
62
9
6
CONTINUOUS
70
0
71
3
72
10
73
6
74
4
42
0.0000001000
43
0.0000001000
44
0.0000000001
12
-0.0017758783
22
0.1470280784
32
0.0000000000
13
0.1309508877
23
0.0668750670
33
0.0000000000
40
0.0000000000
40
0.0000000000
40
0.0000000000
40
0.0000000000
40
0.3330184245
40
0.6854960641
40
1.0000000000
40
1.0000000000
40
1.0000000000
40
1.0000000000
10
-8.5171727744
20
-9.3855475718
30
0.0000000000
10
-8.5173699078
20
-9.3692265521
30
0.0000000000
10
-8.5101855271
20
-9.3354739887
30
0.0000000000
10
-8.4858713134
20
-9.2923366936
30
0.0000000000
10
-8.4608149886
20
-9.2696428753
30
0.0000000000
10
-8.4470867987
20
-9.2626320513
30
0.0000000000
11
-8.5171727744
21
-9.3855475718
31
0.0000000000
11
-8.5081514269
21
-9.3374191374
31
0.0000000000
11
-8.4824794279
21
-9.2923960471
31
0.0000000000
11
-8.4470867987
21
-9.2626320513
31
0.0000000000
0
SPLINE
5
2B8
100
AcDbEntity
8
0
100
AcDbSpline
62
9
6
CONTINUOUS
70
0
71
3
72
10
73
6
74
4
42
0.0000001000
43
0.0000001000
44
0.0000000001
12
0.1408421692
22
-0.0181646423
32
0.0000000000
13
0.1258369559
23
0.0658143706
33
0.0000000000
40
0.0000000000
40
0.0000000000
40
0.0000000000
40
0.0000000000
40
0.3026916406
40
0.6648605652
40
1.0000000000
40
1.0000000000
40
1.0000000000
40
1.0000000000
10
-8.0377171285
20
-10.0484014775
30
0.0000000000
10
-8.0235065461
20
-10.0502342393
30
0.0000000000
10
-7.9916847803
20
-10.0486321333
30
0.0000000000
10
-7.9453124848
20
-10.0389686731
30
0.0000000000
10
-7.9140940717
20
-10.0274321389
30
0.0000000000
10
-7.9000364296
20
-10.0200798086
30
0.0000000000
11
-8.0377171285
21
-10.0484014775
31
0.0000000000
11
-7.9947368354
21
-10.0477758366
31
0.0000000000
11
-7.9443604853
21
-10.0374131478
31
0.0000000000
11
-7.9000364296
21
-10.0200798086
31
0.0000000000
0
SPLINE
5
2B9
100
AcDbEntity
8
0
100
AcDbSpline
62
9
6
CONTINUOUS
70
0
71
3
72
13
73
9
74
7
42
0.0000001000
43
0.0000001000
44
0.0000000001
12
-0.2217195489
22
0.9346110412
32
0.0000000000
13
-0.8588276682
23
0.4302004104
33
0.0000000000
40
0.0000000000
40
0.0000000000
40
0.0000000000
40
0.0000000000
40
0.1714580549
40
0.3474280390
40
0.5234935098
40
0.6938812897
40
0.8535091412
40
1.0000000000
40
1.0000000000
40
1.0000000000
40
1.0000000000
10
-7.9000242889
20
-10.0200813996
30
0.0000000000
10
-7.9126961564
20
-9.9666658692
30
0.0000000000
10
-7.9460992426
20
-9.8601457153
30
0.0000000000
10
-8.0164694796
20
-9.7075579479
30
0.0000000000
10
-8.1053148650
20
-9.5652876131
30
0.0000000000
10
-8.2087494730
20
-9.4398813073
30
0.0000000000
10
-8.3220960869
20
-9.3369453623
30
0.0000000000
10
-8.4051499978
20
-9.2836388605
30
0.0000000000
10
-8.4470867987
20
-9.2626320513
30
0.0000000000
11
-7.9000242889
21
-10.0200813996
31
0.0000000000
11
-7.9489045690
21
-9.8628081525
31
0.0000000000
11
-8.0195915541
21
-9.7092704151
31
0.0000000000
11
-8.1093511840
21
-9.5659361541
31
0.0000000000
11
-8.2138944907
21
-9.4400104565
31
0.0000000000
11
-8.3280047266
21
-9.3375939871
31
0.0000000000
11
-8.4470867987
21
-9.2626320513
31
0.0000000000
0
SPLINE
5
2BA
100
AcDbEntity
8
0
100
AcDbSpline
62
9
6
CONTINUOUS
70
0
71
3
72
8
73
4
74
2
42
0.0000001000
43
0.0000001000
44
0.0000000001
12
0.0338152058
22
0.0170497936
32
0.0000000000
13
0.0338151937
23
0.0170498176
33
0.0000000000
40
0.0000000000
40
0.0000000000
40
0.0000000000
40
0.0000000000
40
1.0000000000
40
1.0000000000
40
1.0000000000
40
1.0000000000
10
-8.4470867987
20
-9.2626320513
30
0.0000000000
10
-8.4358150634
20
-9.2569487868
30
0.0000000000
10
-8.4245433303
20
-9.2512655181
30
0.0000000000
10
-8.4132715991
20
-9.2455822455
30
0.0000000000
11
-8.4470867987
21
-9.2626320513
31
0.0000000000
11
-8.4132715991
21
-9.2455822455
31
0.0000000000
0
SPLINE
5
2BB
100
AcDbEntity
8
0
100
AcDbSpline
62
9
6
CONTINUOUS
70
0
71
3
72
8
73
4
74
2
42
0.0000001000
43
0.0000001000
44
0.0000000001
12
0.0132432435
22
-0.0453293760
32
0.0000000000
13
0.0152831895
23
-0.0447124563
33
0.0000000000
40
0.0000000000
40
0.0000000000
40
0.0000000000
40
0.0000000000
40
1.0000000000
40
1.0000000000
40
1.0000000000
40
1.0000000000
10
-16.9534963444
20
-10.3943837315
30
0.0000000000
10
-16.9490819299
20
-10.4094935235
30
0.0000000000
10
-16.9443172744
20
-10.4245059138
30
0.0000000000
10
-16.9392228779
20
-10.4394100659
30
0.0000000000
11
-16.9534963444
21
-10.3943837315
31
0.0000000000
11
-16.9392228779
21
-10.4394100659
31
0.0000000000
0
SPLINE
5
2BC
100
AcDbEntity
8
0
100
AcDbSpline
62
9
6
CONTINUOUS
70
0
71
3
72
8
73
4
74
2
42
0.0000001000
43
0.0000001000
44
0.0000000001
12
0.0154107218
22
-0.0450855645
32
0.0000000000
13
0.0173592712
23
-0.0443919205
33
0.0000000000
40
0.0000000000
40
0.0000000000
40
0.0000000000
40
0.0000000000
40
1.0000000000
40
1.0000000000
40
1.0000000000
40
1.0000000000
10
-16.9392228779
20
-10.4394100659
30
0.0000000000
10
-16.9340859706
20
-10.4544385874
30
0.0000000000
10
-16.9286137963
20
-10.4693570567
30
0.0000000000
10
-16.9228273726
20
-10.4841543635
30
0.0000000000
11
-16.9392228779
21
-10.4394100659
31
0.0000000000
11
-16.9228273726
21
-10.4841543635
31
0.0000000000
0
SPLINE
5
2BD
100
AcDbEntity
8
0
100
AcDbSpline
62
9
6
CONTINUOUS
70
0
71
3
72
8
73
4
74
2
42
0.0000001000
43
0.0000001000
44
0.0000000001
12
0.0342136515
22
-0.0225505402
32
0.0000000000
13
0.0354200007
23
-0.0205330977
33
0.0000000000
40
0.0000000000
40
0.0000000000
40
0.0000000000
40
0.0000000000
40
1.0000000000
40
1.0000000000
40
1.0000000000
40
1.0000000000
10
-16.5195379187
20
-11.0045688390
30
0.0000000000
10
-16.5081333682
20
-11.0120856857
30
0.0000000000
10
-16.4965267004
20
-11.0192898302
30
0.0000000000
10
-16.4847200335
20
-11.0261341961
30
0.0000000000
11
-16.5195379187
21
-11.0045688390
31
0.0000000000
11
-16.4847200335
21
-11.0261341961
31
0.0000000000
0
SPLINE
5
2BE
100
AcDbEntity
8
0
100
AcDbSpline
62
9
6
CONTINUOUS
70
0
71
3
72
8
73
4
74
2
42
0.0000001000
43
0.0000001000
44
0.0000000001
12
0.0344794097
22
-0.0199878338
32
0.0000000000
13
0.0356106569
23
-0.0178120144
33
0.0000000000
40
0.0000000000
40
0.0000000000
40
0.0000000000
40
0.0000000000
40
1.0000000000
40
1.0000000000
40
1.0000000000
40
1.0000000000
10
-16.4847200335
20
-11.0261341961
30
0.0000000000
10
-16.4732268970
20
-11.0327968073
30
0.0000000000
10
-16.4615442423
20
-11.0391184944
30
0.0000000000
10
-16.4496740233
20
-11.0450558325
30
0.0000000000
11
-16.4847200335
21
-11.0261341961
31
0.0000000000
11
-16.4496740233
21
-11.0450558325
31
0.0000000000
0
SPLINE
5
2BF
100
AcDbEntity
8
0
100
AcDbSpline
62
9
6
CONTINUOUS
70
0
71
3
72
8
73
4
74
2
42
0.0000001000
43
0.0000001000
44
0.0000000001
12
-0.0392452507
22
0.0195867402
32
0.0000000000
13
-0.0406174407
23
0.0168025607
33
0.0000000000
40
0.0000000000
40
0.0000000000
40
0.0000000000
40
0.0000000000
40
1.0000000000
40
1.0000000000
40
1.0000000000
40
1.0000000000
10
-16.6300100880
20
-5.1711704067
30
0.0000000000
10
-16.6430918382
20
-5.1646414933
30
0.0000000000
10
-16.6564143700
20
-5.1585355991
30
0.0000000000
10
-16.6699535169
20
-5.1529347455
30
0.0000000000
11
-16.6300100880
21
-5.1711704067
31
0.0000000000
11
-16.6699535169
21
-5.1529347455
31
0.0000000000
0
SPLINE
5
2C0
100
AcDbEntity
8
0
100
AcDbSpline
62
9
6
CONTINUOUS
70
0
71
3
72
11
73
7
74
5
42
0.0000001000
43
0.0000001000
44
0.0000000001
12
-0.3038490734
22
0.1256958196
32
0.0000000000
13
-0.2932098603
23
-0.1508932650
33
0.0000000000
40
0.0000000000
40
0.0000000000
40
0.0000000000
40
0.0000000000
40
0.2528057446
40
0.5995687368
40
0.9203820394
40
1.0000000000
40
1.0000000000
40
1.0000000000
40
1.0000000000
10
-16.6699535169
20
-5.1529347455
30
0.0000000000
10
-16.6955584473
20
-5.1423425371
30
0.0000000000
10
-16.7581219893
20
-5.1215053786
30
0.0000000000
10
-16.8594396335
20
-5.1099054481
30
0.0000000000
10
-16.9410874693
20
-5.1266394814
30
0.0000000000
10
-16.9811080387
20
-5.1450293045
30
0.0000000000
10
-16.9888896290
20
-5.1490339092
30
0.0000000000
11
-16.6699535169
21
-5.1529347455
31
0.0000000000
11
-16.7489290545
21
-5.1271318181
31
0.0000000000
11
-16.8621504067
21
-5.1158824908
31
0.0000000000
11
-16.9650457356
21
-5.1380888668
31
0.0000000000
11
-16.9888896290
21
-5.1490339092
31
0.0000000000
0
SPLINE
5
2C1
100
AcDbEntity
8
0
100
AcDbSpline
62
7
6
CONTINUOUS
70
0
71
3
72
16
73
12
74
10
42
0.0000001000
43
0.0000001000
44
0.0000000001
12
0.3087653772
22
0.1492685860
32
0.0000000000
13
0.3064066964
23
-0.1532048367
33
0.0000000000
40
0.0000000000
40
0.0000000000
40
0.0000000000
40
0.0000000000
40
0.0534043017
40
0.1611220133
40
0.2695311500
40
0.3807115836
40
0.4960067182
40
0.6163051377
40
0.7422917608
40
0.8745463253
40
1.0000000000
40
1.0000000000
40
1.0000000000
40
1.0000000000
10
-17.0222488272
20
-5.0714251511
30
0.0000000000
10
-17.0167523608
20
-5.0687679562
30
0.0000000000
10
-16.9998678172
20
-5.0613634804
30
0.0000000000
10
-16.9703861106
20
-5.0521852553
30
0.0000000000
10
-16.9333963139
20
-5.0461172354
30
0.0000000000
10
-16.8950913074
20
-5.0447462873
30
0.0000000000
10
-16.8555409646
20
-5.0478627172
30
0.0000000000
10
-16.8148697632
20
-5.0553314066
30
0.0000000000
10
-16.7732112176
20
-5.0670630607
30
0.0000000000
10
-16.7321473447
20
-5.0824623916
30
0.0000000000
10
-16.7054003256
20
-5.0947938109
30
0.0000000000
10
-16.6925870436
20
-5.1012005141
30
0.0000000000
11
-17.0222488272
21
-5.0714251511
31
0.0000000000
11
-17.0054783001
21
-5.0640701890
31
0.0000000000
11
-16.9702668037
21
-5.0530416580
31
0.0000000000
11
-16.9336361699
21
-5.0469417392
31
0.0000000000
11
-16.8955799939
21
-5.0454770802
31
0.0000000000
11
-16.8562002067
21
-5.0484761439
31
0.0000000000
11
-16.8156524367
21
-5.0558212671
31
0.0000000000
11
-16.7740871525
21
-5.0674307394
31
0.0000000000
11
-16.7316390131
21
-5.0832590435
31
0.0000000000
11
-16.6925870436
21
-5.1012005141
31
0.0000000000
0
SPLINE
5
2C2
100
AcDbEntity
8
0
100
AcDbSpline
62
7
6
CONTINUOUS
70
0
71
3
72
14
73
10
74
8
42
0.0000001000
43
0.0000001000
44
0.0000000001
12
-0.0530215829
22
-0.2443339519
32
0.0000000000
13
-0.2224727030
23
-0.1148596326
33
0.0000000000
40
0.0000000000
40
0.0000000000
40
0.0000000000
40
0.0000000000
40
0.1554000228
40
0.3206916355
40
0.4781588136
40
0.6283121449
40
0.7730359611
40
0.9163548215
40
1.0000000000
40
1.0000000000
40
1.0000000000
40
1.0000000000
10
-7.6623757238
20
-15.0678912116
30
0.0000000000
10
-7.6651222422
20
-15.0805477122
30
0.0000000000
10
-7.6718031337
20
-15.1064609574
30
0.0000000000
10
-7.6853258935
20
-15.1440159821
30
0.0000000000
10
-7.7028132711
20
-15.1794386641
30
0.0000000000
10
-7.7238012788
20
-15.2108927564
30
0.0000000000
10
-7.7484355952
20
-15.2380517586
30
0.0000000000
10
-7.7728684652
20
-15.2573259275
30
0.0000000000
10
-7.7892673126
20
-15.2668750001
30
0.0000000000
10
-7.7954702356
20
-15.2700774850
30
0.0000000000
11
-7.6623757238
21
-15.0678912116
31
0.0000000000
11
-7.6721579346
21
-15.1054912377
31
0.0000000000
11
-7.6862833855
21
-15.1443226003
31
0.0000000000
11
-7.7038430456
21
-15.1795538389
31
0.0000000000
11
-7.7248039713
21
-15.2106925305
31
0.0000000000
11
-7.7492066307
21
-15.2374027204
31
0.0000000000
11
-7.7773810036
21
-15.2595350145
31
0.0000000000
11
-7.7954702356
21
-15.2700774850
31
0.0000000000
0
SPLINE
5
2C3
100
AcDbEntity
8
0
100
AcDbSpline
62
7
6
CONTINUOUS
70
0
71
3
72
21
73
17
74
15
42
0.0000001000
43
0.0000001000
44
0.0000000001
12
1.1797289344
22
-4.9358391433
32
0.0000000000
13
-1.0762617063
23
-4.9594376309
33
0.0000000000
40
0.0000000000
40
0.0000000000
40
0.0000000000
40
0.0000000000
40
0.0793284254
40
0.1588577303
40
0.2372165442
40
0.3143181149
40
0.3900776586
40
0.4644161112
40
0.5372605110
40
0.6085446685
40
0.6782105165
40
0.7462083454
40
0.8124973456
40
0.8770464455
40
0.9398379552
40
1.0000000000
40
1.0000000000
40
1.0000000000
40
1.0000000000
10
-7.8827384376
20
-10.0378499363
30
0.0000000000
10
-7.8515430913
20
-10.1683673854
30
0.0000000000
10
-7.7922601851
20
-10.4305071652
30
0.0000000000
10
-7.7136322228
20
-10.8240515531
30
0.0000000000
10
-7.6458988008
20
-11.2157986734
30
0.0000000000
10
-7.5895576546
20
-11.6029038455
30
0.0000000000
10
-7.5446700822
20
-11.9846591710
30
0.0000000000
10
-7.5112862510
20
-12.3603652485
30
0.0000000000
10
-7.4894442498
20
-12.7293381403
30
0.0000000000
10
-7.4791703256
20
-13.0909103955
30
0.0000000000
10
-7.4804790415
20
-13.4444317998
30
0.0000000000
10
-7.4933734844
20
-13.7892697641
30
0.0000000000
10
-7.5178448343
20
-14.1248070711
30
0.0000000000
10
-7.5538731584
20
-14.4504498239
30
0.0000000000
10
-7.6012058162
20
-14.7641647562
30
0.0000000000
10
-7.6407916114
20
-14.9684310184
30
0.0000000000
10
-7.6623749797
20
-15.0678876547
30
0.0000000000
11
-7.8827384376
21
-10.0378499363
31
0.0000000000
11
-7.7939879148
21
-10.4305264512
31
0.0000000000
11
-7.7149756493
21
-10.8263168138
31
0.0000000000
11
-7.6472967968
21
-11.2181751769
31
0.0000000000
11
-7.5910234441
21
-11.6053870285
31
0.0000000000
11
-7.5462181455
21
-11.9872363213
31
0.0000000000
11
-7.5129309743
21
-12.3630220547
31
0.0000000000
11
-7.4911998934
21
-12.7320578160
31
0.0000000000
11
-7.4810508108
21
-13.0936724503
31
0.0000000000
11
-7.4824975900
21
-13.4472138261
31
0.0000000000
11
-7.4955422623
21
-13.7920465558
31
0.0000000000
11
-7.5201746786
21
-14.1275508367
31
0.0000000000
11
-7.5563717850
21
-14.4531223788
31
0.0000000000
11
-7.6040989027
21
-14.7681859740
31
0.0000000000
11
-7.6623749797
21
-15.0678876547
31
0.0000000000
0
SPLINE
5
2C4
100
AcDbEntity
8
0
100
AcDbSpline
62
7
6
CONTINUOUS
70
0
71
3
72
8
73
4
74
2
42
0.0000001000
43
0.0000001000
44
0.0000000001
12
0.0013398032
22
-0.0054975966
32
0.0000000000
13
0.0013154230
23
-0.0055034811
33
0.0000000000
40
0.0000000000
40
0.0000000000
40
0.0000000000
40
0.0000000000
40
1.0000000000
40
1.0000000000
40
1.0000000000
40
1.0000000000
10
-7.8840670520
20
-10.0323452458
30
0.0000000000
10
-7.8836204510
20
-10.0341777780
30
0.0000000000
10
-7.8831779004
20
-10.0360112965
30
0.0000000000
10
-7.8827394261
20
-10.0378457902
30
0.0000000000
11
-7.8840670520
21
-10.0323452458
31
0.0000000000
11
-7.8827394261
21
-10.0378457902
31
0.0000000000
0
SPLINE
5
2C5
100
AcDbEntity
8
0
100
AcDbSpline
62
7
6
CONTINUOUS
70
0
71
3
72
23
73
19
74
17
42
0.0000001000
43
0.0000001000
44
0.0000000001
12
0.9364855518
22
-0.4682345450
32
0.0000000000
13
0.2478996139
23
-1.0172168350
33
0.0000000000
40
0.0000000000
40
0.0000000000
40
0.0000000000
40
0.0000000000
40
0.0461260892
40
0.0998127600
40
0.1560822082
40
0.2147582137
40
0.2756361130
40
0.3384892077
40
0.4030464005
40
0.4689959357
40
0.5360090431
40
0.6037445921
40
0.6718534232
40
0.7399822091
40
0.8077743801
40
0.8748806620
40
0.9409639033
40
1.0000000000
40
1.0000000000
40
1.0000000000
40
1.0000000000
10
-8.4807313351
20
-9.2071283394
30
0.0000000000
10
-8.4663325298
20
-9.2143276156
30
0.0000000000
10
-8.4357205423
20
-9.2310197757
30
0.0000000000
10
-8.3897528195
20
-9.2603180859
30
0.0000000000
10
-8.3423034215
20
-9.2952001945
30
0.0000000000
10
-8.2951930292
20
-9.3345725634
30
0.0000000000
10
-8.2488005701
20
-9.3782122597
30
0.0000000000
10
-8.2034987278
20
-9.4258546938
30
0.0000000000
10
-8.1596546182
20
-9.4771906696
30
0.0000000000
10
-8.1176271290
20
-9.5318654322
30
0.0000000000
10
-8.0777580349
20
-9.5894864020
30
0.0000000000
10
-8.0403650064
20
-9.6496325972
30
0.0000000000
10
-8.0057394058
20
-9.7118589978
30
0.0000000000
10
-7.9741447224
20
-9.7756998080
30
0.0000000000
10
-7.9458139226
20
-9.8406731311
30
0.0000000000
10
-7.9209466870
20
-9.9062875737
30
0.0000000000
10
-7.9003199385
20
-9.9701500079
30
0.0000000000
10
-7.8889451223
20
-10.0123288542
30
0.0000000000
10
-7.8840667804
20
-10.0323463580
30
0.0000000000
11
-8.4807313351
21
-9.2071283394
31
0.0000000000
11
-8.4382990527
21
-9.2301918524
31
0.0000000000
11
-8.3908576866
21
-9.2603350500
31
0.0000000000
11
-8.3433506933
21
-9.2951728185
31
0.0000000000
11
-8.2961748508
21
-9.3345204443
31
0.0000000000
11
-8.2497143790
21
-9.3781526332
31
0.0000000000
11
-8.2043381555
21
-9.4258100058
31
0.0000000000
11
-8.1604165396
21
-9.4771822473
31
0.0000000000
11
-8.1183154438
21
-9.5319078258
31
0.0000000000
11
-8.0783788063
21
-9.5895920015
31
0.0000000000
11
-8.0409261092
21
-9.6498115959
31
0.0000000000
11
-8.0062502107
21
-9.7121194475
31
0.0000000000
11
-7.9746154624
21
-9.7760483841
31
0.0000000000
11
-7.9462569367
21
-9.8411122722
31
0.0000000000
11
-7.9213754160
21
-9.9068162044
31
0.0000000000
11
-7.9001359096
21
-9.9726616673
31
0.0000000000
11
-7.8840667804
21
-10.0323463580
31
0.0000000000
0
SPLINE
5
2C6
100
AcDbEntity
8
0
100
AcDbSpline
62
7
6
CONTINUOUS
70
0
71
3
72
21
73
17
74
15
42
0.0000001000
43
0.0000001000
44
0.0000000001
12
0.3292372444
22
-0.1646186222
32
0.0000000000
13
0.0000000000
23
-0.3680984296
33
0.0000000000
40
0.0000000000
40
0.0000000000
40
0.0000000000
40
0.0000000000
40
0.0616652658
40
0.1268747662
40
0.1949321227
40
0.2652924598
40
0.3382327675
40
0.4129548400
40
0.4884091301
40
0.5643914551
40
0.6407001256
40
0.7162468014
40
0.7901286326
40
0.8625362355
40
0.9327983986
40
1.0000000000
40
1.0000000000
40
1.0000000000
40
1.0000000000
10
-0.9652301767
20
-1.3845270655
30
0.0000000000
10
-0.9584626759
20
-1.3879108158
30
0.0000000000
10
-0.9449215244
20
-1.3956584234
30
0.0000000000
10
-0.9254033836
20
-1.4095395859
30
0.0000000000
10
-0.9063968138
20
-1.4258050365
30
0.0000000000
10
-0.8881283484
20
-1.4442497992
30
0.0000000000
10
-0.8708057734
20
-1.4646681703
30
0.0000000000
10
-0.8546584084
20
-1.4868044901
30
0.0000000000
10
-0.8399130040
20
-1.5103384823
30
0.0000000000
10
-0.8267289952
20
-1.5350018704
30
0.0000000000
10
-0.8152606397
20
-1.5605210759
30
0.0000000000
10
-0.8056767902
20
-1.5865322056
30
0.0000000000
10
-0.7980915388
20
-1.6126974120
30
0.0000000000
10
-0.7925875388
20
-1.6387183995
30
0.0000000000
10
-0.7892385393
20
-1.6642773628
30
0.0000000000
10
-0.7884534803
20
-1.6811514325
30
0.0000000000
10
-0.7884534803
20
-1.6893970338
30
0.0000000000
11
-0.9652301767
21
-1.3845270655
31
0.0000000000
11
-0.9454976240
21
-1.3957460609
31
0.0000000000
11
-0.9259051200
21
-1.4096133788
31
0.0000000000
11
-0.9068428757
21
-1.4258683420
31
0.0000000000
11
-0.8885925050
21
-1.4442452189
31
0.0000000000
11
-0.8712024774
21
-1.4647016888
31
0.0000000000
11
-0.8549780648
21
-1.4869119956
31
0.0000000000
11
-0.8402222591
21
-1.5104427185
31
0.0000000000
11
-0.8270342434
21
-1.5351072634
31
0.0000000000
11
-0.8155244435
21
-1.5607299515
31
0.0000000000
11
-0.8059216967
21
-1.5868279629
31
0.0000000000
11
-0.7983686084
21
-1.6129538434
31
0.0000000000
11
-0.7928806173
21
-1.6390358491
31
0.0000000000
11
-0.7895576811
21
-1.6646848868
31
0.0000000000
11
-0.7884534803
21
-1.6893970338
31
0.0000000000
0
SPLINE
5
2C7
100
AcDbEntity
8
0
100
AcDbSpline
62
7
6
CONTINUOUS
70
0
71
3
72
18
73
14
74
12
42
0.0000001000
43
0.0000001000
44
0.0000000001
12
0.0002842886
22
-0.2188151767
32
0.0000000000
13
-0.1943749003
23
-0.1008618524
33
0.0000000000
40
0.0000000000
40
0.0000000000
40
0.0000000000
40
0.0000000000
40
0.1377729755
40
0.2738359632
40
0.3980746463
40
0.5113086972
40
0.6138587642
40
0.7056801974
40
0.7864267553
40
0.8558227087
40
0.9144998768
40
0.9648309136
40
1.0000000000
40
1.0000000000
40
1.0000000000
40
1.0000000000
10
-9.2625664985
20
-1.8292632496
30
0.0000000000
10
-9.2625534427
20
-1.8393121890
30
0.0000000000
10
-9.2630808387
20
-1.8592915397
30
0.0000000000
10
-9.2656550026
20
-1.8882313370
30
0.0000000000
10
-9.2699301627
20
-1.9151610120
30
0.0000000000
10
-9.2756226421
20
-1.9393235217
30
0.0000000000
10
-9.2825202399
20
-1.9607003042
30
0.0000000000
10
-9.2903734201
20
-1.9791977793
30
0.0000000000
10
-9.2988734859
20
-1.9947013501
30
0.0000000000
10
-9.3076714128
20
-2.0071777588
30
0.0000000000
10
-9.3164877133
20
-2.0168023310
30
0.0000000000
10
-9.3246616257
20
-2.0234790367
30
0.0000000000
10
-9.3300271252
20
-2.0267035363
30
0.0000000000
10
-9.3323057878
20
-2.0278859427
30
0.0000000000
11
-9.2625664985
21
-1.8292632496
31
0.0000000000
11
-9.2633988698
21
-1.8593981692
31
0.0000000000
11
-9.2660855508
21
-1.8890478965
31
0.0000000000
11
-9.2704003639
21
-1.9158872670
31
0.0000000000
11
-9.2761391366
21
-1.9399896115
31
0.0000000000
11
-9.2830920052
21
-1.9613236330
31
0.0000000000
11
-9.2910112597
21
-1.9797879677
31
0.0000000000
11
-9.2995763013
21
-1.9952407427
31
0.0000000000
11
-9.3083969766
21
-2.0076001180
31
0.0000000000
11
-9.3171299674
21
-2.0170113080
31
0.0000000000
11
-9.3257007802
21
-2.0239264993
31
0.0000000000
11
-9.3323057878
21
-2.0278859427
31
0.0000000000
0
SPLINE
5
2C8
100
AcDbEntity
8
0
100
AcDbSpline
62
7
6
CONTINUOUS
70
0
71
3
72
10
73
6
74
4
42
0.0000001000
43
0.0000001000
44
0.0000000001
12
0.0002233277
22
-0.3467305126
32
0.0000000000
13
0.0004483805
23
-0.3467302947
33
0.0000000000
40
0.0000000000
40
0.0000000000
40
0.0000000000
40
0.0000000000
40
0.3286219323
40
0.6728624461
40
1.0000000000
40
1.0000000000
40
1.0000000000
40
1.0000000000
10
-9.2629023245
20
-1.4825325067
30
0.0000000000
10
-9.2628778610
20
-1.5205135904
30
0.0000000000
10
-9.2628194817
20
-1.5982808990
30
0.0000000000
10
-9.2627074850
20
-1.7138577070
30
0.0000000000
10
-9.2626153830
20
-1.7914534230
30
0.0000000000
10
-9.2625664889
20
-1.8292629232
30
0.0000000000
11
-9.2629023245
21
-1.4825325067
31
0.0000000000
11
-9.2628167868
21
-1.5964757493
31
0.0000000000
11
-9.2627011239
21
-1.7158344078
31
0.0000000000
11
-9.2625664889
21
-1.8292629232
31
0.0000000000
0
SPLINE
5
2C9
100
AcDbEntity
8
0
100
AcDbSpline
62
7
6
CONTINUOUS
70
0
71
3
72
18
73
14
74
12
42
0.0000001000
43
0.0000001000
44
0.0000000001
12
-0.2586106415
22
-0.1345963229
32
0.0000000000
13
0.0001839645
23
-0.2914504042
33
0.0000000000
40
0.0000000000
40
0.0000000000
40
0.0000000000
40
0.0000000000
40
0.0626640886
40
0.1543110801
40
0.2474384381
40
0.3418908858
40
0.4371323021
40
0.5327808971
40
0.6284590351
40
0.7238743022
40
0.8187296190
40
0.9128924841
40
1.0000000000
40
1.0000000000
40
1.0000000000
40
1.0000000000
10
-9.1205156980
20
-1.2439937534
30
0.0000000000
10
-9.1259175647
20
-1.2468052053
30
0.0000000000
10
-9.1389620143
20
-1.2542356820
30
0.0000000000
10
-9.1587067983
20
-1.2680193192
30
0.0000000000
10
-9.1792171928
20
-1.2858461784
30
0.0000000000
10
-9.1980025233
20
-1.3059599092
30
0.0000000000
10
-9.2147934693
20
-1.3280727326
30
0.0000000000
10
-9.2293569327
20
-1.3518502473
30
0.0000000000
10
-9.2415113675
20
-1.3769630076
30
0.0000000000
10
-9.2511040581
20
-1.4030795798
30
0.0000000000
10
-9.2580100563
20
-1.4298815434
30
0.0000000000
10
-9.2620356072
20
-1.4564462543
30
0.0000000000
10
-9.2629076019
20
-1.4740689928
30
0.0000000000
10
-9.2629022603
20
-1.4825314997
30
0.0000000000
11
-9.1205156980
21
-1.2439937534
31
0.0000000000
11
-9.1363914532
21
-1.2530322766
31
0.0000000000
11
-9.1583003626
21
-1.2683067941
31
0.0000000000
11
-9.1787946891
21
-1.2860979157
31
0.0000000000
11
-9.1975938058
21
-1.3062037343
31
0.0000000000
11
-9.2143881846
21
-1.3283014688
31
0.0000000000
11
-9.2289522299
21
-1.3520680552
31
0.0000000000
11
-9.2410989754
21
-1.3771658371
31
0.0000000000
11
-9.2506794325
21
-1.4032693009
31
0.0000000000
11
-9.2575650806
21
-1.4300408455
31
0.0000000000
11
-9.2616606627
21
-1.4571745567
31
0.0000000000
11
-9.2629022603
21
-1.4825314997
31
0.0000000000
0
SPLINE
5
2CA
100
AcDbEntity
8
0
100
AcDbSpline
62
7
6
CONTINUOUS
70
0
71
3
72
18
73
14
74
12
42
0.0000001000
43
0.0000001000
44
0.0000000001
12
-0.3443237012
22
-0.1820330099
32
0.0000000000
13
0.0002491206
23
-0.3894648187
33
0.0000000000
40
0.0000000000
40
0.0000000000
40
0.0000000000
40
0.0000000000
40
0.0956329413
40
0.2019630363
40
0.3031961374
40
0.3998136961
40
0.4924048380
40
0.5819497288
40
0.6693294182
40
0.7551752054
40
0.8399448045
40
0.9240737629
40
1.0000000000
40
1.0000000000
40
1.0000000000
40
1.0000000000
10
-20.0419621982
20
4.3806539608
30
0.0000000000
10
-20.0529384277
20
4.3748511768
30
0.0000000000
10
-20.0756630731
20
4.3617098650
30
0.0000000000
10
-20.1079370118
20
4.3390862374
30
0.0000000000
10
-20.1379593370
20
4.3133422326
30
0.0000000000
10
-20.1640336107
20
4.2860248229
30
0.0000000000
10
-20.1862820519
20
4.2574112334
30
0.0000000000
10
-20.2048647190
20
4.2276986769
30
0.0000000000
10
-20.2199195429
20
4.1970253407
30
0.0000000000
10
-20.2315203462
20
4.1655468288
30
0.0000000000
10
-20.2397000065
20
4.1334458501
30
0.0000000000
10
-20.2443204707
20
4.1019493841
30
0.0000000000
10
-20.2452871309
20
4.0811572012
30
0.0000000000
10
-20.2452808259
20
4.0713003351
30
0.0000000000
11
-20.0419621982
21
4.3806539608
31
0.0000000000
11
-20.0741844291
21
4.3619734806
31
0.0000000000
11
-20.1080575934
21
4.3381602951
31
0.0000000000
11
-20.1379526237
21
4.3124636301
31
0.0000000000
11
-20.1639036604
21
4.2852221364
31
0.0000000000
11
-20.1860137408
21
4.2567410021
31
0.0000000000
11
-20.2044857673
21
4.2271660129
31
0.0000000000
11
-20.2194640691
21
4.1966134967
31
0.0000000000
11
-20.2310134432
21
4.1652427264
31
0.0000000000
11
-20.2391574117
21
4.1332529510
31
0.0000000000
11
-20.2439077987
21
4.1008385129
31
0.0000000000
11
-20.2452808259
21
4.0713003351
31
0.0000000000
0
SPLINE
5
2CB
100
AcDbEntity
8
0
100
AcDbSpline
62
7
6
CONTINUOUS
70
0
71
3
72
17
73
13
74
11
42
0.0000001000
43
0.0000001000
44
0.0000000001
12
0.5777492428
22
-0.2888963472
32
0.0000000000
13
0.5954870295
23
0.2499488907
33
0.0000000000
40
0.0000000000
40
0.0000000000
40
0.0000000000
40
0.0000000000
40
0.0675994872
40
0.1663480438
40
0.2655763719
40
0.3657196749
40
0.4672154435
40
0.5705136150
40
0.6760444787
40
0.7842077534
40
0.8954510686
40
1.0000000000
40
1.0000000000
40
1.0000000000
40
1.0000000000
10
-4.2054551638
20
-21.6031598003
30
0.0000000000
10
-4.1924366463
20
-21.6096695486
30
0.0000000000
10
-4.1598890888
20
-21.6246853511
30
0.0000000000
10
-4.1062145889
20
-21.6445768111
30
0.0000000000
10
-4.0441702291
20
-21.6613099517
30
0.0000000000
10
-3.9802784579
20
-21.6724243470
30
0.0000000000
10
-3.9147679053
20
-21.6777681018
30
0.0000000000
10
-3.8478821894
20
-21.6771638721
30
0.0000000000
10
-3.7798921232
20
-21.6704173838
30
0.0000000000
10
-3.7110904259
20
-21.6573270595
30
0.0000000000
10
-3.6439178815
20
-21.6382944252
30
0.0000000000
10
-3.6003742390
20
-21.6219522167
30
0.0000000000
10
-3.5796217281
20
-21.6132415869
30
0.0000000000
11
-4.2054551638
21
-21.6031598003
31
0.0000000000
11
-4.1658066124
21
-21.6214514322
31
0.0000000000
11
-4.1060153900
21
-21.6436163491
31
0.0000000000
11
-4.0441512557
21
-21.6603109841
31
0.0000000000
11
-3.9804426028
21
-21.6714086622
31
0.0000000000
11
-3.9151198271
21
-21.6767570905
31
0.0000000000
11
-3.8484170450
21
-21.6761802241
31
0.0000000000
11
-3.7805998774
21
-21.6694830666
31
0.0000000000
11
-3.7119765217
21
-21.6564665374
31
0.0000000000
11
-3.6428489944
21
-21.6369273443
31
0.0000000000
11
-3.5796217281
21
-21.6132415869
31
0.0000000000
0
SPLINE
5
2CC
100
AcDbEntity
8
0
100
AcDbSpline
62
7
6
CONTINUOUS
70
0
71
3
72
10
73
6
74
4
42
0.0000001000
43
0.0000001000
44
0.0000000001
12
0.0050048074
22
-7.8506770771
32
0.0000000000
13
0.1206247541
23
-7.8497519172
33
0.0000000000
40
0.0000000000
40
0.0000000000
40
0.0000000000
40
0.0000000000
40
0.3338718480
40
0.6677367820
40
1.0000000000
40
1.0000000000
40
1.0000000000
40
1.0000000000
10
-20.2452809470
20
4.0713055004
30
0.0000000000
10
-20.2447239589
20
3.1975988124
30
0.0000000000
10
-20.2393626985
20
1.4502030830
30
0.0000000000
10
-20.2185156845
20
-1.1666162356
30
0.0000000000
10
-20.1960458253
20
-2.9096659126
30
0.0000000000
10
-20.1826861023
20
-3.7790605234
30
0.0000000000
11
-20.2452809470
21
4.0713055004
31
0.0000000000
11
-20.2372228343
21
1.4501972946
31
0.0000000000
11
-20.2163261929
21
-1.1707856970
31
0.0000000000
11
-20.1826861023
21
-3.7790605234
31
0.0000000000
0
SPLINE
5
2CD
100
AcDbEntity
8
0
100
AcDbSpline
62
7
6
CONTINUOUS
70
0
71
3
72
14
73
10
74
8
42
0.0000001000
43
0.0000001000
44
0.0000000001
12
0.1508352320
22
-9.8157033000
32
0.0000000000
13
1.2566144044
23
-9.7361033607
33
0.0000000000
40
0.0000000000
40
0.0000000000
40
0.0000000000
40
0.0000000000
40
0.1460469363
40
0.2914717922
40
0.4357109648
40
0.5787514430
40
0.7205804749
40
0.8611878292
40
1.0000000000
40
1.0000000000
40
1.0000000000
40
1.0000000000
10
-20.1826861020
20
-3.7790605253
30
0.0000000000
10
-20.1753430942
20
-4.2569116567
30
0.0000000000
10
-20.1534792988
20
-5.2104844038
30
0.0000000000
10
-20.0987769897
20
-6.6352611428
30
0.0000000000
10
-20.0221948245
20
-8.0491822071
30
0.0000000000
10
-19.9238233938
20
-9.4499595771
30
0.0000000000
10
-19.8036911929
20
-10.8371132603
30
0.0000000000
10
-19.6620246933
20
-12.2083214908
30
0.0000000000
10
-19.5527661043
20
-13.1161633834
30
0.0000000000
10
-19.4946216465
20
-13.5666599309
30
0.0000000000
11
-20.1826861020
21
-3.7790605253
31
0.0000000000
11
-20.1497344792
21
-5.2124044166
31
0.0000000000
11
-20.0948726634
21
-6.6389654616
31
0.0000000000
11
-20.0181979015
21
-8.0528638651
31
0.0000000000
11
-19.9197317104
21
-9.4536157504
31
0.0000000000
11
-19.7995035663
21
-10.8407309872
31
0.0000000000
11
-19.6575493484
21
-12.2137350382
31
0.0000000000
11
-19.4946216465
21
-13.5666599309
31
0.0000000000
0
SPLINE
5
2CE
100
AcDbEntity
8
0
100
AcDbSpline
62
7
6
CONTINUOUS
70
0
71
3
72
19
73
15
74
13
42
0.0000001000
43
0.0000001000
44
0.0000000001
12
0.0947569373
22
-0.7341078800
32
0.0000000000
13
0.6621929487
23
-0.3310821790
33
0.0000000000
40
0.0000000000
40
0.0000000000
40
0.0000000000
40
0.0000000000
40
0.0896868208
40
0.1845696460
40
0.2765261299
40
0.3659230962
40
0.4530837196
40
0.5383350542
40
0.6219477536
40
0.7042180608
40
0.7854656727
40
0.8659874281
40
0.9460904703
40
1.0000000000
40
1.0000000000
40
1.0000000000
40
1.0000000000
10
-19.4946210298
20
-13.5666645664
30
0.0000000000
10
-19.4917882136
20
-13.5886111670
30
0.0000000000
10
-19.4843615985
20
-13.6335874952
30
0.0000000000
10
-19.4681180844
20
-13.6999210764
30
0.0000000000
10
-19.4465447036
20
-13.7646494506
30
0.0000000000
10
-19.4204335653
20
-13.8256159383
30
0.0000000000
10
-19.3900719789
20
-13.8827141640
30
0.0000000000
10
-19.3557496571
20
-13.9358312984
30
0.0000000000
10
-19.3177506967
20
-13.9848651681
30
0.0000000000
10
-19.2763479397
20
-14.0297251433
30
0.0000000000
10
-19.2317940541
20
-14.0703322412
30
0.0000000000
10
-19.1843190130
20
-14.1066094302
30
0.0000000000
10
-19.1395829244
20
-14.1350136983
30
0.0000000000
10
-19.1104290314
20
-14.1506731043
30
0.0000000000
10
-19.0985295279
20
-14.1566225992
30
0.0000000000
11
-19.4946210298
21
-13.5666645664
31
0.0000000000
11
-19.4837642559
21
-13.6321556980
31
0.0000000000
11
-19.4670135177
21
-13.7003551813
31
0.0000000000
11
-19.4454521102
21
-13.7649101710
31
0.0000000000
11
-19.4193684976
21
-13.8257181247
31
0.0000000000
11
-19.3890534561
21
-13.8826625096
31
0.0000000000
11
-19.3547875284
21
-13.9356453556
31
0.0000000000
11
-19.3168637997
21
-13.9845487826
31
0.0000000000
11
-19.2755542973
21
-14.0292846074
31
0.0000000000
11
-19.2311019564
21
-14.0697833657
31
0.0000000000
11
-19.1837425421
21
-14.1059623907
31
0.0000000000
11
-19.1336890326
21
-14.1377372092
31
0.0000000000
11
-19.0985295279
21
-14.1566225992
31
0.0000000000
0
SPLINE
5
2CF
100
AcDbEntity
8
0
100
AcDbSpline
62
7
6
CONTINUOUS
70
0
71
3
72
23
73
19
74
17
42
0.0000001000
43
0.0000001000
44
0.0000000001
12
0.0000000000
22
-0.6405357964
32
0.0000000000
13
0.5729126332
23
-0.2864563166
33
0.0000000000
40
0.0000000000
40
0.0000000000
40
0.0000000000
40
0.0000000000
40
0.0673970871
40
0.1340336291
40
0.1995322818
40
0.2637255589
40
0.3269679149
40
0.3893367484
40
0.4510708762
40
0.5122412532
40
0.5730220274
40
0.6335913412
40
0.6940262775
40
0.7545474558
40
0.8152247309
40
0.8764438646
40
0.9381194039
40
1.0000000000
40
1.0000000000
40
1.0000000000
40
1.0000000000
10
-14.5416803744
20
2.0552306928
30
0.0000000000
10
-14.5416803744
20
2.0408406106
30
0.0000000000
10
-14.5406043001
20
2.0122122125
30
0.0000000000
10
-14.5359488948
20
1.9698315624
30
0.0000000000
10
-14.5285186399
20
1.9285442633
30
0.0000000000
10
-14.5185611708
20
1.8885426117
30
0.0000000000
10
-14.5062741181
20
1.8498963822
30
0.0000000000
10
-14.4917853006
20
1.8125846271
30
0.0000000000
10
-14.4752017513
20
1.7766427472
30
0.0000000000
10
-14.4565898938
20
1.7420928215
30
0.0000000000
10
-14.4359936854
20
1.7089797752
30
0.0000000000
10
-14.4134309156
20
1.6773655276
30
0.0000000000
10
-14.3888928772
20
1.6473281324
30
0.0000000000
10
-14.3623680058
20
1.6189948676
30
0.0000000000
10
-14.3337869575
20
1.5924859174
30
0.0000000000
10
-14.3031144494
20
1.5680214355
30
0.0000000000
10
-14.2703833659
20
1.5459215638
30
0.0000000000
10
-14.2473115483
20
1.5330462798
30
0.0000000000
10
-14.2354941566
20
1.5271375839
30
0.0000000000
11
-14.5416803744
21
2.0552306928
31
0.0000000000
11
-14.5400795724
21
2.0120901360
31
0.0000000000
11
-14.5354345852
21
1.9696605436
31
0.0000000000
11
-14.5280139167
21
1.9283677932
31
0.0000000000
11
-14.5180876928
21
1.8884658189
31
0.0000000000
11
-14.5058163035
21
1.8498602298
31
0.0000000000
11
-14.4913547254
21
1.8126201579
31
0.0000000000
11
-14.4747848879
21
1.7767163573
31
0.0000000000
11
-14.4561969942
21
1.7422242578
31
0.0000000000
11
-14.4356265874
21
1.7091700696
31
0.0000000000
11
-14.4130789471
21
1.6775979828
31
0.0000000000
11
-14.3885766572
21
1.6476286788
31
0.0000000000
11
-14.3620691219
21
1.6193417229
31
0.0000000000
11
-14.3335574981
21
1.5929286452
31
0.0000000000
11
-14.3028841386
21
1.5684989902
31
0.0000000000
11
-14.2701244000
21
1.5464201447
31
0.0000000000
11
-14.2354941566
21
1.5271375839
31
0.0000000000
0
SPLINE
5
2D0
100
AcDbEntity
8
0
100
AcDbSpline
62
7
6
CONTINUOUS
70
0
71
3
72
18
73
14
74
12
42
0.0000001000
43
0.0000001000
44
0.0000000001
12
-0.0345150339
22
-0.3550377926
32
0.0000000000
13
-0.3291677819
23
-0.1381652588
33
0.0000000000
40
0.0000000000
40
0.0000000000
40
0.0000000000
40
0.0000000000
40
0.1159046782
40
0.2281524206
40
0.3364578978
40
0.4408720734
40
0.5412882252
40
0.6380992490
40
0.7314616710
40
0.8221177008
40
0.9105145987
40
0.9976740407
40
1.0000000000
40
1.0000000000
40
1.0000000000
40
1.0000000000
10
-1.5479512547
20
-20.5437952294
30
0.0000000000
10
-1.5492847394
20
-20.5575120764
30
0.0000000000
10
-1.5529086670
20
-20.5844291052
30
0.0000000000
10
-1.5613961418
20
-20.6235690081
30
0.0000000000
10
-1.5727872271
20
-20.6605447780
30
0.0000000000
10
-1.5869857775
20
-20.6950251571
30
0.0000000000
10
-1.6038844292
20
-20.7267326710
30
0.0000000000
10
-1.6233365066
20
-20.7553750528
30
0.0000000000
10
-1.6451967207
20
-20.7807208490
30
0.0000000000
10
-1.6692675331
20
-20.8025250938
30
0.0000000000
10
-1.6953629466
20
-20.8206053437
30
0.0000000000
10
-1.7142750256
20
-20.8302236238
30
0.0000000000
10
-1.7240859454
20
-20.8343630774
30
0.0000000000
10
-1.7243411557
20
-20.8344701996
30
0.0000000000
11
-1.5479512547
21
-20.5437952294
31
0.0000000000
11
-1.5535168311
21
-20.5847634490
31
0.0000000000
11
-1.5620569794
21
-20.6238821487
31
0.0000000000
11
-1.5734910595
21
-20.6607851750
31
0.0000000000
11
-1.5877354738
21
-20.6951994439
31
0.0000000000
11
-1.6046445735
21
-20.7267767473
31
0.0000000000
11
-1.6241046209
21
-20.7553052719
31
0.0000000000
11
-1.6459056573
21
-20.7804813481
31
0.0000000000
11
-1.6699107327
21
-20.8021494342
31
0.0000000000
11
-1.6958533755
21
-20.8200731197
31
0.0000000000
11
-1.7235761233
21
-20.8341474146
31
0.0000000000
11
-1.7243411557
21
-20.8344701996
31
0.0000000000
0
SPLINE
5
2D1
100
AcDbEntity
8
0
100
AcDbSpline
62
9
6
CONTINUOUS
70
0
71
3
72
24
73
20
74
18
42
0.0000001000
43
0.0000001000
44
0.0000000001
12
-0.3235755358
22
-0.1596315065
32
0.0000000000
13
-0.3227193546
23
0.1613553947
33
0.0000000000
40
0.0000000000
40
0.0000000000
40
0.0000000000
40
0.0000000000
40
0.0520628373
40
0.1066359878
40
0.1634537828
40
0.2222278042
40
0.2826364033
40
0.3443318355
40
0.4069445003
40
0.4700915858
40
0.5333818762
40
0.5964228665
40
0.6588248058
40
0.7202080747
40
0.7802079466
40
0.8384833196
40
0.8947210955
40
0.9486435905
40
1.0000000000
40
1.0000000000
40
1.0000000000
40
1.0000000000
10
-4.7109629303
20
-3.2324813663
30
0.0000000000
10
-4.7165783504
20
-3.2352516560
30
0.0000000000
10
-4.7282908229
20
-3.2405057268
30
0.0000000000
10
-4.7467208997
20
-3.2473795529
30
0.0000000000
10
-4.7662973732
20
-3.2533854797
30
0.0000000000
10
-4.7868548940
20
-3.2584722392
30
0.0000000000
10
-4.8082237055
20
-3.2625979062
30
0.0000000000
10
-4.8302266895
20
-3.2657281280
30
0.0000000000
10
-4.8526814078
20
-3.2678368669
30
0.0000000000
10
-4.8754013632
20
-3.2689065352
30
0.0000000000
10
-4.8981979353
20
-3.2689282248
30
0.0000000000
10
-4.9208817815
20
-3.2679017610
30
0.0000000000
10
-4.9432645830
20
-3.2658357055
30
0.0000000000
10
-4.9651604598
20
-3.2627473019
30
0.0000000000
10
-4.9863879176
20
-3.2586622418
30
0.0000000000
10
-5.0067710772
20
-3.2536145297
30
0.0000000000
10
-5.0261417414
20
-3.2476457221
30
0.0000000000
10
-5.0443365099
20
-3.2408066721
30
0.0000000000
10
-5.0558784830
20
-3.2355703212
30
0.0000000000
10
-5.0614030521
20
-3.2328081099
30
0.0000000000
11
-4.7109629303
21
-3.2324813663
31
0.0000000000
11
-4.7280892725
21
-3.2401985834
31
0.0000000000
11
-4.7465290349
21
-3.2471044464
31
0.0000000000
11
-4.7661214669
21
-3.2531378976
31
0.0000000000
11
-4.7867026774
21
-3.2582484012
31
0.0000000000
11
-4.8081009124
21
-3.2623933320
31
0.0000000000
11
-4.8301379364
21
-3.2655381488
31
0.0000000000
11
-4.8526296252
21
-3.2676565598
31
0.0000000000
11
-4.8753883375
21
-3.2687308905
31
0.0000000000
11
-4.8982240524
21
-3.2687521756
31
0.0000000000
11
-4.9209464068
21
-3.2677202378
31
0.0000000000
11
-4.9433656435
21
-3.2656436928
31
0.0000000000
11
-4.9652947305
21
-3.2625398709
31
0.0000000000
11
-4.9865504549
21
-3.2584347253
31
0.0000000000
11
-5.0069557808
21
-3.2533624673
31
0.0000000000
11
-5.0263404267
21
-3.2473654069
31
0.0000000000
11
-5.0445422499
21
-3.2404937733
31
0.0000000000
11
-5.0614030521
21
-3.2328081099
31
0.0000000000
0
SPLINE
5
2D2
100
AcDbEntity
8
0
100
AcDbSpline
62
9
6
CONTINUOUS
70
0
71
3
72
24
73
20
74
18
42
0.0000001000
43
0.0000001000
44
0.0000000001
12
-0.2115313032
22
-0.1118275522
32
0.0000000000
13
0.2140098144
23
-0.1070079111
33
0.0000000000
40
0.0000000000
40
0.0000000000
40
0.0000000000
40
0.0000000000
40
0.0728729396
40
0.1415012203
40
0.2058305976
40
0.2659892935
40
0.3222901230
40
0.3752566615
40
0.4256358481
40
0.4743860483
40
0.5226183929
40
0.5714973779
40
0.6221214930
40
0.6754276074
40
0.7321374712
40
0.7927499948
40
0.8575561611
40
0.9266655309
40
1.0000000000
40
1.0000000000
40
1.0000000000
40
1.0000000000
10
-19.9266594000
20
4.3753668686
30
0.0000000000
10
-19.9317977026
20
4.3726504677
30
0.0000000000
10
-19.9415897467
20
4.3670120924
30
0.0000000000
10
-19.9551001752
20
4.3576498428
30
0.0000000000
10
-19.9668938473
20
4.3477021615
30
0.0000000000
10
-19.9768694341
20
4.3372461886
30
0.0000000000
10
-19.9849404968
20
4.3263592857
30
0.0000000000
10
-19.9910297350
20
4.3151223725
30
0.0000000000
10
-19.9950686915
20
4.3036242678
30
0.0000000000
10
-19.9970019566
20
4.2919678509
30
0.0000000000
10
-19.9967981504
20
4.2802713869
30
0.0000000000
10
-19.9944602237
20
4.2686594955
30
0.0000000000
10
-19.9900245764
20
4.2572484089
30
0.0000000000
10
-19.9835499778
20
4.2461383405
30
0.0000000000
10
-19.9751071988
20
4.2354159002
30
0.0000000000
10
-19.9647756616
20
4.2251603040
30
0.0000000000
10
-19.9526440696
20
4.2154474049
30
0.0000000000
10
-19.9388167934
20
4.2063529098
30
0.0000000000
10
-19.9288314492
20
4.2009061620
30
0.0000000000
10
-19.9236000171
20
4.1982903726
30
0.0000000000
11
-19.9266594000
21
4.3753668686
31
0.0000000000
11
-19.9417497814
21
4.3666313506
31
0.0000000000
11
-19.9552205238
21
4.3572408394
31
0.0000000000
11
-19.9669526818
21
4.3472771024
31
0.0000000000
11
-19.9768479794
21
4.3368234905
31
0.0000000000
11
-19.9848238706
21
4.3259672438
31
0.0000000000
11
-19.9908138864
21
4.3147987851
31
0.0000000000
11
-19.9947679370
21
4.3034114313
31
0.0000000000
11
-19.9966530214
21
4.2919002236
31
0.0000000000
11
-19.9964534267
21
4.2803613200
31
0.0000000000
11
-19.9941708428
21
4.2688908762
31
0.0000000000
11
-19.9898243339
21
4.2575846607
31
0.0000000000
11
-19.9834501777
21
4.2465369939
31
0.0000000000
11
-19.9751016749
21
4.2358401780
31
0.0000000000
11
-19.9648484109
21
4.2255833082
31
0.0000000000
11
-19.9527758976
21
4.2158519686
31
0.0000000000
11
-19.9389852733
21
4.2067275531
31
0.0000000000
11
-19.9236000171
21
4.1982903726
31
0.0000000000
0
SPLINE
5
2D3
100
AcDbEntity
8
0
100
AcDbSpline
62
9
6
CONTINUOUS
70
0
71
3
72
14
73
10
74
8
42
0.0000001000
43
0.0000001000
44
0.0000000001
12
0.0001324625
22
-0.0966960666
32
0.0000000000
13
0.0862728400
23
-0.0431378904
33
0.0000000000
40
0.0000000000
40
0.0000000000
40
0.0000000000
40
0.0000000000
40
0.0662408637
40
0.1937946971
40
0.3289689898
40
0.4754371188
40
0.6355296894
40
0.8103501270
40
1.0000000000
40
1.0000000000
40
1.0000000000
40
1.0000000000
10
-9.2625646928
20
-1.8292632472
30
0.0000000000
10
-9.2625617680
20
-1.8313983241
30
0.0000000000
10
-9.2621582517
20
-1.8376443615
30
0.0000000000
10
-9.2595185178
20
-1.8479851329
30
0.0000000000
10
-9.2535173649
20
-1.8597966678
30
0.0000000000
10
-9.2447731684
20
-1.8710780919
30
0.0000000000
10
-9.2334413566
20
-1.8816993307
30
0.0000000000
10
-9.2196920581
20
-1.8915356094
30
0.0000000000
10
-9.2094417099
20
-1.8972644011
30
0.0000000000
10
-9.2039878321
20
-1.8999914329
30
0.0000000000
11
-9.2625646928
21
-1.8292632472
31
0.0000000000
11
-9.2621513775
21
-1.8356502041
31
0.0000000000
11
-9.2591683812
21
-1.8475865220
31
0.0000000000
11
-9.2533502167
21
-1.8592548680
31
0.0000000000
11
-9.2447807870
21
-1.8704869743
31
0.0000000000
11
-9.2335836707
21
-1.8811208642
31
0.0000000000
11
-9.2199203401
21
-1.8910031876
31
0.0000000000
11
-9.2039878321
21
-1.8999914329
31
0.0000000000
0
SPLINE
5
2D4
100
AcDbEntity
8
0
100
AcDbSpline
62
9
6
CONTINUOUS
70
0
71
3
72
14
73
10
74
8
42
0.0000001000
43
0.0000001000
44
0.0000000001
12
0.0000697795
22
-0.0966939972
32
0.0000000000
13
0.0862708267
23
-0.0431361460
33
0.0000000000
40
0.0000000000
40
0.0000000000
40
0.0000000000
40
0.0000000000
40
0.0665190497
40
0.1939722712
40
0.3290694318
40
0.4754842846
40
0.6355449034
40
0.8103509468
40
1.0000000000
40
1.0000000000
40
1.0000000000
40
1.0000000000
10
-9.2629004750
20
-1.4825325054
30
0.0000000000
10
-9.2628989277
20
-1.4846765030
30
0.0000000000
10
-9.2624966692
20
-1.4909284023
30
0.0000000000
10
-9.2598537715
20
-1.5012715609
30
0.0000000000
10
-9.2538523473
20
-1.5130742025
30
0.0000000000
10
-9.2451081003
20
-1.5243484173
30
0.0000000000
10
-9.2337763890
20
-1.5349643619
30
0.0000000000
10
-9.2200272517
20
-1.5447973664
30
0.0000000000
10
-9.2097773368
20
-1.5505251909
30
0.0000000000
10
-9.2043236099
20
-1.5532521007
30
0.0000000000
11
-9.2629004750
21
-1.4825325054
31
0.0000000000
11
-9.2624871320
21
-1.4889462052
31
0.0000000000
11
-9.2595041384
21
-1.5008721814
31
0.0000000000
11
-9.2536859768
21
-1.5125318251
31
0.0000000000
11
-9.2451165506
21
-1.5237569943
31
0.0000000000
11
-9.2339194385
21
-1.5343858126
31
0.0000000000
11
-9.2202561127
21
-1.5442650035
31
0.0000000000
11
-9.2043236099
21
-1.5532521007
31
0.0000000000
0
SPLINE
5
2D5
100
AcDbEntity
8
0
100
AcDbSpline
62
9
6
CONTINUOUS
70
0
71
3
72
16
73
12
74
10
42
0.0000001000
43
0.0000001000
44
0.0000000001
12
-0.3419148280
22
-0.1765341692
32
0.0000000000
13
-0.3437852551
23
0.1721547172
33
0.0000000000
40
0.0000000000
40
0.0000000000
40
0.0000000000
40
0.0000000000
40
0.0719278955
40
0.1724255571
40
0.2757410967
40
0.3829265906
40
0.4949597971
40
0.6125932343
40
0.7360749214
40
0.8653181978
40
1.0000000000
40
1.0000000000
40
1.0000000000
40
1.0000000000
10
-7.7954712195
20
-15.2700809518
30
0.0000000000
10
-7.8036689575
20
-15.2743135289
30
0.0000000000
10
-7.8238452929
20
-15.2834447291
30
0.0000000000
10
-7.8576719324
20
-15.2940492555
30
0.0000000000
10
-7.8970625351
20
-15.3008218052
30
0.0000000000
10
-7.9384534452
20
-15.3027173632
30
0.0000000000
10
-7.9816084680
20
-15.2997522526
30
0.0000000000
10
-8.0262673033
20
-15.2919596307
30
0.0000000000
10
-8.0721107027
20
-15.2794125687
30
0.0000000000
10
-8.1187569780
20
-15.2622521515
30
0.0000000000
10
-8.1495376426
20
-15.2481425071
30
0.0000000000
10
-8.1649715152
20
-15.2404138045
30
0.0000000000
11
-7.7954712195
21
-15.2700809518
31
0.0000000000
11
-7.8206720547
21
-15.2814967059
31
0.0000000000
11
-7.8575236248
21
-15.2931142483
31
0.0000000000
11
-7.8966571499
21
-15.2999312868
31
0.0000000000
11
-7.9378199317
21
-15.3019195560
31
0.0000000000
11
-7.9808006418
21
-15.2990766760
31
0.0000000000
11
-8.0253740499
21
-15.2914107859
31
0.0000000000
11
-8.0711939183
21
-15.2789792422
31
0.0000000000
11
-8.1178629125
21
-15.2619129892
31
0.0000000000
11
-8.1649715152
21
-15.2404138045
31
0.0000000000
0
SPLINE
5
2D6
100
AcDbEntity
8
0
100
AcDbSpline
62
9
6
CONTINUOUS
70
0
71
3
72
23
73
19
74
17
42
0.0000001000
43
0.0000001000
44
0.0000000001
12
1.0141514830
22
-0.5070841419
32
0.0000000000
13
0.2684335711
23
-1.1016265135
33
0.0000000000
40
0.0000000000
40
0.0000000000
40
0.0000000000
40
0.0000000000
40
0.0530480982
40
0.1083879694
40
0.1658121280
40
0.2250716916
40
0.2859073804
40
0.3481753965
40
0.4117367616
40
0.4763632227
40
0.5417899882
40
0.6077409603
40
0.6739449085
40
0.7402007054
40
0.8063066408
40
0.8719093421
40
0.9366072790
40
1.0000000000
40
1.0000000000
40
1.0000000000
40
1.0000000000
10
-8.5067105806
20
-9.1545653901
30
0.0000000000
10
-8.4887776448
20
-9.1635320066
30
0.0000000000
10
-8.4528332104
20
-9.1832736754
30
0.0000000000
10
-8.4001223795
20
-9.2172542251
30
0.0000000000
10
-8.3478717865
20
-9.2560212457
30
0.0000000000
10
-8.2965233708
20
-9.2992680291
30
0.0000000000
10
-8.2464443193
20
-9.3466787717
30
0.0000000000
10
-8.1979369260
20
-9.3979548414
30
0.0000000000
10
-8.1512721268
20
-9.4528058371
30
0.0000000000
10
-8.1067310480
20
-9.5109047721
30
0.0000000000
10
-8.0646030509
20
-9.5718761919
30
0.0000000000
10
-8.0251612930
20
-9.6353209970
30
0.0000000000
10
-7.9886429427
20
-9.7008508040
30
0.0000000000
10
-7.9552549050
20
-9.7680949910
30
0.0000000000
10
-7.9252053885
20
-9.8366481573
30
0.0000000000
10
-7.8987113081
20
-9.9060236350
30
0.0000000000
10
-7.8759786266
20
-9.9756417368
30
0.0000000000
10
-7.8632804690
20
-10.0223849752
30
0.0000000000
10
-7.8576082242
20
-10.0456633426
30
0.0000000000
11
-8.5067105806
21
-9.1545653901
31
0.0000000000
11
-8.4539497685
21
-9.1834480888
31
0.0000000000
11
-8.4011693666
21
-9.2173817877
31
0.0000000000
11
-8.3488386445
21
-9.2561236135
31
0.0000000000
11
-8.2974074688
21
-9.2993625114
31
0.0000000000
11
-8.2472810431
21
-9.3467488137
31
0.0000000000
11
-8.1987305118
21
-9.3980094801
31
0.0000000000
11
-8.1520047754
21
-9.4528797076
31
0.0000000000
11
-8.1074006011
21
-9.5110177768
31
0.0000000000
11
-8.0652146170
21
-9.5720400851
31
0.0000000000
11
-8.0257241795
21
-9.6355414662
31
0.0000000000
11
-7.9891788743
21
-9.7011108356
31
0.0000000000
11
-7.9557720790
21
-9.7683991492
31
0.0000000000
11
-7.9256896790
21
-9.8370524704
31
0.0000000000
11
-7.8991682539
21
-9.9065480164
31
0.0000000000
11
-7.8764211762
21
-9.9762905555
31
0.0000000000
11
-7.8576082242
21
-10.0456633426
31
0.0000000000
0
SPLINE
5
2D7
100
AcDbEntity
8
0
100
AcDbSpline
62
9
6
CONTINUOUS
70
0
71
3
72
16
73
12
74
10
42
0.0000001000
43
0.0000001000
44
0.0000000001
12
0.0001853563
22
-0.2420196852
32
0.0000000000
13
0.2161653040
23
-0.1080858688
33
0.0000000000
40
0.0000000000
40
0.0000000000
40
0.0000000000
40
0.0000000000
40
0.0562552043
40
0.1526295023
40
0.2525225596
40
0.3577935128
40
0.4698693694
40
0.5897318131
40
0.7179494228
40
0.8547284375
40
1.0000000000
40
1.0000000000
40
1.0000000000
40
1.0000000000
10
-20.2452796896
20
4.0712993859
30
0.0000000000
10
-20.2452762138
20
4.0667610969
30
0.0000000000
10
-20.2446068682
20
4.0544481357
30
0.0000000000
10
-20.2405528102
20
4.0344029355
30
0.0000000000
10
-20.2316812591
20
4.0116701050
30
0.0000000000
10
-20.2187330323
20
3.9895276980
30
0.0000000000
10
-20.2018497096
20
3.9681476590
30
0.0000000000
10
-20.1811897740
20
3.9476875265
30
0.0000000000
10
-20.1569304911
20
3.9282984277
30
0.0000000000
10
-20.1292739034
20
3.9101276269
30
0.0000000000
10
-20.1093015654
20
3.8992369651
30
0.0000000000
10
-20.0988340082
20
3.8940030308
30
0.0000000000
11
-20.2452796896
21
4.0712993859
31
0.0000000000
11
-20.2445408643
21
4.0577114287
31
0.0000000000
11
-20.2399767442
21
4.0348710885
31
0.0000000000
11
-20.2312852950
21
4.0123475450
31
0.0000000000
11
-20.2185390124
21
3.9903286829
31
0.0000000000
11
-20.2018444360
21
3.9689984483
31
0.0000000000
11
-20.1813406739
21
3.9485345181
31
0.0000000000
11
-20.1571986263
21
3.9291075383
31
0.0000000000
11
-20.1296208585
21
3.9108803601
31
0.0000000000
11
-20.0988340082
21
3.8940030308
31
0.0000000000
0
SPLINE
5
2D8
100
AcDbEntity
8
0
100
AcDbSpline
62
9
6
CONTINUOUS
70
0
71
3
72
23
73
19
74
17
42
0.0000001000
43
0.0000001000
44
0.0000000001
12
0.2154511927
22
0.7682482722
32
0.0000000000
13
0.7136549990
23
-0.3568209167
33
0.0000000000
40
0.0000000000
40
0.0000000000
40
0.0000000000
40
0.0000000000
40
0.0679321184
40
0.1334448225
40
0.1965645325
40
0.2574602152
40
0.3164633070
40
0.3741331067
40
0.4310946766
40
0.4879480792
40
0.5452893741
40
0.6036853338
40
0.6636597135
40
0.7257287019
40
0.7903091593
40
0.8575677133
40
0.9275106897
40
1.0000000000
40
1.0000000000
40
1.0000000000
40
1.0000000000
10
-17.3504422894
20
-5.2992463100
30
0.0000000000
10
-17.3455636041
20
-5.2818500658
30
0.0000000000
10
-17.3345267180
20
-5.2480594258
30
0.0000000000
10
-17.3136628685
20
-5.2000359739
30
0.0000000000
10
-17.2889037726
20
-5.1560174837
30
0.0000000000
10
-17.2604304503
20
-5.1164064062
30
0.0000000000
10
-17.2284440346
20
-5.0815023424
30
0.0000000000
10
-17.1931461087
20
-5.0515313282
30
0.0000000000
10
-17.1547451305
20
-5.0266831181
30
0.0000000000
10
-17.1134909005
20
-5.0071315003
30
0.0000000000
10
-17.0696780791
20
-4.9930153302
30
0.0000000000
10
-17.0236197671
20
-4.9844204935
30
0.0000000000
10
-16.9756150593
20
-4.9813813967
30
0.0000000000
10
-16.9259440324
20
-4.9839009757
30
0.0000000000
10
-16.8749149831
20
-4.9919582709
30
0.0000000000
10
-16.8228990343
20
-5.0054837735
30
0.0000000000
10
-16.7703380061
20
-5.0243252413
30
0.0000000000
10
-16.7358085591
20
-5.0400165599
30
0.0000000000
10
-16.7185644396
20
-5.0486384606
30
0.0000000000
11
-17.3504422894
21
-5.2992463100
31
0.0000000000
11
-17.3335161878
21
-5.2477547085
31
0.0000000000
11
-17.3125916434
21
-5.1998537499
31
0.0000000000
11
-17.2878119943
21
-5.1560092092
31
0.0000000000
11
-17.2593764252
21
-5.1166111962
31
0.0000000000
11
-17.2275130020
21
-5.0819551023
31
0.0000000000
11
-17.1924032002
21
-5.0522130161
31
0.0000000000
11
-17.1542334170
21
-5.0275417187
31
0.0000000000
11
-17.1132455850
21
-5.0081055313
31
0.0000000000
11
-17.0697108509
21
-4.9940355622
31
0.0000000000
11
-17.0239206069
21
-4.9854216424
31
0.0000000000
11
-16.9761690040
21
-4.9823109784
31
0.0000000000
11
-16.9267035718
21
-4.9847203638
31
0.0000000000
11
-16.8757898903
21
-4.9926529729
31
0.0000000000
11
-16.8238258965
21
-5.0060563491
31
0.0000000000
11
-16.7712590258
21
-5.0247941309
31
0.0000000000
11
-16.7185644396
21
-5.0486384606
31
0.0000000000
0
SPLINE
5
2D9
100
AcDbEntity
8
0
100
AcDbSpline
62
9
6
CONTINUOUS
70
0
71
3
72
21
73
17
74
15
42
0.0000001000
43
0.0000001000
44
0.0000000001
12
1.1904090415
22
-4.9851230819
32
0.0000000000
13
-1.0851770950
23
-5.0090833992
33
0.0000000000
40
0.0000000000
40
0.0000000000
40
0.0000000000
40
0.0000000000
40
0.0799858731
40
0.1590405056
40
0.2370206940
40
0.3137912926
40
0.3892401000
40
0.4633220322
40
0.5359937910
40
0.6071633089
40
0.6767627989
40
0.7447480464
40
0.8110862401
40
0.8757545825
40
0.9387354303
40
1.0000000000
40
1.0000000000
40
1.0000000000
40
1.0000000000
10
-7.8561757857
20
-10.0516036714
30
0.0000000000
10
-7.8244371503
20
-10.1845168121
30
0.0000000000
10
-7.7645847437
20
-10.4495861939
30
0.0000000000
10
-7.6854065858
20
-10.8467454206
30
0.0000000000
10
-7.6174712327
20
-11.2404125931
30
0.0000000000
10
-7.5609123714
20
-11.6296518032
30
0.0000000000
10
-7.5158121191
20
-12.0136820235
30
0.0000000000
10
-7.4822238495
20
-12.3918628658
30
0.0000000000
10
-7.4601986853
20
-12.7635727557
30
0.0000000000
10
-7.4497849508
20
-13.1281316791
30
0.0000000000
10
-7.4510161706
20
-13.4848348440
30
0.0000000000
10
-7.4639116541
20
-13.8330525563
30
0.0000000000
10
-7.4884834123
20
-14.1722006930
30
0.0000000000
10
-7.5247378133
20
-14.5017081401
30
0.0000000000
10
-7.5726646645
20
-14.8209595212
30
0.0000000000
10
-7.6129393539
20
-15.0294478685
30
0.0000000000
10
-7.6351003231
20
-15.1317409815
30
0.0000000000
11
-7.8561757857
21
-10.0516036714
31
0.0000000000
11
-7.7659350266
21
-10.4514984087
31
0.0000000000
11
-7.6867785557
21
-10.8488684497
31
0.0000000000
11
-7.6188828813
21
-11.2427297366
31
0.0000000000
11
-7.5623842341
21
-11.6321233228
31
0.0000000000
11
-7.5173720702
21
-12.0161911298
31
0.0000000000
11
-7.4838839783
21
-12.3944023179
31
0.0000000000
11
-7.4619662859
21
-12.7662202126
31
0.0000000000
11
-7.4516761045
21
-13.1308389583
31
0.0000000000
11
-7.4530444889
21
-13.4875534167
31
0.0000000000
11
-7.4660887788
21
-13.8357528020
31
0.0000000000
11
-7.4908196433
21
-14.1748541964
31
0.0000000000
11
-7.5272418785
21
-14.5042904597
31
0.0000000000
11
-7.5753494592
21
-14.8234801503
31
0.0000000000
11
-7.6351003231
21
-15.1317409815
31
0.0000000000
0
SPLINE
5
2DA
100
AcDbEntity
8
0
100
AcDbSpline
62
9
6
CONTINUOUS
70
0
71
3
72
9
73
5
74
3
42
0.0000001000
43
0.0000001000
44
0.0000000001
12
0.0014455864
22
-0.0059371468
32
0.0000000000
13
0.0014192634
23
-0.0059434942
33
0.0000000000
40
0.0000000000
40
0.0000000000
40
0.0000000000
40
0.0000000000
40
0.5002114882
40
1.0000000000
40
1.0000000000
40
1.0000000000
40
1.0000000000
10
-7.8576082242
20
-10.0456633426
30
0.0000000000
10
-7.8573671912
20
-10.0466532856
30
0.0000000000
10
-7.8568875168
20
-10.0486328679
30
0.0000000000
10
-7.8564122296
20
-10.0506135080
30
0.0000000000
10
-7.8561757857
20
-10.0516036714
30
0.0000000000
11
-7.8576082242
21
-10.0456633426
31
0.0000000000
11
-7.8568884117
21
-10.0486339699
31
0.0000000000
11
-7.8561757857
21
-10.0516036714
31
0.0000000000
0
SPLINE
5
2DB
100
AcDbEntity
8
0
100
AcDbSpline
62
9
6
CONTINUOUS
70
0
71
3
72
15
73
11
74
9
42
0.0000001000
43
0.0000001000
44
0.0000000001
12
0.0037095528
22
-0.2416982311
32
0.0000000000
13
0.2158647374
23
-0.1080186725
33
0.0000000000
40
0.0000000000
40
0.0000000000
40
0.0000000000
40
0.0000000000
40
0.1042369794
40
0.2101565184
40
0.3211465757
40
0.4391036804
40
0.5653742541
40
0.7007759626
40
0.8456627244
40
1.0000000000
40
1.0000000000
40
1.0000000000
40
1.0000000000
10
-20.1826860999
20
-3.7790605253
30
0.0000000000
10
-20.1825572090
20
-3.7874584898
30
0.0000000000
10
-20.1806510663
20
-3.8043644856
30
0.0000000000
10
-20.1729817509
20
-3.8291863967
30
0.0000000000
10
-20.1606730519
20
-3.8532888377
30
0.0000000000
10
-20.1438674098
20
-3.8765289835
30
0.0000000000
10
-20.1227536565
20
-3.8987123851
30
0.0000000000
10
-20.0975414011
20
-3.9196569395
30
0.0000000000
10
-20.0684704277
20
-3.9391852969
30
0.0000000000
10
-20.0473400193
20
-3.9507930051
30
0.0000000000
10
-20.0362346942
20
-3.9563501076
30
0.0000000000
11
-20.1826860999
21
-3.7790605253
31
0.0000000000
11
-20.1799005840
21
-3.8040661055
31
0.0000000000
11
-20.1724368723
21
-3.8285195714
31
0.0000000000
11
-20.1603612787
21
-3.8524348828
31
0.0000000000
11
-20.1437875301
21
-3.8755868071
31
0.0000000000
11
-20.1228717170
21
-3.8977573010
31
0.0000000000
11
-20.0978108229
21
-3.9187375644
31
0.0000000000
11
-20.0688408696
21
-3.9383300067
31
0.0000000000
11
-20.0362346942
21
-3.9563501076
31
0.0000000000
0
SPLINE
5
2DC
100
AcDbEntity
8
0
100
AcDbSpline
62
9
6
CONTINUOUS
70
0
71
3
72
9
73
5
74
3
42
0.0000001000
43
0.0000001000
44
0.0000000001
12
0.0012504271
22
0.0045950557
32
0.0000000000
13
0.0012845525
23
0.0045856329
33
0.0000000000
40
0.0000000000
40
0.0000000000
40
0.0000000000
40
0.0000000000
40
0.5004385968
40
1.0000000000
40
1.0000000000
40
1.0000000000
40
1.0000000000
10
-17.3517097559
20
-5.3038366863
30
0.0000000000
10
-17.3515011686
20
-5.3030701719
30
0.0000000000
10
-17.3510815250
20
-5.3015392566
30
0.0000000000
10
-17.3506561937
20
-5.3000099117
30
0.0000000000
10
-17.3504422894
20
-5.2992463100
30
0.0000000000
11
-17.3517097559
21
-5.3038366863
31
0.0000000000
11
-17.3510797325
21
-5.3015383070
31
0.0000000000
11
-17.3504422894
21
-5.2992463100
31
0.0000000000
0
SPLINE
5
2DD
100
AcDbEntity
8
0
100
AcDbSpline
62
9
6
CONTINUOUS
70
0
71
3
72
15
73
11
74
9
42
0.0000001000
43
0.0000001000
44
0.0000000001
12
0.0304416774
22
-0.2359456065
32
0.0000000000
13
0.2123059121
23
-0.1067395601
33
0.0000000000
40
0.0000000000
40
0.0000000000
40
0.0000000000
40
0.0000000000
40
0.0442889916
40
0.1650396768
40
0.2886391881
40
0.4169084200
40
0.5513144599
40
0.6929202648
40
0.8423858227
40
1.0000000000
40
1.0000000000
40
1.0000000000
40
1.0000000000
10
-19.4946200960
20
-13.5666644459
30
0.0000000000
10
-19.4941706856
20
-13.5701477102
30
0.0000000000
10
-19.4921006644
20
-13.5830766334
30
0.0000000000
10
-19.4859142714
20
-13.6051934947
30
0.0000000000
10
-19.4734605197
20
-13.6320850955
30
0.0000000000
10
-19.4565129053
20
-13.6576876243
30
0.0000000000
10
-19.4352616627
20
-13.6817659084
30
0.0000000000
10
-19.4099255696
20
-13.7041095000
30
0.0000000000
10
-19.3807551915
20
-13.7245241277
30
0.0000000000
10
-19.3594894697
20
-13.7364198312
30
0.0000000000
10
-19.3483353292
20
-13.7420277205
30
0.0000000000
11
-19.4946200960
21
-13.5666644459
31
0.0000000000
11
-19.4929540270
21
-13.5770663892
31
0.0000000000
11
-19.4852599166
21
-13.6047093374
31
0.0000000000
11
-19.4729826166
21
-13.6313909272
31
0.0000000000
11
-19.4562377823
21
-13.6568598110
31
0.0000000000
11
-19.4351831543
21
-13.6808760657
31
0.0000000000
11
-19.4100170726
21
-13.7032134518
31
0.0000000000
11
-19.3809766080
21
-13.7236615455
31
0.0000000000
11
-19.3483353292
21
-13.7420277205
31
0.0000000000
0
SPLINE
5
2DE
100
AcDbEntity
8
0
100
AcDbSpline
62
9
6
CONTINUOUS
70
0
71
3
72
9
73
5
74
3
42
0.0000001000
43
0.0000001000
44
0.0000000001
12
-0.0076188073
22
0.0038089059
32
0.0000000000
13
-0.0075284463
23
0.0039843953
33
0.0000000000
40
0.0000000000
40
0.0000000000
40
0.0000000000
40
0.0000000000
40
0.8389926930
40
1.0000000000
40
1.0000000000
40
1.0000000000
40
1.0000000000
10
-19.0985472264
20
-14.1566137970
30
0.0000000000
10
-19.1006779343
20
-14.1555485822
30
0.0000000000
10
-19.1032052021
20
-14.1542542980
30
0.0000000000
10
-19.1057171635
20
-14.1529308489
30
0.0000000000
10
-19.1061212084
20
-14.1527170100
30
0.0000000000
11
-19.0985472264
21
-14.1566137970
31
0.0000000000
11
-19.1049078784
21
-14.1533562628
31
0.0000000000
11
-19.1061212084
21
-14.1527170100
31
0.0000000000
0
SPLINE
5
2DF
100
AcDbEntity
8
0
100
AcDbSpline
62
9
6
CONTINUOUS
70
0
71
3
72
16
73
12
74
10
42
0.0000001000
43
0.0000001000
44
0.0000000001
12
-0.4380892935
22
0.2318567262
32
0.0000000000
13
-0.0639211602
23
0.4911636945
33
0.0000000000
40
0.0000000000
40
0.0000000000
40
0.0000000000
40
0.0000000000
40
0.0961482480
40
0.1963546766
40
0.2988550602
40
0.4045291603
40
0.5141024090
40
0.6281304979
40
0.7469999017
40
0.8709308961
40
1.0000000000
40
1.0000000000
40
1.0000000000
40
1.0000000000
10
-19.1061212084
20
-14.1527170100
30
0.0000000000
10
-19.1201617145
20
-14.1452861373
30
0.0000000000
10
-19.1478509275
20
-14.1282514808
30
0.0000000000
10
-19.1862982584
20
-14.0971078922
30
0.0000000000
10
-19.2215960616
20
-14.0602371033
30
0.0000000000
10
-19.2531632581
20
-14.0181902296
30
0.0000000000
10
-19.2808066907
20
-13.9712574981
30
0.0000000000
10
-19.3043620562
20
-13.9197534156
30
0.0000000000
10
-19.3236912879
20
-13.8640144610
30
0.0000000000
10
-19.3386811346
20
-13.8044047999
30
0.0000000000
10
-19.3455852471
20
-13.7631590733
30
0.0000000000
10
-19.3483353294
20
-13.7420277207
30
0.0000000000
11
-19.1061212084
21
-14.1527170100
31
0.0000000000
11
-19.1466963862
21
-14.1277817483
31
0.0000000000
11
-19.1853003710
21
-14.0965864243
31
0.0000000000
11
-19.2204699571
21
-14.0599723075
31
0.0000000000
11
-19.2519772293
21
-14.0181767349
31
0.0000000000
11
-19.2796180537
21
-13.9714706123
31
0.0000000000
11
-19.3032133441
21
-13.9201567520
31
0.0000000000
11
-19.3226105058
21
-13.8645670545
31
0.0000000000
11
-19.3376835868
21
-13.8050627390
31
0.0000000000
11
-19.3483353294
21
-13.7420277207
31
0.0000000000
0
SPLINE
5
2E0
100
AcDbEntity
8
0
100
AcDbSpline
62
9
6
CONTINUOUS
70
0
71
3
72
21
73
17
74
15
42
0.0000001000
43
0.0000001000
44
0.0000000001
12
-1.4587187717
22
4.9391155538
32
0.0000000000
13
1.3522681131
23
4.9693152304
33
0.0000000000
40
0.0000000000
40
0.0000000000
40
0.0000000000
40
0.0000000000
40
0.0791701157
40
0.1573072489
40
0.2343299235
40
0.3101939905
40
0.3848676778
40
0.4583244107
40
0.5305406438
40
0.6014840953
40
0.6711159160
40
0.7394571718
40
0.8065357382
40
0.8723322041
40
0.9368242522
40
1.0000000000
40
1.0000000000
40
1.0000000000
40
1.0000000000
10
-17.1278582500
20
-10.3853620181
30
0.0000000000
10
-17.1663538946
20
-10.2550185682
30
0.0000000000
10
-17.2388315132
20
-9.9948260588
30
0.0000000000
10
-17.3342945236
20
-9.6039794068
30
0.0000000000
10
-17.4156218480
20
-9.2157380665
30
0.0000000000
10
-17.4826513971
20
-8.8308056626
30
0.0000000000
10
-17.5352652926
20
-8.4498139893
30
0.0000000000
10
-17.5733720050
20
-8.0733885064
30
0.0000000000
10
-17.5969042311
20
-7.7021833503
30
0.0000000000
10
-17.6058249692
20
-7.3369032863
30
0.0000000000
10
-17.6001381549
20
-6.9782064822
30
0.0000000000
10
-17.5798771046
20
-6.6266771180
30
0.0000000000
10
-17.5450945595
20
-6.2828982354
30
0.0000000000
10
-17.4958829525
20
-5.9475551842
30
0.0000000000
10
-17.4324068758
20
-5.6214429188
30
0.0000000000
10
-17.3801866057
20
-5.4084834216
30
0.0000000000
10
-17.3517097559
20
-5.3038366863
30
0.0000000000
11
-17.1278582500
21
-10.3853620181
31
0.0000000000
11
-17.2371816375
21
-9.9925638980
31
0.0000000000
11
-17.3325702776
21
-9.6016250958
31
0.0000000000
11
-17.4137995843
21
-9.2133627465
31
0.0000000000
11
-17.4807208100
21
-8.8284351176
31
0.0000000000
11
-17.5332191443
21
-8.4474641731
31
0.0000000000
11
-17.5712046306
21
-8.0710723021
31
0.0000000000
11
-17.5946122019
21
-7.6998944813
31
0.0000000000
11
-17.6034044523
21
-7.3346399771
31
0.0000000000
11
-17.5975872755
21
-6.9760817789
31
0.0000000000
11
-17.5771983421
21
-6.6247138932
31
0.0000000000
11
-17.5422831321
21
-6.2810267919
31
0.0000000000
11
-17.4929406413
21
-5.9457853483
31
0.0000000000
11
-17.4293384139
21
-5.6197965305
31
0.0000000000
11
-17.3517097559
21
-5.3038366863
31
0.0000000000
0
SPLINE
5
2E1
100
AcDbEntity
8
0
100
AcDbSpline
62
9
6
CONTINUOUS
70
0
71
3
72
23
73
19
74
17
42
0.0000001000
43
0.0000001000
44
0.0000000001
12
-1.0226718354
22
0.5113453172
32
0.0000000000
13
-0.3238658600
23
1.0965594471
33
0.0000000000
40
0.0000000000
40
0.0000000000
40
0.0000000000
40
0.0000000000
40
0.0528544896
40
0.1081641249
40
0.1656875479
40
0.2251409424
40
0.2862333090
40
0.3487965940
40
0.4126659029
40
0.4775835078
40
0.5432575240
40
0.6093860024
40
0.6756764031
40
0.7419089830
40
0.8078536209
40
0.8731287481
40
0.9373175351
40
1.0000000000
40
1.0000000000
40
1.0000000000
40
1.0000000000
10
-16.4430889444
20
-11.2658060611
30
0.0000000000
10
-16.4611065437
20
-11.2567970959
30
0.0000000000
10
-16.4973185858
20
-11.2370156798
30
0.0000000000
10
-16.5506642251
20
-11.2031491812
30
0.0000000000
10
-16.6038791324
20
-11.1646140321
30
0.0000000000
10
-16.6565100427
20
-11.1217112921
30
0.0000000000
10
-16.7081757004
20
-11.0747484972
30
0.0000000000
10
-16.7585584350
20
-11.0240143057
30
0.0000000000
10
-16.8073689033
20
-10.9697897545
30
0.0000000000
10
-16.8543024505
20
-10.9123942880
30
0.0000000000
10
-16.8990416217
20
-10.8521970379
30
0.0000000000
10
-16.9412835750
20
-10.7895902249
30
0.0000000000
10
-16.9807614755
20
-10.7249552803
30
0.0000000000
10
-17.0172373402
20
-10.6586594685
30
0.0000000000
10
-17.0504684504
20
-10.5911095672
30
0.0000000000
10
-17.0802002448
20
-10.5227951148
30
0.0000000000
10
-17.1061864057
20
-10.4542990190
30
0.0000000000
10
-17.1210913465
20
-10.4082737011
30
0.0000000000
10
-17.1278582500
20
-10.3853620181
30
0.0000000000
11
-16.4430889444
21
-11.2658060611
31
0.0000000000
11
-16.4961654577
21
-11.2369089714
31
0.0000000000
11
-16.5495965442
21
-11.2030792458
31
0.0000000000
11
-16.6029065054
21
-11.1645573593
31
0.0000000000
11
-16.6556325077
21
-11.1216504591
31
0.0000000000
11
-16.7073536322
21
-11.0747010213
31
0.0000000000
11
-16.7577868891
21
-11.0239703780
31
0.0000000000
11
-16.8066665286
21
-10.9697139107
31
0.0000000000
11
-16.8536704684
21
-10.9122673120
31
0.0000000000
11
-16.8984741646
21
-10.8520074548
31
0.0000000000
11
-16.9407697494
21
-10.7893335904
31
0.0000000000
11
-16.9802774948
21
-10.7246489782
31
0.0000000000
11
-17.0167762349
21
-10.6582954896
31
0.0000000000
11
-17.0500459938
21
-10.5906322765
31
0.0000000000
11
-17.0798089856
21
-10.5221888802
31
0.0000000000
11
-17.1058133381
21
-10.4535576754
31
0.0000000000
11
-17.1278582500
21
-10.3853620181
31
0.0000000000
0
SPLINE
5
2E2
100
AcDbEntity
8
0
100
AcDbSpline
62
9
6
CONTINUOUS
70
0
71
3
72
23
73
19
74
17
42
0.0000001000
43
0.0000001000
44
0.0000000001
12
-0.1630103986
22
-0.7524097925
32
0.0000000000
13
-0.6885914600
23
0.3442886682
33
0.0000000000
40
0.0000000000
40
0.0000000000
40
0.0000000000
40
0.0000000000
40
0.0678330925
40
0.1328250104
40
0.1950509906
40
0.2547624591
40
0.3123946457
40
0.3686317075
40
0.4242437465
40
0.4799760314
40
0.5365509802
40
0.5946319854
40
0.6548030954
40
0.7176114186
40
0.7834811505
40
0.8525562605
40
0.9247961792
40
1.0000000000
40
1.0000000000
40
1.0000000000
40
1.0000000000
10
-7.6351003231
20
-15.1317409815
30
0.0000000000
10
-7.6387861563
20
-15.1487537426
30
0.0000000000
10
-7.6474490049
20
-15.1817795337
30
0.0000000000
10
-7.6648448435
20
-15.2288043507
30
0.0000000000
10
-7.6862848302
20
-15.2718317945
30
0.0000000000
10
-7.7116220941
20
-15.3104614393
30
0.0000000000
10
-7.7406803615
20
-15.3443928570
30
0.0000000000
10
-7.7732733316
20
-15.3733992835
30
0.0000000000
10
-7.8092015436
20
-15.3972942268
30
0.0000000000
10
-7.8482211170
20
-15.4159134475
30
0.0000000000
10
-7.8900418193
20
-15.4291346018
30
0.0000000000
10
-7.9343561388
20
-15.4368933748
30
0.0000000000
10
-7.9808744341
20
-15.4391778322
30
0.0000000000
10
-8.0293300897
20
-15.4360043423
30
0.0000000000
10
-8.0794296232
20
-15.4274087236
30
0.0000000000
10
-8.1308140668
20
-15.4134716118
30
0.0000000000
10
-8.1830483831
20
-15.3943530890
30
0.0000000000
10
-8.2174962424
20
-15.3786022351
30
0.0000000000
10
-8.2347578120
20
-15.3699716273
30
0.0000000000
11
-7.6351003231
21
-15.1317409815
31
0.0000000000
11
-7.6484645406
21
-15.1822243681
31
0.0000000000
11
-7.6659385070
21
-15.2291089632
31
0.0000000000
11
-7.6874116905
21
-15.2719324647
31
0.0000000000
11
-7.7127147517
21
-15.3103118545
31
0.0000000000
11
-7.7416403760
21
-15.3439558622
31
0.0000000000
11
-7.7740179265
21
-15.3726986695
31
0.0000000000
11
-7.8096751318
21
-15.3963964402
31
0.0000000000
11
-7.8483868553
21
-15.4148993718
31
0.0000000000
11
-7.8898963760
21
-15.4280905251
31
0.0000000000
11
-7.9339246595
21
-15.4358945181
31
0.0000000000
11
-7.9801869426
21
-15.4382783789
31
0.0000000000
11
-8.0284452489
21
-15.4352384087
31
0.0000000000
11
-8.0784461516
21
-15.4267827355
31
0.0000000000
11
-8.1298006857
21
-15.4129744275
31
0.0000000000
11
-8.1820639309
21
-15.3939590714
31
0.0000000000
11
-8.2347578120
21
-15.3699716273
31
0.0000000000
0
SPLINE
5
2E3
100
AcDbEntity
8
0
100
AcDbSpline
62
9
6
CONTINUOUS
70
0
71
3
72
10
73
6
74
4
42
0.0000001000
43
0.0000001000
44
0.0000000001
12
0.0002271755
22
-0.3466036571
32
0.0000000000
13
0.0004561032
23
-0.3466034314
33
0.0000000000
40
0.0000000000
40
0.0000000000
40
0.0000000000
40
0.0000000000
40
0.3333694102
40
0.6667027409
40
1.0000000000
40
1.0000000000
40
1.0000000000
40
1.0000000000
10
-15.8495442102
20
1.9096831159
30
0.0000000000
10
-15.8495189658
20
1.8711674303
30
0.0000000000
10
-15.8494600036
20
1.7941402329
30
0.0000000000
10
-15.8493461313
20
1.6786057110
30
0.0000000000
10
-15.8492532621
20
1.6015868829
30
0.0000000000
10
-15.8492025895
20
1.5630795584
30
0.0000000000
11
-15.8495442102
21
1.9096831159
31
0.0000000000
11
-15.8494557607
21
1.7941360682
31
0.0000000000
11
-15.8493418871
21
1.6786015481
31
0.0000000000
11
-15.8492025895
21
1.5630795584
31
0.0000000000
0
SPLINE
5
2E4
100
AcDbEntity
8
0
100
AcDbSpline
62
9
6
CONTINUOUS
70
0
71
3
72
22
73
18
74
16
42
0.0000001000
43
0.0000001000
44
0.0000000001
12
-0.0655858746
22
-0.0329221378
32
0.0000000000
13
0.0000471514
23
-0.0733850930
33
0.0000000000
40
0.0000000000
40
0.0000000000
40
0.0000000000
40
0.0000000000
40
0.0579869690
40
0.1187473720
40
0.1820445807
40
0.2476066659
40
0.3150958946
40
0.3841229729
40
0.4542578688
40
0.5250431461
40
0.5960073746
40
0.6666752164
40
0.7365777920
40
0.8052652000
40
0.8723170017
40
0.9373544590
40
1.0000000000
40
1.0000000000
40
1.0000000000
40
1.0000000000
10
-15.8141915632
20
1.9703876598
30
0.0000000000
10
-15.8154592719
20
1.9697513082
30
0.0000000000
10
-15.8179894206
20
1.9683135680
30
0.0000000000
10
-15.8216482307
20
1.9657659031
30
0.0000000000
10
-15.8252234075
20
1.9628026891
30
0.0000000000
10
-15.8286754089
20
1.9594566679
30
0.0000000000
10
-15.8319675751
20
1.9557637310
30
0.0000000000
10
-15.8350645843
20
1.9517635837
30
0.0000000000
10
-15.8379331732
20
1.9474992789
30
0.0000000000
10
-15.8405424678
20
1.9430167637
30
0.0000000000
10
-15.8428643870
20
1.9383643256
30
0.0000000000
10
-15.8448739477
20
1.9335920605
30
0.0000000000
10
-15.8465495226
20
1.9287513065
30
0.0000000000
10
-15.8478730908
20
1.9238941514
30
0.0000000000
10
-15.8488303465
20
1.9190726120
30
0.0000000000
10
-15.8494108399
20
1.9143402001
30
0.0000000000
10
-15.8495451948
20
1.9112155322
30
0.0000000000
10
-15.8495442102
20
1.9096831159
30
0.0000000000
11
-15.8141915632
21
1.9703876598
31
0.0000000000
11
-15.8178961052
21
1.9682937096
31
0.0000000000
11
-15.8215602256
21
1.9657528261
31
0.0000000000
11
-15.8251411093
21
1.9627941152
31
0.0000000000
11
-15.8285998702
21
1.9594496578
31
0.0000000000
11
-15.8318989845
21
1.9557557270
31
0.0000000000
11
-15.8350026746
21
1.9517523531
31
0.0000000000
11
-15.8378772106
21
1.9474830231
31
0.0000000000
11
-15.8404913503
21
1.9429941491
31
0.0000000000
11
-15.8428167450
21
1.9383344429
31
0.0000000000
11
-15.8448281881
21
1.9335544479
31
0.0000000000
11
-15.8465038647
21
1.9287060421
31
0.0000000000
11
-15.8478256245
21
1.9238417918
31
0.0000000000
11
-15.8487791321
21
1.9190144567
31
0.0000000000
11
-15.8493540766
21
1.9142764323
31
0.0000000000
11
-15.8495442102
21
1.9096831159
31
0.0000000000
0
SPLINE
5
2E5
100
AcDbEntity
8
0
100
AcDbSpline
62
7
6
CONTINUOUS
70
0
71
3
72
10
73
6
74
4
42
0.0000001000
43
0.0000001000
44
0.0000000001
12
0.0000055493
22
-0.0007675556
32
0.0000000000
13
0.0000000000
23
-0.0007675757
33
0.0000000000
40
0.0000000000
40
0.0000000000
40
0.0000000000
40
0.0000000000
40
0.3329314802
40
0.6662635300
40
1.0000000000
40
1.0000000000
40
1.0000000000
40
1.0000000000
10
-14.8852840717
20
2.4366475275
30
0.0000000000
10
-14.8852834558
20
2.4365623464
30
0.0000000000
10
-14.8852824297
20
2.4363918800
30
0.0000000000
10
-14.8852815068
20
2.4361360229
30
0.0000000000
10
-14.8852813020
20
2.4359653477
30
0.0000000000
10
-14.8852813020
20
2.4358799583
30
0.0000000000
11
-14.8852840717
21
2.4366475275
31
0.0000000000
11
-14.8852825330
21
2.4363919820
31
0.0000000000
11
-14.8852816097
21
2.4361361261
31
0.0000000000
11
-14.8852813020
21
2.4358799583
31
0.0000000000
0
SPLINE
5
2E6
100
AcDbEntity
8
0
100
AcDbSpline
62
9
6
CONTINUOUS
70
0
71
3
72
10
73
6
74
4
42
0.0000001000
43
0.0000001000
44
0.0000000001
12
0.0002272656
22
-0.3467423534
32
0.0000000000
13
0.0004562842
23
-0.3467421277
33
0.0000000000
40
0.0000000000
40
0.0000000000
40
0.0000000000
40
0.0000000000
40
0.3333694106
40
0.6667027409
40
1.0000000000
40
1.0000000000
40
1.0000000000
40
1.0000000000
10
-16.1311473746
20
1.9101597141
30
0.0000000000
10
-16.1311221201
20
1.8716286161
30
0.0000000000
10
-16.1310631345
20
1.7945705955
30
0.0000000000
10
-16.1309492171
20
1.6789898415
30
0.0000000000
10
-16.1308563110
20
1.6019401938
30
0.0000000000
10
-16.1308056183
20
1.5634174602
30
0.0000000000
11
-16.1311473746
21
1.9101597141
31
0.0000000000
11
-16.1310588900
21
1.7945664291
31
0.0000000000
11
-16.1309449712
21
1.6789856770
31
0.0000000000
11
-16.1308056183
21
1.5634174602
31
0.0000000000
0
SPLINE
5
2E7
100
AcDbEntity
8
0
100
AcDbSpline
62
9
6
CONTINUOUS
70
0
71
3
72
25
73
21
74
19
42
0.0000001000
43
0.0000001000
44
0.0000000001
12
0.0013679956
22
-1.0309799390
32
0.0000000000
13
0.9221315869
23
-0.4610800825
33
0.0000000000
40
0.0000000000
40
0.0000000000
40
0.0000000000
40
0.0000000000
40
0.0517111543
40
0.1054687234
40
0.1609428515
40
0.2177746693
40
0.2755783500
40
0.3340718202
40
0.3930757028
40
0.4523670745
40
0.5116426745
40
0.5705934836
40
0.6289162109
40
0.6863254656
40
0.7426251122
40
0.7976683404
40
0.8512196291
40
0.9029631058
40
0.9526297993
40
1.0000000000
40
1.0000000000
40
1.0000000000
40
1.0000000000
10
-16.1308056183
20
1.5634174602
30
0.0000000000
10
-16.1307820381
20
1.5456464060
30
0.0000000000
10
-16.1294334579
20
1.5093925310
30
0.0000000000
10
-16.1237207524
20
1.4543424704
30
0.0000000000
10
-16.1142764995
20
1.3980230887
30
0.0000000000
10
-16.1011710038
20
1.3410169642
30
0.0000000000
10
-16.0845277856
20
1.2838617407
30
0.0000000000
10
-16.0644922510
20
1.2270150544
30
0.0000000000
10
-16.0412106441
20
1.1708658678
30
0.0000000000
10
-16.0148429217
20
1.1158002921
30
0.0000000000
10
-15.9855848855
20
1.0622351484
30
0.0000000000
10
-15.9536699141
20
1.0105996636
30
0.0000000000
10
-15.9193557747
20
0.9613048878
30
0.0000000000
10
-15.8829050043
20
0.9147182337
30
0.0000000000
10
-15.8445691992
20
0.8711579590
30
0.0000000000
10
-15.8046070020
20
0.8309291543
30
0.0000000000
10
-15.7633328613
20
0.7943641306
30
0.0000000000
10
-15.7211345562
20
0.7618058774
30
0.0000000000
10
-15.6784589333
20
0.7335627193
30
0.0000000000
10
-15.6492630018
20
0.7173585738
30
0.0000000000
10
-15.6347024824
20
0.7100780884
30
0.0000000000
11
-16.1308056183
21
1.5634174602
31
0.0000000000
11
-16.1288838703
21
1.5101388978
31
0.0000000000
11
-16.1232161480
21
1.4550064344
31
0.0000000000
11
-16.1138010161
21
1.3985939580
31
0.0000000000
11
-16.1007080043
21
1.3414830489
31
0.0000000000
11
-16.0840723447
21
1.2842575495
31
0.0000000000
11
-16.0640439182
21
1.2273749226
31
0.0000000000
11
-16.0407540883
21
1.1711779425
31
0.0000000000
11
-16.0143565133
21
1.1160432596
31
0.0000000000
11
-15.9850572273
21
1.0624127701
31
0.0000000000
11
-15.9530921456
21
1.0107204483
31
0.0000000000
11
-15.9187223164
21
0.9613819704
31
0.0000000000
11
-15.8822267729
21
0.9147850183
31
0.0000000000
11
-15.8438516876
21
0.8712368587
31
0.0000000000
11
-15.8038250086
21
0.8310092711
31
0.0000000000
11
-15.7624618176
21
0.7944405754
31
0.0000000000
11
-15.7201856259
21
0.7619048066
31
0.0000000000
11
-15.6774433505
21
0.7337074329
31
0.0000000000
11
-15.6347024824
21
0.7100780884
31
0.0000000000
0
SPLINE
5
2E8
100
AcDbEntity
8
0
100
AcDbSpline
62
9
6
CONTINUOUS
70
0
71
3
72
14
73
10
74
8
42
0.0000001000
43
0.0000001000
44
0.0000000001
12
0.0008948599
22
-0.0615614474
32
0.0000000000
13
0.0551929247
23
-0.0275764680
33
0.0000000000
40
0.0000000000
40
0.0000000000
40
0.0000000000
40
0.0000000000
40
0.1900222102
40
0.3677792523
40
0.5333313255
40
0.6878189452
40
0.8335987460
40
0.9741984533
40
1.0000000000
40
1.0000000000
40
1.0000000000
40
1.0000000000
10
-16.7185644396
20
-5.0486384606
30
0.0000000000
10
-16.7185077585
20
-5.0525378081
30
0.0000000000
10
-16.7179740804
20
-5.0600889540
30
0.0000000000
10
-16.7157748585
20
-5.0708464711
30
0.0000000000
10
-16.7122327083
20
-5.0804767654
30
0.0000000000
10
-16.7073970592
20
-5.0887878410
30
0.0000000000
10
-16.7013405604
20
-5.0956000469
30
0.0000000000
10
-16.6960903236
20
-5.0993684466
30
0.0000000000
10
-16.6930615757
20
-5.1009630310
30
0.0000000000
10
-16.6925868881
20
-5.1012002028
30
0.0000000000
11
-16.7185644396
21
-5.0486384606
31
0.0000000000
11
-16.7176939000
21
-5.0603053055
31
0.0000000000
11
-16.7154491431
21
-5.0710167572
31
0.0000000000
11
-16.7118743449
21
-5.0805620173
31
0.0000000000
11
-16.7070398565
21
-5.0887532377
31
0.0000000000
11
-16.7010408194
21
-5.0954292175
31
0.0000000000
11
-16.6939952929
21
-5.1004585751
31
0.0000000000
11
-16.6925868881
21
-5.1012002028
31
0.0000000000
0
SPLINE
5
2E9
100
AcDbEntity
8
0
100
AcDbSpline
62
9
6
CONTINUOUS
70
0
71
3
72
18
73
14
74
12
42
0.0000001000
43
0.0000001000
44
0.0000000001
12
0.1102875189
22
-0.0968488842
32
0.0000000000
13
0.1310666949
23
0.0660648521
33
0.0000000000
40
0.0000000000
40
0.0000000000
40
0.0000000000
40
0.0000000000
40
0.0888342427
40
0.1809078107
40
0.2753791580
40
0.3712844616
40
0.4675902483
40
0.5632440243
40
0.6572243569
40
0.7485918506
40
0.8365424675
40
0.9204645247
40
1.0000000000
40
1.0000000000
40
1.0000000000
40
1.0000000000
10
-17.3504422854
20
-5.2992463078
30
0.0000000000
10
-17.3471765160
20
-5.3021141403
30
0.0000000000
10
-17.3401739912
20
-5.3075633019
30
0.0000000000
10
-17.3286985442
20
-5.3146656386
30
0.0000000000
10
-17.3162565548
20
-5.3207309719
30
0.0000000000
10
-17.3030947200
20
-5.3256391467
30
0.0000000000
10
-17.2894716119
20
-5.3292943187
30
0.0000000000
10
-17.2756555753
20
-5.3316243782
30
0.0000000000
10
-17.2619182334
20
-5.3325830927
30
0.0000000000
10
-17.2485295613
20
-5.3321508645
30
0.0000000000
10
-17.2357507863
20
-5.3303338832
30
0.0000000000
10
-17.2238348970
20
-5.3271661256
30
0.0000000000
10
-17.2164134581
20
-5.3241043507
30
0.0000000000
10
-17.2129386408
20
-5.3223528509
30
0.0000000000
11
-17.3504422854
21
-5.2992463078
31
0.0000000000
11
-17.3401700941
21
-5.3072768433
31
0.0000000000
11
-17.3286903603
21
-5.3144076051
31
0.0000000000
11
-17.3162324939
21
-5.3204960926
31
0.0000000000
11
-17.3030454517
21
-5.3254206341
31
0.0000000000
11
-17.2893927624
21
-5.3290828180
31
0.0000000000
11
-17.2755472602
21
-5.3314094596
31
0.0000000000
11
-17.2617856321
21
-5.3323540634
31
0.0000000000
11
-17.2483828894
21
-5.3318977526
31
0.0000000000
11
-17.2356068712
21
-5.3300496461
31
0.0000000000
11
-17.2237128922
21
-5.3268466763
31
0.0000000000
11
-17.2129386408
21
-5.3223528509
31
0.0000000000
0
SPLINE
5
2EA
100
AcDbEntity
8
0
100
AcDbSpline
62
9
6
CONTINUOUS
70
0
71
3
72
18
73
14
74
12
42
0.0000001000
43
0.0000001000
44
0.0000000001
12
0.1107691406
22
-0.0962914642
32
0.0000000000
13
0.1310443095
23
0.0661002083
33
0.0000000000
40
0.0000000000
40
0.0000000000
40
0.0000000000
40
0.0000000000
40
0.0886621615
40
0.1806155312
40
0.2750166893
40
0.3708976602
40
0.4672188301
40
0.5629197691
40
0.6569694408
40
0.7484172757
40
0.8364465949
40
0.9204317871
40
1.0000000000
40
1.0000000000
40
1.0000000000
40
1.0000000000
10
-17.3517097559
20
-5.3038366863
30
0.0000000000
10
-17.3484360788
20
-5.3066824894
30
0.0000000000
10
-17.3414175660
20
-5.3120871768
30
0.0000000000
10
-17.3299223811
20
-5.3191227054
30
0.0000000000
10
-17.3174614270
20
-5.3251236312
30
0.0000000000
10
-17.3042818058
20
-5.3299710654
30
0.0000000000
10
-17.2906424794
20
-5.3335703464
30
0.0000000000
10
-17.2768121724
20
-5.3358504617
30
0.0000000000
10
-17.2630628592
20
-5.3367661743
30
0.0000000000
10
-17.2496648217
20
-5.3362987664
30
0.0000000000
10
-17.2368795391
20
-5.3344551876
30
0.0000000000
10
-17.2249601321
20
-5.3312700202
30
0.0000000000
10
-17.2175366419
20
-5.3282022291
30
0.0000000000
10
-17.2140609881
20
-5.3264490707
30
0.0000000000
11
-17.3517097559
21
-5.3038366863
31
0.0000000000
11
-17.3414175315
21
-5.3117997343
31
0.0000000000
11
-17.3299179422
21
-5.3188640723
31
0.0000000000
11
-17.3174408377
21
-5.3248885010
31
0.0000000000
11
-17.3042356057
21
-5.3297526064
31
0.0000000000
11
-17.2905661875
21
-5.3333591664
31
0.0000000000
11
-17.2767058025
21
-5.3356360946
31
0.0000000000
11
-17.2629314868
21
-5.3365378804
31
0.0000000000
11
-17.2495185564
21
-5.3360464994
31
0.0000000000
11
-17.2367351040
21
-5.3341717731
31
0.0000000000
11
-17.2248366405
21
-5.3309511728
31
0.0000000000
11
-17.2140609881
21
-5.3264490707
31
0.0000000000
0
SPLINE
5
2EB
100
AcDbEntity
8
0
100
AcDbSpline
62
9
6
CONTINUOUS
70
0
71
3
72
18
73
14
74
12
42
0.0000001000
43
0.0000001000
44
0.0000000001
12
0.1423087689
22
-0.0201123537
32
0.0000000000
13
0.1223123624
23
0.0754717065
33
0.0000000000
40
0.0000000000
40
0.0000000000
40
0.0000000000
40
0.0000000000
40
0.0712030711
40
0.1508490537
40
0.2377883585
40
0.3306013969
40
0.4276766292
40
0.5272734082
40
0.6275779060
40
0.7267561301
40
0.8230062530
40
0.9146120594
40
1.0000000000
40
1.0000000000
40
1.0000000000
40
1.0000000000
10
-17.1278582493
20
-10.3853620177
30
0.0000000000
10
-17.1244806422
20
-10.3858393715
30
0.0000000000
10
-17.1172634563
20
-10.3864278862
30
0.0000000000
10
-17.1058617432
20
-10.3863728683
30
0.0000000000
10
-17.0934610297
20
-10.3854304096
30
0.0000000000
10
-17.0803160857
20
-10.3836174061
30
0.0000000000
10
-17.0666960636
20
-10.3809693860
30
0.0000000000
10
-17.0528819608
20
-10.3775399164
30
0.0000000000
10
-17.0391589212
20
-10.3733993262
30
0.0000000000
10
-17.0258103945
20
-10.3686332064
30
0.0000000000
10
-17.0131113171
20
-10.3633403158
30
0.0000000000
10
-17.0013237046
20
-10.3576311245
30
0.0000000000
10
-16.9939334169
20
-10.3534574139
30
0.0000000000
10
-16.9904520833
20
-10.3513092894
30
0.0000000000
11
-17.1278582493
21
-10.3853620177
31
0.0000000000
11
-17.1176638600
21
-10.3862560510
31
0.0000000000
11
-17.1062169081
21
-10.3862450141
31
0.0000000000
11
-17.0937553443
21
-10.3853291363
31
0.0000000000
11
-17.0805382105
21
-10.3835274562
31
0.0000000000
11
-17.0668402548
21
-10.3808774259
31
0.0000000000
11
-17.0529462201
21
-10.3774341321
31
0.0000000000
11
-17.0391449253
21
-10.3732691517
31
0.0000000000
11
-17.0257232617
21
-10.3684690630
31
0.0000000000
11
-17.0129602288
21
-10.3631336468
31
0.0000000000
11
-17.0011211353
21
-10.3573738119
31
0.0000000000
11
-16.9904520833
21
-10.3513092894
31
0.0000000000
0
SPLINE
5
2EC
100
AcDbEntity
8
0
100
AcDbSpline
62
9
6
CONTINUOUS
70
0
71
3
72
18
73
14
74
12
42
0.0000001000
43
0.0000001000
44
0.0000000001
12
-0.0122250216
22
0.1539562739
32
0.0000000000
13
0.1375430815
23
0.0702416269
33
0.0000000000
40
0.0000000000
40
0.0000000000
40
0.0000000000
40
0.0000000000
40
0.0836799730
40
0.1722596215
40
0.2648375959
40
0.3602849716
40
0.4573231659
40
0.5545948551
40
0.6507313931
40
0.7444197379
40
0.8344718192
40
0.9198996465
40
1.0000000000
40
1.0000000000
40
1.0000000000
40
1.0000000000
10
-16.4430889444
20
-11.2658060611
30
0.0000000000
10
-16.4434299409
20
-11.2615117088
30
0.0000000000
10
-16.4435274233
20
-11.2526167444
30
0.0000000000
10
-16.4420869375
20
-11.2390333535
30
0.0000000000
10
-16.4390995520
20
-11.2250850803
30
0.0000000000
10
-16.4346321892
20
-11.2110832618
30
0.0000000000
10
-16.4287844788
20
-11.1973374214
30
0.0000000000
10
-16.4216865617
20
-11.1841534109
30
0.0000000000
10
-16.4134961666
20
-11.1718243601
30
0.0000000000
10
-16.4043952032
20
-11.1606244122
30
0.0000000000
10
-16.3945833351
20
-11.1508014498
30
0.0000000000
10
-16.3842785195
20
-11.1425748921
30
0.0000000000
10
-16.3769750641
20
-11.1381236980
30
0.0000000000
10
-16.3733026476
20
-11.1362482383
30
0.0000000000
11
-16.4430889444
21
-11.2658060611
31
0.0000000000
11
-16.4432805465
21
-11.2528838728
31
0.0000000000
11
-16.4418764851
21
-11.2392757967
31
0.0000000000
11
-16.4389084967
21
-11.2252894172
31
0.0000000000
11
-16.4344436671
21
-11.2112408696
31
0.0000000000
11
-16.4285829155
21
-11.1974476940
31
0.0000000000
11
-16.4214587130
21
-11.1842216585
31
0.0000000000
11
-16.4132320886
21
-11.1718617120
31
0.0000000000
11
-16.4040889892
21
-11.1606472268
31
0.0000000000
11
-16.3942360769
21
-11.1508316845
31
0.0000000000
11
-16.3838960577
21
-11.1426369464
31
0.0000000000
11
-16.3733026476
21
-11.1362482383
31
0.0000000000
0
SPLINE
5
2ED
100
AcDbEntity
8
0
100
AcDbSpline
62
9
6
CONTINUOUS
70
0
71
3
72
18
73
14
74
12
42
0.0000001000
43
0.0000001000
44
0.0000000001
12
-0.0122250216
22
0.1539562739
32
0.0000000000
13
0.1375430815
23
0.0702416269
33
0.0000000000
40
0.0000000000
40
0.0000000000
40
0.0000000000
40
0.0000000000
40
0.0836799514
40
0.1722595817
40
0.2648375428
40
0.3602849108
40
0.4573231031
40
0.5545947960
40
0.6507313421
40
0.7444196985
40
0.8344717931
40
0.9198996340
40
1.0000000000
40
1.0000000000
40
1.0000000000
40
1.0000000000
10
-8.2347578120
20
-15.3699716273
30
0.0000000000
10
-8.2350988084
20
-15.3656772761
30
0.0000000000
10
-8.2351962909
20
-15.3567823138
30
0.0000000000
10
-8.2337558059
20
-15.3431989256
30
0.0000000000
10
-8.2307684216
20
-15.3292506542
30
0.0000000000
10
-8.2263010599
20
-15.3152488366
30
0.0000000000
10
-8.2204533505
20
-15.3015029961
30
0.0000000000
10
-8.2133554339
20
-15.2883189847
30
0.0000000000
10
-8.2051650388
20
-15.2759899325
30
0.0000000000
10
-8.1960640749
20
-15.2647899829
30
0.0000000000
10
-8.1862522057
20
-15.2549670186
30
0.0000000000
10
-8.1759473887
20
-15.2467404594
30
0.0000000000
10
-8.1686439322
20
-15.2422892645
30
0.0000000000
10
-8.1649715152
20
-15.2404138045
30
0.0000000000
11
-8.2347578120
21
-15.3699716273
31
0.0000000000
11
-8.2349494142
21
-15.3570494424
31
0.0000000000
11
-8.2335453537
21
-15.3434413690
31
0.0000000000
11
-8.2305773664
21
-15.3294549914
31
0.0000000000
11
-8.2261125380
21
-15.3154064446
31
0.0000000000
11
-8.2202517873
21
-15.3016132690
31
0.0000000000
11
-8.2131275853
21
-15.2883872326
31
0.0000000000
11
-8.2049009608
21
-15.2760272845
31
0.0000000000
11
-8.1957578608
21
-15.2648127975
31
0.0000000000
11
-8.1859049475
21
-15.2549972534
31
0.0000000000
11
-8.1755649269
21
-15.2468025137
31
0.0000000000
11
-8.1649715152
21
-15.2404138045
31
0.0000000000
0
SPLINE
5
2EE
100
AcDbEntity
8
0
100
AcDbSpline
62
9
6
CONTINUOUS
70
0
71
3
72
14
73
10
74
8
42
0.0000001000
43
0.0000001000
44
0.0000000001
12
-0.0558174032
22
0.0468999176
32
0.0000000000
13
0.0154877875
23
0.0713733057
33
0.0000000000
40
0.0000000000
40
0.0000000000
40
0.0000000000
40
0.0000000000
40
0.1752777317
40
0.3423248697
40
0.5010815075
40
0.6522187940
40
0.7971894286
40
0.9381742764
40
1.0000000000
40
1.0000000000
40
1.0000000000
40
1.0000000000
10
-7.6351003176
20
-15.1317409782
30
0.0000000000
10
-7.6383615002
20
-15.1290008078
30
0.0000000000
10
-7.6444153606
20
-15.1232552913
30
0.0000000000
10
-7.6520591802
20
-15.1137252632
30
0.0000000000
10
-7.6579042517
20
-15.1036603806
30
0.0000000000
10
-7.6618163486
20
-15.0932617559
30
0.0000000000
10
-7.6636965073
20
-15.0827419651
30
0.0000000000
10
-7.6635240455
20
-15.0742344040
30
0.0000000000
10
-7.6626943383
20
-15.0693622366
30
0.0000000000
10
-7.6623751571
20
-15.0678913346
30
0.0000000000
11
-7.6351003176
21
-15.1317409782
31
0.0000000000
11
-7.6443428408
21
-15.1229165588
31
0.0000000000
11
-7.6519287611
21
-15.1133890883
31
0.0000000000
11
-7.6577003880
21
-15.1033566167
31
0.0000000000
11
-7.6615377451
21
-15.0930276918
31
0.0000000000
11
-7.6633610641
21
-15.0826170238
31
0.0000000000
11
-7.6631324432
21
-15.0723410221
31
0.0000000000
11
-7.6623751571
21
-15.0678913346
31
0.0000000000
0
SPLINE
5
2EF
100
AcDbEntity
8
0
100
AcDbSpline
62
9
6
CONTINUOUS
70
0
71
3
72
12
73
8
74
6
42
0.0000001000
43
0.0000001000
44
0.0000000001
12
-0.0311927842
22
0.0039407620
32
0.0000000000
13
-0.0074855015
23
0.0307108789
33
0.0000000000
40
0.0000000000
40
0.0000000000
40
0.0000000000
40
0.0000000000
40
0.2832639901
40
0.5227829922
40
0.7196196471
40
0.8803867141
40
1.0000000000
40
1.0000000000
40
1.0000000000
40
1.0000000000
10
-7.8561757851
20
-10.0516036711
30
0.0000000000
10
-7.8591210493
20
-10.0512315791
30
0.0000000000
10
-7.8645336988
20
-10.0503102337
30
0.0000000000
10
-7.8717795174
20
-10.0481225253
30
0.0000000000
10
-7.8773944573
20
-10.0452598494
30
0.0000000000
10
-7.8811558753
20
-10.0418162179
30
0.0000000000
10
-7.8824378552
20
-10.0390738942
30
0.0000000000
10
-7.8827363104
20
-10.0378494178
30
0.0000000000
11
-7.8561757851
21
-10.0516036711
31
0.0000000000
11
-7.8649429364
21
-10.0500370318
31
0.0000000000
11
-7.8721217712
21
-10.0477621585
31
0.0000000000
11
-7.8775688015
21
-10.0448245204
31
0.0000000000
11
-7.8811751540
21
-10.0412828339
31
0.0000000000
11
-7.8827363104
21
-10.0378494178
31
0.0000000000
0
SPLINE
5
2F0
100
AcDbEntity
8
0
100
AcDbSpline
62
9
6
CONTINUOUS
70
0
71
3
72
9
73
5
74
3
42
0.0000001000
43
0.0000001000
44
0.0000000001
12
-0.0162427725
22
0.0019051092
32
0.0000000000
13
-0.0152064668
23
0.0060871116
33
0.0000000000
40
0.0000000000
40
0.0000000000
40
0.0000000000
40
0.0000000000
40
0.5423347338
40
1.0000000000
40
1.0000000000
40
1.0000000000
40
1.0000000000
10
-7.8576082242
20
-10.0456633426
30
0.0000000000
10
-7.8605445641
20
-10.0453189403
30
0.0000000000
10
-7.8659381404
20
-10.0444528709
30
0.0000000000
10
-7.8711915147
20
-10.0429257312
30
0.0000000000
10
-7.8735113386
20
-10.0419971114
30
0.0000000000
11
-7.8576082242
21
-10.0456633426
31
0.0000000000
11
-7.8663535744
21
-10.0441851027
31
0.0000000000
11
-7.8735113386
21
-10.0419971114
31
0.0000000000
0
SPLINE
5
2F1
100
AcDbEntity
8
0
100
AcDbSpline
62
9
6
CONTINUOUS
70
0
71
3
72
10
73
6
74
4
42
0.0000001000
43
0.0000001000
44
0.0000000001
12
-0.0117154133
22
0.0046896514
32
0.0000000000
13
-0.0057538452
23
0.0113551219
33
0.0000000000
40
0.0000000000
40
0.0000000000
40
0.0000000000
40
0.0000000000
40
0.4866684747
40
0.8824465904
40
1.0000000000
40
1.0000000000
40
1.0000000000
40
1.0000000000
10
-7.8735113386
20
-10.0419971114
30
0.0000000000
10
-7.8754118461
20
-10.0412363429
30
0.0000000000
10
-7.8787551315
20
-10.0395773451
30
0.0000000000
10
-7.8819439031
20
-10.0367160472
30
0.0000000000
10
-7.8830684439
20
-10.0348437117
30
0.0000000000
10
-7.8832939052
20
-10.0343987673
30
0.0000000000
11
-7.8735113386
21
-10.0419971114
31
0.0000000000
11
-7.8789384767
21
-10.0391430932
31
0.0000000000
11
-7.8825265333
21
-10.0356800826
31
0.0000000000
11
-7.8832939052
21
-10.0343987673
31
0.0000000000
0
SPLINE
5
2F2
100
AcDbEntity
8
0
100
AcDbSpline
62
9
6
CONTINUOUS
70
0
71
3
72
8
73
4
74
2
42
0.0000001000
43
0.0000001000
44
0.0000000001
12
-0.0009950314
22
0.0019636787
32
0.0000000000
13
-0.0005291640
23
0.0021261390
33
0.0000000000
40
0.0000000000
40
0.0000000000
40
0.0000000000
40
0.0000000000
40
1.0000000000
40
1.0000000000
40
1.0000000000
40
1.0000000000
10
-7.8832939052
20
-10.0343987673
30
0.0000000000
10
-7.8836255824
20
-10.0337442077
30
0.0000000000
10
-7.8838878780
20
-10.0330546369
30
0.0000000000
10
-7.8840642659
20
-10.0323459239
30
0.0000000000
11
-7.8832939052
21
-10.0343987673
31
0.0000000000
11
-7.8840642659
21
-10.0323459239
31
0.0000000000
0
SPLINE
5
2F3
100
AcDbEntity
8
0
100
AcDbSpline
62
9
6
CONTINUOUS
70
0
71
3
72
14
73
10
74
8
42
0.0000001000
43
0.0000001000
44
0.0000000001
12
0.0008948741
22
-0.0615624257
32
0.0000000000
13
0.0551945266
23
-0.0275754627
33
0.0000000000
40
0.0000000000
40
0.0000000000
40
0.0000000000
40
0.0000000000
40
0.1900192339
40
0.3677734788
40
0.5333229358
40
0.6878081052
40
0.8335855877
40
0.9741830550
40
1.0000000000
40
1.0000000000
40
1.0000000000
40
1.0000000000
10
-8.5067105806
20
-9.1545653901
30
0.0000000000
10
-8.5066538995
20
-9.1584647384
30
0.0000000000
10
-8.5061202212
20
-9.1660158858
30
0.0000000000
10
-8.5039209985
20
-9.1767734046
30
0.0000000000
10
-8.5003788472
20
-9.1864036995
30
0.0000000000
10
-8.4955431970
20
-9.1947147749
30
0.0000000000
10
-8.4894866974
20
-9.2015269800
30
0.0000000000
10
-8.4842361944
20
-9.2052955697
30
0.0000000000
10
-8.4812071367
20
-9.2068902658
30
0.0000000000
10
-8.4807321520
20
-9.2071275705
30
0.0000000000
11
-8.5067105806
21
-9.1545653901
31
0.0000000000
11
-8.5058400407
21
-9.1662322376
31
0.0000000000
11
-8.5035952829
21
-9.1769436909
31
0.0000000000
11
-8.5000204836
21
-9.1864889516
31
0.0000000000
11
-8.4951859943
21
-9.1946801717
31
0.0000000000
11
-8.4891869563
21
-9.2013561506
31
0.0000000000
11
-8.4821414294
21
-9.2063855071
31
0.0000000000
11
-8.4807321520
21
-9.2071275705
31
0.0000000000
0
SPLINE
5
2F4
100
AcDbEntity
8
0
100
AcDbSpline
62
7
6
CONTINUOUS
70
0
71
3
72
10
73
6
74
4
42
0.0000001000
43
0.0000001000
44
0.0000000001
12
0.0038194220
22
0.0583077270
32
0.0000000000
13
0.0000000000
23
0.0584326879
33
0.0000000000
40
0.0000000000
40
0.0000000000
40
0.0000000000
40
0.0000000000
40
0.3510198703
40
0.6836721356
40
1.0000000000
40
1.0000000000
40
1.0000000000
40
1.0000000000
10
-14.8873123059
20
1.9885262199
30
0.0000000000
10
-14.8868654083
20
1.9953486101
30
0.0000000000
10
-14.8861215062
20
2.0086451714
30
0.0000000000
10
-14.8854397232
20
2.0281121497
30
0.0000000000
10
-14.8852813020
20
2.0407531073
30
0.0000000000
10
-14.8852813020
20
2.0469144031
30
0.0000000000
11
-14.8873123059
21
1.9885262199
31
0.0000000000
11
-14.8861747486
21
2.0090056852
31
0.0000000000
11
-14.8855032214
21
2.0284318480
31
0.0000000000
11
-14.8852813020
21
2.0469144031
31
0.0000000000
0
SPLINE
5
2F5
100
AcDbEntity
8
0
100
AcDbSpline
62
9
6
CONTINUOUS
70
0
71
3
72
8
73
4
74
2
42
0.0000001000
43
0.0000001000
44
0.0000000001
12
0.0193488763
22
0.0097560532
32
0.0000000000
13
0.0193488772
23
0.0097560512
33
0.0000000000
40
0.0000000000
40
0.0000000000
40
0.0000000000
40
0.0000000000
40
1.0000000000
40
1.0000000000
40
1.0000000000
40
1.0000000000
10
-16.3733026476
20
-11.1362482383
30
0.0000000000
10
-16.3668530222
20
-11.1329962206
30
0.0000000000
10
-16.3604033966
20
-11.1297442032
30
0.0000000000
10
-16.3539537709
20
-11.1264921861
30
0.0000000000
11
-16.3733026476
21
-11.1362482383
31
0.0000000000
11
-16.3539537709
21
-11.1264921861
31
0.0000000000
0
SPLINE
5
2F6
100
AcDbEntity
8
0
100
AcDbSpline
62
9
6
CONTINUOUS
70
0
71
3
72
8
73
4
74
2
42
0.0000001000
43
0.0000001000
44
0.0000000001
12
0.0295394487
22
0.0152790497
32
0.0000000000
13
0.0295394463
23
0.0152790544
33
0.0000000000
40
0.0000000000
40
0.0000000000
40
0.0000000000
40
0.0000000000
40
1.0000000000
40
1.0000000000
40
1.0000000000
40
1.0000000000
10
-8.1649715152
20
-15.2404138045
30
0.0000000000
10
-8.1551250323
20
-15.2353207880
30
0.0000000000
10
-8.1452785498
20
-15.2302277706
30
0.0000000000
10
-8.1354320677
20
-15.2251347525
30
0.0000000000
11
-8.1649715152
21
-15.2404138045
31
0.0000000000
11
-8.1354320677
21
-15.2251347525
31
0.0000000000
0
SPLINE
5
2F7
100
AcDbEntity
8
0
100
AcDbSpline
62
9
6
CONTINUOUS
70
0
71
3
72
8
73
4
74
2
42
0.0000001000
43
0.0000001000
44
0.0000000001
12
-0.0484199488
22
0.0241730973
32
0.0000000000
13
-0.0466843882
23
0.0274004781
33
0.0000000000
40
0.0000000000
40
0.0000000000
40
0.0000000000
40
0.0000000000
40
1.0000000000
40
1.0000000000
40
1.0000000000
40
1.0000000000
10
-16.3733026476
20
-11.1362482383
30
0.0000000000
10
-16.3894426305
20
-11.1281905392
30
0.0000000000
10
-16.4052968189
20
-11.1195497402
30
0.0000000000
10
-16.4208582817
20
-11.1104162475
30
0.0000000000
11
-16.3733026476
21
-11.1362482383
31
0.0000000000
11
-16.4208582817
21
-11.1104162475
31
0.0000000000
0
SPLINE
5
2F8
100
AcDbEntity
8
0
100
AcDbSpline
62
9
6
CONTINUOUS
70
0
71
3
72
8
73
4
74
2
42
0.0000001000
43
0.0000001000
44
0.0000000001
12
-0.0160502047
22
0.0094203501
32
0.0000000000
13
-0.0158433675
23
0.0097616567
33
0.0000000000
40
0.0000000000
40
0.0000000000
40
0.0000000000
40
0.0000000000
40
1.0000000000
40
1.0000000000
40
1.0000000000
40
1.0000000000
10
-16.4208582817
20
-11.1104162475
30
0.0000000000
10
-16.4262083499
20
-11.1072761308
30
0.0000000000
10
-16.4315238179
20
-11.1040777777
30
0.0000000000
10
-16.4368049404
20
-11.1008238921
30
0.0000000000
11
-16.4208582817
21
-11.1104162475
31
0.0000000000
11
-16.4368049404
21
-11.1008238921
31
0.0000000000
0
SPLINE
5
2F9
100
AcDbEntity
8
0
100
AcDbSpline
62
9
6
CONTINUOUS
70
0
71
3
72
8
73
4
74
2
42
0.0000001000
43
0.0000001000
44
0.0000000001
12
-0.0323780495
22
0.0199492566
32
0.0000000000
13
-0.0315239179
23
0.0212715870
33
0.0000000000
40
0.0000000000
40
0.0000000000
40
0.0000000000
40
0.0000000000
40
1.0000000000
40
1.0000000000
40
1.0000000000
40
1.0000000000
10
-16.4368049404
20
-11.1008238921
30
0.0000000000
10
-16.4475976236
20
-11.0941741399
30
0.0000000000
10
-16.4582468646
20
-11.0872924598
30
0.0000000000
10
-16.4687548373
20
-11.0802019308
30
0.0000000000
11
-16.4368049404
21
-11.1008238921
31
0.0000000000
11
-16.4687548373
21
-11.0802019308
31
0.0000000000
0
SPLINE
5
2FA
100
AcDbEntity
8
0
100
AcDbSpline
62
9
6
CONTINUOUS
70
0
71
3
72
8
73
4
74
2
42
0.0000001000
43
0.0000001000
44
0.0000000001
12
-0.0160789117
22
0.0108496656
32
0.0000000000
13
-0.0158591275
23
0.0111683964
33
0.0000000000
40
0.0000000000
40
0.0000000000
40
0.0000000000
40
0.0000000000
40
1.0000000000
40
1.0000000000
40
1.0000000000
40
1.0000000000
10
-16.4687548373
20
-11.0802019308
30
0.0000000000
10
-16.4741144745
20
-11.0765853756
30
0.0000000000
10
-16.4794373600
20
-11.0729144872
30
0.0000000000
10
-16.4847237359
20
-11.0691916884
30
0.0000000000
11
-16.4687548373
21
-11.0802019308
31
0.0000000000
11
-16.4847237359
21
-11.0691916884
31
0.0000000000
0
SPLINE
5
2FB
100
AcDbEntity
8
0
100
AcDbSpline
62
9
6
CONTINUOUS
70
0
71
3
72
11
73
7
74
5
42
0.0000001000
43
0.0000001000
44
0.0000000001
12
-0.1768101032
22
0.1245141206
32
0.0000000000
13
-0.1505673416
23
0.1552154906
33
0.0000000000
40
0.0000000000
40
0.0000000000
40
0.0000000000
40
0.0000000000
40
0.1827309270
40
0.4643113087
40
0.7536478499
40
1.0000000000
40
1.0000000000
40
1.0000000000
40
1.0000000000
10
-16.4847237359
20
-11.0691916884
30
0.0000000000
10
-16.4954932939
20
-11.0616074949
30
0.0000000000
10
-16.5224732496
20
-11.0417889566
30
0.0000000000
10
-16.5646993076
20
-11.0075773193
30
0.0000000000
10
-16.6084489131
20
-10.9680956432
30
0.0000000000
10
-16.6358940844
20
-10.9409223639
30
0.0000000000
10
-16.6482582805
20
-10.9281764740
30
0.0000000000
11
-16.4847237359
21
-11.0691916884
31
0.0000000000
11
-16.5165798788
21
-11.0458132608
31
0.0000000000
11
-16.5639179005
21
-11.0075246428
31
0.0000000000
11
-16.6103908027
21
-10.9656414398
31
0.0000000000
11
-16.6482582805
21
-10.9281764740
31
0.0000000000
0
SPLINE
5
2FC
100
AcDbEntity
8
0
100
AcDbSpline
62
9
6
CONTINUOUS
70
0
71
3
72
8
73
4
74
2
42
0.0000001000
43
0.0000001000
44
0.0000000001
12
-0.0083990841
22
0.0211328692
32
0.0000000000
13
-0.0080422115
23
0.0212714927
33
0.0000000000
40
0.0000000000
40
0.0000000000
40
0.0000000000
40
0.0000000000
40
1.0000000000
40
1.0000000000
40
1.0000000000
40
1.0000000000
10
-16.9545691312
20
-10.4536385020
30
0.0000000000
10
-16.9573688259
20
-10.4465942123
30
0.0000000000
10
-16.9601097727
20
-10.4395265601
30
0.0000000000
10
-16.9627905099
20
-10.4324360625
30
0.0000000000
11
-16.9545691312
21
-10.4536385020
31
0.0000000000
11
-16.9627905099
21
-10.4324360625
31
0.0000000000
0
SPLINE
5
2FD
100
AcDbEntity
8
0
100
AcDbSpline
62
9
6
CONTINUOUS
70
0
71
3
72
9
73
5
74
3
42
0.0000001000
43
0.0000001000
44
0.0000000001
12
-0.0152866721
22
0.0404329495
32
0.0000000000
13
-0.0139489329
23
0.0409157290
33
0.0000000000
40
0.0000000000
40
0.0000000000
40
0.0000000000
40
0.0000000000
40
0.5020560855
40
1.0000000000
40
1.0000000000
40
1.0000000000
40
1.0000000000
10
-16.9627905099
20
-10.4324360625
30
0.0000000000
10
-16.9653487655
20
-10.4256695264
30
0.0000000000
10
-16.9703351052
20
-10.4121504361
30
0.0000000000
10
-16.9750988644
20
-10.3985505874
30
0.0000000000
10
-16.9774141264
20
-10.3917593413
30
0.0000000000
11
-16.9627905099
21
-10.4324360625
31
0.0000000000
11
-16.9702995061
21
-10.4120744873
31
0.0000000000
11
-16.9774141264
21
-10.3917593413
31
0.0000000000
0
SPLINE
5
2FE
100
AcDbEntity
8
0
100
AcDbSpline
62
9
6
CONTINUOUS
70
0
71
3
72
8
73
4
74
2
42
0.0000001000
43
0.0000001000
44
0.0000000001
12
-0.0068877945
22
0.0202036338
32
0.0000000000
13
-0.0065477456
23
0.0203152511
33
0.0000000000
40
0.0000000000
40
0.0000000000
40
0.0000000000
40
0.0000000000
40
1.0000000000
40
1.0000000000
40
1.0000000000
40
1.0000000000
10
-16.9774141264
20
-10.3917593413
30
0.0000000000
10
-16.9797100579
20
-10.3850247967
30
0.0000000000
10
-16.9819501115
20
-10.3782712886
30
0.0000000000
10
-16.9841326933
20
-10.3714995382
30
0.0000000000
11
-16.9774141264
21
-10.3917593413
31
0.0000000000
11
-16.9841326933
21
-10.3714995382
31
0.0000000000
0
SPLINE
5
2FF
100
AcDbEntity
8
0
100
AcDbSpline
62
9
6
CONTINUOUS
70
0
71
3
72
8
73
4
74
2
42
0.0000001000
43
0.0000001000
44
0.0000000001
12
-0.0064903522
22
0.0201371804
32
0.0000000000
13
-0.0061468839
23
0.0202426159
33
0.0000000000
40
0.0000000000
40
0.0000000000
40
0.0000000000
40
0.0000000000
40
1.0000000000
40
1.0000000000
40
1.0000000000
40
1.0000000000
10
-16.9841326933
20
-10.3714995382
30
0.0000000000
10
-16.9862961441
20
-10.3647871448
30
0.0000000000
10
-16.9884031262
20
-10.3580568275
30
0.0000000000
10
-16.9904520875
20
-10.3513092888
30
0.0000000000
11
-16.9841326933
21
-10.3714995382
31
0.0000000000
11
-16.9904520875
21
-10.3513092888
31
0.0000000000
0
SPLINE
5
300
100
AcDbEntity
8
0
100
AcDbSpline
62
9
6
CONTINUOUS
70
0
71
3
72
15
73
11
74
9
42
0.0000001000
43
0.0000001000
44
0.0000000001
12
0.0870248190
22
0.3130193572
32
0.0000000000
13
0.2927283487
23
0.1414831849
33
0.0000000000
40
0.0000000000
40
0.0000000000
40
0.0000000000
40
0.0000000000
40
0.1489569646
40
0.2925475424
40
0.4308799212
40
0.5643333379
40
0.6936454192
40
0.8200534698
40
0.9449387333
40
1.0000000000
40
1.0000000000
40
1.0000000000
40
1.0000000000
10
-17.2129386648
20
-5.3223528293
30
0.0000000000
10
-17.2086176805
20
-5.3068106915
30
0.0000000000
10
-17.1988295483
20
-5.2766255774
30
0.0000000000
10
-17.1802862405
20
-5.2337259011
30
0.0000000000
10
-17.1582509904
20
-5.1944089965
30
0.0000000000
10
-17.1328831157
20
-5.1590303004
30
0.0000000000
10
-17.1043618366
20
-5.1278577237
30
0.0000000000
10
-17.0728671336
20
-5.1010933534
30
0.0000000000
10
-17.0449338460
20
-5.0830154716
30
0.0000000000
10
-17.0276212582
20
-5.0740205017
30
0.0000000000
10
-17.0222485937
20
-5.0714237539
30
0.0000000000
11
-17.2129386648
21
-5.3223528293
31
0.0000000000
11
-17.1979235849
21
-5.2763462217
31
0.0000000000
11
-17.1793276570
21
-5.2335614152
31
0.0000000000
11
-17.1572742029
21
-5.1944012477
31
0.0000000000
11
-17.1319406508
21
-5.1592143741
31
0.0000000000
11
-17.1035302749
21
-5.1282645577
31
0.0000000000
11
-17.0722050457
21
-5.1017054939
31
0.0000000000
11
-17.0381313597
21
-5.0796772019
31
0.0000000000
11
-17.0222485937
21
-5.0714237539
31
0.0000000000
0
SPLINE
5
301
100
AcDbEntity
8
0
100
AcDbSpline
62
9
6
CONTINUOUS
70
0
71
3
72
9
73
5
74
3
42
0.0000001000
43
0.0000001000
44
0.0000000001
12
0.0011070537
22
0.0041004022
32
0.0000000000
13
0.0011376348
23
0.0040920231
33
0.0000000000
40
0.0000000000
40
0.0000000000
40
0.0000000000
40
0.0000000000
40
0.5004382185
40
1.0000000000
40
1.0000000000
40
1.0000000000
40
1.0000000000
10
-17.2140609881
20
-5.3264490707
30
0.0000000000
10
-17.2138763174
20
-5.3257650714
30
0.0000000000
10
-17.2135047594
20
-5.3243989552
30
0.0000000000
10
-17.2131281044
20
-5.3230342354
30
0.0000000000
10
-17.2129386648
20
-5.3223528293
30
0.0000000000
11
-17.2140609881
21
-5.3264490707
31
0.0000000000
11
-17.2135031573
21
-5.3243981076
31
0.0000000000
11
-17.2129386648
21
-5.3223528293
31
0.0000000000
0
SPLINE
5
302
100
AcDbEntity
8
0
100
AcDbSpline
62
9
6
CONTINUOUS
70
0
71
3
72
8
73
4
74
2
42
0.0000001000
43
0.0000001000
44
0.0000000001
12
0.0764201393
22
0.0368696873
32
0.0000000000
13
0.0764201586
23
0.0368696473
33
0.0000000000
40
0.0000000000
40
0.0000000000
40
0.0000000000
40
0.0000000000
40
1.0000000000
40
1.0000000000
40
1.0000000000
40
1.0000000000
10
-17.2140609881
20
-5.3264490707
30
0.0000000000
10
-17.1885876083
20
-5.3141591749
30
0.0000000000
10
-17.1631142253
20
-5.3018692858
30
0.0000000000
10
-17.1376408391
20
-5.2895794034
30
0.0000000000
11
-17.2140609881
21
-5.3264490707
31
0.0000000000
11
-17.1376408391
21
-5.2895794034
31
0.0000000000
0
SPLINE
5
303
100
AcDbEntity
8
0
100
AcDbSpline
62
9
6
CONTINUOUS
70
0
71
3
72
8
73
4
74
2
42
0.0000001000
43
0.0000001000
44
0.0000000001
12
0.0031384489
22
0.0015851815
32
0.0000000000
13
0.0031384489
23
0.0015851815
33
0.0000000000
40
0.0000000000
40
0.0000000000
40
0.0000000000
40
0.0000000000
40
1.0000000000
40
1.0000000000
40
1.0000000000
40
1.0000000000
10
-16.9904520875
20
-10.3513092888
30
0.0000000000
10
-16.9894059379
20
-10.3507808950
30
0.0000000000
10
-16.9883597882
20
-10.3502525012
30
0.0000000000
10
-16.9873136386
20
-10.3497241074
30
0.0000000000
11
-16.9904520875
21
-10.3513092888
31
0.0000000000
11
-16.9873136386
21
-10.3497241074
31
0.0000000000
0
SPLINE
5
304
100
AcDbEntity
8
0
100
AcDbSpline
62
9
6
CONTINUOUS
70
0
71
3
72
21
73
17
74
15
42
0.0000001000
43
0.0000001000
44
0.0000000001
12
-1.4165965232
22
4.7809750697
32
0.0000000000
13
1.2303863339
23
4.8327083088
33
0.0000000000
40
0.0000000000
40
0.0000000000
40
0.0000000000
40
0.0000000000
40
0.0808781979
40
0.1606958926
40
0.2393717672
40
0.3168610435
40
0.3931316162
40
0.4681567200
40
0.5419127143
40
0.6143670650
40
0.6854805606
40
0.7552752038
40
0.8237799709
40
0.8909755641
40
0.9568397286
40
1.0000000000
40
1.0000000000
40
1.0000000000
40
1.0000000000
10
-16.9904520875
20
-10.3513092888
30
0.0000000000
10
-17.0286426788
20
-10.2224170729
30
0.0000000000
10
-17.1005509438
20
-9.9651243831
30
0.0000000000
10
-17.1952837198
20
-9.5786273375
30
0.0000000000
10
-17.2760084319
20
-9.1947104627
30
0.0000000000
10
-17.3425645992
20
-8.8140667833
30
0.0000000000
10
-17.3948349312
20
-8.4373209250
30
0.0000000000
10
-17.4327283378
20
-8.0650913028
30
0.0000000000
10
-17.4561777826
20
-7.6980247247
30
0.0000000000
10
-17.4651463068
20
-7.3368181041
30
0.0000000000
10
-17.4596375988
20
-6.9821223194
30
0.0000000000
10
-17.4396845560
20
-6.6345151237
30
0.0000000000
10
-17.4053393822
20
-6.2945731884
30
0.0000000000
10
-17.3566936652
20
-5.9629743788
30
0.0000000000
10
-17.3006980785
20
-5.6753678612
30
0.0000000000
10
-17.2588967376
20
-5.4989851599
30
0.0000000000
10
-17.2411954682
20
-5.4294581591
30
0.0000000000
11
-16.9904520875
21
-10.3513092888
31
0.0000000000
11
-17.0989199992
21
-9.9628762398
31
0.0000000000
11
-17.1935779772
21
-9.5762911614
31
0.0000000000
11
-17.2742051238
21
-9.1923540994
31
0.0000000000
11
-17.3406535259
21
-8.8117158241
31
0.0000000000
11
-17.3928089615
21
-8.4349912531
31
0.0000000000
11
-17.4305819072
21
-8.0627957621
31
0.0000000000
11
-17.4539075645
21
-7.6957572139
31
0.0000000000
11
-17.4627485864
21
-7.3345769707
31
0.0000000000
11
-17.4571105766
21
-6.9800194394
31
0.0000000000
11
-17.4370307918
21
-6.6325731938
31
0.0000000000
11
-17.4025542933
21
-6.2927233565
31
0.0000000000
11
-17.3537791421
21
-5.9612264196
31
0.0000000000
11
-17.2908713608
21
-5.6388805391
31
0.0000000000
11
-17.2411954682
21
-5.4294581591
31
0.0000000000
0
SPLINE
5
305
100
AcDbEntity
8
0
100
AcDbSpline
62
9
6
CONTINUOUS
70
0
71
3
72
8
73
4
74
2
42
0.0000001000
43
0.0000001000
44
0.0000000001
12
0.0051560810
22
0.0202520418
32
0.0000000000
13
0.0052213896
23
0.0202349855
33
0.0000000000
40
0.0000000000
40
0.0000000000
40
0.0000000000
40
0.0000000000
40
1.0000000000
40
1.0000000000
40
1.0000000000
40
1.0000000000
10
-17.2411954682
20
-5.4294581591
30
0.0000000000
10
-17.2394767746
20
-5.4227074785
30
0.0000000000
10
-17.2377472105
20
-5.4159596153
30
0.0000000000
10
-17.2360067473
20
-5.4092146202
30
0.0000000000
11
-17.2411954682
21
-5.4294581591
31
0.0000000000
11
-17.2360067473
21
-5.4092146202
31
0.0000000000
0
SPLINE
5
306
100
AcDbEntity
8
0
100
AcDbSpline
62
9
6
CONTINUOUS
70
0
71
3
72
8
73
4
74
2
42
0.0000001000
43
0.0000001000
44
0.0000000001
12
0.0213948070
22
0.0829134850
32
0.0000000000
13
0.0224986835
23
0.0826141374
33
0.0000000000
40
0.0000000000
40
0.0000000000
40
0.0000000000
40
0.0000000000
40
1.0000000000
40
1.0000000000
40
1.0000000000
40
1.0000000000
10
-17.2360067473
20
-5.4092146202
30
0.0000000000
10
-17.2288751449
20
-5.3815767918
30
0.0000000000
10
-17.2215605493
20
-5.3539871165
30
0.0000000000
10
-17.2140609881
20
-5.3264490707
30
0.0000000000
11
-17.2360067473
21
-5.4092146202
31
0.0000000000
11
-17.2140609881
21
-5.3264490707
31
0.0000000000
0
SPLINE
5
307
100
AcDbEntity
8
0
100
AcDbSpline
62
9
6
CONTINUOUS
70
0
71
3
72
25
73
21
74
19
42
0.0000001000
43
0.0000001000
44
0.0000000001
12
0.6854043203
22
-0.3426913547
32
0.0000000000
13
-0.0009861399
23
0.7662998593
33
0.0000000000
40
0.0000000000
40
0.0000000000
40
0.0000000000
40
0.0000000000
40
0.0610857857
40
0.1199598482
40
0.1764974838
40
0.2307314636
40
0.2828398805
40
0.3332340031
40
0.3825108599
40
0.4312987569
40
0.4801991011
40
0.5298040715
40
0.5806584499
40
0.6332310983
40
0.6879609098
40
0.7452263900
40
0.8051992208
40
0.8678083382
40
0.9328528789
40
1.0000000000
40
1.0000000000
40
1.0000000000
40
1.0000000000
10
-9.6978163381
20
-2.2583649837
30
0.0000000000
10
-9.6838601843
20
-2.2653428406
30
0.0000000000
10
-9.6558694568
20
-2.2779235507
30
0.0000000000
10
-9.6131550802
20
-2.2925563834
30
0.0000000000
10
-9.5708675991
20
-2.3023892332
30
0.0000000000
10
-9.5294545183
20
-2.3072606098
30
0.0000000000
10
-9.4893136784
20
-2.3071006536
30
0.0000000000
10
-9.4507768729
20
-2.3019055942
30
0.0000000000
10
-9.4141238525
20
-2.2917062181
30
0.0000000000
10
-9.3796328615
20
-2.2765634184
30
0.0000000000
10
-9.3475961503
20
-2.2565919100
30
0.0000000000
10
-9.3182935195
20
-2.2319694309
30
0.0000000000
10
-9.2919659136
20
-2.2029228690
30
0.0000000000
10
-9.2688022522
20
-2.1697008980
30
0.0000000000
10
-9.2489470760
20
-2.1325476740
30
0.0000000000
10
-9.2325310442
20
-2.0917189829
30
0.0000000000
10
-9.2196855702
20
-2.0475406452
30
0.0000000000
10
-9.2105193703
20
-2.0004375466
30
0.0000000000
10
-9.2050884760
20
-1.9509256131
30
0.0000000000
10
-9.2039657600
20
-1.9171430427
30
0.0000000000
10
-9.2039878321
20
-1.8999914329
30
0.0000000000
11
-9.6978163381
21
-2.2583649837
31
0.0000000000
11
-9.6550834758
21
-2.2774721794
31
0.0000000000
11
-9.6123716540
21
-2.2920008971
31
0.0000000000
11
-9.5701494978
21
-2.3017132285
31
0.0000000000
11
-9.5288629464
21
-2.3064687347
31
0.0000000000
11
-9.4889330202
21
-2.3062192482
31
0.0000000000
11
-9.4506718117
21
-2.3009889723
31
0.0000000000
11
-9.4143052640
21
-2.2908224469
31
0.0000000000
11
-9.3800779874
21
-2.2757818117
31
0.0000000000
11
-9.3482668271
21
-2.2559770726
31
0.0000000000
11
-9.3191301317
21
-2.2315641878
31
0.0000000000
11
-9.2929011415
21
-2.2027426622
31
0.0000000000
11
-9.2697829945
21
-2.1697494956
31
0.0000000000
11
-9.2499267362
21
-2.1328083380
31
0.0000000000
11
-9.2334617956
21
-2.0921317438
31
0.0000000000
11
-9.2205361279
21
-2.0480296776
31
0.0000000000
11
-9.2112824112
21
-2.0009531504
31
0.0000000000
11
-9.2057675471
21
-1.9514155175
31
0.0000000000
11
-9.2039878321
21
-1.8999914329
31
0.0000000000
0
SPLINE
5
308
100
AcDbEntity
8
0
100
AcDbSpline
62
9
6
CONTINUOUS
70
0
71
3
72
10
73
6
74
4
42
0.0000001000
43
0.0000001000
44
0.0000000001
12
-0.0004483936
22
0.3467391765
32
0.0000000000
13
-0.0002233342
23
0.3467393945
33
0.0000000000
40
0.0000000000
40
0.0000000000
40
0.0000000000
40
0.0000000000
40
0.3332966219
40
0.6666299523
40
1.0000000000
40
1.0000000000
40
1.0000000000
40
1.0000000000
10
-9.2039878321
20
-1.8999914329
30
0.0000000000
10
-9.2040376482
20
-1.8614691008
30
0.0000000000
10
-9.2041289474
20
-1.7844201829
30
0.0000000000
10
-9.2042408945
20
-1.6688404141
30
0.0000000000
10
-9.2042988598
20
-1.5917829773
30
0.0000000000
10
-9.2043236775
20
-1.5532521345
30
0.0000000000
11
-9.2039878321
21
-1.8999914329
31
0.0000000000
11
-9.2041247748
21
-1.7844244212
31
0.0000000000
11
-9.2042367233
21
-1.6688446543
31
0.0000000000
11
-9.2043236775
21
-1.5532521345
31
0.0000000000
0
SPLINE
5
309
100
AcDbEntity
8
0
100
AcDbSpline
62
7
6
CONTINUOUS
70
0
71
3
72
23
73
19
74
17
42
0.0000001000
43
0.0000001000
44
0.0000000001
12
-0.0022138358
22
0.3062104756
32
0.0000000000
13
-0.2941502250
23
0.0851199245
33
0.0000000000
40
0.0000000000
40
0.0000000000
40
0.0000000000
40
0.0000000000
40
0.0575100427
40
0.1165761008
40
0.1771270490
40
0.2390306071
40
0.3021040242
40
0.3661248615
40
0.4308411866
40
0.4959816051
40
0.5612644497
40
0.6264061518
40
0.6911290767
40
0.7551685812
40
0.8182793104
40
0.8802413563
40
0.9408657873
40
1.0000000000
40
1.0000000000
40
1.0000000000
40
1.0000000000
10
-14.8852840717
20
2.4366475275
30
0.0000000000
10
-14.8853265109
20
2.4425175867
30
0.0000000000
10
-14.8860415116
20
2.4544194673
30
0.0000000000
10
-14.8888837031
20
2.4723001906
30
0.0000000000
10
-14.8934625068
20
2.4902795963
30
0.0000000000
10
-14.8997151438
20
2.5081786818
30
0.0000000000
10
-14.9075637447
20
2.5258243877
30
0.0000000000
10
-14.9169160900
20
2.5430471910
30
0.0000000000
10
-14.9276666957
20
2.5596842450
30
0.0000000000
10
-14.9396981931
20
2.5755808346
30
0.0000000000
10
-14.9528829159
20
2.5905920423
30
0.0000000000
10
-14.9670846015
20
2.6045840224
30
0.0000000000
10
-14.9821601080
20
2.6174350178
30
0.0000000000
10
-14.9979611663
20
2.6290361030
30
0.0000000000
10
-15.0143357808
20
2.6392916020
30
0.0000000000
10
-15.0311305045
20
2.6481195595
30
0.0000000000
10
-15.0481889558
20
2.6554509927
30
0.0000000000
10
-15.0597900376
20
2.6593564992
30
0.0000000000
10
-15.0655881516
20
2.6610343324
30
0.0000000000
11
-14.8852840717
21
2.4366475275
31
0.0000000000
11
-14.8863132040
21
2.4542280693
31
0.0000000000
11
-14.8891275848
21
2.4720948853
31
0.0000000000
11
-14.8936822026
21
2.4900686027
31
0.0000000000
11
-14.8999156664
21
2.5079704006
31
0.0000000000
11
-14.9077507354
21
2.5256240627
31
0.0000000000
11
-14.9170952436
21
2.5428580765
31
0.0000000000
11
-14.9278433180
21
2.5595075704
31
0.0000000000
11
-14.9398769018
21
2.5754161731
31
0.0000000000
11
-14.9530674314
21
2.5904375761
31
0.0000000000
11
-14.9672775780
21
2.6044367974
31
0.0000000000
11
-14.9823630369
21
2.6172912046
31
0.0000000000
11
-14.9981742514
21
2.6288912355
31
0.0000000000
11
-15.0145579955
21
2.6391408456
31
0.0000000000
11
-15.0313589164
21
2.6479578080
31
0.0000000000
11
-15.0484208737
21
2.6552737925
31
0.0000000000
11
-15.0655881516
21
2.6610343324
31
0.0000000000
0
SPLINE
5
30A
100
AcDbEntity
8
0
100
AcDbSpline
62
9
6
CONTINUOUS
70
0
71
3
72
20
73
16
74
14
42
0.0000001000
43
0.0000001000
44
0.0000000001
12
-0.0021210958
22
0.2940834108
32
0.0000000000
13
-0.2621036391
23
0.1333837845
33
0.0000000000
40
0.0000000000
40
0.0000000000
40
0.0000000000
40
0.0000000000
40
0.0726108853
40
0.1483763001
40
0.2267469670
40
0.3070818633
40
0.3886752785
40
0.4707818463
40
0.5526404027
40
0.6334973921
40
0.7126304901
40
0.7893731369
40
0.8631407823
40
0.9334597868
40
1.0000000000
40
1.0000000000
40
1.0000000000
40
1.0000000000
10
-15.8141915632
20
1.9703876598
30
0.0000000000
10
-15.8142429014
20
1.9775055454
30
0.0000000000
10
-15.8150739636
20
1.9920523133
30
0.0000000000
10
-15.8183048513
20
2.0140696450
30
0.0000000000
10
-15.8235015007
20
2.0364851958
30
0.0000000000
10
-15.8305885614
20
2.0589739339
30
0.0000000000
10
-15.8394636858
20
2.0812127854
30
0.0000000000
10
-15.8499987475
20
2.1028807499
30
0.0000000000
10
-15.8620416927
20
2.1236651702
30
0.0000000000
10
-15.8754187837
20
2.1432660811
30
0.0000000000
10
-15.8899374396
20
2.1614008754
30
0.0000000000
10
-15.9053888514
20
2.1778081975
30
0.0000000000
10
-15.9215531611
20
2.1922525141
30
0.0000000000
10
-15.9381972313
20
2.2045241434
30
0.0000000000
10
-15.9497940572
20
2.2113356693
30
0.0000000000
10
-15.9556075345
20
2.2142941311
30
0.0000000000
11
-15.8141915632
21
1.9703876598
31
0.0000000000
11
-15.8153635831
21
1.9917096848
31
0.0000000000
11
-15.8185624817
21
2.0137607960
31
0.0000000000
11
-15.8237416167
21
2.0362194702
31
0.0000000000
11
-15.8308254725
21
2.0587582418
31
0.0000000000
11
-15.8397107609
21
2.0810484768
31
0.0000000000
11
-15.8502679274
21
2.1027651651
31
0.0000000000
11
-15.8623430403
21
2.1235916590
31
0.0000000000
11
-15.8757600344
21
2.1432242905
31
0.0000000000
11
-15.8903232789
21
2.1613767989
31
0.0000000000
11
-15.9058204296
21
2.1777845048
31
0.0000000000
11
-15.9220255248
21
2.1922081694
31
0.0000000000
11
-15.9387022803
21
2.2044374829
31
0.0000000000
11
-15.9556075345
21
2.2142941311
31
0.0000000000
0
SPLINE
5
30B
100
AcDbEntity
8
0
100
AcDbSpline
62
9
6
CONTINUOUS
70
0
71
3
72
20
73
16
74
14
42
0.0000001000
43
0.0000001000
44
0.0000000001
12
-0.2600540592
22
-0.1280284117
32
0.0000000000
13
-0.2592604236
23
0.1296280088
33
0.0000000000
40
0.0000000000
40
0.0000000000
40
0.0000000000
40
0.0000000000
40
0.0681704626
40
0.1405828800
40
0.2166436927
40
0.2956446117
40
0.3767929276
40
0.4592380186
40
0.5420956298
40
0.6244710023
40
0.7054816653
40
0.7842806241
40
0.8600807692
40
0.9321816167
40
1.0000000000
40
1.0000000000
40
1.0000000000
40
1.0000000000
10
-15.8495442102
20
1.9096831159
30
0.0000000000
10
-15.8554535454
20
1.9067738639
30
0.0000000000
10
-15.8679380705
20
1.9013682105
30
0.0000000000
10
-15.8877874871
20
1.8946615425
30
0.0000000000
10
-15.9090924466
20
1.8891853095
30
0.0000000000
10
-15.9315481600
20
1.8850185236
30
0.0000000000
10
-15.9548354688
20
1.8822205334
30
0.0000000000
10
-15.9786216469
20
1.8808316582
30
0.0000000000
10
-16.0025666674
20
1.8808718814
30
0.0000000000
10
-16.0263280091
20
1.8823406211
30
0.0000000000
10
-16.0495660239
20
1.8852167433
30
0.0000000000
10
-16.0719487330
20
1.8894588080
30
0.0000000000
10
-16.0931581091
20
1.8950064236
30
0.0000000000
10
-16.1128907925
20
1.9017795808
30
0.0000000000
10
-16.1252865003
20
1.9072293267
30
0.0000000000
10
-16.1311473746
20
1.9101597141
30
0.0000000000
11
-15.8495442102
21
1.9096831159
31
0.0000000000
11
-15.8676544814
21
1.9017790675
31
0.0000000000
11
-15.8875251312
21
1.8950175716
31
0.0000000000
11
-15.9088696075
21
1.8894961349
31
0.0000000000
11
-15.9313801043
21
1.8852943814
31
0.0000000000
11
-15.9547320007
21
1.8824729040
31
0.0000000000
11
-15.9785885420
21
1.8810723908
31
0.0000000000
11
-16.0026056960
21
1.8811130386
31
0.0000000000
11
-16.0264371145
21
1.8825942610
31
0.0000000000
11
-16.0497391276
21
1.8854946976
31
0.0000000000
11
-16.0721757001
21
1.8897725216
31
0.0000000000
11
-16.0934232770
21
1.8953660431
31
0.0000000000
11
-16.1131754496
21
1.9021945984
31
0.0000000000
11
-16.1311473746
21
1.9101597141
31
0.0000000000
0
SPLINE
5
30C
100
AcDbEntity
8
0
100
AcDbSpline
62
9
6
CONTINUOUS
70
0
71
3
72
20
73
16
74
14
42
0.0000001000
43
0.0000001000
44
0.0000000001
12
-0.2599674970
22
-0.1282386903
32
0.0000000000
13
-0.2592749560
23
0.1296331686
33
0.0000000000
40
0.0000000000
40
0.0000000000
40
0.0000000000
40
0.0000000000
40
0.0681897816
40
0.1406165617
40
0.2166870805
40
0.2956934298
40
0.3768433480
40
0.4592867230
40
0.5421398701
40
0.6245086616
40
0.7055113233
40
0.7843016264
40
0.8600933050
40
0.9321868072
40
1.0000000000
40
1.0000000000
40
1.0000000000
40
1.0000000000
10
-15.8492025473
20
1.5630795369
30
0.0000000000
10
-15.8551115896
20
1.5601646808
30
0.0000000000
10
-15.8675955853
20
1.5547477720
30
0.0000000000
10
-15.8874450679
20
1.5480246883
30
0.0000000000
10
-15.9087500985
20
1.5425325358
30
0.0000000000
10
-15.9312058841
20
1.5383505509
30
0.0000000000
10
-15.9544932652
20
1.5355382943
30
0.0000000000
10
-15.9782795162
20
1.5341362869
30
0.0000000000
10
-16.0022246122
20
1.5341646982
30
0.0000000000
10
-16.0259860343
20
1.5356231149
30
0.0000000000
10
-16.0492241372
20
1.5384905514
30
0.0000000000
10
-16.0716069455
20
1.5427256941
30
0.0000000000
10
-16.0928164367
20
1.5482682556
30
0.0000000000
10
-16.1125492499
20
1.5550383044
30
0.0000000000
10
-16.1249448385
20
1.5604871933
30
0.0000000000
10
-16.1308055927
20
1.5634174730
30
0.0000000000
11
-15.8492025473
21
1.5630795369
31
0.0000000000
11
-15.8673128042
21
1.5551588617
31
0.0000000000
11
-15.8871834406
21
1.5483809793
31
0.0000000000
11
-15.9085279044
21
1.5428436328
31
0.0000000000
11
-15.9310383897
21
1.5386266755
31
0.0000000000
11
-15.9543902756
21
1.5357909198
31
0.0000000000
11
-15.9782468072
21
1.5343772596
31
0.0000000000
11
-16.0022639524
21
1.5344060812
31
0.0000000000
11
-16.0260953630
21
1.5358769690
31
0.0000000000
11
-16.0493973689
21
1.5387687115
31
0.0000000000
11
-16.0718339348
21
1.5430396072
31
0.0000000000
11
-16.0930815056
21
1.5486280661
31
0.0000000000
11
-16.1128336728
21
1.5554534976
31
0.0000000000
11
-16.1308055927
21
1.5634174730
31
0.0000000000
0
SPLINE
5
30D
100
AcDbEntity
8
0
100
AcDbSpline
62
9
6
CONTINUOUS
70
0
71
3
72
20
73
16
74
14
42
0.0000001000
43
0.0000001000
44
0.0000000001
12
-0.2614947987
22
-0.1335423045
32
0.0000000000
13
0.0007194237
23
-0.2936197528
33
0.0000000000
40
0.0000000000
40
0.0000000000
40
0.0000000000
40
0.0000000000
40
0.0669653201
40
0.1375889044
40
0.2115461446
40
0.2883738356
40
0.3675014617
40
0.4482791819
40
0.5300033974
40
0.6119407464
40
0.6933512670
40
0.7735113792
40
0.8517373174
40
0.9274096971
40
1.0000000000
40
1.0000000000
40
1.0000000000
40
1.0000000000
10
-15.4945158798
20
0.9538890005
30
0.0000000000
10
-15.5003529074
20
0.9509080994
30
0.0000000000
10
-15.5119859534
20
0.9440599527
30
0.0000000000
10
-15.5286663013
20
0.9317413500
30
0.0000000000
10
-15.5448332892
20
0.9172665896
30
0.0000000000
10
-15.5602553119
20
0.9008444470
30
0.0000000000
10
-15.5747144632
20
0.8827091051
30
0.0000000000
10
-15.5880042950
20
0.8631201228
30
0.0000000000
10
-15.5999348783
20
0.8423579385
30
0.0000000000
10
-15.6103353502
20
0.8207200445
30
0.0000000000
10
-15.6190566786
20
0.7985163984
30
0.0000000000
10
-15.6259738395
20
0.7760651614
30
0.0000000000
10
-15.6309875861
20
0.7536865044
30
0.0000000000
10
-15.6340256564
20
0.7317026437
30
0.0000000000
10
-15.6347198901
20
0.7171827373
30
0.0000000000
10
-15.6347024824
20
0.7100780884
30
0.0000000000
11
-15.4945158798
21
0.9538890005
31
0.0000000000
11
-15.5114908856
21
0.9439663424
31
0.0000000000
11
-15.5282022925
21
0.9316890040
31
0.0000000000
11
-15.5444081829
21
0.9172347145
31
0.0000000000
11
-15.5598739572
21
0.9008127169
31
0.0000000000
11
-15.5743757297
21
0.8826607394
31
0.0000000000
11
-15.5877035701
21
0.8630415535
31
0.0000000000
11
-15.5996645417
21
0.8422391704
31
0.0000000000
11
-15.6100854953
21
0.8205547296
31
0.0000000000
11
-15.6188155750
21
0.7983021392
31
0.0000000000
11
-15.6257284026
21
0.7758035322
31
0.0000000000
11
-15.6307239066
21
0.7533846027
31
0.0000000000
11
-15.6337297710
21
0.7313698917
31
0.0000000000
11
-15.6347024824
21
0.7100780884
31
0.0000000000
0
SPLINE
5
30E
100
AcDbEntity
8
0
100
AcDbSpline
62
9
6
CONTINUOUS
70
0
71
3
72
20
73
16
74
14
42
0.0000001000
43
0.0000001000
44
0.0000000001
12
-0.2614947987
22
-0.1335423045
32
0.0000000000
13
0.0007194237
23
-0.2936197528
33
0.0000000000
40
0.0000000000
40
0.0000000000
40
0.0000000000
40
0.0000000000
40
0.0669653077
40
0.1375888792
40
0.2115461067
40
0.2883737863
40
0.3675014030
40
0.4482791167
40
0.5300033293
40
0.6119406796
40
0.6933512058
40
0.7735113279
40
0.8517372800
40
0.9274096771
40
1.0000000000
40
1.0000000000
40
1.0000000000
40
1.0000000000
10
-9.5576297355
20
-2.0145540717
30
0.0000000000
10
-9.5634667621
20
-2.0175349722
30
0.0000000000
10
-9.5750998060
20
-2.0243831175
30
0.0000000000
10
-9.5917801512
20
-2.0367017175
30
0.0000000000
10
-9.6079471369
20
-2.0511764749
30
0.0000000000
10
-9.6233691582
20
-2.0675986144
30
0.0000000000
10
-9.6378283088
20
-2.0857339534
30
0.0000000000
10
-9.6511181408
20
-2.1053229334
30
0.0000000000
10
-9.6630487249
20
-2.1260851163
30
0.0000000000
10
-9.6734491983
20
-2.1477230100
30
0.0000000000
10
-9.6821705285
20
-2.1699266571
30
0.0000000000
10
-9.6890876916
20
-2.1923778966
30
0.0000000000
10
-9.6941014401
20
-2.2147565572
30
0.0000000000
10
-9.6971395118
20
-2.2367404228
30
0.0000000000
10
-9.6978337458
20
-2.2512603328
30
0.0000000000
10
-9.6978163381
20
-2.2583649837
30
0.0000000000
11
-9.5576297355
21
-2.0145540717
31
0.0000000000
11
-9.5746047383
21
-2.0244767277
31
0.0000000000
11
-9.5913161424
21
-2.0367540634
31
0.0000000000
11
-9.6075220307
21
-2.0512083499
31
0.0000000000
11
-9.6229878034
21
-2.0676303443
31
0.0000000000
11
-9.6374895752
21
-2.0857823189
31
0.0000000000
11
-9.6508174156
21
-2.1054015024
31
0.0000000000
11
-9.6627783881
21
-2.1262038840
31
0.0000000000
11
-9.6731993432
21
-2.1478883245
31
0.0000000000
11
-9.6819294248
21
-2.1701409159
31
0.0000000000
11
-9.6888422545
21
-2.1926395254
31
0.0000000000
11
-9.6938377603
21
-2.2150584586
31
0.0000000000
11
-9.6968436262
21
-2.2370731746
31
0.0000000000
11
-9.6978163381
21
-2.2583649837
31
0.0000000000
0
SPLINE
5
30F
100
AcDbEntity
8
0
100
AcDbSpline
62
9
6
CONTINUOUS
70
0
71
3
72
13
73
9
74
7
42
0.0000001000
43
0.0000001000
44
0.0000000001
12
-0.0849004358
22
0.0416101631
32
0.0000000000
13
-0.0840422525
23
-0.0436470064
33
0.0000000000
40
0.0000000000
40
0.0000000000
40
0.0000000000
40
0.0000000000
40
0.1971618337
40
0.3826412988
40
0.5574052426
40
0.7232858605
40
0.8829736013
40
1.0000000000
40
1.0000000000
40
1.0000000000
40
1.0000000000
10
-9.0293955350
20
-1.2488118686
30
0.0000000000
10
-9.0349752435
20
-1.2460772233
30
0.0000000000
10
-9.0461202363
20
-1.2413772101
30
0.0000000000
10
-9.0631176316
20
-1.2367238381
30
0.0000000000
10
-9.0796529421
20
-1.2347628790
30
0.0000000000
10
-9.0954837637
20
-1.2355495050
30
0.0000000000
10
-9.1091346229
20
-1.2388064011
30
0.0000000000
10
-9.1171829824
20
-1.2422632114
30
0.0000000000
10
-9.1204613698
20
-1.2439658288
30
0.0000000000
11
-9.0293955350
21
-1.2488118686
31
0.0000000000
11
-9.0465994083
21
-1.2416334541
31
0.0000000000
11
-9.0635336561
21
-1.2370756886
31
0.0000000000
11
-9.0799511468
21
-1.2352049161
31
0.0000000000
11
-9.0956122800
21
-1.2360482992
31
0.0000000000
11
-9.1102884739
21
-1.2395934199
31
0.0000000000
11
-9.1204613698
21
-1.2439658288
31
0.0000000000
0
SPLINE
5
310
100
AcDbEntity
8
0
100
AcDbSpline
62
9
6
CONTINUOUS
70
0
71
3
72
21
73
17
74
15
42
0.0000001000
43
0.0000001000
44
0.0000000001
12
-0.0026710390
22
0.3672501656
32
0.0000000000
13
-0.3261118675
23
0.1689108300
33
0.0000000000
40
0.0000000000
40
0.0000000000
40
0.0000000000
40
0.0000000000
40
0.0673928350
40
0.1375555479
40
0.2100479423
40
0.2843591485
40
0.3599266302
40
0.4361537534
40
0.5124264577
40
0.5881294902
40
0.6626626099
40
0.7354571675
40
0.8059935095
40
0.8738197350
40
0.9385724257
40
1.0000000000
40
1.0000000000
40
1.0000000000
40
1.0000000000
10
-4.5357556896
20
-3.5381256243
30
0.0000000000
10
-4.5358156925
20
-3.5298756144
30
0.0000000000
10
-4.5367108270
20
-3.5130350952
30
0.0000000000
10
-4.5401790068
20
-3.4875308088
30
0.0000000000
10
-4.5457580672
20
-3.4615370557
30
0.0000000000
10
-4.5533781586
20
-3.4353793310
30
0.0000000000
10
-4.5629442585
20
-3.4093821554
30
0.0000000000
10
-4.5743371211
20
-3.3838695228
30
0.0000000000
10
-4.5874147322
20
-3.3591593236
30
0.0000000000
10
-4.6020141232
20
-3.3355595543
30
0.0000000000
10
-4.6179534808
20
-3.3133642480
30
0.0000000000
10
-4.6350347353
20
-3.2928496645
30
0.0000000000
10
-4.6530458366
20
-3.2742710505
30
0.0000000000
10
-4.6717654680
20
-3.2578586940
30
0.0000000000
10
-4.6909603809
20
-3.2438184194
30
0.0000000000
10
-4.7042855100
20
-3.2359399605
30
0.0000000000
10
-4.7109629303
20
-3.2324813663
30
0.0000000000
11
-4.5357556896
21
-3.5381256243
31
0.0000000000
11
-4.5370231109
21
-3.5134074119
31
0.0000000000
11
-4.5404581071
21
-3.4878694398
31
0.0000000000
11
-4.5460174894
21
-3.4618328007
31
0.0000000000
11
-4.5536313588
21
-3.4356248572
31
0.0000000000
11
-4.5632039849
21
-3.4095751255
31
0.0000000000
11
-4.5746150096
21
-3.3840111327
31
0.0000000000
11
-4.5877209604
21
-3.3592542988
31
0.0000000000
11
-4.6023570541
21
-3.3356158948
31
0.0000000000
11
-4.6183392689
21
-3.3133931299
31
0.0000000000
11
-4.6354666581
21
-3.2928654140
31
0.0000000000
11
-4.6535238764
21
-3.2742908450
31
0.0000000000
11
-4.6722838879
21
-3.2579029633
31
0.0000000000
11
-4.6915108202
21
-3.2439078162
31
0.0000000000
11
-4.7109629303
21
-3.2324813663
31
0.0000000000
0
SPLINE
5
311
100
AcDbEntity
8
0
100
AcDbSpline
62
9
6
CONTINUOUS
70
0
71
3
72
21
73
17
74
15
42
0.0000001000
43
0.0000001000
44
0.0000000001
12
-0.0002388648
22
0.3664963430
32
0.0000000000
13
0.3261638296
23
0.1671430009
33
0.0000000000
40
0.0000000000
40
0.0000000000
40
0.0000000000
40
0.0000000000
40
0.0673600564
40
0.1374002827
40
0.2097042500
40
0.2837859084
40
0.3591077597
40
0.4350982200
40
0.5111676838
40
0.5867244983
40
0.6611906880
40
0.7340180538
40
0.8047051040
40
0.8728149463
40
0.9379952469
40
1.0000000000
40
1.0000000000
40
1.0000000000
40
1.0000000000
10
-9.2043236775
20
-1.5532521345
30
0.0000000000
10
-9.2043290408
20
-1.5450230631
30
0.0000000000
10
-9.2035608561
20
-1.5282297095
30
0.0000000000
10
-9.2002614248
20
-1.5027985231
30
0.0000000000
10
-9.1948321292
20
-1.4768961401
30
0.0000000000
10
-9.1873404110
20
-1.4508437896
30
0.0000000000
10
-9.1778788485
20
-1.4249614168
30
0.0000000000
10
-9.1665642580
20
-1.3995683630
30
0.0000000000
10
-9.1535362877
20
-1.3749778602
30
0.0000000000
10
-9.1389556678
20
-1.3514933723
30
0.0000000000
10
-9.1230021551
20
-1.3294046230
30
0.0000000000
10
-9.1058720118
20
-1.3089838890
30
0.0000000000
10
-9.0877757933
20
-1.2904828595
30
0.0000000000
10
-9.0689337512
20
-1.2741287777
30
0.0000000000
10
-9.0495784923
20
-1.2601249664
30
0.0000000000
10
-9.0361367679
20
-1.2522664236
30
0.0000000000
10
-9.0293955320
20
-1.2488118701
30
0.0000000000
11
-9.2043236775
21
-1.5532521345
31
0.0000000000
11
-9.2032408915
21
-1.5285886719
31
0.0000000000
11
-9.1999747273
21
-1.5031278196
31
0.0000000000
11
-9.1945658493
21
-1.4771865641
31
0.0000000000
11
-9.1870815867
21
-1.4510878228
31
0.0000000000
11
-9.1776151167
21
-1.4251565213
31
0.0000000000
11
-9.1662842803
21
-1.3997154609
31
0.0000000000
11
-9.1532301393
21
-1.3750813701
31
0.0000000000
11
-9.1386152021
21
-1.3515609147
31
0.0000000000
11
-9.1226214089
21
-1.3294469017
31
0.0000000000
11
-9.1054478717
21
-1.3090146370
31
0.0000000000
11
-9.0873083757
21
-1.2905184735
31
0.0000000000
11
-9.0684287535
21
-1.2741886854
31
0.0000000000
11
-9.0490440235
21
-1.2602285508
31
0.0000000000
11
-9.0293955320
21
-1.2488118701
31
0.0000000000
0
SPLINE
5
312
100
AcDbEntity
8
0
100
AcDbSpline
62
9
6
CONTINUOUS
70
0
71
3
72
20
73
16
74
14
42
0.0000001000
43
0.0000001000
44
0.0000000001
12
-0.0002381714
22
0.3665499159
32
0.0000000000
13
0.3264447576
23
0.1667114809
33
0.0000000000
40
0.0000000000
40
0.0000000000
40
0.0000000000
40
0.0000000000
40
0.0726405182
40
0.1483504569
40
0.2266011449
40
0.3067738655
40
0.3881861555
40
0.4701162103
40
0.5518261734
40
0.6325849852
40
0.7116914169
40
0.7884979378
40
0.8624361474
40
0.9330446154
40
1.0000000000
40
1.0000000000
40
1.0000000000
40
1.0000000000
10
-5.2366370435
20
-3.5370954517
30
0.0000000000
10
-5.2366428104
20
-3.5282199931
30
0.0000000000
10
-5.2357459790
20
-3.5100845425
30
0.0000000000
10
-5.2319134106
20
-3.4826321502
30
0.0000000000
10
-5.2256192599
20
-3.4546937303
30
0.0000000000
10
-5.2169539851
20
-3.4266704414
30
0.0000000000
10
-5.2060415642
20
-3.3989608214
30
0.0000000000
10
-5.1930379959
20
-3.3719608289
30
0.0000000000
10
-5.1781290943
20
-3.3460561588
30
0.0000000000
10
-5.1615277808
20
-3.3216169551
30
0.0000000000
10
-5.1434706481
20
-3.2989921187
30
0.0000000000
10
-5.1242147978
20
-3.2785045630
30
0.0000000000
10
-5.1040315509
20
-3.2604456336
30
0.0000000000
10
-5.0832092488
20
-3.2450750821
30
0.0000000000
10
-5.0686887968
20
-3.2365288537
30
0.0000000000
10
-5.0614030521
20
-3.2328081099
30
0.0000000000
11
-5.2366370435
21
-3.5370954517
31
0.0000000000
11
-5.2353779760
21
-3.5104988553
31
0.0000000000
11
-5.2315852166
21
-3.4830077753
31
0.0000000000
11
-5.2253135157
21
-3.4550190604
31
0.0000000000
11
-5.2166534088
21
-3.4269367430
31
0.0000000000
11
-5.2057299093
21
-3.3991662067
31
0.0000000000
11
-5.1927007039
21
-3.3721083343
31
0.0000000000
11
-5.1777538761
21
-3.3461537211
31
0.0000000000
11
-5.1611051918
21
-3.3216770360
31
0.0000000000
11
-5.1429949836
21
-3.2990316133
31
0.0000000000
11
-5.1236846824
21
-3.2785443520
31
0.0000000000
11
-5.1034530429
21
-3.2605109971
31
0.0000000000
11
-5.0825921198
21
-3.2451918697
31
0.0000000000
11
-5.0614030521
21
-3.2328081099
31
0.0000000000
0
SPLINE
5
313
100
AcDbEntity
8
0
100
AcDbSpline
62
9
6
CONTINUOUS
70
0
71
3
72
14
73
10
74
8
42
0.0000001000
43
0.0000001000
44
0.0000000001
12
-0.1077950128
22
0.0520285912
32
0.0000000000
13
-0.1059532281
23
-0.0560315926
33
0.0000000000
40
0.0000000000
40
0.0000000000
40
0.0000000000
40
0.0000000000
40
0.1820587560
40
0.3542526090
40
0.5172574478
40
0.6723682971
40
0.8215092213
40
0.9671545407
40
1.0000000000
40
1.0000000000
40
1.0000000000
40
1.0000000000
10
-19.9266594000
20
4.3753668686
30
0.0000000000
10
-19.9332010753
20
4.3785242888
30
0.0000000000
10
-19.9462691754
20
4.3840029417
30
0.0000000000
10
-19.9661783891
20
4.3896402314
30
0.0000000000
10
-19.9856147971
20
4.3923879005
30
0.0000000000
10
-20.0043344006
20
4.3921899797
30
0.0000000000
10
-20.0220933525
20
4.3890255192
30
0.0000000000
10
-20.0344234295
20
4.3844743335
30
0.0000000000
10
-20.0407957596
20
4.3812703509
30
0.0000000000
10
-20.0419557871
20
4.3806568898
30
0.0000000000
11
-19.9266594000
21
4.3753668686
31
0.0000000000
11
-19.9467828557
21
4.3837282016
31
0.0000000000
11
-19.9666339009
21
4.3892720431
31
0.0000000000
11
-19.9859629454
21
4.3919286894
31
0.0000000000
11
-20.0045269624
21
4.3916647379
31
0.0000000000
11
-20.0220925437
21
4.3884835072
31
0.0000000000
11
-20.0384388347
21
4.3824249951
31
0.0000000000
11
-20.0419557871
21
4.3806568898
31
0.0000000000
0
SPLINE
5
314
100
AcDbEntity
8
0
100
AcDbSpline
62
9
6
CONTINUOUS
70
0
71
3
72
22
73
18
74
16
42
0.0000001000
43
0.0000001000
44
0.0000000001
12
-0.3267616776
22
-0.1663014637
32
0.0000000000
13
0.0002363447
23
-0.3666460349
33
0.0000000000
40
0.0000000000
40
0.0000000000
40
0.0000000000
40
0.0000000000
40
0.0578583769
40
0.1184759795
40
0.1816637085
40
0.2471480337
40
0.3145891376
40
0.3835950222
40
0.4537333458
40
0.5245448518
40
0.5955542454
40
0.6662818464
40
0.7362540251
40
0.8050157225
40
0.8721410223
40
0.9372451517
40
1.0000000000
40
1.0000000000
40
1.0000000000
40
1.0000000000
10
-15.9556075345
20
2.2142941311
30
0.0000000000
10
-15.9619095013
20
2.2110868202
30
0.0000000000
10
-15.9744807608
20
2.2038482433
30
0.0000000000
10
-15.9926501535
20
2.1910429387
30
0.0000000000
10
-16.0103991090
20
2.1761654416
30
0.0000000000
10
-16.0275363328
20
2.1593770514
30
0.0000000000
10
-16.0438798322
20
2.1408577684
30
0.0000000000
10
-16.0592544194
20
2.1208066763
30
0.0000000000
10
-16.0734951961
20
2.0994393155
30
0.0000000000
10
-16.0864490669
20
2.0769855998
30
0.0000000000
10
-16.0979766943
20
2.0536871564
30
0.0000000000
10
-16.1079539863
20
2.0297947889
30
0.0000000000
10
-16.1162735399
20
2.0055655010
30
0.0000000000
10
-16.1228457600
20
1.9812599747
30
0.0000000000
10
-16.1275997543
20
1.9571385673
30
0.0000000000
10
-16.1304840552
20
1.9334621821
30
0.0000000000
10
-16.1311523185
20
1.9178293195
30
0.0000000000
10
-16.1311473746
20
1.9101597141
30
0.0000000000
11
-15.9556075345
21
2.2142941311
31
0.0000000000
11
-15.9740158679
21
2.2037514598
31
0.0000000000
11
-15.9922075851
21
2.1909834801
31
0.0000000000
11
-16.0099857407
21
2.1761284517
31
0.0000000000
11
-16.0271573135
21
2.1593476087
31
0.0000000000
11
-16.0435360661
21
2.1408229790
31
0.0000000000
11
-16.0589444478
21
2.1207553638
31
0.0000000000
11
-16.0732152546
21
2.0993625186
31
0.0000000000
11
-16.0861937341
21
2.0768764307
31
0.0000000000
11
-16.0977391108
21
2.0535410057
31
0.0000000000
11
-16.1077261854
21
2.0296092912
31
0.0000000000
11
-16.1160465943
21
2.0053409741
31
0.0000000000
11
-16.1226101436
21
1.9809991402
31
0.0000000000
11
-16.1273456407
21
1.9568477900
31
0.0000000000
11
-16.1302016952
21
1.9331490929
31
0.0000000000
11
-16.1311473746
21
1.9101597141
31
0.0000000000
0
SPLINE
5
315
100
AcDbEntity
8
0
100
AcDbSpline
62
9
6
CONTINUOUS
70
0
71
3
72
20
73
16
74
14
42
0.0000001000
43
0.0000001000
44
0.0000000001
12
-0.3264447576
22
-0.1667114809
32
0.0000000000
13
0.0002381714
23
-0.3665499159
33
0.0000000000
40
0.0000000000
40
0.0000000000
40
0.0000000000
40
0.0000000000
40
0.0669553846
40
0.1375638526
40
0.2115020622
40
0.2883085831
40
0.3674150148
40
0.4481738266
40
0.5298837897
40
0.6118138445
40
0.6932261345
40
0.7733988551
40
0.8516495431
40
0.9273594818
40
1.0000000000
40
1.0000000000
40
1.0000000000
40
1.0000000000
10
-19.9236000171
20
4.1982903726
30
0.0000000000
10
-19.9308857619
20
4.1945696288
30
0.0000000000
10
-19.9454062139
20
4.1860234004
30
0.0000000000
10
-19.9662285160
20
4.1706528489
30
0.0000000000
10
-19.9864117628
20
4.1525939195
30
0.0000000000
10
-20.0056676132
20
4.1321063638
30
0.0000000000
10
-20.0237247458
20
4.1094815274
30
0.0000000000
10
-20.0403260594
20
4.0850423237
30
0.0000000000
10
-20.0552349610
20
4.0591376537
30
0.0000000000
10
-20.0682385293
20
4.0321376611
30
0.0000000000
10
-20.0791509502
20
4.0044280412
30
0.0000000000
10
-20.0878162250
20
3.9764047522
30
0.0000000000
10
-20.0941103757
20
3.9484663323
30
0.0000000000
10
-20.0979429441
20
3.9210139400
30
0.0000000000
10
-20.0988397755
20
3.9028784895
30
0.0000000000
10
-20.0988340085
20
3.8940030308
30
0.0000000000
11
-19.9236000171
21
4.1982903726
31
0.0000000000
11
-19.9447890849
21
4.1859066128
31
0.0000000000
11
-19.9656500080
21
4.1705874855
31
0.0000000000
11
-19.9858816475
21
4.1525541305
31
0.0000000000
11
-20.0051919487
21
4.1320668693
31
0.0000000000
11
-20.0233021568
21
4.1094214466
31
0.0000000000
11
-20.0399508412
21
4.0849447614
31
0.0000000000
11
-20.0548976689
21
4.0589901482
31
0.0000000000
11
-20.0679268744
21
4.0319322758
31
0.0000000000
11
-20.0788503739
21
4.0041617395
31
0.0000000000
11
-20.0875104808
21
3.9760794221
31
0.0000000000
11
-20.0937821817
21
3.9480907072
31
0.0000000000
11
-20.0975749411
21
3.9205996272
31
0.0000000000
11
-20.0988340085
21
3.8940030308
31
0.0000000000
0
SPLINE
5
316
100
AcDbEntity
8
0
100
AcDbSpline
62
9
6
CONTINUOUS
70
0
71
3
72
25
73
21
74
19
42
0.0000001000
43
0.0000001000
44
0.0000000001
12
-0.0007573343
22
-0.7366336906
32
0.0000000000
13
0.6597887704
23
-0.3275798318
33
0.0000000000
40
0.0000000000
40
0.0000000000
40
0.0000000000
40
0.0000000000
40
0.0517489184
40
0.1055074968
40
0.1609703396
40
0.2177809597
40
0.2755561487
40
0.3340164075
40
0.3929847456
40
0.4522405380
40
0.5114828214
40
0.5704048623
40
0.6287056947
40
0.6861019430
40
0.7423993195
40
0.7974528194
40
0.8510286671
40
0.9028124646
40
0.9525362174
40
1.0000000000
40
1.0000000000
40
1.0000000000
40
1.0000000000
10
-15.8492025895
20
1.5630795584
30
0.0000000000
10
-15.8492156532
20
1.5503728928
30
0.0000000000
10
-15.8483080357
20
1.5244577512
30
0.0000000000
10
-15.8442976779
20
1.4851101768
30
0.0000000000
10
-15.8376106170
20
1.4448674526
30
0.0000000000
10
-15.8282961716
20
1.4041404210
30
0.0000000000
10
-15.8164421727
20
1.3633131099
30
0.0000000000
10
-15.8021524461
20
1.3227122657
30
0.0000000000
10
-15.7855314908
20
1.2826155448
30
0.0000000000
10
-15.7666936876
20
1.2432985450
30
0.0000000000
10
-15.7457790944
20
1.2050587431
30
0.0000000000
10
-15.7229546925
20
1.1682023740
30
0.0000000000
10
-15.6984049750
20
1.1330226476
30
0.0000000000
10
-15.6723179145
20
1.0997816055
30
0.0000000000
10
-15.6448737118
20
1.0687062288
30
0.0000000000
10
-15.6162576400
20
1.0400140844
30
0.0000000000
10
-15.5866949287
20
1.0139421756
30
0.0000000000
10
-15.5564634819
20
0.9907349530
30
0.0000000000
10
-15.5258794968
20
0.9706097257
30
0.0000000000
10
-15.5049545700
20
0.9590717265
30
0.0000000000
10
-15.4945158798
20
0.9538890005
30
0.0000000000
11
-15.8492025895
21
1.5630795584
31
0.0000000000
11
-15.8479113178
21
1.5249814179
31
0.0000000000
11
-15.8439336586
21
1.4855812913
31
0.0000000000
11
-15.8372676361
21
1.4452729523
31
0.0000000000
11
-15.8279623742
21
1.4044719637
31
0.0000000000
11
-15.8161140925
21
1.3635953023
31
0.0000000000
11
-15.8018297742
21
1.3229695623
31
0.0000000000
11
-15.7852033142
21
1.2828394206
31
0.0000000000
11
-15.7663445842
21
1.2434737440
31
0.0000000000
11
-15.7454009501
21
1.2051879274
31
0.0000000000
11
-15.7225412154
21
1.1682916092
31
0.0000000000
11
-15.6979521772
21
1.1330812306
31
0.0000000000
11
-15.6718336371
21
1.0998333282
31
0.0000000000
11
-15.6443619425
21
1.0687670466
31
0.0000000000
11
-15.6157003894
21
1.0400761884
31
0.0000000000
11
-15.5860746450
21
1.0140019815
31
0.0000000000
11
-15.5557881025
21
0.9908110235
31
0.0000000000
11
-15.5251610335
21
0.9707210141
31
0.0000000000
11
-15.4945158798
21
0.9538890005
31
0.0000000000
0
SPLINE
5
317
100
AcDbEntity
8
0
100
AcDbSpline
62
7
6
CONTINUOUS
70
0
71
3
72
10
73
6
74
4
42
0.0000001000
43
0.0000001000
44
0.0000000001
12
0.0498318238
22
-0.0223208338
32
0.0000000000
13
0.0488379384
23
-0.0244189692
33
0.0000000000
40
0.0000000000
40
0.0000000000
40
0.0000000000
40
0.0000000000
40
0.3557856526
40
0.6884210240
40
1.0000000000
40
1.0000000000
40
1.0000000000
40
1.0000000000
10
-14.5811260881
20
1.4604331110
30
0.0000000000
10
-14.5752162721
20
1.4577859668
30
0.0000000000
10
-14.5638111532
20
1.4525965439
30
0.0000000000
10
-14.5473460573
20
1.4448383397
30
0.0000000000
10
-14.5368136652
20
1.4396843706
30
0.0000000000
10
-14.5317413736
20
1.4371482248
30
0.0000000000
11
-14.5811260881
21
1.4604331110
31
0.0000000000
11
-14.5634463713
21
1.4523815716
31
0.0000000000
11
-14.5470192665
21
1.4446333827
31
0.0000000000
11
-14.5317413736
21
1.4371482248
31
0.0000000000
0
SPLINE
5
318
100
AcDbEntity
8
0
100
AcDbSpline
62
7
6
CONTINUOUS
70
0
71
3
72
21
73
17
74
15
42
0.0000001000
43
0.0000001000
44
0.0000000001
12
-0.5915274717
22
0.2649589240
32
0.0000000000
13
0.0423664672
23
0.6467712607
33
0.0000000000
40
0.0000000000
40
0.0000000000
40
0.0000000000
40
0.0000000000
40
0.0694600577
40
0.1392164793
40
0.2093379249
40
0.2797947565
40
0.3506134331
40
0.4217576998
40
0.4932368400
40
0.5650227023
40
0.6370795550
40
0.7093945533
40
0.7818927783
40
0.8545471584
40
0.9272554323
40
1.0000000000
40
1.0000000000
40
1.0000000000
40
1.0000000000
10
-14.5811260881
20
1.4604331110
30
0.0000000000
10
-14.5948219322
20
1.4665677983
30
0.0000000000
10
-14.6216882216
20
1.4802133148
30
0.0000000000
10
-14.6599502304
20
1.5044455616
30
0.0000000000
10
-14.6959984756
20
1.5322191700
30
0.0000000000
10
-14.7295843446
20
1.5632581670
30
0.0000000000
10
-14.7604775729
20
1.5972747020
30
0.0000000000
10
-14.7884760919
20
1.6339867870
30
0.0000000000
10
-14.8133900500
20
1.6731048064
30
0.0000000000
10
-14.8350448549
20
1.7143389708
30
0.0000000000
10
-14.8532765432
20
1.7573927286
30
0.0000000000
10
-14.8679282013
20
1.8019550853
30
0.0000000000
10
-14.8788550348
20
1.8477072143
30
0.0000000000
10
-14.8859202386
20
1.8943007551
30
0.0000000000
10
-14.8890054031
20
1.9413771441
30
0.0000000000
10
-14.8883396161
20
1.9728431880
30
0.0000000000
10
-14.8873123059
20
1.9885262199
30
0.0000000000
11
-14.5811260881
21
1.4604331110
31
0.0000000000
11
-14.6212773349
21
1.4807990678
31
0.0000000000
11
-14.6594872472
21
1.5049699292
31
0.0000000000
11
-14.6955034562
21
1.5326919571
31
0.0000000000
11
-14.7290545625
21
1.5636727359
31
0.0000000000
11
-14.7599264906
21
1.5976416230
31
0.0000000000
11
-14.7879006143
21
1.6342998794
31
0.0000000000
11
-14.8127970434
21
1.6733717601
31
0.0000000000
11
-14.8344363326
21
1.7145621209
31
0.0000000000
11
-14.8526511226
21
1.7575679565
31
0.0000000000
11
-14.8672905905
21
1.8020946163
31
0.0000000000
11
-14.8782020724
21
1.8478004585
31
0.0000000000
11
-14.8852545048
21
1.8943608489
31
0.0000000000
11
-14.8883244187
21
1.9413871561
31
0.0000000000
11
-14.8873123059
21
1.9885262199
31
0.0000000000
0
SPLINE
5
319
100
AcDbEntity
8
0
100
AcDbSpline
62
9
6
CONTINUOUS
70
0
71
3
72
15
73
11
74
9
42
0.0000001000
43
0.0000001000
44
0.0000000001
12
0.2093226755
22
-0.1054007829
32
0.0000000000
13
0.2081761056
23
0.1080738366
33
0.0000000000
40
0.0000000000
40
0.0000000000
40
0.0000000000
40
0.0000000000
40
0.1424183618
40
0.2795950491
40
0.4113096468
40
0.5376478241
40
0.6590356695
40
0.7764438690
40
0.8912761271
40
1.0000000000
40
1.0000000000
40
1.0000000000
40
1.0000000000
10
-9.5576297355
20
-2.0145540717
30
0.0000000000
10
-9.5476926047
20
-2.0195577406
30
0.0000000000
10
-9.5277645298
20
-2.0285798903
30
0.0000000000
10
-9.4973469718
20
-2.0390845511
30
0.0000000000
10
-9.4672315929
20
-2.0461565970
30
0.0000000000
10
-9.4377323057
20
-2.0496818872
30
0.0000000000
10
-9.4091323588
20
-2.0496098015
30
0.0000000000
10
-9.3816681702
20
-2.0459371977
30
0.0000000000
10
-9.3559174204
20
-2.0387906903
30
0.0000000000
10
-9.3398502902
20
-2.0318035697
30
0.0000000000
10
-9.3323057194
20
-2.0278868343
30
0.0000000000
11
-9.5576297355
21
-2.0145540717
31
0.0000000000
11
-9.5271966455
21
-2.0282608759
31
0.0000000000
11
-9.4967859773
21
-2.0386889693
31
0.0000000000
11
-9.4667179245
21
-2.0456744414
31
0.0000000000
11
-9.4373098785
21
-2.0491165429
31
0.0000000000
11
-9.4088615682
21
-2.0489803568
31
0.0000000000
11
-9.3815951743
21
-2.0452828112
31
0.0000000000
11
-9.3556715446
21
-2.0380554255
31
0.0000000000
11
-9.3323057194
21
-2.0278868343
31
0.0000000000
0
SPLINE
5
31A
100
AcDbEntity
8
0
100
AcDbSpline
62
9
6
CONTINUOUS
70
0
71
3
72
10
73
6
74
4
42
0.0000001000
43
0.0000001000
44
0.0000000001
12
0.0051907621
22
-7.8517975429
32
0.0000000000
13
0.1248911419
23
-7.8508059332
33
0.0000000000
40
0.0000000000
40
0.0000000000
40
0.0000000000
40
0.0000000000
40
0.3341548768
40
0.6674862484
40
1.0000000000
40
1.0000000000
40
1.0000000000
40
1.0000000000
10
-5.2366370435
20
-3.5370954517
30
0.0000000000
10
-5.2360588706
20
-4.4116675986
30
0.0000000000
10
-5.2305029427
20
-6.1586570396
30
0.0000000000
10
-5.2089119801
20
-8.7758445389
30
0.0000000000
10
-5.1856584935
20
-10.5183925670
30
0.0000000000
10
-5.1718158195
20
-11.3885595449
30
0.0000000000
11
-5.2366370435
21
-3.5370954517
31
0.0000000000
11
-5.2282766863
21
-6.1607991458
31
0.0000000000
11
-5.2066695608
21
-8.7779609703
31
0.0000000000
11
-5.1718158195
21
-11.3885595449
31
0.0000000000
0
SPLINE
5
31B
100
AcDbEntity
8
0
100
AcDbSpline
62
9
6
CONTINUOUS
70
0
71
3
72
10
73
6
74
4
42
0.0000001000
43
0.0000001000
44
0.0000000001
12
0.0051613906
22
-7.8456299840
32
0.0000000000
13
0.1247951653
23
-7.8446391028
33
0.0000000000
40
0.0000000000
40
0.0000000000
40
0.0000000000
40
0.0000000000
40
0.3341547242
40
0.6674862506
40
1.0000000000
40
1.0000000000
40
1.0000000000
40
1.0000000000
10
-4.5357556896
20
-3.5381256243
30
0.0000000000
10
-4.5351807885
20
-4.4120103989
30
0.0000000000
10
-4.5296338604
20
-6.1576276066
30
0.0000000000
10
-4.5080637657
20
-8.7727593459
30
0.0000000000
10
-4.4848291019
20
-10.5139390158
30
0.0000000000
10
-4.4709970658
20
-11.3834224695
30
0.0000000000
11
-4.5357556896
21
-3.5381256243
31
0.0000000000
11
-4.5274088550
21
-6.1597672279
31
0.0000000000
11
-4.5058225949
21
-8.7748745217
31
0.0000000000
11
-4.4709970658
21
-11.3834224695
31
0.0000000000
0
SPLINE
5
31C
100
AcDbEntity
8
0
100
AcDbSpline
62
9
6
CONTINUOUS
70
0
71
3
72
24
73
20
74
18
42
0.0000001000
43
0.0000001000
44
0.0000000001
12
-0.6482004200
22
-0.3166893926
32
0.0000000000
13
-0.6452669907
23
0.3226243427
33
0.0000000000
40
0.0000000000
40
0.0000000000
40
0.0000000000
40
0.0000000000
40
0.0520124514
40
0.1065230505
40
0.1632923871
40
0.2220304804
40
0.2824150369
40
0.3440973107
40
0.4067066657
40
0.4698591488
40
0.5331623138
40
0.5962225104
40
0.6586486579
40
0.7200595696
40
0.7800888305
40
0.8383934560
40
0.8946585325
40
0.9486034529
40
1.0000000000
40
1.0000000000
40
1.0000000000
40
1.0000000000
10
-4.5357556896
20
-3.5381256243
30
0.0000000000
10
-4.5469938538
20
-3.5436162215
30
0.0000000000
10
-4.5704278080
20
-3.5540205918
30
0.0000000000
10
-4.6072924780
20
-3.5676138956
30
0.0000000000
10
-4.6464437384
20
-3.5794722084
30
0.0000000000
10
-4.6875567771
20
-3.5894966609
30
0.0000000000
10
-4.7302920053
20
-3.5976045111
30
0.0000000000
10
-4.7742952615
20
-3.6037282892
30
0.0000000000
10
-4.8192017132
20
-3.6078170485
30
0.0000000000
10
-4.8646384220
20
-3.6098366957
30
0.0000000000
10
-4.9102282505
20
-3.6097704173
30
0.0000000000
10
-4.9555926460
20
-3.6076187756
30
0.0000000000
10
-5.0003550999
20
-3.6033997024
30
0.0000000000
10
-5.0441439286
20
-3.5971483865
30
0.0000000000
10
-5.0865961803
20
-3.5889168346
30
0.0000000000
10
-5.1273601532
20
-3.5787735115
30
0.0000000000
10
-5.1660993708
20
-3.5668020739
30
0.0000000000
10
-5.2024924804
20
-3.5531022347
30
0.0000000000
10
-5.2255822114
20
-3.5426227108
30
0.0000000000
10
-5.2366370431
20
-3.5370954517
30
0.0000000000
11
-4.5357556896
21
-3.5381256243
31
0.0000000000
11
-4.5700247568
21
-3.5534101910
31
0.0000000000
11
-4.6069032006
21
-3.5670654475
31
0.0000000000
11
-4.6460870037
21
-3.5789790091
31
0.0000000000
11
-4.6872478365
21
-3.5890509523
31
0.0000000000
11
-4.7300423753
21
-3.5971973149
31
0.0000000000
11
-4.7741141575
21
-3.6033502241
31
0.0000000000
11
-4.8190949944
21
-3.6074582559
31
0.0000000000
11
-4.8646096604
21
-3.6094871516
31
0.0000000000
11
-4.9102781813
21
-3.6094199950
31
0.0000000000
11
-4.9557200351
21
-3.6072573488
31
0.0000000000
11
-5.0005558565
21
-3.6030172528
31
0.0000000000
11
-5.0444116406
21
-3.5967350726
31
0.0000000000
11
-5.0869210211
21
-3.5884633173
31
0.0000000000
11
-5.1277299405
21
-3.5782709007
31
0.0000000000
11
-5.1664980060
21
-3.5662428032
31
0.0000000000
11
-5.2029004371
21
-3.5524798755
31
0.0000000000
11
-5.2366370431
21
-3.5370954517
31
0.0000000000
0
SPLINE
5
31D
100
AcDbEntity
8
0
100
AcDbSpline
62
9
6
CONTINUOUS
70
0
71
3
72
23
73
19
74
17
42
0.0000001000
43
0.0000001000
44
0.0000000001
12
-0.6443380764
22
-0.3258587914
32
0.0000000000
13
-0.6459239892
23
0.3227037478
33
0.0000000000
40
0.0000000000
40
0.0000000000
40
0.0000000000
40
0.0000000000
40
0.0556281291
40
0.1140071817
40
0.1748406011
40
0.2377791880
40
0.3024321348
40
0.3683767896
40
0.4351675646
40
0.5023442938
40
0.5694402713
40
0.6359901542
40
0.7015378926
40
0.7656448561
40
0.8278983525
40
0.8879207922
40
0.9453798382
40
1.0000000000
40
1.0000000000
40
1.0000000000
40
1.0000000000
10
-4.4709970658
20
-11.3834224695
30
0.0000000000
10
-4.4829448397
20
-11.3894647745
30
0.0000000000
10
-4.5079222587
20
-11.4008944198
30
0.0000000000
10
-4.5473236436
20
-11.4157507243
30
0.0000000000
10
-4.5892601910
20
-11.4286237777
30
0.0000000000
10
-4.6333384230
20
-11.4393923281
30
0.0000000000
10
-4.6791479514
20
-11.4479561707
30
0.0000000000
10
-4.7262603749
20
-11.4542349212
30
0.0000000000
10
-4.7742349304
20
-11.4581696657
30
0.0000000000
10
-4.8226223933
20
-11.4597234269
30
0.0000000000
10
-4.8709695599
20
-11.4588816231
30
0.0000000000
10
-4.9188236307
20
-11.4556522005
30
0.0000000000
10
-4.9657365877
20
-11.4500655551
30
0.0000000000
10
-5.0112696812
20
-11.4421741206
30
0.0000000000
10
-5.0549972873
20
-11.4320519573
30
0.0000000000
10
-5.0965126532
20
-11.4197930846
30
0.0000000000
10
-5.1354263957
20
-11.4055128637
30
0.0000000000
10
-5.1600556616
20
-11.3944349218
30
0.0000000000
10
-5.1718158192
20
-11.3885595448
30
0.0000000000
11
-4.4709970658
21
-11.3834224695
31
0.0000000000
11
-4.5074897461
21
-11.4002037995
31
0.0000000000
11
-4.5469098626
21
-11.4151334115
31
0.0000000000
11
-4.5888861592
21
-11.4280706992
31
0.0000000000
11
-4.6330233063
21
-11.4388938204
31
0.0000000000
11
-4.6789056233
21
-11.4475008436
31
0.0000000000
11
-4.7261009939
21
-11.4538107084
31
0.0000000000
11
-4.7741649354
21
-11.4577639891
31
0.0000000000
11
-4.8226447850
21
-11.4593234538
31
0.0000000000
11
-4.8710839630
21
-11.4584744158
31
0.0000000000
11
-4.9190262726
21
-11.4552248711
31
0.0000000000
11
-4.9660201965
21
-11.4496054237
31
0.0000000000
11
-5.0116231494
21
-11.4416689972
31
0.0000000000
11
-5.0554056458
21
-11.4314903363
31
0.0000000000
11
-5.0969553454
21
-11.4191653028
31
0.0000000000
11
-5.1358809360
21
-11.4048099732
31
0.0000000000
11
-5.1718158192
21
-11.3885595448
31
0.0000000000
0
SPLINE
5
31E
100
AcDbEntity
8
0
100
AcDbSpline
62
9
6
CONTINUOUS
70
0
71
3
72
14
73
10
74
8
42
0.0000001000
43
0.0000001000
44
0.0000000001
12
0.1563307411
22
-9.8278864341
32
0.0000000000
13
1.2990769458
23
-9.7429046054
33
0.0000000000
40
0.0000000000
40
0.0000000000
40
0.0000000000
40
0.0000000000
40
0.1463296915
40
0.2915210750
40
0.4355612897
40
0.5784387774
40
0.7201433508
40
0.8606662077
40
1.0000000000
40
1.0000000000
40
1.0000000000
40
1.0000000000
10
-5.1718158195
20
-11.3885595449
30
0.0000000000
10
-5.1641905431
20
-11.8679300750
30
0.0000000000
10
-5.1415087831
20
-12.8228408799
30
0.0000000000
10
-5.0848101644
20
-14.2488358186
30
0.0000000000
10
-5.0055865909
20
-15.6624337554
30
0.0000000000
10
-4.9038655383
20
-17.0631374057
30
0.0000000000
10
-4.7796819507
20
-18.4504617334
30
0.0000000000
10
-4.6330795605
20
-19.8239176590
30
0.0000000000
10
-4.5199484636
20
-20.7338834243
30
0.0000000000
10
-4.4596133579
20
-21.1863887064
30
0.0000000000
11
-5.1718158195
21
-11.3885595449
31
0.0000000000
11
-5.1375736998
21
-12.8264453981
31
0.0000000000
11
-5.0807851885
21
-14.2524200059
31
0.0000000000
11
-5.0014700609
21
-15.6659865265
31
0.0000000000
11
-4.8996559450
21
-17.0666523382
31
0.0000000000
11
-4.7753782953
21
-18.4539294601
31
0.0000000000
11
-4.6286804024
21
-19.8273344278
31
0.0000000000
11
-4.4596133579
21
-21.1863887064
31
0.0000000000
0
SPLINE
5
31F
100
AcDbEntity
8
0
100
AcDbSpline
62
9
6
CONTINUOUS
70
0
71
3
72
14
73
10
74
8
42
0.0000001000
43
0.0000001000
44
0.0000000001
12
0.1554777486
22
-9.7733263511
32
0.0000000000
13
1.2919777946
23
-9.6888015087
33
0.0000000000
40
0.0000000000
40
0.0000000000
40
0.0000000000
40
0.0000000000
40
0.1463291685
40
0.2915202962
40
0.4355603894
40
0.5784378966
40
0.7201426377
40
0.8606658170
40
1.0000000000
40
1.0000000000
40
1.0000000000
40
1.0000000000
10
-4.4709970658
20
-11.3834224695
30
0.0000000000
10
-4.4634134226
20
-11.8601300422
30
0.0000000000
10
-4.4408555310
20
-12.8097370486
30
0.0000000000
10
-4.3844665310
20
-14.2278123981
30
0.0000000000
10
-4.3056755577
20
-15.6335611378
30
0.0000000000
10
-4.2045099450
20
-17.0264882869
30
0.0000000000
10
-4.0810044465
20
-18.4061115016
30
0.0000000000
10
-3.9352025974
20
-19.7719441143
30
0.0000000000
10
-3.8226893328
20
-20.6768592536
30
0.0000000000
10
-3.7626837759
20
-21.1268530010
30
0.0000000000
11
-4.4709970658
21
-11.3834224695
31
0.0000000000
11
-4.4369419674
21
-12.8133206630
31
0.0000000000
11
-4.3804635649
21
-14.2313762168
31
0.0000000000
11
-4.3015815490
21
-15.6370936805
31
0.0000000000
11
-4.2003233957
21
-17.0299831673
31
0.0000000000
11
-4.0767243665
21
-18.4095594044
31
0.0000000000
11
-3.9308275157
21
-19.7753416103
31
0.0000000000
11
-3.7626837759
21
-21.1268530010
31
0.0000000000
0
SPLINE
5
320
100
AcDbEntity
8
0
100
AcDbSpline
62
9
6
CONTINUOUS
70
0
71
3
72
23
73
19
74
17
42
0.0000001000
43
0.0000001000
44
0.0000000001
12
-0.6056151219
22
-0.4023882148
32
0.0000000000
13
-0.6510636317
23
0.3237315225
33
0.0000000000
40
0.0000000000
40
0.0000000000
40
0.0000000000
40
0.0000000000
40
0.0582016287
40
0.1186361138
40
0.1810237927
40
0.2450401802
40
0.3103258128
40
0.3764952984
40
0.4431458135
40
0.5098652489
40
0.5762401761
40
0.6418637887
40
0.7063439712
40
0.7693116575
40
0.8304296728
40
0.8894022833
40
0.9459857257
40
1.0000000000
40
1.0000000000
40
1.0000000000
40
1.0000000000
10
-3.7626837759
20
-21.1268530010
30
0.0000000000
10
-3.7744330381
20
-21.1346595508
30
0.0000000000
10
-3.7990202913
20
-21.1496287076
30
0.0000000000
10
-3.8380586325
20
-21.1697245567
30
0.0000000000
10
-3.8796421688
20
-21.1877346286
30
0.0000000000
10
-3.9233799027
20
-21.2034895787
30
0.0000000000
10
-3.9688641498
20
-21.2168431232
30
0.0000000000
10
-4.0156693925
20
-21.2276703817
30
0.0000000000
10
-4.0633577710
20
-21.2358701398
30
0.0000000000
10
-4.1114829205
20
-21.2413656497
30
0.0000000000
10
-4.1595943870
20
-21.2441054717
30
0.0000000000
10
-4.2072419686
20
-21.2440639334
30
0.0000000000
10
-4.2539800423
20
-21.2412413451
30
0.0000000000
10
-4.2993720377
20
-21.2356638021
30
0.0000000000
10
-4.3429941055
20
-21.2273830161
30
0.0000000000
10
-4.3844411775
20
-21.2164745204
30
0.0000000000
10
-4.4233237347
20
-21.2030399748
30
0.0000000000
10
-4.4478910981
20
-21.1922174028
30
0.0000000000
10
-4.4596133413
20
-21.1863886951
30
0.0000000000
11
-3.7626837759
21
-21.1268530010
31
0.0000000000
11
-3.7987974874
21
-21.1489139682
31
0.0000000000
11
-3.8378429279
21
-21.1690730244
31
0.0000000000
11
-3.8794522793
21
-21.1871402659
31
0.0000000000
11
-3.9232335711
21
-21.2029454949
31
0.0000000000
11
-3.9687743722
21
-21.2163398220
31
0.0000000000
11
-4.0156456768
21
-21.2271970693
31
0.0000000000
11
-4.0634059450
21
-21.2354149587
31
0.0000000000
11
-4.1116052632
21
-21.2409160755
31
0.0000000000
11
-4.1597895813
21
-21.2436485980
31
0.0000000000
11
-4.2075049908
21
-21.2435867850
31
0.0000000000
11
-4.2543020005
21
-21.2407312188
31
0.0000000000
11
-4.2997397705
21
-21.2351087995
31
0.0000000000
11
-4.3433902654
21
-21.2267724919
31
0.0000000000
11
-4.3848422864
21
-21.2158008260
31
0.0000000000
11
-4.4237053451
21
-21.2022971577
31
0.0000000000
11
-4.4596133413
21
-21.1863886951
31
0.0000000000
0
SPLINE
5
321
100
AcDbEntity
8
0
100
AcDbSpline
62
9
6
CONTINUOUS
70
0
71
3
72
17
73
13
74
11
42
0.0000001000
43
0.0000001000
44
0.0000000001
12
0.0666317704
22
-0.5037103054
32
0.0000000000
13
0.4547679524
23
-0.2274005114
33
0.0000000000
40
0.0000000000
40
0.0000000000
40
0.0000000000
40
0.0000000000
40
0.1260634145
40
0.2472563962
40
0.3636729769
40
0.4755446794
40
0.5832607795
40
0.6873689506
40
0.7885735162
40
0.8877185443
40
0.9857565790
40
1.0000000000
40
1.0000000000
40
1.0000000000
40
1.0000000000
10
-4.4596133579
20
-21.1863887064
30
0.0000000000
10
-4.4568134150
20
-21.2075551867
30
0.0000000000
10
-4.4497813614
20
-21.2488883967
30
0.0000000000
10
-4.4345225417
20
-21.3086355140
30
0.0000000000
10
-4.4148467363
20
-21.3645489589
30
0.0000000000
10
-4.3908696961
20
-21.4162625770
30
0.0000000000
10
-4.3627327883
20
-21.4634377916
30
0.0000000000
10
-4.3306046466
20
-21.5057580099
30
0.0000000000
10
-4.2946835778
20
-21.5429313663
30
0.0000000000
10
-4.2552002083
20
-21.5746942060
30
0.0000000000
10
-4.2245521209
20
-21.5934085492
30
0.0000000000
10
-4.2076123537
20
-21.6020811732
30
0.0000000000
10
-4.2054532032
20
-21.6031608269
30
0.0000000000
11
-4.4596133579
21
-21.1863887064
31
0.0000000000
11
-4.4487740497
21
-21.2495175075
31
0.0000000000
11
-4.4334355599
21
-21.3091545274
31
0.0000000000
11
-4.4136968333
21
-21.3649150074
31
0.0000000000
11
-4.3896860619
21
-21.4164366082
31
0.0000000000
11
-4.3615585153
21
-21.4633860919
31
0.0000000000
11
-4.3294964388
21
-21.5054590667
31
0.0000000000
11
-4.2937075584
21
-21.5423828306
31
0.0000000000
11
-4.2544238037
21
-21.5739180396
31
0.0000000000
11
-4.2118994502
21
-21.5998604769
31
0.0000000000
11
-4.2054532032
21
-21.6031608269
31
0.0000000000
0
SPLINE
5
322
100
AcDbEntity
8
0
100
AcDbSpline
62
9
6
CONTINUOUS
70
0
71
3
72
24
73
20
74
18
42
0.0000001000
43
0.0000001000
44
0.0000000001
12
0.0621864859
22
-0.4663236849
32
0.0000000000
13
0.4337870126
23
0.1820817558
33
0.0000000000
40
0.0000000000
40
0.0000000000
40
0.0000000000
40
0.0000000000
40
0.0681284858
40
0.1336799835
40
0.1966948042
40
0.2573024574
40
0.3157164688
40
0.3722341226
40
0.4272349264
40
0.4811709792
40
0.5345499975
40
0.5879095709
40
0.6417889625
40
0.6966986312
40
0.7530953989
40
0.8113642802
40
0.8718094578
40
0.9346486296
40
1.0000000000
40
1.0000000000
40
1.0000000000
40
1.0000000000
10
-3.7626837759
20
-21.1268530010
30
0.0000000000
10
-3.7612715522
20
-21.1374429765
30
0.0000000000
10
-3.7577240284
20
-21.1581298349
30
0.0000000000
10
-3.7500280774
20
-21.1880365733
30
0.0000000000
10
-3.7401035748
20
-21.2160380719
30
0.0000000000
10
-3.7280094948
20
-21.2419483121
30
0.0000000000
10
-3.7138174145
20
-21.2655974858
30
0.0000000000
10
-3.6976127123
20
-21.2868267590
30
0.0000000000
10
-3.6794958332
20
-21.3054897813
30
0.0000000000
10
-3.6595834601
20
-21.3214544810
30
0.0000000000
10
-3.6380091359
20
-21.3346061320
30
0.0000000000
10
-3.6149220529
20
-21.3448510877
30
0.0000000000
10
-3.5904840521
20
-21.3521196592
30
0.0000000000
10
-3.5648653932
20
-21.3563671544
30
0.0000000000
10
-3.5382410562
20
-21.3575727420
30
0.0000000000
10
-3.5107884699
20
-21.3557374250
30
0.0000000000
10
-3.4826860090
20
-21.3508813128
30
0.0000000000
10
-3.4541191372
20
-21.3430449053
30
0.0000000000
10
-3.4352571424
20
-21.3360094851
30
0.0000000000
10
-3.4258076171
20
-21.3320430544
30
0.0000000000
11
-3.7626837759
21
-21.1268530010
31
0.0000000000
11
-3.7572185430
21
-21.1584347812
31
0.0000000000
11
-3.7494831067
21
-21.1882876878
31
0.0000000000
11
-3.7395283876
21
-21.2162117921
31
0.0000000000
11
-3.7274190042
21
-21.2420256060
31
0.0000000000
11
-3.7132332746
21
-21.2655621586
31
0.0000000000
11
-3.6970631089
21
-21.2866688367
31
0.0000000000
11
-3.6790132742
21
-21.3052088198
31
0.0000000000
11
-3.6592007622
21
-21.3210619033
31
0.0000000000
11
-3.6377538432
21
-21.3341254078
31
0.0000000000
11
-3.6148115953
21
-21.3443145873
31
0.0000000000
11
-3.5905225478
21
-21.3515634490
31
0.0000000000
11
-3.5650441257
21
-21.3558249708
31
0.0000000000
11
-3.5385414613
21
-21.3570715115
31
0.0000000000
11
-3.5111863835
21
-21.3552950012
31
0.0000000000
11
-3.4831558453
21
-21.3505068875
31
0.0000000000
11
-3.4546320104
21
-21.3427383458
31
0.0000000000
11
-3.4258076171
21
-21.3320430544
31
0.0000000000
0
SPLINE
5
323
100
AcDbEntity
8
0
100
AcDbSpline
62
9
6
CONTINUOUS
70
0
71
3
72
17
73
13
74
11
42
0.0000001000
43
0.0000001000
44
0.0000000001
12
-0.0143932901
22
-0.3376442498
32
0.0000000000
13
-0.3119368616
23
-0.1309286533
33
0.0000000000
40
0.0000000000
40
0.0000000000
40
0.0000000000
40
0.0000000000
40
0.1258486274
40
0.2466401294
40
0.3621658582
40
0.4724040736
40
0.5775478727
40
0.6780295861
40
0.7745351835
40
0.8679993480
40
0.9595712428
40
1.0000000000
40
1.0000000000
40
1.0000000000
40
1.0000000000
10
-3.4258076171
20
-21.3320430544
30
0.0000000000
10
-3.4264114091
20
-21.3462070762
30
0.0000000000
10
-3.4286658388
20
-21.3739357929
30
0.0000000000
10
-3.4354154051
20
-21.4142235527
30
0.0000000000
10
-3.4454092519
20
-21.4520257636
30
0.0000000000
10
-3.4585612595
20
-21.4869802516
30
0.0000000000
10
-3.4747588248
20
-21.5187530259
30
0.0000000000
10
-3.4938628746
20
-21.5470335695
30
0.0000000000
10
-3.5157060885
20
-21.5715361830
30
0.0000000000
10
-3.5400885671
20
-21.5920015753
30
0.0000000000
10
-3.5618861555
20
-21.6052364051
30
0.0000000000
10
-3.5754114811
20
-21.6114734713
30
0.0000000000
10
-3.5796152210
20
-21.6132378989
30
0.0000000000
11
-3.4258076171
21
-21.3320430544
31
0.0000000000
11
-3.4293218518
21
-21.3744282742
31
0.0000000000
11
-3.4361433659
21
-21.4146758784
31
0.0000000000
11
-3.4462065409
21
-21.4523987108
31
0.0000000000
11
-3.4594145753
21
-21.4872339021
31
0.0000000000
11
-3.4756404165
21
-21.5188463600
31
0.0000000000
11
-3.4947279821
21
-21.5469319929
31
0.0000000000
11
-3.5164936622
21
-21.5712206351
31
0.0000000000
11
-3.5407280847
21
-21.5914786453
31
0.0000000000
11
-3.5671981301
21
-21.6075111545
31
0.0000000000
11
-3.5796152210
21
-21.6132378989
31
0.0000000000
0
SPLINE
5
324
100
AcDbEntity
8
0
100
AcDbSpline
62
9
6
CONTINUOUS
70
0
71
3
72
10
73
6
74
4
42
0.0000001000
43
0.0000001000
44
0.0000000001
12
-0.1206266828
22
7.8497390048
32
0.0000000000
13
-0.0050121687
23
7.8506641832
33
0.0000000000
40
0.0000000000
40
0.0000000000
40
0.0000000000
40
0.0000000000
40
0.3324836803
40
0.6658152438
40
1.0000000000
40
1.0000000000
40
1.0000000000
40
1.0000000000
10
-20.0362346942
20
-3.9563501076
30
0.0000000000
10
-20.0496034953
20
-3.0863800696
30
0.0000000000
10
-20.0720605273
20
-1.3441519931
30
0.0000000000
10
-20.0929108084
20
1.2726629956
30
0.0000000000
10
-20.0982756784
20
3.0194789321
30
0.0000000000
10
-20.0988340085
20
3.8940030308
30
0.0000000000
11
-20.0362346942
21
-3.9563501076
31
0.0000000000
11
-20.0698937363
21
-1.3463488824
31
0.0000000000
11
-20.0907602235
21
1.2704426230
31
0.0000000000
11
-20.0988340085
21
3.8940030308
31
0.0000000000
0
SPLINE
5
325
100
AcDbEntity
8
0
100
AcDbSpline
62
9
6
CONTINUOUS
70
0
71
3
72
14
73
10
74
8
42
0.0000001000
43
0.0000001000
44
0.0000000001
12
-1.2564815592
22
9.7341744173
32
0.0000000000
13
-0.1508202281
23
9.8137735226
33
0.0000000000
40
0.0000000000
40
0.0000000000
40
0.0000000000
40
0.0000000000
40
0.1391721989
40
0.2795914017
40
0.4212478168
40
0.5641301952
40
0.7082259028
40
0.8535209374
40
1.0000000000
40
1.0000000000
40
1.0000000000
40
1.0000000000
10
-19.3483353294
20
-13.7420277207
30
0.0000000000
10
-19.4066244299
20
-13.2904522346
30
0.0000000000
10
-19.5159143025
20
-12.3822284433
30
0.0000000000
10
-19.6575079084
20
-11.0112874861
30
0.0000000000
10
-19.7774482538
20
-9.6260958470
30
0.0000000000
10
-19.8756931219
20
-8.2271414902
30
0.0000000000
10
-19.9522087289
20
-6.8149089912
30
0.0000000000
10
-20.0069685244
20
-5.3898948085
30
0.0000000000
10
-20.0288706923
20
-4.4355208897
30
0.0000000000
10
-20.0362346942
20
-3.9563501076
30
0.0000000000
11
-19.3483353294
21
-13.7420277207
31
0.0000000000
11
-19.5116331538
21
-12.3858580521
31
0.0000000000
11
-19.6533251484
21
-11.0149560335
31
0.0000000000
11
-19.7733619650
21
-9.6297993282
31
0.0000000000
11
-19.8717017903
21
-8.2308706618
31
0.0000000000
11
-19.9483103796
21
-6.8186574103
31
0.0000000000
11
-20.0031610478
21
-5.3936517241
31
0.0000000000
11
-20.0362346942
21
-3.9563501076
31
0.0000000000
0
SPLINE
5
326
100
AcDbEntity
8
0
100
AcDbSpline
62
7
6
CONTINUOUS
70
0
71
3
72
15
73
11
74
9
42
0.0000001000
43
0.0000001000
44
0.0000000001
12
-0.0000242185
22
-0.2845411288
32
0.0000000000
13
-0.2405322935
23
-0.1513891199
33
0.0000000000
40
0.0000000000
40
0.0000000000
40
0.0000000000
40
0.0000000000
40
0.0957470284
40
0.2051252931
40
0.3188316418
40
0.4383992277
40
0.5657125527
40
0.7017797008
40
0.8466956899
40
1.0000000000
40
1.0000000000
40
1.0000000000
40
1.0000000000
10
1.5050511283
20
7.8675827029
30
0.0000000000
10
1.5050503553
20
7.8585013804
30
0.0000000000
10
1.5035610147
20
7.8390449281
30
0.0000000000
10
1.4964682107
20
7.8095451554
30
0.0000000000
10
1.4839426444
20
7.7794623172
30
0.0000000000
10
1.4663554501
20
7.7500533258
30
0.0000000000
10
1.4438306197
20
7.7215007437
30
0.0000000000
10
1.4165185806
20
7.6940055693
30
0.0000000000
10
1.3846966609
20
7.6678345330
30
0.0000000000
10
1.3613450561
20
7.6518647033
30
0.0000000000
10
1.3490535103
20
7.6441285018
30
0.0000000000
11
1.5050511283
21
7.8675827029
31
0.0000000000
11
1.5029902474
21
7.8404418682
31
0.0000000000
11
1.4957971557
21
7.8101992984
31
0.0000000000
11
1.4834796662
21
7.7803224994
31
0.0000000000
11
1.4661515061
21
7.7510903369
31
0.0000000000
11
1.4438486881
21
7.7225976758
31
0.0000000000
11
1.4166900394
21
7.6950679158
31
0.0000000000
11
1.3849571401
21
7.6688126582
31
0.0000000000
11
1.3490535103
21
7.6441285018
31
0.0000000000
0
SPLINE
5
327
100
AcDbEntity
8
0
100
AcDbSpline
62
7
6
CONTINUOUS
70
0
71
3
72
17
73
13
74
11
42
0.0000001000
43
0.0000001000
44
0.0000000001
12
0.0000323735
22
0.3368576794
32
0.0000000000
13
-0.3009267091
23
0.1504633546
33
0.0000000000
40
0.0000000000
40
0.0000000000
40
0.0000000000
40
0.0000000000
40
0.0096160356
40
0.0985447878
40
0.1898465675
40
0.2850786191
40
0.3858889915
40
0.4931585349
40
0.6080849401
40
0.7311365362
40
0.8620180964
40
1.0000000000
40
1.0000000000
40
1.0000000000
40
1.0000000000
10
1.5050511056
20
11.4497628146
30
0.0000000000
10
1.5050512094
20
11.4508425597
30
0.0000000000
10
1.5049472632
20
11.4619076618
30
0.0000000000
10
1.5026656523
20
11.4831839327
30
0.0000000000
10
1.4941751283
20
11.5130329044
30
0.0000000000
10
1.4805305395
20
11.5423612325
30
0.0000000000
10
1.4618864529
20
11.5709349178
30
0.0000000000
10
1.4383772789
20
11.5986051096
30
0.0000000000
10
1.4101488981
20
11.6252076130
30
0.0000000000
10
1.3773826666
20
11.6505532543
30
0.0000000000
10
1.3404023831
20
11.6743931856
30
0.0000000000
10
1.3138668975
20
11.6887761533
30
0.0000000000
10
1.3000260842
20
11.6956965600
30
0.0000000000
11
1.5050511056
21
11.4497628146
31
0.0000000000
11
1.5050206358
21
11.4530018320
31
0.0000000000
11
1.5018690460
21
11.4827551317
31
0.0000000000
11
1.4935516444
21
11.5123258141
31
0.0000000000
11
1.4801485494
21
11.5414281986
31
0.0000000000
11
1.4617309037
21
11.5699092786
31
0.0000000000
11
1.4384695036
21
11.5975032473
31
0.0000000000
11
1.4104209277
21
11.6241186648
31
0.0000000000
11
1.3777486607
21
11.6495451058
31
0.0000000000
11
1.3407960276
21
11.6734940150
31
0.0000000000
11
1.3000260842
21
11.6956965600
31
0.0000000000
0
SPLINE
5
328
100
AcDbEntity
8
0
100
AcDbSpline
62
7
6
CONTINUOUS
70
0
71
3
72
15
73
11
74
9
42
0.0000001000
43
0.0000001000
44
0.0000000001
12
0.1255825888
22
0.0604728796
32
0.0000000000
13
0.1245674872
23
-0.0622854619
33
0.0000000000
40
0.0000000000
40
0.0000000000
40
0.0000000000
40
0.0000000000
40
0.0595924451
40
0.1467495319
40
0.2489836202
40
0.3701281084
40
0.5106314718
40
0.6693046275
40
0.8446238363
40
1.0000000000
40
1.0000000000
40
1.0000000000
40
1.0000000000
10
-15.7163849704
20
3.2171384941
30
0.0000000000
10
-15.7138903792
20
3.2183397364
30
0.0000000000
10
-15.7075480008
20
3.2209017653
30
0.0000000000
10
-15.6962565710
20
3.2235779153
30
0.0000000000
10
-15.6818413907
20
3.2247509983
30
0.0000000000
10
-15.6649304962
20
3.2238790220
30
0.0000000000
10
-15.6456566788
20
3.2206129935
30
0.0000000000
10
-15.6243983845
20
3.2147251314
30
0.0000000000
10
-15.6031209142
20
3.2066975535
30
0.0000000000
10
-15.5891816359
20
3.2002383982
30
0.0000000000
10
-15.5827300298
20
3.1970125062
30
0.0000000000
11
-15.7163849704
21
3.2171384941
31
0.0000000000
11
-15.7086877494
21
3.2202581440
31
0.0000000000
11
-15.6968973862
21
3.2231362735
31
0.0000000000
11
-15.6827167290
21
3.2243906862
31
0.0000000000
11
-15.6658648689
21
3.2236239809
31
0.0000000000
11
-15.6465593453
21
3.2204481164
31
0.0000000000
11
-15.6252438464
21
3.2146305128
31
0.0000000000
11
-15.6023772364
21
3.2060796653
31
0.0000000000
11
-15.5827300298
21
3.1970125062
31
0.0000000000
0
SPLINE
5
329
100
AcDbEntity
8
0
100
AcDbSpline
62
7
6
CONTINUOUS
70
0
71
3
72
26
73
22
74
20
42
0.0000001000
43
0.0000001000
44
0.0000000001
12
0.7238398569
22
-0.3618965835
32
0.0000000000
13
-0.0010566046
23
-0.8092536377
33
0.0000000000
40
0.0000000000
40
0.0000000000
40
0.0000000000
40
0.0000000000
40
0.0320441307
40
0.0734033257
40
0.1183558964
40
0.1666101153
40
0.2178577019
40
0.2717729214
40
0.3280082497
40
0.3861419385
40
0.4456853394
40
0.5061305673
40
0.5669574135
40
0.6276414946
40
0.6876605495
40
0.7465110721
40
0.8037203099
40
0.8588344830
40
0.9114195393
40
0.9610725993
40
1.0000000000
40
1.0000000000
40
1.0000000000
40
1.0000000000
10
-9.6458359317
20
0.2285654575
30
0.0000000000
10
-9.6381043254
20
0.2246999037
30
0.0000000000
10
-9.6207040665
20
0.2152116506
30
0.0000000000
10
-9.5937906932
20
0.1979924676
30
0.0000000000
10
-9.5646397743
20
0.1763190885
30
0.0000000000
10
-9.5349490914
20
0.1510466062
30
0.0000000000
10
-9.5051488485
20
0.1222983391
30
0.0000000000
10
-9.4756467780
20
0.0902520309
30
0.0000000000
10
-9.4468376345
20
0.0551441244
30
0.0000000000
10
-9.4191086074
20
0.0172789442
30
0.0000000000
10
-9.3928322979
20
-0.0229710503
30
0.0000000000
10
-9.3683518927
20
-0.0651794820
30
0.0000000000
10
-9.3459697239
20
-0.1088828908
30
0.0000000000
10
-9.3259432364
20
-0.1535887791
30
0.0000000000
10
-9.3084802001
20
-0.1987860635
30
0.0000000000
10
-9.2937345647
20
-0.2439568563
30
0.0000000000
10
-9.2818049643
20
-0.2885841285
30
0.0000000000
10
-9.2727339436
20
-0.3321546815
30
0.0000000000
10
-9.2665052664
20
-0.3741635151
30
0.0000000000
10
-9.2632128944
20
-0.4121207352
30
0.0000000000
10
-9.2625527237
20
-0.4360210886
30
0.0000000000
10
-9.2625664340
20
-0.4465218021
30
0.0000000000
11
-9.6458359317
21
0.2285654575
31
0.0000000000
11
-9.6230472844
21
0.2161887706
31
0.0000000000
11
-9.5948211402
21
0.1982065823
31
0.0000000000
11
-9.5655954928
21
0.1765497205
31
0.0000000000
11
-9.5358286175
21
0.1512793023
31
0.0000000000
11
-9.5059530369
21
0.1225193106
31
0.0000000000
11
-9.4763769225
21
0.0904469989
31
0.0000000000
11
-9.4474875441
21
0.0552884616
31
0.0000000000
11
-9.4196758203
21
0.0173491550
31
0.0000000000
11
-9.3933237345
21
-0.0229878547
31
0.0000000000
11
-9.3687765472
21
-0.0652938429
31
0.0000000000
11
-9.3463385025
21
-0.1091025028
31
0.0000000000
11
-9.3262683974
21
-0.1539187545
31
0.0000000000
11
-9.3087760718
21
-0.1992261880
31
0.0000000000
11
-9.2940164371
21
-0.2445025147
31
0.0000000000
11
-9.2820868895
21
-0.2892322502
31
0.0000000000
11
-9.2730297946
21
-0.3329008179
31
0.0000000000
11
-9.2668290230
21
-0.3749979753
31
0.0000000000
11
-9.2634044459
21
-0.4150306020
31
0.0000000000
11
-9.2625664340
21
-0.4465218021
31
0.0000000000
0
SPLINE
5
32A
100
AcDbEntity
8
0
100
AcDbSpline
62
7
6
CONTINUOUS
70
0
71
3
72
17
73
13
74
11
42
0.0000001000
43
0.0000001000
44
0.0000000001
12
-0.0001456123
22
-0.2530355953
32
0.0000000000
13
0.2263811467
23
-0.1131706928
33
0.0000000000
40
0.0000000000
40
0.0000000000
40
0.0000000000
40
0.0000000000
40
0.0829512870
40
0.1955910878
40
0.3064200439
40
0.4155480090
40
0.5230130347
40
0.6292001640
40
0.7344446112
40
0.8390283802
40
0.9432047577
40
1.0000000000
40
1.0000000000
40
1.0000000000
40
1.0000000000
10
-9.2629022517
20
-0.7936077882
30
0.0000000000
10
-9.2629062779
20
-0.8006043310
30
0.0000000000
10
-9.2622329458
20
-0.8171091890
30
0.0000000000
10
-9.2585936484
20
-0.8427421359
30
0.0000000000
10
-9.2513881568
20
-0.8699100830
30
0.0000000000
10
-9.2411561118
20
-0.8956187819
30
0.0000000000
10
-9.2281035234
20
-0.9195716026
30
0.0000000000
10
-9.2124584516
20
-0.9415159223
30
0.0000000000
10
-9.1944525787
20
-0.9612399178
30
0.0000000000
10
-9.1743324897
20
-0.9785442048
30
0.0000000000
10
-9.1556827523
20
-0.9910235662
30
0.0000000000
10
-9.1437324168
20
-0.9974967085
30
0.0000000000
10
-9.1394466261
20
-0.9996392275
30
0.0000000000
11
-9.2629022517
21
-0.7936077882
31
0.0000000000
11
-9.2620384313
21
-0.8145782027
31
0.0000000000
11
-9.2580164421
21
-0.8427818475
31
0.0000000000
11
-9.2508159957
21
-0.8698722399
31
0.0000000000
11
-9.2405989787
21
-0.8955123386
31
0.0000000000
11
-9.2275857953
21
-0.9193748345
31
0.0000000000
11
-9.2119899435
21
-0.9412395522
31
0.0000000000
11
-9.1940402495
21
-0.9608954701
31
0.0000000000
11
-9.1739839849
21
-0.9781414815
31
0.0000000000
11
-9.1520848870
21
-0.9927930271
31
0.0000000000
11
-9.1394466261
21
-0.9996392275
31
0.0000000000
0
SPLINE
5
32B
100
AcDbEntity
8
0
100
AcDbSpline
62
7
6
CONTINUOUS
70
0
71
3
72
10
73
6
74
4
42
0.0000001000
43
0.0000001000
44
0.0000000001
12
-0.0004482331
22
-0.3470716705
32
0.0000000000
13
-0.0002234013
23
-0.3470718881
33
0.0000000000
40
0.0000000000
40
0.0000000000
40
0.0000000000
40
0.0000000000
40
0.3264943455
40
0.6720028098
40
1.0000000000
40
1.0000000000
40
1.0000000000
40
1.0000000000
10
-9.2625664887
20
-0.4465235725
30
0.0000000000
10
-9.2626152706
20
-0.4842958852
30
0.0000000000
10
-9.2627074578
20
-0.5620402753
30
0.0000000000
10
-9.2628194636
20
-0.6777308753
30
0.0000000000
10
-9.2628778995
20
-0.7556491632
30
0.0000000000
10
-9.2629023245
20
-0.7935953646
30
0.0000000000
11
-9.2625664887
21
-0.4465235725
31
0.0000000000
11
-9.2627008556
21
-0.5598405253
31
0.0000000000
11
-9.2628169509
21
-0.6797567689
31
0.0000000000
11
-9.2629023245
21
-0.7935953646
31
0.0000000000
0
SPLINE
5
32C
100
AcDbEntity
8
0
100
AcDbSpline
62
7
6
CONTINUOUS
70
0
71
3
72
15
73
11
74
9
42
0.0000001000
43
0.0000001000
44
0.0000000001
12
0.0000000000
22
-0.1586170184
32
0.0000000000
13
-0.1426622300
23
-0.0698199333
33
0.0000000000
40
0.0000000000
40
0.0000000000
40
0.0000000000
40
0.0000000000
40
0.1490203725
40
0.2913555966
40
0.4257556220
40
0.5521837592
40
0.6725441562
40
0.7873917674
40
0.8976345025
40
1.0000000000
40
1.0000000000
40
1.0000000000
40
1.0000000000
10
0.1307853352
20
-0.6334013259
30
0.0000000000
10
0.1307853352
20
-0.6412803816
30
0.0000000000
10
0.1301004036
20
-0.6566971025
30
0.0000000000
10
0.1268445782
20
-0.6790122925
30
0.0000000000
10
0.1214130099
20
-0.6996768842
30
0.0000000000
10
0.1138694875
20
-0.7184295701
30
0.0000000000
10
0.1042803625
20
-0.7350536245
30
0.0000000000
10
0.0927357125
20
-0.7493141780
30
0.0000000000
10
0.0796355036
20
-0.7607716886
30
0.0000000000
10
0.0699562034
20
-0.7666017437
30
0.0000000000
10
0.0650883067
20
-0.7689841278
30
0.0000000000
11
0.1307853352
21
-0.6334013259
31
0.0000000000
11
0.1296810029
21
-0.6570126817
31
0.0000000000
11
0.1263574430
21
-0.6793434977
31
0.0000000000
11
0.1208681257
21
-0.6999427724
31
0.0000000000
11
0.1133137480
21
-0.7185191128
31
0.0000000000
11
0.1037090163
21
-0.7350183045
31
0.0000000000
11
0.0921958364
21
-0.7491355977
31
0.0000000000
11
0.0790047988
21
-0.7606147006
31
0.0000000000
11
0.0650883067
21
-0.7689841278
31
0.0000000000
0
SPLINE
5
32D
100
AcDbEntity
8
0
100
AcDbSpline
62
7
6
CONTINUOUS
70
0
71
3
72
16
73
12
74
10
42
0.0000001000
43
0.0000001000
44
0.0000000001
12
0.1837516560
22
-0.0918881402
32
0.0000000000
13
0.1851434367
23
0.0889880866
33
0.0000000000
40
0.0000000000
40
0.0000000000
40
0.0000000000
40
0.0000000000
40
0.0608506620
40
0.1807652389
40
0.3009660544
40
0.4217416418
40
0.5434200997
40
0.6663725338
40
0.7908076973
40
0.9170004163
40
1.0000000000
40
1.0000000000
40
1.0000000000
40
1.0000000000
10
-16.0660716506
20
2.4636732512
30
0.0000000000
10
-16.0623445140
20
2.4618094331
30
0.0000000000
10
-16.0511128290
20
2.4565873054
30
0.0000000000
10
-16.0317277754
20
2.4495021006
30
0.0000000000
10
-16.0076743695
20
2.4436637411
30
0.0000000000
10
-15.9829993717
20
2.4405405046
30
0.0000000000
10
-15.9579409493
20
2.4401957402
30
0.0000000000
10
-15.9327517285
20
2.4426798404
30
0.0000000000
10
-15.9076938363
20
2.4480244631
30
0.0000000000
10
-15.8859882264
20
2.4552546431
30
0.0000000000
10
-15.8728539158
20
2.4610036112
30
0.0000000000
10
-15.8677316397
20
2.4634656026
30
0.0000000000
11
-16.0660716506
21
2.4636732512
31
0.0000000000
11
-16.0547361039
21
2.4584031407
31
0.0000000000
11
-16.0316120301
21
2.4499498331
31
0.0000000000
11
-16.0076293478
21
2.4441266435
31
0.0000000000
11
-15.9830284985
21
2.4410096478
31
0.0000000000
11
-15.9580480200
21
2.4406614082
31
0.0000000000
11
-15.9329248060
21
2.4431327955
31
0.0000000000
11
-15.9079362481
21
2.4484543333
31
0.0000000000
11
-15.8833511820
21
2.4566330058
31
0.0000000000
11
-15.8677316397
21
2.4634656026
31
0.0000000000
0
SPLINE
5
32E
100
AcDbEntity
8
0
100
AcDbSpline
62
7
6
CONTINUOUS
70
0
71
3
72
20
73
16
74
14
42
0.0000001000
43
0.0000001000
44
0.0000000001
12
0.5247112978
22
-0.2623686500
32
0.0000000000
13
0.5304523781
23
0.2505707844
33
0.0000000000
40
0.0000000000
40
0.0000000000
40
0.0000000000
40
0.0000000000
40
0.0684162159
40
0.1471885111
40
0.2256756033
40
0.3041085411
40
0.3825897645
40
0.4611320448
40
0.5396846684
40
0.6182016335
40
0.6966553498
40
0.7750783197
40
0.8535879441
40
0.9324263671
40
1.0000000000
40
1.0000000000
40
1.0000000000
40
1.0000000000
10
-5.1716753371
20
-2.9835251820
30
0.0000000000
10
-5.1597090833
20
-2.9895086054
30
0.0000000000
10
-5.1334380376
20
-3.0013524005
30
0.0000000000
10
-5.0918676736
20
-3.0162786108
30
0.0000000000
10
-5.0473949178
20
-3.0285135550
30
0.0000000000
10
-5.0022384166
20
-3.0375978952
30
0.0000000000
10
-4.9565772511
20
-3.0437115226
30
0.0000000000
10
-4.9106020548
20
-3.0469613397
30
0.0000000000
10
-4.8645079027
20
-3.0473984897
30
0.0000000000
10
-4.8184896297
20
-3.0450247611
30
0.0000000000
10
-4.7727318401
20
-3.0397913287
30
0.0000000000
10
-4.7274097985
20
-3.0315911050
30
0.0000000000
10
-4.6826874657
20
-3.0202418743
30
0.0000000000
10
-4.6409609580
20
-3.0062162466
30
0.0000000000
10
-4.6145822102
20
-2.9950000907
30
0.0000000000
10
-4.6026340121
20
-2.9893560980
30
0.0000000000
11
-5.1716753371
21
-2.9835251820
31
0.0000000000
11
-5.1351045988
21
-3.0000634715
31
0.0000000000
11
-5.0916381389
21
-3.0157360143
31
0.0000000000
11
-5.0472615142
21
-3.0279934702
31
0.0000000000
11
-5.0021654133
21
-3.0371010421
31
0.0000000000
11
-4.9565406677
21
-3.0432325720
31
0.0000000000
11
-4.9105854101
21
-3.0464923381
31
0.0000000000
11
-4.8645106932
21
-3.0469297294
31
0.0000000000
11
-4.8185165054
21
-3.0445467777
31
0.0000000000
11
-4.7727982567
21
-3.0392961087
31
0.0000000000
11
-4.7275384791
21
-3.0310729239
31
0.0000000000
11
-4.6829131741
21
-3.0197006190
31
0.0000000000
11
-4.6390981899
21
-3.0049089012
31
0.0000000000
11
-4.6026340121
21
-2.9893560980
31
0.0000000000
0
SPLINE
5
32F
100
AcDbEntity
8
0
100
AcDbSpline
62
7
6
CONTINUOUS
70
0
71
3
72
18
73
14
74
12
42
0.0000001000
43
0.0000001000
44
0.0000000001
12
-0.0002652406
22
-0.3972258224
32
0.0000000000
13
0.3551900494
23
-0.1776056172
33
0.0000000000
40
0.0000000000
40
0.0000000000
40
0.0000000000
40
0.0000000000
40
0.0552641321
40
0.1410479350
40
0.2273956696
40
0.3146577277
40
0.4037083613
40
0.4955110344
40
0.5906690667
40
0.6896519102
40
0.7931554704
40
0.9021783673
40
1.0000000000
40
1.0000000000
40
1.0000000000
40
1.0000000000
10
-20.2452806317
20
4.7592232928
30
0.0000000000
10
-20.2452855178
20
4.7519058460
30
0.0000000000
10
-20.2446397051
20
4.7332237115
30
0.0000000000
10
-20.2408936705
20
4.7033053474
30
0.0000000000
10
-20.2329307619
20
4.6698411705
30
0.0000000000
10
-20.2212411811
20
4.6370314345
30
0.0000000000
10
-20.2057592620
20
4.6050260445
30
0.0000000000
10
-20.1863595906
20
4.5739902609
30
0.0000000000
10
-20.1629216859
20
4.5441857387
30
0.0000000000
10
-20.1353659459
20
4.5159336372
30
0.0000000000
10
-20.1036061233
20
4.4895319249
30
0.0000000000
10
-20.0694753282
20
4.4665657552
30
0.0000000000
10
-20.0454501988
20
4.4533625959
30
0.0000000000
10
-20.0338684420
20
4.4475713721
30
0.0000000000
11
-20.2452806317
21
4.7592232928
31
0.0000000000
11
-20.2445218819
21
4.7372852288
31
0.0000000000
11
-20.2402948423
21
4.7034890029
31
0.0000000000
11
-20.2323658949
21
4.6701350413
31
0.0000000000
11
-20.2207490110
21
4.6374941762
31
0.0000000000
11
-20.2053682234
21
4.6056583306
31
0.0000000000
11
-20.1860688685
21
4.5747377130
31
0.0000000000
11
-20.1627402096
21
4.5450187914
31
0.0000000000
11
-20.1353308351
21
4.5168545775
31
0.0000000000
11
-20.1037645146
21
4.4905417388
31
0.0000000000
11
-20.0678886338
21
4.4663212500
31
0.0000000000
11
-20.0338684420
21
4.4475713721
31
0.0000000000
0
SPLINE
5
330
100
AcDbEntity
8
0
100
AcDbSpline
62
7
6
CONTINUOUS
70
0
71
3
72
10
73
6
74
4
42
0.0000001000
43
0.0000001000
44
0.0000000001
12
-0.1197133479
22
-7.9144082398
32
0.0000000000
13
-0.0050426720
23
-7.9153119917
33
0.0000000000
40
0.0000000000
40
0.0000000000
40
0.0000000000
40
0.0000000000
40
0.3339765873
40
0.6678969881
40
1.0000000000
40
1.0000000000
40
1.0000000000
40
1.0000000000
10
-20.1826879365
20
12.6742122429
30
0.0000000000
10
-20.1960150883
20
11.7931365580
30
0.0000000000
10
-20.2184517116
20
10.0310665723
30
0.0000000000
10
-20.2393280446
20
7.3927020639
30
0.0000000000
10
-20.2447227187
20
5.6354406944
30
0.0000000000
10
-20.2452809476
20
4.7592077103
30
0.0000000000
11
-20.1826879365
21
12.6742122429
31
0.0000000000
11
-20.2163298960
21
10.0308969045
31
0.0000000000
11
-20.2372269961
21
7.3878948539
31
0.0000000000
11
-20.2452809476
21
4.7592077103
31
0.0000000000
0
SPLINE
5
331
100
AcDbEntity
8
0
100
AcDbSpline
62
7
6
CONTINUOUS
70
0
71
3
72
14
73
10
74
8
42
0.0000001000
43
0.0000001000
44
0.0000000001
12
-1.1894824575
22
-10.4477179712
32
0.0000000000
13
-0.1590352195
23
-10.5140093285
33
0.0000000000
40
0.0000000000
40
0.0000000000
40
0.0000000000
40
0.0000000000
40
0.1452870502
40
0.2902664424
40
0.4343058108
40
0.5773833318
40
0.7194769876
40
0.8605668147
40
1.0000000000
40
1.0000000000
40
1.0000000000
40
1.0000000000
10
-19.4955255885
20
23.1628024731
30
0.0000000000
10
-19.5531310543
20
22.6568297645
30
0.0000000000
10
-19.6614942411
20
21.6451763756
30
0.0000000000
10
-19.8031107506
20
20.1294602937
30
0.0000000000
10
-19.9232563950
20
18.6196563401
30
0.0000000000
10
-20.0216867173
20
17.1184176056
30
0.0000000000
10
-20.0983638998
20
15.6262604739
30
0.0000000000
10
-20.1531750145
20
14.1459249597
30
0.0000000000
10
-20.1752963405
20
13.1628795146
30
0.0000000000
10
-20.1826879362
20
12.6742122444
30
0.0000000000
11
-19.4955255885
21
23.1628024731
31
0.0000000000
11
-19.6581732264
21
21.6437611292
31
0.0000000000
11
-19.7999248026
21
20.1258768360
31
0.0000000000
11
-19.9200029835
21
18.6160399554
31
0.0000000000
11
-20.0183628661
21
17.1147683938
31
0.0000000000
11
-20.0949660954
21
15.6225886500
31
0.0000000000
11
-20.1497823873
21
14.1400124348
31
0.0000000000
11
-20.1826879362
21
12.6742122444
31
0.0000000000
0
SPLINE
5
332
100
AcDbEntity
8
0
100
AcDbSpline
62
7
6
CONTINUOUS
70
0
71
3
72
21
73
17
74
15
42
0.0000001000
43
0.0000001000
44
0.0000000001
12
-0.9607977244
22
-0.5602433398
32
0.0000000000
13
-0.1258077089
23
-1.1050464239
33
0.0000000000
40
0.0000000000
40
0.0000000000
40
0.0000000000
40
0.0000000000
40
0.0627973149
40
0.1334125647
40
0.2051645185
40
0.2777078574
40
0.3506299265
40
0.4235875774
40
0.4965171109
40
0.5693889181
40
0.6422420411
40
0.7151338502
40
0.7880513959
40
0.8609397366
40
0.9337681594
40
1.0000000000
40
1.0000000000
40
1.0000000000
40
1.0000000000
10
-18.9252758502
20
24.0744636299
30
0.0000000000
10
-18.9453876892
20
24.0627363707
30
0.0000000000
10
-18.9871951015
20
24.0362087575
30
0.0000000000
10
-19.0482174517
20
23.9906926582
30
0.0000000000
10
-19.1083519122
20
23.9383212983
30
0.0000000000
10
-19.1651475173
20
23.8811450892
30
0.0000000000
10
-19.2181587506
20
23.8198582451
30
0.0000000000
10
-19.2670975656
20
23.7550996050
30
0.0000000000
10
-19.3118110735
20
23.6873810701
30
0.0000000000
10
-19.3522293328
20
23.6170616906
30
0.0000000000
10
-19.3882796891
20
23.5444227813
30
0.0000000000
10
-19.4198513581
20
23.4697092771
30
0.0000000000
10
-19.4467754042
20
23.3931826939
30
0.0000000000
10
-19.4688320968
20
23.3151341978
30
0.0000000000
10
-19.4852579869
20
23.2382439921
30
0.0000000000
10
-19.4927484152
20
23.1871961059
30
0.0000000000
10
-19.4955259072
20
23.1627996864
30
0.0000000000
11
-18.9252758502
21
24.0744636299
31
0.0000000000
11
-18.9842740913
21
24.0370830397
31
0.0000000000
11
-19.0472622172
21
23.9901799671
31
0.0000000000
11
-19.1074760240
21
23.9378172617
31
0.0000000000
11
-19.1643694737
21
23.8806165028
31
0.0000000000
11
-19.2174560629
21
23.8193079035
31
0.0000000000
11
-19.2664010088
21
23.7545951344
31
0.0000000000
11
-19.3111098395
21
23.6869238904
31
0.0000000000
11
-19.3515058762
21
23.6166670240
31
0.0000000000
11
-19.3875261557
21
23.5440926554
31
0.0000000000
11
-19.4190724067
21
23.4694179801
31
0.0000000000
11
-19.4459684740
21
23.3929149348
31
0.0000000000
11
-19.4679855607
21
23.3149015027
31
0.0000000000
11
-19.4848677500
21
23.2356863483
31
0.0000000000
11
-19.4955259072
21
23.1627996864
31
0.0000000000
0
SPLINE
5
333
100
AcDbEntity
8
0
100
AcDbSpline
62
7
6
CONTINUOUS
70
0
71
3
72
15
73
11
74
9
42
0.0000001000
43
0.0000001000
44
0.0000000001
12
0.2104886928
22
0.1187733918
32
0.0000000000
13
0.2159430699
23
-0.1079715349
33
0.0000000000
40
0.0000000000
40
0.0000000000
40
0.0000000000
40
0.0000000000
40
0.0353229671
40
0.1600319998
40
0.2866181198
40
0.4168912916
40
0.5523816586
40
0.6942589918
40
0.8433240829
40
1.0000000000
40
1.0000000000
40
1.0000000000
40
1.0000000000
10
-15.4451398978
20
26.0860578260
30
0.0000000000
10
-15.4426615361
20
26.0874563022
30
0.0000000000
10
-15.4312897271
20
26.0935374654
30
0.0000000000
10
-15.4098414507
20
26.1022909149
30
0.0000000000
10
-15.3798113133
20
26.1092763070
30
0.0000000000
10
-15.3482161942
20
26.1117084266
30
0.0000000000
10
-15.3153787467
20
26.1095897967
30
0.0000000000
10
-15.2816168081
20
26.1029666877
30
0.0000000000
10
-15.2472523269
20
26.0919250979
30
0.0000000000
10
-15.2247095094
20
26.0819432993
30
0.0000000000
10
-15.2134318166
20
26.0763044528
30
0.0000000000
11
-15.4451398978
21
26.0860578260
31
0.0000000000
11
-15.4376120507
21
26.0900826676
31
0.0000000000
11
-15.4097424314
21
26.1014764776
31
0.0000000000
11
-15.3799875706
21
26.1084534438
31
0.0000000000
11
-15.3486346077
21
26.1109483517
31
0.0000000000
11
-15.3159847093
21
26.1089390251
31
0.0000000000
11
-15.2823520073
21
26.1024462398
31
0.0000000000
11
-15.2480575693
21
26.0915328392
31
0.0000000000
11
-15.2134318166
21
26.0763044528
31
0.0000000000
0
SPLINE
5
334
100
AcDbEntity
8
0
100
AcDbSpline
62
7
6
CONTINUOUS
70
0
71
3
72
8
73
4
74
2
42
0.0000001000
43
0.0000001000
44
0.0000000001
12
0.0021437015
22
0.0012501913
32
0.0000000000
13
0.0021612088
23
0.0012196308
33
0.0000000000
40
0.0000000000
40
0.0000000000
40
0.0000000000
40
0.0000000000
40
1.0000000000
40
1.0000000000
40
1.0000000000
40
1.0000000000
10
-16.3794420352
20
25.5589168311
30
0.0000000000
10
-16.3787274680
20
25.5593335615
30
0.0000000000
10
-16.3780099482
20
25.5597452227
30
0.0000000000
10
-16.3772895452
20
25.5601517663
30
0.0000000000
11
-16.3794420352
21
25.5589168311
31
0.0000000000
11
-16.3772895452
21
25.5601517663
31
0.0000000000
0
SPLINE
5
335
100
AcDbEntity
8
0
100
AcDbSpline
62
7
6
CONTINUOUS
70
0
71
3
72
20
73
16
74
14
42
0.0000001000
43
0.0000001000
44
0.0000000001
12
-0.2546964071
22
-0.1436961876
32
0.0000000000
13
-0.2615627712
23
0.1307813856
33
0.0000000000
40
0.0000000000
40
0.0000000000
40
0.0000000000
40
0.0000000000
40
0.0690276386
40
0.1424014245
40
0.2189911839
40
0.2981390837
40
0.3797188185
40
0.4622911183
40
0.5446377027
40
0.6268480155
40
0.7076872300
40
0.7857575633
40
0.8609969340
40
0.9327675956
40
1.0000000000
40
1.0000000000
40
1.0000000000
40
1.0000000000
10
-7.6827445969
20
20.6554756943
30
0.0000000000
10
-7.6886049608
20
20.6521693582
30
0.0000000000
10
-7.7010403218
20
20.6459493746
30
0.0000000000
10
-7.7209008281
20
20.6380632892
30
0.0000000000
10
-7.7422545839
20
20.6314495505
30
0.0000000000
10
-7.7648029434
20
20.6261984814
30
0.0000000000
10
-7.7882293894
20
20.6223896776
30
0.0000000000
10
-7.8121639259
20
20.6200870548
30
0.0000000000
10
-7.8362577471
20
20.6193167509
30
0.0000000000
10
-7.8601830676
20
20.6200885328
30
0.0000000000
10
-7.8835914644
20
20.6223970009
30
0.0000000000
10
-7.9061160677
20
20.6262005730
30
0.0000000000
10
-7.9274446232
20
20.6314396705
30
0.0000000000
10
-7.9472815738
20
20.6380434088
30
0.0000000000
10
-7.9597254780
20
20.6434674850
30
0.0000000000
10
-7.9655873094
20
20.6463984007
30
0.0000000000
11
-7.6827445969
21
20.6554756943
31
0.0000000000
11
-7.7007733772
21
20.6463957940
31
0.0000000000
11
-7.7206993350
21
20.6384355725
31
0.0000000000
11
-7.7420843728
21
20.6317772688
31
0.0000000000
11
-7.7646214926
21
20.6265045379
31
0.0000000000
11
-7.7881667309
21
20.6226611835
31
0.0000000000
11
-7.8122022465
21
20.6203422760
31
0.0000000000
11
-7.8362711112
21
20.6195743691
31
0.0000000000
11
-7.8602995537
21
20.6203593280
31
0.0000000000
11
-7.8838239101
21
20.6226978187
31
0.0000000000
11
-7.9063312295
21
20.6265261366
31
0.0000000000
11
-7.9276898103
21
20.6318110290
31
0.0000000000
11
-7.9475880626
21
20.6384870725
31
0.0000000000
11
-7.9655873094
21
20.6463984007
31
0.0000000000
0
SPLINE
5
336
100
AcDbEntity
8
0
100
AcDbSpline
62
7
6
CONTINUOUS
70
0
71
3
72
14
73
10
74
8
42
0.0000001000
43
0.0000001000
44
0.0000000001
12
-0.0883080709
22
0.0441540354
32
0.0000000000
13
0.0000004760
23
0.0989485630
33
0.0000000000
40
0.0000000000
40
0.0000000000
40
0.0000000000
40
0.0000000000
40
0.1858534981
40
0.3589084347
40
0.5180908163
40
0.6648903870
40
0.8029660880
40
0.9348805166
40
1.0000000000
40
1.0000000000
40
1.0000000000
40
1.0000000000
10
-10.8647251123
20
22.0959673021
30
0.0000000000
10
-10.8701959002
20
22.0987026961
30
0.0000000000
10
-10.8805129046
20
22.1045099751
30
0.0000000000
10
-10.8943195724
20
22.1145913435
30
0.0000000000
10
-10.9056862364
20
22.1256017880
30
0.0000000000
10
-10.9144341641
20
22.1374027534
30
0.0000000000
10
-10.9204014100
20
22.1498602417
30
0.0000000000
10
-10.9229353488
20
22.1606900138
30
0.0000000000
10
-10.9233022849
20
22.1671885870
30
0.0000000000
10
-10.9233022745
20
22.1693364135
30
0.0000000000
11
-10.8647251123
21
22.0959673021
31
0.0000000000
11
-10.8806790492
21
22.1050325658
31
0.0000000000
11
-10.8944259667
21
22.1151791072
31
0.0000000000
11
-10.9056464755
21
22.1261837596
31
0.0000000000
11
-10.9141988271
21
22.1378852772
31
0.0000000000
11
-10.9200125837
21
22.1502158430
31
0.0000000000
11
-10.9229370828
21
22.1629073549
31
0.0000000000
11
-10.9233022745
21
22.1693364135
31
0.0000000000
0
SPLINE
5
337
100
AcDbEntity
8
0
100
AcDbSpline
62
7
6
CONTINUOUS
70
0
71
3
72
23
73
19
74
17
42
0.0000001000
43
0.0000001000
44
0.0000000001
12
0.6590293427
22
-0.3295146714
32
0.0000000000
13
-0.0000000000
23
-0.7368172048
33
0.0000000000
40
0.0000000000
40
0.0000000000
40
0.0000000000
40
0.0000000000
40
0.0538651871
40
0.1101972075
40
0.1688512193
40
0.2296202518
40
0.2922378073
40
0.3563939263
40
0.4217412955
40
0.4879093266
40
0.5545032484
40
0.6211290129
40
0.6873778417
40
0.7528638649
40
0.8172018574
40
0.8800436731
40
0.9410678659
40
1.0000000000
40
1.0000000000
40
1.0000000000
40
1.0000000000
10
-0.2227680554
20
18.5809725723
30
0.0000000000
10
-0.2109351424
20
18.5750561158
30
0.0000000000
10
-0.1873112936
20
18.5617560198
30
0.0000000000
10
-0.1530511517
20
18.5383078724
30
0.0000000000
10
-0.1194636764
20
18.5111233056
30
0.0000000000
10
-0.0868696479
20
18.4804629356
30
0.0000000000
10
-0.0555753915
20
18.4466163113
30
0.0000000000
10
-0.0258787303
20
18.4099048956
30
0.0000000000
10
0.0019375386
20
18.3706770601
30
0.0000000000
10
0.0276067653
20
18.3293068412
30
0.0000000000
10
0.0508831321
20
18.2861880101
30
0.0000000000
10
0.0715420318
20
18.2417337898
30
0.0000000000
10
0.0893849869
20
18.1963681391
30
0.0000000000
10
0.1042391064
20
18.1505269755
30
0.0000000000
10
0.1159611420
20
18.1046483943
30
0.0000000000
10
0.1244371650
20
18.0591717303
30
0.0000000000
10
0.1295845595
20
18.0145352922
30
0.0000000000
10
0.1307853352
20
17.9850630019
30
0.0000000000
10
0.1307853352
20
17.9705889318
30
0.0000000000
11
-0.2227680554
21
18.5809725723
31
0.0000000000
11
-0.1881423027
21
18.5615752059
31
0.0000000000
11
-0.1538478646
21
18.5381941685
31
0.0000000000
11
-0.1202151626
21
18.5110542517
31
0.0000000000
11
-0.0875652642
21
18.4804136800
31
0.0000000000
11
-0.0562123013
21
18.4465658091
31
0.0000000000
11
-0.0264574405
21
18.4098339821
31
0.0000000000
11
0.0014121787
21
18.3705705529
31
0.0000000000
11
0.0271284167
21
18.3291507191
31
0.0000000000
11
0.0504410155
21
18.2859749512
31
0.0000000000
11
0.0711261418
21
18.2414547000
31
0.0000000000
11
0.0889807145
21
18.1960239810
31
0.0000000000
11
0.1038333361
21
18.1501155864
31
0.0000000000
11
0.1155377616
21
18.1041778822
31
0.0000000000
11
0.1239809372
21
18.0586512504
31
0.0000000000
11
0.1290800543
21
18.0139776442
31
0.0000000000
11
0.1307853352
21
17.9705889318
31
0.0000000000
0
SPLINE
5
338
100
AcDbEntity
8
0
100
AcDbSpline
62
9
6
CONTINUOUS
70
0
71
3
72
15
73
11
74
9
42
0.0000001000
43
0.0000001000
44
0.0000000001
12
-0.0035983300
22
-0.2413202102
32
0.0000000000
13
0.2154941241
23
-0.1076581907
33
0.0000000000
40
0.0000000000
40
0.0000000000
40
0.0000000000
40
0.0000000000
40
0.0689056520
40
0.1761340286
40
0.2889199381
40
0.4098380416
40
0.5406748498
40
0.6824675769
40
0.8356153513
40
1.0000000000
40
1.0000000000
40
1.0000000000
40
1.0000000000
10
-20.1826858966
20
12.6742122124
30
0.0000000000
10
-20.1827685450
20
12.6686694370
30
0.0000000000
10
-20.1819955339
20
12.6544850963
30
0.0000000000
10
-20.1766569519
20
12.6317412940
30
0.0000000000
10
-20.1652756506
20
12.6066737856
30
0.0000000000
10
-20.1487237880
20
12.5823820539
30
0.0000000000
10
-20.1272281957
20
12.5590877416
30
0.0000000000
10
-20.1010343752
20
12.5369987802
30
0.0000000000
10
-20.0704232334
20
12.5163222351
30
0.0000000000
10
-20.0480426691
20
12.5040316824
30
0.0000000000
10
-20.0362346938
20
12.4981325645
30
0.0000000000
11
-20.1826858966
21
12.6742122124
31
0.0000000000
11
-20.1817839319
21
12.6576201137
31
0.0000000000
11
-20.1759807009
21
12.6324502085
31
0.0000000000
11
-20.1648927711
21
12.6076467330
31
0.0000000000
11
-20.1486389424
21
12.5834754403
31
0.0000000000
11
-20.1273933642
21
12.5601953102
31
0.0000000000
11
-20.1013836689
21
12.5380557740
31
0.0000000000
11
-20.0708885336
21
12.5172940426
31
0.0000000000
11
-20.0362346938
21
12.4981325645
31
0.0000000000
0
SPLINE
5
339
100
AcDbEntity
8
0
100
AcDbSpline
62
9
6
CONTINUOUS
70
0
71
3
72
18
73
14
74
12
42
0.0000001000
43
0.0000001000
44
0.0000000001
12
-0.2876066935
22
-0.1383746874
32
0.0000000000
13
0.0003281823
23
-0.3188962752
33
0.0000000000
40
0.0000000000
40
0.0000000000
40
0.0000000000
40
0.0000000000
40
0.0216213829
40
0.1060142172
40
0.1915790852
40
0.2792374879
40
0.3697848211
40
0.4639700907
40
0.5624435651
40
0.6655047354
40
0.7730387464
40
0.8847088633
40
1.0000000000
40
1.0000000000
40
1.0000000000
40
1.0000000000
10
-15.7163837656
20
3.2171398977
30
0.0000000000
10
-15.7184565837
20
3.2161426136
30
0.0000000000
10
-15.7285307296
20
3.2110672762
30
0.0000000000
10
-15.7458803597
20
3.2002732546
30
0.0000000000
10
-15.7669413625
20
3.1826346607
30
0.0000000000
10
-15.7858703383
20
3.1618408815
30
0.0000000000
10
-15.8025299010
20
3.1380700972
30
0.0000000000
10
-15.8168145548
20
3.1114974466
30
0.0000000000
10
-15.8286290810
20
3.0823062475
30
0.0000000000
10
-15.8378778711
20
3.0507295688
30
0.0000000000
10
-15.8444818267
20
3.0170711257
30
0.0000000000
10
-15.8484001397
20
2.9816946499
30
0.0000000000
10
-15.8492152016
20
2.9575572765
30
0.0000000000
10
-15.8492025895
20
2.9453019718
30
0.0000000000
11
-15.7163837656
21
3.2171398977
31
0.0000000000
11
-15.7225460968
21
3.2140350623
31
0.0000000000
11
-15.7454051264
21
3.1998311386
31
0.0000000000
11
-15.7663479601
21
3.1823399512
31
0.0000000000
11
-15.7852058520
21
3.1617049470
31
0.0000000000
11
-15.8018315652
21
3.1380963863
31
0.0000000000
11
-15.8161153782
21
3.1116749028
31
0.0000000000
11
-15.8279633346
21
3.0825928750
31
0.0000000000
11
-15.8372682882
21
3.0510717499
31
0.0000000000
11
-15.8439339971
21
3.0174336131
31
0.0000000000
11
-15.8479114154
21
2.9820452261
31
0.0000000000
11
-15.8492025895
21
2.9453019718
31
0.0000000000
0
SPLINE
5
33A
100
AcDbEntity
8
0
100
AcDbSpline
62
9
6
CONTINUOUS
70
0
71
3
72
16
73
12
74
10
42
0.0000001000
43
0.0000001000
44
0.0000000001
12
-0.0267372739
22
-0.2341399521
32
0.0000000000
13
0.2105572242
23
-0.1045334519
33
0.0000000000
40
0.0000000000
40
0.0000000000
40
0.0000000000
40
0.0000000000
40
0.0070911070
40
0.0963229140
40
0.1906387497
40
0.2938462970
40
0.4085467335
40
0.5362243865
40
0.6774812495
40
0.8322579078
40
1.0000000000
40
1.0000000000
40
1.0000000000
40
1.0000000000
10
-19.4955255247
20
23.1627996427
30
0.0000000000
10
-19.4955887237
20
23.1622462055
30
0.0000000000
10
-19.4963683055
20
23.1547197151
30
0.0000000000
10
-19.4957686995
20
23.1396269827
30
0.0000000000
10
-19.4893762654
20
23.1178817991
30
0.0000000000
10
-19.4776883677
20
23.0962248315
30
0.0000000000
10
-19.4609297749
20
23.0748227925
30
0.0000000000
10
-19.4393054378
20
23.0538340777
30
0.0000000000
10
-19.4130387353
20
23.0334363286
30
0.0000000000
10
-19.3823967620
20
23.0138229907
30
0.0000000000
10
-19.3601084127
20
23.0018575318
30
0.0000000000
10
-19.3483353096
20
22.9960126452
30
0.0000000000
11
-19.4955255247
21
23.1627996427
31
0.0000000000
11
-19.4956976393
21
23.1611374958
31
0.0000000000
11
-19.4949540887
21
23.1401742585
31
0.0000000000
11
-19.4888925590
21
23.1188473734
31
0.0000000000
11
-19.4775780116
21
23.0973854007
31
0.0000000000
11
-19.4611317045
21
23.0760183483
31
0.0000000000
11
-19.4397298927
21
23.0549752067
31
0.0000000000
11
-19.4136019393
21
23.0344814954
31
0.0000000000
11
-19.3830278575
21
23.0147568452
31
0.0000000000
11
-19.3483353096
21
22.9960126452
31
0.0000000000
0
SPLINE
5
33B
100
AcDbEntity
8
0
100
AcDbSpline
62
7
6
CONTINUOUS
70
0
71
3
72
15
73
11
74
9
42
0.0000001000
43
0.0000001000
44
0.0000000001
12
0.2080686651
22
0.1174189873
32
0.0000000000
13
0.2142262278
23
-0.1051461597
33
0.0000000000
40
0.0000000000
40
0.0000000000
40
0.0000000000
40
0.0000000000
40
0.0342625972
40
0.1564557240
40
0.2814484916
40
0.4110983656
40
0.5469016716
40
0.6899395375
40
0.8408778922
40
1.0000000000
40
1.0000000000
40
1.0000000000
40
1.0000000000
10
-16.3772895452
20
25.5601517663
30
0.0000000000
10
-16.3749132210
20
25.5614927928
30
0.0000000000
10
-16.3639187950
20
25.5673621452
30
0.0000000000
10
-16.3430579185
20
25.5757666845
30
0.0000000000
10
-16.3136888777
20
25.5823603955
30
0.0000000000
10
-16.2825930647
20
25.5844959747
30
0.0000000000
10
-16.2500859934
20
25.5821831331
30
0.0000000000
10
-16.2164804587
20
25.5754717546
30
0.0000000000
10
-16.1820954411
20
25.5644489265
30
0.0000000000
10
-16.1594514828
20
25.5545609608
30
0.0000000000
10
-16.1480887732
20
25.5489839346
30
0.0000000000
11
-16.3772895452
21
25.5601517663
31
0.0000000000
11
-16.3700689603
21
25.5640060584
31
0.0000000000
11
-16.3430349098
21
25.5749362305
31
0.0000000000
11
-16.3139471726
21
25.5815409499
31
0.0000000000
11
-16.2830871477
21
25.5837574461
31
0.0000000000
11
-16.2507533730
21
25.5815657410
31
0.0000000000
11
-16.2172585587
21
25.5749888127
31
0.0000000000
11
-16.1829264828
21
25.5640923267
31
0.0000000000
11
-16.1480887732
21
25.5489839346
31
0.0000000000
0
SPLINE
5
33C
100
AcDbEntity
8
0
100
AcDbSpline
62
9
6
CONTINUOUS
70
0
71
3
72
15
73
11
74
9
42
0.0000001000
43
0.0000001000
44
0.0000000001
12
0.2101496634
22
0.1225567917
32
0.0000000000
13
0.2189156061
23
-0.1054718720
33
0.0000000000
40
0.0000000000
40
0.0000000000
40
0.0000000000
40
0.0000000000
40
0.0444396947
40
0.1654975731
40
0.2893449324
40
0.4177654184
40
0.5521963875
40
0.6936782529
40
0.8428541365
40
1.0000000000
40
1.0000000000
40
1.0000000000
40
1.0000000000
10
-18.9252745261
20
24.0744633345
30
0.0000000000
10
-18.9221615304
20
24.0762787966
30
0.0000000000
10
-18.9103633847
20
24.0826877369
30
0.0000000000
10
-18.8885373138
20
24.0915093420
30
0.0000000000
10
-18.8589319671
20
24.0982448860
30
0.0000000000
10
-18.8275838683
20
24.1005366635
30
0.0000000000
10
-18.7948087229
20
24.0983903631
30
0.0000000000
10
-18.7609204210
20
24.0918514086
30
0.0000000000
10
-18.7262396411
20
24.0810023054
30
0.0000000000
10
-18.7033881897
20
24.0712215939
30
0.0000000000
10
-18.6919209624
20
24.0656967711
30
0.0000000000
11
-18.9252745261
21
24.0744633345
31
0.0000000000
11
-18.9157759657
21
24.0796223827
31
0.0000000000
11
-18.8885162160
21
24.0906795217
31
0.0000000000
11
-18.8591873535
21
24.0974257425
31
0.0000000000
11
-18.8280715034
21
24.0997961510
31
0.0000000000
11
-18.7954679799
21
24.0977679452
31
0.0000000000
11
-18.7616904082
21
24.0913606353
31
0.0000000000
11
-18.7270637068
21
24.0806358554
31
0.0000000000
11
-18.6919209624
21
24.0656967711
31
0.0000000000
0
SPLINE
5
33D
100
AcDbEntity
8
0
100
AcDbSpline
62
9
6
CONTINUOUS
70
0
71
3
72
14
73
10
74
8
42
0.0000001000
43
0.0000001000
44
0.0000000001
12
0.1153081391
22
0.0554688665
32
0.0000000000
13
0.0009146832
23
0.1277168697
33
0.0000000000
40
0.0000000000
40
0.0000000000
40
0.0000000000
40
0.0000000000
40
0.1056245671
40
0.2340045112
40
0.3684343965
40
0.5112402913
40
0.6638494794
40
0.8268285416
40
1.0000000000
40
1.0000000000
40
1.0000000000
40
1.0000000000
10
-15.8677170866
20
2.4634728713
30
0.0000000000
10
-15.8636572958
20
2.4654258296
30
0.0000000000
10
-15.8550538912
20
2.4705681746
30
0.0000000000
10
-15.8433297179
20
2.4811536647
30
0.0000000000
10
-15.8329607596
20
2.4950871883
30
0.0000000000
10
-15.8247292675
20
2.5115232270
30
0.0000000000
10
-15.8187437878
20
2.5301687117
30
0.0000000000
10
-15.8150815275
20
2.5507056131
30
0.0000000000
10
-15.8142443622
20
2.5650268045
30
0.0000000000
10
-15.8141915632
20
2.5723991100
30
0.0000000000
11
-15.8677170866
21
2.4634728713
31
0.0000000000
11
-15.8561262460
21
2.4703901999
31
0.0000000000
11
-15.8439146967
21
2.4813323204
31
0.0000000000
11
-15.8335929446
21
2.4950527389
31
0.0000000000
11
-15.8253375800
21
2.5113167172
31
0.0000000000
11
-15.8192898396
21
2.5298460008
31
0.0000000000
11
-15.8155531913
21
2.5503235793
31
0.0000000000
11
-15.8141915632
21
2.5723991100
31
0.0000000000
0
SPLINE
5
33E
100
AcDbEntity
8
0
100
AcDbSpline
62
9
6
CONTINUOUS
70
0
71
3
72
15
73
11
74
9
42
0.0000001000
43
0.0000001000
44
0.0000000001
12
-0.1415587716
22
0.0708183319
32
0.0000000000
13
0.0001013376
23
0.1580746030
33
0.0000000000
40
0.0000000000
40
0.0000000000
40
0.0000000000
40
0.0000000000
40
0.1023731481
40
0.2128853324
40
0.3274263084
40
0.4475873309
40
0.5744915587
40
0.7087863309
40
0.8506788504
40
1.0000000000
40
1.0000000000
40
1.0000000000
40
1.0000000000
10
-16.0660730646
20
2.4636736775
30
0.0000000000
10
-16.0709036703
20
2.4660903093
30
0.0000000000
10
-16.0805141427
20
2.4719859099
30
0.0000000000
10
-16.0934893855
20
2.4834910522
30
0.0000000000
10
-16.1049127037
20
2.4977499875
30
0.0000000000
10
-16.1144118788
20
2.5143466094
30
0.0000000000
10
-16.1218867263
20
2.5330618202
30
0.0000000000
10
-16.1272610800
20
2.5536612059
30
0.0000000000
10
-16.1304806203
20
2.5758899430
30
0.0000000000
10
-16.1311524185
20
2.5912469242
30
0.0000000000
10
-16.1311473746
20
2.5991148847
30
0.0000000000
11
-16.0660730646
21
2.4636736775
31
0.0000000000
11
-16.0798751687
21
2.4721269905
31
0.0000000000
11
-16.0929749651
21
2.4836841247
31
0.0000000000
11
-16.1043454380
21
2.4977745616
31
0.0000000000
11
-16.1138450042
21
2.5142228396
31
0.0000000000
11
-16.1213554242
21
2.5328242055
31
0.0000000000
11
-16.1267832268
21
2.5533471755
31
0.0000000000
11
-16.1300607932
21
2.5755360215
31
0.0000000000
11
-16.1311473746
21
2.5991148847
31
0.0000000000
0
SPLINE
5
33F
100
AcDbEntity
8
0
100
AcDbSpline
62
9
6
CONTINUOUS
70
0
71
3
72
14
73
10
74
8
42
0.0000001000
43
0.0000001000
44
0.0000000001
12
-0.0862372286
22
0.0431178797
32
0.0000000000
13
0.0000551013
23
0.0966600361
33
0.0000000000
40
0.0000000000
40
0.0000000000
40
0.0000000000
40
0.0000000000
40
0.2048390489
40
0.3921995422
40
0.5623428208
40
0.7169656680
40
0.8595214153
40
0.9952865690
40
1.0000000000
40
1.0000000000
40
1.0000000000
40
1.0000000000
10
-9.2043236002
20
-0.8642969253
30
0.0000000000
10
-9.2102118508
20
-0.8613528502
30
0.0000000000
10
-9.2212202660
20
-0.8551509234
30
0.0000000000
10
-9.2358136025
20
-0.8444022679
30
0.0000000000
10
-9.2475458526
20
-0.8327563531
30
0.0000000000
10
-9.2562035033
20
-0.8203650508
30
0.0000000000
10
-9.2615817902
20
-0.8073935807
30
0.0000000000
10
-9.2628839014
20
-0.7982858641
30
0.0000000000
10
-9.2629023127
20
-0.7937596551
30
0.0000000000
10
-9.2629022261
20
-0.7936077883
30
0.0000000000
11
-9.2043236002
21
-0.8642969253
31
0.0000000000
11
-9.2214843289
21
-0.8545213917
31
0.0000000000
11
-9.2359616988
21
-0.8437171097
31
0.0000000000
11
-9.2475107391
21
-0.8320668979
31
0.0000000000
11
-9.2559360289
21
-0.8197678891
31
0.0000000000
11
-9.2610950042
21
-0.8070281943
31
0.0000000000
11
-9.2629003704
21
-0.7940633813
31
0.0000000000
11
-9.2629022261
21
-0.7936077883
31
0.0000000000
0
SPLINE
5
340
100
AcDbEntity
8
0
100
AcDbSpline
62
9
6
CONTINUOUS
70
0
71
3
72
14
73
10
74
8
42
0.0000001000
43
0.0000001000
44
0.0000000001
12
-0.0862638137
22
0.0431295527
32
0.0000000000
13
0.0001155981
23
0.0966860497
33
0.0000000000
40
0.0000000000
40
0.0000000000
40
0.0000000000
40
0.0000000000
40
0.1896493586
40
0.3644157165
40
0.5243839190
40
0.6706423503
40
0.8055115183
40
0.9326663230
40
1.0000000000
40
1.0000000000
40
1.0000000000
40
1.0000000000
10
-9.2039878315
20
-0.5172159089
30
0.0000000000
10
-9.2094411238
20
-0.5144894116
30
0.0000000000
10
-9.2196897910
20
-0.5087645254
30
0.0000000000
10
-9.2334384257
20
-0.4989412234
30
0.0000000000
10
-9.2447698566
20
-0.4883410525
30
0.0000000000
10
-9.2535142640
20
-0.4770883379
30
0.0000000000
10
-9.2595165075
20
-0.4653122437
30
0.0000000000
10
-9.2621687572
20
-0.4549625009
30
0.0000000000
10
-9.2625672774
20
-0.4486936505
30
0.0000000000
10
-9.2625646828
20
-0.4465235747
30
0.0000000000
11
-9.2039878315
21
-0.5172159089
31
0.0000000000
11
-9.2199203436
21
-0.5082323283
31
0.0000000000
11
-9.2335836771
21
-0.4983624343
31
0.0000000000
11
-9.2447807945
21
-0.4877487174
31
0.0000000000
11
-9.2533502234
21
-0.4765442356
31
0.0000000000
11
-9.2591683856
21
-0.4649105645
31
0.0000000000
11
-9.2621513787
21
-0.4530154694
31
0.0000000000
11
-9.2625646828
21
-0.4465235747
31
0.0000000000
0
SPLINE
5
341
100
AcDbEntity
8
0
100
AcDbSpline
62
9
6
CONTINUOUS
70
0
71
3
72
15
73
11
74
9
42
0.0000001000
43
0.0000001000
44
0.0000000001
12
-0.0003097963
22
-0.1267475288
32
0.0000000000
13
0.1135582900
23
-0.0567633396
33
0.0000000000
40
0.0000000000
40
0.0000000000
40
0.0000000000
40
0.0000000000
40
0.1604946916
40
0.3123318492
40
0.4553355717
40
0.5898548544
40
0.7168449816
40
0.8379103712
40
0.9552612898
40
1.0000000000
40
1.0000000000
40
1.0000000000
40
1.0000000000
10
-9.6978163381
20
0.3372607775
30
0.0000000000
10
-9.6978329116
20
0.3304800090
30
0.0000000000
10
-9.6972365298
20
0.3172705232
30
0.0000000000
10
-9.6942890951
20
0.2982189660
30
0.0000000000
10
-9.6893454871
20
0.2807125236
30
0.0000000000
10
-9.6824617092
20
0.2650031762
30
0.0000000000
10
-9.6737167341
20
0.2513225723
30
0.0000000000
10
-9.6632173178
20
0.2398881442
30
0.0000000000
10
-9.6535511632
20
0.2327120287
30
0.0000000000
10
-9.6475314309
20
0.2294138589
30
0.0000000000
10
-9.6458379471
20
0.2285673527
30
0.0000000000
11
-9.6978163381
21
0.3372607775
31
0.0000000000
11
-9.6968436262
21
0.3169416806
31
0.0000000000
11
-9.6938377603
21
0.2979328298
31
0.0000000000
11
-9.6888422539
21
0.2805094013
31
0.0000000000
11
-9.6819294236
21
0.2649236207
31
0.0000000000
11
-9.6731993411
21
0.2514011107
31
0.0000000000
11
-9.6627783854
21
0.2401376254
31
0.0000000000
11
-9.6508174124
21
0.2312962167
31
0.0000000000
11
-9.6458379471
21
0.2285673527
31
0.0000000000
0
SPLINE
5
342
100
AcDbEntity
8
0
100
AcDbSpline
62
9
6
CONTINUOUS
70
0
71
3
72
19
73
15
74
13
42
0.0000001000
43
0.0000001000
44
0.0000000001
12
0.2592221136
22
-0.1296132623
32
0.0000000000
13
0.2602163001
23
0.1276055607
33
0.0000000000
40
0.0000000000
40
0.0000000000
40
0.0000000000
40
0.0000000000
40
0.0736801644
40
0.1523386976
40
0.2352112726
40
0.3213796291
40
0.4098159462
40
0.4994215491
40
0.5890625015
40
0.6776038139
40
0.7639436113
40
0.8470485961
40
0.9259924984
40
1.0000000000
40
1.0000000000
40
1.0000000000
40
1.0000000000
10
-16.1311473746
20
2.5991148847
30
0.0000000000
10
-16.1247808653
20
2.5959315758
30
0.0000000000
10
-16.1112592838
20
2.5900525966
30
0.0000000000
10
-16.0896723767
20
2.5828795013
30
0.0000000000
10
-16.0664136153
20
2.5771548116
30
0.0000000000
10
-16.0418726981
20
2.5729754541
30
0.0000000000
10
-16.0164583017
20
2.5704112377
30
0.0000000000
10
-15.9905960197
20
2.5695055633
30
0.0000000000
10
-15.9647191603
20
2.5702737002
30
0.0000000000
10
-15.9392612933
20
2.5727026979
30
0.0000000000
10
-15.9146487849
20
2.5767514304
30
0.0000000000
10
-15.8912916097
20
2.5823522408
30
0.0000000000
10
-15.8695811963
20
2.5894102552
30
0.0000000000
10
-15.8559635296
20
2.5952147815
30
0.0000000000
10
-15.8495442102
20
2.5983627045
30
0.0000000000
11
-16.1311473746
21
2.5991148847
31
0.0000000000
11
-16.1115936609
21
2.5905331980
31
0.0000000000
11
-16.0899778307
21
2.5832908822
31
0.0000000000
11
-16.0666656444
21
2.5775104843
31
0.0000000000
11
-16.0420515666
21
2.5732898141
31
0.0000000000
11
-16.0165520911
21
2.5707002895
31
0.0000000000
11
-15.9905986934
21
2.5697857275
31
0.0000000000
11
-15.9646305301
21
2.5705616036
31
0.0000000000
11
-15.9390870072
21
2.5730147892
31
0.0000000000
11
-15.9144003457
21
2.5771037739
31
0.0000000000
11
-15.8909882676
21
2.5827593683
31
0.0000000000
11
-15.8692469276
21
2.5898858742
31
0.0000000000
11
-15.8495442102
21
2.5983627045
31
0.0000000000
0
SPLINE
5
343
100
AcDbEntity
8
0
100
AcDbSpline
62
9
6
CONTINUOUS
70
0
71
3
72
20
73
16
74
14
42
0.0000001000
43
0.0000001000
44
0.0000000001
12
0.2592152129
22
-0.1296164212
32
0.0000000000
13
0.2603119529
23
0.1273994914
33
0.0000000000
40
0.0000000000
40
0.0000000000
40
0.0000000000
40
0.0000000000
40
0.0678341329
40
0.1399569070
40
0.2157823075
40
0.2946070765
40
0.3756415919
40
0.4580365766
40
0.5409074850
40
0.6233576740
40
0.7045011872
40
0.7834858804
40
0.8595177047
40
0.9318872307
40
1.0000000000
40
1.0000000000
40
1.0000000000
40
1.0000000000
10
-16.1308056176
20
2.9461929842
30
0.0000000000
10
-16.1249444045
20
2.9432621783
30
0.0000000000
10
-16.1125483713
20
2.9378097252
30
0.0000000000
10
-16.0928160500
20
2.9310272803
30
0.0000000000
10
-16.0716070377
20
2.9254645328
30
0.0000000000
10
-16.0492246437
20
2.9212017836
30
0.0000000000
10
-16.0259869185
20
2.9182997134
30
0.0000000000
10
-16.0022258483
20
2.9168001433
30
0.0000000000
10
-15.9782810911
20
2.9167246468
30
0.0000000000
10
-15.9544951748
20
2.9180743073
30
0.0000000000
10
-15.9312081310
20
2.9208296965
30
0.0000000000
10
-15.9087526875
20
2.9249510952
30
0.0000000000
10
-15.8874479991
20
2.9303797875
30
0.0000000000
10
-15.8675988421
20
2.9370374303
30
0.0000000000
10
-15.8551127781
20
2.9424094614
30
0.0000000000
10
-15.8492025888
20
2.9453019721
30
0.0000000000
11
-16.1308056176
21
2.9461929842
31
0.0000000000
11
-16.1128336895
21
2.9382242470
31
0.0000000000
11
-16.0930815143
21
2.9313863224
31
0.0000000000
11
-16.0718339368
21
2.9257776552
31
0.0000000000
11
-16.0493973663
21
2.9214791235
31
0.0000000000
11
-16.0260953584
21
2.9185527137
31
0.0000000000
11
-16.0022639486
21
2.9170406249
31
0.0000000000
11
-15.9782468065
21
2.9169646604
31
0.0000000000
11
-15.9543902803
21
2.9183259137
31
0.0000000000
11
-15.9310384014
21
2.9211047529
31
0.0000000000
11
-15.9085279241
21
2.9252611039
31
0.0000000000
11
-15.8871834685
21
2.9307350274
31
0.0000000000
11
-15.8673128398
21
2.9374475840
31
0.0000000000
11
-15.8492025888
21
2.9453019721
31
0.0000000000
0
SPLINE
5
344
100
AcDbEntity
8
0
100
AcDbSpline
62
9
6
CONTINUOUS
70
0
71
3
72
15
73
11
74
9
42
0.0000001000
43
0.0000001000
44
0.0000000001
12
-0.0001009172
22
-0.1578689825
32
0.0000000000
13
0.1413862063
23
-0.0707059851
33
0.0000000000
40
0.0000000000
40
0.0000000000
40
0.0000000000
40
0.0000000000
40
0.1495025598
40
0.2915335673
40
0.4259147471
40
0.5528454098
40
0.6729673418
40
0.7874022721
40
0.8977459094
40
1.0000000000
40
1.0000000000
40
1.0000000000
40
1.0000000000
10
-9.2043236775
20
-0.8642969639
30
0.0000000000
10
-9.2043287066
20
-0.8721642362
30
0.0000000000
10
-9.2036594741
20
-0.8875180126
30
0.0000000000
10
-9.2004516001
20
-0.9097403242
30
0.0000000000
10
-9.1950966553
20
-0.9303296159
30
0.0000000000
10
-9.1876487245
20
-0.9490313525
30
0.0000000000
10
-9.1781835572
20
-0.9656114852
30
0.0000000000
10
-9.1668006411
20
-0.9798512621
30
0.0000000000
10
-9.1538668432
20
-0.9913383314
30
0.0000000000
10
-9.1442829358
20
-0.9972209503
30
0.0000000000
10
-9.1394638298
20
-0.9996309424
30
0.0000000000
11
-9.2043236775
21
-0.8642969639
31
0.0000000000
11
-9.2032408812
21
-0.8878739345
31
0.0000000000
11
-9.1999747317
21
-0.9100570721
31
0.0000000000
11
-9.1945658430
21
-0.9305705850
31
0.0000000000
11
-9.1870815920
21
-0.9491588665
31
0.0000000000
11
-9.1776151302
21
-0.9655905923
31
0.0000000000
11
-9.1662842822
21
-0.9796612168
31
0.0000000000
11
-9.1532301400
21
-0.9911955239
31
0.0000000000
11
-9.1394638298
21
-0.9996309424
31
0.0000000000
0
SPLINE
5
345
100
AcDbEntity
8
0
100
AcDbSpline
62
9
6
CONTINUOUS
70
0
71
3
72
9
73
5
74
3
42
0.0000001000
43
0.0000001000
44
0.0000000001
12
-0.0004482462
22
-0.3470809405
32
0.0000000000
13
-0.0002234080
23
-0.3470811581
33
0.0000000000
40
0.0000000000
40
0.0000000000
40
0.0000000000
40
0.0000000000
40
0.5000409878
40
1.0000000000
40
1.0000000000
40
1.0000000000
40
1.0000000000
10
-9.2039878324
20
-0.5172159009
30
0.0000000000
10
-9.2040625462
20
-0.5750674664
30
0.0000000000
10
-9.2041932322
20
-0.6907611382
30
0.0000000000
10
-9.2042864458
20
-0.8064548462
30
0.0000000000
10
-9.2043236775
20
-0.8642969639
30
0.0000000000
11
-9.2039878324
21
-0.5172159009
31
0.0000000000
11
-9.2041838733
21
-0.6907706313
31
0.0000000000
11
-9.2043236775
21
-0.8642969639
31
0.0000000000
0
SPLINE
5
346
100
AcDbEntity
8
0
100
AcDbSpline
62
9
6
CONTINUOUS
70
0
71
3
72
25
73
21
74
19
42
0.0000001000
43
0.0000001000
44
0.0000000001
12
0.0013249608
22
1.0310567618
32
0.0000000000
13
-0.9222021593
23
0.4611105929
33
0.0000000000
40
0.0000000000
40
0.0000000000
40
0.0000000000
40
0.0000000000
40
0.0517733937
40
0.1055884445
40
0.1611112032
40
0.2179812574
40
0.2758126122
40
0.3343238355
40
0.3933357501
40
0.4526253368
40
0.5118896427
40
0.5708205552
40
0.6291160713
40
0.6864923771
40
0.7427552703
40
0.7977606713
40
0.8512767621
40
0.9029913937
40
0.9526386977
40
1.0000000000
40
1.0000000000
40
1.0000000000
40
1.0000000000
10
-9.2039878324
20
-0.5172159009
30
0.0000000000
10
-9.2039649665
20
-0.4994221317
30
0.0000000000
10
-9.2052169645
20
-0.4631210537
30
0.0000000000
10
-9.2107777796
20
-0.4079932738
30
0.0000000000
10
-9.2200618345
20
-0.3515927747
30
0.0000000000
10
-9.2330006300
20
-0.2945038167
30
0.0000000000
10
-9.2494729557
20
-0.2372646007
30
0.0000000000
10
-9.2693359184
20
-0.1803331598
30
0.0000000000
10
-9.2924457775
20
-0.1240992002
30
0.0000000000
10
-9.3186450654
20
-0.0689500728
30
0.0000000000
10
-9.3477405705
20
-0.0153040425
30
0.0000000000
10
-9.3795015796
20
0.0364082443
30
0.0000000000
10
-9.4136729059
20
0.0857743745
30
0.0000000000
10
-9.4499943432
20
0.1324256490
30
0.0000000000
10
-9.4882164350
20
0.1760427740
30
0.0000000000
10
-9.5280827677
20
0.2163199729
30
0.0000000000
10
-9.5692812250
20
0.2529243750
30
0.0000000000
10
-9.6114260179
20
0.2855122972
30
0.0000000000
10
-9.6540708712
20
0.3137741561
30
0.0000000000
10
-9.6832574397
20
0.3299811781
30
0.0000000000
10
-9.6978163381
20
0.3372607775
30
0.0000000000
11
-9.2039878324
21
-0.5172159009
31
0.0000000000
11
-9.2057679565
21
-0.4638642387
31
0.0000000000
11
-9.2112841475
21
-0.4086526982
31
0.0000000000
11
-9.2205393246
21
-0.3521586333
31
0.0000000000
11
-9.2334657953
21
-0.2949649071
31
0.0000000000
11
-9.2499307527
21
-0.2376557542
31
0.0000000000
11
-9.2697869353
21
-0.1806886325
31
0.0000000000
11
-9.2929053302
21
-0.1244070604
31
0.0000000000
11
-9.3191346424
21
-0.0691891297
31
0.0000000000
11
-9.3482714528
21
-0.0154782671
31
0.0000000000
11
-9.3800825355
21
0.0362902012
31
0.0000000000
11
-9.4143094278
21
0.0856992628
31
0.0000000000
11
-9.4506754335
21
0.1323599033
31
0.0000000000
11
-9.4889363547
21
0.1759637449
31
0.0000000000
11
-9.5288663153
21
0.2162383802
31
0.0000000000
11
-9.5701527806
21
0.2528451903
31
0.0000000000
11
-9.6123744114
21
0.2854095547
31
0.0000000000
11
-9.6550852829
21
0.3136251320
31
0.0000000000
11
-9.6978163381
21
0.3372607775
31
0.0000000000
0
SPLINE
5
347
100
AcDbEntity
8
0
100
AcDbSpline
62
9
6
CONTINUOUS
70
0
71
3
72
15
73
11
74
9
42
0.0000001000
43
0.0000001000
44
0.0000000001
12
-0.2128797394
22
0.1064396284
32
0.0000000000
13
-0.0052311644
23
0.2383063429
33
0.0000000000
40
0.0000000000
40
0.0000000000
40
0.0000000000
40
0.0000000000
40
0.1564056529
40
0.3029659939
40
0.4396025969
40
0.5666050493
40
0.6847491957
40
0.7953653709
40
0.9003786248
40
1.0000000000
40
1.0000000000
40
1.0000000000
40
1.0000000000
10
-20.0988340082
20
4.5829582022
30
0.0000000000
10
-20.1099325398
20
4.5885074554
30
0.0000000000
10
-20.1310431984
20
4.6000644536
30
0.0000000000
10
-20.1601068197
20
4.6194296814
30
0.0000000000
10
-20.1853118091
20
4.6401135439
30
0.0000000000
10
-20.2064212162
20
4.6619420117
30
0.0000000000
10
-20.2232274706
20
4.6847374886
30
0.0000000000
10
-20.2355431726
20
4.7083135479
30
0.0000000000
10
-20.2431449676
20
4.7322876903
30
0.0000000000
10
-20.2450775821
20
4.7485078301
30
0.0000000000
10
-20.2452512941
20
4.7564212986
30
0.0000000000
11
-20.0988340082
21
4.5829582022
31
0.0000000000
11
-20.1314412402
21
4.6009168475
31
0.0000000000
11
-20.1604088760
21
4.6203501616
31
0.0000000000
11
-20.1854679850
21
4.6410774146
31
0.0000000000
11
-20.2063812478
21
4.6629024703
31
0.0000000000
11
-20.2229520842
21
4.6856201049
31
0.0000000000
11
-20.2350244299
21
4.7090164687
31
0.0000000000
11
-20.2424844563
21
4.7328710452
31
0.0000000000
11
-20.2452512941
21
4.7564212986
31
0.0000000000
0
SPLINE
5
348
100
AcDbEntity
8
0
100
AcDbSpline
62
9
6
CONTINUOUS
70
0
71
3
72
9
73
5
74
3
42
0.0000001000
43
0.0000001000
44
0.0000000001
12
-0.0000611554
22
0.0027859414
32
0.0000000000
13
0.0000022061
23
0.0027866617
33
0.0000000000
40
0.0000000000
40
0.0000000000
40
0.0000000000
40
0.0000000000
40
0.1930444904
40
1.0000000000
40
1.0000000000
40
1.0000000000
40
1.0000000000
10
-20.2452512941
20
4.7564212986
30
0.0000000000
10
-20.2452552293
20
4.7566005688
30
0.0000000000
10
-20.2452735750
20
4.7575292614
30
0.0000000000
10
-20.2452813392
20
4.7584581459
30
0.0000000000
10
-20.2452807457
20
4.7592077166
30
0.0000000000
11
-20.2452512941
21
4.7564212986
31
0.0000000000
11
-20.2452619180
21
4.7569591339
31
0.0000000000
11
-20.2452807457
21
4.7592077166
31
0.0000000000
0
SPLINE
5
349
100
AcDbEntity
8
0
100
AcDbSpline
62
9
6
CONTINUOUS
70
0
71
3
72
10
73
6
74
4
42
0.0000001000
43
0.0000001000
44
0.0000000001
12
0.0050502121
22
7.9154818157
32
0.0000000000
13
0.1197180598
23
7.9145780345
33
0.0000000000
40
0.0000000000
40
0.0000000000
40
0.0000000000
40
0.0000000000
40
0.3325044104
40
0.6658360585
40
1.0000000000
40
1.0000000000
40
1.0000000000
40
1.0000000000
10
-20.0988340085
20
4.5829582019
30
0.0000000000
10
-20.0982742693
20
5.4602690733
30
0.0000000000
10
-20.0928743350
20
7.2170738146
30
0.0000000000
10
-20.0719918152
20
9.8554948793
30
0.0000000000
10
-20.0495698471
20
11.6165437007
30
0.0000000000
10
-20.0362346942
20
12.4981325643
30
0.0000000000
11
-20.0988340085
21
4.5829582019
31
0.0000000000
11
-20.0907602235
21
7.2148789682
31
0.0000000000
11
-20.0698937364
21
9.8532775917
31
0.0000000000
11
-20.0362346942
21
12.4981325643
31
0.0000000000
0
SPLINE
5
34A
100
AcDbEntity
8
0
100
AcDbSpline
62
9
6
CONTINUOUS
70
0
71
3
72
14
73
10
74
8
42
0.0000001000
43
0.0000001000
44
0.0000000001
12
0.1591919133
22
10.5233295456
32
0.0000000000
13
1.1906596437
23
10.4569659273
33
0.0000000000
40
0.0000000000
40
0.0000000000
40
0.0000000000
40
0.0000000000
40
0.1398556385
40
0.2807463514
40
0.4226523539
40
0.5655528729
40
0.7094262094
40
0.8542497444
40
1.0000000000
40
1.0000000000
40
1.0000000000
40
1.0000000000
10
-20.0362346942
20
12.4981325643
30
0.0000000000
10
-20.0288133986
20
12.9887148887
30
0.0000000000
10
-20.0066280120
20
13.9734148159
30
0.0000000000
10
-19.9517002956
20
15.4551854652
30
0.0000000000
10
-19.8750177721
20
16.9466881846
30
0.0000000000
10
-19.7766073134
20
18.4473990481
30
0.0000000000
10
-19.6565031381
20
19.9567974944
30
0.0000000000
10
-19.5147475482
20
21.4743540046
30
0.0000000000
10
-19.4061816452
20
22.4879774866
30
0.0000000000
10
-19.3483353294
20
22.9960126390
30
0.0000000000
11
-20.0362346942
21
12.4981325643
31
0.0000000000
11
-20.0031610478
21
13.9696763005
31
0.0000000000
11
-19.9483103796
21
15.4514704981
31
0.0000000000
11
-19.8717017903
21
16.9429988771
31
0.0000000000
11
-19.7733619650
21
18.4437416594
31
0.0000000000
11
-19.6533251484
21
19.9531760144
31
0.0000000000
11
-19.5116331538
21
21.4707759259
31
0.0000000000
11
-19.3483353294
21
22.9960126390
31
0.0000000000
0
SPLINE
5
34B
100
AcDbEntity
8
0
100
AcDbSpline
62
9
6
CONTINUOUS
70
0
71
3
72
24
73
20
74
18
42
0.0000001000
43
0.0000001000
44
0.0000000001
12
0.1479833929
22
1.2876767174
32
0.0000000000
13
1.1243420888
23
0.6448761744
33
0.0000000000
40
0.0000000000
40
0.0000000000
40
0.0000000000
40
0.0000000000
40
0.0575845141
40
0.1164862026
40
0.1764990203
40
0.2373975463
40
0.2989453122
40
0.3608958539
40
0.4229972205
40
0.4849953401
40
0.5466380124
40
0.6076772476
40
0.6678741881
40
0.7270016475
40
0.7848484223
40
0.8412232156
40
0.8959598502
40
0.9489195632
40
1.0000000000
40
1.0000000000
40
1.0000000000
40
1.0000000000
10
-19.3483353294
20
22.9960126390
30
0.0000000000
10
-19.3454948121
20
23.0207293850
30
0.0000000000
10
-19.3382732947
20
23.0705691011
30
0.0000000000
10
-19.3231687136
20
23.1453506620
30
0.0000000000
10
-19.3037541871
20
23.2206111373
30
0.0000000000
10
-19.2801552244
20
23.2958628312
30
0.0000000000
10
-19.2525240408
20
23.3706215286
30
0.0000000000
10
-19.2210387753
20
23.4444051536
30
0.0000000000
10
-19.1859025344
20
23.5167377931
30
0.0000000000
10
-19.1473418858
20
23.5871529357
30
0.0000000000
10
-19.1056054916
20
23.6551963546
30
0.0000000000
10
-19.0609623092
20
23.7204293280
30
0.0000000000
10
-19.0136999818
20
23.7824311924
30
0.0000000000
10
-18.9641227544
20
23.8408023020
30
0.0000000000
10
-18.9125494567
20
23.8951664625
30
0.0000000000
10
-18.8593115020
20
23.9451733477
30
0.0000000000
10
-18.8047489825
20
23.9905014068
30
0.0000000000
10
-18.7492149927
20
24.0308560019
30
0.0000000000
10
-18.7110649241
20
24.0547165856
30
0.0000000000
10
-18.6919209624
20
24.0656967711
30
0.0000000000
11
-19.3483353294
21
22.9960126390
31
0.0000000000
11
-19.3376835878
21
23.0698869583
31
0.0000000000
11
-19.3226105075
21
23.1447297624
31
0.0000000000
11
-19.3032133454
21
23.2200581896
31
0.0000000000
11
-19.2796180554
21
23.2953828210
31
0.0000000000
11
-19.2519772303
21
23.3702164926
31
0.0000000000
11
-19.2204699574
21
23.4440741441
31
0.0000000000
11
-19.1853003705
21
23.5164771431
31
0.0000000000
11
-19.1466963853
21
23.5869562226
31
0.0000000000
11
-19.1049078763
21
23.6550550925
31
0.0000000000
11
-19.0602058077
21
23.7203321029
31
0.0000000000
11
-19.0128795580
21
23.7823646120
31
0.0000000000
11
-18.9632358377
21
23.8407505031
31
0.0000000000
11
-18.9115963797
21
23.8951113358
31
0.0000000000
11
-18.8582959572
21
23.9450946847
31
0.0000000000
11
-18.8036793533
21
23.9903771799
31
0.0000000000
11
-18.7481014377
21
24.0306645590
31
0.0000000000
11
-18.6919209624
21
24.0656967711
31
0.0000000000
0
SPLINE
5
34C
100
AcDbEntity
8
0
100
AcDbSpline
62
7
6
CONTINUOUS
70
0
71
3
72
23
73
19
74
17
42
0.0000001000
43
0.0000001000
44
0.0000000001
12
0.0000000000
22
0.7339931418
32
0.0000000000
13
-0.6540409708
23
0.3331311163
33
0.0000000000
40
0.0000000000
40
0.0000000000
40
0.0000000000
40
0.0000000000
40
0.0581111666
40
0.1182776021
40
0.1804856928
40
0.2444046212
40
0.3096657223
40
0.3758721091
40
0.4426077113
40
0.5094459445
40
0.5759581860
40
0.6417222158
40
0.7063307795
40
0.7694004379
40
0.8305809018
40
0.8895650878
40
0.9461001781
40
1.0000000000
40
1.0000000000
40
1.0000000000
40
1.0000000000
10
-0.7884534803
20
17.4519671154
30
0.0000000000
10
-0.7884534803
20
17.4661848479
30
0.0000000000
10
-0.7917983230
20
17.4950348581
30
0.0000000000
10
-0.7983320787
20
17.5386910318
30
0.0000000000
10
-0.8085957432
20
17.5831560222
30
0.0000000000
10
-0.8218840750
20
17.6280798024
30
0.0000000000
10
-0.8382442762
20
17.6730301830
30
0.0000000000
10
-0.8574721090
20
17.7175771251
30
0.0000000000
10
-0.8793969901
20
17.7612930421
30
0.0000000000
10
-0.9038051976
20
17.8037583344
30
0.0000000000
10
-0.9304635251
20
17.8445653567
30
0.0000000000
10
-0.9591158228
20
17.8833226471
30
0.0000000000
10
-0.9894871876
20
17.9196588271
30
0.0000000000
10
-1.0212866054
20
17.9532263932
30
0.0000000000
10
-1.0542096222
20
17.9837048217
30
0.0000000000
10
-1.0879437048
20
18.0108046305
30
0.0000000000
10
-1.1221645409
20
18.0342662201
30
0.0000000000
10
-1.1456741147
20
18.0476668181
30
0.0000000000
10
-1.1574250120
20
18.0536520540
30
0.0000000000
11
-0.7884534803
21
17.4519671154
31
0.0000000000
11
-0.7919663613
21
17.4944754080
31
0.0000000000
11
-0.7988170518
21
17.5381025589
31
0.0000000000
11
-0.8089413840
21
17.5826262828
31
0.0000000000
11
-0.8222431964
21
17.6276171486
31
0.0000000000
11
-0.8385952853
21
17.6726408558
31
0.0000000000
11
-0.8578406353
21
17.7172625301
31
0.0000000000
11
-0.8797939527
21
17.7610510288
31
0.0000000000
11
-0.9042434862
21
17.8035832123
31
0.0000000000
11
-0.9309531170
21
17.8444481367
31
0.0000000000
11
-0.9596646942
21
17.8832511227
31
0.0000000000
11
-0.9901005942
21
17.9196176607
31
0.0000000000
11
-1.0219664751
21
17.9531971098
31
0.0000000000
11
-1.0549541983
21
17.9836661537
31
0.0000000000
11
-1.0887448867
21
18.0107319767
31
0.0000000000
11
-1.1230120876
21
18.0341351291
31
0.0000000000
11
-1.1574250120
21
18.0536520540
31
0.0000000000
0
SPLINE
5
34D
100
AcDbEntity
8
0
100
AcDbSpline
62
9
6
CONTINUOUS
70
0
71
3
72
10
73
6
74
4
42
0.0000001000
43
0.0000001000
44
0.0000000001
12
-0.1238870970
22
-7.9071942042
32
0.0000000000
13
-0.0051992261
23
-7.9081629449
33
0.0000000000
40
0.0000000000
40
0.0000000000
40
0.0000000000
40
0.0000000000
40
0.3341367043
40
0.6674683186
40
1.0000000000
40
1.0000000000
40
1.0000000000
40
1.0000000000
10
-4.4709970658
20
5.0546057198
30
0.0000000000
10
-4.4847954746
20
4.1739111160
30
0.0000000000
10
-4.5079951012
20
2.4145722284
30
0.0000000000
10
-4.5295974218
20
-0.2214040359
30
0.0000000000
10
-4.5351793871
20
-1.9766562278
30
0.0000000000
10
-4.5357556896
20
-2.8532278014
30
0.0000000000
11
-4.4709970658
21
5.0546057198
31
0.0000000000
11
-4.5058225949
21
2.4124271464
31
0.0000000000
11
-4.5274088550
21
-0.2235257588
31
0.0000000000
11
-4.5357556896
21
-2.8532278014
31
0.0000000000
0
SPLINE
5
34E
100
AcDbEntity
8
0
100
AcDbSpline
62
9
6
CONTINUOUS
70
0
71
3
72
22
73
18
74
16
42
0.0000001000
43
0.0000001000
44
0.0000000001
12
-0.6543926149
22
-0.3009959648
32
0.0000000000
13
-0.6441472341
23
0.3223392715
33
0.0000000000
40
0.0000000000
40
0.0000000000
40
0.0000000000
40
0.0000000000
40
0.0586380402
40
0.1205603965
40
0.1853917733
40
0.2526884815
40
0.3219537238
40
0.3926509489
40
0.4642159671
40
0.5360683131
40
0.6076222068
40
0.6782973892
40
0.7475300887
40
0.8147843939
40
0.8795643883
40
0.9414275335
40
1.0000000000
40
1.0000000000
40
1.0000000000
40
1.0000000000
10
-4.4709970658
20
5.0546057198
30
0.0000000000
10
-4.4837878326
20
5.0487224486
30
0.0000000000
10
-4.5105942372
20
5.0377113986
30
0.0000000000
10
-4.5528992027
20
5.0237669800
30
0.0000000000
10
-4.5980269136
20
5.0120591575
30
0.0000000000
10
-4.6454964277
20
5.0027136259
30
0.0000000000
10
-4.6948053826
20
4.9958295181
30
0.0000000000
10
-4.7454294293
20
4.9914805984
30
0.0000000000
10
-4.7968299323
20
4.9897134608
30
0.0000000000
10
-4.8484594914
20
4.9905471171
30
0.0000000000
10
-4.8997681840
20
4.9939726860
30
0.0000000000
10
-4.9502095987
20
4.9999534908
30
0.0000000000
10
-4.9992470635
20
5.0084255731
30
0.0000000000
10
-5.0463591493
20
5.0192982831
30
0.0000000000
10
-5.0910473125
20
5.0324563358
30
0.0000000000
10
-5.1328353401
20
5.0477585889
30
0.0000000000
10
-5.1592393887
20
5.0596297249
30
0.0000000000
10
-5.1718158195
20
5.0659231270
30
0.0000000000
11
-4.4709970658
21
5.0546057198
31
0.0000000000
11
-4.5100306449
21
5.0384710038
31
0.0000000000
11
-4.5523674111
21
5.0244359755
31
0.0000000000
11
-4.5975537536
21
5.0126510111
31
0.0000000000
11
-4.6451055299
21
5.0032423788
31
0.0000000000
11
-4.6945132538
21
4.9963108860
31
0.0000000000
11
-4.7452475535
21
4.9919307992
31
0.0000000000
11
-4.7967648440
21
4.9901490481
31
0.0000000000
11
-4.8485131509
21
4.9909847230
31
0.0000000000
11
-4.8999380248
21
4.9944288702
31
0.0000000000
11
-4.9504884816
21
5.0004445880
31
0.0000000000
11
-4.9996229059
21
5.0089674218
31
0.0000000000
11
-5.0468148543
21
5.0199060550
31
0.0000000000
11
-5.0915586958
21
5.0331432872
31
0.0000000000
11
-5.1333750291
21
5.0485372901
31
0.0000000000
11
-5.1718158195
21
5.0659231270
31
0.0000000000
0
SPLINE
5
34F
100
AcDbEntity
8
0
100
AcDbSpline
62
9
6
CONTINUOUS
70
0
71
3
72
10
73
6
74
4
42
0.0000001000
43
0.0000001000
44
0.0000000001
12
-0.1239825528
22
-7.9134236847
32
0.0000000000
13
-0.0052288054
23
-7.9143931382
33
0.0000000000
40
0.0000000000
40
0.0000000000
40
0.0000000000
40
0.0000000000
40
0.3341363882
40
0.6674678476
40
1.0000000000
40
1.0000000000
40
1.0000000000
40
1.0000000000
10
-5.1718158195
20
5.0659231270
30
0.0000000000
10
-5.1856248469
20
4.1845355242
30
0.0000000000
10
-5.2088432694
20
2.4238118475
30
0.0000000000
10
-5.2304664694
20
-0.2142410558
30
0.0000000000
10
-5.2360574615
20
-1.9708768857
30
0.0000000000
10
-5.2366370435
20
-2.8481402807
30
0.0000000000
11
-5.1718158195
21
5.0659231270
31
0.0000000000
11
-5.2066695609
21
2.4216655039
31
0.0000000000
11
-5.2282766863
21
-0.2163628004
31
0.0000000000
11
-5.2366370435
21
-2.8481402807
31
0.0000000000
0
SPLINE
5
350
100
AcDbEntity
8
0
100
AcDbSpline
62
9
6
CONTINUOUS
70
0
71
3
72
23
73
19
74
17
42
0.0000001000
43
0.0000001000
44
0.0000000001
12
-0.6507044574
22
-0.3104572706
32
0.0000000000
13
-0.6448562856
23
0.3224288737
33
0.0000000000
40
0.0000000000
40
0.0000000000
40
0.0000000000
40
0.0000000000
40
0.0551601620
40
0.1131634749
40
0.1737152438
40
0.2364584128
40
0.3009966500
40
0.3669004777
40
0.4337158429
40
0.5009737003
40
0.5681980717
40
0.6349135435
40
0.7006527641
40
0.7649645167
40
0.8274232990
40
0.8876382747
40
0.9452589502
40
1.0000000000
40
1.0000000000
40
1.0000000000
40
1.0000000000
10
-4.5357556896
20
-2.8532278014
30
0.0000000000
10
-4.5477200106
20
-2.8589360926
30
0.0000000000
10
-4.5727274486
20
-2.8696956174
30
0.0000000000
10
-4.6121324738
20
-2.8835659709
30
0.0000000000
10
-4.6540715346
20
-2.8954724951
30
0.0000000000
10
-4.6981522737
20
-2.9053032038
30
0.0000000000
10
-4.7439639875
20
-2.9129664324
30
0.0000000000
10
-4.7910783774
20
-2.9183901612
30
0.0000000000
10
-4.8390545329
20
-2.9215233946
30
0.0000000000
10
-4.8874430431
20
-2.9223366320
30
0.0000000000
10
-4.9357906950
20
-2.9208222260
30
0.0000000000
10
-4.9836446784
20
-2.9169944239
30
0.0000000000
10
-5.0305567812
20
-2.9108892620
30
0.0000000000
10
-5.0760880550
20
-2.9025641217
30
0.0000000000
10
-5.1198129505
20
-2.8920972224
30
0.0000000000
10
-5.1613241952
20
-2.8795860837
30
0.0000000000
10
-5.2002337126
20
-2.8651483104
30
0.0000000000
10
-5.2248703398
20
-2.8540236453
30
0.0000000000
10
-5.2366370431
20
-2.8481402803
30
0.0000000000
11
-4.5357556896
21
-2.8532278014
31
0.0000000000
11
-4.5722564935
21
-2.8690156895
31
0.0000000000
11
-4.6116817928
21
-2.8829603219
31
0.0000000000
11
-4.6536643443
21
-2.8949319878
31
0.0000000000
11
-4.6978070469
21
-2.9048173924
31
0.0000000000
11
-4.7436947054
21
-2.9125235919
31
0.0000000000
11
-4.7908953836
21
-2.9179780285
31
0.0000000000
11
-4.8389641799
21
-2.9211292795
31
0.0000000000
11
-4.8874482762
21
-2.9219476870
31
0.0000000000
11
-4.9358912297
21
-2.9204255681
31
0.0000000000
11
-4.9838369954
21
-2.9165772485
31
0.0000000000
11
-5.0308339387
21
-2.9104389678
31
0.0000000000
11
-5.0764390989
21
-2.9020686041
31
0.0000000000
11
-5.1202231728
21
-2.8915449915
31
0.0000000000
11
-5.1617744516
21
-2.8789670506
31
0.0000000000
11
-5.2006997446
21
-2.8644539003
31
0.0000000000
11
-5.2366370431
21
-2.8481402803
31
0.0000000000
0
SPLINE
5
351
100
AcDbEntity
8
0
100
AcDbSpline
62
9
6
CONTINUOUS
70
0
71
3
72
22
73
18
74
16
42
0.0000001000
43
0.0000001000
44
0.0000000001
12
-0.6835201074
22
-0.2059171239
32
0.0000000000
13
-0.6375934082
23
0.3210548938
33
0.0000000000
40
0.0000000000
40
0.0000000000
40
0.0000000000
40
0.0000000000
40
0.0559369014
40
0.1157642744
40
0.1790687705
40
0.2453640674
40
0.3141068100
40
0.3847100973
40
0.4565554923
40
0.5290041632
40
0.6014075464
40
0.6731178054
40
0.7434983032
40
0.8119343148
40
0.8778442612
40
0.9406918831
40
1.0000000000
40
1.0000000000
40
1.0000000000
40
1.0000000000
10
-3.7626837759
20
15.4820464443
30
0.0000000000
10
-3.7754284416
20
15.4782069891
30
0.0000000000
10
-3.8021210942
20
15.4712913650
30
0.0000000000
10
-3.8440012971
20
15.4633070333
30
0.0000000000
10
-3.8887143405
20
15.4574264942
30
0.0000000000
10
-3.9357840693
20
15.4537143196
30
0.0000000000
10
-3.9847118983
20
15.4522110488
30
0.0000000000
10
-4.0349768979
20
15.4529338341
30
0.0000000000
10
-4.0860434727
20
15.4558757205
30
0.0000000000
10
-4.1373669249
20
15.4610057834
30
0.0000000000
10
-4.1883996699
20
15.4682694226
30
0.0000000000
10
-4.2385972482
20
15.4775889604
30
0.0000000000
10
-4.2874244740
20
15.4888645499
30
0.0000000000
10
-4.3343610527
20
15.5019751636
30
0.0000000000
10
-4.3789086977
20
15.5167805624
30
0.0000000000
10
-4.4205924694
20
15.5331211403
30
0.0000000000
10
-4.4470085362
20
15.5453045996
30
0.0000000000
10
-4.4596133577
20
15.5516516533
30
0.0000000000
11
-3.7626837759
21
15.4820464443
31
0.0000000000
11
-3.8013132359
21
15.4719332802
31
0.0000000000
11
-3.8432510299
21
15.4638557894
31
0.0000000000
11
-3.8880477108
21
15.4579005385
31
0.0000000000
11
-3.9352231925
21
15.4541313498
31
0.0000000000
11
-3.9842718957
21
15.4525886176
31
0.0000000000
11
-4.0346681655
21
15.4532888756
31
0.0000000000
11
-4.0858719053
21
15.4562246189
31
0.0000000000
11
-4.1373343646
21
15.4613643853
31
0.0000000000
11
-4.1885040206
21
15.4686530919
31
0.0000000000
11
-4.2388324881
21
15.4780126256
31
0.0000000000
11
-4.2877803971
21
15.4893426803
31
0.0000000000
11
-4.3348231731
21
15.5025218320
31
0.0000000000
11
-4.3794566586
21
15.5174088396
31
0.0000000000
11
-4.4212025169
21
15.5338441591
31
0.0000000000
11
-4.4596133577
21
15.5516516533
31
0.0000000000
0
SPLINE
5
352
100
AcDbEntity
8
0
100
AcDbSpline
62
9
6
CONTINUOUS
70
0
71
3
72
14
73
10
74
8
42
0.0000001000
43
0.0000001000
44
0.0000000001
12
-1.2334112269
22
-10.4417429265
32
0.0000000000
13
-0.1646990590
23
-10.5130477416
33
0.0000000000
40
0.0000000000
40
0.0000000000
40
0.0000000000
40
0.0000000000
40
0.1456783453
40
0.2904504056
40
0.4342948041
40
0.5771910431
40
0.7191195639
40
0.8600617523
40
1.0000000000
40
1.0000000000
40
1.0000000000
40
1.0000000000
10
-4.4596133579
20
15.5516516532
30
0.0000000000
10
-4.5195071268
20
15.0446063759
30
0.0000000000
10
-4.6319157778
20
14.0328277416
30
0.0000000000
10
-4.7786790558
20
12.5177636590
30
0.0000000000
10
-4.9030256737
20
11.0104747149
30
0.0000000000
10
-5.0049117843
20
9.5114899863
30
0.0000000000
10
-5.0843019516
20
8.0213292782
30
0.0000000000
10
-5.1411683289
20
6.5405163775
30
0.0000000000
10
-5.1641332536
20
5.5563156201
30
0.0000000000
10
-5.1718158195
20
5.0659231270
30
0.0000000000
11
-4.4596133579
21
15.5516516532
31
0.0000000000
11
-4.6286804024
21
14.0292995502
31
0.0000000000
11
-4.7753782953
21
12.5142025879
31
0.0000000000
11
-4.8996559450
21
11.0068886494
31
0.0000000000
11
-5.0014700609
21
9.5078830123
31
0.0000000000
11
-5.0807851885
21
8.0177079025
31
0.0000000000
11
-5.1375736998
21
6.5368826265
31
0.0000000000
11
-5.1718158195
21
5.0659231270
31
0.0000000000
0
SPLINE
5
353
100
AcDbEntity
8
0
100
AcDbSpline
62
9
6
CONTINUOUS
70
0
71
3
72
14
73
10
74
8
42
0.0000001000
43
0.0000001000
44
0.0000000001
12
-1.2266775754
22
-10.3836908117
32
0.0000000000
13
-0.1637995472
23
-10.4546134532
33
0.0000000000
40
0.0000000000
40
0.0000000000
40
0.0000000000
40
0.0000000000
40
0.1456780746
40
0.2904500298
40
0.4342943852
40
0.5771906490
40
0.7191192685
40
0.8600616355
40
1.0000000000
40
1.0000000000
40
1.0000000000
40
1.0000000000
10
-3.7626837759
20
15.4820464443
30
0.0000000000
10
-3.8222504517
20
14.9778210827
30
0.0000000000
10
-3.9340452880
20
13.9716686863
30
0.0000000000
10
-4.0800071284
20
12.4650285357
30
0.0000000000
10
-4.2036747523
20
10.9661188882
30
0.0000000000
10
-4.3050045065
20
9.4754662610
30
0.0000000000
10
-4.3839611476
20
7.9935875704
30
0.0000000000
10
-4.4405169719
20
6.5210042099
30
0.0000000000
10
-4.4633564522
20
5.5422728890
30
0.0000000000
10
-4.4709970658
20
5.0546057198
30
0.0000000000
11
-3.7626837759
21
15.4820464443
31
0.0000000000
11
-3.9308275077
21
13.9681606088
31
0.0000000000
11
-4.0767243632
21
12.4614874112
31
0.0000000000
11
-4.2003233960
21
10.9625529385
31
0.0000000000
11
-4.3015815516
21
9.4718795499
31
0.0000000000
11
-4.3804635687
21
7.9899865696
31
0.0000000000
11
-4.4369419712
21
6.5173904179
31
0.0000000000
11
-4.4709970658
21
5.0546057198
31
0.0000000000
0
SPLINE
5
354
100
AcDbEntity
8
0
100
AcDbSpline
62
9
6
CONTINUOUS
70
0
71
3
72
23
73
19
74
17
42
0.0000001000
43
0.0000001000
44
0.0000000001
12
-0.0325538561
22
0.7322260477
32
0.0000000000
13
-0.6505902219
23
0.3375605156
33
0.0000000000
40
0.0000000000
40
0.0000000000
40
0.0000000000
40
0.0000000000
40
0.0579580168
40
0.1182446757
40
0.1805712587
40
0.2446016888
40
0.3099629640
40
0.3762546982
40
0.4430580446
40
0.5099442298
40
0.5764828871
40
0.6422503595
40
0.7068381354
40
0.7698615981
40
0.8309692990
40
0.8898530129
40
0.9462588827
40
1.0000000000
40
1.0000000000
40
1.0000000000
40
1.0000000000
10
-3.4258076171
20
16.0125540228
30
0.0000000000
10
-3.4264365361
20
16.0267001460
30
0.0000000000
10
-3.4288746710
20
16.0555187554
30
0.0000000000
10
-3.4357455472
20
16.0991302484
30
0.0000000000
10
-3.4458411446
20
16.1436320982
30
0.0000000000
10
-3.4590646160
20
16.1885971719
30
0.0000000000
10
-3.4752897015
20
16.2335979148
30
0.0000000000
10
-3.4943614225
20
16.2782045038
30
0.0000000000
10
-3.5160975692
20
16.3219908932
30
0.0000000000
10
-3.5402904069
20
16.3645385920
30
0.0000000000
10
-3.5667087062
20
16.4054409480
30
0.0000000000
10
-3.5951000528
20
16.4443071337
30
0.0000000000
10
-3.6251933551
20
16.4807659702
30
0.0000000000
10
-3.6567017923
20
16.5144696195
30
0.0000000000
10
-3.6893252537
20
16.5450966148
30
0.0000000000
10
-3.7227556035
20
16.5723558906
30
0.0000000000
10
-3.7566728868
20
16.5959855366
30
0.0000000000
10
-3.7799858753
20
16.6095095087
30
0.0000000000
10
-3.7916403571
20
16.6155564685
30
0.0000000000
11
-3.4258076171
21
16.0125540228
31
0.0000000000
11
-3.4293218516
21
16.0548887039
31
0.0000000000
11
-3.4361433651
21
16.0985460496
31
0.0000000000
11
-3.4462065393
21
16.1431061044
31
0.0000000000
11
-3.4594145729
21
16.1881402292
31
0.0000000000
11
-3.4756404132
21
16.2332152245
31
0.0000000000
11
-3.4947279781
21
16.2778974978
31
0.0000000000
11
-3.5164936575
21
16.3217572342
31
0.0000000000
11
-3.5407280796
21
16.3643725313
31
0.0000000000
11
-3.5671981248
21
16.4053334570
31
0.0000000000
11
-3.5956491682
21
16.4442459935
31
0.0000000000
11
-3.6258075292
21
16.4807358270
31
0.0000000000
11
-3.6573831035
21
16.5144519487
31
0.0000000000
11
-3.6900721544
21
16.5450700311
31
0.0000000000
11
-3.7235602342
21
16.5722955476
31
0.0000000000
11
-3.7575252089
21
16.5958666063
31
0.0000000000
11
-3.7916403571
21
16.6155564685
31
0.0000000000
0
SPLINE
5
355
100
AcDbEntity
8
0
100
AcDbSpline
62
9
6
CONTINUOUS
70
0
71
3
72
24
73
20
74
18
42
0.0000001000
43
0.0000001000
44
0.0000000001
12
-1.1354732743
22
-0.6301702729
32
0.0000000000
13
-0.1509912535
23
-1.2898123006
33
0.0000000000
40
0.0000000000
40
0.0000000000
40
0.0000000000
40
0.0000000000
40
0.0514333599
40
0.1046866766
40
0.1596582911
40
0.2162110262
40
0.2741811240
40
0.3333803566
40
0.3936011667
40
0.4546205190
40
0.5162041635
40
0.5781091388
40
0.6400886658
40
0.7018944685
40
0.7632807510
40
0.8240075531
40
0.8838452443
40
0.9425755819
40
1.0000000000
40
1.0000000000
40
1.0000000000
40
1.0000000000
10
-3.7916403571
20
16.6155564685
30
0.0000000000
10
-3.8111074257
20
16.6047525437
30
0.0000000000
10
-3.8499047142
20
16.5812455255
30
0.0000000000
10
-3.9064202345
20
16.5413808818
30
0.0000000000
10
-3.9619473932
20
16.4965335989
30
0.0000000000
10
-4.0161265958
20
16.4469951243
30
0.0000000000
10
-4.0686117075
20
16.3930842383
30
0.0000000000
10
-4.1190653905
20
16.3351483965
30
0.0000000000
10
-4.1671631848
20
16.2735610717
30
0.0000000000
10
-4.2125954725
20
16.2087192711
30
0.0000000000
10
-4.2550695464
20
16.1410411545
30
0.0000000000
10
-4.2943117140
20
16.0709630850
30
0.0000000000
10
-4.3300689364
20
15.9989370967
30
0.0000000000
10
-4.3621106473
20
15.9254276892
30
0.0000000000
10
-4.3902301602
20
15.8509089628
30
0.0000000000
10
-4.4142461509
20
15.7758613958
30
0.0000000000
10
-4.4340037279
20
15.7007677994
30
0.0000000000
10
-4.4493750271
20
15.6261148462
30
0.0000000000
10
-4.4567231629
20
15.5763405601
30
0.0000000000
10
-4.4596133579
20
15.5516516532
30
0.0000000000
11
-3.7916403571
21
16.6155564685
31
0.0000000000
11
-3.8488101014
21
16.5810188909
31
0.0000000000
11
-3.9053666419
21
16.5412208242
31
0.0000000000
11
-3.9609449934
21
16.4964192028
31
0.0000000000
11
-4.0151839658
21
16.4469051289
31
0.0000000000
11
-4.0677327344
21
16.3929989515
31
0.0000000000
11
-4.1182506204
21
16.3350501432
31
0.0000000000
11
-4.1664102290
21
16.2734343135
31
0.0000000000
11
-4.2118994476
21
16.2085508781
31
0.0000000000
11
-4.2544238025
21
16.1408199312
31
0.0000000000
11
-4.2937075578
21
16.0706807368
31
0.0000000000
11
-4.3294964392
21
15.9985873850
31
0.0000000000
11
-4.3615585167
21
15.9250071358
31
0.0000000000
11
-4.3896860640
21
15.8504168253
31
0.0000000000
11
-4.4136968350
21
15.7752999345
31
0.0000000000
11
-4.4334355619
21
15.7001422897
31
0.0000000000
11
-4.4487740512
21
15.6254321900
31
0.0000000000
11
-4.4596133579
21
15.5516516532
31
0.0000000000
0
SPLINE
5
356
100
AcDbEntity
8
0
100
AcDbSpline
62
9
6
CONTINUOUS
70
0
71
3
72
24
73
20
74
18
42
0.0000001000
43
0.0000001000
44
0.0000000001
12
-0.5704736065
22
-0.3114443223
32
0.0000000000
13
-0.0762556405
23
-0.6454632281
33
0.0000000000
40
0.0000000000
40
0.0000000000
40
0.0000000000
40
0.0000000000
40
0.0515955916
40
0.1049982555
40
0.1600900524
40
0.2167345707
40
0.2747691639
40
0.3340070771
40
0.3942425163
40
0.4552544734
40
0.5168109623
40
0.5786715046
40
0.6405919390
40
0.7023268100
40
0.7636333964
40
0.8242749988
40
0.8840254212
40
0.9426700491
40
1.0000000000
40
1.0000000000
40
1.0000000000
40
1.0000000000
10
-3.4258076171
20
16.0125540228
30
0.0000000000
10
-3.4356189249
20
16.0071976381
30
0.0000000000
10
-3.4551767317
20
15.9955342799
30
0.0000000000
10
-3.4836778722
20
15.9757266144
30
0.0000000000
10
-3.5116836120
20
15.9534231348
30
0.0000000000
10
-3.5390095488
20
15.9287707555
30
0.0000000000
10
-3.5654810974
20
15.9019281862
30
0.0000000000
10
-3.5909280832
20
15.8730684433
30
0.0000000000
10
-3.6151868472
20
15.8423775920
30
0.0000000000
10
-3.6381012160
20
15.8100534900
30
0.0000000000
10
-3.6595235485
20
15.7763046068
30
0.0000000000
10
-3.6793157868
20
15.7413485663
30
0.0000000000
10
-3.6973502856
20
15.7054108848
30
0.0000000000
10
-3.7135107423
20
15.6687233626
30
0.0000000000
10
-3.7276928972
20
15.6315226326
30
0.0000000000
10
-3.7398053164
20
15.5940485688
30
0.0000000000
10
-3.7497698176
20
15.5565422332
30
0.0000000000
10
-3.7575214113
20
15.5192497462
30
0.0000000000
10
-3.7612265319
20
15.4943812361
30
0.0000000000
10
-3.7626837759
20
15.4820464443
30
0.0000000000
11
-3.4258076171
21
16.0125540228
31
0.0000000000
11
-3.4546313183
21
15.9954143670
31
0.0000000000
11
-3.4831552227
21
15.9756377768
31
0.0000000000
11
-3.5111858374
21
15.9533571152
31
0.0000000000
11
-3.5385409956
21
15.9287171164
31
0.0000000000
11
-3.5650437447
21
15.9018772135
31
0.0000000000
11
-3.5905222528
21
15.8730114104
31
0.0000000000
11
-3.6148113857
21
15.8423068151
31
0.0000000000
11
-3.6377537165
21
15.8099624734
31
0.0000000000
11
-3.6592007141
21
15.7761878114
31
0.0000000000
11
-3.6790132977
21
15.7412018834
31
0.0000000000
11
-3.6970631913
21
15.7052312465
31
0.0000000000
11
-3.7132333988
21
15.6685090932
31
0.0000000000
11
-3.7274191534
21
15.6312734190
31
0.0000000000
11
-3.7395285453
21
15.5937655973
31
0.0000000000
11
-3.7494832572
21
15.5562282288
31
0.0000000000
11
-3.7572186734
21
15.5189052083
31
0.0000000000
11
-3.7626837759
21
15.4820464443
31
0.0000000000
0
SPLINE
5
357
100
AcDbEntity
8
0
100
AcDbSpline
62
9
6
CONTINUOUS
70
0
71
3
72
9
73
5
74
3
42
0.0000001000
43
0.0000001000
44
0.0000000001
12
0.0002272493
22
0.3469393796
32
0.0000000000
13
0.0004559564
23
0.3469391544
33
0.0000000000
40
0.0000000000
40
0.0000000000
40
0.0000000000
40
0.0000000000
40
0.4999602818
40
1.0000000000
40
1.0000000000
40
1.0000000000
40
1.0000000000
10
-15.8495442102
20
2.5983627045
30
0.0000000000
10
-15.8495063383
20
2.6561813411
30
0.0000000000
10
-15.8494115358
20
2.7718277893
30
0.0000000000
10
-15.8492785597
20
2.8874741998
30
0.0000000000
10
-15.8492025609
20
2.9453019855
30
0.0000000000
11
-15.8495442102
21
2.5983627045
31
0.0000000000
11
-15.8494020014
21
2.7718185933
31
0.0000000000
11
-15.8492025609
21
2.9453019855
31
0.0000000000
0
SPLINE
5
358
100
AcDbEntity
8
0
100
AcDbSpline
62
9
6
CONTINUOUS
70
0
71
3
72
21
73
17
74
15
42
0.0000001000
43
0.0000001000
44
0.0000000001
12
-0.0493553107
22
-0.0237262286
32
0.0000000000
13
0.0000347128
23
0.0547620253
33
0.0000000000
40
0.0000000000
40
0.0000000000
40
0.0000000000
40
0.0000000000
40
0.0783820156
40
0.1525915862
40
0.2228814546
40
0.2898504378
40
0.3543674169
40
0.4175294394
40
0.4805725221
40
0.5447452924
40
0.6111780004
40
0.6807867397
40
0.7542233193
40
0.8318687671
40
0.9138517424
40
1.0000000000
40
1.0000000000
40
1.0000000000
40
1.0000000000
10
-15.8141915632
20
2.5723991100
30
0.0000000000
10
-15.8154810861
20
2.5717792068
30
0.0000000000
10
-15.8180588666
20
2.5707049187
30
0.0000000000
10
-15.8219880585
20
2.5696078540
30
0.0000000000
10
-15.8258264831
20
2.5690860600
30
0.0000000000
10
-15.8295248359
20
2.5691509418
30
0.0000000000
10
-15.8330350327
20
2.5698062725
30
0.0000000000
10
-15.8363081717
20
2.5710471307
30
0.0000000000
10
-15.8392968974
20
2.5728575398
30
0.0000000000
10
-15.8419590128
20
2.5752104828
30
0.0000000000
10
-15.8442601422
20
2.5780705434
30
0.0000000000
10
-15.8461737142
20
2.5813971639
30
0.0000000000
10
-15.8476794442
20
2.5851463437
30
0.0000000000
10
-15.8487619015
20
2.5892710299
30
0.0000000000
10
-15.8494100178
20
2.5937185616
30
0.0000000000
10
-15.8495452070
20
2.5967901534
30
0.0000000000
10
-15.8495442102
20
2.5983627045
30
0.0000000000
11
-15.8141915632
21
2.5723991100
31
0.0000000000
11
-15.8181589756
21
2.5707608236
31
0.0000000000
11
-15.8220770618
21
2.5696821127
31
0.0000000000
11
-15.8258931588
21
2.5691782577
31
0.0000000000
11
-15.8295597011
21
2.5692555985
31
0.0000000000
11
-15.8330310480
21
2.5699131800
31
0.0000000000
11
-15.8362639691
21
2.5711428459
31
0.0000000000
11
-15.8392181862
21
2.5729293070
31
0.0000000000
11
-15.8418568798
21
2.5752503240
31
0.0000000000
11
-15.8441471310
21
2.5780769339
31
0.0000000000
11
-15.8460604276
21
2.5813739025
31
0.0000000000
11
-15.8475729705
21
2.5851001567
31
0.0000000000
11
-15.8486659399
21
2.5892093070
31
0.0000000000
11
-15.8493257602
21
2.5936501108
31
0.0000000000
11
-15.8495442102
21
2.5983627045
31
0.0000000000
0
SPLINE
5
359
100
AcDbEntity
8
0
100
AcDbSpline
62
9
6
CONTINUOUS
70
0
71
3
72
25
73
21
74
19
42
0.0000001000
43
0.0000001000
44
0.0000000001
12
-0.6872512623
22
0.3436185113
32
0.0000000000
13
-0.0010183107
23
-0.7683664112
33
0.0000000000
40
0.0000000000
40
0.0000000000
40
0.0000000000
40
0.0000000000
40
0.0609341682
40
0.1196869637
40
0.1761355938
40
0.2303157960
40
0.2824072803
40
0.3328204096
40
0.3821479494
40
0.4310110097
40
0.4800017639
40
0.5297022485
40
0.5806472404
40
0.6332967199
40
0.6880826077
40
0.7453788443
40
0.8053550434
40
0.8679397821
40
0.9329327382
40
1.0000000000
40
1.0000000000
40
1.0000000000
40
1.0000000000
10
-15.6347024824
20
3.3057038497
30
0.0000000000
10
-15.6486615104
20
3.3126832191
30
0.0000000000
10
-15.6766670073
20
3.3252632760
30
0.0000000000
10
-15.7194181578
20
3.3398796194
30
0.0000000000
10
-15.7617633999
20
3.3496837765
30
0.0000000000
10
-15.8032533734
20
3.3545150139
30
0.0000000000
10
-15.8434889228
20
3.3543048714
30
0.0000000000
10
-15.8821368778
20
3.3490510879
30
0.0000000000
10
-15.9189159214
20
3.3387859535
30
0.0000000000
10
-15.9535460806
20
3.3235718830
30
0.0000000000
10
-15.9857333410
20
3.3035249386
30
0.0000000000
10
-16.0151959247
20
3.2788238334
30
0.0000000000
10
-16.0416904740
20
3.2496961998
30
0.0000000000
10
-16.0650253160
20
3.2163915185
30
0.0000000000
10
-16.0850531913
20
3.1791548632
30
0.0000000000
10
-16.1016409166
20
3.1382428127
30
0.0000000000
10
-16.1146545333
20
3.0939818127
30
0.0000000000
10
-16.1239826088
20
3.0467974634
30
0.0000000000
10
-16.1295665497
20
2.9972074025
30
0.0000000000
10
-16.1307828529
20
2.9633704023
30
0.0000000000
10
-16.1308056180
20
2.9461929918
30
0.0000000000
11
-15.6347024824
21
3.3057038497
31
0.0000000000
11
-15.6774481807
21
3.3248062007
31
0.0000000000
11
-15.7201956088
21
3.3393186892
31
0.0000000000
11
-15.7624738918
21
3.3490030731
31
0.0000000000
11
-15.8038361028
21
3.3537198567
31
0.0000000000
11
-15.8438603774
21
3.3534221181
31
0.0000000000
11
-15.8822336569
21
3.3481350778
31
0.0000000000
11
-15.9187283492
21
3.3379040898
31
0.0000000000
11
-15.9530975663
21
3.3227922912
31
0.0000000000
11
-15.9850618915
21
3.3029109290
31
0.0000000000
11
-16.0143603615
21
3.2784172657
31
0.0000000000
11
-16.0407570295
21
3.2495121750
31
0.0000000000
11
-16.0640460292
21
3.2164341023
31
0.0000000000
11
-16.0840739146
21
3.1794080373
31
0.0000000000
11
-16.1007092416
21
3.1386474408
31
0.0000000000
11
-16.1138019028
21
3.0944626802
31
0.0000000000
11
-16.1232166380
21
3.0473052457
31
0.0000000000
11
-16.1288840306
21
2.9976894288
31
0.0000000000
11
-16.1308056180
21
2.9461929918
31
0.0000000000
0
SPLINE
5
35A
100
AcDbEntity
8
0
100
AcDbSpline
62
9
6
CONTINUOUS
70
0
71
3
72
9
73
5
74
3
42
0.0000001000
43
0.0000001000
44
0.0000000001
12
0.0002273394
22
0.3470782057
32
0.0000000000
13
0.0004561368
23
0.3470779804
33
0.0000000000
40
0.0000000000
40
0.0000000000
40
0.0000000000
40
0.0000000000
40
0.4999597224
40
1.0000000000
40
1.0000000000
40
1.0000000000
40
1.0000000000
10
-16.1311473746
20
2.5991148847
30
0.0000000000
10
-16.1311094877
20
2.6569565925
30
0.0000000000
10
-16.1310146339
20
2.7726493160
30
0.0000000000
10
-16.1308816469
20
2.8883420019
30
0.0000000000
10
-16.1308056180
20
2.9461929918
30
0.0000000000
11
-16.1311473746
21
2.5991148847
31
0.0000000000
11
-16.1310051098
21
2.7726399869
31
0.0000000000
11
-16.1308056180
21
2.9461929918
31
0.0000000000
0
SPLINE
5
35B
100
AcDbEntity
8
0
100
AcDbSpline
62
9
6
CONTINUOUS
70
0
71
3
72
15
73
11
74
9
42
0.0000001000
43
0.0000001000
44
0.0000000001
12
0.1446560457
22
0.0683441725
32
0.0000000000
13
0.0011535123
23
0.1597142326
33
0.0000000000
40
0.0000000000
40
0.0000000000
40
0.0000000000
40
0.0000000000
40
0.0509875191
40
0.1667837196
40
0.2865398748
40
0.4124754443
40
0.5461737467
40
0.6885494215
40
0.8399012011
40
1.0000000000
40
1.0000000000
40
1.0000000000
40
1.0000000000
10
-4.6026345431
20
-2.9893549742
30
0.0000000000
10
-4.6001759921
20
-2.9881934076
30
0.0000000000
10
-4.5923020207
20
-2.9840383606
30
0.0000000000
10
-4.5799034518
20
-2.9749822092
30
0.0000000000
10
-4.5667258242
20
-2.9608084661
30
0.0000000000
10
-4.5557003877
20
-2.9437753069
30
0.0000000000
10
-4.5469613241
20
-2.9241550548
30
0.0000000000
10
-4.5406093935
20
-2.9022381670
30
0.0000000000
10
-4.5367176843
20
-2.8783415379
30
0.0000000000
10
-4.5358172482
20
-2.8617511537
30
0.0000000000
10
-4.5357556896
20
-2.8532278014
30
0.0000000000
11
-4.6026345431
21
-2.9893549742
31
0.0000000000
11
-4.5954231076
21
-2.9855486078
31
0.0000000000
11
-4.5804628041
21
-2.9746744945
31
0.0000000000
11
-4.5673826264
21
-2.9607188119
31
0.0000000000
11
-4.5563732764
21
-2.9438850258
31
0.0000000000
11
-4.5475952643
21
-2.9244185628
31
0.0000000000
11
-4.5411765686
21
-2.9026032330
31
0.0000000000
11
-4.5372107707
21
-2.8787570915
31
0.0000000000
11
-4.5357556896
21
-2.8532278014
31
0.0000000000
0
SPLINE
5
35C
100
AcDbEntity
8
0
100
AcDbSpline
62
9
6
CONTINUOUS
70
0
71
3
72
15
73
11
74
9
42
0.0000001000
43
0.0000001000
44
0.0000000001
12
-0.1414993001
22
0.0707531397
32
0.0000000000
13
0.0001025609
23
0.1579455339
33
0.0000000000
40
0.0000000000
40
0.0000000000
40
0.0000000000
40
0.0000000000
40
0.0438109625
40
0.1613377762
40
0.2825558225
40
0.4096786257
40
0.5443165176
40
0.6874322096
40
0.8393826889
40
1.0000000000
40
1.0000000000
40
1.0000000000
40
1.0000000000
10
-5.1716748813
20
-2.9835242705
30
0.0000000000
10
-5.1737412882
20
-2.9824910161
30
0.0000000000
10
-5.1812107184
20
-2.9784059321
30
0.0000000000
10
-5.1932464027
20
-2.9695040584
30
0.0000000000
10
-5.2063741920
20
-2.9552626672
30
0.0000000000
10
-5.2173170531
20
-2.9382184577
30
0.0000000000
10
-5.2259415507
20
-2.9186417796
30
0.0000000000
10
-5.2321489092
20
-2.8968206841
30
0.0000000000
10
-5.2358689443
20
-2.8730684941
30
0.0000000000
10
-5.2366425345
20
-2.8565965430
30
0.0000000000
10
-5.2366370435
20
-2.8481402807
30
0.0000000000
11
-5.1716748813
21
-2.9835242705
31
0.0000000000
11
-5.1777538761
21
-2.9801988440
31
0.0000000000
11
-5.1927007039
21
-2.9691910584
31
0.0000000000
11
-5.2057299093
21
-2.9551623915
31
0.0000000000
11
-5.2166534088
21
-2.9383153547
31
0.0000000000
11
-5.2253135157
21
-2.9188931442
31
0.0000000000
11
-5.2315852166
21
-2.8971761302
31
0.0000000000
11
-5.2353779760
21
-2.8734778096
31
0.0000000000
11
-5.2366370435
21
-2.8481402807
31
0.0000000000
0
SPLINE
5
35D
100
AcDbEntity
8
0
100
AcDbSpline
62
7
6
CONTINUOUS
70
0
71
3
72
15
73
11
74
9
42
0.0000001000
43
0.0000001000
44
0.0000000001
12
0.2388222873
22
0.1446081081
32
0.0000000000
13
0.0000268643
23
0.2795323373
33
0.0000000000
40
0.0000000000
40
0.0000000000
40
0.0000000000
40
0.0000000000
40
0.1542525337
40
0.2997595088
40
0.4360725486
40
0.5633224455
40
0.6825782622
40
0.7958090528
40
0.9046607003
40
1.0000000000
40
1.0000000000
40
1.0000000000
40
1.0000000000
10
1.3490535103
20
11.2326844366
30
0.0000000000
10
1.3613331580
20
11.2401198256
30
0.0000000000
10
1.3846609897
20
11.2554865065
30
0.0000000000
10
1.4164849151
20
11.2807636907
30
0.0000000000
10
1.4438017322
20
11.3073864491
30
0.0000000000
10
1.4663341726
20
11.3350983034
30
0.0000000000
10
1.4839308537
20
11.3637059388
30
0.0000000000
10
1.4964655287
20
11.3930335322
30
0.0000000000
10
1.5035629018
20
11.4218521138
30
0.0000000000
10
1.5050502519
20
11.4408793421
30
0.0000000000
10
1.5050511056
20
11.4497628146
30
0.0000000000
11
1.3490535103
21
11.2326844366
31
0.0000000000
11
1.3849571401
21
11.2564668287
31
0.0000000000
11
1.4166900394
21
11.2818311991
31
0.0000000000
11
1.4438486881
21
11.3084914889
31
0.0000000000
11
1.4661515061
21
11.3361456654
31
0.0000000000
11
1.4834796662
21
11.3645763105
31
0.0000000000
11
1.4957971557
21
11.3936909464
31
0.0000000000
11
1.5029902474
21
11.4232178083
31
0.0000000000
11
1.5050511056
21
11.4497628146
31
0.0000000000
0
SPLINE
5
35E
100
AcDbEntity
8
0
100
AcDbSpline
62
7
6
CONTINUOUS
70
0
71
3
72
14
73
10
74
8
42
0.0000001000
43
0.0000001000
44
0.0000000001
12
0.0000004884
22
0.1015235991
32
0.0000000000
13
0.0882276680
23
0.0497768291
33
0.0000000000
40
0.0000000000
40
0.0000000000
40
0.0000000000
40
0.0000000000
40
0.0629537524
40
0.1933248173
40
0.3312916038
40
0.4788924452
40
0.6392180241
40
0.8133790223
40
1.0000000000
40
1.0000000000
40
1.0000000000
40
1.0000000000
10
-10.9233022745
20
22.1693364135
30
0.0000000000
10
-10.9233022643
20
22.1714668440
30
0.0000000000
10
-10.9229357955
20
22.1780093551
30
0.0000000000
10
-10.9204011329
20
22.1889970197
30
0.0000000000
10
-10.9144475176
20
22.2018158219
30
0.0000000000
10
-10.9057160953
20
22.2141664596
30
0.0000000000
10
-10.8943605191
20
22.2259058546
30
0.0000000000
10
-10.8805544391
20
22.2368815107
30
0.0000000000
10
-10.8702134901
20
22.2433694852
30
0.0000000000
10
-10.8647251123
20
22.2464659520
30
0.0000000000
11
-10.9233022745
21
22.1693364135
31
0.0000000000
11
-10.9229456097
21
22.1757139575
31
0.0000000000
11
-10.9200372204
21
22.1885964282
31
0.0000000000
11
-10.9142342596
21
22.2013109214
31
0.0000000000
11
-10.9056841666
21
22.2135771657
31
0.0000000000
11
-10.8944605816
21
22.2253161957
31
0.0000000000
11
-10.8807022065
21
22.2363602086
31
0.0000000000
11
-10.8647251123
21
22.2464659520
31
0.0000000000
0
SPLINE
5
35F
100
AcDbEntity
8
0
100
AcDbSpline
62
7
6
CONTINUOUS
70
0
71
3
72
8
73
4
74
2
42
0.0000001000
43
0.0000001000
44
0.0000000001
12
0.0010630703
22
0.0005200872
32
0.0000000000
13
0.0010563603
23
0.0005335707
33
0.0000000000
40
0.0000000000
40
0.0000000000
40
0.0000000000
40
0.0000000000
40
1.0000000000
40
1.0000000000
40
1.0000000000
40
1.0000000000
10
-0.8547775981
20
-1.2190853736
30
0.0000000000
10
-0.8544232413
20
-1.2189120112
30
0.0000000000
10
-0.8540699874
20
-1.2187363972
30
0.0000000000
10
-0.8537178673
20
-1.2185585403
30
0.0000000000
11
-0.8547775981
21
-1.2190853736
31
0.0000000000
11
-0.8537178673
21
-1.2185585403
31
0.0000000000
0
SPLINE
5
360
100
AcDbEntity
8
0
100
AcDbSpline
62
7
6
CONTINUOUS
70
0
71
3
72
16
73
12
74
10
42
0.0000001000
43
0.0000001000
44
0.0000000001
12
0.1410703759
22
0.0712550555
32
0.0000000000
13
0.0000000000
23
0.1578801406
33
0.0000000000
40
0.0000000000
40
0.0000000000
40
0.0000000000
40
0.0000000000
40
0.0952883552
40
0.1922608928
40
0.2922781518
40
0.3964712850
40
0.5056923722
40
0.6205027261
40
0.7411870484
40
0.8677811229
40
1.0000000000
40
1.0000000000
40
1.0000000000
40
1.0000000000
10
-0.8537178673
20
-1.2185585403
30
0.0000000000
10
-0.8492370793
20
-1.2162952813
30
0.0000000000
10
-0.8405667281
20
-1.2109959466
30
0.0000000000
10
-0.8288245356
20
-1.2009654272
30
0.0000000000
10
-0.8184155501
20
-1.1889381858
30
0.0000000000
10
-0.8094352104
20
-1.1750438957
30
0.0000000000
10
-0.8019602204
20
-1.1594244999
30
0.0000000000
10
-0.7960557933
20
-1.1422332286
30
0.0000000000
10
-0.7917601244
20
-1.1236343025
30
0.0000000000
10
-0.7891534009
20
-1.1038108335
30
0.0000000000
10
-0.7884534803
20
-1.0901869577
30
0.0000000000
10
-0.7884534803
20
-1.0832287127
30
0.0000000000
11
-0.8537178673
21
-1.2185585403
31
0.0000000000
11
-0.8408751336
21
-1.2107233437
31
0.0000000000
11
-0.8292148690
21
-1.2008018776
31
0.0000000000
11
-0.8188493114
21
-1.1888895877
31
0.0000000000
11
-0.8098782623
21
-1.1751010544
31
0.0000000000
11
-0.8023881288
21
-1.1595688962
31
0.0000000000
11
-0.7964510940
21
-1.1424424997
31
0.0000000000
11
-0.7921244229
21
-1.1238865898
31
0.0000000000
11
-0.7894499110
21
-1.1040796523
31
0.0000000000
11
-0.7884534803
21
-1.0832287127
31
0.0000000000
0
SPLINE
5
361
100
AcDbEntity
8
0
100
AcDbSpline
62
9
6
CONTINUOUS
70
0
71
3
72
15
73
11
74
9
42
0.0000001000
43
0.0000001000
44
0.0000000001
12
-0.1415064079
22
0.0707485855
32
0.0000000000
13
0.0001025638
23
0.1579498420
33
0.0000000000
40
0.0000000000
40
0.0000000000
40
0.0000000000
40
0.0000000000
40
0.0438369527
40
0.1613605614
40
0.2825753048
40
0.4096946479
40
0.5443288792
40
0.6874406849
40
0.8393870426
40
1.0000000000
40
1.0000000000
40
1.0000000000
40
1.0000000000
10
-20.0338679869
20
4.4475722823
30
0.0000000000
10
-20.0359357235
20
4.4486060831
30
0.0000000000
10
-20.0434065136
20
4.4526916862
30
0.0000000000
10
-20.0554433574
20
4.4615944147
30
0.0000000000
10
-20.0685711490
20
4.4758358046
30
0.0000000000
10
-20.0795140126
20
4.4928800140
30
0.0000000000
10
-20.0881385124
20
4.5124566931
30
0.0000000000
10
-20.0943458728
20
4.5342777909
30
0.0000000000
10
-20.0980659091
20
4.5580299844
30
0.0000000000
10
-20.0988394996
20
4.5745019381
30
0.0000000000
10
-20.0988340085
20
4.5829582019
30
0.0000000000
11
-20.0338679869
21
4.4475722823
31
0.0000000000
11
-20.0399508290
21
4.4508996313
31
0.0000000000
11
-20.0548976585
21
4.4619074147
31
0.0000000000
11
-20.0679268661
21
4.4759360803
31
0.0000000000
11
-20.0788503680
21
4.4927831168
31
0.0000000000
11
-20.0875104772
21
4.5122053283
31
0.0000000000
11
-20.0937821800
21
4.5339223446
31
0.0000000000
11
-20.0975749407
21
4.5576206687
31
0.0000000000
11
-20.0988340085
21
4.5829582019
31
0.0000000000
0
ENDSEC
0
SECTION
2
OBJECTS
0
DICTIONARY
5
362
100
AcDbDictionary
3
ACAD_GROUP
350
363
3
ACAD_MLINESTYLE
350
364
0
DICTIONARY
5
363
102
{ACAD_REACTORS
330
362
102
}
100
AcDbDictionary
0
DICTIONARY
5
364
102
{ACAD_REACTORS
330
362
102
}
100
AcDbDictionary
3
STANDARD
350
365
0
MLINESTYLE
5
365
102
{ACAD_REACTORS
330
364
102
}
100
AcDbMlineStyle
2
STANDARD
70
0
3

62
256
51
90.0
52
90.0
71
2
49
0.5
62
256
6
BYLAYER
49
-0.5
62
256
6
BYLAYER
0
ENDSEC
0
EOF
