0
SECTION
2
HEADER
9
$ACADVER
1
AC1014
9
$HANDSEED
5
       2BD
9
$EXTMAX
10
297.0000000000
20
210.0000000000
9
$EXTMIN
10
0.0000000000
20
0.0000000000
9
$LIMMIN
10
0.0000000000
20
0.0000000000
9
$LIMMAX
10
297.0000000000
20
210.0000000000
9
$VIEWCTR
10
148.5000000000
20
105.0000000000
9
$VIEWSIZE
40
210.0000000000
9
$CLAYER
8
0
9
$LTSCALE
40
16.3350000000
9
$CELTYPE
6
BYLAYER
9
$DIMSCALE
40
1
9
$DIMASZ
40
3.0000000000
9
$DIMEXO
40
1.8562500000
9
$DIMDLI
40
11.2860000000
9
$DIMEXE
40
5.3460000000
9
$DIMCEN
40
2.6730000000
9
$DIMLFAC
40
1.0000000000
9
$DIMTXT
40
3.0000000000
9
$DIMTOL
70
1
9
$DIMLIM
70
0
9
$DIMTFAC
40
1.0000000000
9
$DIMTP
40
0.0100000000
9
$DIMTM
40
0.0100000000
9
$MEASUREMENT
70
1
0
ENDSEC
0
SECTION
2
CLASSES
0
ENDSEC
0
SECTION
2
TABLES
0
TABLE
2
VPORT
5
8
100
AcDbSymbolTable
70
2
0
VPORT
5
1F4
100
AcDbSymbolTableRecord
100
AcDbViewportTableRecord
2
*ACTIVE
70
0
10
0.0
20
0.0
11
1.0
21
1.0
12
148.5000000000
22
105.0000000000
13
0.0
23
0.0
14
1.0
24
1.0
15
0.0
25
0.0
16
0.0
26
0.0
36
1.0
17
0.0
27
0.0
37
0.0
40
210.0000000000
41
1.4142857143
42
50.0
43
0.0
44
0.0
50
0.0
51
0.0
71
0
72
100
73
1
74
1
75
0
76
0
77
0
78
0
0
ENDTAB
0
TABLE
2
LTYPE
5
5
100
AcDbSymbolTable
70
6
0
LTYPE
5
14
100
AcDbSymbolTableRecord
100
AcDbLinetypeTableRecord
2
BYBLOCK
70
0
3

72
65
73
0
40
0.0
0
LTYPE
5
15
100
AcDbSymbolTableRecord
100
AcDbLinetypeTableRecord
2
BYLAYER
70
0
3

72
65
73
0
40
0.0
0
LTYPE
5
16
100
AcDbSymbolTableRecord
100
AcDbLinetypeTableRecord
2
CONTINUOUS
70
64
3
Solid line
72
65
73
0
40
0
0
LTYPE
5
1F5
100
AcDbSymbolTableRecord
100
AcDbLinetypeTableRecord
2
CENTER
70
64
3
____ _ ____ _ ____ _ ____ _ ____ _ ____ _ ____
72
65
73
4
40
0.6
49
0.375
74
0
49
-0.075
74
0
49
0.075
74
0
49
-0.075
74
0
0
LTYPE
5
1F6
100
AcDbSymbolTableRecord
100
AcDbLinetypeTableRecord
2
HIDDEN
70
64
3
- - - - - - - - - - - - - - - - - - - -
72
65
73
2
40
0.2
49
0.1
74
0
49
-0.1
74
0
0
LTYPE
5
1F7
100
AcDbSymbolTableRecord
100
AcDbLinetypeTableRecord
2
PHANTOM
70
64
3
_____ _ _ _____ _ _ _____ _ _ _____
72
65
73
6
40
0.8
49
0.45
74
0
49
-0.05
74
0
49
0.1
74
0
49
-0.05
74
0
49
0.1
74
0
49
-0.05
74
0
0
LTYPE
5
1F8
100
AcDbSymbolTableRecord
100
AcDbLinetypeTableRecord
2
DOT
70
64
3
. . . . . . . . . . . . . . . . . . . .
72
65
73
2
40
0.2
49
0.1
74
0
49
-0.1
74
0
0
LTYPE
5
1F9
100
AcDbSymbolTableRecord
100
AcDbLinetypeTableRecord
2
DASHED
70
64
3
- - - - - - - - - - - - - - - - - - - -
72
65
73
2
40
0.2
49
0.1
74
0
49
-0.1
74
0
0
ENDTAB
0
TABLE
2
LAYER
5
2
100
AcDbSymbolTable
70
36
0
LAYER
5
10
100
AcDbSymbolTableRecord
100
AcDbLayerTableRecord
2
0
70
0
62
7
6
CONTINUOUS
0
LAYER
5
1FA
100
AcDbSymbolTableRecord
100
AcDbLayerTableRecord
2
DEFAULT_1
70
0
62
7
6
CENTER
0
LAYER
5
1FB
100
AcDbSymbolTableRecord
100
AcDbLayerTableRecord
2
DEFAULT_2
70
0
62
8
6
HIDDEN
0
LAYER
5
1FC
100
AcDbSymbolTableRecord
100
AcDbLayerTableRecord
2
DEFAULT_3
70
0
62
7
6
PHANTOM
0
LAYER
5
1FD
100
AcDbSymbolTableRecord
100
AcDbLayerTableRecord
2
ASSI
70
0
62
7
6
CONTINUOUS
0
LAYER
5
1FE
100
AcDbSymbolTableRecord
100
AcDbLayerTableRecord
2
COORDINATE
70
0
62
7
6
CONTINUOUS
0
LAYER
5
1FF
100
AcDbSymbolTableRecord
100
AcDbLayerTableRecord
2
COORD_ORIGINE
70
0
62
7
6
CONTINUOUS
0
LAYER
5
200
100
AcDbSymbolTableRecord
100
AcDbLayerTableRecord
2
COPY
70
0
62
7
6
CONTINUOUS
0
LAYER
5
201
100
AcDbSymbolTableRecord
100
AcDbLayerTableRecord
2
CURVE
70
0
62
7
6
CONTINUOUS
0
LAYER
5
202
100
AcDbSymbolTableRecord
100
AcDbLayerTableRecord
2
DRAFT
70
0
62
7
6
CONTINUOUS
0
LAYER
5
203
100
AcDbSymbolTableRecord
100
AcDbLayerTableRecord
2
IGS
70
0
62
7
6
CONTINUOUS
0
LAYER
5
204
100
AcDbSymbolTableRecord
100
AcDbLayerTableRecord
2
INC_LASER
70
0
62
7
6
CONTINUOUS
0
LAYER
5
205
100
AcDbSymbolTableRecord
100
AcDbLayerTableRecord
2
PIANI
70
0
62
7
6
CONTINUOUS
0
LAYER
5
206
100
AcDbSymbolTableRecord
100
AcDbLayerTableRecord
2
PIANI_ORIGINE
70
0
62
7
6
CONTINUOUS
0
LAYER
5
207
100
AcDbSymbolTableRecord
100
AcDbLayerTableRecord
2
PIANI_RIFERIMENTO
70
0
62
7
6
CONTINUOUS
0
LAYER
5
208
100
AcDbSymbolTableRecord
100
AcDbLayerTableRecord
2
RACCORDO
70
0
62
7
6
CONTINUOUS
0
LAYER
5
209
100
AcDbSymbolTableRecord
100
AcDbLayerTableRecord
2
SMUSSO
70
0
62
7
6
CONTINUOUS
0
LAYER
5
20A
100
AcDbSymbolTableRecord
100
AcDbLayerTableRecord
2
SUPERFICI
70
0
62
7
6
CONTINUOUS
0
LAYER
5
20B
100
AcDbSymbolTableRecord
100
AcDbLayerTableRecord
2
TRASH
70
0
62
7
6
CONTINUOUS
0
ENDTAB
0
TABLE
2
STYLE
5
3
100
AcDbSymbolTable
70
1
0
STYLE
5
11
100
AcDbSymbolTableRecord
100
AcDbTextStyleTableRecord
2
STANDARD
70
0
40
0.0
41
0.8000000000
50
0.0
71
0
42
0.2
3
txt
4

0
ENDTAB
0
TABLE
2
VIEW
5
6
100
AcDbSymbolTable
70
0
0
ENDTAB
0
TABLE
2
UCS
5
7
100
AcDbSymbolTable
70
0
0
ENDTAB
0
TABLE
2
APPID
5
9
100
AcDbSymbolTable
70
1
0
APPID
5
20C
100
AcDbSymbolTableRecord
100
AcDbRegAppTableRecord
2
ACAD
70
0
0
ENDTAB
0
TABLE
2
DIMSTYLE
5
A
100
AcDbSymbolTable
70
1
0
DIMSTYLE
105
20D
100
AcDbSymbolTableRecord
100
AcDbDimStyleTableRecord
2
STANDARD
70
0
3

4

5

6

7

40
1.0
41
3.0000000000
42
0.0625
43
0.38
44
0.18
45
0.0
46
0.0
47
0.0100000000
48
0.0100000000
140
3.0000000000
141
0.09
142
0.0
143
25.4
144
1.0000000000
145
0.0
146
1.0000000000
147
0.09
71
1
72
0
73
0
74
0
75
0
76
0
77
1
78
8
170
0
171
2
172
0
173
0
174
0
175
0
176
0
177
0
178
0
270
2
271
2
272
2
273
2
274
2
340
11
275
0
280
0
281
0
282
0
283
1
284
8
285
0
286
0
287
3
288
0
0
ENDTAB
0
TABLE
2
BLOCK_RECORD
5
1
100
AcDbSymbolTable
70
0
0
BLOCK_RECORD
5
1B
100
AcDbSymbolTableRecord
100
AcDbBlockTableRecord
2
*MODEL_SPACE
0
BLOCK_RECORD
5
1C
100
AcDbSymbolTableRecord
100
AcDbBlockTableRecord
2
*PAPER_SPACE
0
ENDTAB
0
ENDSEC
0
SECTION
2
BLOCKS
0
BLOCK
5
1E
100
AcDbEntity
8
0
100
AcDbBlockBegin
2
*MODEL_SPACE
70
0
10
0.0
20
0.0
30
0.0
3
*MODEL_SPACE
1

0
ENDBLK
5
1F
100
AcDbEntity
8
0
100
AcDbBlockEnd
0
BLOCK
5
20
100
AcDbEntity
8
0
100
AcDbBlockBegin
2
*PAPER_SPACE
70
0
10
0.0
20
0.0
30
0.0
3
*PAPER_SPACE
1

0
ENDBLK
5
21
100
AcDbEntity
8
0
100
AcDbBlockEnd
0
ENDSEC
0
SECTION
2
ENTITIES
0
LINE
5
20E
100
AcDbEntity
8
0
100
AcDbLine
62
7
6
CONTINUOUS
10
-8.2726854676
20
22.5252230227
11
-6.4794631682
21
23.5708358698
0
LINE
5
20F
100
AcDbEntity
8
0
100
AcDbLine
62
9
6
CONTINUOUS
10
-8.0393314200
20
22.5164556296
11
-6.2561885326
21
23.5561912563
0
LINE
5
210
100
AcDbEntity
8
0
100
AcDbLine
62
7
6
CONTINUOUS
10
-8.4459593600
20
-15.7058543568
11
6.4471641533
21
-23.1524161134
0
LINE
5
211
100
AcDbEntity
8
0
100
AcDbLine
62
9
6
CONTINUOUS
10
-8.6957457870
20
-15.2912688622
11
6.1929761845
21
-22.7356298480
0
LINE
5
212
100
AcDbEntity
8
0
100
AcDbLine
62
7
6
CONTINUOUS
10
-0.6017218443
20
20.7289579122
11
-0.7452261188
21
20.4399077193
0
LINE
5
213
100
AcDbEntity
8
0
100
AcDbLine
62
9
6
CONTINUOUS
10
8.7074476990
20
16.0743731405
11
6.8609491852
21
15.0663153269
0
LINE
5
214
100
AcDbEntity
8
0
100
AcDbLine
62
9
6
CONTINUOUS
10
9.1046382876
20
15.4884898661
11
7.2267819252
21
14.4633128812
0
LINE
5
215
100
AcDbEntity
8
0
100
AcDbLine
62
9
6
CONTINUOUS
10
5.4807737229
20
-12.9378006865
11
-9.3836451518
21
-5.5055912491
0
LINE
5
216
100
AcDbEntity
8
0
100
AcDbLine
62
7
6
CONTINUOUS
10
-9.3203844799
20
2.8678829704
11
-9.3893664430
21
2.8314161232
0
LINE
5
217
100
AcDbEntity
8
0
100
AcDbLine
62
9
6
CONTINUOUS
10
-9.2559878523
20
2.8356846565
11
-9.2740698576
21
2.8261257270
0
LINE
5
218
100
AcDbEntity
8
0
100
AcDbLine
62
7
6
CONTINUOUS
10
-4.2326917596
20
0.4976732616
11
-4.2326917596
21
0.8866388168
0
LINE
5
219
100
AcDbEntity
8
0
100
AcDbLine
62
7
6
CONTINUOUS
10
-3.8890908321
20
0.5059895513
11
-3.8890908321
21
1.1272464523
0
LINE
5
21A
100
AcDbEntity
8
0
100
AcDbLine
62
9
6
CONTINUOUS
10
-4.2969924475
20
1.3311972600
11
-4.4129986093
21
1.1117931908
0
LINE
5
21B
100
AcDbEntity
8
0
100
AcDbLine
62
9
6
CONTINUOUS
10
-4.0602308815
20
1.2128164770
11
-4.2326917596
21
0.8866388168
0
LINE
5
21C
100
AcDbEntity
8
0
100
AcDbLine
62
7
6
CONTINUOUS
10
-5.0637302516
20
1.6679299169
11
-5.0637896289
21
1.6679013589
0
LINE
5
21D
100
AcDbEntity
8
0
100
AcDbLine
62
9
6
CONTINUOUS
10
-4.8041118119
20
1.5847569422
11
-5.1966130471
21
1.3960608303
0
LINE
5
21E
100
AcDbEntity
8
0
100
AcDbLine
62
9
6
CONTINUOUS
10
-4.4129986093
20
1.1117931908
11
-5.3030179922
21
0.6650529896
0
LINE
5
21F
100
AcDbEntity
8
0
100
AcDbLine
62
9
6
CONTINUOUS
10
-4.2326945293
20
0.8874063860
11
-5.1616020208
21
0.4211465183
0
LINE
5
220
100
AcDbEntity
8
0
100
AcDbLine
62
9
6
CONTINUOUS
10
-4.2326917596
20
0.4976732616
11
-5.1966130471
21
0.0138384168
0
LINE
5
221
100
AcDbEntity
8
0
100
AcDbLine
62
9
6
CONTINUOUS
10
-3.8791518313
20
-0.1120929167
11
-4.8419263374
21
-0.5953521411
0
LINE
5
222
100
AcDbEntity
8
0
100
AcDbLine
62
9
6
CONTINUOUS
10
-4.4067288323
20
1.3860654524
11
-5.1616366361
21
1.0231413271
0
LINE
5
223
100
AcDbEntity
8
0
100
AcDbLine
62
7
6
CONTINUOUS
10
-4.3219020454
20
1.3436520590
11
-5.2151895405
21
0.9142014940
0
LINE
5
224
100
AcDbEntity
8
0
100
AcDbLine
62
9
6
CONTINUOUS
10
-4.9821129400
20
-0.8391630531
11
0.9547732043
21
-3.8076061253
0
LINE
5
225
100
AcDbEntity
8
0
100
AcDbLine
62
9
6
CONTINUOUS
10
-4.8419263374
20
-0.5953521411
11
1.0949598068
21
-3.5637952132
0
LINE
5
226
100
AcDbEntity
8
0
100
AcDbLine
62
9
6
CONTINUOUS
10
-9.4462444662
20
2.3447618893
11
-5.4785578322
21
0.3609185725
0
LINE
5
227
100
AcDbEntity
8
0
100
AcDbLine
62
9
6
CONTINUOUS
10
5.4159524989
20
-5.0863365932
11
1.4482658649
21
-3.1024932761
0
LINE
5
228
100
AcDbEntity
8
0
100
AcDbLine
62
7
6
CONTINUOUS
10
1.5096537423
20
-2.8064957035
11
-3.8791518313
21
-0.1120929167
0
LINE
5
229
100
AcDbEntity
8
0
100
AcDbLine
62
9
6
CONTINUOUS
10
-9.2710104748
20
2.6490492310
11
-5.3030179922
21
0.6650529896
0
LINE
5
22A
100
AcDbEntity
8
0
100
AcDbLine
62
9
6
CONTINUOUS
10
5.5911864903
20
-4.7820492515
11
1.6231940074
21
-2.7980530102
0
LINE
5
22B
100
AcDbEntity
8
0
100
AcDbLine
62
7
6
CONTINUOUS
10
1.7416116264
20
-2.6843616779
11
-3.5829046142
21
-0.0221035576
0
LINE
5
22C
100
AcDbEntity
8
0
100
AcDbLine
62
7
6
CONTINUOUS
10
-9.3812712257
20
2.8983263432
11
-5.4134711243
21
0.9144262925
0
LINE
5
22D
100
AcDbEntity
8
0
100
AcDbLine
62
7
6
CONTINUOUS
10
5.4809257394
20
-4.5327721393
11
1.5131254387
21
-2.5488719890
0
LINE
5
22E
100
AcDbEntity
8
0
100
AcDbLine
62
9
6
CONTINUOUS
10
-9.4462444662
20
3.0337170603
11
-5.4785578322
21
1.0498737431
0
LINE
5
22F
100
AcDbEntity
8
0
100
AcDbLine
62
9
6
CONTINUOUS
10
5.4159524989
20
-4.3973814222
11
1.4482658649
21
-2.4135381054
0
LINE
5
230
100
AcDbEntity
8
0
100
AcDbLine
62
7
6
CONTINUOUS
10
1.0067512062
20
-1.3206745668
11
-4.9301349380
21
1.6477685053
0
LINE
5
231
100
AcDbEntity
8
0
100
AcDbLine
62
9
6
CONTINUOUS
10
0.9547732043
20
-1.2119803640
11
-4.9821129400
21
1.7564627081
0
LINE
5
232
100
AcDbEntity
8
0
100
AcDbLine
62
9
6
CONTINUOUS
10
-0.7382322398
20
20.3736424888
11
-0.7452261188
21
20.4399077193
0
LINE
5
233
100
AcDbEntity
8
0
100
AcDbLine
62
7
6
CONTINUOUS
10
-0.5531263740
20
20.2685281493
11
-0.6017218443
21
20.7289579122
0
LINE
5
234
100
AcDbEntity
8
0
100
AcDbLine
62
9
6
CONTINUOUS
10
-3.9285365457
20
-0.0888080306
11
-3.5829046142
21
-0.0221035576
0
LINE
5
235
100
AcDbEntity
8
0
100
AcDbLine
62
9
6
CONTINUOUS
10
-3.8890908321
20
0.5059895513
11
-4.2347227636
21
0.4392850783
0
LINE
5
236
100
AcDbEntity
8
0
100
AcDbLine
62
7
6
CONTINUOUS
10
9.6873593657
20
-2.9337682070
11
9.5708767021
21
-2.8755268752
0
LINE
5
237
100
AcDbEntity
8
0
100
AcDbLine
62
7
6
CONTINUOUS
10
1.7624500800
20
-2.6735343096
11
1.5321532974
21
-2.7931932888
0
LINE
5
238
100
AcDbEntity
8
0
100
AcDbLine
62
9
6
CONTINUOUS
10
1.8136112365
20
-2.6991148879
11
1.6231940074
21
-2.7980530102
0
LINE
5
239
100
AcDbEntity
8
0
100
AcDbLine
62
9
6
CONTINUOUS
10
1.3890283667
20
-3.4110013127
11
1.0949598068
21
-3.5637952132
0
LINE
5
23A
100
AcDbEntity
8
0
100
AcDbLine
62
7
6
CONTINUOUS
10
1.3202838319
20
-3.5771279931
11
1.3203358940
21
-3.5771009529
0
LINE
5
23B
100
AcDbEntity
8
0
100
AcDbLine
62
9
6
CONTINUOUS
10
9.6873593657
20
-2.9337682070
11
5.9416266121
21
-4.7817225078
0
LINE
5
23C
100
AcDbEntity
8
0
100
AcDbLine
62
9
6
CONTINUOUS
10
9.8641360620
20
-2.6324698542
11
6.1168338528
21
-4.4024689430
0
LINE
5
23D
100
AcDbEntity
8
0
100
AcDbLine
62
7
6
CONTINUOUS
10
9.7972862222
20
-2.7685847014
11
6.0499425247
21
-4.5386033867
0
LINE
5
23E
100
AcDbEntity
8
0
100
AcDbLine
62
9
6
CONTINUOUS
10
-9.3836451518
20
10.9488914228
11
5.4807737229
21
3.5166819854
0
LINE
5
23F
100
AcDbEntity
8
0
100
AcDbLine
62
9
6
CONTINUOUS
10
9.8641360620
20
-3.2386381754
11
6.1168338528
21
-5.0873667659
0
LINE
5
240
100
AcDbEntity
8
0
100
AcDbLine
62
7
6
CONTINUOUS
10
9.8641360620
20
-3.2386381754
11
9.8641360620
21
-14.2804868044
0
LINE
5
241
100
AcDbEntity
8
0
100
AcDbLine
62
7
6
CONTINUOUS
10
9.8641360620
20
-2.6324698542
11
9.8641360620
21
8.4093787748
0
LINE
5
242
100
AcDbEntity
8
0
100
AcDbLine
62
7
6
CONTINUOUS
10
9.1046382876
20
15.4884898661
11
9.8641360620
21
8.4093787748
0
LINE
5
243
100
AcDbEntity
8
0
100
AcDbLine
62
7
6
CONTINUOUS
10
9.1046382876
20
-22.0930363709
11
9.8641360620
21
-14.2804868044
0
LINE
5
244
100
AcDbEntity
8
0
100
AcDbLine
62
9
6
CONTINUOUS
10
6.1929761845
20
14.0024105117
11
-8.6957457870
21
21.4467714974
0
LINE
5
245
100
AcDbEntity
8
0
100
AcDbLine
62
9
6
CONTINUOUS
10
6.8609491852
20
15.0663153269
11
-8.0393314200
21
22.5164556296
0
LINE
5
246
100
AcDbEntity
8
0
100
AcDbLine
62
7
6
CONTINUOUS
10
3.0529810107
20
18.9016064847
11
2.5184040547
21
18.8080926326
0
LINE
5
247
100
AcDbEntity
8
0
100
AcDbLine
62
7
6
CONTINUOUS
10
-0.6935378349
20
20.3387338797
11
2.3251433643
21
18.8293932801
0
LINE
5
248
100
AcDbEntity
8
0
100
AcDbLine
62
7
6
CONTINUOUS
10
-6.2561885326
20
23.5561912563
11
-0.6017218443
21
20.7289579122
0
LINE
5
249
100
AcDbEntity
8
0
100
AcDbLine
62
7
6
CONTINUOUS
10
3.0529810107
20
18.9016064847
11
8.7074476990
21
16.0743731405
0
LINE
5
24A
100
AcDbEntity
8
0
100
AcDbLine
62
9
6
CONTINUOUS
10
7.2267819252
20
-22.8812841959
11
9.1046382876
21
-22.0930363709
0
LINE
5
24B
100
AcDbEntity
8
0
100
AcDbLine
62
7
6
CONTINUOUS
10
7.0729746798
20
-23.1624798943
11
8.9282498189
21
-22.3837107496
0
SPLINE
5
24C
100
AcDbEntity
8
0
100
AcDbSpline
62
7
6
CONTINUOUS
70
0
71
3
72
21
73
17
74
15
42
0.0000001000
43
0.0000001000
44
0.0000000001
12
0.3292372444
22
-0.1646186222
32
0.0000000000
13
0.0000000000
23
-0.3680984296
33
0.0000000000
40
0.0000000000
40
0.0000000000
40
0.0000000000
40
0.0000000000
40
0.0616652658
40
0.1268747662
40
0.1949321227
40
0.2652924598
40
0.3382327675
40
0.4129548400
40
0.4884091301
40
0.5643914551
40
0.6407001256
40
0.7162468014
40
0.7901286326
40
0.8625362355
40
0.9327983986
40
1.0000000000
40
1.0000000000
40
1.0000000000
40
1.0000000000
10
9.6873593657
20
-2.9337682070
30
0.0000000000
10
9.6941268664
20
-2.9371519574
30
0.0000000000
10
9.7076680180
20
-2.9448995649
30
0.0000000000
10
9.7271861587
20
-2.9587807275
30
0.0000000000
10
9.7461927286
20
-2.9750461781
30
0.0000000000
10
9.7644611939
20
-2.9934909407
30
0.0000000000
10
9.7817837690
20
-3.0139093119
30
0.0000000000
10
9.7979311339
20
-3.0360456317
30
0.0000000000
10
9.8126765383
20
-3.0595796239
30
0.0000000000
10
9.8258605471
20
-3.0842430119
30
0.0000000000
10
9.8373289027
20
-3.1097622174
30
0.0000000000
10
9.8469127521
20
-3.1357733472
30
0.0000000000
10
9.8544980035
20
-3.1619385535
30
0.0000000000
10
9.8600020036
20
-3.1879595410
30
0.0000000000
10
9.8633510031
20
-3.2135185044
30
0.0000000000
10
9.8641360620
20
-3.2303925741
30
0.0000000000
10
9.8641360620
20
-3.2386381754
30
0.0000000000
11
9.6873593657
21
-2.9337682070
31
0.0000000000
11
9.7070919184
21
-2.9449872024
31
0.0000000000
11
9.7266844223
21
-2.9588545204
31
0.0000000000
11
9.7457466667
21
-2.9751094836
31
0.0000000000
11
9.7639970373
21
-2.9934863604
31
0.0000000000
11
9.7813870650
21
-3.0139428304
31
0.0000000000
11
9.7976114775
21
-3.0361531372
31
0.0000000000
11
9.8123672832
21
-3.0596838600
31
0.0000000000
11
9.8255552990
21
-3.0843484049
31
0.0000000000
11
9.8370650989
21
-3.1099710930
31
0.0000000000
11
9.8466678456
21
-3.1360691044
31
0.0000000000
11
9.8542209340
21
-3.1621949850
31
0.0000000000
11
9.8597089251
21
-3.1882769906
31
0.0000000000
11
9.8630318613
21
-3.2139260284
31
0.0000000000
11
9.8641360620
21
-3.2386381754
31
0.0000000000
0
SPLINE
5
24D
100
AcDbEntity
8
0
100
AcDbSpline
62
7
6
CONTINUOUS
70
0
71
3
72
18
73
14
74
12
42
0.0000001000
43
0.0000001000
44
0.0000000001
12
0.0002842886
22
-0.2188151767
32
0.0000000000
13
-0.1943749003
23
-0.1008618524
33
0.0000000000
40
0.0000000000
40
0.0000000000
40
0.0000000000
40
0.0000000000
40
0.1377729755
40
0.2738359632
40
0.3980746463
40
0.5113086972
40
0.6138587642
40
0.7056801974
40
0.7864267553
40
0.8558227087
40
0.9144998768
40
0.9648309136
40
1.0000000000
40
1.0000000000
40
1.0000000000
40
1.0000000000
10
1.3900230439
20
-3.3785043912
30
0.0000000000
10
1.3900360996
20
-3.3885533305
30
0.0000000000
10
1.3895087037
20
-3.4085326812
30
0.0000000000
10
1.3869345398
20
-3.4374724785
30
0.0000000000
10
1.3826593796
20
-3.4644021536
30
0.0000000000
10
1.3769669003
20
-3.4885646633
30
0.0000000000
10
1.3700693025
20
-3.5099414458
30
0.0000000000
10
1.3622161223
20
-3.5284389208
30
0.0000000000
10
1.3537160564
20
-3.5439424916
30
0.0000000000
10
1.3449181295
20
-3.5564189004
30
0.0000000000
10
1.3361018291
20
-3.5660434726
30
0.0000000000
10
1.3279279167
20
-3.5727201782
30
0.0000000000
10
1.3225624171
20
-3.5759446779
30
0.0000000000
10
1.3202837546
20
-3.5771270843
30
0.0000000000
11
1.3900230439
21
-3.3785043912
31
0.0000000000
11
1.3891906725
21
-3.4086393108
31
0.0000000000
11
1.3865039916
21
-3.4382890381
31
0.0000000000
11
1.3821891785
21
-3.4651284085
31
0.0000000000
11
1.3764504057
21
-3.4892307531
31
0.0000000000
11
1.3694975371
21
-3.5105647745
31
0.0000000000
11
1.3615782827
21
-3.5290291093
31
0.0000000000
11
1.3530132410
21
-3.5444818843
31
0.0000000000
11
1.3441925658
21
-3.5568412595
31
0.0000000000
11
1.3354595750
21
-3.5662524495
31
0.0000000000
11
1.3268887622
21
-3.5731676408
31
0.0000000000
11
1.3202837546
21
-3.5771270843
31
0.0000000000
0
SPLINE
5
24E
100
AcDbEntity
8
0
100
AcDbSpline
62
7
6
CONTINUOUS
70
0
71
3
72
10
73
6
74
4
42
0.0000001000
43
0.0000001000
44
0.0000000001
12
0.0002233277
22
-0.3467305126
32
0.0000000000
13
0.0004483805
23
-0.3467302947
33
0.0000000000
40
0.0000000000
40
0.0000000000
40
0.0000000000
40
0.0000000000
40
0.3286219323
40
0.6728624461
40
1.0000000000
40
1.0000000000
40
1.0000000000
40
1.0000000000
10
1.3896872179
20
-3.0317736483
30
0.0000000000
10
1.3897116813
20
-3.0697547320
30
0.0000000000
10
1.3897700607
20
-3.1475220405
30
0.0000000000
10
1.3898820573
20
-3.2630988486
30
0.0000000000
10
1.3899741594
20
-3.3406945646
30
0.0000000000
10
1.3900230534
20
-3.3785040647
30
0.0000000000
11
1.3896872179
21
-3.0317736483
31
0.0000000000
11
1.3897727556
21
-3.1457168909
31
0.0000000000
11
1.3898884184
21
-3.2650755494
31
0.0000000000
11
1.3900230534
21
-3.3785040647
31
0.0000000000
0
SPLINE
5
24F
100
AcDbEntity
8
0
100
AcDbSpline
62
7
6
CONTINUOUS
70
0
71
3
72
18
73
14
74
12
42
0.0000001000
43
0.0000001000
44
0.0000000001
12
-0.2586699574
22
-0.1345707816
32
0.0000000000
13
0.0001839905
23
-0.2914917113
33
0.0000000000
40
0.0000000000
40
0.0000000000
40
0.0000000000
40
0.0000000000
40
0.0627969179
40
0.1544309222
40
0.2475450832
40
0.3419841461
40
0.4372120658
40
0.5328471065
40
0.6285116860
40
0.7239134318
40
0.8187553067
40
0.9129048281
40
1.0000000000
40
1.0000000000
40
1.0000000000
40
1.0000000000
10
1.5321104987
20
-2.7932158218
30
0.0000000000
10
1.5266959400
20
-2.7960326986
30
0.0000000000
10
1.5136388376
20
-2.8034689284
30
0.0000000000
10
1.4938827441
20
-2.8172604607
30
0.0000000000
10
1.4733723495
20
-2.8350873199
30
0.0000000000
10
1.4545870190
20
-2.8552010508
30
0.0000000000
10
1.4377960731
20
-2.8773138742
30
0.0000000000
10
1.4232326097
20
-2.9010913889
30
0.0000000000
10
1.4110781748
20
-2.9262041492
30
0.0000000000
10
1.4014854842
20
-2.9523207214
30
0.0000000000
10
1.3945794861
20
-2.9791226849
30
0.0000000000
10
1.3905539352
20
-3.0056873958
30
0.0000000000
10
1.3896819405
20
-3.0233101344
30
0.0000000000
10
1.3896872821
20
-3.0317726413
30
0.0000000000
11
1.5321104987
21
-2.7932158218
31
0.0000000000
11
1.5161980892
21
-2.8022734182
31
0.0000000000
11
1.4942891798
21
-2.8175479356
31
0.0000000000
11
1.4737948533
21
-2.8353390573
31
0.0000000000
11
1.4549957365
21
-2.8554448758
31
0.0000000000
11
1.4382013577
21
-2.8775426103
31
0.0000000000
11
1.4236373125
21
-2.9013091968
31
0.0000000000
11
1.4114905670
21
-2.9264069786
31
0.0000000000
11
1.4019101099
21
-2.9525104425
31
0.0000000000
11
1.3950244618
21
-2.9792819870
31
0.0000000000
11
1.3909288797
21
-3.0064156983
31
0.0000000000
11
1.3896872821
21
-3.0317726413
31
0.0000000000
0
SPLINE
5
250
100
AcDbEntity
8
0
100
AcDbSpline
62
7
6
CONTINUOUS
70
0
71
3
72
18
73
14
74
12
42
0.0000001000
43
0.0000001000
44
0.0000000001
12
-0.3443237012
22
-0.1820330099
32
0.0000000000
13
0.0002491206
23
-0.3894648187
33
0.0000000000
40
0.0000000000
40
0.0000000000
40
0.0000000000
40
0.0000000000
40
0.0956329413
40
0.2019630363
40
0.3031961374
40
0.3998136961
40
0.4924048380
40
0.5819497288
40
0.6693294182
40
0.7551752054
40
0.8399448045
40
0.9240737629
40
1.0000000000
40
1.0000000000
40
1.0000000000
40
1.0000000000
10
-9.3893726559
20
2.8314128193
30
0.0000000000
10
-9.4003488853
20
2.8256100352
30
0.0000000000
10
-9.4230735307
20
2.8124687234
30
0.0000000000
10
-9.4553474695
20
2.7898450958
30
0.0000000000
10
-9.4853697946
20
2.7641010911
30
0.0000000000
10
-9.5114440684
20
2.7367836814
30
0.0000000000
10
-9.5336925095
20
2.7081700919
30
0.0000000000
10
-9.5522751767
20
2.6784575354
30
0.0000000000
10
-9.5673300005
20
2.6477841992
30
0.0000000000
10
-9.5789308038
20
2.6163056873
30
0.0000000000
10
-9.5871104641
20
2.5842047086
30
0.0000000000
10
-9.5917309283
20
2.5527082426
30
0.0000000000
10
-9.5926975885
20
2.5319160596
30
0.0000000000
10
-9.5926912836
20
2.5220591936
30
0.0000000000
11
-9.3893726559
21
2.8314128193
31
0.0000000000
11
-9.4215948867
21
2.8127323391
31
0.0000000000
11
-9.4554680510
21
2.7889191535
31
0.0000000000
11
-9.4853630814
21
2.7632224886
31
0.0000000000
11
-9.5113141181
21
2.7359809948
31
0.0000000000
11
-9.5334241984
21
2.7074998605
31
0.0000000000
11
-9.5518962249
21
2.6779248713
31
0.0000000000
11
-9.5668745267
21
2.6473723552
31
0.0000000000
11
-9.5784239009
21
2.6160015848
31
0.0000000000
11
-9.5865678693
21
2.5840118094
31
0.0000000000
11
-9.5913182563
21
2.5515973714
31
0.0000000000
11
-9.5926912836
21
2.5220591936
31
0.0000000000
0
SPLINE
5
251
100
AcDbEntity
8
0
100
AcDbSpline
62
7
6
CONTINUOUS
70
0
71
3
72
17
73
13
74
11
42
0.0000001000
43
0.0000001000
44
0.0000000001
12
0.5777492428
22
-0.2888963472
32
0.0000000000
13
0.5954870295
23
0.2499488907
33
0.0000000000
40
0.0000000000
40
0.0000000000
40
0.0000000000
40
0.0000000000
40
0.0675994872
40
0.1663480438
40
0.2655763719
40
0.3657196749
40
0.4672154435
40
0.5705136150
40
0.6760444787
40
0.7842077534
40
0.8954510686
40
1.0000000000
40
1.0000000000
40
1.0000000000
40
1.0000000000
10
6.4471343785
20
-23.1524009419
30
0.0000000000
10
6.4601528961
20
-23.1589106902
30
0.0000000000
10
6.4927004535
20
-23.1739264926
30
0.0000000000
10
6.5463749535
20
-23.1938179526
30
0.0000000000
10
6.6084193133
20
-23.2105510932
30
0.0000000000
10
6.6723110845
20
-23.2216654886
30
0.0000000000
10
6.7378216371
20
-23.2270092433
30
0.0000000000
10
6.8047073530
20
-23.2264050137
30
0.0000000000
10
6.8726974191
20
-23.2196585253
30
0.0000000000
10
6.9414991164
20
-23.2065682010
30
0.0000000000
10
7.0086716609
20
-23.1875355667
30
0.0000000000
10
7.0522153034
20
-23.1711933582
30
0.0000000000
10
7.0729678143
20
-23.1624827284
30
0.0000000000
11
6.4471343785
21
-23.1524009419
31
0.0000000000
11
6.4867829299
21
-23.1706925738
31
0.0000000000
11
6.5465741524
21
-23.1928574907
31
0.0000000000
11
6.6084382866
21
-23.2095521257
31
0.0000000000
11
6.6721469396
21
-23.2206498037
31
0.0000000000
11
6.7374697153
21
-23.2259982321
31
0.0000000000
11
6.8041724974
21
-23.2254213656
31
0.0000000000
11
6.8719896650
21
-23.2187242081
31
0.0000000000
11
6.9406130207
21
-23.2057076790
31
0.0000000000
11
7.0097405480
21
-23.1861684858
31
0.0000000000
11
7.0729678143
21
-23.1624827284
31
0.0000000000
0
SPLINE
5
252
100
AcDbEntity
8
0
100
AcDbSpline
62
7
6
CONTINUOUS
70
0
71
3
72
10
73
6
74
4
42
0.0000001000
43
0.0000001000
44
0.0000000001
12
0.0050048074
22
-7.8506770771
32
0.0000000000
13
0.1206247541
23
-7.8497519172
33
0.0000000000
40
0.0000000000
40
0.0000000000
40
0.0000000000
40
0.0000000000
40
0.3338718480
40
0.6677367820
40
1.0000000000
40
1.0000000000
40
1.0000000000
40
1.0000000000
10
-9.5926914046
20
2.5220643588
30
0.0000000000
10
-9.5921344165
20
1.6483576708
30
0.0000000000
10
-9.5867731562
20
-0.0990380586
30
0.0000000000
10
-9.5659261421
20
-2.7158573772
30
0.0000000000
10
-9.5434562829
20
-4.4589070542
30
0.0000000000
10
-9.5300965600
20
-5.3283016649
30
0.0000000000
11
-9.5926914046
21
2.5220643588
31
0.0000000000
11
-9.5846332919
21
-0.0990438470
31
0.0000000000
11
-9.5637366506
21
-2.7200268386
31
0.0000000000
11
-9.5300965600
21
-5.3283016649
31
0.0000000000
0
SPLINE
5
253
100
AcDbEntity
8
0
100
AcDbSpline
62
7
6
CONTINUOUS
70
0
71
3
72
14
73
10
74
8
42
0.0000001000
43
0.0000001000
44
0.0000000001
12
0.1508352321
22
-9.8157033000
32
0.0000000000
13
1.2566144044
23
-9.7361033607
33
0.0000000000
40
0.0000000000
40
0.0000000000
40
0.0000000000
40
0.0000000000
40
0.1460469363
40
0.2914717922
40
0.4357109648
40
0.5787514431
40
0.7205804749
40
0.8611878292
40
1.0000000000
40
1.0000000000
40
1.0000000000
40
1.0000000000
10
-9.5300965597
20
-5.3283016668
30
0.0000000000
10
-9.5227535518
20
-5.8061527983
30
0.0000000000
10
-9.5008897564
20
-6.7597255454
30
0.0000000000
10
-9.4461874473
20
-8.1845022844
30
0.0000000000
10
-9.3696052821
20
-9.5984233487
30
0.0000000000
10
-9.2712338515
20
-10.9992007188
30
0.0000000000
10
-9.1511016505
20
-12.3863544020
30
0.0000000000
10
-9.0094351510
20
-13.7575626324
30
0.0000000000
10
-8.9001765619
20
-14.6654045250
30
0.0000000000
10
-8.8420321042
20
-15.1159010725
30
0.0000000000
11
-9.5300965597
21
-5.3283016668
31
0.0000000000
11
-9.4971449368
21
-6.7616455582
31
0.0000000000
11
-9.4422831211
21
-8.1882066032
31
0.0000000000
11
-9.3656083591
21
-9.6021050068
31
0.0000000000
11
-9.2671421680
21
-11.0028568921
31
0.0000000000
11
-9.1469140239
21
-12.3899721289
31
0.0000000000
11
-9.0049598060
21
-13.7629761799
31
0.0000000000
11
-8.8420321042
21
-15.1159010725
31
0.0000000000
0
SPLINE
5
254
100
AcDbEntity
8
0
100
AcDbSpline
62
7
6
CONTINUOUS
70
0
71
3
72
19
73
15
74
13
42
0.0000001000
43
0.0000001000
44
0.0000000001
12
0.0947569373
22
-0.7341078800
32
0.0000000000
13
0.6621929487
23
-0.3310821790
33
0.0000000000
40
0.0000000000
40
0.0000000000
40
0.0000000000
40
0.0000000000
40
0.0896868208
40
0.1845696460
40
0.2765261299
40
0.3659230962
40
0.4530837196
40
0.5383350542
40
0.6219477536
40
0.7042180608
40
0.7854656727
40
0.8659874281
40
0.9460904703
40
1.0000000000
40
1.0000000000
40
1.0000000000
40
1.0000000000
10
-8.8420314874
20
-15.1159057079
30
0.0000000000
10
-8.8391986713
20
-15.1378523086
30
0.0000000000
10
-8.8317720561
20
-15.1828286367
30
0.0000000000
10
-8.8155285420
20
-15.2491622180
30
0.0000000000
10
-8.7939551612
20
-15.3138905922
30
0.0000000000
10
-8.7678440230
20
-15.3748570798
30
0.0000000000
10
-8.7374824366
20
-15.4319553055
30
0.0000000000
10
-8.7031601147
20
-15.4850724399
30
0.0000000000
10
-8.6651611543
20
-15.5341063096
30
0.0000000000
10
-8.6237583973
20
-15.5789662849
30
0.0000000000
10
-8.5792045117
20
-15.6195733828
30
0.0000000000
10
-8.5317294706
20
-15.6558505718
30
0.0000000000
10
-8.4869933820
20
-15.6842548399
30
0.0000000000
10
-8.4578394890
20
-15.6999142459
30
0.0000000000
10
-8.4459399855
20
-15.7058637407
30
0.0000000000
11
-8.8420314874
21
-15.1159057079
31
0.0000000000
11
-8.8311747135
21
-15.1813968395
31
0.0000000000
11
-8.8144239753
21
-15.2495963228
31
0.0000000000
11
-8.7928625679
21
-15.3141513126
31
0.0000000000
11
-8.7667789553
21
-15.3749592662
31
0.0000000000
11
-8.7364639138
21
-15.4319036511
31
0.0000000000
11
-8.7021979860
21
-15.4848864971
31
0.0000000000
11
-8.6642742573
21
-15.5337899242
31
0.0000000000
11
-8.6229647549
21
-15.5785257490
31
0.0000000000
11
-8.5785124140
21
-15.6190245073
31
0.0000000000
11
-8.5311529998
21
-15.6552035323
31
0.0000000000
11
-8.4810994903
21
-15.6869783508
31
0.0000000000
11
-8.4459399855
21
-15.7058637407
31
0.0000000000
0
SPLINE
5
255
100
AcDbEntity
8
0
100
AcDbSpline
62
7
6
CONTINUOUS
70
0
71
3
72
23
73
19
74
17
42
0.0000001000
43
0.0000001000
44
0.0000000001
12
0.0000000000
22
-0.6405357964
32
0.0000000000
13
0.5729126332
23
-0.2864563166
33
0.0000000000
40
0.0000000000
40
0.0000000000
40
0.0000000000
40
0.0000000000
40
0.0673970871
40
0.1340336291
40
0.1995322818
40
0.2637255589
40
0.3269679149
40
0.3893367484
40
0.4510708762
40
0.5122412532
40
0.5730220274
40
0.6335913412
40
0.6940262775
40
0.7545474558
40
0.8152247309
40
0.8764438646
40
0.9381194039
40
1.0000000000
40
1.0000000000
40
1.0000000000
40
1.0000000000
10
-3.8890908321
20
0.5059895513
30
0.0000000000
10
-3.8890908321
20
0.4915994690
30
0.0000000000
10
-3.8880147577
20
0.4629710709
30
0.0000000000
10
-3.8833593525
20
0.4205904209
30
0.0000000000
10
-3.8759290975
20
0.3793031218
30
0.0000000000
10
-3.8659716284
20
0.3393014702
30
0.0000000000
10
-3.8536845758
20
0.3006552406
30
0.0000000000
10
-3.8391957583
20
0.2633434856
30
0.0000000000
10
-3.8226122089
20
0.2274016057
30
0.0000000000
10
-3.8040003515
20
0.1928516800
30
0.0000000000
10
-3.7834041430
20
0.1597386336
30
0.0000000000
10
-3.7608413733
20
0.1281243860
30
0.0000000000
10
-3.7363033348
20
0.0980869908
30
0.0000000000
10
-3.7097784634
20
0.0697537261
30
0.0000000000
10
-3.6811974151
20
0.0432447758
30
0.0000000000
10
-3.6505249071
20
0.0187802939
30
0.0000000000
10
-3.6177938235
20
-0.0033195777
30
0.0000000000
10
-3.5947220060
20
-0.0161948618
30
0.0000000000
10
-3.5829046142
20
-0.0221035576
30
0.0000000000
11
-3.8890908321
21
0.5059895513
31
0.0000000000
11
-3.8874900301
21
0.4628489944
31
0.0000000000
11
-3.8828450428
21
0.4204194020
31
0.0000000000
11
-3.8754243744
21
0.3791266517
31
0.0000000000
11
-3.8654981504
21
0.3392246773
31
0.0000000000
11
-3.8532267612
21
0.3006190882
31
0.0000000000
11
-3.8387651831
21
0.2633790164
31
0.0000000000
11
-3.8221953455
21
0.2274752157
31
0.0000000000
11
-3.8036074518
21
0.1929831163
31
0.0000000000
11
-3.7830370450
21
0.1599289280
31
0.0000000000
11
-3.7604894047
21
0.1283568412
31
0.0000000000
11
-3.7359871148
21
0.0983875372
31
0.0000000000
11
-3.7094795796
21
0.0701005814
31
0.0000000000
11
-3.6809679557
21
0.0436875036
31
0.0000000000
11
-3.6502945963
21
0.0192578486
31
0.0000000000
11
-3.6175348576
21
-0.0028209968
31
0.0000000000
11
-3.5829046142
21
-0.0221035576
31
0.0000000000
0
SPLINE
5
256
100
AcDbEntity
8
0
100
AcDbSpline
62
7
6
CONTINUOUS
70
0
71
3
72
18
73
14
74
12
42
0.0000001000
43
0.0000001000
44
0.0000000001
12
-0.0345150339
22
-0.3550377926
32
0.0000000000
13
-0.3291677819
23
-0.1381652588
33
0.0000000000
40
0.0000000000
40
0.0000000000
40
0.0000000000
40
0.0000000000
40
0.1159046782
40
0.2281524206
40
0.3364578978
40
0.4408720734
40
0.5412882252
40
0.6380992490
40
0.7314616710
40
0.8221177008
40
0.9105145987
40
0.9976740407
40
1.0000000000
40
1.0000000000
40
1.0000000000
40
1.0000000000
10
9.1046382876
20
-22.0930363709
30
0.0000000000
10
9.1033048030
20
-22.1067532179
30
0.0000000000
10
9.0996808753
20
-22.1336702468
30
0.0000000000
10
9.0911934006
20
-22.1728101497
30
0.0000000000
10
9.0798023153
20
-22.2097859196
30
0.0000000000
10
9.0656037649
20
-22.2442662986
30
0.0000000000
10
9.0487051132
20
-22.2759738126
30
0.0000000000
10
9.0292530358
20
-22.3046161943
30
0.0000000000
10
9.0073928217
20
-22.3299619905
30
0.0000000000
10
8.9833220093
20
-22.3517662353
30
0.0000000000
10
8.9572265958
20
-22.3698464852
30
0.0000000000
10
8.9383145167
20
-22.3794647653
30
0.0000000000
10
8.9285035969
20
-22.3836042189
30
0.0000000000
10
8.9282483866
20
-22.3837113412
30
0.0000000000
11
9.1046382876
21
-22.0930363709
31
0.0000000000
11
9.0990727113
21
-22.1340045906
31
0.0000000000
11
9.0905325630
21
-22.1731232903
31
0.0000000000
11
9.0790984829
21
-22.2100263166
31
0.0000000000
11
9.0648540686
21
-22.2444405854
31
0.0000000000
11
9.0479449689
21
-22.2760178888
31
0.0000000000
11
9.0284849214
21
-22.3045464135
31
0.0000000000
11
9.0066838851
21
-22.3297224896
31
0.0000000000
11
8.9826788097
21
-22.3513905757
31
0.0000000000
11
8.9567361668
21
-22.3693142613
31
0.0000000000
11
8.9290134191
21
-22.3833885562
31
0.0000000000
11
8.9282483866
21
-22.3837113412
31
0.0000000000
0
SPLINE
5
257
100
AcDbEntity
8
0
100
AcDbSpline
62
9
6
CONTINUOUS
70
0
71
3
72
15
73
11
74
9
42
0.0000001000
43
0.0000001000
44
0.0000000001
12
0.0037095528
22
-0.2416982311
32
0.0000000000
13
0.2158647374
23
-0.1080186725
33
0.0000000000
40
0.0000000000
40
0.0000000000
40
0.0000000000
40
0.0000000000
40
0.1042369794
40
0.2101565184
40
0.3211465757
40
0.4391036804
40
0.5653742541
40
0.7007759626
40
0.8456627244
40
1.0000000000
40
1.0000000000
40
1.0000000000
40
1.0000000000
10
-9.5300965575
20
-5.3283016668
30
0.0000000000
10
-9.5299676667
20
-5.3366996313
30
0.0000000000
10
-9.5280615239
20
-5.3536056271
30
0.0000000000
10
-9.5203922086
20
-5.3784275382
30
0.0000000000
10
-9.5080835096
20
-5.4025299793
30
0.0000000000
10
-9.4912778674
20
-5.4257701251
30
0.0000000000
10
-9.4701641142
20
-5.4479535266
30
0.0000000000
10
-9.4449518587
20
-5.4688980811
30
0.0000000000
10
-9.4158808853
20
-5.4884264384
30
0.0000000000
10
-9.3947504769
20
-5.5000341466
30
0.0000000000
10
-9.3836451518
20
-5.5055912491
30
0.0000000000
11
-9.5300965575
21
-5.3283016668
31
0.0000000000
11
-9.5273110416
21
-5.3533072470
31
0.0000000000
11
-9.5198473300
21
-5.3777607129
31
0.0000000000
11
-9.5077717363
21
-5.4016760244
31
0.0000000000
11
-9.4911979877
21
-5.4248279486
31
0.0000000000
11
-9.4702821746
21
-5.4469984425
31
0.0000000000
11
-9.4452212805
21
-5.4679787059
31
0.0000000000
11
-9.4162513273
21
-5.4875711482
31
0.0000000000
11
-9.3836451518
21
-5.5055912491
31
0.0000000000
0
SPLINE
5
258
100
AcDbEntity
8
0
100
AcDbSpline
62
9
6
CONTINUOUS
70
0
71
3
72
10
73
6
74
4
42
0.0000001000
43
0.0000001000
44
0.0000000001
12
0.0002272656
22
-0.3467423534
32
0.0000000000
13
0.0004562842
23
-0.3467421277
33
0.0000000000
40
0.0000000000
40
0.0000000000
40
0.0000000000
40
0.0000000000
40
0.3333694106
40
0.6667027409
40
1.0000000000
40
1.0000000000
40
1.0000000000
40
1.0000000000
10
-5.4785578322
20
0.3609185725
30
0.0000000000
10
-5.4785325777
20
0.3223874745
30
0.0000000000
10
-5.4784735921
20
0.2453294540
30
0.0000000000
10
-5.4783596747
20
0.1297487000
30
0.0000000000
10
-5.4782667687
20
0.0526990522
30
0.0000000000
10
-5.4782160759
20
0.0141763186
30
0.0000000000
11
-5.4785578322
21
0.3609185725
31
0.0000000000
11
-5.4784693476
21
0.2453252876
31
0.0000000000
11
-5.4783554289
21
0.1297445355
31
0.0000000000
11
-5.4782160759
21
0.0141763186
31
0.0000000000
0
SPLINE
5
259
100
AcDbEntity
8
0
100
AcDbSpline
62
9
6
CONTINUOUS
70
0
71
3
72
15
73
11
74
9
42
0.0000001000
43
0.0000001000
44
0.0000000001
12
0.0304416774
22
-0.2359456065
32
0.0000000000
13
0.2123059121
23
-0.1067395601
33
0.0000000000
40
0.0000000000
40
0.0000000000
40
0.0000000000
40
0.0000000000
40
0.0442889916
40
0.1650396768
40
0.2886391881
40
0.4169084200
40
0.5513144599
40
0.6929202648
40
0.8423858227
40
1.0000000000
40
1.0000000000
40
1.0000000000
40
1.0000000000
10
-8.8420305536
20
-15.1159055875
30
0.0000000000
10
-8.8415811432
20
-15.1193888518
30
0.0000000000
10
-8.8395111221
20
-15.1323177750
30
0.0000000000
10
-8.8333247290
20
-15.1544346363
30
0.0000000000
10
-8.8208709773
20
-15.1813262370
30
0.0000000000
10
-8.8039233629
20
-15.2069287659
30
0.0000000000
10
-8.7826721203
20
-15.2310070499
30
0.0000000000
10
-8.7573360272
20
-15.2533506415
30
0.0000000000
10
-8.7281656492
20
-15.2737652693
30
0.0000000000
10
-8.7068999274
20
-15.2856609728
30
0.0000000000
10
-8.6957457868
20
-15.2912688621
30
0.0000000000
11
-8.8420305536
21
-15.1159055875
31
0.0000000000
11
-8.8403644846
21
-15.1263075307
31
0.0000000000
11
-8.8326703743
21
-15.1539504790
31
0.0000000000
11
-8.8203930743
21
-15.1806320687
31
0.0000000000
11
-8.8036482400
21
-15.2061009526
31
0.0000000000
11
-8.7825936120
21
-15.2301172072
31
0.0000000000
11
-8.7574275302
21
-15.2524545933
31
0.0000000000
11
-8.7283870656
21
-15.2729026870
31
0.0000000000
11
-8.6957457868
21
-15.2912688621
31
0.0000000000
0
SPLINE
5
25A
100
AcDbEntity
8
0
100
AcDbSpline
62
9
6
CONTINUOUS
70
0
71
3
72
9
73
5
74
3
42
0.0000001000
43
0.0000001000
44
0.0000000001
12
-0.0076188073
22
0.0038089059
32
0.0000000000
13
-0.0075284463
23
0.0039843953
33
0.0000000000
40
0.0000000000
40
0.0000000000
40
0.0000000000
40
0.0000000000
40
0.8389926929
40
1.0000000000
40
1.0000000000
40
1.0000000000
40
1.0000000000
10
-8.4459576840
20
-15.7058549385
30
0.0000000000
10
-8.4480883919
20
-15.7047897238
30
0.0000000000
10
-8.4506156597
20
-15.7034954396
30
0.0000000000
10
-8.4531276211
20
-15.7021719905
30
0.0000000000
10
-8.4535316661
20
-15.7019581515
30
0.0000000000
11
-8.4459576840
21
-15.7058549385
31
0.0000000000
11
-8.4523183361
21
-15.7025974044
31
0.0000000000
11
-8.4535316661
21
-15.7019581515
31
0.0000000000
0
SPLINE
5
25B
100
AcDbEntity
8
0
100
AcDbSpline
62
9
6
CONTINUOUS
70
0
71
3
72
16
73
12
74
10
42
0.0000001000
43
0.0000001000
44
0.0000000001
12
-0.4380892935
22
0.2318567262
32
0.0000000000
13
-0.0639211602
23
0.4911636945
33
0.0000000000
40
0.0000000000
40
0.0000000000
40
0.0000000000
40
0.0000000000
40
0.0961482480
40
0.1963546766
40
0.2988550602
40
0.4045291603
40
0.5141024090
40
0.6281304979
40
0.7469999017
40
0.8709308961
40
1.0000000000
40
1.0000000000
40
1.0000000000
40
1.0000000000
10
-8.4535316661
20
-15.7019581515
30
0.0000000000
10
-8.4675721721
20
-15.6945272789
30
0.0000000000
10
-8.4952613852
20
-15.6774926223
30
0.0000000000
10
-8.5337087161
20
-15.6463490338
30
0.0000000000
10
-8.5690065192
20
-15.6094782448
30
0.0000000000
10
-8.6005737157
20
-15.5674313711
30
0.0000000000
10
-8.6282171483
20
-15.5204986397
30
0.0000000000
10
-8.6517725139
20
-15.4689945572
30
0.0000000000
10
-8.6711017456
20
-15.4132556025
30
0.0000000000
10
-8.6860915922
20
-15.3536459414
30
0.0000000000
10
-8.6929957047
20
-15.3124002148
30
0.0000000000
10
-8.6957457870
20
-15.2912688622
30
0.0000000000
11
-8.4535316661
21
-15.7019581515
31
0.0000000000
11
-8.4941068439
21
-15.6770228898
31
0.0000000000
11
-8.5327108286
21
-15.6458275658
31
0.0000000000
11
-8.5678804147
21
-15.6092134491
31
0.0000000000
11
-8.5993876869
21
-15.5674178764
31
0.0000000000
11
-8.6270285114
21
-15.5207117538
31
0.0000000000
11
-8.6506238018
21
-15.4693978935
31
0.0000000000
11
-8.6700209634
21
-15.4138081960
31
0.0000000000
11
-8.6850940444
21
-15.3543038805
31
0.0000000000
11
-8.6957457870
21
-15.2912688622
31
0.0000000000
0
SPLINE
5
25C
100
AcDbEntity
8
0
100
AcDbSpline
62
9
6
CONTINUOUS
70
0
71
3
72
25
73
21
74
19
42
0.0000001000
43
0.0000001000
44
0.0000000001
12
0.0013679956
22
-1.0309799390
32
0.0000000000
13
0.9221315869
23
-0.4610800825
33
0.0000000000
40
0.0000000000
40
0.0000000000
40
0.0000000000
40
0.0000000000
40
0.0517111543
40
0.1054687234
40
0.1609428515
40
0.2177746693
40
0.2755783500
40
0.3340718202
40
0.3930757028
40
0.4523670745
40
0.5116426745
40
0.5705934836
40
0.6289162109
40
0.6863254656
40
0.7426251122
40
0.7976683404
40
0.8512196291
40
0.9029631058
40
0.9526297993
40
1.0000000000
40
1.0000000000
40
1.0000000000
40
1.0000000000
10
-5.4782160759
20
0.0141763186
30
0.0000000000
10
-5.4781924957
20
-0.0035947356
30
0.0000000000
10
-5.4768439155
20
-0.0398486106
30
0.0000000000
10
-5.4711312101
20
-0.0948986711
30
0.0000000000
10
-5.4616869572
20
-0.1512180529
30
0.0000000000
10
-5.4485814614
20
-0.2082241773
30
0.0000000000
10
-5.4319382432
20
-0.2653794009
30
0.0000000000
10
-5.4119027086
20
-0.3222260872
30
0.0000000000
10
-5.3886211017
20
-0.3783752738
30
0.0000000000
10
-5.3622533794
20
-0.4334408494
30
0.0000000000
10
-5.3329953431
20
-0.4870059932
30
0.0000000000
10
-5.3010803717
20
-0.5386414780
30
0.0000000000
10
-5.2667662324
20
-0.5879362537
30
0.0000000000
10
-5.2303154620
20
-0.6345229079
30
0.0000000000
10
-5.1919796568
20
-0.6780831826
30
0.0000000000
10
-5.1520174597
20
-0.7183119873
30
0.0000000000
10
-5.1107433189
20
-0.7548770109
30
0.0000000000
10
-5.0685450139
20
-0.7874352641
30
0.0000000000
10
-5.0258693909
20
-0.8156784222
30
0.0000000000
10
-4.9966734594
20
-0.8318825678
30
0.0000000000
10
-4.9821129400
20
-0.8391630531
30
0.0000000000
11
-5.4782160759
21
0.0141763186
31
0.0000000000
11
-5.4762943280
21
-0.0391022437
31
0.0000000000
11
-5.4706266057
21
-0.0942347071
31
0.0000000000
11
-5.4612114737
21
-0.1506471835
31
0.0000000000
11
-5.4481184620
21
-0.2077580926
31
0.0000000000
11
-5.4314828023
21
-0.2649835920
31
0.0000000000
11
-5.4114543759
21
-0.3218662189
31
0.0000000000
11
-5.3881645460
21
-0.3780631991
31
0.0000000000
11
-5.3617669709
21
-0.4331978820
31
0.0000000000
11
-5.3324676849
21
-0.4868283714
31
0.0000000000
11
-5.3005026033
21
-0.5385206932
31
0.0000000000
11
-5.2661327740
21
-0.5878591712
31
0.0000000000
11
-5.2296372305
21
-0.6344561233
31
0.0000000000
11
-5.1912621452
21
-0.6780042828
31
0.0000000000
11
-5.1512354662
21
-0.7182318704
31
0.0000000000
11
-5.1098722752
21
-0.7548005661
31
0.0000000000
11
-5.0675960836
21
-0.7873363350
31
0.0000000000
11
-5.0248538082
21
-0.8155337086
31
0.0000000000
11
-4.9821129400
21
-0.8391630531
31
0.0000000000
0
SPLINE
5
25D
100
AcDbEntity
8
0
100
AcDbSpline
62
9
6
CONTINUOUS
70
0
71
3
72
25
73
21
74
19
42
0.0000001000
43
0.0000001000
44
0.0000000001
12
0.6854043203
22
-0.3426913547
32
0.0000000000
13
-0.0009861399
23
0.7662998593
33
0.0000000000
40
0.0000000000
40
0.0000000000
40
0.0000000000
40
0.0000000000
40
0.0610857857
40
0.1199598482
40
0.1764974838
40
0.2307314636
40
0.2828398805
40
0.3332340031
40
0.3825108599
40
0.4312987569
40
0.4801991011
40
0.5298040715
40
0.5806584499
40
0.6332310983
40
0.6879609098
40
0.7452263900
40
0.8051992208
40
0.8678083382
40
0.9328528789
40
1.0000000000
40
1.0000000000
40
1.0000000000
40
1.0000000000
10
0.9547732043
20
-3.8076061253
30
0.0000000000
10
0.9687293581
20
-3.8145839822
30
0.0000000000
10
0.9967200855
20
-3.8271646922
30
0.0000000000
10
1.0394344622
20
-3.8417975249
30
0.0000000000
10
1.0817219433
20
-3.8516303747
30
0.0000000000
10
1.1231350240
20
-3.8565017513
30
0.0000000000
10
1.1632758640
20
-3.8563417951
30
0.0000000000
10
1.2018126695
20
-3.8511467358
30
0.0000000000
10
1.2384656898
20
-3.8409473596
30
0.0000000000
10
1.2729566808
20
-3.8258045599
30
0.0000000000
10
1.3049933920
20
-3.8058330515
30
0.0000000000
10
1.3342960229
20
-3.7812105724
30
0.0000000000
10
1.3606236288
20
-3.7521640105
30
0.0000000000
10
1.3837872902
20
-3.7189420395
30
0.0000000000
10
1.4036424664
20
-3.6817888156
30
0.0000000000
10
1.4200584981
20
-3.6409601245
30
0.0000000000
10
1.4329039722
20
-3.5967817867
30
0.0000000000
10
1.4420701721
20
-3.5496786882
30
0.0000000000
10
1.4475010663
20
-3.5001667546
30
0.0000000000
10
1.4486237824
20
-3.4663841843
30
0.0000000000
10
1.4486017102
20
-3.4492325744
30
0.0000000000
11
0.9547732043
21
-3.8076061253
31
0.0000000000
11
0.9975060665
21
-3.8267133209
31
0.0000000000
11
1.0402178884
21
-3.8412420387
31
0.0000000000
11
1.0824400446
21
-3.8509543701
31
0.0000000000
11
1.1237265960
21
-3.8557098762
31
0.0000000000
11
1.1636565222
21
-3.8554603897
31
0.0000000000
11
1.2019177306
21
-3.8502301139
31
0.0000000000
11
1.2382842784
21
-3.8400635884
31
0.0000000000
11
1.2725115550
21
-3.8250229532
31
0.0000000000
11
1.3043227153
21
-3.8052182142
31
0.0000000000
11
1.3334594106
21
-3.7808053293
31
0.0000000000
11
1.3596884009
21
-3.7519838038
31
0.0000000000
11
1.3828065479
21
-3.7189906371
31
0.0000000000
11
1.4026628061
21
-3.6820494795
31
0.0000000000
11
1.4191277467
21
-3.6413728854
31
0.0000000000
11
1.4320534145
21
-3.5972708191
31
0.0000000000
11
1.4413071312
21
-3.5501942919
31
0.0000000000
11
1.4468219952
21
-3.5006566590
31
0.0000000000
11
1.4486017102
21
-3.4492325744
31
0.0000000000
0
SPLINE
5
25E
100
AcDbEntity
8
0
100
AcDbSpline
62
9
6
CONTINUOUS
70
0
71
3
72
10
73
6
74
4
42
0.0000001000
43
0.0000001000
44
0.0000000001
12
-0.0004483936
22
0.3467391765
32
0.0000000000
13
-0.0002233342
23
0.3467393945
33
0.0000000000
40
0.0000000000
40
0.0000000000
40
0.0000000000
40
0.0000000000
40
0.3332966219
40
0.6666299523
40
1.0000000000
40
1.0000000000
40
1.0000000000
40
1.0000000000
10
1.4486017102
20
-3.4492325744
30
0.0000000000
10
1.4485518942
20
-3.4107102424
30
0.0000000000
10
1.4484605950
20
-3.3336613244
30
0.0000000000
10
1.4483486479
20
-3.2180815557
30
0.0000000000
10
1.4482906826
20
-3.1410241189
30
0.0000000000
10
1.4482658649
20
-3.1024932761
30
0.0000000000
11
1.4486017102
21
-3.4492325744
31
0.0000000000
11
1.4484647675
21
-3.3336655627
31
0.0000000000
11
1.4483528191
21
-3.2180857958
31
0.0000000000
11
1.4482658649
21
-3.1024932761
31
0.0000000000
0
SPLINE
5
25F
100
AcDbEntity
8
0
100
AcDbSpline
62
9
6
CONTINUOUS
70
0
71
3
72
24
73
20
74
18
42
0.0000001000
43
0.0000001000
44
0.0000000001
12
-0.3235755358
22
-0.1596315065
32
0.0000000000
13
-0.3227193546
23
0.1613553947
33
0.0000000000
40
0.0000000000
40
0.0000000000
40
0.0000000000
40
0.0000000000
40
0.0520628373
40
0.1066359878
40
0.1634537828
40
0.2222278042
40
0.2826364033
40
0.3443318355
40
0.4069445003
40
0.4700915858
40
0.5333818762
40
0.5964228665
40
0.6588248058
40
0.7202080747
40
0.7802079466
40
0.8384833196
40
0.8947210955
40
0.9486435905
40
1.0000000000
40
1.0000000000
40
1.0000000000
40
1.0000000000
10
5.9416266121
20
-4.7817225078
30
0.0000000000
10
5.9360111919
20
-4.7844927975
30
0.0000000000
10
5.9242987195
20
-4.7897468684
30
0.0000000000
10
5.9058686427
20
-4.7966206944
30
0.0000000000
10
5.8862921691
20
-4.8026266213
30
0.0000000000
10
5.8657346484
20
-4.8077133808
30
0.0000000000
10
5.8443658369
20
-4.8118390478
30
0.0000000000
10
5.8223628529
20
-4.8149692696
30
0.0000000000
10
5.7999081346
20
-4.8170780085
30
0.0000000000
10
5.7771881791
20
-4.8181476768
30
0.0000000000
10
5.7543916070
20
-4.8181693664
30
0.0000000000
10
5.7317077609
20
-4.8171429026
30
0.0000000000
10
5.7093249593
20
-4.8150768471
30
0.0000000000
10
5.6874290826
20
-4.8119884434
30
0.0000000000
10
5.6662016248
20
-4.8079033834
30
0.0000000000
10
5.6458184652
20
-4.8028556712
30
0.0000000000
10
5.6264478010
20
-4.7968868636
30
0.0000000000
10
5.6082530325
20
-4.7900478137
30
0.0000000000
10
5.5967110594
20
-4.7848114627
30
0.0000000000
10
5.5911864903
20
-4.7820492515
30
0.0000000000
11
5.9416266121
21
-4.7817225078
31
0.0000000000
11
5.9245002699
21
-4.7894397250
31
0.0000000000
11
5.9060605075
21
-4.7963455880
31
0.0000000000
11
5.8864680755
21
-4.8023790391
31
0.0000000000
11
5.8658868650
21
-4.8074895428
31
0.0000000000
11
5.8444886300
21
-4.8116344736
31
0.0000000000
11
5.8224516060
21
-4.8147792904
31
0.0000000000
11
5.7999599172
21
-4.8168977013
31
0.0000000000
11
5.7772012049
21
-4.8179720320
31
0.0000000000
11
5.7543654899
21
-4.8179933172
31
0.0000000000
11
5.7316431356
21
-4.8169613793
31
0.0000000000
11
5.7092238989
21
-4.8148848343
31
0.0000000000
11
5.6872948119
21
-4.8117810124
31
0.0000000000
11
5.6660390875
21
-4.8076758668
31
0.0000000000
11
5.6456337615
21
-4.8026036089
31
0.0000000000
11
5.6262491156
21
-4.7966065484
31
0.0000000000
11
5.6080472925
21
-4.7897349149
31
0.0000000000
11
5.5911864903
21
-4.7820492515
31
0.0000000000
0
SPLINE
5
260
100
AcDbEntity
8
0
100
AcDbSpline
62
9
6
CONTINUOUS
70
0
71
3
72
14
73
10
74
8
42
0.0000001000
43
0.0000001000
44
0.0000000001
12
0.0001324625
22
-0.0966960666
32
0.0000000000
13
0.0862728400
23
-0.0431378904
33
0.0000000000
40
0.0000000000
40
0.0000000000
40
0.0000000000
40
0.0000000000
40
0.0662408637
40
0.1937946971
40
0.3289689898
40
0.4754371188
40
0.6355296894
40
0.8103501270
40
1.0000000000
40
1.0000000000
40
1.0000000000
40
1.0000000000
10
1.3900248495
20
-3.3785043887
30
0.0000000000
10
1.3900277744
20
-3.3806394657
30
0.0000000000
10
1.3904312907
20
-3.3868855030
30
0.0000000000
10
1.3930710246
20
-3.3972262744
30
0.0000000000
10
1.3990721775
20
-3.4090378093
30
0.0000000000
10
1.4078163740
20
-3.4203192334
30
0.0000000000
10
1.4191481858
20
-3.4309404722
30
0.0000000000
10
1.4328974843
20
-3.4407767509
30
0.0000000000
10
1.4431478325
20
-3.4465055426
30
0.0000000000
10
1.4486017102
20
-3.4492325744
30
0.0000000000
11
1.3900248495
21
-3.3785043887
31
0.0000000000
11
1.3904381648
21
-3.3848913456
31
0.0000000000
11
1.3934211611
21
-3.3968276636
31
0.0000000000
11
1.3992393256
21
-3.4084960096
31
0.0000000000
11
1.4078087553
21
-3.4197281159
31
0.0000000000
11
1.4190058716
21
-3.4303620057
31
0.0000000000
11
1.4326692023
21
-3.4402443292
31
0.0000000000
11
1.4486017102
21
-3.4492325744
31
0.0000000000
0
SPLINE
5
261
100
AcDbEntity
8
0
100
AcDbSpline
62
9
6
CONTINUOUS
70
0
71
3
72
24
73
20
74
18
42
0.0000001000
43
0.0000001000
44
0.0000000001
12
-0.2115313032
22
-0.1118275522
32
0.0000000000
13
0.2140098144
23
-0.1070079111
33
0.0000000000
40
0.0000000000
40
0.0000000000
40
0.0000000000
40
0.0000000000
40
0.0728729396
40
0.1415012203
40
0.2058305976
40
0.2659892935
40
0.3222901230
40
0.3752566615
40
0.4256358481
40
0.4743860483
40
0.5226183929
40
0.5714973779
40
0.6221214930
40
0.6754276074
40
0.7321374712
40
0.7927499948
40
0.8575561611
40
0.9266655309
40
1.0000000000
40
1.0000000000
40
1.0000000000
40
1.0000000000
10
-9.2740698576
20
2.8261257270
30
0.0000000000
10
-9.2792081602
20
2.8234093262
30
0.0000000000
10
-9.2890002043
20
2.8177709509
30
0.0000000000
10
-9.3025106328
20
2.8084087012
30
0.0000000000
10
-9.3143043049
20
2.7984610199
30
0.0000000000
10
-9.3242798917
20
2.7880050471
30
0.0000000000
10
-9.3323509545
20
2.7771181442
30
0.0000000000
10
-9.3384401926
20
2.7658812310
30
0.0000000000
10
-9.3424791491
20
2.7543831262
30
0.0000000000
10
-9.3444124143
20
2.7427267093
30
0.0000000000
10
-9.3442086080
20
2.7310302454
30
0.0000000000
10
-9.3418706814
20
2.7194183540
30
0.0000000000
10
-9.3374350340
20
2.7080072674
30
0.0000000000
10
-9.3309604355
20
2.6968971989
30
0.0000000000
10
-9.3225176564
20
2.6861747586
30
0.0000000000
10
-9.3121861192
20
2.6759191625
30
0.0000000000
10
-9.3000545272
20
2.6662062634
30
0.0000000000
10
-9.2862272510
20
2.6571117682
30
0.0000000000
10
-9.2762419068
20
2.6516650205
30
0.0000000000
10
-9.2710104748
20
2.6490492310
30
0.0000000000
11
-9.2740698576
21
2.8261257270
31
0.0000000000
11
-9.2891602390
21
2.8173902090
31
0.0000000000
11
-9.3026309814
21
2.8079996978
31
0.0000000000
11
-9.3143631394
21
2.7980359609
31
0.0000000000
11
-9.3242584370
21
2.7875823489
31
0.0000000000
11
-9.3322343283
21
2.7767261023
31
0.0000000000
11
-9.3382243441
21
2.7655576435
31
0.0000000000
11
-9.3421783946
21
2.7541702897
31
0.0000000000
11
-9.3440634791
21
2.7426590821
31
0.0000000000
11
-9.3438638844
21
2.7311201784
31
0.0000000000
11
-9.3415813005
21
2.7196497347
31
0.0000000000
11
-9.3372347916
21
2.7083435191
31
0.0000000000
11
-9.3308606353
21
2.6972958524
31
0.0000000000
11
-9.3225121325
21
2.6865990364
31
0.0000000000
11
-9.3122588685
21
2.6763421667
31
0.0000000000
11
-9.3001863553
21
2.6666108271
31
0.0000000000
11
-9.2863957309
21
2.6574864115
31
0.0000000000
11
-9.2710104748
21
2.6490492310
31
0.0000000000
0
SPLINE
5
262
100
AcDbEntity
8
0
100
AcDbSpline
62
9
6
CONTINUOUS
70
0
71
3
72
14
73
10
74
8
42
0.0000001000
43
0.0000001000
44
0.0000000001
12
0.0000697795
22
-0.0966939972
32
0.0000000000
13
0.0862708267
23
-0.0431361460
33
0.0000000000
40
0.0000000000
40
0.0000000000
40
0.0000000000
40
0.0000000000
40
0.0665190497
40
0.1939722712
40
0.3290694318
40
0.4754842846
40
0.6355449034
40
0.8103509468
40
1.0000000000
40
1.0000000000
40
1.0000000000
40
1.0000000000
10
1.3896890674
20
-3.0317736469
30
0.0000000000
10
1.3896906146
20
-3.0339176445
30
0.0000000000
10
1.3900928731
20
-3.0401695439
30
0.0000000000
10
1.3927357709
20
-3.0505127024
30
0.0000000000
10
1.3987371950
20
-3.0623153441
30
0.0000000000
10
1.4074814421
20
-3.0735895588
30
0.0000000000
10
1.4188131533
20
-3.0842055035
30
0.0000000000
10
1.4325622907
20
-3.0940385079
30
0.0000000000
10
1.4428122056
20
-3.0997663325
30
0.0000000000
10
1.4482659325
20
-3.1024932422
30
0.0000000000
11
1.3896890674
21
-3.0317736469
31
0.0000000000
11
1.3901024104
21
-3.0381873468
31
0.0000000000
11
1.3930854040
21
-3.0501133230
31
0.0000000000
11
1.3989035656
21
-3.0617729666
31
0.0000000000
11
1.4074729918
21
-3.0729981359
31
0.0000000000
11
1.4186701038
21
-3.0836269542
31
0.0000000000
11
1.4323334297
21
-3.0935061450
31
0.0000000000
11
1.4482659325
21
-3.1024932422
31
0.0000000000
0
SPLINE
5
263
100
AcDbEntity
8
0
100
AcDbSpline
62
7
6
CONTINUOUS
70
0
71
3
72
23
73
19
74
17
42
0.0000001000
43
0.0000001000
44
0.0000000001
12
-0.0022138358
22
0.3062104756
32
0.0000000000
13
-0.2941502250
23
0.0851199245
33
0.0000000000
40
0.0000000000
40
0.0000000000
40
0.0000000000
40
0.0000000000
40
0.0575100427
40
0.1165761008
40
0.1771270490
40
0.2390306071
40
0.3021040242
40
0.3661248615
40
0.4308411866
40
0.4959816051
40
0.5612644497
40
0.6264061518
40
0.6911290767
40
0.7551685812
40
0.8182793104
40
0.8802413563
40
0.9408657873
40
1.0000000000
40
1.0000000000
40
1.0000000000
40
1.0000000000
10
-4.2326945293
20
0.8874063860
30
0.0000000000
10
-4.2327369686
20
0.8932764451
30
0.0000000000
10
-4.2334519692
20
0.9051783258
30
0.0000000000
10
-4.2362941608
20
0.9230590490
30
0.0000000000
10
-4.2408729645
20
0.9410384547
30
0.0000000000
10
-4.2471256014
20
0.9589375402
30
0.0000000000
10
-4.2549742024
20
0.9765832461
30
0.0000000000
10
-4.2643265476
20
0.9938060495
30
0.0000000000
10
-4.2750771533
20
1.0104431034
30
0.0000000000
10
-4.2871086508
20
1.0263396931
30
0.0000000000
10
-4.3002933735
20
1.0413509007
30
0.0000000000
10
-4.3144950591
20
1.0553428809
30
0.0000000000
10
-4.3295705656
20
1.0681938763
30
0.0000000000
10
-4.3453716239
20
1.0797949615
30
0.0000000000
10
-4.3617462384
20
1.0900504605
30
0.0000000000
10
-4.3785409622
20
1.0988784180
30
0.0000000000
10
-4.3955994134
20
1.1062098511
30
0.0000000000
10
-4.4072004953
20
1.1101153576
30
0.0000000000
10
-4.4129986093
20
1.1117931908
30
0.0000000000
11
-4.2326945293
21
0.8874063860
31
0.0000000000
11
-4.2337236616
21
0.9049869277
31
0.0000000000
11
-4.2365380424
21
0.9228537437
31
0.0000000000
11
-4.2410926602
21
0.9408274611
31
0.0000000000
11
-4.2473261241
21
0.9587292591
31
0.0000000000
11
-4.2551611931
21
0.9763829212
31
0.0000000000
11
-4.2645057013
21
0.9936169349
31
0.0000000000
11
-4.2752537756
21
1.0102664288
31
0.0000000000
11
-4.2872873594
21
1.0261750316
31
0.0000000000
11
-4.3004778890
21
1.0411964345
31
0.0000000000
11
-4.3146880356
21
1.0551956558
31
0.0000000000
11
-4.3297734945
21
1.0680500630
31
0.0000000000
11
-4.3455847090
21
1.0796500940
31
0.0000000000
11
-4.3619684531
21
1.0898997040
31
0.0000000000
11
-4.3787693741
21
1.0987166664
31
0.0000000000
11
-4.3958313313
21
1.1060326510
31
0.0000000000
11
-4.4129986093
21
1.1117931908
31
0.0000000000
0
SPLINE
5
264
100
AcDbEntity
8
0
100
AcDbSpline
62
9
6
CONTINUOUS
70
0
71
3
72
20
73
16
74
14
42
0.0000001000
43
0.0000001000
44
0.0000000001
12
-0.0021210958
22
0.2940834108
32
0.0000000000
13
-0.2621036391
23
0.1333837845
33
0.0000000000
40
0.0000000000
40
0.0000000000
40
0.0000000000
40
0.0000000000
40
0.0726108853
40
0.1483763001
40
0.2267469670
40
0.3070818633
40
0.3886752785
40
0.4707818463
40
0.5526404027
40
0.6334973921
40
0.7126304901
40
0.7893731369
40
0.8631407823
40
0.9334597868
40
1.0000000000
40
1.0000000000
40
1.0000000000
40
1.0000000000
10
-5.1616020208
20
0.4211465183
30
0.0000000000
10
-5.1616533590
20
0.4282644039
30
0.0000000000
10
-5.1624844212
20
0.4428111717
30
0.0000000000
10
-5.1657153089
20
0.4648285035
30
0.0000000000
10
-5.1709119584
20
0.4872440543
30
0.0000000000
10
-5.1779990190
20
0.5097327924
30
0.0000000000
10
-5.1868741435
20
0.5319716438
30
0.0000000000
10
-5.1974092051
20
0.5536396083
30
0.0000000000
10
-5.2094521503
20
0.5744240286
30
0.0000000000
10
-5.2228292413
20
0.5940249395
30
0.0000000000
10
-5.2373478972
20
0.6121597338
30
0.0000000000
10
-5.2527993090
20
0.6285670559
30
0.0000000000
10
-5.2689636187
20
0.6430113726
30
0.0000000000
10
-5.2856076889
20
0.6552830019
30
0.0000000000
10
-5.2972045148
20
0.6620945278
30
0.0000000000
10
-5.3030179922
20
0.6650529896
30
0.0000000000
11
-5.1616020208
21
0.4211465183
31
0.0000000000
11
-5.1627740407
21
0.4424685432
31
0.0000000000
11
-5.1659729393
21
0.4645196544
31
0.0000000000
11
-5.1711520743
21
0.4869783287
31
0.0000000000
11
-5.1782359301
21
0.5095171002
31
0.0000000000
11
-5.1871212185
21
0.5318073352
31
0.0000000000
11
-5.1976783851
21
0.5535240235
31
0.0000000000
11
-5.2097534979
21
0.5743505174
31
0.0000000000
11
-5.2231704920
21
0.5939831490
31
0.0000000000
11
-5.2377337366
21
0.6121356574
31
0.0000000000
11
-5.2532308873
21
0.6285433632
31
0.0000000000
11
-5.2694359824
21
0.6429670278
31
0.0000000000
11
-5.2861127379
21
0.6551963413
31
0.0000000000
11
-5.3030179922
21
0.6650529896
31
0.0000000000
0
SPLINE
5
265
100
AcDbEntity
8
0
100
AcDbSpline
62
9
6
CONTINUOUS
70
0
71
3
72
20
73
16
74
14
42
0.0000001000
43
0.0000001000
44
0.0000000001
12
-0.2600540592
22
-0.1280284117
32
0.0000000000
13
-0.2592604236
23
0.1296280088
33
0.0000000000
40
0.0000000000
40
0.0000000000
40
0.0000000000
40
0.0000000000
40
0.0681704626
40
0.1405828800
40
0.2166436927
40
0.2956446117
40
0.3767929276
40
0.4592380186
40
0.5420956298
40
0.6244710023
40
0.7054816653
40
0.7842806241
40
0.8600807692
40
0.9321816167
40
1.0000000000
40
1.0000000000
40
1.0000000000
40
1.0000000000
10
-5.1969546679
20
0.3604419744
30
0.0000000000
10
-5.2028640030
20
0.3575327223
30
0.0000000000
10
-5.2153485281
20
0.3521270689
30
0.0000000000
10
-5.2351979447
20
0.3454204009
30
0.0000000000
10
-5.2565029043
20
0.3399441679
30
0.0000000000
10
-5.2789586176
20
0.3357773820
30
0.0000000000
10
-5.3022459265
20
0.3329793918
30
0.0000000000
10
-5.3260321045
20
0.3315905167
30
0.0000000000
10
-5.3499771250
20
0.3316307398
30
0.0000000000
10
-5.3737384667
20
0.3330994796
30
0.0000000000
10
-5.3969764815
20
0.3359756018
30
0.0000000000
10
-5.4193591906
20
0.3402176665
30
0.0000000000
10
-5.4405685667
20
0.3457652820
30
0.0000000000
10
-5.4603012502
20
0.3525384393
30
0.0000000000
10
-5.4726969579
20
0.3579881852
30
0.0000000000
10
-5.4785578322
20
0.3609185725
30
0.0000000000
11
-5.1969546679
21
0.3604419744
31
0.0000000000
11
-5.2150649391
21
0.3525379259
31
0.0000000000
11
-5.2349355889
21
0.3457764300
31
0.0000000000
11
-5.2562800651
21
0.3402549934
31
0.0000000000
11
-5.2787905620
21
0.3360532398
31
0.0000000000
11
-5.3021424584
21
0.3332317624
31
0.0000000000
11
-5.3259989996
21
0.3318312493
31
0.0000000000
11
-5.3500161536
21
0.3318718970
31
0.0000000000
11
-5.3738475721
21
0.3333531195
31
0.0000000000
11
-5.3971495853
21
0.3362535561
31
0.0000000000
11
-5.4195861577
21
0.3405313801
31
0.0000000000
11
-5.4408337346
21
0.3461249015
31
0.0000000000
11
-5.4605859073
21
0.3529534569
31
0.0000000000
11
-5.4785578322
21
0.3609185725
31
0.0000000000
0
SPLINE
5
266
100
AcDbEntity
8
0
100
AcDbSpline
62
9
6
CONTINUOUS
70
0
71
3
72
20
73
16
74
14
42
0.0000001000
43
0.0000001000
44
0.0000000001
12
-0.2599674970
22
-0.1282386903
32
0.0000000000
13
-0.2592749560
23
0.1296331686
33
0.0000000000
40
0.0000000000
40
0.0000000000
40
0.0000000000
40
0.0000000000
40
0.0681897816
40
0.1406165617
40
0.2166870805
40
0.2956934298
40
0.3768433480
40
0.4592867230
40
0.5421398701
40
0.6245086616
40
0.7055113233
40
0.7843016264
40
0.8600933050
40
0.9321868072
40
1.0000000000
40
1.0000000000
40
1.0000000000
40
1.0000000000
10
-5.1966130050
20
0.0138383954
30
0.0000000000
10
-5.2025220472
20
0.0109235393
30
0.0000000000
10
-5.2150060429
20
0.0055066304
30
0.0000000000
10
-5.2348555255
20
-0.0012164532
30
0.0000000000
10
-5.2561605561
20
-0.0067086058
30
0.0000000000
10
-5.2786163417
20
-0.0108905907
30
0.0000000000
10
-5.3019037228
20
-0.0137028472
30
0.0000000000
10
-5.3256899739
20
-0.0151048546
30
0.0000000000
10
-5.3496350699
20
-0.0150764433
30
0.0000000000
10
-5.3733964919
20
-0.0136180267
30
0.0000000000
10
-5.3966345949
20
-0.0107505902
30
0.0000000000
10
-5.4190174032
20
-0.0065154474
30
0.0000000000
10
-5.4402268943
20
-0.0009728859
30
0.0000000000
10
-5.4599597075
20
0.0057971628
30
0.0000000000
10
-5.4723552962
20
0.0112460518
30
0.0000000000
10
-5.4782160503
20
0.0141763315
30
0.0000000000
11
-5.1966130050
21
0.0138383954
31
0.0000000000
11
-5.2147232619
21
0.0059177202
31
0.0000000000
11
-5.2345938982
21
-0.0008601622
31
0.0000000000
11
-5.2559383620
21
-0.0063975088
31
0.0000000000
11
-5.2784488474
21
-0.0106144660
31
0.0000000000
11
-5.3018007332
21
-0.0134502218
31
0.0000000000
11
-5.3256572648
21
-0.0148638820
31
0.0000000000
11
-5.3496744101
21
-0.0148350603
31
0.0000000000
11
-5.3735058206
21
-0.0133641725
31
0.0000000000
11
-5.3968078265
21
-0.0104724300
31
0.0000000000
11
-5.4192443924
21
-0.0062015343
31
0.0000000000
11
-5.4404919633
21
-0.0006130755
31
0.0000000000
11
-5.4602441305
21
0.0062123560
31
0.0000000000
11
-5.4782160503
21
0.0141763315
31
0.0000000000
0
SPLINE
5
267
100
AcDbEntity
8
0
100
AcDbSpline
62
9
6
CONTINUOUS
70
0
71
3
72
20
73
16
74
14
42
0.0000001000
43
0.0000001000
44
0.0000000001
12
-0.2614947987
22
-0.1335423045
32
0.0000000000
13
0.0007194237
23
-0.2936197528
33
0.0000000000
40
0.0000000000
40
0.0000000000
40
0.0000000000
40
0.0000000000
40
0.0669653201
40
0.1375889044
40
0.2115461446
40
0.2883738356
40
0.3675014617
40
0.4482791819
40
0.5300033974
40
0.6119407464
40
0.6933512670
40
0.7735113792
40
0.8517373174
40
0.9274096971
40
1.0000000000
40
1.0000000000
40
1.0000000000
40
1.0000000000
10
-4.8419263374
20
-0.5953521411
30
0.0000000000
10
-4.8477633651
20
-0.5983330421
30
0.0000000000
10
-4.8593964110
20
-0.6051811889
30
0.0000000000
10
-4.8760767589
20
-0.6174997916
30
0.0000000000
10
-4.8922437468
20
-0.6319745520
30
0.0000000000
10
-4.9076657695
20
-0.6483966946
30
0.0000000000
10
-4.9221249209
20
-0.6665320364
30
0.0000000000
10
-4.9354147527
20
-0.6861210187
30
0.0000000000
10
-4.9473453359
20
-0.7068832030
30
0.0000000000
10
-4.9577458078
20
-0.7285210971
30
0.0000000000
10
-4.9664671362
20
-0.7507247431
30
0.0000000000
10
-4.9733842972
20
-0.7731759802
30
0.0000000000
10
-4.9783980438
20
-0.7955546371
30
0.0000000000
10
-4.9814361141
20
-0.8175384979
30
0.0000000000
10
-4.9821303477
20
-0.8320584042
30
0.0000000000
10
-4.9821129400
20
-0.8391630531
30
0.0000000000
11
-4.8419263374
21
-0.5953521411
31
0.0000000000
11
-4.8589013432
21
-0.6052747991
31
0.0000000000
11
-4.8756127501
21
-0.6175521375
31
0.0000000000
11
-4.8918186405
21
-0.6320064271
31
0.0000000000
11
-4.9072844148
21
-0.6484284246
31
0.0000000000
11
-4.9217861874
21
-0.6665804022
31
0.0000000000
11
-4.9351140277
21
-0.6861995881
31
0.0000000000
11
-4.9470749993
21
-0.7070019711
31
0.0000000000
11
-4.9574959529
21
-0.7286864120
31
0.0000000000
11
-4.9662260327
21
-0.7509390023
31
0.0000000000
11
-4.9731388602
21
-0.7734376094
31
0.0000000000
11
-4.9781343642
21
-0.7958565388
31
0.0000000000
11
-4.9811402286
21
-0.8178712498
31
0.0000000000
11
-4.9821129400
21
-0.8391630531
31
0.0000000000
0
SPLINE
5
268
100
AcDbEntity
8
0
100
AcDbSpline
62
9
6
CONTINUOUS
70
0
71
3
72
20
73
16
74
14
42
0.0000001000
43
0.0000001000
44
0.0000000001
12
-0.2614947987
22
-0.1335423045
32
0.0000000000
13
0.0007194237
23
-0.2936197528
33
0.0000000000
40
0.0000000000
40
0.0000000000
40
0.0000000000
40
0.0000000000
40
0.0669653077
40
0.1375888792
40
0.2115461067
40
0.2883737863
40
0.3675014030
40
0.4482791167
40
0.5300033293
40
0.6119406796
40
0.6933512058
40
0.7735113279
40
0.8517372800
40
0.9274096771
40
1.0000000000
40
1.0000000000
40
1.0000000000
40
1.0000000000
10
1.0949598068
20
-3.5637952132
30
0.0000000000
10
1.0891227803
20
-3.5667761137
30
0.0000000000
10
1.0774897364
20
-3.5736242591
30
0.0000000000
10
1.0608093912
20
-3.5859428591
30
0.0000000000
10
1.0446424054
20
-3.6004176164
30
0.0000000000
10
1.0292203842
20
-3.6168397559
30
0.0000000000
10
1.0147612335
20
-3.6349750949
30
0.0000000000
10
1.0014714016
20
-3.6545640749
30
0.0000000000
10
0.9895408175
20
-3.6753262578
30
0.0000000000
10
0.9791403441
20
-3.6969641516
30
0.0000000000
10
0.9704190138
20
-3.7191677987
30
0.0000000000
10
0.9635018508
20
-3.7416190381
30
0.0000000000
10
0.9584881023
20
-3.7639976988
30
0.0000000000
10
0.9554500306
20
-3.7859815644
30
0.0000000000
10
0.9547557965
20
-3.8005014744
30
0.0000000000
10
0.9547732043
20
-3.8076061253
30
0.0000000000
11
1.0949598068
21
-3.5637952132
31
0.0000000000
11
1.0779848041
21
-3.5737178693
31
0.0000000000
11
1.0612733999
21
-3.5859952050
31
0.0000000000
11
1.0450675117
21
-3.6004494914
31
0.0000000000
11
1.0296017390
21
-3.6168714858
31
0.0000000000
11
1.0150999671
21
-3.6350234604
31
0.0000000000
11
1.0017721267
21
-3.6546426440
31
0.0000000000
11
0.9898111543
21
-3.6754450256
31
0.0000000000
11
0.9793901992
21
-3.6971294661
31
0.0000000000
11
0.9706601175
21
-3.7193820575
31
0.0000000000
11
0.9637472879
21
-3.7418806669
31
0.0000000000
11
0.9587517820
21
-3.7642996001
31
0.0000000000
11
0.9557459162
21
-3.7863143161
31
0.0000000000
11
0.9547732043
21
-3.8076061253
31
0.0000000000
0
SPLINE
5
269
100
AcDbEntity
8
0
100
AcDbSpline
62
9
6
CONTINUOUS
70
0
71
3
72
13
73
9
74
7
42
0.0000001000
43
0.0000001000
44
0.0000000001
12
-0.0848685491
22
0.0416226190
32
0.0000000000
13
-0.0840217549
23
-0.0436363352
33
0.0000000000
40
0.0000000000
40
0.0000000000
40
0.0000000000
40
0.0000000000
40
0.1971679753
40
0.3826471415
40
0.5574068300
40
0.7232826624
40
0.8829692522
40
1.0000000000
40
1.0000000000
40
1.0000000000
40
1.0000000000
10
1.6231940074
20
-2.7980530102
30
0.0000000000
10
1.6176162207
20
-2.7953174610
30
0.0000000000
10
1.6064749819
20
-2.7906156587
30
0.0000000000
10
1.5894827424
20
-2.7859594988
30
0.0000000000
10
1.5729520891
20
-2.7839960012
30
0.0000000000
10
1.5571253084
20
-2.7847804364
30
0.0000000000
10
1.5434775897
20
-2.7880357150
30
0.0000000000
10
1.5354310516
20
-2.7914916293
30
0.0000000000
10
1.5321533420
20
-2.7931938936
30
0.0000000000
11
1.6231940074
21
-2.7980530102
31
0.0000000000
11
1.6059956423
21
-2.7908717401
31
0.0000000000
11
1.5890665970
21
-2.7863112753
31
0.0000000000
11
1.5726538646
21
-2.7844380312
31
0.0000000000
11
1.5569969126
21
-2.7852792394
31
0.0000000000
11
1.5423241959
21
-2.7888225490
31
0.0000000000
11
1.5321533420
21
-2.7931938936
31
0.0000000000
0
SPLINE
5
26A
100
AcDbEntity
8
0
100
AcDbSpline
62
9
6
CONTINUOUS
70
0
71
3
72
21
73
17
74
15
42
0.0000001000
43
0.0000001000
44
0.0000000001
12
-0.0026710390
22
0.3672501656
32
0.0000000000
13
-0.3261118675
23
0.1689108300
33
0.0000000000
40
0.0000000000
40
0.0000000000
40
0.0000000000
40
0.0000000000
40
0.0673928350
40
0.1375555479
40
0.2100479423
40
0.2843591485
40
0.3599266302
40
0.4361537534
40
0.5124264577
40
0.5881294902
40
0.6626626099
40
0.7354571675
40
0.8059935095
40
0.8738197350
40
0.9385724257
40
1.0000000000
40
1.0000000000
40
1.0000000000
40
1.0000000000
10
6.1168338528
20
-5.0873667659
30
0.0000000000
10
6.1167738498
20
-5.0791167559
30
0.0000000000
10
6.1158787154
20
-5.0622762368
30
0.0000000000
10
6.1124105356
20
-5.0367719503
30
0.0000000000
10
6.1068314751
20
-5.0107781973
30
0.0000000000
10
6.0992113838
20
-4.9846204726
30
0.0000000000
10
6.0896452838
20
-4.9586232969
30
0.0000000000
10
6.0782524213
20
-4.9331106644
30
0.0000000000
10
6.0651748102
20
-4.9084004652
30
0.0000000000
10
6.0505754191
20
-4.8848006959
30
0.0000000000
10
6.0346360615
20
-4.8626053896
30
0.0000000000
10
6.0175548071
20
-4.8420908061
30
0.0000000000
10
5.9995437058
20
-4.8235121920
30
0.0000000000
10
5.9808240744
20
-4.8070998356
30
0.0000000000
10
5.9616291615
20
-4.7930595609
30
0.0000000000
10
5.9483040324
20
-4.7851811020
30
0.0000000000
10
5.9416266121
20
-4.7817225078
30
0.0000000000
11
6.1168338528
21
-5.0873667659
31
0.0000000000
11
6.1155664314
21
-5.0626485535
31
0.0000000000
11
6.1121314352
21
-5.0371105814
31
0.0000000000
11
6.1065720529
21
-5.0110739423
31
0.0000000000
11
6.0989581835
21
-4.9848659987
31
0.0000000000
11
6.0893855574
21
-4.9588162670
31
0.0000000000
11
6.0779745327
21
-4.9332522743
31
0.0000000000
11
6.0648685820
21
-4.9084954403
31
0.0000000000
11
6.0502324883
21
-4.8848570364
31
0.0000000000
11
6.0342502734
21
-4.8626342715
31
0.0000000000
11
6.0171228843
21
-4.8421065556
31
0.0000000000
11
5.9990656659
21
-4.8235319865
31
0.0000000000
11
5.9803056544
21
-4.8071441049
31
0.0000000000
11
5.9610787222
21
-4.7931489577
31
0.0000000000
11
5.9416266121
21
-4.7817225078
31
0.0000000000
0
SPLINE
5
26B
100
AcDbEntity
8
0
100
AcDbSpline
62
9
6
CONTINUOUS
70
0
71
3
72
21
73
17
74
15
42
0.0000001000
43
0.0000001000
44
0.0000000001
12
-0.0002388648
22
0.3664963430
32
0.0000000000
13
0.3261638296
23
0.1671430009
33
0.0000000000
40
0.0000000000
40
0.0000000000
40
0.0000000000
40
0.0000000000
40
0.0673600564
40
0.1374002827
40
0.2097042500
40
0.2837859084
40
0.3591077597
40
0.4350982200
40
0.5111676838
40
0.5867244983
40
0.6611906880
40
0.7340180538
40
0.8047051040
40
0.8728149463
40
0.9379952469
40
1.0000000000
40
1.0000000000
40
1.0000000000
40
1.0000000000
10
1.4482658649
20
-3.1024932761
30
0.0000000000
10
1.4482605016
20
-3.0942642046
30
0.0000000000
10
1.4490286863
20
-3.0774708510
30
0.0000000000
10
1.4523281176
20
-3.0520396647
30
0.0000000000
10
1.4577574132
20
-3.0261372817
30
0.0000000000
10
1.4652491313
20
-3.0000849311
30
0.0000000000
10
1.4747106939
20
-2.9742025584
30
0.0000000000
10
1.4860252844
20
-2.9488095045
30
0.0000000000
10
1.4990532546
20
-2.9242190017
30
0.0000000000
10
1.5136338746
20
-2.9007345139
30
0.0000000000
10
1.5295873873
20
-2.8786457645
30
0.0000000000
10
1.5467175306
20
-2.8582250306
30
0.0000000000
10
1.5648137491
20
-2.8397240011
30
0.0000000000
10
1.5836557912
20
-2.8233699192
30
0.0000000000
10
1.6030110501
20
-2.8093661079
30
0.0000000000
10
1.6164527744
20
-2.8015075652
30
0.0000000000
10
1.6231940103
20
-2.7980530117
30
0.0000000000
11
1.4482658649
21
-3.1024932761
31
0.0000000000
11
1.4493486509
21
-3.0778298135
31
0.0000000000
11
1.4526148150
21
-3.0523689611
31
0.0000000000
11
1.4580236931
21
-3.0264277056
31
0.0000000000
11
1.4655079557
21
-3.0003289644
31
0.0000000000
11
1.4749744257
21
-2.9743976628
31
0.0000000000
11
1.4863052621
21
-2.9489566024
31
0.0000000000
11
1.4993594030
21
-2.9243225117
31
0.0000000000
11
1.5139743402
21
-2.9008020563
31
0.0000000000
11
1.5299681335
21
-2.8786880433
31
0.0000000000
11
1.5471416706
21
-2.8582557785
31
0.0000000000
11
1.5652811667
21
-2.8397596151
31
0.0000000000
11
1.5841607889
21
-2.8234298269
31
0.0000000000
11
1.6035455189
21
-2.8094696923
31
0.0000000000
11
1.6231940103
21
-2.7980530117
31
0.0000000000
0
SPLINE
5
26C
100
AcDbEntity
8
0
100
AcDbSpline
62
9
6
CONTINUOUS
70
0
71
3
72
20
73
16
74
14
42
0.0000001000
43
0.0000001000
44
0.0000000001
12
-0.0002381714
22
0.3665499159
32
0.0000000000
13
0.3264447576
23
0.1667114809
33
0.0000000000
40
0.0000000000
40
0.0000000000
40
0.0000000000
40
0.0000000000
40
0.0726405182
40
0.1483504569
40
0.2266011449
40
0.3067738655
40
0.3881861555
40
0.4701162103
40
0.5518261734
40
0.6325849852
40
0.7116914169
40
0.7884979378
40
0.8624361474
40
0.9330446154
40
1.0000000000
40
1.0000000000
40
1.0000000000
40
1.0000000000
10
5.4159524989
20
-5.0863365932
30
0.0000000000
10
5.4159467319
20
-5.0774611346
30
0.0000000000
10
5.4168435633
20
-5.0593256840
30
0.0000000000
10
5.4206761318
20
-5.0318732917
30
0.0000000000
10
5.4269702825
20
-5.0039348719
30
0.0000000000
10
5.4356355572
20
-4.9759115829
30
0.0000000000
10
5.4465479781
20
-4.9482019630
30
0.0000000000
10
5.4595515464
20
-4.9212019704
30
0.0000000000
10
5.4744604480
20
-4.8952973004
30
0.0000000000
10
5.4910617616
20
-4.8708580967
30
0.0000000000
10
5.5091188943
20
-4.8482332603
30
0.0000000000
10
5.5283747446
20
-4.8277457045
30
0.0000000000
10
5.5485579914
20
-4.8096867752
30
0.0000000000
10
5.5693802936
20
-4.7943162237
30
0.0000000000
10
5.5839007455
20
-4.7857699953
30
0.0000000000
10
5.5911864903
20
-4.7820492515
30
0.0000000000
11
5.4159524989
21
-5.0863365932
31
0.0000000000
11
5.4172115663
21
-5.0597399969
31
0.0000000000
11
5.4210043258
21
-5.0322489168
31
0.0000000000
11
5.4272760266
21
-5.0042602020
31
0.0000000000
11
5.4359361335
21
-4.9761778846
31
0.0000000000
11
5.4468596330
21
-4.9484073483
31
0.0000000000
11
5.4598888385
21
-4.9213494759
31
0.0000000000
11
5.4748356662
21
-4.8953948626
31
0.0000000000
11
5.4914843506
21
-4.8709181775
31
0.0000000000
11
5.5095945587
21
-4.8482727548
31
0.0000000000
11
5.5289048600
21
-4.8277854936
31
0.0000000000
11
5.5491364995
21
-4.8097521386
31
0.0000000000
11
5.5699974225
21
-4.7944330113
31
0.0000000000
11
5.5911864903
21
-4.7820492515
31
0.0000000000
0
SPLINE
5
26D
100
AcDbEntity
8
0
100
AcDbSpline
62
9
6
CONTINUOUS
70
0
71
3
72
14
73
10
74
8
42
0.0000001000
43
0.0000001000
44
0.0000000001
12
-0.1077950128
22
0.0520285912
32
0.0000000000
13
-0.1059532281
23
-0.0560315926
33
0.0000000000
40
0.0000000000
40
0.0000000000
40
0.0000000000
40
0.0000000000
40
0.1820587560
40
0.3542526090
40
0.5172574478
40
0.6723682971
40
0.8215092213
40
0.9671545407
40
1.0000000000
40
1.0000000000
40
1.0000000000
40
1.0000000000
10
-9.2740698576
20
2.8261257270
30
0.0000000000
10
-9.2806115329
20
2.8292831472
30
0.0000000000
10
-9.2936796331
20
2.8347618002
30
0.0000000000
10
-9.3135888467
20
2.8403990899
30
0.0000000000
10
-9.3330252548
20
2.8431467589
30
0.0000000000
10
-9.3517448583
20
2.8429488381
30
0.0000000000
10
-9.3695038101
20
2.8397843776
30
0.0000000000
10
-9.3818338871
20
2.8352331919
30
0.0000000000
10
-9.3882062172
20
2.8320292094
30
0.0000000000
10
-9.3893662447
20
2.8314157482
30
0.0000000000
11
-9.2740698576
21
2.8261257270
31
0.0000000000
11
-9.2941933134
21
2.8344870600
31
0.0000000000
11
-9.3140443585
21
2.8400309015
31
0.0000000000
11
-9.3333734030
21
2.8426875478
31
0.0000000000
11
-9.3519374200
21
2.8424235963
31
0.0000000000
11
-9.3695030013
21
2.8392423656
31
0.0000000000
11
-9.3858492924
21
2.8331838536
31
0.0000000000
11
-9.3893662447
21
2.8314157482
31
0.0000000000
0
SPLINE
5
26E
100
AcDbEntity
8
0
100
AcDbSpline
62
9
6
CONTINUOUS
70
0
71
3
72
22
73
18
74
16
42
0.0000001000
43
0.0000001000
44
0.0000000001
12
-0.3267616776
22
-0.1663014637
32
0.0000000000
13
0.0002363447
23
-0.3666460349
33
0.0000000000
40
0.0000000000
40
0.0000000000
40
0.0000000000
40
0.0000000000
40
0.0578583769
40
0.1184759795
40
0.1816637085
40
0.2471480337
40
0.3145891376
40
0.3835950222
40
0.4537333458
40
0.5245448518
40
0.5955542454
40
0.6662818464
40
0.7362540251
40
0.8050157225
40
0.8721410223
40
0.9372451517
40
1.0000000000
40
1.0000000000
40
1.0000000000
40
1.0000000000
10
-5.3030179922
20
0.6650529896
30
0.0000000000
10
-5.3093199589
20
0.6618456787
30
0.0000000000
10
-5.3218912184
20
0.6546071017
30
0.0000000000
10
-5.3400606112
20
0.6418017971
30
0.0000000000
10
-5.3578095667
20
0.6269243001
30
0.0000000000
10
-5.3749467905
20
0.6101359098
30
0.0000000000
10
-5.3912902899
20
0.5916166269
30
0.0000000000
10
-5.4066648770
20
0.5715655348
30
0.0000000000
10
-5.4209056538
20
0.5501981739
30
0.0000000000
10
-5.4338595245
20
0.5277444582
30
0.0000000000
10
-5.4453871520
20
0.5044460148
30
0.0000000000
10
-5.4553644439
20
0.4805536474
30
0.0000000000
10
-5.4636839975
20
0.4563243595
30
0.0000000000
10
-5.4702562177
20
0.4320188332
30
0.0000000000
10
-5.4750102119
20
0.4078974258
30
0.0000000000
10
-5.4778945129
20
0.3842210406
30
0.0000000000
10
-5.4785627761
20
0.3685881779
30
0.0000000000
10
-5.4785578322
20
0.3609185725
30
0.0000000000
11
-5.3030179922
21
0.6650529896
31
0.0000000000
11
-5.3214263256
21
0.6545103183
31
0.0000000000
11
-5.3396180428
21
0.6417423385
31
0.0000000000
11
-5.3573961983
21
0.6268873102
31
0.0000000000
11
-5.3745677711
21
0.6101064672
31
0.0000000000
11
-5.3909465238
21
0.5915818375
31
0.0000000000
11
-5.4063549054
21
0.5715142223
31
0.0000000000
11
-5.4206257123
21
0.5501213771
31
0.0000000000
11
-5.4336041917
21
0.5276352892
31
0.0000000000
11
-5.4451495684
21
0.5042998641
31
0.0000000000
11
-5.4551366431
21
0.4803681497
31
0.0000000000
11
-5.4634570519
21
0.4560998326
31
0.0000000000
11
-5.4700206013
21
0.4317579987
31
0.0000000000
11
-5.4747560983
21
0.4076066485
31
0.0000000000
11
-5.4776121528
21
0.3839079513
31
0.0000000000
11
-5.4785578322
21
0.3609185725
31
0.0000000000
0
SPLINE
5
26F
100
AcDbEntity
8
0
100
AcDbSpline
62
9
6
CONTINUOUS
70
0
71
3
72
20
73
16
74
14
42
0.0000001000
43
0.0000001000
44
0.0000000001
12
-0.3264447576
22
-0.1667114809
32
0.0000000000
13
0.0002381714
23
-0.3665499159
33
0.0000000000
40
0.0000000000
40
0.0000000000
40
0.0000000000
40
0.0000000000
40
0.0669553846
40
0.1375638526
40
0.2115020622
40
0.2883085831
40
0.3674150148
40
0.4481738266
40
0.5298837897
40
0.6118138445
40
0.6932261345
40
0.7733988551
40
0.8516495431
40
0.9273594818
40
1.0000000000
40
1.0000000000
40
1.0000000000
40
1.0000000000
10
-9.2710104748
20
2.6490492310
30
0.0000000000
10
-9.2782962195
20
2.6453284873
30
0.0000000000
10
-9.2928166715
20
2.6367822589
30
0.0000000000
10
-9.3136389736
20
2.6214117073
30
0.0000000000
10
-9.3338222205
20
2.6033527780
30
0.0000000000
10
-9.3530780708
20
2.5828652223
30
0.0000000000
10
-9.3711352035
20
2.5602403859
30
0.0000000000
10
-9.3877365170
20
2.5358011822
30
0.0000000000
10
-9.4026454186
20
2.5098965121
30
0.0000000000
10
-9.4156489869
20
2.4828965196
30
0.0000000000
10
-9.4265614079
20
2.4551868996
30
0.0000000000
10
-9.4352266826
20
2.4271636107
30
0.0000000000
10
-9.4415208333
20
2.3992251908
30
0.0000000000
10
-9.4453534018
20
2.3717727985
30
0.0000000000
10
-9.4462502331
20
2.3536373479
30
0.0000000000
10
-9.4462444662
20
2.3447618893
30
0.0000000000
11
-9.2710104748
21
2.6490492310
31
0.0000000000
11
-9.2921995426
21
2.6366654713
31
0.0000000000
11
-9.3130604656
21
2.6213463439
31
0.0000000000
11
-9.3332921051
21
2.6033129890
31
0.0000000000
11
-9.3526024063
21
2.5828257277
31
0.0000000000
11
-9.3707126145
21
2.5601803050
31
0.0000000000
11
-9.3873612988
21
2.5357036199
31
0.0000000000
11
-9.4023081266
21
2.5097490066
31
0.0000000000
11
-9.4153373320
21
2.4826911343
31
0.0000000000
11
-9.4262608315
21
2.4549205980
31
0.0000000000
11
-9.4349209384
21
2.4268382806
31
0.0000000000
11
-9.4411926393
21
2.3988495657
31
0.0000000000
11
-9.4449853987
21
2.3713584857
31
0.0000000000
11
-9.4462444662
21
2.3447618893
31
0.0000000000
0
SPLINE
5
270
100
AcDbEntity
8
0
100
AcDbSpline
62
9
6
CONTINUOUS
70
0
71
3
72
10
73
6
74
4
42
0.0000001000
43
0.0000001000
44
0.0000000001
12
0.0002271755
22
-0.3466036571
32
0.0000000000
13
0.0004561032
23
-0.3466034314
33
0.0000000000
40
0.0000000000
40
0.0000000000
40
0.0000000000
40
0.0000000000
40
0.3333694102
40
0.6667027409
40
1.0000000000
40
1.0000000000
40
1.0000000000
40
1.0000000000
10
-5.1969546679
20
0.3604419744
30
0.0000000000
10
-5.1969294234
20
0.3219262888
30
0.0000000000
10
-5.1968704612
20
0.2448990913
30
0.0000000000
10
-5.1967565890
20
0.1293645695
30
0.0000000000
10
-5.1966637197
20
0.0523457414
30
0.0000000000
10
-5.1966130471
20
0.0138384168
30
0.0000000000
11
-5.1969546679
21
0.3604419744
31
0.0000000000
11
-5.1968662184
21
0.2448949267
31
0.0000000000
11
-5.1967523448
21
0.1293604065
31
0.0000000000
11
-5.1966130471
21
0.0138384168
31
0.0000000000
0
SPLINE
5
271
100
AcDbEntity
8
0
100
AcDbSpline
62
9
6
CONTINUOUS
70
0
71
3
72
22
73
18
74
16
42
0.0000001000
43
0.0000001000
44
0.0000000001
12
-0.0655858746
22
-0.0329221378
32
0.0000000000
13
0.0000471514
23
-0.0733850930
33
0.0000000000
40
0.0000000000
40
0.0000000000
40
0.0000000000
40
0.0000000000
40
0.0579869690
40
0.1187473720
40
0.1820445807
40
0.2476066659
40
0.3150958946
40
0.3841229729
40
0.4542578688
40
0.5250431461
40
0.5960073746
40
0.6666752164
40
0.7365777920
40
0.8052652000
40
0.8723170017
40
0.9373544590
40
1.0000000000
40
1.0000000000
40
1.0000000000
40
1.0000000000
10
-5.1616020208
20
0.4211465183
30
0.0000000000
10
-5.1628697295
20
0.4205101666
30
0.0000000000
10
-5.1653998782
20
0.4190724264
30
0.0000000000
10
-5.1690586883
20
0.4165247616
30
0.0000000000
10
-5.1726338651
20
0.4135615475
30
0.0000000000
10
-5.1760858665
20
0.4102155263
30
0.0000000000
10
-5.1793780328
20
0.4065225895
30
0.0000000000
10
-5.1824750419
20
0.4025224422
30
0.0000000000
10
-5.1853436309
20
0.3982581374
30
0.0000000000
10
-5.1879529254
20
0.3937756221
30
0.0000000000
10
-5.1902748446
20
0.3891231841
30
0.0000000000
10
-5.1922844054
20
0.3843509189
30
0.0000000000
10
-5.1939599802
20
0.3795101649
30
0.0000000000
10
-5.1952835485
20
0.3746530098
30
0.0000000000
10
-5.1962408042
20
0.3698314704
30
0.0000000000
10
-5.1968212976
20
0.3650990585
30
0.0000000000
10
-5.1969556525
20
0.3619743906
30
0.0000000000
10
-5.1969546679
20
0.3604419744
30
0.0000000000
11
-5.1616020208
21
0.4211465183
31
0.0000000000
11
-5.1653065628
21
0.4190525680
31
0.0000000000
11
-5.1689706832
21
0.4165116846
31
0.0000000000
11
-5.1725515670
21
0.4135529736
31
0.0000000000
11
-5.1760103278
21
0.4102085162
31
0.0000000000
11
-5.1793094422
21
0.4065145854
31
0.0000000000
11
-5.1824131323
21
0.4025112116
31
0.0000000000
11
-5.1852876683
21
0.3982418816
31
0.0000000000
11
-5.1879018080
21
0.3937530076
31
0.0000000000
11
-5.1902272026
21
0.3890933014
31
0.0000000000
11
-5.1922386457
21
0.3843133063
31
0.0000000000
11
-5.1939143223
21
0.3794649005
31
0.0000000000
11
-5.1952360822
21
0.3746006503
31
0.0000000000
11
-5.1961895898
21
0.3697733152
31
0.0000000000
11
-5.1967645343
21
0.3650352907
31
0.0000000000
11
-5.1969546679
21
0.3604419744
31
0.0000000000
0
SPLINE
5
272
100
AcDbEntity
8
0
100
AcDbSpline
62
7
6
CONTINUOUS
70
0
71
3
72
10
73
6
74
4
42
0.0000001000
43
0.0000001000
44
0.0000000001
12
0.0000055493
22
-0.0007675556
32
0.0000000000
13
0.0000000000
23
-0.0007675757
33
0.0000000000
40
0.0000000000
40
0.0000000000
40
0.0000000000
40
0.0000000000
40
0.3329314802
40
0.6662635300
40
1.0000000000
40
1.0000000000
40
1.0000000000
40
1.0000000000
10
-4.2326945293
20
0.8874063860
30
0.0000000000
10
-4.2326939135
20
0.8873212048
30
0.0000000000
10
-4.2326928873
20
0.8871507385
30
0.0000000000
10
-4.2326919644
20
0.8868948814
30
0.0000000000
10
-4.2326917596
20
0.8867242061
30
0.0000000000
10
-4.2326917596
20
0.8866388168
30
0.0000000000
11
-4.2326945293
21
0.8874063860
31
0.0000000000
11
-4.2326929906
21
0.8871508405
31
0.0000000000
11
-4.2326920674
21
0.8868949846
31
0.0000000000
11
-4.2326917596
21
0.8866388168
31
0.0000000000
0
SPLINE
5
273
100
AcDbEntity
8
0
100
AcDbSpline
62
9
6
CONTINUOUS
70
0
71
3
72
25
73
21
74
19
42
0.0000001000
43
0.0000001000
44
0.0000000001
12
-0.0007573343
22
-0.7366336906
32
0.0000000000
13
0.6597887704
23
-0.3275798318
33
0.0000000000
40
0.0000000000
40
0.0000000000
40
0.0000000000
40
0.0000000000
40
0.0517489184
40
0.1055074968
40
0.1609703396
40
0.2177809597
40
0.2755561487
40
0.3340164075
40
0.3929847456
40
0.4522405380
40
0.5114828214
40
0.5704048623
40
0.6287056947
40
0.6861019430
40
0.7423993195
40
0.7974528194
40
0.8510286671
40
0.9028124646
40
0.9525362174
40
1.0000000000
40
1.0000000000
40
1.0000000000
40
1.0000000000
10
-5.1966130471
20
0.0138384168
30
0.0000000000
10
-5.1966261108
20
0.0011317512
30
0.0000000000
10
-5.1957184933
20
-0.0247833904
30
0.0000000000
10
-5.1917081355
20
-0.0641309648
30
0.0000000000
10
-5.1850210746
20
-0.1043736890
30
0.0000000000
10
-5.1757066293
20
-0.1451007206
30
0.0000000000
10
-5.1638526303
20
-0.1859280317
30
0.0000000000
10
-5.1495629037
20
-0.2265288759
30
0.0000000000
10
-5.1329419484
20
-0.2666255967
30
0.0000000000
10
-5.1141041452
20
-0.3059425966
30
0.0000000000
10
-5.0931895520
20
-0.3441823984
30
0.0000000000
10
-5.0703651502
20
-0.3810387676
30
0.0000000000
10
-5.0458154326
20
-0.4162184940
30
0.0000000000
10
-5.0197283722
20
-0.4494595360
30
0.0000000000
10
-4.9922841695
20
-0.4805349128
30
0.0000000000
10
-4.9636680976
20
-0.5092270572
30
0.0000000000
10
-4.9341053863
20
-0.5352989659
30
0.0000000000
10
-4.9038739396
20
-0.5585061885
30
0.0000000000
10
-4.8732899544
20
-0.5786314158
30
0.0000000000
10
-4.8523650277
20
-0.5901694151
30
0.0000000000
10
-4.8419263374
20
-0.5953521411
30
0.0000000000
11
-5.1966130471
21
0.0138384168
31
0.0000000000
11
-5.1953217755
21
-0.0242597236
31
0.0000000000
11
-5.1913441163
21
-0.0636598503
31
0.0000000000
11
-5.1846780937
21
-0.1039681892
31
0.0000000000
11
-5.1753728318
21
-0.1447691779
31
0.0000000000
11
-5.1635245502
21
-0.1856458392
31
0.0000000000
11
-5.1492402318
21
-0.2262715793
31
0.0000000000
11
-5.1326137718
21
-0.2664017210
31
0.0000000000
11
-5.1137550418
21
-0.3057673975
31
0.0000000000
11
-5.0928114078
21
-0.3440532141
31
0.0000000000
11
-5.0699516731
21
-0.3809495324
31
0.0000000000
11
-5.0453626348
21
-0.4161599109
31
0.0000000000
11
-5.0192440947
21
-0.4494078133
31
0.0000000000
11
-4.9917724001
21
-0.4804740950
31
0.0000000000
11
-4.9631108470
21
-0.5091649531
31
0.0000000000
11
-4.9334851027
21
-0.5352391601
31
0.0000000000
11
-4.9031985601
21
-0.5584301181
31
0.0000000000
11
-4.8725714911
21
-0.5785201275
31
0.0000000000
11
-4.8419263374
21
-0.5953521411
31
0.0000000000
0
SPLINE
5
274
100
AcDbEntity
8
0
100
AcDbSpline
62
7
6
CONTINUOUS
70
0
71
3
72
10
73
6
74
4
42
0.0000001000
43
0.0000001000
44
0.0000000001
12
0.0498318238
22
-0.0223208338
32
0.0000000000
13
0.0488379384
23
-0.0244189692
33
0.0000000000
40
0.0000000000
40
0.0000000000
40
0.0000000000
40
0.0000000000
40
0.3557856526
40
0.6884210240
40
1.0000000000
40
1.0000000000
40
1.0000000000
40
1.0000000000
10
-3.9285365457
20
-0.0888080306
30
0.0000000000
10
-3.9226267297
20
-0.0914551747
30
0.0000000000
10
-3.9112216108
20
-0.0966445976
30
0.0000000000
10
-3.8947565149
20
-0.1044028019
30
0.0000000000
10
-3.8842241229
20
-0.1095567709
30
0.0000000000
10
-3.8791518313
20
-0.1120929167
30
0.0000000000
11
-3.9285365457
21
-0.0888080306
31
0.0000000000
11
-3.9108568289
21
-0.0968595699
31
0.0000000000
11
-3.8944297242
21
-0.1046077588
31
0.0000000000
11
-3.8791518313
21
-0.1120929167
31
0.0000000000
0
SPLINE
5
275
100
AcDbEntity
8
0
100
AcDbSpline
62
7
6
CONTINUOUS
70
0
71
3
72
21
73
17
74
15
42
0.0000001000
43
0.0000001000
44
0.0000000001
12
-0.5915274717
22
0.2649589240
32
0.0000000000
13
0.0423664672
23
0.6467712607
33
0.0000000000
40
0.0000000000
40
0.0000000000
40
0.0000000000
40
0.0000000000
40
0.0694600577
40
0.1392164793
40
0.2093379249
40
0.2797947565
40
0.3506134331
40
0.4217576998
40
0.4932368400
40
0.5650227023
40
0.6370795550
40
0.7093945533
40
0.7818927783
40
0.8545471584
40
0.9272554323
40
1.0000000000
40
1.0000000000
40
1.0000000000
40
1.0000000000
10
-3.9285365457
20
-0.0888080306
30
0.0000000000
10
-3.9422323898
20
-0.0826733432
30
0.0000000000
10
-3.9690986793
20
-0.0690278267
30
0.0000000000
10
-4.0073606881
20
-0.0447955799
30
0.0000000000
10
-4.0434089333
20
-0.0170219715
30
0.0000000000
10
-4.0769948023
20
0.0140170255
30
0.0000000000
10
-4.1078880305
20
0.0480335604
30
0.0000000000
10
-4.1358865495
20
0.0847456454
30
0.0000000000
10
-4.1608005077
20
0.1238636649
30
0.0000000000
10
-4.1824553125
20
0.1650978293
30
0.0000000000
10
-4.2006870009
20
0.2081515871
30
0.0000000000
10
-4.2153386590
20
0.2527139437
30
0.0000000000
10
-4.2262654924
20
0.2984660728
30
0.0000000000
10
-4.2333306962
20
0.3450596135
30
0.0000000000
10
-4.2364158607
20
0.3921360026
30
0.0000000000
10
-4.2357500737
20
0.4236020464
30
0.0000000000
10
-4.2347227636
20
0.4392850783
30
0.0000000000
11
-3.9285365457
21
-0.0888080306
31
0.0000000000
11
-3.9686877925
21
-0.0684420737
31
0.0000000000
11
-4.0068977048
21
-0.0442712123
31
0.0000000000
11
-4.0429139138
21
-0.0165491844
31
0.0000000000
11
-4.0764650201
21
0.0144315943
31
0.0000000000
11
-4.1073369482
21
0.0484004814
31
0.0000000000
11
-4.1353110719
21
0.0850587378
31
0.0000000000
11
-4.1602075011
21
0.1241306186
31
0.0000000000
11
-4.1818467903
21
0.1653209793
31
0.0000000000
11
-4.2000615802
21
0.2083268149
31
0.0000000000
11
-4.2147010482
21
0.2528534747
31
0.0000000000
11
-4.2256125301
21
0.2985593169
31
0.0000000000
11
-4.2326649624
21
0.3451197073
31
0.0000000000
11
-4.2357348764
21
0.3921460146
31
0.0000000000
11
-4.2347227636
21
0.4392850783
31
0.0000000000
0
SPLINE
5
276
100
AcDbEntity
8
0
100
AcDbSpline
62
9
6
CONTINUOUS
70
0
71
3
72
15
73
11
74
9
42
0.0000001000
43
0.0000001000
44
0.0000000001
12
0.2093226755
22
-0.1054007829
32
0.0000000000
13
0.2081761056
23
0.1080738366
33
0.0000000000
40
0.0000000000
40
0.0000000000
40
0.0000000000
40
0.0000000000
40
0.1424183618
40
0.2795950491
40
0.4113096468
40
0.5376478241
40
0.6590356695
40
0.7764438690
40
0.8912761271
40
1.0000000000
40
1.0000000000
40
1.0000000000
40
1.0000000000
10
1.0949598068
20
-3.5637952132
30
0.0000000000
10
1.1048969377
20
-3.5687988822
30
0.0000000000
10
1.1248250125
20
-3.5778210318
30
0.0000000000
10
1.1552425705
20
-3.5883256927
30
0.0000000000
10
1.1853579495
20
-3.5953977385
30
0.0000000000
10
1.2148572366
20
-3.5989230287
30
0.0000000000
10
1.2434571835
20
-3.5988509431
30
0.0000000000
10
1.2709213721
20
-3.5951783393
30
0.0000000000
10
1.2966721220
20
-3.5880318319
30
0.0000000000
10
1.3127392522
20
-3.5810447112
30
0.0000000000
10
1.3202838230
20
-3.5771279759
30
0.0000000000
11
1.0949598068
21
-3.5637952132
31
0.0000000000
11
1.1253928969
21
-3.5775020174
31
0.0000000000
11
1.1558035651
21
-3.5879301108
31
0.0000000000
11
1.1858716179
21
-3.5949155829
31
0.0000000000
11
1.2152796639
21
-3.5983576844
31
0.0000000000
11
1.2437279741
21
-3.5982214984
31
0.0000000000
11
1.2709943680
21
-3.5945239528
31
0.0000000000
11
1.2969179978
21
-3.5872965671
31
0.0000000000
11
1.3202838230
21
-3.5771279759
31
0.0000000000
0
SPLINE
5
277
100
AcDbEntity
8
0
100
AcDbSpline
62
9
6
CONTINUOUS
70
0
71
3
72
10
73
6
74
4
42
0.0000001000
43
0.0000001000
44
0.0000000001
12
0.0051907621
22
-7.8517975429
32
0.0000000000
13
0.1248911419
23
-7.8508059332
33
0.0000000000
40
0.0000000000
40
0.0000000000
40
0.0000000000
40
0.0000000000
40
0.3341548768
40
0.6674862484
40
1.0000000000
40
1.0000000000
40
1.0000000000
40
1.0000000000
10
5.4159524989
20
-5.0863365932
30
0.0000000000
10
5.4165306717
20
-5.9609087402
30
0.0000000000
10
5.4220865996
20
-7.7078981812
30
0.0000000000
10
5.4436775623
20
-10.3250856805
30
0.0000000000
10
5.4669310489
20
-12.0676337086
30
0.0000000000
10
5.4807737229
20
-12.9378006865
30
0.0000000000
11
5.4159524989
21
-5.0863365932
31
0.0000000000
11
5.4243128561
21
-7.7100402873
31
0.0000000000
11
5.4459199815
21
-10.3272021118
31
0.0000000000
11
5.4807737229
21
-12.9378006865
31
0.0000000000
0
SPLINE
5
278
100
AcDbEntity
8
0
100
AcDbSpline
62
9
6
CONTINUOUS
70
0
71
3
72
10
73
6
74
4
42
0.0000001000
43
0.0000001000
44
0.0000000001
12
0.0051613906
22
-7.8456299840
32
0.0000000000
13
0.1247951653
23
-7.8446391028
33
0.0000000000
40
0.0000000000
40
0.0000000000
40
0.0000000000
40
0.0000000000
40
0.3341547242
40
0.6674862505
40
1.0000000000
40
1.0000000000
40
1.0000000000
40
1.0000000000
10
6.1168338528
20
-5.0873667659
30
0.0000000000
10
6.1174087538
20
-5.9612515404
30
0.0000000000
10
6.1229556820
20
-7.7068687481
30
0.0000000000
10
6.1445257766
20
-10.3220004874
30
0.0000000000
10
6.1677604405
20
-12.0631801573
30
0.0000000000
10
6.1815924766
20
-12.9326636110
30
0.0000000000
11
6.1168338528
21
-5.0873667659
31
0.0000000000
11
6.1251806874
21
-7.7090083695
31
0.0000000000
11
6.1467669475
21
-10.3241156632
31
0.0000000000
11
6.1815924766
21
-12.9326636110
31
0.0000000000
0
SPLINE
5
279
100
AcDbEntity
8
0
100
AcDbSpline
62
9
6
CONTINUOUS
70
0
71
3
72
24
73
20
74
18
42
0.0000001000
43
0.0000001000
44
0.0000000001
12
-0.6482004200
22
-0.3166893926
32
0.0000000000
13
-0.6452669907
23
0.3226243427
33
0.0000000000
40
0.0000000000
40
0.0000000000
40
0.0000000000
40
0.0000000000
40
0.0520124514
40
0.1065230505
40
0.1632923871
40
0.2220304804
40
0.2824150369
40
0.3440973107
40
0.4067066657
40
0.4698591488
40
0.5331623138
40
0.5962225104
40
0.6586486579
40
0.7200595696
40
0.7800888305
40
0.8383934560
40
0.8946585325
40
0.9486034529
40
1.0000000000
40
1.0000000000
40
1.0000000000
40
1.0000000000
10
6.1168338528
20
-5.0873667659
30
0.0000000000
10
6.1055956885
20
-5.0928573631
30
0.0000000000
10
6.0821617343
20
-5.1032617333
30
0.0000000000
10
6.0452970643
20
-5.1168550372
30
0.0000000000
10
6.0061458040
20
-5.1287133499
30
0.0000000000
10
5.9650327652
20
-5.1387378025
30
0.0000000000
10
5.9222975371
20
-5.1468456526
30
0.0000000000
10
5.8782942809
20
-5.1529694307
30
0.0000000000
10
5.8333878292
20
-5.1570581901
30
0.0000000000
10
5.7879511204
20
-5.1590778372
30
0.0000000000
10
5.7423612919
20
-5.1590115589
30
0.0000000000
10
5.6969968964
20
-5.1568599172
30
0.0000000000
10
5.6522344425
20
-5.1526408439
30
0.0000000000
10
5.6084456138
20
-5.1463895281
30
0.0000000000
10
5.5659933621
20
-5.1381579761
30
0.0000000000
10
5.5252293891
20
-5.1280146531
30
0.0000000000
10
5.4864901716
20
-5.1160432155
30
0.0000000000
10
5.4500970619
20
-5.1023433762
30
0.0000000000
10
5.4270073310
20
-5.0918638524
30
0.0000000000
10
5.4159524992
20
-5.0863365933
30
0.0000000000
11
6.1168338528
21
-5.0873667659
31
0.0000000000
11
6.0825647856
21
-5.1026513325
31
0.0000000000
11
6.0456863418
21
-5.1163065890
31
0.0000000000
11
6.0065025387
21
-5.1282201506
31
0.0000000000
11
5.9653417059
21
-5.1382920938
31
0.0000000000
11
5.9225471671
21
-5.1464384565
31
0.0000000000
11
5.8784753848
21
-5.1525913657
31
0.0000000000
11
5.8334945480
21
-5.1566993974
31
0.0000000000
11
5.7879798819
21
-5.1587282931
31
0.0000000000
11
5.7423113611
21
-5.1586611365
31
0.0000000000
11
5.6968695073
21
-5.1564984904
31
0.0000000000
11
5.6520336859
21
-5.1522583943
31
0.0000000000
11
5.6081779017
21
-5.1459762142
31
0.0000000000
11
5.5656685213
21
-5.1377044588
31
0.0000000000
11
5.5248596019
21
-5.1275120422
31
0.0000000000
11
5.4860915364
21
-5.1154839447
31
0.0000000000
11
5.4496891053
21
-5.1017210170
31
0.0000000000
11
5.4159524992
21
-5.0863365933
31
0.0000000000
0
SPLINE
5
27A
100
AcDbEntity
8
0
100
AcDbSpline
62
9
6
CONTINUOUS
70
0
71
3
72
23
73
19
74
17
42
0.0000001000
43
0.0000001000
44
0.0000000001
12
-0.6443380764
22
-0.3258587914
32
0.0000000000
13
-0.6459239892
23
0.3227037478
33
0.0000000000
40
0.0000000000
40
0.0000000000
40
0.0000000000
40
0.0000000000
40
0.0556281291
40
0.1140071817
40
0.1748406011
40
0.2377791880
40
0.3024321348
40
0.3683767896
40
0.4351675646
40
0.5023442938
40
0.5694402713
40
0.6359901542
40
0.7015378926
40
0.7656448561
40
0.8278983525
40
0.8879207922
40
0.9453798382
40
1.0000000000
40
1.0000000000
40
1.0000000000
40
1.0000000000
10
6.1815924766
20
-12.9326636110
30
0.0000000000
10
6.1696447027
20
-12.9387059160
30
0.0000000000
10
6.1446672837
20
-12.9501355613
30
0.0000000000
10
6.1052658988
20
-12.9649918659
30
0.0000000000
10
6.0633293513
20
-12.9778649192
30
0.0000000000
10
6.0192511194
20
-12.9886334696
30
0.0000000000
10
5.9734415909
20
-12.9971973122
30
0.0000000000
10
5.9263291674
20
-13.0034760628
30
0.0000000000
10
5.8783546119
20
-13.0074108072
30
0.0000000000
10
5.8299671490
20
-13.0089645684
30
0.0000000000
10
5.7816199824
20
-13.0081227647
30
0.0000000000
10
5.7337659117
20
-13.0048933421
30
0.0000000000
10
5.6868529547
20
-12.9993066966
30
0.0000000000
10
5.6413198612
20
-12.9914152621
30
0.0000000000
10
5.5975922550
20
-12.9812930989
30
0.0000000000
10
5.5560768892
20
-12.9690342261
30
0.0000000000
10
5.5171631466
20
-12.9547540052
30
0.0000000000
10
5.4925338808
20
-12.9436760633
30
0.0000000000
10
5.4807737232
20
-12.9378006864
30
0.0000000000
11
6.1815924766
21
-12.9326636110
31
0.0000000000
11
6.1450997962
21
-12.9494449411
31
0.0000000000
11
6.1056796798
21
-12.9643745530
31
0.0000000000
11
6.0637033832
21
-12.9773118408
31
0.0000000000
11
6.0195662361
21
-12.9881349620
31
0.0000000000
11
5.9736839190
21
-12.9967419851
31
0.0000000000
11
5.9264885484
21
-13.0030518500
31
0.0000000000
11
5.8784246070
21
-13.0070051306
31
0.0000000000
11
5.8299447573
21
-13.0085645954
31
0.0000000000
11
5.7815055794
21
-13.0077155573
31
0.0000000000
11
5.7335632698
21
-13.0044660126
31
0.0000000000
11
5.6865693459
21
-12.9988465652
31
0.0000000000
11
5.6409663930
21
-12.9909101387
31
0.0000000000
11
5.5971838965
21
-12.9807314778
31
0.0000000000
11
5.5556341970
21
-12.9684064444
31
0.0000000000
11
5.5167086064
21
-12.9540511147
31
0.0000000000
11
5.4807737232
21
-12.9378006864
31
0.0000000000
0
SPLINE
5
27B
100
AcDbEntity
8
0
100
AcDbSpline
62
9
6
CONTINUOUS
70
0
71
3
72
14
73
10
74
8
42
0.0000001000
43
0.0000001000
44
0.0000000001
12
0.1563307411
22
-9.8278864341
32
0.0000000000
13
1.2990769458
23
-9.7429046054
33
0.0000000000
40
0.0000000000
40
0.0000000000
40
0.0000000000
40
0.0000000000
40
0.1463296915
40
0.2915210750
40
0.4355612897
40
0.5784387774
40
0.7201433508
40
0.8606662077
40
1.0000000000
40
1.0000000000
40
1.0000000000
40
1.0000000000
10
5.4807737229
20
-12.9378006865
30
0.0000000000
10
5.4883989993
20
-13.4171712166
30
0.0000000000
10
5.5110807593
20
-14.3720820214
30
0.0000000000
10
5.5677793779
20
-15.7980769601
30
0.0000000000
10
5.6470029515
20
-17.2116748970
30
0.0000000000
10
5.7487240041
20
-18.6123785473
30
0.0000000000
10
5.8729075916
20
-19.9997028750
30
0.0000000000
10
6.0195099819
20
-21.3731588006
30
0.0000000000
10
6.1326410787
20
-22.2831245659
30
0.0000000000
10
6.1929761845
20
-22.7356298480
30
0.0000000000
11
5.4807737229
21
-12.9378006865
31
0.0000000000
11
5.5150158426
21
-14.3756865396
31
0.0000000000
11
5.5718043539
21
-15.8016611475
31
0.0000000000
11
5.6511194815
21
-17.2152276680
31
0.0000000000
11
5.7529335974
21
-18.6158934797
31
0.0000000000
11
5.8772112471
21
-20.0031706016
31
0.0000000000
11
6.0239091399
21
-21.3765755694
31
0.0000000000
11
6.1929761845
21
-22.7356298480
31
0.0000000000
0
SPLINE
5
27C
100
AcDbEntity
8
0
100
AcDbSpline
62
9
6
CONTINUOUS
70
0
71
3
72
14
73
10
74
8
42
0.0000001000
43
0.0000001000
44
0.0000000001
12
0.1554777486
22
-9.7733263511
32
0.0000000000
13
1.2919777946
23
-9.6888015087
33
0.0000000000
40
0.0000000000
40
0.0000000000
40
0.0000000000
40
0.0000000000
40
0.1463291684
40
0.2915202962
40
0.4355603893
40
0.5784378966
40
0.7201426377
40
0.8606658170
40
1.0000000000
40
1.0000000000
40
1.0000000000
40
1.0000000000
10
6.1815924766
20
-12.9326636110
30
0.0000000000
10
6.1891761198
20
-13.4093711837
30
0.0000000000
10
6.2117340114
20
-14.3589781901
30
0.0000000000
10
6.2681230113
20
-15.7770535395
30
0.0000000000
10
6.3469139846
20
-17.1828022792
30
0.0000000000
10
6.4480795974
20
-18.5757294284
30
0.0000000000
10
6.5715850958
20
-19.9553526431
30
0.0000000000
10
6.7173869450
20
-21.3211852558
30
0.0000000000
10
6.8299002096
20
-22.2261003951
30
0.0000000000
10
6.8899057664
20
-22.6760941426
30
0.0000000000
11
6.1815924766
21
-12.9326636110
31
0.0000000000
11
6.2156475750
21
-14.3625618043
31
0.0000000000
11
6.2721259774
21
-15.7806173582
31
0.0000000000
11
6.3510079934
21
-17.1863348220
31
0.0000000000
11
6.4522661466
21
-18.5792243087
31
0.0000000000
11
6.5758651759
21
-19.9588005459
31
0.0000000000
11
6.7217620266
21
-21.3245827519
31
0.0000000000
11
6.8899057664
21
-22.6760941426
31
0.0000000000
0
SPLINE
5
27D
100
AcDbEntity
8
0
100
AcDbSpline
62
9
6
CONTINUOUS
70
0
71
3
72
23
73
19
74
17
42
0.0000001000
43
0.0000001000
44
0.0000000001
12
-0.6056151219
22
-0.4023882148
32
0.0000000000
13
-0.6510636317
23
0.3237315225
33
0.0000000000
40
0.0000000000
40
0.0000000000
40
0.0000000000
40
0.0000000000
40
0.0582016287
40
0.1186361138
40
0.1810237927
40
0.2450401802
40
0.3103258128
40
0.3764952984
40
0.4431458135
40
0.5098652489
40
0.5762401761
40
0.6418637887
40
0.7063439712
40
0.7693116575
40
0.8304296728
40
0.8894022833
40
0.9459857257
40
1.0000000000
40
1.0000000000
40
1.0000000000
40
1.0000000000
10
6.8899057664
20
-22.6760941426
30
0.0000000000
10
6.8781565043
20
-22.6839006924
30
0.0000000000
10
6.8535692511
20
-22.6988698491
30
0.0000000000
10
6.8145309099
20
-22.7189656983
30
0.0000000000
10
6.7729473736
20
-22.7369757702
30
0.0000000000
10
6.7292096396
20
-22.7527307202
30
0.0000000000
10
6.6837253925
20
-22.7660842648
30
0.0000000000
10
6.6369201499
20
-22.7769115233
30
0.0000000000
10
6.5892317713
20
-22.7851112814
30
0.0000000000
10
6.5411066218
20
-22.7906067912
30
0.0000000000
10
6.4929951554
20
-22.7933466133
30
0.0000000000
10
6.4453475737
20
-22.7933050750
30
0.0000000000
10
6.3986095000
20
-22.7904824866
30
0.0000000000
10
6.3532175047
20
-22.7849049436
30
0.0000000000
10
6.3095954368
20
-22.7766241577
30
0.0000000000
10
6.2681483649
20
-22.7657156619
30
0.0000000000
10
6.2292658076
20
-22.7522811164
30
0.0000000000
10
6.2046984443
20
-22.7414585444
30
0.0000000000
10
6.1929762010
20
-22.7356298366
30
0.0000000000
11
6.8899057664
21
-22.6760941426
31
0.0000000000
11
6.8537920550
21
-22.6981551098
31
0.0000000000
11
6.8147466145
21
-22.7183141659
31
0.0000000000
11
6.7731372630
21
-22.7363814075
31
0.0000000000
11
6.7293559713
21
-22.7521866365
31
0.0000000000
11
6.6838151701
21
-22.7655809636
31
0.0000000000
11
6.6369438656
21
-22.7764382108
31
0.0000000000
11
6.5891835973
21
-22.7846561002
31
0.0000000000
11
6.5409842792
21
-22.7901572171
31
0.0000000000
11
6.4927999611
21
-22.7928897395
31
0.0000000000
11
6.4450845515
21
-22.7928279265
31
0.0000000000
11
6.3982875419
21
-22.7899723603
31
0.0000000000
11
6.3528497719
21
-22.7843499411
31
0.0000000000
11
6.3091992770
21
-22.7760136334
31
0.0000000000
11
6.2677472559
21
-22.7650419675
31
0.0000000000
11
6.2288841973
21
-22.7515382993
31
0.0000000000
11
6.1929762010
21
-22.7356298366
31
0.0000000000
0
SPLINE
5
27E
100
AcDbEntity
8
0
100
AcDbSpline
62
9
6
CONTINUOUS
70
0
71
3
72
17
73
13
74
11
42
0.0000001000
43
0.0000001000
44
0.0000000001
12
0.0666317704
22
-0.5037103054
32
0.0000000000
13
0.4547679524
23
-0.2274005114
33
0.0000000000
40
0.0000000000
40
0.0000000000
40
0.0000000000
40
0.0000000000
40
0.1260634145
40
0.2472563962
40
0.3636729769
40
0.4755446794
40
0.5832607795
40
0.6873689506
40
0.7885735162
40
0.8877185443
40
0.9857565790
40
1.0000000000
40
1.0000000000
40
1.0000000000
40
1.0000000000
10
6.1929761845
20
-22.7356298480
30
0.0000000000
10
6.1957761273
20
-22.7567963283
30
0.0000000000
10
6.2028081809
20
-22.7981295383
30
0.0000000000
10
6.2180670007
20
-22.8578766556
30
0.0000000000
10
6.2377428061
20
-22.9137901005
30
0.0000000000
10
6.2617198462
20
-22.9655037185
30
0.0000000000
10
6.2898567540
20
-23.0126789332
30
0.0000000000
10
6.3219848957
20
-23.0549991515
30
0.0000000000
10
6.3579059646
20
-23.0921725078
30
0.0000000000
10
6.3973893341
20
-23.1239353476
30
0.0000000000
10
6.4280374215
20
-23.1426496908
30
0.0000000000
10
6.4449771887
20
-23.1513223147
30
0.0000000000
10
6.4471363391
20
-23.1524019684
30
0.0000000000
11
6.1929761845
21
-22.7356298480
31
0.0000000000
11
6.2038154926
21
-22.7987586490
31
0.0000000000
11
6.2191539825
21
-22.8583956690
31
0.0000000000
11
6.2388927090
21
-22.9141561489
31
0.0000000000
11
6.2629034804
21
-22.9656777497
31
0.0000000000
11
6.2910310271
21
-23.0126272334
31
0.0000000000
11
6.3230931036
21
-23.0547002083
31
0.0000000000
11
6.3588819840
21
-23.0916239722
31
0.0000000000
11
6.3981657387
21
-23.1231591811
31
0.0000000000
11
6.4406900921
21
-23.1491016185
31
0.0000000000
11
6.4471363391
21
-23.1524019684
31
0.0000000000
0
SPLINE
5
27F
100
AcDbEntity
8
0
100
AcDbSpline
62
9
6
CONTINUOUS
70
0
71
3
72
24
73
20
74
18
42
0.0000001000
43
0.0000001000
44
0.0000000001
12
0.0621864859
22
-0.4663236849
32
0.0000000000
13
0.4337870126
23
0.1820817558
33
0.0000000000
40
0.0000000000
40
0.0000000000
40
0.0000000000
40
0.0000000000
40
0.0681284858
40
0.1336799835
40
0.1966948042
40
0.2573024574
40
0.3157164688
40
0.3722341226
40
0.4272349264
40
0.4811709792
40
0.5345499975
40
0.5879095709
40
0.6417889625
40
0.6966986312
40
0.7530953989
40
0.8113642802
40
0.8718094578
40
0.9346486296
40
1.0000000000
40
1.0000000000
40
1.0000000000
40
1.0000000000
10
6.8899057664
20
-22.6760941426
30
0.0000000000
10
6.8913179901
20
-22.6866841181
30
0.0000000000
10
6.8948655139
20
-22.7073709764
30
0.0000000000
10
6.9025614650
20
-22.7372777148
30
0.0000000000
10
6.9124859676
20
-22.7652792134
30
0.0000000000
10
6.9245800475
20
-22.7911894536
30
0.0000000000
10
6.9387721278
20
-22.8148386274
30
0.0000000000
10
6.9549768300
20
-22.8360679006
30
0.0000000000
10
6.9730937092
20
-22.8547309228
30
0.0000000000
10
6.9930060823
20
-22.8706956225
30
0.0000000000
10
7.0145804064
20
-22.8838472736
30
0.0000000000
10
7.0376674894
20
-22.8940922293
30
0.0000000000
10
7.0621054902
20
-22.9013608008
30
0.0000000000
10
7.0877241491
20
-22.9056082960
30
0.0000000000
10
7.1143484862
20
-22.9068138835
30
0.0000000000
10
7.1418010725
20
-22.9049785666
30
0.0000000000
10
7.1699035333
20
-22.9001224543
30
0.0000000000
10
7.1984704052
20
-22.8922860468
30
0.0000000000
10
7.2173324000
20
-22.8852506267
30
0.0000000000
10
7.2267819252
20
-22.8812841959
30
0.0000000000
11
6.8899057664
21
-22.6760941426
31
0.0000000000
11
6.8953709994
21
-22.7076759228
31
0.0000000000
11
6.9031064357
21
-22.7375288294
31
0.0000000000
11
6.9130611547
21
-22.7654529337
31
0.0000000000
11
6.9251705382
21
-22.7912667476
31
0.0000000000
11
6.9393562677
21
-22.8148033002
31
0.0000000000
11
6.9555264335
21
-22.8359099783
31
0.0000000000
11
6.9735762681
21
-22.8544499614
31
0.0000000000
11
6.9933887802
21
-22.8703030448
31
0.0000000000
11
7.0148356991
21
-22.8833665493
31
0.0000000000
11
7.0377779471
21
-22.8935557288
31
0.0000000000
11
7.0620669946
21
-22.9008045905
31
0.0000000000
11
7.0875454167
21
-22.9050661123
31
0.0000000000
11
7.1140480810
21
-22.9063126530
31
0.0000000000
11
7.1414031589
21
-22.9045361427
31
0.0000000000
11
7.1694336971
21
-22.8997480291
31
0.0000000000
11
7.1979575320
21
-22.8919794873
31
0.0000000000
11
7.2267819252
21
-22.8812841959
31
0.0000000000
0
SPLINE
5
280
100
AcDbEntity
8
0
100
AcDbSpline
62
9
6
CONTINUOUS
70
0
71
3
72
17
73
13
74
11
42
0.0000001000
43
0.0000001000
44
0.0000000001
12
-0.0143932901
22
-0.3376442498
32
0.0000000000
13
-0.3119368616
23
-0.1309286533
33
0.0000000000
40
0.0000000000
40
0.0000000000
40
0.0000000000
40
0.0000000000
40
0.1258486274
40
0.2466401294
40
0.3621658582
40
0.4724040736
40
0.5775478727
40
0.6780295861
40
0.7745351835
40
0.8679993480
40
0.9595712428
40
1.0000000000
40
1.0000000000
40
1.0000000000
40
1.0000000000
10
7.2267819252
20
-22.8812841959
30
0.0000000000
10
7.2261781333
20
-22.8954482177
30
0.0000000000
10
7.2239237035
20
-22.9231769344
30
0.0000000000
10
7.2171741373
20
-22.9634646942
30
0.0000000000
10
7.2071802905
20
-23.0012669051
30
0.0000000000
10
7.1940282828
20
-23.0362213932
30
0.0000000000
10
7.1778307176
20
-23.0679941675
30
0.0000000000
10
7.1587266677
20
-23.0962747110
30
0.0000000000
10
7.1368834538
20
-23.1207773246
30
0.0000000000
10
7.1125009752
20
-23.1412427168
30
0.0000000000
10
7.0907033868
20
-23.1544775467
30
0.0000000000
10
7.0771780613
20
-23.1607146129
30
0.0000000000
10
7.0729743214
20
-23.1624790405
30
0.0000000000
11
7.2267819252
21
-22.8812841959
31
0.0000000000
11
7.2232676905
21
-22.9236694157
31
0.0000000000
11
7.2164461764
21
-22.9639170199
31
0.0000000000
11
7.2063830015
21
-23.0016398524
31
0.0000000000
11
7.1931749671
21
-23.0364750437
31
0.0000000000
11
7.1769491259
21
-23.0680875016
31
0.0000000000
11
7.1578615602
21
-23.0961731345
31
0.0000000000
11
7.1360958802
21
-23.1204617766
31
0.0000000000
11
7.1118614576
21
-23.1407197868
31
0.0000000000
11
7.0853914122
21
-23.1567522960
31
0.0000000000
11
7.0729743214
21
-23.1624790405
31
0.0000000000
0
SPLINE
5
281
100
AcDbEntity
8
0
100
AcDbSpline
62
9
6
CONTINUOUS
70
0
71
3
72
16
73
12
74
10
42
0.0000001000
43
0.0000001000
44
0.0000000001
12
0.0001853563
22
-0.2420196852
32
0.0000000000
13
0.2161653040
23
-0.1080858688
33
0.0000000000
40
0.0000000000
40
0.0000000000
40
0.0000000000
40
0.0000000000
40
0.0562552043
40
0.1526295023
40
0.2525225596
40
0.3577935128
40
0.4698693694
40
0.5897318131
40
0.7179494228
40
0.8547284375
40
1.0000000000
40
1.0000000000
40
1.0000000000
40
1.0000000000
10
-9.5926901472
20
2.5220582443
30
0.0000000000
10
-9.5926866715
20
2.5175199554
30
0.0000000000
10
-9.5920173258
20
2.5052069941
30
0.0000000000
10
-9.5879632679
20
2.4851617939
30
0.0000000000
10
-9.5790917168
20
2.4624289635
30
0.0000000000
10
-9.5661434899
20
2.4402865565
30
0.0000000000
10
-9.5492601672
20
2.4189065174
30
0.0000000000
10
-9.5286002316
20
2.3984463850
30
0.0000000000
10
-9.5043409487
20
2.3790572861
30
0.0000000000
10
-9.4766843611
20
2.3608864854
30
0.0000000000
10
-9.4567120230
20
2.3499958236
30
0.0000000000
10
-9.4462444659
20
2.3447618892
30
0.0000000000
11
-9.5926901472
21
2.5220582443
31
0.0000000000
11
-9.5919513219
21
2.5084702871
31
0.0000000000
11
-9.5873872018
21
2.4856299469
31
0.0000000000
11
-9.5786957526
21
2.4631064035
31
0.0000000000
11
-9.5659494701
21
2.4410875413
31
0.0000000000
11
-9.5492548936
21
2.4197573067
31
0.0000000000
11
-9.5287511316
21
2.3992933766
31
0.0000000000
11
-9.5046090839
21
2.3798663967
31
0.0000000000
11
-9.4770313161
21
2.3616392185
31
0.0000000000
11
-9.4462444659
21
2.3447618892
31
0.0000000000
0
SPLINE
5
282
100
AcDbEntity
8
0
100
AcDbSpline
62
9
6
CONTINUOUS
70
0
71
3
72
10
73
6
74
4
42
0.0000001000
43
0.0000001000
44
0.0000000001
12
-0.1206266828
22
7.8497390048
32
0.0000000000
13
-0.0050121687
23
7.8506641832
33
0.0000000000
40
0.0000000000
40
0.0000000000
40
0.0000000000
40
0.0000000000
40
0.3324836803
40
0.6658152438
40
1.0000000000
40
1.0000000000
40
1.0000000000
40
1.0000000000
10
-9.3836451518
20
-5.5055912491
30
0.0000000000
10
-9.3970139529
20
-4.6356212112
30
0.0000000000
10
-9.4194709850
20
-2.8933931346
30
0.0000000000
10
-9.4403212661
20
-0.2765781459
30
0.0000000000
10
-9.4456861361
20
1.4702377905
30
0.0000000000
10
-9.4462444662
20
2.3447618893
30
0.0000000000
11
-9.3836451518
21
-5.5055912491
31
0.0000000000
11
-9.4173041940
21
-2.8955900240
31
0.0000000000
11
-9.4381706811
21
-0.2787985186
31
0.0000000000
11
-9.4462444662
21
2.3447618893
31
0.0000000000
0
SPLINE
5
283
100
AcDbEntity
8
0
100
AcDbSpline
62
9
6
CONTINUOUS
70
0
71
3
72
14
73
10
74
8
42
0.0000001000
43
0.0000001000
44
0.0000000001
12
-1.2564815592
22
9.7341744173
32
0.0000000000
13
-0.1508202281
23
9.8137735226
33
0.0000000000
40
0.0000000000
40
0.0000000000
40
0.0000000000
40
0.0000000000
40
0.1391721989
40
0.2795914017
40
0.4212478168
40
0.5641301952
40
0.7082259028
40
0.8535209374
40
1.0000000000
40
1.0000000000
40
1.0000000000
40
1.0000000000
10
-8.6957457870
20
-15.2912688622
30
0.0000000000
10
-8.7540348875
20
-14.8396933762
30
0.0000000000
10
-8.8633247601
20
-13.9314695848
30
0.0000000000
10
-9.0049183660
20
-12.5605286277
30
0.0000000000
10
-9.1248587114
20
-11.1753369885
30
0.0000000000
10
-9.2231035795
20
-9.7763826318
30
0.0000000000
10
-9.2996191865
20
-8.3641501328
30
0.0000000000
10
-9.3543789820
20
-6.9391359501
30
0.0000000000
10
-9.3762811499
20
-5.9847620313
30
0.0000000000
10
-9.3836451518
20
-5.5055912491
30
0.0000000000
11
-8.6957457870
21
-15.2912688622
31
0.0000000000
11
-8.8590436115
21
-13.9350991937
31
0.0000000000
11
-9.0007356060
21
-12.5641971751
31
0.0000000000
11
-9.1207724226
21
-11.1790404697
31
0.0000000000
11
-9.2191122480
21
-9.7801118033
31
0.0000000000
11
-9.2957208373
21
-8.3678985519
31
0.0000000000
11
-9.3505715054
21
-6.9428928656
31
0.0000000000
11
-9.3836451518
21
-5.5055912491
31
0.0000000000
0
SPLINE
5
284
100
AcDbEntity
8
0
100
AcDbSpline
62
7
6
CONTINUOUS
70
0
71
3
72
10
73
6
74
4
42
0.0000001000
43
0.0000001000
44
0.0000000001
12
0.0038194220
22
0.0583077270
32
0.0000000000
13
0.0000000000
23
0.0584326879
33
0.0000000000
40
0.0000000000
40
0.0000000000
40
0.0000000000
40
0.0000000000
40
0.3510198703
40
0.6836721356
40
1.0000000000
40
1.0000000000
40
1.0000000000
40
1.0000000000
10
-4.2347227636
20
0.4392850783
30
0.0000000000
10
-4.2342758659
20
0.4461074686
30
0.0000000000
10
-4.2335319638
20
0.4594040298
30
0.0000000000
10
-4.2328501808
20
0.4788710081
30
0.0000000000
10
-4.2326917596
20
0.4915119658
30
0.0000000000
10
-4.2326917596
20
0.4976732616
30
0.0000000000
11
-4.2347227636
21
0.4392850783
31
0.0000000000
11
-4.2335852062
21
0.4597645437
31
0.0000000000
11
-4.2329136791
21
0.4791907064
31
0.0000000000
11
-4.2326917596
21
0.4976732616
31
0.0000000000
0
SPLINE
5
285
100
AcDbEntity
8
0
100
AcDbSpline
62
7
6
CONTINUOUS
70
0
71
3
72
16
73
12
74
10
42
0.0000001000
43
0.0000001000
44
0.0000000001
12
0.0000000000
22
-0.1598741703
32
0.0000000000
13
-0.1447547159
23
-0.0683713806
33
0.0000000000
40
0.0000000000
40
0.0000000000
40
0.0000000000
40
0.0000000000
40
0.1478351037
40
0.2890370070
40
0.4223657598
40
0.5477679114
40
0.6671459460
40
0.7810610899
40
0.8904165969
40
0.9977941250
40
1.0000000000
40
1.0000000000
40
1.0000000000
40
1.0000000000
10
9.8641360620
20
-2.6324698542
30
0.0000000000
10
9.8641360620
20
-2.6403481924
30
0.0000000000
10
9.8634511546
20
-2.6557634471
30
0.0000000000
10
9.8601953364
20
-2.6780763839
30
0.0000000000
10
9.8547639221
20
-2.6987377031
30
0.0000000000
10
9.8472211359
20
-2.7174859578
30
0.0000000000
10
9.8376337350
20
-2.7341050077
30
0.0000000000
10
9.8260912242
20
-2.7483613933
30
0.0000000000
10
9.8127578304
20
-2.7600215794
30
0.0000000000
10
9.8026773046
20
-2.7660260837
30
0.0000000000
10
9.7973944688
20
-2.7685335685
30
0.0000000000
10
9.7972880319
20
-2.7685838414
30
0.0000000000
11
9.8641360620
21
-2.6324698542
31
0.0000000000
11
9.8630317406
21
-2.6560790556
31
0.0000000000
11
9.8597081669
21
-2.6784075930
31
0.0000000000
11
9.8542187551
21
-2.6990044544
31
0.0000000000
11
9.8466653984
21
-2.7175757160
31
0.0000000000
11
9.8370627029
21
-2.7340694477
31
0.0000000000
11
9.8255517709
21
-2.7481825138
31
0.0000000000
11
9.8123625884
21
-2.7596587930
31
0.0000000000
11
9.7976070558
21
-2.7684324172
31
0.0000000000
11
9.7972880319
21
-2.7685838414
31
0.0000000000
0
SPLINE
5
286
100
AcDbEntity
8
0
100
AcDbSpline
62
7
6
CONTINUOUS
70
0
71
3
72
17
73
13
74
11
42
0.0000001000
43
0.0000001000
44
0.0000000001
12
-0.0001443419
22
-0.2530205857
32
0.0000000000
13
0.2263638491
23
-0.1131652026
33
0.0000000000
40
0.0000000000
40
0.0000000000
40
0.0000000000
40
0.0000000000
40
0.0872052434
40
0.1984439255
40
0.3078826794
40
0.4156471766
40
0.5218104991
40
0.6267627577
40
0.7308059902
40
0.8341778157
40
0.9371156895
40
1.0000000000
40
1.0000000000
40
1.0000000000
40
1.0000000000
10
1.3896873455
20
-2.3428484645
30
0.0000000000
10
1.3896831497
20
-2.3502033717
30
0.0000000000
10
1.3904017217
20
-2.3669491093
30
0.0000000000
10
1.3941539641
20
-2.3926895826
30
0.0000000000
10
1.4013313448
20
-2.4195002526
30
0.0000000000
10
1.4114580597
20
-2.4448805227
30
0.0000000000
10
1.4243376198
20
-2.4685507266
30
0.0000000000
10
1.4397535679
20
-2.4902688038
30
0.0000000000
10
1.4574828084
20
-2.5098260100
30
0.0000000000
10
1.4772840278
20
-2.5270252650
30
0.0000000000
10
1.4961076641
20
-2.5397949212
30
0.0000000000
10
1.5083960667
20
-2.5465073136
30
0.0000000000
10
1.5131409782
20
-2.5488794188
30
0.0000000000
11
1.3896873455
21
-2.3428484645
31
0.0000000000
11
1.3906429697
21
-2.3648911345
31
0.0000000000
11
1.3947178776
21
-2.3927293240
31
0.0000000000
11
1.4018897717
21
-2.4194636546
31
0.0000000000
11
1.4120007607
21
-2.4447750234
31
0.0000000000
11
1.4248416450
21
-2.4683567346
31
0.0000000000
11
1.4402113832
21
-2.4899993090
31
0.0000000000
11
1.4578885734
21
-2.5094927342
31
0.0000000000
11
1.4776288869
21
-2.5266359024
31
0.0000000000
11
1.4991755517
21
-2.5412503571
31
0.0000000000
11
1.5131409782
21
-2.5488794188
31
0.0000000000
0
SPLINE
5
287
100
AcDbEntity
8
0
100
AcDbSpline
62
7
6
CONTINUOUS
70
0
71
3
72
10
73
6
74
4
42
0.0000001000
43
0.0000001000
44
0.0000000001
12
-0.0004482321
22
-0.3470716601
32
0.0000000000
13
-0.0002234011
23
-0.3470718776
33
0.0000000000
40
0.0000000000
40
0.0000000000
40
0.0000000000
40
0.0000000000
40
0.3286218238
40
0.6728623379
40
1.0000000000
40
1.0000000000
40
1.0000000000
40
1.0000000000
10
1.3900230530
20
-1.9957647244
30
0.0000000000
10
1.3899739534
20
-2.0337831650
30
0.0000000000
10
1.3898817021
20
-2.1116269922
30
0.0000000000
10
1.3897698085
20
-2.2273175888
30
0.0000000000
10
1.3897115788
20
-2.3049897451
30
0.0000000000
10
1.3896872178
20
-2.3428365060
30
0.0000000000
11
1.3900230530
21
-1.9957647244
31
0.0000000000
11
1.3898878894
21
-2.1098200614
31
0.0000000000
11
1.3897723360
21
-2.2292962318
31
0.0000000000
11
1.3896872178
21
-2.3428365060
31
0.0000000000
0
SPLINE
5
288
100
AcDbEntity
8
0
100
AcDbSpline
62
7
6
CONTINUOUS
70
0
71
3
72
26
73
22
74
20
42
0.0000001000
43
0.0000001000
44
0.0000000001
12
0.7238327868
22
-0.3618943393
32
0.0000000000
13
-0.0010560060
23
-0.8092479989
33
0.0000000000
40
0.0000000000
40
0.0000000000
40
0.0000000000
40
0.0000000000
40
0.0326001611
40
0.0739341020
40
0.1188466889
40
0.1670473360
40
0.2182288343
40
0.2720665757
40
0.3282142578
40
0.3862520067
40
0.4456936646
40
0.5060339878
40
0.5667554782
40
0.6273364590
40
0.6872573360
40
0.7460170440
40
0.8031449412
40
0.8581892042
40
0.9107175644
40
0.9603287957
40
1.0000000000
40
1.0000000000
40
1.0000000000
40
1.0000000000
10
1.0067533789
20
-1.3206755847
30
0.0000000000
10
1.0146190674
20
-1.3246081893
30
0.0000000000
10
1.0321396176
20
-1.3341758311
30
0.0000000000
10
1.0591481315
20
-1.3514919365
30
0.0000000000
10
1.0882566273
20
-1.3731684425
30
0.0000000000
10
1.1178990134
20
-1.3984310644
30
0.0000000000
10
1.1476472715
20
-1.4271564961
30
0.0000000000
10
1.1770956815
20
-1.4591673270
30
0.0000000000
10
1.2058514666
20
-1.4942278370
30
0.0000000000
10
1.2335294523
20
-1.5320349249
30
0.0000000000
10
1.2597590272
20
-1.5722178897
30
0.0000000000
10
1.2841988201
20
-1.6143525247
30
0.0000000000
10
1.3065480271
20
-1.6579777899
30
0.0000000000
10
1.3265504112
20
-1.7026037859
30
0.0000000000
10
1.3439990489
20
-1.7477221062
30
0.0000000000
10
1.3587404464
20
-1.7928175085
30
0.0000000000
10
1.3706760349
20
-1.8373755166
30
0.0000000000
10
1.3797629481
20
-1.8808853807
30
0.0000000000
10
1.3860167019
20
-1.9228444622
30
0.0000000000
10
1.3893584877
20
-1.9609721244
30
0.0000000000
10
1.3900370620
20
-1.9850618331
30
0.0000000000
10
1.3900230976
20
-1.9957631140
30
0.0000000000
11
1.0067533789
21
-1.3206755847
31
0.0000000000
11
1.0299302054
21
-1.3332798248
31
0.0000000000
11
1.0581219145
21
-1.3512780794
31
0.0000000000
11
1.0873048107
21
-1.3729383467
31
0.0000000000
11
1.1170230683
21
-1.3981991133
31
0.0000000000
11
1.1468463452
21
-1.4269363938
31
0.0000000000
11
1.1763684842
21
-1.4589732659
31
0.0000000000
11
1.2052041073
21
-1.4940842497
31
0.0000000000
11
1.2329643425
21
-1.5319651126
31
0.0000000000
11
1.2592692894
21
-1.5722346470
31
0.0000000000
11
1.2837755243
21
-1.6144663236
31
0.0000000000
11
1.3061803476
21
-1.6581962815
31
0.0000000000
11
1.3262261782
21
-1.7029320571
31
0.0000000000
11
1.3437040426
21
-1.7481599749
31
0.0000000000
11
1.3584594894
21
-1.7933604315
31
0.0000000000
11
1.3703951696
21
-1.8380204630
31
0.0000000000
11
1.3794683941
21
-1.8816279575
31
0.0000000000
11
1.3856945611
21
-1.9236750416
31
0.0000000000
11
1.3891526195
21
-1.9636708659
31
0.0000000000
11
1.3900230976
21
-1.9957631140
31
0.0000000000
0
SPLINE
5
289
100
AcDbEntity
8
0
100
AcDbSpline
62
7
6
CONTINUOUS
70
0
71
3
72
15
73
11
74
9
42
0.0000001000
43
0.0000001000
44
0.0000000001
12
0.1255717000
22
0.0604548192
32
0.0000000000
13
0.1245625779
23
-0.0622830668
33
0.0000000000
40
0.0000000000
40
0.0000000000
40
0.0000000000
40
0.0000000000
40
0.0614662513
40
0.1484056608
40
0.2503146809
40
0.3708847411
40
0.5105357532
40
0.6681252490
40
0.8422110403
40
1.0000000000
40
1.0000000000
40
1.0000000000
40
1.0000000000
10
-5.0637907432
20
1.6678997998
30
0.0000000000
10
-5.0612179359
20
1.6691384435
30
0.0000000000
10
-5.0547975946
20
1.6717152150
30
0.0000000000
10
-5.0434381422
20
1.6743684834
30
0.0000000000
10
-5.0290735818
20
1.6755080114
30
0.0000000000
10
-5.0122460676
20
1.6746228141
30
0.0000000000
10
-4.9930891022
20
1.6713721136
30
0.0000000000
10
-4.9719713165
20
1.6655325454
30
0.0000000000
10
-4.9506832814
20
1.6575227943
30
0.0000000000
10
-4.9366914775
20
1.6510469372
30
0.0000000000
10
-4.9301399443
20
1.6477710771
30
0.0000000000
11
-5.0637907432
21
1.6678997998
31
0.0000000000
11
-5.0558456824
21
1.6711007444
31
0.0000000000
11
-5.0440757009
21
1.6739329668
31
0.0000000000
11
-5.0299378657
21
1.6751532642
31
0.0000000000
11
-5.0131672097
21
1.6743713679
31
0.0000000000
11
-4.9939802144
21
1.6712092556
31
0.0000000000
11
-4.9728087079
21
1.6654393220
31
0.0000000000
11
-4.9500961831
21
1.6569685835
31
0.0000000000
11
-4.9301399443
21
1.6477710771
31
0.0000000000
0
SPLINE
5
28A
100
AcDbEntity
8
0
100
AcDbSpline
62
7
6
CONTINUOUS
70
0
71
3
72
16
73
12
74
10
42
0.0000001000
43
0.0000001000
44
0.0000000001
12
0.1836536699
22
-0.0918388482
32
0.0000000000
13
0.1850828104
23
0.0888628557
33
0.0000000000
40
0.0000000000
40
0.0000000000
40
0.0000000000
40
0.0000000000
40
0.0683570797
40
0.1866670522
40
0.3052839015
40
0.4244255619
40
0.5443138340
40
0.6652217718
40
0.7875203937
40
0.9116335295
40
1.0000000000
40
1.0000000000
40
1.0000000000
40
1.0000000000
10
-5.4134840192
20
0.9144330312
30
0.0000000000
10
-5.4092993431
20
0.9123404194
30
0.0000000000
10
-5.3976863977
20
0.9069903152
30
0.0000000000
10
-5.3779891553
20
0.8999295388
30
0.0000000000
10
-5.3542431149
20
0.8942821968
30
0.0000000000
10
-5.3299121530
20
0.8912789527
30
0.0000000000
10
-5.3052413267
20
0.8909744415
30
0.0000000000
10
-5.2804718779
20
0.8934069806
30
0.0000000000
10
-5.2558350641
20
0.8986023723
30
0.0000000000
10
-5.2340358116
20
0.9057622843
30
0.0000000000
10
-5.2206846363
20
0.9115634184
30
0.0000000000
10
-5.2152329314
20
0.9141809174
30
0.0000000000
11
-5.4134840192
21
0.9144330312
31
0.0000000000
11
-5.4007362720
21
0.9085605204
31
0.0000000000
11
-5.3778808458
21
0.9003660351
31
0.0000000000
11
-5.3541987472
21
0.8947321642
31
0.0000000000
11
-5.3299325881
21
0.8917336498
31
0.0000000000
11
-5.3053305757
21
0.8914256955
31
0.0000000000
11
-5.2806356142
21
0.8938451459
31
0.0000000000
11
-5.2560755157
21
0.8990163489
31
0.0000000000
11
-5.2318734719
21
0.9069556206
31
0.0000000000
11
-5.2152329314
21
0.9141809174
31
0.0000000000
0
SPLINE
5
28B
100
AcDbEntity
8
0
100
AcDbSpline
62
7
6
CONTINUOUS
70
0
71
3
72
18
73
14
74
12
42
0.0000001000
43
0.0000001000
44
0.0000000001
12
-0.0002681744
22
-0.3972303476
32
0.0000000000
13
0.3551851042
23
-0.1776008002
33
0.0000000000
40
0.0000000000
40
0.0000000000
40
0.0000000000
40
0.0000000000
40
0.0561083157
40
0.1414489608
40
0.2272356357
40
0.3142255498
40
0.4031522369
40
0.4947721238
40
0.5896267015
40
0.6882011532
40
0.7912090656
40
0.8996603964
40
1.0000000000
40
1.0000000000
40
1.0000000000
40
1.0000000000
10
-9.5926910779
20
3.2099851242
30
0.0000000000
10
-9.5926960936
20
3.2025558156
30
0.0000000000
10
-9.5920385752
20
3.1838201323
30
0.0000000000
10
-9.5882715702
20
3.1539260484
30
0.0000000000
10
-9.5803435142
20
3.1206279629
30
0.0000000000
10
-9.5687083542
20
3.0879334465
30
0.0000000000
10
-9.5532792930
20
3.0559873717
30
0.0000000000
10
-9.5339460361
20
3.0250051367
30
0.0000000000
10
-9.5106112430
20
2.9952702733
30
0.0000000000
10
-9.4832048562
20
2.9670960728
30
0.0000000000
10
-9.4516400162
20
2.9407657859
30
0.0000000000
10
-9.4173967441
20
2.9176221565
30
0.0000000000
10
-9.3931572944
20
2.9042696693
30
0.0000000000
10
-9.3812775835
20
2.8983295380
30
0.0000000000
11
-9.5926910779
21
3.2099851242
31
0.0000000000
11
-9.5919089620
21
3.1877121438
31
0.0000000000
11
-9.5876772885
21
3.1540933246
31
0.0000000000
11
-9.5797950334
21
3.1209567162
31
0.0000000000
11
-9.5682261544
21
3.0884129172
31
0.0000000000
11
-9.5528858198
21
3.0566116086
31
0.0000000000
11
-9.5336481411
21
3.0257374227
31
0.0000000000
11
-9.5104231530
21
2.9960896072
31
0.0000000000
11
-9.4831636397
21
2.9680050476
31
0.0000000000
11
-9.4517920942
21
2.9417650375
31
0.0000000000
11
-9.4161527001
21
2.9175988517
31
0.0000000000
11
-9.3812775835
21
2.8983295380
31
0.0000000000
0
SPLINE
5
28C
100
AcDbEntity
8
0
100
AcDbSpline
62
7
6
CONTINUOUS
70
0
71
3
72
20
73
16
74
14
42
0.0000001000
43
0.0000001000
44
0.0000000001
12
0.5247030440
22
-0.2623635200
32
0.0000000000
13
0.5304437274
23
0.2505651345
33
0.0000000000
40
0.0000000000
40
0.0000000000
40
0.0000000000
40
0.0000000000
40
0.0693842824
40
0.1479814810
40
0.2262982711
40
0.3045612374
40
0.3828705425
40
0.4612379154
40
0.5396118686
40
0.6179463646
40
0.6962135010
40
0.7744456975
40
0.8527591304
40
0.9313920749
40
1.0000000000
40
1.0000000000
40
1.0000000000
40
1.0000000000
10
5.4809151569
20
-4.5327668109
30
0.0000000000
10
5.4930505383
20
-4.5388347791
30
0.0000000000
10
5.5194702635
20
-4.5507275069
30
0.0000000000
10
5.5611682621
20
-4.5656576549
30
0.0000000000
10
5.6055513999
20
-4.5778367682
30
0.0000000000
10
5.6506135442
20
-4.5868804940
30
0.0000000000
10
5.6961760389
20
-4.5929671492
30
0.0000000000
10
5.7420489206
20
-4.5962028764
30
0.0000000000
10
5.7880379744
20
-4.5966384267
30
0.0000000000
10
5.8339492817
20
-4.5942760111
30
0.0000000000
10
5.8795994518
20
-4.5890679324
30
0.0000000000
10
5.9248145067
20
-4.5809084519
30
0.0000000000
10
5.9694316642
20
-4.5696176919
30
0.0000000000
10
6.0112882644
20
-4.5555918784
30
0.0000000000
10
6.0378234994
20
-4.5443280338
30
0.0000000000
10
6.0499543806
20
-4.5385977824
30
0.0000000000
11
5.4809151569
21
-4.5327668109
31
0.0000000000
11
5.5180117650
21
-4.5495189329
31
0.0000000000
11
5.5613955578
21
-4.5651175700
31
0.0000000000
11
5.6056838547
21
-4.5773191613
31
0.0000000000
11
5.6506863521
21
-4.5863860025
31
0.0000000000
11
5.6962128785
21
-4.5924904354
31
0.0000000000
11
5.7420661803
21
-4.5957359992
31
0.0000000000
11
5.7880359957
21
-4.5961717954
31
0.0000000000
11
5.8339234914
21
-4.5938002721
31
0.0000000000
11
5.8795343946
21
-4.5885750934
31
0.0000000000
11
5.9246877605
21
-4.5803928478
31
0.0000000000
11
5.9692091159
21
-4.5690791365
31
0.0000000000
11
6.0129237268
21
-4.5543673211
31
0.0000000000
11
6.0499543806
21
-4.5385977824
31
0.0000000000
0
SPLINE
5
28D
100
AcDbEntity
8
0
100
AcDbSpline
62
7
6
CONTINUOUS
70
0
71
3
72
10
73
6
74
4
42
0.0000001000
43
0.0000001000
44
0.0000000001
12
-0.1197133480
22
-7.9144082483
32
0.0000000000
13
-0.0050426719
23
-7.9153119996
33
0.0000000000
40
0.0000000000
40
0.0000000000
40
0.0000000000
40
0.0000000000
40
0.3340009048
40
0.6678655175
40
1.0000000000
40
1.0000000000
40
1.0000000000
40
1.0000000000
10
-9.5300983942
20
11.1249711013
30
0.0000000000
10
-9.5434265164
20
10.2438312627
30
0.0000000000
10
-9.5658617756
20
8.4818442966
30
0.0000000000
10
-9.5867382412
20
5.8434797874
30
0.0000000000
10
-9.5921331235
20
4.0862825757
30
0.0000000000
10
-9.5926914052
20
3.2099665575
30
0.0000000000
11
-9.5300983942
21
11.1249711013
31
0.0000000000
11
-9.5637423404
21
8.4814632892
31
0.0000000000
11
-9.5846360875
21
5.8389028007
31
0.0000000000
11
-9.5926914052
21
3.2099665575
31
0.0000000000
0
SPLINE
5
28E
100
AcDbEntity
8
0
100
AcDbSpline
62
7
6
CONTINUOUS
70
0
71
3
72
14
73
10
74
8
42
0.0000001000
43
0.0000001000
44
0.0000000001
12
-1.1894824436
22
-10.4477178824
32
0.0000000000
13
-0.1590352219
23
-10.5140092137
33
0.0000000000
40
0.0000000000
40
0.0000000000
40
0.0000000000
40
0.0000000000
40
0.1453313208
40
0.2902917049
40
0.4343123046
40
0.5773713047
40
0.7194466958
40
0.8605185225
40
1.0000000000
40
1.0000000000
40
1.0000000000
40
1.0000000000
10
-8.8429360462
20
21.6135613314
30
0.0000000000
10
-8.9005590643
20
21.1074344517
30
0.0000000000
10
-9.0089296331
20
20.0956927808
30
0.0000000000
10
-9.1505432805
20
18.5799535770
30
0.0000000000
10
-9.2706709534
20
17.0703461584
30
0.0000000000
10
-9.3690889282
20
15.5693017686
30
0.0000000000
10
-9.4457594021
20
14.0773365899
30
0.0000000000
10
-9.5005780128
20
12.5969591756
30
0.0000000000
10
-9.5227042380
20
11.6138076163
30
0.0000000000
10
-9.5300983939
20
11.1249711031
30
0.0000000000
11
-8.8429360462
21
21.6135613314
31
0.0000000000
11
-9.0056301235
21
20.0940567952
31
0.0000000000
11
-9.1473581466
21
18.5763710402
31
0.0000000000
11
-9.2674183818
21
17.0667307078
31
0.0000000000
11
-9.3657659444
21
15.5656535032
31
0.0000000000
11
-9.4423624943
21
14.0736657217
31
0.0000000000
11
-9.4971777584
21
12.5912788717
31
0.0000000000
11
-9.5300983939
21
11.1249711031
31
0.0000000000
0
SPLINE
5
28F
100
AcDbEntity
8
0
100
AcDbSpline
62
7
6
CONTINUOUS
70
0
71
3
72
21
73
17
74
15
42
0.0000001000
43
0.0000001000
44
0.0000000001
12
-0.9607911184
22
-0.5602387738
32
0.0000000000
13
-0.1258074115
23
-1.1050407308
33
0.0000000000
40
0.0000000000
40
0.0000000000
40
0.0000000000
40
0.0000000000
40
0.0633872680
40
0.1339168614
40
0.2055768976
40
0.2780236239
40
0.3508463066
40
0.4237036883
40
0.4965326863
40
0.5693040736
40
0.6420567234
40
0.7148476442
40
0.7876642188
40
0.8604523040
40
0.9331817814
40
1.0000000000
40
1.0000000000
40
1.0000000000
40
1.0000000000
10
-8.2726862335
20
22.5252225390
30
0.0000000000
10
-8.2929868749
20
22.5133852039
30
0.0000000000
10
-8.3349434269
20
22.4867422075
30
0.0000000000
10
-8.3960610099
20
22.4410982110
30
0.0000000000
10
-8.4560939801
20
22.3887655381
30
0.0000000000
10
-8.5127940503
20
22.3316452342
30
0.0000000000
10
-8.5657183131
20
22.2704286736
30
0.0000000000
10
-8.6145804570
20
22.2057518202
30
0.0000000000
10
-8.6592285690
20
22.1381241230
30
0.0000000000
10
-8.6995931439
20
22.0679029554
30
0.0000000000
10
-8.7356018876
20
21.9953684612
30
0.0000000000
10
-8.7671445998
20
21.9207645717
30
0.0000000000
10
-8.7940532954
20
21.8443515028
30
0.0000000000
10
-8.8161094544
20
21.7664187072
30
0.0000000000
10
-8.8326028738
20
21.6893962032
30
0.0000000000
10
-8.8401342579
20
21.6381710976
30
0.0000000000
10
-8.8429363336
20
21.6135588132
30
0.0000000000
11
-8.2726862335
21
22.5252225390
31
0.0000000000
11
-8.3322255104
21
22.4874707984
31
0.0000000000
11
-8.3951091451
21
22.4405868439
31
0.0000000000
11
-8.4552211034
21
22.3882627398
31
0.0000000000
11
-8.5120185384
21
22.3311179624
31
0.0000000000
11
-8.5650177107
21
22.2698798148
31
0.0000000000
11
-8.6138858739
21
22.2052487259
31
0.0000000000
11
-8.6585292710
21
22.1376681981
31
0.0000000000
11
-8.6988717183
21
22.0675092857
31
0.0000000000
11
-8.7348505393
21
21.9950390299
31
0.0000000000
11
-8.7663679218
21
21.9204739084
31
0.0000000000
11
-8.7932487257
21
21.8440844778
31
0.0000000000
11
-8.8152654472
21
21.7661867490
31
0.0000000000
11
-8.8321634520
21
21.6870874351
31
0.0000000000
11
-8.8429363336
21
21.6135588132
31
0.0000000000
0
SPLINE
5
290
100
AcDbEntity
8
0
100
AcDbSpline
62
7
6
CONTINUOUS
70
0
71
3
72
15
73
11
74
9
42
0.0000001000
43
0.0000001000
44
0.0000000001
12
0.2015130277
22
0.1174766030
32
0.0000000000
13
0.2083913045
23
-0.1041956523
33
0.0000000000
40
0.0000000000
40
0.0000000000
40
0.0000000000
40
0.0000000000
40
0.0914028095
40
0.2026066152
40
0.3181683648
40
0.4393901958
40
0.5676800016
40
0.7035926433
40
0.8477112687
40
1.0000000000
40
1.0000000000
40
1.0000000000
40
1.0000000000
10
-6.4794752348
20
23.5708284961
30
0.0000000000
10
-6.4733356158
20
23.5744077266
30
0.0000000000
10
-6.4591622227
20
23.5813751930
30
0.0000000000
10
-6.4354856991
20
23.5888114341
30
0.0000000000
10
-6.4086587893
20
23.5928283374
30
0.0000000000
10
-6.3802211821
20
23.5930134801
30
0.0000000000
10
-6.3504352128
20
23.5893942129
30
0.0000000000
10
-6.3195308184
20
23.5820210210
30
0.0000000000
10
-6.2877737084
20
23.5709738396
30
0.0000000000
10
-6.2667670817
20
23.5614805309
30
0.0000000000
10
-6.2561885326
20
23.5561912563
30
0.0000000000
11
-6.4794752348
21
23.5708284961
31
0.0000000000
11
-6.4603635046
21
23.5802399641
31
0.0000000000
11
-6.4356640352
21
23.5880645166
31
0.0000000000
11
-6.4090497902
21
23.5921405689
31
0.0000000000
11
-6.3808079425
21
23.5924269935
31
0.0000000000
11
-6.3511236402
21
23.5889258907
31
0.0000000000
11
-6.3202989422
21
23.5816747318
31
0.0000000000
11
-6.2885551154
21
23.5707289129
31
0.0000000000
11
-6.2561885326
21
23.5561912563
31
0.0000000000
0
SPLINE
5
291
100
AcDbEntity
8
0
100
AcDbSpline
62
7
6
CONTINUOUS
70
0
71
3
72
17
73
13
74
11
42
0.0000001000
43
0.0000001000
44
0.0000000001
12
-0.1944679408
22
-0.0340183879
32
0.0000000000
13
-0.1765786639
23
0.0882893320
33
0.0000000000
40
0.0000000000
40
0.0000000000
40
0.0000000000
40
0.0000000000
40
0.1047306239
40
0.2109425883
40
0.3171606106
40
0.4224827765
40
0.5268896750
40
0.6290255474
40
0.7276409974
40
0.8228596171
40
0.9139846627
40
1.0000000000
40
1.0000000000
40
1.0000000000
40
1.0000000000
10
2.5184040547
20
18.8080926326
30
0.0000000000
10
2.5116151384
20
18.8069050436
30
0.0000000000
10
2.4978687295
20
18.8049103632
30
0.0000000000
10
2.4770676827
20
18.8030771006
30
0.0000000000
10
2.4561574005
20
18.8024007681
30
0.0000000000
10
2.4353607064
20
18.8028858786
30
0.0000000000
10
2.4148922334
20
18.8045293945
30
0.0000000000
10
2.3949925274
20
18.8073153779
30
0.0000000000
10
2.3758949121
20
18.8112062446
30
0.0000000000
10
2.3577926588
20
18.8161584298
30
0.0000000000
10
2.3408740811
20
18.8221221339
30
0.0000000000
10
2.3302061887
20
18.8268618679
30
0.0000000000
10
2.3251433643
20
18.8293932801
30
0.0000000000
11
2.5184040547
21
18.8080926326
31
0.0000000000
11
2.4979434959
21
18.8051155035
31
0.0000000000
11
2.4770563079
21
18.8032710595
31
0.0000000000
11
2.4560975696
21
18.8025942719
31
0.0000000000
11
2.4353105548
21
18.8030848073
31
0.0000000000
11
2.4147654198
21
18.8047450665
31
0.0000000000
11
2.3947985822
21
18.8075562304
31
0.0000000000
11
2.3757258882
21
18.8114632484
31
0.0000000000
11
2.3576010752
21
18.8164493896
31
0.0000000000
11
2.3406455443
21
18.8224618611
31
0.0000000000
11
2.3251433643
21
18.8293932801
31
0.0000000000
0
SPLINE
5
292
100
AcDbEntity
8
0
100
AcDbSpline
62
7
6
CONTINUOUS
70
0
71
3
72
14
73
10
74
8
42
0.0000001000
43
0.0000001000
44
0.0000000001
12
-0.0829729698
22
0.0414864849
32
0.0000000000
13
-0.0097548748
23
0.0923952238
33
0.0000000000
40
0.0000000000
40
0.0000000000
40
0.0000000000
40
0.0000000000
40
0.1724009723
40
0.3345476478
40
0.4855175816
40
0.6259299654
40
0.7582098003
40
0.8836779156
40
1.0000000000
40
1.0000000000
40
1.0000000000
40
1.0000000000
10
-0.6935378349
20
20.3387338797
30
0.0000000000
10
-0.6983060418
20
20.3411179831
30
0.0000000000
10
-0.7073676443
20
20.3461452519
30
0.0000000000
10
-0.7197214130
20
20.3547257610
30
0.0000000000
10
-0.7302678462
20
20.3640241728
30
0.0000000000
10
-0.7388876926
20
20.3739478948
30
0.0000000000
10
-0.7454787634
20
20.3844121533
30
0.0000000000
10
-0.7498800958
20
20.3951791623
30
0.0000000000
10
-0.7513813957
20
20.4025495354
30
0.0000000000
10
-0.7517596315
20
20.4061320704
30
0.0000000000
11
-0.6935378349
21
20.3387338797
31
0.0000000000
11
-0.7074995494
21
20.3465344079
31
0.0000000000
11
-0.7198218798
21
20.3551608671
31
0.0000000000
11
-0.7302858803
21
20.3644691326
31
0.0000000000
11
-0.7387789799
21
20.3743450114
31
0.0000000000
11
-0.7452664936
21
20.3847610232
31
0.0000000000
11
-0.7496259111
21
20.3955530403
31
0.0000000000
11
-0.7517596315
21
20.4061320704
31
0.0000000000
0
SPLINE
5
293
100
AcDbEntity
8
0
100
AcDbSpline
62
7
6
CONTINUOUS
70
0
71
3
72
24
73
20
74
18
42
0.0000001000
43
0.0000001000
44
0.0000000001
12
0.6554568389
22
-0.3277284195
32
0.0000000000
13
0.0781738819
23
-0.7286414954
33
0.0000000000
40
0.0000000000
40
0.0000000000
40
0.0000000000
40
0.0000000000
40
0.0509835323
40
0.1044338628
40
0.1601150457
40
0.2178633029
40
0.2773018306
40
0.3382371964
40
0.4001937467
40
0.4629630931
40
0.5260155622
40
0.5891330734
40
0.6517801778
40
0.7137306355
40
0.7744911496
40
0.8338345943
40
0.8913527752
40
0.9468352677
40
1.0000000000
40
1.0000000000
40
1.0000000000
40
1.0000000000
10
8.7074476990
20
16.0743731405
30
0.0000000000
10
8.7185868673
20
16.0688035564
30
0.0000000000
10
8.7409400359
20
16.0564482076
30
0.0000000000
10
8.7737250560
20
16.0350659560
30
0.0000000000
10
8.8063291903
20
16.0105497775
30
0.0000000000
10
8.8384631179
20
15.9831150001
30
0.0000000000
10
8.8698756695
20
15.9529745889
30
0.0000000000
10
8.9002811074
20
15.9203996690
30
0.0000000000
10
8.9294436965
20
15.8856400572
30
0.0000000000
10
8.9570925019
20
15.8490153140
30
0.0000000000
10
8.9830137626
20
15.8108054962
30
0.0000000000
10
9.0069645874
20
15.7713654999
30
0.0000000000
10
9.0287585994
20
15.7309992206
30
0.0000000000
10
9.0481925080
20
15.6900807700
30
0.0000000000
10
9.0651129011
20
15.6489305592
30
0.0000000000
10
9.0793646530
20
15.6079246189
30
0.0000000000
10
9.0908331121
20
15.5673902089
30
0.0000000000
10
9.0994157886
20
15.5276905326
30
0.0000000000
10
9.1032529231
20
15.5014025428
30
0.0000000000
10
9.1046382876
20
15.4884898661
30
0.0000000000
11
8.7074476990
21
16.0743731405
31
0.0000000000
11
8.7401810075
21
16.0563608515
31
0.0000000000
11
8.7730226022
21
16.0350139596
31
0.0000000000
11
8.8056660011
21
16.0105310701
31
0.0000000000
11
8.8378776280
21
15.9830842082
31
0.0000000000
11
8.8693301175
21
15.9529506151
31
0.0000000000
11
8.8998181599
21
15.9203234190
31
0.0000000000
11
8.9290134191
21
15.8855515023
31
0.0000000000
11
8.9567361668
21
15.8488453597
31
0.0000000000
11
8.9826788097
21
15.8106092310
31
0.0000000000
11
9.0066838851
21
15.7710720880
31
0.0000000000
11
9.0284849214
21
15.7306694498
31
0.0000000000
11
9.0479449689
21
15.6896529837
31
0.0000000000
11
9.0648540686
21
15.6484618476
31
0.0000000000
11
9.0790984829
21
15.6073726288
31
0.0000000000
11
9.0905325630
21
15.5668024565
31
0.0000000000
11
9.0990727113
21
15.5270506291
31
0.0000000000
11
9.1046382876
21
15.4884898661
31
0.0000000000
0
SPLINE
5
294
100
AcDbEntity
8
0
100
AcDbSpline
62
9
6
CONTINUOUS
70
0
71
3
72
15
73
11
74
9
42
0.0000001000
43
0.0000001000
44
0.0000000001
12
0.1153364324
22
0.0554356751
32
0.0000000000
13
0.0010056460
23
0.1277514524
33
0.0000000000
40
0.0000000000
40
0.0000000000
40
0.0000000000
40
0.0000000000
40
0.0475581567
40
0.1642512124
40
0.2847708330
40
0.4113206836
40
0.5454862495
40
0.6881963364
40
0.8397698174
40
1.0000000000
40
1.0000000000
40
1.0000000000
40
1.0000000000
10
-5.2151902148
20
0.9142022052
30
0.0000000000
10
-5.2133618188
20
0.9150810114
30
0.0000000000
10
-5.2071703552
20
0.9183721860
30
0.0000000000
10
-5.1973045292
20
0.9255562262
30
0.0000000000
10
-5.1866698647
20
0.9369380168
30
0.0000000000
10
-5.1777686915
20
0.9506031280
30
0.0000000000
10
-5.1707102217
20
0.9663329940
30
0.0000000000
10
-5.1655761782
20
0.9838943149
30
0.0000000000
10
-5.1624256179
20
1.0030327706
30
0.0000000000
10
-5.1616910834
20
1.0163177606
30
0.0000000000
10
-5.1616373718
20
1.0231409734
30
0.0000000000
11
-5.2151902148
21
0.9142022052
31
0.0000000000
11
-5.2098184044
21
0.9170583668
31
0.0000000000
11
-5.1977476399
21
0.9258076613
31
0.0000000000
11
-5.1871922465
21
0.9370171355
31
0.0000000000
11
-5.1783059685
21
0.9505234228
31
0.0000000000
11
-5.1712181655
21
0.9661296898
31
0.0000000000
11
-5.1660319557
21
0.9836084922
31
0.0000000000
11
-5.1628227923
21
1.0027050530
31
0.0000000000
11
-5.1616373718
21
1.0231409734
31
0.0000000000
0
SPLINE
5
295
100
AcDbEntity
8
0
100
AcDbSpline
62
9
6
CONTINUOUS
70
0
71
3
72
10
73
6
74
4
42
0.0000001000
43
0.0000001000
44
0.0000000001
12
0.0002234079
22
0.3470811506
32
0.0000000000
13
0.0004482457
23
0.3470809331
33
0.0000000000
40
0.0000000000
40
0.0000000000
40
0.0000000000
40
0.0000000000
40
0.3332967314
40
0.6666300618
40
1.0000000000
40
1.0000000000
40
1.0000000000
40
1.0000000000
10
1.4482658649
20
-2.4135381054
30
0.0000000000
10
1.4482906853
20
-2.3749777678
30
0.0000000000
10
1.4483486588
20
-2.2978528632
30
0.0000000000
10
1.4484606086
20
-2.1821591757
30
0.0000000000
10
1.4485518997
20
-2.1050258338
30
0.0000000000
10
1.4486017102
20
-2.0664570508
30
0.0000000000
11
1.4482658649
21
-2.4135381054
31
0.0000000000
11
1.4483528191
21
-2.2978571011
31
0.0000000000
11
1.4484647675
21
-2.1821634154
31
0.0000000000
11
1.4486017102
21
-2.0664570508
31
0.0000000000
0
SPLINE
5
296
100
AcDbEntity
8
0
100
AcDbSpline
62
9
6
CONTINUOUS
70
0
71
3
72
25
73
21
74
19
42
0.0000001000
43
0.0000001000
44
0.0000000001
12
0.0013250359
22
1.0310567724
32
0.0000000000
13
-0.9222022401
23
0.4611104553
33
0.0000000000
40
0.0000000000
40
0.0000000000
40
0.0000000000
40
0.0000000000
40
0.0517712426
40
0.1055833095
40
0.1611047140
40
0.2179752630
40
0.2758081700
40
0.3343208423
40
0.3933337452
40
0.4526240998
40
0.5118891540
40
0.5708208081
40
0.6291171040
40
0.6864943828
40
0.7427585724
40
0.7977652511
40
0.8512817004
40
0.9029952126
40
0.9526401266
40
1.0000000000
40
1.0000000000
40
1.0000000000
40
1.0000000000
10
1.4486017102
20
-2.0664570508
30
0.0000000000
10
1.4486245765
20
-2.0486640207
30
0.0000000000
10
1.4473726901
20
-2.0123647085
30
0.0000000000
10
1.4418123530
20
-1.9572391267
30
0.0000000000
10
1.4325288690
20
-1.9008398735
30
0.0000000000
10
1.4195903889
20
-1.8437505980
30
0.0000000000
10
1.4031180188
20
-1.7865101411
30
0.0000000000
10
1.3832548012
20
-1.7295773338
30
0.0000000000
10
1.3601446503
20
-1.6733423008
30
0.0000000000
10
1.3339450730
20
-1.6181923561
30
0.0000000000
10
1.3048492392
20
-1.5645456193
30
0.0000000000
10
1.2730878268
20
-1.5128326626
30
0.0000000000
10
1.2389159820
20
-1.4634658464
30
0.0000000000
10
1.2025938302
20
-1.4168137971
30
0.0000000000
10
1.1643708120
20
-1.3731958589
30
0.0000000000
10
1.1245035903
20
-1.3329181167
30
0.0000000000
10
1.0833047829
20
-1.2963138385
30
0.0000000000
10
1.0411606562
20
-1.2637268269
30
0.0000000000
10
0.9985171009
20
-1.2354660916
30
0.0000000000
10
0.9693316647
20
-1.2192597416
30
0.0000000000
10
0.9547732043
20
-1.2119803640
30
0.0000000000
11
1.4486017102
21
-2.0664570508
31
0.0000000000
11
1.4468217349
21
-2.0131076021
31
0.0000000000
11
1.4413060939
21
-1.9578990980
31
0.0000000000
11
1.4320515026
21
-1.9014063514
31
0.0000000000
11
1.4191252880
21
-1.8442120436
31
0.0000000000
11
1.4026601807
21
-1.7869012680
31
0.0000000000
11
1.3828037052
21
-1.7299326657
31
0.0000000000
11
1.3596850514
21
-1.6736500975
31
0.0000000000
11
1.3334554802
21
-1.6184314127
31
0.0000000000
11
1.3043183437
21
-1.5647198485
31
0.0000000000
11
1.2725068661
21
-1.5129507247
31
0.0000000000
11
1.2382794855
21
-1.4635410224
31
0.0000000000
11
1.2019127924
21
-1.4168796451
31
0.0000000000
11
1.1636508669
21
-1.3732749056
31
0.0000000000
11
1.1237197981
21
-1.3329995129
31
0.0000000000
11
1.0824328398
21
-1.2963927009
31
0.0000000000
11
1.0402119294
21
-1.2638292914
31
0.0000000000
11
0.9975029991
21
-1.2356152452
31
0.0000000000
11
0.9547732043
21
-1.2119803640
31
0.0000000000
0
SPLINE
5
297
100
AcDbEntity
8
0
100
AcDbSpline
62
9
6
CONTINUOUS
70
0
71
3
72
25
73
21
74
19
42
0.0000001000
43
0.0000001000
44
0.0000000001
12
-0.6872512313
22
0.3436185874
32
0.0000000000
13
-0.0010180779
23
-0.7683664178
33
0.0000000000
40
0.0000000000
40
0.0000000000
40
0.0000000000
40
0.0000000000
40
0.0609317073
40
0.1196815348
40
0.1761291869
40
0.2303102227
40
0.2824033453
40
0.3328178465
40
0.3821462607
40
0.4310099616
40
0.4800013261
40
0.5297024331
40
0.5806481299
40
0.6332985766
40
0.6880858894
40
0.7453837460
40
0.8053607509
40
0.8679445486
40
0.9329346577
40
1.0000000000
40
1.0000000000
40
1.0000000000
40
1.0000000000
10
-4.9821129400
20
1.7564627081
30
0.0000000000
10
-4.9960714036
20
1.7634417972
30
0.0000000000
10
-5.0240756078
20
1.7760213246
30
0.0000000000
10
-5.0668250987
20
1.7906374166
30
0.0000000000
10
-5.1091694508
20
1.8004418556
30
0.0000000000
10
-5.1506597427
20
1.8052736761
30
0.0000000000
10
-5.1908962869
20
1.8050639919
30
0.0000000000
10
-5.2295452817
20
1.7998104087
30
0.0000000000
10
-5.2663251058
20
1.7895452956
30
0.0000000000
10
-5.3009558290
20
1.7743311422
30
0.0000000000
10
-5.3331435438
20
1.7542840100
30
0.0000000000
10
-5.3626065194
20
1.7295825919
30
0.0000000000
10
-5.3891014257
20
1.7004544819
30
0.0000000000
10
-5.4124366175
20
1.6671490705
30
0.0000000000
10
-5.4324647816
20
1.6299113967
30
0.0000000000
10
-5.4490525738
20
1.5889983034
30
0.0000000000
10
-5.4620659221
20
1.5447368272
30
0.0000000000
10
-5.4713935149
20
1.4975531647
30
0.0000000000
10
-5.4769770813
20
1.4479645395
30
0.0000000000
10
-5.4781933167
20
1.4141287612
30
0.0000000000
10
-5.4782160759
20
1.3969518423
30
0.0000000000
11
-4.9821129400
21
1.7564627081
31
0.0000000000
11
-5.0248568772
21
1.7755643663
31
0.0000000000
11
-5.0676020488
21
1.7900764092
31
0.0000000000
11
-5.1098794914
21
1.7997610974
31
0.0000000000
11
-5.1512422785
21
1.8044784856
31
0.0000000000
11
-5.1912678156
21
1.8041811937
31
0.0000000000
11
-5.2296421848
21
1.7988943375
31
0.0000000000
11
-5.2661375853
21
1.7886633857
31
0.0000000000
11
-5.3005073132
21
1.7735515248
31
0.0000000000
11
-5.3324720792
21
1.7536699829
31
0.0000000000
11
-5.3617709248
21
1.7291760229
31
0.0000000000
11
-5.3881679185
21
1.7002704957
31
0.0000000000
11
-5.4114572413
21
1.6671917411
31
0.0000000000
11
-5.4314854525
21
1.6301646071
31
0.0000000000
11
-5.4481209489
21
1.5894027350
31
0.0000000000
11
-5.4612134139
21
1.5452172701
31
0.0000000000
11
-5.4706276649
21
1.4980604758
31
0.0000000000
11
-5.4762945988
21
1.4484468079
31
0.0000000000
11
-5.4782160759
21
1.3969518423
31
0.0000000000
0
SPLINE
5
298
100
AcDbEntity
8
0
100
AcDbSpline
62
9
6
CONTINUOUS
70
0
71
3
72
16
73
12
74
10
42
0.0000001000
43
0.0000001000
44
0.0000000001
12
0.1446286817
22
0.0683341700
32
0.0000000000
13
0.0011536715
23
0.1597362711
33
0.0000000000
40
0.0000000000
40
0.0000000000
40
0.0000000000
40
0.0000000000
40
0.0019244561
40
0.1085678316
40
0.2175049118
40
0.3307400963
40
0.4498605978
40
0.5759605179
40
0.7096425659
40
0.8510640787
40
1.0000000000
40
1.0000000000
40
1.0000000000
40
1.0000000000
10
6.0499543800
20
-4.5385977810
30
0.0000000000
10
6.0500471571
20
-4.5385539457
30
0.0000000000
10
6.0552769842
20
-4.5360721380
30
0.0000000000
10
6.0652782770
20
-4.5301012573
30
0.0000000000
10
6.0785016247
20
-4.5184858725
30
0.0000000000
10
6.0899633123
20
-4.5042789870
30
0.0000000000
10
6.0995323206
20
-4.4876845048
30
0.0000000000
10
6.1071076967
20
-4.4689230126
30
0.0000000000
10
6.1126116235
20
-4.4482309569
30
0.0000000000
10
6.1159873971
20
-4.4258662409
30
0.0000000000
10
6.1167765784
20
-4.4103990992
30
0.0000000000
10
6.1168338528
20
-4.4024689430
30
0.0000000000
11
6.0499543800
21
-4.5385977810
31
0.0000000000
11
6.0502324886
21
-4.5384658047
31
0.0000000000
11
6.0648685823
21
-4.5297488772
31
0.0000000000
11
6.0779745330
21
-4.5183010951
31
0.0000000000
11
6.0893855576
21
-4.5042663929
31
0.0000000000
11
6.0989581837
21
-4.4878212309
31
0.0000000000
11
6.1065720530
21
-4.4691723765
31
0.0000000000
11
6.1121314353
21
-4.4485543044
31
0.0000000000
11
6.1155664314
21
-4.4262262486
31
0.0000000000
11
6.1168338528
21
-4.4024689430
31
0.0000000000
0
SPLINE
5
299
100
AcDbEntity
8
0
100
AcDbSpline
62
9
6
CONTINUOUS
70
0
71
3
72
15
73
11
74
9
42
0.0000001000
43
0.0000001000
44
0.0000000001
12
-0.1415010612
22
0.0707520114
32
0.0000000000
13
0.0001025616
23
0.1579466013
33
0.0000000000
40
0.0000000000
40
0.0000000000
40
0.0000000000
40
0.0000000000
40
0.0438174243
40
0.1613434438
40
0.2825606709
40
0.4096826151
40
0.5443195970
40
0.6874343219
40
0.8393837743
40
1.0000000000
40
1.0000000000
40
1.0000000000
40
1.0000000000
10
5.4809156173
20
-4.5327658902
30
0.0000000000
10
5.4788488799
20
-4.5317324999
30
0.0000000000
10
5.4713791118
20
-4.5276472865
30
0.0000000000
10
5.4593431397
20
-4.5187452000
30
0.0000000000
10
5.4462153504
20
-4.5045038088
30
0.0000000000
10
5.4352724893
20
-4.4874595992
30
0.0000000000
10
5.4266479917
20
-4.4678829212
30
0.0000000000
10
5.4204406332
20
-4.4460618257
30
0.0000000000
10
5.4167205981
20
-4.4223096356
30
0.0000000000
10
5.4159470079
20
-4.4058376846
30
0.0000000000
10
5.4159524989
20
-4.3973814222
30
0.0000000000
11
5.4809156173
21
-4.5327658902
31
0.0000000000
11
5.4748356662
21
-4.5294399855
31
0.0000000000
11
5.4598888385
21
-4.5184322000
31
0.0000000000
11
5.4468596330
21
-4.5044035331
31
0.0000000000
11
5.4359361335
21
-4.4875564963
31
0.0000000000
11
5.4272760266
21
-4.4681342858
31
0.0000000000
11
5.4210043258
21
-4.4464172717
31
0.0000000000
11
5.4172115663
21
-4.4227189512
31
0.0000000000
11
5.4159524989
21
-4.3973814222
31
0.0000000000
0
SPLINE
5
29A
100
AcDbEntity
8
0
100
AcDbSpline
62
9
6
CONTINUOUS
70
0
71
3
72
8
73
4
74
2
42
0.0000001000
43
0.0000001000
44
0.0000000001
12
-0.0026285556
22
0.0013143038
32
0.0000000000
13
-0.0025860576
23
0.0013960157
33
0.0000000000
40
0.0000000000
40
0.0000000000
40
0.0000000000
40
0.0000000000
40
1.0000000000
40
1.0000000000
40
1.0000000000
40
1.0000000000
10
1.5131259969
20
-2.5488715299
30
0.0000000000
10
1.5122498116
20
-2.5484334286
30
0.0000000000
10
1.5113804907
20
-2.5479815970
30
0.0000000000
10
1.5105184715
20
-2.5475162584
30
0.0000000000
11
1.5131259969
21
-2.5488715299
31
0.0000000000
11
1.5105184715
21
-2.5475162584
31
0.0000000000
0
SPLINE
5
29B
100
AcDbEntity
8
0
100
AcDbSpline
62
9
6
CONTINUOUS
70
0
71
3
72
16
73
12
74
10
42
0.0000001000
43
0.0000001000
44
0.0000000001
12
-0.1365182261
22
0.0736957979
32
0.0000000000
13
0.0000995130
23
0.1549503016
33
0.0000000000
40
0.0000000000
40
0.0000000000
40
0.0000000000
40
0.0000000000
40
0.0336507008
40
0.1373310708
40
0.2437382214
40
0.3543932219
40
0.4704780505
40
0.5928012003
40
0.7218045680
40
0.8575964357
40
1.0000000000
40
1.0000000000
40
1.0000000000
40
1.0000000000
10
1.5105184715
20
-2.5475162584
30
0.0000000000
10
1.5089871602
20
-2.5466896200
30
0.0000000000
10
1.5028317978
20
-2.5431420957
30
0.0000000000
10
1.4926607252
20
-2.5356229408
30
0.0000000000
10
1.4810838388
20
-2.5236749583
30
0.0000000000
10
1.4711065577
20
-2.5095797083
30
0.0000000000
10
1.4628262332
20
-2.4935044361
30
0.0000000000
10
1.4563195044
20
-2.4756297236
30
0.0000000000
10
1.4516455584
20
-2.4561489805
30
0.0000000000
10
1.4488467534
20
-2.4352720767
30
0.0000000000
10
1.4482611412
20
-2.4208932639
30
0.0000000000
10
1.4482658649
20
-2.4135381054
30
0.0000000000
11
1.5105184715
21
-2.5475162584
31
0.0000000000
11
1.5059961152
21
-2.5449097249
31
0.0000000000
11
1.4930628647
21
-2.5353795020
31
0.0000000000
11
1.4815577212
21
-2.5235693370
31
0.0000000000
11
1.4716054477
21
-2.5096072967
31
0.0000000000
11
1.4633140317
21
-2.4936448920
31
0.0000000000
11
1.4567733514
21
-2.4758551729
31
0.0000000000
11
1.4520543540
21
-2.4564310699
31
0.0000000000
11
1.4492082498
21
-2.4355834521
31
0.0000000000
11
1.4482658649
21
-2.4135381054
31
0.0000000000
0
SPLINE
5
29C
100
AcDbEntity
8
0
100
AcDbSpline
62
9
6
CONTINUOUS
70
0
71
3
72
14
73
10
74
8
42
0.0000001000
43
0.0000001000
44
0.0000000001
12
-0.0000306251
22
-0.0966769202
32
0.0000000000
13
0.0862553498
23
-0.0431269410
33
0.0000000000
40
0.0000000000
40
0.0000000000
40
0.0000000000
40
0.0000000000
40
0.0669467357
40
0.1942170840
40
0.3291790830
40
0.4755077078
40
0.6355262986
40
0.8103271696
40
1.0000000000
40
1.0000000000
40
1.0000000000
40
1.0000000000
10
1.3896890163
20
-2.3428484650
30
0.0000000000
10
1.3896883328
20
-2.3450058664
30
0.0000000000
10
1.3900885899
20
-2.3512649967
30
0.0000000000
10
1.3927367106
20
-2.3616086915
30
0.0000000000
10
1.3987386734
20
-2.3733936738
30
0.0000000000
10
1.4074830232
20
-2.3846535772
30
0.0000000000
10
1.4188145414
20
-2.3952590161
30
0.0000000000
10
1.4325633694
20
-2.4050855266
30
0.0000000000
10
1.4428124328
20
-2.4108114358
30
0.0000000000
10
1.4482658649
20
-2.4135381054
30
0.0000000000
11
1.3896890163
21
-2.3428484650
31
0.0000000000
11
1.3901023549
21
-2.3493023457
31
0.0000000000
11
1.3930853410
21
-2.3612077843
31
0.0000000000
11
1.3989034969
21
-2.3728501496
31
0.0000000000
11
1.4074729197
21
-2.3840615484
31
0.0000000000
11
1.4186700309
21
-2.3946803027
31
0.0000000000
11
1.4323333583
21
-2.4045532806
31
0.0000000000
11
1.4482658649
21
-2.4135381054
31
0.0000000000
0
SPLINE
5
29D
100
AcDbEntity
8
0
100
AcDbSpline
62
9
6
CONTINUOUS
70
0
71
3
72
10
73
6
74
4
42
0.0000001000
43
0.0000001000
44
0.0000000001
12
-0.0004561362
22
-0.3470779733
32
0.0000000000
13
-0.0002273393
23
-0.3470781986
33
0.0000000000
40
0.0000000000
40
0.0000000000
40
0.0000000000
40
0.0000000000
40
0.3333693073
40
0.6667026375
40
1.0000000000
40
1.0000000000
40
1.0000000000
40
1.0000000000
10
-5.4782160759
20
1.3969518423
30
0.0000000000
10
-5.4782667632
20
1.3583834611
30
0.0000000000
10
-5.4783596611
20
1.2812508496
30
0.0000000000
10
-5.4784735812
20
1.1655581472
30
0.0000000000
10
-5.4785325750
20
1.0884338258
30
0.0000000000
10
-5.4785578322
20
1.0498737431
30
0.0000000000
11
-5.4782160759
21
1.3969518423
31
0.0000000000
11
-5.4783554289
21
1.2812466828
31
0.0000000000
11
-5.4784693476
21
1.1655539822
31
0.0000000000
11
-5.4785578322
21
1.0498737431
31
0.0000000000
0
SPLINE
5
29E
100
AcDbEntity
8
0
100
AcDbSpline
62
9
6
CONTINUOUS
70
0
71
3
72
14
73
10
74
8
42
0.0000001000
43
0.0000001000
44
0.0000000001
12
-0.0001155286
22
-0.0966860448
32
0.0000000000
13
0.0862634717
23
-0.0431302255
33
0.0000000000
40
0.0000000000
40
0.0000000000
40
0.0000000000
40
0.0000000000
40
0.0673337197
40
0.1944885205
40
0.3293576334
40
0.4756159471
40
0.6355839672
40
0.8103500931
40
1.0000000000
40
1.0000000000
40
1.0000000000
40
1.0000000000
10
1.3900248294
20
-1.9957647265
30
0.0000000000
10
1.3900222364
20
-1.9979348035
30
0.0000000000
10
1.3904207614
20
-2.0042036546
30
0.0000000000
10
1.3930730194
20
-2.0145533942
30
0.0000000000
10
1.3990752725
20
-2.0263294769
30
0.0000000000
10
1.4078196902
20
-2.0375821676
30
0.0000000000
10
1.4191511249
20
-2.0481823113
30
0.0000000000
10
1.4328998085
20
-2.0580055475
30
0.0000000000
10
1.4431484493
20
-2.0637304903
30
0.0000000000
10
1.4486017358
20
-2.0664570380
30
0.0000000000
11
1.3900248294
21
-1.9957647265
31
0.0000000000
11
1.3904381387
21
-2.0022566247
31
0.0000000000
11
1.3934211418
21
-2.0141517162
31
0.0000000000
11
1.3992393142
21
-2.0257853754
31
0.0000000000
11
1.4078087525
21
-2.0369898349
31
0.0000000000
11
1.4190058780
21
-2.0476035165
31
0.0000000000
11
1.4326692182
21
-2.0574733615
31
0.0000000000
11
1.4486017358
21
-2.0664570380
31
0.0000000000
0
SPLINE
5
29F
100
AcDbEntity
8
0
100
AcDbSpline
62
9
6
CONTINUOUS
70
0
71
3
72
16
73
12
74
10
42
0.0000001000
43
0.0000001000
44
0.0000000001
12
-0.0001318020
22
-0.2411546784
32
0.0000000000
13
0.2153874474
23
-0.1076930606
33
0.0000000000
40
0.0000000000
40
0.0000000000
40
0.0000000000
40
0.0000000000
40
0.0565036989
40
0.1522543767
40
0.2516909329
40
0.3566896673
40
0.4686777313
40
0.5886255850
40
0.7170839140
40
0.8542393745
40
1.0000000000
40
1.0000000000
40
1.0000000000
40
1.0000000000
10
-9.5926901286
20
3.2099665513
30
0.0000000000
10
-9.5926926110
20
3.2054245075
30
0.0000000000
10
-9.5920273246
20
3.1931847616
30
0.0000000000
10
-9.5879567860
20
3.1732847519
30
0.0000000000
10
-9.5790806789
20
3.1507642905
30
0.0000000000
10
-9.5661298181
20
3.1288069014
30
0.0000000000
10
-9.5492459581
20
3.1075814742
30
0.0000000000
10
-9.5285870041
20
3.0872433727
30
0.0000000000
10
-9.5043295188
20
3.0679423979
30
0.0000000000
10
-9.4766751031
20
3.0498251974
30
0.0000000000
10
-9.4567094689
20
3.0389495300
30
0.0000000000
10
-9.4462444659
20
3.0337170607
30
0.0000000000
11
-9.5926901286
21
3.2099665513
31
0.0000000000
11
-9.5919513124
21
3.1963676116
31
0.0000000000
11
-9.5873871731
21
3.1737661082
31
0.0000000000
11
-9.5786957023
21
3.1514538368
31
0.0000000000
11
-9.5659493978
21
3.1296169168
31
0.0000000000
11
-9.5492547998
21
3.1084377703
31
0.0000000000
11
-9.5287509985
21
3.0880927946
31
0.0000000000
11
-9.5046089471
21
3.0687516901
31
0.0000000000
11
-9.4770310703
21
3.0505764852
31
0.0000000000
11
-9.4462444659
21
3.0337170607
31
0.0000000000
0
SPLINE
5
2A0
100
AcDbEntity
8
0
100
AcDbSpline
62
9
6
CONTINUOUS
70
0
71
3
72
16
73
12
74
10
42
0.0000001000
43
0.0000001000
44
0.0000000001
12
-0.0037035086
22
-0.2412729263
32
0.0000000000
13
0.2155181060
23
-0.1076701718
33
0.0000000000
40
0.0000000000
40
0.0000000000
40
0.0000000000
40
0.0000000000
40
0.0163871307
40
0.1153452565
40
0.2176467478
40
0.3257625864
40
0.4415945698
40
0.5664332360
40
0.7010084960
40
0.8455752452
40
1.0000000000
40
1.0000000000
40
1.0000000000
40
1.0000000000
10
-9.5300978202
20
11.1249710925
30
0.0000000000
10
-9.5301180501
20
11.1236531688
30
0.0000000000
10
-9.5301061558
20
11.1143744742
30
0.0000000000
10
-9.5280184026
20
11.0969056208
30
0.0000000000
10
-9.5203492358
20
11.0731254850
30
0.0000000000
10
-9.5080241210
20
11.0498720554
30
0.0000000000
10
-9.4912131594
20
11.0273497466
30
0.0000000000
10
-9.4701027741
20
11.0057402946
30
0.0000000000
10
-9.4448988590
20
10.9852182339
30
0.0000000000
10
-9.4158380346
20
10.9659568730
30
0.0000000000
10
-9.3947389284
20
10.9544337362
30
0.0000000000
10
-9.3836451515
20
10.9488914229
30
0.0000000000
11
-9.5300978202
21
11.1249710925
31
0.0000000000
11
-9.5300925783
21
11.1210171356
31
0.0000000000
11
-9.5273110413
21
11.0973392771
31
0.0000000000
11
-9.5198473297
21
11.0738504334
31
0.0000000000
11
-9.5077717360
21
11.0507718208
31
0.0000000000
11
-9.4911979874
21
11.0283207922
31
0.0000000000
11
-9.4702821743
21
11.0067087896
31
0.0000000000
11
-9.4452212802
21
10.9861393535
31
0.0000000000
11
-9.4162513270
21
10.9668062051
31
0.0000000000
11
-9.3836451515
21
10.9488914229
31
0.0000000000
0
SPLINE
5
2A1
100
AcDbEntity
8
0
100
AcDbSpline
62
7
6
CONTINUOUS
70
0
71
3
72
11
73
7
74
5
42
0.0000001000
43
0.0000001000
44
0.0000000001
12
-0.0036618977
22
0.0346843878
32
0.0000000000
13
0.0154854890
23
0.0311912910
33
0.0000000000
40
0.0000000000
40
0.0000000000
40
0.0000000000
40
0.0000000000
40
0.0118674266
40
0.3321154543
40
0.6594872695
40
1.0000000000
40
1.0000000000
40
1.0000000000
40
1.0000000000
10
-0.7517596315
20
20.4061320704
30
0.0000000000
10
-0.7517741173
20
20.4062692752
30
0.0000000000
10
-0.7521653870
20
20.4101105239
30
0.0000000000
10
-0.7521547146
20
20.4178168792
30
0.0000000000
10
-0.7498857648
20
20.4291293306
30
0.0000000000
10
-0.7469837875
20
20.4363673754
30
0.0000000000
10
-0.7452261188
20
20.4399077193
30
0.0000000000
11
-0.7517596315
21
20.4061320704
31
0.0000000000
11
-0.7518015732
21
20.4065438432
31
0.0000000000
11
-0.7517937603
21
20.4176960936
31
0.0000000000
11
-0.7495871730
21
20.4288808379
31
0.0000000000
11
-0.7452261188
21
20.4399077193
31
0.0000000000
0
SPLINE
5
2A2
100
AcDbEntity
8
0
100
AcDbSpline
62
9
6
CONTINUOUS
70
0
71
3
72
15
73
11
74
9
42
0.0000001000
43
0.0000001000
44
0.0000000001
12
-0.1135582898
22
0.0567633398
32
0.0000000000
13
0.0003097963
23
0.1267475287
33
0.0000000000
40
0.0000000000
40
0.0000000000
40
0.0000000000
40
0.0000000000
40
0.0447388324
40
0.1620897557
40
0.2831551449
40
0.4101452646
40
0.5446645301
40
0.6876682250
40
0.8395053477
40
1.0000000000
40
1.0000000000
40
1.0000000000
40
1.0000000000
10
1.0067515951
20
-1.3206737888
30
0.0000000000
10
1.0050581067
20
-1.3198272803
30
0.0000000000
10
0.9990383701
20
-1.3165291073
30
0.0000000000
10
0.9893722127
20
-1.3093529865
30
0.0000000000
10
0.9788727987
20
-1.2979185566
30
0.0000000000
10
0.9701278263
20
-1.2842379523
30
0.0000000000
10
0.9632440512
20
-1.2685286060
30
0.0000000000
10
0.9583004455
20
-1.2510221666
30
0.0000000000
10
0.9553530122
20
-1.2319706136
30
0.0000000000
10
0.9547566307
20
-1.2187611309
30
0.0000000000
10
0.9547732043
20
-1.2119803640
30
0.0000000000
11
1.0067515951
21
-1.3206737888
31
0.0000000000
11
1.0017721166
21
-1.3179449168
31
0.0000000000
11
0.9898111449
21
-1.3091035054
31
0.0000000000
11
0.9793901914
21
-1.2978400181
31
0.0000000000
11
0.9706601116
21
-1.2843175075
31
0.0000000000
11
0.9637472840
21
-1.2687317280
31
0.0000000000
11
0.9587517801
21
-1.2513083025
31
0.0000000000
11
0.9557459157
21
-1.2322994559
31
0.0000000000
11
0.9547732043
21
-1.2119803640
31
0.0000000000
0
SPLINE
5
2A3
100
AcDbEntity
8
0
100
AcDbSpline
62
9
6
CONTINUOUS
70
0
71
3
72
16
73
12
74
10
42
0.0000001000
43
0.0000001000
44
0.0000000001
12
-0.0265865605
22
-0.2341872198
32
0.0000000000
13
0.2105807432
23
-0.1045451282
33
0.0000000000
40
0.0000000000
40
0.0000000000
40
0.0000000000
40
0.0000000000
40
0.0513597940
40
0.1367335838
40
0.2281679059
40
0.3284048915
40
0.4392512337
40
0.5617029543
40
0.6961209911
40
0.8423834784
40
1.0000000000
40
1.0000000000
40
1.0000000000
40
1.0000000000
10
-8.8429333842
20
21.6135584784
30
0.0000000000
10
-8.8433885443
20
21.6095492093
30
0.0000000000
10
-8.8438056474
20
21.5987836869
30
0.0000000000
10
-8.8409655780
20
21.5809685042
30
0.0000000000
10
-8.8329703681
20
21.5606289168
30
0.0000000000
10
-8.8203973626
20
21.5404049174
30
0.0000000000
10
-8.8034153609
20
21.5204328300
30
0.0000000000
10
-8.7821932610
20
21.5008535413
30
0.0000000000
10
-8.7569224726
20
21.4818210182
30
0.0000000000
10
-8.7278306608
20
21.4634982618
30
0.0000000000
10
-8.7068094385
20
21.4522641824
30
0.0000000000
10
-8.6957457704
20
21.4467715026
30
0.0000000000
11
-8.8429333842
21
21.6135584784
31
0.0000000000
11
-8.8434029097
21
21.6014743525
31
0.0000000000
11
-8.8403644684
21
21.5816339366
31
0.0000000000
11
-8.8326703573
21
21.5615614743
31
0.0000000000
11
-8.8203930568
21
21.5414460535
31
0.0000000000
11
-8.8036482223
21
21.5214771666
31
0.0000000000
11
-8.7825935942
21
21.5018429255
31
0.0000000000
11
-8.7574275127
21
21.4827282898
31
0.0000000000
11
-8.7283870486
21
21.4643133243
31
0.0000000000
11
-8.6957457704
21
21.4467715026
31
0.0000000000
0
SPLINE
5
2A4
100
AcDbEntity
8
0
100
AcDbSpline
62
9
6
CONTINUOUS
70
0
71
3
72
15
73
11
74
9
42
0.0000001000
43
0.0000001000
44
0.0000000001
12
0.2101496634
22
0.1225567917
32
0.0000000000
13
0.2189156061
23
-0.1054718720
33
0.0000000000
40
0.0000000000
40
0.0000000000
40
0.0000000000
40
0.0000000000
40
0.0444396947
40
0.1654975731
40
0.2893449324
40
0.4177654184
40
0.5521963875
40
0.6936782529
40
0.8428541365
40
1.0000000000
40
1.0000000000
40
1.0000000000
40
1.0000000000
10
-8.2726849837
20
22.5252221929
30
0.0000000000
10
-8.2695719881
20
22.5270376551
30
0.0000000000
10
-8.2577738424
20
22.5334465953
30
0.0000000000
10
-8.2359477714
20
22.5422682005
30
0.0000000000
10
-8.2063424247
20
22.5490037444
30
0.0000000000
10
-8.1749943259
20
22.5512955219
30
0.0000000000
10
-8.1422191805
20
22.5491492216
30
0.0000000000
10
-8.1083308787
20
22.5426102670
30
0.0000000000
10
-8.0736500987
20
22.5317611639
30
0.0000000000
10
-8.0507986473
20
22.5219804524
30
0.0000000000
10
-8.0393314200
20
22.5164556296
30
0.0000000000
11
-8.2726849837
21
22.5252221929
31
0.0000000000
11
-8.2631864234
21
22.5303812412
31
0.0000000000
11
-8.2359266736
21
22.5414383801
31
0.0000000000
11
-8.2065978112
21
22.5481846009
31
0.0000000000
11
-8.1754819610
21
22.5505550094
31
0.0000000000
11
-8.1428784375
21
22.5485268037
31
0.0000000000
11
-8.1091008658
21
22.5421194937
31
0.0000000000
11
-8.0744741644
21
22.5313947139
31
0.0000000000
11
-8.0393314200
21
22.5164556296
31
0.0000000000
0
SPLINE
5
2A5
100
AcDbEntity
8
0
100
AcDbSpline
62
9
6
CONTINUOUS
70
0
71
3
72
20
73
16
74
14
42
0.0000001000
43
0.0000001000
44
0.0000000001
12
-0.2603119505
22
-0.1273992352
32
0.0000000000
13
-0.2592168644
23
0.1296128617
33
0.0000000000
40
0.0000000000
40
0.0000000000
40
0.0000000000
40
0.0000000000
40
0.0681127847
40
0.1404823319
40
0.2165141814
40
0.2954989039
40
0.3766424495
40
0.4590926729
40
0.5419636158
40
0.6243586334
40
0.7053931767
40
0.7842179652
40
0.8600433721
40
0.9321661335
40
1.0000000000
40
1.0000000000
40
1.0000000000
40
1.0000000000
10
-5.1966130471
20
1.3960608303
30
0.0000000000
10
-5.2025232377
20
1.3931683247
30
0.0000000000
10
-5.2150093048
20
1.3877963054
30
0.0000000000
10
-5.2348584669
20
1.3811386848
30
0.0000000000
10
-5.2561631606
20
1.3757100184
30
0.0000000000
10
-5.2786186086
20
1.3715886481
30
0.0000000000
10
-5.3019056560
20
1.3688332887
30
0.0000000000
10
-5.3256915742
20
1.3674836576
30
0.0000000000
10
-5.3496363317
20
1.3675591818
30
0.0000000000
10
-5.3733974000
20
1.3690587756
30
0.0000000000
10
-5.3966351218
20
1.3719608611
30
0.0000000000
10
-5.4190175091
20
1.3762236209
30
0.0000000000
10
-5.4402265194
20
1.3817863513
30
0.0000000000
10
-5.4599587964
20
1.3885688117
30
0.0000000000
10
-5.4723548485
20
1.3940211284
30
0.0000000000
10
-5.4782160759
20
1.3969518423
30
0.0000000000
11
-5.1966130471
21
1.3960608303
31
0.0000000000
11
-5.2147233020
21
1.3882064595
31
0.0000000000
11
-5.2345939358
21
1.3814939249
31
0.0000000000
11
-5.2559383965
21
1.3760200271
31
0.0000000000
11
-5.2784488785
21
1.3718637044
31
0.0000000000
11
-5.3018007609
21
1.3690848947
31
0.0000000000
11
-5.3256572894
21
1.3677236708
31
0.0000000000
11
-5.3496744319
21
1.3677996628
31
0.0000000000
11
-5.3735058403
21
1.3693117747
31
0.0000000000
11
-5.3968078450
21
1.3722382006
31
0.0000000000
11
-5.4192444106
21
1.3765367389
31
0.0000000000
11
-5.4404919825
21
1.3821454010
31
0.0000000000
11
-5.4602441521
21
1.3889833049
31
0.0000000000
11
-5.4782160759
21
1.3969518423
31
0.0000000000
0
SPLINE
5
2A6
100
AcDbEntity
8
0
100
AcDbSpline
62
9
6
CONTINUOUS
70
0
71
3
72
20
73
16
74
14
42
0.0000001000
43
0.0000001000
44
0.0000000001
12
-0.2602256366
22
-0.1276101153
32
0.0000000000
13
-0.2592314040
23
0.1296179102
33
0.0000000000
40
0.0000000000
40
0.0000000000
40
0.0000000000
40
0.0000000000
40
0.0681321072
40
0.1405160195
40
0.2165575777
40
0.2955477330
40
0.3766928832
40
0.4591413920
40
0.5420078709
40
0.6243963065
40
0.7054228462
40
0.7842389759
40
0.8600559133
40
0.9321713266
40
1.0000000000
40
1.0000000000
40
1.0000000000
40
1.0000000000
10
-5.1969546679
20
1.0491215629
30
0.0000000000
10
-5.2028645748
20
1.0462234476
30
0.0000000000
10
-5.2153501317
20
1.0408401616
30
0.0000000000
10
-5.2351993883
20
1.0341661134
30
0.0000000000
10
-5.2565041798
20
1.0287215159
30
0.0000000000
10
-5.2789597245
20
1.0245849355
30
0.0000000000
10
-5.3022468655
20
1.0218152992
30
0.0000000000
10
-5.3260328747
20
1.0204525258
30
0.0000000000
10
-5.3499777219
20
1.0205162284
30
0.0000000000
10
-5.3737388811
20
1.0220054897
30
0.0000000000
10
-5.3969766983
20
1.0248988802
30
0.0000000000
10
-5.4193591890
20
1.0291547088
30
0.0000000000
10
-5.4405683166
20
1.0347123761
30
0.0000000000
10
-5.4603007241
20
1.0414917191
30
0.0000000000
10
-5.4726966572
20
1.0469431732
30
0.0000000000
10
-5.4785577647
20
1.0498737768
30
0.0000000000
11
-5.1969546679
21
1.0491215629
31
0.0000000000
11
-5.2150649372
21
1.0412505526
31
0.0000000000
11
-5.2349355855
21
1.0345216189
31
0.0000000000
11
-5.2562800603
21
1.0290317991
31
0.0000000000
11
-5.2787905551
21
1.0248602610
31
0.0000000000
11
-5.3021424483
21
1.0220671619
31
0.0000000000
11
-5.3259989851
21
1.0206927804
31
0.0000000000
11
-5.3500161331
21
1.0207569361
31
0.0000000000
11
-5.3738475442
21
1.0222587036
31
0.0000000000
11
-5.3971495489
21
1.0251764257
31
0.0000000000
11
-5.4195861125
21
1.0294680262
31
0.0000000000
11
-5.4408336807
21
1.0350716164
31
0.0000000000
11
-5.4605858457
21
1.0419063877
31
0.0000000000
11
-5.4785577647
21
1.0498737768
31
0.0000000000
0
SPLINE
5
2A7
100
AcDbEntity
8
0
100
AcDbSpline
62
9
6
CONTINUOUS
70
0
71
3
72
15
73
11
74
9
42
0.0000001000
43
0.0000001000
44
0.0000000001
12
-0.0001033419
22
-0.1580748724
32
0.0000000000
13
0.1415592247
23
-0.0708180308
33
0.0000000000
40
0.0000000000
40
0.0000000000
40
0.0000000000
40
0.0000000000
40
0.1493203768
40
0.2912134920
40
0.4255077137
40
0.5524119164
40
0.6725727656
40
0.7871133672
40
0.8976252875
40
1.0000000000
40
1.0000000000
40
1.0000000000
40
1.0000000000
10
-5.4785578322
20
1.0498737431
30
0.0000000000
10
-5.4785629759
20
1.0420058099
30
0.0000000000
10
-5.4778910330
20
1.0266488119
30
0.0000000000
10
-5.4746715470
20
1.0044200744
30
0.0000000000
10
-5.4692971685
20
0.9838206532
30
0.0000000000
10
-5.4618223232
20
0.9651054480
30
0.0000000000
10
-5.4523231435
20
0.9485088255
30
0.0000000000
10
-5.4408998310
20
0.9342499010
30
0.0000000000
10
-5.4279245298
20
0.9227447059
30
0.0000000000
10
-5.4183139727
20
0.9168490721
30
0.0000000000
10
-5.4134832777
20
0.9144324136
30
0.0000000000
11
-5.4785578322
21
1.0498737431
31
0.0000000000
11
-5.4774712562
21
1.0262949615
31
0.0000000000
11
-5.4741936698
21
1.0041059844
31
0.0000000000
11
-5.4687658774
21
0.9835830642
31
0.0000000000
11
-5.4612554439
21
0.9649816709
31
0.0000000000
11
-5.4517558721
21
0.9485333903
31
0.0000000000
11
-5.4403854151
21
0.9344429767
31
0.0000000000
11
-5.4272856280
21
0.9228858499
31
0.0000000000
11
-5.4134832777
21
0.9144324136
31
0.0000000000
0
SPLINE
5
2A8
100
AcDbEntity
8
0
100
AcDbSpline
62
9
6
CONTINUOUS
70
0
71
3
72
15
73
11
74
9
42
0.0000001000
43
0.0000001000
44
0.0000000001
12
-0.0001025646
22
-0.1579513264
32
0.0000000000
13
0.1415088568
23
-0.0707470165
33
0.0000000000
40
0.0000000000
40
0.0000000000
40
0.0000000000
40
0.0000000000
40
0.1606114209
40
0.3125563278
40
0.4556667715
40
0.5902997259
40
0.7174178672
40
0.8386314681
40
0.9561539719
40
1.0000000000
40
1.0000000000
40
1.0000000000
40
1.0000000000
10
-9.4462444662
20
3.0337170603
30
0.0000000000
10
-9.4462499572
20
3.0252607980
30
0.0000000000
10
-9.4454763670
20
3.0087888469
30
0.0000000000
10
-9.4417563319
20
2.9850366569
30
0.0000000000
10
-9.4355489734
20
2.9632155614
30
0.0000000000
10
-9.4269244758
20
2.9436388833
30
0.0000000000
10
-9.4159816147
20
2.9265946738
30
0.0000000000
10
-9.4028538254
20
2.9123532826
30
0.0000000000
10
-9.3908165790
20
2.9034502535
30
0.0000000000
10
-9.3833453151
20
2.8993644678
30
0.0000000000
10
-9.3812771147
20
2.8983304759
30
0.0000000000
11
-9.4462444662
21
3.0337170603
31
0.0000000000
11
-9.4449853987
21
3.0083795314
31
0.0000000000
11
-9.4411926393
21
2.9846812108
31
0.0000000000
11
-9.4349209384
21
2.9629641968
31
0.0000000000
11
-9.4262608315
21
2.9435419862
31
0.0000000000
11
-9.4153373320
21
2.9266949495
31
0.0000000000
11
-9.4023081266
21
2.9126662826
31
0.0000000000
11
-9.3873612988
21
2.9016584970
31
0.0000000000
11
-9.3812771147
21
2.8983304759
31
0.0000000000
0
SPLINE
5
2A9
100
AcDbEntity
8
0
100
AcDbSpline
62
9
6
CONTINUOUS
70
0
71
3
72
10
73
6
74
4
42
0.0000001000
43
0.0000001000
44
0.0000000001
12
0.0050502121
22
7.9154818157
32
0.0000000000
13
0.1197180598
23
7.9145780345
33
0.0000000000
40
0.0000000000
40
0.0000000000
40
0.0000000000
40
0.0000000000
40
0.3325044103
40
0.6658360593
40
1.0000000000
40
1.0000000000
40
1.0000000000
40
1.0000000000
10
-9.4462444662
20
3.0337170603
30
0.0000000000
10
-9.4456847269
20
3.9110279314
30
0.0000000000
10
-9.4402847926
20
5.6678326748
30
0.0000000000
10
-9.4194022728
20
8.3062537394
30
0.0000000000
10
-9.3969803047
20
10.0673025612
30
0.0000000000
10
-9.3836451518
20
10.9488914228
30
0.0000000000
11
-9.4462444662
21
3.0337170603
31
0.0000000000
11
-9.4381706811
21
5.6656378255
31
0.0000000000
11
-9.4173041940
21
8.3040364563
31
0.0000000000
11
-9.3836451518
21
10.9488914228
31
0.0000000000
0
SPLINE
5
2AA
100
AcDbEntity
8
0
100
AcDbSpline
62
9
6
CONTINUOUS
70
0
71
3
72
14
73
10
74
8
42
0.0000001000
43
0.0000001000
44
0.0000000001
12
0.1591919112
22
10.5233295457
32
0.0000000000
13
1.1906596451
23
10.4569659271
33
0.0000000000
40
0.0000000000
40
0.0000000000
40
0.0000000000
40
0.0000000000
40
0.1398556385
40
0.2807463514
40
0.4226523539
40
0.5655528729
40
0.7094262094
40
0.8542497444
40
1.0000000000
40
1.0000000000
40
1.0000000000
40
1.0000000000
10
-9.3836451518
20
10.9488914228
30
0.0000000000
10
-9.3762238563
20
11.4394737471
30
0.0000000000
10
-9.3540384696
20
12.4241736743
30
0.0000000000
10
-9.2991107533
20
13.9059443237
30
0.0000000000
10
-9.2224282297
20
15.3974470430
30
0.0000000000
10
-9.1240177710
20
16.8981579066
30
0.0000000000
10
-9.0039135957
20
18.4075563528
30
0.0000000000
10
-8.8621580059
20
19.9251128631
30
0.0000000000
10
-8.7535921029
20
20.9387363451
30
0.0000000000
10
-8.6957457870
20
21.4467714974
30
0.0000000000
11
-9.3836451518
21
10.9488914228
31
0.0000000000
11
-9.3505715054
21
12.4204351589
31
0.0000000000
11
-9.2957208373
21
13.9022293565
31
0.0000000000
11
-9.2191122480
21
15.3937577355
31
0.0000000000
11
-9.1207724226
21
16.8945005178
31
0.0000000000
11
-9.0007356060
21
18.4039348729
31
0.0000000000
11
-8.8590436115
21
19.9215347843
31
0.0000000000
11
-8.6957457870
21
21.4467714974
31
0.0000000000
0
SPLINE
5
2AB
100
AcDbEntity
8
0
100
AcDbSpline
62
9
6
CONTINUOUS
70
0
71
3
72
24
73
20
74
18
42
0.0000001000
43
0.0000001000
44
0.0000000001
12
0.1479832441
22
1.2876767342
32
0.0000000000
13
1.1243423272
23
0.6448757582
33
0.0000000000
40
0.0000000000
40
0.0000000000
40
0.0000000000
40
0.0000000000
40
0.0575845197
40
0.1164862091
40
0.1764990245
40
0.2373975508
40
0.2989453148
40
0.3608958547
40
0.4229972198
40
0.4849953387
40
0.5466380093
40
0.6076772438
40
0.6678741833
40
0.7270016411
40
0.7848484138
40
0.8412232075
40
0.8959598410
40
0.9489195538
40
1.0000000000
40
1.0000000000
40
1.0000000000
40
1.0000000000
10
-8.6957457870
20
21.4467714974
30
0.0000000000
10
-8.6929052723
20
21.4714882461
30
0.0000000000
10
-8.6856837506
20
21.5213279646
30
0.0000000000
10
-8.6705791701
20
21.5961095273
30
0.0000000000
10
-8.6511646431
20
21.6713700021
30
0.0000000000
10
-8.6275656807
20
21.7466216942
30
0.0000000000
10
-8.5999344973
20
21.8213803901
30
0.0000000000
10
-8.5684492326
20
21.8951640130
30
0.0000000000
10
-8.5333129924
20
21.9674966509
30
0.0000000000
10
-8.4947523445
20
22.0379117919
30
0.0000000000
10
-8.4530159511
20
22.1059552097
30
0.0000000000
10
-8.4083727695
20
22.1711881819
30
0.0000000000
10
-8.3611104432
20
22.2331900453
30
0.0000000000
10
-8.3115332173
20
22.2915611535
30
0.0000000000
10
-8.2599599211
20
22.3459253135
30
0.0000000000
10
-8.2067219672
20
22.3959321976
30
0.0000000000
10
-8.1521594497
20
22.4412602589
30
0.0000000000
10
-8.0966254543
20
22.4816148511
30
0.0000000000
10
-8.0584753893
20
22.5054754491
30
0.0000000000
10
-8.0393314200
20
22.5164556296
30
0.0000000000
11
-8.6957457870
21
21.4467714974
31
0.0000000000
11
-8.6850940444
21
21.5206458239
31
0.0000000000
11
-8.6700209634
21
21.5954886292
31
0.0000000000
11
-8.6506238018
21
21.6708170533
31
0.0000000000
11
-8.6270285114
21
21.7461416850
31
0.0000000000
11
-8.5993876869
21
21.8209753542
31
0.0000000000
11
-8.5678804147
21
21.8948330034
31
0.0000000000
11
-8.5327108286
21
21.9672360005
31
0.0000000000
11
-8.4941068439
21
22.0377150792
31
0.0000000000
11
-8.4523183361
21
22.1058139472
31
0.0000000000
11
-8.4076162680
21
22.1710909569
31
0.0000000000
11
-8.3602900192
21
22.2331234651
31
0.0000000000
11
-8.3106463005
21
22.2915093548
31
0.0000000000
11
-8.2590068448
21
22.3458701860
31
0.0000000000
11
-8.2057064223
21
22.3958535355
31
0.0000000000
11
-8.1510898201
21
22.4411360306
31
0.0000000000
11
-8.0955119049
21
22.4814234098
31
0.0000000000
11
-8.0393314200
21
22.5164556296
31
0.0000000000
0
SPLINE
5
2AC
100
AcDbEntity
8
0
100
AcDbSpline
62
9
6
CONTINUOUS
70
0
71
3
72
10
73
6
74
4
42
0.0000001000
43
0.0000001000
44
0.0000000001
12
-0.1238870970
22
-7.9071942042
32
0.0000000000
13
-0.0051992260
23
-7.9081629449
33
0.0000000000
40
0.0000000000
40
0.0000000000
40
0.0000000000
40
0.0000000000
40
0.3341367039
40
0.6674683179
40
1.0000000000
40
1.0000000000
40
1.0000000000
40
1.0000000000
10
6.1815924766
20
3.5053645782
30
0.0000000000
10
6.1677940678
20
2.6246699754
30
0.0000000000
10
6.1445944412
20
0.8653310897
30
0.0000000000
10
6.1229921206
20
-1.7706451747
30
0.0000000000
10
6.1174101553
20
-3.5258973675
30
0.0000000000
10
6.1168338528
20
-4.4024689430
30
0.0000000000
11
6.1815924766
21
3.5053645782
31
0.0000000000
11
6.1467669475
21
0.8631860078
31
0.0000000000
11
6.1251806874
21
-1.7727668949
31
0.0000000000
11
6.1168338528
21
-4.4024689430
31
0.0000000000
0
SPLINE
5
2AD
100
AcDbEntity
8
0
100
AcDbSpline
62
9
6
CONTINUOUS
70
0
71
3
72
23
73
19
74
17
42
0.0000001000
43
0.0000001000
44
0.0000000001
12
-0.6544043499
22
-0.3010013624
32
0.0000000000
13
-0.6441587855
23
0.3223450519
33
0.0000000000
40
0.0000000000
40
0.0000000000
40
0.0000000000
40
0.0000000000
40
0.0548740937
40
0.1126535580
40
0.1730350018
40
0.2356606192
40
0.3001295212
40
0.3660076530
40
0.4328367721
40
0.5001428263
40
0.5674439798
40
0.6342584764
40
0.7001125041
40
0.7645482262
40
0.8271321689
40
0.8874642151
40
0.9451875444
40
1.0000000000
40
1.0000000000
40
1.0000000000
40
1.0000000000
10
6.1815924766
20
3.5053645782
30
0.0000000000
10
6.1696225280
20
3.4998588526
30
0.0000000000
10
6.1446041945
20
3.4895053137
30
0.0000000000
10
6.1052075919
20
3.4762313876
30
0.0000000000
10
6.0632761608
20
3.4649096967
30
0.0000000000
10
6.0192031257
20
3.4556470742
30
0.0000000000
10
5.9733987741
20
3.4485298897
30
0.0000000000
10
5.9262914857
20
3.4436251310
30
0.0000000000
10
5.8783220530
20
3.4409789609
30
0.0000000000
10
5.8299397648
20
3.4406163570
30
0.0000000000
10
5.7815979138
20
3.4425407764
30
0.0000000000
10
5.7337494105
20
3.4467341270
30
0.0000000000
10
5.6868424000
20
3.4531569381
30
0.0000000000
10
5.6413157830
20
3.4617488418
30
0.0000000000
10
5.5975953163
20
3.4724290598
30
0.0000000000
10
5.5560879781
20
3.4850980341
30
0.0000000000
10
5.5171829838
20
3.4996363037
30
0.0000000000
10
5.4925430312
20
3.5107924775
30
0.0000000000
10
5.4807737229
20
3.5166819854
30
0.0000000000
11
6.1815924766
21
3.5053645782
31
0.0000000000
11
6.1450997962
21
3.4901784520
31
0.0000000000
11
6.1056796798
21
3.4768290203
31
0.0000000000
11
6.0637033832
21
3.4654420073
31
0.0000000000
11
6.0195662361
21
3.4561246550
31
0.0000000000
11
5.9736839190
21
3.4489647136
31
0.0000000000
11
5.9264885484
21
3.4440296148
31
0.0000000000
11
5.8784246069
21
3.4413658371
31
0.0000000000
11
5.8299447573
21
3.4409984677
31
0.0000000000
11
5.7815055793
21
3.4429309666
31
0.0000000000
11
5.7335632697
21
3.4471451335
31
0.0000000000
11
5.6865693457
21
3.4536012798
31
0.0000000000
11
5.6409663928
21
3.4622386018
31
0.0000000000
11
5.5971838963
21
3.4729757541
31
0.0000000000
11
5.5556341967
21
3.4857116147
31
0.0000000000
11
5.5167086061
21
3.5003262383
31
0.0000000000
11
5.4807737229
21
3.5166819854
31
0.0000000000
0
SPLINE
5
2AE
100
AcDbEntity
8
0
100
AcDbSpline
62
9
6
CONTINUOUS
70
0
71
3
72
10
73
6
74
4
42
0.0000001000
43
0.0000001000
44
0.0000000001
12
-0.1239825528
22
-7.9134236847
32
0.0000000000
13
-0.0052288054
23
-7.9143931382
33
0.0000000000
40
0.0000000000
40
0.0000000000
40
0.0000000000
40
0.0000000000
40
0.3341363874
40
0.6674678478
40
1.0000000000
40
1.0000000000
40
1.0000000000
40
1.0000000000
10
5.4807737229
20
3.5166819854
30
0.0000000000
10
5.4669646955
20
2.6352943847
30
0.0000000000
10
5.4437462730
20
0.8745707076
30
0.0000000000
10
5.4221230730
20
-1.7634821957
30
0.0000000000
10
5.4165320809
20
-3.5201180276
30
0.0000000000
10
5.4159524989
20
-4.3973814222
30
0.0000000000
11
5.4807737229
21
3.5166819854
31
0.0000000000
11
5.4459199815
21
0.8724243685
31
0.0000000000
11
5.4243128561
21
-1.7656039432
31
0.0000000000
11
5.4159524989
21
-4.3973814222
31
0.0000000000
0
SPLINE
5
2AF
100
AcDbEntity
8
0
100
AcDbSpline
62
9
6
CONTINUOUS
70
0
71
3
72
21
73
17
74
15
42
0.0000001000
43
0.0000001000
44
0.0000000001
12
-0.0000361974
22
-0.0547236704
32
0.0000000000
13
0.0493430959
23
0.0236630575
33
0.0000000000
40
0.0000000000
40
0.0000000000
40
0.0000000000
40
0.0000000000
40
0.0862274212
40
0.1682078199
40
0.2458522868
40
0.3192903363
40
0.3889015774
40
0.4553361389
40
0.5195080914
40
0.5825465423
40
0.6456980914
40
0.7101972734
40
0.7771405605
40
0.8473969340
40
0.9215675954
40
1.0000000000
40
1.0000000000
40
1.0000000000
40
1.0000000000
10
-5.1969546679
20
1.0491215629
30
0.0000000000
10
-5.1969557083
20
1.0475486692
30
0.0000000000
10
-5.1968204275
20
1.0444778297
30
0.0000000000
10
-5.1961726782
20
1.0400320470
30
0.0000000000
10
-5.1950913812
20
1.0359101982
30
0.0000000000
10
-5.1935875056
20
1.0321632899
30
0.0000000000
10
-5.1916764124
20
1.0288382544
30
0.0000000000
10
-5.1893783708
20
1.0259789723
30
0.0000000000
10
-5.1867198615
20
1.0236258658
30
0.0000000000
10
-5.1837351139
20
1.0218142464
30
0.0000000000
10
-5.1804661374
20
1.0205711048
30
0.0000000000
10
-5.1769601250
20
1.0199124611
30
0.0000000000
10
-5.1732658559
20
1.0198433446
30
0.0000000000
10
-5.1694312828
20
1.0203600237
30
0.0000000000
10
-5.1655039978
20
1.0214517867
30
0.0000000000
10
-5.1629266687
20
1.0225226769
30
0.0000000000
10
-5.1616366361
20
1.0231413271
30
0.0000000000
11
-5.1969546679
21
1.0491215629
31
0.0000000000
11
-5.1967361013
21
1.0444079456
31
0.0000000000
11
-5.1960768450
21
1.0399703794
31
0.0000000000
11
-5.1949850841
21
1.0358640448
31
0.0000000000
11
-5.1934743929
21
1.0321399920
31
0.0000000000
11
-5.1915635563
21
1.0288445245
31
0.0000000000
11
-5.1892763315
21
1.0260186120
31
0.0000000000
11
-5.1866411570
21
1.0236973900
31
0.0000000000
11
-5.1836907961
21
1.0219097171
31
0.0000000000
11
-5.1804619307
21
1.0206778196
31
0.0000000000
11
-5.1769947066
21
1.0200170139
31
0.0000000000
11
-5.1733322300
21
1.0199355159
31
0.0000000000
11
-5.1695200395
21
1.0204343395
31
0.0000000000
11
-5.1656055290
21
1.0215072838
31
0.0000000000
11
-5.1616366361
21
1.0231413271
31
0.0000000000
0
SPLINE
5
2B0
100
AcDbEntity
8
0
100
AcDbSpline
62
9
6
CONTINUOUS
70
0
71
3
72
10
73
6
74
4
42
0.0000001000
43
0.0000001000
44
0.0000000001
12
-0.0004559554
22
-0.3469391415
32
0.0000000000
13
-0.0002272491
23
-0.3469393667
33
0.0000000000
40
0.0000000000
40
0.0000000000
40
0.0000000000
40
0.0000000000
40
0.3333693069
40
0.6667026377
40
1.0000000000
40
1.0000000000
40
1.0000000000
40
1.0000000000
10
-5.1966130471
20
1.3960608303
30
0.0000000000
10
-5.1966637143
20
1.3575078765
30
0.0000000000
10
-5.1967565753
20
1.2804061182
30
0.0000000000
10
-5.1968704503
20
1.1647596931
30
0.0000000000
10
-5.1969294207
20
1.0876662215
30
0.0000000000
10
-5.1969546679
20
1.0491215629
30
0.0000000000
11
-5.1966130471
21
1.3960608303
31
0.0000000000
11
-5.1967523448
21
1.2804019531
31
0.0000000000
11
-5.1968662184
21
1.1647555297
31
0.0000000000
11
-5.1969546679
21
1.0491215629
31
0.0000000000
0
SPLINE
5
2B1
100
AcDbEntity
8
0
100
AcDbSpline
62
9
6
CONTINUOUS
70
0
71
3
72
24
73
20
74
18
42
0.0000001000
43
0.0000001000
44
0.0000000001
12
-0.6507141173
22
-0.3104626855
32
0.0000000000
13
-0.6448658375
23
0.3224344789
33
0.0000000000
40
0.0000000000
40
0.0000000000
40
0.0000000000
40
0.0000000000
40
0.0518342814
40
0.1062013642
40
0.1628602651
40
0.2215192394
40
0.2818538261
40
0.3435129381
40
0.4061233082
40
0.4692981240
40
0.5326418223
40
0.5957574152
40
0.6582502331
40
0.7197352226
40
0.7798418048
40
0.8382224732
40
0.8945576282
40
0.9485611549
40
1.0000000000
40
1.0000000000
40
1.0000000000
40
1.0000000000
10
6.1168338528
20
-4.4024689430
30
0.0000000000
10
6.1055907533
20
-4.4078331464
30
0.0000000000
10
6.0821476267
20
-4.4179842334
30
0.0000000000
10
6.0452840089
20
-4.4312049530
30
0.0000000000
10
6.0061338437
20
-4.4426976298
30
0.0000000000
10
5.9650219372
20
-4.4523664818
30
0.0000000000
10
5.9222878319
20
-4.4601316296
30
0.0000000000
10
5.8782856924
20
-4.4659284387
30
0.0000000000
10
5.8333803452
20
-4.4697086476
30
0.0000000000
10
5.7879447446
20
-4.4714407162
30
0.0000000000
10
5.7423560440
20
-4.4711102119
30
0.0000000000
10
5.6969928140
20
-4.4687198930
30
0.0000000000
10
5.6522315804
20
-4.4642896801
30
0.0000000000
10
5.6084440491
20
-4.4578565319
30
0.0000000000
10
5.5659932137
20
-4.4494739904
30
0.0000000000
10
5.5252307794
20
-4.4392118106
30
0.0000000000
10
5.4864933151
20
-4.4271547100
30
0.0000000000
10
5.4501019842
20
-4.4134031235
30
0.0000000000
10
5.4270095505
20
-4.4029099743
30
0.0000000000
10
5.4159524992
20
-4.3973814219
30
0.0000000000
11
6.1168338528
21
-4.4024689430
31
0.0000000000
11
6.0825648213
21
-4.4173777045
31
0.0000000000
11
6.0456863860
21
-4.4306608675
31
0.0000000000
11
6.0065026082
21
-4.4422090634
31
0.0000000000
11
5.9653417865
21
-4.4519254709
31
0.0000000000
11
5.9225472758
21
-4.4597290761
31
0.0000000000
11
5.8784755128
21
-4.4655548737
31
0.0000000000
11
5.8334946925
21
-4.4693541732
31
0.0000000000
11
5.7879800386
21
-4.4710952951
31
0.0000000000
11
5.7423115365
21
-4.4707637291
31
0.0000000000
11
5.6968697026
21
-4.4683622458
31
0.0000000000
11
5.6520338940
21
-4.4639108821
31
0.0000000000
11
5.6081781136
21
-4.4574467689
31
0.0000000000
11
5.5656687314
21
-4.4490239371
31
0.0000000000
11
5.5248598391
21
-4.4387125721
31
0.0000000000
11
5.4860917353
21
-4.4265986204
31
0.0000000000
11
5.4496894007
21
-4.4127837255
31
0.0000000000
11
5.4159524992
21
-4.3973814219
31
0.0000000000
0
SPLINE
5
2B2
100
AcDbEntity
8
0
100
AcDbSpline
62
9
6
CONTINUOUS
70
0
71
3
72
23
73
19
74
17
42
0.0000001000
43
0.0000001000
44
0.0000000001
12
-0.6835289209
22
-0.2059197791
32
0.0000000000
13
-0.6376016296
23
0.3210590336
33
0.0000000000
40
0.0000000000
40
0.0000000000
40
0.0000000000
40
0.0000000000
40
0.0523236728
40
0.1080874637
40
0.1669570176
40
0.2285399290
40
0.2923976295
40
0.3580554557
40
0.4250115851
40
0.4927452761
40
0.5607246995
40
0.6284145580
40
0.6952836427
40
0.7608124644
40
0.8245011096
40
0.8858775260
40
0.9445065310
40
1.0000000000
40
1.0000000000
40
1.0000000000
40
1.0000000000
10
6.8899057664
20
13.9328053028
30
0.0000000000
10
6.8779841852
20
13.9292138097
30
0.0000000000
10
6.8530802796
20
13.9226953663
30
0.0000000000
10
6.8140796345
20
13.9150177966
30
0.0000000000
10
6.7725359274
20
13.9091829923
30
0.0000000000
10
6.7288383763
20
13.9052470733
30
0.0000000000
10
6.6833940639
20
13.9032476227
30
0.0000000000
10
6.6366284337
20
13.9032042603
30
0.0000000000
10
6.5889796340
20
13.9051180137
30
0.0000000000
10
6.5408945626
20
13.9089713587
30
0.0000000000
10
6.4928243856
20
13.9147283430
30
0.0000000000
10
6.4452201737
20
13.9223349383
30
0.0000000000
10
6.3985285367
20
13.9317195538
30
0.0000000000
10
6.3531872037
20
13.9427937757
30
0.0000000000
10
6.3096210231
20
13.9554531290
30
0.0000000000
10
6.2682367494
20
13.9695786082
30
0.0000000000
10
6.2294225082
20
13.9850364043
30
0.0000000000
10
6.2047704268
20
13.9964716185
30
0.0000000000
10
6.1929761847
20
14.0024105117
30
0.0000000000
11
6.8899057664
21
13.9328053028
31
0.0000000000
11
6.8537920549
21
13.9232655896
31
0.0000000000
11
6.8147466141
21
13.9155098342
31
0.0000000000
11
6.7731372621
21
13.9096110977
31
0.0000000000
11
6.7293559696
21
13.9056249476
31
0.0000000000
11
6.6838151675
21
13.9035889346
31
0.0000000000
11
6.6369438619
21
13.9035222385
31
0.0000000000
11
6.5891835924
21
13.9054254874
31
0.0000000000
11
6.5409842729
21
13.9092807524
31
0.0000000000
11
6.4927999534
21
13.9150517158
31
0.0000000000
11
6.4450845424
21
13.9226840137
31
0.0000000000
11
6.3982875314
21
13.9321057480
31
0.0000000000
11
6.3528497600
21
13.9432281633
31
0.0000000000
11
6.3091992638
21
13.9559464838
31
0.0000000000
11
6.2677472415
21
13.9701408997
31
0.0000000000
11
6.2288841818
21
13.9856776958
31
0.0000000000
11
6.1929761847
21
14.0024105117
31
0.0000000000
0
SPLINE
5
2B3
100
AcDbEntity
8
0
100
AcDbSpline
62
9
6
CONTINUOUS
70
0
71
3
72
14
73
10
74
8
42
0.0000001000
43
0.0000001000
44
0.0000000001
12
-1.2334112284
22
-10.4417429263
32
0.0000000000
13
-0.1646990567
23
-10.5130477417
33
0.0000000000
40
0.0000000000
40
0.0000000000
40
0.0000000000
40
0.0000000000
40
0.1456783453
40
0.2904504056
40
0.4342948041
40
0.5771910431
40
0.7191195639
40
0.8600617523
40
1.0000000000
40
1.0000000000
40
1.0000000000
40
1.0000000000
10
6.1929761845
20
14.0024105117
30
0.0000000000
10
6.1330824155
20
13.4953652343
30
0.0000000000
10
6.0206737646
20
12.4835866001
30
0.0000000000
10
5.8739104866
20
10.9685225174
30
0.0000000000
10
5.7495638686
20
9.4612335733
30
0.0000000000
10
5.6476777581
20
7.9622488447
30
0.0000000000
10
5.5682875908
20
6.4720881366
30
0.0000000000
10
5.5114212135
20
4.9912752359
30
0.0000000000
10
5.4884562887
20
4.0070744785
30
0.0000000000
10
5.4807737229
20
3.5166819854
30
0.0000000000
11
6.1929761845
21
14.0024105117
31
0.0000000000
11
6.0239091399
21
12.4800584086
31
0.0000000000
11
5.8772112471
21
10.9649614463
31
0.0000000000
11
5.7529335974
21
9.4576475078
31
0.0000000000
11
5.6511194815
21
7.9586418708
31
0.0000000000
11
5.5718043539
21
6.4684667609
31
0.0000000000
11
5.5150158426
21
4.9876414849
31
0.0000000000
11
5.4807737229
21
3.5166819854
31
0.0000000000
0
SPLINE
5
2B4
100
AcDbEntity
8
0
100
AcDbSpline
62
9
6
CONTINUOUS
70
0
71
3
72
14
73
10
74
8
42
0.0000001000
43
0.0000001000
44
0.0000000001
12
-1.2266775783
22
-10.3836908114
32
0.0000000000
13
-0.1637995428
23
-10.4546134533
33
0.0000000000
40
0.0000000000
40
0.0000000000
40
0.0000000000
40
0.0000000000
40
0.1456780820
40
0.2904500333
40
0.4342943849
40
0.5771906448
40
0.7191192605
40
0.8600616239
40
1.0000000000
40
1.0000000000
40
1.0000000000
40
1.0000000000
10
6.8899057664
20
13.9328053028
30
0.0000000000
10
6.8303390875
20
13.4285799155
30
0.0000000000
10
6.7185442504
20
12.4224275068
30
0.0000000000
10
6.5725824108
20
10.9157873574
30
0.0000000000
10
6.4489147906
20
9.4168777502
30
0.0000000000
10
6.3475850388
20
7.9262251629
30
0.0000000000
10
6.2686283986
20
6.4443465115
30
0.0000000000
10
6.2120725726
20
4.9717631365
30
0.0000000000
10
6.1892330906
20
3.9930317880
30
0.0000000000
10
6.1815924766
20
3.5053645782
30
0.0000000000
11
6.8899057664
21
13.9328053028
31
0.0000000000
11
6.7217620266
21
12.4189193900
31
0.0000000000
11
6.5758651759
21
10.9122462330
31
0.0000000000
11
6.4522661466
21
9.4133118007
31
0.0000000000
11
6.3510079934
21
7.9226384520
31
0.0000000000
11
6.2721259774
21
6.4407455109
31
0.0000000000
11
6.2156475750
21
4.9681493978
31
0.0000000000
11
6.1815924766
21
3.5053645782
31
0.0000000000
0
SPLINE
5
2B5
100
AcDbEntity
8
0
100
AcDbSpline
62
9
6
CONTINUOUS
70
0
71
3
72
23
73
19
74
17
42
0.0000001000
43
0.0000001000
44
0.0000000001
12
-0.0325538561
22
0.7322260478
32
0.0000000000
13
-0.6505902220
23
0.3375605155
33
0.0000000000
40
0.0000000000
40
0.0000000000
40
0.0000000000
40
0.0000000000
40
0.0579580166
40
0.1182446752
40
0.1805712578
40
0.2446016874
40
0.3099629622
40
0.3762546961
40
0.4430580423
40
0.5099442274
40
0.5764828847
40
0.6422503573
40
0.7068381335
40
0.7698615965
40
0.8309692979
40
0.8898530122
40
0.9462588824
40
1.0000000000
40
1.0000000000
40
1.0000000000
40
1.0000000000
10
7.2267819252
20
14.4633128812
30
0.0000000000
10
7.2261530062
20
14.4774590044
30
0.0000000000
10
7.2237148714
20
14.5062776136
30
0.0000000000
10
7.2168439952
20
14.5498891065
30
0.0000000000
10
7.2067483979
20
14.5943909559
30
0.0000000000
10
7.1935249266
20
14.6393560294
30
0.0000000000
10
7.1772998413
20
14.6843567721
30
0.0000000000
10
7.1582281205
20
14.7289633609
30
0.0000000000
10
7.1364919739
20
14.7727497502
30
0.0000000000
10
7.1122991364
20
14.8152974490
30
0.0000000000
10
7.0858808371
20
14.8561998050
30
0.0000000000
10
7.0574894905
20
14.8950659909
30
0.0000000000
10
7.0273961882
20
14.9315248277
30
0.0000000000
10
6.9958877508
20
14.9652284772
30
0.0000000000
10
6.9632642893
20
14.9958554727
30
0.0000000000
10
6.9298339393
20
15.0231147488
30
0.0000000000
10
6.8959166557
20
15.0467443949
30
0.0000000000
10
6.8726036671
20
15.0602683672
30
0.0000000000
10
6.8609491852
20
15.0663153269
30
0.0000000000
11
7.2267819252
21
14.4633128812
31
0.0000000000
11
7.2232676908
21
14.5056475622
31
0.0000000000
11
7.2164461773
21
14.5493049077
31
0.0000000000
11
7.2063830032
21
14.5938649622
31
0.0000000000
11
7.1931749698
21
14.6388990867
31
0.0000000000
11
7.1769491296
21
14.6839740817
31
0.0000000000
11
7.1578615649
21
14.7286563548
31
0.0000000000
11
7.1360958857
21
14.7725160912
31
0.0000000000
11
7.1118614637
21
14.8151313882
31
0.0000000000
11
7.0853914186
21
14.8560923140
31
0.0000000000
11
7.0569403751
21
14.8950048507
31
0.0000000000
11
7.0267820141
21
14.9314946844
31
0.0000000000
11
6.9952064396
21
14.9652108064
31
0.0000000000
11
6.9625173886
21
14.9958288890
31
0.0000000000
11
6.9290293086
21
15.0230544058
31
0.0000000000
11
6.8950643337
21
15.0466254646
31
0.0000000000
11
6.8609491852
21
15.0663153269
31
0.0000000000
0
SPLINE
5
2B6
100
AcDbEntity
8
0
100
AcDbSpline
62
9
6
CONTINUOUS
70
0
71
3
72
24
73
20
74
18
42
0.0000001000
43
0.0000001000
44
0.0000000001
12
-1.1354732722
22
-0.6301702771
32
0.0000000000
13
-0.1509910310
23
-1.2898123269
33
0.0000000000
40
0.0000000000
40
0.0000000000
40
0.0000000000
40
0.0000000000
40
0.0514333702
40
0.1046866864
40
0.1596582999
40
0.2162110352
40
0.2741811309
40
0.3333803618
40
0.3936011709
40
0.4546205224
40
0.5162041652
40
0.5781091398
40
0.6400886652
40
0.7018944661
40
0.7632807467
40
0.8240075491
40
0.8838452378
40
0.9425755765
40
1.0000000000
40
1.0000000000
40
1.0000000000
40
1.0000000000
10
6.8609491852
20
15.0663153269
30
0.0000000000
10
6.8414821128
20
15.0555113999
30
0.0000000000
10
6.8026848199
20
15.0320043807
30
0.0000000000
10
6.7461692978
20
14.9921397328
30
0.0000000000
10
6.6906421395
20
14.9472924503
30
0.0000000000
10
6.6364629385
20
14.8977539758
30
0.0000000000
10
6.5839778283
20
14.8438430905
30
0.0000000000
10
6.5335241471
20
14.7859072499
30
0.0000000000
10
6.4854263540
20
14.7243199260
30
0.0000000000
10
6.4399940675
20
14.6594781265
30
0.0000000000
10
6.3975199946
20
14.5918000109
30
0.0000000000
10
6.3582778281
20
14.5217219428
30
0.0000000000
10
6.3225206065
20
14.4496959560
30
0.0000000000
10
6.2904788965
20
14.3761865506
30
0.0000000000
10
6.2623593839
20
14.3016678256
30
0.0000000000
10
6.2383433938
20
14.2266202603
30
0.0000000000
10
6.2185858156
20
14.1515266646
30
0.0000000000
10
6.2032145185
20
14.0768737094
30
0.0000000000
10
6.1958663755
20
14.0270994214
30
0.0000000000
10
6.1929761845
20
14.0024105117
30
0.0000000000
11
6.8609491852
21
15.0663153269
31
0.0000000000
11
6.8037794291
21
15.0317777428
31
0.0000000000
11
6.7472228901
21
14.9919796755
31
0.0000000000
11
6.6916445399
21
14.9471780544
31
0.0000000000
11
6.6374055678
21
14.8976639797
31
0.0000000000
11
6.5848568015
21
14.8437578038
31
0.0000000000
11
6.5343389173
21
14.7858089968
31
0.0000000000
11
6.4861793099
21
14.7241931679
31
0.0000000000
11
6.4406900921
21
14.6593097331
31
0.0000000000
11
6.3981657387
21
14.5915787880
31
0.0000000000
11
6.3588819840
21
14.5214395942
31
0.0000000000
11
6.3230931036
21
14.4493462442
31
0.0000000000
11
6.2910310271
21
14.3757659972
31
0.0000000000
11
6.2629034804
21
14.3011756891
31
0.0000000000
11
6.2388927090
21
14.2260587979
31
0.0000000000
11
6.2191539825
21
14.1509011563
31
0.0000000000
11
6.2038154926
21
14.0761910553
31
0.0000000000
11
6.1929761845
21
14.0024105117
31
0.0000000000
0
SPLINE
5
2B7
100
AcDbEntity
8
0
100
AcDbSpline
62
9
6
CONTINUOUS
70
0
71
3
72
24
73
20
74
18
42
0.0000001000
43
0.0000001000
44
0.0000000001
12
-0.5704736948
22
-0.3114441607
32
0.0000000000
13
-0.0762554804
23
-0.6454632471
33
0.0000000000
40
0.0000000000
40
0.0000000000
40
0.0000000000
40
0.0000000000
40
0.0515968574
40
0.1049994468
40
0.1600911525
40
0.2167355608
40
0.2747700222
40
0.3340077843
40
0.3942430538
40
0.4552548230
40
0.5168111059
40
0.5786714279
40
0.6405916415
40
0.7023263067
40
0.7636327044
40
0.8242741384
40
0.8840244093
40
0.9426689080
40
1.0000000000
40
1.0000000000
40
1.0000000000
40
1.0000000000
10
7.2267819252
20
14.4633128812
30
0.0000000000
10
7.2169703753
20
14.4579563679
30
0.0000000000
10
7.1974123593
20
14.4462928534
30
0.0000000000
10
7.1689110507
20
14.4264850131
30
0.0000000000
10
7.1409053890
20
14.4041815312
30
0.0000000000
10
7.1135795323
20
14.3795291713
30
0.0000000000
10
7.0871080684
20
14.3526866382
30
0.0000000000
10
7.0616611683
20
14.3238269506
30
0.0000000000
10
7.0374024896
20
14.2931361726
30
0.0000000000
10
7.0144882036
20
14.2608121618
30
0.0000000000
10
6.9930659495
20
14.2270633867
30
0.0000000000
10
6.9732737812
20
14.1921074678
30
0.0000000000
10
6.9552393399
20
14.1561699144
30
0.0000000000
10
6.9390789251
20
14.1194825196
30
0.0000000000
10
6.9248967948
20
14.0822819109
30
0.0000000000
10
6.9127843853
20
14.0448079600
30
0.0000000000
10
6.9028198753
20
14.0073017274
30
0.0000000000
10
6.8950682102
20
13.9700090652
30
0.0000000000
10
6.8913630364
20
13.9451403404
30
0.0000000000
10
6.8899057664
20
13.9328053028
30
0.0000000000
11
7.2267819252
21
14.4633128812
31
0.0000000000
11
7.1979575320
21
14.4461727796
31
0.0000000000
11
7.1694336971
21
14.4263961742
31
0.0000000000
11
7.1414031589
21
14.4041155117
31
0.0000000000
11
7.1140480810
21
14.3794755305
31
0.0000000000
11
7.0875454167
21
14.3526356643
31
0.0000000000
11
7.0620669946
21
14.3237699163
31
0.0000000000
11
7.0377779471
21
14.2930653940
31
0.0000000000
11
7.0148356991
21
14.2607211432
31
0.0000000000
11
6.9933887802
21
14.2269465898
31
0.0000000000
11
6.9735762681
21
14.1919607859
31
0.0000000000
11
6.9555264335
21
14.1559902800
31
0.0000000000
11
6.9393562677
21
14.1192682544
31
0.0000000000
11
6.9251705382
21
14.0820327020
31
0.0000000000
11
6.9130611547
21
14.0445249925
31
0.0000000000
11
6.9031064357
21
14.0069877277
31
0.0000000000
11
6.8953709994
21
13.9696647972
31
0.0000000000
11
6.8899057664
21
13.9328053028
31
0.0000000000
0
SPLINE
5
2B8
100
AcDbEntity
8
0
100
AcDbSpline
62
9
6
CONTINUOUS
70
0
71
3
72
18
73
14
74
12
42
0.0000001000
43
0.0000001000
44
0.0000000001
12
-0.2876153060
22
-0.1383689589
32
0.0000000000
13
0.0003282053
23
-0.3189015361
33
0.0000000000
40
0.0000000000
40
0.0000000000
40
0.0000000000
40
0.0000000000
40
0.0216351744
40
0.1060281096
40
0.1915931186
40
0.2792517553
40
0.3697997162
40
0.4639863401
40
0.5624614339
40
0.6655227342
40
0.7730537723
40
0.8847175274
40
1.0000000000
40
1.0000000000
40
1.0000000000
40
1.0000000000
10
-5.0637894756
20
1.6679010402
30
0.0000000000
10
-5.0658636781
20
1.6669031614
30
0.0000000000
10
-5.0759393940
20
1.6618272351
30
0.0000000000
10
-5.0932906126
20
1.6510322901
30
0.0000000000
10
-5.1143520059
20
1.6333933727
30
0.0000000000
10
-5.1332813189
20
1.6125991247
30
0.0000000000
10
-5.1499411811
20
1.5888276738
30
0.0000000000
10
-5.1642260608
20
1.5622541405
30
0.0000000000
10
-5.1760406252
20
1.5330620374
30
0.0000000000
10
-5.1852891921
20
1.5014848631
30
0.0000000000
10
-5.1918927447
20
1.4678267651
30
0.0000000000
10
-5.1958106862
20
1.4324515882
30
0.0000000000
10
-5.1966256592
20
1.4083154161
30
0.0000000000
10
-5.1966130471
20
1.3960608303
30
0.0000000000
11
-5.0637894756
21
1.6679010402
31
0.0000000000
11
-5.0699558887
21
1.6647942716
31
0.0000000000
11
-5.0928153610
21
1.6505901584
31
0.0000000000
11
-5.1137585774
21
1.6330986567
31
0.0000000000
11
-5.1326167838
21
1.6124632142
31
0.0000000000
11
-5.1492427774
21
1.5888540235
31
0.0000000000
11
-5.1635268431
21
1.5624316224
31
0.0000000000
11
-5.1753749129
21
1.5333485237
31
0.0000000000
11
-5.1846796940
21
1.5018267392
31
0.0000000000
11
-5.1913450029
21
1.4681889129
31
0.0000000000
11
-5.1953220299
21
1.4328019323
31
0.0000000000
11
-5.1966130471
21
1.3960608303
31
0.0000000000
0
ENDSEC
0
SECTION
2
OBJECTS
0
DICTIONARY
5
2B9
100
AcDbDictionary
3
ACAD_GROUP
350
2BA
3
ACAD_MLINESTYLE
350
2BB
0
DICTIONARY
5
2BA
102
{ACAD_REACTORS
330
2B9
102
}
100
AcDbDictionary
0
DICTIONARY
5
2BB
102
{ACAD_REACTORS
330
2B9
102
}
100
AcDbDictionary
3
STANDARD
350
2BC
0
MLINESTYLE
5
2BC
102
{ACAD_REACTORS
330
2BB
102
}
100
AcDbMlineStyle
2
STANDARD
70
0
3

62
256
51
90.0
52
90.0
71
2
49
0.5
62
256
6
BYLAYER
49
-0.5
62
256
6
BYLAYER
0
ENDSEC
0
EOF
