  0
SECTION
  2
HEADER
  9
$ACADVER
  1
AC1015
  9
$DWGCODEPAGE
  3
ANSI_1252
  9
$EXTMAX
 10
210.0
 20
297.0
 30
0.0
  9
$EXTMIN
 10
0.0
 20
0.0
 30
0.0
  9
$LIMMIN
 10
0.0
 20
0.0
  9
$LIMMAX
 10
210.0
 20
297.0
  9
$VIEWCTR
 10
105.0
 20
148.5
  9
$VIEWSIZE
 40
297.0
  9
$CLAYER
  8
0
  9
$LTSCALE
 40
19.36
  9
$CELTYPE
  6
BYLAYER
  9
$DIMSCALE
 40
1.0
  9
$DIMASZ
 40
3.0
  9
$DIMEXO
 40
0.5
  9
$DIMDLI
 40
13.376
  9
$DIMEXE
 40
1.5
  9
$DIMCEN
 40
3.168
  9
$DIMLFAC
 40
1.0
  9
$DIMBLK
  1
_FILLED
  9
$DIMTXT
 40
3.0
  9
$DIMTOL
 70
1
  9
$DIMLIM
 70
0
  9
$DIMTFAC
 40
1.0
  9
$DIMTP
 40
0.01
  9
$DIMTM
 40
0.01
  9
$DIMGAP
 40
0.625
  9
$DIMDSEP
 70
44
  9
$PDMODE
 70
3
  9
$PDSIZE
 40
3.0
  9
$HANDSEED
  5
46D
  9
$TILEMODE
 70
1
  9
$MEASUREMENT
 70
1
  9
$INSUNITS
 70
4
  0
ENDSEC
  0
SECTION
  2
CLASSES
  0
CLASS
  1
ACDBDICTIONARYWDFLT
  2
AcDbDictionaryWithDefault
  3
AutoCAD 2000
 90
0
280
0
281
0
  0
CLASS
  1
ACDBPLACEHOLDER
  2
AcDbPlaceHolder
  3
AutoCAD 2000
 90
0
280
0
281
0
  0
CLASS
  1
LAYOUT
  2
AcDbLayout
  3
AutoCAD 2000
 90
0
280
0
281
0
  0
ENDSEC
  0
SECTION
  2
TABLES
  0
TABLE
  2
VPORT
  5
8
100
AcDbSymbolTable
 70
2
  0
VPORT
  5
1F4
100
AcDbSymbolTableRecord
100
AcDbViewportTableRecord
  2
*ACTIVE
 70
0
 10
0.0
 20
0.0
 11
1.0
 21
1.0
 12
105.0
 22
148.5
 13
0.0
 23
0.0
 14
1.0
 24
1.0
 15
0.0
 25
0.0
 16
0.0
 26
0.0
 36
1.0
 17
0.0
 27
0.0
 37
0.0
 40
297.0
 41
0.7070707071
 42
50.0
 43
0.0
 44
0.0
 50
0.0
 51
0.0
 71
0
 72
100
 73
1
 74
1
 75
0
 76
0
 77
0
 78
0
  0
ENDTAB
  0
TABLE
  2
LTYPE
  5
5
100
AcDbSymbolTable
 70
6
  0
LTYPE
  5
14
100
AcDbSymbolTableRecord
100
AcDbLinetypeTableRecord
  2
BYBLOCK
 70
0
  3

 72
65
 73
0
 40
0.0
  0
LTYPE
  5
15
100
AcDbSymbolTableRecord
100
AcDbLinetypeTableRecord
  2
BYLAYER
 70
0
  3

 72
65
 73
0
 40
0.0
  0
LTYPE
  5
16
100
AcDbSymbolTableRecord
100
AcDbLinetypeTableRecord
  2
CONTINUOUS
 70
64
  3
Solid line
 72
65
 73
0
 40
0.0
  0
LTYPE
  5
1F5
100
AcDbSymbolTableRecord
100
AcDbLinetypeTableRecord
  2
CENTER
 70
64
  3
____ _ ____ _ ____ _ ____ _ ____ _ ____ _ ____
 72
65
 73
4
 40
0.6
 49
0.375
 74
0
 49
-0.075
 74
0
 49
0.075
 74
0
 49
-0.075
 74
0
  0
LTYPE
  5
1F6
100
AcDbSymbolTableRecord
100
AcDbLinetypeTableRecord
  2
HIDDEN
 70
64
  3
- - - - - - - - - - - - - - - - - - - -
 72
65
 73
2
 40
0.2
 49
0.1
 74
0
 49
-0.1
 74
0
  0
LTYPE
  5
1F7
100
AcDbSymbolTableRecord
100
AcDbLinetypeTableRecord
  2
PHANTOM
 70
64
  3
_____ _ _ _____ _ _ _____ _ _ _____
 72
65
 73
6
 40
0.8
 49
0.45
 74
0
 49
-0.05
 74
0
 49
0.1
 74
0
 49
-0.05
 74
0
 49
0.1
 74
0
 49
-0.05
 74
0
  0
LTYPE
  5
1F8
100
AcDbSymbolTableRecord
100
AcDbLinetypeTableRecord
  2
DOT
 70
64
  3
. . . . . . . . . . . . . . . . . . . .
 72
65
 73
2
 40
0.2
 49
0.1
 74
0
 49
-0.1
 74
0
  0
LTYPE
  5
1F9
100
AcDbSymbolTableRecord
100
AcDbLinetypeTableRecord
  2
DASHED
 70
64
  3
- - - - - - - - - - - - - - - - - - - -
 72
65
 73
2
 40
0.2
 49
0.1
 74
0
 49
-0.1
 74
0
  0
ENDTAB
  0
TABLE
  2
LAYER
  5
2
100
AcDbSymbolTable
 70
36
  0
LAYER
  5
10
100
AcDbSymbolTableRecord
100
AcDbLayerTableRecord
  2
0
 70
0
 62
7
  6
CONTINUOUS
370
-3
390
F
  0
LAYER
  5
1FA
100
AcDbSymbolTableRecord
100
AcDbLayerTableRecord
  2
DEFAULT_1
 70
0
 62
7
  6
CENTER
370
-3
390
F
  0
LAYER
  5
1FB
100
AcDbSymbolTableRecord
100
AcDbLayerTableRecord
  2
DEFAULT_2
 70
0
 62
7
  6
HIDDEN
370
-3
390
F
  0
LAYER
  5
1FC
100
AcDbSymbolTableRecord
100
AcDbLayerTableRecord
  2
DEFAULT_3
 70
0
 62
7
  6
PHANTOM
370
-3
390
F
  0
LAYER
  5
1FD
100
AcDbSymbolTableRecord
100
AcDbLayerTableRecord
  2
ASSI
 70
0
 62
7
  6
CONTINUOUS
370
-3
390
F
  0
LAYER
  5
1FE
100
AcDbSymbolTableRecord
100
AcDbLayerTableRecord
  2
COLOR9
 70
0
 62
7
  6
CONTINUOUS
370
-3
390
F
  0
LAYER
  5
1FF
100
AcDbSymbolTableRecord
100
AcDbLayerTableRecord
  2
COORDINATE
 70
0
 62
7
  6
CONTINUOUS
370
-3
390
F
  0
LAYER
  5
200
100
AcDbSymbolTableRecord
100
AcDbLayerTableRecord
  2
COORD_ORIGINE
 70
0
 62
7
  6
CONTINUOUS
370
-3
390
F
  0
LAYER
  5
201
100
AcDbSymbolTableRecord
100
AcDbLayerTableRecord
  2
COPY_GEOMETRY
 70
0
 62
7
  6
CONTINUOUS
370
-3
390
F
  0
LAYER
  5
202
100
AcDbSymbolTableRecord
100
AcDbLayerTableRecord
  2
COPY_PUBLISH
 70
0
 62
7
  6
CONTINUOUS
370
-3
390
F
  0
LAYER
  5
203
100
AcDbSymbolTableRecord
100
AcDbLayerTableRecord
  2
COSMETIC
 70
0
 62
7
  6
CONTINUOUS
370
-3
390
F
  0
LAYER
  5
204
100
AcDbSymbolTableRecord
100
AcDbLayerTableRecord
  2
COSMETICI
 70
0
 62
7
  6
CONTINUOUS
370
-3
390
F
  0
LAYER
  5
205
100
AcDbSymbolTableRecord
100
AcDbLayerTableRecord
  2
CURVE
 70
0
 62
7
  6
CONTINUOUS
370
-3
390
F
  0
LAYER
  5
206
100
AcDbSymbolTableRecord
100
AcDbLayerTableRecord
  2
DRAFT
 70
0
 62
7
  6
CONTINUOUS
370
-3
390
F
  0
LAYER
  5
207
100
AcDbSymbolTableRecord
100
AcDbLayerTableRecord
  2
IGES
 70
0
 62
7
  6
CONTINUOUS
370
-3
390
F
  0
LAYER
  5
208
100
AcDbSymbolTableRecord
100
AcDbLayerTableRecord
  2
IGS_SCRITTE
 70
0
 62
7
  6
CONTINUOUS
370
-3
390
F
  0
LAYER
  5
209
100
AcDbSymbolTableRecord
100
AcDbLayerTableRecord
  2
IMPORT_IGES
 70
0
 62
7
  6
CONTINUOUS
370
-3
390
F
  0
LAYER
  5
20A
100
AcDbSymbolTableRecord
100
AcDbLayerTableRecord
  2
INTFCLR_13457
 70
0
 62
7
  6
CONTINUOUS
370
-3
390
F
  0
LAYER
  5
20B
100
AcDbSymbolTableRecord
100
AcDbLayerTableRecord
  2
INTFCLR_20107
 70
0
 62
7
  6
CONTINUOUS
370
-3
390
F
  0
LAYER
  5
20C
100
AcDbSymbolTableRecord
100
AcDbLayerTableRecord
  2
INTFCLR_35047
 70
0
 62
7
  6
CONTINUOUS
370
-3
390
F
  0
LAYER
  5
20D
100
AcDbSymbolTableRecord
100
AcDbLayerTableRecord
  2
INTF_11
 70
0
 62
7
  6
CONTINUOUS
370
-3
390
F
  0
LAYER
  5
20E
100
AcDbSymbolTableRecord
100
AcDbLayerTableRecord
  2
INTF_20
 70
0
 62
7
  6
CONTINUOUS
370
-3
390
F
  0
LAYER
  5
20F
100
AcDbSymbolTableRecord
100
AcDbLayerTableRecord
  2
INTF_25
 70
0
 62
7
  6
CONTINUOUS
370
-3
390
F
  0
LAYER
  5
210
100
AcDbSymbolTableRecord
100
AcDbLayerTableRecord
  2
INTF_YELLOW
 70
0
 62
7
  6
CONTINUOUS
370
-3
390
F
  0
LAYER
  5
211
100
AcDbSymbolTableRecord
100
AcDbLayerTableRecord
  2
NOTE
 70
0
 62
7
  6
CONTINUOUS
370
-3
390
F
  0
LAYER
  5
212
100
AcDbSymbolTableRecord
100
AcDbLayerTableRecord
  2
PIANI
 70
0
 62
7
  6
CONTINUOUS
370
-3
390
F
  0
LAYER
  5
213
100
AcDbSymbolTableRecord
100
AcDbLayerTableRecord
  2
PIANI_ORIGINE
 70
0
 62
7
  6
CONTINUOUS
370
-3
390
F
  0
LAYER
  5
214
100
AcDbSymbolTableRecord
100
AcDbLayerTableRecord
  2
PIANI_RIFERIMENTO
 70
0
 62
7
  6
CONTINUOUS
370
-3
390
F
  0
LAYER
  5
215
100
AcDbSymbolTableRecord
100
AcDbLayerTableRecord
  2
PUBLISH_GEOMETRY
 70
0
 62
7
  6
CONTINUOUS
370
-3
390
F
  0
LAYER
  5
216
100
AcDbSymbolTableRecord
100
AcDbLayerTableRecord
  2
PUNTI
 70
0
 62
7
  6
CONTINUOUS
370
-3
390
F
  0
LAYER
  5
217
100
AcDbSymbolTableRecord
100
AcDbLayerTableRecord
  2
RACCORDO
 70
0
 62
7
  6
CONTINUOUS
370
-3
390
F
  0
LAYER
  5
218
100
AcDbSymbolTableRecord
100
AcDbLayerTableRecord
  2
SIMBOLI
 70
0
 62
7
  6
CONTINUOUS
370
-3
390
F
  0
LAYER
  5
219
100
AcDbSymbolTableRecord
100
AcDbLayerTableRecord
  2
SMUSSO
 70
0
 62
7
  6
CONTINUOUS
370
-3
390
F
  0
LAYER
  5
21A
100
AcDbSymbolTableRecord
100
AcDbLayerTableRecord
  2
SNAPLINE
 70
0
 62
7
  6
CONTINUOUS
370
-3
390
F
  0
LAYER
  5
21B
100
AcDbSymbolTableRecord
100
AcDbLayerTableRecord
  2
SOLIDO
 70
0
 62
7
  6
CONTINUOUS
370
-3
390
F
  0
LAYER
  5
21C
100
AcDbSymbolTableRecord
100
AcDbLayerTableRecord
  2
SUPERFICI
 70
0
 62
7
  6
CONTINUOUS
370
-3
390
F
  0
LAYER
  5
21D
100
AcDbSymbolTableRecord
100
AcDbLayerTableRecord
  2
TRASH
 70
0
 62
7
  6
CONTINUOUS
370
-3
390
F
  0
LAYER
  5
21E
100
AcDbSymbolTableRecord
100
AcDbLayerTableRecord
  2
WHITE
 70
0
 62
7
  6
CONTINUOUS
370
-3
390
F
  0
LAYER
  5
21F
100
AcDbSymbolTableRecord
100
AcDbLayerTableRecord
  2
XSEC_DATUMS
 70
0
 62
7
  6
CONTINUOUS
370
-3
390
F
  0
ENDTAB
  0
TABLE
  2
STYLE
  5
3
100
AcDbSymbolTable
 70
1
  0
STYLE
  5
11
100
AcDbSymbolTableRecord
100
AcDbTextStyleTableRecord
  2
STANDARD
 70
0
 40
0.0
 41
0.8
 50
0.0
 71
0
 42
0.2
  3
txt
  4

  0
STYLE
  5
220
100
AcDbSymbolTableRecord
100
AcDbTextStyleTableRecord
  2
TEXTSTYLE_1
 70
0
 40
0.0
 41
0.8
 50
0.0
 71
0
 42
0.2
  3
gdt
  4

  0
ENDTAB
  0
TABLE
  2
VIEW
  5
6
100
AcDbSymbolTable
 70
0
  0
ENDTAB
  0
TABLE
  2
UCS
  5
7
100
AcDbSymbolTable
 70
0
  0
ENDTAB
  0
TABLE
  2
APPID
  5
9
100
AcDbSymbolTable
 70
1
  0
APPID
  5
221
100
AcDbSymbolTableRecord
100
AcDbRegAppTableRecord
  2
ACAD
 70
0
  0
ENDTAB
  0
TABLE
  2
BLOCK_RECORD
  5
1
100
AcDbSymbolTable
 70
0
  0
BLOCK_RECORD
  5
222
100
AcDbSymbolTableRecord
100
AcDbBlockTableRecord
  2
*Model_Space
  0
BLOCK_RECORD
  5
223
100
AcDbSymbolTableRecord
100
AcDbBlockTableRecord
  2
*Paper_Space
  0
ENDTAB
  0
TABLE
  2
DIMSTYLE
  5
A
100
AcDbSymbolTable
 70
1
100
AcDbDimStyleTable
 71
0
  0
DIMSTYLE
105
224
100
AcDbSymbolTableRecord
100
AcDbDimStyleTableRecord
  2
STANDARD
 70
0
  3

  4

 40
1.0
 41
3.0
 42
0.5
 43
0.38
 44
1.5
 45
0.0
 46
0.0
 47
0.01
 48
0.01
140
3.0
141
0.09
142
0.0
143
25.4
144
1.0
145
0.0
146
1.0
147
0.625
 71
1.0
 72
0.0
 73
0
 74
0
 75
0
 76
0
 77
1
 78
8
170
0
171
2
172
0
173
0
174
0
175
0
176
0
177
0
178
0
270
2
271
2
272
2
273
2
274
2
275
0
280
0
281
0
282
0
283
1
284
8
285
0
286
0
287
3
288
0
340
11
278
44
  0
ENDTAB
  0
ENDSEC
  0
SECTION
  2
BLOCKS
  0
BLOCK
  5
20
100
AcDbEntity
  8
0
100
AcDbBlockBegin
  2
*Model_Space
 70
0
 10
0.0
 20
0.0
 30
0.0
  3
*Model_Space
  1

  0
ENDBLK
  5
21
100
AcDbEntity
  8
0
100
AcDbBlockEnd
  0
BLOCK
  5
1C
100
AcDbEntity
  8
0
100
AcDbBlockBegin
  2
*Paper_Space
 70
0
 10
0.0
 20
0.0
 30
0.0
  3
*Paper_Space
  1

  0
ENDBLK
  5
1D
100
AcDbEntity
  8
0
100
AcDbBlockEnd
  0
ENDSEC
  0
SECTION
  2
ENTITIES
  0
LWPOLYLINE
  5
225
100
AcDbEntity
  8
0
100
AcDbPolyline
 62
7
  6
CONTINUOUS
 90
43
 70
0
 10
-35.1771970927
 20
48.4561819039
 10
-35.1933865983
 20
48.4461975942
 10
-35.2147376503
 20
48.4323242719
 10
-35.2358494483
 20
48.4177938108
 10
-35.2567338552
 20
48.4025975991
 10
-35.2773674262
 20
48.3867519289
 10
-35.2976925907
 20
48.3703032717
 10
-35.3177080375
 20
48.3532575002
 10
-35.3374099148
 20
48.3356214665
 10
-35.3567414096
 20
48.317451835
 10
-35.3757025561
 20
48.298757381
 10
-35.3942923407
 20
48.2795461114
 10
-35.4124571423
 20
48.2598833468
 10
-35.4301944631
 20
48.2397845429
 10
-35.4475093651
 20
48.2192550342
 10
-35.4643633003
 20
48.1983536262
 10
-35.4807494774
 20
48.1771038823
 10
-35.4966793816
 20
48.1555051336
 10
-35.5121425915
 20
48.133584365
 10
-35.5271385048
 20
48.1113550219
 10
-35.5416699859
 20
48.0888244729
 10
-35.5557306319
 20
48.0660126422
 10
-35.5693185
 20
48.04293282
 10
-35.5824350772
 20
48.0195906227
 10
-35.5950783951
 20
47.9959961003
 10
-35.6072461195
 20
47.9721589365
 10
-35.6189362535
 20
47.9480860084
 10
-35.6301465628
 20
47.923783635
 10
-35.6408741887
 20
47.8992566023
 10
-35.6511134992
 20
47.8745146471
 10
-35.6608570611
 20
47.8495708036
 10
-35.670100129
 20
47.8244294696
 10
-35.6788358002
 20
47.7990995526
 10
-35.6870532075
 20
47.773599587
 10
-35.6947458112
 20
47.747935227
 10
-35.7019057609
 20
47.7221130667
 10
-35.7085215756
 20
47.6961512884
 10
-35.7145849176
 20
47.6700559835
 10
-35.7200862321
 20
47.6438329323
 10
-35.7250138446
 20
47.6174965367
 10
-35.7293568152
 20
47.5910537307
 10
-35.7331039482
 20
47.5645085579
 10
-35.7355481885
 20
47.5442462773
  0
LINE
  5
226
100
AcDbEntity
  8
0
100
AcDbLine
 62
7
  6
CONTINUOUS
 10
-35.1771963334
 20
48.4561823939
 11
-33.4111028876
 21
49.520594637
  0
LINE
  5
227
100
AcDbEntity
  8
0
100
AcDbLine
 62
253
  6
CONTINUOUS
 10
-34.9376045264
 20
48.4511130576
 11
-33.1855495644
 21
49.5070644041
  0
LWPOLYLINE
  5
228
100
AcDbEntity
  8
0
100
AcDbPolyline
 62
7
  6
CONTINUOUS
 90
22
 70
0
 10
-35.7355479053
 20
47.5442489361
 10
-35.7907165006
 20
47.0403910236
 10
-35.8441631604
 20
46.5316999248
 10
-35.8952545386
 20
46.0238451732
 10
-35.9439882395
 20
45.516848727
 10
-35.9903623618
 20
45.0107296554
 10
-36.0343751558
 20
44.5055058737
 10
-36.0760248194
 20
44.0011962156
 10
-36.1153096485
 20
43.4978202239
 10
-36.1522280169
 20
42.9953968784
 10
-36.1867783222
 20
42.4939452781
 10
-36.2189591016
 20
41.9934851063
 10
-36.248768935
 20
41.4940362121
 10
-36.2762064691
 20
40.9956182306
 10
-36.301270575
 20
40.4982500562
 10
-36.3239601663
 20
40.0019504197
 10
-36.3442741624
 20
39.5067385975
 10
-36.3622116803
 20
39.0126330258
 10
-36.3777719044
 20
38.5196511774
 10
-36.3909540247
 20
38.0278116257
 10
-36.4017573702
 20
37.5371355939
 10
-36.4100937985
 20
37.0535476124
  0
LWPOLYLINE
  5
229
100
AcDbEntity
  8
0
100
AcDbPolyline
 62
7
  6
CONTINUOUS
 90
33
 70
0
 10
-36.471573071
 20
29.1381382739
 10
-36.4713541915
 20
29.1262536019
 10
-36.4707252085
 20
29.1149651211
 10
-36.4696897507
 20
29.1037299716
 10
-36.4682507103
 20
29.092551997
 10
-36.4664063531
 20
29.0814138296
 10
-36.4641581045
 20
29.0703296648
 10
-36.4615081656
 20
29.0593139593
 10
-36.4584502861
 20
29.0483502675
 10
-36.4549842361
 20
29.0374520047
 10
-36.4511113025
 20
29.0266348321
 10
-36.4468221779
 20
29.015886508
 10
-36.4421160951
 20
29.005221343
 10
-36.4369934847
 20
28.9946547748
 10
-36.4314417579
 20
28.984177063
 10
-36.4254575362
 20
28.973799758
 10
-36.4190423917
 20
28.9635418274
 10
-36.41218707
 20
28.9534046611
 10
-36.4048880389
 20
28.943400013
 10
-36.3971470246
 20
28.9335456976
 10
-36.3889595506
 20
28.9238505263
 10
-36.3803245022
 20
28.9143275796
 10
-36.3712414817
 20
28.9049900799
 10
-36.3617037129
 20
28.8958442753
 10
-36.3517093515
 20
28.8869018198
 10
-36.3412562763
 20
28.8781739938
 10
-36.3303324364
 20
28.8696639807
 10
-36.3189304589
 20
28.8613801666
 10
-36.3070485767
 20
28.8533355265
 10
-36.2946774609
 20
28.8455376934
 10
-36.2818074429
 20
28.8379953028
 10
-36.2684330716
 20
28.8307200682
 10
-36.2601601045
 20
28.8264860451
  0
LWPOLYLINE
  5
22A
100
AcDbEntity
  8
0
100
AcDbPolyline
 62
7
  6
CONTINUOUS
 90
22
 70
0
 10
-36.4100919985
 20
20.6005457365
 10
-36.4017429032
 20
20.1252495729
 10
-36.3909323058
 20
19.6459556594
 10
-36.3777408115
 20
19.1680149674
 10
-36.3621687608
 20
18.6914481942
 10
-36.3442166324
 20
18.2162732038
 10
-36.3238849074
 20
17.7425067082
 10
-36.3011741362
 20
17.2701663757
 10
-36.2760850659
 20
16.7992704957
 10
-36.2486184437
 20
16.3298367183
 10
-36.2187750627
 20
15.8618829017
 10
-36.1865559398
 20
15.3954274024
 10
-36.1519621496
 20
14.9304886108
 10
-36.1149948159
 20
14.4670848189
 10
-36.0756552005
 20
14.005233578
 10
-36.033944576
 20
13.5449521607
 10
-35.9898643023
 20
13.0862584567
 10
-35.9434158367
 20
12.6291695408
 10
-35.894600566
 20
12.1737014716
 10
-35.8434200357
 20
11.7198714009
 10
-35.7898762973
 20
11.2676989516
 10
-35.7346605931
 20
10.8226334768
  0
LWPOLYLINE
  5
22B
100
AcDbEntity
  8
0
100
AcDbPolyline
 62
7
  6
CONTINUOUS
 90
10
 70
0
 10
-36.4715731442
 20
28.4502239916
 10
-36.4703381459
 20
27.5801385559
 10
-36.4676984766
 20
26.7042865632
 10
-36.4636581852
 20
25.8291923085
 10
-36.458217281
 20
24.954859775
 10
-36.4513757822
 20
24.081292301
 10
-36.4431337072
 20
23.2084930378
 10
-36.4334910802
 20
22.3364654146
 10
-36.4224479449
 20
21.4652135056
 10
-36.4100919988
 20
20.6005457382
  0
LWPOLYLINE
  5
22C
100
AcDbEntity
  8
0
100
AcDbPolyline
 62
7
  6
CONTINUOUS
 90
10
 70
0
 10
-36.4100937988
 20
37.0535476107
 10
-36.4224557204
 20
36.1751779774
 10
-36.4334976807
 20
35.2921161514
 10
-36.4431392258
 20
34.409776507
 10
-36.4513802997
 20
33.5281631713
 10
-36.458220866
 20
32.6472796063
 10
-36.4636608942
 20
31.7671289897
 10
-36.4677003537
 20
30.8877146864
 10
-36.4703392232
 20
30.0090406962
 10
-36.4715731448
 20
29.1381191071
  0
LINE
  5
22D
100
AcDbEntity
  8
0
100
AcDbLine
 62
7
  6
CONTINUOUS
 10
-27.6528517596
 20
46.3799131716
 11
-27.5093474852
 21
46.6689633645
  0
LWPOLYLINE
  5
22E
100
AcDbEntity
  8
0
100
AcDbPolyline
 62
7
  6
CONTINUOUS
 90
30
 70
0
 10
-4.5647882692
 20
-5.1552306519
 10
-4.5527501002
 20
-5.1611072844
 10
-4.5332324349
 20
-5.1700414496
 10
-4.513455146
 20
-5.1783728529
 10
-4.4934280596
 20
-5.1860983196
 10
-4.4731422229
 20
-5.1932206176
 10
-4.4526159186
 20
-5.1997318362
 10
-4.4318674816
 20
-5.2056249758
 10
-4.4108863489
 20
-5.2109006058
 10
-4.3896899002
 20
-5.2155507274
 10
-4.3682969626
 20
-5.2195681728
 10
-4.3466974636
 20
-5.2229508295
 10
-4.3249086744
 20
-5.2256907924
 10
-4.3029492891
 20
-5.2277807206
 10
-4.2808099017
 20
-5.2292158745
 10
-4.2585066847
 20
-5.2299885319
 10
-4.2360592764
 20
-5.2300914284
 10
-4.2134619483
 20
-5.2295172342
 10
-4.1907293862
 20
-5.2282583163
 10
-4.1678823176
 20
-5.2263079387
 10
-4.1449224078
 20
-5.2236577707
 10
-4.1218660813
 20
-5.2203008249
 10
-4.0987315341
 20
-5.2162312186
 10
-4.0755211197
 20
-5.2114400705
 10
-4.0522503179
 20
-5.2059205194
 10
-4.0289365339
 20
-5.1996669746
 10
-4.0055827225
 20
-5.1926697543
 10
-3.9821997768
 20
-5.184920569
 10
-3.9588092631
 20
-5.1764154111
 10
-3.9415042632
 20
-5.1696314429
  0
LINE
  5
22F
100
AcDbEntity
  8
0
100
AcDbLine
 62
7
  6
CONTINUOUS
 10
-35.3406517491
 20
10.2327010632
 11
-4.5647546428
 21
-5.15524749
  0
LINE
  5
230
100
AcDbEntity
  8
0
100
AcDbLine
 62
253
  6
CONTINUOUS
 10
-35.5882399195
 20
10.646215452
 11
-4.8211487372
 21
-4.7373301391
  0
LWPOLYLINE
  5
231
100
AcDbEntity
  8
0
100
AcDbPolyline
 62
7
  6
CONTINUOUS
 90
36
 70
0
 10
-35.7346599606
 20
10.8226286184
 10
-35.7321191808
 20
10.804083609
 10
-35.7282107095
 20
10.7797770305
 10
-35.7237103929
 20
10.7558877175
 10
-35.718632366
 20
10.7324271479
 10
-35.7129887732
 20
10.7093945241
 10
-35.706788657
 20
10.6867810473
 10
-35.7000439953
 20
10.6645924358
 10
-35.6927673832
 20
10.6428348542
 10
-35.6849674935
 20
10.6215040544
 10
-35.6766567436
 20
10.6006079726
 10
-35.6678476269
 20
10.5801528987
 10
-35.6585483676
 20
10.5601355607
 10
-35.6487727816
 20
10.5405658988
 10
-35.6385331682
 20
10.5214494999
 10
-35.6278350623
 20
10.5027795881
 10
-35.616691954
 20
10.4845648147
 10
-35.6051173883
 20
10.4668130866
 10
-35.5931164049
 20
10.4495192241
 10
-35.5807040379
 20
10.4326929901
 10
-35.5678937878
 20
10.4163411205
 10
-35.5546876392
 20
10.4004563852
 10
-35.5411007371
 20
10.3850483154
 10
-35.5271471742
 20
10.3701239041
 10
-35.5128260301
 20
10.3556748109
 10
-35.4981518312
 20
10.3417097783
 10
-35.4831393988
 20
10.3282368152
 10
-35.4677868667
 20
10.3152490366
 10
-35.4521095899
 20
10.302755342
 10
-35.4361220758
 20
10.2907631089
 10
-35.4198196766
 20
10.2792659327
 10
-35.403217306
 20
10.2682722951
 10
-35.386330097
 20
10.2577898123
 10
-35.3691522275
 20
10.2478136003
 10
-35.3516913458
 20
10.2383483337
 10
-35.3406277166
 20
10.2326890717
  0
LINE
  5
232
100
AcDbEntity
  8
0
100
AcDbLine
 62
253
  6
CONTINUOUS
 10
-31.3209053258
 20
27.0544617637
 11
-31.204899164
 21
27.2738658328
  0
LINE
  5
233
100
AcDbEntity
  8
0
100
AcDbLine
 62
253
  6
CONTINUOUS
 10
-31.1405984761
 20
26.8293073896
 11
-30.968137598
 21
27.1554850499
  0
LWPOLYLINE
  5
234
100
AcDbEntity
  8
0
100
AcDbPolyline
 62
7
  6
CONTINUOUS
 90
34
 70
0
 10
-36.2744373693
 20
28.7562429864
 10
-36.2816661046
 20
28.7522052751
 10
-36.2940491914
 20
28.7448929752
 10
-36.3059766279
 20
28.7373411828
 10
-36.3174527514
 20
28.7295597585
 10
-36.3284834115
 20
28.7215576209
 10
-36.3390719467
 20
28.7133449736
 10
-36.3492212828
 20
28.7049325125
 10
-36.358935602
 20
28.6963301078
 10
-36.3682163417
 20
28.6875499141
 10
-36.377062879
 20
28.6786068733
 10
-36.3854813341
 20
28.6695100372
 10
-36.3934797955
 20
28.6602654197
 10
-36.4010556132
 20
28.6508913276
 10
-36.4082157593
 20
28.6413955325
 10
-36.4149781044
 20
28.6317688884
 10
-36.4213425468
 20
28.6220245686
 10
-36.4273102332
 20
28.61217474
 10
-36.4328956493
 20
28.6022080275
 10
-36.4380986713
 20
28.5921353791
 10
-36.4429181769
 20
28.5819706676
 10
-36.4473626952
 20
28.5717062932
 10
-36.4514312963
 20
28.5613531545
 10
-36.4551225909
 20
28.5509252213
 10
-36.4584411231
 20
28.540419245
 10
-36.4613854753
 20
28.5298480214
 10
-36.4639549429
 20
28.5192239841
 10
-36.4661525387
 20
28.5085432338
 10
-36.4679770248
 20
28.4978191229
 10
-36.4694280103
 20
28.4870637665
 10
-36.4705070896
 20
28.4762712878
 10
-36.4712132625
 20
28.4654482285
 10
-36.4715451518
 20
28.4546136531
 10
-36.4715730751
 20
28.450214523
  0
LINE
  5
235
100
AcDbEntity
  8
0
100
AcDbLine
 62
7
  6
CONTINUOUS
 10
-36.2005477288
 20
28.7966798094
 11
-36.2744303431
 21
28.7562468625
  0
LINE
  5
236
100
AcDbEntity
  8
0
100
AcDbLine
 62
253
  6
CONTINUOUS
 10
-36.135217942
 20
28.764014916
 11
-36.1559550363
 21
28.7526663486
  0
LINE
  5
237
100
AcDbEntity
  8
0
100
AcDbLine
 62
7
  6
CONTINUOUS
 10
-31.1405984761
 20
26.8293073896
 11
-31.1405984761
 21
26.4403418344
  0
LINE
  5
238
100
AcDbEntity
  8
0
100
AcDbLine
 62
7
  6
CONTINUOUS
 10
-30.7969975486
 20
27.0699150251
 11
-30.7969975486
 21
26.4486581241
  0
LINE
  5
239
100
AcDbEntity
  8
0
100
AcDbLine
 62
7
  6
CONTINUOUS
 10
-31.9716926606
 20
27.6105717047
 11
-31.9716385766
 21
27.6105977164
  0
LINE
  5
23A
100
AcDbEntity
  8
0
100
AcDbLine
 62
7
  6
CONTINUOUS
 10
-22.4062144967
 20
10.6823957152
 11
-21.9819452437
 21
10.4702610887
  0
LINE
  5
23B
100
AcDbEntity
  8
ASSI
100
AcDbLine
 62
7
  6
CONTINUOUS
 10
-22.4062144967
 20
10.6823957152
 11
-21.9819452437
 21
10.4702610887
  0
LINE
  5
23C
100
AcDbEntity
  8
0
100
AcDbLine
 62
7
  6
CONTINUOUS
 10
-19.6484929488
 20
9.3035349412
 11
-19.2242287799
 21
9.0914028568
  0
LINE
  5
23D
100
AcDbEntity
  8
ASSI
100
AcDbLine
 62
7
  6
CONTINUOUS
 10
-19.6484929488
 20
9.3035349412
 11
-19.2242287799
 21
9.0914028568
  0
LINE
  5
23E
100
AcDbEntity
  8
0
100
AcDbLine
 62
7
  6
CONTINUOUS
 10
-22.4286849161
 20
11.1907754992
 11
-22.0044156631
 21
10.9786408727
  0
LINE
  5
23F
100
AcDbEntity
  8
ASSI
100
AcDbLine
 62
7
  6
CONTINUOUS
 10
-22.4286849161
 20
11.1907754992
 11
-22.0044156631
 21
10.9786408727
  0
LINE
  5
240
100
AcDbEntity
  8
0
100
AcDbLine
 62
7
  6
CONTINUOUS
 10
-19.6709633681
 20
9.8119147251
 11
-19.2466991992
 21
9.5997826406
  0
LINE
  5
241
100
AcDbEntity
  8
ASSI
100
AcDbLine
 62
7
  6
CONTINUOUS
 10
-19.6709633681
 20
9.8119147251
 11
-19.2466991992
 21
9.5997826406
  0
LINE
  5
242
100
AcDbEntity
  8
0
100
AcDbLine
 62
253
  6
CONTINUOUS
 10
-32.2109247087
 20
26.6077215624
 11
-31.3209053258
 21
27.0544617637
  0
LINE
  5
243
100
AcDbEntity
  8
0
100
AcDbLine
 62
253
  6
CONTINUOUS
 10
-32.0695087373
 20
26.3638150911
 11
-31.1406012458
 21
26.8300749588
  0
LINE
  5
244
100
AcDbEntity
  8
0
100
AcDbLine
 62
253
  6
CONTINUOUS
 10
-31.1405984761
 20
26.4403418344
 11
-32.1045197666
 21
25.956509464
  0
LINE
  5
245
100
AcDbEntity
  8
0
100
AcDbLine
 62
253
  6
CONTINUOUS
 10
-30.7870585478
 20
25.8305756561
 11
-31.7498309843
 21
25.347315397
  0
LINE
  5
246
100
AcDbEntity
  8
0
100
AcDbLine
 62
253
  6
CONTINUOUS
 10
-31.7120169959
 20
27.5274247488
 11
-32.1045197666
 21
27.3387268663
  0
LINE
  5
247
100
AcDbEntity
  8
0
100
AcDbLine
 62
253
  6
CONTINUOUS
 10
-31.3146355488
 20
27.3287340252
 11
-32.0695087373
 21
26.9658265413
  0
LINE
  5
248
100
AcDbEntity
  8
0
100
AcDbLine
 62
7
  6
CONTINUOUS
 10
-31.2298087619
 20
27.2863206318
 11
-32.1230340926
 21
26.8568999526
  0
LWPOLYLINE
  5
249
100
AcDbEntity
  8
0
100
AcDbPolyline
 62
7
  6
CONTINUOUS
 90
25
 70
0
 10
-31.971694105
 20
27.6105709553
 10
-31.9705526556
 20
27.6111072077
 10
-31.9671223082
 20
27.6125590905
 10
-31.9635488972
 20
27.613836006
 10
-31.9598343356
 20
27.6149350704
 10
-31.9559426174
 20
27.6158642562
 10
-31.9517962169
 20
27.6166314158
 10
-31.9473725504
 20
27.617224523
 10
-31.9426810399
 20
27.617626729
 10
-31.9376950837
 20
27.6178245532
 10
-31.9324096853
 20
27.6178014616
 10
-31.926840068
 20
27.6175417258
 10
-31.9209926644
 20
27.6170312659
 10
-31.9148759332
 20
27.6162575067
 10
-31.9085066894
 20
27.6152102079
 10
-31.9019035491
 20
27.6138814663
 10
-31.8950819965
 20
27.6122649501
 10
-31.8880581893
 20
27.6103558791
 10
-31.8808486532
 20
27.6081509077
 10
-31.8734697905
 20
27.6056482498
 10
-31.8659362811
 20
27.6028468041
 10
-31.8582575717
 20
27.5997442324
 10
-31.8504457536
 20
27.5963399052
 10
-31.8425184188
 20
27.592636694
 10
-31.8380462206
 20
27.5904393225
  0
LINE
  5
24A
100
AcDbEntity
  8
0
100
AcDbLine
 62
253
  6
CONTINUOUS
 10
-5.5451437584
 20
5.0638732688
 11
-36.2636385268
 21
20.4231206529
  0
LINE
  5
24B
100
AcDbEntity
  8
0
100
AcDbLine
 62
253
  6
CONTINUOUS
 10
-27.6528517596
 20
46.3799131716
 11
-27.645860847
 21
46.3136760469
  0
LWPOLYLINE
  5
24C
100
AcDbEntity
  8
0
100
AcDbPolyline
 62
7
  6
CONTINUOUS
 90
30
 70
0
 10
-25.5182194548
 20
23.5998205138
 10
-25.5182084853
 20
23.5973108038
 10
-25.5179352516
 20
23.5876987133
 10
-25.5172981881
 20
23.5781728068
 10
-25.5163013185
 20
23.5687443188
 10
-25.5149486459
 20
23.5594195013
 10
-25.5132435568
 20
23.5502048289
 10
-25.5111905393
 20
23.5411120154
 10
-25.508794719
 20
23.5321527673
 10
-25.5060615222
 20
23.5233389614
 10
-25.5029984068
 20
23.5146857846
 10
-25.4996126156
 20
23.5062043566
 10
-25.4959109408
 20
23.4979040006
 10
-25.4919047299
 20
23.4898022906
 10
-25.4876025328
 20
23.4819077094
 10
-25.4830068827
 20
23.4742186894
 10
-25.4781282514
 20
23.466748305
 10
-25.4729777595
 20
23.4595085316
 10
-25.4675576634
 20
23.4524983428
 10
-25.4618793009
 20
23.4457294652
 10
-25.4559548771
 20
23.4392131993
 10
-25.4497867403
 20
23.4329497246
 10
-25.4433871455
 20
23.4269495737
 10
-25.4367692062
 20
23.4212227289
 10
-25.4299355925
 20
23.4157699665
 10
-25.4228998012
 20
23.4106012026
 10
-25.4156750516
 20
23.4057247155
 10
-25.4082625225
 20
23.4011404737
 10
-25.4006715019
 20
23.3968545056
 10
-25.3947645166
 20
23.3937882204
  0
LINE
  5
24D
100
AcDbEntity
  8
0
100
AcDbLine
 62
7
  6
CONTINUOUS
 10
-25.5182194986
 20
22.9108949244
 11
-25.5178836631
 21
22.5641645081
  0
LINE
  5
24E
100
AcDbEntity
  8
0
100
AcDbLine
 62
7
  6
CONTINUOUS
 10
-25.5178836635
 20
23.9469038484
 11
-25.5182194987
 21
23.5998320667
  0
LWPOLYLINE
  5
24F
100
AcDbEntity
  8
0
100
AcDbPolyline
 62
7
  6
CONTINUOUS
 90
34
 70
0
 10
-25.5178837043
 20
22.5641641983
 10
-25.5179400095
 20
22.5556646925
 10
-25.5182129324
 20
22.5448008422
 10
-25.518702765
 20
22.5342597227
 10
-25.519398424
 20
22.5240608602
 10
-25.5202898488
 20
22.5141966429
 10
-25.5213706051
 20
22.5046365348
 10
-25.5226319314
 20
22.4953859761
 10
-25.5240642947
 20
22.4864524166
 10
-25.5256633091
 20
22.4778136527
 10
-25.527420688
 20
22.4694758671
 10
-25.5293269599
 20
22.4614482853
 10
-25.5313776507
 20
22.4537184807
 10
-25.5335637441
 20
22.4462936422
 10
-25.5358749751
 20
22.4391828303
 10
-25.5383051228
 20
22.4323813818
 10
-25.5408438552
 20
22.4258959244
 10
-25.5434789561
 20
22.4197354912
 10
-25.5461999364
 20
22.413902821
 10
-25.5489938707
 20
22.4084035681
 10
-25.5518466283
 20
22.4032430748
 10
-25.5547436313
 20
22.3984250838
 10
-25.5576679831
 20
22.3939539294
 10
-25.5606063142
 20
22.3898256532
 10
-25.5635484901
 20
22.3860313299
 10
-25.5664759835
 20
22.3825712859
 10
-25.5693803844
 20
22.3794313366
 10
-25.5722706779
 20
22.3765815308
 10
-25.57513152
 20
22.3740182564
 10
-25.5779671632
 20
22.3717188184
 10
-25.5808279697
 20
22.3696315574
 10
-25.5837402713
 20
22.367734719
 10
-25.5867007981
 20
22.3660285393
 10
-25.5876194127
 20
22.3655423866
  0
LINE
  5
250
100
AcDbEntity
  8
0
100
AcDbLine
 62
7
  6
CONTINUOUS
 10
-27.5093474852
 20
46.6689633645
 11
-27.4607520149
 21
46.2085336015
  0
LINE
  5
251
100
AcDbEntity
  8
0
100
AcDbLine
 62
253
  6
CONTINUOUS
 10
-14.9265406855
 20
17.8989092539
 11
-14.580908754
 21
17.9656137269
  0
LINE
  5
252
100
AcDbEntity
  8
0
100
AcDbLine
 62
253
  6
CONTINUOUS
 10
-14.8870949719
 20
18.4937068358
 11
-15.2327269034
 21
18.4270023628
  0
LWPOLYLINE
  5
253
100
AcDbEntity
  8
0
100
AcDbPolyline
 62
7
  6
CONTINUOUS
 90
33
 70
0
 10
-25.3757048862
 20
23.149500425
 10
-25.3837086463
 20
23.1451472893
 10
-25.3913070953
 20
23.1406436295
 10
-25.3987952095
 20
23.1358316588
 10
-25.4061562106
 20
23.1307179206
 10
-25.4133627143
 20
23.1253190568
 10
-25.4204133338
 20
23.1196342431
 10
-25.4273012528
 20
23.1136665554
 10
-25.4339990709
 20
23.1074382285
 10
-25.4405128
 20
23.1009425864
 10
-25.446835132
 20
23.0941841575
 10
-25.4529280636
 20
23.0872033517
 10
-25.4587969607
 20
23.0799961358
 10
-25.4644429913
 20
23.072559721
 10
-25.469832285
 20
23.0649401715
 10
-25.4749718215
 20
23.0571302061
 10
-25.4798643634
 20
23.0491246828
 10
-25.4844784732
 20
23.0409761028
 10
-25.4888201774
 20
23.0326773995
 10
-25.4928933007
 20
23.0242195633
 10
-25.4966721038
 20
23.0156564209
 10
-25.5001611461
 20
23.0069806744
 10
-25.503362922
 20
22.9981825416
 10
-25.5062572203
 20
22.9893168483
 10
-25.5088458157
 20
22.980380706
 10
-25.511130861
 20
22.9713626811
 10
-25.5130994633
 20
22.9623095572
 10
-25.5147520693
 20
22.9532217307
 10
-25.5160885624
 20
22.9440907146
 10
-25.5171021961
 20
22.9349545388
 10
-25.5177916715
 20
22.9258262745
 10
-25.5181569518
 20
22.9166931017
 10
-25.5182194503
 20
22.9108976952
  0
LINE
  5
254
100
AcDbEntity
  8
0
100
AcDbLine
 62
253
  6
CONTINUOUS
 10
-2.2685399742
 20
34.048559609
 11
-4.1473888937
 21
33.0560052412
  0
LINE
  5
255
100
AcDbEntity
  8
0
100
AcDbLine
 62
253
  6
CONTINUOUS
 10
-1.8707980306
 20
33.462754617
 11
-3.7878861589
 21
32.4499993202
  0
LINE
  5
256
100
AcDbEntity
  8
0
100
AcDbLine
 62
7
  6
CONTINUOUS
 10
-25.1454566365
 20
23.2691342632
 11
-25.3756912949
 21
23.1495075629
  0
LINE
  5
257
100
AcDbEntity
  8
0
100
AcDbLine
 62
253
  6
CONTINUOUS
 10
-25.09429548
 20
23.243553685
 11
-25.2847127091
 21
23.1446155626
  0
LINE
  5
258
100
AcDbEntity
  8
0
100
AcDbLine
 62
253
  6
CONTINUOUS
 10
-25.5188795408
 20
22.5316680615
 11
-25.8129489309
 21
22.3788743703
  0
LINE
  5
259
100
AcDbEntity
  8
0
100
AcDbLine
 62
7
  6
CONTINUOUS
 10
-25.5875704681
 20
22.3655678041
 11
-25.5876201568
 21
22.365541996
  0
LWPOLYLINE
  5
25A
100
AcDbEntity
  8
0
100
AcDbPolyline
 62
7
  6
CONTINUOUS
 90
26
 70
0
 10
-16.4114861434
 20
18.9021490336
 10
-16.4066638098
 20
18.8998108104
 10
-16.3992307821
 20
18.8964856228
 10
-16.3916811141
 20
18.8934395138
 10
-16.3840237298
 20
18.890675729
 10
-16.376260716
 20
18.8881953032
 10
-16.3684042303
 20
18.8860028192
 10
-16.3604668271
 20
18.8841021536
 10
-16.3524507322
 20
18.8824943649
 10
-16.3443687135
 20
18.8811828899
 10
-16.3362334947
 20
18.8801704537
 10
-16.3280467177
 20
18.8794583441
 10
-16.3198212846
 20
18.8790490084
 10
-16.3115702887
 20
18.8789439949
 10
-16.3032951011
 20
18.8791446428
 10
-16.2950085331
 20
18.879652428
 10
-16.2867239572
 20
18.8804680335
 10
-16.2784429136
 20
18.881592906
 10
-16.2701778671
 20
18.8830273756
 10
-16.2619423662
 20
18.8847709621
 10
-16.2537384491
 20
18.88682546
 10
-16.2455774151
 20
18.8891904679
 10
-16.2374725922
 20
18.8918643874
 10
-16.2294272412
 20
18.894848825
 10
-16.2214498272
 20
18.898143689
 10
-16.213145072
 20
18.9019422239
  0
LWPOLYLINE
  5
25B
100
AcDbEntity
  8
0
100
AcDbPolyline
 62
7
  6
CONTINUOUS
 90
40
 70
0
 10
-5.5461116069
 20
13.4694617965
 10
-5.5375774465
 20
13.4652947554
 10
-5.5237304906
 20
13.4589421452
 10
-5.5097066334
 20
13.4529913879
 10
-5.4955040615
 20
13.4474265478
 10
-5.4811360921
 20
13.4422396219
 10
-5.4666386794
 20
13.4374304425
 10
-5.4520192759
 20
13.4329886059
 10
-5.437282676
 20
13.4289045448
 10
-5.4224696667
 20
13.4251784018
 10
-5.4075888969
 20
13.4218015064
 10
-5.3926445917
 20
13.4187650694
 10
-5.3776777494
 20
13.4160679992
 10
-5.3627084504
 20
13.4137039548
 10
-5.3477306148
 20
13.4116631483
 10
-5.3327510704
 20
13.409939227
 10
-5.3177853492
 20
13.4085271836
 10
-5.3028311349
 20
13.4074211232
 10
-5.2878712687
 20
13.4066156464
 10
-5.2729123728
 20
13.4061086785
 10
-5.2579601033
 20
13.4058985339
 10
-5.2429966377
 20
13.405984618
 10
-5.228027531
 20
13.4063679992
 10
-5.2130594002
 20
13.4070502205
 10
-5.1980754367
 20
13.4080353672
 10
-5.1830746749
 20
13.4093282759
 10
-5.168070918
 20
13.4109336221
 10
-5.1530671249
 20
13.4128574996
 10
-5.138058744
 20
13.415108509
 10
-5.12306387
 20
13.4176929238
 10
-5.1081151265
 20
13.4206139602
 10
-5.0932167483
 20
13.4238801245
 10
-5.0783773485
 20
13.4274999454
 10
-5.063629891
 20
13.4314763624
 10
-5.0489793223
 20
13.4358191763
 10
-5.0344333708
 20
13.4405390936
 10
-5.020020693
 20
13.4456403454
 10
-5.005752537
 20
13.4511331675
 10
-4.9916301663
 20
13.457033125
 10
-4.983303439
 20
13.4607411884
  0
LINE
  5
25C
100
AcDbEntity
  8
0
100
AcDbLine
 62
253
  6
CONTINUOUS
 10
-10.0432309355
 20
14.1801111592
 11
-15.9801170798
 21
17.1485542314
  0
LINE
  5
25D
100
AcDbEntity
  8
0
100
AcDbLine
 62
253
  6
CONTINUOUS
 10
-25.9531335122
 20
22.1350624476
 11
-31.8900196565
 21
25.1035055197
  0
LINE
  5
25E
100
AcDbEntity
  8
0
100
AcDbLine
 62
253
  6
CONTINUOUS
 10
-9.9030463542
 20
14.4239230819
 11
-15.8399284076
 21
17.3923641086
  0
LINE
  5
25F
100
AcDbEntity
  8
0
100
AcDbLine
 62
253
  6
CONTINUOUS
 10
-25.8129489309
 20
22.3788743703
 11
-31.7498309843
 21
25.347315397
  0
LINE
  5
260
100
AcDbEntity
  8
0
100
AcDbLine
 62
253
  6
CONTINUOUS
 10
-36.325124078
 20
28.2729169098
 11
-32.3864645471
 21
26.3035847355
  0
LINE
  5
261
100
AcDbEntity
  8
0
100
AcDbLine
 62
253
  6
CONTINUOUS
 10
-9.5497382733
 20
14.8852215986
 11
-5.6110787456
 21
12.9158942436
  0
LINE
  5
262
100
AcDbEntity
  8
0
100
AcDbLine
 62
253
  6
CONTINUOUS
 10
-25.45964085
 20
22.840172887
 11
-16.4765619704
 21
18.3486334472
  0
LINE
  5
263
100
AcDbEntity
  8
0
100
AcDbLine
 62
7
  6
CONTINUOUS
 10
-30.7870585478
 20
25.8305756561
 11
-25.3982593086
 21
23.1361760365
  0
LINE
  5
264
100
AcDbEntity
  8
0
100
AcDbLine
 62
7
  6
CONTINUOUS
 10
-14.8771559711
 20
17.8756243678
 11
-9.4883567319
 21
15.1812247482
  0
LINE
  5
265
100
AcDbEntity
  8
0
100
AcDbLine
 62
253
  6
CONTINUOUS
 10
-36.1498922178
 20
28.5772053171
 11
-32.2109247087
 21
26.6077215624
  0
LINE
  5
266
100
AcDbEntity
  8
0
100
AcDbLine
 62
253
  6
CONTINUOUS
 10
-25.2847127091
 20
23.1446155626
 11
-16.301022132
 21
18.6527702741
  0
LINE
  5
267
100
AcDbEntity
  8
0
100
AcDbLine
 62
253
  6
CONTINUOUS
 10
-9.3748101324
 20
15.1896642743
 11
-5.435842623
 21
13.2201805198
  0
LINE
  5
268
100
AcDbEntity
  8
0
100
AcDbLine
 62
7
  6
CONTINUOUS
 10
-11.7429491829
 20
38.4249618833
 11
-11.5994449085
 21
38.7140120761
  0
LWPOLYLINE
  5
269
100
AcDbEntity
  8
0
100
AcDbPolyline
 62
7
  6
CONTINUOUS
 90
26
 70
0
 10
-32.3213887201
 20
26.857100322
 10
-32.3165663865
 20
26.8547620988
 10
-32.3091333588
 20
26.8514369111
 10
-32.3015836908
 20
26.8483908022
 10
-32.2939263065
 20
26.8456270174
 10
-32.2861632927
 20
26.8431465915
 10
-32.278306807
 20
26.8409541075
 10
-32.2703694038
 20
26.8390534419
 10
-32.2623533089
 20
26.8374456532
 10
-32.2542712902
 20
26.8361341782
 10
-32.2461360714
 20
26.8351217421
 10
-32.2379492944
 20
26.8344096325
 10
-32.2297238613
 20
26.8340002968
 10
-32.2214728654
 20
26.8338952833
 10
-32.2131976778
 20
26.8340959311
 10
-32.2049111097
 20
26.8346037163
 10
-32.1966265339
 20
26.8354193218
 10
-32.1883454903
 20
26.8365441943
 10
-32.1800804438
 20
26.837978664
 10
-32.1718449429
 20
26.8397222505
 10
-32.1636410258
 20
26.8417767483
 10
-32.1554799918
 20
26.8441417562
 10
-32.1473751689
 20
26.8468156758
 10
-32.1393298179
 20
26.8498001134
 10
-32.1313524039
 20
26.8530949774
 10
-32.1230476487
 20
26.8568935122
  0
LINE
  5
26A
100
AcDbEntity
  8
0
100
AcDbLine
 62
7
  6
CONTINUOUS
 10
-30.4908113307
 20
25.9205650152
 11
-25.1662950901
 21
23.2583068949
  0
LINE
  5
26B
100
AcDbEntity
  8
0
100
AcDbLine
 62
7
  6
CONTINUOUS
 10
-14.580908754
 20
17.9656137269
 11
-9.2563925134
 21
15.3033556066
  0
LINE
  5
26C
100
AcDbEntity
  8
0
100
AcDbLine
 62
7
  6
CONTINUOUS
 10
-5.5461033739
 20
13.469457632
 11
-9.4848785068
 21
15.4388451984
  0
LINE
  5
26D
100
AcDbEntity
  8
0
100
AcDbLine
 62
7
  6
CONTINUOUS
 10
-16.4114752592
 20
18.9021435746
 11
-25.3947810834
 21
23.3937964867
  0
LINE
  5
26E
100
AcDbEntity
  8
0
100
AcDbLine
 62
7
  6
CONTINUOUS
 10
-32.3213778359
 20
26.8570948629
 11
-36.2601529687
 21
28.8264824294
  0
LINE
  5
26F
100
AcDbEntity
  8
0
100
AcDbLine
 62
253
  6
CONTINUOUS
 10
-16.4765619704
 20
19.037593439
 11
-25.45964085
 21
23.5291328788
  0
LINE
  5
270
100
AcDbEntity
  8
0
100
AcDbLine
 62
253
  6
CONTINUOUS
 10
-5.6110787456
 20
13.6048494146
 11
-9.5497382733
 21
15.5741815904
  0
LINE
  5
271
100
AcDbEntity
  8
0
100
AcDbLine
 62
253
  6
CONTINUOUS
 10
-32.3864645471
 20
26.9925447273
 11
-36.325124078
 21
28.9618720808
  0
LINE
  5
272
100
AcDbEntity
  8
0
100
AcDbLine
 62
7
  6
CONTINUOUS
 10
-31.8380416546
 20
27.5904370781
 11
-25.9011555103
 21
24.621994006
  0
LINE
  5
273
100
AcDbEntity
  8
0
100
AcDbLine
 62
7
  6
CONTINUOUS
 10
-15.9281390779
 20
19.6354857898
 11
-9.9912529336
 21
16.6670427177
  0
LINE
  5
274
100
AcDbEntity
  8
0
100
AcDbLine
 62
253
  6
CONTINUOUS
 10
-31.8900196565
 20
27.699131281
 11
-25.9531335122
 21
24.7306882088
  0
LINE
  5
275
100
AcDbEntity
  8
0
100
AcDbLine
 62
253
  6
CONTINUOUS
 10
-15.9801170798
 20
19.7441799926
 11
-10.0432309355
 21
16.7757369205
  0
LWPOLYLINE
  5
276
100
AcDbEntity
  8
0
100
AcDbPolyline
 62
7
  6
CONTINUOUS
 90
58
 70
0
 10
-25.901153414
 20
24.621992899
 10
-25.8962835655
 20
24.6195124768
 10
-25.8873832142
 20
24.6147469366
 10
-25.878304103
 20
24.6095808621
 10
-25.8690586803
 20
24.6040080055
 10
-25.8596643294
 20
24.5980261177
 10
-25.8501430095
 20
24.5916372451
 10
-25.8405094842
 20
24.5848399325
 10
-25.8307787008
 20
24.5776337848
 10
-25.8209718721
 20
24.5700241613
 10
-25.8111045648
 20
24.5620132955
 10
-25.8011913394
 20
24.5536035355
 10
-25.791250754
 20
24.5448016689
 10
-25.78129784
 20
24.5356123928
 10
-25.7713470887
 20
24.5260407399
 10
-25.7614152193
 20
24.5160949128
 10
-25.7515167757
 20
24.5057818526
 10
-25.7416659316
 20
24.4951088957
 10
-25.7318779388
 20
24.4840855677
 10
-25.7221659991
 20
24.4727198995
 10
-25.7125445706
 20
24.4610221128
 10
-25.7030299123
 20
24.4490058714
 10
-25.6936346338
 20
24.4366813203
 10
-25.6843722943
 20
24.424060583
 10
-25.6752595567
 20
24.4111614037
 10
-25.666308653
 20
24.3979966908
 10
-25.6575314356
 20
24.3845795949
 10
-25.6489428525
 20
24.3709293294
 10
-25.6405538331
 20
24.3570602444
 10
-25.6323750683
 20
24.3429871467
 10
-25.6244199369
 20
24.3287308799
 10
-25.6166979498
 20
24.3143070507
 10
-25.6092183449
 20
24.2997316883
 10
-25.6019927881
 20
24.2850270688
 10
-25.5950292236
 20
24.2702098242
 10
-25.5883351938
 20
24.2552967816
 10
-25.581920371
 20
24.2403111489
 10
-25.5757910745
 20
24.2252705346
 10
-25.5699528636
 20
24.2101919107
 10
-25.5644128697
 20
24.1950979973
 10
-25.5591756111
 20
24.180006869
 10
-25.5542446852
 20
24.1649354242
 10
-25.5496245493
 20
24.149904947
 10
-25.5453176329
 20
24.1349327545
 10
-25.5413258854
 20
24.1200363037
 10
-25.5376517924
 20
24.105237362
 10
-25.5342956628
 20
24.0905522179
 10
-25.5312575832
 20
24.0759985491
 10
-25.5285382322
 20
24.0616003898
 10
-25.5261357135
 20
24.0473731776
 10
-25.5240478371
 20
24.0333341175
 10
-25.5222729558
 20
24.0195099196
 10
-25.5208067922
 20
24.0059155942
 10
-25.519644398
 20
23.9925657377
 10
-25.5187809326
 20
23.9794860712
 10
-25.518209699
 20
23.9666943079
 10
-25.5179227989
 20
23.9542003939
 10
-25.5178836897
 20
23.9469052473
  0
LWPOLYLINE
  5
277
100
AcDbEntity
  8
0
100
AcDbPolyline
 62
7
  6
CONTINUOUS
 90
58
 70
0
 10
-9.9912508373
 20
16.6670416106
 10
-9.9863809888
 20
16.6645611885
 10
-9.9774806375
 20
16.6597956482
 10
-9.9684015263
 20
16.6546295738
 10
-9.9591561036
 20
16.6490567171
 10
-9.9497617527
 20
16.6430748293
 10
-9.9402404328
 20
16.6366859567
 10
-9.9306069075
 20
16.6298886442
 10
-9.9208761241
 20
16.6226824964
 10
-9.9110692954
 20
16.6150728729
 10
-9.9012019881
 20
16.6070620071
 10
-9.8912887627
 20
16.5986522471
 10
-9.8813481774
 20
16.5898503806
 10
-9.8713952633
 20
16.5806611044
 10
-9.861444512
 20
16.5710894515
 10
-9.8515126426
 20
16.5611436245
 10
-9.841614199
 20
16.5508305642
 10
-9.8317633549
 20
16.5401576073
 10
-9.8219753621
 20
16.5291342794
 10
-9.8122634224
 20
16.5177686111
 10
-9.8026419939
 20
16.5060708244
 10
-9.7931273356
 20
16.4940545831
 10
-9.7837320571
 20
16.4817300319
 10
-9.7744697176
 20
16.4691092947
 10
-9.76535698
 20
16.4562101154
 10
-9.7564060763
 20
16.4430454025
 10
-9.7476288589
 20
16.4296283066
 10
-9.7390402758
 20
16.4159780411
 10
-9.7306512564
 20
16.4021089561
 10
-9.7224724916
 20
16.3880358584
 10
-9.7145173602
 20
16.3737795915
 10
-9.7067953731
 20
16.3593557623
 10
-9.6993157682
 20
16.3447803999
 10
-9.6920902114
 20
16.3300757804
 10
-9.6851266469
 20
16.3152585359
 10
-9.6784326171
 20
16.3003454933
 10
-9.6720177944
 20
16.2853598606
 10
-9.6658884978
 20
16.2703192462
 10
-9.6600502869
 20
16.2552406224
 10
-9.654510293
 20
16.240146709
 10
-9.6492730344
 20
16.2250555806
 10
-9.6443421085
 20
16.2099841359
 10
-9.6397219726
 20
16.1949536587
 10
-9.6354150562
 20
16.1799814661
 10
-9.6314233087
 20
16.1650850154
 10
-9.6277492157
 20
16.1502860736
 10
-9.6243930861
 20
16.1356009296
 10
-9.6213550065
 20
16.1210472608
 10
-9.6186356555
 20
16.1066491015
 10
-9.6162331368
 20
16.0924218892
 10
-9.6141452604
 20
16.0783828291
 10
-9.6123703791
 20
16.0645586312
 10
-9.6109042155
 20
16.0509643059
 10
-9.6097418213
 20
16.0376144494
 10
-9.6088783559
 20
16.0245347828
 10
-9.6083071223
 20
16.0117430195
 10
-9.6080202222
 20
15.9992491056
 10
-9.607981113
 20
15.9919539589
  0
LINE
  5
278
100
AcDbEntity
  8
0
100
AcDbLine
 62
7
  6
CONTINUOUS
 10
-1.2753433168
 20
15.0362983488
 11
-1.3956586931
 21
15.096456037
  0
LINE
  5
279
100
AcDbEntity
  8
0
100
AcDbLine
 62
7
  6
CONTINUOUS
 10
-15.2306958994
 20
18.8743561013
 11
-15.2306958994
 21
18.4853905461
  0
LINE
  5
27A
100
AcDbEntity
  8
0
100
AcDbLine
 62
7
  6
CONTINUOUS
 10
-14.8870949719
 20
19.1149637368
 11
-14.8870949719
 21
18.4937068358
  0
LINE
  5
27B
100
AcDbEntity
  8
0
100
AcDbLine
 62
253
  6
CONTINUOUS
 10
-15.4110027491
 20
19.0995104753
 11
-15.2949965873
 21
19.3189145445
  0
LINE
  5
27C
100
AcDbEntity
  8
0
100
AcDbLine
 62
253
  6
CONTINUOUS
 10
-16.301022132
 20
18.6527702741
 11
-15.4110027491
 21
19.0995104753
  0
LINE
  5
27D
100
AcDbEntity
  8
0
100
AcDbLine
 62
253
  6
CONTINUOUS
 10
-16.1596061606
 20
18.4088638028
 11
-15.2306986691
 21
18.8751236705
  0
LINE
  5
27E
100
AcDbEntity
  8
0
100
AcDbLine
 62
7
  6
CONTINUOUS
 10
-16.0617900839
 20
19.6556204164
 11
-16.0617359999
 21
19.6556464281
  0
LINE
  5
27F
100
AcDbEntity
  8
0
100
AcDbLine
 62
253
  6
CONTINUOUS
 10
-15.8021144192
 20
19.5724734605
 11
-16.19461719
 21
19.383775578
  0
LINE
  5
280
100
AcDbEntity
  8
0
100
AcDbLine
 62
253
  6
CONTINUOUS
 10
-15.4047329721
 20
19.3737827369
 11
-16.1596061606
 21
19.010875253
  0
LINE
  5
281
100
AcDbEntity
  8
0
100
AcDbLine
 62
7
  6
CONTINUOUS
 10
-15.3199061852
 20
19.3313693435
 11
-16.2131315159
 21
18.9019486643
  0
LWPOLYLINE
  5
282
100
AcDbEntity
  8
0
100
AcDbPolyline
 62
7
  6
CONTINUOUS
 90
25
 70
0
 10
-16.0617915283
 20
19.6556196669
 10
-16.0606500789
 20
19.6561559194
 10
-16.0572197315
 20
19.6576078022
 10
-16.0536463205
 20
19.6588847177
 10
-16.0499317589
 20
19.6599837821
 10
-16.0460400407
 20
19.6609129678
 10
-16.0418936402
 20
19.6616801275
 10
-16.0374699737
 20
19.6622732346
 10
-16.0327784632
 20
19.6626754407
 10
-16.027792507
 20
19.6628732649
 10
-16.0225071086
 20
19.6628501733
 10
-16.0169374913
 20
19.6625904374
 10
-16.0110900877
 20
19.6620799776
 10
-16.0049733565
 20
19.6613062184
 10
-15.9986041127
 20
19.6602589195
 10
-15.9920009724
 20
19.658930178
 10
-15.9851794198
 20
19.6573136617
 10
-15.9781556126
 20
19.6554045908
 10
-15.9709460765
 20
19.6531996193
 10
-15.9635672138
 20
19.6506969614
 10
-15.9560337044
 20
19.6478955158
 10
-15.948354995
 20
19.644792944
 10
-15.9405431769
 20
19.6413886169
 10
-15.9326158421
 20
19.6376854057
 10
-15.9281436439
 20
19.6354880341
  0
LINE
  5
283
100
AcDbEntity
  8
0
100
AcDbLine
 62
253
  6
CONTINUOUS
 10
-15.2306958994
 20
18.8743561013
 11
-15.0582350213
 21
19.2005337615
  0
LINE
  5
284
100
AcDbEntity
  8
0
100
AcDbLine
 62
253
  6
CONTINUOUS
 10
-15.2306958994
 20
18.4853905461
 11
-16.1946171899
 21
18.0015581756
  0
LINE
  5
285
100
AcDbEntity
  8
0
100
AcDbLine
 62
253
  6
CONTINUOUS
 10
-14.8771559711
 20
17.8756243678
 11
-15.8399284076
 21
17.3923641086
  0
LINE
  5
286
100
AcDbEntity
  8
0
100
AcDbLine
 62
253
  6
CONTINUOUS
 10
-30.8364432622
 20
25.8538605423
 11
-30.4908113307
 21
25.9205650152
  0
LINE
  5
287
100
AcDbEntity
  8
0
100
AcDbLine
 62
253
  6
CONTINUOUS
 10
-30.7969975486
 20
26.4486581241
 11
-31.1426294801
 21
26.3819536512
  0
LINE
  5
288
100
AcDbEntity
  8
0
100
AcDbLine
 62
253
  6
CONTINUOUS
 10
-36.2636385268
 20
36.8776033248
 11
-21.5681002984
 21
29.5298342106
  0
LINE
  5
289
100
AcDbEntity
  8
ASSI
100
AcDbLine
 62
253
  6
CONTINUOUS
 10
-21.5681002984
 20
29.5298342106
 11
-20.2406817041
 21
28.8661249135
  0
LINE
  5
28A
100
AcDbEntity
  8
0
100
AcDbLine
 62
253
  6
CONTINUOUS
 10
-20.2406817041
 20
28.8661249135
 11
-5.5451437584
 21
21.5183559407
  0
LINE
  5
28B
100
AcDbEntity
  8
0
100
AcDbLine
 62
253
  6
CONTINUOUS
 10
-11.7429491829
 20
38.4249618833
 11
-11.7359582703
 21
38.3587247586
  0
LINE
  5
28C
100
AcDbEntity
  8
0
100
AcDbLine
 62
7
  6
CONTINUOUS
 10
-11.5994449085
 20
38.7140120761
 11
-11.5508494382
 21
38.2535823132
  0
LWPOLYLINE
  5
28D
100
AcDbEntity
  8
0
100
AcDbPolyline
 62
7
  6
CONTINUOUS
 90
30
 70
0
 10
-9.6083168781
 20
15.6448692254
 10
-9.6083059086
 20
15.6423595154
 10
-9.6080326749
 20
15.632747425
 10
-9.6073956114
 20
15.6232215184
 10
-9.6063987418
 20
15.6137930304
 10
-9.6050460692
 20
15.6044682129
 10
-9.6033409801
 20
15.5952535406
 10
-9.6012879626
 20
15.586160727
 10
-9.5988921423
 20
15.577201479
 10
-9.5961589455
 20
15.5683876731
 10
-9.5930958301
 20
15.5597344963
 10
-9.5897100389
 20
15.5512530682
 10
-9.5860083641
 20
15.5429527122
 10
-9.5820021532
 20
15.5348510023
 10
-9.5776999561
 20
15.5269564211
 10
-9.573104306
 20
15.519267401
 10
-9.5682256747
 20
15.5117970167
 10
-9.5630751828
 20
15.5045572432
 10
-9.5576550867
 20
15.4975470544
 10
-9.5519767242
 20
15.4907781768
 10
-9.5460523004
 20
15.484261911
 10
-9.5398841636
 20
15.4779984363
 10
-9.5334845688
 20
15.4719982854
 10
-9.5268666295
 20
15.4662714405
 10
-9.5200330158
 20
15.4608186782
 10
-9.5129972245
 20
15.4556499143
 10
-9.5057724749
 20
15.4507734272
 10
-9.4983599458
 20
15.4461891853
 10
-9.4907689252
 20
15.4419032172
 10
-9.4848619399
 20
15.438836932
  0
LINE
  5
28E
100
AcDbEntity
  8
0
100
AcDbLine
 62
7
  6
CONTINUOUS
 10
-9.6083169219
 20
14.9559436361
 11
-9.6079810864
 21
14.6092132198
  0
LINE
  5
28F
100
AcDbEntity
  8
0
100
AcDbLine
 62
7
  6
CONTINUOUS
 10
-9.6079810868
 20
15.9919525601
 11
-9.608316922
 21
15.6448807783
  0
LWPOLYLINE
  5
290
100
AcDbEntity
  8
0
100
AcDbPolyline
 62
7
  6
CONTINUOUS
 90
34
 70
0
 10
-9.6079811276
 20
14.60921291
 10
-9.6080374328
 20
14.6007134041
 10
-9.6083103557
 20
14.5898495539
 10
-9.6088001883
 20
14.5793084343
 10
-9.6094958473
 20
14.5691095719
 10
-9.6103872721
 20
14.5592453545
 10
-9.6114680284
 20
14.5496852465
 10
-9.6127293547
 20
14.5404346877
 10
-9.614161718
 20
14.5315011283
 10
-9.6157607324
 20
14.5228623644
 10
-9.6175181114
 20
14.5145245787
 10
-9.6194243832
 20
14.506496997
 10
-9.621475074
 20
14.4987671924
 10
-9.6236611674
 20
14.4913423539
 10
-9.6259723984
 20
14.484231542
 10
-9.6284025461
 20
14.4774300934
 10
-9.6309412785
 20
14.470944636
 10
-9.6335763794
 20
14.4647842029
 10
-9.6362973597
 20
14.4589515327
 10
-9.639091294
 20
14.4534522797
 10
-9.6419440516
 20
14.4482917864
 10
-9.6448410546
 20
14.4434737954
 10
-9.6477654064
 20
14.4390026411
 10
-9.6507037375
 20
14.4348743648
 10
-9.6536459134
 20
14.4310800416
 10
-9.6565734068
 20
14.4276199975
 10
-9.6594778077
 20
14.4244800482
 10
-9.6623681012
 20
14.4216302424
 10
-9.6652289433
 20
14.419066968
 10
-9.6680645865
 20
14.41676753
 10
-9.670925393
 20
14.4146802691
 10
-9.6738376946
 20
14.4127834307
 10
-9.6767982215
 20
14.411077251
 10
-9.677716836
 20
14.4105910982
  0
LWPOLYLINE
  5
291
100
AcDbEntity
  8
0
100
AcDbPolyline
 62
7
  6
CONTINUOUS
 90
33
 70
0
 10
-9.4658023095
 20
15.1945491367
 10
-9.4738060696
 20
15.190196001
 10
-9.4814045186
 20
15.1856923412
 10
-9.4888926328
 20
15.1808803705
 10
-9.4962536339
 20
15.1757666322
 10
-9.5034601376
 20
15.1703677685
 10
-9.5105107571
 20
15.1646829548
 10
-9.5173986761
 20
15.1587152671
 10
-9.5240964942
 20
15.1524869402
 10
-9.5306102233
 20
15.145991298
 10
-9.5369325553
 20
15.1392328691
 10
-9.5430254869
 20
15.1322520633
 10
-9.548894384
 20
15.1250448475
 10
-9.5545404146
 20
15.1176084326
 10
-9.5599297083
 20
15.1099888832
 10
-9.5650692448
 20
15.1021789177
 10
-9.5699617867
 20
15.0941733945
 10
-9.5745758965
 20
15.0860248145
 10
-9.5789176007
 20
15.0777261112
 10
-9.582990724
 20
15.069268275
 10
-9.5867695271
 20
15.0607051326
 10
-9.5902585694
 20
15.0520293861
 10
-9.5934603453
 20
15.0432312532
 10
-9.5963546436
 20
15.03436556
 10
-9.598943239
 20
15.0254294177
 10
-9.6012282843
 20
15.0164113927
 10
-9.6031968866
 20
15.0073582688
 10
-9.6048494926
 20
14.9982704423
 10
-9.6061859857
 20
14.9891394262
 10
-9.6071996194
 20
14.9800032505
 10
-9.6078890948
 20
14.9708749862
 10
-9.6082543751
 20
14.9617418134
 10
-9.6083168736
 20
14.9559464068
  0
LINE
  5
292
100
AcDbEntity
  8
0
100
AcDbLine
 62
7
  6
CONTINUOUS
 10
-9.2355540598
 20
15.3141829749
 11
-9.4657887182
 21
15.1945562746
  0
LINE
  5
293
100
AcDbEntity
  8
0
100
AcDbLine
 62
253
  6
CONTINUOUS
 10
-9.1843929033
 20
15.2886023966
 11
-9.3748101324
 21
15.1896642743
  0
LINE
  5
294
100
AcDbEntity
  8
0
100
AcDbLine
 62
253
  6
CONTINUOUS
 10
-9.6089769641
 20
14.5767167732
 11
-9.9030463542
 21
14.4239230819
  0
LINE
  5
295
100
AcDbEntity
  8
0
100
AcDbLine
 62
7
  6
CONTINUOUS
 10
-9.6776678914
 20
14.4106165158
 11
-9.6777175801
 21
14.4105907077
  0
LINE
  5
296
100
AcDbEntity
  8
0
100
AcDbLine
 62
7
  6
CONTINUOUS
 10
-8.4793190095
 20
36.7931467966
 11
-7.9447420534
 21
36.8866606486
  0
LINE
  5
297
100
AcDbEntity
  8
0
100
AcDbLine
 62
253
  6
CONTINUOUS
 10
-5.0885675008
 20
13.2189725809
 11
-1.2753433168
 21
15.0362983488
  0
LINE
  5
298
100
AcDbEntity
  8
0
100
AcDbLine
 62
253
  6
CONTINUOUS
 10
-4.9165232507
 20
12.9118275441
 11
-1.0985127387
 21
14.7314344045
  0
LINE
  5
299
100
AcDbEntity
  8
0
100
AcDbLine
 62
253
  6
CONTINUOUS
 10
-1.0985127387
 20
15.3375367958
 11
-4.9165232507
 21
13.5967912548
  0
LINE
  5
29A
100
AcDbEntity
  8
0
100
AcDbLine
 62
7
  6
CONTINUOUS
 10
-1.1665007669
 20
15.2009360108
 11
-4.9833131671
 21
13.4607367248
  0
LINE
  5
29B
100
AcDbEntity
  8
0
100
AcDbLine
 62
253
  6
CONTINUOUS
 10
-4.8211487372
 20
31.9949579559
 11
-35.5882399195
 21
47.378503547
  0
LINE
  5
29C
100
AcDbEntity
  8
0
100
AcDbLine
 62
253
  6
CONTINUOUS
 10
-4.1473888937
 20
33.0560052412
 11
-34.9376045264
 21
48.4511130576
  0
LINE
  5
29D
100
AcDbEntity
  8
0
100
AcDbLine
 62
7
  6
CONTINUOUS
 10
-24.5824822766
 20
44.7693987324
 11
-27.6011634757
 21
46.2787393319
  0
LINE
  5
29E
100
AcDbEntity
  8
0
100
AcDbLine
 62
7
  6
CONTINUOUS
 10
-11.691260899
 20
38.3237880436
 11
-8.6725796999
 21
36.814447444
  0
LINE
  5
29F
100
AcDbEntity
  8
0
100
AcDbLine
 62
7
  6
CONTINUOUS
 10
-1.8707980306
 20
33.462754617
 11
-1.0985127387
 21
26.3794183897
  0
LINE
  5
2A0
100
AcDbEntity
  8
0
100
AcDbLine
 62
7
  6
CONTINUOUS
 10
-1.0985127387
 20
14.7314344045
 11
-1.0985127387
 21
3.6895528106
  0
LINE
  5
2A1
100
AcDbEntity
  8
0
100
AcDbLine
 62
7
  6
CONTINUOUS
 10
-1.0985127387
 20
15.3375367958
 11
-1.0985127387
 21
26.3794183897
  0
LINE
  5
2A2
100
AcDbEntity
  8
0
100
AcDbLine
 62
7
  6
CONTINUOUS
 10
-1.8707980306
 20
-4.1139511021
 11
-1.0985127387
 21
3.6895528106
  0
LINE
  5
2A3
100
AcDbEntity
  8
0
100
AcDbLine
 62
7
  6
CONTINUOUS
 10
-33.1855495644
 20
49.5070644041
 11
-27.5093474852
 21
46.6689633645
  0
LINE
  5
2A4
100
AcDbEntity
  8
0
100
AcDbLine
 62
7
  6
CONTINUOUS
 10
-23.8546446301
 20
44.8416119369
 11
-11.5994449085
 21
38.7140120761
  0
LINE
  5
2A5
100
AcDbEntity
  8
0
100
AcDbLine
 62
7
  6
CONTINUOUS
 10
-7.9447420534
 20
36.8866606486
 11
-2.2685399742
 21
34.048559609
  0
LINE
  5
2A6
100
AcDbEntity
  8
0
100
AcDbLine
 62
7
  6
CONTINUOUS
 10
-24.3892215862
 20
44.7480980849
 11
-23.8546446301
 21
44.8416119369
  0
LINE
  5
2A7
100
AcDbEntity
  8
0
100
AcDbLine
 62
253
  6
CONTINUOUS
 10
-3.7878861589
 20
-4.8889094064
 11
-1.8707980306
 21
-4.1139511021
  0
LINE
  5
2A8
100
AcDbEntity
  8
0
100
AcDbLine
 62
7
  6
CONTINUOUS
 10
-3.9414979774
 20
-5.1696289351
 11
-2.0501094627
 21
-4.4050593701
  0
ARC
  5
2A9
100
AcDbEntity
  8
0
100
AcDbCircle
 62
7
  6
CONTINUOUS
 10
-20.4822683467
 20
8.4685458657
 40
0.5204531392
100
AcDbArc
 50
27.1636600414
 51
30.7459644759
  0
ARC
  5
2AA
100
AcDbEntity
  8
0
100
AcDbCircle
 62
7
  6
CONTINUOUS
 10
-19.6461950949
 20
8.2754287127
 40
0.5173046065
100
AcDbArc
 50
203.9294254545
 51
210.8834280717
  0
ARC
  5
2AB
100
AcDbEntity
  8
0
100
AcDbCircle
 62
7
  6
CONTINUOUS
 10
-20.4739354247
 20
8.4727577209
 40
0.5111164368
100
AcDbArc
 50
23.5478404128
 51
27.1700437071
  0
ARC
  5
2AC
100
AcDbEntity
  8
0
100
AcDbCircle
 62
7
  6
CONTINUOUS
 10
-21.1711818011
 20
11.802976959
 40
0.5021646693
100
AcDbArc
 50
202.4369660194
 51
212.3039379599
  0
ARC
  5
2AD
100
AcDbEntity
  8
0
100
AcDbCircle
 62
7
  6
CONTINUOUS
 10
-21.9637816808
 20
12.0454761333
 40
0.5006352373
100
AcDbArc
 50
22.070948398
 51
31.9663240282
  0
ARC
  5
2AE
100
AcDbEntity
  8
ASSI
100
AcDbCircle
 62
7
  6
CONTINUOUS
 10
-21.1749072001
 20
11.8013045828
 40
0.4980830081
100
AcDbArc
 50
202.4227116193
 51
206.1424150336
  0
ARC
  5
2AF
100
AcDbEntity
  8
ASSI
100
AcDbCircle
 62
7
  6
CONTINUOUS
 10
-19.90868035
 20
8.8052758253
 40
0.4908179933
100
AcDbArc
 50
200.2116849284
 51
203.6772017856
  0
ARC
  5
2B0
100
AcDbEntity
  8
ASSI
100
AcDbCircle
 62
7
  6
CONTINUOUS
 10
-21.4168917585
 20
12.341755169
 40
0.4792092623
100
AcDbArc
 50
198.7942888812
 51
202.1844015517
  0
ARC
  5
2B1
100
AcDbEntity
  8
0
100
AcDbCircle
 62
7
  6
CONTINUOUS
 10
-20.2041314528
 20
7.9404537481
 40
0.4775423233
100
AcDbArc
 50
20.2934087529
 51
23.8803439152
  0
ARC
  5
2B2
100
AcDbEntity
  8
0
100
AcDbCircle
 62
7
  6
CONTINUOUS
 10
-21.7158509681
 20
11.5029489484
 40
0.47567627
100
AcDbArc
 50
17.1922901267
 51
22.304890128
  0
ARC
  5
2B3
100
AcDbEntity
  8
ASSI
100
AcDbCircle
 62
7
  6
CONTINUOUS
 10
-20.9737945015
 20
10.4633391902
 40
0.3036884162
100
AcDbArc
 50
149.9283277869
 51
152.3139023179
  0
ARC
  5
2B4
100
AcDbEntity
  8
ASSI
100
AcDbCircle
 62
7
  6
CONTINUOUS
 10
-20.9912100593
 20
10.4734908372
 40
0.2835301942
100
AcDbArc
 50
143.7603847116
 51
149.9401674524
  0
ARC
  5
2B5
100
AcDbEntity
  8
0
100
AcDbCircle
 62
7
  6
CONTINUOUS
 10
-20.6571348324
 20
9.8046263018
 40
0.277626362
100
AcDbArc
 50
323.5272014238
 51
330.2171084322
  0
ARC
  5
2B6
100
AcDbEntity
  8
0
100
AcDbCircle
 62
7
  6
CONTINUOUS
 10
-19.369523846
 20
9.3549479087
 40
0.2739159357
100
AcDbArc
 50
57.8390378256
 51
63.3587506709
  0
ARC
  5
2B7
100
AcDbEntity
  8
0
100
AcDbCircle
 62
7
  6
CONTINUOUS
 10
-22.1272402415
 20
10.733806267
 40
0.2739157922
100
AcDbArc
 50
57.8390737346
 51
63.358751617
  0
ARC
  5
2B8
100
AcDbEntity
  8
ASSI
100
AcDbCircle
 62
7
  6
CONTINUOUS
 10
-22.2866148449
 20
10.9213619201
 40
0.267224482
100
AcDbArc
 50
239.2485579901
 51
243.4125976064
  0
ARC
  5
2B9
100
AcDbEntity
  8
ASSI
100
AcDbCircle
 62
7
  6
CONTINUOUS
 10
-19.1144608949
 20
9.3108099248
 40
0.2453333448
100
AcDbArc
 50
243.4215067562
 51
245.4005878803
  0
ARC
  5
2BA
100
AcDbEntity
  8
ASSI
100
AcDbCircle
 62
7
  6
CONTINUOUS
 10
-21.8755881312
 20
10.682454565
 40
0.2373560759
100
AcDbArc
 50
243.3787320865
 51
247.4308559532
  0
ARC
  5
2BB
100
AcDbEntity
  8
0
100
AcDbCircle
 62
7
  6
CONTINUOUS
 10
-20.6229373915
 20
9.7767856772
 40
0.2334456908
100
AcDbArc
 50
311.5056994336
 51
314.7290468772
  0
ARC
  5
2BC
100
AcDbEntity
  8
0
100
AcDbCircle
 62
7
  6
CONTINUOUS
 10
-20.6195259524
 20
9.7729487106
 40
0.2283114839
100
AcDbArc
 50
308.6256866895
 51
311.5026741489
  0
ARC
  5
2BD
100
AcDbEntity
  8
0
100
AcDbCircle
 62
7
  6
CONTINUOUS
 10
-21.034334259
 20
10.5113032403
 40
0.2259025865
100
AcDbArc
 50
113.9901029652
 51
116.5629797125
  0
ARC
  5
2BE
100
AcDbEntity
  8
ASSI
100
AcDbCircle
 62
7
  6
CONTINUOUS
 10
-21.0346966525
 20
10.5120423886
 40
0.2250794047
100
AcDbArc
 50
116.56500081
 51
116.896835589
  0
ARC
  5
2BF
100
AcDbEntity
  8
0
100
AcDbCircle
 62
7
  6
CONTINUOUS
 10
-20.6171604221
 20
9.769996866
 40
0.2245287481
100
AcDbArc
 50
305.7170015673
 51
308.6243038946
  0
ARC
  5
2C0
100
AcDbEntity
  8
ASSI
100
AcDbCircle
 62
7
  6
CONTINUOUS
 10
-20.6153874441
 20
9.767724595
 40
0.2216617366
100
AcDbArc
 50
293.9553425001
 51
296.5632242067
  0
ARC
  5
2C1
100
AcDbEntity
  8
0
100
AcDbCircle
 62
7
  6
CONTINUOUS
 10
-20.6153426439
 20
9.767494021
 40
0.2214354764
100
AcDbArc
 50
296.5791490937
 51
305.7131833085
  0
ARC
  5
2C2
100
AcDbEntity
  8
ASSI
100
AcDbCircle
 62
7
  6
CONTINUOUS
 10
-20.3520973365
 20
11.2104859844
 40
0.1443859
100
AcDbArc
 50
149.4691833885
 51
152.5752354005
  0
ARC
  5
2C3
100
AcDbEntity
  8
0
100
AcDbCircle
 62
7
  6
CONTINUOUS
 10
-20.214781499
 20
10.9108101631
 40
0.131663569
100
AcDbArc
 50
322.2819697773
 51
329.6300625136
  0
ARC
  5
2C4
100
AcDbEntity
  8
ASSI
100
AcDbCircle
 62
7
  6
CONTINUOUS
 10
-20.1680932198
 20
11.5587442359
 40
0.1251569974
100
AcDbArc
 50
140.2275952853
 51
142.3549308205
  0
ARC
  5
2C5
100
AcDbEntity
  8
ASSI
100
AcDbCircle
 62
7
  6
CONTINUOUS
 10
-20.1775069819
 20
11.5676452927
 40
0.1121839105
100
AcDbArc
 50
130.4246124269
 51
131.1432861827
  0
ARC
  5
2C6
100
AcDbEntity
  8
ASSI
100
AcDbCircle
 62
7
  6
CONTINUOUS
 10
-20.1791619438
 20
11.569640671
 40
0.1095917594
100
AcDbArc
 50
121.2864930379
 51
130.4424094418
  0
ARC
  5
2C7
100
AcDbEntity
  8
0
100
AcDbCircle
 62
7
  6
CONTINUOUS
 10
-21.7706707838
 20
12.3653659529
 40
0.1091428043
100
AcDbArc
 50
106.3695004483
 51
116.5209611897
  0
ARC
  5
2C8
100
AcDbEntity
  8
0
100
AcDbCircle
 62
7
  6
CONTINUOUS
 10
-20.1800847938
 20
11.5708269928
 40
0.1081032962
100
AcDbArc
 50
110.4533913269
 51
116.5541458072
  0
ARC
  5
2C9
100
AcDbEntity
  8
ASSI
100
AcDbCircle
 62
7
  6
CONTINUOUS
 10
-20.1804094643
 20
11.5715360711
 40
0.1073241577
100
AcDbArc
 50
120.1614611836
 51
121.2428273092
  0
ARC
  5
2CA
100
AcDbEntity
  8
ASSI
100
AcDbCircle
 62
7
  6
CONTINUOUS
 10
-21.7714729852
 20
12.3671579549
 40
0.1071812012
100
AcDbArc
 50
116.5652160956
 51
116.8174348276
  0
ARC
  5
2CB
100
AcDbEntity
  8
ASSI
100
AcDbCircle
 62
7
  6
CONTINUOUS
 10
-20.1959386298
 20
10.8938410054
 40
0.1062301226
100
AcDbArc
 50
290.39526747
 51
296.5543629044
  0
ARC
  5
2CC
100
AcDbEntity
  8
ASSI
100
AcDbCircle
 62
7
  6
CONTINUOUS
 10
-19.7564851436
 20
9.7291299562
 40
0.103419331
100
AcDbArc
 50
116.565618602
 51
117.281980777
  0
ARC
  5
2CD
100
AcDbEntity
  8
ASSI
100
AcDbCircle
 62
7
  6
CONTINUOUS
 10
-21.4323763292
 20
8.7225322733
 40
0.1000170347
100
AcDbArc
 50
290.1871694874
 51
296.5486667852
  0
ARC
  5
2CE
100
AcDbEntity
  8
0
100
AcDbCircle
 62
7
  6
CONTINUOUS
 10
-21.4323885795
 20
8.7221869338
 40
0.0997137187
100
AcDbArc
 50
296.642174436
 51
311.8097576516
  0
ARC
  5
2CF
100
AcDbEntity
  8
0
100
AcDbCircle
 62
253
  6
CONTINUOUS
 10
83.0836687424
 20
6.4930381298
 40
88.6403345972
100
AcDbArc
 50
180.9238307067
 51
182.6146695121
  0
ARC
  5
2D0
100
AcDbEntity
  8
0
100
AcDbCircle
 62
253
  6
CONTINUOUS
 10
79.7300201769
 20
6.3503057354
 40
85.2836667999
100
AcDbArc
 50
182.6216601776
 51
183.9897622911
  0
ARC
  5
2D1
100
AcDbEntity
  8
0
100
AcDbCircle
 62
253
  6
CONTINUOUS
 10
74.9657300097
 20
6.0066471457
 40
80.5070125396
100
AcDbArc
 50
183.9816954107
 51
187.669227698
  0
ARC
  5
2D2
100
AcDbEntity
  8
0
100
AcDbCircle
 62
253
  6
CONTINUOUS
 10
95.8119307944
 20
19.7773011566
 40
101.3720268796
100
AcDbArc
 50
173.0777149294
 51
179.0159021281
  0
ARC
  5
2D3
100
AcDbEntity
  8
0
100
AcDbCircle
 62
253
  6
CONTINUOUS
 10
95.9227757604
 20
19.7726977607
 40
100.7883022878
100
AcDbArc
 50
173.0763612441
 51
179.015727053
  0
ARC
  5
2D4
100
AcDbEntity
  8
0
100
AcDbCircle
 62
7
  6
CONTINUOUS
 10
-20.6038563687
 20
29.9115675789
 40
0.4639942425
100
AcDbArc
 50
14.7320002725
 51
21.3546196018
  0
ARC
  5
2D5
100
AcDbEntity
  8
ASSI
100
AcDbCircle
 62
7
  6
CONTINUOUS
 10
-19.7915238154
 20
28.9662013016
 40
0.4596328842
100
AcDbArc
 50
195.3516186084
 51
198.5415996869
  0
ARC
  5
2D6
100
AcDbEntity
  8
ASSI
100
AcDbCircle
 62
7
  6
CONTINUOUS
 10
-21.5390631442
 20
29.8276340126
 40
0.4432783834
100
AcDbArc
 50
192.4984989868
 51
195.8527433244
  0
ARC
  5
2D7
100
AcDbEntity
  8
ASSI
100
AcDbCircle
 62
7
  6
CONTINUOUS
 10
-20.1259330362
 20
30.1367598608
 40
0.4411388822
100
AcDbArc
 50
193.4337254375
 51
194.8060109817
  0
ARC
  5
2D8
100
AcDbEntity
  8
ASSI
100
AcDbCircle
 62
7
  6
CONTINUOUS
 10
-19.393050081
 20
30.6445283688
 40
0.3828674557
100
AcDbArc
 50
221.0175640729
 51
224.0421270298
  0
ARC
  5
2D9
100
AcDbEntity
  8
ASSI
100
AcDbCircle
 62
7
  6
CONTINUOUS
 10
-20.5984441615
 20
31.3579060906
 40
0.3825534446
100
AcDbArc
 50
290.1999068803
 51
296.5622356485
  0
ARC
  5
2DA
100
AcDbEntity
  8
ASSI
100
AcDbCircle
 62
7
  6
CONTINUOUS
 10
-18.6076808636
 20
29.7986445241
 40
0.3582341743
100
AcDbArc
 50
224.1107242591
 51
227.7716404083
  0
ARC
  5
2DB
100
AcDbEntity
  8
0
100
AcDbCircle
 62
7
  6
CONTINUOUS
 10
-19.7419893219
 20
30.5419884716
 40
0.3519122458
100
AcDbArc
 50
43.8980148741
 51
48.6941513429
  0
ARC
  5
2DC
100
AcDbEntity
  8
0
100
AcDbCircle
 62
7
  6
CONTINUOUS
 10
-20.0510724483
 20
28.7334591563
 40
0.2250318893
100
AcDbArc
 50
342.0900085614
 51
348.0969981078
  0
ARC
  5
2DD
100
AcDbEntity
  8
ASSI
100
AcDbCircle
 62
7
  6
CONTINUOUS
 10
-21.779442528
 20
29.8332995918
 40
0.1995686491
100
AcDbArc
 50
157.1189658913
 51
162.1059130198
  0
ARC
  5
2DE
100
AcDbEntity
  8
0
100
AcDbCircle
 62
7
  6
CONTINUOUS
 10
-20.0260275762
 20
28.7255327879
 40
0.1987631989
100
AcDbArc
 50
337.9219481986
 51
342.0440019365
  0
ARC
  5
2DF
100
AcDbEntity
  8
ASSI
100
AcDbCircle
 62
7
  6
CONTINUOUS
 10
-21.4323644667
 20
30.6795470805
 40
0.1853207287
100
AcDbArc
 50
153.6410898153
 51
156.5785148995
  0
ARC
  5
2E0
100
AcDbEntity
  8
ASSI
100
AcDbCircle
 62
7
  6
CONTINUOUS
 10
-21.4439044528
 20
30.6852501065
 40
0.1724484489
100
AcDbArc
 50
149.0376443757
 51
153.6365762195
  0
ARC
  5
2E1
100
AcDbEntity
  8
ASSI
100
AcDbCircle
 62
7
  6
CONTINUOUS
 10
-21.467947807
 20
30.7010574148
 40
0.1436375928
100
AcDbArc
 50
140.6317499836
 51
141.2746231898
  0
ARC
  5
2E2
100
AcDbEntity
  8
ASSI
100
AcDbCircle
 62
7
  6
CONTINUOUS
 10
-18.6188704762
 20
31.769803229
 40
0.1375027758
100
AcDbArc
 50
271.1302080726
 51
275.0781864286
  0
ARC
  5
2E3
100
AcDbEntity
  8
ASSI
100
AcDbCircle
 62
7
  6
CONTINUOUS
 10
-18.6182953656
 20
31.7637333337
 40
0.1314058047
100
AcDbArc
 50
275.0626745677
 51
280.2836019177
  0
ARC
  5
2E4
100
AcDbEntity
  8
ASSI
100
AcDbCircle
 62
7
  6
CONTINUOUS
 10
-21.478413618
 20
30.7108783709
 40
0.129271298
100
AcDbArc
 50
131.584071836
 51
132.5822358239
  0
ARC
  5
2E5
100
AcDbEntity
  8
ASSI
100
AcDbCircle
 62
7
  6
CONTINUOUS
 10
-18.6172533713
 20
31.7583986053
 40
0.1259707761
100
AcDbArc
 50
280.250445951
 51
289.010549055
  0
ARC
  5
2E6
100
AcDbEntity
  8
ASSI
100
AcDbCircle
 62
7
  6
CONTINUOUS
 10
-22.0546529482
 20
31.6964917858
 40
0.1252771269
100
AcDbArc
 50
280.0798649493
 51
283.257338612
  0
ARC
  5
2E7
100
AcDbEntity
  8
ASSI
100
AcDbCircle
 62
7
  6
CONTINUOUS
 10
-21.4811975344
 20
30.7140942773
 40
0.1250181304
100
AcDbArc
 50
122.6819605626
 51
131.6079652144
  0
ARC
  5
2E8
100
AcDbEntity
  8
ASSI
100
AcDbCircle
 62
7
  6
CONTINUOUS
 10
-18.6167428012
 20
31.756842197
 40
0.1243329446
100
AcDbArc
 50
289.0217309785
 51
296.5639463984
  0
ARC
  5
2E9
100
AcDbEntity
  8
ASSI
100
AcDbCircle
 62
7
  6
CONTINUOUS
 10
-22.0543032498
 20
31.6949576544
 40
0.1237036862
100
AcDbArc
 50
283.2626353447
 51
284.2100548423
  0
ARC
  5
2EA
100
AcDbEntity
  8
ASSI
100
AcDbCircle
 62
7
  6
CONTINUOUS
 10
-22.0540550955
 20
31.6939909495
 40
0.122705644
100
AcDbArc
 50
284.2085340482
 51
286.4773023325
  0
ARC
  5
2EB
100
AcDbEntity
  8
ASSI
100
AcDbCircle
 62
7
  6
CONTINUOUS
 10
-22.0537718186
 20
31.693022088
 40
0.1216962242
100
AcDbArc
 50
286.4787901534
 51
287.9424700954
  0
ARC
  5
2EC
100
AcDbEntity
  8
ASSI
100
AcDbCircle
 62
7
  6
CONTINUOUS
 10
-22.053555907
 20
31.6923557364
 40
0.1209957656
100
AcDbArc
 50
287.9424068954
 51
289.725078117
  0
ARC
  5
2ED
100
AcDbEntity
  8
ASSI
100
AcDbCircle
 62
7
  6
CONTINUOUS
 10
-21.4835659253
 20
30.7175273047
 40
0.1208498251
100
AcDbArc
 50
121.9999802422
 51
122.6157376741
  0
ARC
  5
2EE
100
AcDbEntity
  8
ASSI
100
AcDbCircle
 62
7
  6
CONTINUOUS
 10
-22.0533809373
 20
31.6918647468
 40
0.1204745323
100
AcDbArc
 50
289.7255582571
 51
291.9432963054
  0
ARC
  5
2EF
100
AcDbEntity
  8
ASSI
100
AcDbCircle
 62
7
  6
CONTINUOUS
 10
-22.0533063332
 20
31.6916762587
 40
0.1202718206
100
AcDbArc
 50
291.9438853678
 51
292.9881262812
  0
ARC
  5
2F0
100
AcDbEntity
  8
ASSI
100
AcDbCircle
 62
7
  6
CONTINUOUS
 10
-21.483906328
 20
30.7180773309
 40
0.1202029904
100
AcDbArc
 50
119.3901887037
 51
122.0013108168
  0
ARC
  5
2F1
100
AcDbEntity
  8
ASSI
100
AcDbCircle
 62
7
  6
CONTINUOUS
 10
-18.7019476038
 20
29.588178852
 40
0.1198246673
100
AcDbArc
 50
287.2368837885
 51
296.5484489781
  0
ARC
  5
2F2
100
AcDbEntity
  8
0
100
AcDbCircle
 62
7
  6
CONTINUOUS
 10
-19.9583512754
 20
28.6812889944
 40
0.1167587679
100
AcDbArc
 50
287.303869843
 51
296.5432616302
  0
ARC
  5
2F3
100
AcDbEntity
  8
ASSI
100
AcDbCircle
 62
7
  6
CONTINUOUS
 10
-20.8324364858
 20
32.2404745728
 40
0.6586862155
100
AcDbArc
 50
155.8111863233
 51
160.4765361022
  0
ARC
  5
2F4
100
AcDbEntity
  8
ASSI
100
AcDbCircle
 62
7
  6
CONTINUOUS
 10
-20.875793168
 20
32.2592752127
 40
0.6114330866
100
AcDbArc
 50
153.9711033568
 51
155.7535342489
  0
ARC
  5
2F5
100
AcDbEntity
  8
ASSI
100
AcDbCircle
 62
7
  6
CONTINUOUS
 10
-21.0377867174
 20
33.8403437549
 40
0.4500655489
100
AcDbArc
 50
193.1487935316
 51
196.9213154918
  0
ARC
  5
2F6
100
AcDbEntity
  8
ASSI
100
AcDbCircle
 62
7
  6
CONTINUOUS
 10
-21.3255130381
 20
35.0341049934
 40
0.4353314002
100
AcDbArc
 50
191.1928464249
 51
192.5983998465
  0
ARC
  5
2F7
100
AcDbEntity
  8
0
100
AcDbCircle
 62
7
  6
CONTINUOUS
 10
-21.4928404745
 20
33.6493163642
 40
0.4317649347
100
AcDbArc
 50
8.8277992776
 51
13.0431684538
  0
ARC
  5
2F8
100
AcDbEntity
  8
0
100
AcDbCircle
 62
7
  6
CONTINUOUS
 10
-21.0465780874
 20
32.3918924455
 40
0.3922094224
100
AcDbArc
 50
110.259873566
 51
116.5625691681
  0
ARC
  5
2F9
100
AcDbEntity
  8
0
100
AcDbCircle
 62
7
  6
CONTINUOUS
 10
-22.2537215587
 20
33.1187108143
 40
0.3819142602
100
AcDbArc
 50
39.0239427815
 51
43.5824447542
  0
ARC
  5
2FA
100
AcDbEntity
  8
ASSI
100
AcDbCircle
 62
7
  6
CONTINUOUS
 10
-22.6888989227
 20
34.0621060654
 40
0.3739559609
100
AcDbArc
 50
220.558627894
 51
223.6473443565
  0
ARC
  5
2FB
100
AcDbEntity
  8
ASSI
100
AcDbCircle
 62
7
  6
CONTINUOUS
 10
-21.9109109057
 20
33.2127660385
 40
0.3495389481
100
AcDbArc
 50
223.7147430785
 51
227.5250372914
  0
ARC
  5
2FC
100
AcDbEntity
  8
ASSI
100
AcDbCircle
 62
7
  6
CONTINUOUS
 10
-19.8228509903
 20
34.1932316338
 40
0.2009905175
100
AcDbArc
 50
152.3595517063
 51
154.7141219724
  0
ARC
  5
2FD
100
AcDbEntity
  8
ASSI
100
AcDbCircle
 62
7
  6
CONTINUOUS
 10
-19.8333963504
 20
34.1987910675
 40
0.1890694949
100
AcDbArc
 50
147.4866975916
 51
152.3694765526
  0
ARC
  5
2FE
100
AcDbEntity
  8
ASSI
100
AcDbCircle
 62
7
  6
CONTINUOUS
 10
-19.8587599457
 20
34.2163349414
 40
0.1581926022
100
AcDbArc
 50
139.4676266561
 51
140.0590189902
  0
ARC
  5
2FF
100
AcDbEntity
  8
ASSI
100
AcDbCircle
 62
7
  6
CONTINUOUS
 10
-19.8700177432
 20
34.2272893124
 40
0.1424706827
100
AcDbArc
 50
130.8694855796
 51
131.7678802491
  0
ARC
  5
300
100
AcDbEntity
  8
ASSI
100
AcDbCircle
 62
7
  6
CONTINUOUS
 10
-19.8732029191
 20
34.2310600864
 40
0.1375350461
100
AcDbArc
 50
122.4318350717
 51
130.8939497507
  0
ARC
  5
301
100
AcDbEntity
  8
ASSI
100
AcDbCircle
 62
7
  6
CONTINUOUS
 10
-19.876146173
 20
34.2353905151
 40
0.132301678
100
AcDbArc
 50
121.7449190765
 51
122.3617627596
  0
ARC
  5
302
100
AcDbEntity
  8
ASSI
100
AcDbCircle
 62
7
  6
CONTINUOUS
 10
-19.8765967311
 20
34.2361243691
 40
0.1314405535
100
AcDbArc
 50
119.6890634334
 51
121.7462070896
  0
ARC
  5
303
100
AcDbEntity
  8
ASSI
100
AcDbCircle
 62
7
  6
CONTINUOUS
 10
-19.8770268456
 20
34.2368727881
 40
0.1305773498
100
AcDbArc
 50
118.6250794547
 51
119.6877623933
  0
ARC
  5
304
100
AcDbEntity
  8
0
100
AcDbCircle
 62
7
  6
CONTINUOUS
 10
-21.2089907041
 20
33.5823256949
 40
0.1277272214
100
AcDbArc
 50
296.5888845132
 51
304.1085997096
  0
ARC
  5
305
100
AcDbEntity
  8
0
100
AcDbCircle
 62
7
  6
CONTINUOUS
 10
-19.5903235517
 20
32.0624367053
 40
0.1268048155
100
AcDbArc
 50
101.4287947044
 51
106.6214966804
  0
ARC
  5
306
100
AcDbEntity
  8
0
100
AcDbCircle
 62
7
  6
CONTINUOUS
 10
-19.5909273467
 20
32.0645238068
 40
0.1246322099
100
AcDbArc
 50
106.6299763493
 51
111.5468203613
  0
ARC
  5
307
100
AcDbEntity
  8
0
100
AcDbCircle
 62
7
  6
CONTINUOUS
 10
-19.591026841
 20
32.0648231202
 40
0.1243172741
100
AcDbArc
 50
111.5548327757
 51
116.5637517634
  0
ARC
  5
308
100
AcDbEntity
  8
0
100
AcDbCircle
 62
7
  6
CONTINUOUS
 10
-23.029944965
 20
32.0036122567
 40
0.1238367041
100
AcDbArc
 50
101.2282263583
 51
106.4793096888
  0
ARC
  5
309
100
AcDbEntity
  8
0
100
AcDbCircle
 62
7
  6
CONTINUOUS
 10
-23.0306942816
 20
32.0062129752
 40
0.121130261
100
AcDbArc
 50
106.4883948259
 51
111.4886277417
  0
ARC
  5
30A
100
AcDbEntity
  8
0
100
AcDbCircle
 62
7
  6
CONTINUOUS
 10
-23.0309701764
 20
32.0069621448
 40
0.1203321024
100
AcDbArc
 50
111.4970630509
 51
116.562261836
  0
ARC
  5
30B
100
AcDbEntity
  8
0
100
AcDbCircle
 62
253
  6
CONTINUOUS
 10
73.0300383844
 20
35.1202051587
 40
109.3078051242
100
AcDbArc
 50
173.5610331672
 51
179.0787864038
  0
ARC
  5
30C
100
AcDbEntity
  8
0
100
AcDbCircle
 62
253
  6
CONTINUOUS
 10
513.7745840017
 20
13.2343789368
 40
519.385794873
100
AcDbArc
 50
179.086118545
 51
179.9591317344
  0
ARC
  5
30D
100
AcDbEntity
  8
0
100
AcDbCircle
 62
253
  6
CONTINUOUS
 10
513.8887891013
 20
13.2289802105
 40
518.8054427332
100
AcDbArc
 50
179.0860816312
 51
179.9593797202
  0
ARC
  5
30E
100
AcDbEntity
  8
0
100
AcDbCircle
 62
253
  6
CONTINUOUS
 10
501.8071363632
 20
13.2504989421
 40
507.4183254323
100
AcDbArc
 50
180.0377823138
 51
180.9244432609
  0
ARC
  5
30F
100
AcDbEntity
  8
0
100
AcDbCircle
 62
253
  6
CONTINUOUS
 10
501.8902451862
 20
13.243449943
 40
506.8068769332
100
AcDbArc
 50
180.0374907407
 51
180.9245204221
  0
ARC
  5
310
100
AcDbEntity
  8
0
100
AcDbCircle
 62
253
  6
CONTINUOUS
 10
518.949467166
 20
28.6068734805
 40
555.274704723
100
AcDbArc
 50
179.1465567701
 51
179.9633696209
  0
ARC
  5
311
100
AcDbEntity
  8
0
100
AcDbCircle
 62
253
  6
CONTINUOUS
 10
505.1919530341
 20
28.5893499759
 40
541.5171695651
100
AcDbArc
 50
180.033480527
 51
180.8640690214
  0
SPLINE
  5
312
100
AcDbEntity
  8
0
100
AcDbSpline
 62
7
  6
CONTINUOUS
 70
0
 71
3
 72
9
 73
5
 74
0
 42
0.0000001
 43
0.0000001
 44
0.0000000001
 40
0.0
 40
0.0
 40
0.0
 40
0.0
 40
0.4571416751
 40
1.0
 40
1.0
 40
1.0
 40
1.0
 10
-19.0927390763
 20
9.0815452609
 30
0.0
 10
-19.111206976
 20
9.0723109361
 30
0.0
 10
-19.1584578775
 20
9.0652938652
 30
0.0
 10
-19.2022978664
 20
9.0804374
 30
0.0
 10
-19.2242287799
 20
9.0914028568
 30
0.0
  0
SPLINE
  5
313
100
AcDbEntity
  8
0
100
AcDbSpline
 62
7
  6
CONTINUOUS
 70
0
 71
3
 72
9
 73
5
 74
0
 42
0.0000001
 43
0.0000001
 44
0.0000000001
 40
0.0
 40
0.0
 40
0.0
 40
0.0
 40
0.2619621974
 40
1.0
 40
1.0
 40
1.0
 40
1.0
 10
-21.2366062346
 20
10.6155122727
 30
0.0
 10
-21.2303935333
 20
10.6262359979
 30
0.0
 10
-21.2042382215
 20
10.6656755935
 30
0.0
 10
-21.1665839834
 20
10.6977454375
 30
0.0
 10
-21.1353536618
 20
10.7133603085
 30
0.0
  0
SPLINE
  5
314
100
AcDbEntity
  8
0
100
AcDbSpline
 62
7
  6
CONTINUOUS
 70
0
 71
3
 72
9
 73
5
 74
0
 42
0.0000001
 43
0.0000001
 44
0.0000000001
 40
0.0
 40
0.0
 40
0.0
 40
0.0
 40
0.4605121663
 40
1.0
 40
1.0
 40
1.0
 40
1.0
 10
-19.7966864733
 20
7.8375607182
 30
0.0
 10
-19.8129505786
 20
7.8294300897
 30
0.0
 10
-19.8537134089
 20
7.8221666546
 30
0.0
 10
-19.8926880092
 20
7.8329058445
 30
0.0
 10
-19.9123333688
 20
7.8411407973
 30
0.0
  0
SPLINE
  5
315
100
AcDbEntity
  8
0
100
AcDbSpline
 62
7
  6
CONTINUOUS
 70
0
 71
3
 72
9
 73
5
 74
0
 42
0.0000001
 43
0.0000001
 44
0.0000000001
 40
0.0
 40
0.0
 40
0.0
 40
0.0
 40
0.4652617434
 40
1.0
 40
1.0
 40
1.0
 40
1.0
 10
-19.9123333688
 20
7.8411407973
 30
0.0
 10
-19.9478040345
 20
7.8560094108
 30
0.0
 10
-20.0162744098
 20
7.9059812172
 30
0.0
 10
-20.0674771221
 20
7.971954824
 30
0.0
 10
-20.090152842
 20
8.0098998543
 30
0.0
  0
SPLINE
  5
316
100
AcDbEntity
  8
0
100
AcDbSpline
 62
7
  6
CONTINUOUS
 70
0
 71
3
 72
11
 73
7
 74
0
 42
0.0000001
 43
0.0000001
 44
0.0000000001
 40
0.0
 40
0.0
 40
0.0
 40
0.0
 40
0.3058718326
 40
0.5776618304
 40
0.8053263682
 40
1.0
 40
1.0
 40
1.0
 40
1.0
 10
-21.8606267957
 20
12.1608111616
 30
0.0
 10
-21.8733372588
 20
12.1919890795
 30
0.0
 10
-21.8914550711
 20
12.2536058229
 30
0.0
 10
-21.8952597123
 20
12.3431797051
 30
0.0
 10
-21.8736323195
 20
12.4186205781
 30
0.0
 10
-21.8385724469
 20
12.4534404685
 30
0.0
 10
-21.819405795
 20
12.463023776
 30
0.0
  0
SPLINE
  5
317
100
AcDbEntity
  8
0
100
AcDbSpline
 62
7
  6
CONTINUOUS
 70
0
 71
3
 72
9
 73
5
 74
0
 42
0.0000001
 43
0.0000001
 44
0.0000000001
 40
0.0
 40
0.0
 40
0.0
 40
0.0
 40
0.2619754679
 40
1.0
 40
1.0
 40
1.0
 40
1.0
 10
-20.2762626125
 20
11.6218066654
 30
0.0
 10
-20.2732864129
 20
11.6268122837
 30
0.0
 10
-20.2608072873
 20
11.6452151093
 30
0.0
 10
-20.2430855992
 20
11.6601899483
 30
0.0
 10
-20.2284116532
 20
11.6675267204
 30
0.0
  0
SPLINE
  5
318
100
AcDbEntity
  8
0
100
AcDbSpline
 62
7
  6
CONTINUOUS
 70
0
 71
3
 72
9
 73
5
 74
0
 42
0.0000001
 43
0.0000001
 44
0.0000000001
 40
0.0
 40
0.0
 40
0.0
 40
0.0
 40
0.225599726
 40
1.0
 40
1.0
 40
1.0
 40
1.0
 10
-22.4062144967
 20
10.6823957152
 30
0.0
 10
-22.4237660272
 20
10.6911714804
 30
0.0
 10
-22.496990463
 20
10.7390129208
 30
0.0
 10
-22.55184401
 20
10.8116232678
 30
0.0
 10
-22.582149348
 20
10.8717801335
 30
0.0
  0
SPLINE
  5
319
100
AcDbEntity
  8
0
100
AcDbSpline
 62
7
  6
CONTINUOUS
 70
0
 71
3
 72
11
 73
7
 74
0
 42
0.0000001
 43
0.0000001
 44
0.0000000001
 40
0.0
 40
0.0
 40
0.0
 40
0.0
 40
0.3082168264
 40
0.5832085301
 40
0.8103067146
 40
1.0
 40
1.0
 40
1.0
 40
1.0
 10
-22.582149348
 20
10.8717801335
 30
0.0
 10
-22.5987316225
 20
10.9046963696
 30
0.0
 10
-22.6236380164
 20
10.9706398731
 30
0.0
 10
-22.6348889103
 20
11.0679423009
 30
0.0
 10
-22.6173758221
 20
11.1512840975
 30
0.0
 10
-22.580747667
 20
11.1903461318
 30
0.0
 10
-22.5604587558
 20
11.200491027
 30
0.0
  0
SPLINE
  5
31A
100
AcDbEntity
  8
0
100
AcDbSpline
 62
7
  6
CONTINUOUS
 70
0
 71
3
 72
9
 73
5
 74
0
 42
0.0000001
 43
0.0000001
 44
0.0000000001
 40
0.0
 40
0.0
 40
0.0
 40
0.0
 40
0.2306384104
 40
1.0
 40
1.0
 40
1.0
 40
1.0
 10
-21.3876752391
 20
8.6330603784
 30
0.0
 10
-21.3946611151
 20
8.6295676035
 30
0.0
 10
-21.4268308747
 20
8.6179993936
 30
0.0
 10
-21.4629287991
 20
8.6225786058
 30
0.0
 10
-21.4876646597
 20
8.6307600774
 30
0.0
  0
SPLINE
  5
31B
100
AcDbEntity
  8
0
100
AcDbSpline
 62
7
  6
CONTINUOUS
 70
0
 71
3
 72
11
 73
7
 74
0
 42
0.0000001
 43
0.0000001
 44
0.0000000001
 40
0.0
 40
0.0
 40
0.0
 40
0.0
 40
0.2403070869
 40
0.5222793914
 40
0.7905257418
 40
1.0
 40
1.0
 40
1.0
 40
1.0
 10
-21.4876646597
 20
8.6307600774
 30
0.0
 10
-21.5321242509
 20
8.6454652412
 30
0.0
 10
-21.6176933557
 20
8.708045035
 30
0.0
 10
-21.7067298878
 20
8.8360203122
 30
0.0
 10
-21.7540901093
 20
8.9779622634
 30
0.0
 10
-21.7458467354
 20
9.0773739925
 30
0.0
 10
-21.725885585
 20
9.1129805435
 30
0.0
  0
SPLINE
  5
31C
100
AcDbEntity
  8
0
100
AcDbSpline
 62
7
  6
CONTINUOUS
 70
0
 71
3
 72
9
 73
5
 74
0
 42
0.0000001
 43
0.0000001
 44
0.0000000001
 40
0.0
 40
0.0
 40
0.0
 40
0.0
 40
0.2624851088
 40
1.0
 40
1.0
 40
1.0
 40
1.0
 10
-21.5395289533
 20
9.4440300563
 30
0.0
 10
-21.5368162278
 20
9.4489389344
 30
0.0
 10
-21.5252616982
 20
9.4669334421
 30
0.0
 10
-21.5082266136
 20
9.4814564505
 30
0.0
 10
-21.4941316496
 20
9.488503822
 30
0.0
  0
SPLINE
  5
31D
100
AcDbEntity
  8
0
100
AcDbSpline
 62
7
  6
CONTINUOUS
 70
0
 71
3
 72
11
 73
7
 74
0
 42
0.0000001
 43
0.0000001
 44
0.0000000001
 40
0.0
 40
0.0
 40
0.0
 40
0.0
 40
0.3100474945
 40
0.5829067326
 40
0.8085576281
 40
1.0
 40
1.0
 40
1.0
 40
1.0
 10
-20.3581824902
 20
8.6081714657
 30
0.0
 10
-20.3716306944
 20
8.6388493791
 30
0.0
 10
-20.3913543608
 20
8.6992974712
 30
0.0
 10
-20.3980472214
 20
8.7873409335
 30
0.0
 10
-20.3793637072
 20
8.8617087233
 30
0.0
 10
-20.3456465837
 20
8.8960415472
 30
0.0
 10
-20.3271475442
 20
8.9052910531
 30
0.0
  0
SPLINE
  5
31E
100
AcDbEntity
  8
0
100
AcDbSpline
 62
7
  6
CONTINUOUS
 70
0
 71
3
 72
9
 73
5
 74
0
 42
0.0000001
 43
0.0000001
 44
0.0000000001
 40
0.0
 40
0.0
 40
0.0
 40
0.0
 40
0.4571416751
 40
1.0
 40
1.0
 40
1.0
 40
1.0
 10
-21.8504555402
 20
10.4604034929
 30
0.0
 10
-21.8689234398
 20
10.451169168
 30
0.0
 10
-21.9161743414
 20
10.4441520972
 30
0.0
 10
-21.9600143303
 20
10.459295632
 30
0.0
 10
-21.9819452437
 20
10.4702610887
 30
0.0
  0
SPLINE
  5
31F
100
AcDbEntity
  8
0
100
AcDbSpline
 62
7
  6
CONTINUOUS
 70
0
 71
3
 72
9
 73
5
 74
0
 42
0.0000001
 43
0.0000001
 44
0.0000000001
 40
0.0
 40
0.0
 40
0.0
 40
0.0
 40
0.225599726
 40
1.0
 40
1.0
 40
1.0
 40
1.0
 10
-19.6484929488
 20
9.3035349412
 30
0.0
 10
-19.6660444792
 20
9.3123107064
 30
0.0
 10
-19.739268915
 20
9.3601521468
 30
0.0
 10
-19.7941224621
 20
9.4327624938
 30
0.0
 10
-19.8244278
 20
9.4929193595
 30
0.0
  0
SPLINE
  5
320
100
AcDbEntity
  8
0
100
AcDbSpline
 62
7
  6
CONTINUOUS
 70
0
 71
3
 72
11
 73
7
 74
0
 42
0.0000001
 43
0.0000001
 44
0.0000000001
 40
0.0
 40
0.0
 40
0.0
 40
0.0
 40
0.3082168264
 40
0.5832085301
 40
0.8103067146
 40
1.0
 40
1.0
 40
1.0
 40
1.0
 10
-19.8244278
 20
9.4929193595
 30
0.0
 10
-19.8410100745
 20
9.5258355956
 30
0.0
 10
-19.8659164685
 20
9.5917790991
 30
0.0
 10
-19.8771673624
 20
9.6890815269
 30
0.0
 10
-19.8596542742
 20
9.7724233235
 30
0.0
 10
-19.8230261191
 20
9.8114853578
 30
0.0
 10
-19.8027372079
 20
9.821630253
 30
0.0
  0
SPLINE
  5
321
100
AcDbEntity
  8
0
100
AcDbSpline
 62
7
  6
CONTINUOUS
 70
0
 71
3
 72
9
 73
5
 74
0
 42
0.0000001
 43
0.0000001
 44
0.0000000001
 40
0.0
 40
0.0
 40
0.0
 40
0.0
 40
0.2352209036
 40
1.0
 40
1.0
 40
1.0
 40
1.0
 10
-20.1484511702
 20
10.7988158492
 30
0.0
 10
-20.1551663301
 20
10.7954583721
 30
0.0
 10
-20.1852845028
 20
10.7842003694
 30
0.0
 10
-20.2192431601
 20
10.7867685038
 30
0.0
 10
-20.2427361978
 20
10.7933963291
 30
0.0
  0
SPLINE
  5
322
100
AcDbEntity
  8
0
100
AcDbSpline
 62
7
  6
CONTINUOUS
 70
0
 71
3
 72
11
 73
7
 74
0
 42
0.0000001
 43
0.0000001
 44
0.0000000001
 40
0.0
 40
0.0
 40
0.0
 40
0.0
 40
0.23547464
 40
0.5151818189
 40
0.7854303001
 40
1.0
 40
1.0
 40
1.0
 40
1.0
 10
-20.2427361978
 20
10.7933963291
 30
0.0
 10
-20.2876872989
 20
10.8060778755
 30
0.0
 10
-20.3752912429
 20
10.8678264914
 30
0.0
 10
-20.4642926397
 20
10.9981558852
 30
0.0
 10
-20.5097387575
 20
11.1448665142
 30
0.0
 10
-20.4980954515
 20
11.2471816356
 30
0.0
 10
-20.4764650058
 20
11.2838342697
 30
0.0
  0
SPLINE
  5
323
100
AcDbEntity
  8
0
100
AcDbSpline
 62
7
  6
CONTINUOUS
 70
0
 71
3
 72
11
 73
7
 74
0
 42
0.0000001
 43
0.0000001
 44
0.0000000001
 40
0.0
 40
0.0
 40
0.0
 40
0.0
 40
0.1921574648
 40
0.4213398676
 40
0.6950998891
 40
1.0
 40
1.0
 40
1.0
 40
1.0
 10
-21.3151753536
 20
11.382178043
 30
0.0
 10
-21.3348777498
 20
11.3723268645
 30
0.0
 10
-21.3857739878
 20
11.365526733
 30
0.0
 10
-21.4620980939
 20
11.3944349184
 30
0.0
 10
-21.5355787052
 20
11.4523846309
 30
0.0
 10
-21.5769505844
 20
11.5050690429
 30
0.0
 10
-21.5956239864
 20
11.5346149155
 30
0.0
  0
SPLINE
  5
324
100
AcDbEntity
  8
0
100
AcDbSpline
 62
7
  6
CONTINUOUS
 70
0
 71
3
 72
9
 73
5
 74
0
 42
0.0000001
 43
0.0000001
 44
0.0000000001
 40
0.0
 40
0.0
 40
0.0
 40
0.0
 40
0.4694923961
 40
1.0
 40
1.0
 40
1.0
 40
1.0
 10
-20.5162649581
 20
9.5694604825
 30
0.0
 10
-20.5471363445
 20
9.5540250817
 30
0.0
 10
-20.621535435
 20
9.5372675669
 30
0.0
 10
-20.6953885624
 20
9.5508746905
 30
0.0
 10
-20.7325057762
 20
9.56284833
 30
0.0
  0
SPLINE
  5
325
100
AcDbEntity
  8
0
100
AcDbSpline
 62
7
  6
CONTINUOUS
 70
0
 71
3
 72
11
 73
7
 74
0
 42
0.0000001
 43
0.0000001
 44
0.0000000001
 40
0.0
 40
0.0
 40
0.0
 40
0.0
 40
0.2222680981
 40
0.4833037159
 40
0.7535570506
 40
1.0
 40
1.0
 40
1.0
 40
1.0
 10
-20.7325057762
 20
9.56284833
 30
0.0
 10
-20.8065464122
 20
9.5867330938
 30
0.0
 10
-20.9535929759
 20
9.6801419831
 30
0.0
 10
-21.126724412
 20
9.8823127166
 30
0.0
 10
-21.2496388411
 20
10.1280748999
 30
0.0
 10
-21.2864646497
 20
10.3087825288
 30
0.0
 10
-21.2870535923
 20
10.3950399479
 30
0.0
  0
SPLINE
  5
326
100
AcDbEntity
  8
0
100
AcDbSpline
 62
7
  6
CONTINUOUS
 70
0
 71
3
 72
9
 73
5
 74
0
 42
0.0000001
 43
0.0000001
 44
0.0000000001
 40
0.0
 40
0.0
 40
0.0
 40
0.0
 40
0.2758195287
 40
1.0
 40
1.0
 40
1.0
 40
1.0
 10
-21.2870535923
 20
10.3950399479
 30
0.0
 10
-21.2871964335
 20
10.4159606838
 30
0.0
 10
-21.2840238132
 20
10.4915868468
 30
0.0
 10
-21.2641421482
 20
10.5679826152
 30
0.0
 10
-21.2366062346
 20
10.6155122727
 30
0.0
  0
SPLINE
  5
327
100
AcDbEntity
  8
0
100
AcDbSpline
 62
7
  6
CONTINUOUS
 70
0
 71
3
 72
8
 73
4
 74
0
 42
0.0000001
 43
0.0000001
 44
0.0000000001
 40
0.0
 40
0.0
 40
0.0
 40
0.0
 40
1.0
 40
1.0
 40
1.0
 40
1.0
 10
-20.4338846015
 20
9.6395937859
 30
0.0
 10
-20.4414008759
 20
9.629449857
 30
0.0
 10
-20.449678372
 20
9.6198198212
 30
0.0
 10
-20.4586488282
 20
9.61093587
 30
0.0
  0
SPLINE
  5
328
100
AcDbEntity
  8
0
100
AcDbSpline
 62
7
  6
CONTINUOUS
 70
0
 71
3
 72
11
 73
7
 74
0
 42
0.0000001
 43
0.0000001
 44
0.0000000001
 40
0.0
 40
0.0
 40
0.0
 40
0.0
 40
0.3054818698
 40
0.5743153211
 40
0.8015274971
 40
1.0
 40
1.0
 40
1.0
 40
1.0
 10
-21.2614287963
 20
11.6435491037
 30
0.0
 10
-21.2528084818
 20
11.6156340309
 30
0.0
 10
-21.2414691465
 20
11.5613898018
 30
0.0
 10
-21.2437525439
 20
11.483911051
 30
0.0
 10
-21.2667950186
 20
11.419855058
 30
0.0
 10
-21.2981977112
 20
11.3906668474
 30
0.0
 10
-21.3151753536
 20
11.382178043
 30
0.0
  0
SPLINE
  5
329
100
AcDbEntity
  8
0
100
AcDbSpline
 62
7
  6
CONTINUOUS
 70
0
 71
3
 72
8
 73
4
 74
0
 42
0.0000001
 43
0.0000001
 44
0.0000000001
 40
0.0
 40
0.0
 40
0.0
 40
0.0
 40
1.0
 40
1.0
 40
1.0
 40
1.0
 10
-20.1106315272
 20
10.8302615519
 30
0.0
 10
-20.1151622126
 20
10.8244192065
 30
0.0
 10
-20.1202446476
 20
10.8189576328
 30
0.0
 10
-20.1258010699
 20
10.8140805148
 30
0.0
  0
SPLINE
  5
32A
100
AcDbEntity
  8
0
100
AcDbSpline
 62
7
  6
CONTINUOUS
 70
0
 71
3
 72
8
 73
4
 74
0
 42
0.0000001
 43
0.0000001
 44
0.0000000001
 40
0.0
 40
0.0
 40
0.0
 40
0.0
 40
1.0
 40
1.0
 40
1.0
 40
1.0
 10
-20.1258010699
 20
10.8140805148
 30
0.0
 10
-20.1326436352
 20
10.8080744922
 30
0.0
 10
-20.1403077547
 20
10.8028874324
 30
0.0
 10
-20.1484511702
 20
10.7988158492
 30
0.0
  0
SPLINE
  5
32B
100
AcDbEntity
  8
0
100
AcDbSpline
 62
7
  6
CONTINUOUS
 70
0
 71
3
 72
11
 73
7
 74
0
 42
0.0000001
 43
0.0000001
 44
0.0000000001
 40
0.0
 40
0.0
 40
0.0
 40
0.0
 40
0.1879287096
 40
0.4177608171
 40
0.6943872525
 40
1.0
 40
1.0
 40
1.0
 40
1.0
 10
-20.3271475442
 20
8.9052910531
 30
0.0
 10
-20.3067223053
 20
8.9155036573
 30
0.0
 10
-20.2527410451
 20
8.9212020602
 30
0.0
 10
-20.1731467593
 20
8.8877078159
 30
0.0
 10
-20.0966465716
 20
8.8238296949
 30
0.0
 10
-20.053953282
 20
8.7665356386
 30
0.0
 10
-20.0349688405
 20
8.7346184533
 30
0.0
  0
SPLINE
  5
32C
100
AcDbEntity
  8
0
100
AcDbSpline
 62
7
  6
CONTINUOUS
 70
0
 71
3
 72
9
 73
5
 74
0
 42
0.0000001
 43
0.0000001
 44
0.0000000001
 40
0.0
 40
0.0
 40
0.0
 40
0.0
 40
0.2317183753
 40
1.0
 40
1.0
 40
1.0
 40
1.0
 10
-21.4941316496
 20
9.488503822
 30
0.0
 10
-21.4871010766
 20
9.4920190533
 30
0.0
 10
-21.4549325888
 20
9.5037059526
 30
0.0
 10
-21.4187437627
 20
9.4994953068
 30
0.0
 10
-21.3939617493
 20
9.4914287715
 30
0.0
  0
SPLINE
  5
32D
100
AcDbEntity
  8
0
100
AcDbSpline
 62
7
  6
CONTINUOUS
 70
0
 71
3
 72
11
 73
7
 74
0
 42
0.0000001
 43
0.0000001
 44
0.0000000001
 40
0.0
 40
0.0
 40
0.0
 40
0.0
 40
0.2397423851
 40
0.5213829781
 40
0.7899735781
 40
1.0
 40
1.0
 40
1.0
 40
1.0
 10
-21.3939617493
 20
9.4914287715
 30
0.0
 10
-21.3494729996
 20
9.4769477015
 30
0.0
 10
-21.263851956
 20
9.4142981184
 30
0.0
 10
-21.1752698325
 20
9.2857123823
 30
0.0
 10
-21.129059938
 20
9.1433133578
 30
0.0
 10
-21.1370437071
 20
9.0433488002
 30
0.0
 10
-21.1574835533
 20
9.0078219934
 30
0.0
  0
SPLINE
  5
32E
100
AcDbEntity
  8
0
100
AcDbSpline
 62
7
  6
CONTINUOUS
 70
0
 71
3
 72
9
 73
5
 74
0
 42
0.0000001
 43
0.0000001
 44
0.0000000001
 40
0.0
 40
0.0
 40
0.0
 40
0.0
 40
0.2310695137
 40
1.0
 40
1.0
 40
1.0
 40
1.0
 10
-21.9814351179
 20
10.9656914264
 30
0.0
 10
-21.9660981605
 20
10.9560750694
 30
0.0
 10
-21.9035736885
 20
10.9084263583
 30
0.0
 10
-21.8558942136
 20
10.8428697856
 30
0.0
 10
-21.8289309586
 20
10.7890017618
 30
0.0
  0
SPLINE
  5
32F
100
AcDbEntity
  8
0
100
AcDbSpline
 62
7
  6
CONTINUOUS
 70
0
 71
3
 72
11
 73
7
 74
0
 42
0.0000001
 43
0.0000001
 44
0.0000000001
 40
0.0
 40
0.0
 40
0.0
 40
0.0
 40
0.308631437
 40
0.5839321488
 40
0.8109069752
 40
1.0
 40
1.0
 40
1.0
 40
1.0
 10
-21.8289309586
 20
10.7890017618
 30
0.0
 10
-21.8124287962
 20
10.7560332321
 30
0.0
 10
-21.787672827
 20
10.690024568
 30
0.0
 10
-21.7764899717
 20
10.5927692805
 30
0.0
 10
-21.7937926457
 20
10.5095488367
 30
0.0
 10
-21.8302520809
 20
10.4705056327
 30
0.0
 10
-21.8504555402
 20
10.4604034929
 30
0.0
  0
SPLINE
  5
330
100
AcDbEntity
  8
0
100
AcDbSpline
 62
7
  6
CONTINUOUS
 70
0
 71
3
 72
8
 73
4
 74
0
 42
0.0000001
 43
0.0000001
 44
0.0000000001
 40
0.0
 40
0.0
 40
0.0
 40
0.0
 40
1.0
 40
1.0
 40
1.0
 40
1.0
 10
-21.3426059243
 20
8.677389611
 30
0.0
 10
-21.3454489667
 20
8.6722937216
 30
0.0
 10
-21.3486441628
 20
8.6673748863
 30
0.0
 10
-21.352188048
 20
8.6627389553
 30
0.0
  0
SPLINE
  5
331
100
AcDbEntity
  8
0
100
AcDbSpline
 62
7
  6
CONTINUOUS
 70
0
 71
3
 72
8
 73
4
 74
0
 42
0.0000001
 43
0.0000001
 44
0.0000000001
 40
0.0
 40
0.0
 40
0.0
 40
0.0
 40
1.0
 40
1.0
 40
1.0
 40
1.0
 10
-21.352188048
 20
8.6627389553
 30
0.0
 10
-21.3562853697
 20
8.6573790467
 30
0.0
 10
-21.360883948
 20
8.6523607764
 30
0.0
 10
-21.3659134899
 20
8.6478640696
 30
0.0
  0
SPLINE
  5
332
100
AcDbEntity
  8
0
100
AcDbSpline
 62
7
  6
CONTINUOUS
 70
0
 71
3
 72
9
 73
5
 74
0
 42
0.0000001
 43
0.0000001
 44
0.0000000001
 40
0.0
 40
0.0
 40
0.0
 40
0.0
 40
0.557898234
 40
1.0
 40
1.0
 40
1.0
 40
1.0
 10
-19.7562307357
 20
8.1060786802
 30
0.0
 10
-19.7414673528
 20
8.0661425819
 30
0.0
 10
-19.7236526698
 20
7.9911050821
 30
0.0
 10
-19.7350405608
 20
7.9112860001
 30
0.0
 10
-19.7516105945
 20
7.8818948861
 30
0.0
  0
SPLINE
  5
333
100
AcDbEntity
  8
0
100
AcDbSpline
 62
7
  6
CONTINUOUS
 70
0
 71
3
 72
8
 73
4
 74
0
 42
0.0000001
 43
0.0000001
 44
0.0000000001
 40
0.0
 40
0.0
 40
0.0
 40
0.0
 40
1.0
 40
1.0
 40
1.0
 40
1.0
 10
-19.751610594
 20
7.8818948869
 30
0.0
 10
-19.7547380534
 20
7.8762889406
 30
0.0
 10
-19.7582933771
 20
7.8708952214
 30
0.0
 10
-19.7622703073
 20
7.8658562073
 30
0.0
  0
SPLINE
  5
334
100
AcDbEntity
  8
0
100
AcDbSpline
 62
7
  6
CONTINUOUS
 70
0
 71
3
 72
8
 73
4
 74
0
 42
0.0000001
 43
0.0000001
 44
0.0000000001
 40
0.0
 40
0.0
 40
0.0
 40
0.0
 40
1.0
 40
1.0
 40
1.0
 40
1.0
 10
-19.7622703073
 20
7.8658562073
 30
0.0
 10
-19.7659238403
 20
7.8612269572
 30
0.0
 10
-19.7699573747
 20
7.8568697016
 30
0.0
 10
-19.7743228134
 20
7.8529047041
 30
0.0
  0
SPLINE
  5
335
100
AcDbEntity
  8
0
100
AcDbSpline
 62
7
  6
CONTINUOUS
 70
0
 71
3
 72
8
 73
4
 74
0
 42
0.0000001
 43
0.0000001
 44
0.0000000001
 40
0.0
 40
0.0
 40
0.0
 40
0.0
 40
1.0
 40
1.0
 40
1.0
 40
1.0
 10
-19.7743228134
 20
7.8529047041
 30
0.0
 10
-19.781014954
 20
7.8468264325
 30
0.0
 10
-19.7886001462
 20
7.8416031737
 30
0.0
 10
-19.7966864733
 20
7.8375607182
 30
0.0
  0
SPLINE
  5
336
100
AcDbEntity
  8
0
100
AcDbSpline
 62
7
  6
CONTINUOUS
 70
0
 71
3
 72
9
 73
5
 74
0
 42
0.0000001
 43
0.0000001
 44
0.0000000001
 40
0.0
 40
0.0
 40
0.0
 40
0.0
 40
0.2310695484
 40
1.0
 40
1.0
 40
1.0
 40
1.0
 10
-19.2237185007
 20
9.5868330982
 30
0.0
 10
-19.2083815585
 20
9.5772167377
 30
0.0
 10
-19.1458571566
 20
9.5295680342
 30
0.0
 10
-19.0981777281
 20
9.4640115104
 30
0.0
 10
-19.0712144947
 20
9.4101435298
 30
0.0
  0
SPLINE
  5
337
100
AcDbEntity
  8
0
100
AcDbSpline
 62
7
  6
CONTINUOUS
 70
0
 71
3
 72
11
 73
7
 74
0
 42
0.0000001
 43
0.0000001
 44
0.0000000001
 40
0.0
 40
0.0
 40
0.0
 40
0.0
 40
0.308631437
 40
0.5839321488
 40
0.8109069752
 40
1.0
 40
1.0
 40
1.0
 40
1.0
 10
-19.0712144947
 20
9.4101435298
 30
0.0
 10
-19.0547123324
 20
9.3771750001
 30
0.0
 10
-19.0299563632
 20
9.311166336
 30
0.0
 10
-19.0187735079
 20
9.2139110486
 30
0.0
 10
-19.0360761819
 20
9.1306906047
 30
0.0
 10
-19.0725356171
 20
9.0916474008
 30
0.0
 10
-19.0927390763
 20
9.0815452609
 30
0.0
  0
SPLINE
  5
338
100
AcDbEntity
  8
0
100
AcDbSpline
 62
7
  6
CONTINUOUS
 70
0
 71
3
 72
9
 73
5
 74
0
 42
0.0000001
 43
0.0000001
 44
0.0000000001
 40
0.0
 40
0.0
 40
0.0
 40
0.0
 40
0.4578113159
 40
1.0
 40
1.0
 40
1.0
 40
1.0
 10
-22.5604587558
 20
11.200491027
 30
0.0
 10
-22.5419249925
 20
11.2097583102
 30
0.0
 10
-22.4945990769
 20
11.2168726019
 30
0.0
 10
-22.4506347532
 20
11.2017504178
 30
0.0
 10
-22.4286849161
 20
11.1907754992
 30
0.0
  0
SPLINE
  5
339
100
AcDbEntity
  8
0
100
AcDbSpline
 62
7
  6
CONTINUOUS
 70
0
 71
3
 72
9
 73
5
 74
0
 42
0.0000001
 43
0.0000001
 44
0.0000000001
 40
0.0
 40
0.0
 40
0.0
 40
0.0
 40
0.2355783784
 40
1.0
 40
1.0
 40
1.0
 40
1.0
 10
-20.2178609833
 20
11.6721151074
 30
0.0
 10
-20.2115997531
 20
11.6744510224
 30
0.0
 10
-20.1840925312
 20
11.6819409137
 30
0.0
 10
-20.1544840406
 20
11.6790575648
 30
0.0
 10
-20.1336044404
 20
11.6732034387
 30
0.0
  0
SPLINE
  5
33A
100
AcDbEntity
  8
0
100
AcDbSpline
 62
7
  6
CONTINUOUS
 70
0
 71
3
 72
11
 73
7
 74
0
 42
0.0000001
 43
0.0000001
 44
0.0000000001
 40
0.0
 40
0.0
 40
0.0
 40
0.0
 40
0.2351766291
 40
0.5145165646
 40
0.7849780121
 40
1.0
 40
1.0
 40
1.0
 40
1.0
 10
-20.1336044404
 20
11.6732034387
 30
0.0
 10
-20.0886668522
 20
11.660604045
 30
0.0
 10
-20.0011136414
 20
11.5987451238
 30
0.0
 10
-19.9129039332
 20
11.4678339799
 30
0.0
 10
-19.8684308767
 20
11.320701825
 30
0.0
 10
-19.880471307
 20
11.218321015
 30
0.0
 10
-19.9022094452
 20
11.1816024863
 30
0.0
  0
SPLINE
  5
33B
100
AcDbEntity
  8
0
100
AcDbSpline
 62
7
  6
CONTINUOUS
 70
0
 71
3
 72
10
 73
6
 74
0
 42
0.0000001
 43
0.0000001
 44
0.0000000001
 40
0.0
 40
0.0
 40
0.0
 40
0.0
 40
0.1968728235
 40
0.5604764737
 40
1.0
 40
1.0
 40
1.0
 40
1.0
 10
-21.801430583
 20
12.4700845591
 30
0.0
 10
-21.7810021152
 20
12.4760944849
 30
0.0
 10
-21.717587144
 20
12.475528288
 30
0.0
 10
-21.6206369889
 20
12.4185184153
 30
0.0
 10
-21.5642282211
 20
12.350855716
 30
0.0
 10
-21.5390630647
 20
12.3105228045
 30
0.0
  0
SPLINE
  5
33C
100
AcDbEntity
  8
0
100
AcDbSpline
 62
7
  6
CONTINUOUS
 70
0
 71
3
 72
9
 73
5
 74
0
 42
0.0000001
 43
0.0000001
 44
0.0000000001
 40
0.0
 40
0.0
 40
0.0
 40
0.0
 40
0.4712587053
 40
1.0
 40
1.0
 40
1.0
 40
1.0
 10
-21.1261814694
 20
10.7176913904
 30
0.0
 10
-21.0957704188
 20
10.7312258092
 30
0.0
 10
-21.0241874185
 20
10.7451920981
 30
0.0
 10
-20.9534204667
 20
10.7320112989
 30
0.0
 10
-20.917858346
 20
10.7206035439
 30
0.0
  0
SPLINE
  5
33D
100
AcDbEntity
  8
0
100
AcDbSpline
 62
7
  6
CONTINUOUS
 70
0
 71
3
 72
11
 73
7
 74
0
 42
0.0000001
 43
0.0000001
 44
0.0000000001
 40
0.0
 40
0.0
 40
0.0
 40
0.0
 40
0.2221814254
 40
0.4829626106
 40
0.7533411133
 40
1.0
 40
1.0
 40
1.0
 40
1.0
 10
-20.917858346
 20
10.7206035439
 30
0.0
 10
-20.8438302628
 20
10.6968565284
 30
0.0
 10
-20.6969022852
 20
10.6033485309
 30
0.0
 10
-20.5249673584
 20
10.4002893917
 30
0.0
 10
-20.403571878
 20
10.1538662193
 30
0.0
 10
-20.3671987425
 20
9.9731143338
 30
0.0
 10
-20.3665586383
 20
9.8868081133
 30
0.0
  0
SPLINE
  5
33E
100
AcDbEntity
  8
0
100
AcDbSpline
 62
7
  6
CONTINUOUS
 70
0
 71
3
 72
9
 73
5
 74
0
 42
0.0000001
 43
0.0000001
 44
0.0000000001
 40
0.0
 40
0.0
 40
0.0
 40
0.0
 40
0.2708716632
 40
1.0
 40
1.0
 40
1.0
 40
1.0
 10
-20.3665586383
 20
9.8868081133
 30
0.0
 10
-20.366431874
 20
9.869716296
 30
0.0
 10
-20.3684704171
 20
9.8067073689
 30
0.0
 10
-20.3813507672
 20
9.7434297471
 30
0.0
 10
-20.3992373571
 20
9.7010401673
 30
0.0
  0
SPLINE
  5
33F
100
AcDbEntity
  8
0
100
AcDbSpline
 62
7
  6
CONTINUOUS
 70
0
 71
3
 72
8
 73
4
 74
0
 42
0.0000001
 43
0.0000001
 44
0.0000000001
 40
0.0
 40
0.0
 40
0.0
 40
0.0
 40
1.0
 40
1.0
 40
1.0
 40
1.0
 10
-20.3992373571
 20
9.7010401673
 30
0.0
 10
-20.4041966123
 20
9.6892871869
 30
0.0
 10
-20.4098314536
 20
9.6777901804
 30
0.0
 10
-20.4161790787
 20
9.6667251718
 30
0.0
  0
SPLINE
  5
340
100
AcDbEntity
  8
0
100
AcDbSpline
 62
7
  6
CONTINUOUS
 70
0
 71
3
 72
9
 73
5
 74
0
 42
0.0000001
 43
0.0000001
 44
0.0000000001
 40
0.0
 40
0.0
 40
0.0
 40
0.0
 40
0.2308790904
 40
1.0
 40
1.0
 40
1.0
 40
1.0
 10
-19.8027372079
 20
9.821630253
 30
0.0
 10
-19.7951100832
 20
9.8254439806
 30
0.0
 10
-19.759926819
 20
9.8379010707
 30
0.0
 10
-19.7204484565
 20
9.8317795808
 30
0.0
 10
-19.6938204069
 20
9.8218841045
 30
0.0
  0
SPLINE
  5
341
100
AcDbEntity
  8
0
100
AcDbSpline
 62
7
  6
CONTINUOUS
 70
0
 71
3
 72
8
 73
4
 74
0
 42
0.0000001
 43
0.0000001
 44
0.0000000001
 40
0.0
 40
0.0
 40
0.0
 40
0.0
 40
1.0
 40
1.0
 40
1.0
 40
1.0
 10
-19.6938204069
 20
9.8218841045
 30
0.0
 10
-19.6860288317
 20
9.8189886109
 30
0.0
 10
-19.6783980182
 20
9.8156320502
 30
0.0
 10
-19.6709633681
 20
9.8119147252
 30
0.0
  0
SPLINE
  5
342
100
AcDbEntity
  8
0
100
AcDbSpline
 62
7
  6
CONTINUOUS
 70
0
 71
3
 72
14
 73
10
 74
0
 42
0.0000001
 43
0.0000001
 44
0.0000000001
 40
0.0
 40
0.0
 40
0.0
 40
0.0
 40
0.0939385658
 40
0.1997406952
 40
0.3229341079
 40
0.4610177866
 40
0.6067006894
 40
0.7508014333
 40
1.0
 40
1.0
 40
1.0
 40
1.0
 10
-20.4273816951
 20
31.0157295707
 30
0.0
 10
-20.4873874562
 20
30.9857275389
 30
0.0
 10
-20.6347998943
 20
30.9578122642
 30
0.0
 10
-20.8615520921
 20
31.0254361657
 30
0.0
 10
-21.0777126317
 20
31.179794512
 30
0.0
 10
-21.2663578597
 20
31.4040522012
 30
0.0
 10
-21.4098946411
 20
31.6770710738
 30
0.0
 10
-21.5160088635
 20
32.0466274836
 30
0.0
 10
-21.5063830948
 20
32.348100283
 30
0.0
 10
-21.4332901381
 20
32.5103679202
 30
0.0
  0
SPLINE
  5
343
100
AcDbEntity
  8
0
100
AcDbSpline
 62
7
  6
CONTINUOUS
 70
0
 71
3
 72
11
 73
7
 74
0
 42
0.0000001
 43
0.0000001
 44
0.0000000001
 40
0.0
 40
0.0
 40
0.0
 40
0.0
 40
0.194494938
 40
0.4284689933
 40
0.7058957456
 40
1.0
 40
1.0
 40
1.0
 40
1.0
 10
-21.1518218375
 20
33.4681067657
 30
0.0
 10
-21.1791373813
 20
33.4544490376
 30
0.0
 10
-21.2524211422
 20
33.4494442847
 30
0.0
 10
-21.3511288366
 20
33.5082741125
 30
0.0
 10
-21.4315354211
 20
33.6081799989
 30
0.0
 10
-21.4655615214
 20
33.6929896266
 30
0.0
 10
-21.476052716
 20
33.7379625421
 30
0.0
  0
SPLINE
  5
344
100
AcDbEntity
  8
0
100
AcDbSpline
 62
7
  6
CONTINUOUS
 70
0
 71
3
 72
9
 73
5
 74
0
 42
0.0000001
 43
0.0000001
 44
0.0000000001
 40
0.0
 40
0.0
 40
0.0
 40
0.0
 40
0.2686177899
 40
1.0
 40
1.0
 40
1.0
 40
1.0
 10
-20.0045842021
 20
34.2790816732
 30
0.0
 10
-20.0006542117
 20
34.2873976889
 30
0.0
 10
-19.9840983098
 20
34.3173369527
 30
0.0
 10
-19.9578482183
 20
34.3424510305
 30
0.0
 10
-19.9354487325
 20
34.353651311
 30
0.0
  0
SPLINE
  5
345
100
AcDbEntity
  8
0
100
AcDbSpline
 62
7
  6
CONTINUOUS
 70
0
 71
3
 72
10
 73
6
 74
0
 42
0.0000001
 43
0.0000001
 44
0.0000000001
 40
0.0
 40
0.0
 40
0.0
 40
0.0
 40
0.215204536
 40
0.447854821
 40
1.0
 40
1.0
 40
1.0
 40
1.0
 10
-21.9463594191
 20
32.9032499452
 30
0.0
 10
-21.9618499953
 20
32.8955047071
 30
0.0
 10
-21.9980363457
 20
32.8864087426
 30
0.0
 10
-22.0790483177
 20
32.8992590163
 30
0.0
 10
-22.1328254632
 20
32.9391136939
 30
0.0
 10
-22.1635539339
 20
32.9712107104
 30
0.0
  0
SPLINE
  5
346
100
AcDbEntity
  8
0
100
AcDbSpline
 62
7
  6
CONTINUOUS
 70
0
 71
3
 72
14
 73
10
 74
0
 42
0.0000001
 43
0.0000001
 44
0.0000000001
 40
0.0
 40
0.0
 40
0.0
 40
0.0
 40
0.2259969165
 40
0.3661103784
 40
0.5135806453
 40
0.6577172476
 40
0.7889006601
 40
0.9019396578
 40
1.0
 40
1.0
 40
1.0
 40
1.0
 10
-19.4532735128
 20
31.6160705
 30
0.0
 10
-19.5075422932
 20
31.6150447867
 30
0.0
 10
-19.5935120354
 20
31.6644346316
 30
0.0
 10
-19.6695042868
 20
31.7606796923
 30
0.0
 10
-19.7150297672
 20
31.8552388295
 30
0.0
 10
-19.7375610451
 20
31.955120178
 30
0.0
 10
-19.7349172758
 20
32.0495433658
 30
0.0
 10
-19.7064333121
 20
32.12872009
 30
0.0
 10
-19.6676860859
 20
32.1654851669
 30
0.0
 10
-19.6466206943
 20
32.1760171312
 30
0.0
  0
SPLINE
  5
347
100
AcDbEntity
  8
0
100
AcDbSpline
 62
7
  6
CONTINUOUS
 70
0
 71
3
 72
12
 73
8
 74
0
 42
0.0000001
 43
0.0000001
 44
0.0000000001
 40
0.0
 40
0.0
 40
0.0
 40
0.0
 40
0.2814409663
 40
0.5631948034
 40
0.691649013
 40
0.8070568551
 40
1.0
 40
1.0
 40
1.0
 40
1.0
 10
-19.6682662558
 20
30.3783638597
 30
0.0
 10
-19.7030577614
 20
30.41432786
 30
0.0
 10
-19.7587941986
 20
30.5000867162
 30
0.0
 10
-19.7923432374
 20
30.6208527654
 30
0.0
 10
-19.7909767849
 20
30.7150755838
 30
0.0
 10
-19.7732853419
 20
30.7908285959
 30
0.0
 10
-19.7359399594
 20
30.8387894723
 30
0.0
 10
-19.7052573387
 20
30.8541306846
 30
0.0
  0
SPLINE
  5
348
100
AcDbEntity
  8
0
100
AcDbSpline
 62
7
  6
CONTINUOUS
 70
0
 71
3
 72
11
 73
7
 74
0
 42
0.0000001
 43
0.0000001
 44
0.0000000001
 40
0.0
 40
0.0
 40
0.0
 40
0.0
 40
0.2982813397
 40
0.5656937566
 40
0.7964929084
 40
1.0
 40
1.0
 40
1.0
 40
1.0
 10
-20.5524246007
 20
30.0240280602
 30
0.0
 10
-20.5601181213
 20
30.0531383311
 30
0.0
 10
-20.5692538137
 20
30.1100602999
 30
0.0
 10
-20.5625869868
 20
30.1911214507
 30
0.0
 10
-20.5348504038
 20
30.258019161
 30
0.0
 10
-20.5007417455
 20
30.2887185213
 30
0.0
 10
-20.4823676701
 20
30.2979055984
 30
0.0
  0
SPLINE
  5
349
100
AcDbEntity
  8
0
100
AcDbSpline
 62
7
  6
CONTINUOUS
 70
0
 71
3
 72
8
 73
4
 74
0
 42
0.0000001
 43
0.0000001
 44
0.0000000001
 40
0.0
 40
0.0
 40
0.0
 40
0.0
 40
1.0
 40
1.0
 40
1.0
 40
1.0
 10
-21.999522577
 20
31.5841002414
 30
0.0
 10
-22.0161686039
 20
31.5757777571
 30
0.0
 10
-22.0352224202
 20
31.5714371184
 30
0.0
 10
-22.0538307318
 20
31.5711460941
 30
0.0
  0
SPLINE
  5
34A
100
AcDbEntity
  8
0
100
AcDbSpline
 62
7
  6
CONTINUOUS
 70
0
 71
3
 72
9
 73
5
 74
0
 42
0.0000001
 43
0.0000001
 44
0.0000000001
 40
0.0
 40
0.0
 40
0.0
 40
0.0
 40
0.2695542272
 40
1.0
 40
1.0
 40
1.0
 40
1.0
 10
-21.6024158121
 20
30.7532105886
 30
0.0
 10
-21.5989085348
 20
30.7613043407
 30
0.0
 10
-21.5839730164
 20
30.7903891182
 30
0.0
 10
-21.5590801781
 20
30.8148801357
 30
0.0
 10
-21.5377004287
 20
30.8255701843
 30
0.0
  0
SPLINE
  5
34B
100
AcDbEntity
  8
0
100
AcDbSpline
 62
7
  6
CONTINUOUS
 70
0
 71
3
 72
9
 73
5
 74
0
 42
0.0000001
 43
0.0000001
 44
0.0000000001
 40
0.0
 40
0.0
 40
0.0
 40
0.0
 40
0.276974723
 40
1.0
 40
1.0
 40
1.0
 40
1.0
 10
-21.9718365732
 20
29.7317023481
 30
0.0
 10
-21.975443137
 20
29.7480034381
 30
0.0
 10
-21.9850160853
 20
29.8073111798
 30
0.0
 10
-21.9803051837
 20
29.87076483
 30
0.0
 10
-21.9633079415
 20
29.9108957
 30
0.0
  0
SPLINE
  5
34C
100
AcDbEntity
  8
0
100
AcDbSpline
 62
7
  6
CONTINUOUS
 70
0
 71
3
 72
9
 73
5
 74
0
 42
0.0000001
 43
0.0000001
 44
0.0000000001
 40
0.0
 40
0.0
 40
0.0
 40
0.0
 40
0.2421617042
 40
1.0
 40
1.0
 40
1.0
 40
1.0
 10
-21.6379807452
 20
29.4427410212
 30
0.0
 10
-21.6438644117
 20
29.439799035
 30
0.0
 10
-21.6691917614
 20
29.4296846866
 30
0.0
 10
-21.6976948902
 20
29.4288625767
 30
0.0
 10
-21.7179951759
 20
29.4322823483
 30
0.0
  0
SPLINE
  5
34D
100
AcDbEntity
  8
0
100
AcDbSpline
 62
7
  6
CONTINUOUS
 70
0
 71
3
 72
9
 73
5
 74
0
 42
0.0000001
 43
0.0000001
 44
0.0000000001
 40
0.0
 40
0.0
 40
0.0
 40
0.0
 40
0.4549032216
 40
1.0
 40
1.0
 40
1.0
 40
1.0
 10
-21.7179951759
 20
29.4322823483
 30
0.0
 10
-21.7788589392
 20
29.4425354144
 30
0.0
 10
-21.8958233237
 20
29.5340391911
 30
0.0
 10
-21.9558597857
 20
29.6594898311
 30
0.0
 10
-21.9718365732
 20
29.7317023481
 30
0.0
  0
SPLINE
  5
34E
100
AcDbEntity
  8
0
100
AcDbSpline
 62
7
  6
CONTINUOUS
 70
0
 71
3
 72
14
 73
10
 74
0
 42
0.0000001
 43
0.0000001
 44
0.0000000001
 40
0.0
 40
0.0
 40
0.0
 40
0.0
 40
0.2269528679
 40
0.3680305608
 40
0.516271369
 40
0.6606679147
 40
0.7913960253
 40
0.903293067
 40
1.0
 40
1.0
 40
1.0
 40
1.0
 10
-22.8835114943
 20
31.5586066492
 30
0.0
 10
-22.9377240505
 20
31.5578158715
 30
0.0
 10
-23.023341785
 20
31.6072684898
 30
0.0
 10
-23.1002409993
 20
31.7026902677
 30
0.0
 10
-23.1470007047
 20
31.7965364633
 30
0.0
 10
-23.1711246776
 20
31.8956072048
 30
0.0
 10
-23.1702157295
 20
31.9892272209
 30
0.0
 10
-23.1433979102
 20
32.0678223164
 30
0.0
 10
-23.1054432871
 20
32.1042616297
 30
0.0
 10
-23.0847790889
 20
32.1145930688
 30
0.0
  0
SPLINE
  5
34F
100
AcDbEntity
  8
0
100
AcDbSpline
 62
7
  6
CONTINUOUS
 70
0
 71
3
 72
9
 73
5
 74
0
 42
0.0000001
 43
0.0000001
 44
0.0000000001
 40
0.0
 40
0.0
 40
0.0
 40
0.0
 40
0.7400655457
 40
1.0
 40
1.0
 40
1.0
 40
1.0
 10
-19.9236226223
 20
28.5698146452
 30
0.0
 10
-19.9365141266
 20
28.5657969387
 30
0.0
 10
-19.9550303213
 20
28.5634130393
 30
0.0
 10
-19.9732342237
 20
28.5646691694
 30
0.0
 10
-19.9779459754
 20
28.5652101389
 30
0.0
  0
SPLINE
  5
350
100
AcDbEntity
  8
0
100
AcDbSpline
 62
7
  6
CONTINUOUS
 70
0
 71
3
 72
9
 73
5
 74
0
 42
0.0000001
 43
0.0000001
 44
0.0000000001
 40
0.0
 40
0.0
 40
0.0
 40
0.0
 40
0.2167834131
 40
1.0
 40
1.0
 40
1.0
 40
1.0
 10
-19.9779459754
 20
28.5652101389
 30
0.0
 10
-19.9936612528
 20
28.5670144541
 30
0.0
 10
-20.06487201
 20
28.5866700352
 30
0.0
 10
-20.1221867605
 20
28.6400124906
 30
0.0
 10
-20.1566506943
 20
28.6856024081
 30
0.0
  0
SPLINE
  5
351
100
AcDbEntity
  8
0
100
AcDbSpline
 62
7
  6
CONTINUOUS
 70
0
 71
3
 72
8
 73
4
 74
0
 42
0.0000001
 43
0.0000001
 44
0.0000000001
 40
0.0
 40
0.0
 40
0.0
 40
0.0
 40
1.0
 40
1.0
 40
1.0
 40
1.0
 10
-20.1566506943
 20
28.6856024081
 30
0.0
 10
-20.192244271
 20
28.7326866509
 30
0.0
 10
-20.2191470684
 20
28.7875947262
 30
0.0
 10
-20.2347566766
 20
28.8445172064
 30
0.0
  0
SPLINE
  5
352
100
AcDbEntity
  8
0
100
AcDbSpline
 62
7
  6
CONTINUOUS
 70
0
 71
3
 72
11
 73
7
 74
0
 42
0.0000001
 43
0.0000001
 44
0.0000000001
 40
0.0
 40
0.0
 40
0.0
 40
0.0
 40
0.2796481166
 40
0.5607745088
 40
0.8043893523
 40
1.0
 40
1.0
 40
1.0
 40
1.0
 10
-22.9594941185
 20
33.8039950414
 30
0.0
 10
-22.9940075544
 20
33.8401667807
 30
0.0
 10
-23.0490911201
 20
33.9268690487
 30
0.0
 10
-23.0850269767
 20
34.0682672894
 30
0.0
 10
-23.0731303759
 20
34.2003878562
 30
0.0
 10
-23.0198377564
 20
34.2680857128
 30
0.0
 10
-22.9885583119
 20
34.2837253232
 30
0.0
  0
SPLINE
  5
353
100
AcDbEntity
  8
0
100
AcDbSpline
 62
7
  6
CONTINUOUS
 70
0
 71
3
 72
11
 73
7
 74
0
 42
0.0000001
 43
0.0000001
 44
0.0000000001
 40
0.0
 40
0.0
 40
0.0
 40
0.0
 40
0.2934205008
 40
0.5598216408
 40
0.7930457423
 40
1.0
 40
1.0
 40
1.0
 40
1.0
 10
-21.7503629005
 20
34.9391522558
 30
0.0
 10
-21.757020935
 20
34.9689461973
 30
0.0
 10
-21.7639159438
 20
35.0273612188
 30
0.0
 10
-21.7535359506
 20
35.1101786174
 30
0.0
 10
-21.7223627274
 20
35.1784108549
 30
0.0
 10
-21.6865106148
 20
35.209927665
 30
0.0
 10
-21.6672513104
 20
35.2195571193
 30
0.0
  0
SPLINE
  5
354
100
AcDbEntity
  8
0
100
AcDbSpline
 62
7
  6
CONTINUOUS
 70
0
 71
3
 72
9
 73
5
 74
0
 42
0.0000001
 43
0.0000001
 44
0.0000000001
 40
0.0
 40
0.0
 40
0.0
 40
0.0
 40
0.5204899896
 40
1.0
 40
1.0
 40
1.0
 40
1.0
 10
-21.4332901381
 20
32.5103679202
 30
0.0
 10
-21.410574124
 20
32.5607978672
 30
0.0
 10
-21.3535939045
 20
32.6528016837
 30
0.0
 10
-21.2675403156
 20
32.7199154716
 30
0.0
 10
-21.2219642767
 20
32.7427028154
 30
0.0
  0
SPLINE
  5
355
100
AcDbEntity
  8
0
100
AcDbSpline
 62
7
  6
CONTINUOUS
 70
0
 71
3
 72
11
 73
7
 74
0
 42
0.0000001
 43
0.0000001
 44
0.0000000001
 40
0.0
 40
0.0
 40
0.0
 40
0.0
 40
0.2121629779
 40
0.4433586495
 40
0.7056337507
 40
1.0
 40
1.0
 40
1.0
 40
1.0
 10
-18.6483929636
 20
29.4809881271
 30
0.0
 10
-18.6636730441
 20
29.4733481321
 30
0.0
 10
-18.6995657528
 20
29.4645051218
 30
0.0
 10
-18.7567780272
 20
29.4738685482
 30
0.0
 10
-18.8140138863
 20
29.5029043669
 30
0.0
 10
-18.8483830335
 20
29.5322884406
 30
0.0
 10
-18.8648917204
 20
29.5492967658
 30
0.0
  0
SPLINE
  5
356
100
AcDbEntity
  8
0
100
AcDbSpline
 62
7
  6
CONTINUOUS
 70
0
 71
3
 72
8
 73
4
 74
0
 42
0.0000001
 43
0.0000001
 44
0.0000000001
 40
0.0
 40
0.0
 40
0.0
 40
0.0
 40
1.0
 40
1.0
 40
1.0
 40
1.0
 10
-18.5611541434
 20
31.6456294018
 30
0.0
 10
-18.5780262271
 20
31.6371939397
 30
0.0
 10
-18.5972988541
 20
31.6327032193
 30
0.0
 10
-18.6161584096
 20
31.6323271926
 30
0.0
  0
SPLINE
  5
357
100
AcDbEntity
  8
0
100
AcDbSpline
 62
7
  6
CONTINUOUS
 70
0
 71
3
 72
9
 73
5
 74
0
 42
0.0000001
 43
0.0000001
 44
0.0000000001
 40
0.0
 40
0.0
 40
0.0
 40
0.0
 40
0.7411506447
 40
1.0
 40
1.0
 40
1.0
 40
1.0
 10
-20.0964642792
 20
32.9405183079
 30
0.0
 10
-20.11256545
 20
32.9324676317
 30
0.0
 10
-20.1370849206
 20
32.9263889378
 30
0.0
 10
-20.1613817
 20
32.9270310719
 30
0.0
 10
-20.1676449214
 20
32.9275791175
 30
0.0
  0
SPLINE
  5
358
100
AcDbEntity
  8
0
100
AcDbSpline
 62
7
  6
CONTINUOUS
 70
0
 71
3
 72
11
 73
7
 74
0
 42
0.0000001
 43
0.0000001
 44
0.0000000001
 40
0.0
 40
0.0
 40
0.0
 40
0.0
 40
0.2176827236
 40
0.4847403996
 40
0.7611684956
 40
1.0
 40
1.0
 40
1.0
 40
1.0
 10
-20.1676449214
 20
32.9275791175
 30
0.0
 10
-20.2113682223
 20
32.931405002
 30
0.0
 10
-20.3034669121
 20
32.9817544262
 30
0.0
 10
-20.3942350992
 20
33.1090103918
 30
0.0
 10
-20.439813979
 20
33.262621968
 30
0.0
 10
-20.429418937
 20
33.3715457643
 30
0.0
 10
-20.408849588
 20
33.4150860645
 30
0.0
  0
SPLINE
  5
359
100
AcDbEntity
  8
0
100
AcDbSpline
 62
7
  6
CONTINUOUS
 70
0
 71
3
 72
9
 73
5
 74
0
 42
0.0000001
 43
0.0000001
 44
0.0000000001
 40
0.0
 40
0.0
 40
0.0
 40
0.0
 40
0.2693964481
 40
1.0
 40
1.0
 40
1.0
 40
1.0
 10
-20.0287545116
 20
33.0143078979
 30
0.0
 10
-20.0325003133
 20
33.0060249597
 30
0.0
 10
-20.0484932851
 20
32.9763239229
 30
0.0
 10
-20.074413493
 20
32.9515438254
 30
0.0
 10
-20.0964642792
 20
32.9405183079
 30
0.0
  0
SPLINE
  5
35A
100
AcDbEntity
  8
0
100
AcDbSpline
 62
7
  6
CONTINUOUS
 70
0
 71
3
 72
15
 73
11
 74
0
 42
0.0000001
 43
0.0000001
 44
0.0000000001
 40
0.0
 40
0.0
 40
0.0
 40
0.0
 40
0.105587091
 40
0.2291469863
 40
0.3684383124
 40
0.5151713173
 40
0.6587663649
 40
0.7895868946
 40
0.9023208848
 40
1.0
 40
1.0
 40
1.0
 40
1.0
 10
-18.7523943495
 20
32.2066295195
 30
0.0
 10
-18.7269144012
 20
32.2071680775
 30
0.0
 10
-18.6711983009
 20
32.1928955574
 30
0.0
 10
-18.5982073806
 20
32.1398262481
 30
0.0
 10
-18.5360794045
 20
32.0616031746
 30
0.0
 10
-18.4915910691
 20
31.9669807141
 30
0.0
 10
-18.4695090022
 20
31.8668068121
 30
0.0
 10
-18.4725985413
 20
31.7722532631
 30
0.0
 10
-18.5012663361
 20
31.6930017406
 30
0.0
 10
-18.5400660465
 20
31.6561727256
 30
0.0
 10
-18.5611541434
 20
31.6456294018
 30
0.0
  0
SPLINE
  5
35B
100
AcDbEntity
  8
0
100
AcDbSpline
 62
7
  6
CONTINUOUS
 70
0
 71
3
 72
12
 73
8
 74
0
 42
0.0000001
 43
0.0000001
 44
0.0000000001
 40
0.0
 40
0.0
 40
0.0
 40
0.0
 40
0.2820928445
 40
0.5644085359
 40
0.6929126957
 40
0.8081168533
 40
1.0
 40
1.0
 40
1.0
 40
1.0
 10
-18.6871242311
 20
29.9558848573
 30
0.0
 10
-18.6523469471
 20
29.9199165125
 30
0.0
 10
-18.5966553874
 20
29.8341788057
 30
0.0
 10
-18.5628997356
 20
29.7135984504
 30
0.0
 10
-18.5638649186
 20
29.6195336463
 30
0.0
 10
-18.5810300095
 20
29.5440948165
 30
0.0
 10
-18.6179535399
 20
29.4962077486
 30
0.0
 10
-18.6483929636
 20
29.4809881271
 30
0.0
  0
SPLINE
  5
35C
100
AcDbEntity
  8
0
100
AcDbSpline
 62
7
  6
CONTINUOUS
 70
0
 71
3
 72
8
 73
4
 74
0
 42
0.0000001
 43
0.0000001
 44
0.0000000001
 40
0.0
 40
0.0
 40
0.0
 40
0.0
 40
1.0
 40
1.0
 40
1.0
 40
1.0
 10
-23.0540581494
 20
32.1250786456
 30
0.0
 10
-23.0463006578
 20
32.1266202223
 30
0.0
 10
-23.0383681389
 20
32.1274277142
 30
0.0
 10
-23.0304599464
 20
32.1275527151
 30
0.0
  0
SPLINE
  5
35D
100
AcDbEntity
  8
0
100
AcDbSpline
 62
7
  6
CONTINUOUS
 70
0
 71
3
 72
8
 73
4
 74
0
 42
0.0000001
 43
0.0000001
 44
0.0000000001
 40
0.0
 40
0.0
 40
0.0
 40
0.0
 40
1.0
 40
1.0
 40
1.0
 40
1.0
 10
-19.8418391495
 20
28.6508238012
 30
0.0
 10
-19.8455219703
 20
28.6417588113
 30
0.0
 10
-19.8499263808
 20
28.6329409073
 30
0.0
 10
-19.8551023333
 20
28.6246374908
 30
0.0
  0
SPLINE
  5
35E
100
AcDbEntity
  8
0
100
AcDbSpline
 62
7
  6
CONTINUOUS
 70
0
 71
3
 72
8
 73
4
 74
0
 42
0.0000001
 43
0.0000001
 44
0.0000000001
 40
0.0
 40
0.0
 40
0.0
 40
0.0
 40
1.0
 40
1.0
 40
1.0
 40
1.0
 10
-19.8551023333
 20
28.6246374908
 30
0.0
 10
-19.858912238
 20
28.6185255286
 30
0.0
 10
-19.8631610254
 20
28.6126606905
 30
0.0
 10
-19.8678353945
 20
28.6071814817
 30
0.0
  0
SPLINE
  5
35F
100
AcDbEntity
  8
0
100
AcDbSpline
 62
7
  6
CONTINUOUS
 70
0
 71
3
 72
8
 73
4
 74
0
 42
0.0000001
 43
0.0000001
 44
0.0000000001
 40
0.0
 40
0.0
 40
0.0
 40
0.0
 40
1.0
 40
1.0
 40
1.0
 40
1.0
 10
-19.8678353945
 20
28.6071814817
 30
0.0
 10
-19.8722593447
 20
28.6019958094
 30
0.0
 10
-19.8770911376
 20
28.597127438
 30
0.0
 10
-19.8822775993
 20
28.5927044132
 30
0.0
  0
SPLINE
  5
360
100
AcDbEntity
  8
0
100
AcDbSpline
 62
7
  6
CONTINUOUS
 70
0
 71
3
 72
8
 73
4
 74
0
 42
0.0000001
 43
0.0000001
 44
0.0000000001
 40
0.0
 40
0.0
 40
0.0
 40
0.0
 40
1.0
 40
1.0
 40
1.0
 40
1.0
 10
-19.8822775993
 20
28.5927044132
 30
0.0
 10
-19.8895530646
 20
28.586499882
 30
0.0
 10
-19.8976224752
 20
28.5811130083
 30
0.0
 10
-19.9061748863
 20
28.5768369274
 30
0.0
  0
SPLINE
  5
361
100
AcDbEntity
  8
0
100
AcDbSpline
 62
7
  6
CONTINUOUS
 70
0
 71
3
 72
9
 73
5
 74
0
 42
0.0000001
 43
0.0000001
 44
0.0000000001
 40
0.0
 40
0.0
 40
0.0
 40
0.0
 40
0.2692543305
 40
1.0
 40
1.0
 40
1.0
 40
1.0
 10
-19.8395316682
 20
28.8490075644
 30
0.0
 10
-19.835687575
 20
28.8348938483
 30
0.0
 10
-19.8239902514
 20
28.7819106609
 30
0.0
 10
-19.822641552
 20
28.7258804643
 30
0.0
 10
-19.8308791542
 20
28.6870451022
 30
0.0
  0
SPLINE
  5
362
100
AcDbEntity
  8
0
100
AcDbSpline
 62
7
  6
CONTINUOUS
 70
0
 71
3
 72
9
 73
5
 74
0
 42
0.0000001
 43
0.0000001
 44
0.0000000001
 40
0.0
 40
0.0
 40
0.0
 40
0.0
 40
0.2699798597
 40
1.0
 40
1.0
 40
1.0
 40
1.0
 10
-21.5745944625
 20
29.5144360993
 30
0.0
 10
-21.5779799471
 20
29.5064085758
 30
0.0
 10
-21.5924348401
 20
29.4775906989
 30
0.0
 10
-21.6169103641
 20
29.4532767595
 30
0.0
 10
-21.6379807452
 20
29.4427410212
 30
0.0
  0
SPLINE
  5
363
100
AcDbEntity
  8
0
100
AcDbSpline
 62
7
  6
CONTINUOUS
 70
0
 71
3
 72
14
 73
10
 74
0
 42
0.0000001
 43
0.0000001
 44
0.0000000001
 40
0.0
 40
0.0
 40
0.0
 40
0.0
 40
0.2270675327
 40
0.3679337751
 40
0.5160285484
 40
0.6604285993
 40
0.7912765802
 40
0.9032913516
 40
1.0
 40
1.0
 40
1.0
 40
1.0
 10
-22.1981719428
 20
32.1411442667
 30
0.0
 10
-22.1439270437
 20
32.1418571017
 30
0.0
 10
-22.0583003915
 20
32.0923091168
 30
0.0
 10
-21.9820024341
 20
31.9964216329
 30
0.0
 10
-21.9359289617
 20
31.9023276553
 30
0.0
 10
-21.9124699614
 20
31.8031011714
 30
0.0
 10
-21.9138575662
 20
31.7094404736
 30
0.0
 10
-21.9408847922
 20
31.6308809682
 30
0.0
 10
-21.9788565407
 20
31.5944326028
 30
0.0
 10
-21.999522577
 20
31.5841002414
 30
0.0
  0
SPLINE
  5
364
100
AcDbEntity
  8
0
100
AcDbSpline
 62
7
  6
CONTINUOUS
 70
0
 71
3
 72
9
 73
5
 74
0
 42
0.0000001
 43
0.0000001
 44
0.0000000001
 40
0.0
 40
0.0
 40
0.0
 40
0.0
 40
0.7371857985
 40
1.0
 40
1.0
 40
1.0
 40
1.0
 10
-21.5377004287
 20
30.8255701843
 30
0.0
 10
-21.5202467388
 20
30.8342971713
 30
0.0
 10
-21.4930511566
 20
30.8400374833
 30
0.0
 10
-21.4666662807
 20
30.8378272216
 30
0.0
 10
-21.45978375
 20
30.8368127357
 30
0.0
  0
SPLINE
  5
365
100
AcDbEntity
  8
0
100
AcDbSpline
 62
7
  6
CONTINUOUS
 70
0
 71
3
 72
11
 73
7
 74
0
 42
0.0000001
 43
0.0000001
 44
0.0000000001
 40
0.0
 40
0.0
 40
0.0
 40
0.0
 40
0.2218451299
 40
0.4225144351
 40
0.633734006
 40
1.0
 40
1.0
 40
1.0
 40
1.0
 10
-21.45978375
 20
30.8368127357
 30
0.0
 10
-21.4164724515
 20
30.8304286454
 30
0.0
 10
-21.3398333023
 20
30.7854321447
 30
0.0
 10
-21.2607470998
 20
30.687240774
 30
0.0
 10
-21.197072144
 20
30.5476892528
 30
0.0
 10
-21.1871558864
 20
30.4220762974
 30
0.0
 10
-21.2157863945
 20
30.3557089571
 30
0.0
  0
SPLINE
  5
366
100
AcDbEntity
  8
0
100
AcDbSpline
 62
7
  6
CONTINUOUS
 70
0
 71
3
 72
11
 73
7
 74
0
 42
0.0000001
 43
0.0000001
 44
0.0000000001
 40
0.0
 40
0.0
 40
0.0
 40
0.0
 40
0.2851301441
 40
0.5650044915
 40
0.8054867606
 40
1.0
 40
1.0
 40
1.0
 40
1.0
 10
-21.9570188957
 20
33.3591812531
 30
0.0
 10
-21.9267668694
 20
33.3218997426
 30
0.0
 10
-21.8794974847
 20
33.2370777332
 30
0.0
 10
-21.8510887358
 20
33.1025627855
 30
0.0
 10
-21.8663884027
 20
32.9796458119
 30
0.0
 10
-21.9170642434
 20
32.9178974385
 30
0.0
 10
-21.9463594191
 20
32.9032499452
 30
0.0
  0
SPLINE
  5
367
100
AcDbEntity
  8
0
100
AcDbSpline
 62
7
  6
CONTINUOUS
 70
0
 71
3
 72
14
 73
10
 74
0
 42
0.0000001
 43
0.0000001
 44
0.0000000001
 40
0.0
 40
0.0
 40
0.0
 40
0.0
 40
0.095459796
 40
0.2034154097
 40
0.3278065017
 40
0.4657904146
 40
0.7514286707
 40
0.8836660108
 40
1.0
 40
1.0
 40
1.0
 40
1.0
 10
-21.1823918669
 20
32.7598365286
 30
0.0
 10
-21.1195715
 20
32.7830207835
 30
0.0
 10
-20.9709559845
 20
32.7961255157
 30
0.0
 10
-20.750333284
 20
32.7152488472
 30
0.0
 10
-20.5430279528
 20
32.5532539665
 30
0.0
 10
-20.3046444614
 20
32.2487541055
 30
0.0
 10
-20.1621238414
 20
31.8712324644
 30
0.0
 10
-20.1463626378
 20
31.4944724162
 30
0.0
 10
-20.1861448278
 20
31.3210215151
 30
0.0
 10
-20.2192857536
 20
31.2464495052
 30
0.0
  0
SPLINE
  5
368
100
AcDbEntity
  8
0
100
AcDbSpline
 62
7
  6
CONTINUOUS
 70
0
 71
3
 72
9
 73
5
 74
0
 42
0.0000001
 43
0.0000001
 44
0.0000000001
 40
0.0
 40
0.0
 40
0.0
 40
0.0
 40
0.5567750277
 40
1.0
 40
1.0
 40
1.0
 40
1.0
 10
-21.0661902107
 20
33.7155772976
 30
0.0
 10
-21.0588320651
 20
33.6680901888
 30
0.0
 10
-21.0580938916
 20
33.5793660651
 30
0.0
 10
-21.1056869945
 20
33.4980130764
 30
0.0
 10
-21.1373659692
 20
33.4765705984
 30
0.0
  0
SPLINE
  5
369
100
AcDbEntity
  8
0
100
AcDbSpline
 62
7
  6
CONTINUOUS
 70
0
 71
3
 72
11
 73
7
 74
0
 42
0.0000001
 43
0.0000001
 44
0.0000000001
 40
0.0
 40
0.0
 40
0.0
 40
0.0
 40
0.1959958113
 40
0.4296576281
 40
0.7062229726
 40
1.0
 40
1.0
 40
1.0
 40
1.0
 10
-21.6672513104
 20
35.2195571193
 30
0.0
 10
-21.6396815695
 20
35.2333417063
 30
0.0
 10
-21.5661423316
 20
35.2388758662
 30
0.0
 10
-21.4670403264
 20
35.1798767178
 30
0.0
 10
-21.3874547727
 20
35.0792669384
 30
0.0
 10
-21.3544145827
 20
34.9941086053
 30
0.0
 10
-21.3444219881
 20
34.9490005658
 30
0.0
  0
SPLINE
  5
36A
100
AcDbEntity
  8
0
100
AcDbSpline
 62
7
  6
CONTINUOUS
 70
0
 71
3
 72
11
 73
7
 74
0
 42
0.0000001
 43
0.0000001
 44
0.0000000001
 40
0.0
 40
0.0
 40
0.0
 40
0.0
 40
0.1941521764
 40
0.425652418
 40
0.7009259544
 40
1.0
 40
1.0
 40
1.0
 40
1.0
 10
-20.4823676701
 20
30.2979055984
 30
0.0
 10
-20.4582304962
 20
30.309974237
 30
0.0
 10
-20.3947395706
 20
30.3163053528
 30
0.0
 10
-20.3047008864
 20
30.2716427785
 30
0.0
 10
-20.2256345591
 20
30.1902967348
 30
0.0
 10
-20.1868352836
 20
30.1192496581
 30
0.0
 10
-20.1717178738
 20
30.0805260893
 30
0.0
  0
SPLINE
  5
36B
100
AcDbEntity
  8
0
100
AcDbSpline
 62
7
  6
CONTINUOUS
 70
0
 71
3
 72
9
 73
5
 74
0
 42
0.0000001
 43
0.0000001
 44
0.0000000001
 40
0.0
 40
0.0
 40
0.0
 40
0.0
 40
0.5214608208
 40
1.0
 40
1.0
 40
1.0
 40
1.0
 10
-20.2192857536
 20
31.2464495052
 30
0.0
 10
-20.241554082
 20
31.1963424555
 30
0.0
 10
-20.2973675498
 20
31.1049440349
 30
0.0
 10
-20.3823746269
 20
31.0382324682
 30
0.0
 10
-20.4273816951
 20
31.0157295707
 30
0.0
  0
SPLINE
  5
36C
100
AcDbEntity
  8
0
100
AcDbSpline
 62
7
  6
CONTINUOUS
 70
0
 71
3
 72
9
 73
5
 74
0
 42
0.0000001
 43
0.0000001
 44
0.0000000001
 40
0.0
 40
0.0
 40
0.0
 40
0.0
 40
0.4486855581
 40
1.0
 40
1.0
 40
1.0
 40
1.0
 10
-19.7052573387
 20
30.8541306846
 30
0.0
 10
-19.6771040598
 20
30.868207234
 30
0.0
 10
-19.6001925537
 20
30.871567654
 30
0.0
 10
-19.5387725139
 20
30.8318506074
 30
0.0
 10
-19.5096996665
 20
30.8063438096
 30
0.0
  0
SPLINE
  5
36D
100
AcDbEntity
  8
0
100
AcDbSpline
 62
7
  6
CONTINUOUS
 70
0
 71
3
 72
8
 73
4
 74
0
 42
0.0000001
 43
0.0000001
 44
0.0000000001
 40
0.0
 40
0.0
 40
0.0
 40
0.0
 40
1.0
 40
1.0
 40
1.0
 40
1.0
 10
-19.6154499212
 20
32.1867271989
 30
0.0
 10
-19.6076134986
 20
32.1883126606
 30
0.0
 10
-19.5995989866
 20
32.1891641582
 30
0.0
 10
-19.5916054027
 20
32.1893248519
 30
0.0
  0
SPLINE
  5
36E
100
AcDbEntity
  8
0
100
AcDbSpline
 62
7
  6
CONTINUOUS
 70
0
 71
3
 72
9
 73
5
 74
0
 42
0.0000001
 43
0.0000001
 44
0.0000000001
 40
0.0
 40
0.0
 40
0.0
 40
0.0
 40
0.7417758696
 40
1.0
 40
1.0
 40
1.0
 40
1.0
 10
-19.9354487325
 20
34.353651311
 30
0.0
 10
-19.9190340316
 20
34.3618590553
 30
0.0
 10
-19.8940547316
 20
34.3680641962
 30
0.0
 10
-19.8693056228
 20
34.3673732713
 30
0.0
 10
-19.8629419117
 20
34.3668081355
 30
0.0
  0
SPLINE
  5
36F
100
AcDbEntity
  8
0
100
AcDbSpline
 62
7
  6
CONTINUOUS
 70
0
 71
3
 72
11
 73
7
 74
0
 42
0.0000001
 43
0.0000001
 44
0.0000000001
 40
0.0
 40
0.0
 40
0.0
 40
0.0
 40
0.2176664432
 40
0.4839431781
 40
0.7602521779
 40
1.0
 40
1.0
 40
1.0
 40
1.0
 10
-19.8629419117
 20
34.3668081355
 30
0.0
 10
-19.8191894362
 20
34.3629226523
 30
0.0
 10
-19.7270839832
 20
34.312482913
 30
0.0
 10
-19.6377328002
 20
34.1841655125
 30
0.0
 10
-19.5938213667
 20
34.0297482323
 30
0.0
 10
-19.6059814848
 20
33.9210375669
 30
0.0
 10
-19.6265866276
 20
33.8772641192
 30
0.0
  0
SPLINE
  5
370
100
AcDbEntity
  8
0
100
AcDbSpline
 62
7
  6
CONTINUOUS
 70
0
 71
3
 72
10
 73
6
 74
0
 42
0.0000001
 43
0.0000001
 44
0.0000000001
 40
0.0
 40
0.0
 40
0.0
 40
0.0
 40
0.2162719033
 40
0.4492094234
 40
1.0
 40
1.0
 40
1.0
 40
1.0
 10
-22.9885583119
 20
34.2837253232
 30
0.0
 10
-22.9729626394
 20
34.2915231036
 30
0.0
 10
-22.9366349143
 20
34.300741251
 30
0.0
 10
-22.8554253162
 20
34.2881034864
 30
0.0
 10
-22.8016064265
 20
34.2481268629
 30
0.0
 10
-22.7710141141
 20
34.2159394017
 30
0.0
  0
SPLINE
  5
371
100
AcDbEntity
  8
ASSI
100
AcDbSpline
 62
7
  6
CONTINUOUS
 70
0
 71
3
 72
11
 73
7
 74
0
 42
0.0000001
 43
0.0000001
 44
0.0000000001
 40
0.0
 40
0.0
 40
0.0
 40
0.0
 40
0.2608883405
 40
0.5122985089
 40
0.7574432706
 40
1.0
 40
1.0
 40
1.0
 40
1.0
 10
-20.4161790787
 20
9.6667251718
 30
0.0
 10
-20.422301808
 20
9.6560521955
 30
0.0
 10
-20.4356637335
 20
9.6358195587
 30
0.0
 10
-20.459404967
 20
9.6089619678
 30
0.0
 10
-20.4862275362
 20
9.586492619
 30
0.0
 10
-20.5060314688
 20
9.5745772165
 30
0.0
 10
-20.5162636238
 20
9.5694611497
 30
0.0
  0
SPLINE
  5
372
100
AcDbEntity
  8
ASSI
100
AcDbSpline
 62
7
  6
CONTINUOUS
 70
0
 71
3
 72
9
 73
5
 74
0
 42
0.0000001
 43
0.0000001
 44
0.0000000001
 40
0.0
 40
0.0
 40
0.0
 40
0.0
 40
0.5124019602
 40
1.0
 40
1.0
 40
1.0
 40
1.0
 10
-20.1011849285
 20
10.8442435455
 30
0.0
 10
-20.106917831
 20
10.8344867188
 30
0.0
 10
-20.120515156
 20
10.8166884098
 30
0.0
 10
-20.1388170941
 20
10.8036330432
 30
0.0
 10
-20.1484488002
 20
10.7988170346
 30
0.0
  0
SPLINE
  5
373
100
AcDbEntity
  8
ASSI
100
AcDbSpline
 62
7
  6
CONTINUOUS
 70
0
 71
3
 72
9
 73
5
 74
0
 42
0.0000001
 43
0.0000001
 44
0.0000000001
 40
0.0
 40
0.0
 40
0.0
 40
0.0
 40
0.5122089716
 40
1.0
 40
1.0
 40
1.0
 40
1.0
 10
-21.3426059243
 20
8.677389611
 30
0.0
 10
-21.347925257
 20
8.6678552013
 30
0.0
 10
-21.3607480261
 20
8.65041936
 30
0.0
 10
-21.3783732416
 20
8.6377114638
 30
0.0
 10
-21.3876729348
 20
8.6330615308
 30
0.0
  0
SPLINE
  5
374
100
AcDbEntity
  8
ASSI
100
AcDbSpline
 62
7
  6
CONTINUOUS
 70
0
 71
3
 72
9
 73
5
 74
0
 42
0.0000001
 43
0.0000001
 44
0.0000000001
 40
0.0
 40
0.0
 40
0.0
 40
0.0
 40
0.5122083398
 40
1.0
 40
1.0
 40
1.0
 40
1.0
 10
-19.751610594
 20
7.8818948869
 30
0.0
 10
-19.756930608
 20
7.8723588039
 30
0.0
 10
-19.7697554998
 20
7.8549199102
 30
0.0
 10
-19.7873845226
 20
7.8422109277
 30
0.0
 10
-19.7966861078
 20
7.8375609011
 30
0.0
  0
SPLINE
  5
375
100
AcDbEntity
  8
ASSI
100
AcDbSpline
 62
7
  6
CONTINUOUS
 70
0
 71
3
 72
13
 73
9
 74
0
 42
0.0000001
 43
0.0000001
 44
0.0000000001
 40
0.0
 40
0.0
 40
0.0
 40
0.0
 40
0.2906404223
 40
0.4282351331
 40
0.5589258204
 40
0.6817373845
 40
0.796220905
 40
1.0
 40
1.0
 40
1.0
 40
1.0
 10
-19.7674701461
 20
8.1337762086
 30
0.0
 10
-19.7572665475
 20
8.1107243229
 30
0.0
 10
-19.7448138363
 20
8.0754949043
 30
0.0
 10
-19.7346562457
 20
8.0280415472
 30
0.0
 10
-19.7306686044
 20
7.994301036
 30
0.0
 10
-19.7303080461
 20
7.9622973601
 30
0.0
 10
-19.7344262732
 20
7.9242520632
 30
0.0
 10
-19.7429302361
 20
7.8972916804
 30
0.0
 10
-19.751610594
 20
7.8818948869
 30
0.0
  0
SPLINE
  5
376
100
AcDbEntity
  8
ASSI
100
AcDbSpline
 62
7
  6
CONTINUOUS
 70
0
 71
3
 72
11
 73
7
 74
0
 42
0.0000001
 43
0.0000001
 44
0.0000000001
 40
0.0
 40
0.0
 40
0.0
 40
0.0
 40
0.2227852305
 40
0.4589234436
 40
0.7165980625
 40
1.0
 40
1.0
 40
1.0
 40
1.0
 10
-19.8027365905
 20
9.8216305599
 30
0.0
 10
-19.7936562862
 20
9.8261708347
 30
0.0
 10
-19.7734432772
 20
9.8327393327
 30
0.0
 10
-19.7404740133
 20
9.8339917324
 30
0.0
 10
-19.7054735765
 20
9.8270689366
 30
0.0
 10
-19.6825143572
 20
9.8176902197
 30
0.0
 10
-19.6709633681
 20
9.8119147252
 30
0.0
  0
SPLINE
  5
377
100
AcDbEntity
  8
ASSI
100
AcDbSpline
 62
7
  6
CONTINUOUS
 70
0
 71
3
 72
16
 73
12
 74
0
 42
0.0000001
 43
0.0000001
 44
0.0000000001
 40
0.0
 40
0.0
 40
0.0
 40
0.0
 40
0.0439080433
 40
0.0891300617
 40
0.1863634494
 40
0.2962464771
 40
0.419765929
 40
0.5554588859
 40
0.7002176637
 40
0.8499303561
 40
1.0
 40
1.0
 40
1.0
 40
1.0
 10
-20.3271475931
 20
8.9052910286
 30
0.0
 10
-20.3215061424
 20
8.9081117536
 30
0.0
 10
-20.3094829401
 20
8.912761148
 30
0.0
 10
-20.2830610991
 20
8.9177823104
 30
0.0
 10
-20.2462807231
 20
8.9152257704
 30
0.0
 10
-20.2010511599
 20
8.8994849399
 30
0.0
 10
-20.1552846109
 20
8.8721298575
 30
0.0
 10
-20.1108902124
 20
8.834418227
 30
0.0
 10
-20.0697621381
 20
8.7880525457
 30
0.0
 10
-20.033733538
 20
8.735139587
 30
0.0
 10
-20.0139903604
 20
8.696719866
 30
0.0
 10
-20.0053812848
 20
8.6769562271
 30
0.0
  0
SPLINE
  5
378
100
AcDbEntity
  8
ASSI
100
AcDbSpline
 62
7
  6
CONTINUOUS
 70
0
 71
3
 72
22
 73
18
 74
0
 42
0.0000001
 43
0.0000001
 44
0.0000000001
 40
0.0
 40
0.0
 40
0.0
 40
0.0
 40
0.0441832609
 40
0.0912619364
 40
0.1429212671
 40
0.2000101767
 40
0.2625499003
 40
0.329982907
 40
0.4013390384
 40
0.4753556538
 40
0.5506061648
 40
0.625582064
 40
0.768627572
 40
0.834384106
 40
0.8950340035
 40
0.950197478
 40
1.0
 40
1.0
 40
1.0
 40
1.0
 10
-21.4941316467
 20
9.4885038175
 30
0.0
 10
-21.4850149181
 20
9.493062195
 30
0.0
 10
-21.4646356309
 20
9.499620233
 30
0.0
 10
-21.4313334208
 20
9.500648916
 30
0.0
 10
-21.395859011
 20
9.493316003
 30
0.0
 10
-21.3592419549
 20
9.4779422427
 30
0.0
 10
-21.3224404502
 20
9.4551221687
 30
0.0
 10
-21.2864782753
 20
9.4255415954
 30
0.0
 10
-21.2523935852
 20
9.390068888
 30
0.0
 10
-21.2211610621
 20
9.349771677
 30
0.0
 10
-21.1936982779
 20
9.3058179004
 30
0.0
 10
-21.1636866513
 20
9.2451138847
 30
0.0
 10
-21.1434664393
 20
9.1821718413
 30
0.0
 10
-21.1355205715
 20
9.1203726318
 30
0.0
 10
-21.1359725831
 20
9.0783215564
 30
0.0
 10
-21.1426401244
 20
9.0405137849
 30
0.0
 10
-21.1517540292
 20
9.0177805663
 30
0.0
 10
-21.1574835516
 20
9.0078219965
 30
0.0
  0
SPLINE
  5
379
100
AcDbEntity
  8
ASSI
100
AcDbSpline
 62
7
  6
CONTINUOUS
 70
0
 71
3
 72
11
 73
7
 74
0
 42
0.0000001
 43
0.0000001
 44
0.0000000001
 40
0.0
 40
0.0
 40
0.0
 40
0.0
 40
0.2227853019
 40
0.4589238427
 40
0.7165985867
 40
1.0
 40
1.0
 40
1.0
 40
1.0
 10
-22.5604560993
 20
11.2004923549
 30
0.0
 10
-22.5513758414
 20
11.2050323546
 30
0.0
 10
-22.5311630396
 20
11.2116003596
 30
0.0
 10
-22.4981943002
 20
11.212852348
 30
0.0
 10
-22.4631944976
 20
11.2059294705
 30
0.0
 10
-22.4402356927
 20
11.1965508875
 30
0.0
 10
-22.4286849161
 20
11.1907754992
 30
0.0
  0
SPLINE
  5
37A
100
AcDbEntity
  8
ASSI
100
AcDbSpline
 62
7
  6
CONTINUOUS
 70
0
 71
3
 72
21
 73
17
 74
0
 42
0.0000001
 43
0.0000001
 44
0.0000000001
 40
0.0
 40
0.0
 40
0.0
 40
0.0
 40
0.0451170573
 40
0.0927260507
 40
0.1444910116
 40
0.2012844051
 40
0.2632457339
 40
0.3299354796
 40
0.4004884363
 40
0.4737430317
 40
0.6226769341
 40
0.6956868409
 40
0.7658436756
 40
0.8320054179
 40
0.8933373055
 40
1.0
 40
1.0
 40
1.0
 40
1.0
 10
-20.2284140404
 20
11.6675255264
 30
0.0
 10
-20.2190468921
 20
11.6722092638
 30
0.0
 10
-20.198248086
 20
11.6789879766
 30
0.0
 10
-20.1643778626
 20
11.6802515403
 30
0.0
 10
-20.1285660922
 20
11.6730162004
 30
0.0
 10
-20.0918493323
 20
11.6576840063
 30
0.0
 10
-20.0552041295
 20
11.6347933344
 30
0.0
 10
-20.0196447803
 20
11.6050367705
 30
0.0
 10
-19.9861719393
 20
11.5692834597
 30
0.0
 10
-19.9454398561
 20
11.5147694074
 30
0.0
 10
-19.9131550749
 20
11.4536581985
 30
0.0
 10
-19.8911602525
 20
11.3894122748
 30
0.0
 10
-19.8805899379
 20
11.341879975
 30
0.0
 10
-19.8761764064
 20
11.296038944
 30
0.0
 10
-19.8784996664
 20
11.2417273208
 30
0.0
 10
-19.8895961432
 20
11.2029079857
 30
0.0
 10
-19.9022094452
 20
11.1816024863
 30
0.0
  0
SPLINE
  5
37B
100
AcDbEntity
  8
ASSI
100
AcDbSpline
 62
7
  6
CONTINUOUS
 70
0
 71
3
 72
16
 73
12
 74
0
 42
0.0000001
 43
0.0000001
 44
0.0000000001
 40
0.0
 40
0.0
 40
0.0
 40
0.0
 40
0.0451152553
 40
0.0912960344
 40
0.1896277298
 40
0.2996319595
 40
0.4225922329
 40
0.5573807071
 40
0.701200268
 40
0.8502030937
 40
1.0
 40
1.0
 40
1.0
 40
1.0
 10
-21.8194061515
 20
12.4630235977
 30
0.0
 10
-21.8135943869
 20
12.4659295015
 30
0.0
 10
-21.8012663437
 20
12.4707422013
 30
0.0
 10
-21.7743532487
 20
12.4760567112
 30
0.0
 10
-21.7371318055
 20
12.4738296285
 30
0.0
 10
-21.6915936765
 20
12.4582208455
 30
0.0
 10
-21.6459138483
 20
12.4307850039
 30
0.0
 10
-21.6019820779
 20
12.3928034906
 30
0.0
 10
-21.5616582931
 20
12.3459882137
 30
0.0
 10
-21.5267316397
 20
12.292457195
 30
0.0
 10
-21.5079319778
 20
12.2535889485
 30
0.0
 10
-21.4998333569
 20
12.2335920378
 30
0.0
  0
SPLINE
  5
37C
100
AcDbEntity
  8
ASSI
100
AcDbSpline
 62
7
  6
CONTINUOUS
 70
0
 71
3
 72
24
 73
20
 74
0
 42
0.0000001
 43
0.0000001
 44
0.0000000001
 40
0.0
 40
0.0
 40
0.0
 40
0.0
 40
0.0221847749
 40
0.0447772461
 40
0.0921506396
 40
0.1438965588
 40
0.2008492029
 40
0.2630977208
 40
0.3301508935
 40
0.4010940333
 40
0.4747195973
 40
0.549637166
 40
0.6243714457
 40
0.6974552419
 40
0.7675231003
 40
0.8334116813
 40
0.8942749738
 40
0.9497245166
 40
1.0
 40
1.0
 40
1.0
 40
1.0
 10
-21.1353550453
 20
10.7133596168
 30
0.0
 10
-21.1254074511
 20
10.7183334068
 30
0.0
 10
-21.1045487336
 20
10.7268888219
 30
0.0
 10
-21.0595945545
 20
10.738104267
 30
0.0
 10
-20.9978554769
 20
10.740183885
 30
0.0
 10
-20.9206664993
 20
10.7242698857
 30
0.0
 10
-20.8412151588
 20
10.6909770469
 30
0.0
 10
-20.7616828604
 20
10.6414224187
 30
0.0
 10
-20.6842514907
 20
10.5771107697
 30
0.0
 10
-20.6111227854
 20
10.4999384679
 30
0.0
 10
-20.5444017776
 20
10.4121876107
 30
0.0
 10
-20.486020794
 20
10.3164604273
 30
0.0
 10
-20.4376688505
 20
10.2155974779
 30
0.0
 10
-20.4007381913
 20
10.1125834322
 30
0.0
 10
-20.3762880925
 20
10.0104432444
 30
0.0
 10
-20.3650189021
 20
9.9121469584
 30
0.0
 10
-20.3673026868
 20
9.8204770696
 30
0.0
 10
-20.3831552985
 20
9.7380535525
 30
0.0
 10
-20.4036373918
 20
9.6885875016
 30
0.0
 10
-20.4161790787
 20
9.6667251718
 30
0.0
  0
SPLINE
  5
37D
100
AcDbEntity
  8
ASSI
100
AcDbSpline
 62
7
  6
CONTINUOUS
 70
0
 71
3
 72
14
 73
10
 74
0
 42
0.0000001
 43
0.0000001
 44
0.0000000001
 40
0.0
 40
0.0
 40
0.0
 40
0.0
 40
0.3057667603
 40
0.4470109847
 40
0.5776567892
 40
0.696872559
 40
0.8051942577
 40
0.9048827712
 40
1.0
 40
1.0
 40
1.0
 40
1.0
 10
-21.2757660672
 20
11.6834848004
 30
0.0
 10
-21.2630085736
 20
11.6523418173
 30
0.0
 10
-21.2488369523
 20
11.6046263313
 30
0.0
 10
-21.2424360457
 20
11.5412194734
 30
0.0
 10
-21.2442352826
 20
11.4980326972
 30
0.0
 10
-21.2525111145
 20
11.4592598305
 30
0.0
 10
-21.267176122
 20
11.4260225857
 30
0.0
 10
-21.2879954718
 20
11.3994530558
 30
0.0
 10
-21.3058115127
 20
11.3868599442
 30
0.0
 10
-21.3151754831
 20
11.3821779782
 30
0.0
  0
SPLINE
  5
37E
100
AcDbEntity
  8
ASSI
100
AcDbSpline
 62
7
  6
CONTINUOUS
 70
0
 71
3
 72
17
 73
13
 74
0
 42
0.0000001
 43
0.0000001
 44
0.0000000001
 40
0.0
 40
0.0
 40
0.0
 40
0.0
 40
0.1207339571
 40
0.2545993341
 40
0.3960560513
 40
0.5382764932
 40
0.6743119882
 40
0.7982283952
 40
0.8544965437
 40
0.9066801286
 40
0.9549852665
 40
1.0
 40
1.0
 40
1.0
 40
1.0
 10
-22.0044156631
 20
10.9786408727
 30
0.0
 10
-21.9836331303
 20
10.9682496063
 30
0.0
 10
-21.9427330715
 20
10.9403614372
 30
0.0
 10
-21.8891036406
 20
10.8856925094
 30
0.0
 10
-21.8429764205
 20
10.8194548374
 30
0.0
 10
-21.8076693898
 20
10.7464197036
 30
0.0
 10
-21.785661972
 20
10.6718475124
 30
0.0
 10
-21.7794954389
 20
10.6107818621
 30
0.0
 10
-21.783188994
 20
10.5660992946
 30
0.0
 10
-21.7898391405
 20
10.5365537205
 30
0.0
 10
-21.8003623587
 20
10.5104601631
 30
0.0
 10
-21.8101852528
 20
10.4952481904
 30
0.0
 10
-21.81566167
 20
10.488535514
 30
0.0
  0
SPLINE
  5
37F
100
AcDbEntity
  8
ASSI
100
AcDbSpline
 62
7
  6
CONTINUOUS
 70
0
 71
3
 72
9
 73
5
 74
0
 42
0.0000001
 43
0.0000001
 44
0.0000000001
 40
0.0
 40
0.0
 40
0.0
 40
0.0
 40
0.5057695715
 40
1.0
 40
1.0
 40
1.0
 40
1.0
 10
-21.81566167
 20
10.488535514
 30
0.0
 10
-21.820457401
 20
10.4826571836
 30
0.0
 10
-21.831107358
 20
10.4719238312
 30
0.0
 10
-21.8438254968
 20
10.4637185967
 30
0.0
 10
-21.8504561558
 20
10.4604031869
 30
0.0
  0
SPLINE
  5
380
100
AcDbEntity
  8
ASSI
100
AcDbSpline
 62
7
  6
CONTINUOUS
 70
0
 71
3
 72
17
 73
13
 74
0
 42
0.0000001
 43
0.0000001
 44
0.0000000001
 40
0.0
 40
0.0
 40
0.0
 40
0.0
 40
0.1207342145
 40
0.2545999221
 40
0.3960569513
 40
0.5382775861
 40
0.6743130708
 40
0.7982292281
 40
0.8544971772
 40
0.9066805342
 40
0.9549854467
 40
1.0
 40
1.0
 40
1.0
 40
1.0
 10
-19.2466991992
 20
9.5997826406
 30
0.0
 10
-19.2259165371
 20
9.5893913095
 30
0.0
 10
-19.1850162345
 20
9.5615029262
 30
0.0
 10
-19.1313865513
 20
9.5068335593
 30
0.0
 10
-19.0852592063
 20
9.440595371
 30
0.0
 10
-19.0499522244
 20
9.3675597336
 30
0.0
 10
-19.0279450525
 20
9.2929871458
 30
0.0
 10
-19.021778899
 20
9.2319212801
 30
0.0
 10
-19.0254728783
 20
9.1872386907
 30
0.0
 10
-19.0321233748
 20
9.1576931933
 30
0.0
 10
-19.0426469808
 20
9.1315997946
 30
0.0
 10
-19.0524701572
 20
9.1163880034
 30
0.0
 10
-19.057946711
 20
9.1096754376
 30
0.0
  0
SPLINE
  5
381
100
AcDbEntity
  8
ASSI
100
AcDbSpline
 62
7
  6
CONTINUOUS
 70
0
 71
3
 72
9
 73
5
 74
0
 42
0.0000001
 43
0.0000001
 44
0.0000000001
 40
0.0
 40
0.0
 40
0.0
 40
0.0
 40
0.5057689169
 40
1.0
 40
1.0
 40
1.0
 40
1.0
 10
-19.057946711
 20
9.1096754376
 30
0.0
 10
-19.0627423038
 20
9.1037975198
 30
0.0
 10
-19.0733918727
 20
9.0930649132
 30
0.0
 10
-19.0861093813
 20
9.0848601896
 30
0.0
 10
-19.0927397022
 20
9.0815449498
 30
0.0
  0
LINE
  5
382
100
AcDbEntity
  8
0
100
AcDbLine
 62
253
  6
CONTINUOUS
 10
-32.3861227924
 20
25.9568448915
 11
-32.3864645471
 21
26.3035847355
  0
SPLINE
  5
383
100
AcDbEntity
  8
0
100
AcDbSpline
 62
253
  6
CONTINUOUS
 70
0
 71
3
 72
15
 73
11
 74
0
 42
0.0000001
 43
0.0000001
 44
0.0000000001
 40
0.0
 40
0.0
 40
0.0
 40
0.0
 40
0.1103418266
 40
0.2299455695
 40
0.3568740695
 40
0.4884727808
 40
0.6216799766
 40
0.7533046932
 40
0.8802929145
 40
1.0
 40
1.0
 40
1.0
 40
1.0
 10
-31.8900196565
 20
25.1035055197
 30
0.0
 10
-31.9239146048
 20
25.1204535468
 30
0.0
 10
-31.9911098689
 20
25.1628580625
 30
0.0
 10
-32.0834288079
 20
25.2440852731
 30
0.0
 10
-32.168483428
 20
25.34272558
 30
0.0
 10
-32.2430848428
 20
25.4550829297
 30
0.0
 10
-32.3044700391
 20
25.5769691947
 30
0.0
 10
-32.350334805
 20
25.7038420933
 30
0.0
 10
-32.3789583699
 20
25.8309304866
 30
0.0
 10
-32.3860682392
 20
25.9157325585
 30
0.0
 10
-32.3861227924
 20
25.9568448915
 30
0.0
  0
SPLINE
  5
384
100
AcDbEntity
  8
0
100
AcDbSpline
 62
253
  6
CONTINUOUS
 70
0
 71
3
 72
19
 73
15
 74
0
 42
0.0000001
 43
0.0000001
 44
0.0000000001
 40
0.0
 40
0.0
 40
0.0
 40
0.0
 40
0.1486944583
 40
0.2180333308
 40
0.2839871809
 40
0.4063657931
 40
0.4638943773
 40
0.5197375806
 40
0.5746941852
 40
0.6296363753
 40
0.6854377208
 40
0.7429009596
 40
0.8651001399
 40
1.0
 40
1.0
 40
1.0
 40
1.0
 10
-25.4593050063
 20
22.4934359984
 30
0.0
 10
-25.4592561807
 20
22.4554917051
 30
0.0
 10
-25.4634105897
 20
22.3996318802
 30
0.0
 10
-25.4792476259
 20
22.3287953299
 30
0.0
 10
-25.5002611906
 20
22.2664128076
 30
0.0
 10
-25.5305020452
 20
22.2104944087
 30
0.0
 10
-25.5699032537
 20
22.1647780712
 30
0.0
 10
-25.6026649547
 20
22.136723679
 30
0.0
 10
-25.6388981321
 20
22.1145554441
 30
0.0
 10
-25.6782193374
 20
22.0985157813
 30
0.0
 10
-25.7202033055
 20
22.0887721484
 30
0.0
 10
-25.7803181705
 20
22.0841752337
 30
0.0
 10
-25.8607795905
 20
22.0955054772
 30
0.0
 10
-25.9223433988
 20
22.1196678784
 30
0.0
 10
-25.9531335122
 20
22.1350624476
 30
0.0
  0
SPLINE
  5
385
100
AcDbEntity
  8
ASSI
100
AcDbSpline
 62
7
  6
CONTINUOUS
 70
0
 71
3
 72
9
 73
5
 74
0
 42
0.0000001
 43
0.0000001
 44
0.0000000001
 40
0.0
 40
0.0
 40
0.0
 40
0.0
 40
0.5074632519
 40
1.0
 40
1.0
 40
1.0
 40
1.0
 10
-21.2198918377
 20
10.6411035314
 30
0.0
 10
-21.2088006893
 20
10.6561930326
 30
0.0
 10
-21.1837021643
 20
10.6837337701
 30
0.0
 10
-21.1527293525
 20
10.7045505604
 30
0.0
 10
-21.1365193014
 20
10.7127732696
 30
0.0
  0
SPLINE
  5
386
100
AcDbEntity
  8
0
100
AcDbSpline
 62
253
  6
CONTINUOUS
 70
0
 71
3
 72
13
 73
9
 74
0
 42
0.0000001
 43
0.0000001
 44
0.0000000001
 40
0.0
 40
0.0
 40
0.0
 40
0.0
 40
0.1034539713
 40
0.2095866295
 40
0.4382880573
 40
0.5647991067
 40
0.7004660119
 40
1.0
 40
1.0
 40
1.0
 40
1.0
 10
-36.4100919838
 20
20.6005457367
 30
0.0
 10
-36.4099664958
 20
20.5922270517
 30
0.0
 10
-36.408083797
 20
20.5753558011
 30
0.0
 10
-36.3976945568
 20
20.5414977426
 30
0.0
 10
-36.3774942866
 20
20.5095346459
 30
0.0
 10
-36.3502602867
 20
20.4808965021
 30
0.0
 10
-36.3154632165
 20
20.4519451578
 30
0.0
 10
-36.285176707
 20
20.4339069703
 30
0.0
 10
-36.2636385268
 20
20.4231206529
 30
0.0
  0
SPLINE
  5
387
100
AcDbEntity
  8
ASSI
100
AcDbSpline
 62
7
  6
CONTINUOUS
 70
0
 71
3
 72
14
 73
10
 74
0
 42
0.0000001
 43
0.0000001
 44
0.0000000001
 40
0.0
 40
0.0
 40
0.0
 40
0.0
 40
0.3039040602
 40
0.4436620573
 40
0.5731968373
 40
0.6921151204
 40
0.8011965687
 40
0.9026278938
 40
1.0
 40
1.0
 40
1.0
 40
1.0
 10
-21.8705502433
 20
12.1873676818
 30
0.0
 10
-21.8804227197
 20
12.2164079057
 30
0.0
 10
-21.8908144653
 20
12.2604803095
 30
0.0
 10
-21.8934245926
 20
12.3184077855
 30
0.0
 10
-21.8896642065
 20
12.3575653519
 30
0.0
 10
-21.8802878914
 20
12.3926118702
 30
0.0
 10
-21.865418924
 20
12.4226450039
 30
0.0
 10
-21.8453187121
 20
12.4467559455
 30
0.0
 10
-21.8285983047
 20
12.4583779584
 30
0.0
 10
-21.8198276909
 20
12.4628116655
 30
0.0
  0
SPLINE
  5
388
100
AcDbEntity
  8
0
100
AcDbSpline
 62
253
  6
CONTINUOUS
 70
0
 71
3
 72
12
 73
8
 74
0
 42
0.0000001
 43
0.0000001
 44
0.0000000001
 40
0.0
 40
0.0
 40
0.0
 40
0.0
 40
0.1108871839
 40
0.2234217816
 40
0.4587885887
 40
0.7160506573
 40
1.0
 40
1.0
 40
1.0
 40
1.0
 10
-35.7346598675
 20
10.8226286302
 30
0.0
 10
-35.7335509693
 20
10.8138910246
 30
0.0
 10
-35.7299590563
 20
10.7964279469
 30
0.0
 10
-35.7173099299
 20
10.7621291983
 30
0.0
 10
-35.6908613376
 20
10.7212082569
 30
0.0
 10
-35.6453215642
 20
10.6788995783
 30
0.0
 10
-35.6083680612
 20
10.6563907196
 30
0.0
 10
-35.5882399193
 20
10.6462154522
 30
0.0
  0
LINE
  5
389
100
AcDbEntity
  8
0
100
AcDbLine
 62
253
  6
CONTINUOUS
 10
-35.3406486769
 20
10.2326995577
 11
-35.3409760364
 21
10.2328634419
  0
SPLINE
  5
38A
100
AcDbEntity
  8
0
100
AcDbSpline
 62
253
  6
CONTINUOUS
 70
0
 71
3
 72
14
 73
10
 74
0
 42
0.0000001
 43
0.0000001
 44
0.0000000001
 40
0.0
 40
0.0
 40
0.0
 40
0.0
 40
0.1106812685
 40
0.2231350306
 40
0.3388430065
 40
0.4590627828
 40
0.5847738849
 40
0.7166620483
 40
1.0
 40
1.0
 40
1.0
 40
1.0
 10
-35.3409760364
 20
10.2328634419
 30
0.0
 10
-35.3575034965
 20
10.2411479469
 30
0.0
 10
-35.3895878365
 20
10.2604489567
 30
0.0
 10
-35.4332924852
 20
10.2967195286
 30
0.0
 10
-35.4723991178
 20
10.3400706507
 30
0.0
 10
-35.5065730833
 20
10.3900811264
 30
0.0
 10
-35.5355597962
 20
10.4463095974
 30
0.0
 10
-35.5677502928
 20
10.5308870634
 30
0.0
 10
-35.5821832706
 20
10.5992774575
 30
0.0
 10
-35.5882399195
 20
10.646215452
 30
0.0
  0
LINE
  5
38B
100
AcDbEntity
  8
ASSI
100
AcDbLine
 62
7
  6
CONTINUOUS
 10
-19.0927397022
 20
9.0815449498
 11
-19.0930575325
 21
9.0813867179
  0
SPLINE
  5
38C
100
AcDbEntity
  8
ASSI
100
AcDbSpline
 62
7
  6
CONTINUOUS
 70
0
 71
3
 72
11
 73
7
 74
0
 42
0.0000001
 43
0.0000001
 44
0.0000000001
 40
0.0
 40
0.0
 40
0.0
 40
0.0
 40
0.2243094364
 40
0.4611866237
 40
0.7183384641
 40
1.0
 40
1.0
 40
1.0
 40
1.0
 10
-19.0930575325
 20
9.0813867179
 30
0.0
 10
-19.1016079219
 20
9.0771483524
 30
0.0
 10
-19.1205141367
 20
9.070910187
 30
0.0
 10
-19.1513162971
 20
9.069179867
 30
0.0
 10
-19.184077016
 20
9.0747407553
 30
0.0
 10
-19.2056901112
 20
9.0827555305
 30
0.0
 10
-19.2165861653
 20
9.0877429411
 30
0.0
  0
LINE
  5
38D
100
AcDbEntity
  8
0
100
AcDbLine
 62
253
  6
CONTINUOUS
 10
-25.45964085
 20
22.840172887
 11
-25.4593050063
 21
22.4934359984
  0
SPLINE
  5
38E
100
AcDbEntity
  8
ASSI
100
AcDbSpline
 62
7
  6
CONTINUOUS
 70
0
 71
3
 72
16
 73
12
 74
0
 42
0.0000001
 43
0.0000001
 44
0.0000000001
 40
0.0
 40
0.0
 40
0.0
 40
0.0
 40
0.0436691264
 40
0.0890772523
 40
0.1874581084
 40
0.2986539184
 40
0.4230169397
 40
0.5588125083
 40
0.7029273971
 40
0.8514254036
 40
1.0
 40
1.0
 40
1.0
 40
1.0
 10
-19.8056467705
 20
7.8336203055
 30
0.0
 10
-19.8113689159
 20
7.8314311064
 30
0.0
 10
-19.8234741841
 20
7.8280285839
 30
0.0
 10
-19.8497365389
 20
7.8252919655
 30
0.0
 10
-19.8857035039
 20
7.8301286753
 30
0.0
 10
-19.9295879287
 20
7.8474359867
 30
0.0
 10
-19.9738454801
 20
7.8754030686
 30
0.0
 10
-20.016706238
 20
7.912838363
 30
0.0
 10
-20.0564273174
 20
7.958164003
 30
0.0
 10
-20.091327391
 20
8.009452731
 30
0.0
 10
-20.1105895872
 20
8.0465473508
 30
0.0
 10
-20.1190351798
 20
8.0656042384
 30
0.0
  0
SPLINE
  5
38F
100
AcDbEntity
  8
ASSI
100
AcDbSpline
 62
7
  6
CONTINUOUS
 70
0
 71
3
 72
9
 73
5
 74
0
 42
0.0000001
 43
0.0000001
 44
0.0000000001
 40
0.0
 40
0.0
 40
0.0
 40
0.0
 40
0.2534919188
 40
1.0
 40
1.0
 40
1.0
 40
1.0
 10
-20.2762626125
 20
11.6218066654
 30
0.0
 10
-20.2755643877
 20
11.6229809975
 30
0.0
 10
-20.2727431214
 20
11.6275734362
 30
0.0
 10
-20.2696513685
 20
11.6320006095
 30
0.0
 10
-20.2671937137
 20
11.6351861492
 30
0.0
  0
SPLINE
  5
390
100
AcDbEntity
  8
ASSI
100
AcDbSpline
 62
7
  6
CONTINUOUS
 70
0
 71
3
 72
9
 73
5
 74
0
 42
0.0000001
 43
0.0000001
 44
0.0000000001
 40
0.0
 40
0.0
 40
0.0
 40
0.0
 40
0.2531279062
 40
1.0
 40
1.0
 40
1.0
 40
1.0
 10
-20.2642878529
 20
11.638812123
 30
0.0
 10
-20.2632837935
 20
11.6400181813
 30
0.0
 10
-20.2592268425
 20
11.6447066582
 30
0.0
 10
-20.2548047262
 20
11.649080755
 30
0.0
 10
-20.2513177537
 20
11.6521272419
 30
0.0
  0
SPLINE
  5
391
100
AcDbEntity
  8
ASSI
100
AcDbSpline
 62
7
  6
CONTINUOUS
 70
0
 71
3
 72
21
 73
17
 74
0
 42
0.0000001
 43
0.0000001
 44
0.0000000001
 40
0.0
 40
0.0
 40
0.0
 40
0.0
 40
0.0444009566
 40
0.0924276318
 40
0.1453918726
 40
0.2037863861
 40
0.2674315915
 40
0.3356474858
 40
0.407401532
 40
0.4814289424
 40
0.6304981056
 40
0.7028813826
 40
0.772030196
 40
0.8368811568
 40
0.8966857364
 40
1.0
 40
1.0
 40
1.0
 40
1.0
 10
-21.3978616478
 20
8.6286592527
 30
0.0
 10
-21.4073018961
 20
8.6251860915
 30
0.0
 10
-21.4281301349
 20
8.6209165747
 30
0.0
 10
-21.4612991797
 20
8.6228683893
 30
0.0
 10
-21.4962948421
 20
8.6326446379
 30
0.0
 10
-21.5321938799
 20
8.6498517185
 30
0.0
 10
-21.5680760265
 20
8.6739612445
 30
0.0
 10
-21.6029688072
 20
8.7042884694
 30
0.0
 10
-21.6359140075
 20
8.7399844515
 30
0.0
 10
-21.6760548567
 20
8.7934740209
 30
0.0
 10
-21.7083699436
 20
8.8526826006
 30
0.0
 10
-21.730972423
 20
8.9146169432
 30
0.0
 10
-21.7422213039
 20
8.9600935421
 30
0.0
 10
-21.7475928047
 20
9.0038344413
 30
0.0
 10
-21.7468123586
 20
9.0554720574
 30
0.0
 10
-21.7373309618
 20
9.0925643658
 30
0.0
 10
-21.725885585
 20
9.1129805435
 30
0.0
  0
LINE
  5
392
100
AcDbEntity
  8
ASSI
100
AcDbLine
 62
7
  6
CONTINUOUS
 10
-21.8504561558
 20
10.4604031869
 11
-21.8508335444
 21
10.4602154563
  0
SPLINE
  5
393
100
AcDbEntity
  8
ASSI
100
AcDbSpline
 62
7
  6
CONTINUOUS
 70
0
 71
3
 72
11
 73
7
 74
0
 42
0.0000001
 43
0.0000001
 44
0.0000000001
 40
0.0
 40
0.0
 40
0.0
 40
0.0
 40
0.2262987623
 40
0.4641020268
 40
0.7205909829
 40
1.0
 40
1.0
 40
1.0
 40
1.0
 10
-21.8508335444
 20
10.4602154563
 30
0.0
 10
-21.8588985694
 20
10.4562241877
 30
0.0
 10
-21.8766079787
 20
10.4502305496
 30
0.0
 10
-21.9054224582
 20
10.4479961262
 30
0.0
 10
-21.9360913271
 20
10.4522662558
 30
0.0
 10
-21.9564238544
 20
10.4590152613
 30
0.0
 10
-21.9666849382
 20
10.4632759197
 30
0.0
  0
SPLINE
  5
394
100
AcDbEntity
  8
ASSI
100
AcDbSpline
 62
7
  6
CONTINUOUS
 70
0
 71
3
 72
18
 73
14
 74
0
 42
0.0000001
 43
0.0000001
 44
0.0000000001
 40
0.0
 40
0.0
 40
0.0
 40
0.0
 40
0.1290378841
 40
0.270530605
 40
0.4172093049
 40
0.5608972336
 40
0.6940063541
 40
0.754880186
 40
0.8113683675
 40
0.863465377
 40
0.9115869075
 40
0.9566377367
 40
1.0
 40
1.0
 40
1.0
 40
1.0
 10
-22.4232506549
 20
10.6917109257
 30
0.0
 10
-22.4453813517
 20
10.704845089
 30
0.0
 10
-22.4881971409
 20
10.7385446794
 30
0.0
 10
-22.5426909233
 20
10.8019454401
 30
0.0
 10
-22.5871051522
 20
10.8762402505
 30
0.0
 10
-22.6177663001
 20
10.9553590975
 30
0.0
 10
-22.6302026791
 20
11.022105548
 30
0.0
 10
-22.6305375705
 20
11.0721773863
 30
0.0
 10
-22.6262254075
 20
11.1058175643
 30
0.0
 10
-22.6174155486
 20
11.1359588953
 30
0.0
 10
-22.6042063075
 20
11.1619664556
 30
0.0
 10
-22.5867981502
 20
11.1832047086
 30
0.0
 10
-22.5724812003
 20
11.1938646257
 30
0.0
 10
-22.564945778
 20
11.1981078066
 30
0.0
  0
SPLINE
  5
395
100
AcDbEntity
  8
ASSI
100
AcDbSpline
 62
7
  6
CONTINUOUS
 70
0
 71
3
 72
21
 73
17
 74
0
 42
0.0000001
 43
0.0000001
 44
0.0000000001
 40
0.0
 40
0.0
 40
0.0
 40
0.0
 40
0.0450170424
 40
0.0931327146
 40
0.1456568237
 40
0.2031721561
 40
0.2656348226
 40
0.3325176281
 40
0.4029428058
 40
0.4757916579
 40
0.6234494641
 40
0.6957945969
 40
0.7654257869
 40
0.8312920714
 40
0.8926088483
 40
1.0
 40
1.0
 40
1.0
 40
1.0
 10
-20.1589180027
 20
10.7942703666
 30
0.0
 10
-20.1684318547
 20
10.7907317731
 30
0.0
 10
-20.1892558567
 20
10.786237461
 30
0.0
 10
-20.2223534891
 20
10.7876817924
 30
0.0
 10
-20.2570533744
 20
10.7968578138
 30
0.0
 10
-20.2924496807
 20
10.8133880147
 30
0.0
 10
-20.3276616666
 20
10.8367692468
 30
0.0
 10
-20.3617709623
 20
10.8663543847
 30
0.0
 10
-20.3938743511
 20
10.9013444497
 30
0.0
 10
-20.4329715804
 20
10.9541258882
 30
0.0
 10
-20.464236874
 20
11.0128833132
 30
0.0
 10
-20.4859511677
 20
11.0745731815
 30
0.0
 10
-20.4967253117
 20
11.1202777001
 30
0.0
 10
-20.5017787376
 20
11.1645198252
 30
0.0
 10
-20.5007863145
 20
11.2174165118
 30
0.0
 10
-20.4914154469
 20
11.2554971497
 30
0.0
 10
-20.4802566282
 20
11.2769877443
 30
0.0
  0
SPLINE
  5
396
100
AcDbEntity
  8
ASSI
100
AcDbSpline
 62
7
  6
CONTINUOUS
 70
0
 71
3
 72
16
 73
12
 74
0
 42
0.0000001
 43
0.0000001
 44
0.0000000001
 40
0.0
 40
0.0
 40
0.0
 40
0.0
 40
0.0452983016
 40
0.0918339158
 40
0.1909105921
 40
0.3010608354
 40
0.4234017572
 40
0.5570995987
 40
0.6999362525
 40
0.84878532
 40
1.0
 40
1.0
 40
1.0
 40
1.0
 10
-21.3208486084
 20
11.3795485958
 30
0.0
 10
-21.3263075144
 20
11.3772118803
 30
0.0
 10
-21.3377963344
 20
11.3734033416
 30
0.0
 10
-21.3625970248
 20
11.369431943
 30
0.0
 10
-21.3965130752
 20
11.3718725356
 30
0.0
 10
-21.4380995056
 20
11.3855927532
 30
0.0
 10
-21.480110864
 20
11.4093346238
 30
0.0
 10
-21.52105858
 20
11.4421540472
 30
0.0
 10
-21.5594648015
 20
11.4828012967
 30
0.0
 10
-21.5938767401
 20
11.5297276993
 30
0.0
 10
-21.6133043729
 20
11.5640523623
 30
0.0
 10
-21.6220371386
 20
11.5818472954
 30
0.0
  0
SPLINE
  5
397
100
AcDbEntity
  8
ASSI
100
AcDbSpline
 62
7
  6
CONTINUOUS
 70
0
 71
3
 72
9
 73
5
 74
0
 42
0.0000001
 43
0.0000001
 44
0.0000000001
 40
0.0
 40
0.0
 40
0.0
 40
0.0
 40
0.5122372226
 40
1.0
 40
1.0
 40
1.0
 40
1.0
 10
-21.5395289517
 20
9.4440300592
 30
0.0
 10
-21.5342191392
 20
9.453638559
 30
0.0
 10
-21.5212445805
 20
9.4711361726
 30
0.0
 10
-21.5034815495
 20
9.4838288525
 30
0.0
 10
-21.4941316467
 20
9.4885038175
 30
0.0
  0
SPLINE
  5
398
100
AcDbEntity
  8
ASSI
100
AcDbSpline
 62
7
  6
CONTINUOUS
 70
0
 71
3
 72
24
 73
20
 74
0
 42
0.0000001
 43
0.0000001
 44
0.0000000001
 40
0.0
 40
0.0
 40
0.0
 40
0.0
 40
0.0219675916
 40
0.0444337405
 40
0.09177043
 40
0.143634998
 40
0.2007311922
 40
0.2630573161
 40
0.3300728941
 40
0.4008510385
 40
0.474203951
 40
0.5487874775
 40
0.623192395
 40
0.6960287071
 40
0.7660084647
 40
0.8320330824
 40
0.8633146507
 40
0.8933350587
 40
1.0
 40
1.0
 40
1.0
 40
1.0
 10
-20.525387352
 20
9.5651563129
 30
0.0
 10
-20.5352930615
 20
9.5607549565
 30
0.0
 10
-20.5560140202
 20
9.553314874
 30
0.0
 10
-20.6004846894
 20
9.5441384351
 30
0.0
 10
-20.6612094229
 20
9.544173012
 30
0.0
 10
-20.7368476535
 20
9.5616480514
 30
0.0
 10
-20.8146770136
 20
9.5956143931
 30
0.0
 10
-20.8926447446
 20
9.6450047257
 30
0.0
 10
-20.9686758314
 20
9.7083944347
 30
0.0
 10
-21.0406605875
 20
9.7840015189
 30
0.0
 10
-21.1065681384
 20
9.8696969932
 30
0.0
 10
-21.1645196897
 20
9.9630644273
 30
0.0
 10
-21.2128572254
 20
10.0614701962
 30
0.0
 10
-21.2501992928
 20
10.1621470894
 30
0.0
 10
-21.2754726241
 20
10.2622693242
 30
0.0
 10
-21.2860679437
 20
10.3443650893
 30
0.0
 10
-21.2875759818
 20
10.4072597585
 30
0.0
 10
-21.2834484249
 20
10.4899196425
 30
0.0
 10
-21.2671704685
 20
10.557837167
 30
0.0
 10
-21.2427125344
 20
10.6044410884
 30
0.0
  0
LINE
  5
399
100
AcDbEntity
  8
0
100
AcDbLine
 62
253
  6
CONTINUOUS
 10
-16.4762202157
 20
18.0018936031
 11
-16.4765619704
 21
18.3486334472
  0
SPLINE
  5
39A
100
AcDbEntity
  8
ASSI
100
AcDbSpline
 62
7
  6
CONTINUOUS
 70
0
 71
3
 72
14
 73
10
 74
0
 42
0.0000001
 43
0.0000001
 44
0.0000000001
 40
0.0
 40
0.0
 40
0.0
 40
0.0
 40
0.307895662
 40
0.4484399687
 40
0.5779543768
 40
0.6961259947
 40
0.8039218427
 40
0.9038610396
 40
1.0
 40
1.0
 40
1.0
 40
1.0
 10
-20.3692750391
 20
8.6357033188
 30
0.0
 10
-20.3797534878
 20
8.6641996576
 30
0.0
 10
-20.3912139587
 20
8.7074081486
 30
0.0
 10
-20.3954435373
 20
8.7643767863
 30
0.0
 10
-20.3928713287
 20
8.802728936
 30
0.0
 10
-20.3846629312
 20
8.8370103901
 30
0.0
 10
-20.370892105
 20
8.8663493653
 30
0.0
 10
-20.3517604317
 20
8.8898424104
 30
0.0
 10
-20.335627058
 20
8.9010512967
 30
0.0
 10
-20.3271475931
 20
8.9052910286
 30
0.0
  0
SPLINE
  5
39B
100
AcDbEntity
  8
0
100
AcDbSpline
 62
253
  6
CONTINUOUS
 70
0
 71
3
 72
15
 73
11
 74
0
 42
0.0000001
 43
0.0000001
 44
0.0000000001
 40
0.0
 40
0.0
 40
0.0
 40
0.0
 40
0.1103418266
 40
0.2299455695
 40
0.3568740695
 40
0.4884727808
 40
0.6216799766
 40
0.7533046932
 40
0.8802929145
 40
1.0
 40
1.0
 40
1.0
 40
1.0
 10
-15.9801170798
 20
17.1485542314
 30
0.0
 10
-16.0140120281
 20
17.1655022585
 30
0.0
 10
-16.0812072922
 20
17.2079067741
 30
0.0
 10
-16.1735262312
 20
17.2891339848
 30
0.0
 10
-16.2585808513
 20
17.3877742916
 30
0.0
 10
-16.3331822661
 20
17.5001316413
 30
0.0
 10
-16.3945674624
 20
17.6220179063
 30
0.0
 10
-16.4404322283
 20
17.7488908049
 30
0.0
 10
-16.4690557932
 20
17.8759791983
 30
0.0
 10
-16.4761656625
 20
17.9607812702
 30
0.0
 10
-16.4762202157
 20
18.0018936031
 30
0.0
  0
SPLINE
  5
39C
100
AcDbEntity
  8
0
100
AcDbSpline
 62
253
  6
CONTINUOUS
 70
0
 71
3
 72
11
 73
7
 74
0
 42
0.0000001
 43
0.0000001
 44
0.0000000001
 40
0.0
 40
0.0
 40
0.0
 40
0.0
 40
0.2270344594
 40
0.464288903
 40
0.7203197018
 40
1.0
 40
1.0
 40
1.0
 40
1.0
 10
-25.5876201479
 20
22.3655420031
 30
0.0
 10
-25.6033339733
 20
22.3573833774
 30
0.0
 10
-25.6380845657
 20
22.3453205595
 30
0.0
 10
-25.6947764994
 20
22.3421049419
 30
0.0
 10
-25.7545129929
 20
22.3532296706
 30
0.0
 10
-25.7934679969
 20
22.369065026
 30
0.0
 10
-25.8129489246
 20
22.3788743735
 30
0.0
  0
SPLINE
  5
39D
100
AcDbEntity
  8
0
100
AcDbSpline
 62
253
  6
CONTINUOUS
 70
0
 71
3
 72
19
 73
15
 74
0
 42
0.0000001
 43
0.0000001
 44
0.0000000001
 40
0.0
 40
0.0
 40
0.0
 40
0.0
 40
0.1486944583
 40
0.2180333308
 40
0.2839871809
 40
0.4063657931
 40
0.4638943773
 40
0.5197375806
 40
0.5746941852
 40
0.6296363753
 40
0.6854377208
 40
0.7429009596
 40
0.8651001399
 40
1.0
 40
1.0
 40
1.0
 40
1.0
 10
-9.5494024296
 20
14.5384847101
 30
0.0
 10
-9.549353604
 20
14.5005404167
 30
0.0
 10
-9.553508013
 20
14.4446805919
 30
0.0
 10
-9.5693450492
 20
14.3738440416
 30
0.0
 10
-9.5903586139
 20
14.3114615192
 30
0.0
 10
-9.6205994685
 20
14.2555431203
 30
0.0
 10
-9.6600006771
 20
14.2098267829
 30
0.0
 10
-9.692762378
 20
14.1817723906
 30
0.0
 10
-9.7289955554
 20
14.1596041557
 30
0.0
 10
-9.7683167607
 20
14.143564493
 30
0.0
 10
-9.8103007288
 20
14.1338208601
 30
0.0
 10
-9.8704155938
 20
14.1292239453
 30
0.0
 10
-9.9508770138
 20
14.1405541888
 30
0.0
 10
-10.0124408221
 20
14.16471659
 30
0.0
 10
-10.0432309355
 20
14.1801111592
 30
0.0
  0
LINE
  5
39E
100
AcDbEntity
  8
0
100
AcDbLine
 62
253
  6
CONTINUOUS
 10
-9.5497382733
 20
14.8852215986
 11
-9.5494024296
 21
14.5384847101
  0
LINE
  5
39F
100
AcDbEntity
  8
0
100
AcDbLine
 62
253
  6
CONTINUOUS
 10
-16.1946171899
 20
18.0015581756
 11
-16.1949588077
 21
18.3481592589
  0
SPLINE
  5
3A0
100
AcDbEntity
  8
0
100
AcDbSpline
 62
253
  6
CONTINUOUS
 70
0
 71
3
 72
11
 73
7
 74
0
 42
0.0000001
 43
0.0000001
 44
0.0000000001
 40
0.0
 40
0.0
 40
0.0
 40
0.0
 40
0.2461317682
 40
0.5105502399
 40
0.7691931219
 40
1.0
 40
1.0
 40
1.0
 40
1.0
 10
-16.1949588077
 20
18.3481592589
 30
0.0
 10
-16.1949626133
 20
18.3541624659
 30
0.0
 10
-16.192888877
 20
18.3666382887
 30
0.0
 10
-16.1853474706
 20
18.3839911448
 30
0.0
 10
-16.1742442338
 20
18.3988483563
 30
0.0
 10
-16.1646372949
 20
18.406338297
 30
0.0
 10
-16.1596061606
 20
18.4088638028
 30
0.0
  0
SPLINE
  5
3A1
100
AcDbEntity
  8
0
100
AcDbSpline
 62
253
  6
CONTINUOUS
 70
0
 71
3
 72
11
 73
7
 74
0
 42
0.0000001
 43
0.0000001
 44
0.0000000001
 40
0.0
 40
0.0
 40
0.0
 40
0.0
 40
0.2270344594
 40
0.464288903
 40
0.7203197018
 40
1.0
 40
1.0
 40
1.0
 40
1.0
 10
-9.6777175712
 20
14.4105907148
 30
0.0
 10
-9.6934313966
 20
14.402432089
 30
0.0
 10
-9.728181989
 20
14.3903692711
 30
0.0
 10
-9.7848739227
 20
14.3871536535
 30
0.0
 10
-9.8446104162
 20
14.3982783823
 30
0.0
 10
-9.8835654202
 20
14.4141137376
 30
0.0
 10
-9.9030463479
 20
14.4239230852
 30
0.0
  0
SPLINE
  5
3A2
100
AcDbEntity
  8
ASSI
100
AcDbSpline
 62
7
  6
CONTINUOUS
 70
0
 71
3
 72
9
 73
5
 74
0
 42
0.0000001
 43
0.0000001
 44
0.0000000001
 40
0.0
 40
0.0
 40
0.0
 40
0.0
 40
0.2448740487
 40
1.0
 40
1.0
 40
1.0
 40
1.0
 10
-19.6484929488
 20
9.3035349412
 30
0.0
 10
-19.6504190182
 20
9.3044979759
 30
0.0
 10
-19.6582342049
 20
9.3085310088
 30
0.0
 10
-19.6658476478
 20
9.3129523569
 30
0.0
 10
-19.6714758731
 20
9.3164765426
 30
0.0
  0
SPLINE
  5
3A3
100
AcDbEntity
  8
ASSI
100
AcDbSpline
 62
7
  6
CONTINUOUS
 70
0
 71
3
 72
19
 73
15
 74
0
 42
0.0000001
 43
0.0000001
 44
0.0000000001
 40
0.0
 40
0.0
 40
0.0
 40
0.0
 40
0.1307723345
 40
0.2734055108
 40
0.4205026876
 40
0.5639049673
 40
0.6319109195
 40
0.6963532688
 40
0.7566763386
 40
0.8125896211
 40
0.8641487117
 40
0.9118408001
 40
0.9566446439
 40
1.0
 40
1.0
 40
1.0
 40
1.0
 10
-19.6714758731
 20
9.3164765426
 30
0.0
 10
-19.6934674458
 20
9.3302468487
 30
0.0
 10
-19.7358171449
 20
9.3649568367
 30
0.0
 10
-19.7894219759
 20
9.4294068295
 30
0.0
 10
-19.8326246455
 20
9.5041578452
 30
0.0
 10
-19.8574837429
 20
9.5712556042
 30
0.0
 10
-19.8689162561
 20
9.6248644939
 30
0.0
 10
-19.8729229276
 20
9.6629838797
 30
0.0
 10
-19.872424442
 20
9.6989252709
 30
0.0
 10
-19.8674062209
 20
9.7319606868
 30
0.0
 10
-19.8579261563
 20
9.761414406
 30
0.0
 10
-19.8440941195
 20
9.786659549
 30
0.0
 10
-19.8261250293
 20
9.8070667607
 30
0.0
 10
-19.8115348694
 20
9.8171020181
 30
0.0
 10
-19.8038894692
 20
9.8210450689
 30
0.0
  0
SPLINE
  5
3A4
100
AcDbEntity
  8
0
100
AcDbSpline
 62
253
  6
CONTINUOUS
 70
0
 71
3
 72
11
 73
7
 74
0
 42
0.0000001
 43
0.0000001
 44
0.0000000001
 40
0.0
 40
0.0
 40
0.0
 40
0.0
 40
0.279658017
 40
0.5358859431
 40
0.7732720702
 40
1.0
 40
1.0
 40
1.0
 40
1.0
 10
-25.2847127091
 20
23.1446155626
 30
0.0
 10
-25.2926074425
 20
23.1484939043
 30
0.0
 10
-25.3083798298
 20
23.1547361871
 30
0.0
 10
-25.3325076301
 20
23.159055461
 30
0.0
 10
-25.355361139
 20
23.1576694021
 30
0.0
 10
-25.3693632476
 20
23.1527952793
 30
0.0
 10
-25.375691266
 20
23.1495075071
 30
0.0
  0
SPLINE
  5
3A5
100
AcDbEntity
  8
0
100
AcDbSpline
 62
253
  6
CONTINUOUS
 70
0
 71
3
 72
12
 73
8
 74
0
 42
0.0000001
 43
0.0000001
 44
0.0000000001
 40
0.0
 40
0.0
 40
0.0
 40
0.0
 40
0.3021820122
 40
0.5648107511
 40
0.7925875765
 40
0.8977250659
 40
1.0
 40
1.0
 40
1.0
 40
1.0
 10
-25.4596408516
 20
22.8401752968
 30
0.0
 10
-25.4683215086
 20
22.844515699
 30
0.0
 10
-25.4840114827
 20
22.8538340408
 30
0.0
 10
-25.5030604359
 20
22.8710221318
 30
0.0
 10
-25.5134991456
 20
22.8874760729
 30
0.0
 10
-25.5175481309
 20
22.900931398
 30
0.0
 10
-25.5182172577
 20
22.9076101196
 30
0.0
 10
-25.5182193894
 20
22.9108949245
 30
0.0
  0
SPLINE
  5
3A6
100
AcDbEntity
  8
0
100
AcDbSpline
 62
253
  6
CONTINUOUS
 70
0
 71
3
 72
12
 73
8
 74
0
 42
0.0000001
 43
0.0000001
 44
0.0000000001
 40
0.0
 40
0.0
 40
0.0
 40
0.0
 40
0.3020716209
 40
0.564665303
 40
0.792487324
 40
0.8976708968
 40
1.0
 40
1.0
 40
1.0
 40
1.0
 10
-25.4593049667
 20
22.4934360183
 30
0.0
 10
-25.4679826705
 20
22.4977750128
 30
0.0
 10
-25.4836686093
 20
22.5070921417
 30
0.0
 10
-25.5027136891
 20
22.524280922
 30
0.0
 10
-25.5131526154
 20
22.5407369233
 30
0.0
 10
-25.5172064158
 20
22.5541959066
 30
0.0
 10
-25.5178793063
 20
22.5608775628
 30
0.0
 10
-25.517883595
 20
22.5641641985
 30
0.0
  0
SPLINE
  5
3A7
100
AcDbEntity
  8
0
100
AcDbSpline
 62
253
  6
CONTINUOUS
 70
0
 71
3
 72
14
 73
10
 74
0
 42
0.0000001
 43
0.0000001
 44
0.0000000001
 40
0.0
 40
0.0
 40
0.0
 40
0.0
 40
0.1196049883
 40
0.2464870545
 40
0.5107187677
 40
0.642357398
 40
0.7694253413
 40
0.8892835978
 40
1.0
 40
1.0
 40
1.0
 40
1.0
 10
-25.9531335122
 20
22.1350624476
 30
0.0
 10
-25.9531621666
 20
22.146757211
 30
0.0
 10
-25.951234367
 20
22.170892097
 30
0.0
 10
-25.9404369863
 20
22.2197524694
 30
0.0
 10
-25.9200726712
 20
22.2672951451
 30
0.0
 10
-25.8919617825
 20
22.3101107637
 30
0.0
 10
-25.8678703004
 20
22.3383643758
 30
0.0
 10
-25.8416783314
 20
22.361702119
 30
0.0
 10
-25.8225881276
 20
22.3739497036
 30
0.0
 10
-25.8129469097
 20
22.3788733596
 30
0.0
  0
SPLINE
  5
3A8
100
AcDbEntity
  8
0
100
AcDbSpline
 62
253
  6
CONTINUOUS
 70
0
 71
3
 72
14
 73
10
 74
0
 42
0.0000001
 43
0.0000001
 44
0.0000000001
 40
0.0
 40
0.0
 40
0.0
 40
0.0
 40
0.1196049883
 40
0.2464870546
 40
0.5107187679
 40
0.6423573981
 40
0.7694253414
 40
0.8892835978
 40
1.0
 40
1.0
 40
1.0
 40
1.0
 10
-31.8900196565
 20
25.1035055197
 30
0.0
 10
-31.8900483109
 20
25.1152002831
 30
0.0
 10
-31.8881205113
 20
25.1393351692
 30
0.0
 10
-31.8773231305
 20
25.1881955416
 30
0.0
 10
-31.8569588155
 20
25.2357382172
 30
0.0
 10
-31.8288479267
 20
25.2785538359
 30
0.0
 10
-31.8047564447
 20
25.3068074479
 30
0.0
 10
-31.7785644757
 20
25.3301451911
 30
0.0
 10
-31.7594742718
 20
25.3423927757
 30
0.0
 10
-31.7498330539
 20
25.3473164318
 30
0.0
  0
SPLINE
  5
3A9
100
AcDbEntity
  8
0
100
AcDbSpline
 62
253
  6
CONTINUOUS
 70
0
 71
3
 72
15
 73
11
 74
0
 42
0.0000001
 43
0.0000001
 44
0.0000000001
 40
0.0
 40
0.0
 40
0.0
 40
0.0
 40
0.1123867395
 40
0.2351236674
 40
0.36526038
 40
0.4992809472
 40
0.6334000608
 40
0.7638257464
 40
0.8870214407
 40
1.0
 40
1.0
 40
1.0
 40
1.0
 10
-32.3861227924
 20
25.9568448915
 30
0.0
 10
-32.3764130905
 20
25.951990206
 30
0.0
 10
-32.3552603269
 20
25.9434794272
 30
0.0
 10
-32.3210736065
 20
25.934478963
 30
0.0
 10
-32.2840491433
 20
25.9289185416
 30
0.0
 10
-32.2455653432
 20
25.9270118599
 30
0.0
 10
-32.2070493701
 20
25.9288288979
 30
0.0
 10
-32.1699299059
 20
25.9343030811
 30
0.0
 10
-32.1355893173
 20
25.9432240024
 30
0.0
 10
-32.1143066662
 20
25.9516792339
 30
0.0
 10
-32.1045197636
 20
25.9565069897
 30
0.0
  0
SPLINE
  5
3AA
100
AcDbEntity
  8
0
100
AcDbSpline
 62
253
  6
CONTINUOUS
 70
0
 71
3
 72
15
 73
11
 74
0
 42
0.0000001
 43
0.0000001
 44
0.0000000001
 40
0.0
 40
0.0
 40
0.0
 40
0.0
 40
0.1123963676
 40
0.2351468885
 40
0.3652971344
 40
0.4993277483
 40
0.6334504894
 40
0.7638708882
 40
0.8870503093
 40
1.0
 40
1.0
 40
1.0
 40
1.0
 10
-32.3864644849
 20
26.3035871773
 30
0.0
 10
-32.376754493
 20
26.2987322638
 30
0.0
 10
-32.3556016492
 20
26.2902193475
 30
0.0
 10
-32.3214154388
 20
26.2812108748
 30
0.0
 10
-32.2843914033
 20
26.2756375949
 30
0.0
 10
-32.2459079688
 20
26.2737137039
 30
0.0
 10
-32.2073923383
 20
26.2755098347
 30
0.0
 10
-32.170273212
 20
26.2809601704
 30
0.0
 10
-32.1359329618
 20
26.2898551684
 30
0.0
 10
-32.1146490488
 20
26.2982919384
 30
0.0
 10
-32.1048613844
 20
26.3031105472
 30
0.0
  0
SPLINE
  5
3AB
100
AcDbEntity
  8
0
100
AcDbSpline
 62
253
  6
CONTINUOUS
 70
0
 71
3
 72
14
 73
10
 74
0
 42
0.0000001
 43
0.0000001
 44
0.0000000001
 40
0.0
 40
0.0
 40
0.0
 40
0.0
 40
0.1100843305
 40
0.2296201333
 40
0.3566324331
 40
0.4884156502
 40
0.7532145341
 40
0.8803243067
 40
1.0
 40
1.0
 40
1.0
 40
1.0
 10
-32.2109247087
 20
26.6077215624
 30
0.0
 10
-32.2013160339
 20
26.6028317356
 30
0.0
 10
-32.1822650356
 20
26.5906275455
 30
0.0
 10
-32.1560861086
 20
26.5673406362
 30
0.0
 10
-32.1319242827
 20
26.5391004834
 30
0.0
 10
-32.1036107019
 20
26.4962441196
 30
0.0
 10
-32.0829445781
 20
26.4486554475
 30
0.0
 10
-32.071745421
 20
26.3997181472
 30
0.0
 10
-32.0695932713
 20
26.3755354637
 30
0.0
 10
-32.0695087373
 20
26.3638150911
 30
0.0
  0
SPLINE
  5
3AC
100
AcDbEntity
  8
0
100
AcDbSpline
 62
7
  6
CONTINUOUS
 70
0
 71
3
 72
13
 73
9
 74
0
 42
0.0000001
 43
0.0000001
 44
0.0000000001
 40
0.0
 40
0.0
 40
0.0
 40
0.0
 40
0.2377489187
 40
0.3650908973
 40
0.4951988657
 40
0.6258335254
 40
0.7548320899
 40
1.0
 40
1.0
 40
1.0
 40
1.0
 10
-31.1406012458
 20
26.8300749588
 30
0.0
 10
-31.1407762423
 20
26.8542798972
 30
0.0
 10
-31.1491691561
 20
26.891613929
 30
0.0
 10
-31.1716009265
 20
26.9368566177
 30
0.0
 10
-31.1943621915
 20
26.9693553307
 30
0.0
 10
-31.2216965058
 20
26.9983225464
 30
0.0
 10
-31.2619999248
 20
27.0303625002
 30
0.0
 10
-31.2969281406
 20
27.0475233492
 30
0.0
 10
-31.3209053258
 20
27.0544617637
 30
0.0
  0
SPLINE
  5
3AD
100
AcDbEntity
  8
0
100
AcDbSpline
 62
253
  6
CONTINUOUS
 70
0
 71
3
 72
11
 73
7
 74
0
 42
0.0000001
 43
0.0000001
 44
0.0000000001
 40
0.0
 40
0.0
 40
0.0
 40
0.0
 40
0.279658017
 40
0.5358859431
 40
0.7732720702
 40
1.0
 40
1.0
 40
1.0
 40
1.0
 10
-9.3748101324
 20
15.1896642743
 30
0.0
 10
-9.3827048658
 20
15.1935426159
 30
0.0
 10
-9.3984772531
 20
15.1997848988
 30
0.0
 10
-9.4226050534
 20
15.2041041726
 30
0.0
 10
-9.4454585623
 20
15.2027181137
 30
0.0
 10
-9.4594606709
 20
15.1978439909
 30
0.0
 10
-9.4657886893
 20
15.1945562188
 30
0.0
  0
SPLINE
  5
3AE
100
AcDbEntity
  8
0
100
AcDbSpline
 62
253
  6
CONTINUOUS
 70
0
 71
3
 72
12
 73
8
 74
0
 42
0.0000001
 43
0.0000001
 44
0.0000000001
 40
0.0
 40
0.0
 40
0.0
 40
0.0
 40
0.3021820122
 40
0.5648107511
 40
0.7925875765
 40
0.8977250659
 40
1.0
 40
1.0
 40
1.0
 40
1.0
 10
-9.5497382749
 20
14.8852240084
 30
0.0
 10
-9.5584189319
 20
14.8895644107
 30
0.0
 10
-9.574108906
 20
14.8988827525
 30
0.0
 10
-9.5931578592
 20
14.9160708434
 30
0.0
 10
-9.6035965689
 20
14.9325247846
 30
0.0
 10
-9.6076455542
 20
14.9459801097
 30
0.0
 10
-9.608314681
 20
14.9526588312
 30
0.0
 10
-9.6083168128
 20
14.9559436362
 30
0.0
  0
SPLINE
  5
3AF
100
AcDbEntity
  8
0
100
AcDbSpline
 62
253
  6
CONTINUOUS
 70
0
 71
3
 72
12
 73
8
 74
0
 42
0.0000001
 43
0.0000001
 44
0.0000000001
 40
0.0
 40
0.0
 40
0.0
 40
0.0
 40
0.3020716209
 40
0.564665303
 40
0.792487324
 40
0.8976708968
 40
1.0
 40
1.0
 40
1.0
 40
1.0
 10
-9.54940239
 20
14.53848473
 30
0.0
 10
-9.5580800938
 20
14.5428237244
 30
0.0
 10
-9.5737660326
 20
14.5521408533
 30
0.0
 10
-9.5928111124
 20
14.5693296336
 30
0.0
 10
-9.6032500387
 20
14.5857856349
 30
0.0
 10
-9.6073038391
 20
14.5992446183
 30
0.0
 10
-9.6079767296
 20
14.6059262745
 30
0.0
 10
-9.6079810183
 20
14.6092129101
 30
0.0
  0
SPLINE
  5
3B0
100
AcDbEntity
  8
0
100
AcDbSpline
 62
253
  6
CONTINUOUS
 70
0
 71
3
 72
14
 73
10
 74
0
 42
0.0000001
 43
0.0000001
 44
0.0000000001
 40
0.0
 40
0.0
 40
0.0
 40
0.0
 40
0.1196049883
 40
0.2464870545
 40
0.5107187677
 40
0.642357398
 40
0.7694253413
 40
0.8892835978
 40
1.0
 40
1.0
 40
1.0
 40
1.0
 10
-10.0432309355
 20
14.1801111592
 30
0.0
 10
-10.0432595899
 20
14.1918059226
 30
0.0
 10
-10.0413317903
 20
14.2159408087
 30
0.0
 10
-10.0305344096
 20
14.2648011811
 30
0.0
 10
-10.0101700945
 20
14.3123438567
 30
0.0
 10
-9.9820592058
 20
14.3551594754
 30
0.0
 10
-9.9579677237
 20
14.3834130874
 30
0.0
 10
-9.9317757547
 20
14.4067508306
 30
0.0
 10
-9.9126855509
 20
14.4189984152
 30
0.0
 10
-9.903044333
 20
14.4239220713
 30
0.0
  0
SPLINE
  5
3B1
100
AcDbEntity
  8
0
100
AcDbSpline
 62
253
  6
CONTINUOUS
 70
0
 71
3
 72
14
 73
10
 74
0
 42
0.0000001
 43
0.0000001
 44
0.0000000001
 40
0.0
 40
0.0
 40
0.0
 40
0.0
 40
0.1196049883
 40
0.2464870546
 40
0.5107187679
 40
0.6423573981
 40
0.7694253414
 40
0.8892835978
 40
1.0
 40
1.0
 40
1.0
 40
1.0
 10
-15.9801170798
 20
17.1485542314
 30
0.0
 10
-15.9801457342
 20
17.1602489948
 30
0.0
 10
-15.9782179346
 20
17.1843838808
 30
0.0
 10
-15.9674205538
 20
17.2332442532
 30
0.0
 10
-15.9470562388
 20
17.2807869289
 30
0.0
 10
-15.91894535
 20
17.3236025476
 30
0.0
 10
-15.894853868
 20
17.3518561596
 30
0.0
 10
-15.868661899
 20
17.3751939027
 30
0.0
 10
-15.8495716951
 20
17.3874414873
 30
0.0
 10
-15.8399304772
 20
17.3923651434
 30
0.0
  0
SPLINE
  5
3B2
100
AcDbEntity
  8
0
100
AcDbSpline
 62
253
  6
CONTINUOUS
 70
0
 71
3
 72
15
 73
11
 74
0
 42
0.0000001
 43
0.0000001
 44
0.0000000001
 40
0.0
 40
0.0
 40
0.0
 40
0.0
 40
0.1123867395
 40
0.2351236674
 40
0.36526038
 40
0.4992809472
 40
0.6334000608
 40
0.7638257464
 40
0.8870214407
 40
1.0
 40
1.0
 40
1.0
 40
1.0
 10
-16.4762202157
 20
18.0018936031
 30
0.0
 10
-16.4665105138
 20
17.9970389177
 30
0.0
 10
-16.4453577502
 20
17.9885281389
 30
0.0
 10
-16.4111710298
 20
17.9795276746
 30
0.0
 10
-16.3741465666
 20
17.9739672532
 30
0.0
 10
-16.3356627665
 20
17.9720605716
 30
0.0
 10
-16.2971467934
 20
17.9738776095
 30
0.0
 10
-16.2600273292
 20
17.9793517927
 30
0.0
 10
-16.2256867406
 20
17.988272714
 30
0.0
 10
-16.2044040895
 20
17.9967279455
 30
0.0
 10
-16.1946171869
 20
18.0015557013
 30
0.0
  0
SPLINE
  5
3B3
100
AcDbEntity
  8
0
100
AcDbSpline
 62
253
  6
CONTINUOUS
 70
0
 71
3
 72
15
 73
11
 74
0
 42
0.0000001
 43
0.0000001
 44
0.0000000001
 40
0.0
 40
0.0
 40
0.0
 40
0.0
 40
0.1123963676
 40
0.2351468885
 40
0.3652971344
 40
0.4993277483
 40
0.6334504894
 40
0.7638708882
 40
0.8870503093
 40
1.0
 40
1.0
 40
1.0
 40
1.0
 10
-16.4765619082
 20
18.348635889
 30
0.0
 10
-16.4668519163
 20
18.3437809755
 30
0.0
 10
-16.4456990725
 20
18.3352680591
 30
0.0
 10
-16.4115128621
 20
18.3262595864
 30
0.0
 10
-16.3744888266
 20
18.3206863065
 30
0.0
 10
-16.3360053921
 20
18.3187624156
 30
0.0
 10
-16.2974897616
 20
18.3205585463
 30
0.0
 10
-16.2603706353
 20
18.3260088821
 30
0.0
 10
-16.2260303851
 20
18.3349038801
 30
0.0
 10
-16.2047464722
 20
18.34334065
 30
0.0
 10
-16.1949588077
 20
18.3481592589
 30
0.0
  0
SPLINE
  5
3B4
100
AcDbEntity
  8
0
100
AcDbSpline
 62
253
  6
CONTINUOUS
 70
0
 71
3
 72
14
 73
10
 74
0
 42
0.0000001
 43
0.0000001
 44
0.0000000001
 40
0.0
 40
0.0
 40
0.0
 40
0.0
 40
0.1100843305
 40
0.2296201333
 40
0.3566324331
 40
0.4884156502
 40
0.7532145341
 40
0.8803243067
 40
1.0
 40
1.0
 40
1.0
 40
1.0
 10
-16.301022132
 20
18.6527702741
 30
0.0
 10
-16.2914134572
 20
18.6478804472
 30
0.0
 10
-16.2723624589
 20
18.6356762572
 30
0.0
 10
-16.2461835319
 20
18.6123893478
 30
0.0
 10
-16.2220217061
 20
18.5841491951
 30
0.0
 10
-16.1937081252
 20
18.5412928313
 30
0.0
 10
-16.1730420014
 20
18.4937041592
 30
0.0
 10
-16.1618428443
 20
18.4447668588
 30
0.0
 10
-16.1596906946
 20
18.4205841754
 30
0.0
 10
-16.1596061606
 20
18.4088638028
 30
0.0
  0
SPLINE
  5
3B5
100
AcDbEntity
  8
0
100
AcDbSpline
 62
7
  6
CONTINUOUS
 70
0
 71
3
 72
13
 73
9
 74
0
 42
0.0000001
 43
0.0000001
 44
0.0000000001
 40
0.0
 40
0.0
 40
0.0
 40
0.0
 40
0.2377489187
 40
0.3650908973
 40
0.4951988657
 40
0.6258335254
 40
0.7548320899
 40
1.0
 40
1.0
 40
1.0
 40
1.0
 10
-15.2306986691
 20
18.8751236705
 30
0.0
 10
-15.2308736656
 20
18.8993286089
 30
0.0
 10
-15.2392665794
 20
18.9366626406
 30
0.0
 10
-15.2616983498
 20
18.9819053293
 30
0.0
 10
-15.2844596148
 20
19.0144040424
 30
0.0
 10
-15.3117939291
 20
19.043371258
 30
0.0
 10
-15.3520973481
 20
19.0754112119
 30
0.0
 10
-15.3870255639
 20
19.0925720608
 30
0.0
 10
-15.4110027491
 20
19.0995104753
 30
0.0
  0
SPLINE
  5
3B6
100
AcDbEntity
  8
0
100
AcDbSpline
 62
253
  6
CONTINUOUS
 70
0
 71
3
 72
11
 73
7
 74
0
 42
0.0000001
 43
0.0000001
 44
0.0000000001
 40
0.0
 40
0.0
 40
0.0
 40
0.0
 40
0.2784881431
 40
0.5344839143
 40
0.7723645988
 40
1.0
 40
1.0
 40
1.0
 40
1.0
 10
-36.1559550363
 20
28.7526663486
 30
0.0
 10
-36.1662850168
 20
28.7574790804
 30
0.0
 10
-36.1869278849
 20
28.7651296575
 30
0.0
 10
-36.2184082275
 20
28.7700037889
 30
0.0
 10
-36.2481375128
 20
28.7674884232
 30
0.0
 10
-36.2662588703
 20
28.7607188541
 30
0.0
 10
-36.2744303068
 20
28.7562467963
 30
0.0
  0
SPLINE
  5
3B7
100
AcDbEntity
  8
0
100
AcDbSpline
 62
253
  6
CONTINUOUS
 70
0
 71
3
 72
15
 73
11
 74
0
 42
0.0000001
 43
0.0000001
 44
0.0000000001
 40
0.0
 40
0.0
 40
0.0
 40
0.0
 40
0.1106435088
 40
0.2304141697
 40
0.3573860846
 40
0.4889317462
 40
0.6220257826
 40
0.753514852
 40
0.8803780474
 40
1.0
 40
1.0
 40
1.0
 40
1.0
 10
-36.1498922178
 20
28.5772053171
 30
0.0
 10
-36.1619260187
 20
28.5710597972
 30
0.0
 10
-36.1857542749
 20
28.5557773711
 30
0.0
 10
-36.2184548507
 20
28.5266588006
 30
0.0
 10
-36.2485327927
 20
28.4914172622
 30
0.0
 10
-36.2748736284
 20
28.4513602478
 30
0.0
 10
-36.2965131162
 20
28.4079668108
 30
0.0
 10
-36.3126486267
 20
28.3628395279
 30
0.0
 10
-36.3226818449
 20
28.3176603307
 30
0.0
 10
-36.3251357014
 20
28.2875266628
 30
0.0
 10
-36.3251262092
 20
28.2729179754
 30
0.0
  0
SPLINE
  5
3B8
100
AcDbEntity
  8
0
100
AcDbSpline
 62
253
  6
CONTINUOUS
 70
0
 71
3
 72
15
 73
11
 74
0
 42
0.0000001
 43
0.0000001
 44
0.0000000001
 40
0.0
 40
0.0
 40
0.0
 40
0.0
 40
0.1195926187
 40
0.2464190285
 40
0.3778731427
 40
0.5109423466
 40
0.6424804943
 40
0.7694682017
 40
0.8892825063
 40
1.0
 40
1.0
 40
1.0
 40
1.0
 10
-32.3864645473
 20
26.3035847356
 30
0.0
 10
-32.3864739856
 20
26.3181926637
 30
0.0
 10
-32.3840165938
 20
26.3483242382
 30
0.0
 10
-32.373965595
 20
26.3934964963
 30
0.0
 10
-32.3578014603
 20
26.4386112905
 30
0.0
 10
-32.3361233765
 20
26.4819871772
 30
0.0
 10
-32.3097354705
 20
26.5220223047
 30
0.0
 10
-32.279603666
 20
26.5572383452
 30
0.0
 10
-32.2468445011
 20
26.5863287672
 30
0.0
 10
-32.222977404
 20
26.6015874566
 30
0.0
 10
-32.2109247087
 20
26.6077215624
 30
0.0
  0
SPLINE
  5
3B9
100
AcDbEntity
  8
0
100
AcDbSpline
 62
253
  6
CONTINUOUS
 70
0
 71
3
 72
15
 73
11
 74
0
 42
0.0000001
 43
0.0000001
 44
0.0000000001
 40
0.0
 40
0.0
 40
0.0
 40
0.0
 40
0.1195926187
 40
0.2464190285
 40
0.3778731427
 40
0.5109423466
 40
0.6424804943
 40
0.7694682017
 40
0.8892825063
 40
1.0
 40
1.0
 40
1.0
 40
1.0
 10
-16.4765619706
 20
18.3486334473
 30
0.0
 10
-16.4765714089
 20
18.3632413754
 30
0.0
 10
-16.4741140171
 20
18.3933729498
 30
0.0
 10
-16.4640630183
 20
18.4385452079
 30
0.0
 10
-16.4478988836
 20
18.4836600022
 30
0.0
 10
-16.4262207998
 20
18.5270358888
 30
0.0
 10
-16.3998328938
 20
18.5670710163
 30
0.0
 10
-16.3697010893
 20
18.6022870568
 30
0.0
 10
-16.3369419244
 20
18.6313774789
 30
0.0
 10
-16.3130748273
 20
18.6466361683
 30
0.0
 10
-16.301022132
 20
18.6527702741
 30
0.0
  0
SPLINE
  5
3BA
100
AcDbEntity
  8
0
100
AcDbSpline
 62
253
  6
CONTINUOUS
 70
0
 71
3
 72
15
 73
11
 74
0
 42
0.0000001
 43
0.0000001
 44
0.0000000001
 40
0.0
 40
0.0
 40
0.0
 40
0.0
 40
0.1105696077
 40
0.2302968695
 40
0.3572532822
 40
0.4888067285
 40
0.6219257588
 40
0.7534497411
 40
0.8803494059
 40
1.0
 40
1.0
 40
1.0
 40
1.0
 10
-25.2847127091
 20
23.1446155626
 30
0.0
 10
-25.2967276378
 20
23.1384582815
 30
0.0
 10
-25.3205175638
 20
23.1231522754
 30
0.0
 10
-25.3531598303
 20
23.0940048681
 30
0.0
 10
-25.3831842366
 20
23.0587372394
 30
0.0
 10
-25.4094781581
 20
23.018657584
 30
0.0
 10
-25.4310790774
 20
22.9752458273
 30
0.0
 10
-25.4471856928
 20
22.9301053146
 30
0.0
 10
-25.4572009991
 20
22.8849185616
 30
0.0
 10
-25.4596502633
 20
22.8547824537
 30
0.0
 10
-25.4596408498
 20
22.8401728869
 30
0.0
  0
SPLINE
  5
3BB
100
AcDbEntity
  8
0
100
AcDbSpline
 62
253
  6
CONTINUOUS
 70
0
 71
3
 72
15
 73
11
 74
0
 42
0.0000001
 43
0.0000001
 44
0.0000000001
 40
0.0
 40
0.0
 40
0.0
 40
0.0
 40
0.1105696077
 40
0.2302968695
 40
0.3572532822
 40
0.4888067285
 40
0.6219257588
 40
0.7534497411
 40
0.8803494059
 40
1.0
 40
1.0
 40
1.0
 40
1.0
 10
-9.3748101324
 20
15.1896642743
 30
0.0
 10
-9.3868250611
 20
15.1835069931
 30
0.0
 10
-9.4106149871
 20
15.1682009871
 30
0.0
 10
-9.4432572536
 20
15.1390535798
 30
0.0
 10
-9.4732816599
 20
15.1037859511
 30
0.0
 10
-9.4995755814
 20
15.0637062956
 30
0.0
 10
-9.5211765008
 20
15.020294539
 30
0.0
 10
-9.5372831161
 20
14.9751540263
 30
0.0
 10
-9.5472984224
 20
14.9299672732
 30
0.0
 10
-9.5497476866
 20
14.8998311653
 30
0.0
 10
-9.5497382731
 20
14.8852215985
 30
0.0
  0
SPLINE
  5
3BC
100
AcDbEntity
  8
0
100
AcDbSpline
 62
253
  6
CONTINUOUS
 70
0
 71
3
 72
15
 73
11
 74
0
 42
0.0000001
 43
0.0000001
 44
0.0000000001
 40
0.0
 40
0.0
 40
0.0
 40
0.0
 40
0.1106435087
 40
0.2304141696
 40
0.3573860845
 40
0.4889317462
 40
0.6220257826
 40
0.7535148521
 40
0.8803780474
 40
1.0
 40
1.0
 40
1.0
 40
1.0
 10
-5.435842623
 20
13.2201805198
 30
0.0
 10
-5.447876424
 20
13.2140349998
 30
0.0
 10
-5.4717046801
 20
13.1987525737
 30
0.0
 10
-5.504405256
 20
13.1696340032
 30
0.0
 10
-5.534483198
 20
13.1343924648
 30
0.0
 10
-5.5608240337
 20
13.0943354503
 30
0.0
 10
-5.5824635215
 20
13.0509420132
 30
0.0
 10
-5.598599032
 20
13.0058147304
 30
0.0
 10
-5.6086322501
 20
12.9606355331
 30
0.0
 10
-5.6110861066
 20
12.9305018652
 30
0.0
 10
-5.6110766144
 20
12.9158931778
 30
0.0
  0
SPLINE
  5
3BD
100
AcDbEntity
  8
0
100
AcDbSpline
 62
253
  6
CONTINUOUS
 70
0
 71
3
 72
15
 73
11
 74
0
 42
0.0000001
 43
0.0000001
 44
0.0000000001
 40
0.0
 40
0.0
 40
0.0
 40
0.0
 40
0.1089002891
 40
0.2277141723
 40
0.35442449
 40
0.4862579669
 40
0.6200073296
 40
0.7523120223
 40
0.8799263782
 40
1.0
 40
1.0
 40
1.0
 40
1.0
 10
-5.0885675008
 20
13.2189725809
 30
0.0
 10
-5.0768500064
 20
13.2126853458
 30
0.0
 10
-5.053637196
 20
13.1970740833
 30
0.0
 10
-5.0218178292
 20
13.1675409733
 30
0.0
 10
-4.992453753
 20
13.1318654583
 30
0.0
 10
-4.9666441995
 20
13.0913812636
 30
0.0
 10
-4.9453439784
 20
13.0475968425
 30
0.0
 10
-4.929351322
 20
13.0021466195
 30
0.0
 10
-4.9192643236
 20
12.9567421305
 30
0.0
 10
-4.9166336225
 20
12.926488256
 30
0.0
 10
-4.9165252627
 20
12.9118265852
 30
0.0
  0
SPLINE
  5
3BE
100
AcDbEntity
  8
0
100
AcDbSpline
 62
253
  6
CONTINUOUS
 70
0
 71
3
 72
15
 73
11
 74
0
 42
0.0000001
 43
0.0000001
 44
0.0000000001
 40
0.0
 40
0.0
 40
0.0
 40
0.0
 40
0.1119537152
 40
0.2340710868
 40
0.3635534662
 40
0.497056105
 40
0.6309609339
 40
0.7616235466
 40
0.8856177952
 40
1.0
 40
1.0
 40
1.0
 40
1.0
 10
-5.435842623
 20
13.2201805198
 30
0.0
 10
-5.4239217276
 20
13.2142202338
 30
0.0
 10
-5.3979767244
 20
13.2037599185
 30
0.0
 10
-5.3560522467
 20
13.192670482
 30
0.0
 10
-5.3106421872
 20
13.1857832233
 30
0.0
 10
-5.2633820406
 20
13.1833535146
 30
0.0
 10
-5.2159666372
 20
13.1854680018
 30
0.0
 10
-5.1700978361
 20
13.1920515689
 30
0.0
 10
-5.1274294102
 20
13.2028600247
 30
0.0
 10
-5.1008599285
 20
13.2131143433
 30
0.0
 10
-5.0885675008
 20
13.2189725809
 30
0.0
  0
SPLINE
  5
3BF
100
AcDbEntity
  8
0
100
AcDbSpline
 62
253
  6
CONTINUOUS
 70
0
 71
3
 72
17
 73
13
 74
0
 42
0.0000001
 43
0.0000001
 44
0.0000000001
 40
0.0
 40
0.0
 40
0.0
 40
0.0
 40
0.1486869463
 40
0.2783081863
 40
0.3915930849
 40
0.4443155437
 40
0.4958764212
 40
0.5476356037
 40
0.6009307744
 40
0.716248721
 40
0.8485400388
 40
1.0
 40
1.0
 40
1.0
 40
1.0
 10
-36.1559550363
 20
28.7526663486
 30
0.0
 10
-36.1661943248
 20
28.7470626591
 30
0.0
 10
-36.1846476426
 20
28.7351150802
 30
0.0
 10
-36.2067483233
 20
28.7133806641
 30
0.0
 10
-36.2184771505
 20
28.6928562877
 30
0.0
 10
-36.2227120751
 20
28.6762156434
 30
0.0
 10
-36.2234684969
 20
28.6639138247
 30
0.0
 10
-36.2218552248
 20
28.651650419
 30
0.0
 10
-36.2164556498
 20
28.635121569
 30
0.0
 10
-36.2033238152
 20
28.6149951725
 30
0.0
 10
-36.1797981513
 20
28.5939498856
 30
0.0
 10
-36.1605269586
 20
28.5825228319
 30
0.0
 10
-36.1498922178
 20
28.5772053171
 30
0.0
  0
SPLINE
  5
3C0
100
AcDbEntity
  8
0
100
AcDbSpline
 62
253
  6
CONTINUOUS
 70
0
 71
3
 72
13
 73
9
 74
0
 42
0.0000001
 43
0.0000001
 44
0.0000000001
 40
0.0
 40
0.0
 40
0.0
 40
0.0
 40
0.1024875203
 40
0.2077636583
 40
0.3183493305
 40
0.4362394817
 40
0.6984996176
 40
1.0
 40
1.0
 40
1.0
 40
1.0
 10
-36.471573073
 20
28.4502130794
 30
0.0
 10
-36.4715671143
 20
28.4419637545
 30
0.0
 10
-36.4698964817
 20
28.4251982375
 30
0.0
 10
-36.4624950546
 20
28.4005211493
 30
0.0
 10
-36.4503208295
 20
28.3764312552
 30
0.0
 10
-36.4271315356
 20
28.3442865235
 30
0.0
 10
-36.3860525501
 20
28.3070557128
 30
0.0
 10
-36.3468299325
 20
28.2837702743
 30
0.0
 10
-36.3251240776
 20
28.2729169092
 30
0.0
  0
LINE
  5
3C1
100
AcDbEntity
  8
0
100
AcDbLine
 62
253
  6
CONTINUOUS
 10
-32.1045197666
 20
25.956509464
 11
-32.1048613844
 21
26.3031105472
  0
SPLINE
  5
3C2
100
AcDbEntity
  8
0
100
AcDbSpline
 62
253
  6
CONTINUOUS
 70
0
 71
3
 72
11
 73
7
 74
0
 42
0.0000001
 43
0.0000001
 44
0.0000000001
 40
0.0
 40
0.0
 40
0.0
 40
0.0
 40
0.2461317682
 40
0.5105502399
 40
0.7691931219
 40
1.0
 40
1.0
 40
1.0
 40
1.0
 10
-32.1048613844
 20
26.3031105472
 30
0.0
 10
-32.10486519
 20
26.3091137543
 30
0.0
 10
-32.1027914537
 20
26.321589577
 30
0.0
 10
-32.0952500473
 20
26.3389424332
 30
0.0
 10
-32.0841468105
 20
26.3537996446
 30
0.0
 10
-32.0745398716
 20
26.3612895853
 30
0.0
 10
-32.0695087373
 20
26.3638150911
 30
0.0
  0
SPLINE
  5
3C3
100
AcDbEntity
  8
0
100
AcDbSpline
 62
7
  6
CONTINUOUS
 70
0
 71
3
 72
13
 73
9
 74
0
 42
0.0000001
 43
0.0000001
 44
0.0000000001
 40
0.0
 40
0.0
 40
0.0
 40
0.0
 40
0.1190479807
 40
0.2414202814
 40
0.4931935357
 40
0.7487852328
 40
0.8755127213
 40
1.0
 40
1.0
 40
1.0
 40
1.0
 10
-14.9265406855
 20
17.8989092539
 30
0.0
 10
-14.9499655761
 20
17.9094018077
 30
0.0
 10
-14.9957722812
 20
17.9347069465
 30
0.0
 10
-15.0797700747
 20
18.0005014535
 30
0.0
 10
-15.1657370775
 20
18.1084913111
 30
0.0
 10
-15.2167505461
 20
18.2375869607
 30
0.0
 10
-15.2339274053
 20
18.3458132945
 30
0.0
 10
-15.2344813003
 20
18.4002195427
 30
0.0
 10
-15.2327269034
 20
18.4270023628
 30
0.0
  0
SPLINE
  5
3C4
100
AcDbEntity
  8
0
100
AcDbSpline
 62
253
  6
CONTINUOUS
 70
0
 71
3
 72
15
 73
11
 74
0
 42
0.0000001
 43
0.0000001
 44
0.0000000001
 40
0.0
 40
0.0
 40
0.0
 40
0.0
 40
0.110463322
 40
0.2301078404
 40
0.3570180423
 40
0.4885635624
 40
0.6217069058
 40
0.7532803612
 40
0.8802522557
 40
1.0
 40
1.0
 40
1.0
 40
1.0
 10
-15.8399284011
 20
17.3923641119
 30
0.0
 10
-15.8642071293
 20
17.4044182183
 30
0.0
 10
-15.9123371976
 20
17.434604075
 30
0.0
 10
-15.9784638868
 20
17.4925100503
 30
0.0
 10
-16.0393576597
 20
17.5628760538
 30
0.0
 10
-16.0927339543
 20
17.6430695209
 30
0.0
 10
-16.1366123682
 20
17.7301044933
 30
0.0
 10
-16.1693409681
 20
17.8207390422
 30
0.0
 10
-16.1896867234
 20
17.9115637456
 30
0.0
 10
-16.1946474624
 20
17.9721734812
 30
0.0
 10
-16.1946171856
 20
18.0015581778
 30
0.0
  0
SPLINE
  5
3C5
100
AcDbEntity
  8
0
100
AcDbSpline
 62
7
  6
CONTINUOUS
 70
0
 71
3
 72
13
 73
9
 74
0
 42
0.0000001
 43
0.0000001
 44
0.0000000001
 40
0.0
 40
0.0
 40
0.0
 40
0.0
 40
0.1190479807
 40
0.2414202814
 40
0.4931935357
 40
0.7487852328
 40
0.8755127213
 40
1.0
 40
1.0
 40
1.0
 40
1.0
 10
-30.8364432622
 20
25.8538605423
 30
0.0
 10
-30.8598681528
 20
25.864353096
 30
0.0
 10
-30.9056748579
 20
25.8896582348
 30
0.0
 10
-30.9896726514
 20
25.9554527418
 30
0.0
 10
-31.0756396542
 20
26.0634425994
 30
0.0
 10
-31.1266531228
 20
26.192538249
 30
0.0
 10
-31.143829982
 20
26.3007645829
 30
0.0
 10
-31.1443838769
 20
26.355170831
 30
0.0
 10
-31.1426294801
 20
26.3819536512
 30
0.0
  0
SPLINE
  5
3C6
100
AcDbEntity
  8
0
100
AcDbSpline
 62
253
  6
CONTINUOUS
 70
0
 71
3
 72
15
 73
11
 74
0
 42
0.0000001
 43
0.0000001
 44
0.0000000001
 40
0.0
 40
0.0
 40
0.0
 40
0.0
 40
0.110463322
 40
0.2301078404
 40
0.3570180423
 40
0.4885635624
 40
0.6217069058
 40
0.7532803612
 40
0.8802522557
 40
1.0
 40
1.0
 40
1.0
 40
1.0
 10
-31.7498309778
 20
25.3473154002
 30
0.0
 10
-31.774109706
 20
25.3593695066
 30
0.0
 10
-31.8222397743
 20
25.3895553634
 30
0.0
 10
-31.8883664635
 20
25.4474613387
 30
0.0
 10
-31.9492602364
 20
25.5178273422
 30
0.0
 10
-32.002636531
 20
25.5980208092
 30
0.0
 10
-32.0465149448
 20
25.6850557816
 30
0.0
 10
-32.0792435448
 20
25.7756903306
 30
0.0
 10
-32.0995893001
 20
25.866515034
 30
0.0
 10
-32.1045500391
 20
25.9271247696
 30
0.0
 10
-32.1045197623
 20
25.9565094661
 30
0.0
  0
SPLINE
  5
3C7
100
AcDbEntity
  8
0
100
AcDbSpline
 62
253
  6
CONTINUOUS
 70
0
 71
3
 72
15
 73
11
 74
0
 42
0.0000001
 43
0.0000001
 44
0.0000000001
 40
0.0
 40
0.0
 40
0.0
 40
0.0
 40
0.1119961557
 40
0.2341761833
 40
0.3637222049
 40
0.4972730615
 40
0.6311964734
 40
0.7618357358
 40
0.885754262
 40
1.0
 40
1.0
 40
1.0
 40
1.0
 10
-5.6110787453
 20
12.9158942431
 30
0.0
 10
-5.5872336097
 20
12.9039721561
 30
0.0
 10
-5.535342681
 20
12.8830286329
 30
0.0
 10
-5.4515001937
 20
12.8607574725
 30
0.0
 10
-5.3606851936
 20
12.8468321078
 30
0.0
 10
-5.266168815
 20
12.8417690095
 30
0.0
 10
-5.1713411613
 20
12.8457490564
 30
0.0
 10
-5.0796062993
 20
12.858630832
 30
0.0
 10
-4.994272109
 20
12.8799360853
 30
0.0
 10
-4.941117426
 20
12.9002218639
 30
0.0
 10
-4.9165232507
 20
12.9118275346
 30
0.0
  0
SPLINE
  5
3C8
100
AcDbEntity
  8
0
100
AcDbSpline
 62
253
  6
CONTINUOUS
 70
0
 71
3
 72
15
 73
11
 74
0
 42
0.0000001
 43
0.0000001
 44
0.0000000001
 40
0.0
 40
0.0
 40
0.0
 40
0.0
 40
0.114745806
 40
0.2389503997
 40
0.3696873184
 40
0.5035534837
 40
0.636933468
 40
0.7662442336
 40
0.8881826862
 40
1.0
 40
1.0
 40
1.0
 40
1.0
 10
-4.8506550099
 20
5.0660068689
 30
0.0
 10
-4.8752138041
 20
5.0540031692
 30
0.0
 10
-4.9283081256
 20
5.0329150535
 30
0.0
 10
-5.0136446999
 20
5.0104764026
 30
0.0
 10
-5.105382792
 20
4.9965463555
 30
0.0
 10
-5.2002149838
 20
4.9916398869
 30
0.0
 10
-5.2947382551
 20
4.9959310256
 30
0.0
 10
-5.3855644181
 20
5.0092670783
 30
0.0
 10
-5.4694234553
 20
5.0311538219
 30
0.0
 10
-5.5213106173
 20
5.0519757619
 30
0.0
 10
-5.5451437581
 20
5.0638732689
 30
0.0
  0
SPLINE
  5
3C9
100
AcDbEntity
  8
0
100
AcDbSpline
 62
253
  6
CONTINUOUS
 70
0
 71
3
 72
9
 73
5
 74
0
 42
0.0000001
 43
0.0000001
 44
0.0000000001
 40
0.0
 40
0.0
 40
0.0
 40
0.0
 40
0.5069885047
 40
1.0
 40
1.0
 40
1.0
 40
1.0
 10
-4.8506550099
 20
5.0660068689
 30
0.0
 10
-4.8239241126
 20
3.4138353634
 30
0.0
 10
-4.6811811448
 20
0.1557576177
 30
0.0
 10
-4.3462156138
 20
-3.0885185699
 30
0.0
 10
-4.1305471932
 20
-4.680812904
 30
0.0
  0
SPLINE
  5
3CA
100
AcDbEntity
  8
0
100
AcDbSpline
 62
253
  6
CONTINUOUS
 70
0
 71
3
 72
15
 73
11
 74
0
 42
0.0000001
 43
0.0000001
 44
0.0000000001
 40
0.0
 40
0.0
 40
0.0
 40
0.0
 40
0.1192923331
 40
0.2460992938
 40
0.3777063775
 40
0.5110149768
 40
0.6427973801
 40
0.7699415175
 40
0.8897048676
 40
1.0
 40
1.0
 40
1.0
 40
1.0
 10
-4.1305471932
 20
-4.680812904
 30
0.0
 10
-4.1545795961
 20
-4.696311296
 30
0.0
 10
-4.2066894011
 20
-4.7244547355
 30
0.0
 10
-4.2914234056
 20
-4.7569460263
 30
0.0
 10
-4.3826278316
 20
-4.7801502805
 30
0.0
 10
-4.477016193
 20
-4.7932242582
 30
0.0
 10
-4.5712090891
 20
-4.7957051709
 30
0.0
 10
-4.6618470839
 20
-4.7874956205
 30
0.0
 10
-4.7456771009
 20
-4.7688938089
 30
0.0
 10
-4.7974481506
 20
-4.7490492777
 30
0.0
 10
-4.8211487209
 20
-4.737330128
 30
0.0
  0
SPLINE
  5
3CB
100
AcDbEntity
  8
0
100
AcDbSpline
 62
253
  6
CONTINUOUS
 70
0
 71
3
 72
13
 73
9
 74
0
 42
0.0000001
 43
0.0000001
 44
0.0000000001
 40
0.0
 40
0.0
 40
0.0
 40
0.0
 40
0.2801883289
 40
0.5363324007
 40
0.6569026955
 40
0.7735359778
 40
0.8874388079
 40
1.0
 40
1.0
 40
1.0
 40
1.0
 10
-4.8211487372
 20
-4.7373301391
 30
0.0
 10
-4.8148563649
 20
-4.7845295518
 30
0.0
 10
-4.7953168808
 20
-4.8741638723
 30
0.0
 10
-4.7491728384
 20
-4.9769785835
 30
0.0
 10
-4.7009534104
 20
-5.0458318542
 30
0.0
 10
-4.6603968243
 20
-5.0898632921
 30
0.0
 10
-4.6150894816
 20
-5.1268715937
 30
0.0
 10
-4.5818954008
 20
-5.1466754556
 30
0.0
 10
-4.564786222
 20
-5.1552316685
 30
0.0
  0
SPLINE
  5
3CC
100
AcDbEntity
  8
0
100
AcDbSpline
 62
253
  6
CONTINUOUS
 70
0
 71
3
 72
15
 73
11
 74
0
 42
0.0000001
 43
0.0000001
 44
0.0000000001
 40
0.0
 40
0.0
 40
0.0
 40
0.0
 40
0.1405373281
 40
0.2702208308
 40
0.3908997787
 40
0.5060034837
 40
0.6201341633
 40
0.7381135604
 40
0.8639091258
 40
1.0
 40
1.0
 40
1.0
 40
1.0
 10
-4.1305471932
 20
-4.680812904
 30
0.0
 10
-4.127558652
 20
-4.7028763122
 30
0.0
 10
-4.1184635873
 20
-4.7449736365
 30
0.0
 10
-4.0939269472
 20
-4.8023046026
 30
0.0
 10
-4.0594928977
 20
-4.8495589251
 30
0.0
 10
-4.0159906375
 20
-4.8849873344
 30
0.0
 10
-3.9648842514
 20
-4.9071269724
 30
0.0
 10
-3.908143667
 20
-4.9152360943
 30
0.0
 10
-3.847769762
 20
-4.9093796208
 30
0.0
 10
-3.8078752669
 20
-4.8969895482
 30
0.0
 10
-3.7878861589
 20
-4.8889094064
 30
0.0
  0
SPLINE
  5
3CD
100
AcDbEntity
  8
0
100
AcDbSpline
 62
253
  6
CONTINUOUS
 70
0
 71
3
 72
14
 73
10
 74
0
 42
0.0000001
 43
0.0000001
 44
0.0000000001
 40
0.0
 40
0.0
 40
0.0
 40
0.0
 40
0.2906799416
 40
0.4247913124
 40
0.5512793346
 40
0.6707065614
 40
0.7841556868
 40
0.8932354172
 40
1.0
 40
1.0
 40
1.0
 40
1.0
 10
-3.7878861589
 20
-4.8889094064
 30
0.0
 10
-3.7893021785
 20
-4.9215837396
 30
0.0
 10
-3.7955312731
 20
-4.9694212773
 30
0.0
 10
-3.8139765248
 20
-5.0287676384
 30
0.0
 10
-3.8317618361
 20
-5.0677960581
 30
0.0
 10
-3.8536520949
 20
-5.1019698528
 30
0.0
 10
-3.8793997325
 20
-5.1308039575
 30
0.0
 10
-3.9086649175
 20
-5.1538392578
 30
0.0
 10
-3.9303612314
 20
-5.1651268977
 30
0.0
 10
-3.9414980227
 20
-5.1696288231
 30
0.0
  0
SPLINE
  5
3CE
100
AcDbEntity
  8
0
100
AcDbSpline
 62
253
  6
CONTINUOUS
 70
0
 71
3
 72
9
 73
5
 74
0
 42
0.0000001
 43
0.0000001
 44
0.0000000001
 40
0.0
 40
0.0
 40
0.0
 40
0.0
 40
0.4923750404
 40
1.0
 40
1.0
 40
1.0
 40
1.0
 10
-35.5882399195
 20
10.646215452
 30
0.0
 10
-35.7908206319
 20
12.2424908023
 30
0.0
 10
-36.1050916978
 20
15.4973915288
 30
0.0
 10
-36.2385940349
 20
18.7643944693
 30
0.0
 10
-36.2636385268
 20
20.4231206529
 30
0.0
  0
SPLINE
  5
3CF
100
AcDbEntity
  8
ASSI
100
AcDbSpline
 62
7
  6
CONTINUOUS
 70
0
 71
3
 72
10
 73
6
 74
0
 42
0.0000001
 43
0.0000001
 44
0.0000000001
 40
0.0
 40
0.0
 40
0.0
 40
0.0
 40
0.5201855065
 40
0.7631179158
 40
1.0
 40
1.0
 40
1.0
 40
1.0
 10
-21.5745944856
 20
29.5144360528
 30
0.0
 10
-21.5811619091
 20
29.4988636452
 30
0.0
 10
-21.5941172934
 20
29.4770270522
 30
0.0
 10
-21.6178200162
 20
29.4545818774
 30
0.0
 10
-21.6310994239
 20
29.4461816633
 30
0.0
 10
-21.6379831256
 20
29.4427398308
 30
0.0
  0
SPLINE
  5
3D0
100
AcDbEntity
  8
ASSI
100
AcDbSpline
 62
7
  6
CONTINUOUS
 70
0
 71
3
 72
11
 73
7
 74
0
 42
0.0000001
 43
0.0000001
 44
0.0000000001
 40
0.0
 40
0.0
 40
0.0
 40
0.0
 40
0.2719898494
 40
0.5263210778
 40
0.767027399
 40
1.0
 40
1.0
 40
1.0
 40
1.0
 10
-19.8369454263
 20
28.6642567746
 30
0.0
 10
-19.8401469381
 20
28.6543959071
 30
0.0
 10
-19.8477801087
 20
28.6357281748
 30
0.0
 10
-19.8635498932
 20
28.6109034735
 30
0.0
 10
-19.882968489
 20
28.5907984375
 30
0.0
 10
-19.8982301109
 20
28.5808093912
 30
0.0
 10
-19.9061728852
 20
28.5768379284
 30
0.0
  0
SPLINE
  5
3D1
100
AcDbEntity
  8
ASSI
100
AcDbSpline
 62
7
  6
CONTINUOUS
 70
0
 71
3
 72
10
 73
6
 74
0
 42
0.0000001
 43
0.0000001
 44
0.0000000001
 40
0.0
 40
0.0
 40
0.0
 40
0.0
 40
0.5199902237
 40
0.763256716
 40
1.0
 40
1.0
 40
1.0
 40
1.0
 10
-20.0287545132
 20
33.0143078943
 30
0.0
 10
-20.036028073
 20
32.9982241691
 30
0.0
 10
-20.0502294993
 20
32.9758377401
 30
0.0
 10
-20.0753644248
 20
32.952818617
 30
0.0
 10
-20.0892760379
 20
32.9441123239
 30
0.0
 10
-20.0964643266
 20
32.9405184136
 30
0.0
  0
SPLINE
  5
3D2
100
AcDbEntity
  8
ASSI
100
AcDbSpline
 62
7
  6
CONTINUOUS
 70
0
 71
3
 72
22
 73
18
 74
0
 42
0.0000001
 43
0.0000001
 44
0.0000000001
 40
0.0
 40
0.0
 40
0.0
 40
0.0
 40
0.0509605488
 40
0.1058974583
 40
0.1654117448
 40
0.2294610372
 40
0.2974920275
 40
0.3685779631
 40
0.5148258541
 40
0.5875593936
 40
0.658203471
 40
0.7256189163
 40
0.7889312776
 40
0.8476536634
 40
0.9018246028
 40
0.9521392859
 40
1.0
 40
1.0
 40
1.0
 40
1.0
 10
-18.7523942868
 20
32.2066295161
 30
0.0
 10
-18.7400559367
 20
32.2068903061
 30
0.0
 10
-18.7142733402
 20
32.204023631
 30
0.0
 10
-18.6761928273
 20
32.1907707282
 30
0.0
 10
-18.63857366
 20
32.1690246052
 30
0.0
 10
-18.6025385002
 20
32.1395241986
 30
0.0
 10
-18.5691268553
 20
32.1031997198
 30
0.0
 10
-18.5290891978
 20
32.0467081656
 30
0.0
 10
-18.4988658907
 20
31.9824673553
 30
0.0
 10
-18.4801105267
 20
31.9147655773
 30
0.0
 10
-18.4723810778
 20
31.8641684076
 30
0.0
 10
-18.4712152592
 20
31.8152716258
 30
0.0
 10
-18.4766685039
 20
31.7695386505
 30
0.0
 10
-18.4886293274
 20
31.7283465525
 30
0.0
 10
-18.506859267
 20
31.6929467479
 30
0.0
 10
-18.5309414588
 20
31.6645336806
 30
0.0
 10
-18.550784209
 20
31.6508143783
 30
0.0
 10
-18.5611509916
 20
31.6456309774
 30
0.0
  0
SPLINE
  5
3D3
100
AcDbEntity
  8
ASSI
100
AcDbSpline
 62
7
  6
CONTINUOUS
 70
0
 71
3
 72
17
 73
13
 74
0
 42
0.0000001
 43
0.0000001
 44
0.0000000001
 40
0.0
 40
0.0
 40
0.0
 40
0.0
 40
0.1378796414
 40
0.2814106373
 40
0.4249981318
 40
0.563032514
 40
0.6907608619
 40
0.8052696192
 40
0.8576042008
 40
0.907011233
 40
0.9541653599
 40
1.0
 40
1.0
 40
1.0
 40
1.0
 10
-18.687124162
 20
29.95588478
 30
0.0
 10
-18.6700227298
 20
29.9381976538
 30
0.0
 10
-18.6386076265
 20
29.8986172492
 30
0.0
 10
-18.6018460546
 20
29.8319353902
 30
0.0
 10
-18.5761523363
 20
29.7602005232
 30
0.0
 10
-18.563165369
 20
29.6879376803
 30
0.0
 10
-18.563701319
 20
29.6196588806
 30
0.0
 10
-18.5759912489
 20
29.5678753941
 30
0.0
 10
-18.5930372809
 20
29.5330955432
 30
0.0
 10
-18.6085628843
 20
29.5113658235
 30
0.0
 10
-18.6269674857
 20
29.4936337862
 30
0.0
 10
-18.6410763614
 20
29.4846465375
 30
0.0
 10
-18.6483914409
 20
29.4809888883
 30
0.0
  0
SPLINE
  5
3D4
100
AcDbEntity
  8
ASSI
100
AcDbSpline
 62
7
  6
CONTINUOUS
 70
0
 71
3
 72
14
 73
10
 74
0
 42
0.0000001
 43
0.0000001
 44
0.0000000001
 40
0.0
 40
0.0
 40
0.0
 40
0.0
 40
0.2941164124
 40
0.4315966293
 40
0.5608329616
 40
0.6813602326
 40
0.7935898935
 40
0.8989681797
 40
1.0
 40
1.0
 40
1.0
 40
1.0
 10
-21.0722149443
 20
33.7467592817
 30
0.0
 10
-21.0653566365
 20
33.7171111311
 30
0.0
 10
-21.0596692509
 20
33.6722981077
 30
0.0
 10
-21.063138212
 20
33.6142462741
 30
0.0
 10
-21.0709998323
 20
33.5748070137
 30
0.0
 10
-21.084027018
 20
33.5395053915
 30
0.0
 10
-21.1019873529
 20
33.5092181556
 30
0.0
 10
-21.1245138179
 20
33.484790181
 30
0.0
 10
-21.1424754703
 20
33.4727795651
 30
0.0
 10
-21.1518253944
 20
33.4681049873
 30
0.0
  0
SPLINE
  5
3D5
100
AcDbEntity
  8
ASSI
100
AcDbSpline
 62
7
  6
CONTINUOUS
 70
0
 71
3
 72
11
 73
7
 74
0
 42
0.0000001
 43
0.0000001
 44
0.0000000001
 40
0.0
 40
0.0
 40
0.0
 40
0.0
 40
0.2676038345
 40
0.5211395709
 40
0.7638191457
 40
1.0
 40
1.0
 40
1.0
 40
1.0
 10
-20.2192857536
 20
31.2464495052
 30
0.0
 10
-20.2307559994
 20
31.2206397468
 30
0.0
 10
-20.2565726779
 20
31.1718050024
 30
0.0
 10
-20.3052143182
 20
31.1070584975
 30
0.0
 10
-20.3619997112
 20
31.0540067628
 30
0.0
 10
-20.4050822342
 20
31.0268792968
 30
0.0
 10
-20.4273778744
 20
31.0157314811
 30
0.0
  0
SPLINE
  5
3D6
100
AcDbEntity
  8
ASSI
100
AcDbSpline
 62
7
  6
CONTINUOUS
 70
0
 71
3
 72
11
 73
7
 74
0
 42
0.0000001
 43
0.0000001
 44
0.0000000001
 40
0.0
 40
0.0
 40
0.0
 40
0.0
 40
0.2727852559
 40
0.5325421053
 40
0.7756462469
 40
1.0
 40
1.0
 40
1.0
 40
1.0
 10
-19.8395316682
 20
28.8490075644
 30
0.0
 10
-19.8350606068
 20
28.8325919135
 30
0.0
 10
-19.8281313459
 20
28.8000150344
 30
0.0
 10
-19.8239796253
 20
28.751679841
 30
0.0
 10
-19.8263887916
 20
28.7062331988
 30
0.0
 10
-19.8326243882
 20
28.6775658568
 30
0.0
 10
-19.8369454263
 20
28.6642567746
 30
0.0
  0
SPLINE
  5
3D7
100
AcDbEntity
  8
ASSI
100
AcDbSpline
 62
7
  6
CONTINUOUS
 70
0
 71
3
 72
25
 73
21
 74
0
 42
0.0000001
 43
0.0000001
 44
0.0000000001
 40
0.0
 40
0.0
 40
0.0
 40
0.0
 40
0.0234107218
 40
0.0469470897
 40
0.0708276915
 40
0.0952533565
 40
0.1463281021
 40
0.201247836
 40
0.2604410943
 40
0.3238354542
 40
0.3909554035
 40
0.4610222371
 40
0.5330447211
 40
0.6059004237
 40
0.6784107923
 40
0.7494136504
 40
0.8178369741
 40
0.8827781631
 40
0.943593345
 40
1.0
 40
1.0
 40
1.0
 40
1.0
 10
-21.2219681042
 20
32.7427009016
 30
0.0
 10
-21.2069156549
 20
32.7502271081
 30
0.0
 10
-21.1757182038
 20
32.7633879314
 30
0.0
 10
-21.1265202697
 20
32.7770049264
 30
0.0
 10
-21.0752687983
 20
32.784406481
 30
0.0
 10
-21.0036922537
 20
32.7859557967
 30
0.0
 10
-20.9102417587
 20
32.7713841098
 30
0.0
 10
-20.7983692449
 20
32.7296305115
 30
0.0
 10
-20.6878048623
 20
32.664823679
 30
0.0
 10
-20.5813905662
 20
32.5788331247
 30
0.0
 10
-20.4818224972
 20
32.4740255126
 30
0.0
 10
-20.3916707126
 20
32.3532420077
 30
0.0
 10
-20.3132680127
 20
32.2197490115
 30
0.0
 10
-20.2486443375
 20
32.0771506271
 30
0.0
 10
-20.19946691
 20
31.9292870227
 30
0.0
 10
-20.1670012897
 20
31.7801208815
 30
0.0
 10
-20.1520828992
 20
31.6336313294
 30
0.0
 10
-20.1551266883
 20
31.4936705925
 30
0.0
 10
-20.1760949428
 20
31.3639623304
 30
0.0
 10
-20.2028182535
 20
31.2835038286
 30
0.0
 10
-20.2192857536
 20
31.2464495052
 30
0.0
  0
SPLINE
  5
3D8
100
AcDbEntity
  8
ASSI
100
AcDbSpline
 62
7
  6
CONTINUOUS
 70
0
 71
3
 72
17
 73
13
 74
0
 42
0.0000001
 43
0.0000001
 44
0.0000000001
 40
0.0
 40
0.0
 40
0.0
 40
0.0
 40
0.048107216
 40
0.0966445879
 40
0.146432363
 40
0.1981698897
 40
0.3091597953
 40
0.4318711513
 40
0.5655457396
 40
0.7074826364
 40
0.8537835412
 40
1.0
 40
1.0
 40
1.0
 40
1.0
 10
-21.6672532393
 20
35.2195561556
 30
0.0
 10
-21.6604374819
 20
35.2229641042
 30
0.0
 10
-21.6461019164
 20
35.2286042117
 30
0.0
 10
-21.6232384116
 20
35.2331428766
 30
0.0
 10
-21.5993607444
 20
35.2337029024
 30
0.0
 10
-21.5658930766
 20
35.2290562258
 30
0.0
 10
-21.5230767416
 20
35.2127244077
 30
0.0
 10
-21.4748473533
 20
35.1794077598
 30
0.0
 10
-21.430687149
 20
35.1338510541
 30
0.0
 10
-21.3927832766
 20
35.0784555965
 30
0.0
 10
-21.3630118508
 20
35.0161348292
 30
0.0
 10
-21.3494313023
 20
34.9716133457
 30
0.0
 10
-21.3444219881
 20
34.9490005658
 30
0.0
  0
SPLINE
  5
3D9
100
AcDbEntity
  8
ASSI
100
AcDbSpline
 62
7
  6
CONTINUOUS
 70
0
 71
3
 72
14
 73
10
 74
0
 42
0.0000001
 43
0.0000001
 44
0.0000000001
 40
0.0
 40
0.0
 40
0.0
 40
0.0
 40
0.1070520175
 40
0.2158906867
 40
0.3289437374
 40
0.448105383
 40
0.5745954694
 40
0.7089530355
 40
1.0
 40
1.0
 40
1.0
 40
1.0
 10
-22.9885577596
 20
34.2837255998
 30
0.0
 10
-22.9807832463
 20
34.2876127853
 30
0.0
 10
-22.96422975
 20
34.2938260563
 30
0.0
 10
-22.9376482586
 20
34.297853107
 30
0.0
 10
-22.9098202398
 20
34.2965673161
 30
0.0
 10
-22.8812951853
 20
34.2900430142
 30
0.0
 10
-22.8525740273
 20
34.278447248
 30
0.0
 10
-22.8136854896
 20
34.2559658494
 30
0.0
 10
-22.7872944088
 20
34.2330685858
 30
0.0
 10
-22.7710141142
 20
34.2159394017
 30
0.0
  0
SPLINE
  5
3DA
100
AcDbEntity
  8
ASSI
100
AcDbSpline
 62
7
  6
CONTINUOUS
 70
0
 71
3
 72
9
 73
5
 74
0
 42
0.0000001
 43
0.0000001
 44
0.0000000001
 40
0.0
 40
0.0
 40
0.0
 40
0.0
 40
0.49369557
 40
1.0
 40
1.0
 40
1.0
 40
1.0
 10
-23.0847795584
 20
32.1145928335
 30
0.0
 10
-23.0765071733
 20
32.1187288063
 30
0.0
 10
-23.05871373
 20
32.1251723152
 30
0.0
 10
-23.0399436808
 20
32.1274028103
 30
0.0
 10
-23.0304599464
 20
32.1275527151
 30
0.0
  0
SPLINE
  5
3DB
100
AcDbEntity
  8
ASSI
100
AcDbSpline
 62
7
  6
CONTINUOUS
 70
0
 71
3
 72
20
 73
16
 74
0
 42
0.0000001
 43
0.0000001
 44
0.0000000001
 40
0.0
 40
0.0
 40
0.0
 40
0.0
 40
0.0462386351
 40
0.0940842625
 40
0.1450548509
 40
0.2001107876
 40
0.2596235481
 40
0.323455055
 40
0.3910664714
 40
0.4616230721
 40
0.607094391
 40
0.750736168
 40
0.8191155019
 40
0.8838732722
 40
1.0
 40
1.0
 40
1.0
 40
1.0
 10
-21.5376994936
 20
30.825570652
 30
0.0
 10
-21.5283584614
 20
30.8302411422
 30
0.0
 10
-21.507983406
 20
30.8372321208
 30
0.0
 10
-21.4749886533
 20
30.8395933663
 30
0.0
 10
-21.4404101234
 20
30.8340099481
 30
0.0
 10
-21.405214306
 20
30.8207882485
 30
0.0
 10
-21.3702791374
 20
30.8003813539
 30
0.0
 10
-21.3364854573
 20
30.7733708002
 30
0.0
 10
-21.3046935869
 20
30.7404871602
 30
0.0
 10
-21.265716551
 20
30.6894980827
 30
0.0
 10
-21.2271243679
 20
30.6173096311
 30
0.0
 10
-21.2039537498
 20
30.5392967732
 30
0.0
 10
-21.1965507409
 20
30.4770554797
 30
0.0
 10
-21.1968470811
 20
30.4207211581
 30
0.0
 10
-21.2053969968
 20
30.3797922427
 30
0.0
 10
-21.2157863937
 20
30.3557089593
 30
0.0
  0
SPLINE
  5
3DC
100
AcDbEntity
  8
ASSI
100
AcDbSpline
 62
7
  6
CONTINUOUS
 70
0
 71
3
 72
17
 73
13
 74
0
 42
0.0000001
 43
0.0000001
 44
0.0000000001
 40
0.0
 40
0.0
 40
0.0
 40
0.0
 40
0.0465315912
 40
0.0938305468
 40
0.1427547998
 40
0.1939995477
 40
0.3049696766
 40
0.4285308987
 40
0.5634395577
 40
0.7065740372
 40
0.8536790533
 40
1.0
 40
1.0
 40
1.0
 40
1.0
 10
-20.4823691169
 20
30.2979048769
 30
0.0
 10
-20.4758072762
 20
30.3011859199
 30
0.0
 10
-20.4619249564
 20
30.3065817296
 30
0.0
 10
-20.439695325
 20
30.3107806261
 30
0.0
 10
-20.4163349264
 20
30.3110714066
 30
0.0
 10
-20.3832885831
 20
30.3061509896
 30
0.0
 10
-20.3407362894
 20
30.2896845478
 30
0.0
 10
-20.2922928016
 20
30.2566629708
 30
0.0
 10
-20.2472598806
 20
30.2116982349
 30
0.0
 10
-20.2078890076
 20
30.1571222785
 30
0.0
 10
-20.1761591413
 20
30.0957844998
 30
0.0
 10
-20.1609685544
 20
30.0518753458
 30
0.0
 10
-20.1551155308
 20
30.0295604489
 30
0.0
  0
SPLINE
  5
3DD
100
AcDbEntity
  8
ASSI
100
AcDbSpline
 62
7
  6
CONTINUOUS
 70
0
 71
3
 72
14
 73
10
 74
0
 42
0.0000001
 43
0.0000001
 44
0.0000000001
 40
0.0
 40
0.0
 40
0.0
 40
0.0
 40
0.1058197455
 40
0.2138053307
 40
0.326424352
 40
0.4455527159
 40
0.5723531028
 40
0.707289207
 40
1.0
 40
1.0
 40
1.0
 40
1.0
 10
-19.7052567394
 20
30.8541309847
 30
0.0
 10
-19.6976005185
 20
30.857959022
 30
0.0
 10
-19.6812516185
 20
30.8640573587
 30
0.0
 10
-19.6549535197
 20
30.8679249242
 30
0.0
 10
-19.6273442224
 20
30.8665192577
 30
0.0
 10
-19.5989644282
 20
30.8599221859
 30
0.0
 10
-19.5703070424
 20
30.8483028794
 30
0.0
 10
-19.5313672181
 20
30.8258410379
 30
0.0
 10
-19.5048401747
 20
30.8030458313
 30
0.0
 10
-19.4884101078
 20
30.7859962806
 30
0.0
  0
SPLINE
  5
3DE
100
AcDbEntity
  8
ASSI
100
AcDbSpline
 62
7
  6
CONTINUOUS
 70
0
 71
3
 72
9
 73
5
 74
0
 42
0.0000001
 43
0.0000001
 44
0.0000000001
 40
0.0
 40
0.0
 40
0.0
 40
0.0
 40
0.4947239055
 40
1.0
 40
1.0
 40
1.0
 40
1.0
 10
-19.6466211584
 20
32.1760168986
 30
0.0
 10
-19.6382200167
 20
32.1802172209
 30
0.0
 10
-19.6202071886
 20
32.1867858157
 30
0.0
 10
-19.6011964558
 20
32.1891320445
 30
0.0
 10
-19.5916054027
 20
32.1893248519
 30
0.0
  0
SPLINE
  5
3DF
100
AcDbEntity
  8
ASSI
100
AcDbSpline
 62
7
  6
CONTINUOUS
 70
0
 71
3
 72
19
 73
15
 74
0
 42
0.0000001
 43
0.0000001
 44
0.0000000001
 40
0.0
 40
0.0
 40
0.0
 40
0.0
 40
0.0475125476
 40
0.0961254252
 40
0.147328987
 40
0.2021519761
 40
0.2610807433
 40
0.3241013852
 40
0.460163395
 40
0.6041161372
 40
0.7472411273
 40
0.8158985465
 40
0.8813373012
 40
1.0
 40
1.0
 40
1.0
 40
1.0
 10
-19.9354483127
 20
34.353651521
 30
0.0
 10
-19.9257536606
 20
34.3584990362
 30
0.0
 10
-19.9047900335
 20
34.3658356854
 30
0.0
 10
-19.8709747814
 20
34.3686436315
 30
0.0
 10
-19.835810477
 20
34.3633192994
 30
0.0
 10
-19.8003185693
 20
34.3501499159
 30
0.0
 10
-19.7654062912
 20
34.3296001595
 30
0.0
 10
-19.7196920993
 20
34.2922292511
 30
0.0
 10
-19.6698981222
 20
34.2307173172
 30
0.0
 10
-19.6268488155
 20
34.1435787518
 30
0.0
 10
-19.6066536126
 20
34.0642481483
 30
0.0
 10
-19.6018100721
 20
34.0010289413
 30
0.0
 10
-19.604551832
 20
33.9433839963
 30
0.0
 10
-19.615057383
 20
33.9017567839
 30
0.0
 10
-19.6265866187
 20
33.8772641413
 30
0.0
  0
SPLINE
  5
3E0
100
AcDbEntity
  8
ASSI
100
AcDbSpline
 62
7
  6
CONTINUOUS
 70
0
 71
3
 72
22
 73
18
 74
0
 42
0.0000001
 43
0.0000001
 44
0.0000000001
 40
0.0
 40
0.0
 40
0.0
 40
0.0
 40
0.0509316551
 40
0.1060700225
 40
0.1659522114
 40
0.2304684004
 40
0.2990042544
 40
0.370580144
 40
0.5175922417
 40
0.5905175987
 40
0.6611893011
 40
0.7284497109
 40
0.7914198916
 40
0.8496285004
 40
0.9031571644
 40
0.9527780474
 40
1.0
 40
1.0
 40
1.0
 40
1.0
 10
-22.1981719428
 20
32.1411442667
 30
0.0
 10
-22.1859151185
 20
32.1413053344
 30
0.0
 10
-22.1602779713
 20
32.1382494963
 30
0.0
 10
-22.1223824411
 20
32.124857221
 30
0.0
 10
-22.0848068964
 20
32.1030906557
 30
0.0
 10
-22.0486659201
 20
32.0736763598
 30
0.0
 10
-22.0150000923
 20
32.0375312884
 30
0.0
 10
-21.9744541861
 20
31.9814163865
 30
0.0
 10
-21.9434519633
 20
31.9176734062
 30
0.0
 10
-21.9237253782
 20
31.850455311
 30
0.0
 10
-21.9152215941
 20
31.8002897897
 30
0.0
 10
-21.9132464082
 20
31.7518354198
 30
0.0
 10
-21.9178809828
 20
31.7065423808
 30
0.0
 10
-21.9290401523
 20
31.6657712234
 30
0.0
 10
-21.9465154054
 20
31.6307562744
 30
0.0
 10
-21.9699232696
 20
31.6026833954
 30
0.0
 10
-21.9893567611
 20
31.5891828846
 30
0.0
 10
-21.999522083
 20
31.5841004892
 30
0.0
  0
SPLINE
  5
3E1
100
AcDbEntity
  8
ASSI
100
AcDbSpline
 62
7
  6
CONTINUOUS
 70
0
 71
3
 72
9
 73
5
 74
0
 42
0.0000001
 43
0.0000001
 44
0.0000000001
 40
0.0
 40
0.0
 40
0.0
 40
0.0
 40
0.2497983545
 40
1.0
 40
1.0
 40
1.0
 40
1.0
 10
-23.0304599464
 20
32.1275527151
 30
0.0
 10
-22.9611579924
 20
32.1286481377
 30
0.0
 10
-22.6837269826
 20
32.1330698139
 30
0.0
 10
-22.4062982947
 20
32.1376371642
 30
0.0
 10
-22.1981722263
 20
32.1411452468
 30
0.0
  0
SPLINE
  5
3E2
100
AcDbEntity
  8
ASSI
100
AcDbSpline
 62
7
  6
CONTINUOUS
 70
0
 71
3
 72
17
 73
13
 74
0
 42
0.0000001
 43
0.0000001
 44
0.0000000001
 40
0.0
 40
0.0
 40
0.0
 40
0.0
 40
0.1367401059
 40
0.2792381462
 40
0.4220796268
 40
0.5598038706
 40
0.6877535716
 40
0.803016523
 40
0.8558837294
 40
0.9058805494
 40
0.9536286413
 40
1.0
 40
1.0
 40
1.0
 40
1.0
 10
-21.9770693135
 20
33.3820015992
 30
0.0
 10
-21.9601228149
 20
33.3642171257
 30
0.0
 10
-21.9291045514
 20
33.3243688571
 30
0.0
 10
-21.8932008804
 20
33.2572168877
 30
0.0
 10
-21.8685689186
 20
33.1849501101
 30
0.0
 10
-21.8567717989
 20
33.1121241329
 30
0.0
 10
-21.8585473077
 20
33.0432787341
 30
0.0
 10
-21.8718590679
 20
32.9911065123
 30
0.0
 10
-21.889633162
 20
32.9560228048
 30
0.0
 10
-21.9056622736
 20
32.9340568548
 30
0.0
 10
-21.9245196749
 20
32.9161060753
 30
0.0
 10
-21.9389087357
 20
32.9069752193
 30
0.0
 10
-21.9463599796
 20
32.9032496644
 30
0.0
  0
SPLINE
  5
3E3
100
AcDbEntity
  8
ASSI
100
AcDbSpline
 62
7
  6
CONTINUOUS
 70
0
 71
3
 72
9
 73
5
 74
0
 42
0.0000001
 43
0.0000001
 44
0.0000000001
 40
0.0
 40
0.0
 40
0.0
 40
0.0
 40
0.2473347103
 40
1.0
 40
1.0
 40
1.0
 40
1.0
 10
-22.032726853
 20
31.573148343
 30
0.0
 10
-22.0344486165
 20
31.5728421167
 30
0.0
 10
-22.0414349722
 20
31.5717481875
 30
0.0
 10
-22.0485096518
 20
31.571229313
 30
0.0
 10
-22.0538307318
 20
31.5711460941
 30
0.0
  0
SPLINE
  5
3E4
100
AcDbEntity
  8
ASSI
100
AcDbSpline
 62
7
  6
CONTINUOUS
 70
0
 71
3
 72
16
 73
12
 74
0
 42
0.0000001
 43
0.0000001
 44
0.0000000001
 40
0.0
 40
0.0
 40
0.0
 40
0.0
 40
0.0460041708
 40
0.0931020993
 40
0.1932639407
 40
0.3049167436
 40
0.4290522801
 40
0.5642065059
 40
0.7072440493
 40
0.854029691
 40
1.0
 40
1.0
 40
1.0
 40
1.0
 10
-21.6439383435
 20
29.4399702076
 30
0.0
 10
-21.6504396299
 20
29.4371677763
 30
0.0
 10
-21.6641519579
 20
29.4327012403
 30
0.0
 10
-21.6937479683
 20
29.4286297287
 30
0.0
 10
-21.7339996317
 20
29.4334536319
 30
0.0
 10
-21.78220631
 20
29.4534065221
 30
0.0
 10
-21.8293839519
 20
29.4861853376
 30
0.0
 10
-21.8733851309
 20
29.5301340084
 30
0.0
 10
-21.9121599954
 20
29.5830955961
 30
0.0
 10
-21.9438144157
 20
29.6424531928
 30
0.0
 10
-21.9593485673
 20
29.6849357767
 30
0.0
 10
-21.9654822941
 20
29.7065454758
 30
0.0
  0
SPLINE
  5
3E5
100
AcDbEntity
  8
ASSI
100
AcDbSpline
 62
7
  6
CONTINUOUS
 70
0
 71
3
 72
16
 73
12
 74
0
 42
0.0000001
 43
0.0000001
 44
0.0000000001
 40
0.0
 40
0.0
 40
0.0
 40
0.0
 40
0.0462740743
 40
0.0937285471
 40
0.1945064467
 40
0.3062035211
 40
0.4297544368
 40
0.5639818042
 40
0.7062303706
 40
0.8529171975
 40
1.0
 40
1.0
 40
1.0
 40
1.0
 10
-19.9167138865
 20
28.5722059382
 30
0.0
 10
-19.9229866659
 20
28.5698127762
 30
0.0
 10
-19.9361405691
 20
28.5660643285
 30
0.0
 10
-19.9642967393
 20
28.5629295474
 30
0.0
 10
-20.002274571
 20
28.5678259768
 30
0.0
 10
-20.0478164928
 20
28.5863286985
 30
0.0
 10
-20.0925763688
 20
28.6163964674
 30
0.0
 10
-20.1347136526
 20
28.6566574127
 30
0.0
 10
-20.1724662974
 20
28.7053364052
 30
0.0
 10
-20.2041828804
 20
28.760276727
 30
0.0
 10
-20.2205142426
 20
28.799808477
 30
0.0
 10
-20.2272985474
 20
28.8200412138
 30
0.0
  0
SPLINE
  5
3E6
100
AcDbEntity
  8
ASSI
100
AcDbSpline
 62
7
  6
CONTINUOUS
 70
0
 71
3
 72
12
 73
8
 74
0
 42
0.0000001
 43
0.0000001
 44
0.0000000001
 40
0.0
 40
0.0
 40
0.0
 40
0.0
 40
0.10677295
 40
0.2167627164
 40
0.4514958059
 40
0.712246118
 40
1.0
 40
1.0
 40
1.0
 40
1.0
 10
-18.6664408057
 20
29.4737357736
 30
0.0
 10
-18.6732324897
 20
29.4716283618
 30
0.0
 10
-18.6874295502
 20
29.4685706604
 30
0.0
 10
-18.7175887109
 20
29.4672515579
 30
0.0
 10
-18.7577491582
 20
29.4752149823
 30
0.0
 10
-18.805072856
 20
29.4981115289
 30
0.0
 10
-18.8342517763
 20
29.5205050625
 30
0.0
 10
-18.8484454602
 20
29.5333821395
 30
0.0
  0
SPLINE
  5
3E7
100
AcDbEntity
  8
0
100
AcDbSpline
 62
253
  6
CONTINUOUS
 70
0
 71
3
 72
12
 73
8
 74
0
 42
0.0000001
 43
0.0000001
 44
0.0000000001
 40
0.0
 40
0.0
 40
0.0
 40
0.0
 40
0.1075242348
 40
0.2172485189
 40
0.450070632
 40
0.7099217025
 40
1.0
 40
1.0
 40
1.0
 40
1.0
 10
-32.1230341369
 20
26.8569000452
 30
0.0
 10
-32.1189136674
 20
26.8588809217
 30
0.0
 10
-32.1109404694
 20
26.8636662292
 30
0.0
 10
-32.0964991366
 20
26.8763573525
 30
0.0
 10
-32.0820115745
 20
26.8980440679
 30
0.0
 10
-32.0717645536
 20
26.9300326537
 30
0.0
 10
-32.0695970688
 20
26.9534928489
 30
0.0
 10
-32.0695087373
 20
26.9658265413
 30
0.0
  0
SPLINE
  5
3E8
100
AcDbEntity
  8
ASSI
100
AcDbSpline
 62
7
  6
CONTINUOUS
 70
0
 71
3
 72
20
 73
16
 74
0
 42
0.0000001
 43
0.0000001
 44
0.0000000001
 40
0.0
 40
0.0
 40
0.0
 40
0.0
 40
0.0470293545
 40
0.09530567
 40
0.1463587272
 40
0.2012014761
 40
0.2602799202
 40
0.3235225033
 40
0.4600975129
 40
0.604427435
 40
0.7476204976
 40
0.8161851967
 40
0.8814792323
 40
0.9428816365
 40
1.0
 40
1.0
 40
1.0
 40
1.0
 10
-20.0964643266
 20
32.9405184136
 30
0.0
 10
-20.1060376048
 20
32.9357320863
 30
0.0
 10
-20.1267846028
 20
32.9285027326
 30
0.0
 10
-20.1603049308
 20
32.9257821849
 30
0.0
 10
-20.1952608201
 20
32.9311984943
 30
0.0
 10
-20.2306469855
 20
32.9443860177
 30
0.0
 10
-20.2655667055
 20
32.9648966454
 30
0.0
 10
-20.3114739806
 20
33.0021137957
 30
0.0
 10
-20.3617679132
 20
33.0632651561
 30
0.0
 10
-20.4057778572
 20
33.1498911247
 30
0.0
 10
-20.4268299551
 20
33.2289008266
 30
0.0
 10
-20.4323405891
 20
33.2918403072
 30
0.0
 10
-20.4306988549
 20
33.3363817101
 30
0.0
 10
-20.423389876
 20
33.3777108333
 30
0.0
 10
-20.4144022415
 20
33.4033324499
 30
0.0
 10
-20.4088495897
 20
33.4150860607
 30
0.0
  0
SPLINE
  5
3E9
100
AcDbEntity
  8
0
100
AcDbSpline
 62
253
  6
CONTINUOUS
 70
0
 71
3
 72
12
 73
8
 74
0
 42
0.0000001
 43
0.0000001
 44
0.0000000001
 40
0.0
 40
0.0
 40
0.0
 40
0.0
 40
0.107917674
 40
0.2179642154
 40
0.4510729963
 40
0.7106431381
 40
1.0
 40
1.0
 40
1.0
 40
1.0
 10
-32.3213899711
 20
26.8571009369
 30
0.0
 10
-32.3264678903
 20
26.8596408647
 30
0.0
 10
-32.3362777834
 20
26.8657223941
 30
0.0
 10
-32.3539917179
 20
26.8816755127
 30
0.0
 10
-32.3716707582
 20
26.908682707
 30
0.0
 10
-32.3840228368
 20
26.9483258561
 30
0.0
 10
-32.386474377
 20
26.9773212089
 30
0.0
 10
-32.3864645473
 20
26.9925447274
 30
0.0
  0
SPLINE
  5
3EA
100
AcDbEntity
  8
0
100
AcDbSpline
 62
253
  6
CONTINUOUS
 70
0
 71
3
 72
18
 73
14
 74
0
 42
0.0000001
 43
0.0000001
 44
0.0000000001
 40
0.0
 40
0.0
 40
0.0
 40
0.0
 40
0.1485762909
 40
0.2837073903
 40
0.4062443053
 40
0.4638843007
 40
0.5198461061
 40
0.5749147172
 40
0.6299482657
 40
0.6858080919
 40
0.7432881937
 40
0.8653815058
 40
1.0
 40
1.0
 40
1.0
 40
1.0
 10
-16.4762202157
 20
19.3846691268
 30
0.0
 10
-16.4761698313
 20
19.4226783382
 30
0.0
 10
-16.4705340505
 20
19.4954659755
 30
0.0
 10
-16.4430308
 20
19.5964032153
 30
0.0
 10
-16.403991995
 20
19.6681345065
 30
0.0
 10
-16.3643378486
 20
19.7139709121
 30
0.0
 10
-16.3313967547
 20
19.7421124958
 30
0.0
 10
-16.294995211
 20
19.7643653709
 30
0.0
 10
-16.255520354
 20
19.780484265
 30
0.0
 10
-16.2133991242
 20
19.7902999385
 30
0.0
 10
-16.1531475826
 20
19.7949801297
 30
0.0
 10
-16.0725627031
 20
19.7837378413
 30
0.0
 10
-16.0109199541
 20
19.7595811117
 30
0.0
 10
-15.9801170798
 20
19.7441799926
 30
0.0
  0
LINE
  5
3EB
100
AcDbEntity
  8
0
100
AcDbLine
 62
253
  6
CONTINUOUS
 10
-16.4765619704
 20
19.037593439
 11
-16.4762202157
 21
19.3846691268
  0
SPLINE
  5
3EC
100
AcDbEntity
  8
ASSI
100
AcDbSpline
 62
7
  6
CONTINUOUS
 70
0
 71
3
 72
9
 73
5
 74
0
 42
0.0000001
 43
0.0000001
 44
0.0000000001
 40
0.0
 40
0.0
 40
0.0
 40
0.0
 40
0.2538430842
 40
1.0
 40
1.0
 40
1.0
 40
1.0
 10
-19.9928323552
 20
34.3004150522
 30
0.0
 10
-19.9918454927
 20
34.3019598567
 30
0.0
 10
-19.9878646742
 20
34.3079853294
 30
0.0
 10
-19.9835065238
 20
34.3137630569
 30
0.0
 10
-19.9800471877
 20
34.3178943049
 30
0.0
  0
SPLINE
  5
3ED
100
AcDbEntity
  8
ASSI
100
AcDbSpline
 62
7
  6
CONTINUOUS
 70
0
 71
3
 72
9
 73
5
 74
0
 42
0.0000001
 43
0.0000001
 44
0.0000000001
 40
0.0
 40
0.0
 40
0.0
 40
0.0
 40
0.2530996006
 40
1.0
 40
1.0
 40
1.0
 40
1.0
 10
-19.9789924758
 20
34.3191407685
 30
0.0
 10
-19.9778876542
 20
34.3204328494
 30
0.0
 10
-19.9734402999
 20
34.3254668512
 30
0.0
 10
-19.9686613549
 20
34.3302092811
 30
0.0
 10
-19.9649195244
 20
34.3335510052
 30
0.0
  0
LINE
  5
3EE
100
AcDbEntity
  8
0
100
AcDbLine
 62
253
  6
CONTINUOUS
 10
-25.4593050063
 20
23.8762115221
 11
-25.45964085
 21
23.5291328788
  0
SPLINE
  5
3EF
100
AcDbEntity
  8
0
100
AcDbSpline
 62
253
  6
CONTINUOUS
 70
0
 71
3
 72
12
 73
8
 74
0
 42
0.0000001
 43
0.0000001
 44
0.0000000001
 40
0.0
 40
0.0
 40
0.0
 40
0.0
 40
0.1060234433
 40
0.2144696607
 40
0.4460313379
 40
0.7068672427
 40
1.0
 40
1.0
 40
1.0
 40
1.0
 10
-4.9833034331
 20
13.4607411754
 30
0.0
 10
-4.9781738524
 20
13.4630805735
 30
0.0
 10
-4.9682294421
 20
13.4688300892
 30
0.0
 10
-4.9501808198
 20
13.4844010326
 30
0.0
 10
-4.9320836453
 20
13.5114690697
 30
0.0
 10
-4.9193323642
 20
13.551649508
 30
0.0
 10
-4.9166396733
 20
13.5812032682
 30
0.0
 10
-4.9165252627
 20
13.5967903374
 30
0.0
  0
SPLINE
  5
3F0
100
AcDbEntity
  8
0
100
AcDbSpline
 62
253
  6
CONTINUOUS
 70
0
 71
3
 72
12
 73
8
 74
0
 42
0.0000001
 43
0.0000001
 44
0.0000000001
 40
0.0
 40
0.0
 40
0.0
 40
0.0
 40
0.1078148187
 40
0.2177836668
 40
0.4508319017
 40
0.7104705652
 40
1.0
 40
1.0
 40
1.0
 40
1.0
 10
-5.5461116238
 20
13.4694617626
 30
0.0
 10
-5.5511813635
 20
13.4719973135
 30
0.0
 10
-5.5609758921
 20
13.4780710184
 30
0.0
 10
-5.5786625297
 20
13.494011602
 30
0.0
 10
-5.5963114782
 20
13.5210081134
 30
0.0
 10
-5.6086396356
 20
13.5606381007
 30
0.0
 10
-5.6110864989
 20
13.5896261226
 30
0.0
 10
-5.6110766144
 20
13.604848349
 30
0.0
  0
SPLINE
  5
3F1
100
AcDbEntity
  8
0
100
AcDbSpline
 62
253
  6
CONTINUOUS
 70
0
 71
3
 72
15
 73
11
 74
0
 42
0.0000001
 43
0.0000001
 44
0.0000000001
 40
0.0
 40
0.0
 40
0.0
 40
0.0
 40
0.110301657
 40
0.2298286899
 40
0.3566787088
 40
0.4882243181
 40
0.6214214549
 40
0.7530868041
 40
0.8801645098
 40
1.0
 40
1.0
 40
1.0
 40
1.0
 10
-25.9531335122
 20
24.7306882088
 30
0.0
 10
-25.9192484045
 20
24.7137453038
 30
0.0
 10
-25.8520985548
 20
24.6713239351
 30
0.0
 10
-25.7599355944
 20
24.5900009319
 30
0.0
 10
-25.6751350154
 20
24.4912194035
 30
0.0
 10
-25.6008619845
 20
24.378688727
 30
0.0
 10
-25.5398505177
 20
24.2566113447
 30
0.0
 10
-25.4943746273
 20
24.1295443114
 30
0.0
 10
-25.4661268634
 20
24.0022720072
 30
0.0
 10
-25.4592521141
 20
23.917370894
 30
0.0
 10
-25.4593050063
 20
23.8762115221
 30
0.0
  0
LINE
  5
3F2
100
AcDbEntity
  8
0
100
AcDbLine
 62
253
  6
CONTINUOUS
 10
-32.1048613844
 20
26.9917901358
 11
-32.1045197666
 21
27.3387268663
  0
SPLINE
  5
3F3
100
AcDbEntity
  8
0
100
AcDbSpline
 62
253
  6
CONTINUOUS
 70
0
 71
3
 72
15
 73
11
 74
0
 42
0.0000001
 43
0.0000001
 44
0.0000000001
 40
0.0
 40
0.0
 40
0.0
 40
0.0
 40
0.1345527125
 40
0.2568320989
 40
0.3702377152
 40
0.4804408846
 40
0.5940724099
 40
0.7167401923
 40
0.851753417
 40
1.0
 40
1.0
 40
1.0
 40
1.0
 10
-32.0695087373
 20
26.9658265413
 30
0.0
 10
-32.071718407
 20
26.9647643049
 30
0.0
 10
-32.0761395824
 20
26.9631121332
 30
0.0
 10
-32.0829047967
 20
26.962263081
 30
0.0
 10
-32.0892262676
 20
26.9632631858
 30
0.0
 10
-32.0947827996
 20
26.9661305703
 30
0.0
 10
-32.0992716353
 20
26.9707066116
 30
0.0
 10
-32.1025235794
 20
26.9767234459
 30
0.0
 10
-32.104472037
 20
26.9839123761
 30
0.0
 10
-32.1048630957
 20
26.9890888843
 30
0.0
 10
-32.1048613844
 20
26.9917901358
 30
0.0
  0
SPLINE
  5
3F4
100
AcDbEntity
  8
0
100
AcDbSpline
 62
253
  6
CONTINUOUS
 70
0
 71
3
 72
18
 73
14
 74
0
 42
0.0000001
 43
0.0000001
 44
0.0000000001
 40
0.0
 40
0.0
 40
0.0
 40
0.0
 40
0.1485762909
 40
0.2837073903
 40
0.4062443053
 40
0.4638843007
 40
0.5198461061
 40
0.5749147172
 40
0.6299482657
 40
0.6858080919
 40
0.7432881937
 40
0.8653815058
 40
1.0
 40
1.0
 40
1.0
 40
1.0
 10
-32.3861227924
 20
27.3396204151
 30
0.0
 10
-32.386072408
 20
27.3776296265
 30
0.0
 10
-32.3804366272
 20
27.4504172639
 30
0.0
 10
-32.3529333767
 20
27.5513545037
 30
0.0
 10
-32.3138945717
 20
27.6230857949
 30
0.0
 10
-32.2742404253
 20
27.6689222005
 30
0.0
 10
-32.2412993314
 20
27.6970637842
 30
0.0
 10
-32.2048977877
 20
27.7193166592
 30
0.0
 10
-32.1654229307
 20
27.7354355534
 30
0.0
 10
-32.1233017009
 20
27.7452512269
 30
0.0
 10
-32.0630501593
 20
27.7499314181
 30
0.0
 10
-31.9824652798
 20
27.7386891296
 30
0.0
 10
-31.9208225308
 20
27.7145324001
 30
0.0
 10
-31.8900196565
 20
27.699131281
 30
0.0
  0
SPLINE
  5
3F5
100
AcDbEntity
  8
0
100
AcDbSpline
 62
253
  6
CONTINUOUS
 70
0
 71
3
 72
12
 73
8
 74
0
 42
0.0000001
 43
0.0000001
 44
0.0000000001
 40
0.0
 40
0.0
 40
0.0
 40
0.0
 40
0.107814887
 40
0.2177836943
 40
0.4508317213
 40
0.7104703231
 40
1.0
 40
1.0
 40
1.0
 40
1.0
 10
-36.2601601214
 20
28.8264860113
 30
0.0
 10
-36.2652299365
 20
28.8290215169
 30
0.0
 10
-36.2750246178
 20
28.8350951497
 30
0.0
 10
-36.2927115496
 20
28.8510356709
 30
0.0
 10
-36.3103608156
 20
28.87803227
 30
0.0
 10
-36.3226891901
 20
28.917662533
 30
0.0
 10
-36.3251360937
 20
28.9466507902
 30
0.0
 10
-36.3251262092
 20
28.9618731466
 30
0.0
  0
LINE
  5
3F6
100
AcDbEntity
  8
0
100
AcDbLine
 62
253
  6
CONTINUOUS
 10
-32.3864645471
 20
26.9925447273
 11
-32.3861227924
 21
27.3396204151
  0
SPLINE
  5
3F7
100
AcDbEntity
  8
ASSI
100
AcDbSpline
 62
7
  6
CONTINUOUS
 70
0
 71
3
 72
11
 73
7
 74
0
 42
0.0000001
 43
0.0000001
 44
0.0000000001
 40
0.0
 40
0.0
 40
0.0
 40
0.0
 40
0.2652791382
 40
0.5184069696
 40
0.7621257938
 40
1.0
 40
1.0
 40
1.0
 40
1.0
 10
-21.4252103351
 20
32.5275869641
 30
0.0
 10
-21.4137246882
 20
32.5510977928
 30
0.0
 10
-21.3882272112
 20
32.5956496961
 30
0.0
 10
-21.3414495411
 20
32.6548758207
 30
0.0
 10
-21.2876962257
 20
32.7039690571
 30
0.0
 10
-21.2473691278
 20
32.7296223025
 30
0.0
 10
-21.2265211385
 20
32.7403872699
 30
0.0
  0
SPLINE
  5
3F8
100
AcDbEntity
  8
0
100
AcDbSpline
 62
253
  6
CONTINUOUS
 70
0
 71
3
 72
13
 73
9
 74
0
 42
0.0000001
 43
0.0000001
 44
0.0000000001
 40
0.0
 40
0.0
 40
0.0
 40
0.0
 40
0.1008101729
 40
0.2046922462
 40
0.3143483166
 40
0.4318785029
 40
0.6952253586
 40
1.0
 40
1.0
 40
1.0
 40
1.0
 10
-36.4100937335
 20
37.0535476097
 30
0.0
 10
-36.4102139466
 20
37.0454628741
 30
0.0
 10
-36.4087601337
 20
37.0289759157
 30
0.0
 10
-36.4015742813
 20
37.0046566922
 30
0.0
 10
-36.389516642
 20
36.9808507308
 30
0.0
 10
-36.3663012244
 20
36.9489137773
 30
0.0
 10
-36.3249411871
 20
36.911804517
 30
0.0
 10
-36.2855099246
 20
36.8885209788
 30
0.0
 10
-36.2636385265
 20
36.877603325
 30
0.0
  0
SPLINE
  5
3F9
100
AcDbEntity
  8
0
100
AcDbSpline
 62
253
  6
CONTINUOUS
 70
0
 71
3
 72
15
 73
11
 74
0
 42
0.0000001
 43
0.0000001
 44
0.0000000001
 40
0.0
 40
0.0
 40
0.0
 40
0.0
 40
0.0897738575
 40
0.1844453586
 40
0.2880308026
 40
0.4032879307
 40
0.5317955062
 40
0.6742025512
 40
0.8304576372
 40
1.0
 40
1.0
 40
1.0
 40
1.0
 10
-35.7355481129
 20
47.5442462688
 30
0.0
 10
-35.7363260931
 20
47.5372774631
 30
0.0
 10
-35.7359983776
 20
47.5226821854
 30
0.0
 10
-35.7298486128
 20
47.5008391694
 30
0.0
 10
-35.7182940942
 20
47.4790745154
 30
0.0
 10
-35.7015685449
 20
47.4575773517
 30
0.0
 10
-35.679883744
 20
47.4365005029
 30
0.0
 10
-35.6534675376
 20
47.4160254667
 30
0.0
 10
-35.6225928665
 20
47.3963478738
 30
0.0
 10
-35.600117953
 20
47.3843585341
 30
0.0
 10
-35.5882399032
 20
47.3785035522
 30
0.0
  0
LINE
  5
3FA
100
AcDbEntity
  8
0
100
AcDbLine
 62
253
  6
CONTINUOUS
 10
-9.5494024296
 20
15.9212602337
 11
-9.5497382733
 21
15.5741815904
  0
SPLINE
  5
3FB
100
AcDbEntity
  8
0
100
AcDbSpline
 62
253
  6
CONTINUOUS
 70
0
 71
3
 72
12
 73
8
 74
0
 42
0.0000001
 43
0.0000001
 44
0.0000000001
 40
0.0
 40
0.0
 40
0.0
 40
0.0
 40
0.1114962993
 40
0.2245691986
 40
0.4605544817
 40
0.7175115743
 40
1.0
 40
1.0
 40
1.0
 40
1.0
 10
-35.1771962719
 20
48.4561822918
 30
0.0
 10
-35.1692671917
 20
48.4609611193
 30
0.0
 10
-35.1525364724
 20
48.4693851334
 30
0.0
 10
-35.1160900096
 20
48.4813499263
 30
0.0
 10
-35.0653334622
 20
48.4863491003
 30
0.0
 10
-35.0011762951
 20
48.4766207621
 30
0.0
 10
-34.9588799208
 20
48.4609888146
 30
0.0
 10
-34.9376045264
 20
48.4511130576
 30
0.0
  0
SPLINE
  5
3FC
100
AcDbEntity
  8
0
100
AcDbSpline
 62
253
  6
CONTINUOUS
 70
0
 71
3
 72
15
 73
11
 74
0
 42
0.0000001
 43
0.0000001
 44
0.0000000001
 40
0.0
 40
0.0
 40
0.0
 40
0.0
 40
0.1124155133
 40
0.2351930528
 40
0.3653701923
 40
0.4994207639
 40
0.633550701
 40
0.763960582
 40
0.8871076631
 40
1.0
 40
1.0
 40
1.0
 40
1.0
 10
-16.476561972
 20
19.0375910276
 30
0.0
 10
-16.4668513973
 20
19.0327356576
 30
0.0
 10
-16.4456983802
 20
19.024218489
 30
0.0
 10
-16.4115131643
 20
19.0151941061
 30
0.0
 10
-16.374489968
 20
19.0095952874
 30
0.0
 10
-16.3360072615
 20
19.0076372195
 30
0.0
 10
-16.2974923268
 20
19.0093918298
 30
0.0
 10
-16.2603739001
 20
19.0147948048
 30
0.0
 10
-16.2260343609
 20
19.0236383169
 30
0.0
 10
-16.2047479715
 20
19.0320384112
 30
0.0
 10
-16.1949588077
 20
19.0368388474
 30
0.0
  0
SPLINE
  5
3FD
100
AcDbEntity
  8
0
100
AcDbSpline
 62
253
  6
CONTINUOUS
 70
0
 71
3
 72
15
 73
11
 74
0
 42
0.0000001
 43
0.0000001
 44
0.0000000001
 40
0.0
 40
0.0
 40
0.0
 40
0.0
 40
0.1124251276
 40
0.235216248
 40
0.3654069141
 40
0.499467532
 40
0.6336011024
 40
0.7640057067
 40
0.8871365259
 40
1.0
 40
1.0
 40
1.0
 40
1.0
 10
-16.4762201761
 20
19.3846691465
 30
0.0
 10
-16.4665093138
 20
19.3798135434
 30
0.0
 10
-16.4453562208
 20
19.3712942251
 30
0.0
 10
-16.4111715227
 20
19.3622618158
 30
0.0
 10
-16.3741487663
 20
19.3566501202
 30
0.0
 10
-16.3356664436
 20
19.3546748245
 30
0.0
 10
-16.2971518765
 20
19.3564085092
 30
0.0
 10
-16.2600338201
 20
19.3617876188
 30
0.0
 10
-16.225694659
 20
19.37060519
 30
0.0
 10
-16.204407037
 20
19.378986804
 30
0.0
 10
-16.1946171251
 20
19.3837780833
 30
0.0
  0
SPLINE
  5
3FE
100
AcDbEntity
  8
ASSI
100
AcDbSpline
 62
7
  6
CONTINUOUS
 70
0
 71
3
 72
9
 73
5
 74
0
 42
0.0000001
 43
0.0000001
 44
0.0000000001
 40
0.0
 40
0.0
 40
0.0
 40
0.0
 40
0.2463699102
 40
1.0
 40
1.0
 40
1.0
 40
1.0
 10
-19.4532735128
 20
31.6160705
 30
0.0
 10
-19.4550912753
 20
31.6160361431
 30
0.0
 10
-19.462471712
 20
31.6160404773
 30
0.0
 10
-19.4698499008
 20
31.6166133205
 30
0.0
 10
-19.4753640829
 20
31.6173365963
 30
0.0
  0
SPLINE
  5
3FF
100
AcDbEntity
  8
ASSI
100
AcDbSpline
 62
7
  6
CONTINUOUS
 70
0
 71
3
 72
22
 73
18
 74
0
 42
0.0000001
 43
0.0000001
 44
0.0000000001
 40
0.0
 40
0.0
 40
0.0
 40
0.0
 40
0.0527071794
 40
0.1097123721
 40
0.171198719
 40
0.2368390347
 40
0.30591901
 40
0.3774514393
 40
0.5229326934
 40
0.5946222346
 40
0.6639699894
 40
0.7299910218
 40
0.7919626168
 40
0.849528257
 40
0.9028134883
 40
0.952529202
 40
1.0
 40
1.0
 40
1.0
 40
1.0
 10
-19.4753640829
 20
31.6173365963
 30
0.0
 10
-19.4876253778
 20
31.6189448671
 30
0.0
 10
-19.5128024136
 20
31.6253166223
 30
0.0
 10
-19.5492762604
 20
31.6426079953
 30
0.0
 10
-19.584876859
 20
31.6673888304
 30
0.0
 10
-19.6186074499
 20
31.6989168968
 30
0.0
 10
-19.6495467855
 20
31.7362908119
 30
0.0
 10
-19.6860648159
 20
31.7927422793
 30
0.0
 10
-19.7132189608
 20
31.8555193768
 30
0.0
 10
-19.7294096689
 20
31.920875565
 30
0.0
 10
-19.7355402227
 20
31.9691943905
 30
0.0
 10
-19.7355245892
 20
32.0156303806
 30
0.0
 10
-19.7293417259
 20
32.0588936286
 30
0.0
 10
-19.7171165044
 20
32.0977717348
 30
0.0
 10
-19.6990898469
 20
32.1311592461
 30
0.0
 10
-19.6756680869
 20
32.1579993932
 30
0.0
 10
-19.6565831781
 20
32.1710361836
 30
0.0
 10
-19.6466211584
 20
32.1760168986
 30
0.0
  0
SPLINE
  5
400
100
AcDbEntity
  8
0
100
AcDbSpline
 62
253
  6
CONTINUOUS
 70
0
 71
3
 72
12
 73
8
 74
0
 42
0.0000001
 43
0.0000001
 44
0.0000000001
 40
0.0
 40
0.0
 40
0.0
 40
0.0
 40
0.2896313627
 40
0.5493117565
 40
0.7823183127
 40
0.8922406959
 40
1.0
 40
1.0
 40
1.0
 40
1.0
 10
-15.9801170798
 20
19.7441799926
 30
0.0
 10
-15.9801469453
 20
19.7319610695
 30
0.0
 10
-15.9782235174
 20
19.7086907105
 30
0.0
 10
-15.9683798731
 20
19.6768705042
 30
0.0
 10
-15.9542443597
 20
19.6551910388
 30
0.0
 10
-15.9400645333
 20
19.642394753
 30
0.0
 10
-15.9322096702
 20
19.637521474
 30
0.0
 10
-15.9281435852
 20
19.6354881517
 30
0.0
  0
SPLINE
  5
401
100
AcDbEntity
  8
0
100
AcDbSpline
 62
253
  6
CONTINUOUS
 70
0
 71
3
 72
12
 73
8
 74
0
 42
0.0000001
 43
0.0000001
 44
0.0000000001
 40
0.0
 40
0.0
 40
0.0
 40
0.0
 40
0.2896326202
 40
0.5493126958
 40
0.7823181721
 40
0.8922403422
 40
1.0
 40
1.0
 40
1.0
 40
1.0
 10
-10.0432309355
 20
16.7757369205
 30
0.0
 10
-10.0432608023
 20
16.7635174578
 30
0.0
 10
-10.0413372084
 20
16.7402461227
 30
0.0
 10
-10.0314926647
 20
16.7084247715
 30
0.0
 10
-10.0173558336
 20
16.6867449421
 30
0.0
 10
-10.0031747857
 20
16.6739489165
 30
0.0
 10
-9.9953192884
 20
16.6690759383
 30
0.0
 10
-9.9912528903
 20
16.6670428041
 30
0.0
  0
SPLINE
  5
402
100
AcDbEntity
  8
0
100
AcDbSpline
 62
253
  6
CONTINUOUS
 70
0
 71
3
 72
12
 73
8
 74
0
 42
0.0000001
 43
0.0000001
 44
0.0000000001
 40
0.0
 40
0.0
 40
0.0
 40
0.0
 40
0.3025121285
 40
0.5652461707
 40
0.7928881302
 40
0.8978875942
 40
1.0
 40
1.0
 40
1.0
 40
1.0
 10
-9.5494024296
 20
15.9212602337
 30
0.0
 10
-9.5580917902
 20
15.9256047656
 30
0.0
 10
-9.5737936284
 20
15.9349265464
 30
0.0
 10
-9.5928540363
 20
15.9521121368
 30
0.0
 10
-9.6032922569
 20
15.9685594624
 30
0.0
 10
-9.6073271331
 20
15.982003515
 30
0.0
 10
-9.6079851934
 20
15.9886733047
 30
0.0
 10
-9.6079809782
 20
15.99195256
 30
0.0
  0
SPLINE
  5
403
100
AcDbEntity
  8
0
100
AcDbSpline
 62
253
  6
CONTINUOUS
 70
0
 71
3
 72
12
 73
8
 74
0
 42
0.0000001
 43
0.0000001
 44
0.0000000001
 40
0.0
 40
0.0
 40
0.0
 40
0.0
 40
0.3023958462
 40
0.5650957266
 40
0.7927875107
 40
0.8978343475
 40
1.0
 40
1.0
 40
1.0
 40
1.0
 10
-9.5497382111
 20
15.5741792109
 30
0.0
 10
-9.5584234694
 20
15.5785217661
 30
0.0
 10
-9.5741194173
 20
15.5878410573
 30
0.0
 10
-9.5931744443
 20
15.6050245581
 30
0.0
 10
-9.6036134247
 20
15.6214710645
 30
0.0
 10
-9.6076549612
 20
15.6349167014
 30
0.0
 10
-9.6083181006
 20
15.6415885344
 30
0.0
 10
-9.6083167692
 20
15.6448692254
 30
0.0
  0
SPLINE
  5
404
100
AcDbEntity
  8
ASSI
100
AcDbSpline
 62
7
  6
CONTINUOUS
 70
0
 71
3
 72
16
 73
12
 74
0
 42
0.0000001
 43
0.0000001
 44
0.0000000001
 40
0.0
 40
0.0
 40
0.0
 40
0.0
 40
0.1394463357
 40
0.2830642954
 40
0.4257593982
 40
0.5625826871
 40
0.6894425047
 40
0.8038961459
 40
0.9060835523
 40
0.9537469512
 40
1.0
 40
1.0
 40
1.0
 40
1.0
 10
-19.6819268037
 20
30.3932561503
 30
0.0
 10
-19.6975283338
 20
30.4111776532
 30
0.0
 10
-19.7259956223
 20
30.4504386007
 30
0.0
 10
-19.7589814011
 20
30.5153555136
 30
0.0
 10
-19.7815099254
 20
30.5841613837
 30
0.0
 10
-19.7922574781
 20
30.6529012571
 30
0.0
 10
-19.7905423063
 20
30.7177342811
 30
0.0
 10
-19.7763372307
 20
30.7750696202
 30
0.0
 10
-19.7536357714
 20
30.8149084853
 30
0.0
 10
-19.7299926286
 20
30.8387497196
 30
0.0
 10
-19.7167232404
 20
30.8479001947
 30
0.0
 10
-19.7098301704
 20
30.8517212975
 30
0.0
  0
SPLINE
  5
405
100
AcDbEntity
  8
0
100
AcDbSpline
 62
253
  6
CONTINUOUS
 70
0
 71
3
 72
15
 73
11
 74
0
 42
0.0000001
 43
0.0000001
 44
0.0000000001
 40
0.0
 40
0.0
 40
0.0
 40
0.0
 40
0.1124155133
 40
0.2351930528
 40
0.3653701923
 40
0.4994207639
 40
0.633550701
 40
0.763960582
 40
0.8871076631
 40
1.0
 40
1.0
 40
1.0
 40
1.0
 10
-32.3864645487
 20
26.992542316
 30
0.0
 10
-32.376753974
 20
26.987686946
 30
0.0
 10
-32.3556009569
 20
26.9791697774
 30
0.0
 10
-32.321415741
 20
26.9701453944
 30
0.0
 10
-32.2843925447
 20
26.9645465757
 30
0.0
 10
-32.2459098382
 20
26.9625885078
 30
0.0
 10
-32.2073949035
 20
26.9643431181
 30
0.0
 10
-32.1702764768
 20
26.9697460932
 30
0.0
 10
-32.1359369376
 20
26.9785896052
 30
0.0
 10
-32.1146505482
 20
26.9869896996
 30
0.0
 10
-32.1048613844
 20
26.9917901358
 30
0.0
  0
SPLINE
  5
406
100
AcDbEntity
  8
ASSI
100
AcDbSpline
 62
7
  6
CONTINUOUS
 70
0
 71
3
 72
14
 73
10
 74
0
 42
0.0000001
 43
0.0000001
 44
0.0000000001
 40
0.0
 40
0.0
 40
0.0
 40
0.0
 40
0.2963472197
 40
0.4339191666
 40
0.5628229799
 40
0.6827874704
 40
0.7944069795
 40
0.8992782196
 40
1.0
 40
1.0
 40
1.0
 40
1.0
 10
-20.555002049
 20
30.0342742734
 30
0.0
 10
-20.5616683022
 20
30.0621875142
 30
0.0
 10
-20.5675102432
 20
30.1042658332
 30
0.0
 10
-20.5650497021
 20
30.1588330823
 30
0.0
 10
-20.5582997749
 20
30.1957805296
 30
0.0
 10
-20.5467191348
 20
30.2288842235
 30
0.0
 10
-20.5304971674
 20
30.2573819269
 30
0.0
 10
-20.5099437659
 20
30.2805331091
 30
0.0
 10
-20.4934446138
 20
30.2920786998
 30
0.0
 10
-20.4848238721
 20
30.2966417076
 30
0.0
  0
SPLINE
  5
407
100
AcDbEntity
  8
0
100
AcDbSpline
 62
253
  6
CONTINUOUS
 70
0
 71
3
 72
15
 73
11
 74
0
 42
0.0000001
 43
0.0000001
 44
0.0000000001
 40
0.0
 40
0.0
 40
0.0
 40
0.0
 40
0.1124251276
 40
0.235216248
 40
0.3654069141
 40
0.499467532
 40
0.6336011024
 40
0.7640057067
 40
0.8871365259
 40
1.0
 40
1.0
 40
1.0
 40
1.0
 10
-32.3861227528
 20
27.3396204349
 30
0.0
 10
-32.3764118905
 20
27.3347648318
 30
0.0
 10
-32.3552587975
 20
27.3262455134
 30
0.0
 10
-32.3210740994
 20
27.3172131042
 30
0.0
 10
-32.2840513429
 20
27.3116014086
 30
0.0
 10
-32.2455690203
 20
27.3096261129
 30
0.0
 10
-32.2070544532
 20
27.3113597976
 30
0.0
 10
-32.1699363968
 20
27.3167389072
 30
0.0
 10
-32.1355972357
 20
27.3255564784
 30
0.0
 10
-32.1143096137
 20
27.3339380923
 30
0.0
 10
-32.1045197018
 20
27.3387293717
 30
0.0
  0
SPLINE
  5
408
100
AcDbEntity
  8
0
100
AcDbSpline
 62
253
  6
CONTINUOUS
 70
0
 71
3
 72
12
 73
8
 74
0
 42
0.0000001
 43
0.0000001
 44
0.0000000001
 40
0.0
 40
0.0
 40
0.0
 40
0.0
 40
0.2896313627
 40
0.5493117565
 40
0.7823183127
 40
0.8922406959
 40
1.0
 40
1.0
 40
1.0
 40
1.0
 10
-31.8900196565
 20
27.699131281
 30
0.0
 10
-31.890049522
 20
27.6869123579
 30
0.0
 10
-31.8881260941
 20
27.6636419988
 30
0.0
 10
-31.8782824498
 20
27.6318217925
 30
0.0
 10
-31.8641469364
 20
27.6101423271
 30
0.0
 10
-31.84996711
 20
27.5973460413
 30
0.0
 10
-31.8421122469
 20
27.5924727623
 30
0.0
 10
-31.8380461619
 20
27.59043944
 30
0.0
  0
SPLINE
  5
409
100
AcDbEntity
  8
0
100
AcDbSpline
 62
253
  6
CONTINUOUS
 70
0
 71
3
 72
12
 73
8
 74
0
 42
0.0000001
 43
0.0000001
 44
0.0000000001
 40
0.0
 40
0.0
 40
0.0
 40
0.0
 40
0.2896326202
 40
0.5493126958
 40
0.7823181721
 40
0.8922403422
 40
1.0
 40
1.0
 40
1.0
 40
1.0
 10
-25.9531335122
 20
24.7306882088
 30
0.0
 10
-25.953163379
 20
24.7184687462
 30
0.0
 10
-25.9512397851
 20
24.6951974111
 30
0.0
 10
-25.9413952414
 20
24.6633760598
 30
0.0
 10
-25.9272584103
 20
24.6416962304
 30
0.0
 10
-25.9130773624
 20
24.6289002049
 30
0.0
 10
-25.9052218651
 20
24.6240272267
 30
0.0
 10
-25.901155467
 20
24.6219940924
 30
0.0
  0
SPLINE
  5
40A
100
AcDbEntity
  8
0
100
AcDbSpline
 62
253
  6
CONTINUOUS
 70
0
 71
3
 72
12
 73
8
 74
0
 42
0.0000001
 43
0.0000001
 44
0.0000000001
 40
0.0
 40
0.0
 40
0.0
 40
0.0
 40
0.3025121285
 40
0.5652461707
 40
0.7928881302
 40
0.8978875942
 40
1.0
 40
1.0
 40
1.0
 40
1.0
 10
-25.4593050063
 20
23.8762115221
 30
0.0
 10
-25.4679943669
 20
23.8805560539
 30
0.0
 10
-25.4836962051
 20
23.8898778348
 30
0.0
 10
-25.502756613
 20
23.9070634252
 30
0.0
 10
-25.5131948336
 20
23.9235107508
 30
0.0
 10
-25.5172297098
 20
23.9369548034
 30
0.0
 10
-25.5178877701
 20
23.9436245931
 30
0.0
 10
-25.5178835549
 20
23.9469038483
 30
0.0
  0
SPLINE
  5
40B
100
AcDbEntity
  8
0
100
AcDbSpline
 62
253
  6
CONTINUOUS
 70
0
 71
3
 72
12
 73
8
 74
0
 42
0.0000001
 43
0.0000001
 44
0.0000000001
 40
0.0
 40
0.0
 40
0.0
 40
0.0
 40
0.1075242348
 40
0.2172485189
 40
0.450070632
 40
0.7099217025
 40
1.0
 40
1.0
 40
1.0
 40
1.0
 10
-16.2131315602
 20
18.9019487569
 30
0.0
 10
-16.2090110907
 20
18.9039296334
 30
0.0
 10
-16.2010378927
 20
18.9087149408
 30
0.0
 10
-16.1865965599
 20
18.9214060642
 30
0.0
 10
-16.1721089978
 20
18.9430927795
 30
0.0
 10
-16.1618619769
 20
18.9750813653
 30
0.0
 10
-16.1596944921
 20
18.9985415605
 30
0.0
 10
-16.1596061606
 20
19.010875253
 30
0.0
  0
SPLINE
  5
40C
100
AcDbEntity
  8
0
100
AcDbSpline
 62
253
  6
CONTINUOUS
 70
0
 71
3
 72
12
 73
8
 74
0
 42
0.0000001
 43
0.0000001
 44
0.0000000001
 40
0.0
 40
0.0
 40
0.0
 40
0.0
 40
0.3023958462
 40
0.5650957266
 40
0.7927875107
 40
0.8978343475
 40
1.0
 40
1.0
 40
1.0
 40
1.0
 10
-25.4596407878
 20
23.5291304993
 30
0.0
 10
-25.4683260461
 20
23.5334730544
 30
0.0
 10
-25.484021994
 20
23.5427923456
 30
0.0
 10
-25.503077021
 20
23.5599758465
 30
0.0
 10
-25.5135160014
 20
23.5764223528
 30
0.0
 10
-25.5175575379
 20
23.5898679897
 30
0.0
 10
-25.5182206773
 20
23.5965398228
 30
0.0
 10
-25.5182193459
 20
23.5998205137
 30
0.0
  0
SPLINE
  5
40D
100
AcDbEntity
  8
ASSI
100
AcDbSpline
 62
7
  6
CONTINUOUS
 70
0
 71
3
 72
9
 73
5
 74
0
 42
0.0000001
 43
0.0000001
 44
0.0000000001
 40
0.0
 40
0.0
 40
0.0
 40
0.0
 40
0.2460739115
 40
1.0
 40
1.0
 40
1.0
 40
1.0
 10
-22.8835114942
 20
31.5586066492
 30
0.0
 10
-22.8853148219
 20
31.5585803448
 30
0.0
 10
-22.8926448591
 20
31.55861651
 30
0.0
 10
-22.8999700738
 20
31.5592174044
 30
0.0
 10
-22.905445874
 20
31.5599580219
 30
0.0
  0
SPLINE
  5
40E
100
AcDbEntity
  8
ASSI
100
AcDbSpline
 62
7
  6
CONTINUOUS
 70
0
 71
3
 72
21
 73
17
 74
0
 42
0.0000001
 43
0.0000001
 44
0.0000000001
 40
0.0
 40
0.0
 40
0.0
 40
0.0
 40
0.1095727641
 40
0.1714710999
 40
0.237600763
 40
0.3071962423
 40
0.3792240865
 40
0.5254785813
 40
0.5973695264
 40
0.6667594388
 40
0.7326458995
 40
0.7943021967
 40
0.8513871712
 40
0.9040682898
 40
0.953130502
 40
1.0
 40
1.0
 40
1.0
 40
1.0
 10
-22.905445874
 20
31.5599580219
 30
0.0
 10
-22.9307719301
 20
31.5633834431
 30
0.0
 10
-22.9692209681
 20
31.5784181684
 30
0.0
 10
-23.0147951348
 20
31.6100069346
 30
0.0
 10
-23.0487905765
 20
31.6413865372
 30
0.0
 10
-23.0800804254
 20
31.6785311158
 30
0.0
 10
-23.1172360475
 20
31.7345872963
 30
0.0
 10
-23.1452551349
 20
31.7968964855
 30
0.0
 10
-23.1624691747
 20
31.8618241874
 30
0.0
 10
-23.169394436
 20
31.90976933
 30
0.0
 10
-23.170191616
 20
31.9558290898
 30
0.0
 10
-23.1648153256
 20
31.9987224656
 30
0.0
 10
-23.1533658698
 20
32.0372484334
 30
0.0
 10
-23.1360568118
 20
32.0703127078
 30
0.0
 10
-23.1132657518
 20
32.0968616955
 30
0.0
 10
-23.0945573619
 20
32.1097041915
 30
0.0
 10
-23.0847795584
 20
32.1145928335
 30
0.0
  0
SPLINE
  5
40F
100
AcDbEntity
  8
0
100
AcDbSpline
 62
253
  6
CONTINUOUS
 70
0
 71
3
 72
12
 73
8
 74
0
 42
0.0000001
 43
0.0000001
 44
0.0000000001
 40
0.0
 40
0.0
 40
0.0
 40
0.0
 40
0.2897044294
 40
0.5494119684
 40
0.7823982704
 40
0.8922885957
 40
1.0
 40
1.0
 40
1.0
 40
1.0
 10
-9.5497382731
 20
15.5741815903
 30
0.0
 10
-9.5497480748
 20
15.5589596015
 30
0.0
 10
-9.5473067374
 20
15.5299769361
 30
0.0
 10
-9.5350016353
 20
15.4903575312
 30
0.0
 10
-9.5173813443
 20
15.4633703229
 30
0.0
 10
-9.49972044
 20
15.4474419829
 30
0.0
 10
-9.4899404266
 20
15.4413762204
 30
0.0
 10
-9.484878439
 20
15.4388451696
 30
0.0
  0
SPLINE
  5
410
100
AcDbEntity
  8
0
100
AcDbSpline
 62
253
  6
CONTINUOUS
 70
0
 71
3
 72
12
 73
8
 74
0
 42
0.0000001
 43
0.0000001
 44
0.0000000001
 40
0.0
 40
0.0
 40
0.0
 40
0.0
 40
0.2897044294
 40
0.5494119684
 40
0.7823982704
 40
0.8922885957
 40
1.0
 40
1.0
 40
1.0
 40
1.0
 10
-25.4596408498
 20
23.5291328787
 30
0.0
 10
-25.4596506515
 20
23.5139108898
 30
0.0
 10
-25.4572093141
 20
23.4849282244
 30
0.0
 10
-25.444904212
 20
23.4453088195
 30
0.0
 10
-25.427283921
 20
23.4183216112
 30
0.0
 10
-25.4096230167
 20
23.4023932712
 30
0.0
 10
-25.3998430033
 20
23.3963275088
 30
0.0
 10
-25.3947810157
 20
23.393796458
 30
0.0
  0
SPLINE
  5
411
100
AcDbEntity
  8
ASSI
100
AcDbSpline
 62
7
  6
CONTINUOUS
 70
0
 71
3
 72
9
 73
5
 74
0
 42
0.0000001
 43
0.0000001
 44
0.0000000001
 40
0.0
 40
0.0
 40
0.0
 40
0.0
 40
0.254083194
 40
1.0
 40
1.0
 40
1.0
 40
1.0
 10
-21.5917799472
 20
30.7739704859
 30
0.0
 10
-21.5908791303
 20
30.7754687878
 30
0.0
 10
-21.587239608
 20
30.7813083471
 30
0.0
 10
-21.5832179507
 20
30.7869113967
 30
0.0
 10
-21.5800071642
 20
30.7909154058
 30
0.0
  0
SPLINE
  5
412
100
AcDbEntity
  8
ASSI
100
AcDbSpline
 62
7
  6
CONTINUOUS
 70
0
 71
3
 72
9
 73
5
 74
0
 42
0.0000001
 43
0.0000001
 44
0.0000000001
 40
0.0
 40
0.0
 40
0.0
 40
0.0
 40
0.2531585426
 40
1.0
 40
1.0
 40
1.0
 40
1.0
 10
-21.5789919021
 20
30.7921670576
 30
0.0
 10
-21.5779689993
 20
30.7934137453
 30
0.0
 10
-21.5738455987
 20
30.7982695478
 30
0.0
 10
-21.5693876966
 20
30.8028426911
 30
0.0
 10
-21.5658847464
 20
30.8060617212
 30
0.0
  0
SPLINE
  5
413
100
AcDbEntity
  8
ASSI
100
AcDbSpline
 62
7
  6
CONTINUOUS
 70
0
 71
3
 72
24
 73
20
 74
0
 42
0.0000001
 43
0.0000001
 44
0.0000000001
 40
0.0
 40
0.0
 40
0.0
 40
0.0
 40
0.0230018801
 40
0.0463136675
 40
0.094526814
 40
0.1459302631
 40
0.2012384206
 40
0.2606800628
 40
0.3240721528
 40
0.3909097557
 40
0.4604505413
 40
0.5317893394
 40
0.6039242513
 40
0.6758170328
 40
0.7464503185
 40
0.8148840419
 40
0.8803135126
 40
0.9421319336
 40
1.0
 40
1.0
 40
1.0
 40
1.0
 10
-20.4663497296
 20
30.9988821373
 30
0.0
 10
-20.4811647222
 20
30.9934319265
 30
0.0
 10
-20.5117097741
 20
30.9843001133
 30
0.0
 10
-20.575782938
 20
30.9733498546
 30
0.0
 10
-20.6609248585
 20
30.9741129691
 30
0.0
 10
-20.7653316711
 20
30.9974027006
 30
0.0
 10
-20.8708314023
 20
31.0420758485
 30
0.0
 10
-20.9749996081
 20
31.1068816969
 30
0.0
 10
-21.0754746294
 20
31.1901913336
 30
0.0
 10
-21.1699064075
 20
31.2899990516
 30
0.0
 10
-21.2560454404
 20
31.4039209209
 30
0.0
 10
-21.3318086029
 20
31.5292378607
 30
0.0
 10
-21.3953472218
 20
31.6629561091
 30
0.0
 10
-21.4451025844
 20
31.801880575
 30
0.0
 10
-21.479849382
 20
31.942697552
 30
0.0
 10
-21.4987286149
 20
32.0820529867
 30
0.0
 10
-21.5012537984
 20
32.2166605066
 30
0.0
 10
-21.4873376002
 20
32.3433012181
 30
0.0
 10
-21.4665359673
 20
32.4231769649
 30
0.0
 10
-21.4532513467
 20
32.4606028056
 30
0.0
  0
SPLINE
  5
414
100
AcDbEntity
  8
ASSI
100
AcDbSpline
 62
7
  6
CONTINUOUS
 70
0
 71
3
 72
16
 73
12
 74
0
 42
0.0000001
 43
0.0000001
 44
0.0000000001
 40
0.0
 40
0.0
 40
0.0
 40
0.0
 40
0.138308969
 40
0.2809429035
 40
0.4229527014
 40
0.5595066381
 40
0.6865854471
 40
0.8017415362
 40
0.9049840784
 40
0.9532150837
 40
1.0
 40
1.0
 40
1.0
 40
1.0
 10
-22.9730086059
 20
33.8189502541
 30
0.0
 10
-22.9884631145
 20
33.8369922803
 30
0.0
 10
-23.0165524163
 20
33.8765665348
 30
0.0
 10
-23.0487168216
 20
33.9420167827
 30
0.0
 10
-23.0702262312
 20
34.0114144978
 30
0.0
 10
-23.0798201621
 20
34.0807650352
 30
0.0
 10
-23.0768870399
 20
34.1461880873
 30
0.0
 10
-23.0614703085
 20
34.2040460335
 30
0.0
 10
-23.0378415225
 20
34.244209743
 30
0.0
 10
-23.0135457271
 20
34.2682947216
 30
0.0
 10
-22.9999714272
 20
34.2775580385
 30
0.0
 10
-22.9929304013
 20
34.2814308902
 30
0.0
  0
SPLINE
  5
415
100
AcDbEntity
  8
0
100
AcDbSpline
 62
253
  6
CONTINUOUS
 70
0
 71
3
 72
14
 73
10
 74
0
 42
0.0000001
 43
0.0000001
 44
0.0000000001
 40
0.0
 40
0.0
 40
0.0
 40
0.0
 40
0.2890006464
 40
0.422447039
 40
0.5485688397
 40
0.6680269754
 40
0.7819562744
 40
0.8919551716
 40
1.0
 40
1.0
 40
1.0
 40
1.0
 10
-32.1045197623
 20
27.3387268684
 30
0.0
 10
-32.104551432
 20
27.3694271538
 30
0.0
 10
-32.100708411
 20
27.4145586337
 30
0.0
 10
-32.0858902047
 20
27.471034302
 30
0.0
 10
-32.0708252721
 20
27.5085058471
 30
0.0
 10
-32.0516806553
 20
27.5417113264
 30
0.0
 10
-32.0286552489
 20
27.570216915
 30
0.0
 10
-32.0020310784
 20
27.5936066063
 30
0.0
 10
-31.9820352769
 20
27.6055954542
 30
0.0
 10
-31.9716926203
 20
27.6105716748
 30
0.0
  0
SPLINE
  5
416
100
AcDbEntity
  8
0
100
AcDbSpline
 62
253
  6
CONTINUOUS
 70
0
 71
3
 72
14
 73
10
 74
0
 42
0.0000001
 43
0.0000001
 44
0.0000000001
 40
0.0
 40
0.0
 40
0.0
 40
0.0
 40
0.2890006464
 40
0.422447039
 40
0.5485688397
 40
0.6680269754
 40
0.7819562744
 40
0.8919551716
 40
1.0
 40
1.0
 40
1.0
 40
1.0
 10
-16.1946171856
 20
19.3837755801
 30
0.0
 10
-16.1946488553
 20
19.4144758654
 30
0.0
 10
-16.1908058344
 20
19.4596073454
 30
0.0
 10
-16.175987628
 20
19.5160830136
 30
0.0
 10
-16.1609226954
 20
19.5535545588
 30
0.0
 10
-16.1417780786
 20
19.586760038
 30
0.0
 10
-16.1187526722
 20
19.6152656267
 30
0.0
 10
-16.0921285017
 20
19.6386553179
 30
0.0
 10
-16.0721327002
 20
19.6506441659
 30
0.0
 10
-16.0617900436
 20
19.6556203864
 30
0.0
  0
SPLINE
  5
417
100
AcDbEntity
  8
ASSI
100
AcDbSpline
 62
7
  6
CONTINUOUS
 70
0
 71
3
 72
13
 73
9
 74
0
 42
0.0000001
 43
0.0000001
 44
0.0000000001
 40
0.0
 40
0.0
 40
0.0
 40
0.0
 40
0.2923981458
 40
0.557536077
 40
0.6782620384
 40
0.7911999879
 40
0.897691029
 40
1.0
 40
1.0
 40
1.0
 40
1.0
 10
-21.7525641732
 20
34.9496019994
 30
0.0
 10
-21.7582812642
 20
34.978498502
 30
0.0
 10
-21.7636625905
 20
35.0348991044
 30
0.0
 10
-21.7536901959
 20
35.1034478044
 30
0.0
 10
-21.7349557176
 20
35.1503096577
 30
0.0
 10
-21.7167048664
 20
35.1795613912
 30
0.0
 10
-21.6942080905
 20
35.20322179
 30
0.0
 10
-21.6764718476
 20
35.214946757
 30
0.0
 10
-21.6672532393
 20
35.2195561556
 30
0.0
  0
SPLINE
  5
418
100
AcDbEntity
  8
0
100
AcDbSpline
 62
253
  6
CONTINUOUS
 70
0
 71
3
 72
13
 73
9
 74
0
 42
0.0000001
 43
0.0000001
 44
0.0000000001
 40
0.0
 40
0.0
 40
0.0
 40
0.0
 40
0.3026544059
 40
0.5653641073
 40
0.6831610397
 40
0.7934332732
 40
0.8981918807
 40
1.0
 40
1.0
 40
1.0
 40
1.0
 10
-36.3251240776
 20
28.9618720817
 30
0.0
 10
-36.3468348034
 20
28.9727271372
 30
0.0
 10
-36.3860425532
 20
28.9959571869
 30
0.0
 10
-36.4271593894
 20
29.0330225389
 30
0.0
 10
-36.4503682966
 20
29.0649809476
 30
0.0
 10
-36.4625355498
 20
29.0888828029
 30
0.0
 10
-36.4699229844
 20
29.1133422134
 30
0.0
 10
-36.4715781078
 20
29.1299540015
 30
0.0
 10
-36.4715730826
 20
29.1381191149
 30
0.0
  0
SPLINE
  5
419
100
AcDbEntity
  8
0
100
AcDbSpline
 62
253
  6
CONTINUOUS
 70
0
 71
3
 72
15
 73
11
 74
0
 42
0.0000001
 43
0.0000001
 44
0.0000000001
 40
0.0
 40
0.0
 40
0.0
 40
0.0
 40
0.1241149504
 40
0.2531143423
 40
0.3847337854
 40
0.5165443163
 40
0.6461056551
 40
0.7711190614
 40
0.8895884093
 40
1.0
 40
1.0
 40
1.0
 40
1.0
 10
-35.5882399195
 20
47.378503547
 30
0.0
 10
-35.5821833257
 20
47.4317129245
 30
0.0
 10
-35.5630278558
 20
47.5395325006
 30
0.0
 10
-35.516038529
 20
47.699055809
 30
0.0
 10
-35.4514245293
 20
47.8558969496
 30
0.0
 10
-35.3710403129
 20
48.0055370704
 30
0.0
 10
-35.2771876725
 20
48.1437032815
 30
0.0
 10
-35.1725241929
 20
48.2664583354
 30
0.0
 10
-35.060047607
 20
48.3702836906
 30
0.0
 10
-34.9787593872
 20
48.4271157338
 30
0.0
 10
-34.9376045264
 20
48.4511130576
 30
0.0
  0
SPLINE
  5
41A
100
AcDbEntity
  8
0
100
AcDbSpline
 62
253
  6
CONTINUOUS
 70
0
 71
3
 72
15
 73
11
 74
0
 42
0.0000001
 43
0.0000001
 44
0.0000000001
 40
0.0
 40
0.0
 40
0.0
 40
0.0
 40
0.1134191016
 40
0.2368692256
 40
0.3673531896
 40
0.5013761997
 40
0.6352115928
 40
0.7651447264
 40
0.8877179173
 40
1.0
 40
1.0
 40
1.0
 40
1.0
 10
-4.8506550099
 20
21.5040350582
 30
0.0
 10
-4.8752981133
 20
21.4930999004
 30
0.0
 10
-4.9285316914
 20
21.474164324
 30
0.0
 10
-5.0138291558
 20
21.4547534554
 30
0.0
 10
-5.1055284763
 20
21.4436175914
 30
0.0
 10
-5.200321758
 20
21.4411733769
 30
0.0
 10
-5.2948039395
 20
21.4475082269
 30
0.0
 10
-5.3855825419
 20
21.4623945241
 30
0.0
 10
-5.4693852489
 20
21.4852799028
 30
0.0
 10
-5.5212793157
 20
21.5064040292
 30
0.0
 10
-5.5451437584
 20
21.5183559407
 30
0.0
  0
SPLINE
  5
41B
100
AcDbEntity
  8
0
100
AcDbSpline
 62
253
  6
CONTINUOUS
 70
0
 71
3
 72
12
 73
8
 74
0
 42
0.0000001
 43
0.0000001
 44
0.0000000001
 40
0.0
 40
0.0
 40
0.0
 40
0.0
 40
0.107917674
 40
0.2179642154
 40
0.4510729963
 40
0.7106431381
 40
1.0
 40
1.0
 40
1.0
 40
1.0
 10
-16.4114873944
 20
18.9021496485
 30
0.0
 10
-16.4165653136
 20
18.9046895764
 30
0.0
 10
-16.4263752067
 20
18.9107711057
 30
0.0
 10
-16.4440891412
 20
18.9267242244
 30
0.0
 10
-16.4617681815
 20
18.9537314186
 30
0.0
 10
-16.4741202601
 20
18.9933745677
 30
0.0
 10
-16.4765718003
 20
19.0223699206
 30
0.0
 10
-16.4765619706
 20
19.0375934391
 30
0.0
  0
SPLINE
  5
41C
100
AcDbEntity
  8
ASSI
100
AcDbSpline
 62
7
  6
CONTINUOUS
 70
0
 71
3
 72
10
 73
6
 74
0
 42
0.0000001
 43
0.0000001
 44
0.0000000001
 40
0.0
 40
0.0
 40
0.0
 40
0.0
 40
0.271910955
 40
0.530954584
 40
1.0
 40
1.0
 40
1.0
 40
1.0
 10
-21.9718365732
 20
29.7317023481
 30
0.0
 10
-21.9750567576
 20
29.7462570648
 30
0.0
 10
-21.979871526
 20
29.7750527341
 30
0.0
 10
-21.9826679046
 20
29.8298292842
 30
0.0
 10
-21.9772681881
 20
29.8701518967
 30
0.0
 10
-21.9693572669
 20
29.8946187376
 30
0.0
  0
SPLINE
  5
41D
100
AcDbEntity
  8
0
100
AcDbSpline
 62
253
  6
CONTINUOUS
 70
0
 71
3
 72
15
 73
11
 74
0
 42
0.0000001
 43
0.0000001
 44
0.0000000001
 40
0.0
 40
0.0
 40
0.0
 40
0.0
 40
0.1139174205
 40
0.2376522064
 40
0.3682331936
 40
0.5021996042
 40
0.6358658095
 40
0.7655656427
 40
0.8878984346
 40
1.0
 40
1.0
 40
1.0
 40
1.0
 10
-4.9165232507
 20
13.5967912643
 30
0.0
 10
-4.9411387642
 20
13.5854527931
 30
0.0
 10
-4.9943283946
 20
13.5657038654
 30
0.0
 10
-5.0796523493
 20
13.5451492117
 30
0.0
 10
-5.1713771252
 20
13.5329552026
 30
0.0
 10
-5.2661946968
 20
13.5295758669
 30
0.0
 10
-5.3607004556
 20
13.5351314787
 30
0.0
 10
-5.4515032087
 20
13.5494230323
 30
0.0
 10
-5.5353312414
 20
13.5719202434
 30
0.0
 10
-5.5872250665
 20
13.5929222384
 30
0.0
 10
-5.6110787453
 20
13.6048494155
 30
0.0
  0
SPLINE
  5
41E
100
AcDbEntity
  8
0
100
AcDbSpline
 62
253
  6
CONTINUOUS
 70
0
 71
3
 72
15
 73
11
 74
0
 42
0.0000001
 43
0.0000001
 44
0.0000000001
 40
0.0
 40
0.0
 40
0.0
 40
0.0
 40
0.1089523429
 40
0.2298885069
 40
0.3595373037
 40
0.4940819625
 40
0.629423961
 40
0.7614202868
 40
0.8861171526
 40
1.0
 40
1.0
 40
1.0
 40
1.0
 10
-4.1305471932
 20
31.9223662338
 30
0.0
 10
-4.155234306
 20
31.9152657412
 30
0.0
 10
-4.2084191698
 20
31.9040217674
 30
0.0
 10
-4.2928506259
 20
31.8952820003
 30
0.0
 10
-4.3837558616
 20
31.8940007441
 30
0.0
 10
-4.477843198
 20
31.9002469425
 30
0.0
 10
-4.571716339
 20
31.9138016204
 30
0.0
 10
-4.6619824414
 20
31.9341727035
 30
0.0
 10
-4.7453711321
 20
31.960604291
 30
0.0
 10
-4.7972012547
 20
31.9828145115
 30
0.0
 10
-4.821148737
 20
31.9949579559
 30
0.0
  0
SPLINE
  5
41F
100
AcDbEntity
  8
0
100
AcDbSpline
 62
253
  6
CONTINUOUS
 70
0
 71
3
 72
15
 73
11
 74
0
 42
0.0000001
 43
0.0000001
 44
0.0000000001
 40
0.0
 40
0.0
 40
0.0
 40
0.0
 40
0.1185434826
 40
0.2452800613
 40
0.3772941857
 40
0.5112413573
 40
0.6436287347
 40
0.7710828351
 40
0.8906275553
 40
1.0
 40
1.0
 40
1.0
 40
1.0
 10
-3.7878861589
 20
32.4499993202
 30
0.0
 10
-3.7891891468
 20
32.4788504162
 30
0.0
 10
-3.7966253327
 20
32.5383827189
 30
0.0
 10
-3.819742075
 20
32.627562864
 30
0.0
 10
-3.8544063824
 20
32.7169570443
 30
0.0
 10
-3.8993241576
 20
32.8032032077
 30
0.0
 10
-3.9528141883
 20
32.8830851322
 30
0.0
 10
-4.0128939986
 20
32.9536286042
 30
0.0
 10
-4.077311289
 20
33.0122008336
 30
0.0
 10
-4.1239270735
 20
33.0433734533
 30
0.0
 10
-4.1473888937
 20
33.0560052412
 30
0.0
  0
SPLINE
  5
420
100
AcDbEntity
  8
0
100
AcDbSpline
 62
253
  6
CONTINUOUS
 70
0
 71
3
 72
15
 73
11
 74
0
 42
0.0000001
 43
0.0000001
 44
0.0000000001
 40
0.0
 40
0.0
 40
0.0
 40
0.0
 40
0.1117716591
 40
0.2310745231
 40
0.3564357489
 40
0.4859267134
 40
0.6173362486
 40
0.7483283654
 40
0.8765933458
 40
1.0
 40
1.0
 40
1.0
 40
1.0
 10
-4.1473888937
 20
33.0560052412
 30
0.0
 10
-4.1898791639
 20
33.0328084688
 30
0.0
 10
-4.2738726099
 20
32.9775926952
 30
0.0
 10
-4.3904209568
 20
32.8757629011
 30
0.0
 10
-4.4988713083
 20
32.754845743
 30
0.0
 10
-4.596117425
 20
32.6183115738
 30
0.0
 10
-4.679406624
 20
32.4700533705
 30
0.0
 10
-4.7463554396
 20
32.3143018435
 30
0.0
 10
-4.7950419243
 20
32.1555433173
 30
0.0
 10
-4.8148794771
 20
32.0480381334
 30
0.0
 10
-4.8211487372
 20
31.9949579559
 30
0.0
  0
SPLINE
  5
421
100
AcDbEntity
  8
0
100
AcDbSpline
 62
253
  6
CONTINUOUS
 70
0
 71
3
 72
15
 73
11
 74
0
 42
0.0000001
 43
0.0000001
 44
0.0000000001
 40
0.0
 40
0.0
 40
0.0
 40
0.0
 40
0.1124395171
 40
0.2321484377
 40
0.3576757059
 40
0.4871281619
 40
0.6183395051
 40
0.7490256616
 40
0.8769348919
 40
1.0
 40
1.0
 40
1.0
 40
1.0
 10
-3.7878861589
 20
32.4499993202
 30
0.0
 10
-3.8094599463
 20
32.4386021503
 30
0.0
 10
-3.8521224491
 20
32.4114030569
 30
0.0
 10
-3.9114058531
 20
32.3609996685
 30
0.0
 10
-3.9665743302
 20
32.3010119927
 30
0.0
 10
-4.0160477012
 20
32.2331600319
 30
0.0
 10
-4.0584246888
 20
32.159377022
 30
0.0
 10
-4.0924910203
 20
32.0817669973
 30
0.0
 10
-4.1172663185
 20
32.0025659011
 30
0.0
 10
-4.127358574
 20
31.9488801874
 30
0.0
 10
-4.1305471932
 20
31.9223662338
 30
0.0
  0
SPLINE
  5
422
100
AcDbEntity
  8
0
100
AcDbSpline
 62
253
  6
CONTINUOUS
 70
0
 71
3
 72
15
 73
11
 74
0
 42
0.0000001
 43
0.0000001
 44
0.0000000001
 40
0.0
 40
0.0
 40
0.0
 40
0.0
 40
0.110301657
 40
0.2298286899
 40
0.3566787088
 40
0.4882243181
 40
0.6214214549
 40
0.7530868041
 40
0.8801645098
 40
1.0
 40
1.0
 40
1.0
 40
1.0
 10
-10.0432309355
 20
16.7757369205
 30
0.0
 10
-10.0093458278
 20
16.7587940154
 30
0.0
 10
-9.9421959781
 20
16.7163726468
 30
0.0
 10
-9.8500330177
 20
16.6350496436
 30
0.0
 10
-9.7652324387
 20
16.5362681151
 30
0.0
 10
-9.6909594078
 20
16.4237374386
 30
0.0
 10
-9.629947941
 20
16.3016600563
 30
0.0
 10
-9.5844720506
 20
16.1745930231
 30
0.0
 10
-9.5562242867
 20
16.0473207188
 30
0.0
 10
-9.5493495374
 20
15.9624196057
 30
0.0
 10
-9.5494024296
 20
15.9212602337
 30
0.0
  0
SPLINE
  5
423
100
AcDbEntity
  8
ASSI
100
AcDbSpline
 62
7
  6
CONTINUOUS
 70
0
 71
3
 72
16
 73
12
 74
0
 42
0.0000001
 43
0.0000001
 44
0.0000000001
 40
0.0
 40
0.0
 40
0.0
 40
0.0
 40
0.0479051726
 40
0.0964180582
 40
0.1977885505
 40
0.3087214334
 40
0.4309521324
 40
0.5639252864
 40
0.705402074
 40
0.8520577911
 40
1.0
 40
1.0
 40
1.0
 40
1.0
 10
-21.1557635308
 20
33.4662208949
 30
0.0
 10
-21.1621592281
 20
33.4632967229
 30
0.0
 10
-21.1755595327
 20
33.4584936938
 30
0.0
 10
-21.2042576306
 20
33.4533741564
 30
0.0
 10
-21.243100366
 20
33.4560969759
 30
0.0
 10
-21.289732688
 20
33.4729894948
 30
0.0
 10
-21.3352456341
 20
33.502279442
 30
0.0
 10
-21.377729859
 20
33.5425221702
 30
0.0
 10
-21.4153739472
 20
33.5918612957
 30
0.0
 10
-21.4464961714
 20
33.6480360091
 30
0.0
 10
-21.4620473205
 20
33.688570376
 30
0.0
 10
-21.4683668445
 20
33.7093485167
 30
0.0
  0
SPLINE
  5
424
100
AcDbEntity
  8
ASSI
100
AcDbSpline
 62
7
  6
CONTINUOUS
 70
0
 71
3
 72
14
 73
10
 74
0
 42
0.0000001
 43
0.0000001
 44
0.0000000001
 40
0.0
 40
0.0
 40
0.0
 40
0.0
 40
0.1080571514
 40
0.2181724094
 40
0.3323148043
 40
0.452038369
 40
0.5783935918
 40
0.711921023
 40
1.0
 40
1.0
 40
1.0
 40
1.0
 10
-21.9518034858
 20
32.9006919294
 30
0.0
 10
-21.958856356
 20
32.8975857889
 30
0.0
 10
-21.9737267936
 20
32.8926506401
 30
0.0
 10
-21.9973353128
 20
32.8894548522
 30
0.0
 10
-22.0219649228
 20
32.8904538726
 30
0.0
 10
-22.0472346302
 20
32.8956022264
 30
0.0
 10
-22.0727917289
 20
32.904795644
 30
0.0
 10
-22.1076280485
 20
32.9226824112
 30
0.0
 10
-22.1317862116
 20
32.9410855334
 30
0.0
 10
-22.14694336
 20
32.9549557269
 30
0.0
  0
LINE
  5
425
100
AcDbEntity
  8
0
100
AcDbLine
 62
253
  6
CONTINUOUS
 10
-16.1949588077
 20
19.0368388474
 11
-16.19461719
 21
19.383775578
  0
SPLINE
  5
426
100
AcDbEntity
  8
0
100
AcDbSpline
 62
253
  6
CONTINUOUS
 70
0
 71
3
 72
15
 73
11
 74
0
 42
0.0000001
 43
0.0000001
 44
0.0000000001
 40
0.0
 40
0.0
 40
0.0
 40
0.0
 40
0.1345527125
 40
0.2568320989
 40
0.3702377152
 40
0.4804408846
 40
0.5940724099
 40
0.7167401923
 40
0.851753417
 40
1.0
 40
1.0
 40
1.0
 40
1.0
 10
-16.1596061606
 20
19.010875253
 30
0.0
 10
-16.1618158303
 20
19.0098130165
 30
0.0
 10
-16.1662370057
 20
19.0081608448
 30
0.0
 10
-16.17300222
 20
19.0073117927
 30
0.0
 10
-16.1793236909
 20
19.0083118974
 30
0.0
 10
-16.1848802229
 20
19.0111792819
 30
0.0
 10
-16.1893690586
 20
19.0157553232
 30
0.0
 10
-16.1926210027
 20
19.0217721576
 30
0.0
 10
-16.1945694603
 20
19.0289610877
 30
0.0
 10
-16.194960519
 20
19.034137596
 30
0.0
 10
-16.1949588077
 20
19.0368388474
 30
0.0
  0
ELLIPSE
  5
427
100
AcDbEntity
  8
0
100
AcDbEllipse
 62
7
  6
CONTINUOUS
 10
40.5355200751
 20
47.1325671127
 30
0.0
 11
-28.3378823478
 21
99.5817335985
 31
0.0
 40
0.6808569335
 41
-4.5517697485
 42
-4.5459924586
  0
ELLIPSE
  5
428
100
AcDbEntity
  8
0
100
AcDbEllipse
 62
7
  6
CONTINUOUS
 10
44.422043407
 20
45.1893054468
 30
0.0
 11
71.1613499862
 21
64.4303683499
 31
0.0
 40
0.284524016
 41
2.395440244
 42
2.401216876
  0
ELLIPSE
  5
429
100
AcDbEntity
  8
0
100
AcDbEllipse
 62
7
  6
CONTINUOUS
 10
44.422043407
 20
45.1893054468
 30
0.0
 11
71.1613499862
 21
64.4303683499
 31
0.0
 40
0.284524016
 41
2.4330141865
 42
2.4388019667
  0
ELLIPSE
  5
42A
100
AcDbEntity
  8
0
100
AcDbEllipse
 62
7
  6
CONTINUOUS
 10
40.5355200751
 20
47.1325671127
 30
0.0
 11
-28.3378823562
 21
99.5817335997
 31
0.0
 40
0.6808569335
 41
-4.5141895242
 42
-4.5084003543
  0
ELLIPSE
  5
42B
100
AcDbEntity
  8
0
100
AcDbEllipse
 62
7
  6
CONTINUOUS
 10
41.0254177657
 20
46.8876182674
 30
0.0
 11
-28.3378823562
 21
99.5817335997
 31
0.0
 40
0.6808569335
 41
-4.5551047089
 42
-4.5493280769
  0
ELLIPSE
  5
42C
100
AcDbEntity
  8
0
100
AcDbEllipse
 62
7
  6
CONTINUOUS
 10
44.9119410978
 20
44.9443566014
 30
0.0
 11
71.1613499862
 21
64.4303683499
 31
0.0
 40
0.284524016
 41
2.3987752044
 42
2.4045524943
  0
ELLIPSE
  5
42D
100
AcDbEntity
  8
0
100
AcDbEllipse
 62
7
  6
CONTINUOUS
 10
44.9119410978
 20
44.9443566014
 30
0.0
 11
71.1613499862
 21
64.4303683499
 31
0.0
 40
0.284524016
 41
2.4363554287
 42
2.4421445986
  0
ELLIPSE
  5
42E
100
AcDbEntity
  8
0
100
AcDbEllipse
 62
7
  6
CONTINUOUS
 10
41.0254177657
 20
46.8876182674
 30
0.0
 11
-28.3378823562
 21
99.5817335997
 31
0.0
 40
0.6808569335
 41
-4.5175307664
 42
-4.5117430325
  0
ELLIPSE
  5
42F
100
AcDbEntity
  8
0
100
AcDbEllipse
 62
7
  6
CONTINUOUS
 10
41.0999580005
 20
60.343023941
 30
0.0
 11
63.9410099136
 21
68.0189551963
 31
0.0
 40
0.3766667197
 41
2.2806717681
 42
2.2935450008
  0
ELLIPSE
  5
430
100
AcDbEntity
  8
0
100
AcDbEllipse
 62
7
  6
CONTINUOUS
 10
35.1521408499
 20
63.3169325163
 30
0.0
 11
166.2824739413
 21
13.6228141732
 31
0.0
 40
0.1730674223
 41
-1.9195370954
 42
-1.9142127205
  0
ELLIPSE
  5
431
100
AcDbEntity
  8
0
100
AcDbEllipse
 62
7
  6
CONTINUOUS
 10
50.2952401337
 20
55.7453828744
 30
0.0
 11
159.8035610843
 21
-150.2228455519
 31
0.0
 40
0.3063740471
 41
-1.7246055201
 42
-1.7192869648
  0
ELLIPSE
  5
432
100
AcDbEntity
  8
0
100
AcDbEllipse
 62
7
  6
CONTINUOUS
 10
336.0313551545
 20
195.9924335941
 30
0.0
 11
-43.8554755887
 21
535.3077842169
 31
0.0
 40
0.7101743598
 41
-4.4535455446
 42
-4.4535031349
  0
ELLIPSE
  5
433
100
AcDbEntity
  8
0
100
AcDbEllipse
 62
7
  6
CONTINUOUS
 10
43.8882849304
 20
58.948860476
 30
0.0
 11
-7.893985606
 21
96.355401159
 31
0.0
 40
0.7101743598
 41
-4.4661454701
 42
-4.4535455446
  0
ELLIPSE
  5
434
100
AcDbEntity
  8
0
100
AcDbEllipse
 62
7
  6
CONTINUOUS
 10
41.0999580144
 20
60.343023934
 30
0.0
 11
63.9410096226
 21
68.0189553448
 31
0.0
 40
0.3766667234
 41
2.3336416568
 42
2.3464780583
  0
ELLIPSE
  5
435
100
AcDbEntity
  8
0
100
AcDbEllipse
 62
7
  6
CONTINUOUS
 10
35.1521399291
 20
63.3169329767
 30
0.0
 11
166.2824944606
 21
13.6228021343
 31
0.0
 40
0.1730674327
 41
-1.9414600468
 42
-1.9361414916
  0
ELLIPSE
  5
436
100
AcDbEntity
  8
0
100
AcDbEllipse
 62
7
  6
CONTINUOUS
 10
50.295239867
 20
55.7453830077
 30
0.0
 11
159.803554734
 21
-150.2228423247
 31
0.0
 40
0.3063740577
 41
-1.7465343566
 42
-1.7412099813
  0
ELLIPSE
  5
437
100
AcDbEntity
  8
0
100
AcDbEllipse
 62
7
  6
CONTINUOUS
 10
43.8882849304
 20
58.948860476
 30
0.0
 11
-7.893985606
 21
96.3554011591
 31
0.0
 40
0.7101743598
 41
-4.5191073096
 42
-4.5062365838
  0
ELLIPSE
  5
438
100
AcDbEntity
  8
0
100
AcDbEllipse
 62
7
  6
CONTINUOUS
 10
34.043479314
 20
63.8712632842
 30
0.0
 11
166.2824781128
 21
13.6228117257
 31
0.0
 40
0.1730674244
 41
-1.9133663103
 42
-1.908039833
  0
ELLIPSE
  5
439
100
AcDbEntity
  8
0
100
AcDbEllipse
 62
7
  6
CONTINUOUS
 10
51.4039012715
 20
55.1910523055
 30
0.0
 11
159.8035582769
 21
-150.2228441252
 31
0.0
 40
0.3063740518
 41
-1.7307708667
 42
-1.7254509349
  0
ELLIPSE
  5
43A
100
AcDbEntity
  8
0
100
AcDbEllipse
 62
7
  6
CONTINUOUS
 10
44.3475046344
 20
58.719250624
 30
0.0
 11
-7.8939856055
 21
96.355401159
 31
0.0
 40
0.7101743598
 41
-4.4686980597
 42
-4.4558616582
  0
ELLIPSE
  5
43B
100
AcDbEntity
  8
0
100
AcDbEllipse
 62
7
  6
CONTINUOUS
 10
329.1389997319
 20
199.4386113053
 30
0.0
 11
355.227832539
 21
377.883084584
 31
0.0
 40
0.3766667204
 41
-3.934391135
 42
-3.9343487253
  0
ELLIPSE
  5
43C
100
AcDbEntity
  8
0
100
AcDbEllipse
 62
7
  6
CONTINUOUS
 10
41.5591777071
 20
60.1134140877
 30
0.0
 11
63.941009857
 21
68.0189552251
 31
0.0
 40
0.3766667204
 41
-3.9469910606
 42
-3.934391135
  0
ELLIPSE
  5
43D
100
AcDbEntity
  8
0
100
AcDbEllipse
 62
7
  6
CONTINUOUS
 10
34.043479314
 20
63.8712632842
 30
0.0
 11
166.2824781128
 21
13.6228117257
 31
0.0
 40
0.1730674244
 41
-1.9352961282
 42
-1.9299728839
  0
ELLIPSE
  5
43E
100
AcDbEntity
  8
0
100
AcDbEllipse
 62
7
  6
CONTINUOUS
 10
51.4039012715
 20
55.1910523055
 30
0.0
 11
159.8035582769
 21
-150.2228441252
 31
0.0
 40
0.3063740518
 41
-1.7527072303
 42
-1.7473800786
  0
ELLIPSE
  5
43F
100
AcDbEntity
  8
0
100
AcDbEllipse
 62
7
  6
CONTINUOUS
 10
44.3475046344
 20
58.719250624
 30
0.0
 11
-7.8939856056
 21
96.355401159
 31
0.0
 40
0.7101743598
 41
-4.5216679487
 42
-4.5087946013
  0
ELLIPSE
  5
440
100
AcDbEntity
  8
0
100
AcDbEllipse
 62
7
  6
CONTINUOUS
 10
41.5591777071
 20
60.1134140877
 30
0.0
 11
63.941009857
 21
68.0189552251
 31
0.0
 40
0.3766667204
 41
-3.9999529
 42
-3.9870821068
  0
ELLIPSE
  5
441
100
AcDbEntity
  8
0
100
AcDbEllipse
 62
7
  6
CONTINUOUS
 10
-1.2753971873
 20
14.8198106889
 30
0.0
 11
-0.1119259236
 21
0.2235783474
 31
0.0
 40
0.6126250184
 41
-2.2559124555
 42
-0.6854206804
  0
ELLIPSE
  5
442
100
AcDbEntity
  8
ASSI
100
AcDbEllipse
 62
7
  6
CONTINUOUS
 10
41.0254177657
 20
46.8876182674
 30
0.0
 11
-28.3378823562
 21
99.5817335997
 31
0.0
 40
0.6808569335
 41
-4.5551047089
 42
-4.5493280769
  0
ELLIPSE
  5
443
100
AcDbEntity
  8
ASSI
100
AcDbEllipse
 62
7
  6
CONTINUOUS
 10
44.9119410978
 20
44.9443566014
 30
0.0
 11
71.1613499862
 21
64.4303683499
 31
0.0
 40
0.284524016
 41
2.3987752044
 42
2.4045524943
  0
ELLIPSE
  5
444
100
AcDbEntity
  8
ASSI
100
AcDbEllipse
 62
7
  6
CONTINUOUS
 10
44.9119410978
 20
44.9443566014
 30
0.0
 11
71.1613499862
 21
64.4303683499
 31
0.0
 40
0.284524016
 41
2.4363554287
 42
2.4421445986
  0
ELLIPSE
  5
445
100
AcDbEntity
  8
ASSI
100
AcDbEllipse
 62
7
  6
CONTINUOUS
 10
41.0254177657
 20
46.8876182674
 30
0.0
 11
-28.3378823562
 21
99.5817335997
 31
0.0
 40
0.6808569335
 41
-4.5175307664
 42
-4.5117430325
  0
ELLIPSE
  5
446
100
AcDbEntity
  8
0
100
AcDbEllipse
 62
7
  6
CONTINUOUS
 10
-14.4788466814
 20
18.4145826906
 30
0.0
 11
-0.1766168088
 21
0.4707043043
 31
0.0
 40
0.7819490857
 41
1.1233983706
 42
2.4415144422
  0
ELLIPSE
  5
447
100
AcDbEntity
  8
0
100
AcDbEllipse
 62
7
  6
CONTINUOUS
 10
-30.3887492581
 20
26.3695339789
 30
0.0
 11
-0.1766168088
 21
0.4707043043
 31
0.0
 40
0.7819490857
 41
1.1233983706
 42
2.4415144422
  0
ELLIPSE
  5
448
100
AcDbEntity
  8
0
100
AcDbEllipse
 62
7
  6
CONTINUOUS
 10
-2.2244852816
 20
-3.9362416668
 30
0.0
 11
-0.1636538045
 21
0.4728376251
 31
0.0
 40
0.6698239279
 41
-3.1074453008
 42
-2.1734470421
  0
ELLIPSE
  5
449
100
AcDbEntity
  8
ASSI
100
AcDbEllipse
 62
7
  6
CONTINUOUS
 10
40.5355200751
 20
47.1325671127
 30
0.0
 11
-28.3378823478
 21
99.5817335985
 31
0.0
 40
0.6808569335
 41
-4.5517697485
 42
-4.5459924586
  0
ELLIPSE
  5
44A
100
AcDbEntity
  8
ASSI
100
AcDbEllipse
 62
7
  6
CONTINUOUS
 10
44.422043407
 20
45.1893054468
 30
0.0
 11
71.1613499862
 21
64.4303683499
 31
0.0
 40
0.284524016
 41
2.395440244
 42
2.401216876
  0
ELLIPSE
  5
44B
100
AcDbEntity
  8
ASSI
100
AcDbEllipse
 62
7
  6
CONTINUOUS
 10
44.422043407
 20
45.1893054468
 30
0.0
 11
71.1613499862
 21
64.4303683499
 31
0.0
 40
0.284524016
 41
2.4330141865
 42
2.4388019667
  0
ELLIPSE
  5
44C
100
AcDbEntity
  8
ASSI
100
AcDbEllipse
 62
7
  6
CONTINUOUS
 10
40.5355200751
 20
47.1325671127
 30
0.0
 11
-28.3378823562
 21
99.5817335997
 31
0.0
 40
0.6808569335
 41
-4.5141895242
 42
-4.5084003543
  0
ELLIPSE
  5
44D
100
AcDbEntity
  8
0
100
AcDbEllipse
 62
7
  6
CONTINUOUS
 10
-15.5117585742
 20
18.7340340484
 30
0.0
 11
0.267840801
 21
0.1862215711
 31
0.0
 40
0.4574719885
 41
-0.3079479467
 42
-0.3035085127
  0
ELLIPSE
  5
44E
100
AcDbEntity
  8
0
100
AcDbEllipse
 62
7
  6
CONTINUOUS
 10
-31.3955733352
 20
25.9581373093
 30
0.0
 11
0.2019581784
 21
0.6462737877
 31
0.0
 40
0.2408330052
 41
-0.782904198
 42
-0.6566021467
  0
ELLIPSE
  5
44F
100
AcDbEntity
  8
0
100
AcDbEllipse
 62
7
  6
CONTINUOUS
 10
-15.4856707585
 20
18.0031860209
 30
0.0
 11
0.2019581784
 21
0.6462737877
 31
0.0
 40
0.2408330052
 41
-0.782904198
 42
-0.6566021467
  0
ELLIPSE
  5
450
100
AcDbEntity
  8
0
100
AcDbEllipse
 62
7
  6
CONTINUOUS
 10
-31.4216611509
 20
26.6889853368
 30
0.0
 11
0.267840801
 21
0.1862215711
 31
0.0
 40
0.4574719885
 41
-0.3079479467
 42
-0.3035085127
  0
ELLIPSE
  5
451
100
AcDbEntity
  8
0
100
AcDbEllipse
 62
7
  6
CONTINUOUS
 10
-15.4856707585
 20
18.0031860209
 30
0.0
 11
0.7033808676
 21
-0.2019690766
 31
0.0
 40
0.1166564694
 41
0.5598402935
 42
0.6861423449
  0
ELLIPSE
  5
452
100
AcDbEntity
  8
0
100
AcDbEllipse
 62
7
  6
CONTINUOUS
 10
-31.3955733352
 20
25.9581373093
 30
0.0
 11
0.7033808676
 21
-0.2019690766
 31
0.0
 40
0.1166564694
 41
0.5598402935
 42
0.6861423449
  0
ELLIPSE
  5
453
100
AcDbEntity
  8
ASSI
100
AcDbEllipse
 62
7
  6
CONTINUOUS
 10
329.1389997319
 20
199.4386113053
 30
0.0
 11
355.227832539
 21
377.883084584
 31
0.0
 40
0.3766667204
 41
-3.934391135
 42
-3.9343487253
  0
ELLIPSE
  5
454
100
AcDbEntity
  8
0
100
AcDbEllipse
 62
7
  6
CONTINUOUS
 10
-1.2753971873
 20
15.42604496
 30
0.0
 11
-0.1119858744
 21
0.2236318019
 31
0.0
 40
0.6122594231
 41
-3.1639182884
 42
-2.2563502278
  0
ELLIPSE
  5
455
100
AcDbEntity
  8
ASSI
100
AcDbEllipse
 62
7
  6
CONTINUOUS
 10
41.5591777071
 20
60.1134140877
 30
0.0
 11
63.941009857
 21
68.0189552251
 31
0.0
 40
0.3766667204
 41
-3.9999529
 42
-3.9870821068
  0
ELLIPSE
  5
456
100
AcDbEntity
  8
ASSI
100
AcDbEllipse
 62
7
  6
CONTINUOUS
 10
34.043479314
 20
63.8712632842
 30
0.0
 11
166.2824781128
 21
13.6228117257
 31
0.0
 40
0.1730674244
 41
-1.9133663103
 42
-1.908039833
  0
ELLIPSE
  5
457
100
AcDbEntity
  8
ASSI
100
AcDbEllipse
 62
7
  6
CONTINUOUS
 10
51.4039012715
 20
55.1910523055
 30
0.0
 11
159.8035582769
 21
-150.2228441252
 31
0.0
 40
0.3063740518
 41
-1.7307708667
 42
-1.7254509349
  0
ELLIPSE
  5
458
100
AcDbEntity
  8
ASSI
100
AcDbEllipse
 62
7
  6
CONTINUOUS
 10
51.4039012715
 20
55.1910523055
 30
0.0
 11
159.8035582769
 21
-150.2228441252
 31
0.0
 40
0.3063740518
 41
-1.7527072303
 42
-1.7473800786
  0
ELLIPSE
  5
459
100
AcDbEntity
  8
ASSI
100
AcDbEllipse
 62
7
  6
CONTINUOUS
 10
44.3475046344
 20
58.719250624
 30
0.0
 11
-7.8939856056
 21
96.355401159
 31
0.0
 40
0.7101743598
 41
-4.5216679487
 42
-4.5087946013
  0
ELLIPSE
  5
45A
100
AcDbEntity
  8
ASSI
100
AcDbEllipse
 62
7
  6
CONTINUOUS
 10
44.3475046344
 20
58.719250624
 30
0.0
 11
-7.8939856055
 21
96.355401159
 31
0.0
 40
0.7101743598
 41
-4.4686980597
 42
-4.4558616582
  0
ELLIPSE
  5
45B
100
AcDbEntity
  8
ASSI
100
AcDbEllipse
 62
7
  6
CONTINUOUS
 10
41.5591777071
 20
60.1134140877
 30
0.0
 11
63.941009857
 21
68.0189552251
 31
0.0
 40
0.3766667204
 41
-3.9469910606
 42
-3.934391135
  0
ELLIPSE
  5
45C
100
AcDbEntity
  8
0
100
AcDbEllipse
 62
7
  6
CONTINUOUS
 10
-33.1432191882
 20
49.0982571681
 30
0.0
 11
-0.2720523469
 21
0.4197313364
 31
0.0
 40
0.5481321568
 41
-0.7497282617
 42
-0.0179092059
  0
ELLIPSE
  5
45D
100
AcDbEntity
  8
0
100
AcDbEllipse
 62
7
  6
CONTINUOUS
 10
-24.4409098701
 20
44.8492719246
 30
0.0
 11
0.2000483059
 21
0.0091089057
 31
0.0
 40
0.5313026362
 41
-2.3809156154
 42
-1.3337180642
  0
ELLIPSE
  5
45E
100
AcDbEntity
  8
0
100
AcDbEllipse
 62
7
  6
CONTINUOUS
 10
-8.5310072934
 20
36.8943206362
 30
0.0
 11
0.2000483059
 21
0.0091089057
 31
0.0
 40
0.5313026362
 41
-2.3809156154
 42
-1.3337180642
  0
ELLIPSE
  5
45F
100
AcDbEntity
  8
0
100
AcDbEllipse
 62
7
  6
CONTINUOUS
 10
-2.2244852816
 20
33.6388902148
 30
0.0
 11
-0.2728317464
 21
0.4206766339
 31
0.0
 40
0.5454741544
 41
-2.3165924025
 42
-0.7476225753
  0
ELLIPSE
  5
460
100
AcDbEntity
  8
ASSI
100
AcDbEllipse
 62
7
  6
CONTINUOUS
 10
336.0313551545
 20
195.9924335941
 30
0.0
 11
-43.8554755887
 21
535.3077842169
 31
0.0
 40
0.7101743598
 41
-4.4535455446
 42
-4.4535031349
  0
ELLIPSE
  5
461
100
AcDbEntity
  8
ASSI
100
AcDbEllipse
 62
7
  6
CONTINUOUS
 10
41.0999580005
 20
60.343023941
 30
0.0
 11
63.9410099136
 21
68.0189551963
 31
0.0
 40
0.3766667197
 41
-4.0025135391
 42
-3.9896403064
  0
ELLIPSE
  5
462
100
AcDbEntity
  8
ASSI
100
AcDbEllipse
 62
7
  6
CONTINUOUS
 10
35.1521408499
 20
63.3169325163
 30
0.0
 11
166.2824739413
 21
13.6228141732
 31
0.0
 40
0.1730674223
 41
-1.9195370954
 42
-1.9142127205
  0
ELLIPSE
  5
463
100
AcDbEntity
  8
ASSI
100
AcDbEllipse
 62
7
  6
CONTINUOUS
 10
50.2952401337
 20
55.7453828744
 30
0.0
 11
159.8035610843
 21
-150.2228455519
 31
0.0
 40
0.3063740471
 41
-1.7246055201
 42
-1.7192869648
  0
ELLIPSE
  5
464
100
AcDbEntity
  8
ASSI
100
AcDbEllipse
 62
7
  6
CONTINUOUS
 10
35.1521399291
 20
63.3169329767
 30
0.0
 11
166.2824944606
 21
13.6228021343
 31
0.0
 40
0.1730674327
 41
-1.9414600468
 42
-1.9361414916
  0
ELLIPSE
  5
465
100
AcDbEntity
  8
ASSI
100
AcDbEllipse
 62
7
  6
CONTINUOUS
 10
43.8882849304
 20
58.948860476
 30
0.0
 11
-7.893985606
 21
96.3554011591
 31
0.0
 40
0.7101743598
 41
-4.5191073096
 42
-4.5062365838
  0
ELLIPSE
  5
466
100
AcDbEntity
  8
ASSI
100
AcDbEllipse
 62
7
  6
CONTINUOUS
 10
43.8882849304
 20
58.948860476
 30
0.0
 11
-7.893985606
 21
96.355401159
 31
0.0
 40
0.7101743598
 41
-4.4661454701
 42
-4.4535455446
  0
ELLIPSE
  5
467
100
AcDbEntity
  8
ASSI
100
AcDbEllipse
 62
7
  6
CONTINUOUS
 10
41.0999580144
 20
60.343023934
 30
0.0
 11
63.9410096226
 21
68.0189553448
 31
0.0
 40
0.3766667234
 41
-3.9495436503
 42
-3.9367072489
  0
ELLIPSE
  5
468
100
AcDbEntity
  8
ASSI
100
AcDbEllipse
 62
7
  6
CONTINUOUS
 10
50.295239867
 20
55.7453830077
 30
0.0
 11
159.803554734
 21
-150.2228423247
 31
0.0
 40
0.3063740577
 41
-1.7465343566
 42
-1.7412099813
  0
ELLIPSE
  5
469
100
AcDbEntity
  8
0
100
AcDbEllipse
 62
7
  6
CONTINUOUS
 10
-27.4595910693
 20
46.3586125241
 30
0.0
 11
0.2000483059
 21
0.0091089057
 31
0.0
 40
0.5313026362
 41
2.8550721406
 42
3.9022696918
  0
ELLIPSE
  5
46A
100
AcDbEntity
  8
0
100
AcDbEllipse
 62
7
  6
CONTINUOUS
 10
-11.5496884926
 20
38.4036612358
 30
0.0
 11
0.2000483059
 21
0.0091089057
 31
0.0
 40
0.5313026362
 41
2.8550721406
 42
3.9022696918
  0
ENDSEC
  0
SECTION
  2
OBJECTS
  0
DICTIONARY
  5
C
100
AcDbDictionary
280
0
281
1
  3
ACAD_GROUP
350
D
  3
ACAD_MLINESTYLE
350
17
  3
ACAD_LAYOUT
350
1A
  3
ACAD_PLOTSETTINGS
350
19
  3
ACAD_PLOTSTYLENAME
350
E
  0
DICTIONARY
  5
D
102
{ACAD_REACTORS
330
C
102
}
100
AcDbDictionary
280
0
281
1
  0
ACDBDICTIONARYWDFLT
  5
E
102
{ACAD_REACTORS
330
C
102
}
100
AcDbDictionary
281
1
  3
Normal
350
F
100
AcDbDictionaryWithDefault
340
F
  0
DICTIONARY
  5
17
102
{ACAD_REACTORS
330
C
102
}
100
AcDbDictionary
280
0
281
1
  3
Standard
350
18
  0
DICTIONARY
  5
19
102
{ACAD_REACTORS
330
C
102
}
100
AcDbDictionary
281
1
  0
DICTIONARY
  5
1A
102
{ACAD_REACTORS
330
C
102
}
100
AcDbDictionary
281
1
  3
Model
350
46B
  3
Layout1
350
46C
  0
ACDBPLACEHOLDER
  5
F
102
{ACAD_REACTORS
330
E
102
}
  0
MLINESTYLE
  5
18
102
{ACAD_REACTORS
330
17
102
}
100
AcDbMlineStyle
  2
STANDARD
 70
0
  3

 62
256
 51
90.0
 52
90.0
 71
2
 49
0.5
 62
256
  6
BYLAYER
 49
-0.5
 62
256
  6
BYLAYER
  0
LAYOUT
  5
46B
102
{ACAD_REACTORS
330
1A
102
}
100
AcDbPlotSettings
  1

  2
none_device
  4

  6

 40
0.0
 41
0.0
 42
0.0
 43
0.0
 44
210.0
 45
297.0
 46
0.0
 47
0.0
 48
0.0
 49
0.0
140
0.0
141
0.0
142
1.0
143
1.0
 70
1024
 72
1
 73
0
 74
0
  7

 75
0
147
1.0
148
0.0
149
0.0
100
AcDbLayout
  1
Model
 70
0
 71
0
 10
0.0
 20
0.0
 11
210.0
 21
297.0
 12
0.0
 22
0.0
 32
0.0
 14
0.0
 24
0.0
 34
0.0
 15
0.0
 25
0.0
 35
0.0
146
0.0
 13
0.0
 23
0.0
 33
0.0
 16
1.0
 26
0.0
 36
0.0
 17
0.0
 27
1.0
 37
0.0
 76
0
330
222
345
0
346
0
  0
LAYOUT
  5
46C
102
{ACAD_REACTORS
330
1A
102
}
100
AcDbPlotSettings
  1

  2
none_device
  4

  6

 40
0.0
 41
0.0
 42
0.0
 43
0.0
 44
210.0
 45
297.0
 46
0.0
 47
0.0
 48
0.0
 49
0.0
140
0.0
141
0.0
142
1.0
143
1.0
 70
0
 72
1
 73
0
 74
0
  7

 75
0
147
1.0
148
0.0
149
0.0
100
AcDbLayout
  1
Layout1
 70
0
 71
1
 10
0.0
 20
0.0
 11
210.0
 21
297.0
 12
0.0
 22
0.0
 32
0.0
 14
0.0
 24
0.0
 34
0.0
 15
0.0
 25
0.0
 35
0.0
146
0.0
 13
0.0
 23
0.0
 33
0.0
 16
1.0
 26
0.0
 36
0.0
 17
0.0
 27
1.0
 37
0.0
 76
0
330
223
345
0
346
0
  0
ENDSEC
  0
EOF
