0
SECTION
2
HEADER
9
$ACADVER
1
AC1014
9
$HANDSEED
5
       30F
9
$EXTMAX
10
297.0000000000
20
210.0000000000
9
$EXTMIN
10
0.0000000000
20
0.0000000000
9
$LIMMIN
10
0.0000000000
20
0.0000000000
9
$LIMMAX
10
297.0000000000
20
210.0000000000
9
$VIEWCTR
10
148.5000000000
20
105.0000000000
9
$VIEWSIZE
40
210.0000000000
9
$CLAYER
8
0
9
$LTSCALE
40
16.3350000000
9
$CELTYPE
6
BYLAYER
9
$DIMSCALE
40
1
9
$DIMASZ
40
3.0000000000
9
$DIMEXO
40
1.8562500000
9
$DIMDLI
40
11.2860000000
9
$DIMEXE
40
5.3460000000
9
$DIMCEN
40
2.6730000000
9
$DIMLFAC
40
1.0000000000
9
$DIMTXT
40
3.0000000000
9
$DIMTOL
70
1
9
$DIMLIM
70
0
9
$DIMTFAC
40
1.0000000000
9
$DIMTP
40
0.0100000000
9
$DIMTM
40
0.0100000000
9
$MEASUREMENT
70
1
0
ENDSEC
0
SECTION
2
CLASSES
0
ENDSEC
0
SECTION
2
TABLES
0
TABLE
2
VPORT
5
8
100
AcDbSymbolTable
70
2
0
VPORT
5
1F4
100
AcDbSymbolTableRecord
100
AcDbViewportTableRecord
2
*ACTIVE
70
0
10
0.0
20
0.0
11
1.0
21
1.0
12
148.5000000000
22
105.0000000000
13
0.0
23
0.0
14
1.0
24
1.0
15
0.0
25
0.0
16
0.0
26
0.0
36
1.0
17
0.0
27
0.0
37
0.0
40
210.0000000000
41
1.4142857143
42
50.0
43
0.0
44
0.0
50
0.0
51
0.0
71
0
72
100
73
1
74
1
75
0
76
0
77
0
78
0
0
ENDTAB
0
TABLE
2
LTYPE
5
5
100
AcDbSymbolTable
70
6
0
LTYPE
5
14
100
AcDbSymbolTableRecord
100
AcDbLinetypeTableRecord
2
BYBLOCK
70
0
3

72
65
73
0
40
0.0
0
LTYPE
5
15
100
AcDbSymbolTableRecord
100
AcDbLinetypeTableRecord
2
BYLAYER
70
0
3

72
65
73
0
40
0.0
0
LTYPE
5
16
100
AcDbSymbolTableRecord
100
AcDbLinetypeTableRecord
2
CONTINUOUS
70
64
3
Solid line
72
65
73
0
40
0
0
LTYPE
5
1F5
100
AcDbSymbolTableRecord
100
AcDbLinetypeTableRecord
2
CENTER
70
64
3
____ _ ____ _ ____ _ ____ _ ____ _ ____ _ ____
72
65
73
4
40
0.6
49
0.375
74
0
49
-0.075
74
0
49
0.075
74
0
49
-0.075
74
0
0
LTYPE
5
1F6
100
AcDbSymbolTableRecord
100
AcDbLinetypeTableRecord
2
HIDDEN
70
64
3
- - - - - - - - - - - - - - - - - - - -
72
65
73
2
40
0.2
49
0.1
74
0
49
-0.1
74
0
0
LTYPE
5
1F7
100
AcDbSymbolTableRecord
100
AcDbLinetypeTableRecord
2
PHANTOM
70
64
3
_____ _ _ _____ _ _ _____ _ _ _____
72
65
73
6
40
0.8
49
0.45
74
0
49
-0.05
74
0
49
0.1
74
0
49
-0.05
74
0
49
0.1
74
0
49
-0.05
74
0
0
LTYPE
5
1F8
100
AcDbSymbolTableRecord
100
AcDbLinetypeTableRecord
2
DOT
70
64
3
. . . . . . . . . . . . . . . . . . . .
72
65
73
2
40
0.2
49
0.1
74
0
49
-0.1
74
0
0
LTYPE
5
1F9
100
AcDbSymbolTableRecord
100
AcDbLinetypeTableRecord
2
DASHED
70
64
3
- - - - - - - - - - - - - - - - - - - -
72
65
73
2
40
0.2
49
0.1
74
0
49
-0.1
74
0
0
ENDTAB
0
TABLE
2
LAYER
5
2
100
AcDbSymbolTable
70
36
0
LAYER
5
10
100
AcDbSymbolTableRecord
100
AcDbLayerTableRecord
2
0
70
0
62
7
6
CONTINUOUS
0
LAYER
5
1FA
100
AcDbSymbolTableRecord
100
AcDbLayerTableRecord
2
DEFAULT_1
70
0
62
7
6
CENTER
0
LAYER
5
1FB
100
AcDbSymbolTableRecord
100
AcDbLayerTableRecord
2
DEFAULT_2
70
0
62
8
6
HIDDEN
0
LAYER
5
1FC
100
AcDbSymbolTableRecord
100
AcDbLayerTableRecord
2
DEFAULT_3
70
0
62
7
6
PHANTOM
0
LAYER
5
1FD
100
AcDbSymbolTableRecord
100
AcDbLayerTableRecord
2
ASSI
70
0
62
7
6
CONTINUOUS
0
LAYER
5
1FE
100
AcDbSymbolTableRecord
100
AcDbLayerTableRecord
2
COORDINATE
70
0
62
7
6
CONTINUOUS
0
LAYER
5
1FF
100
AcDbSymbolTableRecord
100
AcDbLayerTableRecord
2
COORD_ORIGINE
70
0
62
7
6
CONTINUOUS
0
LAYER
5
200
100
AcDbSymbolTableRecord
100
AcDbLayerTableRecord
2
COPY
70
0
62
7
6
CONTINUOUS
0
LAYER
5
201
100
AcDbSymbolTableRecord
100
AcDbLayerTableRecord
2
CURVE
70
0
62
7
6
CONTINUOUS
0
LAYER
5
202
100
AcDbSymbolTableRecord
100
AcDbLayerTableRecord
2
DRAFT
70
0
62
7
6
CONTINUOUS
0
LAYER
5
203
100
AcDbSymbolTableRecord
100
AcDbLayerTableRecord
2
IGS
70
0
62
7
6
CONTINUOUS
0
LAYER
5
204
100
AcDbSymbolTableRecord
100
AcDbLayerTableRecord
2
INC_LASER
70
0
62
7
6
CONTINUOUS
0
LAYER
5
205
100
AcDbSymbolTableRecord
100
AcDbLayerTableRecord
2
PIANI
70
0
62
7
6
CONTINUOUS
0
LAYER
5
206
100
AcDbSymbolTableRecord
100
AcDbLayerTableRecord
2
PIANI_ORIGINE
70
0
62
7
6
CONTINUOUS
0
LAYER
5
207
100
AcDbSymbolTableRecord
100
AcDbLayerTableRecord
2
PIANI_RIFERIMENTO
70
0
62
7
6
CONTINUOUS
0
LAYER
5
208
100
AcDbSymbolTableRecord
100
AcDbLayerTableRecord
2
RACCORDO
70
0
62
7
6
CONTINUOUS
0
LAYER
5
209
100
AcDbSymbolTableRecord
100
AcDbLayerTableRecord
2
SMUSSO
70
0
62
7
6
CONTINUOUS
0
LAYER
5
20A
100
AcDbSymbolTableRecord
100
AcDbLayerTableRecord
2
SUPERFICI
70
0
62
7
6
CONTINUOUS
0
LAYER
5
20B
100
AcDbSymbolTableRecord
100
AcDbLayerTableRecord
2
TRASH
70
0
62
7
6
CONTINUOUS
0
ENDTAB
0
TABLE
2
STYLE
5
3
100
AcDbSymbolTable
70
1
0
STYLE
5
11
100
AcDbSymbolTableRecord
100
AcDbTextStyleTableRecord
2
STANDARD
70
0
40
0.0
41
0.8000000000
50
0.0
71
0
42
0.2
3
txt
4

0
ENDTAB
0
TABLE
2
VIEW
5
6
100
AcDbSymbolTable
70
0
0
ENDTAB
0
TABLE
2
UCS
5
7
100
AcDbSymbolTable
70
0
0
ENDTAB
0
TABLE
2
APPID
5
9
100
AcDbSymbolTable
70
1
0
APPID
5
20C
100
AcDbSymbolTableRecord
100
AcDbRegAppTableRecord
2
ACAD
70
0
0
ENDTAB
0
TABLE
2
DIMSTYLE
5
A
100
AcDbSymbolTable
70
1
0
DIMSTYLE
105
20D
100
AcDbSymbolTableRecord
100
AcDbDimStyleTableRecord
2
STANDARD
70
0
3

4

5

6

7

40
1.0
41
3.0000000000
42
0.0625
43
0.38
44
0.18
45
0.0
46
0.0
47
0.0100000000
48
0.0100000000
140
3.0000000000
141
0.09
142
0.0
143
25.4
144
1.0000000000
145
0.0
146
1.0000000000
147
0.09
71
1
72
0
73
0
74
0
75
0
76
0
77
1
78
8
170
0
171
2
172
0
173
0
174
0
175
0
176
0
177
0
178
0
270
2
271
2
272
2
273
2
274
2
340
11
275
0
280
0
281
0
282
0
283
1
284
8
285
0
286
0
287
3
288
0
0
ENDTAB
0
TABLE
2
BLOCK_RECORD
5
1
100
AcDbSymbolTable
70
0
0
BLOCK_RECORD
5
1B
100
AcDbSymbolTableRecord
100
AcDbBlockTableRecord
2
*MODEL_SPACE
0
BLOCK_RECORD
5
1C
100
AcDbSymbolTableRecord
100
AcDbBlockTableRecord
2
*PAPER_SPACE
0
ENDTAB
0
ENDSEC
0
SECTION
2
BLOCKS
0
BLOCK
5
1E
100
AcDbEntity
8
0
100
AcDbBlockBegin
2
*MODEL_SPACE
70
0
10
0.0
20
0.0
30
0.0
3
*MODEL_SPACE
1

0
ENDBLK
5
1F
100
AcDbEntity
8
0
100
AcDbBlockEnd
0
BLOCK
5
20
100
AcDbEntity
8
0
100
AcDbBlockBegin
2
*PAPER_SPACE
70
0
10
0.0
20
0.0
30
0.0
3
*PAPER_SPACE
1

0
ENDBLK
5
21
100
AcDbEntity
8
0
100
AcDbBlockEnd
0
ENDSEC
0
SECTION
2
ENTITIES
0
LINE
5
20E
100
AcDbEntity
8
0
100
AcDbLine
62
7
6
CONTINUOUS
10
-16.2276367559
20
26.5025569224
11
-14.4344070910
21
27.5481740643
0
LINE
5
20F
100
AcDbEntity
8
0
100
AcDbLine
62
9
6
CONTINUOUS
10
-15.9942827084
20
26.4937895292
11
-14.2111398209
21
27.5335251560
0
LINE
5
210
100
AcDbEntity
8
0
100
AcDbLine
62
7
6
CONTINUOUS
10
-8.5566731327
20
24.7062918119
11
-8.7001774071
21
24.4172416190
0
LINE
5
211
100
AcDbEntity
8
0
100
AcDbLine
62
7
6
CONTINUOUS
10
-16.4009091717
20
-11.7285211954
11
14.4021173291
21
-27.1300344458
0
LINE
5
212
100
AcDbEntity
8
0
100
AcDbLine
62
7
6
CONTINUOUS
10
14.4020867036
20
-27.1300191317
11
14.4021138960
21
-27.1300327293
0
LINE
5
213
100
AcDbEntity
8
0
100
AcDbLine
62
9
6
CONTINUOUS
10
-16.6506970754
20
-11.3139349625
11
14.1479274728
21
-26.7132472366
0
LINE
5
214
100
AcDbEntity
8
0
100
AcDbLine
62
9
6
CONTINUOUS
10
-12.2693638614
20
5.2755842336
11
-12.3679498976
21
5.0891270905
0
LINE
5
215
100
AcDbEntity
8
0
100
AcDbLine
62
9
6
CONTINUOUS
10
-12.0326022954
20
5.1572034507
11
-12.1876430480
21
4.8639727164
0
LINE
5
216
100
AcDbEntity
8
0
100
AcDbLine
62
7
6
CONTINUOUS
10
-17.2753357683
20
6.8452168700
11
-17.3443177314
21
6.8087500229
0
LINE
5
217
100
AcDbEntity
8
0
100
AcDbLine
62
9
6
CONTINUOUS
10
-17.2109391406
20
6.8130185562
11
-17.2290211459
21
6.8034596267
0
LINE
5
218
100
AcDbEntity
8
0
100
AcDbLine
62
7
6
CONTINUOUS
10
-12.1876430480
20
4.4750071612
11
-12.1876430480
21
4.8639727164
0
LINE
5
219
100
AcDbEntity
8
0
100
AcDbLine
62
7
6
CONTINUOUS
10
-11.8440421204
20
4.4833234510
11
-11.8440421204
21
5.0629233632
0
LINE
5
21A
100
AcDbEntity
8
0
100
AcDbLine
62
7
6
CONTINUOUS
10
-12.9857742724
20
5.5862148052
11
-12.9857057038
21
5.5862491065
0
LINE
5
21B
100
AcDbEntity
8
0
100
AcDbLine
62
9
6
CONTINUOUS
10
-13.2579692805
20
4.6423868893
11
-12.3679498976
21
5.0891270905
0
LINE
5
21C
100
AcDbEntity
8
0
100
AcDbLine
62
9
6
CONTINUOUS
10
-13.1165533092
20
4.3984804180
11
-12.1876458176
21
4.8647402856
0
LINE
5
21D
100
AcDbEntity
8
0
100
AcDbLine
62
9
6
CONTINUOUS
10
-12.1876430480
20
4.4750071612
11
-13.1515643354
21
3.9911723165
0
LINE
5
21E
100
AcDbEntity
8
0
100
AcDbLine
62
9
6
CONTINUOUS
10
-11.8341031196
20
3.8652409830
11
-12.7968776258
21
3.3819817586
0
LINE
5
21F
100
AcDbEntity
8
0
100
AcDbLine
62
9
6
CONTINUOUS
10
-13.1164364196
20
5.3154201448
11
-12.7327360516
21
5.5072703288
0
LINE
5
220
100
AcDbEntity
8
0
100
AcDbLine
62
9
6
CONTINUOUS
10
-12.3766876804
20
5.3292461432
11
-13.0816756948
21
4.9842871794
0
LINE
5
221
100
AcDbEntity
8
0
100
AcDbLine
62
7
6
CONTINUOUS
10
-12.2930444783
20
5.2874245421
11
-13.1351937092
21
4.8753509748
0
LINE
5
222
100
AcDbEntity
8
0
100
AcDbLine
62
9
6
CONTINUOUS
10
13.4357250113
20
-16.9154180752
11
-17.3385964401
21
-1.5282573495
0
LINE
5
223
100
AcDbEntity
8
0
100
AcDbLine
62
9
6
CONTINUOUS
10
-8.6931863204
20
24.3510028441
11
-8.7001774071
21
24.4172416190
0
LINE
5
224
100
AcDbEntity
8
0
100
AcDbLine
62
7
6
CONTINUOUS
10
-8.5080776624
20
24.2458620489
11
-8.5566731327
21
24.7062918119
0
LINE
5
225
100
AcDbEntity
8
0
100
AcDbLine
62
9
6
CONTINUOUS
10
4.0076371446
20
-4.0700493604
11
4.3720466741
21
-3.9997209463
0
LINE
5
226
100
AcDbEntity
8
0
100
AcDbLine
62
9
6
CONTINUOUS
10
4.0658604563
20
-3.4716278374
11
3.7014509267
21
-3.5419562515
0
LINE
5
227
100
AcDbEntity
8
0
100
AcDbLine
62
9
6
CONTINUOUS
10
16.6623989873
20
12.0967557519
11
14.8159004736
21
11.0886979383
0
LINE
5
228
100
AcDbEntity
8
0
100
AcDbLine
62
9
6
CONTINUOUS
10
17.0595895760
20
11.5108724774
11
15.1817332136
21
10.4856954925
0
LINE
5
229
100
AcDbEntity
8
0
100
AcDbLine
62
7
6
CONTINUOUS
10
-6.1925012083
20
1.3037995901
11
-6.4308071432
21
1.1799791677
0
LINE
5
22A
100
AcDbEntity
8
0
100
AcDbLine
62
9
6
CONTINUOUS
10
-6.1413400518
20
1.2782190118
11
-6.3317572810
21
1.1792808895
0
LINE
5
22B
100
AcDbEntity
8
0
100
AcDbLine
62
9
6
CONTINUOUS
10
-6.5659038676
20
0.5663424872
11
-6.8599914815
21
0.4135386865
0
LINE
5
22C
100
AcDbEntity
8
0
100
AcDbLine
62
7
6
CONTINUOUS
10
-6.6346154000
20
0.4002329439
11
-6.6346866544
21
0.4001959407
0
LINE
5
22D
100
AcDbEntity
8
0
100
AcDbLine
62
9
6
CONTINUOUS
10
-7.0001780841
20
0.1697277744
11
-12.9370642283
21
3.1381708465
0
LINE
5
22E
100
AcDbEntity
8
0
100
AcDbLine
62
9
6
CONTINUOUS
10
8.8756744536
20
-7.7267250539
11
3.0066881697
21
-4.7922319119
0
LINE
5
22F
100
AcDbEntity
8
0
100
AcDbLine
62
9
6
CONTINUOUS
10
-6.8599914815
20
0.4135386865
11
-12.7968776258
21
3.3819817586
0
LINE
5
230
100
AcDbEntity
8
0
100
AcDbLine
62
9
6
CONTINUOUS
10
9.0170952146
20
-7.4823070968
11
3.1481089308
21
-4.5478139549
0
LINE
5
231
100
AcDbEntity
8
0
100
AcDbLine
62
9
6
CONTINUOUS
10
-17.4011957545
20
6.3220957890
11
-13.4335091206
21
4.3382524722
0
LINE
5
232
100
AcDbEntity
8
0
100
AcDbLine
62
9
6
CONTINUOUS
10
-6.5066892782
20
0.8748425510
11
2.5103374159
21
-3.6336707961
0
LINE
5
233
100
AcDbEntity
8
0
100
AcDbLine
62
9
6
CONTINUOUS
10
13.3709037872
20
-9.0639539819
11
9.3692731935
21
-7.0631386848
0
LINE
5
234
100
AcDbEntity
8
0
100
AcDbLine
62
7
6
CONTINUOUS
10
7.3532294440
20
16.7513405235
11
7.2097251696
21
16.4622903307
0
LINE
5
235
100
AcDbEntity
8
0
100
AcDbLine
62
7
6
CONTINUOUS
10
4.0570671837
20
-4.0933348284
11
9.4201424277
21
-6.7748724504
0
LINE
5
236
100
AcDbEntity
8
0
100
AcDbLine
62
7
6
CONTINUOUS
10
-6.4461393719
20
1.1712591091
11
-11.8341031196
21
3.8652409830
0
LINE
5
237
100
AcDbEntity
8
0
100
AcDbLine
62
9
6
CONTINUOUS
10
-17.2259617631
20
6.6263831307
11
-13.2579692805
21
4.6423868893
0
LINE
5
238
100
AcDbEntity
8
0
100
AcDbLine
62
9
6
CONTINUOUS
10
-6.3317572810
20
1.1792808895
11
2.6855714072
21
-3.3293834546
0
LINE
5
239
100
AcDbEntity
8
0
100
AcDbLine
62
9
6
CONTINUOUS
10
13.5461377787
20
-8.7596666402
11
9.5445071847
21
-6.7588513434
0
LINE
5
23A
100
AcDbEntity
8
0
100
AcDbLine
62
7
6
CONTINUOUS
10
4.3720466741
20
-3.9997209463
11
9.6647627710
21
-6.6460789947
0
LINE
5
23B
100
AcDbEntity
8
0
100
AcDbLine
62
7
6
CONTINUOUS
10
-6.2133396619
20
1.2929722217
11
-11.5378559026
21
3.9552303420
0
LINE
5
23C
100
AcDbEntity
8
0
100
AcDbLine
62
7
6
CONTINUOUS
10
-17.3362225140
20
6.8756602429
11
-13.3345919203
21
4.8748449460
0
LINE
5
23D
100
AcDbEntity
8
0
100
AcDbLine
62
7
6
CONTINUOUS
10
13.4358770277
20
-8.5103895280
11
9.4680769205
21
-6.5264894744
0
LINE
5
23E
100
AcDbEntity
8
0
100
AcDbLine
62
7
6
CONTINUOUS
10
2.5415405645
20
-3.0632212963
11
-6.4756561415
21
1.4453770567
0
LINE
5
23F
100
AcDbEntity
8
0
100
AcDbLine
62
9
6
CONTINUOUS
10
-17.4011957545
20
7.0110509600
11
-13.3995651607
21
5.0102356629
0
LINE
5
240
100
AcDbEntity
8
0
100
AcDbLine
62
9
6
CONTINUOUS
10
13.3709037872
20
-8.3749988109
11
9.4032171533
21
-6.3911554941
0
LINE
5
241
100
AcDbEntity
8
0
100
AcDbLine
62
9
6
CONTINUOUS
10
2.4763973109
20
-2.9277455729
11
-6.5406293832
21
1.5807677741
0
LINE
5
242
100
AcDbEntity
8
0
100
AcDbLine
62
7
6
CONTINUOUS
10
-12.8512363650
20
5.5665204855
11
-6.9822500812
21
2.6320273435
0
LINE
5
243
100
AcDbEntity
8
0
100
AcDbLine
62
7
6
CONTINUOUS
10
3.0248163503
20
-2.3298488834
11
8.9617024946
21
-5.2982919555
0
LINE
5
244
100
AcDbEntity
8
0
100
AcDbLine
62
9
6
CONTINUOUS
10
-12.9032144070
20
5.6751980389
11
-7.0342281231
21
2.7407048969
0
LINE
5
245
100
AcDbEntity
8
0
100
AcDbLine
62
9
6
CONTINUOUS
10
2.9728383484
20
-2.2211546805
11
8.9097244926
21
-5.1895977527
0
LINE
5
246
100
AcDbEntity
8
0
100
AcDbLine
62
7
6
CONTINUOUS
10
17.6423106540
20
-6.9113855957
11
17.5258279905
21
-6.8531442639
0
LINE
5
247
100
AcDbEntity
8
0
100
AcDbLine
62
7
6
CONTINUOUS
10
3.7035137931
20
-3.1264326426
11
3.7035137931
21
-3.4835454312
0
LINE
5
248
100
AcDbEntity
8
0
100
AcDbLine
62
7
6
CONTINUOUS
10
4.0658604563
20
-2.8503709364
11
4.0658604563
21
-3.4716278374
0
LINE
5
249
100
AcDbEntity
8
0
100
AcDbLine
62
9
6
CONTINUOUS
10
3.6579588409
20
-2.6464201287
11
3.5229645802
21
-2.9017366536
0
LINE
5
24A
100
AcDbEntity
8
0
100
AcDbLine
62
9
6
CONTINUOUS
10
2.6855714072
20
-3.3293834546
11
3.5229645802
21
-2.9017366536
0
LINE
5
24B
100
AcDbEntity
8
0
100
AcDbLine
62
9
6
CONTINUOUS
10
2.7931539141
20
-3.5905869094
11
3.7035111007
21
-3.1256782487
0
LINE
5
24C
100
AcDbEntity
8
0
100
AcDbLine
62
7
6
CONTINUOUS
10
2.8911551242
20
-2.3097191745
11
2.8912210688
21
-2.3096874564
0
LINE
5
24D
100
AcDbEntity
8
0
100
AcDbLine
62
9
6
CONTINUOUS
10
3.1508394765
20
-2.3928604465
11
2.7583382413
21
-2.5815565584
0
LINE
5
24E
100
AcDbEntity
8
0
100
AcDbLine
62
9
6
CONTINUOUS
10
3.5482224561
20
-2.5915519363
11
2.7579702285
21
-2.9714679962
0
LINE
5
24F
100
AcDbEntity
8
0
100
AcDbLine
62
7
6
CONTINUOUS
10
3.6330492430
20
-2.6339653297
11
2.7320203617
21
-3.0671375885
0
LINE
5
250
100
AcDbEntity
8
0
100
AcDbLine
62
9
6
CONTINUOUS
10
3.8947204068
20
-2.7648009116
11
3.7035137931
21
-3.1264326426
0
LINE
5
251
100
AcDbEntity
8
0
100
AcDbLine
62
9
6
CONTINUOUS
10
2.7934661571
20
-3.9385692493
11
3.7035137931
21
-3.4835454312
0
LINE
5
252
100
AcDbEntity
8
0
100
AcDbLine
62
9
6
CONTINUOUS
10
3.1481089308
20
-4.5478139549
11
4.0570671837
21
-4.0933348284
0
LINE
5
253
100
AcDbEntity
8
0
100
AcDbLine
62
9
6
CONTINUOUS
10
-11.8834878341
20
3.8885258691
11
-11.5378559026
21
3.9552303420
0
LINE
5
254
100
AcDbEntity
8
0
100
AcDbLine
62
9
6
CONTINUOUS
10
-11.8440421204
20
4.4833234510
11
-12.1896740519
21
4.4166189780
0
LINE
5
255
100
AcDbEntity
8
0
100
AcDbLine
62
9
6
CONTINUOUS
10
-17.3385964401
20
14.9262253224
11
13.4357250113
21
-0.4609354033
0
LINE
5
256
100
AcDbEntity
8
0
100
AcDbLine
62
9
6
CONTINUOUS
10
7.2167162563
20
16.3960515558
11
7.2097251696
21
16.4622903307
0
LINE
5
257
100
AcDbEntity
8
0
100
AcDbLine
62
7
6
CONTINUOUS
10
7.4018249143
20
16.2909107606
11
7.3532294440
21
16.7513405235
0
LINE
5
258
100
AcDbEntity
8
0
100
AcDbLine
62
7
6
CONTINUOUS
10
9.6857846801
20
-6.6353433541
11
9.4547788236
21
-6.7533153161
0
LINE
5
259
100
AcDbEntity
8
0
100
AcDbLine
62
9
6
CONTINUOUS
10
9.7366007893
20
-6.6607514088
11
9.5445071847
21
-6.7588513434
0
LINE
5
25A
100
AcDbEntity
8
0
100
AcDbLine
62
9
6
CONTINUOUS
10
9.0170952146
20
-7.4823070968
11
9.3095597816
21
-7.3360748134
0
LINE
5
25B
100
AcDbEntity
8
0
100
AcDbLine
62
7
6
CONTINUOUS
10
9.2403951010
20
-7.4966614461
11
9.2403178212
21
-7.4967000632
0
LINE
5
25C
100
AcDbEntity
8
0
100
AcDbLine
62
7
6
CONTINUOUS
10
11.0079322991
20
14.9239890960
11
10.4733553430
21
14.8304752440
0
LINE
5
25D
100
AcDbEntity
8
0
100
AcDbLine
62
9
6
CONTINUOUS
10
17.6423106540
20
-6.9113855957
11
13.8965779004
21
-8.7593398965
0
LINE
5
25E
100
AcDbEntity
8
0
100
AcDbLine
62
9
6
CONTINUOUS
10
17.8190873504
20
-7.2162555640
11
14.0717851412
21
-9.0649841545
0
LINE
5
25F
100
AcDbEntity
8
0
100
AcDbLine
62
9
6
CONTINUOUS
10
17.8190873504
20
-6.6100872429
11
14.0717851412
21
-8.3800863317
0
LINE
5
260
100
AcDbEntity
8
0
100
AcDbLine
62
7
6
CONTINUOUS
10
17.7522375123
20
-6.7462020893
11
14.0048938130
21
-8.5162207754
0
LINE
5
261
100
AcDbEntity
8
0
100
AcDbLine
62
9
6
CONTINUOUS
10
14.1479274728
20
10.0247931230
11
-16.6506970754
21
25.4241053971
0
LINE
5
262
100
AcDbEntity
8
0
100
AcDbLine
62
9
6
CONTINUOUS
10
14.8159004736
20
11.0886979383
11
-15.9942827084
21
26.4937895292
0
LINE
5
263
100
AcDbEntity
8
0
100
AcDbLine
62
7
6
CONTINUOUS
10
17.0595895760
20
11.5108724774
11
17.8190873504
21
4.4317613861
0
LINE
5
264
100
AcDbEntity
8
0
100
AcDbLine
62
7
6
CONTINUOUS
10
17.8190873504
20
-7.2162555640
11
17.8190873504
21
-18.2581041931
0
LINE
5
265
100
AcDbEntity
8
0
100
AcDbLine
62
7
6
CONTINUOUS
10
17.8190873504
20
-6.6100872429
11
17.8190873504
21
4.4317613861
0
LINE
5
266
100
AcDbEntity
8
0
100
AcDbLine
62
7
6
CONTINUOUS
10
17.0595895760
20
-26.0706537596
11
17.8190873504
21
-18.2581041931
0
LINE
5
267
100
AcDbEntity
8
0
100
AcDbLine
62
7
6
CONTINUOUS
10
7.2614134535
20
16.3611164910
11
10.2800946526
21
14.8517758914
0
LINE
5
268
100
AcDbEntity
8
0
100
AcDbLine
62
7
6
CONTINUOUS
10
-5.6298079241
20
22.8067271798
11
-8.6484891232
21
24.3160677794
0
LINE
5
269
100
AcDbEntity
8
0
100
AcDbLine
62
7
6
CONTINUOUS
10
-14.2111398209
20
27.5335251560
11
-8.5566731327
21
24.7062918119
0
LINE
5
26A
100
AcDbEntity
8
0
100
AcDbLine
62
7
6
CONTINUOUS
10
-4.9019702776
20
22.8789403843
11
7.3532294440
21
16.7513405235
0
LINE
5
26B
100
AcDbEntity
8
0
100
AcDbLine
62
7
6
CONTINUOUS
10
11.0079322991
20
14.9239890960
11
16.6623989873
21
12.0967557519
0
LINE
5
26C
100
AcDbEntity
8
0
100
AcDbLine
62
7
6
CONTINUOUS
10
-4.9019702776
20
22.8789403843
11
-5.4365472337
21
22.7854265323
0
LINE
5
26D
100
AcDbEntity
8
0
100
AcDbLine
62
9
6
CONTINUOUS
10
15.1817332136
20
-26.8589015846
11
17.0595895760
21
-26.0706537596
0
LINE
5
26E
100
AcDbEntity
8
0
100
AcDbLine
62
7
6
CONTINUOUS
10
15.0279259681
20
-27.1400972830
11
16.8832186720
21
-26.3613207653
0
SPLINE
5
26F
100
AcDbEntity
8
0
100
AcDbSpline
62
7
6
CONTINUOUS
70
0
71
3
72
17
73
13
74
11
42
0.0000001000
43
0.0000001000
44
0.0000000001
12
-0.2418467919
22
-0.1256607010
32
0.0000000000
13
0.0001625267
23
-0.2724091756
33
0.0000000000
40
0.0000000000
40
0.0000000000
40
0.0000000000
40
0.0000000000
40
0.0419661655
40
0.1487795818
40
0.2556909865
40
0.3626246086
40
0.4695274504
40
0.5764005783
40
0.6832499058
40
0.7900659350
40
0.8968917444
40
1.0000000000
40
1.0000000000
40
1.0000000000
40
1.0000000000
10
-6.4307869682
20
1.1799895429
30
0.0000000000
10
-6.4341700957
20
1.1782317103
30
0.0000000000
10
-6.4460211890
20
1.1717248788
30
0.0000000000
10
-6.4654409799
20
1.1589066411
30
0.0000000000
10
-6.4877571438
20
1.1401044479
30
0.0000000000
10
-6.5077363838
20
1.1188244071
30
0.0000000000
10
-6.5250986815
20
1.0953648017
30
0.0000000000
10
-6.5396072441
20
1.0700496283
30
0.0000000000
10
-6.5510669059
20
1.0432251115
30
0.0000000000
10
-6.5593251611
20
1.0152521318
30
0.0000000000
10
-6.5642135964
20
0.9868475732
30
0.0000000000
10
-6.5652777116
20
0.9677670021
30
0.0000000000
10
-6.5652721257
20
0.9584044571
30
0.0000000000
11
-6.4307869682
21
1.1799895429
31
0.0000000000
11
-6.4408118979
21
1.1744852301
31
0.0000000000
11
-6.4650942710
21
1.1584575671
31
0.0000000000
11
-6.4873651302
21
1.1396937103
31
0.0000000000
11
-6.5073023546
21
1.1184585251
31
0.0000000000
11
-6.5246252389
21
1.0950522154
31
0.0000000000
11
-6.5391006411
21
1.0697949576
31
0.0000000000
11
-6.5505346329
21
1.0430301905
31
0.0000000000
11
-6.5587729946
21
1.0151251652
31
0.0000000000
11
-6.5637075798
21
0.9864482417
31
0.0000000000
11
-6.5652721257
21
0.9584044571
31
0.0000000000
0
SPLINE
5
270
100
AcDbEntity
8
0
100
AcDbSpline
62
7
6
CONTINUOUS
70
0
71
3
72
17
73
13
74
11
42
0.0000001000
43
0.0000001000
44
0.0000000001
12
0.0002736807
22
-0.2198648034
32
0.0000000000
13
-0.1969170591
23
-0.0982676997
33
0.0000000000
40
0.0000000000
40
0.0000000000
40
0.0000000000
40
0.0000000000
40
0.1367875942
40
0.2885073106
40
0.4255691436
40
0.5488862653
40
0.6586563082
40
0.7545984638
40
0.8362266220
40
0.9039962372
40
0.9607966037
40
1.0000000000
40
1.0000000000
40
1.0000000000
40
1.0000000000
10
9.3109808145
20
-7.2975732355
30
0.0000000000
10
9.3109932932
20
-7.3075981613
30
0.0000000000
10
9.3104344024
20
-7.3287479993
30
0.0000000000
10
9.3075574981
20
-7.3598283034
30
0.0000000000
10
9.3024340367
20
-7.3896223298
30
0.0000000000
10
9.2955754591
20
-7.4159019552
30
0.0000000000
10
9.2873040581
20
-7.4385921382
30
0.0000000000
10
9.2780165408
20
-7.4575392457
30
0.0000000000
10
9.2681862531
20
-7.4726514279
30
0.0000000000
10
9.2582377307
20
-7.4840987786
30
0.0000000000
10
9.2489811705
20
-7.4918237603
30
0.0000000000
10
9.2428915225
20
-7.4954140555
30
0.0000000000
10
9.2403182500
20
-7.4966981980
30
0.0000000000
11
9.3109808145
21
-7.2975732355
31
0.0000000000
11
9.3101505409
21
-7.3276354921
31
0.0000000000
11
9.3070062540
21
-7.3608402920
31
0.0000000000
11
9.3018232918
21
-7.3905221938
31
0.0000000000
11
9.2948932200
21
-7.4167309006
31
0.0000000000
11
9.2865356692
21
-7.4393687475
31
0.0000000000
11
9.2771523581
21
-7.4582579886
31
0.0000000000
11
9.2672661682
21
-7.4732338739
31
0.0000000000
11
9.2574034736
21
-7.4843999883
31
0.0000000000
11
9.2477543372
21
-7.4923254153
31
0.0000000000
11
9.2403182500
21
-7.4966981980
31
0.0000000000
0
SPLINE
5
271
100
AcDbEntity
8
0
100
AcDbSpline
62
7
6
CONTINUOUS
70
0
71
3
72
10
73
6
74
4
42
0.0000001000
43
0.0000001000
44
0.0000000001
12
-0.0003741117
22
0.3051513749
32
0.0000000000
13
-0.0001982766
23
0.3051515398
33
0.0000000000
40
0.0000000000
40
0.0000000000
40
0.0000000000
40
0.0000000000
40
0.3333013366
40
0.6666346721
40
1.0000000000
40
1.0000000000
40
1.0000000000
40
1.0000000000
10
9.3109807287
20
-7.2975716572
30
0.0000000000
10
9.3109391647
20
-7.2636692035
30
0.0000000000
10
9.3108625470
20
-7.1958610331
30
0.0000000000
10
9.3107671541
20
-7.0941438758
30
0.0000000000
10
9.3107165800
20
-7.0263291719
30
0.0000000000
10
9.3106945472
20
-6.9924201909
30
0.0000000000
11
9.3109807287
21
-7.2975716572
31
0.0000000000
11
9.3108658068
21
-7.1958642846
31
0.0000000000
11
9.3107704129
21
-7.0941471272
31
0.0000000000
11
9.3106945472
21
-6.9924201909
31
0.0000000000
0
SPLINE
5
272
100
AcDbEntity
8
0
100
AcDbSpline
62
7
6
CONTINUOUS
70
0
71
3
72
17
73
13
74
11
42
0.0000001000
43
0.0000001000
44
0.0000000001
12
-0.0001904076
22
0.2930410194
32
0.0000000000
13
0.2609786561
23
0.1332787169
33
0.0000000000
40
0.0000000000
40
0.0000000000
40
0.0000000000
40
0.0000000000
40
0.0997917391
40
0.2043198994
40
0.3086973384
40
0.4119578015
40
0.5140129512
40
0.6149172615
40
0.7143484280
40
0.8116939278
40
0.9067085398
40
1.0000000000
40
1.0000000000
40
1.0000000000
40
1.0000000000
10
9.3106945472
20
-6.9924201909
30
0.0000000000
10
9.3106882135
20
-6.9826724999
30
0.0000000000
10
9.3118311033
20
-6.9626965727
30
0.0000000000
10
9.3169825892
20
-6.9329218700
30
0.0000000000
10
9.3255424395
20
-6.9035895164
30
0.0000000000
10
9.3371517062
20
-6.8755917644
30
0.0000000000
10
9.3515138507
20
-6.8492896081
30
0.0000000000
10
9.3683675279
20
-6.8249642257
30
0.0000000000
10
9.3874194941
20
-6.8029235974
30
0.0000000000
10
9.4083217579
20
-6.7834622367
30
0.0000000000
10
9.4307436710
20
-6.7667646657
30
0.0000000000
10
9.4466631303
20
-6.7574599048
30
0.0000000000
10
9.4547788236
20
-6.7533153161
30
0.0000000000
11
9.3106945472
21
-6.9924201909
31
0.0000000000
11
9.3123453317
21
-6.9632237427
31
0.0000000000
11
9.3175464596
21
-6.9330375009
31
0.0000000000
11
9.3261012015
21
-6.9036713049
31
0.0000000000
11
9.3376858434
21
-6.8757171118
31
0.0000000000
11
9.3520211287
21
-6.8494704082
31
0.0000000000
11
9.3688697629
21
-6.8251711143
31
0.0000000000
11
9.3879364812
21
-6.8031382004
31
0.0000000000
11
9.4088266520
21
-6.7837127894
31
0.0000000000
11
9.4311688053
21
-6.7670974015
31
0.0000000000
11
9.4547788236
21
-6.7533153161
31
0.0000000000
0
SPLINE
5
273
100
AcDbEntity
8
0
100
AcDbSpline
62
7
6
CONTINUOUS
70
0
71
3
72
10
73
6
74
4
42
0.0000001000
43
0.0000001000
44
0.0000000001
12
0.0002229597
22
-0.3595689760
32
0.0000000000
13
0.0004649828
23
-0.3595687438
33
0.0000000000
40
0.0000000000
40
0.0000000000
40
0.0000000000
40
0.0000000000
40
0.2700574437
40
0.6445423267
40
1.0000000000
40
1.0000000000
40
1.0000000000
40
1.0000000000
10
-6.5652721855
20
0.9583987090
30
0.0000000000
10
-6.5652521148
20
0.9260306162
30
0.0000000000
10
-6.5651971949
20
0.8487781456
30
0.0000000000
10
-6.5650859943
20
0.7289218479
30
0.0000000000
10
-6.5649833288
20
0.6414336580
30
0.0000000000
10
-6.5649282349
20
0.5988298349
30
0.0000000000
11
-6.5652721855
21
0.9583987090
31
0.0000000000
11
-6.5652031518
21
0.8612944364
31
0.0000000000
11
-6.5650782208
21
0.7266413229
31
0.0000000000
11
-6.5649282349
21
0.5988298349
31
0.0000000000
0
SPLINE
5
274
100
AcDbEntity
8
0
100
AcDbSpline
62
7
6
CONTINUOUS
70
0
71
3
72
17
73
13
74
11
42
0.0000001000
43
0.0000001000
44
0.0000000001
12
0.0002855609
22
-0.2188217336
32
0.0000000000
13
-0.1944354642
23
-0.1008469858
33
0.0000000000
40
0.0000000000
40
0.0000000000
40
0.0000000000
40
0.0000000000
40
0.1490834733
40
0.2978635594
40
0.4323895688
40
0.5536090471
40
0.6617742244
40
0.7566234683
40
0.8376089921
40
0.9050673092
40
0.9616171935
40
1.0000000000
40
1.0000000000
40
1.0000000000
40
1.0000000000
10
-6.5649282534
20
0.5988291929
30
0.0000000000
10
-6.5649140626
20
0.5879549582
30
0.0000000000
10
-6.5655369668
20
0.5662208365
30
0.0000000000
10
-6.5685991840
20
0.5348055934
30
0.0000000000
10
-6.5737158588
20
0.5057162871
30
0.0000000000
10
-6.5804935078
20
0.4800190544
30
0.0000000000
10
-6.5886306023
20
0.4577745546
30
0.0000000000
10
-6.5977544484
20
0.4391308826
30
0.0000000000
10
-6.6074141016
20
0.4241892820
30
0.0000000000
10
-6.6171935703
20
0.4128092867
30
0.0000000000
10
-6.6262562232
20
0.4051030667
30
0.0000000000
10
-6.6321988354
20
0.4014878224
30
0.0000000000
10
-6.6346864950
20
0.4001975590
30
0.0000000000
11
-6.5649282534
21
0.5988291929
31
0.0000000000
11
-6.5659100060
21
0.5662219615
31
0.0000000000
11
-6.5691350592
21
0.5338281940
31
0.0000000000
11
-6.5743070388
21
0.5048510961
31
0.0000000000
11
-6.5811512203
21
0.4792258534
31
0.0000000000
11
-6.5893699138
21
0.4570315582
31
0.0000000000
11
-6.5985875337
21
0.4384373381
31
0.0000000000
11
-6.6083047513
21
0.4236192059
31
0.0000000000
11
-6.6180112609
21
0.4124994572
31
0.0000000000
11
-6.6274988302
21
0.4045566750
31
0.0000000000
11
-6.6346864950
21
0.4001975590
31
0.0000000000
0
SPLINE
5
275
100
AcDbEntity
8
0
100
AcDbSpline
62
7
6
CONTINUOUS
70
0
71
3
72
17
73
13
74
11
42
0.0000001000
43
0.0000001000
44
0.0000000001
12
-0.3443158944
22
-0.1820326699
32
0.0000000000
13
0.0002539960
23
-0.3894429131
33
0.0000000000
40
0.0000000000
40
0.0000000000
40
0.0000000000
40
0.0000000000
40
0.1029240389
40
0.2196718616
40
0.3303537485
40
0.4355191959
40
0.5362049459
40
0.6337334903
40
0.7291354244
40
0.8230494456
40
0.9160621574
40
1.0000000000
40
1.0000000000
40
1.0000000000
40
1.0000000000
10
-17.3443268781
20
6.8087451541
30
0.0000000000
10
-17.3561396723
20
6.8024999749
30
0.0000000000
10
-17.3808192604
20
6.7881325781
30
0.0000000000
10
-17.4157166974
20
6.7630867892
30
0.0000000000
10
-17.4479293525
20
6.7342177414
30
0.0000000000
10
-17.4753594093
20
6.7035183183
30
0.0000000000
10
-17.4981897958
20
6.6713339989
30
0.0000000000
10
-17.5166301951
20
6.6378901519
30
0.0000000000
10
-17.5308193026
20
6.6033827504
30
0.0000000000
10
-17.5408178936
20
6.5680447700
30
0.0000000000
10
-17.5464667753
20
6.5332709149
30
0.0000000000
10
-17.5476497304
20
6.5102819545
30
0.0000000000
10
-17.5476426238
20
6.4993856219
30
0.0000000000
11
-17.3443268781
21
6.8087451541
31
0.0000000000
11
-17.3789425669
21
6.7885346445
31
0.0000000000
11
-17.4158310422
21
6.7619686014
31
0.0000000000
11
-17.4478850322
21
6.7331607463
31
0.0000000000
11
-17.4751348914
21
6.7025949613
31
0.0000000000
11
-17.4977906820
21
6.6705992477
31
0.0000000000
11
-17.5161061572
21
6.6373325522
31
0.0000000000
11
-17.5302173669
21
6.6029698134
31
0.0000000000
11
-17.5401628359
21
6.5677802687
31
0.0000000000
11
-17.5459632513
21
6.5320307546
31
0.0000000000
11
-17.5476426238
21
6.4993856219
31
0.0000000000
0
SPLINE
5
276
100
AcDbEntity
8
0
100
AcDbSpline
62
7
6
CONTINUOUS
70
0
71
3
72
17
73
13
74
11
42
0.0000001000
43
0.0000001000
44
0.0000000001
12
0.5777610685
22
-0.2889034846
32
0.0000000000
13
0.5954946135
23
0.2499495812
33
0.0000000000
40
0.0000000000
40
0.0000000000
40
0.0000000000
40
0.0000000000
40
0.0635469487
40
0.1629047499
40
0.2628926920
40
0.3638758582
40
0.4662307397
40
0.5703235833
40
0.6765682810
40
0.7854236018
40
0.8973550439
40
1.0000000000
40
1.0000000000
40
1.0000000000
40
1.0000000000
10
14.4020880254
20
-27.1300193235
30
0.0000000000
10
14.4143263431
20
-27.1361389685
30
0.0000000000
10
14.4461699726
20
-27.1509032163
30
0.0000000000
10
14.4992338292
20
-27.1707779011
30
0.0000000000
10
14.5616908331
20
-27.1878109940
30
0.0000000000
10
14.6260823278
20
-27.1991488335
30
0.0000000000
10
14.6921226051
20
-27.2046193413
30
0.0000000000
10
14.7595195684
20
-27.2040446075
30
0.0000000000
10
14.8279810287
20
-27.1972411558
30
0.0000000000
10
14.8972169765
20
-27.1840169164
30
0.0000000000
10
14.9642575819
20
-27.1649324438
30
0.0000000000
10
15.0075428175
20
-27.1486527183
30
0.0000000000
10
15.0279176570
20
-27.1401006970
30
0.0000000000
11
14.4020880254
21
-27.1300193235
31
0.0000000000
11
14.4393278431
21
-27.1472850319
31
0.0000000000
11
14.4994095106
21
-27.1697950325
31
0.0000000000
11
14.5616989071
21
-27.1867926339
31
0.0000000000
11
14.6259179460
21
-27.1981153980
31
0.0000000000
11
14.6917860160
21
-27.2035921437
31
0.0000000000
11
14.7590014411
21
-27.2030452494
31
0.0000000000
11
14.8272755898
21
-27.1962932885
31
0.0000000000
11
14.8963279020
21
-27.1831447213
31
0.0000000000
11
14.9658581379
21
-27.1633998930
31
0.0000000000
11
15.0279176570
21
-27.1401006970
31
0.0000000000
0
SPLINE
5
277
100
AcDbEntity
8
0
100
AcDbSpline
62
7
6
CONTINUOUS
70
0
71
3
72
10
73
6
74
4
42
0.0000001000
43
0.0000001000
44
0.0000000001
12
0.0050048075
22
-7.8506770695
32
0.0000000000
13
0.1206247541
23
-7.8497519108
33
0.0000000000
40
0.0000000000
40
0.0000000000
40
0.0000000000
40
0.0000000000
40
0.3338179857
40
0.6678064805
40
1.0000000000
40
1.0000000000
40
1.0000000000
40
1.0000000000
10
-17.5476426929
20
6.4993982445
30
0.0000000000
10
-17.5470857947
20
5.6258325092
30
0.0000000000
10
-17.5417246600
20
3.8782543895
30
0.0000000000
10
-17.5208773498
20
1.2614350738
30
0.0000000000
10
-17.4984047688
20
-0.4817555270
30
0.0000000000
10
-17.4850478483
20
-1.3509677652
30
0.0000000000
11
-17.5476426929
21
6.4993982445
31
0.0000000000
11
-17.5395869130
21
3.8787128927
31
0.0000000000
11
-17.5186822292
21
1.2567599064
31
0.0000000000
11
-17.4850478483
21
-1.3509677652
31
0.0000000000
0
SPLINE
5
278
100
AcDbEntity
8
0
100
AcDbSpline
62
7
6
CONTINUOUS
70
0
71
3
72
13
73
9
74
7
42
0.0000001000
43
0.0000001000
44
0.0000000001
12
0.1508346205
22
-9.8156651881
32
0.0000000000
13
1.2566095716
23
-9.7360656508
33
0.0000000000
40
0.0000000000
40
0.0000000000
40
0.0000000000
40
0.0000000000
40
0.1702749573
40
0.3396419130
40
0.5073882095
40
0.6734931172
40
0.8379385033
40
1.0000000000
40
1.0000000000
40
1.0000000000
40
1.0000000000
10
-17.4850478480
20
-1.3509677655
30
0.0000000000
10
-17.4764867285
20
-1.9080884223
30
0.0000000000
10
-17.4496163735
20
-3.0192349445
30
0.0000000000
10
-17.3794788427
20
-4.6781545582
30
0.0000000000
10
-17.2795519179
20
-6.3218838130
30
0.0000000000
10
-17.1499694739
20
-7.9473894139
30
0.0000000000
10
-16.9910139595
20
-9.5515902169
30
0.0000000000
10
-16.8648660682
20
-10.6126200512
30
0.0000000000
10
-16.7969833922
20
-11.1385671751
30
0.0000000000
11
-17.4850478480
21
-1.3509677655
31
0.0000000000
11
-17.4444978650
21
-3.0220350833
31
0.0000000000
11
-17.3741201703
21
-4.6831901944
31
0.0000000000
11
-17.2740445191
21
-6.3268820298
31
0.0000000000
11
-17.1443103715
21
-7.9523352729
31
0.0000000000
11
-16.9849708133
21
-9.5587834728
31
0.0000000000
11
-16.7969833922
21
-11.1385671751
31
0.0000000000
0
SPLINE
5
279
100
AcDbEntity
8
0
100
AcDbSpline
62
7
6
CONTINUOUS
70
0
71
3
72
18
73
14
74
12
42
0.0000001000
43
0.0000001000
44
0.0000000001
12
0.0947587138
22
-0.7340968031
32
0.0000000000
13
0.6622139739
23
-0.3310756209
33
0.0000000000
40
0.0000000000
40
0.0000000000
40
0.0000000000
40
0.0000000000
40
0.0968106606
40
0.2004211775
40
0.3006205905
40
0.3978847173
40
0.4926814421
40
0.5854036158
40
0.6763793897
40
0.7659684298
40
0.8545208711
40
0.9423524320
40
1.0000000000
40
1.0000000000
40
1.0000000000
40
1.0000000000
10
-16.7969824825
20
-11.1385739733
30
0.0000000000
10
-16.7939245979
20
-11.1622634388
30
0.0000000000
10
-16.7857221044
20
-11.2110870763
30
0.0000000000
10
-16.7673604708
20
-11.2830379135
30
0.0000000000
10
-16.7425858224
20
-11.3531687901
30
0.0000000000
10
-16.7124258719
20
-11.4187706672
30
0.0000000000
10
-16.6772469095
20
-11.4797029450
30
0.0000000000
10
-16.6374197394
20
-11.5358112106
30
0.0000000000
10
-16.5933202100
20
-11.5869418930
30
0.0000000000
10
-16.5453197579
20
-11.6329532984
30
0.0000000000
10
-16.4937743426
20
-11.6737174208
30
0.0000000000
10
-16.4452200329
20
-11.7051104748
30
0.0000000000
10
-16.4136021593
20
-11.7221748475
30
0.0000000000
10
-16.4008771509
20
-11.7285367489
30
0.0000000000
11
-16.7969824825
21
-11.1385739733
31
0.0000000000
11
-16.7850579903
21
-11.2092311906
31
0.0000000000
11
-16.7660350251
21
-11.2835169445
31
0.0000000000
11
-16.7412812312
21
-11.3534217820
31
0.0000000000
11
-16.7111696842
21
-11.4188071388
31
0.0000000000
11
-16.6760571202
21
-11.4795482350
31
0.0000000000
11
-16.6363107835
21
-11.5354902996
31
0.0000000000
11
-16.5923174104
21
-11.5864622828
31
0.0000000000
11
-16.5444393595
21
-11.6323327138
31
0.0000000000
11
-16.4930269218
21
-11.6729777130
31
0.0000000000
11
-16.4384345619
21
-11.7082662481
31
0.0000000000
11
-16.4008771509
21
-11.7285367489
31
0.0000000000
0
SPLINE
5
27A
100
AcDbEntity
8
0
100
AcDbSpline
62
7
6
CONTINUOUS
70
0
71
3
72
23
73
19
74
17
42
0.0000001000
43
0.0000001000
44
0.0000000001
12
0.0000000000
22
-0.6405370413
32
0.0000000000
13
0.5729137465
23
-0.2864568733
33
0.0000000000
40
0.0000000000
40
0.0000000000
40
0.0000000000
40
0.0000000000
40
0.0679051913
40
0.1349988344
40
0.2010364196
40
0.2660154744
40
0.3306242121
40
0.3947922442
40
0.4580820131
40
0.5201616341
40
0.5816046906
40
0.6429266747
40
0.7041805468
40
0.7653304229
40
0.8265542075
40
0.8869001133
40
0.9450886742
40
1.0000000000
40
1.0000000000
40
1.0000000000
40
1.0000000000
10
4.0658604563
20
-3.4716278374
30
0.0000000000
10
4.0658604563
20
-3.4861264342
30
0.0000000000
10
4.0669524566
20
-3.5149612066
30
0.0000000000
10
4.0716763421
20
-3.5576581628
30
0.0000000000
10
4.0792270742
20
-3.5993111881
30
0.0000000000
10
4.0894012997
20
-3.6398521065
30
0.0000000000
10
4.1020616585
20
-3.6792666547
30
0.0000000000
10
4.1170896355
20
-3.7174524348
30
0.0000000000
10
4.1342845645
20
-3.7541162760
30
0.0000000000
10
4.1534791312
20
-3.7891109393
30
0.0000000000
10
4.1746233736
20
-3.8224671458
30
0.0000000000
10
4.1977673116
20
-3.8542520286
30
0.0000000000
10
4.2229272616
20
-3.8843871327
30
0.0000000000
10
4.2500847902
20
-3.9127095519
30
0.0000000000
10
4.2790631395
20
-3.9388821692
30
0.0000000000
10
4.3094251613
20
-3.9624224440
30
0.0000000000
10
4.3403879622
20
-3.9828038225
30
0.0000000000
10
4.3615601897
20
-3.9944777041
30
0.0000000000
10
4.3720466741
20
-3.9997209463
30
0.0000000000
11
4.0658604563
21
-3.4716278374
31
0.0000000000
11
4.0674853315
21
-3.5150932668
31
0.0000000000
11
4.0721953709
21
-3.5578103475
31
0.0000000000
11
4.0797299197
21
-3.5994334170
31
0.0000000000
11
4.0898549836
21
-3.6398045903
31
0.0000000000
11
4.1025086650
21
-3.6792069225
31
0.0000000000
11
4.1175614213
21
-3.7174533478
31
0.0000000000
11
4.1347786259
21
-3.7541550394
31
0.0000000000
11
4.1539077476
21
-3.7890158484
31
0.0000000000
11
4.1749871816
21
-3.8222513080
31
0.0000000000
11
4.1981186632
21
-3.8539967734
31
0.0000000000
11
4.2232772039
21
-3.8841042875
31
0.0000000000
11
4.2504008146
21
-3.9123620574
31
0.0000000000
11
4.2795202564
21
-3.9386291614
31
0.0000000000
11
4.3100848165
21
-3.9622918533
31
0.0000000000
11
4.3412329654
21
-3.9827610859
31
0.0000000000
11
4.3720466741
21
-3.9997209463
31
0.0000000000
0
SPLINE
5
27B
100
AcDbEntity
8
0
100
AcDbSpline
62
7
6
CONTINUOUS
70
0
71
3
72
23
73
19
74
17
42
0.0000001000
43
0.0000001000
44
0.0000000001
12
0.0000000000
22
-0.6405370469
32
0.0000000000
13
0.5729137516
23
-0.2864568758
33
0.0000000000
40
0.0000000000
40
0.0000000000
40
0.0000000000
40
0.0000000000
40
0.0679089667
40
0.1350048577
40
0.2010435165
40
0.2660319526
40
0.3306524395
40
0.3948253291
40
0.4581127151
40
0.5201932474
40
0.5816494369
40
0.6429900802
40
0.7042606602
40
0.7654240742
40
0.8266545871
40
0.8869836180
40
0.9451345602
40
1.0000000000
40
1.0000000000
40
1.0000000000
40
1.0000000000
10
-11.8440421204
20
4.4833234510
30
0.0000000000
10
-11.8440421204
20
4.4688240480
30
0.0000000000
10
-11.8429500107
20
4.4399879875
30
0.0000000000
10
-11.8382257368
20
4.3972895460
30
0.0000000000
10
-11.8306742396
20
4.3556339003
30
0.0000000000
10
-11.8204983739
20
4.3150884926
30
0.0000000000
10
-11.8078354334
20
4.2756689300
30
0.0000000000
10
-11.7928051756
20
4.2374807767
30
0.0000000000
10
-11.7756087684
20
4.2008168318
30
0.0000000000
10
-11.7564118960
20
4.1658205903
30
0.0000000000
10
-11.7352625889
20
4.1324593062
30
0.0000000000
10
-11.7121107145
20
4.1006673600
30
0.0000000000
10
-11.6869416777
20
4.0705262045
30
0.0000000000
10
-11.6597758490
20
4.0422007725
30
0.0000000000
10
-11.6307938980
20
4.0160310388
30
0.0000000000
10
-11.6004372031
20
3.9925005785
30
0.0000000000
10
-11.5694905697
20
3.9721337311
30
0.0000000000
10
-11.5483336242
20
3.9604692029
30
0.0000000000
10
-11.5378559026
20
3.9552303420
30
0.0000000000
11
-11.8440421204
21
4.4833234510
31
0.0000000000
11
-11.8424170657
21
4.4398556079
31
0.0000000000
11
-11.8377066478
21
4.3971371200
31
0.0000000000
11
-11.8301716958
21
4.3555134242
31
0.0000000000
11
-11.8200446900
21
4.3151365424
31
0.0000000000
11
-11.8073878271
21
4.2757273272
31
0.0000000000
11
-11.7923327615
21
4.2374784666
31
0.0000000000
11
-11.7751150307
21
4.2007787074
31
0.0000000000
11
-11.7559845239
21
4.1659179924
31
0.0000000000
11
-11.7348992666
21
4.1326762643
31
0.0000000000
11
-11.7117589142
21
4.1009224740
31
0.0000000000
11
-11.6865911256
21
4.0708087408
31
0.0000000000
11
-11.6594586867
21
4.0425474248
31
0.0000000000
11
-11.6303329730
21
4.0162808394
31
0.0000000000
11
-11.5997741984
21
3.9926283311
31
0.0000000000
11
-11.5686444114
21
3.9721750330
31
0.0000000000
11
-11.5378559026
21
3.9552303420
31
0.0000000000
0
SPLINE
5
27C
100
AcDbEntity
8
0
100
AcDbSpline
62
7
6
CONTINUOUS
70
0
71
3
72
17
73
13
74
11
42
0.0000001000
43
0.0000001000
44
0.0000000001
12
-0.0345129006
22
-0.3550158480
32
0.0000000000
13
-0.3291892570
23
-0.1381730912
33
0.0000000000
40
0.0000000000
40
0.0000000000
40
0.0000000000
40
0.0000000000
40
0.1230386251
40
0.2418982631
40
0.3563542291
40
0.4663304687
40
0.5719426503
40
0.6734749056
40
0.7714447810
40
0.8665395766
40
0.9596531590
40
1.0000000000
40
1.0000000000
40
1.0000000000
40
1.0000000000
10
17.0595895760
20
-26.0706537596
30
0.0000000000
10
17.0581741027
20
-26.0852139802
30
0.0000000000
10
17.0542669712
20
-26.1137466103
30
0.0000000000
10
17.0449636185
20
-26.1551357403
30
0.0000000000
10
17.0323953243
20
-26.1940338088
30
0.0000000000
10
17.0166754299
20
-26.2300640929
30
0.0000000000
10
16.9979460110
20
-26.2628781198
30
0.0000000000
10
16.9763760485
20
-26.2921557349
30
0.0000000000
10
16.9521644903
20
-26.3176033693
30
0.0000000000
10
16.9255381729
20
-26.3389610589
30
0.0000000000
10
16.9020746585
20
-26.3528547847
30
0.0000000000
10
16.8876265612
20
-26.3594698014
30
0.0000000000
10
16.8831993123
20
-26.3613280840
30
0.0000000000
11
17.0595895760
21
-26.0706537596
31
0.0000000000
11
17.0535764628
21
-26.1141264495
31
0.0000000000
11
17.0442126143
21
-26.1554754250
31
0.0000000000
11
17.0315881620
21
-26.1942996886
31
0.0000000000
11
17.0158262661
21
-26.2302211182
31
0.0000000000
11
16.9970786097
21
-26.2628954381
31
0.0000000000
11
16.9755304535
21
-26.2920028009
31
0.0000000000
11
16.9513885186
21
-26.3172675543
31
0.0000000000
11
16.9248916595
21
-26.3384438698
31
0.0000000000
11
16.8962939874
21
-26.3553332852
31
0.0000000000
11
16.8831993123
21
-26.3613280840
31
0.0000000000
0
SPLINE
5
27D
100
AcDbEntity
8
0
100
AcDbSpline
62
7
6
CONTINUOUS
70
0
71
3
72
21
73
17
74
15
42
0.0000001000
43
0.0000001000
44
0.0000000001
12
0.3292372479
22
-0.1646186240
32
0.0000000000
13
0.0000000000
23
-0.3680984335
33
0.0000000000
40
0.0000000000
40
0.0000000000
40
0.0000000000
40
0.0000000000
40
0.0616579682
40
0.1268549288
40
0.1948966573
40
0.2652622725
40
0.3382169570
40
0.4129509389
40
0.4884112222
40
0.5643985381
40
0.6407177434
40
0.7162805671
40
0.7901704200
40
0.8625582186
40
0.9328046618
40
1.0000000000
40
1.0000000000
40
1.0000000000
40
1.0000000000
10
17.6423106540
20
-6.9113855957
30
0.0000000000
10
17.6490773540
20
-6.9147689457
30
0.0000000000
10
17.6626164333
20
-6.9225152492
30
0.0000000000
10
17.6821312944
20
-6.9363934861
30
0.0000000000
10
17.7011362949
20
-6.9526564270
30
0.0000000000
10
17.7194057935
20
-6.9711008745
30
0.0000000000
10
17.7367313615
20
-6.9915218054
30
0.0000000000
10
17.7528812738
20
-7.0136611838
30
0.0000000000
10
17.7676281914
20
-7.0371975497
30
0.0000000000
10
17.7808133450
20
-7.0618633254
30
0.0000000000
10
17.7922830135
20
-7.0873862120
30
0.0000000000
10
17.8018677240
20
-7.1134015776
30
0.0000000000
10
17.8094521677
20
-7.1395675851
30
0.0000000000
10
17.8149545865
20
-7.1655854410
30
0.0000000000
10
17.8183024898
20
-7.1911393604
30
0.0000000000
10
17.8190873504
20
-7.2080107311
30
0.0000000000
10
17.8190873504
20
-7.2162555640
30
0.0000000000
11
17.6423106540
21
-6.9113855957
31
0.0000000000
11
17.6620409390
21
-6.9226031453
31
0.0000000000
11
17.6816299452
21
-6.9364674156
31
0.0000000000
11
17.7006883793
21
-6.9527179816
31
0.0000000000
11
17.7189408038
21
-6.9710955573
31
0.0000000000
11
17.7363347483
21
-6.9915556438
31
0.0000000000
11
17.7525619598
21
-7.0137693352
31
0.0000000000
11
17.7673189578
21
-7.0373019148
31
0.0000000000
11
17.7805077377
21
-7.0619681347
31
0.0000000000
11
17.7920188392
21
-7.0875944895
31
0.0000000000
11
17.8016230129
21
-7.1136983098
31
0.0000000000
11
17.8091759545
21
-7.1398273067
31
0.0000000000
11
17.8146615736
21
-7.1659023623
31
0.0000000000
11
17.8179833511
21
-7.1915457156
31
0.0000000000
11
17.8190873504
21
-7.2162555640
31
0.0000000000
0
SPLINE
5
27E
100
AcDbEntity
8
0
100
AcDbSpline
62
9
6
CONTINUOUS
70
0
71
3
72
15
73
11
74
9
42
0.0000001000
43
0.0000001000
44
0.0000000001
12
-0.2076347185
22
-0.1036784590
32
0.0000000000
13
-0.2074052961
23
0.1037012698
33
0.0000000000
40
0.0000000000
40
0.0000000000
40
0.0000000000
40
0.0000000000
40
0.0972948026
40
0.2135131816
40
0.3323741043
40
0.4552887928
40
0.5832465253
40
0.7166848429
40
0.8556817381
40
1.0000000000
40
1.0000000000
40
1.0000000000
40
1.0000000000
10
9.2403177451
20
-7.4966999107
30
0.0000000000
10
9.2335838187
20
-7.5000623691
30
0.0000000000
10
9.2183583992
20
-7.5065453760
30
0.0000000000
10
9.1935246389
20
-7.5134477386
30
0.0000000000
10
9.1660184370
20
-7.5171472291
30
0.0000000000
10
9.1373648671
20
-7.5172539391
30
0.0000000000
10
9.1077972927
20
-7.5137702112
30
0.0000000000
10
9.0775965644
20
-7.5067441616
30
0.0000000000
10
9.0470768729
20
-7.4962870115
30
0.0000000000
10
9.0270726719
20
-7.4872957592
30
0.0000000000
10
9.0170952146
20
-7.4823070968
30
0.0000000000
11
9.2403177451
21
-7.4966999107
31
0.0000000000
11
9.2195567579
21
-7.5055453149
31
0.0000000000
11
9.1936003902
21
-7.5127934286
31
0.0000000000
11
9.1662911238
21
-7.5165183486
31
0.0000000000
11
9.1377894952
21
-7.5166891987
31
0.0000000000
11
9.1083134648
21
-7.5132885378
31
0.0000000000
11
9.0781593429
21
-7.5063486400
31
0.0000000000
11
9.0476455339
21
-7.4959674644
31
0.0000000000
11
9.0170952146
21
-7.4823070968
31
0.0000000000
0
SPLINE
5
27F
100
AcDbEntity
8
0
100
AcDbSpline
62
9
6
CONTINUOUS
70
0
71
3
72
15
73
11
74
9
42
0.0000001000
43
0.0000001000
44
0.0000000001
12
-0.2081694640
22
-0.1080396480
32
0.0000000000
13
-0.2093034009
23
0.1053910510
33
0.0000000000
40
0.0000000000
40
0.0000000000
40
0.0000000000
40
0.0000000000
40
0.1086906385
40
0.2235212303
40
0.3409308107
40
0.4623239135
40
0.5886690413
40
0.7203910644
40
0.8575757350
40
1.0000000000
40
1.0000000000
40
1.0000000000
40
1.0000000000
10
-6.6346866634
20
0.4001959581
30
0.0000000000
10
-6.6422286874
20
0.3962816587
30
0.0000000000
10
-6.6582924158
20
0.3892977138
30
0.0000000000
10
-6.6840386131
20
0.3821539172
30
0.0000000000
10
-6.7115007739
20
0.3784825991
30
0.0000000000
10
-6.7400991415
20
0.3784112323
30
0.0000000000
10
-6.7695971686
20
0.3819368905
30
0.0000000000
10
-6.7997113900
20
0.3890090268
30
0.0000000000
10
-6.8301276481
20
0.3995134645
30
0.0000000000
10
-6.8500548538
20
0.4085352721
30
0.0000000000
10
-6.8599914815
20
0.4135386865
30
0.0000000000
11
-6.6346866634
21
0.4001959581
31
0.0000000000
11
-6.6580441058
21
0.3900334785
31
0.0000000000
11
-6.6839653480
21
0.3828082160
31
0.0000000000
11
-6.7112296853
21
0.3791119623
31
0.0000000000
11
-6.7396766100
21
0.3789764998
31
0.0000000000
11
-6.7690835040
21
0.3824189892
31
0.0000000000
11
-6.7991504004
21
0.3894045604
31
0.0000000000
11
-6.8295599654
21
0.3998325074
31
0.0000000000
11
-6.8599914815
21
0.4135386865
31
0.0000000000
0
SPLINE
5
280
100
AcDbEntity
8
0
100
AcDbSpline
62
9
6
CONTINUOUS
70
0
71
3
72
9
73
5
74
3
42
0.0000001000
43
0.0000001000
44
0.0000000001
12
-0.0003741201
22
0.3051581932
32
0.0000000000
13
-0.0001982810
23
0.3051583581
33
0.0000000000
40
0.0000000000
40
0.0000000000
40
0.0000000000
40
0.0000000000
40
0.4999639837
40
1.0000000000
40
1.0000000000
40
1.0000000000
40
1.0000000000
10
2.5106236039
20
-3.9388290812
30
0.0000000000
10
2.5105612550
20
-3.8879730459
30
0.0000000000
10
2.5104512068
20
-3.7862536297
30
0.0000000000
10
2.5103704652
20
-3.6845341860
30
0.0000000000
10
2.5103374159
20
-3.6336707961
30
0.0000000000
11
2.5106236039
21
-3.9388290812
31
0.0000000000
11
2.5104585403
21
-3.7862609499
31
0.0000000000
11
2.5103374159
21
-3.6336707961
31
0.0000000000
0
SPLINE
5
281
100
AcDbEntity
8
0
100
AcDbSpline
62
9
6
CONTINUOUS
70
0
71
3
72
25
73
21
74
19
42
0.0000001000
43
0.0000001000
44
0.0000000001
12
-0.9221703597
22
0.4611003342
32
0.0000000000
13
-0.0012750434
23
1.0310237945
33
0.0000000000
40
0.0000000000
40
0.0000000000
40
0.0000000000
40
0.0000000000
40
0.0473653863
40
0.0970311015
40
0.1487721817
40
0.2023195318
40
0.2573577450
40
0.3136517831
40
0.3710555669
40
0.4293739077
40
0.4883213364
40
0.5475947673
40
0.6068850647
40
0.6658870843
40
0.7243747306
40
0.7821702064
40
0.8390003658
40
0.8944858877
40
0.9482661954
40
1.0000000000
40
1.0000000000
40
1.0000000000
40
1.0000000000
10
3.0066881697
20
-4.7922319119
30
0.0000000000
10
2.9921285179
20
-4.7849518468
30
0.0000000000
10
2.9629331334
20
-4.7687478916
30
0.0000000000
10
2.9202584264
20
-4.7405044900
30
0.0000000000
10
2.8780610628
20
-4.7079454183
30
0.0000000000
10
2.8367891835
20
-4.6713801909
30
0.0000000000
10
2.7968301827
20
-4.6311518745
30
0.0000000000
10
2.7584979907
20
-4.5875925106
30
0.0000000000
10
2.7220507121
20
-4.5410066892
30
0.0000000000
10
2.6877396438
20
-4.4917122154
30
0.0000000000
10
2.6558272024
20
-4.4400761542
30
0.0000000000
10
2.6265712574
20
-4.3865095114
30
0.0000000000
10
2.6002055574
20
-4.3314420406
30
0.0000000000
10
2.5769265818
20
-4.2752922329
30
0.0000000000
10
2.5568943629
20
-4.2184474662
30
0.0000000000
10
2.5402539288
20
-4.1612944311
30
0.0000000000
10
2.5271493439
20
-4.1042850159
30
0.0000000000
10
2.5177045794
20
-4.0479519294
30
0.0000000000
10
2.5119921464
20
-3.9928798206
30
0.0000000000
10
2.5106455915
20
-3.9566086757
30
0.0000000000
10
2.5106236039
20
-3.9388290812
30
0.0000000000
11
3.0066881697
21
-4.7922319119
31
0.0000000000
11
2.9639499143
21
-4.7686038185
31
0.0000000000
11
2.9212070372
21
-4.7404052440
31
0.0000000000
11
2.8789317540
21
-4.7078686354
31
0.0000000000
11
2.8375709357
21
-4.6712998508
31
0.0000000000
11
2.7975475651
21
-4.6310728694
31
0.0000000000
11
2.7591762522
21
-4.5875258109
31
0.0000000000
11
2.7226843938
21
-4.5409299480
31
0.0000000000
11
2.6883176123
21
-4.4915917501
31
0.0000000000
11
2.6563550897
21
-4.4398989122
31
0.0000000000
11
2.6270578681
21
-4.3862668893
31
0.0000000000
11
2.6006620292
21
-4.3311297282
31
0.0000000000
11
2.5773744042
21
-4.2749311201
31
0.0000000000
11
2.5573494609
21
-4.2180509205
31
0.0000000000
11
2.5407174160
21
-4.1608305472
31
0.0000000000
11
2.5276258141
21
-4.1037185190
31
0.0000000000
11
2.5182100758
21
-4.0472917742
31
0.0000000000
11
2.5125423059
21
-3.9921333847
31
0.0000000000
11
2.5106236039
21
-3.9388290812
31
0.0000000000
0
SPLINE
5
282
100
AcDbEntity
8
0
100
AcDbSpline
62
9
6
CONTINUOUS
70
0
71
3
72
16
73
12
74
10
42
0.0000001000
43
0.0000001000
44
0.0000000001
12
0.0001419106
22
-0.2420135486
32
0.0000000000
13
0.2161418480
23
-0.1080744357
33
0.0000000000
40
0.0000000000
40
0.0000000000
40
0.0000000000
40
0.0000000000
40
0.0086927322
40
0.1101293522
40
0.2144918561
40
0.3241894455
40
0.4411183785
40
0.5666039576
40
0.7014330134
40
0.8459155811
40
1.0000000000
40
1.0000000000
40
1.0000000000
40
1.0000000000
10
-17.5476425207
20
6.4993872579
30
0.0000000000
10
-17.5476421095
20
6.4986860049
30
0.0000000000
10
-17.5475625868
20
6.4898018503
30
0.0000000000
10
-17.5455658930
20
6.4725313826
30
0.0000000000
10
-17.5379156324
20
6.4481491739
30
0.0000000000
10
-17.5256039693
20
6.4243657916
30
0.0000000000
10
-17.5087989894
20
6.4013961955
30
0.0000000000
10
-17.4876887041
20
6.3794299254
30
0.0000000000
10
-17.4624816253
20
6.3586464146
30
0.0000000000
10
-17.4334154495
20
6.3392206037
30
0.0000000000
10
-17.4122971179
20
6.3276466511
30
0.0000000000
10
-17.4011957542
20
6.3220957889
30
0.0000000000
11
-17.5476425207
21
6.4993872579
31
0.0000000000
11
-17.5476236640
21
6.4972836207
31
0.0000000000
11
-17.5448462034
21
6.4729287644
31
0.0000000000
11
-17.5373861811
21
6.4488375827
31
0.0000000000
11
-17.5253138415
21
6.4252370089
31
0.0000000000
11
-17.5087430135
21
6.4023494885
31
0.0000000000
11
-17.4878297660
21
6.3803904794
31
0.0000000000
11
-17.4627706643
21
6.3595664527
31
0.0000000000
11
-17.4338030731
21
6.3400744950
31
0.0000000000
11
-17.4011957542
21
6.3220957889
31
0.0000000000
0
SPLINE
5
283
100
AcDbEntity
8
0
100
AcDbSpline
62
9
6
CONTINUOUS
70
0
71
3
72
25
73
21
74
19
42
0.0000001000
43
0.0000001000
44
0.0000000001
12
0.0009345833
22
-0.7663706745
32
0.0000000000
13
-0.6854674791
23
0.3427232402
33
0.0000000000
40
0.0000000000
40
0.0000000000
40
0.0000000000
40
0.0000000000
40
0.0671442617
40
0.1321918424
40
0.1948025243
40
0.2547755847
40
0.3120406626
40
0.3667698646
40
0.4193420628
40
0.4701965267
40
0.5198016003
40
0.5687018461
40
0.6174890108
40
0.6667626944
40
0.7171482241
40
0.7692434939
40
0.8234679402
40
0.8800076732
40
0.9388967077
40
1.0000000000
40
1.0000000000
40
1.0000000000
40
1.0000000000
10
9.3695593814
20
-7.3682969700
30
0.0000000000
10
9.3695802987
20
-7.3854494344
30
0.0000000000
10
9.3684552254
20
-7.4192350925
30
0.0000000000
10
9.3630204674
20
-7.4687516805
30
0.0000000000
10
9.3538500918
20
-7.5158597350
30
0.0000000000
10
9.3410006724
20
-7.5600417071
30
0.0000000000
10
9.3245812348
20
-7.6008731674
30
0.0000000000
10
9.3047232791
20
-7.6380288545
30
0.0000000000
10
9.2815573920
20
-7.6712534771
30
0.0000000000
10
9.2552279691
20
-7.7003031251
30
0.0000000000
10
9.2259237643
20
-7.7249291883
30
0.0000000000
10
9.1938856804
20
-7.7449046554
30
0.0000000000
10
9.1593938195
20
-7.7600515015
30
0.0000000000
10
9.1227415777
20
-7.7702547470
30
0.0000000000
10
9.0842081799
20
-7.7754539747
30
0.0000000000
10
9.0440716905
20
-7.7756192304
30
0.0000000000
10
9.0026593466
20
-7.7707536542
30
0.0000000000
10
8.9603649147
20
-7.7609242509
30
0.0000000000
10
8.9176371032
20
-7.7462902531
30
0.0000000000
10
8.8896358935
20
-7.7337055600
30
0.0000000000
10
8.8756744536
20
-7.7267250539
30
0.0000000000
11
9.3695593814
21
-7.3682969700
31
0.0000000000
11
9.3677761641
21
-7.4197234941
31
0.0000000000
11
9.3622572510
21
-7.4692676507
31
0.0000000000
11
9.3529993756
21
-7.5163490966
31
0.0000000000
11
9.3400698463
21
-7.5604546360
31
0.0000000000
11
9.3236015739
21
-7.6011339197
31
0.0000000000
11
9.3037426096
21
-7.6380774885
31
0.0000000000
11
9.2806223012
21
-7.6710732612
31
0.0000000000
11
9.2543913888
21
-7.6998979909
31
0.0000000000
11
9.2252530391
21
-7.7243144892
31
0.0000000000
11
9.1934403667
21
-7.7441232026
31
0.0000000000
11
9.1592117600
21
-7.7591679955
31
0.0000000000
11
9.1228452302
21
-7.7693385012
31
0.0000000000
11
9.0845876196
21
-7.7745727978
31
0.0000000000
11
9.0446641151
21
-7.7748274534
31
0.0000000000
11
9.0033803707
21
-7.7700778981
31
0.0000000000
11
8.9611516387
21
-7.7603691410
31
0.0000000000
11
8.9184239510
21
-7.7458385021
31
0.0000000000
11
8.8756744536
21
-7.7267250539
31
0.0000000000
0
SPLINE
5
284
100
AcDbEntity
8
0
100
AcDbSpline
62
9
6
CONTINUOUS
70
0
71
3
72
9
73
5
74
3
42
0.0000001000
43
0.0000001000
44
0.0000000001
12
0.0001982810
22
-0.3051583581
32
0.0000000000
13
0.0003741201
23
-0.3051581932
33
0.0000000000
40
0.0000000000
40
0.0000000000
40
0.0000000000
40
0.0000000000
40
0.5000360163
40
1.0000000000
40
1.0000000000
40
1.0000000000
40
1.0000000000
10
9.3692731935
20
-7.0631386848
30
0.0000000000
10
9.3693062427
20
-7.1140020747
30
0.0000000000
10
9.3693869843
20
-7.2157215184
30
0.0000000000
10
9.3694970325
20
-7.3174409347
30
0.0000000000
10
9.3695593814
20
-7.3682969700
30
0.0000000000
11
9.3692731935
21
-7.0631386848
31
0.0000000000
11
9.3693943178
21
-7.2157288387
31
0.0000000000
11
9.3695593814
21
-7.3682969700
31
0.0000000000
0
SPLINE
5
285
100
AcDbEntity
8
0
100
AcDbSpline
62
9
6
CONTINUOUS
70
0
71
3
72
9
73
5
74
3
42
0.0000001000
43
0.0000001000
44
0.0000000001
12
-0.0004562842
22
0.3467421268
32
0.0000000000
13
-0.0002272656
23
0.3467423525
33
0.0000000000
40
0.0000000000
40
0.0000000000
40
0.0000000000
40
0.0000000000
40
0.4999594316
40
1.0000000000
40
1.0000000000
40
1.0000000000
40
1.0000000000
10
-13.4331673643
20
3.9915102183
30
0.0000000000
10
-13.4332434055
20
4.0492958839
30
0.0000000000
10
-13.4333764075
20
4.1648766187
30
0.0000000000
10
-13.4334712399
20
4.2804573912
30
0.0000000000
10
-13.4335091206
20
4.3382524722
30
0.0000000000
11
-13.4331673643
21
3.9915102183
31
0.0000000000
11
-13.4333668559
21
4.1648672503
31
0.0000000000
11
-13.4335091206
21
4.3382524722
31
0.0000000000
0
SPLINE
5
286
100
AcDbEntity
8
0
100
AcDbSpline
62
9
6
CONTINUOUS
70
0
71
3
72
25
73
21
74
19
42
0.0000001000
43
0.0000001000
44
0.0000000001
12
-0.9221316157
22
0.4610799876
32
0.0000000000
13
-0.0013685262
23
1.0309799216
33
0.0000000000
40
0.0000000000
40
0.0000000000
40
0.0000000000
40
0.0000000000
40
0.0473937057
40
0.0970842504
40
0.1488394539
40
0.2023881308
40
0.2574211646
40
0.3137131281
40
0.3711193777
40
0.4294402100
40
0.4883880374
40
0.5476596226
40
0.6069461198
40
0.6659446905
40
0.7244341451
40
0.7822355294
40
0.8390656560
40
0.8945381381
40
0.9482941763
40
1.0000000000
40
1.0000000000
40
1.0000000000
40
1.0000000000
10
-12.9370642283
20
3.1381708465
30
0.0000000000
10
-12.9516319731
20
3.1454549429
30
0.0000000000
10
-12.9808418446
20
3.1616676375
30
0.0000000000
10
-13.0235328703
20
3.1899244067
30
0.0000000000
10
-13.0657378254
20
3.2224926153
30
0.0000000000
10
-13.1070090803
20
3.2590603170
30
0.0000000000
10
-13.1469639882
20
3.2992864015
30
0.0000000000
10
-13.1852931111
20
3.3428429743
30
0.0000000000
10
-13.2217395096
20
3.3894275477
30
0.0000000000
10
-13.2560504875
20
3.4387212171
30
0.0000000000
10
-13.2879623275
20
3.4903550376
30
0.0000000000
10
-13.3172170196
20
3.5439173514
30
0.0000000000
10
-13.3435814283
20
3.5989790939
30
0.0000000000
10
-13.3668601801
20
3.6551241717
30
0.0000000000
10
-13.3868936103
20
3.7119673573
30
0.0000000000
10
-13.4035354225
20
3.7691201210
30
0.0000000000
10
-13.4166399339
20
3.8261244822
30
0.0000000000
10
-13.4260834196
20
3.8824422921
30
0.0000000000
10
-13.4317954342
20
3.9374894823
30
0.0000000000
10
-13.4331437773
20
3.9737409963
30
0.0000000000
10
-13.4331673643
20
3.9915102183
30
0.0000000000
11
-12.9370642283
21
3.1381708465
31
0.0000000000
11
-12.9798258346
21
3.1618127641
31
0.0000000000
11
-13.0225871110
21
3.1900259888
31
0.0000000000
11
-13.0648705425
21
3.2225721717
31
0.0000000000
11
-13.1062291121
21
3.2591420279
31
0.0000000000
11
-13.1462460433
21
3.2993644866
31
0.0000000000
11
-13.1846139498
21
3.3429084130
31
0.0000000000
11
-13.2211058719
21
3.3895042649
31
0.0000000000
11
-13.2554729665
21
3.4388422657
31
0.0000000000
11
-13.2874349025
21
3.4905329170
31
0.0000000000
11
-13.3167308128
21
3.5441605329
31
0.0000000000
11
-13.3431250108
21
3.5992912597
31
0.0000000000
11
-13.3664117597
21
3.6554835876
31
0.0000000000
11
-13.3864380362
21
3.7123625813
31
0.0000000000
11
-13.4030723991
21
3.7695859912
31
0.0000000000
11
-13.4161644680
21
3.8266953265
31
0.0000000000
11
-13.4255788369
21
3.8831062088
31
0.0000000000
11
-13.4312459990
21
3.9382371423
31
0.0000000000
11
-13.4331673643
21
3.9915102183
31
0.0000000000
0
SPLINE
5
287
100
AcDbEntity
8
0
100
AcDbSpline
62
9
6
CONTINUOUS
70
0
71
3
72
15
73
11
74
9
42
0.0000001000
43
0.0000001000
44
0.0000000001
12
0.0037177630
22
-0.2417509704
32
0.0000000000
13
0.2158417132
23
-0.1080071512
33
0.0000000000
40
0.0000000000
40
0.0000000000
40
0.0000000000
40
0.0000000000
40
0.0558822504
40
0.1672885001
40
0.2834359717
40
0.4068562069
40
0.5393848415
40
0.6821589416
40
0.8356965867
40
1.0000000000
40
1.0000000000
40
1.0000000000
40
1.0000000000
10
-17.4850456556
20
-1.3509677318
30
0.0000000000
10
-17.4849764033
20
-1.3554709278
30
0.0000000000
10
-17.4840778251
20
-1.3689410714
30
0.0000000000
10
-17.4790572304
20
-1.3913379520
30
0.0000000000
10
-17.4677003583
20
-1.4173592751
30
0.0000000000
10
-17.4511588667
20
-1.4424627723
30
0.0000000000
10
-17.4296611853
20
-1.4664083490
30
0.0000000000
10
-17.4034579131
20
-1.4889770397
30
0.0000000000
10
-17.3728345573
20
-1.5099562081
30
0.0000000000
10
-17.3504176169
20
-1.5223420349
30
0.0000000000
10
-17.3385964401
20
-1.5282573495
30
0.0000000000
11
-17.4850456556
21
-1.3509677318
31
0.0000000000
11
-17.4841456782
21
-1.3644422303
31
0.0000000000
11
-17.4783424472
21
-1.3906971990
31
0.0000000000
11
-17.4672545174
21
-1.4164441802
31
0.0000000000
11
-17.4510006888
21
-1.4414073119
31
0.0000000000
11
-17.4297551105
21
-1.4653191301
31
0.0000000000
11
-17.4037454153
21
-1.4879234354
31
0.0000000000
11
-17.3732502799
21
-1.5089780374
31
0.0000000000
11
-17.3385964401
21
-1.5282573495
31
0.0000000000
0
SPLINE
5
288
100
AcDbEntity
8
0
100
AcDbSpline
62
9
6
CONTINUOUS
70
0
71
3
72
14
73
10
74
8
42
0.0000001000
43
0.0000001000
44
0.0000000001
12
0.0304852491
22
-0.2359385686
32
0.0000000000
13
0.2122823236
23
-0.1067277007
33
0.0000000000
40
0.0000000000
40
0.0000000000
40
0.0000000000
40
0.0000000000
40
0.1164937120
40
0.2469840555
40
0.3821348476
40
0.5238644121
40
0.6735789804
40
0.8321595272
40
1.0000000000
40
1.0000000000
40
1.0000000000
40
1.0000000000
10
-16.7969823589
20
-11.1385739573
30
0.0000000000
10
-16.7957985790
20
-11.1477357439
30
0.0000000000
10
-16.7917217186
20
-11.1669586834
30
0.0000000000
10
-16.7805565839
20
-11.1952472499
30
0.0000000000
10
-16.7638688236
20
-11.2230182555
30
0.0000000000
10
-16.7422236246
20
-11.2491118530
30
0.0000000000
10
-16.7158825633
20
-11.2732688305
30
0.0000000000
10
-16.6851460195
20
-11.2952530449
30
0.0000000000
10
-16.6625735970
20
-11.3079638865
30
0.0000000000
10
-16.6506970751
20
-11.3139349624
30
0.0000000000
11
-16.7969823589
21
-11.1385739573
31
0.0000000000
11
-16.7912543247
21
-11.1656603572
31
0.0000000000
11
-16.7799397781
21
-11.1945268514
31
0.0000000000
11
-16.7634934714
21
-11.2221077073
31
0.0000000000
11
-16.7420916597
21
-11.2481073410
31
0.0000000000
11
-16.7159637061
21
-11.2722471146
31
0.0000000000
11
-16.6853896238
21
-11.2942683221
31
0.0000000000
11
-16.6506970751
21
-11.3139349624
31
0.0000000000
0
SPLINE
5
289
100
AcDbEntity
8
0
100
AcDbSpline
62
9
6
CONTINUOUS
70
0
71
3
72
16
73
12
74
10
42
0.0000001000
43
0.0000001000
44
0.0000000001
12
-0.4509672297
22
0.2255046771
32
0.0000000000
13
-0.0650160207
23
0.4995731842
33
0.0000000000
40
0.0000000000
40
0.0000000000
40
0.0000000000
40
0.0000000000
40
0.0626998778
40
0.1666045147
40
0.2725819166
40
0.3817333299
40
0.4949787502
40
0.6130314503
40
0.7363905235
40
0.8653438683
40
1.0000000000
40
1.0000000000
40
1.0000000000
40
1.0000000000
10
-16.4009086931
20
-11.7285202384
30
0.0000000000
10
-16.4103338899
20
-11.7238071998
30
0.0000000000
10
-16.4348425027
20
-11.7102116632
30
0.0000000000
10
-16.4722197246
20
-11.6835319751
30
0.0000000000
10
-16.5112878102
20
-11.6466390934
30
0.0000000000
10
-16.5462252377
20
-11.6037876335
30
0.0000000000
10
-16.5767889517
20
-11.5553183421
30
0.0000000000
10
-16.6027747413
20
-11.5016026347
30
0.0000000000
10
-16.6240125529
20
-11.4430390756
30
0.0000000000
10
-16.6403639672
20
-11.3800601096
30
0.0000000000
10
-16.6477788067
20
-11.3363584934
30
0.0000000000
10
-16.6506970754
20
-11.3139349625
30
0.0000000000
11
-16.4009086931
21
-11.7285202384
31
0.0000000000
11
-16.4285454349
21
-11.7131901125
31
0.0000000000
11
-16.4711811317
21
-11.6828211963
31
0.0000000000
11
-16.5100605552
21
-11.6462305350
31
0.0000000000
11
-16.5448992736
21
-11.6036858512
31
0.0000000000
11
-16.5754422783
21
-11.5554987664
31
0.0000000000
11
-16.6014664792
21
-11.5020215218
31
0.0000000000
11
-16.6227817888
21
-11.4436446770
31
0.0000000000
11
-16.6392318364
21
-11.3807969662
31
0.0000000000
11
-16.6506970754
21
-11.3139349625
31
0.0000000000
0
SPLINE
5
28A
100
AcDbEntity
8
0
100
AcDbSpline
62
9
6
CONTINUOUS
70
0
71
3
72
25
73
21
74
19
42
0.0000001000
43
0.0000001000
44
0.0000000001
12
0.0009864270
22
-0.7662998702
32
0.0000000000
13
-0.6854045287
23
0.3426909630
33
0.0000000000
40
0.0000000000
40
0.0000000000
40
0.0000000000
40
0.0000000000
40
0.0671790331
40
0.1322510524
40
0.1948692987
40
0.2548342826
40
0.3120853766
40
0.3668050978
40
0.4193731469
40
0.4702245895
40
0.5198262990
40
0.5687230705
40
0.6175070849
40
0.6667798802
40
0.7171710320
40
0.7692779152
40
0.8235108417
40
0.8800473570
40
0.9389202460
40
1.0000000000
40
1.0000000000
40
1.0000000000
40
1.0000000000
10
-6.5063495781
20
0.5281013252
30
0.0000000000
10
-6.5063274891
20
0.5109415638
30
0.0000000000
10
-6.5074512662
20
0.4771437973
30
0.0000000000
10
-6.5128868401
20
0.4276146994
30
0.0000000000
10
-6.5220585615
20
0.3805051453
30
0.0000000000
10
-6.5349076492
20
0.3363313452
30
0.0000000000
10
-6.5513245667
20
0.2955119481
30
0.0000000000
10
-6.5711794183
20
0.2583670077
30
0.0000000000
10
-6.5943431324
20
0.2251505785
30
0.0000000000
10
-6.6206711514
20
0.1961081235
30
0.0000000000
10
-6.6499737256
20
0.1714894802
30
0.0000000000
10
-6.6820094736
20
0.1515216474
30
0.0000000000
10
-6.7164986272
20
0.1363820596
30
0.0000000000
10
-6.7531493894
20
0.1261850945
30
0.0000000000
10
-6.7916841728
20
0.1209915943
30
0.0000000000
10
-6.8318235833
20
0.1208326232
30
0.0000000000
10
-6.8732356233
20
0.1257046696
30
0.0000000000
10
-6.9155221182
20
0.1355379498
30
0.0000000000
10
-6.9582343250
20
0.1501705365
30
0.0000000000
10
-6.9862233041
20
0.1627506145
30
0.0000000000
10
-7.0001780841
20
0.1697277744
30
0.0000000000
11
-6.5063495781
21
0.5281013252
31
0.0000000000
11
-6.5081310566
21
0.4766528322
31
0.0000000000
11
-6.5136510716
21
0.4270945850
31
0.0000000000
11
-6.5229103172
21
0.3800120148
31
0.0000000000
11
-6.5358388156
21
0.3359170437
31
0.0000000000
11
-6.5523035561
21
0.2952522611
31
0.0000000000
11
-6.5721592976
21
0.2583196037
31
0.0000000000
11
-6.5952780268
21
0.2253311479
31
0.0000000000
11
-6.6215077434
21
0.1965133246
31
0.0000000000
11
-6.6506443601
21
0.1721042360
31
0.0000000000
11
-6.6824545554
21
0.1523031261
31
0.0000000000
11
-6.7166799830
21
0.1372656776
31
0.0000000000
11
-6.7530439924
21
0.1271016302
31
0.0000000000
11
-6.7913031180
21
0.1218729219
31
0.0000000000
11
-6.8312318756
21
0.1216244210
31
0.0000000000
11
-6.8725175351
21
0.1263806213
31
0.0000000000
11
-6.9147387118
21
0.1360933847
31
0.0000000000
11
-6.9574495258
21
0.1506222749
31
0.0000000000
11
-7.0001780841
21
0.1697277744
31
0.0000000000
0
SPLINE
5
28B
100
AcDbEntity
8
0
100
AcDbSpline
62
9
6
CONTINUOUS
70
0
71
3
72
9
73
5
74
3
42
0.0000001000
43
0.0000001000
44
0.0000000001
12
0.0002233349
22
-0.3467413242
32
0.0000000000
13
0.0004483961
23
-0.3467411062
33
0.0000000000
40
0.0000000000
40
0.0000000000
40
0.0000000000
40
0.0000000000
40
0.5000429899
40
1.0000000000
40
1.0000000000
40
1.0000000000
40
1.0000000000
10
-6.5066892782
20
0.8748425510
30
0.0000000000
10
-6.5066520525
20
0.8170473615
30
0.0000000000
10
-6.5065530805
20
0.7014669362
30
0.0000000000
10
-6.5064243044
20
0.5858865408
30
0.0000000000
10
-6.5063495781
20
0.5281013252
30
0.0000000000
11
-6.5066892782
21
0.8748425510
31
0.0000000000
11
-6.5065456197
21
0.7014570061
31
0.0000000000
11
-6.5063495781
21
0.5281013252
31
0.0000000000
0
SPLINE
5
28C
100
AcDbEntity
8
0
100
AcDbSpline
62
9
6
CONTINUOUS
70
0
71
3
72
23
73
19
74
17
42
0.0000001000
43
0.0000001000
44
0.0000000001
12
-0.2115121226
22
-0.1118181656
32
0.0000000000
13
0.2139905000
23
-0.1069988135
33
0.0000000000
40
0.0000000000
40
0.0000000000
40
0.0000000000
40
0.0000000000
40
0.0772825151
40
0.1497756765
40
0.2174245428
40
0.2804151734
40
0.3391763635
40
0.3944107354
40
0.4471054242
40
0.4984948482
40
0.5499578127
40
0.6028647272
40
0.6584280924
40
0.7176057005
40
0.7810700590
40
0.8492229098
40
0.9222273712
40
1.0000000000
40
1.0000000000
40
1.0000000000
40
1.0000000000
10
-17.2290211459
20
6.8034596267
30
0.0000000000
10
-17.2344698755
20
6.8005790970
30
0.0000000000
10
-17.2448223760
20
6.7945882261
30
0.0000000000
10
-17.2590158136
20
6.7845837895
30
0.0000000000
10
-17.2712600898
20
6.7739269256
30
0.0000000000
10
-17.2814354784
20
6.7627095190
30
0.0000000000
10
-17.2894401509
20
6.7510235019
30
0.0000000000
10
-17.2951822640
20
6.7389665475
30
0.0000000000
10
-17.2985808710
20
6.7266501388
30
0.0000000000
10
-17.2995761168
20
6.7142077556
30
0.0000000000
10
-17.2981474495
20
6.7017909995
30
0.0000000000
10
-17.2943225459
20
6.6895498584
30
0.0000000000
10
-17.2881662020
20
6.6776143732
30
0.0000000000
10
-17.2797623261
20
6.6660928751
30
0.0000000000
10
-17.2692051441
20
6.6550807668
30
0.0000000000
10
-17.2565990201
20
6.6446681732
30
0.0000000000
10
-17.2420672087
20
6.6349453128
30
0.0000000000
10
-17.2315092977
20
6.6291569904
30
0.0000000000
10
-17.2259617631
20
6.6263831307
30
0.0000000000
11
-17.2290211459
21
6.8034596267
31
0.0000000000
11
-17.2450002808
21
6.7941568208
31
0.0000000000
11
-17.2591444536
21
6.7841190449
31
0.0000000000
11
-17.2713113168
21
6.7734456237
31
0.0000000000
11
-17.2813858065
21
6.7622373523
31
0.0000000000
11
-17.2892731431
21
6.7505996990
31
0.0000000000
11
-17.2948990099
21
6.7386422100
31
0.0000000000
11
-17.2982103149
21
6.7264776226
31
0.0000000000
11
-17.2991758494
21
6.7142206612
31
0.0000000000
11
-17.2977865741
21
6.7019867643
31
0.0000000000
11
-17.2940556037
21
6.6898911193
31
0.0000000000
11
-17.2880181127
21
6.6780476762
31
0.0000000000
11
-17.2797310698
21
6.6665680783
31
0.0000000000
11
-17.2692725647
21
6.6555603820
31
0.0000000000
11
-17.2567409701
21
6.6451281588
31
0.0000000000
11
-17.2422547974
21
6.6353698970
31
0.0000000000
11
-17.2259617631
21
6.6263831307
31
0.0000000000
0
SPLINE
5
28D
100
AcDbEntity
8
0
100
AcDbSpline
62
9
6
CONTINUOUS
70
0
71
3
72
20
73
16
74
14
42
0.0000001000
43
0.0000001000
44
0.0000000001
12
-0.3262272162
22
-0.1670890838
32
0.0000000000
13
0.0006806522
23
-0.3665276186
33
0.0000000000
40
0.0000000000
40
0.0000000000
40
0.0000000000
40
0.0000000000
40
0.0669126726
40
0.1374930642
40
0.2114119088
40
0.2882045029
40
0.3673016467
40
0.4480559803
40
0.5297665355
40
0.6117022812
40
0.6931251126
40
0.7733128159
40
0.8515830075
40
0.9273189508
40
1.0000000000
40
1.0000000000
40
1.0000000000
40
1.0000000000
10
-6.3317572810
20
1.1792808895
30
0.0000000000
10
-6.3390335259
20
1.1755540971
30
0.0000000000
10
-6.3535359675
20
1.1669966961
30
0.0000000000
10
-6.3743349962
20
1.1516160217
30
0.0000000000
10
-6.3944968697
20
1.1335468662
30
0.0000000000
10
-6.4137311975
20
1.1130485036
30
0.0000000000
10
-6.4317656646
20
1.0904120807
30
0.0000000000
10
-6.4483432833
20
1.0659608432
30
0.0000000000
10
-6.4632280170
20
1.0400440710
30
0.0000000000
10
-6.4762077420
20
1.0130323190
30
0.0000000000
10
-6.4870972792
20
0.9853115303
30
0.0000000000
10
-6.4957409711
20
0.9572776566
30
0.0000000000
10
-6.5020141317
20
0.9293286857
30
0.0000000000
10
-6.5058249165
20
0.9018641676
30
0.0000000000
10
-6.5067019136
20
0.8837204943
30
0.0000000000
10
-6.5066854234
20
0.8748406236
30
0.0000000000
11
-6.3317572810
21
1.1792808895
31
0.0000000000
11
-6.3529180292
21
1.1668826141
31
0.0000000000
11
-6.3737558648
21
1.1515520442
31
0.0000000000
11
-6.3939662970
21
1.1335079936
31
0.0000000000
11
-6.4132550552
21
1.1130097496
31
0.0000000000
11
-6.4313426034
21
1.0903527802
31
0.0000000000
11
-6.4479676334
21
1.0658641285
31
0.0000000000
11
-6.4628903788
21
1.0398974603
31
0.0000000000
11
-6.4758958151
21
1.0128278174
31
0.0000000000
11
-6.4867964657
21
0.9850460553
31
0.0000000000
11
-6.4954348270
21
0.9569531195
31
0.0000000000
11
-6.5016852012
21
0.9289540529
31
0.0000000000
11
-6.5054549469
21
0.9014518486
31
0.0000000000
11
-6.5066854234
21
0.8748406236
31
0.0000000000
0
SPLINE
5
28E
100
AcDbEntity
8
0
100
AcDbSpline
62
9
6
CONTINUOUS
70
0
71
3
72
20
73
16
74
14
42
0.0000001000
43
0.0000001000
44
0.0000000001
12
-0.3264447598
22
-0.1667114775
32
0.0000000000
13
0.0002381806
23
-0.3665499164
33
0.0000000000
40
0.0000000000
40
0.0000000000
40
0.0000000000
40
0.0000000000
40
0.0669550477
40
0.1375631929
40
0.2115011114
40
0.2883073903
40
0.3674136447
40
0.4481723564
40
0.5298823045
40
0.6118124319
40
0.6932248794
40
0.7733978343
40
0.8516488206
40
0.9273591055
40
1.0000000000
40
1.0000000000
40
1.0000000000
40
1.0000000000
10
2.6855714072
20
-3.3293834546
30
0.0000000000
10
2.6782856990
20
-3.3331041796
30
0.0000000000
10
2.6637653144
20
-3.3416503623
30
0.0000000000
10
2.6429430949
20
-3.3570208296
30
0.0000000000
10
2.6227599082
20
-3.3750796688
30
0.0000000000
10
2.6035040933
20
-3.3955671385
30
0.0000000000
10
2.5854469712
20
-3.4181919020
30
0.0000000000
10
2.5688456451
20
-3.4426310540
30
0.0000000000
10
2.5539367114
20
-3.4685356997
30
0.0000000000
10
2.5409330966
20
-3.4955356991
30
0.0000000000
10
2.5300206210
20
-3.5232453587
30
0.0000000000
10
2.5213552907
20
-3.5512687190
30
0.0000000000
10
2.5150610913
20
-3.5792072383
30
0.0000000000
10
2.5112284881
20
-3.6066597521
30
0.0000000000
10
2.5103316481
20
-3.6247952911
30
0.0000000000
10
2.5103374153
20
-3.6336707957
30
0.0000000000
11
2.6855714072
21
-3.3293834546
31
0.0000000000
11
2.6643824425
21
-3.3417671461
31
0.0000000000
11
2.6435216040
21
-3.3570861887
31
0.0000000000
11
2.6232900262
21
-3.3751194526
31
0.0000000000
11
2.6039797618
21
-3.3956066266
31
0.0000000000
11
2.5858695650
21
-3.4182519753
31
0.0000000000
11
2.5692208685
21
-3.4427286078
31
0.0000000000
11
2.5542740086
21
-3.4686831963
31
0.0000000000
11
2.5412447562
21
-3.4957410756
31
0.0000000000
11
2.5303212016
21
-3.5235116523
31
0.0000000000
11
2.5216610387
21
-3.5515940424
31
0.0000000000
11
2.5153892889
21
-3.5795828584
31
0.0000000000
11
2.5115964951
21
-3.6070740618
31
0.0000000000
11
2.5103374153
21
-3.6336707957
31
0.0000000000
0
SPLINE
5
28F
100
AcDbEntity
8
0
100
AcDbSpline
62
9
6
CONTINUOUS
70
0
71
3
72
20
73
16
74
14
42
0.0000001000
43
0.0000001000
44
0.0000000001
12
0.2684915316
22
-0.1342560410
32
0.0000000000
13
-0.0504921597
23
-0.2959103392
33
0.0000000000
40
0.0000000000
40
0.0000000000
40
0.0000000000
40
0.0000000000
40
0.0636232722
40
0.1301550748
40
0.1999502609
40
0.2726817408
40
0.3483276211
40
0.4264609234
40
0.5068125383
40
0.5887192578
40
0.6717432671
40
0.7550663865
40
0.8381499777
40
0.9200599584
40
1.0000000000
40
1.0000000000
40
1.0000000000
40
1.0000000000
10
2.6855714072
20
-3.3293834546
30
0.0000000000
10
2.6912655105
20
-3.3322307241
30
0.0000000000
10
2.7025126721
20
-3.3388878721
30
0.0000000000
10
2.7183289251
20
-3.3512172478
30
0.0000000000
10
2.7332418072
20
-3.3659516145
30
0.0000000000
10
2.7470430490
20
-3.3829173475
30
0.0000000000
10
2.7595221233
20
-3.4018811760
30
0.0000000000
10
2.7705010165
20
-3.4226149924
30
0.0000000000
10
2.7798005871
20
-3.4448330892
30
0.0000000000
10
2.7872732809
20
-3.4682437290
30
0.0000000000
10
2.7927726881
20
-3.4924987336
30
0.0000000000
10
2.7962182485
20
-3.5172500684
30
0.0000000000
10
2.7974837956
20
-3.5420947105
30
0.0000000000
10
2.7966432141
20
-3.5666241302
30
0.0000000000
10
2.7944993848
20
-3.5827018698
30
0.0000000000
10
2.7931539363
20
-3.5905868981
30
0.0000000000
11
2.6855714072
21
-3.3293834546
31
0.0000000000
11
2.7020339080
21
-3.3390661128
31
0.0000000000
11
2.7178185845
21
-3.3513023187
31
0.0000000000
11
2.7327563527
21
-3.3659935978
31
0.0000000000
11
2.7465675689
21
-3.3829031500
31
0.0000000000
11
2.7590799338
21
-3.4018528404
31
0.0000000000
11
2.7700808608
21
-3.4225675422
31
0.0000000000
11
2.7794133715
21
-3.4448094899
31
0.0000000000
11
2.7869010896
21
-3.4682289692
31
0.0000000000
11
2.7924205302
21
-3.4925328621
31
0.0000000000
11
2.7958578627
21
-3.5173080881
31
0.0000000000
11
2.7971329727
21
-3.5422161063
31
0.0000000000
11
2.7962296332
21
-3.5667878391
31
0.0000000000
11
2.7931539363
21
-3.5905868981
31
0.0000000000
0
SPLINE
5
290
100
AcDbEntity
8
0
100
AcDbSpline
62
9
6
CONTINUOUS
70
0
71
3
72
19
73
15
74
13
42
0.0000001000
43
0.0000001000
44
0.0000000001
12
0.2604993950
22
-0.1302496975
32
0.0000000000
13
0.2603077507
23
0.1306322831
33
0.0000000000
40
0.0000000000
40
0.0000000000
40
0.0000000000
40
0.0000000000
40
0.0737380579
40
0.1524753836
40
0.2354407633
40
0.3217064705
40
0.4102336328
40
0.4999118062
40
0.5895953768
40
0.6781385679
40
0.7644304401
40
0.8474312728
40
0.9262120988
40
1.0000000000
40
1.0000000000
40
1.0000000000
40
1.0000000000
10
2.5106236039
20
-3.9388290812
30
0.0000000000
10
2.5170265103
20
-3.9420305345
30
0.0000000000
10
2.5306300042
20
-3.9479376664
30
0.0000000000
10
2.5523530927
20
-3.9551280001
30
0.0000000000
10
2.5757621871
20
-3.9608460711
30
0.0000000000
10
2.6004607352
20
-3.9649939951
30
0.0000000000
10
2.6260328976
20
-3.9675017354
30
0.0000000000
10
2.6520456995
20
-3.9683263697
30
0.0000000000
10
2.6780584926
20
-3.9674538400
30
0.0000000000
10
2.7036306266
20
-3.9648990136
30
0.0000000000
10
2.7283291212
20
-3.9607056081
30
0.0000000000
10
2.7517381218
20
-3.9549444303
30
0.0000000000
10
2.7734610680
20
-3.9477140980
30
0.0000000000
10
2.7870636362
20
-3.9417822766
30
0.0000000000
10
2.7934661571
20
-3.9385692493
30
0.0000000000
11
2.5106236039
21
-3.9388290812
31
0.0000000000
11
2.5302926729
21
-3.9474515142
31
0.0000000000
11
2.5520449547
21
-3.9547120899
31
0.0000000000
11
2.5755082615
21
-3.9604865778
31
0.0000000000
11
2.6002811297
21
-3.9646761749
31
0.0000000000
11
2.6259396887
21
-3.9672091958
31
0.0000000000
11
2.6520449135
21
-3.9680423001
31
0.0000000000
11
2.6781501362
21
-3.9671612330
31
0.0000000000
11
2.7038086895
21
-3.9645810698
31
0.0000000000
11
2.7285815483
21
-3.9603459578
31
0.0000000000
11
2.7520448421
21
-3.9545283610
31
0.0000000000
11
2.7737971075
21
-3.9472278200
31
0.0000000000
11
2.7934661571
21
-3.9385692493
31
0.0000000000
0
SPLINE
5
291
100
AcDbEntity
8
0
100
AcDbSpline
62
9
6
CONTINUOUS
70
0
71
3
72
20
73
16
74
14
42
0.0000001000
43
0.0000001000
44
0.0000000001
12
0.2680868247
22
-0.1339303851
32
0.0000000000
13
0.2349236734
23
0.1860611763
33
0.0000000000
40
0.0000000000
40
0.0000000000
40
0.0000000000
40
0.0000000000
40
0.0641693364
40
0.1319661370
40
0.2034955804
40
0.2781643588
40
0.3557145889
40
0.4354978727
40
0.5170514945
40
0.5995345574
40
0.6823577909
40
0.7645746551
40
0.8455519830
40
0.9242937246
40
1.0000000000
40
1.0000000000
40
1.0000000000
40
1.0000000000
10
2.5103374159
20
-3.6336707961
30
0.0000000000
10
2.5160717338
20
-3.6365355374
30
0.0000000000
10
2.5282475946
20
-3.6416811495
30
0.0000000000
10
2.5477607572
20
-3.6474985664
30
0.0000000000
10
2.5687831824
20
-3.6515526958
30
0.0000000000
10
2.5910541928
20
-3.6537575462
30
0.0000000000
10
2.6142544128
20
-3.6540631655
30
0.0000000000
10
2.6380875267
20
-3.6524396187
30
0.0000000000
10
2.6622077838
20
-3.6488904080
30
0.0000000000
10
2.6862837712
20
-3.6434469962
30
0.0000000000
10
2.7099367303
20
-3.6361617430
30
0.0000000000
10
2.7328272012
20
-3.6271470351
30
0.0000000000
10
2.7545423884
20
-3.6164821728
30
0.0000000000
10
2.7747786063
20
-3.6044377139
30
0.0000000000
10
2.7872255213
20
-3.5952822568
30
0.0000000000
10
2.7931539200
20
-3.5905869240
30
0.0000000000
11
2.5103374159
21
-3.6336707961
31
0.0000000000
11
2.5280260107
21
-3.6412150596
31
0.0000000000
11
2.5474802975
21
-3.6470737524
31
0.0000000000
11
2.5685202070
21
-3.6511750720
31
0.0000000000
11
2.5907843812
21
-3.6534164676
31
0.0000000000
11
2.6140222124
21
-3.6537500832
31
0.0000000000
11
2.6378777340
21
-3.6521454725
31
0.0000000000
11
2.6620591723
21
-3.6486000907
31
0.0000000000
11
2.6861695007
21
-3.6431506786
31
0.0000000000
11
2.7098901635
21
-3.6358442235
31
0.0000000000
11
2.7328063348
21
-3.6267934957
31
0.0000000000
11
2.7545870370
21
-3.6160929913
31
0.0000000000
11
2.7748240939
21
-3.6039565179
31
0.0000000000
11
2.7931539200
21
-3.5905869240
31
0.0000000000
0
SPLINE
5
292
100
AcDbEntity
8
0
100
AcDbSpline
62
9
6
CONTINUOUS
70
0
71
3
72
19
73
15
74
13
42
0.0000001000
43
0.0000001000
44
0.0000000001
12
-0.0006995496
22
0.2949686706
32
0.0000000000
13
0.2638287414
23
0.1319143707
33
0.0000000000
40
0.0000000000
40
0.0000000000
40
0.0000000000
40
0.0000000000
40
0.0788653137
40
0.1613186089
40
0.2466626594
40
0.3340797245
40
0.4226712522
40
0.5114947536
40
0.5995992098
40
0.6860602001
40
0.7700159054
40
0.8507052504
40
0.9275096568
40
1.0000000000
40
1.0000000000
40
1.0000000000
40
1.0000000000
10
3.0066881697
20
-4.7922319119
30
0.0000000000
10
3.0066697796
20
-4.7844776463
30
0.0000000000
10
3.0075022862
20
-4.7686052914
30
0.0000000000
10
3.0111109169
20
-4.7445898440
30
0.0000000000
10
3.0170472768
20
-4.7201756641
30
0.0000000000
10
3.0252101324
20
-4.6957789649
30
0.0000000000
10
3.0354608423
20
-4.6718117752
30
0.0000000000
10
3.0476254364
20
-4.6486808455
30
0.0000000000
10
3.0614975510
20
-4.6267785399
30
0.0000000000
10
3.0768423410
20
-4.6064762413
30
0.0000000000
10
3.0934002843
20
-4.5881180246
30
0.0000000000
10
3.1108945303
20
-4.5720137822
30
0.0000000000
10
3.1290286301
20
-4.5584383296
30
0.0000000000
10
3.1417339188
20
-4.5510014609
30
0.0000000000
10
3.1481089308
20
-4.5478139549
30
0.0000000000
11
3.0066881697
21
-4.7922319119
31
0.0000000000
11
3.0078488602
21
-4.7689980239
31
0.0000000000
11
3.0114183010
21
-4.7449401725
31
0.0000000000
11
3.0173351921
21
-4.7204715143
31
0.0000000000
11
3.0254979193
21
-4.6960122607
31
0.0000000000
11
3.0357663002
21
-4.6719824614
31
0.0000000000
11
3.0479639908
21
-4.6487947907
31
0.0000000000
11
3.0618815145
21
-4.6268474605
31
0.0000000000
11
3.0772798592
21
-4.6065173818
31
0.0000000000
11
3.0938945823
21
-4.5881536916
31
0.0000000000
11
3.1114403518
21
-4.5720717573
31
0.0000000000
11
3.1296158465
21
-4.5585477606
31
0.0000000000
11
3.1481089308
21
-4.5478139549
31
0.0000000000
0
SPLINE
5
293
100
AcDbEntity
8
0
100
AcDbSpline
62
9
6
CONTINUOUS
70
0
71
3
72
19
73
15
74
13
42
0.0000001000
43
0.0000001000
44
0.0000000001
12
-0.0006995496
22
0.2949686706
32
0.0000000000
13
0.2638287414
23
0.1319143707
33
0.0000000000
40
0.0000000000
40
0.0000000000
40
0.0000000000
40
0.0000000000
40
0.0788652855
40
0.1613185567
40
0.2466625885
40
0.3340796413
40
0.4226711634
40
0.5114946659
40
0.5995991290
40
0.6860601312
40
0.7700158520
40
0.8507052146
40
0.9275096393
40
1.0000000000
40
1.0000000000
40
1.0000000000
40
1.0000000000
10
8.8756744536
20
-7.7267250539
30
0.0000000000
10
8.8756560635
20
-7.7189707910
30
0.0000000000
10
8.8764885695
20
-7.7030984412
30
0.0000000000
10
8.8800971980
20
-7.6790830006
30
0.0000000000
10
8.8860335551
20
-7.6546688256
30
0.0000000000
10
8.8941964078
20
-7.6302721292
30
0.0000000000
10
8.9044471151
20
-7.6063049402
30
0.0000000000
10
8.9166117076
20
-7.5831740093
30
0.0000000000
10
8.9304838215
20
-7.5612717010
30
0.0000000000
10
8.9458286121
20
-7.5409693986
30
0.0000000000
10
8.9623865571
20
-7.5226111775
30
0.0000000000
10
8.9798808060
20
-7.5065069307
30
0.0000000000
10
8.9980149095
20
-7.4929314743
30
0.0000000000
10
9.0107202011
20
-7.4854946036
30
0.0000000000
10
9.0170952146
20
-7.4823070968
30
0.0000000000
11
8.8756744536
21
-7.7267250539
31
0.0000000000
11
8.8768351432
21
-7.7034911741
31
0.0000000000
11
8.8804045819
21
-7.6794333295
31
0.0000000000
11
8.8863214701
21
-7.6549646763
31
0.0000000000
11
8.8944841945
21
-7.6305054255
31
0.0000000000
11
8.9047525728
21
-7.6064756270
31
0.0000000000
11
8.9169502617
21
-7.5832879550
31
0.0000000000
11
8.9308677847
21
-7.5613406221
31
0.0000000000
11
8.9462661301
21
-7.5410105394
31
0.0000000000
11
8.9628808550
21
-7.5226468447
31
0.0000000000
11
8.9804266275
21
-7.5065649059
31
0.0000000000
11
8.9986021260
21
-7.4930409054
31
0.0000000000
11
9.0170952146
21
-7.4823070968
31
0.0000000000
0
SPLINE
5
294
100
AcDbEntity
8
0
100
AcDbSpline
62
9
6
CONTINUOUS
70
0
71
3
72
13
73
9
74
7
42
0.0000001000
43
0.0000001000
44
0.0000000001
12
-0.0862512763
22
0.0431256382
32
0.0000000000
13
-0.0001241163
23
0.0966765334
33
0.0000000000
40
0.0000000000
40
0.0000000000
40
0.0000000000
40
0.0000000000
40
0.2059175375
40
0.3942080848
40
0.5651632333
40
0.7205448106
40
0.8639079505
40
1.0000000000
40
1.0000000000
40
1.0000000000
40
1.0000000000
10
9.3695593814
20
-7.3682969700
30
0.0000000000
10
9.3636391646
20
-7.3653368616
30
0.0000000000
10
9.3525746371
20
-7.3590973196
30
0.0000000000
10
9.3379211895
20
-7.3482702808
30
0.0000000000
10
9.3261628877
20
-7.3365301887
30
0.0000000000
10
9.3175171869
20
-7.3240314712
30
0.0000000000
10
9.3122012231
20
-7.3109631213
30
0.0000000000
10
9.3109863619
20
-7.3019588714
30
0.0000000000
10
9.3109807315
20
-7.2975732356
30
0.0000000000
11
9.3695593814
21
-7.3682969700
31
0.0000000000
11
9.3523100626
21
-7.3584602082
31
0.0000000000
11
9.3377756433
21
-7.3475774312
31
0.0000000000
11
9.3262048107
21
-7.3358348466
31
0.0000000000
11
9.3177955446
21
-7.3234333735
31
0.0000000000
11
9.3126917290
21
-7.3105852046
31
0.0000000000
11
9.3109807315
21
-7.2975732356
31
0.0000000000
0
SPLINE
5
295
100
AcDbEntity
8
0
100
AcDbSpline
62
9
6
CONTINUOUS
70
0
71
3
72
13
73
9
74
7
42
0.0000001000
43
0.0000001000
44
0.0000000001
12
-0.0862511453
22
0.0431255726
32
0.0000000000
13
-0.0000641494
23
0.0966767750
33
0.0000000000
40
0.0000000000
40
0.0000000000
40
0.0000000000
40
0.0000000000
40
0.2059124083
40
0.3941838156
40
0.5651012610
40
0.7204224231
40
0.8637002642
40
1.0000000000
40
1.0000000000
40
1.0000000000
40
1.0000000000
10
9.3692731935
20
-7.0631386848
30
0.0000000000
10
9.3633531331
20
-7.0601786546
30
0.0000000000
10
9.3522890681
20
-7.0539400298
30
0.0000000000
10
9.3376358000
20
-7.0431162801
30
0.0000000000
10
9.3258775874
20
-7.0313815932
30
0.0000000000
10
9.3172317595
20
-7.0188902447
30
0.0000000000
10
9.3119115454
20
-7.0058213918
30
0.0000000000
10
9.3106974619
20
-6.9968125305
30
0.0000000000
10
9.3106945474
20
-6.9924201909
30
0.0000000000
11
9.3692731935
21
-7.0631386848
31
0.0000000000
11
9.3520238813
21
-7.0533029710
31
0.0000000000
11
9.3374894674
21
-7.0424233123
31
0.0000000000
11
9.3259186398
21
-7.0306858629
31
0.0000000000
11
9.3175093784
21
-7.0182914537
31
0.0000000000
11
9.3124055682
21
-7.0054521565
31
0.0000000000
11
9.3106945474
21
-6.9924201909
31
0.0000000000
0
SPLINE
5
296
100
AcDbEntity
8
0
100
AcDbSpline
62
9
6
CONTINUOUS
70
0
71
3
72
13
73
9
74
7
42
0.0000001000
43
0.0000001000
44
0.0000000001
12
-0.0833545113
22
0.0416772555
32
0.0000000000
13
-0.0831455180
23
-0.0424874931
33
0.0000000000
40
0.0000000000
40
0.0000000000
40
0.0000000000
40
0.0000000000
40
0.2147323199
40
0.4154297384
40
0.6035300253
40
0.7817168225
40
0.9538602596
40
1.0000000000
40
1.0000000000
40
1.0000000000
40
1.0000000000
10
9.5445071847
20
-6.7588513434
30
0.0000000000
10
9.5385408822
20
-6.7558681921
30
0.0000000000
10
9.5266245374
20
-6.7507957577
30
0.0000000000
10
9.5084240889
20
-6.7460029698
30
0.0000000000
10
9.4907919998
20
-6.7443884445
30
0.0000000000
10
9.4740355163
20
-6.7460229844
30
0.0000000000
10
9.4621973374
20
-6.7497472326
30
0.0000000000
10
9.4560579953
20
-6.7526626465
30
0.0000000000
10
9.4547792244
20
-6.7533161005
30
0.0000000000
11
9.5445071847
21
-6.7588513434
31
0.0000000000
11
9.5260585419
21
-6.7510982025
31
0.0000000000
11
9.5079466775
21
-6.7464306395
31
0.0000000000
11
9.4904814915
21
-6.7449285174
31
0.0000000000
11
9.4739618185
21
-6.7466175371
31
0.0000000000
11
9.4586703149
21
-6.7514687981
31
0.0000000000
11
9.4547792244
21
-6.7533161005
31
0.0000000000
0
SPLINE
5
297
100
AcDbEntity
8
0
100
AcDbSpline
62
7
6
CONTINUOUS
70
0
71
3
72
20
73
16
74
14
42
0.0000001000
43
0.0000001000
44
0.0000000001
12
-0.0021886205
22
0.3060607649
32
0.0000000000
13
-0.2942367100
23
0.0842777570
33
0.0000000000
40
0.0000000000
40
0.0000000000
40
0.0000000000
40
0.0000000000
40
0.0709574114
40
0.1442429990
40
0.2196886077
40
0.2969975147
40
0.3757743084
40
0.4555536470
40
0.5358280545
40
0.6160730658
40
0.6957700399
40
0.7744267103
40
0.8515952622
40
0.9268894369
40
1.0000000000
40
1.0000000000
40
1.0000000000
40
1.0000000000
10
3.7035111007
20
-3.1256782487
30
0.0000000000
10
3.7034593345
20
-3.1184391555
30
0.0000000000
10
3.7023931300
20
-3.1037170232
30
0.0000000000
10
3.6981334867
20
-3.0816658236
30
0.0000000000
10
3.6912867643
20
-3.0595979376
30
0.0000000000
10
3.6819860999
20
-3.0378417397
30
0.0000000000
10
3.6703975403
20
-3.0167105603
30
0.0000000000
10
3.6567173579
20
-2.9965056106
30
0.0000000000
10
3.6411683826
20
-2.9775087293
30
0.0000000000
10
3.6239956105
20
-2.9599787722
30
0.0000000000
10
3.6054613447
20
-2.9441481001
30
0.0000000000
10
3.5858408459
20
-2.9302204185
30
0.0000000000
10
3.5654162804
20
-2.9183689100
30
0.0000000000
10
3.5444779828
20
-2.9087371428
30
0.0000000000
10
3.5301351841
20
-2.9037905184
30
0.0000000000
10
3.5229645802
20
-2.9017366536
30
0.0000000000
11
3.7035111007
21
-3.1256782487
31
0.0000000000
11
3.7019915456
21
-3.1040136392
31
0.0000000000
11
3.6977817481
21
-3.0819818170
31
0.0000000000
11
3.6909750346
21
-3.0599162906
31
0.0000000000
11
3.6817019042
21
-3.0381472491
31
0.0000000000
11
3.6701279016
21
-3.0169957075
31
0.0000000000
11
3.6564503721
21
-2.9967679678
31
0.0000000000
11
3.6408942236
21
-2.9777504671
31
0.0000000000
11
3.6237071859
21
-2.9602055878
31
0.0000000000
11
3.6051548460
21
-2.9443684014
31
0.0000000000
11
3.5855157366
21
-2.9304443558
31
0.0000000000
11
3.5650768171
21
-2.9186079044
31
0.0000000000
11
3.5441292171
21
-2.9090017365
31
0.0000000000
11
3.5229645802
21
-2.9017366536
31
0.0000000000
0
SPLINE
5
298
100
AcDbEntity
8
0
100
AcDbSpline
62
7
6
CONTINUOUS
70
0
71
3
72
10
73
6
74
4
42
0.0000001000
43
0.0000001000
44
0.0000000001
12
0.0000055493
22
-0.0007675556
32
0.0000000000
13
-0.0000000000
23
-0.0007675757
33
0.0000000000
40
0.0000000000
40
0.0000000000
40
0.0000000000
40
0.0000000000
40
0.3329314806
40
0.6662635309
40
1.0000000000
40
1.0000000000
40
1.0000000000
40
1.0000000000
10
-12.1876458176
20
4.8647402856
30
0.0000000000
10
-12.1876452018
20
4.8646551045
30
0.0000000000
10
-12.1876441756
20
4.8644846382
30
0.0000000000
10
-12.1876432528
20
4.8642287810
30
0.0000000000
10
-12.1876430480
20
4.8640581058
30
0.0000000000
10
-12.1876430480
20
4.8639727164
30
0.0000000000
11
-12.1876458176
21
4.8647402856
31
0.0000000000
11
-12.1876442790
21
4.8644847402
31
0.0000000000
11
-12.1876433557
21
4.8642288843
31
0.0000000000
11
-12.1876430480
21
4.8639727164
31
0.0000000000
0
SPLINE
5
299
100
AcDbEntity
8
0
100
AcDbSpline
62
9
6
CONTINUOUS
70
0
71
3
72
9
73
5
74
3
42
0.0000001000
43
0.0000001000
44
0.0000000001
12
-0.0004561032
22
0.3466034305
32
0.0000000000
13
-0.0002271755
23
0.3466036562
33
0.0000000000
40
0.0000000000
40
0.0000000000
40
0.0000000000
40
0.0000000000
40
0.4999594307
40
1.0000000000
40
1.0000000000
40
1.0000000000
40
1.0000000000
10
-13.1515643354
20
3.9911723165
30
0.0000000000
10
-13.1516403465
20
4.0489348678
30
0.0000000000
10
-13.1517732958
20
4.1644693705
30
0.0000000000
10
-13.1518680906
20
4.2800039109
30
0.0000000000
10
-13.1519059562
20
4.3377758740
30
0.0000000000
11
-13.1515643354
21
3.9911723165
31
0.0000000000
11
-13.1517637479
21
4.1644600056
31
0.0000000000
11
-13.1519059562
21
4.3377758740
31
0.0000000000
0
SPLINE
5
29A
100
AcDbEntity
8
0
100
AcDbSpline
62
9
6
CONTINUOUS
70
0
71
3
72
21
73
17
74
15
42
0.0000001000
43
0.0000001000
44
0.0000000001
12
-0.0000466069
22
0.0733826363
32
0.0000000000
13
0.0655836137
23
0.0329211648
33
0.0000000000
40
0.0000000000
40
0.0000000000
40
0.0000000000
40
0.0000000000
40
0.0672073173
40
0.1371393653
40
0.2093253811
40
0.2832892813
40
0.3585038321
40
0.4344067136
40
0.5104163664
40
0.5859463820
40
0.6604249525
40
0.7333098220
40
0.8041048636
40
0.8723776787
40
0.9377782634
40
1.0000000000
40
1.0000000000
40
1.0000000000
40
1.0000000000
10
-13.1519059562
20
4.3377758740
30
0.0000000000
10
-13.1519070003
20
4.3394198241
30
0.0000000000
10
-13.1517520975
20
4.3427759650
30
0.0000000000
10
-13.1510857254
20
4.3478580125
30
0.0000000000
10
-13.1499885982
20
4.3530337836
30
0.0000000000
10
-13.1484744360
20
4.3582374718
30
0.0000000000
10
-13.1465619868
20
4.3634051738
30
0.0000000000
10
-13.1442748304
20
4.3684731187
30
0.0000000000
10
-13.1416412165
20
4.3733787195
30
0.0000000000
10
-13.1386936774
20
4.3780613496
30
0.0000000000
10
-13.1354686133
20
4.3824631689
30
0.0000000000
10
-13.1320057282
20
4.3865298976
30
0.0000000000
10
-13.1283476158
20
4.3902114334
30
0.0000000000
10
-13.1245387947
20
4.3934625063
30
0.0000000000
10
-13.1206276143
20
4.3962419205
30
0.0000000000
10
-13.1179135513
20
4.3977976139
30
0.0000000000
10
-13.1165533092
20
4.3984804180
30
0.0000000000
11
-13.1519059562
21
4.3377758740
31
0.0000000000
11
-13.1516875279
21
4.3427028858
31
0.0000000000
11
-13.1510277275
21
4.3477920925
31
0.0000000000
11
-13.1499347756
21
4.3529753151
31
0.0000000000
11
-13.1484222410
21
4.3581879737
31
0.0000000000
11
-13.1465089396
21
4.3633651863
31
0.0000000000
11
-13.1442186655
21
4.3684424926
31
0.0000000000
11
-13.1415799273
21
4.3733566355
31
0.0000000000
11
-13.1386256617
21
4.3780462675
31
0.0000000000
11
-13.1353926981
21
4.3824529586
31
0.0000000000
11
-13.1319213178
21
4.3865218417
31
0.0000000000
11
-13.1282547528
21
4.3902022839
31
0.0000000000
11
-13.1244386432
21
4.3934484832
31
0.0000000000
11
-13.1205205543
21
4.3962200451
31
0.0000000000
11
-13.1165533092
21
4.3984804180
31
0.0000000000
0
SPLINE
5
29B
100
AcDbEntity
8
0
100
AcDbSpline
62
7
6
CONTINUOUS
70
0
71
3
72
10
73
6
74
4
42
0.0000001000
43
0.0000001000
44
0.0000000001
12
0.0038787556
22
0.0583278865
32
0.0000000000
13
0.0000000000
23
0.0584567113
33
0.0000000000
40
0.0000000000
40
0.0000000000
40
0.0000000000
40
0.0000000000
40
0.3509468851
40
0.6835731239
40
1.0000000000
40
1.0000000000
40
1.0000000000
40
1.0000000000
10
3.7014509267
20
-3.5419562515
30
0.0000000000
10
3.7019046725
20
-3.5351329215
30
0.0000000000
10
3.7026601154
20
-3.5218334275
30
0.0000000000
10
3.7033527714
20
-3.5023587790
30
0.0000000000
10
3.7035137931
20
-3.4897111894
30
0.0000000000
10
3.7035137931
20
-3.4835454312
30
0.0000000000
11
3.7014509267
21
-3.5419562515
31
0.0000000000
11
3.7026060427
21
-3.5214735962
31
0.0000000000
11
3.7032882090
21
-3.5020413302
31
0.0000000000
11
3.7035137931
21
-3.4835454312
31
0.0000000000
0
SPLINE
5
29C
100
AcDbEntity
8
0
100
AcDbSpline
62
9
6
CONTINUOUS
70
0
71
3
72
25
73
21
74
19
42
0.0000001000
43
0.0000001000
44
0.0000000001
12
-0.6585482127
22
0.3292788294
32
0.0000000000
13
-0.0012674220
23
0.7362803064
33
0.0000000000
40
0.0000000000
40
0.0000000000
40
0.0000000000
40
0.0000000000
40
0.0473987445
40
0.0970759171
40
0.1488287038
40
0.2023870923
40
0.2574349844
40
0.3137367680
40
0.3711458476
40
0.4294666775
40
0.4884139168
40
0.5476843451
40
0.6069687307
40
0.6659619037
40
0.7244377914
40
0.7822187552
40
0.8390319953
40
0.8944986324
40
0.9482584497
40
1.0000000000
40
1.0000000000
40
1.0000000000
40
1.0000000000
10
3.1481089308
20
-4.5478139549
30
0.0000000000
10
3.1377041446
20
-4.5426114872
30
0.0000000000
10
3.1168450187
20
-4.5310351533
30
0.0000000000
10
3.0863555857
20
-4.5108624860
30
0.0000000000
10
3.0562090977
20
-4.4876134861
30
0.0000000000
10
3.0267208489
20
-4.4615062807
30
0.0000000000
10
2.9981677671
20
-4.4327856517
30
0.0000000000
10
2.9707742406
20
-4.4016886047
30
0.0000000000
10
2.9447248467
20
-4.3684324671
30
0.0000000000
10
2.9201992556
20
-4.3332439142
30
0.0000000000
10
2.8973851320
20
-4.2963847280
30
0.0000000000
10
2.8764669560
20
-4.2581480423
30
0.0000000000
10
2.8576120639
20
-4.2188404628
30
0.0000000000
10
2.8409611786
20
-4.1787605888
30
0.0000000000
10
2.8266289742
20
-4.1381848173
30
0.0000000000
10
2.8147193492
20
-4.0973890397
30
0.0000000000
10
2.8053356067
20
-4.0566956488
30
0.0000000000
10
2.7985665031
20
-4.0164848021
30
0.0000000000
10
2.7944637907
20
-3.9771665881
30
0.0000000000
10
2.7934880166
20
-3.9512680108
30
0.0000000000
10
2.7934661571
20
-3.9385692493
30
0.0000000000
11
3.1481089308
21
-4.5478139549
31
0.0000000000
11
3.1175662984
21
-4.5309297962
31
0.0000000000
11
3.0870327293
21
-4.5107919566
31
0.0000000000
11
3.0568303776
21
-4.4875588000
31
0.0000000000
11
3.0272785065
21
-4.4614488242
31
0.0000000000
11
2.9986793790
21
-4.4327289581
31
0.0000000000
11
2.9712578801
21
-4.4016405061
31
0.0000000000
11
2.9451766467
21
-4.3683770473
31
0.0000000000
11
2.9206113326
21
-4.3331572304
31
0.0000000000
11
2.8977614726
21
-4.2962574161
31
0.0000000000
11
2.8768138544
21
-4.2579739744
31
0.0000000000
11
2.8579374831
21
-4.2186165830
31
0.0000000000
11
2.8412804847
21
-4.1785018269
31
0.0000000000
11
2.8269535542
21
-4.1379007559
31
0.0000000000
11
2.8150500089
21
-4.0970569484
31
0.0000000000
11
2.8056755732
21
-4.0562903770
31
0.0000000000
11
2.7989273131
21
-4.0160127251
31
0.0000000000
11
2.7948571981
21
-3.9766401856
31
0.0000000000
11
2.7934661571
21
-3.9385692493
31
0.0000000000
0
SPLINE
5
29D
100
AcDbEntity
8
0
100
AcDbSpline
62
7
6
CONTINUOUS
70
0
71
3
72
21
73
17
74
15
42
0.0000001000
43
0.0000001000
44
0.0000000001
12
-0.0430151466
22
-0.6468524515
32
0.0000000000
13
0.5918036541
23
-0.2646447277
33
0.0000000000
40
0.0000000000
40
0.0000000000
40
0.0000000000
40
0.0000000000
40
0.0726880389
40
0.1453993783
40
0.2179563925
40
0.2905199006
40
0.3627643623
40
0.4348928934
40
0.5066803966
40
0.5781647063
40
0.6493899835
40
0.7201566212
40
0.7907005578
40
0.8607579361
40
0.9305531340
40
1.0000000000
40
1.0000000000
40
1.0000000000
40
1.0000000000
10
3.7014509267
20
-3.5419562515
30
0.0000000000
10
3.7004086979
20
-3.5576290635
30
0.0000000000
10
3.6997123955
20
-3.5890889210
30
0.0000000000
10
3.7027548420
20
-3.6361446397
30
0.0000000000
10
3.7097840570
20
-3.6827463857
30
0.0000000000
10
3.7206788303
20
-3.7284929505
30
0.0000000000
10
3.7353169402
20
-3.7730843855
30
0.0000000000
10
3.7535398108
20
-3.8161526176
30
0.0000000000
10
3.7752033633
20
-3.8574116433
30
0.0000000000
10
3.8001356607
20
-3.8965512381
30
0.0000000000
10
3.8281545955
20
-3.9332685631
30
0.0000000000
10
3.8590852672
20
-3.9672968906
30
0.0000000000
10
3.8926904029
20
-3.9983191262
30
0.0000000000
10
3.9287739145
20
-4.0260829445
30
0.0000000000
10
3.9670522200
20
-4.0502902710
30
0.0000000000
10
3.9939375082
20
-4.0639231114
30
0.0000000000
10
4.0076371446
20
-4.0700493604
30
0.0000000000
11
3.7014509267
21
-3.5419562515
31
0.0000000000
11
3.7003937706
21
-3.5890666742
31
0.0000000000
11
3.7034233766
21
-3.6361066021
31
0.0000000000
11
3.7104314998
21
-3.6826189415
31
0.0000000000
11
3.7213258586
21
-3.7283815957
31
0.0000000000
11
3.7359330445
21
-3.7728801473
31
0.0000000000
11
3.7541567500
21
-3.8159423511
31
0.0000000000
11
3.7757972367
21
-3.8571433179
31
0.0000000000
11
3.8007034043
21
-3.8962234544
31
0.0000000000
11
3.8287250086
21
-3.9329226115
31
0.0000000000
11
3.8595945896
21
-3.9668598804
31
0.0000000000
11
3.8932106680
21
-3.9978663745
31
0.0000000000
11
3.9292184401
21
-4.0255454799
31
0.0000000000
11
3.9674726084
21
-4.0497095300
31
0.0000000000
11
4.0076371446
21
-4.0700493604
31
0.0000000000
0
SPLINE
5
29E
100
AcDbEntity
8
0
100
AcDbSpline
62
9
6
CONTINUOUS
70
0
71
3
72
23
73
19
74
17
42
0.0000001000
43
0.0000001000
44
0.0000000001
12
-0.3235708424
22
-0.1596281575
32
0.0000000000
13
-0.3227147024
23
0.1613519742
33
0.0000000000
40
0.0000000000
40
0.0000000000
40
0.0000000000
40
0.0000000000
40
0.0553946701
40
0.1136128617
40
0.1743267088
40
0.2371832766
40
0.3017896811
40
0.3677205674
40
0.4345263924
40
0.5017430629
40
0.5688998437
40
0.6355267052
40
0.7011625518
40
0.7653629834
40
0.8277100057
40
0.8878204725
40
0.9453538872
40
1.0000000000
40
1.0000000000
40
1.0000000000
40
1.0000000000
10
13.8965779004
20
-8.7593398965
30
0.0000000000
10
13.8906032004
20
-8.7622874129
30
0.0000000000
10
13.8781102333
20
-8.7678567791
30
0.0000000000
10
13.8584100956
20
-8.7750714666
30
0.0000000000
10
13.8374387212
20
-8.7812997452
30
0.0000000000
10
13.8153962316
20
-8.7864814276
30
0.0000000000
10
13.7924879637
20
-8.7905683276
30
0.0000000000
10
13.7689281168
20
-8.7935220145
30
0.0000000000
10
13.7449371821
20
-8.7953147417
30
0.0000000000
10
13.7207399146
20
-8.7959296313
30
0.0000000000
10
13.6965630219
20
-8.7953609034
30
0.0000000000
10
13.6726330147
20
-8.7936139176
30
0.0000000000
10
13.6491740830
20
-8.7907051393
30
0.0000000000
10
13.6264057139
20
-8.7866619006
30
0.0000000000
10
13.6045407151
20
-8.7815222138
30
0.0000000000
10
13.5837826210
20
-8.7753338217
30
0.0000000000
10
13.5643292478
20
-8.7681564072
30
0.0000000000
10
13.5520161467
20
-8.7626057262
30
0.0000000000
10
13.5461377787
20
-8.7596666402
30
0.0000000000
11
13.8965779004
21
-8.7593398965
31
0.0000000000
11
13.8783384368
21
-8.7675121670
31
0.0000000000
11
13.8586250278
21
-8.7747651338
31
0.0000000000
11
13.8376329355
21
-8.7810257269
31
0.0000000000
11
13.8155603845
21
-8.7862347486
31
0.0000000000
11
13.7926150770
21
-8.7903432011
31
0.0000000000
11
13.7690130064
21
-8.7933123797
31
0.0000000000
11
13.7449766695
21
-8.7951142755
31
0.0000000000
11
13.7207325188
21
-8.7957319104
31
0.0000000000
11
13.6965088734
21
-8.7951594662
31
0.0000000000
11
13.6725339660
21
-8.7934023352
31
0.0000000000
11
13.6490336804
21
-8.7904770804
31
0.0000000000
11
13.6262295444
21
-8.7864113022
31
0.0000000000
11
13.6043362075
21
-8.7812433062
31
0.0000000000
11
13.5835596768
21
-8.7750217085
31
0.0000000000
11
13.5640961343
21
-8.7678053378
31
0.0000000000
11
13.5461377787
21
-8.7596666402
31
0.0000000000
0
SPLINE
5
29F
100
AcDbEntity
8
0
100
AcDbSpline
62
9
6
CONTINUOUS
70
0
71
3
72
14
73
10
74
8
42
0.0000001000
43
0.0000001000
44
0.0000000001
12
-0.0961226009
22
0.0483221823
32
0.0000000000
13
-0.0000725486
23
0.1077435860
33
0.0000000000
40
0.0000000000
40
0.0000000000
40
0.0000000000
40
0.0000000000
40
0.1682916541
40
0.3277491332
40
0.4797784062
40
0.6260685054
40
0.7689941769
40
0.9116231637
40
1.0000000000
40
1.0000000000
40
1.0000000000
40
1.0000000000
10
-6.5066892792
20
0.8748440565
30
0.0000000000
10
-6.5120814897
20
0.8775547965
30
0.0000000000
10
-6.5222837412
20
0.8834681591
30
0.0000000000
10
-6.5358930869
20
0.8940906279
30
0.0000000000
10
-6.5471827869
20
0.9061089470
30
0.0000000000
10
-6.5559477052
20
0.9193834555
30
0.0000000000
10
-6.5620095310
20
0.9337341196
30
0.0000000000
10
-6.5648031273
20
0.9469336527
30
0.0000000000
10
-6.5652694037
20
0.9552295488
30
0.0000000000
10
-6.5652715409
20
0.9584035612
30
0.0000000000
11
-6.5066892792
21
0.8748440565
31
0.0000000000
11
-6.5223200293
21
0.8839816742
31
0.0000000000
11
-6.5358014464
21
0.8945908599
31
0.0000000000
11
-6.5469525952
21
0.9065564007
31
0.0000000000
11
-6.5555833612
21
0.9197175267
31
0.0000000000
11
-6.5615439709
21
0.9338919363
31
0.0000000000
11
-6.5647282833
21
0.9489026763
31
0.0000000000
11
-6.5652715409
21
0.9584035612
31
0.0000000000
0
SPLINE
5
2A0
100
AcDbEntity
8
0
100
AcDbSpline
62
9
6
CONTINUOUS
70
0
71
3
72
14
73
10
74
8
42
0.0000001000
43
0.0000001000
44
0.0000000001
12
-0.0862549148
22
0.0431288562
32
0.0000000000
13
-0.0001124609
23
0.0966793507
33
0.0000000000
40
0.0000000000
40
0.0000000000
40
0.0000000000
40
0.0000000000
40
0.2048156159
40
0.3922037597
40
0.5624408629
40
0.7172371615
40
0.8600525603
40
0.9961555367
40
1.0000000000
40
1.0000000000
40
1.0000000000
40
1.0000000000
10
-6.5063495233
20
0.5281013528
30
0.0000000000
10
-6.5122383078
20
0.5310458405
30
0.0000000000
10
-6.5232482918
20
0.5372511467
30
0.0000000000
10
-6.5378422323
20
0.5480112894
30
0.0000000000
10
-6.5495747896
20
0.5596757819
30
0.0000000000
10
-6.5582320313
20
0.5720922439
30
0.0000000000
10
-6.5636090167
20
0.5850943109
30
0.0000000000
10
-6.5649058958
20
0.5941953262
30
0.0000000000
10
-6.5649281146
20
0.5987052995
30
0.0000000000
10
-6.5649282587
20
0.5988291929
30
0.0000000000
11
-6.5063495233
21
0.5281013528
31
0.0000000000
11
-6.5235102750
21
0.5378808579
31
0.0000000000
11
-6.5379876684
21
0.5486960565
31
0.0000000000
11
-6.5495367320
21
0.5603639450
31
0.0000000000
11
-6.5579620443
21
0.5726870912
31
0.0000000000
11
-6.5631210408
21
0.5854569755
31
0.0000000000
11
-6.5649264262
21
0.5984575189
31
0.0000000000
11
-6.5649282587
21
0.5988291929
31
0.0000000000
0
SPLINE
5
2A1
100
AcDbEntity
8
0
100
AcDbSpline
62
9
6
CONTINUOUS
70
0
71
3
72
19
73
15
74
13
42
0.0000001000
43
0.0000001000
44
0.0000000001
12
-0.0007193865
22
0.2936045459
32
0.0000000000
13
0.2614812555
23
0.1335353882
33
0.0000000000
40
0.0000000000
40
0.0000000000
40
0.0000000000
40
0.0000000000
40
0.0787842844
40
0.1611377402
40
0.2463725757
40
0.3336820853
40
0.4221795021
40
0.5109340795
40
0.5990057163
40
0.6854792820
40
0.7694997523
40
0.8503093721
40
0.9272882607
40
1.0000000000
40
1.0000000000
40
1.0000000000
40
1.0000000000
10
-7.0001780841
20
0.1697277744
30
0.0000000000
10
-7.0001969762
20
0.1774382491
30
0.0000000000
10
-6.9993752444
20
0.1932194666
30
0.0000000000
10
-6.9958078818
20
0.2170984900
30
0.0000000000
10
-6.9899370577
20
0.2413767754
30
0.0000000000
10
-6.9818618120
20
0.2656448940
30
0.0000000000
10
-6.9717178200
20
0.2894974181
30
0.0000000000
10
-6.9596753837
20
0.3125339189
30
0.0000000000
10
-6.9459365956
20
0.3343678494
30
0.0000000000
10
-6.9307315573
20
0.3546329677
30
0.0000000000
10
-6.9143146992
20
0.3729895103
30
0.0000000000
10
-6.8969576841
20
0.3891309303
30
0.0000000000
10
-6.8789515759
20
0.4027847761
30
0.0000000000
10
-6.8663290671
20
0.4103021564
30
0.0000000000
10
-6.8599914815
20
0.4135386865
30
0.0000000000
11
-7.0001780841
21
0.1697277744
31
0.0000000000
11
-6.9990321323
21
0.1928308648
31
0.0000000000
11
-6.9955034927
21
0.2167514235
31
0.0000000000
11
-6.9896521021
21
0.2410831392
31
0.0000000000
11
-6.9815773515
21
0.2654127167
31
0.0000000000
11
-6.9714163975
21
0.2893268973
31
0.0000000000
11
-6.9593418326
21
0.3124194778
31
0.0000000000
11
-6.9455587538
21
0.3342982109
31
0.0000000000
11
-6.9303012786
21
0.3545914676
31
0.0000000000
11
-6.9138285682
21
0.3729545492
31
0.0000000000
11
-6.8964204260
21
0.3890755430
31
0.0000000000
11
-6.8783725441
21
0.4026806201
31
0.0000000000
11
-6.8599914815
21
0.4135386865
31
0.0000000000
0
SPLINE
5
2A2
100
AcDbEntity
8
0
100
AcDbSpline
62
9
6
CONTINUOUS
70
0
71
3
72
19
73
15
74
13
42
0.0000001000
43
0.0000001000
44
0.0000000001
12
-0.0007193865
22
0.2936045459
32
0.0000000000
13
0.2614812555
23
0.1335353882
33
0.0000000000
40
0.0000000000
40
0.0000000000
40
0.0000000000
40
0.0000000000
40
0.0787843278
40
0.1611378206
40
0.2463726850
40
0.3336822136
40
0.4221796394
40
0.5109342154
40
0.5990058417
40
0.6854793891
40
0.7694998354
40
0.8503094279
40
0.9272882881
40
1.0000000000
40
1.0000000000
40
1.0000000000
40
1.0000000000
10
-12.9370642283
20
3.1381708465
30
0.0000000000
10
-12.9370831205
20
3.1458813255
30
0.0000000000
10
-12.9362613878
20
3.1616625509
30
0.0000000000
10
-12.9326940219
20
3.1855415846
30
0.0000000000
10
-12.9268231935
20
3.2098198775
30
0.0000000000
10
-12.9187479433
20
3.2340880005
30
0.0000000000
10
-12.9086039475
20
3.2579405259
30
0.0000000000
10
-12.8965615085
20
3.2809770249
30
0.0000000000
10
-12.8828227193
20
3.3028109512
30
0.0000000000
10
-12.8676176819
20
3.3230760637
30
0.0000000000
10
-12.8512008264
20
3.3414325995
30
0.0000000000
10
-12.8338438158
20
3.3575740128
30
0.0000000000
10
-12.8158377132
20
3.3712278526
30
0.0000000000
10
-12.8032152090
20
3.3787452297
30
0.0000000000
10
-12.7968776258
20
3.3819817586
30
0.0000000000
11
-12.9370642283
21
3.1381708465
31
0.0000000000
11
-12.9359182753
21
3.1612739496
31
0.0000000000
11
-12.9323896324
21
3.1851945188
31
0.0000000000
11
-12.9265382375
21
3.2095262422
31
0.0000000000
11
-12.9184634824
21
3.2338558242
31
0.0000000000
11
-12.9083025245
21
3.2577700059
31
0.0000000000
11
-12.8962279570
21
3.2808625846
31
0.0000000000
11
-12.8824448772
21
3.3027413134
31
0.0000000000
11
-12.8671874029
21
3.3230345640
31
0.0000000000
11
-12.8507146954
21
3.3413976387
31
0.0000000000
11
-12.8333065577
21
3.3575186257
31
0.0000000000
11
-12.8152586817
21
3.3711236967
31
0.0000000000
11
-12.7968776258
21
3.3819817586
31
0.0000000000
0
SPLINE
5
2A3
100
AcDbEntity
8
0
100
AcDbSpline
62
9
6
CONTINUOUS
70
0
71
3
72
19
73
15
74
13
42
0.0000001000
43
0.0000001000
44
0.0000000001
12
0.2592655766
22
-0.1296283695
32
0.0000000000
13
0.2599580481
23
0.1282340306
33
0.0000000000
40
0.0000000000
40
0.0000000000
40
0.0000000000
40
0.0000000000
40
0.0736630526
40
0.1522972350
40
0.2351420908
40
0.3212828237
40
0.4096947253
40
0.4992819267
40
0.5889130208
40
0.6774552896
40
0.7638088806
40
0.8469422684
40
0.9259306864
40
1.0000000000
40
1.0000000000
40
1.0000000000
40
1.0000000000
10
-13.4331673643
20
3.9915102183
30
0.0000000000
10
-13.4268012663
20
3.9883272779
30
0.0000000000
10
-13.4132800511
20
3.9824512810
30
0.0000000000
10
-13.3916926435
20
3.9752890515
30
0.0000000000
10
-13.3684334414
20
3.9695820072
30
0.0000000000
10
-13.3438921445
20
3.9654267581
30
0.0000000000
10
-13.3184774075
20
3.9628926891
30
0.0000000000
10
-13.2926148106
20
3.9620226893
30
0.0000000000
10
-13.2667376488
20
3.9628314287
30
0.0000000000
10
-13.2412794828
20
3.9653052813
30
0.0000000000
10
-13.2166666731
20
3.9694023788
30
0.0000000000
10
-13.1933091960
20
3.9750542747
30
0.0000000000
10
-13.1715984940
20
3.9821652537
30
0.0000000000
10
-13.1579826402
20
3.9880062476
30
0.0000000000
10
-13.1515643354
20
3.9911723165
30
0.0000000000
11
-13.4331673643
21
3.9915102183
31
0.0000000000
11
-13.4136136520
21
3.9829325058
31
0.0000000000
11
-13.3919978253
21
3.9757011070
31
0.0000000000
11
-13.3686856448
21
3.9699383840
31
0.0000000000
11
-13.3440715749
21
3.9657418477
31
0.0000000000
11
-13.3185721092
21
3.9631825076
31
0.0000000000
11
-13.2926187232
21
3.9623036700
31
0.0000000000
11
-13.2666505731
21
3.9631202057
31
0.0000000000
11
-13.2411070649
21
3.9656182983
31
0.0000000000
11
-13.2164204193
21
3.9697556775
31
0.0000000000
11
-13.1930083578
21
3.9754623350
31
0.0000000000
11
-13.1712670352
21
3.9826417086
31
0.0000000000
11
-13.1515643354
21
3.9911723165
31
0.0000000000
0
SPLINE
5
2A4
100
AcDbEntity
8
0
100
AcDbSpline
62
9
6
CONTINUOUS
70
0
71
3
72
19
73
15
74
13
42
0.0000001000
43
0.0000001000
44
0.0000000001
12
0.2592509490
22
-0.1296232736
32
0.0000000000
13
0.2600445751
23
0.1280236954
33
0.0000000000
40
0.0000000000
40
0.0000000000
40
0.0000000000
40
0.0000000000
40
0.0736687946
40
0.1523111430
40
0.2351652916
40
0.3213152831
40
0.4097353661
40
0.4993287317
40
0.5889631257
40
0.6775050693
40
0.7638540332
40
0.8469778991
40
0.9259513979
40
1.0000000000
40
1.0000000000
40
1.0000000000
40
1.0000000000
10
-13.4335090282
20
4.3382525184
30
0.0000000000
10
-13.4271427933
20
4.3350694550
30
0.0000000000
10
-13.4136214570
20
4.3291924602
30
0.0000000000
10
-13.3920342194
20
4.3220265927
30
0.0000000000
10
-13.3687751671
20
4.3163136396
30
0.0000000000
10
-13.3442339994
20
4.3121503171
30
0.0000000000
10
-13.3188193781
20
4.3096061519
30
0.0000000000
10
-13.2929568878
20
4.3087242045
30
0.0000000000
10
-13.2670798278
20
4.3095193458
30
0.0000000000
10
-13.2416217617
20
4.3119781758
30
0.0000000000
10
-13.2170090518
20
4.3160590749
30
0.0000000000
10
-13.1936516738
20
4.3216938612
30
0.0000000000
10
-13.1719410654
20
4.3287871011
30
0.0000000000
10
-13.1583246020
20
4.3346158822
30
0.0000000000
10
-13.1519059562
20
4.3377758740
30
0.0000000000
11
-13.4335090282
21
4.3382525184
31
0.0000000000
11
-13.4139553177
21
4.3296734760
31
0.0000000000
11
-13.3923394920
21
4.3224384221
31
0.0000000000
11
-13.3690273117
21
4.3166697805
31
0.0000000000
11
-13.3444132410
21
4.3124651624
31
0.0000000000
11
-13.3189137737
21
4.3098957137
31
0.0000000000
11
-13.2929603849
21
4.3090049121
31
0.0000000000
11
-13.2669922309
21
4.3098078308
31
0.0000000000
11
-13.2414487176
21
4.3122908835
31
0.0000000000
11
-13.2167620657
21
4.3164120548
31
0.0000000000
11
-13.1933499968
21
4.3221016103
31
0.0000000000
11
-13.1716086656
21
4.3292632775
31
0.0000000000
11
-13.1519059562
21
4.3377758740
31
0.0000000000
0
SPLINE
5
2A5
100
AcDbEntity
8
0
100
AcDbSpline
62
9
6
CONTINUOUS
70
0
71
3
72
19
73
15
74
13
42
0.0000001000
43
0.0000001000
44
0.0000000001
12
0.2620902678
22
-0.1333769794
32
0.0000000000
13
0.0021209871
23
-0.2940684079
33
0.0000000000
40
0.0000000000
40
0.0000000000
40
0.0000000000
40
0.0000000000
40
0.0722565686
40
0.1489213929
40
0.2295501552
40
0.3135086645
40
0.4000202425
40
0.4882075777
40
0.5771308113
40
0.6658234151
40
0.7533271689
40
0.8387274150
40
0.9211898116
40
1.0000000000
40
1.0000000000
40
1.0000000000
40
1.0000000000
10
-13.2579692805
20
4.6423868893
30
0.0000000000
10
-13.2516566994
20
4.6391744350
30
0.0000000000
10
-13.2390715825
20
4.6316953446
30
0.0000000000
10
-13.2211004967
20
4.6180899590
30
0.0000000000
10
-13.2037393660
20
4.6019779113
30
0.0000000000
10
-13.1872813061
20
4.5836328948
30
0.0000000000
10
-13.1720005943
20
4.5633633076
30
0.0000000000
10
-13.1581548046
20
4.5415113628
30
0.0000000000
10
-13.1459775406
20
4.5184462308
30
0.0000000000
10
-13.1356746507
20
4.4945577595
30
0.0000000000
10
-13.1274203389
20
4.4702499227
30
0.0000000000
10
-13.1213542052
20
4.4459318205
30
0.0000000000
10
-13.1175792079
20
4.4220164692
30
0.0000000000
10
-13.1166090276
20
4.4062056135
30
0.0000000000
10
-13.1165533092
20
4.3984804180
30
0.0000000000
11
-13.2579692805
21
4.6423868893
31
0.0000000000
11
-13.2396621897
21
4.6315995210
31
0.0000000000
11
-13.2216471939
21
4.6180440797
31
0.0000000000
11
-13.2042325048
21
4.6019524800
31
0.0000000000
11
-13.1877160637
21
4.5836000272
31
0.0000000000
11
-13.1723804442
21
4.5633007063
31
0.0000000000
11
-13.1584880176
21
4.5414018108
31
0.0000000000
11
-13.1462764642
21
4.5182780005
31
0.0000000000
11
-13.1359547066
21
4.4943248920
31
0.0000000000
11
-13.1276993361
21
4.4699522898
31
0.0000000000
11
-13.1216515906
21
4.4455771757
31
0.0000000000
11
-13.1179149386
21
4.4216165741
31
0.0000000000
11
-13.1165533092
21
4.3984804180
31
0.0000000000
0
SPLINE
5
2A6
100
AcDbEntity
8
0
100
AcDbSpline
62
9
6
CONTINUOUS
70
0
71
3
72
13
73
9
74
7
42
0.0000001000
43
0.0000001000
44
0.0000000001
12
-0.0922541908
22
0.0452718700
32
0.0000000000
13
-0.0913011043
23
-0.0474218072
33
0.0000000000
40
0.0000000000
40
0.0000000000
40
0.0000000000
40
0.0000000000
40
0.1794909513
40
0.3531202771
40
0.5228910746
40
0.6908571131
40
0.8593161829
40
1.0000000000
40
1.0000000000
40
1.0000000000
40
1.0000000000
10
-6.3317581971
20
1.1792804134
30
0.0000000000
10
-6.3372777946
20
1.1819890438
30
0.0000000000
10
-6.3485184599
20
1.1865876070
30
0.0000000000
10
-6.3659880641
20
1.1908411505
30
0.0000000000
10
-6.3835288348
20
1.1922346726
30
0.0000000000
10
-6.4008835860
20
1.1906946823
30
0.0000000000
10
-6.4167570360
20
1.1864843375
30
0.0000000000
10
-6.4264902913
20
1.1822211101
30
0.0000000000
10
-6.4307718206
20
1.1799972832
30
0.0000000000
11
-6.3317581971
21
1.1792804134
31
0.0000000000
11
-6.3488489498
21
1.1862179842
31
0.0000000000
11
-6.3661952972
21
1.1903976316
31
0.0000000000
11
-6.3835892795
21
1.1917474085
31
0.0000000000
11
-6.4007816002
21
1.1902112686
31
0.0000000000
11
-6.4175172236
21
1.1857833851
31
0.0000000000
11
-6.4307718206
21
1.1799972832
31
0.0000000000
0
SPLINE
5
2A7
100
AcDbEntity
8
0
100
AcDbSpline
62
7
6
CONTINUOUS
70
0
71
3
72
20
73
16
74
14
42
0.0000001000
43
0.0000001000
44
0.0000000001
12
-0.0022135304
22
0.3061682254
32
0.0000000000
13
-0.2941096389
23
0.0851081799
33
0.0000000000
40
0.0000000000
40
0.0000000000
40
0.0000000000
40
0.0000000000
40
0.0709979988
40
0.1443353462
40
0.2198383922
40
0.2972045218
40
0.3760325515
40
0.4558518558
40
0.5361504363
40
0.6164002160
40
0.6960799149
40
0.7746955958
40
0.8517986758
40
0.9270029571
40
1.0000000000
40
1.0000000000
40
1.0000000000
40
1.0000000000
10
-12.1876458176
20
4.8647402856
30
0.0000000000
10
-12.1876982031
20
4.8719860627
30
0.0000000000
10
-12.1887660796
20
4.8867226680
30
0.0000000000
10
-12.1930272460
20
4.9087970455
30
0.0000000000
10
-12.1998735578
20
4.9308911746
30
0.0000000000
10
-12.2091708509
20
4.9526760768
30
0.0000000000
10
-12.2207521703
20
4.9738379491
30
0.0000000000
10
-12.2344204893
20
4.9940752721
30
0.0000000000
10
-12.2499524235
20
5.0131060781
30
0.0000000000
10
-12.2671026634
20
5.0306715559
30
0.0000000000
10
-12.2856088644
20
5.0465395361
30
0.0000000000
10
-12.3051960097
20
5.0605066105
30
0.0000000000
10
-12.3255824586
20
5.0723999537
30
0.0000000000
10
-12.3464786840
20
5.0820763517
30
0.0000000000
10
-12.3607935196
20
5.0870562087
30
0.0000000000
10
-12.3679498976
20
5.0891270905
30
0.0000000000
11
-12.1876458176
21
4.8647402856
31
0.0000000000
11
-12.1891673175
21
4.8864248725
31
0.0000000000
11
-12.1933785113
21
4.9084805929
31
0.0000000000
11
-12.2001849067
21
4.9305731180
31
0.0000000000
11
-12.2094549201
21
4.9523715708
31
0.0000000000
11
-12.2210220390
21
4.9735544166
31
0.0000000000
11
-12.2346881113
21
4.9938150216
31
0.0000000000
11
-12.2502276345
21
5.0128668152
31
0.0000000000
11
-12.2673925383
21
5.0304474642
31
0.0000000000
11
-12.2859171772
21
5.0463220984
31
0.0000000000
11
-12.3055232550
21
5.0602855783
31
0.0000000000
11
-12.3259243365
21
5.0721638133
31
0.0000000000
11
-12.3468300870
21
5.0818144796
31
0.0000000000
11
-12.3679498976
21
5.0891270905
31
0.0000000000
0
SPLINE
5
2A8
100
AcDbEntity
8
0
100
AcDbSpline
62
9
6
CONTINUOUS
70
0
71
3
72
20
73
16
74
14
42
0.0000001000
43
0.0000001000
44
0.0000000001
12
-0.0026709323
22
0.3672354902
32
0.0000000000
13
-0.3260988359
23
0.1689040804
33
0.0000000000
40
0.0000000000
40
0.0000000000
40
0.0000000000
40
0.0000000000
40
0.0726960922
40
0.1485679326
40
0.2270546236
40
0.3075042521
40
0.3892009750
40
0.4713900651
40
0.5533017868
40
0.6341748362
40
0.7132800249
40
0.7899449170
40
0.8635802469
40
0.9337091071
40
1.0000000000
40
1.0000000000
40
1.0000000000
40
1.0000000000
10
14.0717851412
20
-9.0649841545
30
0.0000000000
10
14.0717204190
20
-9.0560852928
30
0.0000000000
10
14.0706883822
20
-9.0378967930
30
0.0000000000
10
14.0666831025
20
-9.0103609787
30
0.0000000000
10
14.0602431247
20
-8.9823164884
30
0.0000000000
10
14.0514617595
20
-8.9541699376
30
0.0000000000
10
14.0404657804
20
-8.9263257246
30
0.0000000000
10
14.0274139122
20
-8.8991857670
30
0.0000000000
10
14.0124945275
20
-8.8731416789
30
0.0000000000
10
13.9959228616
20
-8.8485693124
30
0.0000000000
10
13.9779374842
20
-8.8258229070
30
0.0000000000
10
13.9587970524
20
-8.8052302060
30
0.0000000000
10
13.9387738572
20
-8.7870866986
30
0.0000000000
10
13.9181566003
20
-8.7716556252
30
0.0000000000
10
13.9037836948
20
-8.7630721639
30
0.0000000000
10
13.8965779004
20
-8.7593398965
30
0.0000000000
11
14.0717851412
21
-9.0649841545
31
0.0000000000
11
14.0703300601
21
-9.0383265460
31
0.0000000000
11
14.0663642622
21
-9.0107466448
31
0.0000000000
11
14.0599455669
21
-8.9826465505
31
0.0000000000
11
14.0511675550
21
-8.9544359465
31
0.0000000000
11
14.0401582052
21
-8.9265261274
31
0.0000000000
11
14.0270780278
21
-8.8993240026
31
0.0000000000
11
14.0121177244
21
-8.8732261635
31
0.0000000000
11
13.9954954079
21
-8.8486131016
31
0.0000000000
11
13.9774534223
21
-8.8258436611
31
0.0000000000
11
13.9582548096
21
-8.8052498073
31
0.0000000000
11
13.9381794747
21
-8.7871317864
31
0.0000000000
11
13.9175201043
21
-8.7717537486
31
0.0000000000
11
13.8965779004
21
-8.7593398965
31
0.0000000000
0
SPLINE
5
2A9
100
AcDbEntity
8
0
100
AcDbSpline
62
9
6
CONTINUOUS
70
0
71
3
72
20
73
16
74
14
42
0.0000001000
43
0.0000001000
44
0.0000000001
12
-0.0002381714
22
0.3665499159
32
0.0000000000
13
0.3264447576
23
0.1667114809
33
0.0000000000
40
0.0000000000
40
0.0000000000
40
0.0000000000
40
0.0000000000
40
0.0726405182
40
0.1483504569
40
0.2266011449
40
0.3067738655
40
0.3881861555
40
0.4701162103
40
0.5518261734
40
0.6325849852
40
0.7116914169
40
0.7884979378
40
0.8624361474
40
0.9330446154
40
1.0000000000
40
1.0000000000
40
1.0000000000
40
1.0000000000
10
13.3709037872
20
-9.0639539819
30
0.0000000000
10
13.3708980203
20
-9.0550785233
30
0.0000000000
10
13.3717948517
20
-9.0369430727
30
0.0000000000
10
13.3756274201
20
-9.0094906804
30
0.0000000000
10
13.3819215708
20
-8.9815522605
30
0.0000000000
10
13.3905868456
20
-8.9535289716
30
0.0000000000
10
13.4014992665
20
-8.9258193516
30
0.0000000000
10
13.4145028348
20
-8.8988193591
30
0.0000000000
10
13.4294117364
20
-8.8729146890
30
0.0000000000
10
13.4460130500
20
-8.8484754853
30
0.0000000000
10
13.4640701826
20
-8.8258506489
30
0.0000000000
10
13.4833260330
20
-8.8053630932
30
0.0000000000
10
13.5035092798
20
-8.7873041639
30
0.0000000000
10
13.5243315819
20
-8.7719336123
30
0.0000000000
10
13.5388520339
20
-8.7633873839
30
0.0000000000
10
13.5461377787
20
-8.7596666402
30
0.0000000000
11
13.3709037872
21
-9.0639539819
31
0.0000000000
11
13.3721628547
21
-9.0373573855
31
0.0000000000
11
13.3759556141
21
-9.0098663055
31
0.0000000000
11
13.3822273150
21
-8.9818775906
31
0.0000000000
11
13.3908874219
21
-8.9537952732
31
0.0000000000
11
13.4018109214
21
-8.9260247369
31
0.0000000000
11
13.4148401268
21
-8.8989668646
31
0.0000000000
11
13.4297869546
21
-8.8730122513
31
0.0000000000
11
13.4464356389
21
-8.8485355662
31
0.0000000000
11
13.4645458471
21
-8.8258901435
31
0.0000000000
11
13.4838561483
21
-8.8054028822
31
0.0000000000
11
13.5040877878
21
-8.7873695273
31
0.0000000000
11
13.5249487109
21
-8.7720503999
31
0.0000000000
11
13.5461377787
21
-8.7596666402
31
0.0000000000
0
SPLINE
5
2AA
100
AcDbEntity
8
0
100
AcDbSpline
62
9
6
CONTINUOUS
70
0
71
3
72
9
73
5
74
3
42
0.0000001000
43
0.0000001000
44
0.0000000001
12
-0.0004266218
22
0.3479822231
32
0.0000000000
13
-0.0001978899
23
0.3479824284
33
0.0000000000
40
0.0000000000
40
0.0000000000
40
0.0000000000
40
0.0000000000
40
0.4999075388
40
1.0000000000
40
1.0000000000
40
1.0000000000
40
1.0000000000
10
2.7934661571
20
-3.9385692493
30
0.0000000000
10
2.7933950666
20
-3.8805829370
30
0.0000000000
10
2.7932719291
20
-3.7645888385
30
0.0000000000
10
2.7931869019
20
-3.6485947058
30
0.0000000000
10
2.7931539141
20
-3.5905869094
30
0.0000000000
11
2.7934661571
21
-3.9385692493
31
0.0000000000
11
2.7932814759
21
-3.7646102798
31
0.0000000000
11
2.7931539141
21
-3.5905869094
31
0.0000000000
0
SPLINE
5
2AB
100
AcDbEntity
8
0
100
AcDbSpline
62
7
6
CONTINUOUS
70
0
71
3
72
10
73
6
74
4
42
0.0000001000
43
0.0000001000
44
0.0000000001
12
0.0000053945
22
-0.0007543809
32
0.0000000000
13
0.0000000000
23
-0.0007544002
33
0.0000000000
40
0.0000000000
40
0.0000000000
40
0.0000000000
40
0.0000000000
40
0.3329288768
40
0.6662609277
40
1.0000000000
40
1.0000000000
40
1.0000000000
40
1.0000000000
10
3.7035111007
20
-3.1256782487
30
0.0000000000
10
3.7035116994
20
-3.1257619671
30
0.0000000000
10
3.7035126969
20
-3.1259295067
30
0.0000000000
10
3.7035135941
20
-3.1261809721
30
0.0000000000
10
3.7035137931
20
-3.1263487183
30
0.0000000000
10
3.7035137931
20
-3.1264326426
30
0.0000000000
11
3.7035111007
21
-3.1256782487
31
0.0000000000
11
3.7035125965
21
-3.1259294058
31
0.0000000000
11
3.7035134940
21
-3.1261808700
31
0.0000000000
11
3.7035137931
21
-3.1264326426
31
0.0000000000
0
SPLINE
5
2AC
100
AcDbEntity
8
0
100
AcDbSpline
62
9
6
CONTINUOUS
70
0
71
3
72
21
73
17
74
15
42
0.0000001000
43
0.0000001000
44
0.0000000001
12
-0.3264581337
22
-0.1667183123
32
0.0000000000
13
0.0002381808
23
-0.3665649355
33
0.0000000000
40
0.0000000000
40
0.0000000000
40
0.0000000000
40
0.0000000000
40
0.0620508734
40
0.1272666298
40
0.1954025481
40
0.2661059726
40
0.3389410467
40
0.4134072350
40
0.4889571605
40
0.5650141098
40
0.6409878111
40
0.7162898716
40
0.7903502938
40
0.8626335955
40
0.9326546435
40
1.0000000000
40
1.0000000000
40
1.0000000000
40
1.0000000000
10
9.5445071847
20
-6.7588513434
30
0.0000000000
10
9.5377548473
20
-6.7622996823
30
0.0000000000
10
9.5242907981
20
-6.7701455524
30
0.0000000000
10
9.5049014748
20
-6.7841323815
30
0.0000000000
10
9.4860262737
20
-6.8004699434
30
0.0000000000
10
9.4678981785
20
-6.8189551901
30
0.0000000000
10
9.4507378638
20
-6.8393610186
30
0.0000000000
10
9.4347562451
20
-6.8614359396
30
0.0000000000
10
9.4201499357
20
-6.8849078380
30
0.0000000000
10
9.4070990114
20
-6.9094871397
30
0.0000000000
10
9.3957644879
20
-6.9348705162
30
0.0000000000
10
9.3862862635
20
-6.9607448491
30
0.0000000000
10
9.3787813493
20
-6.9867909241
30
0.0000000000
10
9.3733425138
20
-7.0126888348
30
0.0000000000
10
9.3700372823
20
-7.0381174830
30
0.0000000000
10
9.3692678467
20
-7.0549098694
30
0.0000000000
10
9.3692731935
20
-7.0631386848
30
0.0000000000
11
9.5445071847
21
-6.7588513434
31
0.0000000000
11
9.5248242842
21
-6.7702508762
31
0.0000000000
11
9.5054057876
21
-6.7841939735
31
0.0000000000
11
9.4864931237
21
-6.8005072778
31
0.0000000000
11
9.4683219479
21
-6.8189875398
31
0.0000000000
11
9.4511183949
21
-6.8394047664
31
0.0000000000
11
9.4350966134
21
-6.8615048187
31
0.0000000000
11
9.4204561138
21
-6.8850125016
31
0.0000000000
11
9.4073791371
21
-6.9096351915
31
0.0000000000
11
9.3960284668
21
-6.9350663896
31
0.0000000000
11
9.3865454425
21
-6.9609894184
31
0.0000000000
11
9.3790480983
21
-6.9870815923
31
0.0000000000
11
9.3736297454
21
-7.0130181982
31
0.0000000000
11
9.3703578827
21
-7.0384760747
31
0.0000000000
11
9.3692731935
21
-7.0631386848
31
0.0000000000
0
SPLINE
5
2AD
100
AcDbEntity
8
0
100
AcDbSpline
62
9
6
CONTINUOUS
70
0
71
3
72
13
73
9
74
7
42
0.0000001000
43
0.0000001000
44
0.0000000001
12
-0.1077784659
22
0.0520206045
32
0.0000000000
13
-0.1059780944
23
-0.0559990530
33
0.0000000000
40
0.0000000000
40
0.0000000000
40
0.0000000000
40
0.0000000000
40
0.1956623774
40
0.3799235612
40
0.5537149577
40
0.7188070045
40
0.8778016122
40
1.0000000000
40
1.0000000000
40
1.0000000000
40
1.0000000000
10
-17.2290211459
20
6.8034596267
30
0.0000000000
10
-17.2360505429
20
6.8068524517
30
0.0000000000
10
-17.2500922195
20
6.8126751009
30
0.0000000000
10
-17.2714961107
20
6.8184066727
30
0.0000000000
10
-17.2923178547
20
6.8207745157
30
0.0000000000
10
-17.3122522248
20
6.8197117004
30
0.0000000000
10
-17.3296645554
20
6.8155195649
30
0.0000000000
10
-17.3400006917
20
6.8110305372
30
0.0000000000
10
-17.3443174758
20
6.8087495392
30
0.0000000000
11
-17.2290211459
21
6.8034596267
31
0.0000000000
11
-17.2506844851
21
6.8123485460
31
0.0000000000
11
-17.2720094950
21
6.8179626983
31
0.0000000000
11
-17.2926852694
21
6.8202202320
31
0.0000000000
11
-17.3124103671
21
6.8190882333
31
0.0000000000
11
-17.3308972076
21
6.8145832057
31
0.0000000000
11
-17.3443174758
21
6.8087495392
31
0.0000000000
0
SPLINE
5
2AE
100
AcDbEntity
8
0
100
AcDbSpline
62
9
6
CONTINUOUS
70
0
71
3
72
20
73
16
74
14
42
0.0000001000
43
0.0000001000
44
0.0000000001
12
-0.3264447576
22
-0.1667114809
32
0.0000000000
13
0.0002381714
23
-0.3665499159
33
0.0000000000
40
0.0000000000
40
0.0000000000
40
0.0000000000
40
0.0000000000
40
0.0669553846
40
0.1375638526
40
0.2115020622
40
0.2883085831
40
0.3674150148
40
0.4481738266
40
0.5298837897
40
0.6118138445
40
0.6932261345
40
0.7733988551
40
0.8516495431
40
0.9273594818
40
1.0000000000
40
1.0000000000
40
1.0000000000
40
1.0000000000
10
-17.2259617631
20
6.6263831307
30
0.0000000000
10
-17.2332475079
20
6.6226623869
30
0.0000000000
10
-17.2477679599
20
6.6141161585
30
0.0000000000
10
-17.2685902620
20
6.5987456070
30
0.0000000000
10
-17.2887735088
20
6.5806866777
30
0.0000000000
10
-17.3080293592
20
6.5601991219
30
0.0000000000
10
-17.3260864918
20
6.5375742855
30
0.0000000000
10
-17.3426878054
20
6.5131350819
30
0.0000000000
10
-17.3575967070
20
6.4872304118
30
0.0000000000
10
-17.3706002753
20
6.4602304193
30
0.0000000000
10
-17.3815126962
20
6.4325207993
30
0.0000000000
10
-17.3901779710
20
6.4044975104
30
0.0000000000
10
-17.3964721217
20
6.3765590905
30
0.0000000000
10
-17.4003046901
20
6.3491066982
30
0.0000000000
10
-17.4012015215
20
6.3309712476
30
0.0000000000
10
-17.4011957545
20
6.3220957890
30
0.0000000000
11
-17.2259617631
21
6.6263831307
31
0.0000000000
11
-17.2471508309
21
6.6139993709
31
0.0000000000
11
-17.2680117540
21
6.5986802436
31
0.0000000000
11
-17.2882433935
21
6.5806468886
31
0.0000000000
11
-17.3075536947
21
6.5601596274
31
0.0000000000
11
-17.3256639028
21
6.5375142047
31
0.0000000000
11
-17.3423125872
21
6.5130375196
31
0.0000000000
11
-17.3572594149
21
6.4870829063
31
0.0000000000
11
-17.3702886204
21
6.4600250340
31
0.0000000000
11
-17.3812121199
21
6.4322544977
31
0.0000000000
11
-17.3898722268
21
6.4041721803
31
0.0000000000
11
-17.3961439276
21
6.3761834654
31
0.0000000000
11
-17.3999366871
21
6.3486923854
31
0.0000000000
11
-17.4011957545
21
6.3220957890
31
0.0000000000
0
SPLINE
5
2AF
100
AcDbEntity
8
0
100
AcDbSpline
62
9
6
CONTINUOUS
70
0
71
3
72
21
73
17
74
15
42
0.0000001000
43
0.0000001000
44
0.0000000001
12
-0.0002352370
22
0.3666338790
32
0.0000000000
13
0.3267508508
23
0.1662959354
33
0.0000000000
40
0.0000000000
40
0.0000000000
40
0.0000000000
40
0.0000000000
40
0.0673303084
40
0.1373323851
40
0.2095947010
40
0.2836338683
40
0.3589160572
40
0.4348728254
40
0.5109172093
40
0.5864602429
40
0.6609263946
40
0.7337693271
40
0.8044893709
40
0.8726513688
40
0.9379031103
40
1.0000000000
40
1.0000000000
40
1.0000000000
40
1.0000000000
10
-13.4335091206
20
4.3382524722
30
0.0000000000
10
-13.4335144001
20
4.3464809962
30
0.0000000000
10
-13.4327437952
20
4.3632724126
30
0.0000000000
10
-13.4294327441
20
4.3886984887
30
0.0000000000
10
-13.4239843809
20
4.4145919300
30
0.0000000000
10
-13.4164662875
20
4.4406316980
30
0.0000000000
10
-13.4069714139
20
4.4664979719
30
0.0000000000
10
-13.3956169767
20
4.4918716462
30
0.0000000000
10
-13.3825431165
20
4.5164397266
30
0.0000000000
10
-13.3679111314
20
4.5398990266
30
0.0000000000
10
-13.3519014125
20
4.5619601293
30
0.0000000000
10
-13.3347109117
20
4.5823510792
30
0.0000000000
10
-13.3165509285
20
4.6008205776
30
0.0000000000
10
-13.2976425053
20
4.6171416589
30
0.0000000000
10
-13.2782191112
20
4.6311115582
30
0.0000000000
10
-13.2647326844
20
4.6389447358
30
0.0000000000
10
-13.2579692805
20
4.6423868893
30
0.0000000000
11
-13.4335091206
21
4.3382524722
31
0.0000000000
11
-13.4324225399
21
4.3629141239
31
0.0000000000
11
-13.4291449738
21
4.3883691210
31
0.0000000000
11
-13.4237171714
21
4.4143009815
31
0.0000000000
11
-13.4162067518
21
4.4403865988
31
0.0000000000
11
-13.4067071855
21
4.4663013399
31
0.0000000000
11
-13.3953367117
21
4.4917226267
31
0.0000000000
11
-13.3822369143
21
4.5163339042
31
0.0000000000
11
-13.3675708619
21
4.5398288151
31
0.0000000000
11
-13.3515211134
21
4.5619148951
31
0.0000000000
11
-13.3342875254
21
4.5823171220
31
0.0000000000
11
-13.3160846261
21
4.6007815417
31
0.0000000000
11
-13.2971389361
21
4.6170783532
31
0.0000000000
11
-13.2776865380
21
4.6310045246
31
0.0000000000
11
-13.2579692805
21
4.6423868893
31
0.0000000000
0
SPLINE
5
2B0
100
AcDbEntity
8
0
100
AcDbSpline
62
7
6
CONTINUOUS
70
0
71
3
72
10
73
6
74
4
42
0.0000001000
43
0.0000001000
44
0.0000000001
12
0.0498318238
22
-0.0223208338
32
0.0000000000
13
0.0488379384
23
-0.0244189692
33
0.0000000000
40
0.0000000000
40
0.0000000000
40
0.0000000000
40
0.0000000000
40
0.3557856526
40
0.6884210240
40
1.0000000000
40
1.0000000000
40
1.0000000000
40
1.0000000000
10
-11.8834878341
20
3.8885258691
30
0.0000000000
10
-11.8775780181
20
3.8858787249
30
0.0000000000
10
-11.8661728992
20
3.8806893021
30
0.0000000000
10
-11.8497078033
20
3.8729310978
30
0.0000000000
10
-11.8391754112
20
3.8677771288
30
0.0000000000
10
-11.8341031196
20
3.8652409830
30
0.0000000000
11
-11.8834878341
21
3.8885258691
31
0.0000000000
11
-11.8658081172
21
3.8804743297
31
0.0000000000
11
-11.8493810125
21
3.8727261408
31
0.0000000000
11
-11.8341031196
21
3.8652409830
31
0.0000000000
0
SPLINE
5
2B1
100
AcDbEntity
8
0
100
AcDbSpline
62
9
6
CONTINUOUS
70
0
71
3
72
25
73
21
74
19
42
0.0000001000
43
0.0000001000
44
0.0000000001
12
-0.6597889603
22
0.3275794307
32
0.0000000000
13
0.0007572664
23
0.7366336824
33
0.0000000000
40
0.0000000000
40
0.0000000000
40
0.0000000000
40
0.0000000000
40
0.0474952490
40
0.0972431909
40
0.1490389381
40
0.2026122101
40
0.2576553801
40
0.3139448043
40
0.3713376468
40
0.4296360162
40
0.4885542992
40
0.5477913880
40
0.6070407379
40
0.6660022763
40
0.7244572131
40
0.7822289720
40
0.8390369430
40
0.8944973708
40
0.9482538295
40
1.0000000000
40
1.0000000000
40
1.0000000000
40
1.0000000000
10
-12.7968776258
20
3.3819817586
30
0.0000000000
10
-12.8073232394
20
3.3871679141
30
0.0000000000
10
-12.8282598499
20
3.3987131463
30
0.0000000000
10
-12.8588563878
20
3.4188495628
30
0.0000000000
10
-12.8890924306
20
3.4420643546
30
0.0000000000
10
-12.9186528328
20
3.4681385099
30
0.0000000000
10
-12.9472633406
20
3.4968289442
30
0.0000000000
10
-12.9747023555
20
3.5279017800
30
0.0000000000
10
-13.0007858314
20
3.5611413127
30
0.0000000000
10
-13.0253327866
20
3.5963200786
30
0.0000000000
10
-13.0481543849
20
3.6331748807
30
0.0000000000
10
-13.0690659631
20
3.6714120159
30
0.0000000000
10
-13.0879007839
20
3.7107254170
30
0.0000000000
10
-13.1045191767
20
3.7508182576
30
0.0000000000
10
-13.1188070184
20
3.7914157106
30
0.0000000000
10
-13.1306597669
20
3.8322404653
30
0.0000000000
10
-13.1399733812
20
3.8729655439
30
0.0000000000
10
-13.1466598786
20
3.9132065700
30
0.0000000000
10
-13.1506698725
20
3.9525523809
30
0.0000000000
10
-13.1515773973
20
3.9784663258
30
0.0000000000
10
-13.1515643354
20
3.9911723165
30
0.0000000000
11
-12.7968776258
21
3.3819817586
31
0.0000000000
11
-12.8275426505
21
3.3988257409
31
0.0000000000
11
-12.8581832947
21
3.4189275411
31
0.0000000000
11
-12.8884748808
21
3.4421263903
31
0.0000000000
11
-12.9180970640
21
3.4682017708
31
0.0000000000
11
-12.9467512891
21
3.4968891931
31
0.0000000000
11
-12.9742174384
21
3.5279525578
31
0.0000000000
11
-13.0003329365
21
3.5611996588
31
0.0000000000
11
-13.0249195227
21
3.5964095362
31
0.0000000000
11
-13.0477764686
21
3.6333043253
31
0.0000000000
11
-13.0687170630
21
3.6715874425
31
0.0000000000
11
-13.0875727158
21
3.7109493304
31
0.0000000000
11
-13.1041964432
21
3.7510751819
31
0.0000000000
11
-13.1184788462
21
3.7916974392
31
0.0000000000
11
-13.1303259560
21
3.8325718091
31
0.0000000000
11
-13.1396304190
21
3.8733709779
31
0.0000000000
11
-13.1462958789
21
3.9136776063
31
0.0000000000
11
-13.1502732005
21
3.9530761972
31
0.0000000000
11
-13.1515643354
21
3.9911723165
31
0.0000000000
0
SPLINE
5
2B2
100
AcDbEntity
8
0
100
AcDbSpline
62
7
6
CONTINUOUS
70
0
71
3
72
21
73
17
74
15
42
0.0000001000
43
0.0000001000
44
0.0000000001
12
-0.5915274736
22
0.2649589248
32
0.0000000000
13
0.0423664674
23
0.6467712627
33
0.0000000000
40
0.0000000000
40
0.0000000000
40
0.0000000000
40
0.0000000000
40
0.0694446952
40
0.1392318205
40
0.2092776792
40
0.2798075504
40
0.3505578760
40
0.4217673568
40
0.4932368408
40
0.5650129637
40
0.6371360623
40
0.7093814376
40
0.7819549990
40
0.8545312112
40
0.9272714887
40
1.0000000000
40
1.0000000000
40
1.0000000000
40
1.0000000000
10
-11.8834878341
20
3.8885258691
30
0.0000000000
10
-11.8971806491
20
3.8946591997
30
0.0000000000
10
-11.9240500152
20
3.9083059113
30
0.0000000000
10
-11.9623010800
20
3.9325312480
30
0.0000000000
10
-11.9983548339
20
3.9603073859
30
0.0000000000
10
-12.0319304770
20
3.9913351167
30
0.0000000000
10
-12.0628346689
20
4.0253619035
30
0.0000000000
10
-12.0908325908
20
4.0620711404
30
0.0000000000
10
-12.1157516339
20
4.1011976372
30
0.0000000000
10
-12.1374113756
20
4.1424406255
30
0.0000000000
10
-12.1556408444
20
4.1854923869
30
0.0000000000
10
-12.1702962064
20
4.2300697507
30
0.0000000000
10
-12.1812181497
20
4.2758071054
30
0.0000000000
10
-12.1882830068
20
4.3224069122
30
0.0000000000
10
-12.1913673035
20
4.3694699527
30
0.0000000000
10
-12.1907011353
20
4.4009394077
30
0.0000000000
10
-12.1896740519
20
4.4166189780
30
0.0000000000
11
-11.8834878341
21
3.8885258691
31
0.0000000000
11
-11.9236304158
21
3.9088868975
31
0.0000000000
11
-11.9618571497
21
3.9330683930
31
0.0000000000
11
-11.9978353335
21
3.9607595013
31
0.0000000000
11
-12.0314221525
21
3.9917713878
31
0.0000000000
11
-12.0622651669
21
4.0257066878
31
0.0000000000
11
-12.0902659458
21
4.0623977740
31
0.0000000000
11
-12.1151587894
21
4.1014645182
31
0.0000000000
11
-12.1367953752
21
4.1426491687
31
0.0000000000
11
-12.1550257528
21
4.1856950327
31
0.0000000000
11
-12.1696500170
21
4.2301791882
31
0.0000000000
11
-12.1805715395
21
4.2759328356
31
0.0000000000
11
-12.1876151357
21
4.3224433215
31
0.0000000000
11
-12.1906863954
21
4.3694903285
31
0.0000000000
11
-12.1896740519
21
4.4166189780
31
0.0000000000
0
SPLINE
5
2B3
100
AcDbEntity
8
0
100
AcDbSpline
62
9
6
CONTINUOUS
70
0
71
3
72
10
73
6
74
4
42
0.0000001000
43
0.0000001000
44
0.0000000001
12
0.0051907622
22
-7.8517975428
32
0.0000000000
13
0.1248911418
23
-7.8508059332
33
0.0000000000
40
0.0000000000
40
0.0000000000
40
0.0000000000
40
0.0000000000
40
0.3341548772
40
0.6674862467
40
1.0000000000
40
1.0000000000
40
1.0000000000
40
1.0000000000
10
13.3709037872
20
-9.0639539819
30
0.0000000000
10
13.3714819601
20
-9.9385261298
30
0.0000000000
10
13.3770378880
20
-11.6855155663
30
0.0000000000
10
13.3986288506
20
-14.3027030656
30
0.0000000000
10
13.4218823372
20
-16.0452510928
30
0.0000000000
10
13.4357250113
20
-16.9154180752
30
0.0000000000
11
13.3709037872
21
-9.0639539819
31
0.0000000000
11
13.3792641445
21
-11.6876576788
31
0.0000000000
11
13.4008712698
21
-14.3048194871
31
0.0000000000
11
13.4357250113
21
-16.9154180752
31
0.0000000000
0
SPLINE
5
2B4
100
AcDbEntity
8
0
100
AcDbSpline
62
9
6
CONTINUOUS
70
0
71
3
72
10
73
6
74
4
42
0.0000001000
43
0.0000001000
44
0.0000000001
12
0.0051613908
22
-7.8456299840
32
0.0000000000
13
0.1247951653
23
-7.8446391028
33
0.0000000000
40
0.0000000000
40
0.0000000000
40
0.0000000000
40
0.0000000000
40
0.3341547227
40
0.6674862497
40
1.0000000000
40
1.0000000000
40
1.0000000000
40
1.0000000000
10
14.0717851412
20
-9.0649841545
30
0.0000000000
10
14.0723600422
20
-9.9388689250
30
0.0000000000
10
14.0779069703
20
-11.6844861305
30
0.0000000000
10
14.0994770649
20
-14.2996178698
30
0.0000000000
10
14.1227117288
20
-16.0407975437
30
0.0000000000
10
14.1365437649
20
-16.9102809997
30
0.0000000000
11
14.0717851412
21
-9.0649841545
31
0.0000000000
11
14.0801319757
21
-11.6866257460
31
0.0000000000
11
14.1017182357
21
-14.3017330451
31
0.0000000000
11
14.1365437649
21
-16.9102809997
31
0.0000000000
0
SPLINE
5
2B5
100
AcDbEntity
8
0
100
AcDbSpline
62
9
6
CONTINUOUS
70
0
71
3
72
23
73
19
74
17
42
0.0000001000
43
0.0000001000
44
0.0000000001
12
-0.6481906124
22
-0.3166837604
32
0.0000000000
13
-0.6452573225
23
0.3226184462
33
0.0000000000
40
0.0000000000
40
0.0000000000
40
0.0000000000
40
0.0000000000
40
0.0553485008
40
0.1135008727
40
0.1741646703
40
0.2369849252
40
0.3015679891
40
0.3674872786
40
0.4342919883
40
0.5015166329
40
0.5686890959
40
0.6353381290
40
0.7010008747
40
0.7652309818
40
0.8276082530
40
0.8877474418
40
0.9453044503
40
1.0000000000
40
1.0000000000
40
1.0000000000
40
1.0000000000
10
14.0717851412
20
-9.0649841545
30
0.0000000000
10
14.0598263483
20
-9.0708268117
30
0.0000000000
10
14.0348291716
20
-9.0818556288
30
0.0000000000
10
13.9954228457
20
-9.0961213356
30
0.0000000000
10
13.9534824821
20
-9.1084148992
30
0.0000000000
10
13.9094003903
20
-9.1186206738
30
0.0000000000
10
13.8635873432
20
-9.1266435875
30
0.0000000000
10
13.8164716301
20
-9.1324082664
30
0.0000000000
10
13.7684941620
20
-9.1358605557
30
0.0000000000
10
13.7201043277
20
-9.1369679758
30
0.0000000000
10
13.6717553154
20
-9.1357201285
30
0.0000000000
10
13.6238999107
20
-9.1321287582
30
0.0000000000
10
13.5769862989
20
-9.1262276699
30
0.0000000000
10
13.5314533816
20
-9.1180723051
30
0.0000000000
10
13.4877266874
20
-9.1077392476
30
0.0000000000
10
13.4462133919
20
-9.0953246760
30
0.0000000000
10
13.4073017395
20
-9.0809452590
30
0.0000000000
10
13.3826680222
20
-9.0698359130
30
0.0000000000
10
13.3709037876
20
-9.0639539820
30
0.0000000000
11
14.0717851412
21
-9.0649841545
31
0.0000000000
11
14.0352841724
21
-9.0811712977
31
0.0000000000
11
13.9958589080
21
-9.0955107020
31
0.0000000000
11
13.9538763238
21
-9.1078691310
31
0.0000000000
11
13.9097336169
21
-9.1181295621
31
0.0000000000
11
13.8638459359
21
-9.1261955474
31
0.0000000000
11
13.8166452451
21
-9.1319911273
31
0.0000000000
11
13.7685764445
21
-9.1354616625
31
0.0000000000
11
13.7200923434
21
-9.1365744831
31
0.0000000000
11
13.6716493805
21
-9.1353191298
31
0.0000000000
11
13.6237036065
21
-9.1317074114
31
0.0000000000
11
13.5767066657
21
-9.1257733352
31
0.0000000000
11
13.5311015187
21
-9.1175728530
31
0.0000000000
11
13.4873174343
21
-9.1071831873
31
0.0000000000
11
13.4457661889
21
-9.0947020160
31
0.0000000000
11
13.4068408252
21
-9.0802474868
31
0.0000000000
11
13.3709037876
21
-9.0639539820
31
0.0000000000
0
SPLINE
5
2B6
100
AcDbEntity
8
0
100
AcDbSpline
62
9
6
CONTINUOUS
70
0
71
3
72
22
73
18
74
16
42
0.0000001000
43
0.0000001000
44
0.0000000001
12
-0.6443255599
22
-0.3258524614
32
0.0000000000
13
-0.6459114418
23
0.3226974791
33
0.0000000000
40
0.0000000000
40
0.0000000000
40
0.0000000000
40
0.0000000000
40
0.0594368195
40
0.1219826994
40
0.1872708694
40
0.2548683983
40
0.3242911072
40
0.3950167433
40
0.4664970217
40
0.5381689791
40
0.6094659675
40
0.6798285629
40
0.7487156441
40
0.8156159284
40
0.8800603252
40
0.9416355965
40
1.0000000000
40
1.0000000000
40
1.0000000000
40
1.0000000000
10
14.1365437649
20
-16.9102809997
30
0.0000000000
10
14.1237782109
20
-16.9167368777
30
0.0000000000
10
14.0970180261
20
-16.9288966648
30
0.0000000000
10
14.0547071954
20
-16.9445265243
30
0.0000000000
10
14.0095732444
20
-16.9578821487
30
0.0000000000
10
13.9620974227
20
-16.9688204650
30
0.0000000000
10
13.9127822022
20
-16.9772257269
30
0.0000000000
10
13.8621519368
20
-16.9830081648
30
0.0000000000
10
13.8107452023
20
-16.9861060600
30
0.0000000000
10
13.7591092943
20
-16.9864863038
30
0.0000000000
10
13.7077939965
20
-16.9841448707
30
0.0000000000
10
13.6573455555
20
-16.9791068558
30
0.0000000000
10
13.6083004430
20
-16.9714260671
30
0.0000000000
10
13.5611799038
20
-16.9611845428
30
0.0000000000
10
13.5164821778
20
-16.9484904599
30
0.0000000000
10
13.4746836496
20
-16.9334796791
30
0.0000000000
10
13.4482910903
20
-16.9216960903
30
0.0000000000
10
13.4357250116
20
-16.9154180750
30
0.0000000000
11
14.1365437649
21
-16.9102809997
31
0.0000000000
11
14.0975101858
21
-16.9281168979
31
0.0000000000
11
14.0551734196
21
-16.9438348814
31
0.0000000000
11
14.0099870771
21
-16.9572665422
31
0.0000000000
11
13.9624353008
21
-16.9682679687
31
0.0000000000
11
13.9130275769
21
-16.9767212879
31
0.0000000000
11
13.8622932773
21
-16.9825359279
31
0.0000000000
11
13.8107759868
21
-16.9856495885
31
0.0000000000
11
13.7590276799
21
-16.9860289091
31
0.0000000000
11
13.7076028061
21
-16.9836698253
31
0.0000000000
11
13.6570523493
21
-16.9785976133
31
0.0000000000
11
13.6079179250
21
-16.9708666184
31
0.0000000000
11
13.5607259766
21
-16.9605596734
31
0.0000000000
11
13.5159821352
21
-16.9477872103
31
0.0000000000
11
13.4741658019
21
-16.9326860779
31
0.0000000000
11
13.4357250116
21
-16.9154180750
31
0.0000000000
0
SPLINE
5
2B7
100
AcDbEntity
8
0
100
AcDbSpline
62
9
6
CONTINUOUS
70
0
71
3
72
14
73
10
74
8
42
0.0000001000
43
0.0000001000
44
0.0000000001
12
0.1563307459
22
-9.8278864340
32
0.0000000000
13
1.2990769420
23
-9.7429046059
33
0.0000000000
40
0.0000000000
40
0.0000000000
40
0.0000000000
40
0.0000000000
40
0.1463296915
40
0.2915210750
40
0.4355612897
40
0.5784387774
40
0.7201433508
40
0.8606662077
40
1.0000000000
40
1.0000000000
40
1.0000000000
40
1.0000000000
10
13.4357250113
20
-16.9154180752
30
0.0000000000
10
13.4433502879
20
-17.3947886052
30
0.0000000000
10
13.4660320475
20
-18.3496994101
30
0.0000000000
10
13.5227306663
20
-19.7756943488
30
0.0000000000
10
13.6019542398
20
-21.1892922857
30
0.0000000000
10
13.7036752924
20
-22.5899959360
30
0.0000000000
10
13.8278588800
20
-23.9773202636
30
0.0000000000
10
13.9744612702
20
-25.3507761892
30
0.0000000000
10
14.0875923673
20
-26.2607419545
30
0.0000000000
10
14.1479274728
20
-26.7132472366
30
0.0000000000
11
13.4357250113
21
-16.9154180752
31
0.0000000000
11
13.4699671309
21
-18.3533039283
31
0.0000000000
11
13.5267556423
21
-19.7792785362
31
0.0000000000
11
13.6060707698
21
-21.1928450568
31
0.0000000000
11
13.7078848858
21
-22.5935108684
31
0.0000000000
11
13.8321625354
21
-23.9807879903
31
0.0000000000
11
13.9788604283
21
-25.3541929580
31
0.0000000000
11
14.1479274728
21
-26.7132472366
31
0.0000000000
0
SPLINE
5
2B8
100
AcDbEntity
8
0
100
AcDbSpline
62
9
6
CONTINUOUS
70
0
71
3
72
14
73
10
74
8
42
0.0000001000
43
0.0000001000
44
0.0000000001
12
0.1554777580
22
-9.7733263510
32
0.0000000000
13
1.2919777871
23
-9.6888015097
33
0.0000000000
40
0.0000000000
40
0.0000000000
40
0.0000000000
40
0.0000000000
40
0.1463291417
40
0.2915202781
40
0.4355603799
40
0.5784378958
40
0.7201426452
40
0.8606658328
40
1.0000000000
40
1.0000000000
40
1.0000000000
40
1.0000000000
10
14.1365437649
20
-16.9102809997
30
0.0000000000
10
14.1441274072
20
-17.3869884850
30
0.0000000000
10
14.1666852952
20
-18.3365954326
30
0.0000000000
10
14.2230742909
20
-19.7546707516
30
0.0000000000
10
14.3018652666
20
-21.1604195758
30
0.0000000000
10
14.4030308845
20
-22.5533468084
30
0.0000000000
10
14.5265363910
20
-23.9329701049
30
0.0000000000
10
14.6723382420
20
-25.2988027203
30
0.0000000000
10
14.7848515051
20
-26.2037178348
30
0.0000000000
10
14.8448570548
20
-26.6537115312
30
0.0000000000
11
14.1365437649
21
-16.9102809997
31
0.0000000000
11
14.1705988549
21
-18.3401789313
31
0.0000000000
11
14.2270772574
21
-19.7582345705
31
0.0000000000
11
14.3059592758
21
-21.1639521188
31
0.0000000000
11
14.4072174343
21
-22.5568416891
31
0.0000000000
11
14.5308164715
21
-23.9364180083
31
0.0000000000
11
14.6767133327
21
-25.3022002942
31
0.0000000000
11
14.8448570548
21
-26.6537115312
31
0.0000000000
0
SPLINE
5
2B9
100
AcDbEntity
8
0
100
AcDbSpline
62
9
6
CONTINUOUS
70
0
71
3
72
22
73
18
74
16
42
0.0000001000
43
0.0000001000
44
0.0000000001
12
-0.6056002248
22
-0.4023783012
32
0.0000000000
13
-0.6510476088
23
0.3237235560
33
0.0000000000
40
0.0000000000
40
0.0000000000
40
0.0000000000
40
0.0000000000
40
0.0621635038
40
0.1268476843
40
0.1937072834
40
0.2623407679
40
0.3323037233
40
0.4031211513
40
0.4742990357
40
0.5453354789
40
0.6157316661
40
0.6850028968
40
0.7526899288
40
0.8183709152
40
0.8816742699
40
0.9422928637
40
1.0000000000
40
1.0000000000
40
1.0000000000
40
1.0000000000
10
14.8448570548
20
-26.6537115312
30
0.0000000000
10
14.8323083108
20
-26.6620492796
30
0.0000000000
10
14.8059732814
20
-26.6779860713
30
0.0000000000
10
14.7640469380
20
-26.6991972195
30
0.0000000000
10
14.7192853908
20
-26.7180097141
30
0.0000000000
10
14.6721669335
20
-26.7342224954
30
0.0000000000
10
14.6231907813
20
-26.7476644797
30
0.0000000000
10
14.5728777916
20
-26.7581927391
30
0.0000000000
10
14.5217630255
20
-26.7656953855
30
0.0000000000
10
14.4703903313
20
-26.7700925882
30
0.0000000000
10
14.4193061968
20
-26.7713375483
30
0.0000000000
10
14.3690537951
20
-26.7694169624
30
0.0000000000
10
14.3201667708
20
-26.7643509408
30
0.0000000000
10
14.2731640234
20
-26.7561928689
30
0.0000000000
10
14.2285415566
20
-26.7450271819
30
0.0000000000
10
14.1867757647
20
-26.7309720561
30
0.0000000000
10
14.1604508649
20
-26.7194742708
30
0.0000000000
10
14.1479275006
20
-26.7132472176
30
0.0000000000
11
14.8448570548
21
-26.6537115312
31
0.0000000000
11
14.8062275950
21
-26.6771778057
31
0.0000000000
11
14.7642898017
21
-26.6984653016
31
0.0000000000
11
14.7194931220
21
-26.7173458809
31
0.0000000000
11
14.6723176417
21
-26.7336172004
31
0.0000000000
11
14.6232689403
21
-26.7471048806
31
0.0000000000
11
14.5728726726
21
-26.7576643739
31
0.0000000000
11
14.5216689352
21
-26.7651825144
31
0.0000000000
11
14.4702064782
21
-26.7695787302
31
0.0000000000
11
14.4190368248
21
-26.7708059070
31
0.0000000000
11
14.3687083598
21
-26.7688508932
31
0.0000000000
11
14.3197604532
21
-26.7637346407
31
0.0000000000
11
14.2727176796
21
-26.7555119803
31
0.0000000000
11
14.2280841961
21
-26.7442710342
31
0.0000000000
11
14.1863383397
21
-26.7301322716
31
0.0000000000
11
14.1479275006
21
-26.7132472176
31
0.0000000000
0
SPLINE
5
2BA
100
AcDbEntity
8
0
100
AcDbSpline
62
9
6
CONTINUOUS
70
0
71
3
72
16
73
12
74
10
42
0.0000001000
43
0.0000001000
44
0.0000000001
12
0.0666280151
22
-0.5036783788
32
0.0000000000
13
0.4547684374
23
-0.2274489483
33
0.0000000000
40
0.0000000000
40
0.0000000000
40
0.0000000000
40
0.0000000000
40
0.1337852332
40
0.2620732767
40
0.3849948258
40
0.5028548121
40
0.6161616502
40
0.7256270417
40
0.8321555822
40
0.9368174539
40
1.0000000000
40
1.0000000000
40
1.0000000000
40
1.0000000000
10
14.1479274728
20
-26.7132472366
30
0.0000000000
10
14.1508987544
20
-26.7357088131
30
0.0000000000
10
14.1584516262
20
-26.7795062462
30
0.0000000000
10
14.1750971262
20
-26.8426356498
30
0.0000000000
10
14.1967165355
20
-26.9013910409
30
0.0000000000
10
14.2231682398
20
-26.9553374059
30
0.0000000000
10
14.2542778530
20
-27.0040735243
30
0.0000000000
10
14.2898354559
20
-27.0472255235
30
0.0000000000
10
14.3295913421
20
-27.0844510546
30
0.0000000000
10
14.3676002796
20
-27.1114335779
30
0.0000000000
10
14.3925093512
20
-27.1252279504
30
0.0000000000
10
14.4020871605
20
-27.1300182183
30
0.0000000000
11
14.1479274728
21
-26.7132472366
31
0.0000000000
11
14.1595946016
21
-26.7802101852
31
0.0000000000
11
14.1763343029
21
-26.8432027229
31
0.0000000000
11
14.1980249546
21
-26.9017672387
31
0.0000000000
11
14.2245074062
21
-26.9554736087
31
0.0000000000
11
14.2555882376
21
-27.0039296068
31
0.0000000000
11
14.2910404238
21
-27.0467810245
31
0.0000000000
11
14.3306044685
21
-27.0837139964
31
0.0000000000
11
14.3739909298
21
-27.1144582948
31
0.0000000000
11
14.4020871605
21
-27.1300182183
31
0.0000000000
0
SPLINE
5
2BB
100
AcDbEntity
8
0
100
AcDbSpline
62
9
6
CONTINUOUS
70
0
71
3
72
23
73
19
74
17
42
0.0000001000
43
0.0000001000
44
0.0000000001
12
0.0621835272
22
-0.4662943416
32
0.0000000000
13
0.4337602541
23
0.1820693440
33
0.0000000000
40
0.0000000000
40
0.0000000000
40
0.0000000000
40
0.0000000000
40
0.0722987039
40
0.1416931545
40
0.2082384276
40
0.2721043685
40
0.3335690923
40
0.3930180398
40
0.4509375769
40
0.5078996607
40
0.5645341103
40
0.6214912062
40
0.6794008119
40
0.7388352719
40
0.8002826015
40
0.8641294978
40
0.9306523633
40
1.0000000000
40
1.0000000000
40
1.0000000000
40
1.0000000000
10
14.8448570548
20
-26.6537115312
30
0.0000000000
10
14.8463556509
20
-26.6649490234
30
0.0000000000
10
14.8501659096
20
-26.6868695003
30
0.0000000000
10
14.8585611734
20
-26.7184702620
30
0.0000000000
10
14.8694662347
20
-26.7478975893
30
0.0000000000
10
14.8828088065
20
-26.7749299529
30
0.0000000000
10
14.8985005224
20
-26.7993660794
30
0.0000000000
10
14.9164350279
20
-26.8210183873
30
0.0000000000
10
14.9364857966
20
-26.8397152704
30
0.0000000000
10
14.9585043064
20
-26.8553043165
30
0.0000000000
10
14.9823200977
20
-26.8676575940
30
0.0000000000
10
15.0077437646
20
-26.8766767757
30
0.0000000000
10
15.0345724714
20
-26.8822960886
30
0.0000000000
10
15.0625961769
20
-26.8844818264
30
0.0000000000
10
15.0916016586
20
-26.8832295105
30
0.0000000000
10
15.1213749430
20
-26.8785597017
30
0.0000000000
10
15.1516936067
20
-26.8705190050
30
0.0000000000
10
15.1717064641
20
-26.8631102775
30
0.0000000000
10
15.1817332136
20
-26.8589015846
30
0.0000000000
11
14.8448570548
21
-26.6537115312
31
0.0000000000
11
14.8507392494
21
-26.6872099338
31
0.0000000000
11
14.8591812883
21
-26.7187441776
31
0.0000000000
11
14.8701204247
21
-26.7480750455
31
0.0000000000
11
14.8834764420
21
-26.7749870644
31
0.0000000000
11
14.8991517784
21
-26.7992836743
31
0.0000000000
11
14.9170319409
21
-26.8207872404
31
0.0000000000
11
14.9369860456
21
-26.8393402298
31
0.0000000000
11
14.9588680555
21
-26.8548068400
31
0.0000000000
11
14.9825179884
21
-26.8670739832
31
0.0000000000
11
15.0077629682
21
-26.8760519359
31
0.0000000000
11
15.0344183011
21
-26.8816749568
31
0.0000000000
11
15.0622887745
21
-26.8839018681
31
0.0000000000
11
15.0911706551
21
-26.8827164248
31
0.0000000000
11
15.1208529864
21
-26.8781272072
31
0.0000000000
11
15.1511177569
21
-26.8701680404
31
0.0000000000
11
15.1817332136
21
-26.8589015846
31
0.0000000000
0
SPLINE
5
2BC
100
AcDbEntity
8
0
100
AcDbSpline
62
9
6
CONTINUOUS
70
0
71
3
72
16
73
12
74
10
42
0.0000001000
43
0.0000001000
44
0.0000000001
12
-0.0143920974
22
-0.3376162726
32
0.0000000000
13
-0.3119267861
23
-0.1309720941
33
0.0000000000
40
0.0000000000
40
0.0000000000
40
0.0000000000
40
0.0000000000
40
0.1340678815
40
0.2623609696
40
0.3846475678
40
0.5009428294
40
0.6115468263
40
0.7170757481
40
0.8184749564
40
0.9169984930
40
1.0000000000
40
1.0000000000
40
1.0000000000
40
1.0000000000
10
15.1817332136
20
-26.8589015846
30
0.0000000000
10
15.1810900409
20
-26.8739894174
30
0.0000000000
10
15.1786180093
20
-26.9034824872
30
0.0000000000
10
15.1710801596
20
-26.9462126483
30
0.0000000000
10
15.1598621171
20
-26.9860651582
30
0.0000000000
10
15.1450719517
20
-27.0226059359
30
0.0000000000
10
15.1268512177
20
-27.0554364581
30
0.0000000000
10
15.1053757228
20
-27.0841873554
30
0.0000000000
10
15.0808598422
20
-27.1085199883
30
0.0000000000
10
15.0548639312
20
-27.1271973165
30
0.0000000000
10
15.0365559814
20
-27.1364733753
30
0.0000000000
10
15.0279258503
20
-27.1400970023
30
0.0000000000
11
15.1817332136
21
-26.8589015846
31
0.0000000000
11
15.1778665476
21
-26.9040408826
31
0.0000000000
11
15.1702412054
21
-26.9467181788
31
0.0000000000
11
15.1589406348
21
-26.9864664348
31
0.0000000000
11
15.1440885033
21
-27.0228506664
31
0.0000000000
11
15.1258473451
21
-27.0554727033
31
0.0000000000
11
15.1044167820
21
-27.0839755468
31
0.0000000000
11
15.0800313388
21
-27.1080472765
31
0.0000000000
11
15.0529578774
21
-27.1274244639
31
0.0000000000
11
15.0279258503
21
-27.1400970023
31
0.0000000000
0
SPLINE
5
2BD
100
AcDbEntity
8
0
100
AcDbSpline
62
9
6
CONTINUOUS
70
0
71
3
72
10
73
6
74
4
42
0.0000001000
43
0.0000001000
44
0.0000000001
12
-0.1206266827
22
7.8497390048
32
0.0000000000
13
-0.0050121687
23
7.8506641832
33
0.0000000000
40
0.0000000000
40
0.0000000000
40
0.0000000000
40
0.0000000000
40
0.3324836820
40
0.6658152434
40
1.0000000000
40
1.0000000000
40
1.0000000000
40
1.0000000000
10
-17.3385964401
20
-1.5282573495
30
0.0000000000
10
-17.3519652413
20
-0.6582873070
30
0.0000000000
10
-17.3744222734
20
1.0839407687
30
0.0000000000
10
-17.3952725544
20
3.7007557573
30
0.0000000000
10
-17.4006374244
20
5.4475716893
30
0.0000000000
10
-17.4011957545
20
6.3220957890
30
0.0000000000
11
-17.3385964401
21
-1.5282573495
31
0.0000000000
11
-17.3722554825
21
1.0817438891
31
0.0000000000
11
-17.3931219694
21
3.6985353784
31
0.0000000000
11
-17.4011957545
21
6.3220957890
31
0.0000000000
0
SPLINE
5
2BE
100
AcDbEntity
8
0
100
AcDbSpline
62
9
6
CONTINUOUS
70
0
71
3
72
14
73
10
74
8
42
0.0000001000
43
0.0000001000
44
0.0000000001
12
-1.2564815556
22
9.7341744178
32
0.0000000000
13
-0.1508202325
23
9.8137735226
33
0.0000000000
40
0.0000000000
40
0.0000000000
40
0.0000000000
40
0.0000000000
40
0.1391721989
40
0.2795914017
40
0.4212478168
40
0.5641301952
40
0.7082259028
40
0.8535209374
40
1.0000000000
40
1.0000000000
40
1.0000000000
40
1.0000000000
10
-16.6506970754
20
-11.3139349625
30
0.0000000000
10
-16.7089861757
20
-10.8623594765
30
0.0000000000
10
-16.8182760485
20
-9.9541356851
30
0.0000000000
10
-16.9598696543
20
-8.5831947280
30
0.0000000000
10
-17.0798099998
20
-7.1980030889
30
0.0000000000
10
-17.1780548678
20
-5.7990487321
30
0.0000000000
10
-17.2545704748
20
-4.3868162331
30
0.0000000000
10
-17.3093302705
20
-2.9618020504
30
0.0000000000
10
-17.3312324380
20
-2.0074281316
30
0.0000000000
10
-17.3385964401
20
-1.5282573495
30
0.0000000000
11
-16.6506970754
21
-11.3139349625
31
0.0000000000
11
-16.8139948998
21
-9.9577652940
31
0.0000000000
11
-16.9556868944
21
-8.5868632754
31
0.0000000000
11
-17.0757237110
21
-7.2017065700
31
0.0000000000
11
-17.1740635363
21
-5.8027779037
31
0.0000000000
11
-17.2506721256
21
-4.3905646522
31
0.0000000000
11
-17.3055227938
21
-2.9655589660
31
0.0000000000
11
-17.3385964401
21
-1.5282573495
31
0.0000000000
0
SPLINE
5
2BF
100
AcDbEntity
8
0
100
AcDbSpline
62
7
6
CONTINUOUS
70
0
71
3
72
10
73
6
74
4
42
0.0000001000
43
0.0000001000
44
0.0000000001
12
0.0498833270
22
-0.0223069922
32
0.0000000000
13
0.0488749278
23
-0.0244374639
33
0.0000000000
40
0.0000000000
40
0.0000000000
40
0.0000000000
40
0.0000000000
40
0.3557798487
40
0.6883912018
40
1.0000000000
40
1.0000000000
40
1.0000000000
40
1.0000000000
10
4.0076371446
20
-4.0700493604
30
0.0000000000
10
4.0135529721
20
-4.0726948198
30
0.0000000000
10
4.0249690448
20
-4.0778817947
30
0.0000000000
10
4.0414493792
20
-4.0856400325
30
0.0000000000
10
4.0519905646
20
-4.0907965188
30
0.0000000000
10
4.0570671837
20
-4.0933348284
30
0.0000000000
11
4.0076371446
21
-4.0700493604
31
0.0000000000
11
4.0253342577
21
-4.0780974300
31
0.0000000000
11
4.0417753084
21
-4.0858452190
31
0.0000000000
11
4.0570671837
21
-4.0933348284
31
0.0000000000
0
SPLINE
5
2C0
100
AcDbEntity
8
0
100
AcDbSpline
62
7
6
CONTINUOUS
70
0
71
3
72
10
73
6
74
4
42
0.0000001000
43
0.0000001000
44
0.0000000001
12
0.0038194220
22
0.0583077270
32
0.0000000000
13
0.0000000000
23
0.0584326879
33
0.0000000000
40
0.0000000000
40
0.0000000000
40
0.0000000000
40
0.0000000000
40
0.3510198703
40
0.6836721356
40
1.0000000000
40
1.0000000000
40
1.0000000000
40
1.0000000000
10
-12.1896740519
20
4.4166189780
30
0.0000000000
10
-12.1892271542
20
4.4234413683
30
0.0000000000
10
-12.1884832521
20
4.4367379295
30
0.0000000000
10
-12.1878014692
20
4.4562049078
30
0.0000000000
10
-12.1876430480
20
4.4688458654
30
0.0000000000
10
-12.1876430480
20
4.4750071612
30
0.0000000000
11
-12.1896740519
21
4.4166189780
31
0.0000000000
11
-12.1885364946
21
4.4370984434
31
0.0000000000
11
-12.1878649674
21
4.4565246061
31
0.0000000000
11
-12.1876430480
21
4.4750071612
31
0.0000000000
0
SPLINE
5
2C1
100
AcDbEntity
8
0
100
AcDbSpline
62
7
6
CONTINUOUS
70
0
71
3
72
19
73
15
74
13
42
0.0000001000
43
0.0000001000
44
0.0000000001
12
-0.0001388740
22
-0.2414749094
32
0.0000000000
13
0.2160548269
23
-0.1080561465
33
0.0000000000
40
0.0000000000
40
0.0000000000
40
0.0000000000
40
0.0000000000
40
0.0271780720
40
0.1038447210
40
0.1805468288
40
0.2604068222
40
0.3455546866
40
0.4354904145
40
0.5298043383
40
0.6282193847
40
0.7307521439
40
0.8378962339
40
0.9496459566
40
1.0000000000
40
1.0000000000
40
1.0000000000
40
1.0000000000
10
-6.5992164730
20
1.6388591021
30
0.0000000000
10
-6.5992177311
20
1.6366714946
30
0.0000000000
10
-6.5990770996
20
1.6283127884
30
0.0000000000
10
-6.5978866502
20
1.6138138975
30
0.0000000000
10
-6.5946362409
20
1.5953066759
30
0.0000000000
10
-6.5895422891
20
1.5765101600
30
0.0000000000
10
-6.5823431420
20
1.5572696016
30
0.0000000000
10
-6.5728023802
20
1.5377677690
30
0.0000000000
10
-6.5607842025
20
1.5184133341
30
0.0000000000
10
-6.5462022201
20
1.4996030539
30
0.0000000000
10
-6.5289640235
20
1.4817215497
30
0.0000000000
10
-6.5090151472
20
1.4651751259
30
0.0000000000
10
-6.4908094432
20
1.4533463927
30
0.0000000000
10
-6.4792892075
20
1.4471955556
30
0.0000000000
10
-6.4756627961
20
1.4453818676
30
0.0000000000
11
-6.5992164730
21
1.6388591021
31
0.0000000000
11
-6.5991068521
21
1.6322975701
31
0.0000000000
11
-6.5976054677
21
1.6138532759
31
0.0000000000
11
-6.5944120200
21
1.5956169146
31
0.0000000000
11
-6.5893768550
21
1.5770100682
31
0.0000000000
11
-6.5821811458
21
1.5577584549
31
0.0000000000
11
-6.5726456507
21
1.5382567587
31
0.0000000000
11
-6.5606415342
21
1.5189140287
31
0.0000000000
11
-6.5460891599
21
1.5001385565
31
0.0000000000
11
-6.5289155813
21
1.4823181721
31
0.0000000000
11
-6.5090097451
21
1.4658079418
31
0.0000000000
11
-6.4863922685
21
1.4511104770
31
0.0000000000
11
-6.4756627961
21
1.4453818676
31
0.0000000000
0
SPLINE
5
2C2
100
AcDbEntity
8
0
100
AcDbSpline
62
7
6
CONTINUOUS
70
0
71
3
72
17
73
13
74
11
42
0.0000001000
43
0.0000001000
44
0.0000000001
12
0.1764266544
22
-0.0881676517
32
0.0000000000
13
0.1777042441
23
0.0854079752
33
0.0000000000
40
0.0000000000
40
0.0000000000
40
0.0000000000
40
0.0000000000
40
0.0425836791
40
0.1727874944
40
0.2984563310
40
0.4185491138
40
0.5317199768
40
0.6367209571
40
0.7342831329
40
0.8293503729
40
0.9246073449
40
1.0000000000
40
1.0000000000
40
1.0000000000
40
1.0000000000
10
2.5415549765
20
-3.0632272694
30
0.0000000000
10
2.5440592752
20
-3.0644787704
30
0.0000000000
10
2.5543145168
20
-3.0693702506
30
0.0000000000
10
2.5726274310
20
-3.0764851565
30
0.0000000000
10
2.5965520652
20
-3.0828199726
30
0.0000000000
10
2.6199045934
20
-3.0863883697
30
0.0000000000
10
2.6421388293
20
-3.0874567831
30
0.0000000000
10
2.6628864304
20
-3.0864279335
30
0.0000000000
10
2.6822675320
20
-3.0836513086
30
0.0000000000
10
2.7006977155
20
-3.0792956692
30
0.0000000000
10
2.7172719482
20
-3.0737374777
30
0.0000000000
10
2.7275707466
20
-3.0692762242
30
0.0000000000
10
2.7320366115
20
-3.0671298462
30
0.0000000000
11
2.5415549765
21
-3.0632272694
31
0.0000000000
11
2.5491351709
21
-3.0668428785
31
0.0000000000
11
2.5730565179
21
-3.0761301678
31
0.0000000000
11
2.5969985247
21
-3.0824700324
31
0.0000000000
11
2.6203963188
21
-3.0860377933
31
0.0000000000
11
2.6426747800
21
-3.0871058753
31
0.0000000000
11
2.6633429066
21
-3.0860732849
31
0.0000000000
11
2.6823756890
21
-3.0833414080
31
0.0000000000
11
2.7006075298
21
-3.0790236892
31
0.0000000000
11
2.7184033216
21
-3.0730441320
31
0.0000000000
11
2.7320366115
21
-3.0671298462
31
0.0000000000
0
SPLINE
5
2C3
100
AcDbEntity
8
0
100
AcDbSpline
62
7
6
CONTINUOUS
70
0
71
3
72
10
73
6
74
4
42
0.0000001000
43
0.0000001000
44
0.0000000001
12
-0.0003894424
22
-0.3180455900
32
0.0000000000
13
-0.0001989663
23
-0.3180457667
33
0.0000000000
40
0.0000000000
40
0.0000000000
40
0.0000000000
40
0.0000000000
40
0.3652135940
40
0.7303873158
40
1.0000000000
40
1.0000000000
40
1.0000000000
40
1.0000000000
10
-6.5989218484
20
1.9569078312
30
0.0000000000
10
-6.5989692583
20
1.9181896402
30
0.0000000000
10
-6.5990556085
20
1.8407574746
30
0.0000000000
10
-6.5991506497
20
1.7347422403
30
0.0000000000
10
-6.5991981857
20
1.6674452005
30
0.0000000000
10
-6.5992160670
20
1.6388621429
30
0.0000000000
11
-6.5989218484
21
1.9569078312
31
0.0000000000
11
-6.5990513794
21
1.8407532433
31
0.0000000000
11
-6.5991554977
21
1.7246113111
31
0.0000000000
11
-6.5992160670
21
1.6388621429
31
0.0000000000
0
SPLINE
5
2C4
100
AcDbEntity
8
0
100
AcDbSpline
62
7
6
CONTINUOUS
70
0
71
3
72
25
73
21
74
19
42
0.0000001000
43
0.0000001000
44
0.0000000001
12
0.7238923184
22
-0.3619162881
32
0.0000000000
13
-0.0010045667
23
-0.8092928190
33
0.0000000000
40
0.0000000000
40
0.0000000000
40
0.0000000000
40
0.0000000000
40
0.0329345334
40
0.0768811912
40
0.1248209820
40
0.1764066277
40
0.2312723582
40
0.2890296161
40
0.3492511970
40
0.4114009892
40
0.4748896404
40
0.5391080088
40
0.6034361285
40
0.6672532185
40
0.7299510530
40
0.7909604439
40
0.8497387544
40
0.9057679523
40
0.9585634848
40
1.0000000000
40
1.0000000000
40
1.0000000000
40
1.0000000000
10
-6.9822468483
20
2.6320258772
30
0.0000000000
10
-6.9742998297
20
2.6280526958
30
0.0000000000
10
-6.9560827127
20
2.6180954291
30
0.0000000000
10
-6.9277682257
20
2.5998201354
30
0.0000000000
10
-6.8968605244
20
2.5764741612
30
0.0000000000
10
-6.8654170580
20
2.5491198247
30
0.0000000000
10
-6.8339408539
20
2.5179133290
30
0.0000000000
10
-6.8029091988
20
2.4830787422
30
0.0000000000
10
-6.7727875545
20
2.4449185047
30
0.0000000000
10
-6.7440289471
20
2.4038197880
30
0.0000000000
10
-6.7170624745
20
2.3602509352
30
0.0000000000
10
-6.6922731132
20
2.3147376817
30
0.0000000000
10
-6.6699921365
20
2.2678472574
30
0.0000000000
10
-6.6504915183
20
2.2201767399
30
0.0000000000
10
-6.6339773758
20
2.1723368203
30
0.0000000000
10
-6.6205872936
20
2.1249404410
30
0.0000000000
10
-6.6103887747
20
2.0785959888
30
0.0000000000
10
-6.6033770234
20
2.0339032455
30
0.0000000000
10
-6.5996592272
20
1.9935150024
30
0.0000000000
10
-6.5989079258
20
1.9680879168
30
0.0000000000
10
-6.5989218011
20
1.9569098254
30
0.0000000000
11
-6.9822468483
21
2.6320258772
31
0.0000000000
11
-6.9588347013
21
2.6192832712
31
0.0000000000
11
-6.9289139395
21
2.6000619817
31
0.0000000000
11
-6.8979176258
21
2.5767336466
31
0.0000000000
11
-6.8663844810
21
2.5493793448
31
0.0000000000
11
-6.8348198442
21
2.5181555869
31
0.0000000000
11
-6.8036997598
21
2.4832837941
31
0.0000000000
11
-6.7734801640
21
2.4450520502
31
0.0000000000
11
-6.7446264585
21
2.4038589686
31
0.0000000000
11
-6.7175748041
21
2.3601809723
31
0.0000000000
11
-6.6927126918
21
2.3145469954
31
0.0000000000
11
-6.6703736055
21
2.2675279741
31
0.0000000000
11
-6.6508316033
21
2.2197257772
31
0.0000000000
11
-6.6342954183
21
2.1717594702
31
0.0000000000
11
-6.6209011645
21
2.1242407735
31
0.0000000000
11
-6.6107159408
21
2.0777791522
31
0.0000000000
11
-6.6037348311
21
2.0329795603
31
0.0000000000
11
-6.5998742139
21
1.9904308493
31
0.0000000000
11
-6.5989218011
21
1.9569098254
31
0.0000000000
0
SPLINE
5
2C5
100
AcDbEntity
8
0
100
AcDbSpline
62
7
6
CONTINUOUS
70
0
71
3
72
15
73
11
74
9
42
0.0000001000
43
0.0000001000
44
0.0000000001
12
0.1255072714
22
0.0628642642
32
0.0000000000
13
0.1254411343
23
-0.0627223418
33
0.0000000000
40
0.0000000000
40
0.0000000000
40
0.0000000000
40
0.0000000000
40
0.0592830389
40
0.1458587112
40
0.2474205476
40
0.3682592827
40
0.5089838798
40
0.6683457269
40
0.8446300128
40
1.0000000000
40
1.0000000000
40
1.0000000000
40
1.0000000000
10
-12.9857747191
20
5.5862131995
30
0.0000000000
10
-12.9832945683
20
5.5874554611
30
0.0000000000
10
-12.9769863190
20
5.5901177165
30
0.0000000000
10
-12.9657205357
20
5.5929413575
30
0.0000000000
10
-12.9512869581
20
5.5942539863
30
0.0000000000
10
-12.9342857021
20
5.5934912410
30
0.0000000000
10
-12.9148332823
20
5.5902819095
30
0.0000000000
10
-12.8933256756
20
5.5843820168
30
0.0000000000
10
-12.8718180371
20
5.5762923986
30
0.0000000000
10
-12.8577388606
20
5.5697718886
30
0.0000000000
10
-12.8512422648
20
5.5665234988
30
0.0000000000
11
-12.9857747191
21
5.5862131995
31
0.0000000000
11
-12.9781116686
21
5.5894547536
31
0.0000000000
11
-12.9663558384
21
5.5924849190
31
0.0000000000
11
-12.9521825897
21
5.5938776375
31
0.0000000000
11
-12.9352505622
21
5.5932246310
31
0.0000000000
11
-12.9157648302
21
5.5901098443
31
0.0000000000
11
-12.8941915917
21
5.5842821254
31
0.0000000000
11
-12.8710285264
21
5.5756493657
31
0.0000000000
11
-12.8512422648
21
5.5665234988
31
0.0000000000
0
SPLINE
5
2C6
100
AcDbEntity
8
0
100
AcDbSpline
62
7
6
CONTINUOUS
70
0
71
3
72
15
73
11
74
9
42
0.0000001000
43
0.0000001000
44
0.0000000001
12
0.1847222898
22
-0.0923611449
32
0.0000000000
13
0.1855085795
23
0.0907715393
33
0.0000000000
40
0.0000000000
40
0.0000000000
40
0.0000000000
40
0.0000000000
40
0.1203559228
40
0.2417759827
40
0.3644486896
40
0.4884748967
40
0.6138246467
40
0.7403392527
40
0.8695151175
40
1.0000000000
40
1.0000000000
40
1.0000000000
40
1.0000000000
10
-13.3345919203
20
4.8748449460
30
0.0000000000
10
-13.3271811131
20
4.8711395424
30
0.0000000000
10
-13.3118562927
20
4.8645368499
30
0.0000000000
10
-13.2877838612
20
4.8572830317
30
0.0000000000
10
-13.2627858986
20
4.8527887797
30
0.0000000000
10
-13.2371664634
20
4.8511860921
30
0.0000000000
10
-13.2112684230
20
4.8525648018
30
0.0000000000
10
-13.1853512765
20
4.8569777275
30
0.0000000000
10
-13.1597769457
20
4.8644429821
30
0.0000000000
10
-13.1432623976
20
4.8714028702
30
0.0000000000
10
-13.1351937092
20
4.8753509747
30
0.0000000000
11
-13.3345919203
21
4.8748449460
31
0.0000000000
11
-13.3117639388
21
4.8650096027
31
0.0000000000
11
-13.2877545217
21
4.8577727206
31
0.0000000000
11
-13.2628196692
21
4.8532872613
31
0.0000000000
11
-13.2372552975
21
4.8516837593
31
0.0000000000
11
-13.2114036399
21
4.8530542075
31
0.0000000000
11
-13.1856444747
21
4.8574320481
31
0.0000000000
11
-13.1600322708
21
4.8648978786
31
0.0000000000
11
-13.1351937092
21
4.8753509747
31
0.0000000000
0
SPLINE
5
2C7
100
AcDbEntity
8
0
100
AcDbSpline
62
7
6
CONTINUOUS
70
0
71
3
72
15
73
11
74
9
42
0.0000001000
43
0.0000001000
44
0.0000000001
12
0.1255860817
22
0.0604792366
32
0.0000000000
13
0.1245693337
23
-0.0622863546
33
0.0000000000
40
0.0000000000
40
0.0000000000
40
0.0000000000
40
0.0000000000
40
0.0589940038
40
0.1462146354
40
0.2485356216
40
0.3698389490
40
0.5105898589
40
0.6695976129
40
0.8453293930
40
1.0000000000
40
1.0000000000
40
1.0000000000
40
1.0000000000
10
2.8911541367
20
-2.3097209340
30
0.0000000000
10
2.8936237453
20
-2.3085316299
30
0.0000000000
10
2.8999409936
20
-2.3059744539
30
0.0000000000
10
2.9112096412
20
-2.3032911837
30
0.0000000000
10
2.9256387591
20
-2.3021071500
30
0.0000000000
10
2.9425732699
20
-2.3029740461
30
0.0000000000
10
2.9618818193
20
-2.3062435690
30
0.0000000000
10
2.9831845322
20
-2.3121456570
30
0.0000000000
10
3.0044621107
20
-2.3201793638
30
0.0000000000
10
3.0183882630
20
-2.3266346660
30
0.0000000000
10
3.0248106679
20
-2.3298459554
30
0.0000000000
11
2.8911541367
21
-2.3097209340
31
0.0000000000
11
2.8987722688
21
-2.3066274228
31
0.0000000000
11
2.9105682892
21
-2.3037346516
31
0.0000000000
11
2.9247602604
21
-2.3024691734
31
0.0000000000
11
2.9416346946
21
-2.3032301943
31
0.0000000000
11
2.9609748800
21
-2.3064089677
31
0.0000000000
11
2.9823351454
21
-2.3122403798
31
0.0000000000
11
3.0052537445
21
-2.3208169458
31
0.0000000000
11
3.0248106679
21
-2.3298459554
31
0.0000000000
0
SPLINE
5
2C8
100
AcDbEntity
8
0
100
AcDbSpline
62
7
6
CONTINUOUS
70
0
71
3
72
25
73
21
74
19
42
0.0000001000
43
0.0000001000
44
0.0000000001
12
0.7238478657
22
-0.3618945520
32
0.0000000000
13
-0.0010589623
23
-0.8092432408
33
0.0000000000
40
0.0000000000
40
0.0000000000
40
0.0000000000
40
0.0000000000
40
0.0329179716
40
0.0768570945
40
0.1248074700
40
0.1764177141
40
0.2313142051
40
0.2890969902
40
0.3493286039
40
0.4114750160
40
0.4749532192
40
0.5391599837
40
0.6034761888
40
0.6672804186
40
0.7299657120
40
0.7909709134
40
0.8497618604
40
0.9058141986
40
0.9586078518
40
1.0000000000
40
1.0000000000
40
1.0000000000
40
1.0000000000
10
8.9617055324
20
-5.2982933572
30
0.0000000000
10
8.9696480669
20
-5.3022643021
30
0.0000000000
10
8.9878585764
20
-5.3122173888
30
0.0000000000
10
9.0161689188
20
-5.3304886092
30
0.0000000000
10
9.0470813080
20
-5.3538368817
30
0.0000000000
10
9.0785361073
20
-5.3812015042
30
0.0000000000
10
9.1100244982
20
-5.4124229358
30
0.0000000000
10
9.1410634321
20
-5.4472712441
30
0.0000000000
10
9.1711848600
20
-5.4854389604
30
0.0000000000
10
9.1999368206
20
-5.5265373519
30
0.0000000000
10
9.2268935450
20
-5.5701004940
30
0.0000000000
10
9.2516724924
20
-5.6156053855
30
0.0000000000
10
9.2739434116
20
-5.6624862174
30
0.0000000000
10
9.2934346592
20
-5.7101462961
30
0.0000000000
10
9.3099410382
20
-5.7579771828
30
0.0000000000
10
9.3233260136
20
-5.8053707418
30
0.0000000000
10
9.3335214575
20
-5.8517216573
30
0.0000000000
10
9.3405290945
20
-5.8964215492
30
0.0000000000
10
9.3442407245
20
-5.9368016289
30
0.0000000000
10
9.3449890196
20
-5.9622147148
30
0.0000000000
10
9.3449744087
20
-5.9733801535
30
0.0000000000
11
8.9617055324
21
-5.2982933572
31
0.0000000000
11
8.9851047192
21
-5.3110283220
31
0.0000000000
11
9.0150192157
21
-5.3302440788
31
0.0000000000
11
9.0460210866
21
-5.3535753467
31
0.0000000000
11
9.0775671787
21
-5.3809412215
31
0.0000000000
11
9.1091461917
21
-5.4121819970
31
0.0000000000
11
9.1402753938
21
-5.4470695255
31
0.0000000000
11
9.1704944043
21
-5.4853082992
31
0.0000000000
11
9.1993404543
21
-5.5264996661
31
0.0000000000
11
9.2263814961
21
-5.5701706124
31
0.0000000000
11
9.2512330659
21
-5.6157960382
31
0.0000000000
11
9.2735621552
21
-5.6628056272
31
0.0000000000
11
9.2930946530
21
-5.7105970717
31
0.0000000000
11
9.3096223747
21
-5.7585522958
31
0.0000000000
11
9.3230109003
21
-5.8060659629
31
0.0000000000
11
9.3331933947
21
-5.8525356866
31
0.0000000000
11
9.3401717927
21
-5.8973518584
31
0.0000000000
11
9.3440264294
21
-5.9398969738
31
0.0000000000
11
9.3449744087
21
-5.9733801535
31
0.0000000000
0
SPLINE
5
2C9
100
AcDbEntity
8
0
100
AcDbSpline
62
7
6
CONTINUOUS
70
0
71
3
72
10
73
6
74
4
42
0.0000001000
43
0.0000001000
44
0.0000000001
12
-0.0004482321
22
-0.3470716602
32
0.0000000000
13
-0.0002234011
23
-0.3470718778
33
0.0000000000
40
0.0000000000
40
0.0000000000
40
0.0000000000
40
0.0000000000
40
0.3256243467
40
0.6726729727
40
1.0000000000
40
1.0000000000
40
1.0000000000
40
1.0000000000
10
9.3449743413
20
-5.9733821131
30
0.0000000000
10
9.3449256896
20
-6.0110537740
30
0.0000000000
10
9.3448333887
20
-6.0888756933
30
0.0000000000
10
9.3447213757
20
-6.2045662898
30
0.0000000000
10
9.3446628813
20
-6.2825852261
30
0.0000000000
10
9.3446385062
20
-6.3204538948
30
0.0000000000
11
9.3449743413
21
-5.9733821131
31
0.0000000000
11
9.3448403010
21
-6.0863971105
31
0.0000000000
11
9.3447236806
21
-6.2068478972
31
0.0000000000
11
9.3446385062
21
-6.3204538948
31
0.0000000000
0
SPLINE
5
2CA
100
AcDbEntity
8
0
100
AcDbSpline
62
7
6
CONTINUOUS
70
0
71
3
72
17
73
13
74
11
42
0.0000001000
43
0.0000001000
44
0.0000000001
12
-0.0001449819
22
-0.2530441406
32
0.0000000000
13
0.2263908834
23
-0.1131730146
33
0.0000000000
40
0.0000000000
40
0.0000000000
40
0.0000000000
40
0.0000000000
40
0.0799938053
40
0.1936316814
40
0.3054284082
40
0.4154958009
40
0.5238683247
40
0.6309406586
40
0.7370575994
40
0.8425089928
40
0.9475591435
40
1.0000000000
40
1.0000000000
40
1.0000000000
40
1.0000000000
10
9.3446385897
20
-6.3204671341
30
0.0000000000
10
9.3446347238
20
-6.3272144553
30
0.0000000000
10
9.3452771961
20
-6.3435537936
30
0.0000000000
10
9.3488392258
20
-6.3691136240
30
0.0000000000
10
9.3560643600
20
-6.3965311627
30
0.0000000000
10
9.3663697391
20
-6.4224675556
30
0.0000000000
10
9.3795440219
20
-6.4466179270
30
0.0000000000
10
9.3953528830
20
-6.4687230390
30
0.0000000000
10
9.4135584332
20
-6.4885661118
30
0.0000000000
10
9.4339077983
20
-6.5059435669
30
0.0000000000
10
9.4524303913
20
-6.5182165893
30
0.0000000000
10
9.4641372509
20
-6.5245196371
30
0.0000000000
10
9.4680946282
20
-6.5264979337
30
0.0000000000
11
9.3446385897
21
-6.3204671341
31
0.0000000000
11
9.3454413245
21
-6.3406917048
31
0.0000000000
11
9.3494262466
21
-6.3691551836
31
0.0000000000
11
9.3566463944
21
-6.3964932231
31
0.0000000000
11
9.3669365514
21
-6.4223595858
31
0.0000000000
11
9.3800703795
21
-6.4464173515
31
0.0000000000
11
9.3958285720
21
-6.4684408472
31
0.0000000000
11
9.4139762694
21
-6.4882142432
31
0.0000000000
11
9.4342596619
21
-6.5055319483
31
0.0000000000
11
9.4564089500
21
-6.5202059087
31
0.0000000000
11
9.4680946282
21
-6.5264979337
31
0.0000000000
0
SPLINE
5
2CB
100
AcDbEntity
8
0
100
AcDbSpline
62
7
6
CONTINUOUS
70
0
71
3
72
18
73
14
74
12
42
0.0000001000
43
0.0000001000
44
0.0000000001
12
-0.0002695819
22
-0.3972504211
32
0.0000000000
13
0.3551923001
23
-0.1776055968
33
0.0000000000
40
0.0000000000
40
0.0000000000
40
0.0000000000
40
0.0000000000
40
0.0500746944
40
0.1364079256
40
0.2232941927
40
0.3110851256
40
0.4006663604
40
0.4930178595
40
0.5887444430
40
0.6883139167
40
0.7924285358
40
0.9020906454
40
1.0000000000
40
1.0000000000
40
1.0000000000
40
1.0000000000
10
-17.5476423326
20
7.1873176484
30
0.0000000000
10
-17.5476468323
20
7.1806869172
30
0.0000000000
10
-17.5470823262
20
7.1626195219
30
0.0000000000
10
-17.5435877166
20
7.1332176381
30
0.0000000000
10
-17.5357607459
20
7.0995003452
30
0.0000000000
10
-17.5241571910
20
7.0664344988
30
0.0000000000
10
-17.5087113647
20
7.0341740536
30
0.0000000000
10
-17.4892969729
20
7.0028888735
30
0.0000000000
10
-17.4657933444
20
6.9728474960
30
0.0000000000
10
-17.4381226353
20
6.9443791418
30
0.0000000000
10
-17.4062017783
20
6.9177887700
30
0.0000000000
10
-17.3719314397
20
6.8947109771
30
0.0000000000
10
-17.3478222555
20
6.8814604420
30
0.0000000000
10
-17.3362300392
20
6.8756640255
30
0.0000000000
11
-17.5476423326
21
7.1873176484
31
0.0000000000
11
-17.5470207639
21
7.1674363088
31
0.0000000000
11
-17.5429794702
21
7.1333977477
31
0.0000000000
11
-17.5351861620
21
7.0997923702
31
0.0000000000
11
-17.5236554744
21
7.0668984314
31
0.0000000000
11
-17.5083117552
21
7.0348111023
31
0.0000000000
11
-17.4889984040
21
7.0036426641
31
0.0000000000
11
-17.4656049379
21
6.9736878777
31
0.0000000000
11
-17.4380825400
21
6.9453088383
31
0.0000000000
11
-17.4063571695
21
6.9188080497
31
0.0000000000
11
-17.3702801581
21
6.8944320594
31
0.0000000000
11
-17.3362300392
21
6.8756640255
31
0.0000000000
0
SPLINE
5
2CC
100
AcDbEntity
8
0
100
AcDbSpline
62
7
6
CONTINUOUS
70
0
71
3
72
19
73
15
74
13
42
0.0000001000
43
0.0000001000
44
0.0000000001
12
0.5247098096
22
-0.2623724097
32
0.0000000000
13
0.5304517631
23
0.2505755725
33
0.0000000000
40
0.0000000000
40
0.0000000000
40
0.0000000000
40
0.0000000000
40
0.0738242513
40
0.1593329060
40
0.2445735159
40
0.3297996494
40
0.4151061225
40
0.5004693995
40
0.5858158058
40
0.6710924734
40
0.7563025664
40
0.8415604033
40
0.9271341635
40
1.0000000000
40
1.0000000000
40
1.0000000000
40
1.0000000000
10
13.4358618449
20
-8.5103818738
30
0.0000000000
10
13.4487739479
20
-8.5168383561
30
0.0000000000
10
13.4772585301
20
-8.5295719152
30
0.0000000000
10
13.5224599710
20
-8.5453416627
30
0.0000000000
10
13.5709511379
20
-8.5579339094
30
0.0000000000
10
13.6201986501
20
-8.5668675053
30
0.0000000000
10
13.6699694987
20
-8.5723445467
30
0.0000000000
10
13.7200169351
20
-8.5744736196
30
0.0000000000
10
13.7700897425
20
-8.5732904818
30
0.0000000000
10
13.8199433780
20
-8.5687631699
30
0.0000000000
10
13.8693483790
20
-8.5607838115
30
0.0000000000
10
13.9180906490
20
-8.5491482341
30
0.0000000000
10
13.9634386579
20
-8.5343512128
30
0.0000000000
10
13.9920268075
20
-8.5222989038
30
0.0000000000
10
14.0049107447
20
-8.5162127709
30
0.0000000000
11
13.4358618449
21
-8.5103818738
31
0.0000000000
11
13.4753763781
21
-8.5281100135
31
0.0000000000
11
13.5227073209
21
-8.5447044044
31
0.0000000000
11
13.5710863059
21
-8.5573265746
31
0.0000000000
11
13.6202663575
21
-8.5662886545
31
0.0000000000
11
13.6700006197
21
-8.5717853039
31
0.0000000000
11
13.7200254353
21
-8.5739214883
31
0.0000000000
11
13.7700718109
21
-8.5727320021
31
0.0000000000
11
13.8198844033
21
-8.5681859724
31
0.0000000000
11
13.8692193616
21
-8.5601786228
31
0.0000000000
11
13.9178481696
21
-8.5485126491
31
0.0000000000
11
13.9655423647
21
-8.5328701473
31
0.0000000000
11
14.0049107447
21
-8.5162127709
31
0.0000000000
0
SPLINE
5
2CD
100
AcDbEntity
8
0
100
AcDbSpline
62
7
6
CONTINUOUS
70
0
71
3
72
10
73
6
74
4
42
0.0000001000
43
0.0000001000
44
0.0000000001
12
-0.1197133481
22
-7.9144082447
32
0.0000000000
13
-0.0050426719
23
-7.9153119972
33
0.0000000000
40
0.0000000000
40
0.0000000000
40
0.0000000000
40
0.0000000000
40
0.3339470449
40
0.6679352185
40
1.0000000000
40
1.0000000000
40
1.0000000000
40
1.0000000000
10
-17.4850496825
20
15.1023050010
30
0.0000000000
10
-17.4983756555
20
14.2213072526
30
0.0000000000
10
-17.5208139359
20
12.4591364114
30
0.0000000000
10
-17.5416901077
20
9.8207718991
30
0.0000000000
10
-17.5470845290
20
8.0634325831
30
0.0000000000
10
-17.5476426936
20
7.1873004669
30
0.0000000000
11
-17.4850496825
21
15.1023050010
31
0.0000000000
11
-17.5186892282
21
12.4592234875
31
0.0000000000
11
-17.5395904017
21
9.8156850098
31
0.0000000000
11
-17.5476426936
21
7.1873004669
31
0.0000000000
0
SPLINE
5
2CE
100
AcDbEntity
8
0
100
AcDbSpline
62
7
6
CONTINUOUS
70
0
71
3
72
13
73
9
74
7
42
0.0000001000
43
0.0000001000
44
0.0000000001
12
-1.1894789762
22
-10.4476872188
32
0.0000000000
13
-0.1590347274
23
-10.5139784318
33
0.0000000000
40
0.0000000000
40
0.0000000000
40
0.0000000000
40
0.0000000000
40
0.1694647935
40
0.3383620839
40
0.5059696708
40
0.6722525370
40
0.8371774015
40
1.0000000000
40
1.0000000000
40
1.0000000000
40
1.0000000000
10
-16.7978873344
20
25.5908952320
30
0.0000000000
10
-16.8650789374
20
25.0007235131
30
0.0000000000
10
-16.9900928573
20
23.8212935223
30
0.0000000000
10
-17.1490709404
20
22.0549071738
30
0.0000000000
10
-17.2787411668
20
20.2973047930
30
0.0000000000
10
-17.3788199077
20
18.5517135185
30
0.0000000000
10
-17.4491522236
20
16.8214594069
30
0.0000000000
10
-17.4764181997
20
15.6729427642
30
0.0000000000
10
-17.4850496822
20
15.1023050013
30
0.0000000000
11
-16.7978873344
21
25.5908952320
31
0.0000000000
11
-16.9856121024
21
23.8188581049
31
0.0000000000
11
-17.1447033000
21
22.0500127917
31
0.0000000000
11
-17.2742643585
21
20.2923576260
31
0.0000000000
11
-17.3742279787
21
18.5467233375
31
0.0000000000
11
-17.4445407178
21
16.8139347978
31
0.0000000000
11
-17.4850496822
21
15.1023050013
31
0.0000000000
0
SPLINE
5
2CF
100
AcDbEntity
8
0
100
AcDbSpline
62
7
6
CONTINUOUS
70
0
71
3
72
20
73
16
74
14
42
0.0000001000
43
0.0000001000
44
0.0000000001
12
-0.9607818818
22
-0.5602365594
32
0.0000000000
13
-0.1258041741
23
-1.1050250101
33
0.0000000000
40
0.0000000000
40
0.0000000000
40
0.0000000000
40
0.0000000000
40
0.0676353210
40
0.1440787246
40
0.2217104797
40
0.3000468951
40
0.3786265378
40
0.4573165225
40
0.5360318762
40
0.6147039557
40
0.6933187736
40
0.7718678688
40
0.8503554591
40
0.9288292055
40
1.0000000000
40
1.0000000000
40
1.0000000000
40
1.0000000000
10
-16.2276375757
20
26.5025563808
30
0.0000000000
10
-16.2492985060
20
26.4899257876
30
0.0000000000
10
-16.2943722715
20
26.4611426795
30
0.0000000000
10
-16.3598993874
20
26.4113865927
30
0.0000000000
10
-16.4241360849
20
26.3538372945
30
0.0000000000
10
-16.4842927150
20
26.2909489839
30
0.0000000000
10
-16.5399325971
20
26.2235309435
30
0.0000000000
10
-16.5907974355
20
26.1522755291
30
0.0000000000
10
-16.6367442174
20
26.0777181152
30
0.0000000000
10
-16.6776448091
20
26.0003112658
30
0.0000000000
10
-16.7133550567
20
25.9204448267
30
0.0000000000
10
-16.7436964004
20
25.8384599669
30
0.0000000000
10
-16.7684408935
20
25.7546653796
30
0.0000000000
10
-16.7867096926
20
25.6720259095
30
0.0000000000
10
-16.7949032420
20
25.6171065997
30
0.0000000000
10
-16.7978877697
20
25.5908914304
30
0.0000000000
11
-16.2276375757
21
26.5025563808
31
0.0000000000
11
-16.2910678227
21
26.4621197931
31
0.0000000000
11
-16.3588214631
21
26.4107734211
31
0.0000000000
11
-16.4231718812
21
26.3532193524
31
0.0000000000
11
-16.4834355605
21
26.2903094209
31
0.0000000000
11
-16.5390971974
21
26.2229421108
31
0.0000000000
11
-16.5899691293
21
26.1517376131
31
0.0000000000
11
-16.6359133045
21
26.0772251625
31
0.0000000000
11
-16.6767935069
21
25.9998729913
31
0.0000000000
11
-16.7124737456
21
25.9200586367
31
0.0000000000
11
-16.7427736337
21
25.8381284662
31
0.0000000000
11
-16.7674616533
21
25.7544075450
31
0.0000000000
11
-16.7862522839
21
25.6691848028
31
0.0000000000
11
-16.7978877697
21
25.5908914304
31
0.0000000000
0
SPLINE
5
2D0
100
AcDbEntity
8
0
100
AcDbSpline
62
7
6
CONTINUOUS
70
0
71
3
72
15
73
11
74
9
42
0.0000001000
43
0.0000001000
44
0.0000000001
12
0.2015138094
22
0.1175193846
32
0.0000000000
13
0.2083666466
23
-0.1041833233
33
0.0000000000
40
0.0000000000
40
0.0000000000
40
0.0000000000
40
0.0000000000
40
0.0435082239
40
0.1604779528
40
0.2814548628
40
0.4084530636
40
0.5430154369
40
0.6861580164
40
0.8384445041
40
1.0000000000
40
1.0000000000
40
1.0000000000
40
1.0000000000
10
-14.4344193124
20
27.5481654635
30
0.0000000000
10
-14.4314968098
20
27.5498698167
30
0.0000000000
10
-14.4205060239
20
27.5557935801
30
0.0000000000
10
-14.4000282094
20
27.5637473422
30
0.0000000000
10
-14.3721321423
20
27.5694117019
30
0.0000000000
10
-14.3423485518
20
27.5707388930
30
0.0000000000
10
-14.3109736999
20
27.5677570330
30
0.0000000000
10
-14.2782994286
20
27.5605257754
30
0.0000000000
10
-14.2446281980
20
27.5491355525
30
0.0000000000
10
-14.2223607466
20
27.5391356188
30
0.0000000000
10
-14.2111398209
20
27.5335251560
30
0.0000000000
11
-14.4344193124
21
27.5481654635
31
0.0000000000
11
-14.4254868841
21
27.5529797985
31
0.0000000000
11
-14.4001080381
21
27.5629016488
31
0.0000000000
11
-14.3725086655
21
27.5686069572
31
0.0000000000
11
-14.3429579779
21
27.5700443821
31
0.0000000000
11
-14.3117391278
21
27.5672041418
31
0.0000000000
11
-14.2791542523
21
27.5601172440
31
0.0000000000
11
-14.2455128956
21
27.5488538848
31
0.0000000000
11
-14.2111398209
21
27.5335251560
31
0.0000000000
0
SPLINE
5
2D1
100
AcDbEntity
8
0
100
AcDbSpline
62
7
6
CONTINUOUS
70
0
71
3
72
16
73
12
74
10
42
0.0000001000
43
0.0000001000
44
0.0000000001
12
-0.1944602515
22
-0.0340170428
32
0.0000000000
13
-0.1765716820
23
0.0882858410
33
0.0000000000
40
0.0000000000
40
0.0000000000
40
0.0000000000
40
0.0000000000
40
0.1164388781
40
0.2345135482
40
0.3522867219
40
0.4690523185
40
0.5840272642
40
0.6952293857
40
0.8020873800
40
0.9041392859
40
1.0000000000
40
1.0000000000
40
1.0000000000
40
1.0000000000
10
-5.4365472337
20
22.7854265323
30
0.0000000000
10
-5.4440948115
20
22.7841062302
30
0.0000000000
10
-5.4593859970
20
22.7819378573
30
0.0000000000
10
-5.4825103907
20
22.7801160735
30
0.0000000000
10
-5.5057254713
20
22.7797214098
30
0.0000000000
10
-5.5287166751
20
22.7807593280
30
0.0000000000
10
-5.5511656703
20
22.7832192382
30
0.0000000000
10
-5.5727582073
20
22.7870657874
30
0.0000000000
10
-5.5931982550
20
22.7922398340
30
0.0000000000
10
-5.6122166195
20
22.7986707079
30
0.0000000000
10
-5.6241658282
20
22.8039061319
30
0.0000000000
10
-5.6298079241
20
22.8067271798
30
0.0000000000
11
-5.4365472337
21
22.7854265323
31
0.0000000000
11
-5.4593046007
21
22.7821885686
31
0.0000000000
11
-5.4825417888
21
22.7803540428
31
0.0000000000
11
-5.5057884571
21
22.7799620954
31
0.0000000000
11
-5.5288156006
21
22.7810119447
31
0.0000000000
11
-5.5513761521
21
22.7835021224
31
0.0000000000
11
-5.5729841265
21
22.7873775738
31
0.0000000000
11
-5.5934258516
21
22.7925873887
31
0.0000000000
11
-5.6124963489
21
22.7990830069
31
0.0000000000
11
-5.6298079241
21
22.8067271798
31
0.0000000000
0
SPLINE
5
2D2
100
AcDbEntity
8
0
100
AcDbSpline
62
7
6
CONTINUOUS
70
0
71
3
72
14
73
10
74
8
42
0.0000001000
43
0.0000001000
44
0.0000000001
12
-0.0829535108
22
0.0414767554
32
0.0000000000
13
-0.0097307916
23
0.0924229243
33
0.0000000000
40
0.0000000000
40
0.0000000000
40
0.0000000000
40
0.0000000000
40
0.1908986761
40
0.3690133348
40
0.5333383563
40
0.6856937183
40
0.8287272597
40
0.9645992962
40
1.0000000000
40
1.0000000000
40
1.0000000000
40
1.0000000000
10
-8.6484891232
20
24.3160677794
30
0.0000000000
10
-8.6537676950
20
24.3187070652
30
0.0000000000
10
-8.6637395338
20
24.3242984576
30
0.0000000000
10
-8.6771501387
20
24.3339589683
30
0.0000000000
10
-8.6883126189
20
24.3444937936
30
0.0000000000
10
-8.6970601290
20
24.3557784852
30
0.0000000000
10
-8.7032394830
20
24.3676864739
30
0.0000000000
10
-8.7058868893
20
24.3771122966
30
0.0000000000
10
-8.7065949052
20
24.3823724663
30
0.0000000000
10
-8.7067097308
20
24.3834630784
30
0.0000000000
11
-8.6484891232
21
24.3160677794
31
0.0000000000
11
-8.6638994996
21
24.3247845822
31
0.0000000000
11
-8.6772574053
21
24.3345031656
31
0.0000000000
11
-8.6882815156
21
24.3450262684
31
0.0000000000
11
-8.6968682047
21
24.3562481487
31
0.0000000000
11
-8.7029089059
21
24.3680585973
31
0.0000000000
11
-8.7062708388
21
24.3802032862
31
0.0000000000
11
-8.7067097308
21
24.3834630784
31
0.0000000000
0
SPLINE
5
2D3
100
AcDbEntity
8
0
100
AcDbSpline
62
7
6
CONTINUOUS
70
0
71
3
72
16
73
12
74
10
42
0.0000001000
43
0.0000001000
44
0.0000000001
12
-0.1944602515
22
-0.0340170428
32
0.0000000000
13
-0.1765716820
23
0.0882858410
33
0.0000000000
40
0.0000000000
40
0.0000000000
40
0.0000000000
40
0.0000000000
40
0.1164388781
40
0.2345135482
40
0.3522867219
40
0.4690523185
40
0.5840272642
40
0.6952293857
40
0.8020873800
40
0.9041392859
40
1.0000000000
40
1.0000000000
40
1.0000000000
40
1.0000000000
10
10.4733553430
20
14.8304752440
30
0.0000000000
10
10.4658077652
20
14.8291549419
30
0.0000000000
10
10.4505165797
20
14.8269865689
30
0.0000000000
10
10.4273921860
20
14.8251647851
30
0.0000000000
10
10.4041771054
20
14.8247701214
30
0.0000000000
10
10.3811859016
20
14.8258080397
30
0.0000000000
10
10.3587369063
20
14.8282679499
30
0.0000000000
10
10.3371443694
20
14.8321144991
30
0.0000000000
10
10.3167043217
20
14.8372885457
30
0.0000000000
10
10.2976859572
20
14.8437194195
30
0.0000000000
10
10.2857367485
20
14.8489548435
30
0.0000000000
10
10.2800946526
20
14.8517758914
30
0.0000000000
11
10.4733553430
21
14.8304752440
31
0.0000000000
11
10.4505979760
21
14.8272372803
31
0.0000000000
11
10.4273607879
21
14.8254027544
31
0.0000000000
11
10.4041141196
21
14.8250108071
31
0.0000000000
11
10.3810869761
21
14.8260606563
31
0.0000000000
11
10.3585264246
21
14.8285508341
31
0.0000000000
11
10.3369184502
21
14.8324262855
31
0.0000000000
11
10.3164767251
21
14.8376361003
31
0.0000000000
11
10.2974062278
21
14.8441317186
31
0.0000000000
11
10.2800946526
21
14.8517758914
31
0.0000000000
0
SPLINE
5
2D4
100
AcDbEntity
8
0
100
AcDbSpline
62
7
6
CONTINUOUS
70
0
71
3
72
14
73
10
74
8
42
0.0000001000
43
0.0000001000
44
0.0000000001
12
-0.0829535108
22
0.0414767554
32
0.0000000000
13
-0.0097307916
23
0.0924229243
33
0.0000000000
40
0.0000000000
40
0.0000000000
40
0.0000000000
40
0.0000000000
40
0.1908986761
40
0.3690133348
40
0.5333383563
40
0.6856937183
40
0.8287272597
40
0.9645992962
40
1.0000000000
40
1.0000000000
40
1.0000000000
40
1.0000000000
10
7.2614134535
20
16.3611164910
30
0.0000000000
10
7.2561348817
20
16.3637557769
30
0.0000000000
10
7.2461630429
20
16.3693471693
30
0.0000000000
10
7.2327524380
20
16.3790076799
30
0.0000000000
10
7.2215899578
20
16.3895425053
30
0.0000000000
10
7.2128424477
20
16.4008271968
30
0.0000000000
10
7.2066630937
20
16.4127351856
30
0.0000000000
10
7.2040156874
20
16.4221610083
30
0.0000000000
10
7.2033076715
20
16.4274211779
30
0.0000000000
10
7.2031928459
20
16.4285117901
30
0.0000000000
11
7.2614134535
21
16.3611164910
31
0.0000000000
11
7.2460030771
21
16.3698332939
31
0.0000000000
11
7.2326451714
21
16.3795518772
31
0.0000000000
11
7.2216210611
21
16.3900749800
31
0.0000000000
11
7.2130343720
21
16.4012968604
31
0.0000000000
11
7.2069936708
21
16.4131073090
31
0.0000000000
11
7.2036317379
21
16.4252519979
31
0.0000000000
11
7.2031928459
21
16.4285117901
31
0.0000000000
0
SPLINE
5
2D5
100
AcDbEntity
8
0
100
AcDbSpline
62
7
6
CONTINUOUS
70
0
71
3
72
23
73
19
74
17
42
0.0000001000
43
0.0000001000
44
0.0000000001
12
0.6554446698
22
-0.3277223349
32
0.0000000000
13
0.0781724305
23
-0.7286279675
33
0.0000000000
40
0.0000000000
40
0.0000000000
40
0.0000000000
40
0.0000000000
40
0.0542551940
40
0.1112670750
40
0.1707988595
40
0.2325617894
40
0.2962076213
40
0.3613560026
40
0.4275867529
40
0.4944685964
40
0.5615433843
40
0.6283651506
40
0.6944722550
40
0.7594361804
40
0.8228312790
40
0.8842785234
40
0.9434313767
40
1.0000000000
40
1.0000000000
40
1.0000000000
40
1.0000000000
10
16.6623989873
20
12.0967557519
30
0.0000000000
10
16.6742527466
20
12.0908288722
30
0.0000000000
10
16.6980368013
20
12.0776008706
30
0.0000000000
10
16.7328580765
20
12.0545567696
30
0.0000000000
10
16.7674296032
20
12.0280091103
30
0.0000000000
10
16.8014211430
20
11.9982089634
30
0.0000000000
10
16.8345125323
20
11.9654347707
30
0.0000000000
10
16.8663872084
20
11.9299965513
30
0.0000000000
10
16.8967408196
20
11.8922290132
30
0.0000000000
10
16.9252804713
20
11.8524926874
30
0.0000000000
10
16.9517319880
20
11.8111655236
30
0.0000000000
10
16.9758385675
20
11.7686451211
30
0.0000000000
10
16.9973680504
20
11.7253377573
30
0.0000000000
10
17.0161111805
20
11.6816615532
30
0.0000000000
10
17.0318875028
20
11.6380349615
30
0.0000000000
10
17.0445445710
20
11.5948771035
30
0.0000000000
10
17.0539603950
20
11.5526042878
30
0.0000000000
10
17.0581155404
20
11.5246116378
30
0.0000000000
10
17.0595895760
20
11.5108724774
30
0.0000000000
11
16.6623989873
21
12.0967557519
31
0.0000000000
11
16.6971860700
21
12.0775044020
31
0.0000000000
11
16.7320658615
21
12.0545071871
31
0.0000000000
11
16.7667021688
21
12.0279834935
31
0.0000000000
11
16.8007666000
21
11.9981820932
31
0.0000000000
11
16.8339302629
21
11.9653874930
31
0.0000000000
11
16.8658762752
21
11.9299094922
31
0.0000000000
11
16.8962939874
21
11.8920893628
31
0.0000000000
11
16.9248916595
21
11.8522859147
31
0.0000000000
11
16.9513885186
21
11.8108861872
31
0.0000000000
11
16.9755304535
21
11.7682834319
31
0.0000000000
11
16.9970786097
21
11.7248957694
31
0.0000000000
11
17.0158262661
21
11.6811365028
31
0.0000000000
11
17.0315881620
21
11.6374355717
31
0.0000000000
11
17.0442126143
21
11.5942123742
31
0.0000000000
11
17.0535764628
21
11.5518880627
31
0.0000000000
11
17.0595895760
21
11.5108724774
31
0.0000000000
0
SPLINE
5
2D6
100
AcDbEntity
8
0
100
AcDbSpline
62
7
6
CONTINUOUS
70
0
71
3
72
16
73
12
74
10
42
0.0000001000
43
0.0000001000
44
0.0000000001
12
0.0000000000
22
-0.1598741521
32
0.0000000000
13
-0.1447547237
23
-0.0683714126
33
0.0000000000
40
0.0000000000
40
0.0000000000
40
0.0000000000
40
0.0000000000
40
0.1478185218
40
0.2889962092
40
0.4222995839
40
0.5477164472
40
0.6671210386
40
0.7810553146
40
0.8904195956
40
0.9978040950
40
1.0000000000
40
1.0000000000
40
1.0000000000
40
1.0000000000
10
17.8190873504
20
-6.6100872429
30
0.0000000000
10
17.8190873504
20
-6.6179646965
30
0.0000000000
10
17.8184026163
20
-6.6333777707
30
0.0000000000
10
17.8151477752
20
-6.6556872613
30
0.0000000000
10
17.8097178044
20
-6.6763469999
30
0.0000000000
10
17.8021758779
20
-6.6950965178
30
0.0000000000
10
17.7925876669
20
-6.7117188566
30
0.0000000000
10
17.7810436371
20
-6.7259777946
30
0.0000000000
10
17.7677088579
20
-6.7376392536
30
0.0000000000
10
17.7576279945
20
-6.7436438097
30
0.0000000000
10
17.7523452816
20
-6.7461511817
30
0.0000000000
10
17.7522393257
20
-6.7462012275
30
0.0000000000
11
17.8190873504
21
-6.6100872429
31
0.0000000000
11
17.8179832831
21
-6.6336937995
31
0.0000000000
11
17.8146607705
21
-6.6560185781
31
0.0000000000
11
17.8091733967
21
-6.6766117812
31
0.0000000000
11
17.8016203107
21
-6.6951856896
31
0.0000000000
11
17.7920162620
21
-6.7116835437
31
0.0000000000
11
17.7805037078
21
-6.7257992311
31
0.0000000000
11
17.7673134940
21
-6.7372764590
31
0.0000000000
11
17.7525569091
21
-6.7460504903
31
0.0000000000
11
17.7522393257
21
-6.7462012275
31
0.0000000000
0
SPLINE
5
2D7
100
AcDbEntity
8
0
100
AcDbSpline
62
9
6
CONTINUOUS
70
0
71
3
72
25
73
21
74
19
42
0.0000001000
43
0.0000001000
44
0.0000000001
12
0.9222024168
22
-0.4611100640
32
0.0000000000
13
-0.0013248355
23
-1.0310567557
33
0.0000000000
40
0.0000000000
40
0.0000000000
40
0.0000000000
40
0.0000000000
40
0.0473833702
40
0.0970521187
40
0.1487773452
40
0.2022911822
40
0.2572876739
40
0.3135441875
40
0.3709184663
40
0.4292128722
40
0.4881415500
40
0.5474025945
40
0.6066880787
40
0.6656956723
40
0.7242043302
40
0.7820349417
40
0.8389038000
40
0.8944235584
40
0.9482340938
40
1.0000000000
40
1.0000000000
40
1.0000000000
40
1.0000000000
10
8.9097244926
20
-5.1895977527
30
0.0000000000
10
8.9242901788
20
-5.1968807356
30
0.0000000000
10
8.9534895422
20
-5.2130956440
30
0.0000000000
10
8.9961484761
20
-5.2413700037
30
0.0000000000
10
9.0382992224
20
-5.2739669890
30
0.0000000000
10
9.0794951251
20
-5.3105739545
30
0.0000000000
10
9.1193550539
20
-5.3508489775
30
0.0000000000
10
9.1575713929
20
-5.3944632118
30
0.0000000000
10
9.1938891743
20
-5.4411131795
30
0.0000000000
10
9.2280578578
20
-5.4904788890
30
0.0000000000
10
9.2598161417
20
-5.5421901798
30
0.0000000000
10
9.2889086389
20
-5.5958340824
30
0.0000000000
10
9.3151049140
20
-5.6509801881
30
0.0000000000
10
9.3382122226
20
-5.7072111059
30
0.0000000000
10
9.3580733470
20
-5.7641404070
30
0.0000000000
10
9.3745443192
20
-5.8213784004
30
0.0000000000
10
9.3874818205
20
-5.8784659097
30
0.0000000000
10
9.3967645434
20
-5.9348635885
30
0.0000000000
10
9.4023241947
20
-5.9899862955
30
0.0000000000
10
9.4035758590
20
-6.0262832437
30
0.0000000000
10
9.4035529986
20
-6.0440744394
30
0.0000000000
11
8.9097244926
21
-5.1895977527
31
0.0000000000
11
8.9524750147
21
-5.2132452123
31
0.0000000000
11
8.9952029152
21
-5.2414751250
31
0.0000000000
11
9.0374310330
21
-5.2740489648
31
0.0000000000
11
9.0787133543
21
-5.3106569451
31
0.0000000000
11
9.1186346779
21
-5.3509272076
31
0.0000000000
11
9.1568894293
21
-5.3945277116
31
0.0000000000
11
9.1932524998
21
-5.4411879893
31
0.0000000000
11
9.2274771440
21
-5.4905972152
31
0.0000000000
11
9.2592854791
21
-5.5423646670
31
0.0000000000
11
9.2884192476
21
-5.5960733538
31
0.0000000000
11
9.3146454535
21
-5.6512880766
31
0.0000000000
11
9.3377610407
21
-5.7075659854
31
0.0000000000
11
9.3576153778
21
-5.7645309488
31
0.0000000000
11
9.3740791950
21
-5.8218396315
31
0.0000000000
11
9.3870044719
21
-5.8790323628
31
0.0000000000
11
9.3962583055
21
-5.9355235129
31
0.0000000000
11
9.4017733911
21
-5.9907304846
31
0.0000000000
11
9.4035529986
21
-6.0440744394
31
0.0000000000
0
SPLINE
5
2D8
100
AcDbEntity
8
0
100
AcDbSpline
62
9
6
CONTINUOUS
70
0
71
3
72
25
73
21
74
19
42
0.0000001000
43
0.0000001000
44
0.0000000001
12
0.0010180440
22
0.7683664289
32
0.0000000000
13
0.6872513341
23
-0.3436184064
33
0.0000000000
40
0.0000000000
40
0.0000000000
40
0.0000000000
40
0.0000000000
40
0.0670972212
40
0.1321148049
40
0.1947077570
40
0.2546769460
40
0.3119604348
40
0.3667376659
40
0.4193835195
40
0.4703262824
40
0.5200241233
40
0.5690119039
40
0.6178717079
40
0.6671960471
40
0.7176075678
40
0.7696991501
40
0.8238791277
40
0.8803256568
40
0.9390743103
40
1.0000000000
40
1.0000000000
40
1.0000000000
40
1.0000000000
10
2.4767352124
20
-2.5806655464
30
0.0000000000
10
2.4767579817
20
-2.5634804623
30
0.0000000000
10
2.4779753151
20
-2.5296294592
30
0.0000000000
10
2.4835636291
20
-2.4800236401
30
0.0000000000
10
2.4928967811
20
-2.4328335084
30
0.0000000000
10
2.5059137432
20
-2.3885765742
30
0.0000000000
10
2.5225023976
20
-2.3476727871
30
0.0000000000
10
2.5425302125
20
-2.3104434077
30
0.0000000000
10
2.5658654407
20
-2.2771435453
30
0.0000000000
10
2.5923607480
20
-2.2480195476
30
0.0000000000
10
2.6218236539
20
-2.2233219709
30
0.0000000000
10
2.6540103906
20
-2.2032785211
30
0.0000000000
10
2.6886392610
20
-2.1880675872
30
0.0000000000
10
2.7254168127
20
-2.1778048925
30
0.0000000000
10
2.7640637740
20
-2.1725528745
30
0.0000000000
10
2.8042988808
20
-2.1723441795
30
0.0000000000
10
2.8457881262
20
-2.1771766730
30
0.0000000000
10
2.8881314879
20
-2.1869815442
30
0.0000000000
10
2.9308788042
20
-2.2015973949
30
0.0000000000
10
2.9588812612
20
-2.2141762844
30
0.0000000000
10
2.9728383484
20
-2.2211546805
30
0.0000000000
11
2.4767352124
21
-2.5806655464
31
0.0000000000
11
2.4786585241
21
-2.5291461367
31
0.0000000000
11
2.4843306837
21
-2.4795118173
31
0.0000000000
11
2.4937505013
21
-2.4323489610
31
0.0000000000
11
2.5068457887
21
-2.3881705955
31
0.0000000000
11
2.5234810519
21
-2.3474205515
31
0.0000000000
11
2.5435087204
21
-2.3104019305
31
0.0000000000
11
2.5667986134
21
-2.2773278929
31
0.0000000000
11
2.5931963239
21
-2.2484260726
31
0.0000000000
11
2.6224950781
21
-2.2239359153
31
0.0000000000
11
2.6544588637
21
-2.2040580103
31
0.0000000000
11
2.6888267260
21
-2.1889493443
31
0.0000000000
11
2.7253195721
21
-2.1787208786
31
0.0000000000
11
2.7636918469
21
-2.1734355957
31
0.0000000000
11
2.8037162083
21
-2.1731392930
31
0.0000000000
11
2.8450780982
21
-2.1778573781
31
0.0000000000
11
2.8873545569
21
-2.1875425004
31
0.0000000000
11
2.9300987173
21
-2.2020547174
31
0.0000000000
11
2.9728383484
21
-2.2211546805
31
0.0000000000
0
SPLINE
5
2D9
100
AcDbEntity
8
0
100
AcDbSpline
62
9
6
CONTINUOUS
70
0
71
3
72
9
73
5
74
3
42
0.0000001000
43
0.0000001000
44
0.0000000001
12
0.0002273400
22
0.3470801220
32
0.0000000000
13
0.0004561388
23
0.3470798967
33
0.0000000000
40
0.0000000000
40
0.0000000000
40
0.0000000000
40
0.0000000000
40
0.4999612076
40
1.0000000000
40
1.0000000000
40
1.0000000000
40
1.0000000000
10
2.4763973109
20
-2.9277455729
30
0.0000000000
10
2.4764351980
20
-2.8699033740
30
0.0000000000
10
2.4765242676
20
-2.7542100070
30
0.0000000000
10
2.4766591834
20
-2.6385166838
30
0.0000000000
10
2.4767352124
20
-2.5806655464
30
0.0000000000
11
2.4763973109
21
-2.9277455729
31
0.0000000000
11
2.4765357205
21
-2.7542189940
31
0.0000000000
11
2.4767352124
21
-2.5806655464
31
0.0000000000
0
SPLINE
5
2DA
100
AcDbEntity
8
0
100
AcDbSpline
62
9
6
CONTINUOUS
70
0
71
3
72
14
73
10
74
8
42
0.0000001000
43
0.0000001000
44
0.0000000001
12
0.1148612423
22
0.0562377698
32
0.0000000000
13
0.0009063552
23
0.1276527188
33
0.0000000000
40
0.0000000000
40
0.0000000000
40
0.0000000000
40
0.0000000000
40
0.1024939360
40
0.2318410239
40
0.3670458009
40
0.5104318895
40
0.6634451515
40
0.8266822032
40
1.0000000000
40
1.0000000000
40
1.0000000000
40
1.0000000000
10
-13.1351939326
20
4.8753514315
30
0.0000000000
10
-13.1312697390
20
4.8772727749
30
0.0000000000
10
-13.1227667874
20
4.8823849277
30
0.0000000000
10
-13.1110712506
20
4.8928997780
30
0.0000000000
10
-13.1006097410
20
4.9068770205
30
0.0000000000
10
-13.0923042850
20
4.9233501032
30
0.0000000000
10
-13.0862655287
20
4.9420245189
30
0.0000000000
10
-13.0825716830
20
4.9625808987
30
0.0000000000
10
-13.0817280573
20
4.9769123501
30
0.0000000000
10
-13.0816756948
20
4.9842871794
30
0.0000000000
11
-13.1351939326
21
4.8753514315
31
0.0000000000
11
-13.1239696771
21
4.8820917269
31
0.0000000000
11
-13.1116512064
21
4.8930871305
31
0.0000000000
11
-13.1012396060
21
4.9068528692
31
0.0000000000
11
-13.0929130204
21
4.9231534064
31
0.0000000000
11
-13.0868139187
21
4.9417098352
31
0.0000000000
11
-13.0830466574
21
4.9622046500
31
0.0000000000
11
-13.0816756948
21
4.9842871794
31
0.0000000000
0
SPLINE
5
2DB
100
AcDbEntity
8
0
100
AcDbSpline
62
7
6
CONTINUOUS
70
0
71
3
72
10
73
6
74
4
42
0.0000001000
43
0.0000001000
44
0.0000000001
12
-0.0036527788
22
0.0346940421
32
0.0000000000
13
0.0154815252
23
0.0311833071
33
0.0000000000
40
0.0000000000
40
0.0000000000
40
0.0000000000
40
0.0000000000
40
0.2608861452
40
0.6227230904
40
1.0000000000
40
1.0000000000
40
1.0000000000
40
1.0000000000
10
-8.7067097308
20
24.3834630784
30
0.0000000000
10
-8.7070273840
20
24.3864801434
30
0.0000000000
10
-8.7072099046
20
24.3937434302
30
0.0000000000
10
-8.7052707921
20
24.4052731809
30
0.0000000000
10
-8.7021243478
20
24.4133200384
30
0.0000000000
10
-8.7001774071
20
24.4172416190
30
0.0000000000
11
-8.7067097308
21
24.3834630784
31
0.0000000000
11
-8.7069363423
21
24.3925513195
31
0.0000000000
11
-8.7048901346
21
24.4049813356
31
0.0000000000
11
-8.7001774071
21
24.4172416190
31
0.0000000000
0
SPLINE
5
2DC
100
AcDbEntity
8
0
100
AcDbSpline
62
9
6
CONTINUOUS
70
0
71
3
72
15
73
11
74
9
42
0.0000001000
43
0.0000001000
44
0.0000000001
12
-0.1416531206
22
0.0708059423
32
0.0000000000
13
-0.0000882115
23
0.1581072035
33
0.0000000000
40
0.0000000000
40
0.0000000000
40
0.0000000000
40
0.0000000000
40
0.0439145330
40
0.1614887277
40
0.2827393210
40
0.4098701957
40
0.5444878688
40
0.6875577944
40
0.8394456044
40
1.0000000000
40
1.0000000000
40
1.0000000000
40
1.0000000000
10
2.5415410993
20
-3.0632203808
30
0.0000000000
10
2.5394675558
20
-3.0621839108
30
0.0000000000
10
2.5319830292
20
-3.0580917155
30
0.0000000000
10
2.5199251713
20
-3.0491781467
30
0.0000000000
10
2.5067737929
20
-3.0349255250
30
0.0000000000
10
2.4958079648
20
-3.0178702865
30
0.0000000000
10
2.4871615951
20
-2.9982827278
30
0.0000000000
10
2.4809329280
20
-2.9764506578
30
0.0000000000
10
2.4771906317
20
-2.9526863789
30
0.0000000000
10
2.4763981771
20
-2.9362052477
30
0.0000000000
10
2.4763934561
20
-2.9277436456
30
0.0000000000
11
2.5415410993
21
-3.0632203808
31
0.0000000000
11
2.5354411285
21
-3.0598844192
31
0.0000000000
11
2.5204703158
21
-3.0488645301
31
0.0000000000
11
2.5074175324
21
-3.0348239970
31
0.0000000000
11
2.4964714006
21
-3.0179656262
31
0.0000000000
11
2.4877897456
21
-2.9985326985
31
0.0000000000
11
2.4814968713
21
-2.9768052562
31
0.0000000000
11
2.4776811740
21
-2.9530957734
31
0.0000000000
11
2.4763934561
21
-2.9277436456
31
0.0000000000
0
SPLINE
5
2DD
100
AcDbEntity
8
0
100
AcDbSpline
62
9
6
CONTINUOUS
70
0
71
3
72
15
73
11
74
9
42
0.0000001000
43
0.0000001000
44
0.0000000001
12
0.0964061692
22
0.0462879289
32
0.0000000000
13
-0.0216708255
23
0.1044646839
33
0.0000000000
40
0.0000000000
40
0.0000000000
40
0.0000000000
40
0.0000000000
40
0.0367963270
40
0.1459278017
40
0.2584423454
40
0.3794749911
40
0.5125795328
40
0.6600997774
40
0.8227903116
40
1.0000000000
40
1.0000000000
40
1.0000000000
40
1.0000000000
10
2.7320584278
20
-3.0671182359
30
0.0000000000
10
2.7332408921
20
-3.0665504940
30
0.0000000000
10
2.7378372311
20
-3.0641067076
30
0.0000000000
10
2.7451836925
20
-3.0584122979
30
0.0000000000
10
2.7526790468
20
-3.0486471441
30
0.0000000000
10
2.7580724357
20
-3.0366682051
30
0.0000000000
10
2.7613378927
20
-3.0226858457
30
0.0000000000
10
2.7624111152
20
-3.0069042337
30
0.0000000000
10
2.7613919527
20
-2.9895564304
30
0.0000000000
10
2.7592503382
20
-2.9776387064
30
0.0000000000
10
2.7579702448
20
-2.9714679884
30
0.0000000000
11
2.7320584278
21
-3.0671182359
31
0.0000000000
11
2.7355303679
21
-3.0652690164
31
0.0000000000
11
2.7447354096
21
-3.0581395659
31
0.0000000000
11
2.7521044586
21
-3.0486635928
31
0.0000000000
11
2.7575155842
21
-3.0369392265
31
0.0000000000
11
2.7608602612
21
-3.0231379680
31
0.0000000000
11
2.7620578708
21
-3.0074448447
31
0.0000000000
11
2.7610944931
21
-2.9901143466
31
0.0000000000
11
2.7579702448
21
-2.9714679884
31
0.0000000000
0
SPLINE
5
2DE
100
AcDbEntity
8
0
100
AcDbSpline
62
9
6
CONTINUOUS
70
0
71
3
72
15
73
11
74
9
42
0.0000001000
43
0.0000001000
44
0.0000000001
12
-0.1414838791
22
0.0707547871
32
0.0000000000
13
0.0001025823
23
0.1579786794
33
0.0000000000
40
0.0000000000
40
0.0000000000
40
0.0000000000
40
0.0000000000
40
0.1023524828
40
0.2127756299
40
0.3272586361
40
0.4473949177
40
0.5743068622
40
0.7086390265
40
0.8505946937
40
1.0000000000
40
1.0000000000
40
1.0000000000
40
1.0000000000
10
-13.3345919039
20
4.8748449799
30
0.0000000000
10
-13.3394189793
20
4.8772589559
30
0.0000000000
10
-13.3490183647
20
4.8831489347
30
0.0000000000
10
-13.3619746083
20
4.8946465532
30
0.0000000000
10
-13.3733777359
20
4.9088959070
30
0.0000000000
10
-13.3828599179
20
4.9254842870
30
0.0000000000
10
-13.3903213134
20
4.9441927683
30
0.0000000000
10
-13.3956859794
20
4.9647871207
30
0.0000000000
10
-13.3988996498
20
4.9870126579
30
0.0000000000
10
-13.3995702695
20
5.0023680452
30
0.0000000000
10
-13.3995651607
20
5.0102356629
30
0.0000000000
11
-13.3345919039
21
4.8748449799
31
0.0000000000
11
-13.3483822404
21
4.8832924000
31
0.0000000000
11
-13.3614592171
21
4.8948381132
31
0.0000000000
11
-13.3728098874
21
4.9089186411
31
0.0000000000
11
-13.3822929117
21
4.9253586455
31
0.0000000000
11
-13.3897902559
21
4.9439534752
31
0.0000000000
11
-13.3952086088
21
4.9644717283
31
0.0000000000
11
-13.3984804715
21
4.9866577420
31
0.0000000000
11
-13.3995651607
21
5.0102356629
31
0.0000000000
0
SPLINE
5
2DF
100
AcDbEntity
8
0
100
AcDbSpline
62
9
6
CONTINUOUS
70
0
71
3
72
15
73
11
74
9
42
0.0000001000
43
0.0000001000
44
0.0000000001
12
-0.1415072285
22
0.0707480569
32
0.0000000000
13
0.0001025597
23
0.1579503391
33
0.0000000000
40
0.0000000000
40
0.0000000000
40
0.0000000000
40
0.0000000000
40
0.0438379471
40
0.1613611348
40
0.2825755102
40
0.4096945576
40
0.5443285943
40
0.6874403355
40
0.8393867827
40
1.0000000000
40
1.0000000000
40
1.0000000000
40
1.0000000000
10
-6.4756629145
20
1.4453816312
30
0.0000000000
10
-6.4777307100
20
1.4464154477
30
0.0000000000
10
-6.4852015683
20
1.4505010458
30
0.0000000000
10
-6.4972384889
20
1.4594037681
30
0.0000000000
10
-6.5103663273
20
1.4736451204
30
0.0000000000
10
-6.5213092452
20
1.4906893175
30
0.0000000000
10
-6.5299337994
20
1.5102660150
30
0.0000000000
10
-6.5361412068
20
1.5320871649
30
0.0000000000
10
-6.5398612755
20
1.5558394456
30
0.0000000000
10
-6.5406348734
20
1.5723114697
30
0.0000000000
10
-6.5406293826
20
1.5807677738
30
0.0000000000
11
-6.4756629145
21
1.4453816312
31
0.0000000000
11
-6.4817459282
21
1.4487090397
31
0.0000000000
11
-6.4966927879
21
1.4597167683
31
0.0000000000
11
-6.5097220402
21
1.4737453953
31
0.0000000000
11
-6.5206455948
21
1.4905924174
31
0.0000000000
11
-6.5293057577
21
1.5100146446
31
0.0000000000
11
-6.5355775078
21
1.5317317107
31
0.0000000000
11
-6.5393703018
21
1.5554301202
31
0.0000000000
11
-6.5406293826
21
1.5807677738
31
0.0000000000
0
SPLINE
5
2E0
100
AcDbEntity
8
0
100
AcDbSpline
62
9
6
CONTINUOUS
70
0
71
3
72
15
73
11
74
9
42
0.0000001000
43
0.0000001000
44
0.0000000001
12
0.1446488985
22
0.0683491257
32
0.0000000000
13
0.0011534810
23
0.1597098968
33
0.0000000000
40
0.0000000000
40
0.0000000000
40
0.0000000000
40
0.0000000000
40
0.0509617686
40
0.1667611132
40
0.2865205193
40
0.4124595066
40
0.5461614365
40
0.6885409734
40
0.8398968584
40
1.0000000000
40
1.0000000000
40
1.0000000000
40
1.0000000000
10
14.0049102146
20
-8.5162116490
30
0.0000000000
10
14.0073674025
20
-8.5150505848
30
0.0000000000
10
14.0152399859
20
-8.5108960321
30
0.0000000000
10
14.0276373805
20
-8.5018407379
30
0.0000000000
10
14.0408150078
20
-8.4876669947
30
0.0000000000
10
14.0518404439
20
-8.4706338355
30
0.0000000000
10
14.0605795072
20
-8.4510135835
30
0.0000000000
10
14.0669314374
20
-8.4290966961
30
0.0000000000
10
14.0708231465
20
-8.4052000676
30
0.0000000000
10
14.0717235825
20
-8.3886096837
30
0.0000000000
10
14.0717851412
20
-8.3800863317
30
0.0000000000
11
14.0049102146
21
-8.5162116490
31
0.0000000000
11
14.0121177249
21
-8.5124071370
31
0.0000000000
11
14.0270780282
21
-8.5015330233
31
0.0000000000
11
14.0401582056
21
-8.4875773405
31
0.0000000000
11
14.0511675553
21
-8.4707435543
31
0.0000000000
11
14.0599455670
21
-8.4512770915
31
0.0000000000
11
14.0663642623
21
-8.4294617621
31
0.0000000000
11
14.0703300601
21
-8.4056156211
31
0.0000000000
11
14.0717851412
21
-8.3800863317
31
0.0000000000
0
SPLINE
5
2E1
100
AcDbEntity
8
0
100
AcDbSpline
62
9
6
CONTINUOUS
70
0
71
3
72
15
73
11
74
9
42
0.0000001000
43
0.0000001000
44
0.0000000001
12
-0.1414925702
22
0.0707574511
32
0.0000000000
13
0.0001025582
23
0.1579414550
33
0.0000000000
40
0.0000000000
40
0.0000000000
40
0.0000000000
40
0.0000000000
40
0.0437862681
40
0.1613161171
40
0.2825372939
40
0.4096633802
40
0.5443047492
40
0.6874241373
40
0.8393785408
40
1.0000000000
40
1.0000000000
40
1.0000000000
40
1.0000000000
10
13.4358622952
20
-8.5103809734
30
0.0000000000
10
13.4337971513
20
-8.5093482385
30
0.0000000000
10
13.4263290122
20
-8.5052636487
30
0.0000000000
10
13.4142944280
20
-8.4963625886
30
0.0000000000
10
13.4011666387
20
-8.4821211974
30
0.0000000000
10
13.3902237776
20
-8.4650769879
30
0.0000000000
10
13.3815992800
20
-8.4455003098
30
0.0000000000
10
13.3753919215
20
-8.4236792143
30
0.0000000000
10
13.3716718865
20
-8.3999270243
30
0.0000000000
10
13.3708982962
20
-8.3834550732
30
0.0000000000
10
13.3709037872
20
-8.3749988109
30
0.0000000000
11
13.4358622952
21
-8.5103809734
31
0.0000000000
11
13.4297869546
21
-8.5070573742
31
0.0000000000
11
13.4148401268
21
-8.4960495886
31
0.0000000000
11
13.4018109214
21
-8.4820209217
31
0.0000000000
11
13.3908874219
21
-8.4651738850
31
0.0000000000
11
13.3822273150
21
-8.4457516744
31
0.0000000000
11
13.3759556141
21
-8.4240346604
31
0.0000000000
11
13.3721628547
21
-8.4003363398
31
0.0000000000
11
13.3709037872
21
-8.3749988109
31
0.0000000000
0
SPLINE
5
2E2
100
AcDbEntity
8
0
100
AcDbSpline
62
9
6
CONTINUOUS
70
0
71
3
72
9
73
5
74
3
42
0.0000001000
43
0.0000001000
44
0.0000000001
12
-0.0003740124
22
-0.3054443813
32
0.0000000000
13
-0.0001983381
23
-0.3054445459
33
0.0000000000
40
0.0000000000
40
0.0000000000
40
0.0000000000
40
0.0000000000
40
0.5000359439
40
1.0000000000
40
1.0000000000
40
1.0000000000
40
1.0000000000
10
-6.5403431953
20
1.8862122472
30
0.0000000000
10
-6.5404055352
20
1.8353011907
30
0.0000000000
10
-6.5405155718
20
1.7334863785
30
0.0000000000
10
-6.5405963293
20
1.6316715388
30
0.0000000000
10
-6.5406293832
20
1.5807677741
30
0.0000000000
11
-6.5403431953
21
1.8862122472
31
0.0000000000
11
-6.5405082589
21
1.7334790524
31
0.0000000000
11
-6.5406293832
21
1.5807677741
31
0.0000000000
0
SPLINE
5
2E3
100
AcDbEntity
8
0
100
AcDbSpline
62
9
6
CONTINUOUS
70
0
71
3
72
25
73
21
74
19
42
0.0000001000
43
0.0000001000
44
0.0000000001
12
0.9222344021
22
-0.4611268859
32
0.0000000000
13
-0.0012564970
23
-1.0310929728
33
0.0000000000
40
0.0000000000
40
0.0000000000
40
0.0000000000
40
0.0000000000
40
0.0473556282
40
0.0970005128
40
0.1487128576
40
0.2022267765
40
0.2572299282
40
0.3134899862
40
0.3708631786
40
0.4291563034
40
0.4880855516
40
0.5473491046
40
0.6066386869
40
0.6656496107
40
0.7241558760
40
0.7819794843
40
0.8388467400
40
0.8943773494
40
0.9482094086
40
1.0000000000
40
1.0000000000
40
1.0000000000
40
1.0000000000
10
-7.0342281231
20
2.7407048969
30
0.0000000000
10
-7.0196704600
20
2.7334259125
30
0.0000000000
10
-6.9904852403
20
2.7172198103
30
0.0000000000
10
-6.9478415668
20
2.6889593996
30
0.0000000000
10
-6.9056966287
20
2.6563724951
30
0.0000000000
10
-6.8644976174
20
2.6197692948
30
0.0000000000
10
-6.8246304381
20
2.5794936638
30
0.0000000000
10
-6.7864072188
20
2.5358785863
30
0.0000000000
10
-6.7500841143
20
2.4892296317
30
0.0000000000
10
-6.7159102987
20
2.4398656753
30
0.0000000000
10
-6.6841458161
20
2.3881549767
30
0.0000000000
10
-6.6550459601
20
2.3345098294
30
0.0000000000
10
-6.6288418265
20
2.2793613086
30
0.0000000000
10
-6.6057273090
20
2.2231291816
30
0.0000000000
10
-6.5858600346
20
2.1662020074
30
0.0000000000
10
-6.5693827575
20
2.1089676084
30
0.0000000000
10
-6.5564372553
20
2.0518790275
30
0.0000000000
10
-6.5471451712
20
1.9954701266
30
0.0000000000
10
-6.5415769432
20
1.9403265861
30
0.0000000000
10
-6.5403215038
20
1.9040125521
30
0.0000000000
10
-6.5403431953
20
1.8862122472
30
0.0000000000
11
-7.0342281231
21
2.7407048969
31
0.0000000000
11
-6.9915005855
21
2.7170714446
31
0.0000000000
11
-6.9487899823
21
2.6888567332
31
0.0000000000
11
-6.9065681909
21
2.6562933787
31
0.0000000000
11
-6.8652811086
21
2.6196877261
31
0.0000000000
11
-6.8253501688
21
2.5794145292
31
0.0000000000
11
-6.7870881825
21
2.5358128075
31
0.0000000000
11
-6.7507207133
21
2.4891547499
31
0.0000000000
11
-6.7164913230
21
2.4397478564
31
0.0000000000
11
-6.6846767901
21
2.3879810238
31
0.0000000000
11
-6.6555355923
21
2.3342709889
31
0.0000000000
11
-6.6293011702
21
2.2790531195
31
0.0000000000
11
-6.6061777210
21
2.2227724235
31
0.0000000000
11
-6.5863173529
21
2.1658099362
31
0.0000000000
11
-6.5698481579
21
2.1085081380
31
0.0000000000
11
-6.5569154092
21
2.0513166832
31
0.0000000000
11
-6.5476521244
21
1.9948137116
31
0.0000000000
11
-6.5421282840
21
1.9395833573
31
0.0000000000
11
-6.5403431953
21
1.8862122472
31
0.0000000000
0
SPLINE
5
2E4
100
AcDbEntity
8
0
100
AcDbSpline
62
9
6
CONTINUOUS
70
0
71
3
72
9
73
5
74
3
42
0.0000001000
43
0.0000001000
44
0.0000000001
12
-0.0000020012
22
-0.0025277492
32
0.0000000000
13
0.0000501292
23
-0.0025272096
33
0.0000000000
40
0.0000000000
40
0.0000000000
40
0.0000000000
40
0.0000000000
40
0.8896518953
40
1.0000000000
40
1.0000000000
40
1.0000000000
40
1.0000000000
10
-17.5476424917
20
7.1873004730
30
0.0000000000
10
-17.5476430852
20
7.1865508673
30
0.0000000000
10
-17.5476360421
20
7.1857082867
30
0.0000000000
10
-17.5476202923
20
7.1848658640
30
0.0000000000
10
-17.5476184484
20
7.1847729064
30
0.0000000000
11
-17.5476424917
21
7.1873004730
31
0.0000000000
11
-17.5476236622
21
7.1850517854
31
0.0000000000
11
-17.5476184484
21
7.1847729064
31
0.0000000000
0
SPLINE
5
2E5
100
AcDbEntity
8
0
100
AcDbSpline
62
9
6
CONTINUOUS
70
0
71
3
72
15
73
11
74
9
42
0.0000001000
43
0.0000001000
44
0.0000000001
12
0.0047323389
22
-0.2385759237
32
0.0000000000
13
0.2131109978
23
-0.1065551769
33
0.0000000000
40
0.0000000000
40
0.0000000000
40
0.0000000000
40
0.0000000000
40
0.1005987636
40
0.2054981226
40
0.3159943174
40
0.4340103020
40
0.5608750624
40
0.6973633918
40
0.8437651008
40
1.0000000000
40
1.0000000000
40
1.0000000000
40
1.0000000000
10
-17.5476184484
20
7.1847729064
30
0.0000000000
10
-17.5474597593
20
7.1767727588
30
0.0000000000
10
-17.5455328921
20
7.1604629712
30
0.0000000000
10
-17.5379048711
20
7.1364061912
30
0.0000000000
10
-17.5255891463
20
7.1128301342
30
0.0000000000
10
-17.5087828680
20
7.0900346583
30
0.0000000000
10
-17.4876734413
20
7.0682061975
30
0.0000000000
10
-17.4624684121
20
7.0475223247
30
0.0000000000
10
-17.4334048248
20
7.0281571446
30
0.0000000000
10
-17.4122942126
20
7.0166001728
30
0.0000000000
10
-17.4011957542
20
7.0110509604
30
0.0000000000
11
-17.5476184484
21
7.1847729064
31
0.0000000000
11
-17.5448461789
21
7.1609636923
31
0.0000000000
11
-17.5373861289
21
7.1371091120
31
0.0000000000
11
-17.5253137602
21
7.1137127497
31
0.0000000000
11
-17.5087429045
21
7.0909951219
31
0.0000000000
11
-17.4878296105
21
7.0691700609
31
0.0000000000
11
-17.4627704944
21
7.0484428250
31
0.0000000000
11
-17.4338027716
21
7.0290094753
31
0.0000000000
11
-17.4011957542
21
7.0110509604
31
0.0000000000
0
SPLINE
5
2E6
100
AcDbEntity
8
0
100
AcDbSpline
62
9
6
CONTINUOUS
70
0
71
3
72
15
73
11
74
9
42
0.0000001000
43
0.0000001000
44
0.0000000001
12
-0.0035983299
22
-0.2413202102
32
0.0000000000
13
0.2154941241
23
-0.1076581907
33
0.0000000000
40
0.0000000000
40
0.0000000000
40
0.0000000000
40
0.0000000000
40
0.0689056520
40
0.1761340286
40
0.2889199381
40
0.4098380416
40
0.5406748498
40
0.6824675769
40
0.8356153513
40
1.0000000000
40
1.0000000000
40
1.0000000000
40
1.0000000000
10
-17.4850476425
20
15.1023049706
30
0.0000000000
10
-17.4851302909
20
15.0967621951
30
0.0000000000
10
-17.4843572798
20
15.0825778545
30
0.0000000000
10
-17.4790186978
20
15.0598340522
30
0.0000000000
10
-17.4676373965
20
15.0347665437
30
0.0000000000
10
-17.4510855339
20
15.0104748120
30
0.0000000000
10
-17.4295899416
20
14.9871804998
30
0.0000000000
10
-17.4033961211
20
14.9650915383
30
0.0000000000
10
-17.3727849793
20
14.9444149933
30
0.0000000000
10
-17.3504044151
20
14.9321244406
30
0.0000000000
10
-17.3385964398
20
14.9262253226
30
0.0000000000
11
-17.4850476425
21
15.1023049706
31
0.0000000000
11
-17.4841456778
21
15.0857128718
31
0.0000000000
11
-17.4783424468
21
15.0605429666
31
0.0000000000
11
-17.4672545170
21
15.0357394912
31
0.0000000000
11
-17.4510006884
21
15.0115681985
31
0.0000000000
11
-17.4297551101
21
14.9882880683
31
0.0000000000
11
-17.4037454149
21
14.9661485322
31
0.0000000000
11
-17.3732502796
21
14.9453868008
31
0.0000000000
11
-17.3385964398
21
14.9262253226
31
0.0000000000
0
SPLINE
5
2E7
100
AcDbEntity
8
0
100
AcDbSpline
62
9
6
CONTINUOUS
70
0
71
3
72
25
73
21
74
19
42
0.0000001000
43
0.0000001000
44
0.0000000001
12
0.0009496274
22
0.7683537187
32
0.0000000000
13
0.6872396065
23
-0.3436132449
33
0.0000000000
40
0.0000000000
40
0.0000000000
40
0.0000000000
40
0.0000000000
40
0.0670640572
40
0.1320577649
40
0.1946426946
40
0.2546185683
40
0.3119138488
40
0.3666977321
40
0.4193444758
40
0.4702868382
40
0.5199847719
40
0.5689732329
40
0.6178341776
40
0.6671584314
40
0.7175645711
40
0.7696461040
40
0.8238205072
40
0.8802744209
40
0.9390445116
40
1.0000000000
40
1.0000000000
40
1.0000000000
40
1.0000000000
10
-13.3992789728
20
5.3156801360
30
0.0000000000
10
-13.3992577442
20
5.3328564419
30
0.0000000000
10
-13.3980445830
20
5.3666923581
30
0.0000000000
10
-13.3924653790
20
5.4162815356
30
0.0000000000
10
-13.3831417556
20
5.4634661118
30
0.0000000000
10
-13.3701324336
20
5.5077272850
30
0.0000000000
10
-13.3535489522
20
5.5486393557
30
0.0000000000
10
-13.3335253966
20
5.5858758762
30
0.0000000000
10
-13.3101949763
20
5.6191805179
30
0.0000000000
10
-13.2837048017
20
5.6483084994
30
0.0000000000
10
-13.2542463023
20
5.6730104998
30
0.0000000000
10
-13.2220627311
20
5.6930588088
30
0.0000000000
10
-13.1874361008
20
5.7082744626
30
0.0000000000
10
-13.1506614519
20
5.7185411622
30
0.0000000000
10
-13.1120196751
20
5.7237969285
30
0.0000000000
10
-13.0717906718
20
5.7240102620
30
0.0000000000
10
-13.0303036432
20
5.7191829588
30
0.0000000000
10
-12.9879541656
20
5.7093810657
30
0.0000000000
10
-12.9451923505
20
5.6947632833
30
0.0000000000
10
-12.9171780823
20
5.6821797433
30
0.0000000000
10
-12.9032144070
20
5.6751980389
30
0.0000000000
11
-13.3992789728
21
5.3156801360
31
0.0000000000
11
-13.3973622133
21
5.3671734312
31
0.0000000000
11
-13.3916994355
21
5.4167895201
31
0.0000000000
11
-13.3822891418
21
5.4639471752
31
0.0000000000
11
-13.3692007569
21
5.5081321425
31
0.0000000000
11
-13.3525696133
21
5.5488928617
31
0.0000000000
11
-13.3325460622
21
5.5859187239
31
0.0000000000
11
-13.3092615801
21
5.6189965834
31
0.0000000000
11
-13.2828692531
21
5.6479020204
31
0.0000000000
11
-13.2535748756
21
5.6723965326
31
0.0000000000
11
-13.2216142034
21
5.6922792459
31
0.0000000000
11
-13.1872481906
21
5.7073927419
31
0.0000000000
11
-13.1507572572
21
5.7176254493
31
0.0000000000
11
-13.1123903144
21
5.7229144121
31
0.0000000000
11
-13.0723743754
21
5.7232152850
31
0.0000000000
11
-13.0310168779
21
5.7185026062
31
0.0000000000
11
-12.9887346234
21
5.7088206103
31
0.0000000000
11
-12.9459746332
21
5.6943061227
31
0.0000000000
11
-12.9032144070
21
5.6751980389
31
0.0000000000
0
SPLINE
5
2E8
100
AcDbEntity
8
0
100
AcDbSpline
62
9
6
CONTINUOUS
70
0
71
3
72
13
73
9
74
7
42
0.0000001000
43
0.0000001000
44
0.0000000001
12
-0.0862455882
22
0.0431227941
32
0.0000000000
13
0.0001208925
23
0.0966716159
33
0.0000000000
40
0.0000000000
40
0.0000000000
40
0.0000000000
40
0.0000000000
40
0.2059082063
40
0.3941287060
40
0.5649337264
40
0.7200675057
40
0.8630760806
40
1.0000000000
40
1.0000000000
40
1.0000000000
40
1.0000000000
10
-6.5403431953
20
1.8862122472
30
0.0000000000
10
-6.5462627535
20
1.8891720263
30
0.0000000000
10
-6.5573253264
20
1.8954076714
30
0.0000000000
10
-6.5719780292
20
1.9062207163
30
0.0000000000
10
-6.5837359686
20
1.9179377999
30
0.0000000000
10
-6.5923822288
20
1.9304051395
30
0.0000000000
10
-6.5977156111
20
1.9434737892
30
0.0000000000
10
-6.5989273652
20
1.9524956123
30
0.0000000000
10
-6.5989218475
20
1.9569078312
30
0.0000000000
11
-6.5403431953
21
1.8862122472
31
0.0000000000
11
-6.5575925085
21
1.8960445582
31
0.0000000000
11
-6.5721269253
21
1.9069140663
31
0.0000000000
11
-6.5836977577
21
1.9186347914
31
0.0000000000
11
-6.5921070257
21
1.9310061886
31
0.0000000000
11
-6.5972108443
21
1.9438165798
31
0.0000000000
11
-6.5989218475
21
1.9569078312
31
0.0000000000
0
SPLINE
5
2E9
100
AcDbEntity
8
0
100
AcDbSpline
62
9
6
CONTINUOUS
70
0
71
3
72
14
73
10
74
8
42
0.0000001000
43
0.0000001000
44
0.0000000001
12
-0.0768445576
22
0.0384149938
32
0.0000000000
13
-0.0000254765
23
0.0863422326
33
0.0000000000
40
0.0000000000
40
0.0000000000
40
0.0000000000
40
0.0000000000
40
0.2080999127
40
0.3961210549
40
0.5634811781
40
0.7090919156
40
0.8344259795
40
0.9427133445
40
1.0000000000
40
1.0000000000
40
1.0000000000
40
1.0000000000
10
-6.5406293832
20
1.5807677741
30
0.0000000000
10
-6.5459598318
20
1.5834324931
30
0.0000000000
10
-6.5559573273
20
1.5888157274
30
0.0000000000
10
-6.5695368800
20
1.5975694321
30
0.0000000000
10
-6.5807941507
20
1.6065112517
30
0.0000000000
10
-6.5895800814
20
1.6155378738
30
0.0000000000
10
-6.5957485432
20
1.6245632425
30
0.0000000000
10
-6.5987303016
20
1.6324581039
30
0.0000000000
10
-6.5992114845
20
1.6372288984
30
0.0000000000
10
-6.5992119710
20
1.6388776509
30
0.0000000000
11
-6.5406293832
21
1.5807677741
31
0.0000000000
11
-6.5563395545
21
1.5893012495
31
0.0000000000
11
-6.5698727087
21
1.5981205086
31
0.0000000000
11
-6.5810658582
21
1.6071452081
31
0.0000000000
11
-6.5896907649
21
1.6162062374
31
0.0000000000
11
-6.5956213166
21
1.6251934929
31
0.0000000000
11
-6.5987329619
21
1.6339608203
31
0.0000000000
11
-6.5992119710
21
1.6388776509
31
0.0000000000
0
SPLINE
5
2EA
100
AcDbEntity
8
0
100
AcDbSpline
62
9
6
CONTINUOUS
70
0
71
3
72
14
73
10
74
8
42
0.0000001000
43
0.0000001000
44
0.0000000001
12
-0.0002997912
22
-0.1267082832
32
0.0000000000
13
0.1135299231
23
-0.0568012817
33
0.0000000000
40
0.0000000000
40
0.0000000000
40
0.0000000000
40
0.0000000000
40
0.1744450385
40
0.3385776216
40
0.4922568429
40
0.6361029435
40
0.7716123711
40
0.9011882535
40
1.0000000000
40
1.0000000000
40
1.0000000000
40
1.0000000000
10
-7.0342281231
20
2.7407048969
30
0.0000000000
10
-7.0342455555
20
2.7333370198
30
0.0000000000
10
-7.0335394650
20
2.7190190377
30
0.0000000000
10
-7.0300454076
20
2.6984692316
30
0.0000000000
10
-7.0241912636
20
2.6797983236
30
0.0000000000
10
-7.0160516995
20
2.6633263319
30
0.0000000000
10
-7.0057337852
20
2.6493489523
30
0.0000000000
10
-6.9942718308
20
2.6389461361
30
0.0000000000
10
-6.9859891504
20
2.6338988091
30
0.0000000000
10
-6.9822497871
20
2.6320279312
30
0.0000000000
11
-7.0342281231
21
2.7407048969
31
0.0000000000
11
-7.0330674327
21
2.7186316994
31
0.0000000000
11
-7.0294979918
21
2.6981432888
31
0.0000000000
11
-7.0235811008
21
2.6795915216
31
0.0000000000
11
-7.0154183735
21
2.6632949953
31
0.0000000000
11
-7.0051499926
21
2.6495335769
31
0.0000000000
11
-6.9929523020
21
2.6385435968
31
0.0000000000
11
-6.9822497871
21
2.6320279312
31
0.0000000000
0
SPLINE
5
2EB
100
AcDbEntity
8
0
100
AcDbSpline
62
9
6
CONTINUOUS
70
0
71
3
72
10
73
6
74
4
42
0.0000001000
43
0.0000001000
44
0.0000000001
12
0.0002235426
22
0.3899115553
32
0.0000000000
13
0.0005124303
23
0.3899112827
33
0.0000000000
40
0.0000000000
40
0.0000000000
40
0.0000000000
40
0.0000000000
40
0.3332928913
40
0.6666262196
40
1.0000000000
40
1.0000000000
40
1.0000000000
40
1.0000000000
10
2.7579702285
20
-2.9714679962
30
0.0000000000
10
2.7579950636
20
-2.9281497464
30
0.0000000000
10
2.7580554401
20
-2.8415079967
30
0.0000000000
10
2.7581781130
20
-2.7115375136
30
0.0000000000
10
2.7582812976
20
-2.6248852912
30
0.0000000000
10
2.7583382413
20
-2.5815565584
30
0.0000000000
11
2.7579702285
21
-2.9714679962
31
0.0000000000
11
2.7580607859
21
-2.8415132568
31
0.0000000000
11
2.7581834568
21
-2.7115427769
31
0.0000000000
11
2.7583382413
21
-2.5815565584
31
0.0000000000
0
SPLINE
5
2EC
100
AcDbEntity
8
0
100
AcDbSpline
62
9
6
CONTINUOUS
70
0
71
3
72
19
73
15
74
13
42
0.0000001000
43
0.0000001000
44
0.0000000001
12
0.2604459021
22
-0.1302229510
32
0.0000000000
13
0.2606372255
23
0.1298395994
33
0.0000000000
40
0.0000000000
40
0.0000000000
40
0.0000000000
40
0.0000000000
40
0.0737593627
40
0.1525273196
40
0.2355277283
40
0.3218284492
40
0.4103866402
40
0.5000882755
40
0.5897845093
40
0.6783266589
40
0.7646011937
40
0.8475661189
40
0.9262905345
40
1.0000000000
40
1.0000000000
40
1.0000000000
40
1.0000000000
10
-13.3992789728
20
5.3156801360
30
0.0000000000
10
-13.3928755316
20
5.3124784153
30
0.0000000000
10
-13.3792715537
20
5.3065679019
30
0.0000000000
10
-13.3575491039
20
5.2993643672
30
0.0000000000
10
-13.3341405758
20
5.2936244774
30
0.0000000000
10
-13.3094425204
20
5.2894465130
30
0.0000000000
10
-13.2838708052
20
5.2869010450
30
0.0000000000
10
-13.2578584227
20
5.2860316429
30
0.0000000000
10
-13.2318460374
20
5.2868531248
30
0.0000000000
10
-13.2062743111
20
5.2893514816
30
0.0000000000
10
-13.1815762303
20
5.2934839394
30
0.0000000000
10
-13.1581676463
20
5.2991806966
30
0.0000000000
10
-13.1364451002
20
5.3063442067
30
0.0000000000
10
-13.1228402298
20
5.3122300089
30
0.0000000000
10
-13.1164364196
20
5.3154201448
30
0.0000000000
11
-13.3992789728
21
5.3156801360
31
0.0000000000
11
-13.3796098965
21
5.3070532530
31
0.0000000000
11
-13.3578576079
21
5.2997794106
31
0.0000000000
11
-13.3343942953
21
5.2939830661
31
0.0000000000
11
-13.3096214230
21
5.2897633960
31
0.0000000000
11
-13.2839628619
21
5.2871925999
31
0.0000000000
11
-13.2578576372
21
5.2863146644
31
0.0000000000
11
-13.2317524163
21
5.2871446109
31
0.0000000000
11
-13.2060938667
21
5.2896682386
31
0.0000000000
11
-13.1813210127
21
5.2938423672
31
0.0000000000
11
-13.1578577243
21
5.2995955761
31
0.0000000000
11
-13.1361054643
21
5.3068294264
31
0.0000000000
11
-13.1164364196
21
5.3154201448
31
0.0000000000
0
SPLINE
5
2ED
100
AcDbEntity
8
0
100
AcDbSpline
62
9
6
CONTINUOUS
70
0
71
3
72
19
73
15
74
13
42
0.0000001000
43
0.0000001000
44
0.0000000001
12
0.2604584879
22
-0.1302292440
32
0.0000000000
13
0.2605599573
23
0.1300261073
33
0.0000000000
40
0.0000000000
40
0.0000000000
40
0.0000000000
40
0.0000000000
40
0.0737543332
40
0.1525150748
40
0.2355072405
40
0.3217997278
40
0.4103506267
40
0.5000467525
40
0.5897400178
40
0.6782824215
40
0.7645610407
40
0.8475344140
40
0.9262720948
40
1.0000000000
40
1.0000000000
40
1.0000000000
40
1.0000000000
10
-13.3995651607
20
5.0102356629
30
0.0000000000
10
-13.3931618467
20
5.0070340059
30
0.0000000000
10
-13.3795579851
20
5.0011242885
30
0.0000000000
10
-13.3578353876
20
4.9939238576
30
0.0000000000
10
-13.3344267261
20
4.9881890960
30
0.0000000000
10
-13.3097285515
20
4.9840181914
30
0.0000000000
10
-13.2841567246
20
4.9814815895
30
0.0000000000
10
-13.2581442339
20
4.9806227080
30
0.0000000000
10
-13.2321317401
20
4.9814561866
30
0.0000000000
10
-13.2065599030
20
4.9839678147
30
0.0000000000
10
-13.1818617079
20
4.9881145967
30
0.0000000000
10
-13.1584530077
20
4.9938264950
30
0.0000000000
10
-13.1367303485
20
5.0010057113
30
0.0000000000
10
-13.1231260063
20
5.0069023320
30
0.0000000000
10
-13.1167224930
20
5.0100978495
30
0.0000000000
11
-13.3995651607
21
5.0102356629
31
0.0000000000
11
-13.3798960907
21
5.0016098280
31
0.0000000000
11
-13.3581438060
21
4.9943391048
31
0.0000000000
11
-13.3346804944
21
4.9885478973
31
0.0000000000
11
-13.3099076195
21
4.9843352949
31
0.0000000000
11
-13.2842490522
21
4.9817733762
31
0.0000000000
11
-13.2581438176
21
4.9809059764
31
0.0000000000
11
-13.2320385836
21
4.9817479370
31
0.0000000000
11
-13.2063800179
21
4.9842848517
31
0.0000000000
11
-13.1816071457
21
4.9884733133
31
0.0000000000
11
-13.1581438377
21
4.9942416560
31
0.0000000000
11
-13.1363915576
21
5.0014911818
31
0.0000000000
11
-13.1167224930
21
5.0100978495
31
0.0000000000
0
SPLINE
5
2EE
100
AcDbEntity
8
0
100
AcDbSpline
62
9
6
CONTINUOUS
70
0
71
3
72
18
73
14
74
12
42
0.0000001000
43
0.0000001000
44
0.0000000001
12
0.0005436679
22
0.3163166884
32
0.0000000000
13
0.2831102020
23
0.1416745453
33
0.0000000000
40
0.0000000000
40
0.0000000000
40
0.0000000000
40
0.0000000000
40
0.1163958704
40
0.2291479859
40
0.3377291099
40
0.4417928885
40
0.5412157986
40
0.6362914761
40
0.7276686116
40
0.8160967838
40
0.9023724609
40
0.9874209762
40
1.0000000000
40
1.0000000000
40
1.0000000000
40
1.0000000000
10
-13.1164364196
20
5.3154201448
30
0.0000000000
10
-13.1164153260
20
5.3276927969
30
0.0000000000
10
-13.1155355172
20
5.3518632097
30
0.0000000000
10
-13.1115282734
20
5.3872832269
30
0.0000000000
10
-13.1048459807
20
5.4209800948
30
0.0000000000
10
-13.0955305395
20
5.4525894996
30
0.0000000000
10
-13.0836618755
20
5.4818074197
30
0.0000000000
10
-13.0693361949
20
5.5084007176
30
0.0000000000
10
-13.0526490156
20
5.5321863164
30
0.0000000000
10
-13.0337057844
20
5.5529894485
30
0.0000000000
10
-13.0126435597
20
5.5706321162
30
0.0000000000
10
-12.9961256291
20
5.5809128185
30
0.0000000000
10
-12.9869612852
20
5.5856206218
30
0.0000000000
10
-12.9857742019
20
5.5862146642
30
0.0000000000
11
-13.1164364196
21
5.3154201448
31
0.0000000000
11
-13.1150470159
21
5.3522119301
31
0.0000000000
11
-13.1109807602
21
5.3876448012
31
0.0000000000
11
-13.1042367601
21
5.4213222586
31
0.0000000000
11
-13.0948650351
21
5.4528771330
31
0.0000000000
11
-13.0829625978
21
5.4819869666
31
0.0000000000
11
-13.0686371836
21
5.5084299631
31
0.0000000000
11
-13.0519830195
21
5.5320538711
31
0.0000000000
11
-13.0331097727
21
5.5526984069
31
0.0000000000
11
-13.0121646410
21
5.5701933086
31
0.0000000000
11
-12.9893163160
21
5.5843949997
31
0.0000000000
11
-12.9857742019
21
5.5862146642
31
0.0000000000
0
SPLINE
5
2EF
100
AcDbEntity
8
0
100
AcDbSpline
62
9
6
CONTINUOUS
70
0
71
3
72
9
73
5
74
3
42
0.0000001000
43
0.0000001000
44
0.0000000001
12
0.0001983381
22
0.3054445459
32
0.0000000000
13
0.0003740124
23
0.3054443813
33
0.0000000000
40
0.0000000000
40
0.0000000000
40
0.0000000000
40
0.0000000000
40
0.4999640561
40
1.0000000000
40
1.0000000000
40
1.0000000000
40
1.0000000000
10
-13.3995651607
20
5.0102356629
30
0.0000000000
10
-13.3995321068
20
5.0611394276
30
0.0000000000
10
-13.3994513493
20
5.1629542672
30
0.0000000000
10
-13.3993413127
20
5.2647690795
30
0.0000000000
10
-13.3992789728
20
5.3156801360
30
0.0000000000
11
-13.3995651607
21
5.0102356629
31
0.0000000000
11
-13.3994440364
21
5.1629469411
31
0.0000000000
11
-13.3992789728
21
5.3156801360
31
0.0000000000
0
SPLINE
5
2F0
100
AcDbEntity
8
0
100
AcDbSpline
62
9
6
CONTINUOUS
70
0
71
3
72
16
73
12
74
10
42
0.0000001000
43
0.0000001000
44
0.0000000001
12
-0.0267341452
22
-0.2341392715
32
0.0000000000
13
0.2105563097
23
-0.1045329978
33
0.0000000000
40
0.0000000000
40
0.0000000000
40
0.0000000000
40
0.0000000000
40
0.0070868006
40
0.0963189944
40
0.1906352392
40
0.2938432345
40
0.4085441687
40
0.5362223758
40
0.6774798514
40
0.8322571808
40
1.0000000000
40
1.0000000000
40
1.0000000000
40
1.0000000000
10
-16.7978873798
20
25.5908913859
30
0.0000000000
10
-16.7979505330
20
25.5903382865
30
0.0000000000
10
-16.7987300307
20
25.5828121305
30
0.0000000000
10
-16.7981304379
20
25.5677197416
30
0.0000000000
10
-16.7917380034
20
25.5459745582
30
0.0000000000
10
-16.7800501053
20
25.5243175910
30
0.0000000000
10
-16.7632915124
20
25.5029155522
30
0.0000000000
10
-16.7416671753
20
25.4819268377
30
0.0000000000
10
-16.7154004728
20
25.4615290889
30
0.0000000000
10
-16.6847584997
20
25.4419157511
30
0.0000000000
10
-16.6624701506
20
25.4299502924
30
0.0000000000
10
-16.6506970476
20
25.4241054058
30
0.0000000000
11
-16.7978873798
21
25.5908913859
31
0.0000000000
11
-16.7980593784
21
25.5892302546
31
0.0000000000
11
-16.7973158272
21
25.5682670175
31
0.0000000000
11
-16.7912542970
21
25.5469401326
31
0.0000000000
11
-16.7799397493
21
25.5254781602
31
0.0000000000
11
-16.7634934420
21
25.5041111080
31
0.0000000000
11
-16.7420916301
21
25.4830679667
31
0.0000000000
11
-16.7159636768
21
25.4625742556
31
0.0000000000
11
-16.6853895952
21
25.4428496056
31
0.0000000000
11
-16.6506970476
21
25.4241054058
31
0.0000000000
0
SPLINE
5
2F1
100
AcDbEntity
8
0
100
AcDbSpline
62
7
6
CONTINUOUS
70
0
71
3
72
10
73
6
74
4
42
0.0000001000
43
0.0000001000
44
0.0000000001
12
-0.0036527788
22
0.0346940421
32
0.0000000000
13
0.0154815252
23
0.0311833071
33
0.0000000000
40
0.0000000000
40
0.0000000000
40
0.0000000000
40
0.0000000000
40
0.2608861452
40
0.6227230904
40
1.0000000000
40
1.0000000000
40
1.0000000000
40
1.0000000000
10
7.2031928459
20
16.4285117901
30
0.0000000000
10
7.2028751927
20
16.4315288551
30
0.0000000000
10
7.2026926721
20
16.4387921418
30
0.0000000000
10
7.2046317846
20
16.4503218925
30
0.0000000000
10
7.2077782289
20
16.4583687501
30
0.0000000000
10
7.2097251696
20
16.4622903307
30
0.0000000000
11
7.2031928459
21
16.4285117901
31
0.0000000000
11
7.2029662344
21
16.4376000312
31
0.0000000000
11
7.2050124421
21
16.4500300473
31
0.0000000000
11
7.2097251696
21
16.4622903307
31
0.0000000000
0
SPLINE
5
2F2
100
AcDbEntity
8
0
100
AcDbSpline
62
9
6
CONTINUOUS
70
0
71
3
72
14
73
10
74
8
42
0.0000001000
43
0.0000001000
44
0.0000000001
12
0.2101710320
22
0.1225218558
32
0.0000000000
13
0.2188932873
23
-0.1054611190
33
0.0000000000
40
0.0000000000
40
0.0000000000
40
0.0000000000
40
0.0000000000
40
0.1168418182
40
0.2476234172
40
0.3829687791
40
0.5247573302
40
0.6743660043
40
0.8326542726
40
1.0000000000
40
1.0000000000
40
1.0000000000
40
1.0000000000
10
-16.2276366776
20
26.5025567880
30
0.0000000000
10
-16.2194510891
20
26.5073286801
30
0.0000000000
10
-16.2012898032
20
26.5160483439
30
0.0000000000
10
-16.1713482170
20
26.5247008347
30
0.0000000000
10
-16.1383977347
20
26.5285594459
30
0.0000000000
10
-16.1037373252
20
26.5273551327
30
0.0000000000
10
-16.0677485329
20
26.5211370093
30
0.0000000000
10
-16.0308186148
20
26.5100016981
30
0.0000000000
10
-16.0064929938
20
26.4996723518
30
0.0000000000
10
-15.9942827084
20
26.4937895292
30
0.0000000000
11
-16.2276366776
21
26.5025567880
31
0.0000000000
11
-16.2020453137
21
26.5148616978
31
0.0000000000
11
-16.1715382538
21
26.5237536189
31
0.0000000000
11
-16.1388889076
21
26.5276867022
31
0.0000000000
11
-16.1044545725
21
26.5266179061
31
0.0000000000
11
-16.0686120802
21
26.5205589270
31
0.0000000000
11
-16.0317536724
21
26.5095760711
31
0.0000000000
11
-15.9942827084
21
26.4937895292
31
0.0000000000
0
SPLINE
5
2F3
100
AcDbEntity
8
0
100
AcDbSpline
62
9
6
CONTINUOUS
70
0
71
3
72
20
73
16
74
14
42
0.0000001000
43
0.0000001000
44
0.0000000001
12
0.2581131460
22
-0.1297445027
32
0.0000000000
13
0.2831899376
23
0.0570919550
33
0.0000000000
40
0.0000000000
40
0.0000000000
40
0.0000000000
40
0.0000000000
40
0.0671156198
40
0.1391526010
40
0.2154926583
40
0.2952320471
40
0.3773904088
40
0.4610505126
40
0.5453536820
40
0.6289841415
40
0.7109746290
40
0.7900840678
40
0.8653514687
40
0.9356535230
40
1.0000000000
40
1.0000000000
40
1.0000000000
40
1.0000000000
10
2.4763973100
20
-2.9277470794
30
0.0000000000
10
2.4821717846
20
-2.9306497070
30
0.0000000000
10
2.4943494073
20
-2.9362642465
30
0.0000000000
10
2.5136562611
20
-2.9438938352
30
0.0000000000
10
2.5344687806
20
-2.9509466863
30
0.0000000000
10
2.5565143754
20
-2.9573207327
30
0.0000000000
10
2.5794958673
20
-2.9629170708
30
0.0000000000
10
2.6031180308
20
-2.9676532136
30
0.0000000000
10
2.6270530374
20
-2.9714498361
30
0.0000000000
10
2.6509646252
20
-2.9742367888
30
0.0000000000
10
2.6744756186
20
-2.9759691989
30
0.0000000000
10
2.6972358849
20
-2.9765820390
30
0.0000000000
10
2.7188798878
20
-2.9761242098
30
0.0000000000
10
2.7390310340
20
-2.9744570920
30
0.0000000000
10
2.7518961369
20
-2.9726925516
30
0.0000000000
10
2.7579702285
20
-2.9714679962
30
0.0000000000
11
2.4763973100
21
-2.9277470794
31
0.0000000000
11
2.4939860993
21
-2.9359056775
31
0.0000000000
11
2.5133281713
21
-2.9435845358
31
0.0000000000
11
2.5342071669
21
-2.9506861532
31
0.0000000000
11
2.5563318816
21
-2.9571003047
31
0.0000000000
11
2.5793900764
21
-2.9627259218
31
0.0000000000
11
2.6030860857
21
-2.9674808133
31
0.0000000000
11
2.6271399654
21
-2.9712932833
31
0.0000000000
11
2.6511381502
21
-2.9740831043
31
0.0000000000
11
2.6747617022
21
-2.9758023954
31
0.0000000000
11
2.6976075091
21
-2.9764042860
31
0.0000000000
11
2.7193451081
21
-2.9758843186
31
0.0000000000
11
2.7395862127
21
-2.9742202836
31
0.0000000000
11
2.7579702285
21
-2.9714679962
31
0.0000000000
0
SPLINE
5
2F4
100
AcDbEntity
8
0
100
AcDbSpline
62
9
6
CONTINUOUS
70
0
71
3
72
19
73
15
74
13
42
0.0000001000
43
0.0000001000
44
0.0000000001
12
0.2592074754
22
-0.1296083804
32
0.0000000000
13
0.2603026086
23
0.1273946606
33
0.0000000000
40
0.0000000000
40
0.0000000000
40
0.0000000000
40
0.0000000000
40
0.0736858795
40
0.1523525539
40
0.2352344012
40
0.3214120020
40
0.4098564935
40
0.4994682610
40
0.5891125207
40
0.6776535215
40
0.7639887099
40
0.8470841930
40
0.9260131954
40
1.0000000000
40
1.0000000000
40
1.0000000000
40
1.0000000000
10
2.4767352673
20
-2.5806655191
30
0.0000000000
10
2.4831019109
20
-2.5838489549
30
0.0000000000
10
2.4966236084
20
-2.5897289410
30
0.0000000000
10
2.5182103386
20
-2.5969056878
30
0.0000000000
10
2.5414689431
20
-2.6026363005
30
0.0000000000
10
2.5660097236
20
-2.6068237459
30
0.0000000000
10
2.5914239960
20
-2.6093980731
30
0.0000000000
10
2.6172861617
20
-2.6103157093
30
0.0000000000
10
2.6431629080
20
-2.6095611844
30
0.0000000000
10
2.6686206616
20
-2.6071472222
30
0.0000000000
10
2.6932330543
20
-2.6031147003
30
0.0000000000
10
2.7165901119
20
-2.5975310107
30
0.0000000000
10
2.7383004101
20
-2.5904907457
30
0.0000000000
10
2.7519186708
20
-2.5846984416
30
0.0000000000
10
2.7583383236
20
-2.5815566003
30
0.0000000000
11
2.4767352673
21
-2.5806655191
31
0.0000000000
11
2.4962889714
21
-2.5892485479
31
0.0000000000
11
2.5179047932
21
-2.5964945324
31
0.0000000000
11
2.5412169719
21
-2.6022808633
31
0.0000000000
11
2.5658310427
21
-2.6065096303
31
0.0000000000
11
2.5913305114
21
-2.6091092785
31
0.0000000000
11
2.6172839021
21
-2.6100358192
31
0.0000000000
11
2.6432520581
21
-2.6092735747
31
0.0000000000
11
2.6687955728
21
-2.6068354427
31
0.0000000000
11
2.6934822251
21
-2.6027626788
31
0.0000000000
11
2.7168942925
21
-2.5971241982
31
0.0000000000
11
2.7386356202
21
-2.5900154095
31
0.0000000000
11
2.7583383236
21
-2.5815566003
31
0.0000000000
0
SPLINE
5
2F5
100
AcDbEntity
8
0
100
AcDbSpline
62
9
6
CONTINUOUS
70
0
71
3
72
14
73
10
74
8
42
0.0000001000
43
0.0000001000
44
0.0000000001
12
-0.0003097448
22
-0.1267264716
32
0.0000000000
13
0.1135424880
23
-0.0568062670
33
0.0000000000
40
0.0000000000
40
0.0000000000
40
0.0000000000
40
0.0000000000
40
0.1734994091
40
0.3368031977
40
0.4897665597
40
0.6329876726
40
0.7679203829
40
0.8969064743
40
1.0000000000
40
1.0000000000
40
1.0000000000
40
1.0000000000
10
8.9097244926
20
-5.1895977527
30
0.0000000000
10
8.9097065791
20
-5.1969267420
30
0.0000000000
10
8.9104040126
20
-5.2111715773
30
0.0000000000
10
8.9138584877
20
-5.2316234483
30
0.0000000000
10
8.9196478288
20
-5.2502201449
30
0.0000000000
10
8.9276987327
20
-5.2666465247
30
0.0000000000
10
8.9379062419
20
-5.2806115562
30
0.0000000000
10
8.9493999312
20
-5.2911768786
30
0.0000000000
10
8.9578008781
20
-5.2963394059
30
0.0000000000
10
8.9617027099
20
-5.2982915253
30
0.0000000000
11
8.9097244926
21
-5.1895977527
31
0.0000000000
11
8.9108704456
21
-5.2115549027
31
0.0000000000
11
8.9143990886
21
-5.2319468290
31
0.0000000000
11
8.9202504835
21
-5.2504271575
31
0.0000000000
11
8.9283252386
21
-5.2666819844
31
0.0000000000
11
8.9384861965
21
-5.2804352082
31
0.0000000000
11
8.9505607640
21
-5.2914532194
31
0.0000000000
11
8.9617027099
21
-5.2982915253
31
0.0000000000
0
SPLINE
5
2F6
100
AcDbEntity
8
0
100
AcDbSpline
62
9
6
CONTINUOUS
70
0
71
3
72
14
73
10
74
8
42
0.0000001000
43
0.0000001000
44
0.0000000001
12
-0.0862457673
22
0.0431214099
32
0.0000000000
13
0.0001434184
23
0.0966697133
33
0.0000000000
40
0.0000000000
40
0.0000000000
40
0.0000000000
40
0.0000000000
40
0.2048126638
40
0.3921325989
40
0.5622160433
40
0.7167549752
40
0.8591999212
40
0.9948291756
40
1.0000000000
40
1.0000000000
40
1.0000000000
40
1.0000000000
10
9.4035529986
20
-6.0440744394
30
0.0000000000
10
9.3976649235
20
-6.0411305025
30
0.0000000000
10
9.3866570268
20
-6.0349297071
30
0.0000000000
10
9.3720638822
20
-6.0241848988
30
0.0000000000
10
9.3603317245
20
-6.0125452064
30
0.0000000000
10
9.3516739262
20
-6.0001623323
30
0.0000000000
10
9.3462951907
20
-5.9872011128
30
0.0000000000
10
9.3449905408
20
-5.9780857733
30
0.0000000000
10
9.3449741476
20
-5.9735487339
30
0.0000000000
10
9.3449743948
20
-5.9733821132
30
0.0000000000
11
9.4035529986
21
-6.0440744394
31
0.0000000000
11
9.3863922674
21
-6.0343002364
31
0.0000000000
11
9.3719148942
21
-6.0234996108
31
0.0000000000
11
9.3603658501
21
-6.0118553197
31
0.0000000000
11
9.3519405558
21
-5.9995643955
31
0.0000000000
11
9.3467815756
21
-5.9868348127
31
0.0000000000
11
9.3449762042
21
-5.9738819678
31
0.0000000000
11
9.3449743948
21
-5.9733821132
31
0.0000000000
0
SPLINE
5
2F7
100
AcDbEntity
8
0
100
AcDbSpline
62
9
6
CONTINUOUS
70
0
71
3
72
14
73
10
74
8
42
0.0000001000
43
0.0000001000
44
0.0000000001
12
-0.0862364960
22
0.0431175132
32
0.0000000000
13
0.0000534765
23
0.0966592138
33
0.0000000000
40
0.0000000000
40
0.0000000000
40
0.0000000000
40
0.0000000000
40
0.2048407873
40
0.3922028717
40
0.5623475959
40
0.7169717565
40
0.8595287127
40
0.9952950146
40
1.0000000000
40
1.0000000000
40
1.0000000000
40
1.0000000000
10
9.4032172456
20
-6.3911554480
30
0.0000000000
10
9.3973289950
20
-6.3882113729
30
0.0000000000
10
9.3863205798
20
-6.3820094463
30
0.0000000000
10
9.3717272432
20
-6.3712607911
30
0.0000000000
10
9.3599949927
20
-6.3596148768
30
0.0000000000
10
9.3513373414
20
-6.3472235751
30
0.0000000000
10
9.3459590535
20
-6.3342521058
30
0.0000000000
10
9.3446569803
20
-6.3251446626
30
0.0000000000
10
9.3446385317
20
-6.3206187275
30
0.0000000000
10
9.3446386156
20
-6.3204671341
30
0.0000000000
11
9.4032172456
21
-6.3911554480
31
0.0000000000
11
9.3860565170
21
-6.3813799147
31
0.0000000000
11
9.3715791469
21
-6.3705756329
31
0.0000000000
11
9.3600301062
21
-6.3589254216
31
0.0000000000
11
9.3516048156
21
-6.3466264134
31
0.0000000000
11
9.3464458393
21
-6.3338867192
31
0.0000000000
11
9.3446404719
21
-6.3209219069
31
0.0000000000
11
9.3446386156
21
-6.3204671341
31
0.0000000000
0
SPLINE
5
2F8
100
AcDbEntity
8
0
100
AcDbSpline
62
9
6
CONTINUOUS
70
0
71
3
72
15
73
11
74
9
42
0.0000001000
43
0.0000001000
44
0.0000000001
12
-0.0001025638
22
-0.1579500215
32
0.0000000000
13
0.1415067040
23
-0.0707483960
33
0.0000000000
40
0.0000000000
40
0.0000000000
40
0.0000000000
40
0.0000000000
40
0.1606127478
40
0.3125589099
40
0.4556705359
40
0.5903046025
40
0.7174237940
40
0.8386383963
40
0.9561618710
40
1.0000000000
40
1.0000000000
40
1.0000000000
40
1.0000000000
10
-17.4011957545
20
7.0110509600
30
0.0000000000
10
-17.4012012455
20
7.0025946977
30
0.0000000000
10
-17.4004276553
20
6.9861227466
30
0.0000000000
10
-17.3967076202
20
6.9623705566
30
0.0000000000
10
-17.3905002617
20
6.9405494611
30
0.0000000000
10
-17.3818757642
20
6.9209727830
30
0.0000000000
10
-17.3709329031
20
6.9039285735
30
0.0000000000
10
-17.3578051137
20
6.8896871823
30
0.0000000000
10
-17.3457682193
20
6.8807844135
30
0.0000000000
10
-17.3382973684
20
6.8766987858
30
0.0000000000
10
-17.3362295720
20
6.8756649600
30
0.0000000000
11
-17.4011957545
21
7.0110509600
31
0.0000000000
11
-17.3999366871
21
6.9857134311
31
0.0000000000
11
-17.3961439276
21
6.9620151105
31
0.0000000000
11
-17.3898722268
21
6.9402980964
31
0.0000000000
11
-17.3812121199
21
6.9208758859
31
0.0000000000
11
-17.3702886204
21
6.9040288491
31
0.0000000000
11
-17.3572594149
21
6.8900001822
31
0.0000000000
11
-17.3423125872
21
6.8789923967
31
0.0000000000
11
-17.3362295720
21
6.8756649600
31
0.0000000000
0
SPLINE
5
2F9
100
AcDbEntity
8
0
100
AcDbSpline
62
9
6
CONTINUOUS
70
0
71
3
72
15
73
11
74
9
42
0.0000001000
43
0.0000001000
44
0.0000000001
12
-0.0001009366
22
-0.1578689818
32
0.0000000000
13
0.1413862057
23
-0.0707059848
33
0.0000000000
40
0.0000000000
40
0.0000000000
40
0.0000000000
40
0.0000000000
40
0.1495025154
40
0.2915335359
40
0.4259147281
40
0.5528453940
40
0.6729673336
40
0.7874022725
40
0.8977459133
40
1.0000000000
40
1.0000000000
40
1.0000000000
40
1.0000000000
10
9.4032171533
20
-6.3911554941
30
0.0000000000
10
9.4032121232
20
-6.3990227641
30
0.0000000000
10
9.4038813569
20
-6.4143765387
30
0.0000000000
10
9.4070892292
20
-6.4365988494
30
0.0000000000
10
9.4124441744
20
-6.4571881425
30
0.0000000000
10
9.4198921052
20
-6.4758898803
30
0.0000000000
10
9.4293572728
20
-6.4924700140
30
0.0000000000
10
9.4407401892
20
-6.5067097918
30
0.0000000000
10
9.4536739873
20
-6.5181968615
30
0.0000000000
10
9.4632578946
20
-6.5240794804
30
0.0000000000
10
9.4680770004
20
-6.5264894724
30
0.0000000000
11
9.4032171533
21
-6.3911554941
31
0.0000000000
11
9.4042999489
21
-6.4147324577
31
0.0000000000
11
9.4075660979
21
-6.4369155973
31
0.0000000000
11
9.4129749868
21
-6.4574291121
31
0.0000000000
11
9.4204592377
21
-6.4760173941
31
0.0000000000
11
9.4299256997
21
-6.4924491210
31
0.0000000000
11
9.4412565483
21
-6.5065197467
31
0.0000000000
11
9.4543106909
21
-6.5180540542
31
0.0000000000
11
9.4680770004
21
-6.5264894724
31
0.0000000000
0
SPLINE
5
2FA
100
AcDbEntity
8
0
100
AcDbSpline
62
9
6
CONTINUOUS
70
0
71
3
72
18
73
14
74
12
42
0.0000001000
43
0.0000001000
44
0.0000000001
12
-0.0003283573
22
0.3188942921
32
0.0000000000
13
0.2876034012
23
0.1383768080
33
0.0000000000
40
0.0000000000
40
0.0000000000
40
0.0000000000
40
0.0000000000
40
0.1153584355
40
0.2270712962
40
0.3346196058
40
0.4376687073
40
0.5361200728
40
0.6302902080
40
0.7208310456
40
0.8084853285
40
0.8940452863
40
0.9784322133
40
1.0000000000
40
1.0000000000
40
1.0000000000
40
1.0000000000
10
2.7583382413
20
-2.5815565584
30
0.0000000000
10
2.7583256150
20
-2.5692941762
30
0.0000000000
10
2.7591415623
20
-2.5451452344
30
0.0000000000
10
2.7630634903
20
-2.5097560358
30
0.0000000000
10
2.7696714695
20
-2.4760936963
30
0.0000000000
10
2.7789230018
20
-2.4445202363
30
0.0000000000
10
2.7907385285
20
-2.4153353317
30
0.0000000000
10
2.8050234197
20
-2.3887683215
30
0.0000000000
10
2.8216834850
20
-2.3650014597
30
0.0000000000
10
2.8406131561
20
-2.3442107857
30
0.0000000000
10
2.8616744207
20
-2.3265752581
30
0.0000000000
10
2.8790190256
20
-2.3157864215
30
0.0000000000
10
2.8890876205
20
-2.3107143189
30
0.0000000000
10
2.8911552768
20
-2.3097194917
30
0.0000000000
11
2.7583382413
21
-2.5815565584
31
0.0000000000
11
2.7596309589
21
-2.5447921126
31
0.0000000000
11
2.7636121130
21
-2.5093906518
31
0.0000000000
11
2.7702818328
21
-2.4757488789
31
0.0000000000
11
2.7795890245
21
-2.4442326407
31
0.0000000000
11
2.7914372632
21
-2.4151585520
31
0.0000000000
11
2.8057211978
21
-2.3887428331
31
0.0000000000
11
2.8223477718
21
-2.3651376319
31
0.0000000000
11
2.8412065621
21
-2.3445054641
31
0.0000000000
11
2.8621496567
21
-2.3270172966
31
0.0000000000
11
2.8850081507
21
-2.3128163976
31
0.0000000000
11
2.8911552768
21
-2.3097194917
31
0.0000000000
0
SPLINE
5
2FB
100
AcDbEntity
8
0
100
AcDbSpline
62
9
6
CONTINUOUS
70
0
71
3
72
10
73
6
74
4
42
0.0000001000
43
0.0000001000
44
0.0000000001
12
0.0050502121
22
7.9154818157
32
0.0000000000
13
0.1197180597
23
7.9145780345
33
0.0000000000
40
0.0000000000
40
0.0000000000
40
0.0000000000
40
0.0000000000
40
0.3325044106
40
0.6658360576
40
1.0000000000
40
1.0000000000
40
1.0000000000
40
1.0000000000
10
-17.4011957545
20
7.0110509600
30
0.0000000000
10
-17.4006360153
20
7.8883618320
30
0.0000000000
10
-17.3952360810
20
9.6451665709
30
0.0000000000
10
-17.3743535612
20
12.2835876355
30
0.0000000000
10
-17.3519315931
20
14.0446364563
30
0.0000000000
10
-17.3385964401
20
14.9262253224
30
0.0000000000
11
-17.4011957545
21
7.0110509600
31
0.0000000000
11
-17.3931219694
21
9.6429717280
31
0.0000000000
11
-17.3722554825
21
12.2813703424
31
0.0000000000
11
-17.3385964401
21
14.9262253224
31
0.0000000000
0
SPLINE
5
2FC
100
AcDbEntity
8
0
100
AcDbSpline
62
9
6
CONTINUOUS
70
0
71
3
72
14
73
10
74
8
42
0.0000001000
43
0.0000001000
44
0.0000000001
12
0.1591919159
22
10.5233295456
32
0.0000000000
13
1.1906596420
23
10.4569659275
33
0.0000000000
40
0.0000000000
40
0.0000000000
40
0.0000000000
40
0.0000000000
40
0.1398556385
40
0.2807463514
40
0.4226523539
40
0.5655528729
40
0.7094262094
40
0.8542497444
40
1.0000000000
40
1.0000000000
40
1.0000000000
40
1.0000000000
10
-17.3385964401
20
14.9262253224
30
0.0000000000
10
-17.3311751445
20
15.4168076468
30
0.0000000000
10
-17.3089897581
20
16.4015075740
30
0.0000000000
10
-17.2540620416
20
17.8832782234
30
0.0000000000
10
-17.1773795181
20
19.3747809427
30
0.0000000000
10
-17.0789690594
20
20.8754918063
30
0.0000000000
10
-16.9588648841
20
22.3848902525
30
0.0000000000
10
-16.8171092943
20
23.9024467628
30
0.0000000000
10
-16.7085433911
20
24.9160702447
30
0.0000000000
10
-16.6506970754
20
25.4241053971
30
0.0000000000
11
-17.3385964401
21
14.9262253224
31
0.0000000000
11
-17.3055227938
21
16.3977690586
31
0.0000000000
11
-17.2506721256
21
17.8795632562
31
0.0000000000
11
-17.1740635363
21
19.3710916352
31
0.0000000000
11
-17.0757237110
21
20.8718344175
31
0.0000000000
11
-16.9556868944
21
22.3812687725
31
0.0000000000
11
-16.8139948998
21
23.8988686840
31
0.0000000000
11
-16.6506970754
21
25.4241053971
31
0.0000000000
0
SPLINE
5
2FD
100
AcDbEntity
8
0
100
AcDbSpline
62
9
6
CONTINUOUS
70
0
71
3
72
23
73
19
74
17
42
0.0000001000
43
0.0000001000
44
0.0000000001
12
0.1479816844
22
1.2876557009
32
0.0000000000
13
1.1243233099
23
0.6448665580
33
0.0000000000
40
0.0000000000
40
0.0000000000
40
0.0000000000
40
0.0000000000
40
0.0612296716
40
0.1239314130
40
0.1878571843
40
0.2527334318
40
0.3182736211
40
0.3841804823
40
0.4501500877
40
0.5158779237
40
0.5810636176
40
0.6454152964
40
0.7086540689
40
0.7705191234
40
0.8307743790
40
0.8892135877
40
0.9456640712
40
1.0000000000
40
1.0000000000
40
1.0000000000
40
1.0000000000
10
-16.6506970754
20
25.4241053971
30
0.0000000000
10
-16.6476767854
20
25.4503863090
30
0.0000000000
10
-16.6398946498
20
25.5034005573
30
0.0000000000
10
-16.6234083291
20
25.5829138582
30
0.0000000000
10
-16.6020748953
20
25.6628984499
30
0.0000000000
10
-16.5760498603
20
25.7427697839
30
0.0000000000
10
-16.5455226200
20
25.8219480104
30
0.0000000000
10
-16.5107152038
20
25.8998570712
30
0.0000000000
10
-16.4718808841
20
25.9759300654
30
0.0000000000
10
-16.4293022770
20
26.0496132422
30
0.0000000000
10
-16.3832889955
20
26.1203706068
30
0.0000000000
10
-16.3341754219
20
26.1876875403
30
0.0000000000
10
-16.2823184274
20
26.2510743018
30
0.0000000000
10
-16.2280942440
20
26.3100700766
30
0.0000000000
10
-16.1718959695
20
26.3642460270
30
0.0000000000
10
-16.1141284752
20
26.4132092038
30
0.0000000000
10
-16.0552131771
20
26.4566007993
30
0.0000000000
10
-16.0146464255
20
26.4821097214
30
0.0000000000
10
-15.9942827084
20
26.4937895292
30
0.0000000000
11
-16.6506970754
21
25.4241053971
31
0.0000000000
11
-16.6392318364
21
25.5026345295
31
0.0000000000
11
-16.6227817888
21
25.5822219416
31
0.0000000000
11
-16.6014664792
21
25.6622894381
31
0.0000000000
11
-16.5754422783
21
25.7422491344
31
0.0000000000
11
-16.5448992736
21
25.8215170505
31
0.0000000000
11
-16.5100605552
21
25.8995139205
31
0.0000000000
11
-16.4711811317
21
25.9756686265
31
0.0000000000
11
-16.4285454349
21
26.0494240039
31
0.0000000000
11
-16.3824651152
21
26.1202408785
31
0.0000000000
11
-16.3332769668
21
26.1876015178
31
0.0000000000
11
-16.2813408099
21
26.2510130146
31
0.0000000000
11
-16.2270369664
21
26.3100109985
31
0.0000000000
11
-16.1707623479
21
26.3641642602
31
0.0000000000
11
-16.1129279812
21
26.4130771634
31
0.0000000000
11
-16.0539585498
21
26.4563905464
31
0.0000000000
11
-15.9942827084
21
26.4937895292
31
0.0000000000
0
SPLINE
5
2FE
100
AcDbEntity
8
0
100
AcDbSpline
62
9
6
CONTINUOUS
70
0
71
3
72
10
73
6
74
4
42
0.0000001000
43
0.0000001000
44
0.0000000001
12
-0.1238870970
22
-7.9071942042
32
0.0000000000
13
-0.0051992262
23
-7.9081629449
33
0.0000000000
40
0.0000000000
40
0.0000000000
40
0.0000000000
40
0.0000000000
40
0.3341367047
40
0.6674683194
40
1.0000000000
40
1.0000000000
40
1.0000000000
40
1.0000000000
10
14.1365437649
20
-0.4722528105
30
0.0000000000
10
14.1227453561
20
-1.3529474155
30
0.0000000000
10
14.0995457294
20
-3.1122863053
30
0.0000000000
10
14.0779434089
20
-5.7482625697
30
0.0000000000
10
14.0723614436
20
-7.5035147603
30
0.0000000000
10
14.0717851412
20
-8.3800863317
30
0.0000000000
11
14.1365437649
21
-0.4722528105
31
0.0000000000
11
14.1017182357
21
-3.1144313876
31
0.0000000000
11
14.0801319757
21
-5.7503842958
31
0.0000000000
11
14.0717851412
21
-8.3800863317
31
0.0000000000
0
SPLINE
5
2FF
100
AcDbEntity
8
0
100
AcDbSpline
62
9
6
CONTINUOUS
70
0
71
3
72
22
73
18
74
16
42
0.0000001000
43
0.0000001000
44
0.0000000001
12
-0.6543926149
22
-0.3009959648
32
0.0000000000
13
-0.6441472341
23
0.3223392715
33
0.0000000000
40
0.0000000000
40
0.0000000000
40
0.0000000000
40
0.0000000000
40
0.0586380402
40
0.1205603965
40
0.1853917733
40
0.2526884815
40
0.3219537238
40
0.3926509489
40
0.4642159671
40
0.5360683131
40
0.6076222068
40
0.6782973892
40
0.7475300887
40
0.8147843939
40
0.8795643883
40
0.9414275335
40
1.0000000000
40
1.0000000000
40
1.0000000000
40
1.0000000000
10
14.1365437649
20
-0.4722528105
30
0.0000000000
10
14.1237529981
20
-0.4781360816
30
0.0000000000
10
14.0969465935
20
-0.4891471316
30
0.0000000000
10
14.0546416280
20
-0.5030915503
30
0.0000000000
10
14.0095139171
20
-0.5147993727
30
0.0000000000
10
13.9620444030
20
-0.5241449044
30
0.0000000000
10
13.9127354482
20
-0.5310290121
30
0.0000000000
10
13.8621114014
20
-0.5353779318
30
0.0000000000
10
13.8107108984
20
-0.5371450695
30
0.0000000000
10
13.7590813393
20
-0.5363114132
30
0.0000000000
10
13.7077726467
20
-0.5328858443
30
0.0000000000
10
13.6573312321
20
-0.5269050394
30
0.0000000000
10
13.6082937672
20
-0.5184329571
30
0.0000000000
10
13.5611816814
20
-0.5075602471
30
0.0000000000
10
13.5164935182
20
-0.4944021945
30
0.0000000000
10
13.4747054906
20
-0.4790999414
30
0.0000000000
10
13.4483014420
20
-0.4672288053
30
0.0000000000
10
13.4357250113
20
-0.4609354033
30
0.0000000000
11
14.1365437649
21
-0.4722528105
31
0.0000000000
11
14.0975101858
21
-0.4883875264
31
0.0000000000
11
14.0551734196
21
-0.5024225547
31
0.0000000000
11
14.0099870771
21
-0.5142075191
31
0.0000000000
11
13.9624353008
21
-0.5236161514
31
0.0000000000
11
13.9130275769
21
-0.5305476442
31
0.0000000000
11
13.8622932772
21
-0.5349277310
31
0.0000000000
11
13.8107759867
21
-0.5367094821
31
0.0000000000
11
13.7590276798
21
-0.5358738072
31
0.0000000000
11
13.7076028059
21
-0.5324296600
31
0.0000000000
11
13.6570523491
21
-0.5264139422
31
0.0000000000
11
13.6079179248
21
-0.5178911084
31
0.0000000000
11
13.5607259764
21
-0.5069524752
31
0.0000000000
11
13.5159821349
21
-0.4937152430
31
0.0000000000
11
13.4741658016
21
-0.4783212401
31
0.0000000000
11
13.4357250113
21
-0.4609354033
31
0.0000000000
0
SPLINE
5
300
100
AcDbEntity
8
0
100
AcDbSpline
62
9
6
CONTINUOUS
70
0
71
3
72
10
73
6
74
4
42
0.0000001000
43
0.0000001000
44
0.0000000001
12
-0.1239825528
22
-7.9134236847
32
0.0000000000
13
-0.0052288054
23
-7.9143931382
33
0.0000000000
40
0.0000000000
40
0.0000000000
40
0.0000000000
40
0.0000000000
40
0.3341363892
40
0.6674678474
40
1.0000000000
40
1.0000000000
40
1.0000000000
40
1.0000000000
10
13.4357250113
20
-0.4609354033
30
0.0000000000
10
13.4219159838
20
-1.3423230085
30
0.0000000000
10
13.3986975613
20
-3.1030466847
30
0.0000000000
10
13.3770743613
20
-5.7410995880
30
0.0000000000
10
13.3714833692
20
-7.4977354154
30
0.0000000000
10
13.3709037872
20
-8.3749988109
30
0.0000000000
11
13.4357250113
21
-0.4609354033
31
0.0000000000
11
13.4008712698
21
-3.1051930338
31
0.0000000000
11
13.3792641445
21
-5.7432213291
31
0.0000000000
11
13.3709037872
21
-8.3749988109
31
0.0000000000
0
SPLINE
5
301
100
AcDbEntity
8
0
100
AcDbSpline
62
9
6
CONTINUOUS
70
0
71
3
72
23
73
19
74
17
42
0.0000001000
43
0.0000001000
44
0.0000000001
12
-0.6507045974
22
-0.3104569771
32
0.0000000000
13
-0.6448562891
23
0.3224288669
33
0.0000000000
40
0.0000000000
40
0.0000000000
40
0.0000000000
40
0.0000000000
40
0.0551603427
40
0.1131635819
40
0.1737153539
40
0.2364584982
40
0.3009967168
40
0.3669005279
40
0.4337158740
40
0.5009737093
40
0.5681980574
40
0.6349135083
40
0.7006527126
40
0.7649644502
40
0.8274232057
40
0.8876381826
40
0.9452587918
40
1.0000000000
40
1.0000000000
40
1.0000000000
40
1.0000000000
10
14.0717851412
20
-8.3800863317
30
0.0000000000
10
14.0598207783
20
-8.3857946361
30
0.0000000000
10
14.0348133193
20
-8.3965541769
30
0.0000000000
10
13.9954082652
20
-8.4104245288
30
0.0000000000
10
13.9534692258
20
-8.4223310436
30
0.0000000000
10
13.9093884951
20
-8.4321617459
30
0.0000000000
10
13.8635767951
20
-8.4398249694
30
0.0000000000
10
13.8164624179
20
-8.4452486945
30
0.0000000000
10
13.7684862762
20
-8.4483819254
30
0.0000000000
10
13.7200977815
20
-8.4491951618
30
0.0000000000
10
13.6717501455
20
-8.4476807562
30
0.0000000000
10
13.6238961766
20
-8.4438529562
30
0.0000000000
10
13.5769840860
20
-8.4377477975
30
0.0000000000
10
13.5314528255
20
-8.4294226621
30
0.0000000000
10
13.4877279388
20
-8.4189557680
30
0.0000000000
10
13.4462167141
20
-8.4064446398
30
0.0000000000
10
13.4073071738
20
-8.3920068640
30
0.0000000000
10
13.3826705250
20
-8.3808821924
30
0.0000000000
10
13.3709037876
20
-8.3749988105
30
0.0000000000
11
14.0717851412
21
-8.3800863317
31
0.0000000000
11
14.0352842160
21
-8.3958742677
31
0.0000000000
11
13.9958589646
21
-8.4098188758
31
0.0000000000
11
13.9538764096
21
-8.4217905379
31
0.0000000000
11
13.9097337235
21
-8.4316759347
31
0.0000000000
11
13.8638460777
21
-8.4393821291
31
0.0000000000
11
13.8166454111
21
-8.4448365621
31
0.0000000000
11
13.7685766285
21
-8.4479878106
31
0.0000000000
11
13.7200925481
21
-8.4488062170
31
0.0000000000
11
13.6716496114
21
-8.4472840987
31
0.0000000000
11
13.6237038606
21
-8.4434357812
31
0.0000000000
11
13.5767069287
21
-8.4372975036
31
0.0000000000
11
13.5311017788
21
-8.4289271442
31
0.0000000000
11
13.4873177229
21
-8.4184035393
31
0.0000000000
11
13.4457664421
21
-8.4058256021
31
0.0000000000
11
13.4068411918
21
-8.3913124740
31
0.0000000000
11
13.3709037876
21
-8.3749988105
31
0.0000000000
0
SPLINE
5
302
100
AcDbEntity
8
0
100
AcDbSpline
62
9
6
CONTINUOUS
70
0
71
3
72
21
73
17
74
15
42
0.0000001000
43
0.0000001000
44
0.0000000001
12
-0.0489281769
22
-0.0239411350
32
0.0000000000
13
0.0000353707
23
0.0544714897
33
0.0000000000
40
0.0000000000
40
0.0000000000
40
0.0000000000
40
0.0000000000
40
0.0783384064
40
0.1524284314
40
0.2225337596
40
0.2892730770
40
0.3535425089
40
0.4164716800
40
0.4793298455
40
0.5433925196
40
0.6098098501
40
0.6795064440
40
0.7531334070
40
0.8310646305
40
0.9134175510
40
1.0000000000
40
1.0000000000
40
1.0000000000
40
1.0000000000
10
-13.0816756948
20
4.9842871794
30
0.0000000000
10
-13.0829533466
20
4.9836620093
30
0.0000000000
10
-13.0855073845
20
4.9825770448
30
0.0000000000
10
-13.0894027151
20
4.9814626217
30
0.0000000000
10
-13.0932084186
20
4.9809238813
30
0.0000000000
10
-13.0968756072
20
4.9809725792
30
0.0000000000
10
-13.1003565024
20
4.9816128808
30
0.0000000000
10
-13.1036023360
20
4.9828401463
30
0.0000000000
10
-13.1065658184
20
4.9846384413
30
0.0000000000
10
-13.1092049871
20
4.9869806131
30
0.0000000000
10
-13.1114858895
20
4.9898311468
30
0.0000000000
10
-13.1133824201
20
4.9931495627
30
0.0000000000
10
-13.1148746479
20
4.9968920317
30
0.0000000000
10
-13.1159473608
20
5.0010116817
30
0.0000000000
10
-13.1165895766
20
5.0054558879
30
0.0000000000
10
-13.1167235139
20
5.0085257578
30
0.0000000000
10
-13.1167224930
20
5.0100978495
30
0.0000000000
11
-13.0816756948
21
4.9842871794
31
0.0000000000
11
-13.0856087161
21
4.9826317551
31
0.0000000000
11
-13.0894929325
21
4.9815360806
31
0.0000000000
11
-13.0932760540
21
4.9810157096
31
0.0000000000
11
-13.0969109248
21
4.9810771944
31
0.0000000000
11
-13.1003522975
21
4.9817197845
31
0.0000000000
11
-13.1035573126
21
4.9829355186
31
0.0000000000
11
-13.1064860291
21
4.9847092855
31
0.0000000000
11
-13.1091018836
21
4.9870189487
31
0.0000000000
11
-13.1113722927
21
4.9898357010
31
0.0000000000
11
-13.1132689998
21
4.9931244314
31
0.0000000000
11
-13.1147684167
21
4.9968441667
31
0.0000000000
11
-13.1158518883
21
5.0009486003
31
0.0000000000
11
-13.1165059648
21
5.0053865466
31
0.0000000000
11
-13.1167224930
21
5.0100978495
31
0.0000000000
0
SPLINE
5
303
100
AcDbEntity
8
0
100
AcDbSpline
62
9
6
CONTINUOUS
70
0
71
3
72
9
73
5
74
3
42
0.0000001000
43
0.0000001000
44
0.0000000001
12
0.0001982588
22
0.3053223681
32
0.0000000000
13
0.0003738628
23
0.3053222036
33
0.0000000000
40
0.0000000000
40
0.0000000000
40
0.0000000000
40
0.0000000000
40
0.4999640559
40
1.0000000000
40
1.0000000000
40
1.0000000000
40
1.0000000000
10
-13.1167224930
20
5.0100978495
30
0.0000000000
10
-13.1166894523
20
5.0609812526
30
0.0000000000
10
-13.1166087271
20
5.1627553664
30
0.0000000000
10
-13.1164987345
20
5.2645294527
30
0.0000000000
10
-13.1164364196
20
5.3154201448
30
0.0000000000
11
-13.1167224930
21
5.0100978495
31
0.0000000000
11
-13.1166014171
21
5.1627480431
31
0.0000000000
11
-13.1164364196
21
5.3154201448
31
0.0000000000
0
SPLINE
5
304
100
AcDbEntity
8
0
100
AcDbSpline
62
9
6
CONTINUOUS
70
0
71
3
72
22
73
18
74
16
42
0.0000001000
43
0.0000001000
44
0.0000000001
12
-0.6835201074
22
-0.2059171239
32
0.0000000000
13
-0.6375934082
23
0.3210548938
33
0.0000000000
40
0.0000000000
40
0.0000000000
40
0.0000000000
40
0.0000000000
40
0.0559369014
40
0.1157642744
40
0.1790687705
40
0.2453640674
40
0.3141068100
40
0.3847100973
40
0.4565554923
40
0.5290041632
40
0.6014075464
40
0.6731178054
40
0.7434983032
40
0.8119343148
40
0.8778442612
40
0.9406918831
40
1.0000000000
40
1.0000000000
40
1.0000000000
40
1.0000000000
10
14.8448570548
20
9.9551879141
30
0.0000000000
10
14.8321123892
20
9.9513484588
30
0.0000000000
10
14.8054197365
20
9.9444328348
30
0.0000000000
10
14.7635395336
20
9.9364485031
30
0.0000000000
10
14.7188264902
20
9.9305679639
30
0.0000000000
10
14.6717567614
20
9.9268557894
30
0.0000000000
10
14.6228289324
20
9.9253525186
30
0.0000000000
10
14.5725639328
20
9.9260753039
30
0.0000000000
10
14.5214973580
20
9.9290171903
30
0.0000000000
10
14.4701739058
20
9.9341472532
30
0.0000000000
10
14.4191411608
20
9.9414108924
30
0.0000000000
10
14.3689435825
20
9.9507304302
30
0.0000000000
10
14.3201163567
20
9.9620060197
30
0.0000000000
10
14.2731797780
20
9.9751166334
30
0.0000000000
10
14.2286321330
20
9.9899220322
30
0.0000000000
10
14.1869483614
20
10.0062626101
30
0.0000000000
10
14.1605322945
20
10.0184460693
30
0.0000000000
10
14.1479274731
20
10.0247931231
30
0.0000000000
11
14.8448570548
21
9.9551879141
31
0.0000000000
11
14.8062275948
21
9.9450747500
31
0.0000000000
11
14.7642898008
21
9.9369972592
31
0.0000000000
11
14.7194931199
21
9.9310420083
31
0.0000000000
11
14.6723176382
21
9.9272728195
31
0.0000000000
11
14.6232689350
21
9.9257300874
31
0.0000000000
11
14.5728726652
21
9.9264303454
31
0.0000000000
11
14.5216689255
21
9.9293660887
31
0.0000000000
11
14.4702064661
21
9.9345058551
31
0.0000000000
11
14.4190368101
21
9.9417945616
31
0.0000000000
11
14.3687083426
21
9.9511540954
31
0.0000000000
11
14.3197604336
21
9.9624841501
31
0.0000000000
11
14.2727176577
21
9.9756633018
31
0.0000000000
11
14.2280841721
21
9.9905503093
31
0.0000000000
11
14.1863383138
21
10.0069856289
31
0.0000000000
11
14.1479274731
21
10.0247931231
31
0.0000000000
0
SPLINE
5
305
100
AcDbEntity
8
0
100
AcDbSpline
62
9
6
CONTINUOUS
70
0
71
3
72
14
73
10
74
8
42
0.0000001000
43
0.0000001000
44
0.0000000001
12
-1.2334112251
22
-10.4417429267
32
0.0000000000
13
-0.1646990617
23
-10.5130477416
33
0.0000000000
40
0.0000000000
40
0.0000000000
40
0.0000000000
40
0.0000000000
40
0.1456783453
40
0.2904504056
40
0.4342948041
40
0.5771910431
40
0.7191195639
40
0.8600617523
40
1.0000000000
40
1.0000000000
40
1.0000000000
40
1.0000000000
10
14.1479274728
20
10.0247931230
30
0.0000000000
10
14.0880337040
20
9.5177478457
30
0.0000000000
10
13.9756250529
20
8.5059692114
30
0.0000000000
10
13.8288617750
20
6.9909051288
30
0.0000000000
10
13.7045151570
20
5.4836161847
30
0.0000000000
10
13.6026290464
20
3.9846314561
30
0.0000000000
10
13.5232388792
20
2.4944707480
30
0.0000000000
10
13.4663725017
20
1.0136578473
30
0.0000000000
10
13.4434075773
20
0.0294570898
30
0.0000000000
10
13.4357250113
20
-0.4609354033
30
0.0000000000
11
14.1479274728
21
10.0247931230
31
0.0000000000
11
13.9788604283
21
8.5024410199
31
0.0000000000
11
13.8321625354
21
6.9873440576
31
0.0000000000
11
13.7078848858
21
5.4800301191
31
0.0000000000
11
13.6060707698
21
3.9810244822
31
0.0000000000
11
13.5267556423
21
2.4908493723
31
0.0000000000
11
13.4699671309
21
1.0100240963
31
0.0000000000
11
13.4357250113
21
-0.4609354033
31
0.0000000000
0
SPLINE
5
306
100
AcDbEntity
8
0
100
AcDbSpline
62
9
6
CONTINUOUS
70
0
71
3
72
14
73
10
74
8
42
0.0000001000
43
0.0000001000
44
0.0000000001
12
-1.2266775719
22
-10.3836908121
32
0.0000000000
13
-0.1637995526
23
-10.4546134531
33
0.0000000000
40
0.0000000000
40
0.0000000000
40
0.0000000000
40
0.0000000000
40
0.1456780656
40
0.2904500256
40
0.4342943857
40
0.5771906542
40
0.7191192782
40
0.8600616497
40
1.0000000000
40
1.0000000000
40
1.0000000000
40
1.0000000000
10
14.8448570548
20
9.9551879141
30
0.0000000000
10
14.7852903828
20
9.4509625836
30
0.0000000000
10
14.6734955475
20
8.4448102019
30
0.0000000000
10
14.5275337060
20
6.9381700496
30
0.0000000000
10
14.4038660778
20
5.4392603531
30
0.0000000000
10
14.3025363207
20
3.9486076773
30
0.0000000000
10
14.2235796783
20
2.4667289389
30
0.0000000000
10
14.1670238563
20
0.9941455963
30
0.0000000000
10
14.1441843780
20
0.0154143093
30
0.0000000000
10
14.1365437649
20
-0.4722528105
30
0.0000000000
11
14.8448570548
21
9.9551879141
31
0.0000000000
11
14.6767133327
21
8.4413021721
31
0.0000000000
11
14.5308164715
21
6.9346289251
31
0.0000000000
11
14.4072174343
21
5.4356944031
31
0.0000000000
11
14.3059592758
21
3.9450209658
31
0.0000000000
11
14.2270772574
21
2.4631279377
31
0.0000000000
11
14.1705988549
21
0.9905317392
31
0.0000000000
11
14.1365437649
21
-0.4722528105
31
0.0000000000
0
SPLINE
5
307
100
AcDbEntity
8
0
100
AcDbSpline
62
9
6
CONTINUOUS
70
0
71
3
72
22
73
18
74
16
42
0.0000001000
43
0.0000001000
44
0.0000000001
12
-0.0325530559
22
0.7322080464
32
0.0000000000
13
-0.6505742276
23
0.3375522169
33
0.0000000000
40
0.0000000000
40
0.0000000000
40
0.0000000000
40
0.0000000000
40
0.0619071113
40
0.1264432736
40
0.1932519053
40
0.2619169744
40
0.3319771814
40
0.4029389113
40
0.4742883698
40
0.5455032435
40
0.6160641654
40
0.6854662474
40
0.7532309474
40
0.8189185789
40
0.8821418385
40
0.9425808135
40
1.0000000000
40
1.0000000000
40
1.0000000000
40
1.0000000000
10
15.1817332136
20
10.4856954925
30
0.0000000000
10
15.1810614584
20
10.5008051209
30
0.0000000000
10
15.1783706090
20
10.5316185284
30
0.0000000000
10
15.1706874577
20
10.5782425629
30
0.0000000000
10
15.1593510338
20
10.6258137884
30
0.0000000000
10
15.1444848826
20
10.6738133090
30
0.0000000000
10
15.1262503102
20
10.7217223438
30
0.0000000000
10
15.1048452893
20
10.7690206795
30
0.0000000000
10
15.0805022875
20
10.8151947532
30
0.0000000000
10
15.0534857634
20
10.8597429160
30
0.0000000000
10
15.0240891715
20
10.9021812750
30
0.0000000000
10
14.9926316532
20
10.9420490610
30
0.0000000000
10
14.9594541047
20
10.9789138763
30
0.0000000000
10
14.9249157977
20
11.0123760679
30
0.0000000000
10
14.8893874521
20
11.0420742722
30
0.0000000000
10
14.8532553521
20
11.0676843780
30
0.0000000000
10
14.8283522879
20
11.0822372804
30
0.0000000000
10
14.8159004736
20
11.0886979383
30
0.0000000000
11
15.1817332136
21
10.4856954925
31
0.0000000000
11
15.1778665481
21
10.5309040980
31
0.0000000000
11
15.1702412071
21
10.5775859849
31
0.0000000000
11
15.1589406380
21
10.6252302908
31
0.0000000000
11
15.1440885084
21
10.6733156215
31
0.0000000000
11
15.1258473521
21
10.7213157559
31
0.0000000000
11
15.1044167906
21
10.7687054056
31
0.0000000000
11
15.0800313488
21
10.8149659625
31
0.0000000000
11
15.0529578882
21
10.8595911752
31
0.0000000000
11
15.0234926866
21
10.9020926881
31
0.0000000000
11
14.9919581960
21
10.9420053866
31
0.0000000000
11
14.9586995136
21
10.9788924865
31
0.0000000000
11
14.9240806050
21
11.0123503142
31
0.0000000000
11
14.8884803220
21
11.0420127243
31
0.0000000000
11
14.8522882557
21
11.0675551066
31
0.0000000000
11
14.8159004736
21
11.0886979383
31
0.0000000000
0
SPLINE
5
308
100
AcDbEntity
8
0
100
AcDbSpline
62
9
6
CONTINUOUS
70
0
71
3
72
23
73
19
74
17
42
0.0000001000
43
0.0000001000
44
0.0000000001
12
-1.1354538148
22
-0.6301607022
32
0.0000000000
13
-0.1509894460
23
-1.2897907053
33
0.0000000000
40
0.0000000000
40
0.0000000000
40
0.0000000000
40
0.0000000000
40
0.0547089592
40
0.1114655226
40
0.1701448145
40
0.2305762150
40
0.2925565619
40
0.3558536579
40
0.4202112795
40
0.4853557425
40
0.5510009413
40
0.6168527872
40
0.6826135381
40
0.7479865035
40
0.8126820964
40
0.8764218964
40
0.9389409002
40
1.0000000000
40
1.0000000000
40
1.0000000000
40
1.0000000000
10
14.8159004736
20
11.0886979383
30
0.0000000000
10
14.7951939747
20
11.0772061262
30
0.0000000000
10
14.7539403572
20
11.0520744439
30
0.0000000000
10
14.6939832284
20
11.0092026792
30
0.0000000000
10
14.6351938846
20
10.9607484424
30
0.0000000000
10
14.5780015070
20
10.9070667568
30
0.0000000000
10
14.5228181620
20
10.8485472842
30
0.0000000000
10
14.4700439706
20
10.7856154642
30
0.0000000000
10
14.4200618036
20
10.7187289007
30
0.0000000000
10
14.3732348300
20
10.6483742369
30
0.0000000000
10
14.3299033174
20
10.5750631752
30
0.0000000000
10
14.2903823268
20
10.4993289874
30
0.0000000000
10
14.2549594599
20
10.4217229193
30
0.0000000000
10
14.2238924500
20
10.3428096128
30
0.0000000000
10
14.1974072939
20
10.2631631336
30
0.0000000000
10
14.1756967178
20
10.1833615828
30
0.0000000000
10
14.1589191506
20
10.1039882314
30
0.0000000000
10
14.1510005661
20
10.0510442761
30
0.0000000000
10
14.1479274728
20
10.0247931230
30
0.0000000000
11
14.8159004736
21
11.0886979383
31
0.0000000000
11
14.7551738151
21
11.0518243639
31
0.0000000000
11
14.6951660444
21
11.0090301506
31
0.0000000000
11
14.6363132658
21
10.9606264534
31
0.0000000000
11
14.5790477258
21
10.9069686524
31
0.0000000000
11
14.5237876539
21
10.8484487827
31
0.0000000000
11
14.4709369637
21
10.7854945526
31
0.0000000000
11
14.4208826697
21
10.7185669860
31
0.0000000000
11
14.3739909298
21
10.6481558216
31
0.0000000000
11
14.3306044685
21
10.5747758264
31
0.0000000000
11
14.2910404238
21
10.4989634310
31
0.0000000000
11
14.2555882376
21
10.4212732949
31
0.0000000000
11
14.2245074062
21
10.3422742921
31
0.0000000000
11
14.1980249546
21
10.2625437212
31
0.0000000000
11
14.1763343029
21
10.1826638958
31
0.0000000000
11
14.1595946016
21
10.1032213105
31
0.0000000000
11
14.1479274728
21
10.0247931230
31
0.0000000000
0
SPLINE
5
309
100
AcDbEntity
8
0
100
AcDbSpline
62
9
6
CONTINUOUS
70
0
71
3
72
23
73
19
74
17
42
0.0000001000
43
0.0000001000
44
0.0000000001
12
-0.5704634095
22
-0.3114400975
32
0.0000000000
13
-0.0762552154
23
-0.6454522275
33
0.0000000000
40
0.0000000000
40
0.0000000000
40
0.0000000000
40
0.0000000000
40
0.0548774555
40
0.1117900817
40
0.1705926415
40
0.2311155173
40
0.2931569723
40
0.3564866785
40
0.4208506348
40
0.4859777018
40
0.5515846081
40
0.6173803299
40
0.6830703313
40
0.7483615098
40
0.8129681202
40
0.8766158097
40
0.9390438927
40
1.0000000000
40
1.0000000000
40
1.0000000000
40
1.0000000000
10
15.1817332136
20
10.4856954925
30
0.0000000000
10
15.1712980201
20
10.4799984792
30
0.0000000000
10
15.1505027475
20
10.4675291894
30
0.0000000000
10
15.1202661453
20
10.4462259856
30
0.0000000000
10
15.0906146691
20
10.4221260184
30
0.0000000000
10
15.0617685866
20
10.3954083530
30
0.0000000000
10
15.0339357389
20
10.3662670222
30
0.0000000000
10
15.0073179803
20
10.3349139039
30
0.0000000000
10
14.9821084374
20
10.3015770134
30
0.0000000000
10
14.9584903017
20
10.2664989191
30
0.0000000000
10
14.9366352140
20
10.2299347754
30
0.0000000000
10
14.9167021172
20
10.1921506031
30
0.0000000000
10
14.8988360937
20
10.1534214773
30
0.0000000000
10
14.8831671634
20
10.1140292228
30
0.0000000000
10
14.8698092877
20
10.0742604276
30
0.0000000000
10
14.8588597487
20
10.0344037202
30
0.0000000000
10
14.8503990964
20
9.9947542521
30
0.0000000000
10
14.8464064618
20
9.9683026659
30
0.0000000000
10
14.8448570548
20
9.9551879141
30
0.0000000000
11
15.1817332136
21
10.4856954925
31
0.0000000000
11
15.1511177569
21
10.4673969455
31
0.0000000000
11
15.1208529864
21
10.4461297632
31
0.0000000000
11
15.0911706551
21
10.4220550866
31
0.0000000000
11
15.0622887745
21
10.3953496221
31
0.0000000000
11
15.0344183011
21
10.3662085075
31
0.0000000000
11
15.0077629682
21
10.3348447307
31
0.0000000000
11
14.9825179884
21
10.3014879843
31
0.0000000000
11
14.9588680555
21
10.2663823665
31
0.0000000000
11
14.9369860456
21
10.2297845450
31
0.0000000000
11
14.9170319409
21
10.1919621007
31
0.0000000000
11
14.8991517784
21
10.1531918623
31
0.0000000000
11
14.8834764420
21
10.1137577561
31
0.0000000000
11
14.8701204247
21
10.0739479811
31
0.0000000000
11
14.8591812883
21
10.0340533120
31
0.0000000000
11
14.8507392494
21
9.9943666860
31
0.0000000000
11
14.8448570548
21
9.9551879141
31
0.0000000000
0
SPLINE
5
30A
100
AcDbEntity
8
0
100
AcDbSpline
62
9
6
CONTINUOUS
70
0
71
3
72
9
73
5
74
3
42
0.0000001000
43
0.0000001000
44
0.0000000001
12
-0.0004482457
22
-0.3470809323
32
0.0000000000
13
-0.0002234079
23
-0.3470811498
33
0.0000000000
40
0.0000000000
40
0.0000000000
40
0.0000000000
40
0.0000000000
40
0.5000411956
40
1.0000000000
40
1.0000000000
40
1.0000000000
40
1.0000000000
10
9.4035529986
20
-6.0440744394
30
0.0000000000
10
9.4034782848
20
-6.1019260276
30
0.0000000000
10
9.4033475983
20
-6.2176196966
30
0.0000000000
10
9.4032543848
20
-6.3333134019
30
0.0000000000
10
9.4032171533
20
-6.3911554941
30
0.0000000000
11
9.4035529986
21
-6.0440744394
31
0.0000000000
11
9.4033569574
21
-6.2176292378
31
0.0000000000
11
9.4032171533
21
-6.3911554941
31
0.0000000000
0
ENDSEC
0
SECTION
2
OBJECTS
0
DICTIONARY
5
30B
100
AcDbDictionary
3
ACAD_GROUP
350
30C
3
ACAD_MLINESTYLE
350
30D
0
DICTIONARY
5
30C
102
{ACAD_REACTORS
330
30B
102
}
100
AcDbDictionary
0
DICTIONARY
5
30D
102
{ACAD_REACTORS
330
30B
102
}
100
AcDbDictionary
3
STANDARD
350
30E
0
MLINESTYLE
5
30E
102
{ACAD_REACTORS
330
30D
102
}
100
AcDbMlineStyle
2
STANDARD
70
0
3

62
256
51
90.0
52
90.0
71
2
49
0.5
62
256
6
BYLAYER
49
-0.5
62
256
6
BYLAYER
0
ENDSEC
0
EOF
