  0
SECTION
  2
HEADER
  9
$ACADVER
  1
AC1015
  9
$DWGCODEPAGE
  3
ANSI_1252
  9
$EXTMAX
 10
297.0
 20
210.0
 30
0.0
  9
$EXTMIN
 10
0.0
 20
0.0
 30
0.0
  9
$LIMMIN
 10
0.0
 20
0.0
  9
$LIMMAX
 10
297.0
 20
210.0
  9
$VIEWCTR
 10
148.5
 20
105.0
  9
$VIEWSIZE
 40
210.0
  9
$CLAYER
  8
0
  9
$LTSCALE
 40
16.335
  9
$CELTYPE
  6
BYLAYER
  9
$DIMSCALE
 40
1.0
  9
$DIMASZ
 40
3.0
  9
$DIMEXO
 40
0.5
  9
$DIMDLI
 40
11.286
  9
$DIMEXE
 40
1.5
  9
$DIMCEN
 40
2.673
  9
$DIMLFAC
 40
1.0
  9
$DIMBLK
  1
_FILLED
  9
$DIMTXT
 40
3.0
  9
$DIMTOL
 70
1
  9
$DIMLIM
 70
0
  9
$DIMTFAC
 40
1.0
  9
$DIMTP
 40
0.01
  9
$DIMTM
 40
0.01
  9
$DIMGAP
 40
0.625
  9
$DIMDSEP
 70
44
  9
$PDMODE
 70
3
  9
$PDSIZE
 40
3.0
  9
$HANDSEED
  5
65D
  9
$TILEMODE
 70
1
  9
$MEASUREMENT
 70
1
  9
$INSUNITS
 70
4
  0
ENDSEC
  0
SECTION
  2
CLASSES
  0
CLASS
  1
ACDBDICTIONARYWDFLT
  2
AcDbDictionaryWithDefault
  3
AutoCAD 2000
 90
0
280
0
281
0
  0
CLASS
  1
ACDBPLACEHOLDER
  2
AcDbPlaceHolder
  3
AutoCAD 2000
 90
0
280
0
281
0
  0
CLASS
  1
LAYOUT
  2
AcDbLayout
  3
AutoCAD 2000
 90
0
280
0
281
0
  0
ENDSEC
  0
SECTION
  2
TABLES
  0
TABLE
  2
VPORT
  5
8
100
AcDbSymbolTable
 70
2
  0
VPORT
  5
1F4
100
AcDbSymbolTableRecord
100
AcDbViewportTableRecord
  2
*ACTIVE
 70
0
 10
0.0
 20
0.0
 11
1.0
 21
1.0
 12
148.5
 22
105.0
 13
0.0
 23
0.0
 14
1.0
 24
1.0
 15
0.0
 25
0.0
 16
0.0
 26
0.0
 36
1.0
 17
0.0
 27
0.0
 37
0.0
 40
210.0
 41
1.4142857143
 42
50.0
 43
0.0
 44
0.0
 50
0.0
 51
0.0
 71
0
 72
100
 73
1
 74
1
 75
0
 76
0
 77
0
 78
0
  0
ENDTAB
  0
TABLE
  2
LTYPE
  5
5
100
AcDbSymbolTable
 70
6
  0
LTYPE
  5
14
100
AcDbSymbolTableRecord
100
AcDbLinetypeTableRecord
  2
BYBLOCK
 70
0
  3

 72
65
 73
0
 40
0.0
  0
LTYPE
  5
15
100
AcDbSymbolTableRecord
100
AcDbLinetypeTableRecord
  2
BYLAYER
 70
0
  3

 72
65
 73
0
 40
0.0
  0
LTYPE
  5
16
100
AcDbSymbolTableRecord
100
AcDbLinetypeTableRecord
  2
CONTINUOUS
 70
64
  3
Solid line
 72
65
 73
0
 40
0.0
  0
LTYPE
  5
1F5
100
AcDbSymbolTableRecord
100
AcDbLinetypeTableRecord
  2
CENTER
 70
64
  3
____ _ ____ _ ____ _ ____ _ ____ _ ____ _ ____
 72
65
 73
4
 40
0.6
 49
0.375
 74
0
 49
-0.075
 74
0
 49
0.075
 74
0
 49
-0.075
 74
0
  0
LTYPE
  5
1F6
100
AcDbSymbolTableRecord
100
AcDbLinetypeTableRecord
  2
HIDDEN
 70
64
  3
- - - - - - - - - - - - - - - - - - - -
 72
65
 73
2
 40
0.2
 49
0.1
 74
0
 49
-0.1
 74
0
  0
LTYPE
  5
1F7
100
AcDbSymbolTableRecord
100
AcDbLinetypeTableRecord
  2
PHANTOM
 70
64
  3
_____ _ _ _____ _ _ _____ _ _ _____
 72
65
 73
6
 40
0.8
 49
0.45
 74
0
 49
-0.05
 74
0
 49
0.1
 74
0
 49
-0.05
 74
0
 49
0.1
 74
0
 49
-0.05
 74
0
  0
LTYPE
  5
1F8
100
AcDbSymbolTableRecord
100
AcDbLinetypeTableRecord
  2
DOT
 70
64
  3
. . . . . . . . . . . . . . . . . . . .
 72
65
 73
2
 40
0.2
 49
0.1
 74
0
 49
-0.1
 74
0
  0
LTYPE
  5
1F9
100
AcDbSymbolTableRecord
100
AcDbLinetypeTableRecord
  2
DASHED
 70
64
  3
- - - - - - - - - - - - - - - - - - - -
 72
65
 73
2
 40
0.2
 49
0.1
 74
0
 49
-0.1
 74
0
  0
ENDTAB
  0
TABLE
  2
LAYER
  5
2
100
AcDbSymbolTable
 70
36
  0
LAYER
  5
10
100
AcDbSymbolTableRecord
100
AcDbLayerTableRecord
  2
0
 70
0
 62
7
  6
CONTINUOUS
370
-3
390
F
  0
LAYER
  5
1FA
100
AcDbSymbolTableRecord
100
AcDbLayerTableRecord
  2
DEFAULT_1
 70
0
 62
7
  6
CENTER
370
-3
390
F
  0
LAYER
  5
1FB
100
AcDbSymbolTableRecord
100
AcDbLayerTableRecord
  2
DEFAULT_2
 70
0
 62
7
  6
HIDDEN
370
-3
390
F
  0
LAYER
  5
1FC
100
AcDbSymbolTableRecord
100
AcDbLayerTableRecord
  2
DEFAULT_3
 70
0
 62
7
  6
PHANTOM
370
-3
390
F
  0
LAYER
  5
1FD
100
AcDbSymbolTableRecord
100
AcDbLayerTableRecord
  2
200A_170000__200A_170000_45
 70
0
 62
7
  6
CONTINUOUS
370
-3
390
F
  0
LAYER
  5
1FE
100
AcDbSymbolTableRecord
100
AcDbLayerTableRecord
  2
200A_170000__200A_170000_45_1
 70
0
 62
7
  6
CONTINUOUS
370
-3
390
F
  0
LAYER
  5
1FF
100
AcDbSymbolTableRecord
100
AcDbLayerTableRecord
  2
200A_170000__200A_170000_45_2
 70
0
 62
7
  6
CONTINUOUS
370
-3
390
F
  0
LAYER
  5
200
100
AcDbSymbolTableRecord
100
AcDbLayerTableRecord
  2
200A_170000__200A_170000_45_3
 70
0
 62
7
  6
CONTINUOUS
370
-3
390
F
  0
LAYER
  5
201
100
AcDbSymbolTableRecord
100
AcDbLayerTableRecord
  2
2125-CC-RF-VIMAR_65000__2125-CC
 70
0
 62
7
  6
CONTINUOUS
370
-3
390
F
  0
LAYER
  5
202
100
AcDbSymbolTableRecord
100
AcDbLayerTableRecord
  2
2125-CC-RF-VIMAR_65000__2125-_1
 70
0
 62
7
  6
CONTINUOUS
370
-3
390
F
  0
LAYER
  5
203
100
AcDbSymbolTableRecord
100
AcDbLayerTableRecord
  2
2125-DL-RF-FINE_VIMAR_110000__1
 70
0
 62
7
  6
CONTINUOUS
370
-3
390
F
  0
LAYER
  5
204
100
AcDbSymbolTableRecord
100
AcDbLayerTableRecord
  2
2125-DL-RF-FINE_VIMAR_110000__2
 70
0
 62
7
  6
CONTINUOUS
370
-3
390
F
  0
LAYER
  5
205
100
AcDbSymbolTableRecord
100
AcDbLayerTableRecord
  2
2125-R1-RF-VIMAR_60000__2125-R1
 70
0
 62
7
  6
CONTINUOUS
370
-3
390
F
  0
LAYER
  5
206
100
AcDbSymbolTableRecord
100
AcDbLayerTableRecord
  2
2125-R1-RF-VIMAR_60000__2125-_1
 70
0
 62
7
  6
CONTINUOUS
370
-3
390
F
  0
LAYER
  5
207
100
AcDbSymbolTableRecord
100
AcDbLayerTableRecord
  2
2125-R1-RF-VIMAR_60000__2125-_2
 70
0
 62
7
  6
CONTINUOUS
370
-3
390
F
  0
LAYER
  5
208
100
AcDbSymbolTableRecord
100
AcDbLayerTableRecord
  2
2125-R1-RF-VIMAR_60000__2125-_3
 70
0
 62
7
  6
CONTINUOUS
370
-3
390
F
  0
LAYER
  5
209
100
AcDbSymbolTableRecord
100
AcDbLayerTableRecord
  2
2125-R1-RF-VIMAR_60000__2125-_4
 70
0
 62
7
  6
CONTINUOUS
370
-3
390
F
  0
LAYER
  5
20A
100
AcDbSymbolTableRecord
100
AcDbLayerTableRecord
  2
2125-R1-RF-VIMAR_60000__2125-_5
 70
0
 62
7
  6
CONTINUOUS
370
-3
390
F
  0
LAYER
  5
20B
100
AcDbSymbolTableRecord
100
AcDbLayerTableRecord
  2
2125-R1-RF-VIMAR_60000__2125-_6
 70
0
 62
7
  6
CONTINUOUS
370
-3
390
F
  0
LAYER
  5
20C
100
AcDbSymbolTableRecord
100
AcDbLayerTableRecord
  2
2125-R1-RF-VIMAR_60000__2125-_7
 70
0
 62
7
  6
CONTINUOUS
370
-3
390
F
  0
LAYER
  5
20D
100
AcDbSymbolTableRecord
100
AcDbLayerTableRecord
  2
2125-R1-RF-VIMAR_60000__2125-_8
 70
0
 62
7
  6
CONTINUOUS
370
-3
390
F
  0
LAYER
  5
20E
100
AcDbSymbolTableRecord
100
AcDbLayerTableRecord
  2
3216-CF-RF-1-VIMAR_180000__3216
 70
0
 62
7
  6
CONTINUOUS
370
-3
390
F
  0
LAYER
  5
20F
100
AcDbSymbolTableRecord
100
AcDbLayerTableRecord
  2
3216-CF-RF-1-VIMAR_180000__32_1
 70
0
 62
7
  6
CONTINUOUS
370
-3
390
F
  0
LAYER
  5
210
100
AcDbSymbolTableRecord
100
AcDbLayerTableRecord
  2
3216-CF-RF-1-VIMAR_180000__32_2
 70
0
 62
7
  6
CONTINUOUS
370
-3
390
F
  0
LAYER
  5
211
100
AcDbSymbolTableRecord
100
AcDbLayerTableRecord
  2
3216-CF-RF-1-VIMAR_180000__32_3
 70
0
 62
7
  6
CONTINUOUS
370
-3
390
F
  0
LAYER
  5
212
100
AcDbSymbolTableRecord
100
AcDbLayerTableRecord
  2
3216-CF-RF-VIMAR_100000__3216-C
 70
0
 62
7
  6
CONTINUOUS
370
-3
390
F
  0
LAYER
  5
213
100
AcDbSymbolTableRecord
100
AcDbLayerTableRecord
  2
43000599A0
 70
0
 62
7
  6
CONTINUOUS
370
-3
390
F
  0
LAYER
  5
214
100
AcDbSymbolTableRecord
100
AcDbLayerTableRecord
  2
43000599A0_CONTORNO
 70
0
 62
7
  6
CONTINUOUS
370
-3
390
F
  0
LAYER
  5
215
100
AcDbSymbolTableRecord
100
AcDbLayerTableRecord
  2
43000600A0
 70
0
 62
7
  6
CONTINUOUS
370
-3
390
F
  0
LAYER
  5
216
100
AcDbSymbolTableRecord
100
AcDbLayerTableRecord
  2
43000600A0_CONTORNO
 70
0
 62
7
  6
CONTINUOUS
370
-3
390
F
  0
LAYER
  5
217
100
AcDbSymbolTableRecord
100
AcDbLayerTableRecord
  2
ASSI
 70
0
 62
7
  6
CONTINUOUS
370
-3
390
F
  0
LAYER
  5
218
100
AcDbSymbolTableRecord
100
AcDbLayerTableRecord
  2
CAPC1608N_80000__CAPC160-105767
 70
0
 62
7
  6
CONTINUOUS
370
-3
390
F
  0
LAYER
  5
219
100
AcDbSymbolTableRecord
100
AcDbLayerTableRecord
  2
CAPC1608N_80000__CAPC160-1057_1
 70
0
 62
7
  6
CONTINUOUS
370
-3
390
F
  0
LAYER
  5
21A
100
AcDbSymbolTableRecord
100
AcDbLayerTableRecord
  2
CAPC1608N_80000__CAPC160-1057_2
 70
0
 62
7
  6
CONTINUOUS
370
-3
390
F
  0
LAYER
  5
21B
100
AcDbSymbolTableRecord
100
AcDbLayerTableRecord
  2
CAPC1608N_80000__CAPC160-1057_3
 70
0
 62
7
  6
CONTINUOUS
370
-3
390
F
  0
LAYER
  5
21C
100
AcDbSymbolTableRecord
100
AcDbLayerTableRecord
  2
CAPC1608N_80000__CAPC160-1057_4
 70
0
 62
7
  6
CONTINUOUS
370
-3
390
F
  0
LAYER
  5
21D
100
AcDbSymbolTableRecord
100
AcDbLayerTableRecord
  2
CAPC1608N_80000__CAPC160-1057_5
 70
0
 62
7
  6
CONTINUOUS
370
-3
390
F
  0
LAYER
  5
21E
100
AcDbSymbolTableRecord
100
AcDbLayerTableRecord
  2
CAPC1608N_80000__CAPC160-1057_6
 70
0
 62
7
  6
CONTINUOUS
370
-3
390
F
  0
LAYER
  5
21F
100
AcDbSymbolTableRecord
100
AcDbLayerTableRecord
  2
CAPC1608N_80000__CAPC160-1057_7
 70
0
 62
7
  6
CONTINUOUS
370
-3
390
F
  0
LAYER
  5
220
100
AcDbSymbolTableRecord
100
AcDbLayerTableRecord
  2
CAPC1608N_80000__CAPC160-1057_8
 70
0
 62
7
  6
CONTINUOUS
370
-3
390
F
  0
LAYER
  5
221
100
AcDbSymbolTableRecord
100
AcDbLayerTableRecord
  2
CAPC1608N_80000__CAPC160-1057_9
 70
0
 62
7
  6
CONTINUOUS
370
-3
390
F
  0
LAYER
  5
222
100
AcDbSymbolTableRecord
100
AcDbLayerTableRecord
  2
CAPC1608N_80000__CAPC160-105_10
 70
0
 62
7
  6
CONTINUOUS
370
-3
390
F
  0
LAYER
  5
223
100
AcDbSymbolTableRecord
100
AcDbLayerTableRecord
  2
CAPC1608N_80000__CAPC160-105_11
 70
0
 62
7
  6
CONTINUOUS
370
-3
390
F
  0
LAYER
  5
224
100
AcDbSymbolTableRecord
100
AcDbLayerTableRecord
  2
CAPC1608N_80000__CAPC160-105_12
 70
0
 62
7
  6
CONTINUOUS
370
-3
390
F
  0
LAYER
  5
225
100
AcDbSymbolTableRecord
100
AcDbLayerTableRecord
  2
CAPC1608N_80000__CAPC160-105_13
 70
0
 62
7
  6
CONTINUOUS
370
-3
390
F
  0
LAYER
  5
226
100
AcDbSymbolTableRecord
100
AcDbLayerTableRecord
  2
CAPC1608N_80000__CAPC160-105_14
 70
0
 62
7
  6
CONTINUOUS
370
-3
390
F
  0
LAYER
  5
227
100
AcDbSymbolTableRecord
100
AcDbLayerTableRecord
  2
CAPC1608N_80000__CAPC160-105_15
 70
0
 62
7
  6
CONTINUOUS
370
-3
390
F
  0
LAYER
  5
228
100
AcDbSymbolTableRecord
100
AcDbLayerTableRecord
  2
CAPC1608N_80000__CAPC160-105_16
 70
0
 62
7
  6
CONTINUOUS
370
-3
390
F
  0
LAYER
  5
229
100
AcDbSymbolTableRecord
100
AcDbLayerTableRecord
  2
CAPC1608N_80000__CAPC160-105_17
 70
0
 62
7
  6
CONTINUOUS
370
-3
390
F
  0
LAYER
  5
22A
100
AcDbSymbolTableRecord
100
AcDbLayerTableRecord
  2
CAPC1608N_80000__CAPC160-105_18
 70
0
 62
7
  6
CONTINUOUS
370
-3
390
F
  0
LAYER
  5
22B
100
AcDbSymbolTableRecord
100
AcDbLayerTableRecord
  2
CAPC1608N_80000__CAPC160-105_19
 70
0
 62
7
  6
CONTINUOUS
370
-3
390
F
  0
LAYER
  5
22C
100
AcDbSymbolTableRecord
100
AcDbLayerTableRecord
  2
CAPC1608N_80000__CAPC160-105_20
 70
0
 62
7
  6
CONTINUOUS
370
-3
390
F
  0
LAYER
  5
22D
100
AcDbSymbolTableRecord
100
AcDbLayerTableRecord
  2
CAPC1608N_80000__CAPC160-105_21
 70
0
 62
7
  6
CONTINUOUS
370
-3
390
F
  0
LAYER
  5
22E
100
AcDbSymbolTableRecord
100
AcDbLayerTableRecord
  2
CAPC1608N_80000__CAPC160-118831
 70
0
 62
7
  6
CONTINUOUS
370
-3
390
F
  0
LAYER
  5
22F
100
AcDbSymbolTableRecord
100
AcDbLayerTableRecord
  2
CAPC1608N_80000__CAPC160-1188_1
 70
0
 62
7
  6
CONTINUOUS
370
-3
390
F
  0
LAYER
  5
230
100
AcDbSymbolTableRecord
100
AcDbLayerTableRecord
  2
CAPC1608N_80000__CAPC160-1188_2
 70
0
 62
7
  6
CONTINUOUS
370
-3
390
F
  0
LAYER
  5
231
100
AcDbSymbolTableRecord
100
AcDbLayerTableRecord
  2
CAPC1608N_80000__CAPC160-1188_3
 70
0
 62
7
  6
CONTINUOUS
370
-3
390
F
  0
LAYER
  5
232
100
AcDbSymbolTableRecord
100
AcDbLayerTableRecord
  2
CAPC1608N_80000__CAPC160-1188_4
 70
0
 62
7
  6
CONTINUOUS
370
-3
390
F
  0
LAYER
  5
233
100
AcDbSymbolTableRecord
100
AcDbLayerTableRecord
  2
CAPC1608N_80000__CAPC160-1188_5
 70
0
 62
7
  6
CONTINUOUS
370
-3
390
F
  0
LAYER
  5
234
100
AcDbSymbolTableRecord
100
AcDbLayerTableRecord
  2
CAPC1608N_80000__CAPC160-1188_6
 70
0
 62
7
  6
CONTINUOUS
370
-3
390
F
  0
LAYER
  5
235
100
AcDbSymbolTableRecord
100
AcDbLayerTableRecord
  2
CAPC1608N_80000__CAPC160-1188_7
 70
0
 62
7
  6
CONTINUOUS
370
-3
390
F
  0
LAYER
  5
236
100
AcDbSymbolTableRecord
100
AcDbLayerTableRecord
  2
CAPC1608N_80000__CAPC160-1188_8
 70
0
 62
7
  6
CONTINUOUS
370
-3
390
F
  0
LAYER
  5
237
100
AcDbSymbolTableRecord
100
AcDbLayerTableRecord
  2
CAPC1608N_80000__CAPC160-1188_9
 70
0
 62
7
  6
CONTINUOUS
370
-3
390
F
  0
LAYER
  5
238
100
AcDbSymbolTableRecord
100
AcDbLayerTableRecord
  2
CAPC1608N_80000__CAPC160-118_10
 70
0
 62
7
  6
CONTINUOUS
370
-3
390
F
  0
LAYER
  5
239
100
AcDbSymbolTableRecord
100
AcDbLayerTableRecord
  2
CAPC1608N_80000__CAPC160-118_11
 70
0
 62
7
  6
CONTINUOUS
370
-3
390
F
  0
LAYER
  5
23A
100
AcDbSymbolTableRecord
100
AcDbLayerTableRecord
  2
CAPC1608N_80000__CAPC160-118_12
 70
0
 62
7
  6
CONTINUOUS
370
-3
390
F
  0
LAYER
  5
23B
100
AcDbSymbolTableRecord
100
AcDbLayerTableRecord
  2
CAPC1608N_80000__CAPC160-118_13
 70
0
 62
7
  6
CONTINUOUS
370
-3
390
F
  0
LAYER
  5
23C
100
AcDbSymbolTableRecord
100
AcDbLayerTableRecord
  2
CAPC1608N_80000__CAPC160-118_14
 70
0
 62
7
  6
CONTINUOUS
370
-3
390
F
  0
LAYER
  5
23D
100
AcDbSymbolTableRecord
100
AcDbLayerTableRecord
  2
CAPC1608N_80000__CAPC160-118_15
 70
0
 62
7
  6
CONTINUOUS
370
-3
390
F
  0
LAYER
  5
23E
100
AcDbSymbolTableRecord
100
AcDbLayerTableRecord
  2
CAPC1608N_80000__CAPC160-118_16
 70
0
 62
7
  6
CONTINUOUS
370
-3
390
F
  0
LAYER
  5
23F
100
AcDbSymbolTableRecord
100
AcDbLayerTableRecord
  2
CN-CSF_CSM_2-VIMAR_900000__CN-C
 70
0
 62
7
  6
CONTINUOUS
370
-3
390
F
  0
LAYER
  5
240
100
AcDbSymbolTableRecord
100
AcDbLayerTableRecord
  2
CN-MKDSN2-VIMAR_1500000__CN-MKD
 70
0
 62
7
  6
CONTINUOUS
370
-3
390
F
  0
LAYER
  5
241
100
AcDbSymbolTableRecord
100
AcDbLayerTableRecord
  2
CN1-REF_SQUAREHOLE12_SPE-112392
 70
0
 62
7
  6
CONTINUOUS
370
-3
390
F
  0
LAYER
  5
242
100
AcDbSymbolTableRecord
100
AcDbLayerTableRecord
  2
CN1-REF_SQUAREHOLE12_SPE-1123_1
 70
0
 62
7
  6
CONTINUOUS
370
-3
390
F
  0
LAYER
  5
243
100
AcDbSymbolTableRecord
100
AcDbLayerTableRecord
  2
CN1-REF_SQUAREHOLE12_SPE-1123_2
 70
0
 62
7
  6
CONTINUOUS
370
-3
390
F
  0
LAYER
  5
244
100
AcDbSymbolTableRecord
100
AcDbLayerTableRecord
  2
CN1-REF_SQUAREHOLE12_SPE-1123_3
 70
0
 62
7
  6
CONTINUOUS
370
-3
390
F
  0
LAYER
  5
245
100
AcDbSymbolTableRecord
100
AcDbLayerTableRecord
  2
CN1-REF_SQUAREHOLE12_SPE-121063
 70
0
 62
7
  6
CONTINUOUS
370
-3
390
F
  0
LAYER
  5
246
100
AcDbSymbolTableRecord
100
AcDbLayerTableRecord
  2
CN1-REF_SQUAREHOLE12_SPE-1210_1
 70
0
 62
7
  6
CONTINUOUS
370
-3
390
F
  0
LAYER
  5
247
100
AcDbSymbolTableRecord
100
AcDbLayerTableRecord
  2
CN1-REF_SQUAREHOLE12_SPE-1210_2
 70
0
 62
7
  6
CONTINUOUS
370
-3
390
F
  0
LAYER
  5
248
100
AcDbSymbolTableRecord
100
AcDbLayerTableRecord
  2
CN1-REF_SQUAREHOLE12_SPE-1210_3
 70
0
 62
7
  6
CONTINUOUS
370
-3
390
F
  0
LAYER
  5
249
100
AcDbSymbolTableRecord
100
AcDbLayerTableRecord
  2
CN1-TP15_SMD-VIMAR_5000__CN1-TP
 70
0
 62
7
  6
CONTINUOUS
370
-3
390
F
  0
LAYER
  5
24A
100
AcDbSymbolTableRecord
100
AcDbLayerTableRecord
  2
CN1-TP15_SMD-VIMAR_5000__CN1-_1
 70
0
 62
7
  6
CONTINUOUS
370
-3
390
F
  0
LAYER
  5
24B
100
AcDbSymbolTableRecord
100
AcDbLayerTableRecord
  2
CN1-TP15_SMD-VIMAR_5000__CN1-_2
 70
0
 62
7
  6
CONTINUOUS
370
-3
390
F
  0
LAYER
  5
24C
100
AcDbSymbolTableRecord
100
AcDbLayerTableRecord
  2
CN1-TP15_SMD-VIMAR_5000__CN1-_3
 70
0
 62
7
  6
CONTINUOUS
370
-3
390
F
  0
LAYER
  5
24D
100
AcDbSymbolTableRecord
100
AcDbLayerTableRecord
  2
CN1-TP15_SMD-VIMAR_5000__CN1-_4
 70
0
 62
7
  6
CONTINUOUS
370
-3
390
F
  0
LAYER
  5
24E
100
AcDbSymbolTableRecord
100
AcDbLayerTableRecord
  2
CN1-TP15_SMD-VIMAR_5000__CN1-_5
 70
0
 62
7
  6
CONTINUOUS
370
-3
390
F
  0
LAYER
  5
24F
100
AcDbSymbolTableRecord
100
AcDbLayerTableRecord
  2
CN12-ZIF_P0_5-VIMAR_200000__CN1
 70
0
 62
7
  6
CONTINUOUS
370
-3
390
F
  0
LAYER
  5
250
100
AcDbSymbolTableRecord
100
AcDbLayerTableRecord
  2
COLOR1
 70
0
 62
7
  6
CONTINUOUS
370
-3
390
F
  0
LAYER
  5
251
100
AcDbSymbolTableRecord
100
AcDbLayerTableRecord
  2
COLOR10
 70
0
 62
7
  6
CONTINUOUS
370
-3
390
F
  0
LAYER
  5
252
100
AcDbSymbolTableRecord
100
AcDbLayerTableRecord
  2
COLOR12
 70
0
 62
7
  6
CONTINUOUS
370
-3
390
F
  0
LAYER
  5
253
100
AcDbSymbolTableRecord
100
AcDbLayerTableRecord
  2
COLOR13
 70
0
 62
7
  6
CONTINUOUS
370
-3
390
F
  0
LAYER
  5
254
100
AcDbSymbolTableRecord
100
AcDbLayerTableRecord
  2
COLOR15
 70
0
 62
7
  6
CONTINUOUS
370
-3
390
F
  0
LAYER
  5
255
100
AcDbSymbolTableRecord
100
AcDbLayerTableRecord
  2
COLOR17
 70
0
 62
7
  6
CONTINUOUS
370
-3
390
F
  0
LAYER
  5
256
100
AcDbSymbolTableRecord
100
AcDbLayerTableRecord
  2
COLOR18
 70
0
 62
7
  6
CONTINUOUS
370
-3
390
F
  0
LAYER
  5
257
100
AcDbSymbolTableRecord
100
AcDbLayerTableRecord
  2
COLOR19
 70
0
 62
7
  6
CONTINUOUS
370
-3
390
F
  0
LAYER
  5
258
100
AcDbSymbolTableRecord
100
AcDbLayerTableRecord
  2
COLOR2
 70
0
 62
7
  6
CONTINUOUS
370
-3
390
F
  0
LAYER
  5
259
100
AcDbSymbolTableRecord
100
AcDbLayerTableRecord
  2
COLOR20
 70
0
 62
7
  6
CONTINUOUS
370
-3
390
F
  0
LAYER
  5
25A
100
AcDbSymbolTableRecord
100
AcDbLayerTableRecord
  2
COLOR21
 70
0
 62
7
  6
CONTINUOUS
370
-3
390
F
  0
LAYER
  5
25B
100
AcDbSymbolTableRecord
100
AcDbLayerTableRecord
  2
COLOR22
 70
0
 62
7
  6
CONTINUOUS
370
-3
390
F
  0
LAYER
  5
25C
100
AcDbSymbolTableRecord
100
AcDbLayerTableRecord
  2
COLOR24
 70
0
 62
7
  6
CONTINUOUS
370
-3
390
F
  0
LAYER
  5
25D
100
AcDbSymbolTableRecord
100
AcDbLayerTableRecord
  2
COLOR25
 70
0
 62
7
  6
CONTINUOUS
370
-3
390
F
  0
LAYER
  5
25E
100
AcDbSymbolTableRecord
100
AcDbLayerTableRecord
  2
COLOR27
 70
0
 62
7
  6
CONTINUOUS
370
-3
390
F
  0
LAYER
  5
25F
100
AcDbSymbolTableRecord
100
AcDbLayerTableRecord
  2
COLOR3
 70
0
 62
7
  6
CONTINUOUS
370
-3
390
F
  0
LAYER
  5
260
100
AcDbSymbolTableRecord
100
AcDbLayerTableRecord
  2
COLOR31
 70
0
 62
7
  6
CONTINUOUS
370
-3
390
F
  0
LAYER
  5
261
100
AcDbSymbolTableRecord
100
AcDbLayerTableRecord
  2
COLOR33
 70
0
 62
7
  6
CONTINUOUS
370
-3
390
F
  0
LAYER
  5
262
100
AcDbSymbolTableRecord
100
AcDbLayerTableRecord
  2
COLOR36
 70
0
 62
7
  6
CONTINUOUS
370
-3
390
F
  0
LAYER
  5
263
100
AcDbSymbolTableRecord
100
AcDbLayerTableRecord
  2
COLOR37
 70
0
 62
7
  6
CONTINUOUS
370
-3
390
F
  0
LAYER
  5
264
100
AcDbSymbolTableRecord
100
AcDbLayerTableRecord
  2
COLOR39
 70
0
 62
7
  6
CONTINUOUS
370
-3
390
F
  0
LAYER
  5
265
100
AcDbSymbolTableRecord
100
AcDbLayerTableRecord
  2
COLOR4
 70
0
 62
7
  6
CONTINUOUS
370
-3
390
F
  0
LAYER
  5
266
100
AcDbSymbolTableRecord
100
AcDbLayerTableRecord
  2
COLOR40
 70
0
 62
7
  6
CONTINUOUS
370
-3
390
F
  0
LAYER
  5
267
100
AcDbSymbolTableRecord
100
AcDbLayerTableRecord
  2
COLOR41
 70
0
 62
7
  6
CONTINUOUS
370
-3
390
F
  0
LAYER
  5
268
100
AcDbSymbolTableRecord
100
AcDbLayerTableRecord
  2
COLOR42
 70
0
 62
7
  6
CONTINUOUS
370
-3
390
F
  0
LAYER
  5
269
100
AcDbSymbolTableRecord
100
AcDbLayerTableRecord
  2
COLOR43
 70
0
 62
7
  6
CONTINUOUS
370
-3
390
F
  0
LAYER
  5
26A
100
AcDbSymbolTableRecord
100
AcDbLayerTableRecord
  2
COLOR44
 70
0
 62
7
  6
CONTINUOUS
370
-3
390
F
  0
LAYER
  5
26B
100
AcDbSymbolTableRecord
100
AcDbLayerTableRecord
  2
COLOR45
 70
0
 62
7
  6
CONTINUOUS
370
-3
390
F
  0
LAYER
  5
26C
100
AcDbSymbolTableRecord
100
AcDbLayerTableRecord
  2
COLOR46
 70
0
 62
7
  6
CONTINUOUS
370
-3
390
F
  0
LAYER
  5
26D
100
AcDbSymbolTableRecord
100
AcDbLayerTableRecord
  2
COLOR47
 70
0
 62
7
  6
CONTINUOUS
370
-3
390
F
  0
LAYER
  5
26E
100
AcDbSymbolTableRecord
100
AcDbLayerTableRecord
  2
COLOR48
 70
0
 62
7
  6
CONTINUOUS
370
-3
390
F
  0
LAYER
  5
26F
100
AcDbSymbolTableRecord
100
AcDbLayerTableRecord
  2
COLOR49
 70
0
 62
7
  6
CONTINUOUS
370
-3
390
F
  0
LAYER
  5
270
100
AcDbSymbolTableRecord
100
AcDbLayerTableRecord
  2
COLOR50
 70
0
 62
7
  6
CONTINUOUS
370
-3
390
F
  0
LAYER
  5
271
100
AcDbSymbolTableRecord
100
AcDbLayerTableRecord
  2
COLOR51
 70
0
 62
7
  6
CONTINUOUS
370
-3
390
F
  0
LAYER
  5
272
100
AcDbSymbolTableRecord
100
AcDbLayerTableRecord
  2
COLOR52
 70
0
 62
7
  6
CONTINUOUS
370
-3
390
F
  0
LAYER
  5
273
100
AcDbSymbolTableRecord
100
AcDbLayerTableRecord
  2
COLOR53
 70
0
 62
7
  6
CONTINUOUS
370
-3
390
F
  0
LAYER
  5
274
100
AcDbSymbolTableRecord
100
AcDbLayerTableRecord
  2
COLOR54
 70
0
 62
7
  6
CONTINUOUS
370
-3
390
F
  0
LAYER
  5
275
100
AcDbSymbolTableRecord
100
AcDbLayerTableRecord
  2
COLOR55
 70
0
 62
7
  6
CONTINUOUS
370
-3
390
F
  0
LAYER
  5
276
100
AcDbSymbolTableRecord
100
AcDbLayerTableRecord
  2
COLOR56
 70
0
 62
7
  6
CONTINUOUS
370
-3
390
F
  0
LAYER
  5
277
100
AcDbSymbolTableRecord
100
AcDbLayerTableRecord
  2
COLOR57
 70
0
 62
7
  6
CONTINUOUS
370
-3
390
F
  0
LAYER
  5
278
100
AcDbSymbolTableRecord
100
AcDbLayerTableRecord
  2
COLOR58
 70
0
 62
7
  6
CONTINUOUS
370
-3
390
F
  0
LAYER
  5
279
100
AcDbSymbolTableRecord
100
AcDbLayerTableRecord
  2
COLOR59
 70
0
 62
7
  6
CONTINUOUS
370
-3
390
F
  0
LAYER
  5
27A
100
AcDbSymbolTableRecord
100
AcDbLayerTableRecord
  2
COLOR60
 70
0
 62
7
  6
CONTINUOUS
370
-3
390
F
  0
LAYER
  5
27B
100
AcDbSymbolTableRecord
100
AcDbLayerTableRecord
  2
COLOR61
 70
0
 62
7
  6
CONTINUOUS
370
-3
390
F
  0
LAYER
  5
27C
100
AcDbSymbolTableRecord
100
AcDbLayerTableRecord
  2
COLOR62
 70
0
 62
7
  6
CONTINUOUS
370
-3
390
F
  0
LAYER
  5
27D
100
AcDbSymbolTableRecord
100
AcDbLayerTableRecord
  2
COLOR63
 70
0
 62
7
  6
CONTINUOUS
370
-3
390
F
  0
LAYER
  5
27E
100
AcDbSymbolTableRecord
100
AcDbLayerTableRecord
  2
COLOR64
 70
0
 62
7
  6
CONTINUOUS
370
-3
390
F
  0
LAYER
  5
27F
100
AcDbSymbolTableRecord
100
AcDbLayerTableRecord
  2
COLOR65
 70
0
 62
7
  6
CONTINUOUS
370
-3
390
F
  0
LAYER
  5
280
100
AcDbSymbolTableRecord
100
AcDbLayerTableRecord
  2
COLORE_MATERIALE
 70
0
 62
7
  6
CONTINUOUS
370
-3
390
F
  0
LAYER
  5
281
100
AcDbSymbolTableRecord
100
AcDbLayerTableRecord
  2
COORDINATE
 70
0
 62
7
  6
CONTINUOUS
370
-3
390
F
  0
LAYER
  5
282
100
AcDbSymbolTableRecord
100
AcDbLayerTableRecord
  2
COORD_ORIGINE
 70
0
 62
7
  6
CONTINUOUS
370
-3
390
F
  0
LAYER
  5
283
100
AcDbSymbolTableRecord
100
AcDbLayerTableRecord
  2
COPY_PUBLISH
 70
0
 62
7
  6
CONTINUOUS
370
-3
390
F
  0
LAYER
  5
284
100
AcDbSymbolTableRecord
100
AcDbLayerTableRecord
  2
COSMETIC
 70
0
 62
7
  6
CONTINUOUS
370
-3
390
F
  0
LAYER
  5
285
100
AcDbSymbolTableRecord
100
AcDbLayerTableRecord
  2
CP-CE2-RF_570000__CP-CE2-RF_570
 70
0
 62
7
  6
CONTINUOUS
370
-3
390
F
  0
LAYER
  5
286
100
AcDbSymbolTableRecord
100
AcDbLayerTableRecord
  2
CP-CE2-RF_570000__CP-CE2-RF_5_1
 70
0
 62
7
  6
CONTINUOUS
370
-3
390
F
  0
LAYER
  5
287
100
AcDbSymbolTableRecord
100
AcDbLayerTableRecord
  2
CP-CE5-RF_650000__CP-CE5-RF_650
 70
0
 62
7
  6
CONTINUOUS
370
-3
390
F
  0
LAYER
  5
288
100
AcDbSymbolTableRecord
100
AcDbLayerTableRecord
  2
CP-CE5-RF_650000__CP-CE5-RF_6_1
 70
0
 62
7
  6
CONTINUOUS
370
-3
390
F
  0
LAYER
  5
289
100
AcDbSymbolTableRecord
100
AcDbLayerTableRecord
  2
CP-DO-214AC-D-VIMAR_240000__CP-
 70
0
 62
7
  6
CONTINUOUS
370
-3
390
F
  0
LAYER
  5
28A
100
AcDbSymbolTableRecord
100
AcDbLayerTableRecord
  2
CP-DO-214AC-VIMAR_240000__CP-DO
 70
0
 62
7
  6
CONTINUOUS
370
-3
390
F
  0
LAYER
  5
28B
100
AcDbSymbolTableRecord
100
AcDbLayerTableRecord
  2
CP-DO-214AC-VIMAR_240000__CP-_1
 70
0
 62
7
  6
CONTINUOUS
370
-3
390
F
  0
LAYER
  5
28C
100
AcDbSymbolTableRecord
100
AcDbLayerTableRecord
  2
CP-L3-RF-VIMAR_180000__CP-L3-RF
 70
0
 62
7
  6
CONTINUOUS
370
-3
390
F
  0
LAYER
  5
28D
100
AcDbSymbolTableRecord
100
AcDbLayerTableRecord
  2
CURVE
 70
0
 62
7
  6
CONTINUOUS
370
-3
390
F
  0
LAYER
  5
28E
100
AcDbSymbolTableRecord
100
AcDbLayerTableRecord
  2
DRAFT
 70
0
 62
7
  6
CONTINUOUS
370
-3
390
F
  0
LAYER
  5
28F
100
AcDbSymbolTableRecord
100
AcDbLayerTableRecord
  2
E4_MARK_10000__E4_MARK_10000_11
 70
0
 62
7
  6
CONTINUOUS
370
-3
390
F
  0
LAYER
  5
290
100
AcDbSymbolTableRecord
100
AcDbLayerTableRecord
  2
E4_MARK_10000__E4_MARK_10000_32
 70
0
 62
7
  6
CONTINUOUS
370
-3
390
F
  0
LAYER
  5
291
100
AcDbSymbolTableRecord
100
AcDbLayerTableRecord
  2
IGES
 70
0
 62
7
  6
CONTINUOUS
370
-3
390
F
  0
LAYER
  5
292
100
AcDbSymbolTableRecord
100
AcDbLayerTableRecord
  2
IGES_SCRITTE
 70
0
 62
7
  6
CONTINUOUS
370
-3
390
F
  0
LAYER
  5
293
100
AcDbSymbolTableRecord
100
AcDbLayerTableRecord
  2
IMPORT_IGES
 70
0
 62
7
  6
CONTINUOUS
370
-3
390
F
  0
LAYER
  5
294
100
AcDbSymbolTableRecord
100
AcDbLayerTableRecord
  2
INDC1711X100L_100000__INDC1711X
 70
0
 62
7
  6
CONTINUOUS
370
-3
390
F
  0
LAYER
  5
295
100
AcDbSymbolTableRecord
100
AcDbLayerTableRecord
  2
INTF_11
 70
0
 62
7
  6
CONTINUOUS
370
-3
390
F
  0
LAYER
  5
296
100
AcDbSymbolTableRecord
100
AcDbLayerTableRecord
  2
INTF_BLUE
 70
0
 62
7
  6
CONTINUOUS
370
-3
390
F
  0
LAYER
  5
297
100
AcDbSymbolTableRecord
100
AcDbLayerTableRecord
  2
INTF_CYAN
 70
0
 62
7
  6
CONTINUOUS
370
-3
390
F
  0
LAYER
  5
298
100
AcDbSymbolTableRecord
100
AcDbLayerTableRecord
  2
INTF_GREEN
 70
0
 62
7
  6
CONTINUOUS
370
-3
390
F
  0
LAYER
  5
299
100
AcDbSymbolTableRecord
100
AcDbLayerTableRecord
  2
INTF_MAGENTA
 70
0
 62
7
  6
CONTINUOUS
370
-3
390
F
  0
LAYER
  5
29A
100
AcDbSymbolTableRecord
100
AcDbLayerTableRecord
  2
LOGO_RESIST-RESTYLING_10000__LO
 70
0
 62
7
  6
CONTINUOUS
370
-3
390
F
  0
LAYER
  5
29B
100
AcDbSymbolTableRecord
100
AcDbLayerTableRecord
  2
L_SRR0604-RF-VIMAR_480000__L_SR
 70
0
 62
7
  6
CONTINUOUS
370
-3
390
F
  0
LAYER
  5
29C
100
AcDbSymbolTableRecord
100
AcDbLayerTableRecord
  2
MC-406_360000__MC-406_360000_74
 70
0
 62
7
  6
CONTINUOUS
370
-3
390
F
  0
LAYER
  5
29D
100
AcDbSymbolTableRecord
100
AcDbLayerTableRecord
  2
MM2-SWITCH-1-VIMAR_150000__MM2-
 70
0
 62
7
  6
CONTINUOUS
370
-3
390
F
  0
LAYER
  5
29E
100
AcDbSymbolTableRecord
100
AcDbLayerTableRecord
  2
MM3-MPAK-RF-VIMAR_120000-109521
 70
0
 62
7
  6
CONTINUOUS
370
-3
390
F
  0
LAYER
  5
29F
100
AcDbSymbolTableRecord
100
AcDbLayerTableRecord
  2
MM3-MPAK-RF-VIMAR_120000-1095_1
 70
0
 62
7
  6
CONTINUOUS
370
-3
390
F
  0
LAYER
  5
2A0
100
AcDbSymbolTableRecord
100
AcDbLayerTableRecord
  2
MM3-MPAK-RF-VIMAR_120000-1095_2
 70
0
 62
7
  6
CONTINUOUS
370
-3
390
F
  0
LAYER
  5
2A1
100
AcDbSymbolTableRecord
100
AcDbLayerTableRecord
  2
MM3-MPAK-RF-VIMAR_120000-1095_3
 70
0
 62
7
  6
CONTINUOUS
370
-3
390
F
  0
LAYER
  5
2A2
100
AcDbSymbolTableRecord
100
AcDbLayerTableRecord
  2
MM3-MPAK-RF-VIMAR_120000-1095_4
 70
0
 62
7
  6
CONTINUOUS
370
-3
390
F
  0
LAYER
  5
2A3
100
AcDbSymbolTableRecord
100
AcDbLayerTableRecord
  2
MM3-MPAK-RF-VIMAR_120000-1095_5
 70
0
 62
7
  6
CONTINUOUS
370
-3
390
F
  0
LAYER
  5
2A4
100
AcDbSymbolTableRecord
100
AcDbLayerTableRecord
  2
MM3-MPAK-RF-VIMAR_120000-1095_6
 70
0
 62
7
  6
CONTINUOUS
370
-3
390
F
  0
LAYER
  5
2A5
100
AcDbSymbolTableRecord
100
AcDbLayerTableRecord
  2
MM3-MPAK-RF-VIMAR_120000-1095_7
 70
0
 62
7
  6
CONTINUOUS
370
-3
390
F
  0
LAYER
  5
2A6
100
AcDbSymbolTableRecord
100
AcDbLayerTableRecord
  2
MM3-MPAK-RF-VIMAR_120000-1095_8
 70
0
 62
7
  6
CONTINUOUS
370
-3
390
F
  0
LAYER
  5
2A7
100
AcDbSymbolTableRecord
100
AcDbLayerTableRecord
  2
MM3-MPAK-RF-VIMAR_120000-1095_9
 70
0
 62
7
  6
CONTINUOUS
370
-3
390
F
  0
LAYER
  5
2A8
100
AcDbSymbolTableRecord
100
AcDbLayerTableRecord
  2
MM3-MPAK-RF-VIMAR_120000-109_10
 70
0
 62
7
  6
CONTINUOUS
370
-3
390
F
  0
LAYER
  5
2A9
100
AcDbSymbolTableRecord
100
AcDbLayerTableRecord
  2
MM3-MPAK-RF-VIMAR_120000-109_11
 70
0
 62
7
  6
CONTINUOUS
370
-3
390
F
  0
LAYER
  5
2AA
100
AcDbSymbolTableRecord
100
AcDbLayerTableRecord
  2
MM3-MPAK-RF-VIMAR_120000-109_12
 70
0
 62
7
  6
CONTINUOUS
370
-3
390
F
  0
LAYER
  5
2AB
100
AcDbSymbolTableRecord
100
AcDbLayerTableRecord
  2
MM3-MPAK-RF-VIMAR_120000-109_13
 70
0
 62
7
  6
CONTINUOUS
370
-3
390
F
  0
LAYER
  5
2AC
100
AcDbSymbolTableRecord
100
AcDbLayerTableRecord
  2
MM3-MPAK-RF-VIMAR_120000-121861
 70
0
 62
7
  6
CONTINUOUS
370
-3
390
F
  0
LAYER
  5
2AD
100
AcDbSymbolTableRecord
100
AcDbLayerTableRecord
  2
MM3-MPAK-RF-VIMAR_120000-1218_1
 70
0
 62
7
  6
CONTINUOUS
370
-3
390
F
  0
LAYER
  5
2AE
100
AcDbSymbolTableRecord
100
AcDbLayerTableRecord
  2
MM3-MPAK-RF-VIMAR_120000-1218_2
 70
0
 62
7
  6
CONTINUOUS
370
-3
390
F
  0
LAYER
  5
2AF
100
AcDbSymbolTableRecord
100
AcDbLayerTableRecord
  2
MM3-SOT-223-RF-VIMAR_180000__MM
 70
0
 62
7
  6
CONTINUOUS
370
-3
390
F
  0
LAYER
  5
2B0
100
AcDbSymbolTableRecord
100
AcDbLayerTableRecord
  2
MM3-SOT-89-RF-VIMAR_150000__MM3
 70
0
 62
7
  6
CONTINUOUS
370
-3
390
F
  0
LAYER
  5
2B1
100
AcDbSymbolTableRecord
100
AcDbLayerTableRecord
  2
MM4-X-7-VIMAR_130000__MM4-X-7-V
 70
0
 62
7
  6
CONTINUOUS
370
-3
390
F
  0
LAYER
  5
2B2
100
AcDbSymbolTableRecord
100
AcDbLayerTableRecord
  2
MM5-FMT-RF_120000__MM5-F-111658
 70
0
 62
7
  6
CONTINUOUS
370
-3
390
F
  0
LAYER
  5
2B3
100
AcDbSymbolTableRecord
100
AcDbLayerTableRecord
  2
MM5-FMT-RF_120000__MM5-F-120835
 70
0
 62
7
  6
CONTINUOUS
370
-3
390
F
  0
LAYER
  5
2B4
100
AcDbSymbolTableRecord
100
AcDbLayerTableRecord
  2
MSOP8-T1-RF-VIMAR_86000__MSOP8-
 70
0
 62
7
  6
CONTINUOUS
370
-3
390
F
  0
LAYER
  5
2B5
100
AcDbSymbolTableRecord
100
AcDbLayerTableRecord
  2
NO-PB_MARK_10000__NO-PB_-108041
 70
0
 62
7
  6
CONTINUOUS
370
-3
390
F
  0
LAYER
  5
2B6
100
AcDbSymbolTableRecord
100
AcDbLayerTableRecord
  2
NO-PB_MARK_10000__NO-PB_-119383
 70
0
 62
7
  6
CONTINUOUS
370
-3
390
F
  0
LAYER
  5
2B7
100
AcDbSymbolTableRecord
100
AcDbLayerTableRecord
  2
NOTE
 70
0
 62
7
  6
CONTINUOUS
370
-3
390
F
  0
LAYER
  5
2B8
100
AcDbSymbolTableRecord
100
AcDbLayerTableRecord
  2
PIANI
 70
0
 62
7
  6
CONTINUOUS
370
-3
390
F
  0
LAYER
  5
2B9
100
AcDbSymbolTableRecord
100
AcDbLayerTableRecord
  2
PIANI_DI_RIFERIMENTO
 70
0
 62
7
  6
CONTINUOUS
370
-3
390
F
  0
LAYER
  5
2BA
100
AcDbSymbolTableRecord
100
AcDbLayerTableRecord
  2
PIANI_ORIGINE
 70
0
 62
7
  6
CONTINUOUS
370
-3
390
F
  0
LAYER
  5
2BB
100
AcDbSymbolTableRecord
100
AcDbLayerTableRecord
  2
PIPPO
 70
0
 62
7
  6
CONTINUOUS
370
-3
390
F
  0
LAYER
  5
2BC
100
AcDbSymbolTableRecord
100
AcDbLayerTableRecord
  2
PUBLISHED_GEOMETRY
 70
0
 62
7
  6
CONTINUOUS
370
-3
390
F
  0
LAYER
  5
2BD
100
AcDbSymbolTableRecord
100
AcDbLayerTableRecord
  2
PUNTI
 70
0
 62
7
  6
CONTINUOUS
370
-3
390
F
  0
LAYER
  5
2BE
100
AcDbSymbolTableRecord
100
AcDbLayerTableRecord
  2
RACCORDO
 70
0
 62
7
  6
CONTINUOUS
370
-3
390
F
  0
LAYER
  5
2BF
100
AcDbSymbolTableRecord
100
AcDbLayerTableRecord
  2
RD-C25-NTC-1-VIMAR_1800000__RD-
 70
0
 62
7
  6
CONTINUOUS
370
-3
390
F
  0
LAYER
  5
2C0
100
AcDbSymbolTableRecord
100
AcDbLayerTableRecord
  2
RESC1608N_45000__RESC160-112651
 70
0
 62
7
  6
CONTINUOUS
370
-3
390
F
  0
LAYER
  5
2C1
100
AcDbSymbolTableRecord
100
AcDbLayerTableRecord
  2
RESC1608N_45000__RESC160-1126_1
 70
0
 62
7
  6
CONTINUOUS
370
-3
390
F
  0
LAYER
  5
2C2
100
AcDbSymbolTableRecord
100
AcDbLayerTableRecord
  2
RESC1608N_45000__RESC160-1126_2
 70
0
 62
7
  6
CONTINUOUS
370
-3
390
F
  0
LAYER
  5
2C3
100
AcDbSymbolTableRecord
100
AcDbLayerTableRecord
  2
RESC1608N_45000__RESC160-1126_3
 70
0
 62
7
  6
CONTINUOUS
370
-3
390
F
  0
LAYER
  5
2C4
100
AcDbSymbolTableRecord
100
AcDbLayerTableRecord
  2
RESC1608N_45000__RESC160-1126_4
 70
0
 62
7
  6
CONTINUOUS
370
-3
390
F
  0
LAYER
  5
2C5
100
AcDbSymbolTableRecord
100
AcDbLayerTableRecord
  2
RESC1608N_45000__RESC160-1126_5
 70
0
 62
7
  6
CONTINUOUS
370
-3
390
F
  0
LAYER
  5
2C6
100
AcDbSymbolTableRecord
100
AcDbLayerTableRecord
  2
RESC1608N_45000__RESC160-1126_6
 70
0
 62
7
  6
CONTINUOUS
370
-3
390
F
  0
LAYER
  5
2C7
100
AcDbSymbolTableRecord
100
AcDbLayerTableRecord
  2
RESC1608N_45000__RESC160-1126_7
 70
0
 62
7
  6
CONTINUOUS
370
-3
390
F
  0
LAYER
  5
2C8
100
AcDbSymbolTableRecord
100
AcDbLayerTableRecord
  2
RESC1608N_45000__RESC160-1126_8
 70
0
 62
7
  6
CONTINUOUS
370
-3
390
F
  0
LAYER
  5
2C9
100
AcDbSymbolTableRecord
100
AcDbLayerTableRecord
  2
RESC1608N_45000__RESC160-1126_9
 70
0
 62
7
  6
CONTINUOUS
370
-3
390
F
  0
LAYER
  5
2CA
100
AcDbSymbolTableRecord
100
AcDbLayerTableRecord
  2
RESC1608N_45000__RESC160-112_10
 70
0
 62
7
  6
CONTINUOUS
370
-3
390
F
  0
LAYER
  5
2CB
100
AcDbSymbolTableRecord
100
AcDbLayerTableRecord
  2
RESC1608N_45000__RESC160-112_11
 70
0
 62
7
  6
CONTINUOUS
370
-3
390
F
  0
LAYER
  5
2CC
100
AcDbSymbolTableRecord
100
AcDbLayerTableRecord
  2
RESC1608N_45000__RESC160-112_12
 70
0
 62
7
  6
CONTINUOUS
370
-3
390
F
  0
LAYER
  5
2CD
100
AcDbSymbolTableRecord
100
AcDbLayerTableRecord
  2
RESC1608N_45000__RESC160-112_13
 70
0
 62
7
  6
CONTINUOUS
370
-3
390
F
  0
LAYER
  5
2CE
100
AcDbSymbolTableRecord
100
AcDbLayerTableRecord
  2
RESC1608N_45000__RESC160-112_14
 70
0
 62
7
  6
CONTINUOUS
370
-3
390
F
  0
LAYER
  5
2CF
100
AcDbSymbolTableRecord
100
AcDbLayerTableRecord
  2
RESC1608N_45000__RESC160-112_15
 70
0
 62
7
  6
CONTINUOUS
370
-3
390
F
  0
LAYER
  5
2D0
100
AcDbSymbolTableRecord
100
AcDbLayerTableRecord
  2
RESC1608N_45000__RESC160-112_16
 70
0
 62
7
  6
CONTINUOUS
370
-3
390
F
  0
LAYER
  5
2D1
100
AcDbSymbolTableRecord
100
AcDbLayerTableRecord
  2
RESC1608N_45000__RESC160-112_17
 70
0
 62
7
  6
CONTINUOUS
370
-3
390
F
  0
LAYER
  5
2D2
100
AcDbSymbolTableRecord
100
AcDbLayerTableRecord
  2
RESC1608N_45000__RESC160-112_18
 70
0
 62
7
  6
CONTINUOUS
370
-3
390
F
  0
LAYER
  5
2D3
100
AcDbSymbolTableRecord
100
AcDbLayerTableRecord
  2
RESC1608N_45000__RESC160-112_19
 70
0
 62
7
  6
CONTINUOUS
370
-3
390
F
  0
LAYER
  5
2D4
100
AcDbSymbolTableRecord
100
AcDbLayerTableRecord
  2
RESC1608N_45000__RESC160-112_20
 70
0
 62
7
  6
CONTINUOUS
370
-3
390
F
  0
LAYER
  5
2D5
100
AcDbSymbolTableRecord
100
AcDbLayerTableRecord
  2
RESC1608N_45000__RESC160-112_21
 70
0
 62
7
  6
CONTINUOUS
370
-3
390
F
  0
LAYER
  5
2D6
100
AcDbSymbolTableRecord
100
AcDbLayerTableRecord
  2
RESC1608N_45000__RESC160-112_22
 70
0
 62
7
  6
CONTINUOUS
370
-3
390
F
  0
LAYER
  5
2D7
100
AcDbSymbolTableRecord
100
AcDbLayerTableRecord
  2
RESC1608N_45000__RESC160-112_23
 70
0
 62
7
  6
CONTINUOUS
370
-3
390
F
  0
LAYER
  5
2D8
100
AcDbSymbolTableRecord
100
AcDbLayerTableRecord
  2
RESC1608N_45000__RESC160-112_24
 70
0
 62
7
  6
CONTINUOUS
370
-3
390
F
  0
LAYER
  5
2D9
100
AcDbSymbolTableRecord
100
AcDbLayerTableRecord
  2
RESC1608N_45000__RESC160-112_25
 70
0
 62
7
  6
CONTINUOUS
370
-3
390
F
  0
LAYER
  5
2DA
100
AcDbSymbolTableRecord
100
AcDbLayerTableRecord
  2
RESC1608N_45000__RESC160-112_26
 70
0
 62
7
  6
CONTINUOUS
370
-3
390
F
  0
LAYER
  5
2DB
100
AcDbSymbolTableRecord
100
AcDbLayerTableRecord
  2
RESC1608N_45000__RESC160-121327
 70
0
 62
7
  6
CONTINUOUS
370
-3
390
F
  0
LAYER
  5
2DC
100
AcDbSymbolTableRecord
100
AcDbLayerTableRecord
  2
RESC1608N_45000__RESC160-1213_1
 70
0
 62
7
  6
CONTINUOUS
370
-3
390
F
  0
LAYER
  5
2DD
100
AcDbSymbolTableRecord
100
AcDbLayerTableRecord
  2
RESC1608N_45000__RESC160-1213_2
 70
0
 62
7
  6
CONTINUOUS
370
-3
390
F
  0
LAYER
  5
2DE
100
AcDbSymbolTableRecord
100
AcDbLayerTableRecord
  2
RESC1608N_45000__RESC160-1213_3
 70
0
 62
7
  6
CONTINUOUS
370
-3
390
F
  0
LAYER
  5
2DF
100
AcDbSymbolTableRecord
100
AcDbLayerTableRecord
  2
RESC1608N_45000__RESC160-1213_4
 70
0
 62
7
  6
CONTINUOUS
370
-3
390
F
  0
LAYER
  5
2E0
100
AcDbSymbolTableRecord
100
AcDbLayerTableRecord
  2
RESC1608N_45000__RESC160-1213_5
 70
0
 62
7
  6
CONTINUOUS
370
-3
390
F
  0
LAYER
  5
2E1
100
AcDbSymbolTableRecord
100
AcDbLayerTableRecord
  2
RESC1608N_45000__RESC160-1213_6
 70
0
 62
7
  6
CONTINUOUS
370
-3
390
F
  0
LAYER
  5
2E2
100
AcDbSymbolTableRecord
100
AcDbLayerTableRecord
  2
RESC1608N_45000__RESC160-1213_7
 70
0
 62
7
  6
CONTINUOUS
370
-3
390
F
  0
LAYER
  5
2E3
100
AcDbSymbolTableRecord
100
AcDbLayerTableRecord
  2
RESC1608N_45000__RESC160-1213_8
 70
0
 62
7
  6
CONTINUOUS
370
-3
390
F
  0
LAYER
  5
2E4
100
AcDbSymbolTableRecord
100
AcDbLayerTableRecord
  2
RESC1608N_45000__RESC160-1213_9
 70
0
 62
7
  6
CONTINUOUS
370
-3
390
F
  0
LAYER
  5
2E5
100
AcDbSymbolTableRecord
100
AcDbLayerTableRecord
  2
RESC1608N_45000__RESC160-121_10
 70
0
 62
7
  6
CONTINUOUS
370
-3
390
F
  0
LAYER
  5
2E6
100
AcDbSymbolTableRecord
100
AcDbLayerTableRecord
  2
RESC1608N_45000__RESC160-121_11
 70
0
 62
7
  6
CONTINUOUS
370
-3
390
F
  0
LAYER
  5
2E7
100
AcDbSymbolTableRecord
100
AcDbLayerTableRecord
  2
RESC1608N_45000__RESC160-121_12
 70
0
 62
7
  6
CONTINUOUS
370
-3
390
F
  0
LAYER
  5
2E8
100
AcDbSymbolTableRecord
100
AcDbLayerTableRecord
  2
RESC1608N_45000__RESC160-121_13
 70
0
 62
7
  6
CONTINUOUS
370
-3
390
F
  0
LAYER
  5
2E9
100
AcDbSymbolTableRecord
100
AcDbLayerTableRecord
  2
RESC1608N_45000__RESC160-121_14
 70
0
 62
7
  6
CONTINUOUS
370
-3
390
F
  0
LAYER
  5
2EA
100
AcDbSymbolTableRecord
100
AcDbLayerTableRecord
  2
RESC1608N_45000__RESC160-121_15
 70
0
 62
7
  6
CONTINUOUS
370
-3
390
F
  0
LAYER
  5
2EB
100
AcDbSymbolTableRecord
100
AcDbLayerTableRecord
  2
RESC1608N_45000__RESC160-121_16
 70
0
 62
7
  6
CONTINUOUS
370
-3
390
F
  0
LAYER
  5
2EC
100
AcDbSymbolTableRecord
100
AcDbLayerTableRecord
  2
SMUSSO
 70
0
 62
7
  6
CONTINUOUS
370
-3
390
F
  0
LAYER
  5
2ED
100
AcDbSymbolTableRecord
100
AcDbLayerTableRecord
  2
SOP8-T1-RF-FINE-VIMAR_150000__S
 70
0
 62
7
  6
CONTINUOUS
370
-3
390
F
  0
LAYER
  5
2EE
100
AcDbSymbolTableRecord
100
AcDbLayerTableRecord
  2
SUPERFICI
 70
0
 62
7
  6
CONTINUOUS
370
-3
390
F
  0
LAYER
  5
2EF
100
AcDbSymbolTableRecord
100
AcDbLayerTableRecord
  2
TQFP48-F1-RF-VIMAR_160000__TQFP
 70
0
 62
7
  6
CONTINUOUS
370
-3
390
F
  0
LAYER
  5
2F0
100
AcDbSymbolTableRecord
100
AcDbLayerTableRecord
  2
TRASH
 70
0
 62
7
  6
CONTINUOUS
370
-3
390
F
  0
LAYER
  5
2F1
100
AcDbSymbolTableRecord
100
AcDbLayerTableRecord
  2
XSEC_DATUMS
 70
0
 62
7
  6
CONTINUOUS
370
-3
390
F
  0
LAYER
  5
2F2
100
AcDbSymbolTableRecord
100
AcDbLayerTableRecord
  2
___SHELL
 70
0
 62
7
  6
CONTINUOUS
370
-3
390
F
  0
ENDTAB
  0
TABLE
  2
STYLE
  5
3
100
AcDbSymbolTable
 70
1
  0
STYLE
  5
11
100
AcDbSymbolTableRecord
100
AcDbTextStyleTableRecord
  2
STANDARD
 70
0
 40
0.0
 41
0.8
 50
0.0
 71
0
 42
0.2
  3
txt
  4

  0
STYLE
  5
2F3
100
AcDbSymbolTableRecord
100
AcDbTextStyleTableRecord
  2
TEXTSTYLE_1
 70
0
 40
0.0
 41
0.8
 50
0.0
 71
0
 42
0.2
  3
gdt
  4

  0
ENDTAB
  0
TABLE
  2
VIEW
  5
6
100
AcDbSymbolTable
 70
0
  0
ENDTAB
  0
TABLE
  2
UCS
  5
7
100
AcDbSymbolTable
 70
0
  0
ENDTAB
  0
TABLE
  2
APPID
  5
9
100
AcDbSymbolTable
 70
1
  0
APPID
  5
2F4
100
AcDbSymbolTableRecord
100
AcDbRegAppTableRecord
  2
ACAD
 70
0
  0
ENDTAB
  0
TABLE
  2
BLOCK_RECORD
  5
1
100
AcDbSymbolTable
 70
0
  0
BLOCK_RECORD
  5
2F5
100
AcDbSymbolTableRecord
100
AcDbBlockTableRecord
  2
*Model_Space
  0
BLOCK_RECORD
  5
2F6
100
AcDbSymbolTableRecord
100
AcDbBlockTableRecord
  2
*Paper_Space
  0
ENDTAB
  0
TABLE
  2
DIMSTYLE
  5
A
100
AcDbSymbolTable
 70
1
100
AcDbDimStyleTable
 71
0
  0
DIMSTYLE
105
2F7
100
AcDbSymbolTableRecord
100
AcDbDimStyleTableRecord
  2
STANDARD
 70
0
  3

  4

 40
1.0
 41
3.0
 42
0.5
 43
0.38
 44
1.5
 45
0.0
 46
0.0
 47
0.01
 48
0.01
140
3.0
141
0.09
142
0.0
143
25.4
144
1.0
145
0.0
146
1.0
147
0.625
 71
1.0
 72
0.0
 73
0
 74
0
 75
0
 76
0
 77
1
 78
8
170
0
171
2
172
0
173
0
174
0
175
0
176
0
177
0
178
0
270
2
271
2
272
2
273
2
274
2
275
0
280
0
281
0
282
0
283
1
284
8
285
0
286
0
287
3
288
0
340
11
278
44
  0
ENDTAB
  0
ENDSEC
  0
SECTION
  2
BLOCKS
  0
BLOCK
  5
20
100
AcDbEntity
  8
0
100
AcDbBlockBegin
  2
*Model_Space
 70
0
 10
0.0
 20
0.0
 30
0.0
  3
*Model_Space
  1

  0
ENDBLK
  5
21
100
AcDbEntity
  8
0
100
AcDbBlockEnd
  0
BLOCK
  5
1C
100
AcDbEntity
  8
0
100
AcDbBlockBegin
  2
*Paper_Space
 70
0
 10
0.0
 20
0.0
 30
0.0
  3
*Paper_Space
  1

  0
ENDBLK
  5
1D
100
AcDbEntity
  8
0
100
AcDbBlockEnd
  0
ENDSEC
  0
SECTION
  2
ENTITIES
  0
LWPOLYLINE
  5
2F8
100
AcDbEntity
  8
SUPERFICI
100
AcDbPolyline
 62
253
  6
CONTINUOUS
 90
23
 70
0
 10
110.2742334584
 20
80.8181331286
 10
110.2570673752
 20
80.8280178733
 10
110.2404014456
 20
80.8388382657
 10
110.224253535
 20
80.8505827262
 10
110.2086404733
 20
80.8632389419
 10
110.1935789529
 20
80.8767934222
 10
110.1790851433
 20
80.8912316785
 10
110.1651742012
 20
80.90653847
 10
110.1518610242
 20
80.9226974552
 10
110.1391598673
 20
80.9396914146
 10
110.1270839604
 20
80.9575024353
 10
110.1156462271
 20
80.9761115365
 10
110.1048589257
 20
80.9954989026
 10
110.0947332723
 20
81.0156441148
 10
110.0852800608
 20
81.0365258361
 10
110.0765094848
 20
81.0581217571
 10
110.0684307685
 20
81.080408821
 10
110.0610525856
 20
81.1033631333
 10
110.0543827779
 20
81.1269604327
 10
110.0484282075
 20
81.1511760636
 10
110.0431951832
 20
81.1759844479
 10
110.0386894185
 20
81.201359082
 10
110.0349157558
 20
81.2272730095
  0
LWPOLYLINE
  5
2F9
100
AcDbEntity
  8
SUPERFICI
100
AcDbPolyline
 62
7
  6
CONTINUOUS
 90
9
 70
0
 10
109.9632051319
 20
81.1449987477
 10
109.9928787824
 20
81.0888894458
 10
110.0264794569
 20
81.0364672331
 10
110.0637296074
 20
80.9879087386
 10
110.1046041882
 20
80.9431072317
 10
110.1487682657
 20
80.902357927
 10
110.1958856174
 20
80.8658826899
 10
110.2459913391
 20
80.8336328337
 10
110.2850833708
 20
80.8124974821
  0
LWPOLYLINE
  5
2FA
100
AcDbEntity
  8
SUPERFICI
100
AcDbPolyline
 62
7
  6
CONTINUOUS
 90
16
 70
0
 10
129.0136810409
 20
74.3187311406
 10
129.0079423576
 20
74.31994883
 10
129.002016638
 20
74.3212669043
 10
128.9959051564
 20
74.3226814804
 10
128.9896065801
 20
74.3241847451
 10
128.9831255248
 20
74.3257761902
 10
128.9764724972
 20
74.3274626397
 10
128.9696496126
 20
74.3292393096
 10
128.9626594103
 20
74.3311016246
 10
128.9555132936
 20
74.3330564974
 10
128.9482141093
 20
74.3350986442
 10
128.9407650915
 20
74.3372229627
 10
128.933178483
 20
74.3394364146
 10
128.9254578876
 20
74.3417332237
 10
128.9176072521
 20
74.3441077712
 10
128.9096395922
 20
74.3465670292
  0
LWPOLYLINE
  5
2FB
100
AcDbEntity
  8
SUPERFICI
100
AcDbPolyline
 62
7
  6
CONTINUOUS
 90
3
 70
0
 10
128.9096395922
 20
74.3465670292
 10
128.893370981
 20
74.3517147914
 10
128.8850885269
 20
74.3544040791
  0
LWPOLYLINE
  5
2FC
100
AcDbEntity
  8
SUPERFICI
100
AcDbPolyline
 62
7
  6
CONTINUOUS
 90
3
 70
0
 10
128.8850885269
 20
74.3544040791
 10
128.8682620258
 20
74.3599936103
 10
128.859738039
 20
74.3628939955
  0
LWPOLYLINE
  5
2FD
100
AcDbEntity
  8
SUPERFICI
100
AcDbPolyline
 62
7
  6
CONTINUOUS
 90
6
 70
0
 10
128.859738039
 20
74.3628939955
 10
128.8425073095
 20
74.3688841981
 10
128.8338222413
 20
74.3719734172
 10
128.8251026188
 20
74.3751200046
 10
128.8163555546
 20
74.3783163349
 10
128.8075972728
 20
74.3815685732
  0
LWPOLYLINE
  5
2FE
100
AcDbEntity
  8
SUPERFICI
100
AcDbPolyline
 62
7
  6
CONTINUOUS
 90
9
 70
0
 10
128.0149117696
 20
72.9925550031
 10
128.0431054817
 20
72.9805583646
 10
128.0729892308
 20
72.9720035797
 10
128.1040552415
 20
72.9671908634
 10
128.1358533349
 20
72.9663289283
 10
128.1676395013
 20
72.9695341579
 10
128.1985594133
 20
72.9767074117
 10
128.2284456413
 20
72.9877961936
 10
128.2363629801
 20
72.9914902593
  0
LWPOLYLINE
  5
2FF
100
AcDbEntity
  8
SUPERFICI
100
AcDbPolyline
 62
253
  6
CONTINUOUS
 90
34
 70
0
 10
127.9499384732
 20
73.1277734532
 10
127.9585034049
 20
73.1236890987
 10
127.9674491882
 20
73.1198104289
 10
127.9767562172
 20
73.1161464109
 10
127.9864054022
 20
73.1127050835
 10
127.9963741893
 20
73.1094949959
 10
128.0066361808
 20
73.1065248583
 10
128.0171667423
 20
73.1038017297
 10
128.027943663
 20
73.1013312848
 10
128.0389429004
 20
73.0991190427
 10
128.0501398706
 20
73.0971699695
 10
128.0615092633
 20
73.095488492
 10
128.0730252811
 20
73.0940784318
 10
128.0846619174
 20
73.092942967
 10
128.0963931013
 20
73.0920846351
 10
128.1081925238
 20
73.0915053614
 10
128.1200336796
 20
73.0912064511
 10
128.1318899047
 20
73.0911885816
 10
128.143734513
 20
73.0914517953
 10
128.1555408585
 20
73.0919955015
 10
128.1672823921
 20
73.0928184788
 10
128.178932701
 20
73.0939188775
 10
128.1904655828
 20
73.0952942239
 10
128.2018550957
 20
73.0969414258
 10
128.2130756135
 20
73.098856778
 10
128.2241018969
 20
73.1010359728
 10
128.234909147
 20
73.1034741097
 10
128.2454730525
 20
73.1061657044
 10
128.2557698579
 20
73.109104705
 10
128.2657763977
 20
73.1122845
 10
128.2754701474
 20
73.1156979315
 10
128.2848292995
 20
73.1193373185
 10
128.293832811
 20
73.1231944766
 10
128.3024604328
 20
73.1272607294
  0
LWPOLYLINE
  5
300
100
AcDbEntity
  8
SUPERFICI
100
AcDbPolyline
 62
253
  6
CONTINUOUS
 90
34
 70
0
 10
127.9499384732
 20
73.4677473873
 10
127.9585180936
 20
73.4636563535
 10
127.9674759721
 20
73.4597732963
 10
127.9767919633
 20
73.4561069485
 10
127.9864451049
 20
73.452665559
 10
127.9964136989
 20
73.4494568629
 10
128.0066753634
 20
73.4464880661
 10
128.0172070487
 20
73.4437658417
 10
128.0279850488
 20
73.4412963216
 10
128.038985088
 20
73.4390850697
 10
128.0501824147
 20
73.4371370611
 10
128.0615518594
 20
73.4354566739
 10
128.0730678524
 20
73.4340476874
 10
128.0847044945
 20
73.4329132702
 10
128.0964356159
 20
73.4320559737
 10
128.1082348344
 20
73.4314777256
 10
128.1200756229
 20
73.4311798263
 10
128.1319313433
 20
73.4311629464
 10
128.1437753073
 20
73.431427123
 10
128.1555808614
 20
73.431971759
 10
128.1673214735
 20
73.432795628
 10
128.1789707657
 20
73.4338968781
 10
128.1905026249
 20
73.4352730439
 10
128.2018910298
 20
73.4369210234
 10
128.2131101446
 20
73.4388370691
 10
128.2241346036
 20
73.4410168251
 10
128.2349397802
 20
73.443455398
 10
128.245501602
 20
73.4461473456
 10
128.2557971428
 20
73.4490868631
 10
128.2658023816
 20
73.4522671315
 10
128.2754926906
 20
73.4556802114
 10
128.2848458198
 20
73.4593179976
 10
128.2938417196
 20
73.4631724144
 10
128.3024604328
 20
73.4672346635
  0
LWPOLYLINE
  5
301
100
AcDbEntity
  8
SUPERFICI
100
AcDbPolyline
 62
7
  6
CONTINUOUS
 90
12
 70
0
 10
125.1788944358
 20
73.3655921833
 10
125.1951294811
 20
73.3577198667
 10
125.2503058177
 20
73.3346858242
 10
125.3077943136
 20
73.3163167824
 10
125.3671075666
 20
73.3028666852
 10
125.4279285158
 20
73.2944819559
 10
125.4901690544
 20
73.2912847773
 10
125.5534637555
 20
73.2934305765
 10
125.6173724101
 20
73.3010256195
 10
125.6817918764
 20
73.3141952624
 10
125.7464893244
 20
73.3330756061
 10
125.8049383367
 20
73.3551445539
  0
LINE
  5
302
100
AcDbEntity
  8
SUPERFICI
100
AcDbLine
 62
7
  6
CONTINUOUS
 10
125.1794209511
 20
73.3653281308
 11
110.2846990751
 21
80.8126890687
  0
LINE
  5
303
100
AcDbEntity
  8
SUPERFICI
100
AcDbLine
 62
253
  6
CONTINUOUS
 10
124.9252298746
 20
73.78211595
 11
110.0349157558
 21
81.2272730095
  0
LINE
  5
304
100
AcDbEntity
  8
SUPERFICI
100
AcDbLine
 62
7
  6
CONTINUOUS
 10
126.6121033138
 20
73.693959231
 11
128.0149117696
 21
72.9925550031
  0
LINE
  5
305
100
AcDbEntity
  8
SUPERFICI
100
AcDbLine
 62
253
  6
CONTINUOUS
 10
126.7237975286
 20
73.7408439255
 11
127.9499384732
 21
73.1277734532
  0
LINE
  5
306
100
AcDbEntity
  8
SUPERFICI
100
AcDbLine
 62
253
  6
CONTINUOUS
 10
127.9499384732
 20
73.4677473873
 11
127.0934310882
 21
73.8960010798
  0
LINE
  5
307
100
AcDbEntity
  8
SUPERFICI
100
AcDbLine
 62
253
  6
CONTINUOUS
 10
128.0383268208
 20
73.6994415612
 11
127.3933881783
 21
74.0219108824
  0
LINE
  5
308
100
AcDbEntity
  8
SUPERFICI
100
AcDbLine
 62
253
  6
CONTINUOUS
 10
110.2847036713
 20
80.8126867706
 11
110.2742334584
 21
80.8181331286
  0
LWPOLYLINE
  5
309
100
AcDbEntity
  8
SUPERFICI
100
AcDbPolyline
 62
7
  6
CONTINUOUS
 90
5
 70
0
 10
109.8886632937
 20
81.4023813558
 10
109.9001336317
 20
81.3339973047
 10
109.9166565708
 20
81.2675018268
 10
109.9377589646
 20
81.2044963926
 10
109.9632051319
 20
81.1449987477
  0
LWPOLYLINE
  5
30A
100
AcDbEntity
  8
SUPERFICI
100
AcDbPolyline
 62
253
  6
CONTINUOUS
 90
18
 70
0
 10
109.8886631282
 20
81.4023813344
 10
109.889728641
 20
81.3953538843
 10
109.8923471476
 20
81.3829291221
 10
109.8958820555
 20
81.3706602335
 10
109.900326783
 20
81.3585700626
 10
109.905673054
 20
81.346681121
 10
109.911910914
 20
81.3350155454
 10
109.9190287483
 20
81.3235950568
 10
109.9270133039
 20
81.3124409196
 10
109.9358497136
 20
81.3015739025
 10
109.9455215244
 20
81.2910142395
 10
109.9560107278
 20
81.2807815923
 10
109.9672977932
 20
81.2708950137
 10
109.9793617045
 20
81.2613729123
 10
109.9921799991
 20
81.2522330177
 10
110.0057288099
 20
81.2434923483
 10
110.0199829094
 20
81.2351671787
 10
110.0349157569
 20
81.2272730103
  0
LWPOLYLINE
  5
30B
100
AcDbEntity
  8
SUPERFICI
100
AcDbPolyline
 62
253
  6
CONTINUOUS
 90
19
 70
0
 10
109.2005689643
 20
91.1899959441
 10
109.2012244554
 20
91.1789677937
 10
109.2028093614
 20
91.1679749279
 10
109.205320732
 20
91.1570378099
 10
109.2087538921
 20
91.1461767992
 10
109.213102451
 20
91.1354121137
 10
109.2183583138
 20
91.1247637918
 10
109.2245116967
 20
91.1142516555
 10
109.2315511451
 20
91.1038952731
 10
109.2394635551
 20
91.0937139231
 10
109.2482341977
 20
91.0837265581
 10
109.2578467463
 20
91.0739517697
 10
109.268283307
 20
91.0644077537
 10
109.2795244523
 20
91.0551122762
 10
109.2915492565
 20
91.046082641
 10
109.3043353356
 20
91.0373356566
 10
109.3178588881
 20
91.0288876056
 10
109.33209474
 20
91.0207542142
 10
109.347016391
 20
91.0129506226
  0
LWPOLYLINE
  5
30C
100
AcDbEntity
  8
SUPERFICI
100
AcDbPolyline
 62
7
  6
CONTINUOUS
 90
10
 70
0
 10
109.2005649821
 20
91.1902403633
 10
109.223089973
 20
90.1199936244
 10
109.260096746
 20
88.9935922701
 10
109.3106234054
 20
87.87490214
 10
109.374661024
 20
86.7641602576
 10
109.4521982419
 20
85.6615991655
 10
109.543221129
 20
84.5674518676
 10
109.6477134749
 20
83.4819475447
 10
109.7656562093
 20
82.4053170972
 10
109.8886294669
 20
81.4026405876
  0
LWPOLYLINE
  5
30D
100
AcDbEntity
  8
SUPERFICI
100
AcDbPolyline
 62
253
  6
CONTINUOUS
 90
13
 70
0
 10
109.347016391
 20
91.0129506225
 10
109.3278547561
 20
92.3741794777
 10
109.3121772662
 20
93.7372534557
 10
109.2999838676
 20
95.1021587733
 10
109.2912745169
 20
96.4688724789
 10
109.286048996
 20
97.8373898843
 10
109.2843071492
 20
99.2077246848
 10
109.2860489972
 20
100.5798631307
 10
109.291274519
 20
101.9537914695
 10
109.2999838702
 20
103.3295235801
 10
109.3121772687
 20
104.7070550015
 10
109.3278547578
 20
106.0863628161
 10
109.347016391
 20
107.4674332944
  0
LWPOLYLINE
  5
30E
100
AcDbEntity
  8
SUPERFICI
100
AcDbPolyline
 62
253
  6
CONTINUOUS
 90
20
 70
0
 10
109.2005631476
 20
107.6435128361
 10
109.2005689654
 20
107.6395590075
 10
109.2012244565
 20
107.6290264383
 10
109.2028093626
 20
107.6185067589
 10
109.2053207331
 20
107.6080195517
 10
109.2087538933
 20
107.5975843388
 10
109.2131024522
 20
107.5872205452
 10
109.218358315
 20
107.5769474634
 10
109.2245116979
 20
107.5667842166
 10
109.2315511463
 20
107.5567497237
 10
109.2394635563
 20
107.5468626642
 10
109.2482341989
 20
107.5371414426
 10
109.2578467475
 20
107.5276041553
 10
109.2682833082
 20
107.5182685557
 10
109.2795244534
 20
107.5091520223
 10
109.2915492577
 20
107.5002715255
 10
109.3043353367
 20
107.4916435964
 10
109.3178588893
 20
107.4832842958
 10
109.3320947411
 20
107.4752091847
 10
109.3470163921
 20
107.467433295
  0
LWPOLYLINE
  5
30F
100
AcDbEntity
  8
SUPERFICI
100
AcDbPolyline
 62
7
  6
CONTINUOUS
 90
10
 70
0
 10
109.2005631487
 20
107.6435129746
 10
109.176377416
 20
105.8521923024
 10
109.1575051636
 20
103.9994718044
 10
109.1449267325
 20
102.1499193835
 10
109.1386423896
 20
100.3035696145
 10
109.1386522793
 20
98.4604547737
 10
109.1449564549
 20
96.6206064971
 10
109.1575548793
 20
94.7840569668
 10
109.1764473917
 20
92.9508405583
 10
109.2005689643
 20
91.1899959441
  0
LWPOLYLINE
  5
310
100
AcDbEntity
  8
SUPERFICI
100
AcDbPolyline
 62
253
  6
CONTINUOUS
 90
16
 70
0
 10
109.347016391
 20
107.4674332944
 10
109.3597397711
 20
108.152845435
 10
109.3772074113
 20
108.8405495704
 10
109.399417963
 20
109.53049352
 10
109.4263696677
 20
110.2226249308
 10
109.4580604877
 20
110.9168912979
 10
109.4944881078
 20
111.6132399698
 10
109.5356497009
 20
112.3116181817
 10
109.5815421068
 20
113.0119729011
 10
109.6321619627
 20
113.7142508488
 10
109.687505337
 20
114.4183987206
 10
109.7475679785
 20
115.1243631527
 10
109.8123454984
 20
115.8320905684
 10
109.8818329794
 20
116.5415272867
 10
109.9560249744
 20
117.252619526
 10
110.0349157558
 20
117.9653133691
  0
LWPOLYLINE
  5
311
100
AcDbEntity
  8
SUPERFICI
100
AcDbPolyline
 62
253
  6
CONTINUOUS
 90
21
 70
0
 10
109.8877095839
 20
118.1319610489
 10
109.8874118493
 20
118.1287107107
 10
109.8872587713
 20
118.1200162409
 10
109.8880315689
 20
118.1112389637
 10
109.8897288032
 20
118.1023952222
 10
109.892347314
 20
118.0935014831
 10
109.8958822257
 20
118.0845743062
 10
109.9003269564
 20
118.0756303136
 10
109.9056732301
 20
118.0666861587
 10
109.9119110925
 20
118.0577584952
 10
109.9190289286
 20
118.0488639461
 10
109.9270134855
 20
118.0400190726
 10
109.9358498961
 20
118.0312403438
 10
109.9455217073
 20
118.0225441051
 10
109.9560109106
 20
118.0139465488
 10
109.9672979755
 20
118.0054636831
 10
109.9793618859
 20
117.9971113029
 10
109.9921801792
 20
117.9889049599
 10
110.0057289881
 20
117.9808599342
 10
110.0199830854
 20
117.9729912051
 10
110.0349159303
 20
117.9653134241
  0
LWPOLYLINE
  5
312
100
AcDbEntity
  8
SUPERFICI
100
AcDbPolyline
 62
7
  6
CONTINUOUS
 90
10
 70
0
 10
109.8877255084
 20
118.1321032943
 10
109.7643426102
 20
116.9980315435
 10
109.6466584203
 20
115.8012145041
 10
109.5423858851
 20
114.609239466
 10
109.451548407
 20
113.4223586825
 10
109.3741666184
 20
112.2408212258
 10
109.3102588698
 20
111.0648782937
 10
109.2598407871
 20
109.8947766259
 10
109.2229255385
 20
108.7307644322
 10
109.2005631476
 20
107.6435128361
  0
LWPOLYLINE
  5
313
100
AcDbEntity
  8
SUPERFICI
100
AcDbPolyline
 62
253
  6
CONTINUOUS
 90
43
 70
0
 10
110.0349157558
 20
117.9653133691
 10
110.0386894185
 20
117.9950675727
 10
110.0431951832
 20
118.0250272822
 10
110.0484282075
 20
118.0551606989
 10
110.0543827779
 20
118.0854357287
 10
110.0610525856
 20
118.1158203618
 10
110.0684307685
 20
118.1462827105
 10
110.0765094848
 20
118.1767907135
 10
110.0852800608
 20
118.2073117608
 10
110.0947332723
 20
118.2378130766
 10
110.1048589257
 20
118.2682621935
 10
110.1156462271
 20
118.2986269449
 10
110.1270839604
 20
118.3288750936
 10
110.1391598673
 20
118.3589746026
 10
110.1518610242
 20
118.3888935306
 10
110.1651742012
 20
118.4186000229
 10
110.1790851433
 20
118.4480626384
 10
110.1935789529
 20
118.4772501045
 10
110.2086404733
 20
118.5061312116
 10
110.224253535
 20
118.5346753321
 10
110.2404014456
 20
118.5628522523
 10
110.2570673752
 20
118.5906319249
 10
110.2742334584
 20
118.6179849328
 10
110.29188132
 20
118.6448822972
 10
110.3099925651
 20
118.6712953085
 10
110.3285478047
 20
118.6971960351
 10
110.3475271528
 20
118.7225570142
 10
110.3669107539
 20
118.7473510611
 10
110.3866778025
 20
118.7715519091
 10
110.4068071579
 20
118.7951339785
 10
110.427277843
 20
118.8180720641
 10
110.4480679063
 20
118.8403418895
 10
110.4691550956
 20
118.8619199114
 10
110.4905174744
 20
118.8827830812
 10
110.512132242
 20
118.9029094239
 10
110.5339761629
 20
118.9222775607
 10
110.5560262389
 20
118.9408665277
 10
110.5782586557
 20
118.9586565546
 10
110.6006497756
 20
118.9756290261
 10
110.6231765736
 20
118.9917659689
 10
110.6458152417
 20
119.0070503
 10
110.6685412068
 20
119.021465887
 10
110.6913301227
 20
119.0349975013
  0
LWPOLYLINE
  5
314
100
AcDbEntity
  8
SUPERFICI
100
AcDbPolyline
 62
7
  6
CONTINUOUS
 90
14
 70
0
 10
110.4581439463
 20
119.0438625362
 10
110.3868734062
 20
118.9979530098
 10
110.3223890199
 20
118.9483303926
 10
110.260997719
 20
118.89302854
 10
110.2029609724
 20
118.8323981853
 10
110.1489206215
 20
118.7672708481
 10
110.0989208955
 20
118.6978569352
 10
110.0531276404
 20
118.6243956463
 10
110.0122438823
 20
118.5480596035
 10
109.976374586
 20
118.4691228667
 10
109.9456922129
 20
118.3878248378
 10
109.9207226412
 20
118.3054241396
 10
109.9016375296
 20
118.2224752169
 10
109.8877095839
 20
118.1319610489
  0
LINE
  5
315
100
AcDbEntity
  8
SUPERFICI
100
AcDbLine
 62
7
  6
CONTINUOUS
 10
110.4579760752
 20
119.0437648944
 11
114.4898013222
 21
121.3946883003
  0
LINE
  5
316
100
AcDbEntity
  8
SUPERFICI
100
AcDbLine
 62
253
  6
CONTINUOUS
 10
110.6913301227
 20
119.0349975013
 11
114.5975120597
 21
121.3126593493
  0
LWPOLYLINE
  5
317
100
AcDbEntity
  8
SUPERFICI
100
AcDbPolyline
 62
7
  6
CONTINUOUS
 90
12
 70
0
 10
114.0304049999
 20
122.4092482825
 10
114.0077445548
 20
122.3960786555
 10
113.9863621584
 20
122.3804256311
 10
113.9666017793
 20
122.3624404968
 10
113.9488215334
 20
122.3423832301
 10
113.9332515081
 20
122.3204755676
 10
113.9200331512
 20
122.2968393654
 10
113.9093699929
 20
122.2716934473
 10
113.901497879
 20
122.2454691325
 10
113.8965430135
 20
122.2185586168
 10
113.8945566139
 20
122.1911402493
 10
113.8945191454
 20
122.1867411075
  0
LWPOLYLINE
  5
318
100
AcDbEntity
  8
SUPERFICI
100
AcDbPolyline
 62
253
  6
CONTINUOUS
 90
19
 70
0
 10
110.4581438943
 20
119.0438626254
 10
110.4681460395
 20
119.0492596922
 10
110.4790858894
 20
119.0542670252
 10
110.4903995781
 20
119.0585575581
 10
110.5020687758
 20
119.0621243395
 10
110.5140745773
 20
119.0649615909
 10
110.5263975316
 20
119.0670647156
 10
110.5390176742
 20
119.0684303063
 10
110.5519145588
 20
119.0690561506
 10
110.5650672911
 20
119.0689412345
 10
110.5784545621
 20
119.0680857442
 10
110.5920546827
 20
119.0664910657
 10
110.6058456192
 20
119.0641597826
 10
110.6198050287
 20
119.0610956719
 10
110.6339102951
 20
119.0573036976
 10
110.6481385665
 20
119.0527900034
 10
110.6624667912
 20
119.0475619019
 10
110.6768717559
 20
119.0416278632
 10
110.6913301227
 20
119.0349975013
  0
LINE
  5
319
100
AcDbEntity
  8
SUPERFICI
100
AcDbLine
 62
7
  6
CONTINUOUS
 10
114.0304049999
 20
122.4092482825
 11
115.6135766949
 21
123.2214453298
  0
LINE
  5
31A
100
AcDbEntity
  8
SUPERFICI
100
AcDbLine
 62
253
  6
CONTINUOUS
 10
114.1434906661
 20
122.4028003073
 11
115.7262472692
 21
123.2147844047
  0
LINE
  5
31B
100
AcDbEntity
  8
SUPERFICI
100
AcDbLine
 62
7
  6
CONTINUOUS
 10
115.6135786646
 20
123.2214463403
 11
115.615315082
 21
123.2223145634
  0
LWPOLYLINE
  5
31C
100
AcDbEntity
  8
SUPERFICI
100
AcDbPolyline
 62
253
  6
CONTINUOUS
 90
16
 70
0
 10
114.0304049999
 20
122.4092482825
 10
114.0338027242
 20
122.4109059069
 10
114.0405479452
 20
122.4137184546
 10
114.0475286841
 20
122.4160170081
 10
114.0547291281
 20
122.4177963605
 10
114.0621329665
 20
122.4190524812
 10
114.069723428
 20
122.4197825248
 10
114.0774833184
 20
122.4199848376
 10
114.0853950599
 20
122.4196589614
 10
114.0934407306
 20
122.4188056343
 10
114.1016021053
 20
122.4174267892
 10
114.1098606965
 20
122.4155255496
 10
114.1181977969
 20
122.4131062222
 10
114.1265945209
 20
122.4101742874
 10
114.1350318481
 20
122.4067363865
 10
114.1434906661
 20
122.4028003073
  0
LINE
  5
31D
100
AcDbEntity
  8
SUPERFICI
100
AcDbLine
 62
7
  6
CONTINUOUS
 10
115.615317846
 20
123.2223159098
 11
116.1501850368
 21
123.4828666623
  0
LINE
  5
31E
100
AcDbEntity
  8
SUPERFICI
100
AcDbLine
 62
253
  6
CONTINUOUS
 10
115.7262472692
 20
123.2147844047
 11
116.2606971479
 21
123.4751318713
  0
LWPOLYLINE
  5
31F
100
AcDbEntity
  8
SUPERFICI
100
AcDbPolyline
 62
7
  6
CONTINUOUS
 90
16
 70
0
 10
115.615315082
 20
123.2223145634
 10
115.6169727083
 20
123.2231020708
 10
115.6237081971
 20
123.2259096088
 10
115.6306759364
 20
123.2282014703
 10
115.6378601934
 20
123.2299724902
 10
115.6452447091
 20
123.2312186652
 10
115.6528126634
 20
123.2319371304
 10
115.6605469849
 20
123.2321262955
 10
115.6684301908
 20
123.2317857522
 10
115.6764442903
 20
123.2309162106
 10
115.6845712207
 20
123.2295196876
 10
115.6927926317
 20
123.2275993777
 10
115.7010897285
 20
123.225159551
 10
115.7094437218
 20
123.2222057401
 10
115.717835871
 20
123.2187447271
 10
115.7262472692
 20
123.2147844047
  0
LWPOLYLINE
  5
320
100
AcDbEntity
  8
SUPERFICI
100
AcDbPolyline
 62
253
  6
CONTINUOUS
 90
16
 70
0
 10
116.150185048
 20
123.4828666678
 10
116.1518577602
 20
123.4836611118
 10
116.1585846905
 20
123.4864627663
 10
116.1655406722
 20
123.4887470474
 10
116.172710014
 20
123.4905087889
 10
116.1800764098
 20
123.4917439709
 10
116.1876230068
 20
123.4924497808
 10
116.1953325928
 20
123.49262465
 10
116.203187792
 20
123.4922682249
 10
116.2111709507
 20
123.491381321
 10
116.2192651983
 20
123.4899656969
 10
116.2274510091
 20
123.4880246532
 10
116.2357062753
 20
123.4855637562
 10
116.244011031
 20
123.4825897067
 10
116.2523476124
 20
123.4791095742
 10
116.2606971479
 20
123.4751318713
  0
LINE
  5
321
100
AcDbEntity
  8
SUPERFICI
100
AcDbLine
 62
253
  6
CONTINUOUS
 10
130.4320083954
 20
74.5258379044
 11
129.9037412237
 21
74.6343401815
  0
LINE
  5
322
100
AcDbEntity
  8
SUPERFICI
100
AcDbLine
 62
253
  6
CONTINUOUS
 10
130.3425946
 20
74.8454047104
 11
129.9037412237
 21
74.9355420371
  0
LWPOLYLINE
  5
323
100
AcDbEntity
  8
SUPERFICI
100
AcDbPolyline
 62
7
  6
CONTINUOUS
 90
17
 70
0
 10
128.8075972728
 20
74.3815685732
 10
128.7900779545
 20
74.3882089249
 10
128.7813419318
 20
74.391594574
 10
128.7726358932
 20
74.3950175297
 10
128.7639686282
 20
74.3984692673
 10
128.7553579783
 20
74.4019546953
 10
128.7468134244
 20
74.4054653611
 10
128.7383445295
 20
74.4089923868
 10
128.7299696841
 20
74.4125398082
 10
128.7216992807
 20
74.4160990439
 10
128.7135436248
 20
74.4196609433
 10
128.7055214041
 20
74.423228495
 10
128.69765419
 20
74.4267869391
 10
128.6899424174
 20
74.4303336502
 10
128.6823745252
 20
74.4338873691
 10
128.6749559899
 20
74.4374456093
 10
128.6677081098
 20
74.4409873518
  0
LWPOLYLINE
  5
324
100
AcDbEntity
  8
0
100
AcDbPolyline
 62
253
  6
CONTINUOUS
 90
19
 70
0
 10
117.0481884877
 20
82.1248096444
 10
117.0793017965
 20
82.1108972484
 10
117.109478134
 20
82.1003893466
 10
117.1387179918
 20
82.0932862368
 10
117.1672187632
 20
82.0895903765
 10
117.1947850154
 20
82.0893004962
 10
117.2208283253
 20
82.0924115
 10
117.2453280413
 20
82.0989968314
 10
117.2683082065
 20
82.108985098
 10
117.2892472943
 20
82.1221538605
 10
117.3080969012
 20
82.1385735453
 10
117.3249093407
 20
82.1581760828
 10
117.3393134094
 20
82.1805308327
 10
117.3512620286
 20
82.2056873927
 10
117.360805688
 20
82.2335982102
 10
117.3677182195
 20
82.2636861229
 10
117.3719245618
 20
82.2957589352
 10
117.3735016695
 20
82.3300099652
 10
117.372450619
 20
82.3664398503
  0
LWPOLYLINE
  5
325
100
AcDbEntity
  8
RACCORDO
100
AcDbPolyline
 62
253
  6
CONTINUOUS
 90
19
 70
0
 10
122.2564381996
 20
79.4349978906
 10
122.2875034606
 20
79.4211035238
 10
122.3176309779
 20
79.4106013523
 10
122.3468212398
 20
79.4034916727
 10
122.3752709853
 20
79.399777821
 10
122.402785424
 20
79.3994576448
 10
122.4287780719
 20
79.4025234036
 10
122.4532228898
 20
79.4090408423
 10
122.476149277
 20
79.418946253
 10
122.4970537819
 20
79.4320376387
 10
122.5158991963
 20
79.4483843954
 10
122.5327266637
 20
79.467919505
 10
122.5471495516
 20
79.4902359181
 10
122.5591217973
 20
79.5153974395
 10
122.5686929607
 20
79.5433423666
 10
122.575618512
 20
79.5734745812
 10
122.5798172578
 20
79.6055955626
 10
122.5813722906
 20
79.6399049602
 10
122.5802846947
 20
79.6764034177
  0
LWPOLYLINE
  5
326
100
AcDbEntity
  8
SUPERFICI
100
AcDbPolyline
 62
253
  6
CONTINUOUS
 90
5
 70
0
 10
130.3660096513
 20
74.8373173343
 10
130.361821086
 20
74.8392839901
 10
130.3556011993
 20
74.84175963
 10
130.3491883015
 20
74.8438011655
 10
130.3425946
 20
74.8454047104
  0
LWPOLYLINE
  5
327
100
AcDbEntity
  8
RACCORDO
100
AcDbPolyline
 62
253
  6
CONTINUOUS
 90
7
 70
0
 10
122.4294804118
 20
79.7569534083
 10
122.4444578396
 20
79.7498907614
 10
122.4591275346
 20
79.744415623
 10
122.4733726379
 20
79.7405656372
 10
122.4870646586
 20
79.7383596892
 10
122.5001054964
 20
79.7378144512
 10
122.5072490296
 20
79.7384713434
  0
LWPOLYLINE
  5
328
100
AcDbEntity
  8
RACCORDO
100
AcDbPolyline
 62
7
  6
CONTINUOUS
 90
12
 70
0
 10
116.9541077974
 20
82.4330075368
 10
116.9590539297
 20
82.430611659
 10
116.9779484322
 20
82.4227518936
 10
116.9971819836
 20
82.416765644
 10
117.0166365878
 20
82.412692354
 10
117.036165196
 20
82.410550704
 10
117.0555332322
 20
82.4103442311
 10
117.0745236299
 20
82.4120352043
 10
117.0929849288
 20
82.4155593501
 10
117.1107367782
 20
82.4208172878
 10
117.127611436
 20
82.4276827775
 10
117.1325794072
 20
82.4300840643
  0
LINE
  5
329
100
AcDbEntity
  8
SUPERFICI
100
AcDbLine
 62
7
  6
CONTINUOUS
 10
128.6677081098
 20
74.4409873518
 11
128.5417520384
 21
74.5039473859
  0
LINE
  5
32A
100
AcDbEntity
  8
SUPERFICI
100
AcDbLine
 62
253
  6
CONTINUOUS
 10
129.9037412237
 20
75.0648313986
 11
130.3425946
 21
74.8454047104
  0
LINE
  5
32B
100
AcDbEntity
  8
SUPERFICI
100
AcDbLine
 62
7
  6
CONTINUOUS
 10
129.9037412237
 20
75.0684515481
 11
130.3660096513
 21
74.8373173343
  0
LINE
  5
32C
100
AcDbEntity
  8
RACCORDO
100
AcDbLine
 62
253
  6
CONTINUOUS
 10
122.2564381996
 20
79.4349978906
 11
118.8424733854
 21
81.1419802997
  0
LINE
  5
32D
100
AcDbEntity
  8
0
100
AcDbLine
 62
253
  6
CONTINUOUS
 10
115.5522605678
 20
82.8727736043
 11
117.0481884877
 21
82.1248096444
  0
LINE
  5
32E
100
AcDbEntity
  8
RACCORDO
100
AcDbLine
 62
7
  6
CONTINUOUS
 10
116.9541048498
 20
82.4330016209
 11
115.5397687081
 21
83.1401695053
  0
LINE
  5
32F
100
AcDbEntity
  8
RACCORDO
100
AcDbLine
 62
253
  6
CONTINUOUS
 10
116.9150628982
 20
82.5096925263
 11
115.5008493358
 21
83.2167993075
  0
LINE
  5
330
100
AcDbEntity
  8
RACCORDO
100
AcDbLine
 62
253
  6
CONTINUOUS
 10
122.4294480787
 20
79.7569707799
 11
119.0154832865
 21
81.463953176
  0
LINE
  5
331
100
AcDbEntity
  8
DRAFT
100
AcDbLine
 62
7
  6
CONTINUOUS
 10
122.2985936539
 20
79.8739596938
 11
119.1166131385
 21
81.4649499514
  0
LINE
  5
332
100
AcDbEntity
  8
ASSI
100
AcDbLine
 62
253
  6
CONTINUOUS
 10
119.0593669827
 20
81.5119306874
 11
122.241347498
 21
79.9209404297
  0
LINE
  5
333
100
AcDbEntity
  8
0
100
AcDbLine
 62
253
  6
CONTINUOUS
 10
117.1933550005
 20
82.4604661983
 11
117.2212166782
 21
82.4465353594
  0
LINE
  5
334
100
AcDbEntity
  8
SUPERFICI
100
AcDbLine
 62
7
  6
CONTINUOUS
 10
122.1220270772
 20
80.0580515479
 11
118.9400465619
 21
81.6490418055
  0
LINE
  5
335
100
AcDbEntity
  8
RACCORDO
100
AcDbLine
 62
7
  6
CONTINUOUS
 10
115.5397686645
 20
83.1401695271
 11
115.5397115744
 21
83.1401981127
  0
LINE
  5
336
100
AcDbEntity
  8
SUPERFICI
100
AcDbLine
 62
253
  6
CONTINUOUS
 10
130.3509249035
 20
74.8409391267
 11
130.3425946
 21
74.8454047104
  0
LWPOLYLINE
  5
337
100
AcDbEntity
  8
ASSI
100
AcDbPolyline
 62
253
  6
CONTINUOUS
 90
4
 70
0
 10
119.0593669827
 20
81.5119306874
 10
119.0439542392
 20
81.5204027629
 10
119.0284237619
 20
81.5304833167
 10
119.0129687267
 20
81.5420719445
  0
LWPOLYLINE
  5
338
100
AcDbEntity
  8
RACCORDO
100
AcDbPolyline
 62
253
  6
CONTINUOUS
 90
19
 70
0
 10
115.5008493358
 20
83.2167993075
 10
115.4946542551
 20
83.2202222453
 10
115.4885619934
 20
83.2242125047
 10
115.4825725507
 20
83.2287700858
 10
115.4766367471
 20
83.2339402159
 10
115.4708037624
 20
83.2396776676
 10
115.4652211369
 20
83.2458467593
 10
115.4598986323
 20
83.2524565261
 10
115.4548264869
 20
83.2594979331
 10
115.4501229552
 20
83.2668081934
 10
115.4457975752
 20
83.2743932508
 10
115.441840809
 20
83.2822471617
 10
115.438342298
 20
83.290189309
 10
115.4353128299
 20
83.2982265751
 10
115.432741617
 20
83.3063520777
 10
115.4306859384
 20
83.314364553
 10
115.4291648868
 20
83.322196913
 10
115.4281593695
 20
83.3299162458
 10
115.4276693864
 20
83.3375225513
  0
LWPOLYLINE
  5
339
100
AcDbEntity
  8
DRAFT
100
AcDbPolyline
 62
7
  6
CONTINUOUS
 90
4
 70
0
 10
119.1166131385
 20
81.4649499514
 10
119.0928194894
 20
81.4782104063
 10
119.0691991512
 20
81.4942194695
 10
119.0440953438
 20
81.5144680568
  0
LINE
  5
33A
100
AcDbEntity
  8
SUPERFICI
100
AcDbLine
 62
7
  6
CONTINUOUS
 10
130.3660096513
 20
74.8373173343
 11
130.3903615504
 21
74.8233805919
  0
LWPOLYLINE
  5
33B
100
AcDbEntity
  8
RACCORDO
100
AcDbPolyline
 62
253
  6
CONTINUOUS
 90
8
 70
0
 10
116.9539822631
 20
82.4330627278
 10
116.9473846558
 20
82.436942002
 10
116.9382485899
 20
82.4446565412
 10
116.9304673308
 20
82.4543762439
 10
116.9241681745
 20
82.4659421024
 10
116.9194541707
 20
82.4791649074
 10
116.9164024372
 20
82.4938283432
 10
116.9150628982
 20
82.5096925263
  0
LWPOLYLINE
  5
33C
100
AcDbEntity
  8
RACCORDO
100
AcDbPolyline
 62
253
  6
CONTINUOUS
 90
8
 70
0
 10
115.5397115744
 20
83.1401981127
 10
115.5331701286
 20
83.1440494432
 10
115.5240342016
 20
83.1517641772
 10
115.5162531315
 20
83.161483994
 10
115.5099541877
 20
83.1730498474
 10
115.5052403858
 20
83.1862724984
 10
115.502188806
 20
83.2009356153
 10
115.5008493358
 20
83.2167993075
  0
LWPOLYLINE
  5
33D
100
AcDbEntity
  8
SUPERFICI
100
AcDbPolyline
 62
7
  6
CONTINUOUS
 90
10
 70
0
 10
118.9400465619
 20
81.6490418055
 10
118.938796314
 20
81.6498115114
 10
118.9376216569
 20
81.650769073
 10
118.9365225905
 20
81.6519144904
 10
118.9354677163
 20
81.6532897048
 10
118.9344884329
 20
81.6548527749
 10
118.933678936
 20
81.6564778774
 10
118.933070624
 20
81.6581230711
 10
118.9326320985
 20
81.6598302972
 10
118.9323633594
 20
81.6615995556
  0
LINE
  5
33E
100
AcDbEntity
  8
DRAFT
100
AcDbLine
 62
253
  6
CONTINUOUS
 10
119.0593669827
 20
81.5119306874
 11
119.1166131385
 21
81.4649499514
  0
LINE
  5
33F
100
AcDbEntity
  8
DRAFT
100
AcDbLine
 62
253
  6
CONTINUOUS
 10
122.241347498
 20
79.9209404297
 11
122.2985936539
 21
79.8739596938
  0
LWPOLYLINE
  5
340
100
AcDbEntity
  8
ASSI
100
AcDbPolyline
 62
253
  6
CONTINUOUS
 90
7
 70
0
 10
119.0593669827
 20
81.5119306874
 10
119.0405194304
 20
81.5274241291
 10
119.0314711451
 20
81.5349257083
 10
119.0227121343
 20
81.5422730019
 10
119.0142486226
 20
81.5494943075
 10
119.0060663701
 20
81.5566389074
 10
118.9981977542
 20
81.5637197765
  0
LWPOLYLINE
  5
341
100
AcDbEntity
  8
ASSI
100
AcDbPolyline
 62
253
  6
CONTINUOUS
 90
18
 70
0
 10
122.241347498
 20
79.9209404297
 10
122.2224999458
 20
79.9364338714
 10
122.2134516604
 20
79.9439354506
 10
122.2046926496
 20
79.9512827443
 10
122.1962291379
 20
79.9585040498
 10
122.1880468854
 20
79.9656486498
 10
122.1801782695
 20
79.9727295189
 10
122.172645926
 20
79.9797713276
 10
122.1654365463
 20
79.9868391448
 10
122.158591546
 20
79.993954224
 10
122.1521508085
 20
80.0011447419
 10
122.1461210861
 20
80.0084880308
 10
122.1405455705
 20
80.016039111
 10
122.1355028612
 20
80.0238176453
 10
122.1310645394
 20
80.0318549881
 10
122.1272958705
 20
80.0401977639
 10
122.1242602083
 20
80.048908572
 10
122.1220270768
 20
80.0580515476
  0
LINE
  5
342
100
AcDbEntity
  8
ASSI
100
AcDbLine
 62
253
  6
CONTINUOUS
 10
119.0129687267
 20
81.5420719445
 11
119.0026988646
 21
81.5506604718
  0
LINE
  5
343
100
AcDbEntity
  8
ASSI
100
AcDbLine
 62
7
  6
CONTINUOUS
 10
119.0026745451
 20
81.5506816764
 11
119.0440955552
 21
81.5144681633
  0
LWPOLYLINE
  5
344
100
AcDbEntity
  8
RACCORDO
100
AcDbPolyline
 62
253
  6
CONTINUOUS
 90
6
 70
0
 10
118.9369641688
 20
81.5194062829
 10
118.952349891
 20
81.5057384571
 10
118.9679993768
 20
81.4932692133
 10
118.9837979367
 20
81.4820901067
 10
118.9996404327
 20
81.4723022931
 10
119.0154134535
 20
81.4639856729
  0
LINE
  5
345
100
AcDbEntity
  8
ASSI
100
AcDbLine
 62
253
  6
CONTINUOUS
 10
118.9981977542
 20
81.5637197765
 11
118.9906654107
 21
81.5707615853
  0
LWPOLYLINE
  5
346
100
AcDbEntity
  8
ASSI
100
AcDbPolyline
 62
253
  6
CONTINUOUS
 90
5
 70
0
 10
118.9906654107
 20
81.5707615853
 10
118.983456031
 20
81.5778294025
 10
118.9766110307
 20
81.5849444817
 10
118.9701702932
 20
81.5921349995
 10
118.9641405708
 20
81.5994782885
  0
LWPOLYLINE
  5
347
100
AcDbEntity
  8
SUPERFICI
100
AcDbPolyline
 62
7
  6
CONTINUOUS
 90
9
 70
0
 10
118.949936667
 20
81.5992155922
 10
118.9556754113
 20
81.5934461867
 10
118.9614145298
 20
81.5878603035
 10
118.9670868786
 20
81.5824879964
 10
118.9725816879
 20
81.5773986777
 10
118.977892591
 20
81.5725664567
 10
118.9830959471
 20
81.5678979977
 10
118.9881643955
 20
81.56339938
 10
119.0028008707
 20
81.5505715132
  0
LWPOLYLINE
  5
348
100
AcDbEntity
  8
ASSI
100
AcDbPolyline
 62
253
  6
CONTINUOUS
 90
7
 70
0
 10
118.9641405708
 20
81.5994782885
 10
118.9585650551
 20
81.6070293686
 10
118.9535223458
 20
81.614807903
 10
118.949084024
 20
81.6228452458
 10
118.9453153552
 20
81.6311880216
 10
118.9422796929
 20
81.6398988296
 10
118.9400465615
 20
81.6490418053
  0
LINE
  5
349
100
AcDbEntity
  8
SUPERFICI
100
AcDbLine
 62
7
  6
CONTINUOUS
 10
109.8886294669
 20
81.4026405876
 11
109.8886631282
 21
81.4023813344
  0
LWPOLYLINE
  5
34A
100
AcDbEntity
  8
SUPERFICI
100
AcDbPolyline
 62
253
  6
CONTINUOUS
 90
16
 70
0
 10
110.0349157558
 20
81.2272730095
 10
109.9560249744
 20
81.8582885886
 10
109.8818329794
 20
82.4925677389
 10
109.8123454983
 20
83.130062271
 10
109.7475679785
 20
83.7707236895
 10
109.687505337
 20
84.4145033916
 10
109.6321619627
 20
85.061352672
 10
109.5815421068
 20
85.7112224559
 10
109.5356497009
 20
86.3640633332
 10
109.4944881078
 20
87.0198257563
 10
109.4580604877
 20
87.6784598912
 10
109.4263696677
 20
88.3399157621
 10
109.399417963
 20
89.004143287
 10
109.3772074113
 20
89.6710920838
 10
109.3597397711
 20
90.340711473
 10
109.347016391
 20
91.0129506225
  0
LWPOLYLINE
  5
34B
100
AcDbEntity
  8
SUPERFICI
100
AcDbPolyline
 62
253
  6
CONTINUOUS
 90
30
 70
0
 10
115.9988024402
 20
120.9186677992
 10
115.9943819147
 20
120.9077763044
 10
115.9895747194
 20
120.8971100356
 10
115.9843917038
 20
120.8866930658
 10
115.9788445657
 20
120.8765489055
 10
115.9729458247
 20
120.8667004496
 10
115.9667087939
 20
120.8571699254
 10
115.9601475498
 20
120.8479788427
 10
115.9532769009
 20
120.8391479453
 10
115.9461123537
 20
120.830697164
 10
115.9386700783
 20
120.8226455717
 10
115.9309668714
 20
120.8150113403
 10
115.9230201186
 20
120.8078116999
 10
115.9148477555
 20
120.8010628997
 10
115.9064682264
 20
120.7947801712
 10
115.8979004434
 20
120.7889776942
 10
115.8891637437
 20
120.7836685647
 10
115.8802778453
 20
120.7788647649
 10
115.8712628033
 20
120.7745771367
 10
115.862138964
 20
120.7708153571
 10
115.8529269194
 20
120.7675879163
 10
115.8436474606
 20
120.7649020982
 10
115.8343215307
 20
120.7627639648
 10
115.8249701778
 20
120.7611783415
 10
115.8156145074
 20
120.7601488071
 10
115.8062756346
 20
120.7596776852
 10
115.7969746369
 20
120.7597660391
 10
115.7877325058
 20
120.7604136693
 10
115.7785701005
 20
120.7616191142
 10
115.7719589467
 20
120.7628466384
  0
LWPOLYLINE
  5
34C
100
AcDbEntity
  8
SUPERFICI
100
AcDbPolyline
 62
7
  6
CONTINUOUS
 90
7
 70
0
 10
118.1437109751
 20
121.9064358735
 10
118.1581917895
 20
121.9259166873
 10
118.1707324583
 20
121.9467421871
 10
118.1812031427
 20
121.9687158497
 10
118.1895013855
 20
121.9916494349
 10
118.1955305909
 20
122.0153073666
 10
118.1992207994
 20
122.0394149326
  0
LINE
  5
34D
100
AcDbEntity
  8
SUPERFICI
100
AcDbLine
 62
253
  6
CONTINUOUS
 10
117.600083231
 20
121.3343188844
 11
118.1283504028
 21
121.9772710401
  0
LINE
  5
34E
100
AcDbEntity
  8
SUPERFICI
100
AcDbLine
 62
7
  6
CONTINUOUS
 10
117.600083231
 20
121.244788418
 11
118.1437109751
 21
121.9064358735
  0
LINE
  5
34F
100
AcDbEntity
  8
SUPERFICI
100
AcDbLine
 62
7
  6
CONTINUOUS
 10
117.600083231
 20
120.4592130759
 11
116.7100230483
 21
119.9625321546
  0
LINE
  5
350
100
AcDbEntity
  8
SUPERFICI
100
AcDbLine
 62
253
  6
CONTINUOUS
 10
115.8220287365
 20
121.5635312721
 11
117.4233095273
 21
122.3662532756
  0
LINE
  5
351
100
AcDbEntity
  8
SUPERFICI
100
AcDbLine
 62
253
  6
CONTINUOUS
 10
115.9988024402
 20
121.2586417333
 11
117.600083231
 21
122.0613637368
  0
LINE
  5
352
100
AcDbEntity
  8
SUPERFICI
100
AcDbLine
 62
253
  6
CONTINUOUS
 10
117.4233095273
 20
122.3662532756
 11
117.9515766991
 21
122.6296920957
  0
LINE
  5
353
100
AcDbEntity
  8
SUPERFICI
100
AcDbLine
 62
253
  6
CONTINUOUS
 10
117.600083231
 20
122.0613637368
 11
118.1283504028
 21
122.3248025569
  0
LINE
  5
354
100
AcDbEntity
  8
SUPERFICI
100
AcDbLine
 62
7
  6
CONTINUOUS
 10
125.4244150007
 20
124.2738839569
 11
118.3030761853
 21
120.8097849915
  0
LWPOLYLINE
  5
355
100
AcDbEntity
  8
RACCORDO
100
AcDbPolyline
 62
253
  6
CONTINUOUS
 90
26
 70
0
 10
144.1053671311
 20
132.4859075485
 10
144.1202842343
 20
132.4920967242
 10
144.1354770279
 20
132.4976590802
 10
144.150935231
 20
132.5025908623
 10
144.1666482566
 20
132.5068886932
 10
144.1826053407
 20
132.5105496292
 10
144.1987955486
 20
132.5135711612
 10
144.2152077863
 20
132.5159512184
 10
144.2318308086
 20
132.5176881698
 10
144.2486532267
 20
132.5187808257
 10
144.265663515
 20
132.5192284375
 10
144.2828500193
 20
132.5190306987
 10
144.300200964
 20
132.5181877447
 10
144.3177044609
 20
132.5167001529
 10
144.3353485169
 20
132.5145689422
 10
144.3531210436
 20
132.5117955731
 10
144.3710098658
 20
132.5083819463
 10
144.3890027286
 20
132.5043304017
 10
144.4070873025
 20
132.4996437142
 10
144.4252511925
 20
132.4943250928
 10
144.4434820704
 20
132.4883781389
 10
144.4617673292
 20
132.4818069615
 10
144.480094084
 20
132.4746162135
 10
144.4984496574
 20
132.4668109122
 10
144.5168215912
 20
132.4583963951
 10
144.535197299
 20
132.4493784627
  0
LWPOLYLINE
  5
356
100
AcDbEntity
  8
SUPERFICI
100
AcDbPolyline
 62
7
  6
CONTINUOUS
 90
3
 70
0
 10
116.1878244638
 20
123.4975693538
 10
116.1579382358
 20
123.4864805718
 10
116.150020897
 20
123.4827865062
  0
LWPOLYLINE
  5
357
100
AcDbEntity
  8
ASSI
100
AcDbPolyline
 62
253
  6
CONTINUOUS
 90
6
 70
0
 10
122.4039167522
 20
80.0419547124
 10
122.3737064355
 20
80.045594852
 10
122.3446510285
 20
80.0486750694
 10
122.3167897759
 20
80.0512188497
 10
122.2901091111
 20
80.0531461032
 10
122.2407513186
 20
80.0558591968
  0
LINE
  5
358
100
AcDbEntity
  8
DRAFT
100
AcDbLine
 62
7
  6
CONTINUOUS
 10
122.4039167522
 20
80.0419547124
 11
122.4467181128
 21
80.0355607974
  0
LINE
  5
359
100
AcDbEntity
  8
DRAFT
100
AcDbLine
 62
7
  6
CONTINUOUS
 10
122.4467181128
 20
80.0355607974
 11
122.4894584903
 21
80.0289504094
  0
LWPOLYLINE
  5
35A
100
AcDbEntity
  8
RACCORDO
100
AcDbPolyline
 62
253
  6
CONTINUOUS
 90
16
 70
0
 10
118.4582694163
 20
81.7374106357
 10
118.4774855486
 20
81.7288716518
 10
118.4983835364
 20
81.7215587211
 10
118.5207394553
 20
81.7155501955
 10
118.5443137578
 20
81.710910464
 10
118.5688538449
 20
81.7076892207
 10
118.5940967725
 20
81.7059209407
 10
118.6197720611
 20
81.7056245595
 10
118.6456045988
 20
81.7068032695
 10
118.6713175933
 20
81.7094444491
 10
118.6966355193
 20
81.7135197947
 10
118.7212871056
 20
81.7189856411
 10
118.7450082424
 20
81.7257834423
 10
118.7675447628
 20
81.733840371
 10
118.7886551701
 20
81.7430700946
 10
118.808113258
 20
81.7533737199
  0
LWPOLYLINE
  5
35B
100
AcDbEntity
  8
RACCORDO
100
AcDbPolyline
 62
253
  6
CONTINUOUS
 90
19
 70
0
 10
118.6757794019
 20
83.9550817426
 10
118.644616945
 20
83.9689576278
 10
118.6143130344
 20
83.9793750861
 10
118.5848681615
 20
83.9863343937
 10
118.5560860603
 20
83.9898292557
 10
118.5281649551
 20
83.9898670686
 10
118.5016973932
 20
83.9864688262
 10
118.4767076717
 20
83.9795672747
 10
118.4531748665
 20
83.9692315691
 10
118.4316235536
 20
83.9556872403
 10
118.4120994146
 20
83.9388698744
 10
118.3945606801
 20
83.9188460983
 10
118.3794000292
 20
83.8960375997
 10
118.3666625076
 20
83.8704002933
 10
118.3563065335
 20
83.8419802347
 10
118.3485935805
 20
83.8113336105
 10
118.3436111884
 20
83.7786460387
 10
118.3412738422
 20
83.7437330657
 10
118.3415826857
 20
83.7065953503
  0
LWPOLYLINE
  5
35C
100
AcDbEntity
  8
0
100
AcDbPolyline
 62
253
  6
CONTINUOUS
 90
19
 70
0
 10
115.3962113857
 20
85.5062367055
 10
115.3650441162
 20
85.5201166779
 10
115.3347378544
 20
85.5305376994
 10
115.3052930922
 20
85.5375000473
 10
115.2765130023
 20
85.5409977317
 10
115.2485963732
 20
85.5410378487
 10
115.2221374427
 20
85.5376404854
 10
115.1971610121
 20
85.5307380769
 10
115.1736456584
 20
85.5204000975
 10
115.1521161432
 20
85.5068521159
 10
115.1326182797
 20
85.490029651
 10
115.1151101725
 20
85.469999406
 10
115.0999842982
 20
85.4471833198
 10
115.0872862487
 20
85.4215271772
 10
115.0769739078
 20
85.3930871756
 10
115.0693068876
 20
85.3624501372
 10
115.0643720678
 20
85.3298118696
 10
115.0620845132
 20
85.294977687
 10
115.0624453288
 20
85.2579482273
  0
LWPOLYLINE
  5
35D
100
AcDbEntity
  8
0
100
AcDbPolyline
 62
253
  6
CONTINUOUS
 90
7
 70
0
 10
117.2212166782
 20
82.4465353594
 10
117.2362195019
 20
82.439460136
 10
117.2509168586
 20
82.4339790709
 10
117.2651913313
 20
82.4301300059
 10
117.2789132449
 20
82.4279320691
 10
117.2919846665
 20
82.4274016437
 10
117.2993642382
 20
82.4280914546
  0
LINE
  5
35E
100
AcDbEntity
  8
ASSI
100
AcDbLine
 62
7
  6
CONTINUOUS
 10
122.0071432797
 20
81.7513170245
 11
118.8251627643
 21
83.3423072822
  0
LINE
  5
35F
100
AcDbEntity
  8
RACCORDO
100
AcDbLine
 62
253
  6
CONTINUOUS
 10
115.4465253674
 20
85.0948932116
 11
116.8607389298
 21
84.3877864304
  0
LINE
  5
360
100
AcDbEntity
  8
RACCORDO
100
AcDbLine
 62
253
  6
CONTINUOUS
 10
115.552526772
 20
85.2823313021
 11
116.9667403344
 21
84.5752245209
  0
LINE
  5
361
100
AcDbEntity
  8
ASSI
100
AcDbLine
 62
253
  6
CONTINUOUS
 10
118.9172919835
 20
83.6059577202
 11
122.0992724988
 21
82.0149674626
  0
LINE
  5
362
100
AcDbEntity
  8
0
100
AcDbLine
 62
7
  6
CONTINUOUS
 10
116.9622430032
 20
84.6314655782
 11
115.460947406
 21
85.382113371
  0
LINE
  5
363
100
AcDbEntity
  8
0
100
AcDbLine
 62
253
  6
CONTINUOUS
 10
116.8974789259
 20
84.7556029355
 11
115.3962113857
 21
85.5062367055
  0
LINE
  5
364
100
AcDbEntity
  8
RACCORDO
100
AcDbLine
 62
253
  6
CONTINUOUS
 10
118.6757794019
 20
83.9550817426
 11
122.0954480625
 21
82.2452474132
  0
LINE
  5
365
100
AcDbEntity
  8
0
100
AcDbLine
 62
7
  6
CONTINUOUS
 10
115.4609473985
 20
85.3821133747
 11
115.4607910475
 21
85.3821917326
  0
LINE
  5
366
100
AcDbEntity
  8
RACCORDO
100
AcDbLine
 62
7
  6
CONTINUOUS
 10
118.7403705831
 20
83.8307848175
 11
122.160194841
 21
82.1208725079
  0
LWPOLYLINE
  5
367
100
AcDbEntity
  8
0
100
AcDbPolyline
 62
7
  6
CONTINUOUS
 90
20
 70
0
 10
116.9622429114
 20
84.631465395
 10
116.9649113272
 20
84.6301021919
 10
116.9781501803
 20
84.6225476596
 10
116.9933228789
 20
84.6124229489
 10
117.0099827287
 20
84.5996442748
 10
117.0278062853
 20
84.5841137375
 10
117.0464005828
 20
84.5658472978
 10
117.0652825856
 20
84.5450270556
 10
117.0841210316
 20
84.5217601812
 10
117.1025027248
 20
84.4963290219
 10
117.1198936633
 20
84.4693091604
 10
117.1359903396
 20
84.4410872937
 10
117.1505372754
 20
84.4120831092
 10
117.1632010102
 20
84.3830323809
 10
117.1738718544
 20
84.3543633941
 10
117.1824742193
 20
84.3265728646
 10
117.1889231089
 20
84.3005151745
 10
117.193338077
 20
84.27670045
 10
117.1959566101
 20
84.2552948418
 10
117.1967987035
 20
84.2430631891
  0
LWPOLYLINE
  5
368
100
AcDbEntity
  8
RACCORDO
100
AcDbPolyline
 62
7
  6
CONTINUOUS
 90
20
 70
0
 10
122.1602229299
 20
82.1208582382
 10
122.1628955262
 20
82.1194927831
 10
122.1761210385
 20
82.111943822
 10
122.1912768943
 20
82.101825932
 10
122.207917258
 20
82.08905485
 10
122.2257187763
 20
82.0735325389
 10
122.2442882837
 20
82.0552751781
 10
122.2631436582
 20
82.0344641664
 10
122.281953916
 20
82.011206349
 10
122.3003060476
 20
81.9857839643
 10
122.3176669582
 20
81.958771876
 10
122.3337334589
 20
81.9305565789
 10
122.3482504107
 20
81.9015574939
 10
122.3608852759
 20
81.8725094032
 10
122.3715284788
 20
81.8438405986
 10
122.3801046706
 20
81.8160476565
 10
122.3865296638
 20
81.7899837029
 10
122.3909230471
 20
81.7661586155
 10
122.3935218438
 20
81.7447393285
 10
122.3943521472
 20
81.732500055
  0
LWPOLYLINE
  5
369
100
AcDbEntity
  8
ASSI
100
AcDbPolyline
 62
253
  6
CONTINUOUS
 90
19
 70
0
 10
122.0992730878
 20
82.0149667339
 10
122.114622168
 20
82.0065281877
 10
122.1301018733
 20
81.9964859123
 10
122.1455218755
 20
81.9849351164
 10
122.1606349362
 20
81.9720593248
 10
122.1753145755
 20
81.9579899869
 10
122.1895588642
 20
81.9427259374
 10
122.2031966782
 20
81.9264544373
 10
122.2160813085
 20
81.909366164
 10
122.2282430586
 20
81.8914306095
 10
122.2395307894
 20
81.8728564156
 10
122.2498310219
 20
81.853845173
 10
122.2591806393
 20
81.8343306898
 10
122.2674578728
 20
81.8145133344
 10
122.2745521882
 20
81.7946468633
 10
122.2804441323
 20
81.7747551341
 10
122.2850682755
 20
81.7550131148
 10
122.2883428766
 20
81.7357465088
 10
122.2902572242
 20
81.7171757559
  0
LWPOLYLINE
  5
36A
100
AcDbEntity
  8
RACCORDO
100
AcDbPolyline
 62
253
  6
CONTINUOUS
 90
19
 70
0
 10
116.8607389298
 20
84.3877864304
 10
116.8669340105
 20
84.3843634927
 10
116.8730262722
 20
84.3803732332
 10
116.8790157148
 20
84.3758156521
 10
116.8849515185
 20
84.3706455221
 10
116.8907845031
 20
84.3649080704
 10
116.8963671286
 20
84.3587389786
 10
116.9016896332
 20
84.3521292118
 10
116.9067617787
 20
84.3450878049
 10
116.9114653103
 20
84.3377775445
 10
116.9157906904
 20
84.3301924871
 10
116.9197474566
 20
84.3223385763
 10
116.9232459675
 20
84.3143964289
 10
116.9262754357
 20
84.3063591628
 10
116.9288466485
 20
84.2982336603
 10
116.9309023272
 20
84.290221185
 10
116.9324233787
 20
84.2823888249
 10
116.933428896
 20
84.2746694921
 10
116.9339188792
 20
84.2670631866
  0
LWPOLYLINE
  5
36B
100
AcDbEntity
  8
RACCORDO
100
AcDbPolyline
 62
253
  6
CONTINUOUS
 90
19
 70
0
 10
116.9667403344
 20
84.5752245209
 10
116.9821575603
 20
84.5667019941
 10
116.9974755023
 20
84.5566056702
 10
117.0125777963
 20
84.545012518
 10
117.0273505552
 20
84.532011181
 10
117.0416811476
 20
84.5177006398
 10
117.0554590821
 20
84.5021895367
 10
117.0685804949
 20
84.4855968457
 10
117.0809462992
 20
84.4680489052
 10
117.0924607868
 20
84.4496777567
 10
117.1030377467
 20
84.4306239078
 10
117.1125975696
 20
84.4110327644
 10
117.1210650742
 20
84.3910514274
 10
117.1283773368
 20
84.370832341
 10
117.1344797215
 20
84.3505303575
 10
117.1393226623
 20
84.3302989378
 10
117.1428692931
 20
84.3102922544
 10
117.1450956388
 20
84.2906640117
 10
117.145986301
 20
84.271564458
  0
LWPOLYLINE
  5
36C
100
AcDbEntity
  8
RACCORDO
100
AcDbPolyline
 62
253
  6
CONTINUOUS
 90
9
 70
0
 10
122.4675892351
 20
81.6435903359
 10
122.4502598534
 20
81.6532872907
 10
122.4350072973
 20
81.6639559566
 10
122.4219949915
 20
81.6754820646
 10
122.4113623611
 20
81.6877420499
 10
122.4032233269
 20
81.7006047004
 10
122.3976650843
 20
81.7139325006
 10
122.3947471806
 20
81.7275827297
 10
122.3943539946
 20
81.7324598315
  0
LWPOLYLINE
  5
36D
100
AcDbEntity
  8
0
100
AcDbPolyline
 62
253
  6
CONTINUOUS
 90
8
 70
0
 10
116.96221495
 20
84.631479599
 10
116.9511844431
 20
84.6379686173
 10
116.9362789463
 20
84.6505082379
 10
116.9235271958
 20
84.6662467214
 10
116.9131285831
 20
84.6849379748
 10
116.9052457048
 20
84.7062897346
 10
116.9000018206
 20
84.7299681364
 10
116.8974789259
 20
84.7556029355
  0
LWPOLYLINE
  5
36E
100
AcDbEntity
  8
RACCORDO
100
AcDbPolyline
 62
253
  6
CONTINUOUS
 90
8
 70
0
 10
122.1601948602
 20
82.1208724983
 10
122.1490891933
 20
82.1274129274
 10
122.1341823659
 20
82.1399794172
 10
122.1214338788
 20
82.1557486358
 10
122.1110434027
 20
82.1744736205
 10
122.1031736724
 20
82.1958611184
 10
122.0979479425
 20
82.2195761838
 10
122.0954480612
 20
82.2452474141
  0
LWPOLYLINE
  5
36F
100
AcDbEntity
  8
0
100
AcDbPolyline
 62
253
  6
CONTINUOUS
 90
8
 70
0
 10
115.4607910475
 20
85.3821917326
 10
115.4499167346
 20
85.3886025016
 10
115.4350112593
 20
85.401142156
 10
115.4222595397
 20
85.4168806605
 10
115.4118609633
 20
85.4355719143
 10
115.4039781211
 20
85.4569236477
 10
115.3987342657
 20
85.4806019935
 10
115.3962113859
 20
85.5062367055
  0
LWPOLYLINE
  5
370
100
AcDbEntity
  8
SUPERFICI
100
AcDbPolyline
 62
7
  6
CONTINUOUS
 90
10
 70
0
 10
122.0071432797
 20
81.7513170245
 10
122.0083935277
 20
81.7505473185
 10
122.0095681849
 20
81.7495897568
 10
122.0106672513
 20
81.7484443394
 10
122.0117221254
 20
81.7470691251
 10
122.0127014087
 20
81.7455060552
 10
122.0135109056
 20
81.7438809527
 10
122.0141192175
 20
81.7422357588
 10
122.0145577431
 20
81.7405285324
 10
122.0148264822
 20
81.7387592736
  0
LINE
  5
371
100
AcDbEntity
  8
SUPERFICI
100
AcDbLine
 62
7
  6
CONTINUOUS
 10
130.3903615504
 20
74.8233805919
 11
130.4131982264
 21
74.8066390733
  0
LINE
  5
372
100
AcDbEntity
  8
SUPERFICI
100
AcDbLine
 62
7
  6
CONTINUOUS
 10
130.4131982264
 20
74.8066390733
 11
130.434106626
 21
74.7873073556
  0
LWPOLYLINE
  5
373
100
AcDbEntity
  8
0
100
AcDbPolyline
 62
253
  6
CONTINUOUS
 90
6
 70
0
 10
117.0484948766
 20
84.6411238918
 10
117.0193677064
 20
84.6695861664
 10
116.9896425378
 20
84.6953276948
 10
116.9595214509
 20
84.7181413828
 10
116.9288004105
 20
84.7382332219
 10
116.8974789259
 20
84.7556029355
  0
LWPOLYLINE
  5
374
100
AcDbEntity
  8
RACCORDO
100
AcDbPolyline
 62
253
  6
CONTINUOUS
 90
6
 70
0
 10
122.2465717516
 20
82.1306012393
 10
122.2174822514
 20
82.159067846
 10
122.1877675803
 20
82.1848270733
 10
122.1576216986
 20
82.2076757585
 10
122.12684869
 20
82.227815964
 10
122.0954480625
 20
82.2452474132
  0
LINE
  5
375
100
AcDbEntity
  8
0
100
AcDbLine
 62
253
  6
CONTINUOUS
 10
113.7891271283
 20
93.7606620147
 11
113.7857065184
 21
93.7701403874
  0
LWPOLYLINE
  5
376
100
AcDbEntity
  8
0
100
AcDbPolyline
 62
253
  6
CONTINUOUS
 90
10
 70
0
 10
117.2417091591
 20
84.3107891772
 10
117.2282018603
 20
84.3511648851
 10
117.2124811519
 20
84.3910529907
 10
117.1944986004
 20
84.4304446832
 10
117.1742991555
 20
84.4693467867
 10
117.1523466112
 20
84.5068967675
 10
117.128608668
 20
84.5430539923
 10
117.1031136753
 20
84.5778568541
 10
117.0764156868
 20
84.6105609572
 10
117.0484948766
 20
84.6411238918
  0
LWPOLYLINE
  5
377
100
AcDbEntity
  8
0
100
AcDbPolyline
 62
253
  6
CONTINUOUS
 90
7
 70
0
 10
113.7857065184
 20
93.7701403874
 10
113.7642683699
 20
93.8399051886
 10
113.7463787862
 20
93.9099968727
 10
113.7323445554
 20
93.9791180534
 10
113.7222679883
 20
94.046836292
 10
113.7160473615
 20
94.1135843233
 10
113.713683021
 20
94.1793623216
  0
LWPOLYLINE
  5
378
100
AcDbEntity
  8
0
100
AcDbPolyline
 62
253
  6
CONTINUOUS
 90
19
 70
0
 10
115.168487736
 20
83.4684212918
 10
115.1725632807
 20
83.4304552952
 10
115.1791726895
 20
83.3920972151
 10
115.1883148727
 20
83.3533464061
 10
115.2000950129
 20
83.3139251772
 10
115.2144060043
 20
83.274110079
 10
115.2309275706
 20
83.2347313722
 10
115.249711523
 20
83.1957723433
 10
115.2707026711
 20
83.15724768
 10
115.2934189215
 20
83.1200339508
 10
115.3178937856
 20
83.0841670027
 10
115.3440898187
 20
83.049608618
 10
115.3714177327
 20
83.017123806
 10
115.399888469
 20
82.9867618612
 10
115.4294877033
 20
82.9584714433
 10
115.459588112
 20
82.932866526
 10
115.4899798792
 20
82.910151338
 10
115.5208708617
 20
82.8901204635
 10
115.5522605678
 20
82.8727736043
  0
LWPOLYLINE
  5
379
100
AcDbEntity
  8
0
100
AcDbPolyline
 62
7
  6
CONTINUOUS
 90
6
 70
0
 10
113.7902783892
 20
93.7368917294
 10
113.7951701
 20
93.6891357688
 10
113.8055774918
 20
93.6383159578
 10
113.8212672256
 20
93.5886529529
 10
113.8421420471
 20
93.5406827389
 10
113.8680225273
 20
93.4949874673
  0
LWPOLYLINE
  5
37A
100
AcDbEntity
  8
0
100
AcDbPolyline
 62
253
  6
CONTINUOUS
 90
9
 70
0
 10
113.7902783892
 20
93.7368917294
 10
113.7910116757
 20
93.7281311506
 10
113.7968612869
 20
93.7006338602
 10
113.8079889011
 20
93.6739236396
 10
113.8242621775
 20
93.6477807021
 10
113.845551199
 20
93.6231708291
 10
113.8716576522
 20
93.6004273455
 10
113.9022047719
 20
93.5791311024
 10
113.9367519524
 20
93.5591824079
  0
LINE
  5
37B
100
AcDbEntity
  8
0
100
AcDbLine
 62
253
  6
CONTINUOUS
 10
115.4111805686
 20
85.286377002
 11
115.412595467
 21
85.2686944064
  0
LINE
  5
37C
100
AcDbEntity
  8
RACCORDO
100
AcDbLine
 62
7
  6
CONTINUOUS
 10
115.3837390957
 20
83.3907288467
 11
115.3850796697
 21
83.3708354023
  0
LWPOLYLINE
  5
37D
100
AcDbEntity
  8
0
100
AcDbPolyline
 62
253
  6
CONTINUOUS
 90
7
 70
0
 10
114.4260885607
 20
100.3367826228
 10
114.4270466506
 20
100.3222974681
 10
114.4301000701
 20
100.3092873584
 10
114.4351570927
 20
100.2981431246
 10
114.4420658027
 20
100.2891995457
 10
114.4506186585
 20
100.2827252918
 10
114.4519850832
 20
100.2820018029
  0
LINE
  5
37E
100
AcDbEntity
  8
0
100
AcDbLine
 62
7
  6
CONTINUOUS
 10
113.7902752935
 20
93.7369492149
 11
113.7902783892
 21
93.7368917294
  0
LWPOLYLINE
  5
37F
100
AcDbEntity
  8
0
100
AcDbPolyline
 62
253
  6
CONTINUOUS
 90
22
 70
0
 10
113.9367519524
 20
93.5591824079
 10
113.923167539
 20
93.8234688713
 10
113.9109596681
 20
94.0883462534
 10
113.9001254121
 20
94.3538021843
 10
113.8906619779
 20
94.6198171012
 10
113.8825660661
 20
94.8863858531
 10
113.8758342485
 20
95.1535179066
 10
113.8704637211
 20
95.4212015016
 10
113.8664516326
 20
95.6894242231
 10
113.8637950658
 20
95.9581949379
 10
113.8624913872
 20
96.2275018335
 10
113.8625379028
 20
96.4973329853
 10
113.8639321679
 20
96.7676974427
 10
113.8666717134
 20
97.0385836229
 10
113.8707540085
 20
97.3099797717
 10
113.8761770706
 20
97.5818950086
 10
113.8829385846
 20
97.8543176477
 10
113.8910361838
 20
98.1272363961
 10
113.9004683671
 20
98.4006612712
 10
113.9112333298
 20
98.6745881274
 10
113.923328607
 20
98.9489984943
 10
113.9367519524
 20
99.2238810549
  0
LWPOLYLINE
  5
380
100
AcDbEntity
  8
0
100
AcDbPolyline
 62
253
  6
CONTINUOUS
 90
10
 70
0
 10
115.0624453288
 20
85.2579482273
 10
115.0724399321
 20
85.0581027268
 10
115.0828816551
 20
84.8585070796
 10
115.0937704168
 20
84.6591626604
 10
115.1051060748
 20
84.460071863
 10
115.1168885953
 20
84.2612350347
 10
115.1291180755
 20
84.0626504893
 10
115.1417945071
 20
83.8643185892
 10
115.1549177536
 20
83.6662417314
 10
115.168487736
 20
83.4684212918
  0
LINE
  5
381
100
AcDbEntity
  8
0
100
AcDbLine
 62
7
  6
CONTINUOUS
 10
113.7631727749
 20
94.2966008192
 11
113.7902772267
 21
93.736913306
  0
LWPOLYLINE
  5
382
100
AcDbEntity
  8
0
100
AcDbPolyline
 62
253
  6
CONTINUOUS
 90
9
 70
0
 10
113.7901883742
 20
99.3972489527
 10
113.7910123241
 20
99.3781653264
 10
113.7968629542
 20
99.3541657062
 10
113.8079913518
 20
99.3303210097
 10
113.8242650417
 20
99.3074649537
 10
113.8455540636
 20
99.2848533288
 10
113.8716600749
 20
99.2626892397
 10
113.9022062455
 20
99.2421521232
 10
113.9367519524
 20
99.2238810549
  0
LINE
  5
383
100
AcDbEntity
  8
SUPERFICI
100
AcDbLine
 62
7
  6
CONTINUOUS
 10
113.8951873669
 20
121.8285708815
 11
113.8945193863
 21
121.8470252701
  0
LINE
  5
384
100
AcDbEntity
  8
RACCORDO
100
AcDbLine
 62
7
  6
CONTINUOUS
 10
115.3837335011
 20
83.3907198873
 11
115.3343480755
 21
85.0980779719
  0
LINE
  5
385
100
AcDbEntity
  8
RACCORDO
100
AcDbLine
 62
253
  6
CONTINUOUS
 10
115.4276693864
 20
83.3375225513
 11
115.3782839606
 21
85.0448806459
  0
LWPOLYLINE
  5
386
100
AcDbEntity
  8
SUPERFICI
100
AcDbPolyline
 62
253
  6
CONTINUOUS
 90
20
 70
0
 10
113.9677424101
 20
121.7584495583
 10
113.9679106624
 20
121.74908981
 10
113.9684150988
 20
121.7399161308
 10
113.9692547592
 20
121.7309459832
 10
113.9704280453
 20
121.7221964426
 10
113.9719327236
 20
121.713684164
 10
113.9737659299
 20
121.7054253512
 10
113.9759241746
 20
121.6974357251
 10
113.9784033493
 20
121.6897304947
 10
113.9811987348
 20
121.6823243271
 10
113.9843050099
 20
121.6752313205
 10
113.9877162616
 20
121.6684649767
 10
113.9914259965
 20
121.662038176
 10
113.9954271528
 20
121.655963152
 10
113.9997121141
 20
121.650251469
 10
114.0042727237
 20
121.6449139995
 10
114.0091003003
 20
121.6399609035
 10
114.0141856543
 20
121.6354016098
 10
114.0195191054
 20
121.631244797
 10
114.0250905011
 20
121.6274983779
  0
LWPOLYLINE
  5
387
100
AcDbEntity
  8
0
100
AcDbPolyline
 62
253
  6
CONTINUOUS
 90
10
 70
0
 10
113.713683021
 20
94.1793623216
 10
113.710666761
 20
94.8048309856
 10
113.7084045682
 20
95.430666983
 10
113.7068964424
 20
96.0568689998
 10
113.7061423825
 20
96.6834348068
 10
113.7061423824
 20
97.3103640012
 10
113.7068964423
 20
97.9376580107
 10
113.708404568
 20
98.5653164383
 10
113.7106667608
 20
99.1933370563
 10
113.713683021
 20
99.8217185506
  0
LINE
  5
388
100
AcDbEntity
  8
SUPERFICI
100
AcDbLine
 62
253
  6
CONTINUOUS
 10
113.8945191454
 20
122.1867411075
 11
113.8945191054
 21
122.1868118586
  0
LINE
  5
389
100
AcDbEntity
  8
SUPERFICI
100
AcDbLine
 62
7
  6
CONTINUOUS
 10
113.8945191054
 20
122.18681184
 11
113.8945191054
 21
121.8468379059
  0
LINE
  5
38A
100
AcDbEntity
  8
SUPERFICI
100
AcDbLine
 62
253
  6
CONTINUOUS
 10
113.9677424101
 20
122.0984234924
 11
113.9677424101
 21
121.7584495583
  0
LINE
  5
38B
100
AcDbEntity
  8
0
100
AcDbLine
 62
253
  6
CONTINUOUS
 10
114.0009502851
 20
99.7798605886
 11
114.0009502851
 21
99.888473989
  0
LINE
  5
38C
100
AcDbEntity
  8
SUPERFICI
100
AcDbLine
 62
7
  6
CONTINUOUS
 10
114.5975120597
 20
121.3408329316
 11
114.5975120597
 21
120.8868791896
  0
LINE
  5
38D
100
AcDbEntity
  8
SUPERFICI
100
AcDbLine
 62
253
  6
CONTINUOUS
 10
114.6707353644
 20
121.3042212792
 11
114.6707353644
 21
120.7951471351
  0
LINE
  5
38E
100
AcDbEntity
  8
0
100
AcDbLine
 62
253
  6
CONTINUOUS
 10
113.8528674535
 20
99.6141724929
 11
113.8538580354
 21
99.8205419136
  0
LWPOLYLINE
  5
38F
100
AcDbEntity
  8
SUPERFICI
100
AcDbPolyline
 62
253
  6
CONTINUOUS
 90
34
 70
0
 10
113.9677424101
 20
122.0984234924
 10
113.9679412129
 20
122.1087879706
 10
113.9685371752
 20
122.1193279554
 10
113.9695289584
 20
122.1300197411
 10
113.9709143344
 20
122.1408392869
 10
113.9726901885
 20
122.1517622513
 10
113.9748525236
 20
122.1627640453
 10
113.9773964742
 20
122.1738199174
 10
113.980316319
 20
122.1849050064
 10
113.983605489
 20
122.1959943762
 10
113.9872565859
 20
122.207063086
 10
113.9912613965
 20
122.2180862384
 10
113.9956109087
 20
122.2290390317
 10
114.0002953374
 20
122.2398968294
 10
114.0053041454
 20
122.2506352125
 10
114.010626064
 20
122.2612300256
 10
114.0162491244
 20
122.2716574454
 10
114.0221606751
 20
122.2818940142
 10
114.0283474068
 20
122.2919166911
 10
114.0347953834
 20
122.3017029091
 10
114.0414901167
 20
122.3112306888
 10
114.0484165929
 20
122.3204786639
 10
114.0555593033
 20
122.3294261143
 10
114.0629021208
 20
122.3380528251
 10
114.0704283675
 20
122.3463392155
 10
114.0781210017
 20
122.354266564
 10
114.0859628143
 20
122.3618171769
 10
114.0939363133
 20
122.3689742261
 10
114.1020247907
 20
122.3757225991
 10
114.110208862
 20
122.382046009
 10
114.1184665328
 20
122.387927785
 10
114.1267779535
 20
122.393354535
 10
114.1351255859
 20
122.398315549
 10
114.1434906661
 20
122.4028003073
  0
LWPOLYLINE
  5
390
100
AcDbEntity
  8
0
100
AcDbPolyline
 62
253
  6
CONTINUOUS
 90
14
 70
0
 10
114.2685859632
 20
99.9287756859
 10
114.2687085713
 20
99.9326854009
 10
114.2728673873
 20
99.9760184748
 10
114.2797621121
 20
100.0173110741
 10
114.2894601633
 20
100.0567988306
 10
114.3018941232
 20
100.0942461125
 10
114.3168617385
 20
100.1289460235
 10
114.334408462
 20
100.1608288622
 10
114.3544888409
 20
100.18996433
 10
114.3767642634
 20
100.2158546357
 10
114.4012725931
 20
100.238440991
 10
114.4279759663
 20
100.2577821841
 10
114.4564221808
 20
100.2735567883
 10
114.4633252826
 20
100.2763315513
  0
LWPOLYLINE
  5
391
100
AcDbEntity
  8
0
100
AcDbPolyline
 62
253
  6
CONTINUOUS
 90
8
 70
0
 10
114.0009502851
 20
99.888473989
 10
114.0028961718
 20
99.9459081531
 10
114.0083823257
 20
100.001236367
 10
114.0173746365
 20
100.0541478953
 10
114.0298174289
 20
100.1043445123
 10
114.0456406424
 20
100.1515457127
 10
114.0647603278
 20
100.1954901976
 10
114.0870687708
 20
100.235932118
  0
LWPOLYLINE
  5
392
100
AcDbEntity
  8
0
100
AcDbPolyline
 62
253
  6
CONTINUOUS
 90
13
 70
0
 10
113.8538580354
 20
99.8205419136
 10
113.8558950571
 20
99.8779742479
 10
113.861495422
 20
99.93333807
 10
113.870629273
 20
99.9863202339
 10
113.8832503407
 20
100.0366323787
 10
113.8992889688
 20
100.0839755334
 10
113.9186442904
 20
100.1280496103
 10
113.9411975931
 20
100.1685990945
 10
113.9668234973
 20
100.2054155717
 10
113.9953803216
 20
100.2383039972
 10
114.0267109684
 20
100.2670837618
 10
114.0606386113
 20
100.291594181
 10
114.098258911
 20
100.3123095045
  0
LWPOLYLINE
  5
393
100
AcDbEntity
  8
0
100
AcDbPolyline
 62
253
  6
CONTINUOUS
 90
19
 70
0
 10
113.713683021
 20
99.8217185506
 10
113.7160311521
 20
99.8857562279
 10
113.7222417969
 20
99.9469432052
 10
113.7323146218
 20
100.0052793173
 10
113.7463506353
 20
100.061110941
 10
113.7642482676
 20
100.114091421
 10
113.7857029133
 20
100.1631808444
 10
113.8107731212
 20
100.2082606676
 10
113.839398932
 20
100.2494487396
 10
113.8710973176
 20
100.2860594126
 10
113.9059187051
 20
100.3180137577
 10
113.9438109245
 20
100.3453898475
 10
113.9841366458
 20
100.3677373371
 10
114.0269292778
 20
100.3849712767
 10
114.0721536729
 20
100.3971757633
 10
114.1190694804
 20
100.4041539311
 10
114.1677435383
 20
100.4058057465
 10
114.2181076216
 20
100.4022305635
 10
114.2692187919
 20
100.3935306006
  0
LWPOLYLINE
  5
394
100
AcDbEntity
  8
0
100
AcDbPolyline
 62
7
  6
CONTINUOUS
 90
9
 70
0
 10
113.7902021237
 20
99.3975193162
 10
113.7628892925
 20
98.8045725543
 10
113.7398525979
 20
98.1492718252
 10
113.7245019891
 20
97.4975049932
 10
113.716842769
 20
96.8494131483
 10
113.716878781
 20
96.2051380247
 10
113.7246122661
 20
95.5648180164
 10
113.7400438657
 20
94.9285930267
 10
113.7631727749
 20
94.2966008192
  0
LINE
  5
395
100
AcDbEntity
  8
0
100
AcDbLine
 62
7
  6
CONTINUOUS
 10
113.7901961929
 20
99.3974028467
 11
113.7901883742
 21
99.3972489527
  0
LWPOLYLINE
  5
396
100
AcDbEntity
  8
0
100
AcDbPolyline
 62
253
  6
CONTINUOUS
 90
10
 70
0
 10
114.4260885607
 20
92.9625201528
 10
114.427046879
 20
92.9779651879
 10
114.4301008648
 20
92.9940300847
 10
114.4351585677
 20
93.0102321304
 10
114.4420678233
 20
93.0260845029
 10
114.4506209207
 20
93.0411110969
 10
114.4605609181
 20
93.0548607807
 10
114.4715892114
 20
93.0669206656
 10
114.4833744472
 20
93.0769285474
 10
114.4955626065
 20
93.0845839496
  0
LWPOLYLINE
  5
397
100
AcDbEntity
  8
0
100
AcDbPolyline
 62
7
  6
CONTINUOUS
 90
11
 70
0
 10
113.7901883742
 20
99.3972489527
 10
113.7941730074
 20
99.4398042393
 10
113.8037047632
 20
99.4900917947
 10
113.8183334658
 20
99.5391581632
 10
113.8380498674
 20
99.586779477
 10
113.8626589614
 20
99.6322738847
 10
113.8919253278
 20
99.6750992832
 10
113.9258513816
 20
99.7150659119
 10
113.9642284753
 20
99.7516487333
 10
114.0065059677
 20
99.7841287909
 10
114.0521362815
 20
99.8119961169
  0
LINE
  5
398
100
AcDbEntity
  8
SUPERFICI
100
AcDbLine
 62
7
  6
CONTINUOUS
 10
119.1849026613
 20
118.5380634866
 11
119.8981802699
 21
118.9339179317
  0
LINE
  5
399
100
AcDbEntity
  8
SUPERFICI
100
AcDbLine
 62
7
  6
CONTINUOUS
 10
119.5799822183
 20
120.8549042283
 11
118.5254927869
 21
120.3139311896
  0
LINE
  5
39A
100
AcDbEntity
  8
SUPERFICI
100
AcDbLine
 62
253
  6
CONTINUOUS
 10
121.8780810521
 20
119.7058548114
 11
122.5649828375
 21
120.0504154693
  0
LINE
  5
39B
100
AcDbEntity
  8
SUPERFICI
100
AcDbLine
 62
253
  6
CONTINUOUS
 10
122.0195006134
 20
119.4619458123
 11
122.7076258146
 21
119.8071201546
  0
LINE
  5
39C
100
AcDbEntity
  8
SUPERFICI
100
AcDbLine
 62
7
  6
CONTINUOUS
 10
119.1849026613
 20
119.9842262524
 11
120.0400058601
 21
120.4104202426
  0
LINE
  5
39D
100
AcDbEntity
  8
SUPERFICI
100
AcDbLine
 62
253
  6
CONTINUOUS
 10
121.6632678381
 20
119.5987892537
 11
121.8780810521
 21
119.7058548114
  0
LINE
  5
39E
100
AcDbEntity
  8
SUPERFICI
100
AcDbLine
 62
253
  6
CONTINUOUS
 10
121.8042724424
 20
119.3546734349
 11
122.0195006134
 21
119.4619458123
  0
LINE
  5
39F
100
AcDbEntity
  8
SUPERFICI
100
AcDbLine
 62
7
  6
CONTINUOUS
 10
120.9200345931
 20
120.8728895915
 11
125.532677449
 21
123.1461117814
  0
LINE
  5
3A0
100
AcDbEntity
  8
SUPERFICI
100
AcDbLine
 62
7
  6
CONTINUOUS
 10
125.257636717
 20
121.6151219216
 11
125.6691022856
 21
121.8179021259
  0
LINE
  5
3A1
100
AcDbEntity
  8
SUPERFICI
100
AcDbLine
 62
7
  6
CONTINUOUS
 10
128.3836509401
 20
122.7942659871
 11
126.2485153363
 21
121.7420194151
  0
LINE
  5
3A2
100
AcDbEntity
  8
SUPERFICI
100
AcDbLine
 62
7
  6
CONTINUOUS
 10
124.9162056243
 20
123.4543476937
 11
119.5799822183
 21
120.8549042283
  0
LINE
  5
3A3
100
AcDbEntity
  8
DRAFT
100
AcDbLine
 62
7
  6
CONTINUOUS
 10
138.459733276
 20
127.5171456865
 11
146.6606839354
 21
131.5129562997
  0
LINE
  5
3A4
100
AcDbEntity
  8
RACCORDO
100
AcDbLine
 62
7
  6
CONTINUOUS
 10
146.250248584
 20
131.5918528202
 11
146.3793292253
 21
131.6536336548
  0
LINE
  5
3A5
100
AcDbEntity
  8
0
100
AcDbLine
 62
7
  6
CONTINUOUS
 10
146.0257758347
 20
131.0692210734
 11
146.6745126527
 21
131.3797207859
  0
LINE
  5
3A6
100
AcDbEntity
  8
RACCORDO
100
AcDbLine
 62
7
  6
CONTINUOUS
 10
144.096312556
 20
132.4817814012
 11
126.2947624796
 21
124.0866197009
  0
LINE
  5
3A7
100
AcDbEntity
  8
RACCORDO
100
AcDbLine
 62
253
  6
CONTINUOUS
 10
144.535197299
 20
132.4493784627
 11
126.5411400527
 21
123.9634309144
  0
LWPOLYLINE
  5
3A8
100
AcDbEntity
  8
RACCORDO
100
AcDbPolyline
 62
7
  6
CONTINUOUS
 90
35
 70
0
 10
144.0963125486
 20
132.4817813977
 10
144.120913068
 20
132.4929790645
 10
144.14576793
 20
132.5034917693
 10
144.1708528006
 20
132.5133131784
 10
144.1961450413
 20
132.5224387031
 10
144.221618558
 20
132.5308635784
 10
144.2472432646
 20
132.5385831892
 10
144.2729541648
 20
132.5455856278
 10
144.2987660221
 20
132.5518829263
 10
144.3247706346
 20
132.5574992557
 10
144.3509671352
 20
132.5624308469
 10
144.3773118284
 20
132.5666662699
 10
144.4038350322
 20
132.5702062722
 10
144.4305420392
 20
132.5730444968
 10
144.4573818435
 20
132.5751688283
 10
144.4843000019
 20
132.5765710198
 10
144.5112523284
 20
132.5772472697
 10
144.5382344397
 20
132.5771963551
 10
144.5652510277
 20
132.5764155528
 10
144.592281503
 20
132.5749017808
 10
144.6192968701
 20
132.5726533734
 10
144.6462888736
 20
132.5696675979
 10
144.673226628
 20
132.5659443854
 10
144.7000904278
 20
132.5614833697
 10
144.7268881502
 20
132.5562789112
 10
144.7536359369
 20
132.5503207114
 10
144.780264657
 20
132.5436173924
 10
144.8066563353
 20
132.5361981715
 10
144.8326835194
 20
132.5281075705
 10
144.8584300105
 20
132.519328654
 10
144.8840908995
 20
132.5097896784
 10
144.9097669327
 20
132.4994319377
 10
144.9352932869
 20
132.4883008614
 10
144.9604671017
 20
132.476479233
 10
144.9700742965
 20
132.4717397338
  0
LINE
  5
3A9
100
AcDbEntity
  8
0
100
AcDbLine
 62
7
  6
CONTINUOUS
 10
146.7097741816
 20
131.3953502298
 11
146.6745126527
 21
131.3797207859
  0
LINE
  5
3AA
100
AcDbEntity
  8
SUPERFICI
100
AcDbLine
 62
7
  6
CONTINUOUS
 10
124.9494083219
 20
123.4686290985
 11
124.9602605198
 21
123.4723313796
  0
LINE
  5
3AB
100
AcDbEntity
  8
ASSI
100
AcDbLine
 62
253
  6
CONTINUOUS
 10
122.2407513186
 20
80.0558591968
 11
122.1972959541
 21
80.0579209957
  0
LWPOLYLINE
  5
3AC
100
AcDbEntity
  8
ASSI
100
AcDbPolyline
 62
253
  6
CONTINUOUS
 90
5
 70
0
 10
122.0836343757
 20
81.7331722607
 10
122.0641668002
 20
81.7342518137
 10
122.0462340178
 20
81.7354840822
 10
122.0297939851
 20
81.7369594918
 10
122.014826482
 20
81.7387592735
  0
LWPOLYLINE
  5
3AD
100
AcDbEntity
  8
ASSI
100
AcDbPolyline
 62
253
  6
CONTINUOUS
 90
5
 70
0
 10
122.1972959541
 20
80.0579209957
 10
122.177826328
 20
80.0590307702
 10
122.1598846922
 20
80.0603935291
 10
122.1434426312
 20
80.0618988353
 10
122.1284860101
 20
80.06353823
  0
LWPOLYLINE
  5
3AE
100
AcDbEntity
  8
ASSI
100
AcDbPolyline
 62
253
  6
CONTINUOUS
 90
7
 70
0
 10
122.2902572242
 20
81.7171757559
 10
122.2600355167
 20
81.7209837827
 10
122.2309824243
 20
81.7240298872
 10
122.2031302479
 20
81.7264398932
 10
122.1764513324
 20
81.7283413646
 10
122.151041354
 20
81.7298506285
 10
122.0836343757
 20
81.7331722607
  0
LINE
  5
3AF
100
AcDbEntity
  8
DRAFT
100
AcDbLine
 62
253
  6
CONTINUOUS
 10
122.2902572241
 20
81.7171757559
 11
122.3957586091
 21
81.7026794258
  0
LINE
  5
3B0
100
AcDbEntity
  8
SUPERFICI
100
AcDbLine
 62
253
  6
CONTINUOUS
 10
109.347016391
 20
91.0129506225
 11
124.213027413
 21
83.5799451115
  0
LWPOLYLINE
  5
3B1
100
AcDbEntity
  8
SUPERFICI
100
AcDbPolyline
 62
7
  6
CONTINUOUS
 90
8
 70
0
 10
130.434106626
 20
74.7873073556
 10
130.4526254524
 20
74.7657954271
 10
130.4685783764
 20
74.7423362762
 10
130.4819272556
 20
74.7168761545
 10
130.4923856309
 20
74.6896748643
 10
130.4996412302
 20
74.6612673255
 10
130.5035379909
 20
74.631977561
 10
130.5042059716
 20
74.6135231724
  0
LWPOLYLINE
  5
3B2
100
AcDbEntity
  8
0
100
AcDbPolyline
 62
253
  6
CONTINUOUS
 90
3
 70
0
 10
114.0721047195
 20
93.2545350924
 10
114.0268343108
 20
93.311571249
 10
113.9875734023
 20
93.366187042
  0
LWPOLYLINE
  5
3B3
100
AcDbEntity
  8
0
100
AcDbPolyline
 62
7
  6
CONTINUOUS
 90
6
 70
0
 10
113.8680225273
 20
93.4949874673
 10
113.8986871359
 20
93.4520905589
 10
113.9338657701
 20
93.4124925599
 10
113.9731959501
 20
93.3767073712
 10
114.016221636
 20
93.345224437
 10
114.0661517704
 20
93.3165854019
  0
LWPOLYLINE
  5
3B4
100
AcDbEntity
  8
SUPERFICI
100
AcDbPolyline
 62
253
  6
CONTINUOUS
 90
34
 70
0
 10
128.3024604328
 20
73.4672346635
 10
128.2980399073
 20
73.4741534445
 10
128.293232712
 20
73.4812572548
 10
128.2880496964
 20
73.4885300613
 10
128.2825025584
 20
73.4959554498
 10
128.2766038174
 20
73.5035166617
 10
128.2703667865
 20
73.5111966317
 10
128.2638055425
 20
73.5189780267
 10
128.2569348935
 20
73.5268432844
 10
128.2497703464
 20
73.5347746534
 10
128.2423280709
 20
73.5427542331
 10
128.234624864
 20
73.5507640141
 10
128.2266781113
 20
73.5587859187
 10
128.2185057481
 20
73.566801842
 10
128.210126219
 20
73.5747936926
 10
128.2015584361
 20
73.5827434332
 10
128.1928217363
 20
73.5906331219
 10
128.183935838
 20
73.5984449519
 10
128.1749207959
 20
73.6061612926
 10
128.1657969566
 20
73.6137647286
 10
128.156584912
 20
73.6212380993
 10
128.1473054532
 20
73.6285645378
 10
128.1379795233
 20
73.6357275088
 10
128.1286281704
 20
73.6427108458
 10
128.1192725
 20
73.649498788
 10
128.1099336273
 20
73.6560760152
 10
128.1006326295
 20
73.6624276831
 10
128.0913904985
 20
73.6685394564
 10
128.0822280931
 20
73.6743975412
 10
128.0731660925
 20
73.679988716
 10
128.0642249489
 20
73.6853003619
 10
128.0554248421
 20
73.690320491
 10
128.0467856333
 20
73.6950377729
 10
128.0383268208
 20
73.6994415612
  0
LWPOLYLINE
  5
3B5
100
AcDbEntity
  8
SUPERFICI
100
AcDbPolyline
 62
7
  6
CONTINUOUS
 90
14
 70
0
 10
118.8814072289
 20
81.7113883192
 10
118.8861785142
 20
81.6974049657
 10
118.8913549291
 20
81.6844418435
 10
118.8969172935
 20
81.6723386462
 10
118.902397594
 20
81.6617981804
 10
118.9075238385
 20
81.6529059791
 10
118.9125035817
 20
81.6449952796
 10
118.9174953116
 20
81.6376596273
 10
118.9225617643
 20
81.6307237353
 10
118.927709182
 20
81.6241209817
 10
118.9329907702
 20
81.6177348915
 10
118.9384826612
 20
81.6114423781
 10
118.9441781232
 20
81.6052288731
 10
118.949936667
 20
81.5992155922
  0
LWPOLYLINE
  5
3B6
100
AcDbEntity
  8
SUPERFICI
100
AcDbPolyline
 62
253
  6
CONTINUOUS
 90
10
 70
0
 10
118.7605454644
 20
83.4267070611
 10
118.7641546982
 20
83.4160625023
 10
118.7685031665
 20
83.4055375646
 10
118.7735879547
 20
83.3951305038
 10
118.7794184812
 20
83.3847666213
 10
118.785978173
 20
83.3745163341
 10
118.7932122102
 20
83.3645878413
 10
118.8010842132
 20
83.3550397072
 10
118.8095886299
 20
83.3457882744
 10
118.818703831
 20
83.3368205989
  0
LWPOLYLINE
  5
3B7
100
AcDbEntity
  8
ASSI
100
AcDbPolyline
 62
253
  6
CONTINUOUS
 90
6
 70
0
 10
118.7605454643
 20
83.4267070611
 10
118.7585428438
 20
83.4337789136
 10
118.7568955218
 20
83.4407451315
 10
118.7555965348
 20
83.4475870268
 10
118.7546387059
 20
83.454287866
 10
118.7539878786
 20
83.4612247201
  0
LWPOLYLINE
  5
3B8
100
AcDbEntity
  8
0
100
AcDbPolyline
 62
253
  6
CONTINUOUS
 90
7
 70
0
 10
117.299223663
 20
82.45509759
 10
117.3014795912
 20
82.4412799865
 10
117.3080390662
 20
82.4241826443
 10
117.3186248498
 20
82.4078866771
 10
117.3330598003
 20
82.3926647803
 10
117.3511023645
 20
82.3787716761
 10
117.3724506193
 20
82.3664398505
  0
LWPOLYLINE
  5
3B9
100
AcDbEntity
  8
0
100
AcDbPolyline
 62
253
  6
CONTINUOUS
 90
7
 70
0
 10
117.1968006171
 20
84.2430224151
 10
117.199130623
 20
84.2279356385
 10
117.2056685282
 20
84.2112012375
 10
117.2162367043
 20
84.1951966491
 10
117.2306583116
 20
84.1801896817
 10
117.2486920302
 20
84.16643145
 10
117.270036098
 20
84.1541521738
  0
LWPOLYLINE
  5
3BA
100
AcDbEntity
  8
RACCORDO
100
AcDbPolyline
 62
7
  6
CONTINUOUS
 90
14
 70
0
 10
115.3850796697
 20
83.3708354023
 10
115.3885217907
 20
83.3477154498
 10
115.393843993
 20
83.3250319306
 10
115.4009808004
 20
83.3026819269
 10
115.4098779509
 20
83.2807688375
 10
115.4203617103
 20
83.2596322261
 10
115.4324233941
 20
83.2392717668
 10
115.446062264
 20
83.219767252
 10
115.4610228851
 20
83.2015292306
 10
115.4774329961
 20
83.1844979077
 10
115.495249517
 20
83.1688654224
 10
115.5138046541
 20
83.1552644005
 10
115.532759951
 20
83.1438306596
 10
115.5397143432
 20
83.140203649
  0
LWPOLYLINE
  5
3BB
100
AcDbEntity
  8
RACCORDO
100
AcDbPolyline
 62
253
  6
CONTINUOUS
 90
7
 70
0
 10
115.3837335011
 20
83.3907198873
 10
115.3850053224
 20
83.3816962683
 10
115.3888378732
 20
83.3717471876
 10
115.3951485554
 20
83.3621969414
 10
115.4038293914
 20
83.353208937
 10
115.4147318498
 20
83.3449369617
 10
115.4276693864
 20
83.3375225513
  0
LWPOLYLINE
  5
3BC
100
AcDbEntity
  8
RACCORDO
100
AcDbPolyline
 62
253
  6
CONTINUOUS
 90
7
 70
0
 10
115.3343480758
 20
85.0980779623
 10
115.3356201479
 20
85.089053367
 10
115.3394529103
 20
85.0791043845
 10
115.345763715
 20
85.0695543055
 10
115.3544445375
 20
85.0605665228
 10
115.3653468098
 20
85.0522947999
 10
115.3782839606
 20
85.0448806459
  0
LWPOLYLINE
  5
3BD
100
AcDbEntity
  8
RACCORDO
100
AcDbPolyline
 62
253
  6
CONTINUOUS
 90
19
 70
0
 10
118.4582703271
 20
81.7374106014
 10
118.4623857354
 20
81.6994069263
 10
118.469053776
 20
81.6609884237
 10
118.4782733727
 20
81.622154455
 10
118.490161737
 20
81.5826019589
 10
118.5045997759
 20
81.5426328785
 10
118.5212311289
 20
81.5031535801
 10
118.5400996003
 20
81.4641802402
 10
118.5611578783
 20
81.4256945738
 10
118.5839115793
 20
81.3885504366
 10
118.608384368
 20
81.3527891799
 10
118.6345486243
 20
81.3183670624
 10
118.6618323361
 20
81.2860098727
 10
118.690241521
 20
81.2557607126
 10
118.7197668117
 20
81.2275744495
 10
118.7498130057
 20
81.2020444514
 10
118.7801810009
 20
81.1793680813
 10
118.811067957
 20
81.1593467964
 10
118.8424733854
 20
81.1419802997
  0
LWPOLYLINE
  5
3BE
100
AcDbEntity
  8
ASSI
100
AcDbPolyline
 62
253
  6
CONTINUOUS
 90
11
 70
0
 10
118.8676460647
 20
81.7860234369
 10
118.8688112069
 20
81.7752081343
 10
118.8712142785
 20
81.7625686122
 10
118.8748016961
 20
81.749579178
 10
118.8795667663
 20
81.736451473
 10
118.885505499
 20
81.7233210442
 10
118.8926242575
 20
81.7102860402
 10
118.9008909306
 20
81.6974984689
 10
118.9102775536
 20
81.6850710347
 10
118.920775103
 20
81.6730776532
 10
118.9323633591
 20
81.6615995554
  0
LWPOLYLINE
  5
3BF
100
AcDbEntity
  8
SUPERFICI
100
AcDbPolyline
 62
253
  6
CONTINUOUS
 90
3
 70
0
 10
113.895204428
 20
121.8375886948
 10
113.8946077901
 20
121.8435086987
 10
113.8945191054
 20
121.8468379058
  0
LWPOLYLINE
  5
3C0
100
AcDbEntity
  8
RACCORDO
100
AcDbPolyline
 62
253
  6
CONTINUOUS
 90
8
 70
0
 10
118.6757794091
 20
83.9550817401
 10
118.6782792566
 20
83.9294107171
 10
118.6835049177
 20
83.90569579
 10
118.6913745581
 20
83.8843083636
 10
118.7017649363
 20
83.8655833909
 10
118.7145133314
 20
83.8498141329
 10
118.7294200884
 20
83.8372475628
 10
118.7403705831
 20
83.8307848175
  0
LWPOLYLINE
  5
3C1
100
AcDbEntity
  8
SUPERFICI
100
AcDbPolyline
 62
7
  6
CONTINUOUS
 90
6
 70
0
 10
118.8676447374
 20
81.7860430209
 10
118.8687834835
 20
81.7729534536
 10
118.8707934596
 20
81.757468802
 10
118.8735478858
 20
81.742013992
 10
118.8770885695
 20
81.7265866669
 10
118.8814072289
 20
81.7113883192
  0
LWPOLYLINE
  5
3C2
100
AcDbEntity
  8
0
100
AcDbPolyline
 62
253
  6
CONTINUOUS
 90
5
 70
0
 10
117.2700367228
 20
84.1541525303
 10
117.2667862635
 20
84.1926395437
 10
117.261000392
 20
84.2315259477
 10
117.2526780064
 20
84.2708111058
 10
117.2417091591
 20
84.3107891772
  0
LINE
  5
3C3
100
AcDbEntity
  8
RACCORDO
100
AcDbLine
 62
253
  6
CONTINUOUS
 10
118.6903657478
 20
83.7348587666
 11
118.6917361866
 21
83.717169272
  0
LWPOLYLINE
  5
3C4
100
AcDbEntity
  8
RACCORDO
100
AcDbPolyline
 62
253
  6
CONTINUOUS
 90
7
 70
0
 10
118.4582703271
 20
81.7374106014
 10
118.4357787836
 20
82.0638755225
 10
118.4145041889
 20
82.3910416965
 10
118.3944469293
 20
82.7189029549
 10
118.3756073686
 20
83.0474531155
 10
118.3579858479
 20
83.3766859834
 10
118.3415826857
 20
83.7065953503
  0
LWPOLYLINE
  5
3C5
100
AcDbEntity
  8
RACCORDO
100
AcDbPolyline
 62
253
  6
CONTINUOUS
 90
7
 70
0
 10
118.808113779
 20
81.753373511
 10
118.7856810741
 20
82.078971498
 10
118.764463556
 20
82.405244709
 10
118.7444612249
 20
82.7321931442
 10
118.7256740807
 20
83.0598168034
 10
118.7081021233
 20
83.3881156868
 10
118.6917453528
 20
83.7170897942
  0
LINE
  5
3C6
100
AcDbEntity
  8
SUPERFICI
100
AcDbLine
 62
7
  6
CONTINUOUS
 10
118.7539862576
 20
83.4612485901
 11
118.8676543384
 21
81.7859014897
  0
LINE
  5
3C7
100
AcDbEntity
  8
SUPERFICI
100
AcDbLine
 62
253
  6
CONTINUOUS
 10
118.8180028282
 20
82.579846382
 11
118.7605454644
 21
83.4267070611
  0
LINE
  5
3C8
100
AcDbEntity
  8
SUPERFICI
100
AcDbLine
 62
7
  6
CONTINUOUS
 10
118.9323633594
 20
81.6615995556
 11
118.8187038312
 21
83.3368205991
  0
LWPOLYLINE
  5
3C9
100
AcDbEntity
  8
0
100
AcDbPolyline
 62
253
  6
CONTINUOUS
 90
10
 70
0
 10
117.372450619
 20
82.3664398503
 10
117.3593449686
 20
82.5640281815
 10
117.3466707638
 20
82.7618805619
 10
117.3344280836
 20
82.9599956155
 10
117.322617065
 20
83.1583709449
 10
117.3112377156
 20
83.3570061881
 10
117.3002899359
 20
83.5559030321
 10
117.2897737589
 20
83.75506113
 10
117.2796893275
 20
83.9544780876
 10
117.2700367228
 20
84.1541525303
  0
LWPOLYLINE
  5
3CA
100
AcDbEntity
  8
0
100
AcDbPolyline
 62
7
  6
CONTINUOUS
 90
6
 70
0
 10
117.2992237578
 20
82.4550975972
 10
117.2996457786
 20
82.446769941
 10
117.2997038548
 20
82.4338788236
 10
117.2990758907
 20
82.4231777564
 10
117.297989751
 20
82.4147239626
 10
117.2967767479
 20
82.4089006193
  0
LWPOLYLINE
  5
3CB
100
AcDbEntity
  8
0
100
AcDbPolyline
 62
7
  6
CONTINUOUS
 90
10
 70
0
 10
117.1968006097
 20
84.2430224149
 10
117.2040972941
 20
84.0912374605
 10
117.2148188365
 20
83.8772900185
 10
117.2260372557
 20
83.6636364065
 10
117.2377524625
 20
83.4502785398
 10
117.2499643762
 20
83.2372180085
 10
117.2626729213
 20
83.024456283
 10
117.2758780132
 20
82.8119949611
 10
117.289579539
 20
82.5998359548
 10
117.2992135938
 20
82.4552447027
  0
LINE
  5
3CC
100
AcDbEntity
  8
RACCORDO
100
AcDbLine
 62
253
  6
CONTINUOUS
 10
116.9339188792
 20
84.2670631866
 11
116.983304305
 21
82.559705092
  0
LINE
  5
3CD
100
AcDbEntity
  8
RACCORDO
100
AcDbLine
 62
253
  6
CONTINUOUS
 10
117.145986301
 20
84.271564458
 11
117.1953717268
 21
82.5642063633
  0
LWPOLYLINE
  5
3CE
100
AcDbEntity
  8
SUPERFICI
100
AcDbPolyline
 62
253
  6
CONTINUOUS
 90
22
 70
0
 10
115.6462804805
 20
120.9191805231
 10
115.6464487764
 20
120.9098195726
 10
115.6469533436
 20
120.9006447416
 10
115.6477932215
 20
120.8916734994
 10
115.6489668072
 20
120.8829229507
 10
115.6504718681
 20
120.8744097327
 10
115.6523055545
 20
120.8661499898
 10
115.6544643985
 20
120.8581594022
 10
115.6569442859
 20
120.8504532486
 10
115.6597404657
 20
120.8430462996
 10
115.6628475882
 20
120.8359527002
 10
115.6662597503
 20
120.829185904
 10
115.6699704783
 20
120.822758747
 10
115.6739727391
 20
120.816683427
 10
115.6782588882
 20
120.8109715632
 10
115.6828206977
 20
120.8056341103
 10
115.6876494272
 20
120.8006812602
 10
115.692735913
 20
120.7961223798
 10
115.698070528
 20
120.7919660866
 10
115.7036437982
 20
120.7882198696
 10
115.7094444841
 20
120.7848913868
 10
115.7112459684
 20
120.7839659777
  0
LINE
  5
3CF
100
AcDbEntity
  8
SUPERFICI
100
AcDbLine
 62
253
  6
CONTINUOUS
 10
115.6462804805
 20
120.9191805231
 11
115.6462804805
 21
121.2591544572
  0
LINE
  5
3D0
100
AcDbEntity
  8
SUPERFICI
100
AcDbLine
 62
253
  6
CONTINUOUS
 10
115.9988024402
 20
120.9186677992
 11
115.9988024402
 21
121.2586417333
  0
LINE
  5
3D1
100
AcDbEntity
  8
SUPERFICI
100
AcDbLine
 62
253
  6
CONTINUOUS
 10
116.3575010886
 20
119.9517642729
 11
116.3575010886
 21
120.6405848959
  0
LINE
  5
3D2
100
AcDbEntity
  8
SUPERFICI
100
AcDbLine
 62
253
  6
CONTINUOUS
 10
116.7100230483
 20
119.9625321546
 11
116.7100230483
 21
120.7701642763
  0
LINE
  5
3D3
100
AcDbEntity
  8
SUPERFICI
100
AcDbLine
 62
7
  6
CONTINUOUS
 10
117.600083231
 20
120.4592130759
 11
117.600083231
 21
122.0613637368
  0
LWPOLYLINE
  5
3D4
100
AcDbEntity
  8
RACCORDO
100
AcDbPolyline
 62
253
  6
CONTINUOUS
 90
19
 70
0
 10
115.3782839606
 20
85.0448806459
 10
115.3783415099
 20
85.0522123804
 10
115.3789233679
 20
85.0591378945
 10
115.3800295345
 20
85.0656571884
 10
115.3816756843
 20
85.071820225
 10
115.3838461428
 20
85.0775770412
 10
115.386493886
 20
85.0827777485
 10
115.3896309572
 20
85.087404201
 10
115.3932453131
 20
85.0914745446
 10
115.3972538
 20
85.0948933282
 10
115.4016657619
 20
85.097644154
 10
115.4064718547
 20
85.0997434197
 10
115.4115608932
 20
85.1011448679
 10
115.4169435654
 20
85.1018298818
 10
115.4226091833
 20
85.1018170781
 10
115.4284144974
 20
85.1011160499
 10
115.4343117578
 20
85.0997299949
 10
115.4403487145
 20
85.0976557155
 10
115.4465253674
 20
85.0948932116
  0
LWPOLYLINE
  5
3D5
100
AcDbEntity
  8
RACCORDO
100
AcDbPolyline
 62
253
  6
CONTINUOUS
 90
19
 70
0
 10
116.983304305
 20
82.559705092
 10
116.9832467556
 20
82.5523733576
 10
116.9826648977
 20
82.5454478434
 10
116.9815587311
 20
82.5389285495
 10
116.9799125812
 20
82.532765513
 10
116.9777421228
 20
82.5270086967
 10
116.9750943796
 20
82.5218079894
 10
116.9719573084
 20
82.5171815369
 10
116.9683429525
 20
82.5131111933
 10
116.9643344655
 20
82.5096924097
 10
116.9599225037
 20
82.506941584
 10
116.9551164109
 20
82.5048423182
 10
116.9500273724
 20
82.50344087
 10
116.9446447002
 20
82.5027558562
 10
116.9389790823
 20
82.5027686599
 10
116.9331737682
 20
82.503469688
 10
116.9272765077
 20
82.504855743
 10
116.9212395511
 20
82.5069300224
 10
116.9150628982
 20
82.5096925263
  0
LWPOLYLINE
  5
3D6
100
AcDbEntity
  8
SUPERFICI
100
AcDbPolyline
 62
253
  6
CONTINUOUS
 90
34
 70
0
 10
115.6462804805
 20
121.2591544572
 10
115.6464792833
 20
121.2695189354
 10
115.6470752456
 20
121.2800589202
 10
115.6480670288
 20
121.2907507059
 10
115.6494524048
 20
121.3015702517
 10
115.6512282589
 20
121.3124932161
 10
115.653390594
 20
121.3234950101
 10
115.6559345446
 20
121.3345508822
 10
115.6588543894
 20
121.3456359712
 10
115.6621435594
 20
121.356725341
 10
115.6657946563
 20
121.3677940508
 10
115.6697994669
 20
121.3788172032
 10
115.6741489791
 20
121.3897699965
 10
115.6788334078
 20
121.4006277942
 10
115.6838422158
 20
121.4113661773
 10
115.6891641344
 20
121.4219609904
 10
115.6947871948
 20
121.4323884102
 10
115.7006987455
 20
121.442624979
 10
115.7068854772
 20
121.4526476559
 10
115.7133334538
 20
121.4624338739
 10
115.7200281871
 20
121.4719616536
 10
115.7269546633
 20
121.4812096287
 10
115.7340973738
 20
121.4901570791
 10
115.7414401912
 20
121.4987837899
 10
115.7489664379
 20
121.5070701803
 10
115.7566590722
 20
121.5149975288
 10
115.7645008848
 20
121.5225481416
 10
115.7724743837
 20
121.5297051909
 10
115.7805628612
 20
121.5364535639
 10
115.7887469325
 20
121.5427769738
 10
115.7970046033
 20
121.5486587498
 10
115.8053160239
 20
121.5540854998
 10
115.8136636563
 20
121.5590465138
 10
115.8220287365
 20
121.5635312721
  0
LINE
  5
3D7
100
AcDbEntity
  8
SUPERFICI
100
AcDbLine
 62
253
  6
CONTINUOUS
 10
118.2005482598
 20
122.0651436648
 11
118.2004938369
 21
122.0625355849
  0
LWPOLYLINE
  5
3D8
100
AcDbEntity
  8
SUPERFICI
100
AcDbPolyline
 62
253
  6
CONTINUOUS
 90
18
 70
0
 10
118.2005482213
 20
122.4126058245
 10
118.2004946982
 20
122.4100878209
 10
118.1999682708
 20
122.4041655168
 10
118.1988808585
 20
122.398262344
 10
118.1972349038
 20
122.3923915772
 10
118.1950341066
 20
122.3865664228
 10
118.1922834137
 20
122.3807999819
 10
118.1889890099
 20
122.3751052254
 10
118.1851583054
 20
122.3694949665
 10
118.1807999158
 20
122.3639818248
 10
118.1759236422
 20
122.3585781997
 10
118.1705404527
 20
122.353296247
 10
118.1646624516
 20
122.3481478443
 10
118.1583028614
 20
122.3431445744
 10
118.1514759986
 20
122.3382976996
 10
118.1441972245
 20
122.3336181235
 10
118.1364829083
 20
122.3291163678
 10
118.1283504028
 20
122.3248025569
  0
LWPOLYLINE
  5
3D9
100
AcDbEntity
  8
RACCORDO
100
AcDbPolyline
 62
253
  6
CONTINUOUS
 90
12
 70
0
 10
117.1953717268
 20
82.5642063633
 10
117.1949166925
 20
82.5457796629
 10
117.1931162805
 20
82.528164788
 10
117.1899858855
 20
82.5114965912
 10
117.1855524238
 20
82.4959033197
 10
117.1798498121
 20
82.4815037711
 10
117.1729187846
 20
82.4684062974
 10
117.1648136974
 20
82.4567112779
 10
117.1555977639
 20
82.4465080609
 10
117.1453381929
 20
82.4378725127
 10
117.1341139213
 20
82.4308707381
 10
117.1325503948
 20
82.4300643338
  0
LINE
  5
3DA
100
AcDbEntity
  8
SUPERFICI
100
AcDbLine
 62
7
  6
CONTINUOUS
 10
118.1992207994
 20
122.0394149326
 11
118.2005482582
 21
122.0651574769
  0
LWPOLYLINE
  5
3DB
100
AcDbEntity
  8
SUPERFICI
100
AcDbPolyline
 62
253
  6
CONTINUOUS
 90
17
 70
0
 10
118.2004938369
 20
122.0625355849
 10
118.1999654838
 20
122.0566136029
 10
118.1988762118
 20
122.0507108258
 10
118.1972284738
 20
122.0448405198
 10
118.1950259736
 20
122.0390158737
 10
118.1922736419
 20
122.0332499441
 10
118.188977683
 20
122.0275557416
 10
118.1851455916
 20
122.0219461842
 10
118.1807860795
 20
122.0164339547
 10
118.1759089338
 20
122.0110313664
 10
118.1705250386
 20
122.0057504555
 10
118.1646460035
 20
122.0006026851
 10
118.1582854667
 20
121.9956000657
 10
118.151459307
 20
121.9907549112
 10
118.1441837345
 20
121.9860783466
 10
118.136474901
 20
121.9815803967
 10
118.1283504028
 20
121.9772710401
  0
LWPOLYLINE
  5
3DC
100
AcDbEntity
  8
0
100
AcDbPolyline
 62
253
  6
CONTINUOUS
 90
4
 70
0
 10
114.315312242
 20
100.0610739189
 10
114.3025269517
 20
100.0178471329
 10
114.2934582569
 20
99.9721386319
 10
114.2898563384
 20
99.9402515413
  0
LWPOLYLINE
  5
3DD
100
AcDbEntity
  8
0
100
AcDbPolyline
 62
253
  6
CONTINUOUS
 90
9
 70
0
 10
114.7543100834
 20
100.1308391509
 10
114.7467338857
 20
100.1129660112
 10
114.7353798572
 20
100.091174831
 10
114.722422555
 20
100.0705119554
 10
114.7080788177
 20
100.0513230842
 10
114.6925886286
 20
100.0339291993
 10
114.6762111674
 20
100.0186212916
 10
114.6592204851
 20
100.0056554767
 10
114.6419008713
 20
99.9952486582
  0
LINE
  5
3DE
100
AcDbEntity
  8
RACCORDO
100
AcDbLine
 62
7
  6
CONTINUOUS
 10
124.6874242136
 20
118.9891947812
 11
125.9411408272
 21
120.0848287286
  0
LINE
  5
3DF
100
AcDbEntity
  8
RACCORDO
100
AcDbLine
 62
253
  6
CONTINUOUS
 10
124.8412594918
 20
118.9122771421
 11
126.189777547
 21
120.0907589011
  0
LINE
  5
3E0
100
AcDbEntity
  8
SUPERFICI
100
AcDbLine
 62
7
  6
CONTINUOUS
 10
122.0195006134
 20
118.2495043846
 11
121.8042724424
 21
118.1300571635
  0
LINE
  5
3E1
100
AcDbEntity
  8
DRAFT
100
AcDbLine
 62
7
  6
CONTINUOUS
 10
125.1307704506
 20
119.4078427468
 11
124.5147945463
 21
119.0755096149
  0
LINE
  5
3E2
100
AcDbEntity
  8
RACCORDO
100
AcDbLine
 62
253
  6
CONTINUOUS
 10
126.3123055054
 20
120.1473102681
 11
126.341579031
 21
120.1628841852
  0
LINE
  5
3E3
100
AcDbEntity
  8
RACCORDO
100
AcDbLine
 62
253
  6
CONTINUOUS
 10
126.341579031
 20
120.1628841852
 11
126.3487656915
 21
120.1666622073
  0
LINE
  5
3E4
100
AcDbEntity
  8
RACCORDO
100
AcDbLine
 62
253
  6
CONTINUOUS
 10
126.3058782969
 20
120.1439302121
 11
126.3123055054
 21
120.1473102681
  0
LINE
  5
3E5
100
AcDbEntity
  8
RACCORDO
100
AcDbLine
 62
253
  6
CONTINUOUS
 10
126.3487656915
 20
120.1666622073
 11
126.3561523159
 21
120.1704967959
  0
LINE
  5
3E6
100
AcDbEntity
  8
SUPERFICI
100
AcDbLine
 62
7
  6
CONTINUOUS
 10
123.4848378369
 20
118.8625765478
 11
123.2731508101
 21
118.7533477814
  0
LINE
  5
3E7
100
AcDbEntity
  8
SUPERFICI
100
AcDbLine
 62
253
  6
CONTINUOUS
 10
123.5751337371
 20
118.8573284689
 11
123.3640373795
 21
118.7484044829
  0
LINE
  5
3E8
100
AcDbEntity
  8
RACCORDO
100
AcDbLine
 62
253
  6
CONTINUOUS
 10
126.2995353446
 20
120.1406398721
 11
126.3058782969
 21
120.1439302121
  0
LINE
  5
3E9
100
AcDbEntity
  8
SUPERFICI
100
AcDbLine
 62
7
  6
CONTINUOUS
 10
124.9872993575
 20
117.9367734939
 11
124.1469917844
 21
117.5031816908
  0
LINE
  5
3EA
100
AcDbEntity
  8
RACCORDO
100
AcDbLine
 62
253
  6
CONTINUOUS
 10
126.3561523159
 20
120.1704967959
 11
126.3611960791
 21
120.1730814152
  0
LINE
  5
3EB
100
AcDbEntity
  8
RACCORDO
100
AcDbLine
 62
253
  6
CONTINUOUS
 10
126.2953444503
 20
120.1384977097
 11
126.2995353446
 21
120.1406398721
  0
LINE
  5
3EC
100
AcDbEntity
  8
RACCORDO
100
AcDbLine
 62
253
  6
CONTINUOUS
 10
126.3611960791
 20
120.1730814152
 11
126.3663412032
 21
120.1756861292
  0
LINE
  5
3ED
100
AcDbEntity
  8
SUPERFICI
100
AcDbLine
 62
7
  6
CONTINUOUS
 10
122.7161865189
 20
118.5994737035
 11
122.0195006134
 21
118.2495043846
  0
LINE
  5
3EE
100
AcDbEntity
  8
RACCORDO
100
AcDbLine
 62
253
  6
CONTINUOUS
 10
126.2911762041
 20
120.1363974975
 11
126.2953444503
 21
120.1384977097
  0
LINE
  5
3EF
100
AcDbEntity
  8
SUPERFICI
100
AcDbLine
 62
7
  6
CONTINUOUS
 10
126.2502015401
 20
121.1728506277
 11
127.3420845023
 21
121.7187921088
  0
LINE
  5
3F0
100
AcDbEntity
  8
SUPERFICI
100
AcDbLine
 62
7
  6
CONTINUOUS
 10
123.4865416248
 20
118.8634285457
 11
123.4848403221
 21
118.8625778302
  0
LINE
  5
3F1
100
AcDbEntity
  8
SUPERFICI
100
AcDbLine
 62
7
  6
CONTINUOUS
 10
123.1381904093
 20
118.4981552665
 11
123.164860131
 21
118.5114901273
  0
LINE
  5
3F2
100
AcDbEntity
  8
SUPERFICI
100
AcDbLine
 62
7
  6
CONTINUOUS
 10
124.4038468262
 20
119.1309834749
 11
125.2721918069
 21
119.5651559653
  0
LINE
  5
3F3
100
AcDbEntity
  8
0
100
AcDbLine
 62
7
  6
CONTINUOUS
 10
139.9677614457
 20
126.7631316016
 11
145.3893797316
 21
129.4739407446
  0
LWPOLYLINE
  5
3F4
100
AcDbEntity
  8
RACCORDO
100
AcDbPolyline
 62
7
  6
CONTINUOUS
 90
6
 70
0
 10
125.9791515004
 20
120.1095274156
 10
125.9705590064
 20
120.1052399305
 10
125.9624555038
 20
120.1005697613
 10
125.9546360097
 20
120.0954217161
 10
125.9471056045
 20
120.0897995865
 10
125.9411740935
 20
120.0848581042
  0
LINE
  5
3F5
100
AcDbEntity
  8
DRAFT
100
AcDbLine
 62
7
  6
CONTINUOUS
 10
146.1165958218
 20
129.9844222913
 11
139.8084066516
 21
126.8428089987
  0
LINE
  5
3F6
100
AcDbEntity
  8
RACCORDO
100
AcDbLine
 62
253
  6
CONTINUOUS
 10
126.3663412032
 20
120.1756861292
 11
126.3715931732
 21
120.1783085814
  0
LINE
  5
3F7
100
AcDbEntity
  8
RACCORDO
100
AcDbLine
 62
253
  6
CONTINUOUS
 10
126.2870262792
 20
120.1343395609
 11
126.2911762041
 21
120.1363974975
  0
LINE
  5
3F8
100
AcDbEntity
  8
SUPERFICI
100
AcDbLine
 62
7
  6
CONTINUOUS
 10
130.5312528153
 20
120.6468240982
 11
125.9190783165
 21
118.3733677298
  0
LINE
  5
3F9
100
AcDbEntity
  8
RACCORDO
100
AcDbLine
 62
253
  6
CONTINUOUS
 10
126.3715931732
 20
120.1783085814
 11
126.3769556626
 21
120.1809472072
  0
LINE
  5
3FA
100
AcDbEntity
  8
RACCORDO
100
AcDbLine
 62
253
  6
CONTINUOUS
 10
126.2828881479
 20
120.1323242702
 11
126.2870262792
 21
120.1343395609
  0
LINE
  5
3FB
100
AcDbEntity
  8
SUPERFICI
100
AcDbLine
 62
7
  6
CONTINUOUS
 10
124.1858188298
 20
119.2020779505
 11
123.4865433927
 21
118.8634294025
  0
LINE
  5
3FC
100
AcDbEntity
  8
SUPERFICI
100
AcDbLine
 62
253
  6
CONTINUOUS
 10
124.2741300721
 20
119.195841852
 11
123.5751337371
 21
118.8573284689
  0
LWPOLYLINE
  5
3FD
100
AcDbEntity
  8
SUPERFICI
100
AcDbPolyline
 62
7
  6
CONTINUOUS
 90
7
 70
0
 10
125.2721918069
 20
119.5651559653
 10
125.2973487382
 20
119.577300052
 10
125.3232754981
 20
119.588972424
 10
125.3499720867
 20
119.6001730814
 10
125.3774766591
 20
119.6109157404
 10
125.4057510602
 20
119.6211866847
 10
125.4136521421
 20
119.6238517391
  0
LINE
  5
3FE
100
AcDbEntity
  8
RACCORDO
100
AcDbLine
 62
253
  6
CONTINUOUS
 10
126.3769556626
 20
120.1809472072
 11
126.3824342852
 21
120.1835997061
  0
LINE
  5
3FF
100
AcDbEntity
  8
RACCORDO
100
AcDbLine
 62
253
  6
CONTINUOUS
 10
126.2787542167
 20
120.1303513217
 11
126.2828881479
 21
120.1323242702
  0
LINE
  5
400
100
AcDbEntity
  8
RACCORDO
100
AcDbLine
 62
253
  6
CONTINUOUS
 10
126.3824342852
 20
120.1835997061
 11
126.3880341186
 21
120.1862635072
  0
LINE
  5
401
100
AcDbEntity
  8
RACCORDO
100
AcDbLine
 62
253
  6
CONTINUOUS
 10
126.3880341186
 20
120.1862635072
 11
126.3937585031
 21
120.1889368775
  0
LINE
  5
402
100
AcDbEntity
  8
RACCORDO
100
AcDbLine
 62
253
  6
CONTINUOUS
 10
126.2746222228
 20
120.1284206568
 11
126.2787542167
 21
120.1303513217
  0
LINE
  5
403
100
AcDbEntity
  8
RACCORDO
100
AcDbLine
 62
7
  6
CONTINUOUS
 10
125.9791867035
 20
120.1095436737
 11
126.0948051484
 21
120.1630515894
  0
LINE
  5
404
100
AcDbEntity
  8
RACCORDO
100
AcDbLine
 62
253
  6
CONTINUOUS
 10
126.1913767745
 20
120.0899751501
 11
126.2746222228
 21
120.1284206568
  0
LINE
  5
405
100
AcDbEntity
  8
DRAFT
100
AcDbLine
 62
7
  6
CONTINUOUS
 10
125.2064939271
 20
119.4428143576
 11
125.1307704506
 21
119.4078427468
  0
LINE
  5
406
100
AcDbEntity
  8
RACCORDO
100
AcDbLine
 62
7
  6
CONTINUOUS
 10
126.1049029429
 20
120.1676871708
 11
126.0948051484
 21
120.1630515894
  0
LINE
  5
407
100
AcDbEntity
  8
RACCORDO
100
AcDbLine
 62
253
  6
CONTINUOUS
 10
126.3937585031
 20
120.1889368775
 11
126.3996123344
 21
120.1916171624
  0
LWPOLYLINE
  5
408
100
AcDbEntity
  8
RACCORDO
100
AcDbPolyline
 62
253
  6
CONTINUOUS
 90
18
 70
0
 10
127.0437581033
 20
120.219792066
 10
127.0493865135
 20
120.2223485605
 10
127.0550020814
 20
120.2246243527
 10
127.0605958997
 20
120.2266158328
 10
127.0661590957
 20
120.2283198419
 10
127.0716828452
 20
120.2297336772
 10
127.0771583866
 20
120.2308550963
 10
127.0825770349
 20
120.2316823202
 10
127.0879301951
 20
120.232214037
 10
127.0932093763
 20
120.2324494032
 10
127.0984062048
 20
120.2323880454
 10
127.1035124376
 20
120.2320300611
 10
127.1085199752
 20
120.2313760181
 10
127.1134208751
 20
120.2304269537
 10
127.1182073634
 20
120.2291843734
 10
127.1228718482
 20
120.2276502481
 10
127.1274069306
 20
120.2258270111
 10
127.1307326798
 20
120.2242647317
  0
LINE
  5
409
100
AcDbEntity
  8
RACCORDO
100
AcDbLine
 62
7
  6
CONTINUOUS
 10
126.115524951
 20
120.1725032642
 11
126.1049029429
 21
120.1676871708
  0
LWPOLYLINE
  5
40A
100
AcDbEntity
  8
RACCORDO
100
AcDbPolyline
 62
253
  6
CONTINUOUS
 90
22
 70
0
 10
126.0588123926
 20
120.1463174556
 10
126.0619407305
 20
120.1477273985
 10
126.0711891953
 20
120.1515012922
 10
126.0806488121
 20
120.1547837474
 10
126.0903094552
 20
120.1575712506
 10
126.1001607839
 20
120.159860818
 10
126.1101922532
 20
120.1616499989
 10
126.1203931252
 20
120.1629368782
 10
126.1307524809
 20
120.1637200783
 10
126.1412592315
 20
120.1639987608
 10
126.1519021305
 20
120.1637726276
 10
126.1626697856
 20
120.1630419207
 10
126.173550671
 20
120.1618074223
 10
126.1845331397
 20
120.1600704536
 10
126.195605436
 20
120.1578328742
 10
126.206755708
 20
120.155097079
 10
126.2179720203
 20
120.1518659964
 10
126.2292423669
 20
120.1481430851
 10
126.240554684
 20
120.1439323302
 10
126.2518968626
 20
120.1392382387
 10
126.2632567621
 20
120.1340658354
 10
126.2746222228
 20
120.1284206568
  0
LINE
  5
40B
100
AcDbEntity
  8
RACCORDO
100
AcDbLine
 62
253
  6
CONTINUOUS
 10
126.3996123344
 20
120.1916171624
 11
126.4056003159
 21
120.1943016206
  0
LINE
  5
40C
100
AcDbEntity
  8
RACCORDO
100
AcDbLine
 62
7
  6
CONTINUOUS
 10
126.1266569549
 20
120.17747414
 11
126.115524951
 21
120.1725032642
  0
LINE
  5
40D
100
AcDbEntity
  8
RACCORDO
100
AcDbLine
 62
7
  6
CONTINUOUS
 10
126.13830965
 20
120.1825853198
 11
126.1266569549
 21
120.17747414
  0
LINE
  5
40E
100
AcDbEntity
  8
RACCORDO
100
AcDbLine
 62
253
  6
CONTINUOUS
 10
126.4056003159
 20
120.1943016206
 11
126.4117254807
 21
120.1969883794
  0
LINE
  5
40F
100
AcDbEntity
  8
RACCORDO
100
AcDbLine
 62
7
  6
CONTINUOUS
 10
126.1505352114
 20
120.1878395732
 11
126.13830965
 21
120.1825853198
  0
LWPOLYLINE
  5
410
100
AcDbEntity
  8
RACCORDO
100
AcDbPolyline
 62
253
  6
CONTINUOUS
 90
3
 70
0
 10
126.4117254807
 20
120.1969883794
 10
126.4179922728
 20
120.1996745812
 10
126.42118008
 20
120.2010164466
  0
LWPOLYLINE
  5
411
100
AcDbEntity
  8
RACCORDO
100
AcDbPolyline
 62
253
  6
CONTINUOUS
 90
153
 70
0
 10
126.42118008
 20
120.2010164466
 10
126.427665867
 20
120.2036966989
 10
126.430965147
 20
120.2050340613
 10
126.4343024411
 20
120.2063692369
 10
126.4376777622
 20
120.2077022295
 10
126.441092458
 20
120.2090320285
 10
126.4445466016
 20
120.210358664
 10
126.4480401198
 20
120.2116821059
 10
126.4515741402
 20
120.2130012529
 10
126.4551487453
 20
120.2143161347
 10
126.4587638526
 20
120.2156267216
 10
126.4624203426
 20
120.2169318234
 10
126.4661182398
 20
120.2182314467
 10
126.4698575198
 20
120.2195255848
 10
126.4736389895
 20
120.2208130272
 10
126.4774626815
 20
120.2220937835
 10
126.4813285633
 20
120.2233678441
 10
126.485237344
 20
120.224633969
 10
126.4891890655
 20
120.2258921706
 10
126.4931836859
 20
120.2271424365
 10
126.4972217899
 20
120.2283834894
 10
126.5013034148
 20
120.2296153402
 10
126.5054285232
 20
120.230837978
 10
126.509597587
 20
120.2320500932
 10
126.5138106626
 20
120.2332517014
 10
126.5180676936
 20
120.2344427871
 10
126.5223689825
 20
120.2356219939
 10
126.5267146072
 20
120.2367893412
 10
126.5311044899
 20
120.2379448096
 10
126.5355386993
 20
120.2390869852
 10
126.5400173155
 20
120.2402158847
 10
126.5445402584
 20
120.2413314914
 10
126.549107357
 20
120.2424323411
 10
126.5537186827
 20
120.2435184459
 10
126.5583741642
 20
120.2445897938
 10
126.5630734157
 20
120.2456448846
 10
126.5678163902
 20
120.246683706
 10
126.5726031348
 20
120.2477062702
 10
126.5774334048
 20
120.2487111141
 10
126.5823100276
 20
120.2496987289
 10
126.5872301757
 20
120.2506686235
 10
126.5921851224
 20
120.2516178608
 10
126.5971784408
 20
120.252546822
 10
126.6022065576
 20
120.2534551261
 10
126.6072500263
 20
120.254338693
 10
126.6123060964
 20
120.2551967376
 10
126.6173775184
 20
120.2560300452
 10
126.622453097
 20
120.2568368913
 10
126.6275301092
 20
120.257616726
 10
126.6326112779
 20
120.2583700994
 10
126.6376935763
 20
120.2590969369
 10
126.64277646
 20
120.2597971457
 10
126.6478604734
 20
120.2604708188
 10
126.6529442228
 20
120.2611181604
 10
126.6580277503
 20
120.2617391759
 10
126.6631110138
 20
120.26233386
 10
126.668192493
 20
120.2629024002
 10
126.6732724065
 20
120.2634448133
 10
126.6783505357
 20
120.2639610826
 10
126.6834247039
 20
120.2644513453
 10
126.6884950378
 20
120.2649155963
 10
126.6935614108
 20
120.2653538408
 10
126.698621266
 20
120.2657662311
 10
126.7036747467
 20
120.266152754
 10
126.7087217095
 20
120.2665134228
 10
126.7137591684
 20
120.266848429
 10
126.7187871379
 20
120.267157745
 10
126.7238056033
 20
120.2674413985
 10
126.7288115345
 20
120.2676996644
 10
126.7338048352
 20
120.2679325117
 10
126.7387856016
 20
120.2681399714
 10
126.7437510922
 20
120.2683224106
 10
126.7487012934
 20
120.2684798059
 10
126.7536362189
 20
120.2686121806
 10
126.7585531677
 20
120.2687199724
 10
126.763452099
 20
120.2688031586
 10
126.7683330536
 20
120.2688617618
 10
126.7731934531
 20
120.2688962878
 10
126.7780332257
 20
120.2689067169
 10
126.7828524431
 20
120.2688930688
 10
126.7876487422
 20
120.2688559086
 10
126.7924220386
 20
120.2687952213
 10
126.7971724167
 20
120.2687110219
 10
126.8018977659
 20
120.268603921
 10
126.8065981559
 20
120.2684738998
 10
126.8112735171
 20
120.2683209771
 10
126.8159215294
 20
120.2681458197
 10
126.8205423584
 20
120.2679483949
 10
126.8251358385
 20
120.2677287355
 10
126.829699153
 20
120.2674876061
 10
126.8342321701
 20
120.2672249848
 10
126.8387350216
 20
120.2669408935
 10
126.8432052866
 20
120.2666361632
 10
126.8476427353
 20
120.2663107893
 10
126.8520475974
 20
120.2659647765
 10
126.856418141
 20
120.26559897
 10
126.8607542564
 20
120.265213366
 10
126.8650560532
 20
120.2648079683
 10
126.8693221287
 20
120.2643836335
 10
126.8735524027
 20
120.2639403597
 10
126.8777469554
 20
120.2634781487
 10
126.8819046252
 20
120.2629978628
 10
126.8860253358
 20
120.2624995031
 10
126.8901091635
 20
120.2619830683
 10
126.894155175
 20
120.2614494177
 10
126.898163284
 20
120.2608985572
 10
126.9021335769
 20
120.2603304808
 10
126.9060653795
 20
120.2597460294
 10
126.9099586332
 20
120.2591452081
 10
126.9138133968
 20
120.2585280118
 10
126.9176291718
 20
120.2578952654
 10
126.9214058816
 20
120.25724698
 10
126.9251436029
 20
120.2565831445
 10
126.9288420675
 20
120.2559045504
 10
126.9325011903
 20
120.2552112147
 10
126.9361210563
 20
120.2545031205
 10
126.9397016525
 20
120.2537810074
 10
126.9432429454
 20
120.2530448857
 10
126.9467449684
 20
120.2522947452
 10
126.9502078085
 20
120.2515312957
 10
126.9536313961
 20
120.2507545578
 10
126.9570158008
 20
120.2499645109
 10
126.9603613172
 20
120.2491618036
 10
126.9636678332
 20
120.2483464736
 10
126.966935461
 20
120.2475184831
 10
126.9701648324
 20
120.2466783677
 10
126.9733559152
 20
120.245826151
 10
126.9765087417
 20
120.2449618093
 10
126.9796240399
 20
120.2440858074
 10
126.9827017952
 20
120.2431981659
 10
126.9857420223
 20
120.2422988641
 10
126.9887454927
 20
120.241388304
 10
126.9917121798
 20
120.2404665123
 10
126.9946421101
 20
120.2395334623
 10
126.9975361357
 20
120.2385894756
 10
127.0003942505
 20
120.237634575
 10
127.0032164605
 20
120.2366687377
 10
127.0060036358
 20
120.2356922169
 10
127.0087557856
 20
120.2347050308
 10
127.0114729006
 20
120.2337071613
 10
127.0141558229
 20
120.2326988067
 10
127.0168045639
 20
120.2316799854
 10
127.0194191121
 20
120.2306506792
 10
127.0220002748
 20
120.2296110313
 10
127.0245480649
 20
120.2285610588
 10
127.0270624695
 20
120.2275007447
 10
127.0295442568
 20
120.226430182
 10
127.0319934407
 20
120.2253493909
 10
127.0344100073
 20
120.2242583513
 10
127.0367946841
 20
120.2231570957
 10
127.0391477136
 20
120.2220456351
 10
127.0414688534
 20
120.2209239585
 10
127.0437581033
 20
120.219792066
  0
LWPOLYLINE
  5
412
100
AcDbEntity
  8
0
100
AcDbPolyline
 62
253
  6
CONTINUOUS
 90
7
 70
0
 10
115.3429086962
 20
83.4369661142
 10
115.3107069735
 20
83.4366659987
 10
115.2790737992
 20
83.4386649056
 10
115.2485385177
 20
83.4429293856
 10
115.2196121011
 20
83.4493880776
 10
115.192778599
 20
83.4579329029
 10
115.1684870387
 20
83.4684208739
  0
LWPOLYLINE
  5
413
100
AcDbEntity
  8
RACCORDO
100
AcDbPolyline
 62
7
  6
CONTINUOUS
 90
8
 70
0
 10
118.7176620133
 20
83.8396440962
 10
118.7171615592
 20
83.8396529384
 10
118.7162764149
 20
83.8397001858
 10
118.7182408224
 20
83.8393293485
 10
118.7228113851
 20
83.8380787178
 10
118.7295609311
 20
83.835658283
 10
118.7381621072
 20
83.8318661833
 10
118.7403706401
 20
83.8307849308
  0
LINE
  5
414
100
AcDbEntity
  8
0
100
AcDbLine
 62
253
  6
CONTINUOUS
 10
119.0319462716
 20
90.6595912973
 11
114.4260885607
 21
92.9625201528
  0
LINE
  5
415
100
AcDbEntity
  8
0
100
AcDbLine
 62
253
  6
CONTINUOUS
 10
114.0659437125
 20
93.316689266
 11
114.0591649818
 21
93.3202533394
  0
LWPOLYLINE
  5
416
100
AcDbEntity
  8
0
100
AcDbPolyline
 62
253
  6
CONTINUOUS
 90
10
 70
0
 10
118.6448078669
 20
91.0272572181
 10
118.6381200061
 20
91.0307758263
 10
118.6126511999
 20
91.047653346
 10
118.5896995973
 20
91.0687488674
 10
118.5694904897
 20
91.0938636762
 10
118.5522313572
 20
91.1227494286
 10
118.5380998494
 20
91.1551130634
 10
118.5272367264
 20
91.1906305987
 10
118.5197477383
 20
91.2289541762
 10
118.5157069589
 20
91.2697049047
  0
LWPOLYLINE
  5
417
100
AcDbEntity
  8
0
100
AcDbPolyline
 62
253
  6
CONTINUOUS
 90
4
 70
0
 10
114.4955626038
 20
93.0845839509
 10
114.4479303688
 20
93.1104592761
 10
114.4005293899
 20
93.1405444215
 10
114.3616291413
 20
93.1688465516
  0
LWPOLYLINE
  5
418
100
AcDbEntity
  8
0
100
AcDbPolyline
 62
253
  6
CONTINUOUS
 90
8
 70
0
 10
114.4260885607
 20
92.9625201528
 10
114.3731196401
 20
92.9914281961
 10
114.3208697815
 20
93.0246707734
 10
114.2693391766
 20
93.0622479825
 10
114.2182049407
 20
93.1044418531
 10
114.1677907307
 20
93.1509707495
 10
114.1190666968
 20
93.2009893457
 10
114.0721047195
 20
93.2545350924
  0
LWPOLYLINE
  5
419
100
AcDbEntity
  8
0
100
AcDbPolyline
 62
253
  6
CONTINUOUS
 90
6
 70
0
 10
119.7337268787
 20
91.1693429239
 10
119.7226299682
 20
91.1759497444
 10
119.7139640231
 20
91.1834279607
 10
119.7079866151
 20
91.1915553032
 10
119.7048754063
 20
91.2000902089
 10
119.704423634
 20
91.2047023499
  0
LWPOLYLINE
  5
41A
100
AcDbEntity
  8
0
100
AcDbPolyline
 62
253
  6
CONTINUOUS
 90
9
 70
0
 10
114.0591649818
 20
93.3202533394
 10
114.033696311
 20
93.3371307571
 10
114.0107447651
 20
93.358226184
 10
113.9905356005
 20
93.3833410105
 10
113.9732763844
 20
93.4122268662
 10
113.959144832
 20
93.4445905964
 10
113.9482817045
 20
93.4801081639
 10
113.9407927238
 20
93.5184317341
 10
113.9367519524
 20
93.5591824079
  0
LWPOLYLINE
  5
41B
100
AcDbEntity
  8
RACCORDO
100
AcDbPolyline
 62
253
  6
CONTINUOUS
 90
10
 70
0
 10
122.4394172901
 20
81.8002610634
 10
122.4259531079
 20
81.8406332342
 10
122.4102755363
 20
81.8805183021
 10
122.3923361607
 20
81.9199087558
 10
122.3721799192
 20
81.9588101289
 10
122.350269016
 20
81.9963607099
 10
122.3265710448
 20
82.0325200682
 10
122.3011144678
 20
82.0673264031
 10
122.2744520784
 20
82.1000355472
 10
122.2465717516
 20
82.1306012393
  0
LWPOLYLINE
  5
41C
100
AcDbEntity
  8
RACCORDO
100
AcDbPolyline
 62
253
  6
CONTINUOUS
 90
14
 70
0
 10
118.8081179312
 20
81.7533422052
 10
118.8111666344
 20
81.7352360863
 10
118.8155525616
 20
81.7166026105
 10
118.8212563873
 20
81.6975936118
 10
118.8282675645
 20
81.6783706036
 10
118.836528615
 20
81.6590822183
 10
118.8459342394
 20
81.639863015
 10
118.8564250133
 20
81.6208669335
 10
118.867935319
 20
81.6022469053
 10
118.8803359618
 20
81.5841318472
 10
118.8935375996
 20
81.5666694626
 10
118.9074574638
 20
81.5499916171
 10
118.9219672755
 20
81.5341957683
 10
118.9369641688
 20
81.5194062829
  0
LWPOLYLINE
  5
41D
100
AcDbEntity
  8
RACCORDO
100
AcDbPolyline
 62
253
  6
CONTINUOUS
 90
9
 70
0
 10
122.5070578814
 20
79.7650521821
 10
122.5073540477
 20
79.7618334594
 10
122.5102931574
 20
79.7478225341
 10
122.5158700342
 20
79.7341808702
 10
122.5240249303
 20
79.721054628
 10
122.534670467
 20
79.7085844343
 10
122.5476925754
 20
79.6969039021
 10
122.5629517248
 20
79.6861382002
 10
122.5802844123
 20
79.6764026862
  0
LINE
  5
41E
100
AcDbEntity
  8
0
100
AcDbLine
 62
253
  6
CONTINUOUS
 10
119.7265425624
 20
96.9449254873
 11
119.7320589707
 21
96.8778253468
  0
LINE
  5
41F
100
AcDbEntity
  8
SUPERFICI
100
AcDbLine
 62
7
  6
CONTINUOUS
 10
122.0148264822
 20
81.7387592736
 11
122.1284860104
 21
80.0635382301
  0
LWPOLYLINE
  5
420
100
AcDbEntity
  8
0
100
AcDbPolyline
 62
253
  6
CONTINUOUS
 90
7
 70
0
 10
119.0319462716
 20
98.0338537674
 10
119.0329045891
 20
98.0193670501
 10
119.0359585742
 20
98.0063561388
 10
119.0410162762
 20
97.9952117956
 10
119.0479255307
 20
97.986268678
 10
119.0564786268
 20
97.9797951809
 10
119.0579332182
 20
97.9790275835
  0
LWPOLYLINE
  5
421
100
AcDbEntity
  8
0
100
AcDbPolyline
 62
253
  6
CONTINUOUS
 90
3
 70
0
 10
119.3655998664
 20
91.1113384488
 10
119.3644756543
 20
91.1320182567
 10
119.3611284478
 20
91.1511899976
  0
LWPOLYLINE
  5
422
100
AcDbEntity
  8
0
100
AcDbPolyline
 62
253
  6
CONTINUOUS
 90
19
 70
0
 10
119.5870938565
 20
97.0897054136
 10
119.585953782
 20
97.1282351796
 10
119.5821030706
 20
97.1678028292
 10
119.5755760373
 20
97.2081095735
 10
119.5664288404
 20
97.2488559359
 10
119.5547323876
 20
97.2897283631
 10
119.5405739797
 20
97.3304015614
 10
119.5240665084
 20
97.370560173
 10
119.5053390482
 20
97.4099076554
 10
119.4845293281
 20
97.4481522641
 10
119.4617945253
 20
97.4850023953
 10
119.4373092226
 20
97.520179778
 10
119.4112555714
 20
97.5534263144
 10
119.3838261488
 20
97.5844877002
 10
119.3552293571
 20
97.6131252498
 10
119.3256844008
 20
97.6391261094
 10
119.2954134441
 20
97.6622907371
 10
119.2646403477
 20
97.6824355159
 10
119.2335943138
 20
97.6994019369
  0
LINE
  5
423
100
AcDbEntity
  8
0
100
AcDbLine
 62
253
  6
CONTINUOUS
 10
119.7320589707
 20
96.8778253468
 11
119.7337243683
 21
96.811697877
  0
LINE
  5
424
100
AcDbEntity
  8
0
100
AcDbLine
 62
253
  6
CONTINUOUS
 10
119.7308115792
 20
91.794758607
 11
119.7337243683
 21
91.169341648
  0
LINE
  5
425
100
AcDbEntity
  8
SUPERFICI
100
AcDbLine
 62
253
  6
CONTINUOUS
 10
118.1283504028
 20
122.3248025569
 11
118.1283504028
 21
121.9772710401
  0
LINE
  5
426
100
AcDbEntity
  8
SUPERFICI
100
AcDbLine
 62
7
  6
CONTINUOUS
 10
118.2005482598
 20
122.412675189
 11
118.2005482598
 21
122.0651436723
  0
LINE
  5
427
100
AcDbEntity
  8
SUPERFICI
100
AcDbLine
 62
7
  6
CONTINUOUS
 10
118.5254927869
 20
120.3139311896
 11
118.5254927869
 21
118.8677684238
  0
LINE
  5
428
100
AcDbEntity
  8
SUPERFICI
100
AcDbLine
 62
7
  6
CONTINUOUS
 10
119.1849026613
 20
118.5380634866
 11
119.1849026613
 21
119.9842262524
  0
LINE
  5
429
100
AcDbEntity
  8
0
100
AcDbLine
 62
253
  6
CONTINUOUS
 10
119.5870938565
 20
91.4660524189
 11
119.5870938565
 21
97.0897054136
  0
LINE
  5
42A
100
AcDbEntity
  8
SUPERFICI
100
AcDbLine
 62
7
  6
CONTINUOUS
 10
119.8981802699
 20
120.1675322834
 11
119.8981802699
 21
118.9339179317
  0
LINE
  5
42B
100
AcDbEntity
  8
SUPERFICI
100
AcDbLine
 62
253
  6
CONTINUOUS
 10
118.2005482598
 20
122.4126752067
 11
118.2005482213
 21
122.4126058245
  0
LWPOLYLINE
  5
42C
100
AcDbEntity
  8
0
100
AcDbPolyline
 62
7
  6
CONTINUOUS
 90
10
 70
0
 10
119.7044349043
 20
96.8470095043
 10
119.701748281
 20
96.2736341048
 10
119.6994554485
 20
95.6306610232
 10
119.6979257455
 20
94.9880793225
 10
119.6971591774
 20
94.3458905969
 10
119.6971557453
 20
93.7040961752
 10
119.6979154498
 20
93.0626972887
 10
119.6994382904
 20
92.4216952708
 10
119.7017242628
 20
91.7810917165
 10
119.704434919
 20
91.2047363708
  0
LWPOLYLINE
  5
42D
100
AcDbEntity
  8
0
100
AcDbPolyline
 62
253
  6
CONTINUOUS
 90
9
 70
0
 10
119.7337243683
 20
96.811697877
 10
119.7308115793
 20
96.1832646778
 10
119.7286269898
 20
95.5552052811
 10
119.7271705997
 20
94.927521001
 10
119.7264424075
 20
94.3002140652
 10
119.7264424075
 20
93.6732848709
 10
119.7271705996
 20
93.04673199
 10
119.7286269897
 20
92.4205558257
 10
119.7308115792
 20
91.794758607
  0
LINE
  5
42E
100
AcDbEntity
  8
0
100
AcDbLine
 62
7
  6
CONTINUOUS
 10
119.704423634
 20
91.2047023499
 11
119.7033417788
 21
91.1547736943
  0
LWPOLYLINE
  5
42F
100
AcDbEntity
  8
SUPERFICI
100
AcDbPolyline
 62
7
  6
CONTINUOUS
 90
10
 70
0
 10
118.8187038312
 20
83.3368205991
 10
118.818742397
 20
83.3384326002
 10
118.8189707827
 20
83.3398036257
 10
118.8193889885
 20
83.3409336754
 10
118.8200237431
 20
83.3418355717
 10
118.8208483177
 20
83.3424964922
 10
118.8217825257
 20
83.3428779702
 10
118.8227996384
 20
83.3429671834
 10
118.8239263846
 20
83.3427769541
 10
118.8251627643
 20
83.3423072822
  0
LINE
  5
430
100
AcDbEntity
  8
0
100
AcDbLine
 62
253
  6
CONTINUOUS
 10
119.7337243683
 20
91.169341648
 11
119.7320742812
 21
91.1056529928
  0
LWPOLYLINE
  5
431
100
AcDbEntity
  8
0
100
AcDbPolyline
 62
253
  6
CONTINUOUS
 90
22
 70
0
 10
118.5157069589
 20
96.9344035517
 10
118.5017824824
 20
96.6591556324
 10
118.489241561
 20
96.3844191294
 10
118.4780855509
 20
96.1102050373
 10
118.4683159721
 20
95.8365315586
 10
118.4599337896
 20
95.5634024193
 10
118.4529397736
 20
95.2908070317
 10
118.4473353881
 20
95.0187563034
 10
118.4431220635
 20
94.7472615351
 10
118.4403010809
 20
94.4763130178
 10
118.4388740667
 20
94.2059220616
 10
118.4388426032
 20
93.9360998394
 10
118.4402084604
 20
93.6668367425
 10
118.4429734252
 20
93.3981442087
 10
118.4471392414
 20
93.1300335985
 10
118.4527081749
 20
92.8624955155
 10
118.4596821652
 20
92.5955418625
 10
118.4680631237
 20
92.3291838864
 10
118.4778538508
 20
92.063411565
 10
118.4890568314
 20
91.7982294925
 10
118.5016738603
 20
91.5336566751
 10
118.5157069589
 20
91.2697049047
  0
LWPOLYLINE
  5
432
100
AcDbEntity
  8
0
100
AcDbPolyline
 62
253
  6
CONTINUOUS
 90
22
 70
0
 10
119.2158323834
 20
96.902643228
 10
119.2020427977
 20
96.6301349509
 10
119.1896257089
 20
96.3581533027
 10
119.1785811173
 20
96.0866982835
 10
119.1689078463
 20
95.8157656688
 10
119.1606070723
 20
95.545359683
 10
119.1536823245
 20
95.2754929995
 10
119.1481333486
 20
95.0061656692
 10
119.1439603989
 20
94.7373776411
 10
119.1411677662
 20
94.4691414355
 10
119.1397551844
 20
94.2014569128
 10
119.1397229197
 20
93.9343242126
 10
119.141076062
 20
93.6677562731
 10
119.1438143417
 20
93.4017529249
 10
119.1479380282
 20
93.1363143375
 10
119.15345302
 20
92.871453957
 10
119.1603590532
 20
92.6071714266
 10
119.1686563916
 20
92.3434671031
 10
119.1783517248
 20
92.0803555037
 10
119.1894472828
 20
91.8178414675
 10
119.2019408357
 20
91.5559201554
 10
119.2158323834
 20
91.2945915675
  0
LWPOLYLINE
  5
433
100
AcDbEntity
  8
0
100
AcDbPolyline
 62
253
  6
CONTINUOUS
 90
13
 70
0
 10
119.3702512757
 20
91.0859980844
 10
119.3691272549
 20
91.0641959603
 10
119.3657740003
 20
91.0416346235
 10
119.3602476209
 20
91.0186915859
 10
119.352640588
 20
90.9957507462
 10
119.3430801875
 20
90.9731959664
 10
119.3317263908
 20
90.9514046486
 10
119.3187691774
 20
90.93074142
 10
119.3044253563
 20
90.9115520322
 10
119.2889349382
 20
90.8941575752
 10
119.2725571195
 20
90.878849105
 10
119.2555659451
 20
90.8658827736
 10
119.2382457231
 20
90.8554755424
  0
LWPOLYLINE
  5
434
100
AcDbEntity
  8
0
100
AcDbPolyline
 62
253
  6
CONTINUOUS
 90
10
 70
0
 10
119.2158323834
 20
91.2945915675
 10
119.2132745055
 20
91.2500131209
 10
119.2069407045
 20
91.2078924426
 10
119.1969003484
 20
91.1686908365
 10
119.1832633989
 20
91.1328376375
 10
119.1661792077
 20
91.1007255077
 10
119.1458348797
 20
91.0727061373
 10
119.1224532251
 20
91.0490863935
 10
119.096290319
 20
91.0301249589
 10
119.0781425538
 20
91.0204977339
  0
LWPOLYLINE
  5
435
100
AcDbEntity
  8
0
100
AcDbPolyline
 62
253
  6
CONTINUOUS
 90
10
 70
0
 10
119.0319462716
 20
90.6595912973
 10
119.0329043614
 20
90.6750345419
 10
119.0359577809
 20
90.6910980711
 10
119.0410148035
 20
90.7072993275
 10
119.0479235135
 20
90.7231516164
 10
119.0564763693
 20
90.7381787261
 10
119.0664164385
 20
90.751929234
 10
119.0774451158
 20
90.7639900672
 10
119.0892310936
 20
90.7739989114
 10
119.1014203146
 20
90.7816550955
  0
LWPOLYLINE
  5
436
100
AcDbEntity
  8
SUPERFICI
100
AcDbPolyline
 62
7
  6
CONTINUOUS
 90
5
 70
0
 10
118.7554300261
 20
83.5248276217
 10
118.7541040707
 20
83.5104717479
 10
118.7532575844
 20
83.4920756857
 10
118.7533492051
 20
83.4742288889
 10
118.7539878786
 20
83.4612247201
  0
LWPOLYLINE
  5
437
100
AcDbEntity
  8
0
100
AcDbPolyline
 62
253
  6
CONTINUOUS
 90
4
 70
0
 10
115.4154806044
 20
85.3340504918
 10
115.4126571373
 20
85.3191892858
 10
115.4112085958
 20
85.3032534015
 10
115.4111805686
 20
85.286377002
  0
LWPOLYLINE
  5
438
100
AcDbEntity
  8
0
100
AcDbPolyline
 62
253
  6
CONTINUOUS
 90
4
 70
0
 10
114.0870687708
 20
100.235932118
 10
114.1124385143
 20
100.2726441193
 10
114.1407299954
 20
100.3054221137
 10
114.1717851829
 20
100.334082988
  0
LWPOLYLINE
  5
439
100
AcDbEntity
  8
SUPERFICI
100
AcDbPolyline
 62
7
  6
CONTINUOUS
 90
12
 70
0
 10
126.3340629926
 20
116.2574192862
 10
126.3114025475
 20
116.2442496592
 10
126.2900201511
 20
116.2285966347
 10
126.270259772
 20
116.2106115005
 10
126.252479526
 20
116.1905542338
 10
126.2369095008
 20
116.1686465712
 10
126.2236911438
 20
116.1450103691
 10
126.2130279855
 20
116.119864451
 10
126.2051558717
 20
116.0936401362
 10
126.2002010061
 20
116.0667296205
 10
126.1982146065
 20
116.039311253
 10
126.1981771381
 20
116.0349121112
  0
LINE
  5
43A
100
AcDbEntity
  8
SUPERFICI
100
AcDbLine
 62
7
  6
CONTINUOUS
 10
125.8732325709
 20
116.3226384059
 11
124.8064016587
 21
115.7273139879
  0
LINE
  5
43B
100
AcDbEntity
  8
SUPERFICI
100
AcDbLine
 62
7
  6
CONTINUOUS
 10
126.3340629926
 20
116.2574192862
 11
127.9172346875
 21
117.0696163335
  0
LINE
  5
43C
100
AcDbEntity
  8
SUPERFICI
100
AcDbLine
 62
253
  6
CONTINUOUS
 10
126.4471486587
 20
116.250971311
 11
128.0299052619
 21
117.0629554084
  0
LINE
  5
43D
100
AcDbEntity
  8
SUPERFICI
100
AcDbLine
 62
7
  6
CONTINUOUS
 10
125.8732325709
 20
117.708279052
 11
124.8064016587
 21
117.1734767536
  0
LINE
  5
43E
100
AcDbEntity
  8
SUPERFICI
100
AcDbLine
 62
7
  6
CONTINUOUS
 10
127.9172366573
 20
117.069617344
 11
127.9189730747
 21
117.070485567
  0
LINE
  5
43F
100
AcDbEntity
  8
SUPERFICI
100
AcDbLine
 62
7
  6
CONTINUOUS
 10
131.14772464
 20
120.3385881859
 11
125.8732325709
 21
117.708279052
  0
LINE
  5
440
100
AcDbEntity
  8
SUPERFICI
100
AcDbLine
 62
7
  6
CONTINUOUS
 10
125.8732325709
 20
116.3226384059
 11
131.180543237
 21
118.969313676
  0
LINE
  5
441
100
AcDbEntity
  8
SUPERFICI
100
AcDbLine
 62
7
  6
CONTINUOUS
 10
131.3113780882
 20
120.0169984232
 11
132.6341405498
 21
120.6690211823
  0
LWPOLYLINE
  5
442
100
AcDbEntity
  8
SUPERFICI
100
AcDbPolyline
 62
253
  6
CONTINUOUS
 90
16
 70
0
 10
126.3340629926
 20
116.2574192862
 10
126.3374607168
 20
116.2590769106
 10
126.3442059378
 20
116.2618894583
 10
126.3511866768
 20
116.2641880118
 10
126.3583871207
 20
116.2659673642
 10
126.3657909591
 20
116.2672234849
 10
126.3733814206
 20
116.2679535285
 10
126.381141311
 20
116.2681558413
 10
126.3890530525
 20
116.2678299651
 10
126.3970987232
 20
116.2669766379
 10
126.4052600979
 20
116.2655977929
 10
126.4135186892
 20
116.2636965533
 10
126.4218557895
 20
116.2612772259
 10
126.4302525136
 20
116.2583452911
 10
126.4386898408
 20
116.2549073902
 10
126.4471486587
 20
116.250971311
  0
LINE
  5
443
100
AcDbEntity
  8
SUPERFICI
100
AcDbLine
 62
7
  6
CONTINUOUS
 10
127.9189758386
 20
117.0704869134
 11
128.4538430295
 21
117.331037666
  0
LINE
  5
444
100
AcDbEntity
  8
SUPERFICI
100
AcDbLine
 62
253
  6
CONTINUOUS
 10
128.0299052619
 20
117.0629554084
 11
128.5643551406
 21
117.3233028749
  0
LINE
  5
445
100
AcDbEntity
  8
0
100
AcDbLine
 62
7
  6
CONTINUOUS
 10
142.4902419288
 20
125.5710903852
 11
149.9148631312
 21
129.1246774251
  0
LINE
  5
446
100
AcDbEntity
  8
SUPERFICI
100
AcDbLine
 62
253
  6
CONTINUOUS
 10
128.4538430295
 20
117.331037666
 11
128.4554985659
 21
117.3318241581
  0
LWPOLYLINE
  5
447
100
AcDbEntity
  8
SUPERFICI
100
AcDbPolyline
 62
7
  6
CONTINUOUS
 90
16
 70
0
 10
127.9189730747
 20
117.070485567
 10
127.9206307009
 20
117.0712730745
 10
127.9273661898
 20
117.0740806124
 10
127.934333929
 20
117.076372474
 10
127.9415181861
 20
117.0781434938
 10
127.9489027017
 20
117.0793896689
 10
127.9564706561
 20
117.0801081341
 10
127.9642049776
 20
117.0802972992
 10
127.9720881835
 20
117.0799567559
 10
127.980102283
 20
117.0790872143
 10
127.9882292134
 20
117.0776906913
 10
127.9964506244
 20
117.0757703814
 10
128.0047477211
 20
117.0733305547
 10
128.0131017145
 20
117.0703767438
 10
128.0214938636
 20
117.0669157308
 10
128.0299052619
 20
117.0629554084
  0
LINE
  5
448
100
AcDbEntity
  8
SUPERFICI
100
AcDbLine
 62
7
  6
CONTINUOUS
 10
128.4538430295
 20
117.331037666
 11
128.4820647218
 21
117.34270944
  0
LWPOLYLINE
  5
449
100
AcDbEntity
  8
SUPERFICI
100
AcDbPolyline
 62
253
  6
CONTINUOUS
 90
14
 70
0
 10
128.4622240848
 20
117.3346268548
 10
128.4691786237
 20
117.3369123082
 10
128.4763464291
 20
117.3386753413
 10
128.4837112644
 20
117.3399119605
 10
128.4912564464
 20
117.3406193644
 10
128.4989648837
 20
117.3407959506
 10
128.5068191149
 20
117.3404413193
 10
128.5148013485
 20
117.3395562736
 10
128.5228935029
 20
117.3381428184
 10
128.5310772475
 20
117.3362041554
 10
128.5393340444
 20
117.3337446763
 10
128.54764519
 20
117.3307699523
 10
128.5559918578
 20
117.3272867217
 10
128.5643551406
 20
117.3233028749
  0
LWPOLYLINE
  5
44A
100
AcDbEntity
  8
0
100
AcDbPolyline
 62
253
  6
CONTINUOUS
 90
3
 70
0
 10
115.3822892098
 20
83.4406520772
 10
115.3751401095
 20
83.4395602303
 10
115.3429086962
 20
83.4369661142
  0
LWPOLYLINE
  5
44B
100
AcDbEntity
  8
0
100
AcDbPolyline
 62
7
  6
CONTINUOUS
 90
8
 70
0
 10
115.4380590106
 20
85.3910658947
 10
115.4375557986
 20
85.3910748395
 10
115.4366611229
 20
85.3911228576
 10
115.4386237264
 20
85.3907520959
 10
115.4431993967
 20
85.3894997198
 10
115.4499579708
 20
85.3870758156
 10
115.4585705535
 20
85.3832789112
 10
115.4607911042
 20
85.3821918454
  0
LWPOLYLINE
  5
44C
100
AcDbEntity
  8
0
100
AcDbPolyline
 62
253
  6
CONTINUOUS
 90
5
 70
0
 10
113.7136830211
 20
94.1793623216
 10
113.7268772807
 20
94.1738258088
 10
113.7417805798
 20
94.1695211294
 10
113.7579500711
 20
94.1665761958
 10
113.7695190741
 20
94.165554288
  0
LWPOLYLINE
  5
44D
100
AcDbEntity
  8
0
100
AcDbPolyline
 62
253
  6
CONTINUOUS
 90
10
 70
0
 10
119.3655998664
 20
91.1113384488
 10
119.4084478603
 20
91.0922744122
 10
119.450403299
 20
91.0780389251
 10
119.4914661824
 20
91.0686319873
 10
119.5319582454
 20
91.064047714
 10
119.5715577532
 20
91.0642919902
 10
119.6092995007
 20
91.0693824707
 10
119.6451141913
 20
91.0794373869
 10
119.6790711218
 20
91.0943385075
 10
119.6991098265
 20
91.1067486535
  0
LWPOLYLINE
  5
44E
100
AcDbEntity
  8
0
100
AcDbPolyline
 62
253
  6
CONTINUOUS
 90
11
 70
0
 10
119.3702512757
 20
91.0859980844
 10
119.4078982094
 20
91.068924322
 10
119.4449856593
 20
91.0554768595
 10
119.4815136255
 20
91.0456556969
 10
119.5176987062
 20
91.0394359511
 10
119.5533243032
 20
91.0368425051
 10
119.5877406215
 20
91.0379500082
 10
119.620908917
 20
91.0428281301
 10
119.6528679338
 20
91.051407201
 10
119.6830841095
 20
91.0635528608
 10
119.6940905593
 20
91.0696563931
  0
LWPOLYLINE
  5
44F
100
AcDbEntity
  8
0
100
AcDbPolyline
 62
7
  6
CONTINUOUS
 90
11
 70
0
 10
118.6448078669
 20
91.0272572181
 10
118.6621250331
 20
91.0190057748
 10
118.7061122106
 20
91.0015320713
 10
118.7515061857
 20
90.9883075109
 10
118.7980242762
 20
90.9794187181
 10
118.8451308215
 20
90.9749730975
 10
118.8924915441
 20
90.9750022973
 10
118.9399633309
 20
90.9795594147
 10
118.9871304606
 20
90.9887029208
 10
119.0333628648
 20
91.0023872865
 10
119.0781425533
 20
91.0204977337
  0
LINE
  5
450
100
AcDbEntity
  8
0
100
AcDbLine
 62
253
  6
CONTINUOUS
 10
119.1014203146
 20
90.7816550955
 11
114.4955626038
 21
93.0845839509
  0
LINE
  5
451
100
AcDbEntity
  8
0
100
AcDbLine
 62
7
  6
CONTINUOUS
 10
118.6448964005
 20
91.0272129221
 11
114.065941394
 21
93.3166904253
  0
LINE
  5
452
100
AcDbEntity
  8
0
100
AcDbLine
 62
253
  6
CONTINUOUS
 10
119.2382457231
 20
90.8554755424
 11
118.9760766159
 21
90.986560096
  0
LINE
  5
453
100
AcDbEntity
  8
0
100
AcDbLine
 62
253
  6
CONTINUOUS
 10
118.5157069589
 20
91.2697049047
 11
113.9367519524
 21
93.5591824079
  0
LINE
  5
454
100
AcDbEntity
  8
0
100
AcDbLine
 62
253
  6
CONTINUOUS
 10
119.3702512757
 20
91.0859980844
 11
119.298092047
 21
91.1220776988
  0
LINE
  5
455
100
AcDbEntity
  8
0
100
AcDbLine
 62
253
  6
CONTINUOUS
 10
119.3220199601
 20
91.133128402
 11
119.3655998664
 21
91.1113384488
  0
LWPOLYLINE
  5
456
100
AcDbEntity
  8
SUPERFICI
100
AcDbPolyline
 62
253
  6
CONTINUOUS
 90
14
 70
0
 10
130.4333291439
 20
74.7413649636
 10
130.4290829584
 20
74.7513214803
 10
130.4244420665
 20
74.7609674101
 10
130.4194169356
 20
74.7702809926
 10
130.4140189126
 20
74.7792411936
 10
130.4082601986
 20
74.787827763
 10
130.4021538053
 20
74.7960213087
 10
130.3957135073
 20
74.8038033566
 10
130.3889538258
 20
74.8111563632
 10
130.3818898346
 20
74.818063902
 10
130.3745376454
 20
74.8245101898
 10
130.3669144241
 20
74.8304802547
 10
130.3590376291
 20
74.8359606016
 10
130.3509249035
 20
74.8409391267
  0
LWPOLYLINE
  5
457
100
AcDbEntity
  8
RACCORDO
100
AcDbPolyline
 62
253
  6
CONTINUOUS
 90
5
 70
0
 10
122.4675896896
 20
81.6435918503
 10
122.4643755234
 20
81.6820936987
 10
122.4586275259
 20
81.7209907364
 10
122.4503445924
 20
81.7602823269
 10
122.4394172901
 20
81.8002610634
  0
LINE
  5
458
100
AcDbEntity
  8
ASSI
100
AcDbLine
 62
253
  6
CONTINUOUS
 10
122.4039167522
 20
80.0419547124
 11
122.2902572241
 21
81.7171757559
  0
LWPOLYLINE
  5
459
100
AcDbEntity
  8
RACCORDO
100
AcDbPolyline
 62
7
  6
CONTINUOUS
 90
6
 70
0
 10
122.5070583341
 20
79.7650522164
 10
122.5074885945
 20
79.7567296471
 10
122.5075595164
 20
79.7438525967
 10
122.5069432192
 20
79.7331711384
 10
122.5058685737
 20
79.7247429213
 10
122.5046680918
 20
79.7189530287
  0
LWPOLYLINE
  5
45A
100
AcDbEntity
  8
RACCORDO
100
AcDbPolyline
 62
253
  6
CONTINUOUS
 90
7
 70
0
 10
122.4675896896
 20
81.6435918503
 10
122.4834317872
 20
81.3139609184
 10
122.500450506
 20
80.9850282066
 10
122.518645518
 20
80.6567999176
 10
122.5380164726
 20
80.3292822411
 10
122.5585629968
 20
80.0024813534
 10
122.5802846947
 20
79.6764034177
  0
LWPOLYLINE
  5
45B
100
AcDbEntity
  8
RACCORDO
100
AcDbPolyline
 62
7
  6
CONTINUOUS
 90
10
 70
0
 10
122.3943545606
 20
81.7324598447
 10
122.4021945428
 20
81.5661707496
 10
122.4137525562
 20
81.332095528
 10
122.4259048983
 20
81.0983720035
 10
122.4386514667
 20
80.8650022699
 10
122.4519921274
 20
80.6319884693
 10
122.4659267312
 20
80.3993329683
 10
122.4804551399
 20
80.167037905
 10
122.4955772296
 20
79.9351051906
 10
122.5070475755
 20
79.7652005123
  0
LWPOLYLINE
  5
45C
100
AcDbEntity
  8
ASSI
100
AcDbPolyline
 62
253
  6
CONTINUOUS
 90
19
 70
0
 10
122.4039167494
 20
80.0419547128
 10
122.4044794708
 20
80.0240907733
 10
122.4036886
 20
80.0068891843
 10
122.4015287037
 20
79.9905758566
 10
122.3980356608
 20
79.9754175704
 10
122.3932637318
 20
79.9615256822
 10
122.3872151941
 20
79.9488942585
 10
122.3799656994
 20
79.937668433
 10
122.3716107175
 20
79.9279622177
 10
122.3621435531
 20
79.919749339
 10
122.3516743014
 20
79.9131356624
 10
122.3403231922
 20
79.9081711742
 10
122.3280392714
 20
79.904846629
 10
122.3149370233
 20
79.903220939
 10
122.3011822745
 20
79.9033264257
 10
122.286782738
 20
79.9051708364
 10
122.2718586899
 20
79.9087663375
 10
122.2566500808
 20
79.9140547724
 10
122.241347498
 20
79.9209404297
  0
LWPOLYLINE
  5
45D
100
AcDbEntity
  8
RACCORDO
100
AcDbPolyline
 62
253
  6
CONTINUOUS
 90
16
 70
0
 10
122.2564381953
 20
79.4349978921
 10
122.2557976749
 20
79.458341264
 10
122.2572707548
 20
79.4826856119
 10
122.2608398218
 20
79.5077398002
 10
122.2664621969
 20
79.5332042052
 10
122.2740706446
 20
79.5587742933
 10
122.283574176
 20
79.5841442635
 10
122.2948591393
 20
79.6090107125
 10
122.3077905774
 20
79.6330762563
 10
122.3222138387
 20
79.6560530832
 10
122.3379564335
 20
79.6776664091
 10
122.3548300932
 20
79.6976577546
 10
122.372633016
 20
79.7157880322
 10
122.3911522903
 20
79.731840418
 10
122.4101664426
 20
79.7456229425
 10
122.4294480787
 20
79.7569707799
  0
LINE
  5
45E
100
AcDbEntity
  8
SUPERFICI
100
AcDbLine
 62
7
  6
CONTINUOUS
 10
122.7161865189
 20
118.5994737035
 11
122.7076258146
 21
119.8071201546
  0
LINE
  5
45F
100
AcDbEntity
  8
SUPERFICI
100
AcDbLine
 62
253
  6
CONTINUOUS
 10
121.5226692333
 20
118.12167345
 11
121.5226692333
 21
119.3552878017
  0
LINE
  5
460
100
AcDbEntity
  8
SUPERFICI
100
AcDbLine
 62
253
  6
CONTINUOUS
 10
121.8042724424
 20
118.1300571635
 11
121.8042724424
 21
119.3546734349
  0
LINE
  5
461
100
AcDbEntity
  8
SUPERFICI
100
AcDbLine
 62
7
  6
CONTINUOUS
 10
122.0195006134
 20
119.4619458123
 11
122.0195006134
 21
118.2495043846
  0
LINE
  5
462
100
AcDbEntity
  8
SUPERFICI
100
AcDbLine
 62
7
  6
CONTINUOUS
 10
123.164860131
 20
118.5756137091
 11
123.164860131
 21
117.3446602303
  0
LINE
  5
463
100
AcDbEntity
  8
SUPERFICI
100
AcDbLine
 62
253
  6
CONTINUOUS
 10
123.2234387748
 20
118.5049030309
 11
123.2234387748
 21
117.2712886793
  0
LWPOLYLINE
  5
464
100
AcDbEntity
  8
SUPERFICI
100
AcDbPolyline
 62
253
  6
CONTINUOUS
 90
31
 70
0
 10
121.5226692333
 20
119.3552878017
 10
121.5228607747
 20
119.3643951817
 10
121.5234353197
 20
119.3736748059
 10
121.5243919685
 20
119.3831017745
 10
121.5257290707
 20
119.3926525519
 10
121.5274434939
 20
119.4022995542
 10
121.5295299124
 20
119.4120110702
 10
121.531982119
 20
119.421758709
 10
121.5347938208
 20
119.4315178829
 10
121.537957456
 20
119.4412622964
 10
121.5414645126
 20
119.4509656122
 10
121.5453054161
 20
119.4606012326
 10
121.5494696097
 20
119.4701426422
 10
121.5539456973
 20
119.4795637531
 10
121.5587215448
 20
119.4888390484
 10
121.5637841957
 20
119.4979433624
 10
121.5691198961
 20
119.5068519468
 10
121.5747141095
 20
119.5155405167
 10
121.5805515968
 20
119.5239853968
 10
121.5866164674
 20
119.5321635947
 10
121.5928922195
 20
119.5400528552
 10
121.5993617679
 20
119.5476316972
 10
121.6060075047
 20
119.5548794909
 10
121.6128113425
 20
119.5617765078
 10
121.619754758
 20
119.5683039694
 10
121.6268188575
 20
119.5744441119
 10
121.6339844098
 20
119.5801802177
 10
121.6412318918
 20
119.5854966592
 10
121.6485415702
 20
119.5903789643
 10
121.6558935559
 20
119.5948138518
 10
121.6632678381
 20
119.5987892537
  0
LWPOLYLINE
  5
465
100
AcDbEntity
  8
SUPERFICI
100
AcDbPolyline
 62
253
  6
CONTINUOUS
 90
31
 70
0
 10
123.2234387748
 20
118.5049030309
 10
123.2236303162
 20
118.514010411
 10
123.2242048612
 20
118.5232900351
 10
123.22516151
 20
118.5327170038
 10
123.2264986121
 20
118.5422677812
 10
123.2282130354
 20
118.5519147835
 10
123.2302994539
 20
118.5616262994
 10
123.2327516604
 20
118.5713739382
 10
123.2355633623
 20
118.5811331121
 10
123.2387269975
 20
118.5908775257
 10
123.242234054
 20
118.6005808414
 10
123.2460749575
 20
118.6102164619
 10
123.2502391512
 20
118.6197578714
 10
123.2547152388
 20
118.6291789824
 10
123.2594910863
 20
118.6384542777
 10
123.2645537371
 20
118.6475585917
 10
123.2698894376
 20
118.656467176
 10
123.275483651
 20
118.665155746
 10
123.2813211383
 20
118.673600626
 10
123.2873860089
 20
118.681778824
 10
123.293661761
 20
118.6896680845
 10
123.3001313094
 20
118.6972469265
 10
123.3067770462
 20
118.7044947201
 10
123.313580884
 20
118.7113917371
 10
123.3205242994
 20
118.7179191986
 10
123.327588399
 20
118.7240593411
 10
123.3347539513
 20
118.7297954469
 10
123.3420014333
 20
118.7351118884
 10
123.3493111117
 20
118.7399941935
 10
123.3566630973
 20
118.7444290811
 10
123.3640373795
 20
118.7484044829
  0
LWPOLYLINE
  5
466
100
AcDbEntity
  8
SUPERFICI
100
AcDbPolyline
 62
7
  6
CONTINUOUS
 90
10
 70
0
 10
122.1284860104
 20
80.0635382301
 10
122.128447445
 20
80.0619262306
 10
122.1282190596
 20
80.0605552062
 10
122.1278008542
 20
80.0594251569
 10
122.1271661
 20
80.0585232602
 10
122.1263415259
 20
80.0578623386
 10
122.1254073179
 20
80.0574808598
 10
122.1243902048
 20
80.0573916464
 10
122.1232634579
 20
80.0575818757
 10
122.1220270772
 20
80.0580515479
  0
LWPOLYLINE
  5
467
100
AcDbEntity
  8
ASSI
100
AcDbPolyline
 62
253
  6
CONTINUOUS
 90
13
 70
0
 10
122.0071422577
 20
81.7513165136
 10
122.0078244271
 20
81.7727201761
 10
122.0098685909
 20
81.7947000774
 10
122.0132672324
 20
81.8171199524
 10
122.0180028619
 20
81.8398341747
 10
122.0240514279
 20
81.8627056254
 10
122.031385605
 20
81.8856067177
 10
122.0399777513
 20
81.9084191899
 10
122.04977201
 20
81.930967308
 10
122.060678809
 20
81.9530396856
 10
122.0726130315
 20
81.9744754383
 10
122.0855058458
 20
81.9951612917
 10
122.0992724988
 20
82.0149674626
  0
LWPOLYLINE
  5
468
100
AcDbEntity
  8
SUPERFICI
100
AcDbPolyline
 62
7
  6
CONTINUOUS
 90
10
 70
0
 10
123.164860131
 20
118.5756137091
 10
123.1664977366
 20
118.6011516854
 10
123.1714515327
 20
118.6265352487
 10
123.1797158658
 20
118.6512549746
 10
123.1912069645
 20
118.6748335064
 10
123.2057230078
 20
118.6967556624
 10
123.2229603579
 20
118.7165550245
 10
123.2427336615
 20
118.7339965004
 10
123.2646297546
 20
118.7486855756
 10
123.2731417711
 20
118.7533431165
  0
LINE
  5
469
100
AcDbEntity
  8
0
100
AcDbLine
 62
7
  6
CONTINUOUS
 10
119.7033417788
 20
91.1547736943
 11
119.697652178
 21
91.0902069667
  0
LWPOLYLINE
  5
46A
100
AcDbEntity
  8
0
100
AcDbPolyline
 62
253
  6
CONTINUOUS
 90
7
 70
0
 10
119.7320742812
 20
91.1056529928
 10
119.726567286
 20
91.0448178402
 10
119.7172030489
 20
90.986836022
 10
119.7038844842
 20
90.9313631226
 10
119.6867081163
 20
90.8787432749
 10
119.6659636232
 20
90.8300089278
 10
119.6415899585
 20
90.7852773762
  0
LINE
  5
46B
100
AcDbEntity
  8
ASSI
100
AcDbLine
 62
7
  6
CONTINUOUS
 10
118.7619317044
 20
83.5834800114
 11
118.7554142269
 21
83.5246875633
  0
LWPOLYLINE
  5
46C
100
AcDbEntity
  8
DRAFT
100
AcDbPolyline
 62
7
  6
CONTINUOUS
 90
16
 70
0
 10
118.7619519064
 20
83.5834902642
 10
118.7625634308
 20
83.5886474158
 10
118.7654810288
 20
83.6066753479
 10
118.7693560553
 20
83.6232545232
 10
118.7740511217
 20
83.6384419923
 10
118.7794464668
 20
83.6523566691
 10
118.7854435001
 20
83.6650488275
 10
118.7919404293
 20
83.6765390726
 10
118.7988430317
 20
83.6868937792
 10
118.8060693496
 20
83.6961683375
 10
118.8135372334
 20
83.7044123944
 10
118.8211655611
 20
83.7116844066
 10
118.8288468838
 20
83.7180163979
 10
118.8365532948
 20
83.7235062257
 10
118.8443469025
 20
83.7282863825
 10
118.8493432067
 20
83.7309816636
  0
LINE
  5
46D
100
AcDbEntity
  8
ASSI
100
AcDbLine
 62
253
  6
CONTINUOUS
 10
118.7554295669
 20
83.5248235443
 11
118.7571243479
 21
83.5364326286
  0
LWPOLYLINE
  5
46E
100
AcDbEntity
  8
0
100
AcDbPolyline
 62
7
  6
CONTINUOUS
 90
9
 70
0
 10
119.697652178
 20
91.0902069667
 10
119.6870381359
 20
91.028963842
 10
119.6714837405
 20
90.9716282453
 10
119.6511372273
 20
90.919112875
 10
119.6264603257
 20
90.8725292498
 10
119.5980020855
 20
90.832401594
 10
119.5660691304
 20
90.7987590702
 10
119.5308409956
 20
90.7715367204
 10
119.5106966097
 20
90.7595838994
  0
LWPOLYLINE
  5
46F
100
AcDbEntity
  8
RACCORDO
100
AcDbPolyline
 62
253
  6
CONTINUOUS
 90
4
 70
0
 10
118.6947870373
 20
83.7825528526
 10
118.6919250141
 20
83.7676845676
 10
118.6904361576
 20
83.7517419098
 10
118.6903657478
 20
83.7348587666
  0
LWPOLYLINE
  5
470
100
AcDbEntity
  8
SUPERFICI
100
AcDbPolyline
 62
7
  6
CONTINUOUS
 90
25
 70
0
 10
125.8732325709
 20
116.7834115979
 10
125.8788105611
 20
116.7954384666
 10
125.8839176571
 20
116.8079030063
 10
125.8885538589
 20
116.8208052171
 10
125.8927243192
 20
116.8341645239
 10
125.8964238853
 20
116.8479615017
 10
125.8996370989
 20
116.8621378758
 10
125.9023619239
 20
116.8766952254
 10
125.9046003964
 20
116.8916319713
 10
125.9063431663
 20
116.9068851019
 10
125.9075881599
 20
116.9224559359
 10
125.9083374509
 20
116.9383431546
 10
125.9085879099
 20
116.9544797892
 10
125.9083374509
 20
116.9708668829
 10
125.9075881599
 20
116.9875033925
 10
125.9063431663
 20
117.0043192202
 10
125.9046003964
 20
117.0213151206
 10
125.9023619239
 20
117.0384903391
 10
125.8996370989
 20
117.0557725137
 10
125.8964238853
 20
117.0731621014
 10
125.8927243192
 20
117.0906586453
 10
125.8885538589
 20
117.1081884123
 10
125.8839176571
 20
117.1257268249
 10
125.8788105611
 20
117.1432984607
 10
125.8732325709
 20
117.1609033196
  0
LWPOLYLINE
  5
471
100
AcDbEntity
  8
SUPERFICI
100
AcDbPolyline
 62
7
  6
CONTINUOUS
 90
31
 70
0
 10
131.145679728
 20
119.3869455458
 10
131.1539925275
 20
119.3976388505
 10
131.1617718541
 20
119.4089537734
 10
131.1690177076
 20
119.4208903146
 10
131.1757406979
 20
119.4334711049
 10
131.1819302153
 20
119.4466735135
 10
131.1875544304
 20
119.4604296473
 10
131.1926104315
 20
119.4747423586
 10
131.1971011304
 20
119.4896087951
 10
131.201003434
 20
119.5049525066
 10
131.2043143115
 20
119.5207759517
 10
131.2070367938
 20
119.5370766718
 10
131.2091568807
 20
119.5537708412
 10
131.2106714691
 20
119.5708604865
 10
131.2115836621
 20
119.588343581
 10
131.2118887688
 20
119.6061302187
 10
131.2115836621
 20
119.6242219631
 10
131.2106714691
 20
119.6426172506
 10
131.2091568807
 20
119.6612214843
 10
131.2070367938
 20
119.6800357406
 10
131.2043143115
 20
119.699058943
 10
131.201003434
 20
119.7181932656
 10
131.1971011304
 20
119.7374392808
 10
131.1926104315
 20
119.7567964162
 10
131.1875544304
 20
119.7761651285
 10
131.1819302153
 20
119.7955454774
 10
131.1757406979
 20
119.8149374033
 10
131.1690177076
 20
119.834241184
 10
131.1617718541
 20
119.8534235787
 10
131.1539925275
 20
119.8725178282
 10
131.145679728
 20
119.8915239324
  0
LWPOLYLINE
  5
472
100
AcDbEntity
  8
SUPERFICI
100
AcDbPolyline
 62
7
  6
CONTINUOUS
 90
41
 70
0
 10
129.0136810409
 20
114.61833528
 10
129.0079423576
 20
114.6116225075
 10
129.002016638
 20
114.6049812758
 10
128.9959051564
 20
114.5984200194
 10
128.9896065801
 20
114.5919481066
 10
128.9831255248
 20
114.585573181
 10
128.9764724972
 20
114.5793011978
 10
128.9696496126
 20
114.5731408799
 10
128.9626594103
 20
114.5671007868
 10
128.9555132936
 20
114.5611867561
 10
128.9482141093
 20
114.5554075889
 10
128.9407650915
 20
114.5497719018
 10
128.933178483
 20
114.5442853843
 10
128.9254578876
 20
114.5389568508
 10
128.9176072521
 20
114.5337949052
 10
128.9096395922
 20
114.5288050567
 10
128.9015592678
 20
114.5239960498
 10
128.893370981
 20
114.5193764219
 10
128.8850885269
 20
114.5149515152
 10
128.8767170488
 20
114.5107299294
 10
128.8682620258
 20
114.5067200538
 10
128.859738039
 20
114.5029270599
 10
128.851151039
 20
114.4993593119
 10
128.8425073095
 20
114.4960249608
 10
128.8338222413
 20
114.4929289911
 10
128.8251026188
 20
114.4900794255
 10
128.8163555546
 20
114.4874840662
 10
128.8075972728
 20
114.4851476679
 10
128.7988354214
 20
114.4830777846
 10
128.7900779545
 20
114.4812817333
 10
128.7813419318
 20
114.4797639555
 10
128.7726358932
 20
114.4785313832
 10
128.7639686282
 20
114.4775906826
 10
128.7553579783
 20
114.4769458467
 10
128.7468134244
 20
114.4766030048
 10
128.7383445295
 20
114.4765679731
 10
128.7299696841
 20
114.4768441155
 10
128.7216992807
 20
114.4774365543
 10
128.7135436248
 20
114.4783500552
 10
128.7055214041
 20
114.4795871649
 10
128.6998538685
 20
114.4806763969
  0
LINE
  5
473
100
AcDbEntity
  8
SUPERFICI
100
AcDbLine
 62
7
  6
CONTINUOUS
 10
129.9037412237
 20
114.3073840795
 11
129.0136810409
 21
113.8107031583
  0
LINE
  5
474
100
AcDbEntity
  8
SUPERFICI
100
AcDbLine
 62
7
  6
CONTINUOUS
 10
136.5684317314
 20
117.8933207477
 11
130.5253125977
 21
114.6986667853
  0
LINE
  5
475
100
AcDbEntity
  8
SUPERFICI
100
AcDbLine
 62
7
  6
CONTINUOUS
 10
136.5684317314
 20
118.293448008
 11
130.1080386055
 21
114.9073037814
  0
LINE
  5
476
100
AcDbEntity
  8
SUPERFICI
100
AcDbLine
 62
253
  6
CONTINUOUS
 10
128.1256867291
 20
115.4117022758
 11
129.72696752
 21
116.2144242793
  0
LINE
  5
477
100
AcDbEntity
  8
SUPERFICI
100
AcDbLine
 62
253
  6
CONTINUOUS
 10
128.3024604328
 20
115.106812737
 11
129.9037412237
 21
115.9095347405
  0
LINE
  5
478
100
AcDbEntity
  8
SUPERFICI
100
AcDbLine
 62
7
  6
CONTINUOUS
 10
135.5933764892
 20
119.1894032126
 11
130.2715205585
 21
116.5316975368
  0
LINE
  5
479
100
AcDbEntity
  8
SUPERFICI
100
AcDbLine
 62
253
  6
CONTINUOUS
 10
129.72696752
 20
116.2144242793
 11
130.2552346917
 21
116.4778630994
  0
LINE
  5
47A
100
AcDbEntity
  8
SUPERFICI
100
AcDbLine
 62
253
  6
CONTINUOUS
 10
129.9037412237
 20
115.9095347405
 11
130.4320083954
 21
116.1729735605
  0
LWPOLYLINE
  5
47B
100
AcDbEntity
  8
0
100
AcDbPolyline
 62
253
  6
CONTINUOUS
 90
6
 70
0
 10
119.4714137845
 20
90.7934692559
 10
119.4263948235
 20
90.7966232691
 10
119.3803067925
 20
90.8044563279
 10
119.3334075583
 20
90.8169250417
 10
119.2859644061
 20
90.8339625716
 10
119.2382457231
 20
90.8554755424
  0
LINE
  5
47C
100
AcDbEntity
  8
0
100
AcDbLine
 62
253
  6
CONTINUOUS
 10
113.9367519524
 20
99.2238810549
 11
118.5157069589
 21
96.9344035517
  0
LWPOLYLINE
  5
47D
100
AcDbEntity
  8
0
100
AcDbPolyline
 62
253
  6
CONTINUOUS
 90
16
 70
0
 10
118.8623328407
 20
97.5123397513
 10
118.8986656
 20
97.4911779132
 10
118.934668022
 20
97.4655400096
 10
118.9699458094
 20
97.435706826
 10
119.0041126013
 20
97.402005094
 10
119.0367942039
 20
97.3648039139
 10
119.0676326887
 20
97.3245107126
 10
119.0962903136
 20
97.2815667805
 10
119.1224532216
 20
97.2364424376
 10
119.1458348777
 20
97.1896318843
 10
119.1661792068
 20
97.1416477882
 10
119.1832633988
 20
97.0930156693
 10
119.1969003486
 20
97.044268144
 10
119.2069407048
 20
96.9959390932
 10
119.2132745056
 20
96.9485578152
 10
119.2158323834
 20
96.902643228
  0
LWPOLYLINE
  5
47E
100
AcDbEntity
  8
0
100
AcDbPolyline
 62
253
  6
CONTINUOUS
 90
6
 70
0
 10
119.7337243683
 20
96.811697877
 10
119.7226311937
 20
96.8182849324
 10
119.7139687526
 20
96.8257100408
 10
119.707994447
 20
96.8337525672
 10
119.7048858017
 20
96.8421735302
 10
119.7044349043
 20
96.8470095043
  0
LINE
  5
47F
100
AcDbEntity
  8
0
100
AcDbLine
 62
253
  6
CONTINUOUS
 10
119.0848812663
 20
98.004928761
 11
119.1370316212
 21
97.9716364319
  0
LWPOLYLINE
  5
480
100
AcDbEntity
  8
0
100
AcDbPolyline
 62
253
  6
CONTINUOUS
 90
18
 70
0
 10
119.1370316212
 20
97.9716364319
 10
119.1883975277
 20
97.9339768737
 10
119.2393008404
 20
97.8916675414
 10
119.2894204771
 20
97.8449913583
 10
119.3377923703
 20
97.7947966918
 10
119.3843449284
 20
97.7410462355
 10
119.4291511356
 20
97.6837779782
 10
119.4714637923
 20
97.6239532321
 10
119.511240524
 20
97.5615302546
 10
119.5485254399
 20
97.4965516393
 10
119.5827008729
 20
97.4301051083
 10
119.6137127823
 20
97.3621756205
 10
119.6416169375
 20
97.2927790663
 10
119.6659599829
 20
97.2230493672
 10
119.6866887037
 20
97.1529298522
 10
119.7038577227
 20
97.0824778857
 10
119.7171747976
 20
97.0129981271
 10
119.7265425624
 20
96.9449254873
  0
LWPOLYLINE
  5
481
100
AcDbEntity
  8
SUPERFICI
100
AcDbPolyline
 62
253
  6
CONTINUOUS
 90
43
 70
0
 10
125.6221594565
 20
73.8416516554
 10
125.6240986725
 20
73.8286583745
 10
125.6264084454
 20
73.8159534269
 10
125.6290887755
 20
73.8035368124
 10
125.6321434158
 20
73.7913950247
 10
125.6355686132
 20
73.7795415702
 10
125.639353108
 20
73.7680169686
 10
125.6434979256
 20
73.756823165
 10
125.6480020406
 20
73.7459582143
 10
125.6528511162
 20
73.7354568006
 10
125.6580462404
 20
73.7253201349
 10
125.6635863252
 20
73.7155470063
 10
125.6694537698
 20
73.7061684658
 10
125.6756496159
 20
73.6971857559
 10
125.6821728217
 20
73.6885976342
 10
125.6890026616
 20
73.680431424
 10
125.6961401227
 20
73.6726884596
 10
125.7035842177
 20
73.6653674067
 10
125.7113112595
 20
73.6584915856
 10
125.7193221407
 20
73.6520624227
 10
125.7276159686
 20
73.6460784914
 10
125.736166378
 20
73.6405588333
 10
125.7449741909
 20
73.635504923
 10
125.7540385852
 20
73.6309152857
 10
125.76333073
 20
73.6268045384
 10
125.7728513708
 20
73.6231742052
 10
125.7825997621
 20
73.6200227619
 10
125.7925448366
 20
73.6173602536
 10
125.8026871987
 20
73.6151882481
 10
125.813026244
 20
73.6135051776
 10
125.8235290919
 20
73.6123163835
 10
125.8341962548
 20
73.6116234342
 10
125.8450272203
 20
73.6114247612
 10
125.8559875711
 20
73.611721001
 10
125.8670777688
 20
73.6125137443
 10
125.8782973519
 20
73.6138014002
 10
125.8896105177
 20
73.6155798326
 10
125.9010182039
 20
73.6178508796
 10
125.9125194729
 20
73.620612703
 10
125.92407571
 20
73.6238556521
 10
125.9356740436
 20
73.6275765098
 10
125.9473273454
 20
73.6317784931
 10
125.9590356153
 20
73.6364616021
  0
LWPOLYLINE
  5
482
100
AcDbEntity
  8
SUPERFICI
100
AcDbPolyline
 62
253
  6
CONTINUOUS
 90
24
 70
0
 10
124.9252298746
 20
73.78211595
 10
124.9290701507
 20
73.7561687158
 10
124.9336552261
 20
73.7307544264
 10
124.9389802585
 20
73.7059000381
 10
124.9450396575
 20
73.6816319929
 10
124.9518269911
 20
73.6579759306
 10
124.9593350275
 20
73.6349566915
 10
124.9675559667
 20
73.6125985162
 10
124.976481093
 20
73.59092532
 10
124.9861006875
 20
73.5699604072
 10
124.9964045922
 20
73.5497260694
 10
125.0073819775
 20
73.5302436613
 10
125.019021025
 20
73.511533903
 10
125.0313095132
 20
73.4936165916
 10
125.0442344818
 20
73.4765107264
 10
125.0577819889
 20
73.4602345761
 10
125.0719378129
 20
73.4448053436
 10
125.0866870228
 20
73.4302393873
 10
125.1020136495
 20
73.4165523538
 10
125.1179015543
 20
73.4037587166
 10
125.134334014
 20
73.3918719815
 10
125.1512932942
 20
73.3809049138
 10
125.1687615574
 20
73.3708690791
 10
125.1788933979
 20
73.3655924085
  0
LWPOLYLINE
  5
483
100
AcDbEntity
  8
SUPERFICI
100
AcDbPolyline
 62
253
  6
CONTINUOUS
 90
15
 70
0
 10
124.9269499903
 20
82.916271668
 10
124.9449354798
 20
82.2500829111
 10
124.9678026353
 20
81.5865159161
 10
124.9955539342
 20
80.9255205144
 10
125.028186899
 20
80.2671468747
 10
125.065694097
 20
79.6115455029
 10
125.1080766365
 20
78.9587172166
 10
125.1553334092
 20
78.3086611982
 10
125.2074536575
 20
77.661525501
 10
125.2644385053
 20
77.0173106803
 10
125.3262868287
 20
76.3760161808
 10
125.3929844985
 20
75.7377883899
 10
125.4645268048
 20
75.1026761032
 10
125.5409184575
 20
74.4706305251
 10
125.6221594565
 20
73.8416516554
  0
LWPOLYLINE
  5
484
100
AcDbEntity
  8
SUPERFICI
100
AcDbPolyline
 62
253
  6
CONTINUOUS
 90
16
 70
0
 10
124.213027413
 20
83.5799451115
 10
124.226200404
 20
82.9074811566
 10
124.2442851501
 20
82.2375532144
 10
124.267280303
 20
81.570212117
 10
124.295184189
 20
80.9055085014
 10
124.3279946854
 20
80.2434927923
 10
124.3657092225
 20
79.5842151989
 10
124.4083250113
 20
78.927725678
 10
124.4558388535
 20
78.2740740826
 10
124.5082470171
 20
77.6233101448
 10
124.5655456084
 20
76.9754832559
 10
124.6277303383
 20
76.3306425096
 10
124.6947963354
 20
75.6888368525
 10
124.7667385216
 20
75.0501149678
 10
124.8435516105
 20
74.4145252705
 10
124.9252298746
 20
73.78211595
  0
LINE
  5
485
100
AcDbEntity
  8
SUPERFICI
100
AcDbLine
 62
253
  6
CONTINUOUS
 10
124.9138461667
 20
83.585082187
 11
124.9269499903
 21
82.916271668
  0
LWPOLYLINE
  5
486
100
AcDbEntity
  8
SUPERFICI
100
AcDbPolyline
 62
7
  6
CONTINUOUS
 90
6
 70
0
 10
125.7209314054
 20
123.1704770841
 10
125.7209260991
 20
123.1707931818
 10
125.7204393379
 20
123.1735910695
 10
125.7191853385
 20
123.1758839795
 10
125.7171969573
 20
123.1776954508
 10
125.7158887981
 20
123.1784549925
  0
LINE
  5
487
100
AcDbEntity
  8
SUPERFICI
100
AcDbLine
 62
253
  6
CONTINUOUS
 10
125.2721918069
 20
119.5651559653
 11
125.257636717
 21
121.6151219216
  0
LINE
  5
488
100
AcDbEntity
  8
SUPERFICI
100
AcDbLine
 62
7
  6
CONTINUOUS
 10
124.1469917844
 20
117.5031816908
 11
124.1469917844
 21
116.0570189251
  0
LINE
  5
489
100
AcDbEntity
  8
SUPERFICI
100
AcDbLine
 62
7
  6
CONTINUOUS
 10
124.8064016587
 20
115.7273139879
 11
124.8064016587
 21
117.1734767536
  0
LINE
  5
48A
100
AcDbEntity
  8
SUPERFICI
100
AcDbLine
 62
7
  6
CONTINUOUS
 10
125.7209314752
 20
121.9221772974
 11
125.7209314752
 21
123.1699438885
  0
LINE
  5
48B
100
AcDbEntity
  8
SUPERFICI
100
AcDbLine
 62
7
  6
CONTINUOUS
 10
125.8732325709
 20
116.3226384059
 11
125.8732325709
 21
117.708279052
  0
LWPOLYLINE
  5
48C
100
AcDbEntity
  8
SUPERFICI
100
AcDbPolyline
 62
253
  6
CONTINUOUS
 90
13
 70
0
 10
124.213027413
 20
100.0344277834
 10
124.1931856592
 20
98.6536973654
 10
124.1769517103
 20
97.2746677807
 10
124.1643255127
 20
95.8973527588
 10
124.1553070266
 20
94.5217752158
 10
124.1498960306
 20
93.1479396141
 10
124.1480923599
 20
91.7758320795
 10
124.1498960293
 20
90.4054663676
 10
124.1553070244
 20
89.0368562252
 10
124.1643255101
 20
87.6699879521
 10
124.1769517077
 20
86.3048662349
 10
124.1931856575
 20
84.9415140271
 10
124.213027413
 20
83.5799451115
  0
LWPOLYLINE
  5
48D
100
AcDbEntity
  8
SUPERFICI
100
AcDbPolyline
 62
253
  6
CONTINUOUS
 90
13
 70
0
 10
124.9138461667
 20
100.0231103762
 10
124.894024065
 20
98.6437382887
 10
124.8778060552
 20
97.2660926077
 10
124.8651921374
 20
95.8901733334
 10
124.8561824015
 20
94.5159759124
 10
124.8507767575
 20
93.143504898
 10
124.8489749357
 20
91.7727739501
 10
124.8507767557
 20
90.4037829848
 10
124.8561823977
 20
89.0365320861
 10
124.8651921328
 20
87.6710351658
 10
124.8778060511
 20
86.3072968611
 10
124.8940240624
 20
84.9453125349
 10
124.9138461667
 20
83.585082187
  0
LWPOLYLINE
  5
48E
100
AcDbEntity
  8
SUPERFICI
100
AcDbPolyline
 62
253
  6
CONTINUOUS
 90
34
 70
0
 10
126.2714004028
 20
115.9465944961
 10
126.2715992055
 20
115.9569589743
 10
126.2721951678
 20
115.9674989591
 10
126.273186951
 20
115.9781907448
 10
126.274572327
 20
115.9890102906
 10
126.2763481811
 20
115.999933255
 10
126.2785105163
 20
116.0109350489
 10
126.2810544669
 20
116.0219909211
 10
126.2839743116
 20
116.0330760101
 10
126.2872634816
 20
116.0441653799
 10
126.2909145786
 20
116.0552340897
 10
126.2949193891
 20
116.0662572421
 10
126.2992689014
 20
116.0772100353
 10
126.30395333
 20
116.0880678331
 10
126.3089621381
 20
116.0988062161
 10
126.3142840566
 20
116.1094010293
 10
126.319907117
 20
116.1198284491
 10
126.3258186677
 20
116.1300650179
 10
126.3320053995
 20
116.1400876948
 10
126.3384533761
 20
116.1498739127
 10
126.3451481094
 20
116.1594016925
 10
126.3520745856
 20
116.1686496676
 10
126.359217296
 20
116.177597118
 10
126.3665601135
 20
116.1862238287
 10
126.3740863602
 20
116.1945102192
 10
126.3817789944
 20
116.2024375677
 10
126.389620807
 20
116.2099881805
 10
126.397594306
 20
116.2171452298
 10
126.4056827834
 20
116.2238936028
 10
126.4138668547
 20
116.2302170127
 10
126.4221245255
 20
116.2360987887
 10
126.4304359462
 20
116.2415255387
 10
126.4387835785
 20
116.2464865527
 10
126.4471486587
 20
116.250971311
  0
LWPOLYLINE
  5
48F
100
AcDbEntity
  8
SUPERFICI
100
AcDbPolyline
 62
253
  6
CONTINUOUS
 90
16
 70
0
 10
124.9252298746
 20
110.5201563097
 10
124.8435516105
 20
109.8088562079
 10
124.7667385216
 20
109.0990745156
 10
124.6947963354
 20
108.3908651499
 10
124.6277303383
 20
107.6842819728
 10
124.5655456084
 20
106.9793785849
 10
124.5082470171
 20
106.2762083216
 10
124.4558388535
 20
105.5748245278
 10
124.4083250113
 20
104.8752805265
 10
124.3657092225
 20
104.1776294125
 10
124.3279946854
 20
103.4819241991
 10
124.295184189
 20
102.7882176702
 10
124.267280303
 20
102.09656235
 10
124.2442851502
 20
101.407010701
 10
124.226200404
 20
100.7196151186
 10
124.213027413
 20
100.0344277834
  0
LWPOLYLINE
  5
490
100
AcDbEntity
  8
SUPERFICI
100
AcDbPolyline
 62
253
  6
CONTINUOUS
 90
16
 70
0
 10
125.6221594565
 20
110.4505511008
 10
125.5409185463
 20
109.7431195741
 10
125.464526957
 20
109.0373040822
 10
125.3929846886
 20
108.333104625
 10
125.3262870233
 20
107.6304677871
 10
125.2644386789
 20
106.9294469839
 10
125.2074538097
 20
106.2302024617
 10
125.1553335477
 20
105.532734822
 10
125.1080767609
 20
104.8370434633
 10
125.0656942075
 20
104.1432868276
 10
125.0281869973
 20
103.4514652366
 10
124.9955540204
 20
102.7615783685
 10
124.967802706
 20
102.0737837007
 10
124.9449355305
 20
101.3881337256
 10
124.9269500173
 20
100.7045759508
 10
124.9138461667
 20
100.0231103762
  0
LWPOLYLINE
  5
491
100
AcDbEntity
  8
ASSI
100
AcDbPolyline
 62
253
  6
CONTINUOUS
 90
8
 70
0
 10
118.7571243479
 20
83.5364326286
 10
118.7606333577
 20
83.5516080916
 10
118.7654243975
 20
83.5655071149
 10
118.7714947614
 20
83.5781400788
 10
118.7787674806
 20
83.5893622558
 10
118.7871466797
 20
83.5990596764
 10
118.7966415084
 20
83.6072610889
 10
118.8071468411
 20
83.6138619311
  0
LWPOLYLINE
  5
492
100
AcDbEntity
  8
SUPERFICI
100
AcDbPolyline
 62
253
  6
CONTINUOUS
 90
30
 70
0
 10
128.3024604328
 20
114.7668388029
 10
128.2980439454
 20
114.7559567423
 10
128.2932403431
 20
114.7452971451
 10
128.2880601989
 20
114.7348841962
 10
128.2825145223
 20
114.7247408087
 10
128.2766159582
 20
114.7148908421
 10
128.2703790166
 20
114.705358821
 10
128.2638183201
 20
114.6961669919
 10
128.2569481849
 20
114.6873353161
 10
128.2497839699
 20
114.6788835604
 10
128.2423417265
 20
114.6708307192
 10
128.2346383314
 20
114.6631951101
 10
128.2266913202
 20
114.6559941346
 10
128.2185186932
 20
114.649244096
 10
128.2101388401
 20
114.6429601758
 10
128.201570658
 20
114.6371565465
 10
128.1928334736
 20
114.6318463045
 10
128.1839470208
 20
114.6270414485
 10
128.1749313777
 20
114.6227528366
 10
128.1658069023
 20
114.6189901522
 10
128.1565941847
 20
114.6157618854
 10
128.1473140205
 20
114.6130753235
 10
128.1379873579
 20
114.6109365306
 10
128.1286352501
 20
114.609350335
 10
128.119278808
 20
114.6083203173
 10
128.1099391413
 20
114.6078488022
 10
128.1006373433
 20
114.6079368557
 10
128.0913944438
 20
114.6085842758
 10
128.0822313272
 20
114.6097895916
 10
128.0756174967
 20
114.6110175257
  0
LWPOLYLINE
  5
493
100
AcDbEntity
  8
0
100
AcDbPolyline
 62
253
  6
CONTINUOUS
 90
3
 70
0
 10
115.4251556935
 20
85.3601428673
 10
115.4196500596
 20
85.3477292591
 10
115.4154806044
 20
85.3340504918
  0
LWPOLYLINE
  5
494
100
AcDbEntity
  8
0
100
AcDbPolyline
 62
253
  6
CONTINUOUS
 90
7
 70
0
 10
119.3175099536
 20
97.7800774271
 10
119.3141177681
 20
97.7746678146
 10
119.299773947
 20
97.7554784268
 10
119.2842835289
 20
97.7380839698
 10
119.2679057102
 20
97.7227754996
 10
119.2509145358
 20
97.7098091681
 10
119.2335943138
 20
97.6994019369
  0
LWPOLYLINE
  5
495
100
AcDbEntity
  8
SUPERFICI
100
AcDbPolyline
 62
7
  6
CONTINUOUS
 90
7
 70
0
 10
130.4473689678
 20
115.7546068772
 10
130.4618497822
 20
115.774087691
 10
130.474390451
 20
115.7949131908
 10
130.4848611353
 20
115.8168868533
 10
130.4931593782
 20
115.8398204386
 10
130.4991885835
 20
115.8634783702
 10
130.502878792
 20
115.8875859363
  0
LINE
  5
496
100
AcDbEntity
  8
SUPERFICI
100
AcDbLine
 62
253
  6
CONTINUOUS
 10
129.9037412237
 20
115.182489888
 11
130.4320083954
 21
115.8254420438
  0
LINE
  5
497
100
AcDbEntity
  8
SUPERFICI
100
AcDbLine
 62
7
  6
CONTINUOUS
 10
129.9037412237
 20
115.0929594217
 11
130.4473689678
 21
115.7546068772
  0
LWPOLYLINE
  5
498
100
AcDbEntity
  8
SUPERFICI
100
AcDbPolyline
 62
253
  6
CONTINUOUS
 90
43
 70
0
 10
125.5932028753
 20
111.584061125
 10
125.5700119582
 20
111.5707305113
 10
125.5468859606
 20
111.5565149405
 10
125.5238492291
 20
111.5414296412
 10
125.5009259259
 20
111.525490951
 10
125.4781402695
 20
111.5087157477
 10
125.4555165177
 20
111.4911213883
 10
125.4330783046
 20
111.4727264898
 10
125.410849448
 20
111.4535508209
 10
125.3888541887
 20
111.4336147241
 10
125.3671157849
 20
111.4129395667
 10
125.3456570146
 20
111.3915473354
 10
125.3245009887
 20
111.3694604913
 10
125.303669974
 20
111.3467025704
 10
125.2831859075
 20
111.3232978566
 10
125.2630708961
 20
111.29927099
 10
125.2433461026
 20
111.2746475393
 10
125.2240323106
 20
111.2494537821
 10
125.2051504396
 20
111.2237163713
 10
125.1867204005
 20
111.197462757
 10
125.1687615574
 20
111.1707208833
 10
125.1512932942
 20
111.1435189654
 10
125.134334014
 20
111.1158859681
 10
125.1179015543
 20
111.0878513224
 10
125.1020136495
 20
111.0594446235
 10
125.0866870228
 20
111.0306960696
 10
125.0719378129
 20
111.0016363036
 10
125.0577819889
 20
110.972296129
 10
125.0442344818
 20
110.9427068018
 10
125.0313095132
 20
110.9128997796
 10
125.019021025
 20
110.8829065613
 10
125.0073819775
 20
110.8527590698
 10
124.9964045922
 20
110.8224893602
 10
124.9861006875
 20
110.792129369
 10
124.976481093
 20
110.7617112447
 10
124.9675559667
 20
110.7312674726
 10
124.9593350275
 20
110.700830581
 10
124.9518269911
 20
110.670433159
 10
124.9450396575
 20
110.6401072889
 10
124.9389802585
 20
110.6098846734
 10
124.9336552261
 20
110.5797972607
 10
124.9290701507
 20
110.5498772066
 10
124.9252298746
 20
110.5201563097
  0
LWPOLYLINE
  5
499
100
AcDbEntity
  8
SUPERFICI
100
AcDbPolyline
 62
253
  6
CONTINUOUS
 90
43
 70
0
 10
125.9590356153
 20
110.9810586792
 10
125.9473273454
 20
110.9744352434
 10
125.9356740436
 20
110.967383764
 10
125.92407571
 20
110.959904241
 10
125.9125194729
 20
110.9519874616
 10
125.9010182039
 20
110.9436426387
 10
125.8896105177
 20
110.9348974112
 10
125.8782973519
 20
110.9257508463
 10
125.8670777688
 20
110.9162038769
 10
125.8559875711
 20
110.9062869407
 10
125.8450272203
 20
110.8959988927
 10
125.8341962548
 20
110.885340878
 10
125.8235290919
 20
110.8743467692
 10
125.813026244
 20
110.8630154927
 10
125.8026871987
 20
110.8513481223
 10
125.7925448366
 20
110.8393817516
 10
125.7825997621
 20
110.8271153965
 10
125.7728513708
 20
110.8145500411
 10
125.76333073
 20
110.8017257319
 10
125.7540385852
 20
110.7886416647
 10
125.7449741909
 20
110.7752986436
 10
125.736166378
 20
110.7617391273
 10
125.7276159686
 20
110.7479624347
 10
125.7193221407
 20
110.733969247
 10
125.7113112595
 20
110.719804066
 10
125.7035842177
 20
110.7054663274
 10
125.6961401227
 20
110.6909565955
 10
125.6890026616
 20
110.6763210651
 10
125.6821728217
 20
110.6615593552
 10
125.6756496159
 20
110.6466718467
 10
125.6694537698
 20
110.6317058779
 10
125.6635863252
 20
110.616661212
 10
125.6580462404
 20
110.6015380856
 10
125.6528511162
 20
110.5863845469
 10
125.6480020406
 20
110.5712004353
 10
125.6434979256
 20
110.5559859113
 10
125.639353108
 20
110.5407895038
 10
125.6355686132
 20
110.5256102581
 10
125.6321434158
 20
110.5104491289
 10
125.6290887755
 20
110.4953575093
 10
125.6264084454
 20
110.4803525303
 10
125.6240986725
 20
110.4654170607
 10
125.6221594565
 20
110.4505511008
  0
LINE
  5
49A
100
AcDbEntity
  8
SUPERFICI
100
AcDbLine
 62
253
  6
CONTINUOUS
 10
130.2575637389
 20
114.1304728219
 11
125.5932028753
 21
111.584061125
  0
LINE
  5
49B
100
AcDbEntity
  8
SUPERFICI
100
AcDbLine
 62
253
  6
CONTINUOUS
 10
130.6108480048
 20
113.5206197953
 11
125.9590356153
 21
110.9810586792
  0
LINE
  5
49C
100
AcDbEntity
  8
DRAFT
100
AcDbLine
 62
7
  6
CONTINUOUS
 10
130.9773100992
 20
114.4719623393
 11
137.259877794
 21
117.7722577927
  0
LINE
  5
49D
100
AcDbEntity
  8
RACCORDO
100
AcDbLine
 62
253
  6
CONTINUOUS
 10
150.0221620314
 20
121.3645175384
 11
131.6109110916
 21
111.9977423042
  0
LINE
  5
49E
100
AcDbEntity
  8
SUPERFICI
100
AcDbLine
 62
253
  6
CONTINUOUS
 10
130.9582350554
 20
114.4822055564
 11
130.2572991016
 21
114.1306051406
  0
LINE
  5
49F
100
AcDbEntity
  8
SUPERFICI
100
AcDbLine
 62
253
  6
CONTINUOUS
 10
131.3117839586
 20
113.8724330587
 11
130.6108480048
 21
113.5208326428
  0
LINE
  5
4A0
100
AcDbEntity
  8
SUPERFICI
100
AcDbLine
 62
7
  6
CONTINUOUS
 10
131.3117839586
 20
112.499931776
 11
131.317954786
 21
112.5030171897
  0
LINE
  5
4A1
100
AcDbEntity
  8
SUPERFICI
100
AcDbLine
 62
253
  6
CONTINUOUS
 10
158.063196898
 20
125.454749322
 11
158.0239005039
 21
125.4353979563
  0
LINE
  5
4A2
100
AcDbEntity
  8
0
100
AcDbLine
 62
253
  6
CONTINUOUS
 10
157.511241415
 20
125.9613564047
 11
149.4962547792
 21
122.06808396
  0
LINE
  5
4A3
100
AcDbEntity
  8
RACCORDO
100
AcDbLine
 62
253
  6
CONTINUOUS
 10
138.0054047297
 20
116.4864140339
 11
149.4260553481
 21
122.0339846504
  0
LINE
  5
4A4
100
AcDbEntity
  8
RACCORDO
100
AcDbLine
 62
253
  6
CONTINUOUS
 10
138.3430730636
 20
115.9040223069
 11
149.9259791956
 21
121.5304083911
  0
LINE
  5
4A5
100
AcDbEntity
  8
0
100
AcDbLine
 62
253
  6
CONTINUOUS
 10
158.0176193925
 20
125.446648418
 11
149.9961786267
 21
121.5645077007
  0
LWPOLYLINE
  5
4A6
100
AcDbEntity
  8
0
100
AcDbPolyline
 62
253
  6
CONTINUOUS
 90
7
 70
0
 10
119.7030828705
 20
91.4922167235
 10
119.69619808
 20
91.4920237615
 10
119.6720420298
 20
91.4897579654
 10
119.6486730337
 20
91.4859520454
 10
119.626482118
 20
91.4806696846
 10
119.6058405962
 20
91.4739992711
 10
119.5870938565
 20
91.4660524189
  0
LWPOLYLINE
  5
4A7
100
AcDbEntity
  8
0
100
AcDbPolyline
 62
253
  6
CONTINUOUS
 90
10
 70
0
 10
113.7136855325
 20
99.8217197856
 10
113.7268790591
 20
99.8161612733
 10
113.7417824353
 20
99.8118017725
 10
113.7579526985
 20
99.8087708576
 10
113.7749092318
 20
99.8071586141
 10
113.7921480481
 20
99.8070129618
 10
113.8091567708
 20
99.8083382304
 10
113.8254298616
 20
99.8110950301
 10
113.8404836472
 20
99.8152014224
 10
113.8538706943
 20
99.820535356
  0
LINE
  5
4A8
100
AcDbEntity
  8
0
100
AcDbLine
 62
7
  6
CONTINUOUS
 10
114.3932205064
 20
100.3078980382
 11
114.4519778704
 21
100.2819873107
  0
LWPOLYLINE
  5
4A9
100
AcDbEntity
  8
0
100
AcDbPolyline
 62
253
  6
CONTINUOUS
 90
9
 70
0
 10
114.6419008713
 20
99.9952486582
 10
114.611246342
 20
100.0091311403
 10
114.5808091171
 20
100.0195872429
 10
114.5508256709
 20
100.0265427704
 10
114.5215328984
 20
100.0299514507
 10
114.4931517896
 20
100.0297912861
 10
114.4658864342
 20
100.02606236
 10
114.4399413302
 20
100.0187931591
 10
114.4142016517
 20
100.0073386352
  0
LINE
  5
4AA
100
AcDbEntity
  8
0
100
AcDbLine
 62
253
  6
CONTINUOUS
 10
114.3730524497
 20
100.3608238354
 11
114.4260885607
 21
100.3367826228
  0
LINE
  5
4AB
100
AcDbEntity
  8
0
100
AcDbLine
 62
253
  6
CONTINUOUS
 10
114.2833778342
 20
99.8018172546
 11
118.8623328407
 21
97.5123397513
  0
LINE
  5
4AC
100
AcDbEntity
  8
0
100
AcDbLine
 62
253
  6
CONTINUOUS
 10
119.2335943138
 20
97.6994019369
 11
114.6419008713
 21
99.9952486582
  0
LINE
  5
4AD
100
AcDbEntity
  8
0
100
AcDbLine
 62
7
  6
CONTINUOUS
 10
114.4520753158
 20
100.2819565347
 11
119.0579330242
 21
97.9790276805
  0
LINE
  5
4AE
100
AcDbEntity
  8
0
100
AcDbLine
 62
253
  6
CONTINUOUS
 10
114.4260885607
 20
100.3367826228
 11
119.0319462716
 21
98.0338537674
  0
LINE
  5
4AF
100
AcDbEntity
  8
0
100
AcDbLine
 62
253
  6
CONTINUOUS
 10
119.0319462716
 20
98.0338537674
 11
119.0848812663
 21
98.004928761
  0
LWPOLYLINE
  5
4B0
100
AcDbEntity
  8
0
100
AcDbPolyline
 62
7
  6
CONTINUOUS
 90
20
 70
0
 10
119.0579949746
 20
97.9789819651
 10
119.1071893967
 20
97.9519743762
 10
119.1590254637
 20
97.9183243303
 10
119.2106533595
 20
97.8793808067
 10
119.2616301929
 20
97.8353923908
 10
119.3115826034
 20
97.7865922054
 10
119.3601234811
 20
97.7332406998
 10
119.4068057276
 20
97.6757486777
 10
119.4512056387
 20
97.6145690984
 10
119.492959454
 20
97.5501170327
 10
119.5317121032
 20
97.4829000919
 10
119.5671013419
 20
97.4135362271
 10
119.5988421537
 20
97.3425717726
 10
119.6267146758
 20
97.270546879
 10
119.6505079442
 20
97.1980947532
 10
119.6700569559
 20
97.1258050784
 10
119.6852665009
 20
97.0542114102
 10
119.6960758269
 20
96.9838771931
 10
119.7024515523
 20
96.915356454
 10
119.7044209939
 20
96.8470524962
  0
LWPOLYLINE
  5
4B1
100
AcDbEntity
  8
SUPERFICI
100
AcDbPolyline
 62
253
  6
CONTINUOUS
 90
3
 70
0
 10
126.1988610792
 20
115.6857687426
 10
126.1982652807
 20
115.6916891368
 10
126.1981770981
 20
115.6950089171
  0
LINE
  5
4B2
100
AcDbEntity
  8
SUPERFICI
100
AcDbLine
 62
7
  6
CONTINUOUS
 10
126.2001340285
 20
115.6637897544
 11
126.1981771042
 21
115.6950367198
  0
LWPOLYLINE
  5
4B3
100
AcDbEntity
  8
SUPERFICI
100
AcDbPolyline
 62
253
  6
CONTINUOUS
 90
40
 70
0
 10
125.9590356153
 20
110.9810586792
 10
125.9579968613
 20
110.9982403049
 10
125.9563970759
 20
111.0156854482
 10
125.9542388512
 20
111.033365846
 10
125.9515256836
 20
111.0512528541
 10
125.9482619688
 20
111.0693174933
 10
125.9444529944
 20
111.0875304967
 10
125.9401049314
 20
111.1058623573
 10
125.935224824
 20
111.1242833753
 10
125.9298205786
 20
111.1427637063
 10
125.9239009508
 20
111.1612734101
 10
125.917475531
 20
111.1797824989
 10
125.9105547292
 20
111.1982609856
 10
125.9031497578
 20
111.216678933
 10
125.8952726137
 20
111.2350065017
 10
125.8869360588
 20
111.2532139991
 10
125.8781535994
 20
111.2712719267
 10
125.8689394641
 20
111.2891510287
 10
125.8593085807
 20
111.3068223386
 10
125.8492765526
 20
111.324257227
 10
125.8388596327
 20
111.3414274472
 10
125.8280746976
 20
111.3583051814
 10
125.8169392203
 20
111.3748630856
 10
125.8054712415
 20
111.3910743342
 10
125.7936893408
 20
111.406912663
 10
125.7816126061
 20
111.4223524119
 10
125.7692606032
 20
111.4373685668
 10
125.7566533438
 20
111.4519367997
 10
125.7438112531
 20
111.4660335082
 10
125.730755137
 20
111.4796358542
 10
125.7175061477
 20
111.4927218
 10
125.7040857504
 20
111.505270145
 10
125.6905156875
 20
111.5172605594
 10
125.6768179442
 20
111.5286736171
 10
125.6630147125
 20
111.5394908278
 10
125.6491283553
 20
111.5496946661
 10
125.63518137
 20
111.5592686008
 10
125.6211963525
 20
111.5681971208
 10
125.6071959602
 20
111.5764657609
 10
125.5932028753
 20
111.584061125
  0
LWPOLYLINE
  5
4B4
100
AcDbEntity
  8
SUPERFICI
100
AcDbPolyline
 62
253
  6
CONTINUOUS
 90
20
 70
0
 10
127.9499384732
 20
73.1277734532
 10
127.9501372211
 20
73.1176091663
 10
127.9507330178
 20
73.1076664824
 10
127.9517245238
 20
73.0979677585
 10
127.9531095094
 20
73.0885348029
 10
127.9548848606
 20
73.0793888261
 10
127.9570465852
 20
73.0705503938
 10
127.9595898224
 20
73.0620393798
 10
127.9625088536
 20
73.0538749216
 10
127.9657971152
 20
73.0460753779
 10
127.9694472131
 20
73.0386582863
 10
127.97345094
 20
73.0316403247
 10
127.9777992931
 20
73.0250372737
 10
127.9824824948
 20
73.0188639807
 10
127.9874900146
 20
73.0131343267
 10
127.9928105927
 20
73.0078611954
 10
127.9984322653
 20
73.0030564438
 10
128.0043423918
 20
72.9987308757
 10
128.0105276827
 20
72.9948942175
 10
128.0149117696
 20
72.9925550031
  0
LWPOLYLINE
  5
4B5
100
AcDbEntity
  8
SUPERFICI
100
AcDbPolyline
 62
253
  6
CONTINUOUS
 90
20
 70
0
 10
126.2714004028
 20
115.6066205619
 10
126.2715686986
 20
115.5972596115
 10
126.2720732658
 20
115.5880847805
 10
126.2729131437
 20
115.5791135383
 10
126.2740867294
 20
115.5703629896
 10
126.2755917903
 20
115.5618497715
 10
126.2774254767
 20
115.5535900287
 10
126.2795843208
 20
115.5455994411
 10
126.2820642082
 20
115.5378932875
 10
126.2848603879
 20
115.5304863385
 10
126.2879675105
 20
115.5233927391
 10
126.2913796726
 20
115.5166259429
 10
126.2950904005
 20
115.5101987858
 10
126.2990926613
 20
115.5041234659
 10
126.3033788105
 20
115.4984116021
 10
126.3079406199
 20
115.4930741491
 10
126.3127693495
 20
115.4881212991
 10
126.3178558353
 20
115.4835624187
 10
126.3231904502
 20
115.4794061255
 10
126.3287492766
 20
115.4756696173
  0
LWPOLYLINE
  5
4B6
100
AcDbEntity
  8
SUPERFICI
100
AcDbPolyline
 62
253
  6
CONTINUOUS
 90
22
 70
0
 10
127.9499384732
 20
114.7673515267
 10
127.9501063054
 20
114.7580033573
 10
127.9506097121
 20
114.7488376807
 10
127.9514480791
 20
114.7398721112
 10
127.9526203058
 20
114.7311229319
 10
127.9541244243
 20
114.7226080576
 10
127.9559572274
 20
114.7143467238
 10
127.9581149524
 20
114.7063555848
 10
127.9605936865
 20
114.6986488705
 10
127.9633887438
 20
114.6912411714
 10
127.9664948407
 20
114.6841465434
 10
127.969906051
 20
114.67737857
 10
127.9736158354
 20
114.6709502369
 10
127.9776170986
 20
114.6648738229
 10
127.9819022444
 20
114.6591608488
 10
127.9864631445
 20
114.653822153
 10
127.9912911506
 20
114.6488678746
 10
127.9963770437
 20
114.6443074884
 10
128.0017110738
 20
114.6401497332
 10
128.0072830383
 20
114.6364025406
 10
128.0130823587
 20
114.6330730043
 10
128.0149117789
 20
114.632133072
  0
LINE
  5
4B7
100
AcDbEntity
  8
SUPERFICI
100
AcDbLine
 62
7
  6
CONTINUOUS
 10
126.2485153363
 20
121.7420194151
 11
126.2502015401
 21
121.1728506277
  0
LINE
  5
4B8
100
AcDbEntity
  8
SUPERFICI
100
AcDbLine
 62
253
  6
CONTINUOUS
 10
126.1981771381
 20
116.0349121112
 11
126.1981770981
 21
116.0349828623
  0
LINE
  5
4B9
100
AcDbEntity
  8
SUPERFICI
100
AcDbLine
 62
7
  6
CONTINUOUS
 10
126.1981770981
 20
116.0349828437
 11
126.1981770981
 21
115.6950089096
  0
LINE
  5
4BA
100
AcDbEntity
  8
SUPERFICI
100
AcDbLine
 62
253
  6
CONTINUOUS
 10
126.2714004028
 20
115.9465944961
 11
126.2714004028
 21
115.6066205619
  0
LINE
  5
4BB
100
AcDbEntity
  8
SUPERFICI
100
AcDbLine
 62
7
  6
CONTINUOUS
 10
126.9011700523
 20
115.1890039353
 11
126.9011700523
 21
114.7350501933
  0
LINE
  5
4BC
100
AcDbEntity
  8
SUPERFICI
100
AcDbLine
 62
253
  6
CONTINUOUS
 10
126.974393357
 20
115.1523922829
 11
126.974393357
 21
114.6433181387
  0
LINE
  5
4BD
100
AcDbEntity
  8
SUPERFICI
100
AcDbLine
 62
253
  6
CONTINUOUS
 10
127.9499384732
 20
73.1277734532
 11
127.9499384732
 21
73.4677473873
  0
LINE
  5
4BE
100
AcDbEntity
  8
SUPERFICI
100
AcDbLine
 62
253
  6
CONTINUOUS
 10
127.9499384732
 20
114.7673515267
 11
127.9499384732
 21
115.1073254609
  0
LINE
  5
4BF
100
AcDbEntity
  8
SUPERFICI
100
AcDbLine
 62
253
  6
CONTINUOUS
 10
128.3024604328
 20
73.1272607294
 11
128.3024604328
 21
73.4672346635
  0
LINE
  5
4C0
100
AcDbEntity
  8
SUPERFICI
100
AcDbLine
 62
253
  6
CONTINUOUS
 10
128.3024604328
 20
114.7668388029
 11
128.3024604328
 21
115.106812737
  0
LINE
  5
4C1
100
AcDbEntity
  8
SUPERFICI
100
AcDbLine
 62
253
  6
CONTINUOUS
 10
128.6611590813
 20
74.4442438645
 11
128.6611590813
 21
74.5540696124
  0
LINE
  5
4C2
100
AcDbEntity
  8
SUPERFICI
100
AcDbLine
 62
253
  6
CONTINUOUS
 10
128.6611590813
 20
113.7999352766
 11
128.6611590813
 21
114.4887558996
  0
LINE
  5
4C3
100
AcDbEntity
  8
SUPERFICI
100
AcDbLine
 62
253
  6
CONTINUOUS
 10
126.6916533164
 20
120.304286617
 11
126.6968957758
 21
121.042644355
  0
LWPOLYLINE
  5
4C4
100
AcDbEntity
  8
SUPERFICI
100
AcDbPolyline
 62
253
  6
CONTINUOUS
 90
25
 70
0
 10
127.9499384732
 20
73.4677473873
 10
127.9501067691
 20
73.4772766336
 10
127.9506113363
 20
73.4869560318
 10
127.9514512141
 20
73.4967671519
 10
127.9526247998
 20
73.5066912864
 10
127.9541298607
 20
73.5167095653
 10
127.9559635471
 20
73.5268029945
 10
127.9581223912
 20
73.5369524262
 10
127.9606022786
 20
73.5471384672
 10
127.9633984583
 20
73.5573415959
 10
127.9665055809
 20
73.5675423179
 10
127.969917743
 20
73.5777212762
 10
127.973628471
 20
73.5878591612
 10
127.9776307317
 20
73.5979367419
 10
127.9819168809
 20
73.6079347549
 10
127.9864786904
 20
73.6178340173
 10
127.9913074199
 20
73.6276155969
 10
127.9963939057
 20
73.6372609631
 10
128.0017285206
 20
73.6467518713
 10
128.0073017908
 20
73.6560713584
 10
128.0131024768
 20
73.6652005272
 10
128.019117402
 20
73.6741189258
 10
128.0253341669
 20
73.6828088121
 10
128.0317414294
 20
73.6912549533
 10
128.0383268208
 20
73.6994415612
  0
LWPOLYLINE
  5
4C5
100
AcDbEntity
  8
SUPERFICI
100
AcDbPolyline
 62
253
  6
CONTINUOUS
 90
34
 70
0
 10
127.9499384732
 20
115.1073254609
 10
127.9501372211
 20
115.1176884957
 10
127.9507330178
 20
115.1282269763
 10
127.9517245238
 20
115.1389172062
 10
127.9531095094
 20
115.1497351475
 10
127.9548848606
 20
115.1606564753
 10
127.9570465852
 20
115.1716566322
 10
127.9595898224
 20
115.1827108835
 10
127.9625088536
 20
115.1937943729
 10
127.9657971152
 20
115.2048821782
 10
127.9694472131
 20
115.2159493678
 10
127.97345094
 20
115.2269710562
 10
127.9777992931
 20
115.2379224602
 10
127.9824824948
 20
115.248778955
 10
127.9874900146
 20
115.2595161287
 10
127.9928105927
 20
115.2701098381
 10
127.9984322653
 20
115.2805362624
 10
128.0043423918
 20
115.290771957
 10
128.0105276827
 20
115.3007939062
 10
128.01697423
 20
115.3105795748
 10
128.0236675381
 20
115.320106959
 10
128.0305925566
 20
115.3293546358
 10
128.037733714
 20
115.3383018111
 10
128.045074953
 20
115.3469283665
 10
128.0525997662
 20
115.3552149045
 10
128.0602912335
 20
115.3631427922
 10
128.06813206
 20
115.3706942032
 10
128.0761046151
 20
115.3778521575
 10
128.0841909719
 20
115.38460056
 10
128.0923729475
 20
115.3909242362
 10
128.1006321442
 20
115.3968089671
 10
128.1089499905
 20
115.4022415203
 10
128.1173077832
 20
115.4072096803
 10
128.1256867291
 20
115.4117022758
  0
LWPOLYLINE
  5
4C6
100
AcDbEntity
  8
SUPERFICI
100
AcDbPolyline
 62
253
  6
CONTINUOUS
 90
24
 70
0
 10
125.9590356153
 20
73.6364616021
 10
125.9579968611
 20
73.6188399174
 10
125.9563970754
 20
73.6015381358
 10
125.9542388501
 20
73.5845842882
 10
125.9515256818
 20
73.5680058418
 10
125.9482619663
 20
73.5518296557
 10
125.944452991
 20
73.5360819372
 10
125.9401049269
 20
73.5207881995
 10
125.9352248185
 20
73.5059732203
 10
125.9298205721
 20
73.4916610015
 10
125.9239009432
 20
73.4778747306
 10
125.9174755223
 20
73.4646367431
 10
125.9105547194
 20
73.451968486
 10
125.9031497469
 20
73.4398904834
 10
125.8952726018
 20
73.4284223031
 10
125.8869360461
 20
73.4175825249
 10
125.8781535858
 20
73.4073887105
 10
125.8689394497
 20
73.3978573751
 10
125.8593085657
 20
73.3890039607
 10
125.849276537
 20
73.3808428107
 10
125.8388596166
 20
73.3733871472
 10
125.8280746813
 20
73.3666490493
 10
125.8169392038
 20
73.3606394334
 10
125.8052283699
 20
73.3552659037
  0
LWPOLYLINE
  5
4C7
100
AcDbEntity
  8
0
100
AcDbPolyline
 62
253
  6
CONTINUOUS
 90
8
 70
0
 10
115.6143849591
 20
83.0880574852
 10
115.5970393227
 20
83.0588213023
 10
115.5821429084
 20
83.0281071569
 10
115.5699735152
 20
82.9964878285
 10
115.5607580867
 20
82.9645529769
 10
115.5546684787
 20
82.9328981461
 10
115.5518182548
 20
82.9021136582
 10
115.5522605678
 20
82.8727736043
  0
LWPOLYLINE
  5
4C8
100
AcDbEntity
  8
0
100
AcDbPolyline
 62
253
  6
CONTINUOUS
 90
7
 70
0
 10
114.4600111413
 20
100.2425434476
 10
114.4286900408
 20
100.2230682412
 10
114.4000611759
 20
100.1990008612
 10
114.3740573951
 20
100.1704300884
 10
114.3512454111
 20
100.1379681104
 10
114.3316829282
 20
100.1014666172
 10
114.315312242
 20
100.0610739189
  0
LWPOLYLINE
  5
4C9
100
AcDbEntity
  8
0
100
AcDbPolyline
 62
253
  6
CONTINUOUS
 90
16
 70
0
 10
114.2833778342
 20
99.8018172546
 10
114.2488562291
 20
99.7817448489
 10
114.2145970738
 20
99.7576508857
 10
114.1809371752
 20
99.7297247666
 10
114.1481742447
 20
99.6981567408
 10
114.1166856612
 20
99.6632515906
 10
114.0869059161
 20
99.6254643087
 10
114.0591649996
 20
99.5852231805
 10
114.0336961934
 20
99.5428768546
 10
114.0107445908
 20
99.4988297306
 10
113.9905354832
 20
99.4535058142
 10
113.9732763507
 20
99.4073609294
 10
113.9591448429
 20
99.3608657867
 10
113.9482817199
 20
99.3144851283
 10
113.9407927318
 20
99.2686725629
 10
113.9367519524
 20
99.2238810549
  0
LINE
  5
4CA
100
AcDbEntity
  8
0
100
AcDbLine
 62
253
  6
CONTINUOUS
 10
114.2833778342
 20
99.8018172546
 11
114.6419008713
 21
99.9952486582
  0
LINE
  5
4CB
100
AcDbEntity
  8
0
100
AcDbLine
 62
7
  6
CONTINUOUS
 10
114.4142016517
 20
100.0073386352
 11
114.0521362815
 21
99.8119961169
  0
LINE
  5
4CC
100
AcDbEntity
  8
SUPERFICI
100
AcDbLine
 62
7
  6
CONTINUOUS
 10
131.3117839586
 20
110.9405281077
 11
132.0127199124
 21
111.3047246012
  0
LINE
  5
4CD
100
AcDbEntity
  8
0
100
AcDbLine
 62
253
  6
CONTINUOUS
 10
150.0916384501
 20
121.39986386
 11
158.0176193925
 21
125.446648418
  0
LINE
  5
4CE
100
AcDbEntity
  8
0
100
AcDbLine
 62
253
  6
CONTINUOUS
 10
150.5057889257
 20
119.9682302854
 11
158.4382259577
 21
124.0038769865
  0
LINE
  5
4CF
100
AcDbEntity
  8
RACCORDO
100
AcDbLine
 62
253
  6
CONTINUOUS
 10
150.4363125071
 20
119.9328839637
 11
132.0497467568
 21
110.5786673886
  0
LINE
  5
4D0
100
AcDbEntity
  8
SUPERFICI
100
AcDbLine
 62
7
  6
CONTINUOUS
 10
130.6108480048
 20
110.5763316142
 11
132.0127199124
 21
110.9842019334
  0
LWPOLYLINE
  5
4D1
100
AcDbEntity
  8
0
100
AcDbPolyline
 62
253
  6
CONTINUOUS
 90
11
 70
0
 10
114.2222854412
 20
99.9037954921
 10
114.2064131147
 20
99.9077452457
 10
114.1831810723
 20
99.9117546264
 10
114.1591080668
 20
99.9142310651
 10
114.1345969261
 20
99.9151330776
 10
114.1100577722
 20
99.914445531
 10
114.0859012329
 20
99.9121798904
 10
114.0625316126
 20
99.9083740441
 10
114.040340003
 20
99.9030916606
 10
114.0196977444
 20
99.8964211079
 10
114.0009502851
 20
99.888473989
  0
LWPOLYLINE
  5
4D2
100
AcDbEntity
  8
0
100
AcDbPolyline
 62
253
  6
CONTINUOUS
 90
3
 70
0
 10
114.2692187919
 20
100.3935306006
 10
114.3207624629
 20
100.3797397967
 10
114.3730524497
 20
100.3608238354
  0
LINE
  5
4D3
100
AcDbEntity
  8
0
100
AcDbLine
 62
7
  6
CONTINUOUS
 10
114.3393298379
 20
100.3253970371
 11
114.3932205064
 21
100.3078980382
  0
LINE
  5
4D4
100
AcDbEntity
  8
SUPERFICI
100
AcDbLine
 62
253
  6
CONTINUOUS
 10
109.347016391
 20
107.4674332944
 11
124.213027413
 21
100.0344277834
  0
LINE
  5
4D5
100
AcDbEntity
  8
SUPERFICI
100
AcDbLine
 62
7
  6
CONTINUOUS
 10
129.092814687
 20
122.2766663897
 11
129.0961221699
 21
121.8108343346
  0
LINE
  5
4D6
100
AcDbEntity
  8
SUPERFICI
100
AcDbLine
 62
253
  6
CONTINUOUS
 10
129.0136810409
 20
74.3187311406
 11
129.0136810409
 21
74.7020440121
  0
LINE
  5
4D7
100
AcDbEntity
  8
SUPERFICI
100
AcDbLine
 62
253
  6
CONTINUOUS
 10
129.0136810409
 20
113.8107031583
 11
129.0136810409
 21
114.61833528
  0
LINE
  5
4D8
100
AcDbEntity
  8
SUPERFICI
100
AcDbLine
 62
7
  6
CONTINUOUS
 10
129.9037412237
 20
73.907295329
 11
129.9037412237
 21
75.0756551238
  0
LINE
  5
4D9
100
AcDbEntity
  8
SUPERFICI
100
AcDbLine
 62
7
  6
CONTINUOUS
 10
129.9037412237
 20
114.3073840795
 11
129.9037412237
 21
115.9095347405
  0
LINE
  5
4DA
100
AcDbEntity
  8
SUPERFICI
100
AcDbLine
 62
253
  6
CONTINUOUS
 10
130.4320083954
 20
116.1729735605
 11
130.4320083954
 21
115.8254420438
  0
LINE
  5
4DB
100
AcDbEntity
  8
SUPERFICI
100
AcDbLine
 62
253
  6
CONTINUOUS
 10
130.4320083954
 20
74.5258379044
 11
130.4320083954
 21
74.1783063877
  0
LINE
  5
4DC
100
AcDbEntity
  8
SUPERFICI
100
AcDbLine
 62
7
  6
CONTINUOUS
 10
130.5042062524
 20
116.2608461927
 11
130.5042062524
 21
115.913314676
  0
LINE
  5
4DD
100
AcDbEntity
  8
SUPERFICI
100
AcDbLine
 62
7
  6
CONTINUOUS
 10
130.5042062524
 20
74.6137105366
 11
130.5042062524
 21
74.2661790198
  0
LINE
  5
4DE
100
AcDbEntity
  8
SUPERFICI
100
AcDbLine
 62
7
  6
CONTINUOUS
 10
130.6108480048
 20
113.5208326428
 11
130.6108480048
 21
110.5763316142
  0
LINE
  5
4DF
100
AcDbEntity
  8
SUPERFICI
100
AcDbLine
 62
7
  6
CONTINUOUS
 10
130.6108480048
 20
75.5888906455
 11
130.6108480048
 21
78.5333916742
  0
LINE
  5
4E0
100
AcDbEntity
  8
SUPERFICI
100
AcDbLine
 62
253
  6
CONTINUOUS
 10
131.180543237
 20
118.969313676
 11
131.180543237
 21
119.4437150513
  0
LINE
  5
4E1
100
AcDbEntity
  8
SUPERFICI
100
AcDbLine
 62
253
  6
CONTINUOUS
 10
131.180543237
 20
119.7998909178
 11
131.180543237
 21
120.3530616409
  0
LINE
  5
4E2
100
AcDbEntity
  8
SUPERFICI
100
AcDbLine
 62
7
  6
CONTINUOUS
 10
131.3113780882
 20
119.1269558686
 11
131.3113780882
 21
120.3748255432
  0
LINE
  5
4E3
100
AcDbEntity
  8
SUPERFICI
100
AcDbLine
 62
7
  6
CONTINUOUS
 10
131.3117839586
 20
113.8724330587
 11
131.3117839586
 21
110.9405281077
  0
LINE
  5
4E4
100
AcDbEntity
  8
SUPERFICI
100
AcDbLine
 62
7
  6
CONTINUOUS
 10
131.3117839586
 20
78.8824727892
 11
131.3117839586
 21
75.9505678382
  0
LINE
  5
4E5
100
AcDbEntity
  8
SUPERFICI
100
AcDbLine
 62
253
  6
CONTINUOUS
 10
130.5042062524
 20
74.2661790375
 11
130.5042062352
 21
74.2661326025
  0
LINE
  5
4E6
100
AcDbEntity
  8
SUPERFICI
100
AcDbLine
 62
253
  6
CONTINUOUS
 10
130.5042062524
 20
116.2608462104
 11
130.5042062139
 21
116.2607768282
  0
LWPOLYLINE
  5
4E7
100
AcDbEntity
  8
SUPERFICI
100
AcDbPolyline
 62
7
  6
CONTINUOUS
 90
23
 70
0
 10
130.6108480048
 20
75.589103493
 10
130.6107631026
 20
75.5719110203
 10
130.6100560172
 20
75.5550112998
 10
130.6087293715
 20
75.5384321904
 10
130.6067794254
 20
75.5222005219
 10
130.6042180393
 20
75.5063433045
 10
130.6010717325
 20
75.4908883936
 10
130.5973499448
 20
75.4758626574
 10
130.5930547491
 20
75.4612907259
 10
130.588201618
 20
75.4471971989
 10
130.5827965664
 20
75.433599695
 10
130.5768489288
 20
75.4205293686
 10
130.5703820836
 20
75.4080281212
 10
130.5634154193
 20
75.3961262859
 10
130.5559554372
 20
75.3848305872
 10
130.5480075777
 20
75.3741460464
 10
130.539576747
 20
75.3640827136
 10
130.5306831668
 20
75.3546686814
 10
130.5213565086
 20
75.3459339797
 10
130.5116237001
 20
75.3378993006
 10
130.501492495
 20
75.3305669209
 10
130.4909648046
 20
75.3239377972
 10
130.4821389243
 20
75.3190824935
  0
LWPOLYLINE
  5
4E8
100
AcDbEntity
  8
SUPERFICI
100
AcDbPolyline
 62
253
  6
CONTINUOUS
 90
18
 70
0
 10
130.4320083954
 20
74.1783063877
 10
130.4318556135
 20
74.1681277437
 10
130.4313003042
 20
74.1581712564
 10
130.4303437241
 20
74.1484594865
 10
130.4289880383
 20
74.1390144352
 10
130.4272363175
 20
74.1298575104
 10
130.4250925333
 20
74.1210094768
 10
130.4225615452
 20
74.1124903864
 10
130.4196490875
 20
74.1043195376
 10
130.4163617612
 20
74.0965154464
 10
130.412707015
 20
74.0890957938
 10
130.4086931314
 20
74.0820773921
 10
130.4043292095
 20
74.0754761479
 10
130.3996251396
 20
74.0693070177
 10
130.3945915813
 20
74.0635839766
 10
130.389239943
 20
74.0583199918
 10
130.3835823494
 20
74.0535269855
 10
130.3776316237
 20
74.0492158182
  0
LWPOLYLINE
  5
4E9
100
AcDbEntity
  8
SUPERFICI
100
AcDbPolyline
 62
7
  6
CONTINUOUS
 90
20
 70
0
 10
129.9037412237
 20
73.907295329
 10
129.9035408448
 20
73.8970937378
 10
129.9029406758
 20
73.887115573
 10
129.9019419722
 20
73.8773833857
 10
129.9005468138
 20
73.8679191295
 10
129.8987583529
 20
73.8587442416
 10
129.896580807
 20
73.8498795943
 10
129.8940190484
 20
73.841345239
 10
129.8910787876
 20
73.8331604631
 10
129.8877668133
 20
73.8253438773
 10
129.8840905893
 20
73.8179131701
 10
129.8800583704
 20
73.8108851384
 10
129.8756793786
 20
73.8042757518
 10
129.8709635175
 20
73.798099975
 10
129.8659214178
 20
73.7923717727
 10
129.8605645474
 20
73.787104147
 10
129.854905048
 20
73.7823090343
 10
129.8489557101
 20
73.7779972822
 10
129.8427300134
 20
73.77417866
 10
129.8396361206
 20
73.7725175562
  0
LINE
  5
4EA
100
AcDbEntity
  8
SUPERFICI
100
AcDbLine
 62
253
  6
CONTINUOUS
 10
130.5042062524
 20
115.9133146685
 11
130.5041518295
 21
115.9107065885
  0
LWPOLYLINE
  5
4EB
100
AcDbEntity
  8
SUPERFICI
100
AcDbPolyline
 62
253
  6
CONTINUOUS
 90
18
 70
0
 10
130.5042062352
 20
74.2661326025
 10
130.5041526909
 20
74.2635916517
 10
130.5036262634
 20
74.2576693476
 10
130.5025388511
 20
74.2517661748
 10
130.5008928965
 20
74.245895408
 10
130.4986920992
 20
74.2400702536
 10
130.4959414064
 20
74.2343038127
 10
130.4926470025
 20
74.2286090562
 10
130.4888162981
 20
74.2229987973
 10
130.4844579085
 20
74.2174856556
 10
130.4795816348
 20
74.2120820306
 10
130.4741984454
 20
74.2068000778
 10
130.4683204442
 20
74.2016516751
 10
130.4619608541
 20
74.1966484052
 10
130.4551339912
 20
74.1918015304
 10
130.4478552172
 20
74.1871219543
 10
130.440140901
 20
74.1826201986
 10
130.4320083954
 20
74.1783063877
  0
LWPOLYLINE
  5
4EC
100
AcDbEntity
  8
SUPERFICI
100
AcDbPolyline
 62
253
  6
CONTINUOUS
 90
18
 70
0
 10
130.5042062139
 20
116.2607768282
 10
130.5041526909
 20
116.2582588246
 10
130.5036262634
 20
116.2523365205
 10
130.5025388511
 20
116.2464333477
 10
130.5008928965
 20
116.2405625809
 10
130.4986920992
 20
116.2347374265
 10
130.4959414064
 20
116.2289709856
 10
130.4926470025
 20
116.2232762291
 10
130.4888162981
 20
116.2176659702
 10
130.4844579085
 20
116.2121528285
 10
130.4795816348
 20
116.2067492034
 10
130.4741984454
 20
116.2014672507
 10
130.4683204442
 20
116.196318848
 10
130.4619608541
 20
116.1913155781
 10
130.4551339912
 20
116.1864687032
 10
130.4478552172
 20
116.1817891272
 10
130.440140901
 20
116.1772873714
 10
130.4320083954
 20
116.1729735605
  0
LWPOLYLINE
  5
4ED
100
AcDbEntity
  8
SUPERFICI
100
AcDbPolyline
 62
253
  6
CONTINUOUS
 90
18
 70
0
 10
130.5042059716
 20
74.6135231724
 10
130.504152238
 20
74.611112254
 10
130.5036248627
 20
74.6051906062
 10
130.5025366274
 20
74.5992881161
 10
130.5008899791
 20
74.5934180566
 10
130.4986886204
 20
74.5875936275
 10
130.4959375015
 20
74.5818279269
 10
130.4926428085
 20
74.5761339191
 10
130.488811948
 20
74.5705244058
 10
130.4844535293
 20
74.5650119959
 10
130.4795773555
 20
74.5596090905
 10
130.4741944041
 20
74.5543278516
 10
130.4683167907
 20
74.5491801612
 10
130.4619577276
 20
74.5441775866
 10
130.455131504
 20
74.5393313673
 10
130.447853465
 20
74.5346523981
 10
130.4401399805
 20
74.5301512033
 10
130.4320083954
 20
74.5258379044
  0
LWPOLYLINE
  5
4EE
100
AcDbEntity
  8
SUPERFICI
100
AcDbPolyline
 62
253
  6
CONTINUOUS
 90
20
 70
0
 10
128.3024604328
 20
73.1272607294
 10
128.3022121029
 20
73.1170343114
 10
128.3015661226
 20
73.1070324886
 10
128.3005239539
 20
73.0972779244
 10
128.2990879558
 20
73.0877927169
 10
128.2972613811
 20
73.0785983652
 10
128.2950483712
 20
73.0697157187
 10
128.2924539423
 20
73.0611649079
 10
128.2894839726
 20
73.0529653031
 10
128.2861451932
 20
73.0451354853
 10
128.2824451695
 20
73.0376931941
 10
128.2783922867
 20
73.0306552928
 10
128.2739957321
 20
73.0240377322
 10
128.26926547
 20
73.0178555059
 10
128.2642122193
 20
73.0121226186
 10
128.258847433
 20
73.0068520597
 10
128.2531832654
 20
73.0020557666
 10
128.2472325549
 20
72.9977446068
 10
128.2410087977
 20
72.9939283525
 10
128.2363629801
 20
72.9914902593
  0
LINE
  5
4EF
100
AcDbEntity
  8
SUPERFICI
100
AcDbLine
 62
7
  6
CONTINUOUS
 10
130.502878792
 20
115.8875859363
 11
130.5042062509
 21
115.9133284805
  0
LWPOLYLINE
  5
4F0
100
AcDbEntity
  8
SUPERFICI
100
AcDbPolyline
 62
253
  6
CONTINUOUS
 90
17
 70
0
 10
130.5041518295
 20
115.9107065885
 10
130.5036234765
 20
115.9047846066
 10
130.5025342045
 20
115.8988818295
 10
130.5008864664
 20
115.8930115235
 10
130.4986839662
 20
115.8871868774
 10
130.4959316346
 20
115.8814209477
 10
130.4926356756
 20
115.8757267453
 10
130.4888035842
 20
115.8701171879
 10
130.4844440722
 20
115.8646049584
 10
130.4795669265
 20
115.8592023701
 10
130.4741830312
 20
115.8539214592
 10
130.4683039962
 20
115.8487736888
 10
130.4619434593
 20
115.8437710694
 10
130.4551172996
 20
115.8389259149
 10
130.4478417272
 20
115.8342493503
 10
130.4401328936
 20
115.8297514004
 10
130.4320083954
 20
115.8254420438
  0
LWPOLYLINE
  5
4F1
100
AcDbEntity
  8
0
100
AcDbPolyline
 62
253
  6
CONTINUOUS
 90
3
 70
0
 10
119.6415899585
 20
90.7852773762
 10
119.6136467579
 20
90.7444306093
 10
119.5826040625
 20
90.7081477814
  0
LINE
  5
4F2
100
AcDbEntity
  8
0
100
AcDbLine
 62
253
  6
CONTINUOUS
 10
115.62218638
 20
83.0989606693
 11
115.6143849591
 21
83.0880574852
  0
LINE
  5
4F3
100
AcDbEntity
  8
0
100
AcDbLine
 62
253
  6
CONTINUOUS
 10
114.098258911
 20
100.3123095045
 11
114.1007580395
 21
100.3134759106
  0
LWPOLYLINE
  5
4F4
100
AcDbEntity
  8
0
100
AcDbPolyline
 62
253
  6
CONTINUOUS
 90
8
 70
0
 10
114.0521362811
 20
99.8119961167
 10
114.0731837042
 20
99.8217352049
 10
114.1044017933
 20
99.8310001192
 10
114.1376475999
 20
99.8352375946
 10
114.1725570163
 20
99.8344012225
 10
114.2087477156
 20
99.8285001628
 10
114.2458233385
 20
99.8175990439
 10
114.2833778342
 20
99.8018172546
  0
LINE
  5
4F5
100
AcDbEntity
  8
0
100
AcDbLine
 62
253
  6
CONTINUOUS
 10
113.8538580354
 20
99.8205419136
 11
114.0009502851
 21
99.888473989
  0
LWPOLYLINE
  5
4F6
100
AcDbEntity
  8
0
100
AcDbPolyline
 62
7
  6
CONTINUOUS
 90
6
 70
0
 10
114.0983001187
 20
100.3123276091
 10
114.1400020269
 20
100.3281659608
 10
114.1864840847
 20
100.3378441185
 10
114.2354658909
 20
100.3405402537
 10
114.2865557376
 20
100.3363399489
 10
114.3393298379
 20
100.3253970371
  0
LWPOLYLINE
  5
4F7
100
AcDbEntity
  8
0
100
AcDbPolyline
 62
253
  6
CONTINUOUS
 90
4
 70
0
 10
119.5722804628
 20
90.8053029336
 10
119.5572584708
 20
90.8012486668
 10
119.5151166541
 20
90.7950140993
 10
119.4714137845
 20
90.7934692559
  0
LWPOLYLINE
  5
4F8
100
AcDbEntity
  8
SUPERFICI
100
AcDbPolyline
 62
253
  6
CONTINUOUS
 90
16
 70
0
 10
118.1283504028
 20
121.9772710401
 10
118.1323231165
 20
121.970576165
 10
118.1358855751
 20
121.9640947231
 10
118.1390297384
 20
121.9578413427
 10
118.1417485101
 20
121.9518301374
 10
118.1440357541
 20
121.946074674
 10
118.1458863083
 20
121.9405879423
 10
118.147295996
 20
121.9353823255
 10
118.1482616357
 20
121.9304695724
 10
118.148781048
 20
121.9258607708
 10
118.1488530607
 20
121.9215663225
 10
118.148477511
 20
121.9175959198
 10
118.1476552468
 20
121.9139585236
 10
118.1463881237
 20
121.9106623434
 10
118.1446790017
 20
121.9077148185
 10
118.1437109751
 20
121.9064358735
  0
LWPOLYLINE
  5
4F9
100
AcDbEntity
  8
SUPERFICI
100
AcDbPolyline
 62
7
  6
CONTINUOUS
 90
5
 70
0
 10
131.3113780184
 20
120.3752542509
 10
131.3111411037
 20
120.377465592
 10
131.3101883936
 20
120.3798634088
 10
131.3085403819
 20
120.381792653
 10
131.3063600155
 20
120.3832245968
  0
LINE
  5
4FA
100
AcDbEntity
  8
SUPERFICI
100
AcDbLine
 62
7
  6
CONTINUOUS
 10
132.0127199124
 20
111.3047246012
 11
132.0127199124
 21
110.9842019334
  0
LINE
  5
4FB
100
AcDbEntity
  8
SUPERFICI
100
AcDbLine
 62
7
  6
CONTINUOUS
 10
132.0127199124
 20
79.5078259717
 11
132.0127199124
 21
79.2315539043
  0
LINE
  5
4FC
100
AcDbEntity
  8
SUPERFICI
100
AcDbLine
 62
7
  6
CONTINUOUS
 10
132.0497467568
 20
110.9656885113
 11
132.0497467568
 21
79.5335631499
  0
LWPOLYLINE
  5
4FD
100
AcDbEntity
  8
ASSI
100
AcDbPolyline
 62
253
  6
CONTINUOUS
 90
13
 70
0
 10
118.9172919835
 20
83.6059577202
 10
118.9036285306
 20
83.5863082246
 10
118.8908196816
 20
83.56578296
 10
118.8789495364
 20
83.5445078427
 10
118.8680993686
 20
83.5226198799
 10
118.8583388048
 20
83.500250032
 10
118.8497281321
 20
83.4775214323
 10
118.842321126
 20
83.4545488113
 10
118.8361842456
 20
83.4315064702
 10
118.8313770684
 20
83.4086098484
 10
118.8279295226
 20
83.3860272879
 10
118.8258545795
 20
83.3638796116
 10
118.8251617423
 20
83.3423067712
  0
LINE
  5
4FE
100
AcDbEntity
  8
DRAFT
100
AcDbLine
 62
253
  6
CONTINUOUS
 10
118.9172919835
 20
83.6059577202
 11
118.9904740712
 21
83.7057328928
  0
LWPOLYLINE
  5
4FF
100
AcDbEntity
  8
0
100
AcDbPolyline
 62
253
  6
CONTINUOUS
 90
13
 70
0
 10
119.5826040625
 20
90.7081477814
 10
119.5484089844
 20
90.6765065911
 10
119.5111126686
 20
90.6494284531
 10
119.471340798
 20
90.6273578888
 10
119.4290572601
 20
90.6103784961
 10
119.3842964285
 20
90.5984057913
 10
119.33778953
 20
90.5916320781
 10
119.2894673423
 20
90.5901561977
 10
119.2393977004
 20
90.5938786015
 10
119.1885174231
 20
90.6026940109
 10
119.1371385098
 20
90.6165671936
 10
119.0849481898
 20
90.6355329883
 10
119.0319462716
 20
90.6595912973
  0
LWPOLYLINE
  5
500
100
AcDbEntity
  8
0
100
AcDbPolyline
 62
253
  6
CONTINUOUS
 90
16
 70
0
 10
118.8623328407
 20
97.5123397513
 10
118.8278113927
 20
97.4922674465
 10
118.7935523193
 20
97.4681735654
 10
118.7598924283
 20
97.4402474841
 10
118.7271293871
 20
97.408679378
 10
118.6956406375
 20
97.3737740515
 10
118.6658608173
 20
97.3359866626
 10
118.6381199883
 20
97.2957456496
 10
118.6126513175
 20
97.2533995611
 10
118.5896997716
 20
97.2093525883
 10
118.569490607
 20
97.1640285972
 10
118.5522313909
 20
97.1178835254
 10
118.5380998385
 20
97.0713882428
 10
118.527236711
 20
97.0250075478
 10
118.5197477303
 20
96.9791949969
 10
118.5157069589
 20
96.9344035517
  0
LINE
  5
501
100
AcDbEntity
  8
0
100
AcDbLine
 62
253
  6
CONTINUOUS
 10
119.2335943138
 20
97.6994019369
 11
118.8623328407
 21
97.5123397513
  0
LINE
  5
502
100
AcDbEntity
  8
0
100
AcDbLine
 62
253
  6
CONTINUOUS
 10
119.5870938565
 20
97.0897054136
 11
119.2158323834
 21
96.902643228
  0
LWPOLYLINE
  5
503
100
AcDbEntity
  8
0
100
AcDbPolyline
 62
253
  6
CONTINUOUS
 90
6
 70
0
 10
119.672677367
 20
97.1134704002
 10
119.6720372203
 20
97.1134103463
 10
119.6486693055
 20
97.109604297
 10
119.6264795923
 20
97.104321975
 10
119.6058393479
 20
97.0976518029
 10
119.5870938565
 20
97.0897054136
  0
LINE
  5
504
100
AcDbEntity
  8
SUPERFICI
100
AcDbLine
 62
253
  6
CONTINUOUS
 10
136.5684317314
 20
118.293448008
 11
136.5684317314
 21
117.8933207477
  0
LINE
  5
505
100
AcDbEntity
  8
SUPERFICI
100
AcDbLine
 62
253
  6
CONTINUOUS
 10
136.5684317314
 20
81.2957749438
 11
136.5684317314
 21
81.134488236
  0
LINE
  5
506
100
AcDbEntity
  8
SUPERFICI
100
AcDbLine
 62
7
  6
CONTINUOUS
 10
136.7087618312
 20
118.590465495
 11
136.7087618312
 21
118.0695867446
  0
LINE
  5
507
100
AcDbEntity
  8
SUPERFICI
100
AcDbLine
 62
7
  6
CONTINUOUS
 10
136.7087618312
 20
81.3694917445
 11
136.7087618312
 21
81.1847999342
  0
LWPOLYLINE
  5
508
100
AcDbEntity
  8
DRAFT
100
AcDbPolyline
 62
7
  6
CONTINUOUS
 90
6
 70
0
 10
122.4973876358
 20
79.9082885196
 10
122.4958067236
 20
79.9056724777
 10
122.4823903637
 20
79.8892899584
 10
122.4671074544
 20
79.8756057702
 10
122.4501294415
 20
79.8647768274
 10
122.4466466551
 20
79.8630135043
  0
LWPOLYLINE
  5
509
100
AcDbEntity
  8
0
100
AcDbPolyline
 62
253
  6
CONTINUOUS
 90
10
 70
0
 10
117.1510181202
 20
82.3919886895
 10
117.1297840804
 20
82.3673062875
 10
117.1103126894
 20
82.3400932253
 10
117.0929670661
 20
82.3108570032
 10
117.0780706807
 20
82.2801428443
 10
117.0659013259
 20
82.2485235298
 10
117.0566859398
 20
82.2165887239
 10
117.0505963703
 20
82.1849339697
 10
117.0477461714
 20
82.1541495821
 10
117.0481884876
 20
82.1248096444
  0
LWPOLYLINE
  5
50A
100
AcDbEntity
  8
0
100
AcDbPolyline
 62
253
  6
CONTINUOUS
 90
4
 70
0
 10
115.4478918952
 20
85.3878167958
 10
115.4399438227
 20
85.3807992632
 10
115.4319437226
 20
85.3711957113
 10
115.4251556935
 20
85.3601428673
  0
LINE
  5
50B
100
AcDbEntity
  8
0
100
AcDbLine
 62
253
  6
CONTINUOUS
 10
114.4955626038
 20
93.0845839509
 11
114.5127920428
 21
93.0932651009
  0
LWPOLYLINE
  5
50C
100
AcDbEntity
  8
SUPERFICI
100
AcDbPolyline
 62
253
  6
CONTINUOUS
 90
37
 70
0
 10
124.9138461667
 20
100.0231103762
 10
124.8980112873
 20
100.0161430051
 10
124.8815593297
 20
100.0095233675
 10
124.8645209194
 20
100.0032637857
 10
124.8469277733
 20
99.997375912
 10
124.8288126412
 20
99.9918707067
 10
124.8102092445
 20
99.9867584178
 10
124.7911522135
 20
99.9820485619
 10
124.7716770231
 20
99.9777499063
 10
124.7518199262
 20
99.9738704531
 10
124.731617887
 20
99.9704174238
 10
124.7111085118
 20
99.9673972462
 10
124.6903299787
 20
99.9648155425
 10
124.6693209672
 20
99.9626771185
 10
124.6481205855
 20
99.9609859549
 10
124.6267682984
 20
99.9597451998
 10
124.6053038532
 20
99.9589571629
 10
124.583767206
 20
99.958623311
 10
124.5621984474
 20
99.9587442658
 10
124.5406377278
 20
99.9593198019
 10
124.5191251826
 20
99.9603488481
 10
124.4977008574
 20
99.9618294888
 10
124.4764046338
 20
99.9637589677
 10
124.4552761547
 20
99.9661336931
 10
124.434354751
 20
99.9689492445
 10
124.4136793678
 20
99.9722003807
 10
124.3932884926
 20
99.9758810497
 10
124.373220083
 20
99.9799843999
 10
124.3535114965
 20
99.9845027929
 10
124.3341994207
 20
99.9894278177
 10
124.3153198051
 20
99.9947503063
 10
124.2969077942
 20
100.000460351
 10
124.2789976621
 20
100.0065473223
 10
124.2616227485
 20
100.0129998895
 10
124.244815397
 20
100.0198060409
 10
124.2286068945
 20
100.026953107
 10
124.2130274131
 20
100.0344277835
  0
LWPOLYLINE
  5
50D
100
AcDbEntity
  8
0
100
AcDbPolyline
 62
253
  6
CONTINUOUS
 90
16
 70
0
 10
119.2158323834
 20
96.9026432273
 10
119.1762643829
 20
96.8890527089
 10
119.1341045575
 20
96.8770388391
 10
119.0894883098
 20
96.8669363624
 10
119.0423535056
 20
96.8595069651
 10
118.9928922157
 20
96.8547280457
 10
118.9419858431
 20
96.8518667178
 10
118.8905790397
 20
96.8515383118
 10
118.8389448738
 20
96.8542036282
 10
118.7874477227
 20
96.8588771486
 10
118.7368923666
 20
96.8658734982
 10
118.6878926715
 20
96.8756532264
 10
118.640670322
 20
96.8872964355
 10
118.5957618365
 20
96.9006389028
 10
118.5539275566
 20
96.9162915657
 10
118.5157069589
 20
96.9344035517
  0
LINE
  5
50E
100
AcDbEntity
  8
DRAFT
100
AcDbLine
 62
253
  6
CONTINUOUS
 10
154.4312065789
 20
93.0932856926
 11
153.693329592
 21
93.4622241861
  0
LINE
  5
50F
100
AcDbEntity
  8
DRAFT
100
AcDbLine
 62
253
  6
CONTINUOUS
 10
122.0992724988
 20
82.0149674626
 11
122.1720899636
 21
82.1142447104
  0
LWPOLYLINE
  5
510
100
AcDbEntity
  8
RACCORDO
100
AcDbPolyline
 62
253
  6
CONTINUOUS
 90
6
 70
0
 10
118.7274256781
 20
83.8364239998
 10
118.7193800631
 20
83.8293327004
 10
118.7113515132
 20
83.8197209736
 10
118.704532451
 20
83.8086602709
 10
118.6989930445
 20
83.7962390588
 10
118.6947870373
 20
83.7825528526
  0
LINE
  5
511
100
AcDbEntity
  8
0
100
AcDbLine
 62
253
  6
CONTINUOUS
 10
119.1014203146
 20
90.7816550955
 11
119.2382457231
 21
90.8554755424
  0
LINE
  5
512
100
AcDbEntity
  8
0
100
AcDbLine
 62
7
  6
CONTINUOUS
 10
119.5113283473
 20
90.75991971
 11
119.5107542459
 21
90.7596106936
  0
LWPOLYLINE
  5
513
100
AcDbEntity
  8
0
100
AcDbPolyline
 62
253
  6
CONTINUOUS
 90
16
 70
0
 10
119.2158323833
 20
91.2945915697
 10
119.1762625561
 20
91.2738131062
 10
119.1341008485
 20
91.2563052037
 10
119.0894827717
 20
91.2415632632
 10
119.0423462685
 20
91.2287760914
 10
118.9928834932
 20
91.2181744284
 10
118.9419760194
 20
91.210832679
 10
118.8905686828
 20
91.2063146046
 10
118.838934562
 20
91.2041644942
 10
118.7874379612
 20
91.2053411222
 10
118.7368836745
 20
91.2094728752
 10
118.6878855018
 20
91.2159667018
 10
118.6406648934
 20
91.225612554
 10
118.5957582273
 20
91.2383763433
 10
118.5539257941
 20
91.2532703623
 10
118.5157069589
 20
91.2697049047
  0
LINE
  5
514
100
AcDbEntity
  8
0
100
AcDbLine
 62
7
  6
CONTINUOUS
 10
158.4382259577
 20
111.6224633819
 11
150.5057889257
 21
107.5153238774
  0
LINE
  5
515
100
AcDbEntity
  8
SMUSSO
100
AcDbLine
 62
7
  6
CONTINUOUS
 10
158.4261271053
 20
111.4426827636
 11
150.4363125071
 21
107.3927488682
  0
LWPOLYLINE
  5
516
100
AcDbEntity
  8
0
100
AcDbPolyline
 62
253
  6
CONTINUOUS
 90
11
 70
0
 10
119.5107542459
 20
90.7596106936
 10
119.4964503729
 20
90.7523684357
 10
119.4584571363
 20
90.7370533601
 10
119.4184470407
 20
90.7263300917
 10
119.3766237053
 20
90.7202540651
 10
119.3332118202
 20
90.7188662638
 10
119.2884660817
 20
90.7221827288
 10
119.2426496941
 20
90.7301793962
 10
119.196027263
 20
90.7428065965
 10
119.1488612366
 20
90.7599971078
 10
119.1014203146
 20
90.7816550955
  0
LWPOLYLINE
  5
517
100
AcDbEntity
  8
0
100
AcDbPolyline
 62
253
  6
CONTINUOUS
 90
12
 70
0
 10
119.4537427116
 20
91.1939648506
 10
119.4618377353
 20
91.1979920004
 10
119.4845712534
 20
91.212141646
 10
119.5053753617
 20
91.2295541808
 10
119.5240944465
 20
91.2500974753
 10
119.5405925644
 20
91.2736216238
 10
119.5547401204
 20
91.2999485851
 10
119.5664273479
 20
91.3288784806
 10
119.5755711739
 20
91.3601993105
 10
119.5820994348
 20
91.3936758296
 10
119.5859524923
 20
91.4290502736
 10
119.5870938565
 20
91.4660524189
  0
LINE
  5
518
100
AcDbEntity
  8
0
100
AcDbLine
 62
7
  6
CONTINUOUS
 10
153.9719784899
 20
94.5940865392
 11
154.4049911918
 21
94.3775801882
  0
LINE
  5
519
100
AcDbEntity
  8
DRAFT
100
AcDbLine
 62
7
  6
CONTINUOUS
 10
155.8514011831
 20
94.5602589889
 11
154.9706766167
 21
95.0006212721
  0
LINE
  5
51A
100
AcDbEntity
  8
SUPERFICI
100
AcDbLine
 62
253
  6
CONTINUOUS
 10
110.0349157558
 20
117.9653133691
 11
124.9252298746
 21
110.5201563097
  0
LINE
  5
51B
100
AcDbEntity
  8
DRAFT
100
AcDbLine
 62
7
  6
CONTINUOUS
 10
157.3732433494
 20
95.3345779086
 11
157.2687736556
 21
95.3868127555
  0
LINE
  5
51C
100
AcDbEntity
  8
SUPERFICI
100
AcDbLine
 62
253
  6
CONTINUOUS
 10
110.6913301227
 20
119.0349975013
 11
125.5932028753
 21
111.584061125
  0
LWPOLYLINE
  5
51D
100
AcDbEntity
  8
SUPERFICI
100
AcDbPolyline
 62
7
  6
CONTINUOUS
 90
7
 70
0
 10
126.2732569355
 20
115.5163949776
 10
126.2547161093
 20
115.5366649848
 10
126.2384850504
 20
115.5588867397
 10
126.2246759114
 20
115.5829945375
 10
126.2135363956
 20
115.6087318213
 10
126.2053054465
 20
115.6357353814
 10
126.2001340285
 20
115.6637897544
  0
LWPOLYLINE
  5
51E
100
AcDbEntity
  8
SUPERFICI
100
AcDbPolyline
 62
253
  6
CONTINUOUS
 90
16
 70
0
 10
130.4320083954
 20
115.8254420438
 10
130.4359811091
 20
115.8187471686
 10
130.4395435678
 20
115.8122657268
 10
130.442687731
 20
115.8060123464
 10
130.4454065027
 20
115.800001141
 10
130.4476937468
 20
115.7942456776
 10
130.4495443009
 20
115.7887589459
 10
130.4509539887
 20
115.7835533292
 10
130.4519196284
 20
115.7786405761
 10
130.4524390407
 20
115.7740317745
 10
130.4525110533
 20
115.7697373262
 10
130.4521355037
 20
115.7657669235
 10
130.4513132395
 20
115.7621295273
 10
130.4500461164
 20
115.7588333471
 10
130.4483369943
 20
115.7558858222
 10
130.4473689678
 20
115.7546068772
  0
LINE
  5
51F
100
AcDbEntity
  8
SUPERFICI
100
AcDbLine
 62
7
  6
CONTINUOUS
 10
131.317954786
 20
112.5030171897
 11
132.0127199124
 21
111.3047246012
  0
LINE
  5
520
100
AcDbEntity
  8
RACCORDO
100
AcDbLine
 62
7
  6
CONTINUOUS
 10
131.3117839586
 20
112.5136602926
 11
131.6109110916
 21
111.9977423042
  0
LWPOLYLINE
  5
521
100
AcDbEntity
  8
SUPERFICI
100
AcDbPolyline
 62
253
  6
CONTINUOUS
 90
20
 70
0
 10
130.4320083954
 20
74.5258379044
 10
130.4359811801
 20
74.5369535162
 10
130.4395436942
 20
74.5482423705
 10
130.4426878968
 20
74.5596789882
 10
130.44540669
 20
74.57123755
 10
130.4476939394
 20
74.5828919744
 10
130.4495444852
 20
74.5946159766
 10
130.4509541502
 20
74.6063831106
 10
130.4519197476
 20
74.6181668026
 10
130.4524390953
 20
74.6299404303
 10
130.4525110218
 20
74.6416774098
 10
130.4521353663
 20
74.6533512607
 10
130.4513129769
 20
74.6649356393
 10
130.4500457097
 20
74.6764044007
 10
130.4483364252
 20
74.6877316581
 10
130.4461889816
 20
74.6988918457
 10
130.4436082259
 20
74.7098597742
 10
130.440599983
 20
74.720610689
 10
130.4371710424
 20
74.7311203262
 10
130.4333291439
 20
74.7413649636
  0
LWPOLYLINE
  5
522
100
AcDbEntity
  8
0
100
AcDbPolyline
 62
253
  6
CONTINUOUS
 90
3
 70
0
 10
117.1971647064
 20
82.431976087
 10
117.1736188198
 20
82.4136801297
 10
117.1510181202
 20
82.3919886895
  0
LWPOLYLINE
  5
523
100
AcDbEntity
  8
0
100
AcDbPolyline
 62
7
  6
CONTINUOUS
 90
6
 70
0
 10
158.4382259577
 20
111.6224633819
 10
158.5496255583
 20
111.6933736992
 10
158.6328029146
 20
111.7678896407
 10
158.6877580266
 20
111.8460112064
 10
158.7144475105
 20
111.9302240535
 10
158.717242555
 20
111.9696926808
  0
LWPOLYLINE
  5
524
100
AcDbEntity
  8
RACCORDO
100
AcDbPolyline
 62
253
  6
CONTINUOUS
 90
13
 70
0
 10
115.552526772
 20
85.2823313021
 10
115.538376544
 20
85.2740949753
 10
115.5244792941
 20
85.2636834728
 10
115.511083478
 20
85.2512829319
 10
115.4984285864
 20
85.23711505
 10
115.4867408641
 20
85.221433121
 10
115.4762292646
 20
85.2045175068
 10
115.4670817148
 20
85.1866706254
 10
115.4594617548
 20
85.1682115441
 10
115.4535056145
 20
85.1494702749
 10
115.4493197781
 20
85.1307818749
 10
115.44697908
 20
85.112480456
 10
115.4465253674
 20
85.0948932116
  0
LWPOLYLINE
  5
525
100
AcDbEntity
  8
RACCORDO
100
AcDbPolyline
 62
7
  6
CONTINUOUS
 90
13
 70
0
 10
115.4413065527
 20
85.2897179545
 10
115.4328744872
 20
85.2852305281
 10
115.4161499358
 20
85.274547918
 10
115.4007186874
 20
85.2621898387
 10
115.3865927239
 20
85.2481815983
 10
115.3739302157
 20
85.232663676
 10
115.3628872983
 20
85.2158215207
 10
115.3534975063
 20
85.197665217
 10
115.345863847
 20
85.1783014256
 10
115.3400982927
 20
85.1579319942
 10
115.3362550989
 20
85.1365979144
 10
115.3344107008
 20
85.1143429628
 10
115.3343506326
 20
85.0981848629
  0
LINE
  5
526
100
AcDbEntity
  8
0
100
AcDbLine
 62
253
  6
CONTINUOUS
 10
119.5870938565
 20
91.4660524189
 11
119.2158323834
 21
91.2945915675
  0
LINE
  5
527
100
AcDbEntity
  8
0
100
AcDbLine
 62
7
  6
CONTINUOUS
 10
119.4537427116
 20
91.1939648506
 11
119.0781425533
 21
91.0204977337
  0
LWPOLYLINE
  5
528
100
AcDbEntity
  8
0
100
AcDbPolyline
 62
253
  6
CONTINUOUS
 90
3
 70
0
 10
114.4984292038
 20
100.2587795907
 10
114.4939573259
 20
100.2575152611
 10
114.4600111413
 20
100.2425434476
  0
LINE
  5
529
100
AcDbEntity
  8
DRAFT
100
AcDbLine
 62
253
  6
CONTINUOUS
 10
154.4312065789
 20
97.4234127115
 11
153.693329592
 21
97.792351205
  0
LINE
  5
52A
100
AcDbEntity
  8
RACCORDO
100
AcDbLine
 62
7
  6
CONTINUOUS
 10
158.4259929386
 20
95.8688632858
 11
158.3294338274
 21
95.9171428414
  0
LINE
  5
52B
100
AcDbEntity
  8
SUPERFICI
100
AcDbLine
 62
7
  6
CONTINUOUS
 10
132.0497467568
 20
110.9656885113
 11
132.0127199124
 21
110.9842019334
  0
LWPOLYLINE
  5
52C
100
AcDbEntity
  8
SUPERFICI
100
AcDbPolyline
 62
7
  6
CONTINUOUS
 90
10
 70
0
 10
114.0327157065
 20
121.6232311082
 10
114.0083638074
 20
121.6371678506
 10
113.9855271314
 20
121.6539093692
 10
113.9646187318
 20
121.6732410869
 10
113.9460999054
 20
121.6947530154
 10
113.9301469815
 20
121.7182121663
 10
113.9167981022
 20
121.743672288
 10
113.906339727
 20
121.7708735782
 10
113.8990841276
 20
121.799281117
 10
113.8951873669
 20
121.8285708815
  0
LINE
  5
52D
100
AcDbEntity
  8
0
100
AcDbLine
 62
7
  6
CONTINUOUS
 10
142.4902419288
 20
125.5710903852
 11
142.4902419288
 21
125.5018913601
  0
LINE
  5
52E
100
AcDbEntity
  8
0
100
AcDbLine
 62
253
  6
CONTINUOUS
 10
117.2212166782
 20
82.4465353594
 11
117.1971647064
 21
82.431976087
  0
LWPOLYLINE
  5
52F
100
AcDbEntity
  8
RACCORDO
100
AcDbPolyline
 62
253
  6
CONTINUOUS
 90
13
 70
0
 10
116.9667403344
 20
84.5752245209
 10
116.9525897239
 20
84.5669879436
 10
116.9386921691
 20
84.5565761247
 10
116.9252961376
 20
84.5441752413
 10
116.9126411187
 20
84.5300070198
 10
116.9009533632
 20
84.5143247946
 10
116.8904418328
 20
84.4974089854
 10
116.8812944355
 20
84.4795620412
 10
116.8736746802
 20
84.4611030382
 10
116.8677187676
 20
84.4423620047
 10
116.8635331419
 20
84.4236739915
 10
116.8611925941
 20
84.4053730813
 10
116.8607389298
 20
84.3877864304
  0
LINE
  5
530
100
AcDbEntity
  8
RACCORDO
100
AcDbLine
 62
7
  6
CONTINUOUS
 10
115.5435170116
 20
85.3408285682
 11
115.4412955735
 21
85.2897178491
  0
LINE
  5
531
100
AcDbEntity
  8
RACCORDO
100
AcDbLine
 62
253
  6
CONTINUOUS
 10
115.6065191579
 20
85.309327495
 11
115.552526772
 21
85.2823313021
  0
LINE
  5
532
100
AcDbEntity
  8
RACCORDO
100
AcDbLine
 62
253
  6
CONTINUOUS
 10
117.0120234614
 20
84.5978660844
 11
116.9667403344
 21
84.5752245209
  0
LINE
  5
533
100
AcDbEntity
  8
RACCORDO
100
AcDbLine
 62
253
  6
CONTINUOUS
 10
117.1901925696
 20
84.2936675923
 11
117.145986301
 21
84.271564458
  0
LINE
  5
534
100
AcDbEntity
  8
0
100
AcDbLine
 62
253
  6
CONTINUOUS
 10
115.4029555347
 20
85.2639812127
 11
115.3879664686
 21
85.2566526993
  0
LWPOLYLINE
  5
535
100
AcDbEntity
  8
RACCORDO
100
AcDbPolyline
 62
253
  6
CONTINUOUS
 90
13
 70
0
 10
117.145986301
 20
84.271564458
 10
117.1312429317
 20
84.2645084318
 10
117.1149370067
 20
84.2584805459
 10
117.0973475247
 20
84.2535839389
 10
117.0787754467
 20
84.2499023932
 10
117.0595385461
 20
84.247498901
 10
117.0399659716
 20
84.2464145867
 10
117.0203926154
 20
84.2466680031
 10
117.0011533831
 20
84.2482548141
 10
116.9825774631
 20
84.2511478691
 10
116.9649826947
 20
84.255297667
 10
116.9486701292
 20
84.2606332037
 10
116.9339188792
 20
84.2670631866
  0
LWPOLYLINE
  5
536
100
AcDbEntity
  8
RACCORDO
100
AcDbPolyline
 62
253
  6
CONTINUOUS
 90
9
 70
0
 10
115.441335342
 20
85.2897377102
 10
115.4515792384
 20
85.2940975796
 10
115.4644693782
 20
85.2976844995
 10
115.4780492469
 20
85.2995166677
 10
115.4922142179
 20
85.2995793846
 10
115.5068574682
 20
85.297872692
 10
115.521867592
 20
85.2944096293
 10
115.5371294811
 20
85.2892160363
 10
115.552526772
 20
85.2823313021
  0
LWPOLYLINE
  5
537
100
AcDbEntity
  8
SUPERFICI
100
AcDbPolyline
 62
7
  6
CONTINUOUS
 90
4
 70
0
 10
128.0149121207
 20
114.6321329011
 10
128.0353934192
 20
114.6230161366
 10
128.0598155378
 20
114.6148572486
 10
128.0756174967
 20
114.6110175257
  0
LWPOLYLINE
  5
538
100
AcDbEntity
  8
SUPERFICI
100
AcDbPolyline
 62
253
  6
CONTINUOUS
 90
34
 70
0
 10
127.9499384732
 20
114.7673515267
 10
127.9585174651
 20
114.7632607787
 10
127.9674746622
 20
114.7593779769
 10
127.9767899237
 20
114.7557118521
 10
127.9864423035
 20
114.7522706479
 10
127.9964100974
 20
114.749062102
 10
128.0066708921
 20
114.7460934293
 10
128.0172016154
 20
114.7433713048
 10
128.0279785883
 20
114.7409018496
 10
128.0389775778
 20
114.7386906164
 10
128.050173852
 20
114.7367425773
 10
128.0615422351
 20
114.7350621126
 10
128.0730571645
 20
114.733653001
 10
128.0846927479
 20
114.732518411
 10
128.096422822
 20
114.7316608937
 10
128.1082210107
 20
114.7310823775
 10
128.1200607849
 20
114.730784163
 10
128.1319155219
 20
114.730766921
 10
128.1437585656
 20
114.7310306901
 10
128.155563286
 20
114.7315748772
 10
128.1673031391
 20
114.7323982587
 10
128.1789517271
 20
114.7334989832
 10
128.1904828573
 20
114.7348745755
 10
128.201870601
 20
114.7365219427
 10
128.213089352
 20
114.7384373804
 10
128.2241138842
 20
114.7406165816
 10
128.2349194079
 20
114.7430546462
 10
128.2454816262
 20
114.7457460922
 10
128.2557767892
 20
114.7486848674
 10
128.2657817473
 20
114.751864364
 10
128.2754740037
 20
114.7552774325
 10
128.2848317646
 20
114.7589163984
 10
128.2938339884
 20
114.7627730792
 10
128.3024604328
 20
114.7668388029
  0
LWPOLYLINE
  5
539
100
AcDbEntity
  8
SUPERFICI
100
AcDbPolyline
 62
253
  6
CONTINUOUS
 90
34
 70
0
 10
115.6462804805
 20
120.9191805231
 10
115.654860101
 20
120.9150894892
 10
115.6638179794
 20
120.911206432
 10
115.6731339706
 20
120.9075400842
 10
115.6827871123
 20
120.9040986947
 10
115.6927557063
 20
120.9008899986
 10
115.7030173708
 20
120.8979212018
 10
115.713549056
 20
120.8951989774
 10
115.7243270561
 20
120.8927294573
 10
115.7353270953
 20
120.8905182054
 10
115.7465244221
 20
120.8885701968
 10
115.7578938668
 20
120.8868898096
 10
115.7694098597
 20
120.8854808231
 10
115.7810465019
 20
120.884346406
 10
115.7927776233
 20
120.8834891094
 10
115.8045768418
 20
120.8829108613
 10
115.8164176302
 20
120.882612962
 10
115.8282733507
 20
120.8825960821
 10
115.8401173146
 20
120.8828602587
 10
115.8519228687
 20
120.8834048947
 10
115.8636634808
 20
120.8842287637
 10
115.875312773
 20
120.8853300138
 10
115.8868446323
 20
120.8867061796
 10
115.8982330372
 20
120.8883541591
 10
115.909452152
 20
120.8902702048
 10
115.9204766109
 20
120.8924499608
 10
115.9312817875
 20
120.8948885337
 10
115.9418436093
 20
120.8975804813
 10
115.9521391502
 20
120.9005199988
 10
115.9621443889
 20
120.9037002672
 10
115.971834698
 20
120.9071133471
 10
115.9811878272
 20
120.9107511333
 10
115.9901837269
 20
120.9146055501
 10
115.9988024402
 20
120.9186677992
  0
LWPOLYLINE
  5
53A
100
AcDbEntity
  8
SUPERFICI
100
AcDbPolyline
 62
253
  6
CONTINUOUS
 90
34
 70
0
 10
127.9499384732
 20
115.1073254609
 10
127.9585034049
 20
115.1032411063
 10
127.9674491882
 20
115.0993624365
 10
127.9767562172
 20
115.0956984185
 10
127.9864054022
 20
115.0922570911
 10
127.9963741893
 20
115.0890470035
 10
128.0066361808
 20
115.0860768659
 10
128.0171667423
 20
115.0833537374
 10
128.027943663
 20
115.0808832924
 10
128.0389429004
 20
115.0786710503
 10
128.0501398706
 20
115.0767219771
 10
128.0615092633
 20
115.0750404996
 10
128.0730252811
 20
115.0736304395
 10
128.0846619174
 20
115.0724949746
 10
128.0963931013
 20
115.0716366428
 10
128.1081925238
 20
115.071057369
 10
128.1200336796
 20
115.0707584588
 10
128.1318899047
 20
115.0707405893
 10
128.143734513
 20
115.071003803
 10
128.1555408585
 20
115.0715475091
 10
128.1672823921
 20
115.0723704865
 10
128.178932701
 20
115.0734708851
 10
128.1904655828
 20
115.0748462315
 10
128.2018550957
 20
115.0764934334
 10
128.2130756135
 20
115.0784087857
 10
128.2241018969
 20
115.0805879805
 10
128.234909147
 20
115.0830261173
 10
128.2454730525
 20
115.085717712
 10
128.2557698579
 20
115.0886567126
 10
128.2657763977
 20
115.0918365077
 10
128.2754701474
 20
115.0952499391
 10
128.2848292995
 20
115.0988893261
 10
128.293832811
 20
115.1027464842
 10
128.3024604328
 20
115.106812737
  0
LWPOLYLINE
  5
53B
100
AcDbEntity
  8
SUPERFICI
100
AcDbPolyline
 62
253
  6
CONTINUOUS
 90
34
 70
0
 10
115.6462804805
 20
121.2591544572
 10
115.6548606834
 20
121.2550631585
 10
115.6638192067
 20
121.2511798591
 10
115.6731359025
 20
121.2475132944
 10
115.6827898234
 20
121.24407171
 10
115.6927592511
 20
121.2408628503
 10
115.7030217438
 20
121.2378939391
 10
115.7135542127
 20
121.2351716552
 10
115.7243329731
 20
121.2327021197
 10
115.7353337776
 20
121.2304908875
 10
115.7465318842
 20
121.2285429312
 10
115.7579021039
 20
121.2268626318
 10
115.7694188535
 20
121.2254537693
 10
115.7810562268
 20
121.2243195113
 10
115.7927880506
 20
121.2234624074
 10
115.8045879338
 20
121.2228843844
 10
115.816429342
 20
121.2225867407
 10
115.8282856356
 20
121.2225701446
 10
115.8401301261
 20
121.2228346311
 10
115.8519361408
 20
121.2233796004
 10
115.8636771603
 20
121.2242038239
 10
115.8753268544
 20
121.225305453
 10
115.8868591282
 20
121.2266820266
 10
115.8982479328
 20
121.2283304417
 10
115.9094674116
 20
121.230246949
 10
115.920492194
 20
121.232427192
 10
115.9312976496
 20
121.2348662768
 10
115.9418596875
 20
121.2375587569
 10
115.9521560814
 20
121.2404990374
 10
115.9621620621
 20
121.2436801183
 10
115.9718510029
 20
121.2470933187
 10
115.9812002231
 20
121.2507301293
 10
115.9901905998
 20
121.2545825733
 10
115.9988024402
 20
121.2586417333
  0
LINE
  5
53C
100
AcDbEntity
  8
SUPERFICI
100
AcDbLine
 62
7
  6
CONTINUOUS
 10
114.6707353644
 20
120.7951471351
 11
116.3575010886
 21
119.9517642729
  0
LINE
  5
53D
100
AcDbEntity
  8
SUPERFICI
100
AcDbLine
 62
7
  6
CONTINUOUS
 10
118.5254927869
 20
118.8677684238
 11
119.1849026613
 21
118.5380634866
  0
LINE
  5
53E
100
AcDbEntity
  8
SUPERFICI
100
AcDbLine
 62
7
  6
CONTINUOUS
 10
124.1469917844
 20
116.0570189251
 11
124.8064016587
 21
115.7273139879
  0
LINE
  5
53F
100
AcDbEntity
  8
SUPERFICI
100
AcDbLine
 62
7
  6
CONTINUOUS
 10
126.974393357
 20
114.6433181387
 11
128.6611590813
 21
113.7999352766
  0
LINE
  5
540
100
AcDbEntity
  8
SUPERFICI
100
AcDbLine
 62
7
  6
CONTINUOUS
 10
131.3117839586
 20
112.5061026034
 11
131.317954786
 21
112.5030171897
  0
LINE
  5
541
100
AcDbEntity
  8
DRAFT
100
AcDbLine
 62
7
  6
CONTINUOUS
 10
157.3732433494
 20
99.6647049275
 11
157.2687736556
 21
99.7169397744
  0
LINE
  5
542
100
AcDbEntity
  8
SUPERFICI
100
AcDbLine
 62
7
  6
CONTINUOUS
 10
114.0327157065
 20
121.6232311082
 11
115.7112537769
 21
120.7839620729
  0
LINE
  5
543
100
AcDbEntity
  8
SUPERFICI
100
AcDbLine
 62
7
  6
CONTINUOUS
 10
126.3363736992
 20
115.4714021118
 11
128.0149117696
 21
114.6321330766
  0
LINE
  5
544
100
AcDbEntity
  8
SUPERFICI
100
AcDbLine
 62
253
  6
CONTINUOUS
 10
113.9677424101
 20
121.7584495583
 11
115.6462804805
 21
120.9191805231
  0
LINE
  5
545
100
AcDbEntity
  8
SUPERFICI
100
AcDbLine
 62
253
  6
CONTINUOUS
 10
126.2714004028
 20
115.6066205619
 11
127.9499384732
 21
114.7673515267
  0
LINE
  5
546
100
AcDbEntity
  8
SUPERFICI
100
AcDbLine
 62
7
  6
CONTINUOUS
 10
124.1469917844
 20
116.8095121745
 11
123.2234387748
 21
117.2712886793
  0
LINE
  5
547
100
AcDbEntity
  8
SUPERFICI
100
AcDbLine
 62
7
  6
CONTINUOUS
 10
121.5226692333
 20
118.12167345
 11
119.8981802699
 21
118.9339179317
  0
LINE
  5
548
100
AcDbEntity
  8
SUPERFICI
100
AcDbLine
 62
253
  6
CONTINUOUS
 10
127.9499384732
 20
115.1073254609
 11
126.2714004028
 21
115.9465944961
  0
LINE
  5
549
100
AcDbEntity
  8
SUPERFICI
100
AcDbLine
 62
253
  6
CONTINUOUS
 10
115.6462804805
 20
121.2591544572
 11
113.9677424101
 21
122.0984234924
  0
LINE
  5
54A
100
AcDbEntity
  8
SUPERFICI
100
AcDbLine
 62
7
  6
CONTINUOUS
 10
130.2572991016
 20
114.1306051406
 11
129.9037412237
 21
114.3073840795
  0
LINE
  5
54B
100
AcDbEntity
  8
SUPERFICI
100
AcDbLine
 62
7
  6
CONTINUOUS
 10
126.224739487
 20
116.1468849479
 11
125.8732325709
 21
116.3226384059
  0
LINE
  5
54C
100
AcDbEntity
  8
SUPERFICI
100
AcDbLine
 62
7
  6
CONTINUOUS
 10
118.5254927869
 20
119.9965082979
 11
117.600083231
 21
120.4592130759
  0
LINE
  5
54D
100
AcDbEntity
  8
SUPERFICI
100
AcDbLine
 62
7
  6
CONTINUOUS
 10
122.0195006134
 20
118.2495043846
 11
123.164860131
 21
117.6768246259
  0
LINE
  5
54E
100
AcDbEntity
  8
RACCORDO
100
AcDbLine
 62
7
  6
CONTINUOUS
 10
158.4259929386
 20
100.1989903047
 11
158.3294338274
 21
100.2472698603
  0
LINE
  5
54F
100
AcDbEntity
  8
SUPERFICI
100
AcDbLine
 62
253
  6
CONTINUOUS
 10
128.1256867291
 20
115.4117022758
 11
126.4471486587
 21
116.250971311
  0
LINE
  5
550
100
AcDbEntity
  8
SUPERFICI
100
AcDbLine
 62
253
  6
CONTINUOUS
 10
115.8220287365
 20
121.5635312721
 11
114.1434906661
 21
122.4028003073
  0
LINE
  5
551
100
AcDbEntity
  8
SUPERFICI
100
AcDbLine
 62
7
  6
CONTINUOUS
 10
118.5254927869
 20
120.3139311896
 11
119.1849026613
 21
119.9842262524
  0
LINE
  5
552
100
AcDbEntity
  8
SUPERFICI
100
AcDbLine
 62
7
  6
CONTINUOUS
 10
124.1469917844
 20
117.5031816908
 11
124.8064016587
 21
117.1734767536
  0
LINE
  5
553
100
AcDbEntity
  8
SUPERFICI
100
AcDbLine
 62
7
  6
CONTINUOUS
 10
123.164860131
 20
118.3751368975
 11
122.7161865189
 21
118.5994737035
  0
LINE
  5
554
100
AcDbEntity
  8
SUPERFICI
100
AcDbLine
 62
7
  6
CONTINUOUS
 10
130.9582350554
 20
114.4822055564
 11
129.9037412237
 21
115.0094524723
  0
LINE
  5
555
100
AcDbEntity
  8
SUPERFICI
100
AcDbLine
 62
7
  6
CONTINUOUS
 10
118.3030761853
 20
120.8097849915
 11
117.600083231
 21
121.1612814686
  0
LINE
  5
556
100
AcDbEntity
  8
SUPERFICI
100
AcDbLine
 62
7
  6
CONTINUOUS
 10
122.7154062343
 20
118.7095473539
 11
123.164860131
 21
118.4848204056
  0
LINE
  5
557
100
AcDbEntity
  8
SUPERFICI
100
AcDbLine
 62
253
  6
CONTINUOUS
 10
124.6784378494
 20
117.7774034936
 11
123.2234387748
 21
118.5049030309
  0
LINE
  5
558
100
AcDbEntity
  8
SUPERFICI
100
AcDbLine
 62
253
  6
CONTINUOUS
 10
121.5226692333
 20
119.3552878017
 11
119.8981802699
 21
120.1675322834
  0
LINE
  5
559
100
AcDbEntity
  8
SUPERFICI
100
AcDbLine
 62
253
  6
CONTINUOUS
 10
124.9872993575
 20
117.9367734939
 11
123.3640373795
 21
118.7484044829
  0
LINE
  5
55A
100
AcDbEntity
  8
SUPERFICI
100
AcDbLine
 62
253
  6
CONTINUOUS
 10
121.6632678381
 20
119.5987892537
 11
120.0400058601
 21
120.4104202426
  0
LINE
  5
55B
100
AcDbEntity
  8
SUPERFICI
100
AcDbLine
 62
253
  6
CONTINUOUS
 10
114.030889236
 20
121.6241694842
 11
114.0327157065
 21
121.6232311082
  0
LWPOLYLINE
  5
55C
100
AcDbEntity
  8
SUPERFICI
100
AcDbPolyline
 62
253
  6
CONTINUOUS
 90
16
 70
0
 10
113.9677424101
 20
121.7584495583
 10
113.9595630412
 20
121.7627378846
 10
113.9517988043
 20
121.7672155386
 10
113.9444672409
 20
121.7718724947
 10
113.9375847693
 20
121.7766984368
 10
113.9311671394
 20
121.7816824407
 10
113.9252292858
 20
121.7868129632
 10
113.9197846875
 20
121.7920783373
 10
113.9148454372
 20
121.7974668463
 10
113.9104226323
 20
121.8029663853
 10
113.9065262156
 20
121.808564598
 10
113.9031649601
 20
121.8142488873
 10
113.9003464349
 20
121.8200064553
 10
113.8980769792
 20
121.8258243481
 10
113.8963616917
 20
121.8316894898
 10
113.895204428
 20
121.8375886948
  0
LWPOLYLINE
  5
55D
100
AcDbEntity
  8
SUPERFICI
100
AcDbPolyline
 62
253
  6
CONTINUOUS
 90
16
 70
0
 10
126.2714004028
 20
115.6066205619
 10
126.2632183351
 20
115.6109103722
 10
126.2554522207
 20
115.6153893114
 10
126.248119525
 20
115.620047307
 10
126.2412367461
 20
115.6248738778
 10
126.2348193538
 20
115.6298581748
 10
126.2288817602
 20
115.6349890071
 10
126.2234373114
 20
115.6402548497
 10
126.2184982713
 20
115.6456438497
 10
126.2140757675
 20
115.6511438693
 10
126.2101797502
 20
115.6567425327
 10
126.2068189759
 20
115.662427255
 10
126.2040010028
 20
115.6681852515
 10
126.2017321686
 20
115.6740035726
 10
126.2000175754
 20
115.6798691333
 10
126.1988610792
 20
115.6857687426
  0
LWPOLYLINE
  5
55E
100
AcDbEntity
  8
SUPERFICI
100
AcDbPolyline
 62
253
  6
CONTINUOUS
 90
18
 70
0
 10
113.9677424101
 20
122.0984234924
 10
113.9595598127
 20
122.1027135938
 10
113.9517932141
 20
122.1071928555
 10
113.9444600846
 20
122.1118512034
 10
113.9375769158
 20
122.1166781638
 10
113.9311591963
 20
122.1216628777
 10
113.9252213739
 20
122.126794124
 10
113.9197768062
 20
122.1320603585
 10
113.9148377352
 20
122.1374497387
 10
113.9104152708
 20
122.1429501409
 10
113.9065193581
 20
122.1485491942
 10
113.9031587594
 20
122.1542343041
 10
113.9003410344
 20
122.1599926788
 10
113.8980725183
 20
122.1658113655
 10
113.8963583106
 20
122.1716772774
 10
113.8952022646
 20
122.177577219
 10
113.8946069772
 20
122.1834979231
 10
113.8945191454
 20
122.1867411075
  0
LWPOLYLINE
  5
55F
100
AcDbEntity
  8
SUPERFICI
100
AcDbPolyline
 62
253
  6
CONTINUOUS
 90
18
 70
0
 10
126.2714004028
 20
115.9465944961
 10
126.2632178054
 20
115.9508845975
 10
126.2554512067
 20
115.9553638592
 10
126.2481180772
 20
115.9600222071
 10
126.2412349085
 20
115.9648491675
 10
126.2348171889
 20
115.9698338814
 10
126.2288793665
 20
115.9749651277
 10
126.2234347988
 20
115.9802313622
 10
126.2184957279
 20
115.9856207424
 10
126.2140732634
 20
115.9911211446
 10
126.2101773507
 20
115.9967201979
 10
126.2068167521
 20
116.0024053078
 10
126.203999027
 20
116.0081636825
 10
126.201730511
 20
116.0139823692
 10
126.2000163033
 20
116.0198482811
 10
126.1988602573
 20
116.0257482227
 10
126.1982649699
 20
116.0316689268
 10
126.1981771381
 20
116.0349121112
  0
LWPOLYLINE
  5
560
100
AcDbEntity
  8
SUPERFICI
100
AcDbPolyline
 62
253
  6
CONTINUOUS
 90
16
 70
0
 10
123.2234387748
 20
118.5049030309
 10
123.2162701006
 20
118.508679034
 10
123.2095041898
 20
118.5126364681
 10
123.2031593816
 20
118.5167646062
 10
123.1972528742
 20
118.5210522587
 10
123.1918006775
 20
118.5254878037
 10
123.1868175701
 20
118.5300592183
 10
123.182317059
 20
118.5347541115
 10
123.1783113431
 20
118.5395597573
 10
123.1748112803
 20
118.5444631298
 10
123.1718263577
 20
118.549450938
 10
123.169364666
 20
118.5545096622
 10
123.167432878
 20
118.5596255903
 10
123.1660362298
 20
118.5647848553
 10
123.1651785071
 20
118.5699734726
 10
123.164860131
 20
118.5756137091
  0
LWPOLYLINE
  5
561
100
AcDbEntity
  8
SUPERFICI
100
AcDbPolyline
 62
7
  6
CONTINUOUS
 90
37
 70
0
 10
121.8780810521
 20
119.7058548114
 10
121.8842497641
 20
119.7026057789
 10
121.8904065489
 20
119.6990331606
 10
121.8965397866
 20
119.6951438026
 10
121.9026379864
 20
119.6909451957
 10
121.9086895445
 20
119.6864453307
 10
121.9146827657
 20
119.6816526831
 10
121.9206063142
 20
119.6765764082
 10
121.9264490065
 20
119.6712262119
 10
121.9321995678
 20
119.6656122019
 10
121.93784711
 20
119.6597450908
 10
121.9433809626
 20
119.6536360843
 10
121.9487904648
 20
119.64729675
 10
121.9540653624
 20
119.640739174
 10
121.9591956809
 20
119.6339758707
 10
121.9641715563
 20
119.6270196692
 10
121.9689835438
 20
119.6198838228
 10
121.9736225359
 20
119.6125819402
 10
121.9780796345
 20
119.6051278922
 10
121.9823463662
 20
119.5975358725
 10
121.9864146466
 20
119.5898203508
 10
121.9902766961
 20
119.581996002
 10
121.993925158
 20
119.5740777171
 10
121.9973531093
 20
119.5660805791
 10
122.0005540224
 20
119.5580198152
 10
122.0035217834
 20
119.5499107584
 10
122.006250749
 20
119.5417688469
 10
122.0087357557
 20
119.5336095988
 10
122.0109720368
 20
119.5254485269
 10
122.0129553255
 20
119.5173011597
 10
122.0146819107
 20
119.5091830406
 10
122.0161484542
 20
119.5011095959
 10
122.0173521387
 20
119.4930961792
 10
122.0182907686
 20
119.4851580921
 10
122.0189625534
 20
119.4773104422
 10
122.0193661113
 20
119.4695681137
 10
122.0195006134
 20
119.4619458123
  0
LWPOLYLINE
  5
562
100
AcDbEntity
  8
SUPERFICI
100
AcDbPolyline
 62
7
  6
CONTINUOUS
 90
34
 70
0
 10
117.4233095273
 20
122.3662532756
 10
117.4317206028
 20
122.3618023612
 10
117.4401128204
 20
122.3568711908
 10
117.4484670681
 20
122.3514708812
 10
117.4567642421
 20
122.3456135726
 10
117.4649855404
 20
122.3393125277
 10
117.4731125062
 20
122.3325821027
 10
117.4811266716
 20
122.3254375118
 10
117.489009791
 20
122.3178948925
 10
117.4967441332
 20
122.3099713955
 10
117.5043121407
 20
122.3016849494
 10
117.5116965976
 20
122.293054288
 10
117.5188808602
 20
122.2840990084
 10
117.5258486389
 20
122.2748393879
 10
117.5325840981
 20
122.2652963759
 10
117.5390720208
 20
122.2554916161
 10
117.5452977174
 20
122.2454473221
 10
117.5512470554
 20
122.235186232
 10
117.5569065548
 20
122.2247315951
 10
117.5622634251
 20
122.2141071087
 10
117.5673055248
 20
122.2033368365
 10
117.5720213859
 20
122.1924451591
 10
117.5764003778
 20
122.1814567751
 10
117.5804325967
 20
122.1703965833
 10
117.5841088206
 20
122.1592895989
 10
117.5874207949
 20
122.1481610181
 10
117.5903610558
 20
122.137036068
 10
117.5929228144
 20
122.1259398881
 10
117.5951003603
 20
122.1148976595
 10
117.5968888212
 20
122.1039344233
 10
117.5982839795
 20
122.0930749316
 10
117.5992826832
 20
122.0823437863
 10
117.5998828521
 20
122.071765384
 10
117.600083231
 20
122.0613637368
  0
LWPOLYLINE
  5
563
100
AcDbEntity
  8
SUPERFICI
100
AcDbPolyline
 62
253
  6
CONTINUOUS
 90
34
 70
0
 10
115.8220287365
 20
121.5635312721
 10
115.8303920193
 20
121.559056301
 10
115.8387386871
 20
121.5541022043
 10
115.8470498327
 20
121.5486802043
 10
115.8553066295
 20
121.5428025831
 10
115.8634903742
 20
121.5364826547
 10
115.8715825286
 20
121.5297347353
 10
115.8795647621
 20
121.5225741103
 10
115.8874189934
 20
121.5150170001
 10
115.8951274307
 20
121.5070805234
 10
115.9026726127
 20
121.4987826581
 10
115.910037448
 20
121.4901422006
 10
115.9172052534
 20
121.4811787235
 10
115.9241597923
 20
121.4719125311
 10
115.9308853112
 20
121.4623646134
 10
115.9373665752
 20
121.4525565986
 10
115.9435889027
 20
121.442510704
 10
115.949538199
 20
121.4322496859
 10
115.9552009873
 20
121.4217967877
 10
115.9605644404
 20
121.4111756876
 10
115.9656164086
 20
121.4004104447
 10
115.9703454483
 20
121.3895254448
 10
115.974740847
 20
121.3785453448
 10
115.9787926483
 20
121.3674950172
 10
115.9824916738
 20
121.3563994933
 10
115.9858295444
 20
121.345283907
 10
115.9887986992
 20
121.3341734376
 10
115.9913924123
 20
121.3230932528
 10
115.9936048083
 20
121.3120684518
 10
115.9954308758
 20
121.3011240081
 10
115.9968664782
 20
121.2902847133
 10
115.9979083636
 20
121.279575121
 10
115.9985541719
 20
121.2690194907
 10
115.9988024402
 20
121.2586417333
  0
LWPOLYLINE
  5
564
100
AcDbEntity
  8
SUPERFICI
100
AcDbPolyline
 62
253
  6
CONTINUOUS
 90
34
 70
0
 10
128.1256867291
 20
115.4117022758
 10
128.1340362646
 20
115.4072350613
 10
128.1423728461
 20
115.4022880518
 10
128.1506776018
 20
115.3968718177
 10
128.158932868
 20
115.3909971421
 10
128.1671186788
 20
115.3846774915
 10
128.1752129263
 20
115.3779296127
 10
128.183196085
 20
115.3707698968
 10
128.1910512843
 20
115.3632135886
 10
128.1987608703
 20
115.355277656
 10
128.2063074673
 20
115.3469799448
 10
128.2136738631
 20
115.3383393394
 10
128.2208432049
 20
115.3293755947
 10
128.2277991866
 20
115.3201091108
 10
128.2345261169
 20
115.3105608043
 10
128.2410087977
 20
115.3007522468
 10
128.2472325549
 20
115.2907056313
 10
128.2531832654
 20
115.2804437458
 10
128.258847433
 20
115.269989859
 10
128.2642122193
 20
115.2593676618
 10
128.26926547
 20
115.2486012163
 10
128.2739957321
 20
115.23771492
 10
128.2783922867
 20
115.2267334377
 10
128.2824451695
 20
115.2156816527
 10
128.2861451932
 20
115.2045846153
 10
128.2894839726
 20
115.1934674712
 10
128.2924539423
 20
115.1823554087
 10
128.2950483712
 20
115.1712736097
 10
128.2972613811
 20
115.1602471791
 10
128.2990879558
 20
115.1493011066
 10
128.3005239539
 20
115.1384602133
 10
128.3015661226
 20
115.127749069
 10
128.3022121029
 20
115.1171919368
 10
128.3024604328
 20
115.106812737
  0
LWPOLYLINE
  5
565
100
AcDbEntity
  8
SUPERFICI
100
AcDbPolyline
 62
7
  6
CONTINUOUS
 90
40
 70
0
 10
130.2575637389
 20
114.1304728219
 10
130.271529991
 20
114.1229591438
 10
130.28550781
 20
114.1147609482
 10
130.2994748259
 20
114.1058887607
 10
130.3134143365
 20
114.0963510118
 10
130.3272978178
 20
114.0861633334
 10
130.3410852236
 20
114.0753508369
 10
130.3547460442
 20
114.0639372291
 10
130.3682662531
 20
114.0519345869
 10
130.3816307115
 20
114.0393530467
 10
130.3948265753
 20
114.0262017434
 10
130.4078221616
 20
114.0125096361
 10
130.4205750091
 20
113.9983193544
 10
130.4330528165
 20
113.9836689489
 10
130.4452478687
 20
113.9685698345
 10
130.4571551952
 20
113.953026351
 10
130.4687648997
 20
113.9370483096
 10
130.4800464393
 20
113.9206745816
 10
130.4909648046
 20
113.9039540169
 10
130.501492495
 20
113.8869313171
 10
130.5116237001
 20
113.8696182436
 10
130.5213565086
 20
113.852015026
 10
130.5306831668
 20
113.834131143
 10
130.539576747
 20
113.8160125822
 10
130.5480075777
 20
113.797714673
 10
130.5559554372
 20
113.7792846017
 10
130.5634154193
 20
113.7607350754
 10
130.5703820836
 20
113.74207034
 10
130.5768489288
 20
113.7233037351
 10
130.5827965664
 20
113.704481576
 10
130.588201618
 20
113.6856575348
 10
130.5930547491
 20
113.6668732552
 10
130.5973499448
 20
113.6481470267
 10
130.6010717325
 20
113.6294973372
 10
130.6042180393
 20
113.6109572888
 10
130.6067794254
 20
113.5925524035
 10
130.6087293715
 20
113.5742897016
 10
130.6100560172
 20
113.5561907665
 10
130.6107631026
 20
113.5382914189
 10
130.6108480048
 20
113.5206197953
  0
LWPOLYLINE
  5
566
100
AcDbEntity
  8
SUPERFICI
100
AcDbPolyline
 62
253
  6
CONTINUOUS
 90
34
 70
0
 10
121.6632678381
 20
119.5987892537
 10
121.6699396246
 20
119.5951989255
 10
121.6765981671
 20
119.5912252144
 10
121.6832283783
 20
119.5868771224
 10
121.6898152391
 20
119.5821644974
 10
121.6963438205
 20
119.5770980183
 10
121.7027993181
 20
119.5716891737
 10
121.7091671016
 20
119.5659502225
 10
121.7154327461
 20
119.5598941661
 10
121.7215820533
 20
119.5535347287
 10
121.7276010912
 20
119.5468863191
 10
121.7334762209
 20
119.5399640031
 10
121.7391941259
 20
119.5327834723
 10
121.7447418498
 20
119.5253609996
 10
121.7501068248
 20
119.5177134022
 10
121.7552768954
 20
119.5098580098
 10
121.7602403518
 20
119.5018126163
 10
121.764985945
 20
119.4935954573
 10
121.7695029139
 20
119.4852251706
 10
121.7737810149
 20
119.4767207476
 10
121.7778105711
 20
119.4681014346
 10
121.7815824788
 20
119.4593867059
 10
121.7850882197
 20
119.4505962281
 10
121.788319814
 20
119.4417499947
 10
121.791269881
 20
119.4328682277
 10
121.79393172
 20
119.4239711647
 10
121.7962993546
 20
119.4150788507
 10
121.798367471
 20
119.4062112726
 10
121.8001316331
 20
119.3973871573
 10
121.8015874988
 20
119.3886278787
 10
121.8027313272
 20
119.3799571422
 10
121.8035608471
 20
119.3713957213
 10
121.8040747981
 20
119.3629615261
 10
121.8042724424
 20
119.3546734349
  0
LWPOLYLINE
  5
567
100
AcDbEntity
  8
SUPERFICI
100
AcDbPolyline
 62
7
  6
CONTINUOUS
 90
4
 70
0
 10
126.3364856293
 20
115.4713462401
 10
126.3162325017
 20
115.4826644818
 10
126.293895435
 20
115.4982936948
 10
126.2732569355
 20
115.5163949776
  0
LWPOLYLINE
  5
568
100
AcDbEntity
  8
SUPERFICI
100
AcDbPolyline
 62
7
  6
CONTINUOUS
 90
12
 70
0
 10
118.0623516586
 20
122.6362819868
 10
118.0852656133
 20
122.6232722207
 10
118.1069081783
 20
122.6077431108
 10
118.1269294272
 20
122.5898465292
 10
118.1449618203
 20
122.5698482293
 10
118.1607755689
 20
122.5479691941
 10
118.1742340334
 20
122.5243204965
 10
118.1851269636
 20
122.4991206869
 10
118.1932086465
 20
122.4728077977
 10
118.1983475739
 20
122.4457735261
 10
118.2004870989
 20
122.4182031537
 10
118.2005482213
 20
122.4126058245
  0
LWPOLYLINE
  5
569
100
AcDbEntity
  8
SUPERFICI
100
AcDbPolyline
 62
253
  6
CONTINUOUS
 90
3
 70
0
 10
126.3287637204
 20
115.4756599085
 10
126.3345644064
 20
115.4723314257
 10
126.3363749779
 20
115.4714014725
  0
LINE
  5
56A
100
AcDbEntity
  8
RACCORDO
100
AcDbLine
 62
7
  6
CONTINUOUS
 10
138.3430730636
 20
115.9040223069
 11
137.259877794
 21
117.7722577927
  0
LINE
  5
56B
100
AcDbEntity
  8
0
100
AcDbLine
 62
7
  6
CONTINUOUS
 10
146.0257758347
 20
130.0298322849
 11
146.0257758347
 21
131.0692210734
  0
LINE
  5
56C
100
AcDbEntity
  8
0
100
AcDbLine
 62
7
  6
CONTINUOUS
 10
146.0964865128
 20
128.9614687314
 11
146.0964865128
 21
127.297118376
  0
LINE
  5
56D
100
AcDbEntity
  8
DRAFT
100
AcDbLine
 62
7
  6
CONTINUOUS
 10
146.1700287677
 20
129.9577058184
 11
146.1700287677
 21
127.3323173171
  0
LINE
  5
56E
100
AcDbEntity
  8
0
100
AcDbLine
 62
7
  6
CONTINUOUS
 10
146.5207505815
 20
131.616635219
 11
146.5207505815
 21
131.5829229766
  0
LINE
  5
56F
100
AcDbEntity
  8
RACCORDO
100
AcDbLine
 62
7
  6
CONTINUOUS
 10
146.5207505815
 20
127.5001804926
 11
146.5207505815
 21
129.7823449115
  0
LINE
  5
570
100
AcDbEntity
  8
SMUSSO
100
AcDbLine
 62
7
  6
CONTINUOUS
 10
146.6606839354
 20
131.5129562997
 11
146.6606839354
 21
131.3731020575
  0
LWPOLYLINE
  5
571
100
AcDbEntity
  8
RACCORDO
100
AcDbPolyline
 62
253
  6
CONTINUOUS
 90
16
 70
0
 10
119.0154832865
 20
81.463953176
 10
118.9962018272
 20
81.4526054559
 10
118.9771878215
 20
81.4388230736
 10
118.9586686591
 20
81.4227708419
 10
118.9408658132
 20
81.4046407191
 10
118.9239921935
 20
81.3846495165
 10
118.9082496
 20
81.3630363061
 10
118.8938263045
 20
81.3400595557
 10
118.8808948041
 20
81.3159940443
 10
118.8696097589
 20
81.2911275802
 10
118.8601061338
 20
81.2657575434
 10
118.8524975914
 20
81.2401873407
 10
118.8468751325
 20
81.2147227853
 10
118.8433060014
 20
81.1896684194
 10
118.8418328846
 20
81.165323872
 10
118.8424734027
 20
81.1419802884
  0
LINE
  5
572
100
AcDbEntity
  8
0
100
AcDbLine
 62
253
  6
CONTINUOUS
 10
117.2970672047
 20
82.4874584586
 11
117.2212166782
 21
82.4465353594
  0
LINE
  5
573
100
AcDbEntity
  8
RACCORDO
100
AcDbLine
 62
7
  6
CONTINUOUS
 10
158.4382259577
 20
103.1354144248
 11
154.4312065789
 21
101.0607194074
  0
LINE
  5
574
100
AcDbEntity
  8
DRAFT
100
AcDbLine
 62
7
  6
CONTINUOUS
 10
118.8491835332
 20
83.7308997419
 11
118.8940395627
 21
83.7539501471
  0
LINE
  5
575
100
AcDbEntity
  8
RACCORDO
100
AcDbLine
 62
253
  6
CONTINUOUS
 10
118.8687194596
 20
81.7839100247
 11
118.808113779
 21
81.753373511
  0
LINE
  5
576
100
AcDbEntity
  8
RACCORDO
100
AcDbLine
 62
253
  6
CONTINUOUS
 10
117.2888616915
 20
82.6109513457
 11
117.1953717268
 21
82.5642063633
  0
LINE
  5
577
100
AcDbEntity
  8
RACCORDO
100
AcDbLine
 62
7
  6
CONTINUOUS
 10
117.2954639494
 20
82.5115206727
 11
117.1322955013
 21
82.4299364487
  0
LWPOLYLINE
  5
578
100
AcDbEntity
  8
RACCORDO
100
AcDbPolyline
 62
253
  6
CONTINUOUS
 90
16
 70
0
 10
118.6917452682
 20
83.7170897551
 10
118.6722541171
 20
83.7073523696
 10
118.6511110687
 20
83.698682801
 10
118.6285426704
 20
83.6911739415
 10
118.6047907564
 20
83.6849062627
 10
118.5801098088
 20
83.6799469035
 10
118.5547642251
 20
83.6763489592
 10
118.5290255549
 20
83.6741510062
 10
118.5031695943
 20
83.673376589
 10
118.4774733797
 20
83.6740339255
 10
118.4522122422
 20
83.6761158613
 10
118.4276568445
 20
83.6796002158
 10
118.4040702798
 20
83.6844499321
 10
118.3817052702
 20
83.6906131444
 10
118.360801459
 20
83.6980237348
 10
118.34158283
 20
83.7066023118
  0
LWPOLYLINE
  5
579
100
AcDbEntity
  8
DRAFT
100
AcDbPolyline
 62
7
  6
CONTINUOUS
 90
10
 70
0
 10
118.8493432067
 20
83.7309816636
 10
118.852183885
 20
83.7323940984
 10
118.8600305039
 20
83.7358715135
 10
118.8679956317
 20
83.7388076555
 10
118.8760613452
 20
83.7412194574
 10
118.8842033503
 20
83.743121956
 10
118.8925440433
 20
83.7445524852
 10
118.9011167374
 20
83.7455082753
 10
118.909867195
 20
83.7459755024
 10
118.9099895481
 20
83.7459751544
  0
LWPOLYLINE
  5
57A
100
AcDbEntity
  8
RACCORDO
100
AcDbPolyline
 62
253
  6
CONTINUOUS
 90
13
 70
0
 10
117.1953717268
 20
82.5642063633
 10
117.1806279365
 20
82.5571501639
 10
117.164321585
 20
82.5511221854
 10
117.1467317094
 20
82.5462255593
 10
117.1281592932
 20
82.5425440549
 10
117.1089221441
 20
82.5401406527
 10
117.0893494572
 20
82.5390564611
 10
117.0697761386
 20
82.5393100081
 10
117.0505370839
 20
82.5408969322
 10
117.0319614767
 20
82.5437900562
 10
117.0143671305
 20
82.5479398542
 10
116.9980550523
 20
82.5532753021
 10
116.983304305
 20
82.559705092
  0
LINE
  5
57B
100
AcDbEntity
  8
RACCORDO
100
AcDbLine
 62
253
  6
CONTINUOUS
 10
118.8352291363
 20
83.7833553603
 11
118.6917453528
 21
83.7170897942
  0
LWPOLYLINE
  5
57C
100
AcDbEntity
  8
ASSI
100
AcDbPolyline
 62
253
  6
CONTINUOUS
 90
9
 70
0
 10
118.8071468411
 20
83.6138619311
 10
118.8185378626
 20
83.6188075162
 10
118.8308528854
 20
83.622103254
 10
118.843977451
 20
83.6236959703
 10
118.8577428861
 20
83.6235571407
 10
118.872117286
 20
83.6216817172
 10
118.8869750642
 20
83.6180695091
 10
118.9020978791
 20
83.6127954515
 10
118.9172925723
 20
83.6059569917
  0
LWPOLYLINE
  5
57D
100
AcDbEntity
  8
0
100
AcDbPolyline
 62
253
  6
CONTINUOUS
 90
12
 70
0
 10
115.3879664686
 20
85.2566526993
 10
115.3608436118
 20
85.2463171067
 10
115.3316807516
 20
85.237860577
 10
115.3009658792
 20
85.2314246161
 10
115.2692129559
 20
85.2271169189
 10
115.2369533133
 20
85.2250095674
 10
115.2047267618
 20
85.2251378245
 10
115.1730725582
 20
85.2274995441
 10
115.1425203821
 20
85.2320552068
 10
115.1135814725
 20
85.2387285813
 10
115.086740073
 20
85.247408
 10
115.0624453291
 20
85.2579482275
  0
LWPOLYLINE
  5
57E
100
AcDbEntity
  8
SUPERFICI
100
AcDbPolyline
 62
253
  6
CONTINUOUS
 90
37
 70
0
 10
125.6221594565
 20
110.4505511008
 10
125.6064933154
 20
110.4460963602
 10
125.5902096293
 20
110.4419847605
 10
125.5733387179
 20
110.4382239574
 10
125.5559119944
 20
110.4348209533
 10
125.5379619065
 20
110.4317820846
 10
125.5195218769
 20
110.4291130095
 10
125.50062624
 20
110.4268186977
 10
125.481310179
 20
110.4249034211
 10
125.4616096597
 20
110.423370746
 10
125.4415613638
 20
110.4222235261
 10
125.4212026204
 20
110.4214638974
 10
125.4005713369
 20
110.4210932745
 10
125.3797059279
 20
110.4211123474
 10
125.3586452442
 20
110.4215210805
 10
125.3374284999
 20
110.4223187129
 10
125.3160952
 20
110.4235037593
 10
125.2946850662
 20
110.4250740132
 10
125.2732379635
 20
110.427026551
 10
125.2517938255
 20
110.429357737
 10
125.2303925807
 20
110.4320632306
 10
125.2090740773
 20
110.4351379943
 10
125.1878780096
 20
110.4385763031
 10
125.1668438439
 20
110.4423717548
 10
125.1460107452
 20
110.4465172826
 10
125.1254175039
 20
110.4510051675
 10
125.1051024639
 20
110.4558270534
 10
125.0851034511
 20
110.4609739619
 10
125.065457703
 20
110.4664363098
 10
125.0462017993
 20
110.4722039263
 10
125.0273715937
 20
110.4782660724
 10
125.0090021475
 20
110.4846114605
 10
124.9911276639
 20
110.4912282758
 10
124.9737814245
 20
110.498104198
 10
124.9569957275
 20
110.5052264243
 10
124.9408018273
 20
110.5125816935
 10
124.9252298763
 20
110.5201563102
  0
LINE
  5
57F
100
AcDbEntity
  8
SUPERFICI
100
AcDbLine
 62
7
  6
CONTINUOUS
 10
130.6108480048
 20
110.5763316142
 11
132.0497467568
 21
110.9656885113
  0
LINE
  5
580
100
AcDbEntity
  8
SUPERFICI
100
AcDbLine
 62
7
  6
CONTINUOUS
 10
128.0756169393
 20
114.6110176421
 11
128.6999148251
 21
114.4806636643
  0
LINE
  5
581
100
AcDbEntity
  8
SUPERFICI
100
AcDbLine
 62
253
  6
CONTINUOUS
 10
128.3024604328
 20
114.7668388029
 11
129.0136810409
 21
114.61833528
  0
LWPOLYLINE
  5
582
100
AcDbEntity
  8
SUPERFICI
100
AcDbPolyline
 62
7
  6
CONTINUOUS
 90
3
 70
0
 10
128.637026204
 20
117.3451758661
 10
128.6667173491
 20
117.3339047621
 10
128.6752899581
 20
117.3298126464
  0
LWPOLYLINE
  5
583
100
AcDbEntity
  8
SUPERFICI
100
AcDbPolyline
 62
253
  6
CONTINUOUS
 90
16
 70
0
 10
123.3640373795
 20
118.7484044829
 10
123.3572500048
 20
118.7515437354
 10
123.3504798644
 20
118.7542843657
 10
123.3437422983
 20
118.7566201625
 10
123.3370525688
 20
118.7585458325
 10
123.3304258382
 20
118.7600570095
 10
123.3238771333
 20
118.761150266
 10
123.3174212957
 20
118.7618231254
 10
123.3110729498
 20
118.7620740643
 10
123.3048464814
 20
118.7619025147
 10
123.298755997
 20
118.7613088662
 10
123.2928152978
 20
118.7602944647
 10
123.2870378486
 20
118.758861611
 10
123.2814367407
 20
118.7570135542
 10
123.2760246629
 20
118.7547544832
 10
123.2731508052
 20
118.7533477788
  0
LWPOLYLINE
  5
584
100
AcDbEntity
  8
SUPERFICI
100
AcDbPolyline
 62
7
  6
CONTINUOUS
 90
17
 70
0
 10
123.5751337371
 20
118.8573284689
 10
123.5689653397
 20
118.8602479911
 10
123.5628084897
 20
118.8628321902
 10
123.5566750026
 20
118.8650761946
 10
123.5505767322
 20
118.8669758228
 10
123.5445252901
 20
118.8685274579
 10
123.5385320235
 20
118.8697280542
 10
123.5326084109
 20
118.8705753599
 10
123.5267658185
 20
118.8710678058
 10
123.5210152214
 20
118.8712043751
 10
123.5153676227
 20
118.8709848344
 10
123.5098338522
 20
118.8704096395
 10
123.5044243244
 20
118.8694798202
 10
123.4991493789
 20
118.8681971657
 10
123.4940191232
 20
118.8665641495
 10
123.4890432329
 20
118.8645838308
 10
123.4865416248
 20
118.8634285457
  0
LWPOLYLINE
  5
585
100
AcDbEntity
  8
SUPERFICI
100
AcDbPolyline
 62
253
  6
CONTINUOUS
 90
31
 70
0
 10
121.5226692333
 20
119.3552878017
 10
121.5302212395
 20
119.3517034646
 10
121.5381361076
 20
119.3483205092
 10
121.5463923837
 20
119.3451481051
 10
121.5549676888
 20
119.3421948514
 10
121.5638387788
 20
119.339468753
 10
121.5729816081
 20
119.3369771993
 10
121.5823713944
 20
119.3347269438
 10
121.591982686
 20
119.3327240859
 10
121.601789431
 20
119.3309740545
 10
121.6117650474
 20
119.3294815931
 10
121.6218824958
 20
119.3282507473
 10
121.632114352
 20
119.3272848533
 10
121.6424328819
 20
119.3265865292
 10
121.6528101166
 20
119.3261576678
 10
121.6632179277
 20
119.3259994317
 10
121.6736281042
 20
119.3261122497
 10
121.6840124286
 20
119.3264958161
 10
121.6943427536
 20
119.3271490911
 10
121.704591078
 20
119.328070304
 10
121.7147296231
 20
119.3292569579
 10
121.7247309078
 20
119.3307058361
 10
121.7345678228
 20
119.3324130114
 10
121.7442137045
 20
119.3343738564
 10
121.7536424071
 20
119.3365830561
 10
121.7628283735
 20
119.3390346223
 10
121.7717467045
 20
119.3417219099
 10
121.7803732264
 20
119.3446376348
 10
121.7886845564
 20
119.3477738938
 10
121.796658166
 20
119.3511221857
 10
121.8042724424
 20
119.3546734349
  0
LWPOLYLINE
  5
586
100
AcDbEntity
  8
SUPERFICI
100
AcDbPolyline
 62
253
  6
CONTINUOUS
 90
16
 70
0
 10
128.6751300889
 20
117.3298927717
 10
128.6730504232
 20
117.3309007593
 10
128.6663556899
 20
117.3337338058
 10
128.6594292138
 20
117.3360553046
 10
128.6522865033
 20
117.3378600446
 10
128.6449436858
 20
117.3391439379
 10
128.6374174391
 20
117.3399040816
 10
128.6297248049
 20
117.3401387959
 10
128.6218829923
 20
117.3398475962
 10
128.6139094934
 20
117.3390311465
 10
128.6058210159
 20
117.337691042
 10
128.5976369446
 20
117.3358303807
 10
128.5893792738
 20
117.3334544858
 10
128.5810678531
 20
117.3305698152
 10
128.5727202208
 20
117.3271831968
 10
128.5643551406
 20
117.3233028749
  0
LWPOLYLINE
  5
587
100
AcDbEntity
  8
SUPERFICI
100
AcDbPolyline
 62
253
  6
CONTINUOUS
 90
16
 70
0
 10
130.3660096513
 20
116.4844529905
 10
130.3639471908
 20
116.4854528974
 10
130.3572538828
 20
116.4882869736
 10
130.3503288643
 20
116.4906096319
 10
130.3431877068
 20
116.4924156498
 10
130.3358464678
 20
116.4937009661
 10
130.3283216546
 20
116.494462691
 10
130.3206301874
 20
116.4946991114
 10
130.3127893608
 20
116.4944096958
 10
130.3048168057
 20
116.4935950951
 10
130.296730449
 20
116.4922571408
 10
130.2885484734
 20
116.4903988415
 10
130.2802892767
 20
116.4880243756
 10
130.2719714303
 20
116.4851390825
 10
130.2636136376
 20
116.4817494498
 10
130.2552346917
 20
116.4778630994
  0
LWPOLYLINE
  5
588
100
AcDbEntity
  8
SUPERFICI
100
AcDbPolyline
 62
253
  6
CONTINUOUS
 90
16
 70
0
 10
118.0623516586
 20
122.6362819868
 10
118.0602891982
 20
122.6372818938
 10
118.0535958901
 20
122.6401159699
 10
118.0466708716
 20
122.6424386282
 10
118.0395297142
 20
122.6442446461
 10
118.0321884752
 20
122.6455299625
 10
118.024663662
 20
122.6462916873
 10
118.0169721947
 20
122.6465281077
 10
118.0091313682
 20
122.6462386922
 10
118.0011588131
 20
122.6454240914
 10
117.9930724564
 20
122.6440861371
 10
117.9848904807
 20
122.6422278378
 10
117.976631284
 20
122.639853372
 10
117.9683134377
 20
122.6369680788
 10
117.959955645
 20
122.6335784461
 10
117.9515766991
 20
122.6296920957
  0
LINE
  5
589
100
AcDbEntity
  8
SUPERFICI
100
AcDbLine
 62
253
  6
CONTINUOUS
 10
116.3714721075
 20
123.4817217624
 11
116.3694096471
 21
123.4827216693
  0
LINE
  5
58A
100
AcDbEntity
  8
SUPERFICI
100
AcDbLine
 62
7
  6
CONTINUOUS
 10
119.5799822183
 20
120.8549042283
 11
121.8780810521
 21
119.7058548114
  0
LINE
  5
58B
100
AcDbEntity
  8
SUPERFICI
100
AcDbLine
 62
7
  6
CONTINUOUS
 10
123.5751337371
 20
118.8573284689
 11
125.8732325709
 21
117.708279052
  0
LINE
  5
58C
100
AcDbEntity
  8
SUPERFICI
100
AcDbLine
 62
7
  6
CONTINUOUS
 10
129.72696752
 20
116.2144242793
 11
128.0299052619
 21
117.0629554084
  0
LINE
  5
58D
100
AcDbEntity
  8
SUPERFICI
100
AcDbLine
 62
7
  6
CONTINUOUS
 10
117.4233095273
 20
122.3662532756
 11
115.7262472692
 21
123.2147844047
  0
LINE
  5
58E
100
AcDbEntity
  8
SUPERFICI
100
AcDbLine
 62
7
  6
CONTINUOUS
 10
120.9200345931
 20
120.8728895915
 11
122.5649828375
 21
120.0504154693
  0
LINE
  5
58F
100
AcDbEntity
  8
SUPERFICI
100
AcDbLine
 62
7
  6
CONTINUOUS
 10
124.2741300721
 20
119.195841852
 11
125.9190783165
 21
118.3733677298
  0
LINE
  5
590
100
AcDbEntity
  8
SUPERFICI
100
AcDbLine
 62
253
  6
CONTINUOUS
 10
116.2606971479
 20
123.4751318713
 11
117.9515766991
 21
122.6296920957
  0
LINE
  5
591
100
AcDbEntity
  8
SUPERFICI
100
AcDbLine
 62
253
  6
CONTINUOUS
 10
128.5643551406
 20
117.3233028749
 11
130.2552346917
 21
116.4778630994
  0
LINE
  5
592
100
AcDbEntity
  8
SUPERFICI
100
AcDbLine
 62
7
  6
CONTINUOUS
 10
116.3714721075
 20
123.4817217624
 11
118.0623516586
 21
122.6362819868
  0
LINE
  5
593
100
AcDbEntity
  8
SUPERFICI
100
AcDbLine
 62
7
  6
CONTINUOUS
 10
128.6751301001
 20
117.329892766
 11
130.3660096513
 21
116.4844529905
  0
LINE
  5
594
100
AcDbEntity
  8
DRAFT
100
AcDbLine
 62
7
  6
CONTINUOUS
 10
124.8709628295
 20
119.3645414766
 11
124.9641506736
 21
119.3179475545
  0
LINE
  5
595
100
AcDbEntity
  8
DRAFT
100
AcDbLine
 62
7
  6
CONTINUOUS
 10
125.1307704506
 20
119.4078427468
 11
125.1534821475
 21
119.3964868983
  0
LINE
  5
596
100
AcDbEntity
  8
0
100
AcDbLine
 62
7
  6
CONTINUOUS
 10
150.4363125071
 20
107.5500620867
 11
150.5057889257
 21
107.5153238774
  0
LINE
  5
597
100
AcDbEntity
  8
RACCORDO
100
AcDbLine
 62
7
  6
CONTINUOUS
 10
126.1913767745
 20
120.0899751501
 11
127.7850365175
 21
119.2931452786
  0
LWPOLYLINE
  5
598
100
AcDbEntity
  8
SUPERFICI
100
AcDbPolyline
 62
253
  6
CONTINUOUS
 90
34
 70
0
 10
117.9515766991
 20
122.6296920957
 10
117.9600216165
 20
122.6252725721
 10
117.9684487585
 20
122.6203708429
 10
117.9768390421
 20
122.6149973728
 10
117.9851746147
 20
122.6091628504
 10
117.993435309
 20
122.6028806415
 10
118.001598812
 20
122.5961673904
 10
118.0096454318
 20
122.589039405
 10
118.017558165
 20
122.5815118639
 10
118.0253192285
 20
122.57360167
 10
118.0329111298
 20
122.5653266109
 10
118.0403165531
 20
122.5567055194
 10
118.0475185564
 20
122.5477581053
 10
118.0545007592
 20
122.538504732
 10
118.0612474112
 20
122.5289662863
 10
118.0677432699
 20
122.5191643178
 10
118.0739736311
 20
122.5091210043
 10
118.0799243567
 20
122.4988591264
 10
118.0855819504
 20
122.4884019526
 10
118.0909335887
 20
122.4777731814
 10
118.095967147
 20
122.4669968896
 10
118.1006712168
 20
122.4560974973
 10
118.1050351387
 20
122.4450996986
 10
118.1090490223
 20
122.434028414
 10
118.1127037685
 20
122.4229087378
 10
118.1159910949
 20
122.4117658672
 10
118.1189035525
 20
122.4006250487
 10
118.1214345407
 20
122.3895115294
 10
118.1235783248
 20
122.3784504858
 10
118.1253300456
 20
122.3674669864
 10
118.1266857314
 20
122.356585937
 10
118.1276423115
 20
122.3458319984
 10
118.1281976209
 20
122.3352295307
 10
118.1283504028
 20
122.3248025569
  0
LWPOLYLINE
  5
599
100
AcDbEntity
  8
SUPERFICI
100
AcDbPolyline
 62
253
  6
CONTINUOUS
 90
34
 70
0
 10
130.2552346917
 20
116.4778630994
 10
130.2636796092
 20
116.4734435758
 10
130.2721067511
 20
116.4685418466
 10
130.2804970348
 20
116.4631683764
 10
130.2888326074
 20
116.457333854
 10
130.2970933017
 20
116.4510516452
 10
130.3052568046
 20
116.4443383941
 10
130.3133034245
 20
116.4372104087
 10
130.3212161577
 20
116.4296828676
 10
130.3289772211
 20
116.4217726736
 10
130.3365691224
 20
116.4134976146
 10
130.3439745458
 20
116.4048765231
 10
130.3511765491
 20
116.395929109
 10
130.3581587518
 20
116.3866757357
 10
130.3649054039
 20
116.37713729
 10
130.3714012625
 20
116.3673353214
 10
130.3776316237
 20
116.357292008
 10
130.3835823494
 20
116.3470301301
 10
130.389239943
 20
116.3365729563
 10
130.3945915813
 20
116.3259441851
 10
130.3996251396
 20
116.3151678933
 10
130.4043292095
 20
116.304268501
 10
130.4086931314
 20
116.2932707022
 10
130.412707015
 20
116.2821994177
 10
130.4163617612
 20
116.2710797415
 10
130.4196490875
 20
116.2599368709
 10
130.4225615452
 20
116.2487960524
 10
130.4250925333
 20
116.237682533
 10
130.4272363175
 20
116.2266214895
 10
130.4289880383
 20
116.2156379901
 10
130.4303437241
 20
116.2047569407
 10
130.4313003042
 20
116.1940030021
 10
130.4318556135
 20
116.1834005344
 10
130.4320083954
 20
116.1729735605
  0
LWPOLYLINE
  5
59A
100
AcDbEntity
  8
SUPERFICI
100
AcDbPolyline
 62
7
  6
CONTINUOUS
 90
34
 70
0
 10
129.72696752
 20
116.2144242793
 10
129.7353785954
 20
116.2099733649
 10
129.743770813
 20
116.2050421945
 10
129.7521250607
 20
116.1996418849
 10
129.7604222347
 20
116.1937845762
 10
129.7686435331
 20
116.1874835314
 10
129.7767704989
 20
116.1807531063
 10
129.7847846643
 20
116.1736085155
 10
129.7926677836
 20
116.1660658962
 10
129.8004021258
 20
116.1581423992
 10
129.8079701334
 20
116.1498559531
 10
129.8153545903
 20
116.1412252917
 10
129.8225388528
 20
116.1322700121
 10
129.8295066315
 20
116.1230103916
 10
129.8362420907
 20
116.1134673796
 10
129.8427300134
 20
116.1036626198
 10
129.8489557101
 20
116.0936183258
 10
129.854905048
 20
116.0833572357
 10
129.8605645474
 20
116.0729025988
 10
129.8659214178
 20
116.0622781124
 10
129.8709635175
 20
116.0515078401
 10
129.8756793786
 20
116.0406161628
 10
129.8800583704
 20
116.0296277788
 10
129.8840905893
 20
116.018567587
 10
129.8877668133
 20
116.0074606026
 10
129.8910787876
 20
115.9963320218
 10
129.8940190484
 20
115.9852070717
 10
129.896580807
 20
115.9741108918
 10
129.8987583529
 20
115.9630686632
 10
129.9005468138
 20
115.952105427
 10
129.9019419722
 20
115.9412459353
 10
129.9029406758
 20
115.93051479
 10
129.9035408448
 20
115.9199363877
 10
129.9037412237
 20
115.9095347405
  0
LWPOLYLINE
  5
59B
100
AcDbEntity
  8
SUPERFICI
100
AcDbPolyline
 62
7
  6
CONTINUOUS
 90
12
 70
0
 10
130.3660096513
 20
116.4844529905
 10
130.388923606
 20
116.4714432244
 10
130.410566171
 20
116.4559141145
 10
130.4305874198
 20
116.4380175329
 10
130.4486198129
 20
116.418019233
 10
130.4644335616
 20
116.3961401977
 10
130.477892026
 20
116.3724915001
 10
130.4887849562
 20
116.3472916906
 10
130.4968666392
 20
116.3209788013
 10
130.5020055665
 20
116.2939445298
 10
130.5041450916
 20
116.2663741574
 10
130.5042062139
 20
116.2607768282
  0
LWPOLYLINE
  5
59C
100
AcDbEntity
  8
0
100
AcDbPolyline
 62
7
  6
CONTINUOUS
 90
5
 70
0
 10
145.3893797316
 20
129.4739407446
 10
145.4032504378
 20
129.3227738716
 10
145.4350595779
 20
129.1938795057
 10
145.4848071518
 20
129.0872576468
 10
145.5548455002
 20
129.0011964583
  0
LINE
  5
59D
100
AcDbEntity
  8
SUPERFICI
100
AcDbLine
 62
253
  6
CONTINUOUS
 10
128.6606448529
 20
74.4445009787
 11
128.0383268208
 21
73.6994415612
  0
LINE
  5
59E
100
AcDbEntity
  8
SUPERFICI
100
AcDbLine
 62
253
  6
CONTINUOUS
 10
129.0136810409
 20
74.3187311406
 11
128.3024604328
 21
73.4672346635
  0
LINE
  5
59F
100
AcDbEntity
  8
RACCORDO
100
AcDbLine
 62
253
  6
CONTINUOUS
 10
122.5071456619
 20
79.7988904085
 11
122.4294480787
 21
79.7569707799
  0
LWPOLYLINE
  5
5A0
100
AcDbEntity
  8
RACCORDO
100
AcDbPolyline
 62
7
  6
CONTINUOUS
 90
30
 70
0
 10
158.4382259577
 20
99.4981077289
 10
158.456908813
 20
99.5080499681
 10
158.4750174244
 20
99.5182273462
 10
158.4925517917
 20
99.528639863
 10
158.5095240774
 20
99.5392955963
 10
158.525922119
 20
99.5501864683
 10
158.5417094301
 20
99.5612882462
 10
158.5568846506
 20
99.5726013996
 10
158.5714491405
 20
99.584125459
 10
158.5853704929
 20
99.5958347825
 10
158.5986472757
 20
99.6077297828
 10
158.611280921
 20
99.6198100471
 10
158.6232433181
 20
99.6320486964
 10
158.6345329724
 20
99.6444460831
 10
158.6451513785
 20
99.6570018546
 10
158.6550749099
 20
99.6696880736
 10
158.6643020191
 20
99.6825050305
 10
158.6728342536
 20
99.6954524348
 10
158.6806526286
 20
99.7085014778
 10
158.6877555545
 20
99.7216523858
 10
158.6941446209
 20
99.7349049325
 10
158.6998056117
 20
99.7482296301
 10
158.7047369056
 20
99.7616266393
 10
158.708940124
 20
99.7750957995
 10
158.7124059144
 20
99.7886071408
 10
158.7151326347
 20
99.8021607573
 10
158.7171219269
 20
99.815756555
 10
158.7183693649
 20
99.8293642824
 10
158.7188732966
 20
99.8429839661
 10
158.7188852042
 20
99.8454345931
  0
LINE
  5
5A1
100
AcDbEntity
  8
RACCORDO
100
AcDbLine
 62
7
  6
CONTINUOUS
 10
158.4382259577
 20
99.4981077289
 11
154.4312065789
 21
97.4234127115
  0
LINE
  5
5A2
100
AcDbEntity
  8
RACCORDO
100
AcDbLine
 62
7
  6
CONTINUOUS
 10
158.4382259577
 20
98.8052874058
 11
154.4312065789
 21
96.7305923885
  0
LINE
  5
5A3
100
AcDbEntity
  8
DRAFT
100
AcDbLine
 62
7
  6
CONTINUOUS
 10
157.3732433494
 20
99.6647049275
 11
153.693329592
 21
97.792351205
  0
LINE
  5
5A4
100
AcDbEntity
  8
RACCORDO
100
AcDbLine
 62
253
  6
CONTINUOUS
 10
119.0719083536
 20
81.4923832641
 11
119.0154832865
 21
81.463953176
  0
LINE
  5
5A5
100
AcDbEntity
  8
ASSI
100
AcDbLine
 62
7
  6
CONTINUOUS
 10
157.2687736556
 20
99.7169397744
 11
158.3294338274
 21
100.2472698603
  0
LWPOLYLINE
  5
5A6
100
AcDbEntity
  8
SUPERFICI
100
AcDbPolyline
 62
253
  6
CONTINUOUS
 90
37
 70
0
 10
124.9138461667
 20
83.585082187
 10
124.8980112873
 20
83.5774049418
 10
124.8815593297
 20
83.5700767515
 10
124.8645209193
 20
83.5631112575
 10
124.8469277732
 20
83.5565214261
 10
124.8288126412
 20
83.5503195242
 10
124.8102092445
 20
83.5445170968
 10
124.7911522135
 20
83.5391249451
 10
124.7716770231
 20
83.5341531066
 10
124.7518199262
 20
83.5296108365
 10
124.7316178871
 20
83.5255065901
 10
124.7111085119
 20
83.5218480075
 10
124.6903299788
 20
83.5186418993
 10
124.6693209673
 20
83.5158942336
 10
124.6481205858
 20
83.5136101251
 10
124.6267682987
 20
83.5117938259
 10
124.6053038535
 20
83.5104487168
 10
124.5837672064
 20
83.5095773019
 10
124.5621984479
 20
83.5091812033
 10
124.5406377284
 20
83.5092611584
 10
124.5191251832
 20
83.5098170182
 10
124.4977008581
 20
83.5108477481
 10
124.4764046345
 20
83.5123514293
 10
124.4552761555
 20
83.5143252628
 10
124.4343547518
 20
83.5167655742
 10
124.4136793687
 20
83.5196678209
 10
124.3932884936
 20
83.5230266003
 10
124.373220084
 20
83.5268356601
 10
124.3535114976
 20
83.5310879097
 10
124.3341994219
 20
83.5357754335
 10
124.3153198063
 20
83.5408895056
 10
124.2969077955
 20
83.5464206062
 10
124.2789976635
 20
83.5523584391
 10
124.26162275
 20
83.558691951
 10
124.2448153985
 20
83.5654093521
 10
124.228606896
 20
83.5724981378
 10
124.2130274147
 20
83.5799451124
  0
LWPOLYLINE
  5
5A7
100
AcDbEntity
  8
SUPERFICI
100
AcDbPolyline
 62
7
  6
CONTINUOUS
 90
41
 70
0
 10
116.3961844394
 20
120.632510587
 10
116.4019723381
 20
120.6313970124
 10
116.4100056264
 20
120.6301617272
 10
116.4181665653
 20
120.629255953
 10
116.4264430526
 20
120.6286663075
 10
116.4348211804
 20
120.6283933826
 10
116.4432873357
 20
120.6284369912
 10
116.451830357
 20
120.62878239
 10
116.4604370341
 20
120.6294293579
 10
116.4690944871
 20
120.6303771481
 10
116.4777925642
 20
120.6316101051
 10
116.4865188429
 20
120.6331273144
 10
116.4952612418
 20
120.6349275475
 10
116.5040106267
 20
120.6369946171
 10
116.5127554345
 20
120.639327036
 10
116.5214843963
 20
120.6419231574
 10
116.5301892949
 20
120.6447665442
 10
116.5388594447
 20
120.6478552413
 10
116.5474844006
 20
120.6511872367
 10
116.5560567392
 20
120.6547460316
 10
116.5645666469
 20
120.6585292881
 10
116.573004502
 20
120.6625346758
 10
116.5813635558
 20
120.6667457482
 10
116.5896348488
 20
120.6711598512
 10
116.5978095765
 20
120.6757743775
 10
116.6058815666
 20
120.6805729984
 10
116.6138426918
 20
120.6855527933
 10
116.6216849573
 20
120.6907109167
 10
116.6294027018
 20
120.6960311976
 10
116.6369886088
 20
120.7015104866
 10
116.6444354873
 20
120.7071457369
 10
116.6517381541
 20
120.7129209686
 10
116.6588900836
 20
120.7188328308
 10
116.6658848871
 20
120.7248781134
 10
116.6727178649
 20
120.7310410762
 10
116.679383269
 20
120.7373181914
 10
116.6858755094
 20
120.7437061222
 10
116.6921903987
 20
120.7501894361
 10
116.6983232475
 20
120.7567606406
 10
116.7042689513
 20
120.7634201294
 10
116.7100230483
 20
120.7701642763
  0
LINE
  5
5A8
100
AcDbEntity
  8
SUPERFICI
100
AcDbLine
 62
7
  6
CONTINUOUS
 10
115.7719589467
 20
120.7628466384
 11
116.3962583689
 21
120.6324923398
  0
LINE
  5
5A9
100
AcDbEntity
  8
SUPERFICI
100
AcDbLine
 62
253
  6
CONTINUOUS
 10
115.9988024402
 20
120.9186677992
 11
116.7100230483
 21
120.7701642763
  0
LWPOLYLINE
  5
5AA
100
AcDbEntity
  8
SUPERFICI
100
AcDbPolyline
 62
7
  6
CONTINUOUS
 90
10
 70
0
 10
115.7719589467
 20
120.7628466384
 10
115.7643897127
 20
120.7645500893
 10
115.7568576065
 20
120.7664929146
 10
115.7493735029
 20
120.7686740898
 10
115.7419206777
 20
120.7711013918
 10
115.7345394656
 20
120.7737642194
 10
115.7273208394
 20
120.7766261204
 10
115.7202957212
 20
120.7796651995
 10
115.7134414006
 20
120.7828815732
 10
115.7112459684
 20
120.7839659777
  0
LWPOLYLINE
  5
5AB
100
AcDbEntity
  8
SUPERFICI
100
AcDbPolyline
 62
253
  6
CONTINUOUS
 90
14
 70
0
 10
116.362716339
 20
123.4855557455
 10
116.3557913205
 20
123.4878784038
 10
116.348650163
 20
123.4896844216
 10
116.341308924
 20
123.490969738
 10
116.3337841108
 20
123.4917314629
 10
116.3260926436
 20
123.4919678833
 10
116.318251817
 20
123.4916784677
 10
116.310279262
 20
123.490863867
 10
116.3021929052
 20
123.4895259127
 10
116.2940109296
 20
123.4876676134
 10
116.2857517329
 20
123.4852931475
 10
116.2774338865
 20
123.4824078544
 10
116.2690760938
 20
123.4790182217
 10
116.2606971479
 20
123.4751318713
  0
LINE
  5
5AC
100
AcDbEntity
  8
SUPERFICI
100
AcDbLine
 62
7
  6
CONTINUOUS
 10
116.3714721075
 20
123.4817217624
 11
116.3432783953
 21
123.4937184009
  0
LWPOLYLINE
  5
5AD
100
AcDbEntity
  8
RACCORDO
100
AcDbPolyline
 62
7
  6
CONTINUOUS
 90
21
 70
0
 10
126.189777547
 20
120.0907589011
 10
126.1779480009
 20
120.0962297672
 10
126.1661843323
 20
120.1012451325
 10
126.1544990667
 20
120.1057992943
 10
126.1429055223
 20
120.1098871831
 10
126.1314153621
 20
120.1135040945
 10
126.1200385952
 20
120.116645546
 10
126.108787853
 20
120.1193079436
 10
126.0976752215
 20
120.1214880791
 10
126.0867098341
 20
120.1231825864
 10
126.0759040247
 20
120.124389415
 10
126.0652697382
 20
120.1251068263
 10
126.0548154294
 20
120.1253324951
 10
126.0445534886
 20
120.125065969
 10
126.0344951525
 20
120.1243070949
 10
126.0246470373
 20
120.1230545191
 10
126.0150203541
 20
120.1213091654
 10
126.0056267905
 20
120.1190723936
 10
125.9964734528
 20
120.1163442646
 10
125.9875730907
 20
120.1131282476
 10
125.9791515004
 20
120.1095274156
  0
LWPOLYLINE
  5
5AE
100
AcDbEntity
  8
RACCORDO
100
AcDbPolyline
 62
7
  6
CONTINUOUS
 90
80
 70
0
 10
127.1307634246
 20
120.2242493471
 10
127.1193952604
 20
120.2297749687
 10
127.1014520632
 20
120.2378806452
 10
127.0835516534
 20
120.2452747991
 10
127.0658052706
 20
120.2519820798
 10
127.0482263959
 20
120.2580654052
 10
127.0307359457
 20
120.2636086401
 10
127.0133639682
 20
120.2686496201
 10
126.9961550875
 20
120.2732196455
 10
126.9790494592
 20
120.2773728634
 10
126.962065849
 20
120.281136918
 10
126.9452260042
 20
120.2845364933
 10
126.9284745499
 20
120.2876078438
 10
126.9118118355
 20
120.2903715917
 10
126.895259531
 20
120.2928429949
 10
126.8787951781
 20
120.2950421376
 10
126.862415587
 20
120.2969837645
 10
126.8461376236
 20
120.298678947
 10
126.8299702036
 20
120.3001390014
 10
126.8139186464
 20
120.3013747518
 10
126.7979874982
 20
120.3023962567
 10
126.782185553
 20
120.3032126483
 10
126.7665173444
 20
120.3038327763
 10
126.750985936
 20
120.3042649762
 10
126.7355985699
 20
120.3045170047
 10
126.7203590077
 20
120.3045963423
 10
126.7052694992
 20
120.3045100788
 10
126.6903354193
 20
120.3042649883
 10
126.6755582323
 20
120.3038675179
 10
126.6609412198
 20
120.3033238697
 10
126.6464927266
 20
120.3026403019
 10
126.6322099466
 20
120.3018223997
 10
126.6180993161
 20
120.3008760255
 10
126.6041831185
 20
120.2998083367
 10
126.590462066
 20
120.2986251428
 10
126.5769378356
 20
120.2973321592
 10
126.5636340691
 20
120.2959373772
 10
126.5505573989
 20
120.2944474488
 10
126.5377022673
 20
120.2928675375
 10
126.525074011
 20
120.2912039391
 10
126.5126808476
 20
120.2894634025
 10
126.5005146561
 20
120.2876503285
 10
126.4885565941
 20
120.2857669834
 10
126.4768072137
 20
120.2838181951
 10
126.4652657789
 20
120.2818084995
 10
126.4539121299
 20
120.2797387001
 10
126.4427457077
 20
120.2776127004
 10
126.431766831
 20
120.2754345004
 10
126.4209573325
 20
120.2732041774
 10
126.4103155253
 20
120.2709247891
 10
126.3998429607
 20
120.268600034
 10
126.3895269718
 20
120.2662303167
 10
126.3793670652
 20
120.2638185519
 10
126.3693637089
 20
120.261367873
 10
126.3595062793
 20
120.2588785533
 10
126.3497946155
 20
120.2563533066
 10
126.3402290488
 20
120.2537949552
 10
126.3308003124
 20
120.2512036579
 10
126.3215075429
 20
120.2485816943
 10
126.312352078
 20
120.2459319623
 10
126.3033285496
 20
120.243255389
 10
126.2944370431
 20
120.2405544161
 10
126.2856782205
 20
120.2378316857
 10
126.2770481923
 20
120.2350883817
 10
126.2685470424
 20
120.2323269114
 10
126.2601758137
 20
120.2295499867
 10
126.2519325829
 20
120.2267593703
 10
126.2438174148
 20
120.2239574414
 10
126.2358318078
 20
120.2211471337
 10
126.2279766805
 20
120.2183311827
 10
126.220252924
 20
120.2155123828
 10
126.2126616893
 20
120.2126936192
 10
126.2052046971
 20
120.2098780655
 10
126.1978844939
 20
120.2070692286
 10
126.1907012131
 20
120.2042697641
 10
126.1836538052
 20
120.201481833
 10
126.1767427614
 20
120.1987082196
 10
126.1699713722
 20
120.1959528479
 10
126.1633434056
 20
120.1932199223
 10
126.1505352114
 20
120.1878395732
  0
LINE
  5
5AF
100
AcDbEntity
  8
RACCORDO
100
AcDbLine
 62
253
  6
CONTINUOUS
 10
128.34500585
 20
119.5691681926
 11
127.0437581033
 21
120.219792066
  0
LINE
  5
5B0
100
AcDbEntity
  8
RACCORDO
100
AcDbLine
 62
7
  6
CONTINUOUS
 10
128.3933075357
 20
119.5929773037
 11
127.1307326798
 21
120.2242647317
  0
LINE
  5
5B1
100
AcDbEntity
  8
SUPERFICI
100
AcDbLine
 62
7
  6
CONTINUOUS
 10
126.6968957758
 20
121.042644355
 11
128.9990543323
 21
119.8915650767
  0
LINE
  5
5B2
100
AcDbEntity
  8
SUPERFICI
100
AcDbLine
 62
7
  6
CONTINUOUS
 10
127.3420845023
 20
121.7187921088
 11
130.004912843
 21
120.3873779385
  0
LINE
  5
5B3
100
AcDbEntity
  8
SUPERFICI
100
AcDbLine
 62
253
  6
CONTINUOUS
 10
131.14772464
 20
120.3385881859
 11
130.5312528153
 21
120.6468240982
  0
LINE
  5
5B4
100
AcDbEntity
  8
SUPERFICI
100
AcDbLine
 62
253
  6
CONTINUOUS
 10
125.532677449
 20
123.1461117814
 11
124.9162056243
 21
123.4543476937
  0
LINE
  5
5B5
100
AcDbEntity
  8
SUPERFICI
100
AcDbLine
 62
7
  6
CONTINUOUS
 10
131.3063354704
 20
120.3832375124
 11
130.7913473829
 21
120.6407315562
  0
LINE
  5
5B6
100
AcDbEntity
  8
SUPERFICI
100
AcDbLine
 62
7
  6
CONTINUOUS
 10
125.7156696878
 20
123.1785704038
 11
125.2006956086
 21
123.4360574434
  0
LINE
  5
5B7
100
AcDbEntity
  8
SUPERFICI
100
AcDbLine
 62
7
  6
CONTINUOUS
 10
132.0024755168
 20
120.3576576612
 11
129.0961221699
 21
121.8108343346
  0
LINE
  5
5B8
100
AcDbEntity
  8
DRAFT
100
AcDbLine
 62
7
  6
CONTINUOUS
 10
136.7069861566
 20
118.0487036114
 11
137.259877794
 21
117.7722577927
  0
LINE
  5
5B9
100
AcDbEntity
  8
RACCORDO
100
AcDbLine
 62
7
  6
CONTINUOUS
 10
150.4363125071
 20
107.3927488682
 11
150.4363125071
 21
119.9328839637
  0
LINE
  5
5BA
100
AcDbEntity
  8
0
100
AcDbLine
 62
7
  6
CONTINUOUS
 10
150.5057889257
 20
107.5153238774
 11
150.5057889257
 21
119.9682302854
  0
LWPOLYLINE
  5
5BB
100
AcDbEntity
  8
SUPERFICI
100
AcDbPolyline
 62
7
  6
CONTINUOUS
 90
9
 70
0
 10
130.4294367532
 20
74.0878695372
 10
130.4469742499
 20
74.1069920255
 10
130.4624987373
 20
74.1279247596
 10
130.4758054885
 20
74.1504475279
 10
130.4867247447
 20
74.174335943
 10
130.4951086658
 20
74.1993506785
 10
130.500826511
 20
74.2252101917
 10
130.5037807422
 20
74.2515991001
 10
130.5042062352
 20
74.2661326025
  0
LINE
  5
5BC
100
AcDbEntity
  8
SUPERFICI
100
AcDbLine
 62
7
  6
CONTINUOUS
 10
132.0127199124
 20
79.2315539043
 11
131.317954786
 21
78.7280264422
  0
LINE
  5
5BD
100
AcDbEntity
  8
RACCORDO
100
AcDbLine
 62
7
  6
CONTINUOUS
 10
131.6109110916
 20
78.9403450221
 11
131.3117839586
 21
78.7235541666
  0
LINE
  5
5BE
100
AcDbEntity
  8
SUPERFICI
100
AcDbLine
 62
7
  6
CONTINUOUS
 10
132.0497467568
 20
79.5335631499
 11
130.6108480048
 21
78.5333916742
  0
LINE
  5
5BF
100
AcDbEntity
  8
DRAFT
100
AcDbLine
 62
7
  6
CONTINUOUS
 10
157.3732433494
 20
95.3345779086
 11
153.693329592
 21
93.4622241861
  0
LINE
  5
5C0
100
AcDbEntity
  8
0
100
AcDbLine
 62
7
  6
CONTINUOUS
 10
152.973161757
 20
94.0946781727
 11
154.4049911918
 21
94.8105928901
  0
LINE
  5
5C1
100
AcDbEntity
  8
0
100
AcDbLine
 62
7
  6
CONTINUOUS
 10
154.9706766167
 20
95.0934356026
 11
155.6777833979
 21
95.4469889932
  0
LINE
  5
5C2
100
AcDbEntity
  8
0
100
AcDbLine
 62
7
  6
CONTINUOUS
 10
154.4049911918
 20
94.3775801882
 11
154.9706766167
 21
94.6604229007
  0
LINE
  5
5C3
100
AcDbEntity
  8
ASSI
100
AcDbLine
 62
7
  6
CONTINUOUS
 10
157.2687736556
 20
95.3868127555
 11
158.3294338274
 21
95.9171428414
  0
LINE
  5
5C4
100
AcDbEntity
  8
DRAFT
100
AcDbLine
 62
7
  6
CONTINUOUS
 10
122.4466256084
 20
79.8630032695
 11
122.4987342023
 21
79.8883424822
  0
LWPOLYLINE
  5
5C5
100
AcDbEntity
  8
DRAFT
100
AcDbPolyline
 62
7
  6
CONTINUOUS
 90
8
 70
0
 10
122.4466466551
 20
79.8630135043
 10
122.4316078476
 20
79.8569039584
 10
122.4117547184
 20
79.8520584703
 10
122.3907542656
 20
79.8502722675
 10
122.3687293607
 20
79.8515651004
 10
122.3458623934
 20
79.8559592908
 10
122.3224061403
 20
79.8634400351
 10
122.2985936539
 20
79.8739596938
  0
LWPOLYLINE
  5
5C6
100
AcDbEntity
  8
SUPERFICI
100
AcDbPolyline
 62
7
  6
CONTINUOUS
 90
6
 70
0
 10
128.4820647218
 20
117.34270944
 10
128.5119288982
 20
117.3509448834
 10
128.5429304438
 20
117.3554525645
 10
128.5746252821
 20
117.3560304629
 10
128.6062741594
 20
117.352569365
 10
128.637026204
 20
117.3451758661
  0
LWPOLYLINE
  5
5C7
100
AcDbEntity
  8
SUPERFICI
100
AcDbPolyline
 62
7
  6
CONTINUOUS
 90
8
 70
0
 10
130.6839917653
 20
120.6796178796
 10
130.699400314
 20
120.6759753781
 10
130.7152507934
 20
120.6714993325
 10
130.7315303348
 20
120.6661732042
 10
130.7482314481
 20
120.6599852415
 10
130.7653297079
 20
120.6529136342
 10
130.782783016
 20
120.6449280243
 10
130.7909737043
 20
120.6409160146
  0
LWPOLYLINE
  5
5C8
100
AcDbEntity
  8
SUPERFICI
100
AcDbPolyline
 62
7
  6
CONTINUOUS
 90
6
 70
0
 10
116.3432783953
 20
123.4937184009
 10
116.3133946463
 20
123.5022731858
 10
116.2823286356
 20
123.5070859021
 10
116.2505305422
 20
123.5079478372
 10
116.2187443757
 20
123.5047426076
 10
116.1878244638
 20
123.4975693538
  0
LWPOLYLINE
  5
5C9
100
AcDbEntity
  8
SUPERFICI
100
AcDbPolyline
 62
7
  6
CONTINUOUS
 90
9
 70
0
 10
131.3063600155
 20
120.3832245968
 10
131.3032980566
 20
120.3843592504
 10
131.2997747946
 20
120.3850175349
 10
131.2956902798
 20
120.3853036713
 10
131.2910802205
 20
120.3852264433
 10
131.2859744925
 20
120.3847916634
 10
131.2803835916
 20
120.3840349497
 10
131.2743371503
 20
120.3829680255
 10
131.2678580603
 20
120.3815904217
  0
LWPOLYLINE
  5
5CA
100
AcDbEntity
  8
SUPERFICI
100
AcDbPolyline
 62
7
  6
CONTINUOUS
 90
7
 70
0
 10
125.7158887981
 20
123.1784549925
 10
125.7145154293
 20
123.179052871
 10
125.7111845126
 20
123.1799599238
 10
125.7072407944
 20
123.1804347793
 10
125.702718446
 20
123.1805243626
 10
125.6976526263
 20
123.1802492744
 10
125.6920816191
 20
123.1796035781
  0
LINE
  5
5CB
100
AcDbEntity
  8
SUPERFICI
100
AcDbLine
 62
253
  6
CONTINUOUS
 10
125.4244150007
 20
124.2738839569
 11
128.3836509401
 21
122.7942659871
  0
LINE
  5
5CC
100
AcDbEntity
  8
SUPERFICI
100
AcDbLine
 62
253
  6
CONTINUOUS
 10
132.6341405498
 20
120.6690211823
 11
135.5933764892
 21
119.1894032126
  0
LINE
  5
5CD
100
AcDbEntity
  8
SUPERFICI
100
AcDbLine
 62
7
  6
CONTINUOUS
 10
125.7134137315
 20
124.377294075
 11
128.8281480916
 21
122.8199268949
  0
LINE
  5
5CE
100
AcDbEntity
  8
SUPERFICI
100
AcDbLine
 62
7
  6
CONTINUOUS
 10
133.0758430747
 20
120.6960794034
 11
136.1905774348
 21
119.1387122233
  0
LINE
  5
5CF
100
AcDbEntity
  8
0
100
AcDbLine
 62
7
  6
CONTINUOUS
 10
154.4049911918
 20
94.8105928901
 11
154.4049911918
 21
94.3775801882
  0
LINE
  5
5D0
100
AcDbEntity
  8
0
100
AcDbLine
 62
7
  6
CONTINUOUS
 10
154.9706766167
 20
94.6604229007
 11
154.9706766167
 21
95.0934356026
  0
LINE
  5
5D1
100
AcDbEntity
  8
0
100
AcDbLine
 62
7
  6
CONTINUOUS
 10
155.6777833979
 20
95.4469889932
 11
155.6777833979
 21
97.3760264307
  0
LINE
  5
5D2
100
AcDbEntity
  8
0
100
AcDbLine
 62
7
  6
CONTINUOUS
 10
155.6777833979
 20
98.802048637
 11
155.6777833979
 21
101.7061534497
  0
LINE
  5
5D3
100
AcDbEntity
  8
RACCORDO
100
AcDbLine
 62
7
  6
CONTINUOUS
 10
137.259877794
 20
81.6589984549
 11
138.3430730636
 21
82.4440386712
  0
LWPOLYLINE
  5
5D4
100
AcDbEntity
  8
SUPERFICI
100
AcDbPolyline
 62
253
  6
CONTINUOUS
 90
37
 70
0
 10
125.6221594565
 20
73.8416516554
 10
125.6064933168
 20
73.8316248947
 10
125.5902096326
 20
73.8219516497
 10
125.5733387235
 20
73.8126499319
 10
125.5559120026
 20
73.8037370605
 10
125.5379619179
 20
73.7952296311
 10
125.5195218917
 20
73.7871434842
 10
125.5006262586
 20
73.779493676
 10
125.4813102018
 20
73.77229445
 10
125.461609687
 20
73.765559211
 10
125.4415613958
 20
73.7593004997
 10
125.4212026574
 20
73.7535299697
 10
125.4005713791
 20
73.7482583655
 10
125.3797059756
 20
73.7434955026
 10
125.3586452975
 20
73.7392502493
 10
125.3374285591
 20
73.73553051
 10
125.3160952651
 20
73.7323432109
 10
125.2946851374
 20
73.7296942866
 10
125.2732380408
 20
73.7275886692
 10
125.2517939091
 20
73.7260302793
 10
125.2303926705
 20
73.7250220187
 10
125.2090741733
 20
73.7245657646
 10
125.1878781119
 20
73.7246623666
 10
125.1668439524
 20
73.7253116448
 10
125.1460108598
 20
73.7265123902
 10
125.1254176245
 20
73.7282623672
 10
125.1051025904
 20
73.7305583174
 10
125.0851035833
 20
73.7333959657
 10
125.0654578408
 20
73.7367700286
 10
125.0462019424
 20
73.7406742236
 10
125.0273717419
 20
73.7451012814
 10
125.0090023005
 20
73.7500429589
 10
124.9911278215
 20
73.7554900548
 10
124.9737815865
 20
73.7614324268
 10
124.9569958935
 20
73.7678590106
 10
124.9408019969
 20
73.77475784
 10
124.9252300492
 20
73.7821160696
  0
LWPOLYLINE
  5
5D5
100
AcDbEntity
  8
RACCORDO
100
AcDbPolyline
 62
7
  6
CONTINUOUS
 90
4
 70
0
 10
157.9663773326
 20
92.816915116
 10
157.9806951738
 20
92.8246362957
 10
157.9948928378
 20
92.832593533
 10
158.0089655403
 20
92.840784591
  0
LWPOLYLINE
  5
5D6
100
AcDbEntity
  8
RACCORDO
100
AcDbPolyline
 62
7
  6
CONTINUOUS
 90
30
 70
0
 10
158.4382259577
 20
95.1679807099
 10
158.456908813
 20
95.1779229492
 10
158.4750174244
 20
95.1881003273
 10
158.4925517917
 20
95.1985128441
 10
158.5095240774
 20
95.2091685773
 10
158.525922119
 20
95.2200594493
 10
158.5417094301
 20
95.2311612273
 10
158.5568846506
 20
95.2424743807
 10
158.5714491405
 20
95.2539984401
 10
158.5853704929
 20
95.2657077636
 10
158.5986472757
 20
95.2776027638
 10
158.611280921
 20
95.2896830282
 10
158.6232433181
 20
95.3019216774
 10
158.6345329724
 20
95.3143190641
 10
158.6451513785
 20
95.3268748357
 10
158.6550749099
 20
95.3395610546
 10
158.6643020191
 20
95.3523780115
 10
158.6728342536
 20
95.3653254159
 10
158.6806526286
 20
95.3783744589
 10
158.6877555545
 20
95.3915253669
 10
158.6941446209
 20
95.4047779136
 10
158.6998056117
 20
95.4181026112
 10
158.7047369056
 20
95.4314996204
 10
158.708940124
 20
95.4449687806
 10
158.7124059144
 20
95.4584801219
 10
158.7151326347
 20
95.4720337384
 10
158.7171219269
 20
95.4856295361
 10
158.7183693649
 20
95.4992372635
 10
158.7188732966
 20
95.5128569472
 10
158.7188852042
 20
95.5153075742
  0
LINE
  5
5D7
100
AcDbEntity
  8
RACCORDO
100
AcDbLine
 62
253
  6
CONTINUOUS
 10
158.0111652626
 20
92.84484981
 11
138.3430730636
 21
82.4440386712
  0
LINE
  5
5D8
100
AcDbEntity
  8
RACCORDO
100
AcDbLine
 62
7
  6
CONTINUOUS
 10
157.9663773348
 20
92.8169151172
 11
138.3213809613
 21
82.4283174314
  0
LINE
  5
5D9
100
AcDbEntity
  8
RACCORDO
100
AcDbLine
 62
253
  6
CONTINUOUS
 10
132.0497467568
 20
79.9708317268
 11
158.4382259577
 21
93.8716922738
  0
LINE
  5
5DA
100
AcDbEntity
  8
RACCORDO
100
AcDbLine
 62
253
  6
CONTINUOUS
 10
131.6109110916
 20
78.9403450221
 11
158.0240735223
 21
92.8542050051
  0
LINE
  5
5DB
100
AcDbEntity
  8
DRAFT
100
AcDbLine
 62
7
  6
CONTINUOUS
 10
131.3117839586
 20
78.5344054548
 11
137.259877794
 21
81.6589984549
  0
LINE
  5
5DC
100
AcDbEntity
  8
RACCORDO
100
AcDbLine
 62
7
  6
CONTINUOUS
 10
158.4382259577
 20
95.1679807099
 11
154.4312065789
 21
93.0932856926
  0
LINE
  5
5DD
100
AcDbEntity
  8
SUPERFICI
100
AcDbLine
 62
7
  6
CONTINUOUS
 10
131.3117839586
 20
78.7249410285
 11
131.317954786
 21
78.7280264422
  0
LINE
  5
5DE
100
AcDbEntity
  8
SUPERFICI
100
AcDbLine
 62
7
  6
CONTINUOUS
 10
131.3117839586
 20
78.8824727892
 11
132.0127199124
 21
79.2315539043
  0
LWPOLYLINE
  5
5DF
100
AcDbEntity
  8
SUPERFICI
100
AcDbPolyline
 62
7
  6
CONTINUOUS
 90
11
 70
0
 10
131.2678580603
 20
120.3815904217
 10
131.260932242
 20
120.3799212169
 10
131.2535689824
 20
120.3779689812
 10
131.2457936055
 20
120.375736967
 10
131.2376049893
 20
120.3732383647
 10
131.2290137136
 20
120.3704781509
 10
131.220039419
 20
120.367462496
 10
131.2106909204
 20
120.3642070851
 10
131.2009808235
 20
120.3607205102
 10
131.190926484
 20
120.3570039116
 10
131.180543237
 20
120.3530616409
  0
LWPOLYLINE
  5
5E0
100
AcDbEntity
  8
SUPERFICI
100
AcDbPolyline
 62
7
  6
CONTINUOUS
 90
16
 70
0
 10
126.2502015401
 20
121.1728506277
 10
126.2836967214
 20
121.1678975356
 10
126.3167516031
 20
121.1623885429
 10
126.3493661854
 20
121.1563236498
 10
126.3815741419
 20
121.1496953373
 10
126.4133417989
 20
121.1425111244
 10
126.4445681353
 20
121.1347935674
 10
126.4752595464
 20
121.1265385059
 10
126.5054096368
 20
121.1177501003
 10
126.5348982003
 20
121.1084633887
 10
126.5637148466
 20
121.098679103
 10
126.5918699659
 20
121.0883965114
 10
126.6192745221
 20
121.0776484565
 10
126.6458988364
 20
121.0664458859
 10
126.6717725877
 20
121.0547778521
 10
126.6968957758
 20
121.042644355
  0
LINE
  5
5E1
100
AcDbEntity
  8
SMUSSO
100
AcDbLine
 62
7
  6
CONTINUOUS
 10
158.2556395888
 20
111.5279265219
 11
158.4261271053
 21
111.4426827636
  0
LINE
  5
5E2
100
AcDbEntity
  8
ASSI
100
AcDbLine
 62
7
  6
CONTINUOUS
 10
157.2687736556
 20
95.3868127555
 11
157.2687736556
 21
98.1997857511
  0
LINE
  5
5E3
100
AcDbEntity
  8
ASSI
100
AcDbLine
 62
7
  6
CONTINUOUS
 10
157.2687736556
 20
99.7169397744
 11
157.2687736556
 21
102.52991277
  0
LINE
  5
5E4
100
AcDbEntity
  8
ASSI
100
AcDbLine
 62
7
  6
CONTINUOUS
 10
158.3294338274
 20
95.9171428414
 11
158.3294338274
 21
98.7489586314
  0
LINE
  5
5E5
100
AcDbEntity
  8
ASSI
100
AcDbLine
 62
7
  6
CONTINUOUS
 10
158.3294338274
 20
100.2472698603
 11
158.3294338274
 21
103.0790856503
  0
LINE
  5
5E6
100
AcDbEntity
  8
RACCORDO
100
AcDbLine
 62
253
  6
CONTINUOUS
 10
158.4382259577
 20
111.4337336898
 11
158.4382259577
 21
103.1354144248
  0
LINE
  5
5E7
100
AcDbEntity
  8
RACCORDO
100
AcDbLine
 62
253
  6
CONTINUOUS
 10
158.4382259577
 20
99.4981077289
 11
158.4382259577
 21
98.8052874058
  0
LINE
  5
5E8
100
AcDbEntity
  8
RACCORDO
100
AcDbLine
 62
253
  6
CONTINUOUS
 10
158.4382259577
 20
95.1679807099
 11
158.4382259577
 21
93.8716922738
  0
LINE
  5
5E9
100
AcDbEntity
  8
0
100
AcDbLine
 62
253
  6
CONTINUOUS
 10
158.4382259577
 20
111.6224633819
 11
158.4382259577
 21
124.0038769865
  0
LWPOLYLINE
  5
5EA
100
AcDbEntity
  8
SUPERFICI
100
AcDbPolyline
 62
253
  6
CONTINUOUS
 90
28
 70
0
 10
158.7188839303
 20
124.3501536798
 10
158.7186853841
 20
124.3411901089
 10
158.7176954504
 20
124.3268163186
 10
158.7158790986
 20
124.3124627108
 10
158.7132378314
 20
124.2981411617
 10
158.7097738344
 20
124.2838635211
 10
158.7054899735
 20
124.2696416022
 10
158.7003897934
 20
124.2554871725
 10
158.6944775138
 20
124.2414119433
 10
158.6877580266
 20
124.2274275604
 10
158.6802368916
 20
124.2135455947
 10
158.6719203318
 20
124.199777532
 10
158.6628152283
 20
124.1861347642
 10
158.6529291147
 20
124.1726285793
 10
158.6422701709
 20
124.1592701524
 10
158.6308472159
 20
124.1460705363
 10
158.6186697014
 20
124.1330406523
 10
158.6057477029
 20
124.1201912815
 10
158.5920919122
 20
124.1075330555
 10
158.5777136281
 20
124.0950764478
 10
158.5626247473
 20
124.0828317648
 10
158.5468377543
 20
124.0708091381
 10
158.5303657114
 20
124.0590185151
 10
158.5132222475
 20
124.0474696514
 10
158.4954215474
 20
124.0361721026
 10
158.4769783392
 20
124.0251352163
 10
158.457907883
 20
124.0143681245
 10
158.4382259577
 20
124.0038797359
  0
LWPOLYLINE
  5
5EB
100
AcDbEntity
  8
RACCORDO
100
AcDbPolyline
 62
253
  6
CONTINUOUS
 90
4
 70
0
 10
158.0931819326
 20
92.9104656444
 10
158.0707408656
 20
92.8907560186
 10
158.0477003518
 20
92.871998926
 10
158.0240735116
 20
92.8542049994
  0
LWPOLYLINE
  5
5EC
100
AcDbEntity
  8
RACCORDO
100
AcDbPolyline
 62
7
  6
CONTINUOUS
 90
40
 70
0
 10
158.098654354
 20
92.9005767664
 10
158.1190938608
 20
92.9156785624
 10
158.1471682933
 20
92.9373900804
 10
158.1747487909
 20
92.9598688504
 10
158.2018072654
 20
92.9830969933
 10
158.2283309271
 20
93.0070684277
 10
158.2543215554
 20
93.0317910753
 10
158.2797593163
 20
93.0572534261
 10
158.3046250762
 20
93.0834436321
 10
158.3289203094
 20
93.1103722221
 10
158.3526257549
 20
93.1380283651
 10
158.3757218266
 20
93.1663992676
 10
158.3982076411
 20
93.1954956725
 10
158.420064764
 20
93.2253077245
 10
158.4412728487
 20
93.2558217202
 10
158.4618268833
 20
93.2870454406
 10
158.481708039
 20
93.3189672267
 10
158.5008978392
 20
93.3515749614
 10
158.519390642
 20
93.3848787663
 10
158.5371670262
 20
93.4188649616
 10
158.5542102329
 20
93.4535236992
 10
158.5705167841
 20
93.4888744
 10
158.5860704204
 20
93.5249125609
 10
158.600850117
 20
93.5616210593
 10
158.6148436064
 20
93.5990042405
 10
158.6280382893
 20
93.6370693171
 10
158.6404099515
 20
93.6757887637
 10
158.65193154
 20
93.7151172669
 10
158.6625887754
 20
93.7550452969
 10
158.6723673983
 20
93.7955612423
 10
158.6812463209
 20
93.8366181802
 10
158.6892147729
 20
93.8782078812
 10
158.6962615135
 20
93.9203181348
 10
158.7023704765
 20
93.9628975359
 10
158.7075335554
 20
94.0059368811
 10
158.7117425956
 20
94.0494263552
 10
158.7149867626
 20
94.0933151997
 10
158.7172594934
 20
94.1375811458
 10
158.7185559976
 20
94.182226924
 10
158.7188861464
 20
94.2190176476
  0
LINE
  5
5ED
100
AcDbEntity
  8
RACCORDO
100
AcDbLine
 62
253
  6
CONTINUOUS
 10
158.0240735223
 20
92.8542050051
 11
158.0111652626
 21
92.84484981
  0
LINE
  5
5EE
100
AcDbEntity
  8
RACCORDO
100
AcDbLine
 62
7
  6
CONTINUOUS
 10
158.0986430761
 20
92.9005685582
 11
158.0857328566
 21
92.8912119428
  0
LWPOLYLINE
  5
5EF
100
AcDbEntity
  8
RACCORDO
100
AcDbPolyline
 62
253
  6
CONTINUOUS
 90
5
 70
0
 10
158.0986430761
 20
92.9005685582
 10
158.0823531868
 20
92.8891573276
 10
158.0633782948
 20
92.8768142028
 10
158.043947034
 20
92.865160688
 10
158.0240754821
 20
92.8542064254
  0
LINE
  5
5F0
100
AcDbEntity
  8
RACCORDO
100
AcDbLine
 62
253
  6
CONTINUOUS
 10
158.0857328059
 20
92.891211906
 11
158.0772749129
 21
92.8851489653
  0
LWPOLYLINE
  5
5F1
100
AcDbEntity
  8
RACCORDO
100
AcDbPolyline
 62
253
  6
CONTINUOUS
 90
4
 70
0
 10
158.0111652626
 20
92.84484981
 10
157.9980370377
 20
92.8357295467
 10
157.9845665533
 20
92.8272017373
 10
157.9709878708
 20
92.8194014401
  0
LWPOLYLINE
  5
5F2
100
AcDbEntity
  8
RACCORDO
100
AcDbPolyline
 62
253
  6
CONTINUOUS
 90
4
 70
0
 10
158.0664772295
 20
92.8778059016
 10
158.0484433477
 20
92.8661979162
 10
158.0300014588
 20
92.8552098351
 10
158.0111652626
 20
92.84484981
  0
LWPOLYLINE
  5
5F3
100
AcDbEntity
  8
RACCORDO
100
AcDbPolyline
 62
7
  6
CONTINUOUS
 90
6
 70
0
 10
158.0229097199
 20
92.8492078308
 10
158.0367194836
 20
92.8578600747
 10
158.0503868476
 20
92.8667364949
 10
158.06390637
 20
92.8758335233
 10
158.0772749129
 20
92.8851489653
 10
158.0857361398
 20
92.8912143222
  0
LWPOLYLINE
  5
5F4
100
AcDbEntity
  8
SUPERFICI
100
AcDbPolyline
 62
253
  6
CONTINUOUS
 90
3
 70
0
 10
130.3776316237
 20
74.0492158182
 10
130.3714012625
 20
74.0453962619
 10
130.3683203476
 20
74.0437425721
  0
LINE
  5
5F5
100
AcDbEntity
  8
RACCORDO
100
AcDbLine
 62
7
  6
CONTINUOUS
 10
158.0089655403
 20
92.840784591
 11
158.0229097199
 21
92.8492078308
  0
LWPOLYLINE
  5
5F6
100
AcDbEntity
  8
SUPERFICI
100
AcDbPolyline
 62
7
  6
CONTINUOUS
 90
4
 70
0
 10
130.3682400138
 20
74.0437014081
 10
130.3891268145
 20
74.0557118207
 10
130.4100919389
 20
74.0707317117
 10
130.4294367532
 20
74.0878695372
  0
LINE
  5
5F7
100
AcDbEntity
  8
SUPERFICI
100
AcDbLine
 62
253
  6
CONTINUOUS
 10
130.6108480048
 20
75.5888906455
 11
131.3117839586
 21
75.9505678382
  0
LINE
  5
5F8
100
AcDbEntity
  8
SUPERFICI
100
AcDbLine
 62
7
  6
CONTINUOUS
 10
130.4821488574
 20
75.3190876237
 11
131.1839736169
 21
75.6812234329
  0
LINE
  5
5F9
100
AcDbEntity
  8
SUPERFICI
100
AcDbLine
 62
7
  6
CONTINUOUS
 10
135.5933764892
 20
80.5023682921
 11
131.3117839586
 21
78.3027480328
  0
LINE
  5
5FA
100
AcDbEntity
  8
SUPERFICI
100
AcDbLine
 62
7
  6
CONTINUOUS
 10
136.5684317314
 20
81.134488236
 11
131.3117839586
 21
78.4462844158
  0
LWPOLYLINE
  5
5FB
100
AcDbEntity
  8
SUPERFICI
100
AcDbPolyline
 62
7
  6
CONTINUOUS
 90
3
 70
0
 10
130.4821389243
 20
75.3190824935
 10
130.4800464393
 20
75.3180191025
 10
130.468598536
 20
75.3127592798
  0
LINE
  5
5FC
100
AcDbEntity
  8
SUPERFICI
100
AcDbLine
 62
7
  6
CONTINUOUS
 10
125.6920816191
 20
123.1796035781
 11
125.6860418492
 21
123.1785928376
  0
LWPOLYLINE
  5
5FD
100
AcDbEntity
  8
SUPERFICI
100
AcDbPolyline
 62
7
  6
CONTINUOUS
 90
14
 70
0
 10
125.0073858789
 20
123.4812737026
 10
125.0200577654
 20
123.4819927282
 10
125.0330647517
 20
123.4820823253
 10
125.0464019267
 20
123.4815345152
 10
125.0600881209
 20
123.4803267606
 10
125.0740967316
 20
123.4784563956
 10
125.0884308165
 20
123.4759086845
 10
125.1031578152
 20
123.4726374868
 10
125.118275717
 20
123.4686327399
 10
125.1337640374
 20
123.46387821
 10
125.1496659524
 20
123.4583113295
 10
125.1659783342
 20
123.4519128612
 10
125.1826750903
 20
123.4446692777
 10
125.2006450573
 20
123.436082057
  0
LINE
  5
5FE
100
AcDbEntity
  8
SUPERFICI
100
AcDbLine
 62
7
  6
CONTINUOUS
 10
129.0961221699
 20
121.8108343346
 11
127.3420845023
 21
121.7187921088
  0
LINE
  5
5FF
100
AcDbEntity
  8
RACCORDO
100
AcDbLine
 62
7
  6
CONTINUOUS
 10
158.4382259577
 20
111.4337336898
 11
158.4261271053
 21
111.4426827636
  0
LINE
  5
600
100
AcDbEntity
  8
RACCORDO
100
AcDbLine
 62
7
  6
CONTINUOUS
 10
149.9259791956
 20
121.5304083911
 11
150.0221620314
 21
121.3645175384
  0
LINE
  5
601
100
AcDbEntity
  8
0
100
AcDbLine
 62
7
  6
CONTINUOUS
 10
150.0916384501
 20
121.39986386
 11
149.9961786267
 21
121.5645077007
  0
LWPOLYLINE
  5
602
100
AcDbEntity
  8
RACCORDO
100
AcDbPolyline
 62
7
  6
CONTINUOUS
 90
30
 70
0
 10
158.7188852042
 20
95.5153075742
 10
158.7186353741
 20
95.5264885606
 10
158.7176561266
 20
95.5401017725
 10
158.7159339034
 20
95.553696542
 10
158.7134703553
 20
95.56727291
 10
158.7102709639
 20
95.5808006683
 10
158.7063340906
 20
95.5942797086
 10
158.7016613738
 20
95.6077101392
 10
158.6962632108
 20
95.6210620765
 10
158.6901379862
 20
95.6343353457
 10
158.6832873152
 20
95.6475301217
 10
158.6757264412
 20
95.6606170452
 10
158.6674537826
 20
95.673595876
 10
158.6584709208
 20
95.6864668544
 10
158.6487978434
 20
95.6992013416
 10
158.6384330133
 20
95.7117990337
 10
158.6273779676
 20
95.7242602345
 10
158.6156573043
 20
95.7365572172
 10
158.6032695414
 20
95.7486896161
 10
158.5902161609
 20
95.7606577969
 10
158.5765262075
 20
95.7724351295
 10
158.5621982636
 20
95.7840211891
 10
158.5472337468
 20
95.7954164006
 10
158.531665954
 20
95.806595409
 10
158.515493542
 20
95.8175577327
 10
158.498717854
 20
95.8283038534
 10
158.4813762169
 20
95.8388098601
 10
158.4634810732
 20
95.8490677826
 10
158.4450199804
 20
95.8590855911
 10
158.4259929386
 20
95.8688632858
  0
LWPOLYLINE
  5
603
100
AcDbEntity
  8
RACCORDO
100
AcDbPolyline
 62
7
  6
CONTINUOUS
 90
30
 70
0
 10
158.7188852042
 20
99.8454345931
 10
158.7186353741
 20
99.8566155795
 10
158.7176561266
 20
99.8702287914
 10
158.7159339034
 20
99.8838235609
 10
158.7134703553
 20
99.8973999289
 10
158.7102709639
 20
99.9109276872
 10
158.7063340906
 20
99.9244067275
 10
158.7016613738
 20
99.9378371581
 10
158.6962632108
 20
99.9511890954
 10
158.6901379862
 20
99.9644623647
 10
158.6832873152
 20
99.9776571406
 10
158.6757264412
 20
99.9907440641
 10
158.6674537826
 20
100.003722895
 10
158.6584709208
 20
100.0165938734
 10
158.6487978434
 20
100.0293283605
 10
158.6384330133
 20
100.0419260526
 10
158.6273779676
 20
100.0543872534
 10
158.6156573043
 20
100.0666842362
 10
158.6032695414
 20
100.078816635
 10
158.5902161609
 20
100.0907848158
 10
158.5765262075
 20
100.1025621484
 10
158.5621982636
 20
100.114148208
 10
158.5472337468
 20
100.1255434195
 10
158.531665954
 20
100.1367224279
 10
158.515493542
 20
100.1476847517
 10
158.498717854
 20
100.1584308723
 10
158.4813762169
 20
100.168936879
 10
158.4634810732
 20
100.1791948015
 10
158.4450199804
 20
100.1892126101
 10
158.4259929386
 20
100.1989903047
  0
LWPOLYLINE
  5
604
100
AcDbEntity
  8
SUPERFICI
100
AcDbPolyline
 62
7
  6
CONTINUOUS
 90
8
 70
0
 10
158.7188839193
 20
124.3501536798
 10
158.7186479721
 20
124.3824892224
 10
158.7028995772
 20
124.6114820595
 10
158.6629104031
 20
124.8424383757
 10
158.59921707
 20
125.0731119429
 10
158.5135640346
 20
125.2980852911
 10
158.4073776119
 20
125.5146157211
 10
158.3768991836
 20
125.5686451134
  0
LINE
  5
605
100
AcDbEntity
  8
SUPERFICI
100
AcDbLine
 62
7
  6
CONTINUOUS
 10
158.7188861574
 20
124.3512089211
 11
158.7188861574
 21
111.9697925671
  0
LINE
  5
606
100
AcDbEntity
  8
RACCORDO
100
AcDbLine
 62
7
  6
CONTINUOUS
 10
158.7188861574
 20
111.1787666148
 11
158.7188861574
 21
103.48274361
  0
LINE
  5
607
100
AcDbEntity
  8
RACCORDO
100
AcDbLine
 62
7
  6
CONTINUOUS
 10
158.7188861574
 20
99.8454369141
 11
158.7188861574
 21
99.1526165911
  0
LINE
  5
608
100
AcDbEntity
  8
RACCORDO
100
AcDbLine
 62
7
  6
CONTINUOUS
 10
158.7188861574
 20
95.5153098952
 11
158.7188861574
 21
94.2190187095
  0
LWPOLYLINE
  5
609
100
AcDbEntity
  8
RACCORDO
100
AcDbPolyline
 62
7
  6
CONTINUOUS
 90
30
 70
0
 10
158.7188852042
 20
103.482741289
 10
158.7188732966
 20
103.480290662
 10
158.7183693649
 20
103.4666709783
 10
158.7171219269
 20
103.4530632509
 10
158.7151326347
 20
103.4394674532
 10
158.7124059144
 20
103.4259138367
 10
158.708940124
 20
103.4124024954
 10
158.7047369056
 20
103.3989333352
 10
158.6998056117
 20
103.385536326
 10
158.6941446209
 20
103.3722116284
 10
158.6877555545
 20
103.3589590817
 10
158.6806526286
 20
103.3458081737
 10
158.6728342536
 20
103.3327591307
 10
158.6643020191
 20
103.3198117264
 10
158.6550749099
 20
103.3069947695
 10
158.6451513785
 20
103.2943085505
 10
158.6345329724
 20
103.281752779
 10
158.6232433181
 20
103.2693553922
 10
158.611280921
 20
103.257116743
 10
158.5986472757
 20
103.2450364787
 10
158.5853704929
 20
103.2331414784
 10
158.5714491405
 20
103.2214321549
 10
158.5568846506
 20
103.2099080955
 10
158.5417094301
 20
103.1985949421
 10
158.525922119
 20
103.1874931642
 10
158.5095240774
 20
103.1766022922
 10
158.4925517917
 20
103.1659465589
 10
158.4750174244
 20
103.1555340421
 10
158.456908813
 20
103.145356664
 10
158.4382259577
 20
103.1354144248
  0
LWPOLYLINE
  5
60A
100
AcDbEntity
  8
RACCORDO
100
AcDbPolyline
 62
7
  6
CONTINUOUS
 90
30
 70
0
 10
158.7188852042
 20
99.1526142701
 10
158.7188732966
 20
99.1501636431
 10
158.7183693649
 20
99.1365439594
 10
158.7171219269
 20
99.122936232
 10
158.7151326347
 20
99.1093404343
 10
158.7124059144
 20
99.0957868178
 10
158.708940124
 20
99.0822754765
 10
158.7047369056
 20
99.0688063163
 10
158.6998056117
 20
99.0554093071
 10
158.6941446209
 20
99.0420846095
 10
158.6877555545
 20
99.0288320628
 10
158.6806526286
 20
99.0156811548
 10
158.6728342536
 20
99.0026321118
 10
158.6643020191
 20
98.9896847074
 10
158.6550749099
 20
98.9768677505
 10
158.6451513785
 20
98.9641815316
 10
158.6345329724
 20
98.95162576
 10
158.6232433181
 20
98.9392283733
 10
158.611280921
 20
98.9269897241
 10
158.5986472757
 20
98.9149094597
 10
158.5853704929
 20
98.9030144595
 10
158.5714491405
 20
98.891305136
 10
158.5568846506
 20
98.8797810766
 10
158.5417094301
 20
98.8684679232
 10
158.525922119
 20
98.8573661452
 10
158.5095240774
 20
98.8464752732
 10
158.4925517917
 20
98.83581954
 10
158.4750174244
 20
98.8254070232
 10
158.456908813
 20
98.8152296451
 10
158.4382259577
 20
98.8052874058
  0
LWPOLYLINE
  5
60B
100
AcDbEntity
  8
RACCORDO
100
AcDbPolyline
 62
253
  6
CONTINUOUS
 90
31
 70
0
 10
158.4382259491
 20
93.8716922692
 10
158.4379415174
 20
93.8307408479
 10
158.4368496219
 20
93.7902094028
 10
158.4349508061
 20
93.7501208578
 10
158.4322460205
 20
93.7104977996
 10
158.4287367812
 20
93.671362734
 10
158.4244251822
 20
93.6327380657
 10
158.4193136345
 20
93.5946456863
 10
158.4134049748
 20
93.5571070988
 10
158.4067026373
 20
93.5201436652
 10
158.3992104088
 20
93.4837763432
 10
158.3909324853
 20
93.4480256588
 10
158.3818735917
 20
93.4129118239
 10
158.3720388423
 20
93.3784546979
 10
158.3614337811
 20
93.3446737969
 10
158.3500644392
 20
93.3115882668
 10
158.3379372574
 20
93.2792168423
 10
158.325059086
 20
93.2475778469
 10
158.3114372211
 20
93.2166892058
 10
158.2970793941
 20
93.1865684193
 10
158.28199373
 20
93.1572325387
 10
158.2661887483
 20
93.1286981652
 10
158.2496734377
 20
93.1009814864
 10
158.2324571501
 20
93.0740981835
 10
158.214549556
 20
93.0480634112
 10
158.1959608139
 20
93.0228919094
 10
158.1767014867
 20
92.9985979747
 10
158.156782436
 20
92.975195367
 10
158.1362149605
 20
92.9526973283
 10
158.1150107737
 20
92.9311166538
 10
158.0931819326
 20
92.9104656444
  0
LWPOLYLINE
  5
60C
100
AcDbEntity
  8
RACCORDO
100
AcDbPolyline
 62
253
  6
CONTINUOUS
 90
28
 70
0
 10
158.7188861574
 20
94.2190176476
 10
158.7186853841
 20
94.208999899
 10
158.7176954506
 20
94.1946261086
 10
158.7158790988
 20
94.1802725008
 10
158.7132378318
 20
94.1659509517
 10
158.7097738348
 20
94.151673311
 10
158.705489974
 20
94.1374513922
 10
158.7003897939
 20
94.1232969624
 10
158.6944775144
 20
94.1092217331
 10
158.6877580273
 20
94.0952373502
 10
158.6802368924
 20
94.0813553844
 10
158.6719203326
 20
94.0675873217
 10
158.6628152291
 20
94.0539445538
 10
158.6529291155
 20
94.0404383688
 10
158.6422701717
 20
94.0270799418
 10
158.6308472168
 20
94.0138803256
 10
158.6186697022
 20
94.0008504416
 10
158.6057477037
 20
93.9880010708
 10
158.5920919129
 20
93.9753428447
 10
158.5777136288
 20
93.9628862368
 10
158.5626247479
 20
93.9506415538
 10
158.5468377549
 20
93.938618927
 10
158.5303657119
 20
93.9268283039
 10
158.513222248
 20
93.9152794401
 10
158.4954215477
 20
93.9039818913
 10
158.4769783394
 20
93.8929450049
 10
158.4579078831
 20
93.882177913
 10
158.4382259577
 20
93.8716895244
  0
LINE
  5
60D
100
AcDbEntity
  8
SUPERFICI
100
AcDbLine
 62
253
  6
CONTINUOUS
 10
129.9037412237
 20
73.907295329
 11
130.4320083954
 21
74.1783063877
  0
LINE
  5
60E
100
AcDbEntity
  8
SUPERFICI
100
AcDbLine
 62
7
  6
CONTINUOUS
 10
129.8396380943
 20
73.7725185688
 11
130.3683203579
 21
74.0437425774
  0
LINE
  5
60F
100
AcDbEntity
  8
SUPERFICI
100
AcDbLine
 62
7
  6
CONTINUOUS
 10
129.8396361206
 20
73.7725175562
 11
129.8378997088
 21
73.771649336
  0
LINE
  5
610
100
AcDbEntity
  8
SUPERFICI
100
AcDbLine
 62
253
  6
CONTINUOUS
 10
128.3024604328
 20
73.1272607294
 11
129.9037412237
 21
73.907295329
  0
LINE
  5
611
100
AcDbEntity
  8
SUPERFICI
100
AcDbLine
 62
7
  6
CONTINUOUS
 10
128.2361988402
 20
72.9914101032
 11
129.8378969432
 21
73.7716479888
  0
LINE
  5
612
100
AcDbEntity
  8
SUPERFICI
100
AcDbLine
 62
253
  6
CONTINUOUS
 10
125.9590356153
 20
73.6364616021
 11
130.6108480048
 21
75.589103493
  0
LINE
  5
613
100
AcDbEntity
  8
SUPERFICI
100
AcDbLine
 62
7
  6
CONTINUOUS
 10
130.4685803884
 20
75.3127516622
 11
125.80493838
 21
73.3551444505
  0
LWPOLYLINE
  5
614
100
AcDbEntity
  8
SUPERFICI
100
AcDbPolyline
 62
7
  6
CONTINUOUS
 90
5
 70
0
 10
124.9602605198
 20
123.4723313796
 10
124.9714939404
 20
123.4754538279
 10
124.9830999604
 20
123.4779887523
 10
124.9950662803
 20
123.4799325044
 10
125.0073858789
 20
123.4812737026
  0
LINE
  5
615
100
AcDbEntity
  8
RACCORDO
100
AcDbLine
 62
7
  6
CONTINUOUS
 10
149.4260553481
 20
122.0339846504
 11
138.459733276
 21
127.5171456865
  0
LINE
  5
616
100
AcDbEntity
  8
0
100
AcDbLine
 62
7
  6
CONTINUOUS
 10
149.4962547792
 20
122.06808396
 11
142.4902419288
 21
125.5710903852
  0
LWPOLYLINE
  5
617
100
AcDbEntity
  8
0
100
AcDbPolyline
 62
7
  6
CONTINUOUS
 90
6
 70
0
 10
146.8743039721
 20
131.4398585237
 10
146.8429683945
 20
131.4354420551
 10
146.8108476267
 20
131.4287829913
 10
146.7779416685
 20
131.4198813325
 10
146.7442505202
 20
131.4087370787
 10
146.7097741816
 20
131.3953502298
  0
LINE
  5
618
100
AcDbEntity
  8
0
100
AcDbLine
 62
7
  6
CONTINUOUS
 10
145.5548455002
 20
129.0011964583
 11
145.6505967604
 21
128.9333325144
  0
LINE
  5
619
100
AcDbEntity
  8
0
100
AcDbLine
 62
7
  6
CONTINUOUS
 10
146.5207505815
 20
131.616635219
 11
146.6139730192
 21
131.6178625655
  0
LWPOLYLINE
  5
61A
100
AcDbEntity
  8
0
100
AcDbPolyline
 62
7
  6
CONTINUOUS
 90
5
 70
0
 10
145.6505967604
 20
128.9333325144
 10
145.7416804769
 20
128.9010271123
 10
145.8490677433
 20
128.8937663015
 10
145.9673364219
 20
128.9139135079
 10
146.0964865128
 20
128.9614687314
  0
LINE
  5
61B
100
AcDbEntity
  8
0
100
AcDbLine
 62
7
  6
CONTINUOUS
 10
146.0964865128
 20
128.9614687314
 11
145.3893797316
 21
129.315022122
  0
LINE
  5
61C
100
AcDbEntity
  8
0
100
AcDbLine
 62
7
  6
CONTINUOUS
 10
145.2407733402
 20
129.5482439403
 11
145.3893797316
 21
129.4739407446
  0
LINE
  5
61D
100
AcDbEntity
  8
0
100
AcDbLine
 62
7
  6
CONTINUOUS
 10
148.8527688907
 20
128.6163357569
 11
146.0257758347
 21
130.0298322849
  0
LINE
  5
61E
100
AcDbEntity
  8
0
100
AcDbLine
 62
7
  6
CONTINUOUS
 10
146.0257758347
 20
131.0692210734
 11
149.9148631312
 21
129.1246774251
  0
LWPOLYLINE
  5
61F
100
AcDbEntity
  8
SUPERFICI
100
AcDbPolyline
 62
253
  6
CONTINUOUS
 90
4
 70
0
 10
158.0240735116
 20
125.4355166852
 10
158.0477003518
 20
125.3943319376
 10
158.0707408656
 20
125.3527564843
 10
158.0931819325
 20
125.3108138264
  0
LWPOLYLINE
  5
620
100
AcDbEntity
  8
SUPERFICI
100
AcDbPolyline
 62
253
  6
CONTINUOUS
 90
9
 70
0
 10
158.0931819325
 20
125.3108138264
 10
158.1150107737
 20
125.2685275572
 10
158.1362149605
 20
125.225921703
 10
158.156782436
 20
125.183020717
 10
158.1767014867
 20
125.1398489433
 10
158.1959608139
 20
125.0964307313
 10
158.214549556
 20
125.0527907821
 10
158.2324571501
 20
125.0089538463
 10
158.2496734377
 20
124.9649446761
  0
LWPOLYLINE
  5
621
100
AcDbEntity
  8
SUPERFICI
100
AcDbPolyline
 62
253
  6
CONTINUOUS
 90
23
 70
0
 10
158.2496734377
 20
124.9649446761
 10
158.2661887483
 20
124.9207881465
 10
158.28199373
 20
124.8765092304
 10
158.2970793941
 20
124.8321330107
 10
158.3114372211
 20
124.7876846338
 10
158.325059086
 20
124.7431892676
 10
158.3379372574
 20
124.698672101
 10
158.3500644392
 20
124.6541583551
 10
158.3614337811
 20
124.6096732467
 10
158.3720388423
 20
124.5652419598
 10
158.3818735917
 20
124.5208896455
 10
158.3909324853
 20
124.4766414574
 10
158.3992104088
 20
124.4325224296
 10
158.4067026372
 20
124.3885574489
 10
158.4134049748
 20
124.3447713834
 10
158.4193136345
 20
124.3011890867
 10
158.4244251822
 20
124.2578352752
 10
158.4287367812
 20
124.2147344799
 10
158.4322460205
 20
124.1719111681
 10
158.4349508061
 20
124.1293897433
 10
158.4368496219
 20
124.087194348
 10
158.4379415174
 20
124.0453488544
 10
158.4382259491
 20
124.0038769821
  0
LINE
  5
622
100
AcDbEntity
  8
0
100
AcDbLine
 62
7
  6
CONTINUOUS
 10
146.6139730192
 20
131.6178625655
 11
146.6986387266
 21
131.6018896943
  0
LINE
  5
623
100
AcDbEntity
  8
0
100
AcDbLine
 62
7
  6
CONTINUOUS
 10
146.6986387266
 20
131.6018896943
 11
146.7562797585
 21
131.5787453325
  0
LWPOLYLINE
  5
624
100
AcDbEntity
  8
RACCORDO
100
AcDbPolyline
 62
7
  6
CONTINUOUS
 90
18
 70
0
 10
146.6851214451
 20
131.6142161596
 10
146.6702396337
 20
131.6212523673
 10
146.6550535697
 20
131.6276350228
 10
146.6395780592
 20
131.6333593396
 10
146.6238124763
 20
131.6384238946
 10
146.6077574469
 20
131.6428301108
 10
146.5914476551
 20
131.6465684715
 10
146.5748825501
 20
131.6496375329
 10
146.5580626828
 20
131.6520387387
 10
146.5410243894
 20
131.6537669035
 10
146.5237671978
 20
131.6548205722
 10
146.50629158
 20
131.6552011999
 10
146.4886352889
 20
131.654907966
 10
146.4707979339
 20
131.6539394137
 10
146.4527799055
 20
131.6522969998
 10
146.434620128
 20
131.649984274
 10
146.4163315762
 20
131.6470024194
 10
146.3993298526
 20
131.6436333411
  0
LWPOLYLINE
  5
625
100
AcDbEntity
  8
SUPERFICI
100
AcDbPolyline
 62
253
  6
CONTINUOUS
 90
26
 70
0
 10
157.9453748448
 20
125.984088442
 10
157.9388304501
 20
125.9872638509
 10
157.9235827273
 20
125.9940696649
 10
157.9080196325
 20
126.0002035854
 10
157.8921527231
 20
126.0056610571
 10
157.8759937818
 20
126.0104380274
 10
157.8595548085
 20
126.0145309487
 10
157.8428480111
 20
126.0179367816
 10
157.8258857967
 20
126.0206529969
 10
157.8086807611
 20
126.0226775775
 10
157.7912456803
 20
126.0240090201
 10
157.7735935009
 20
126.0246463358
 10
157.7557373323
 20
126.0245890513
 10
157.7376904364
 20
126.0238372092
 10
157.7194662161
 20
126.0223913681
 10
157.7010782039
 20
126.0202526018
 10
157.6825400533
 20
126.0174224985
 10
157.6638655286
 20
126.0139031593
 10
157.6450684998
 20
126.009697198
 10
157.6261629312
 20
126.0048077395
 10
157.6071628386
 20
125.999238408
 10
157.5880823551
 20
125.9929933456
 10
157.5689357262
 20
125.9860772191
 10
157.5497371965
 20
125.9784951836
 10
157.5305009977
 20
125.9702528691
 10
157.511241415
 20
125.9613564047
  0
LWPOLYLINE
  5
626
100
AcDbEntity
  8
RACCORDO
100
AcDbPolyline
 62
253
  6
CONTINUOUS
 90
26
 70
0
 10
144.9700701796
 20
132.4717417923
 10
144.9627863341
 20
132.4752859089
 10
144.9475386112
 20
132.4820917229
 10
144.9319755165
 20
132.4882256434
 10
144.916108607
 20
132.4936831151
 10
144.8999496657
 20
132.4984600854
 10
144.8835106924
 20
132.5025530067
 10
144.866803895
 20
132.5059588396
 10
144.8498416806
 20
132.5086750549
 10
144.8326366451
 20
132.5106996355
 10
144.8152015643
 20
132.512031078
 10
144.7975493849
 20
132.5126683938
 10
144.7796932163
 20
132.5126111093
 10
144.7616463205
 20
132.5118592672
 10
144.7434221003
 20
132.5104134261
 10
144.7250340882
 20
132.5082746598
 10
144.7064959376
 20
132.5054445565
 10
144.6878214129
 20
132.5019252173
 10
144.6690243841
 20
132.497719256
 10
144.6501188153
 20
132.4928297975
 10
144.6311187228
 20
132.487260466
 10
144.6120382393
 20
132.4810154036
 10
144.5928916104
 20
132.4740992771
 10
144.5736930805
 20
132.4665172416
 10
144.5544568818
 20
132.4582749271
 10
144.535197299
 20
132.4493784627
  0
LINE
  5
627
100
AcDbEntity
  8
0
100
AcDbLine
 62
253
  6
CONTINUOUS
 10
157.511241415
 20
125.9613564047
 11
146.6745126527
 21
131.3797207859
  0
LINE
  5
628
100
AcDbEntity
  8
RACCORDO
100
AcDbLine
 62
253
  6
CONTINUOUS
 10
144.535197299
 20
132.4493784627
 11
146.250248584
 21
131.5918528202
  0
LINE
  5
629
100
AcDbEntity
  8
RACCORDO
100
AcDbLine
 62
7
  6
CONTINUOUS
 10
146.6606839354
 20
131.5129562997
 11
146.3793292253
 21
131.6536336548
  0
LINE
  5
62A
100
AcDbEntity
  8
0
100
AcDbLine
 62
7
  6
CONTINUOUS
 10
146.5207505815
 20
131.616635219
 11
146.8743039721
 21
131.4398585237
  0
LINE
  5
62B
100
AcDbEntity
  8
RACCORDO
100
AcDbLine
 62
7
  6
CONTINUOUS
 10
144.9700701796
 20
132.4717417923
 11
146.6851214646
 21
131.6142161498
  0
LINE
  5
62C
100
AcDbEntity
  8
SUPERFICI
100
AcDbLine
 62
7
  6
CONTINUOUS
 10
146.7558321427
 20
131.5788608108
 11
157.9461142956
 21
125.9837197343
  0
LWPOLYLINE
  5
62D
100
AcDbEntity
  8
SUPERFICI
100
AcDbPolyline
 62
253
  6
CONTINUOUS
 90
19
 70
0
 10
157.511241415
 20
125.9613564047
 10
157.5298761704
 20
125.9518691055
 10
157.5484900758
 20
125.941790703
 10
157.5670703777
 20
125.9311280666
 10
157.5856044681
 20
125.9198883921
 10
157.6040795214
 20
125.9080794134
 10
157.6224825076
 20
125.8957094353
 10
157.6408006942
 20
125.8827870184
 10
157.6590216552
 20
125.8693209384
 10
157.6771329108
 20
125.8553204238
 10
157.6951220541
 20
125.8407950678
 10
157.7129767579
 20
125.8257548217
 10
157.7306847877
 20
125.8102099895
 10
157.7482340104
 20
125.7941712215
 10
157.7656124028
 20
125.777649507
 10
157.7828080583
 20
125.7606561658
 10
157.7998091957
 20
125.7432028412
 10
157.8166041663
 20
125.725301491
 10
157.8331814628
 20
125.7069643802
  0
LINE
  5
62E
100
AcDbEntity
  8
RACCORDO
100
AcDbLine
 62
7
  6
CONTINUOUS
 10
146.6996443035
 20
131.6065520063
 11
146.6851214451
 21
131.6142161596
  0
LWPOLYLINE
  5
62F
100
AcDbEntity
  8
SUPERFICI
100
AcDbPolyline
 62
7
  6
CONTINUOUS
 90
5
 70
0
 10
157.9453748448
 20
125.984088442
 10
158.0272026665
 20
125.9383486769
 10
158.1070877895
 20
125.8830862597
 10
158.1813722719
 20
125.8202046563
 10
158.2493246392
 20
125.7502493107
  0
LWPOLYLINE
  5
630
100
AcDbEntity
  8
SUPERFICI
100
AcDbPolyline
 62
253
  6
CONTINUOUS
 90
13
 70
0
 10
157.8331814628
 20
125.7069643802
 10
157.8495297267
 20
125.6882040721
 10
157.8656377577
 20
125.6690334208
 10
157.8814945204
 20
125.6494655613
 10
157.8970891523
 20
125.6295139016
 10
157.9124109672
 20
125.6091921106
 10
157.9274494633
 20
125.5885141097
 10
157.9421944584
 20
125.5674938849
 10
157.9566357234
 20
125.5461460141
 10
157.9707630115
 20
125.5244856834
 10
157.9845665533
 20
125.5025279449
 10
157.9980370377
 20
125.4802876801
 10
158.0111652626
 20
125.4577801454
  0
LWPOLYLINE
  5
631
100
AcDbEntity
  8
SUPERFICI
100
AcDbPolyline
 62
253
  6
CONTINUOUS
 90
29
 70
0
 10
158.3766079359
 20
125.5684830792
 10
158.3751165437
 20
125.5702259475
 10
158.3728947937
 20
125.5715798986
 10
158.3699645589
 20
125.5725090468
 10
158.3663206777
 20
125.5730267955
 10
158.3619694534
 20
125.5731262772
 10
158.3569184167
 20
125.5728000711
 10
158.351165071
 20
125.5720617738
 10
158.3447168061
 20
125.570906064
 10
158.3375824441
 20
125.5693268945
 10
158.3297625194
 20
125.5673380646
 10
158.3212652646
 20
125.5649357857
 10
158.3121005541
 20
125.562115365
 10
158.3022723118
 20
125.5588908243
 10
158.291789374
 20
125.5552598788
 10
158.2806624084
 20
125.551219156
 10
158.2688990449
 20
125.5467829216
 10
158.2565085101
 20
125.5419503575
 10
158.2435020055
 20
125.5367193673
 10
158.2298910998
 20
125.5311044698
 10
158.215685246
 20
125.5251062766
 10
158.2008959376
 20
125.5187239224
 10
158.1855387942
 20
125.5119721561
 10
158.1696233962
 20
125.5048529938
 10
158.1531613291
 20
125.4973667638
 10
158.136172221
 20
125.4895283733
 10
158.1186657564
 20
125.4813412356
 10
158.1006534728
 20
125.4728068546
 10
158.063196898
 20
125.454749322
  0
LWPOLYLINE
  5
632
100
AcDbEntity
  8
SUPERFICI
100
AcDbPolyline
 62
7
  6
CONTINUOUS
 90
4
 70
0
 10
158.2493246392
 20
125.7502493107
 10
158.3104081383
 20
125.6736346329
 10
158.3639333342
 20
125.59100729
 10
158.3767483143
 20
125.5682313578
  0
ELLIPSE
  5
633
100
AcDbEntity
  8
0
100
AcDbEllipse
 62
7
  6
CONTINUOUS
 10
149.091359939
 20
120.6752262233
 30
0.0
 11
-0.894612936
 21
1.7887945813
 31
0.0
 40
0.6124635976
 41
-2.2555607096
 42
-1.470288718
  0
ELLIPSE
  5
634
100
AcDbEntity
  8
0
100
AcDbEllipse
 62
7
  6
CONTINUOUS
 10
149.4961655543
 20
121.2019712488
 30
0.0
 11
-0.447101003
 21
0.8945282396
 31
0.0
 40
0.6124326778
 41
4.8132948115
 42
5.5985668031
  0
ELLIPSE
  5
635
100
AcDbEntity
  8
SUPERFICI
100
AcDbEllipse
 62
7
  6
CONTINUOUS
 10
124.9141367791
 20
123.0203198637
 30
0.0
 11
0.2257019663
 21
0.4461636818
 31
0.0
 40
0.6159267166
 41
0.5882567743
 42
0.6817883054
  0
ELLIPSE
  5
636
100
AcDbEntity
  8
SUPERFICI
100
AcDbEllipse
 62
7
  6
CONTINUOUS
 10
124.2753822723
 20
119.0232331944
 30
0.0
 11
-0.0909679979
 21
0.1781462259
 31
0.0
 40
0.6079022756
 41
-0.6898048156
 42
-0.0128958448
  0
ELLIPSE
  5
637
100
AcDbEntity
  8
SUPERFICI
100
AcDbEllipse
 62
7
  6
CONTINUOUS
 10
132.6238560695
 20
119.8040389172
 30
0.0
 11
0.4547905863
 21
0.8906238433
 31
0.0
 40
0.6079814556
 41
0.0051546174
 42
0.6840559135
  0
ELLIPSE
  5
638
100
AcDbEntity
  8
SUPERFICI
100
AcDbEllipse
 62
7
  6
CONTINUOUS
 10
124.7131556581
 20
123.7593891229
 30
0.0
 11
1.004787277
 21
0.6140102217
 31
0.0
 40
0.0864918533
 41
0.0541644768
 42
0.7329085821
  0
ELLIPSE
  5
639
100
AcDbEntity
  8
SUPERFICI
100
AcDbEllipse
 62
7
  6
CONTINUOUS
 10
136.2964083172
 20
81.0127493687
 30
0.0
 11
0.9927147821
 21
0.620457446
 31
0.0
 40
0.0764819879
 41
-2.4043514965
 42
-1.2091443565
  0
ELLIPSE
  5
63A
100
AcDbEntity
  8
SUPERFICI
100
AcDbEllipse
 62
7
  6
CONTINUOUS
 10
136.2087618312
 20
118.0669193904
 30
0.0
 11
0.499996712
 21
0.0035883639
 31
0.0
 40
0.5053247124
 41
-0.7715714568
 42
-0.0036366941
  0
ELLIPSE
  5
63B
100
AcDbEntity
  8
SUPERFICI
100
AcDbEllipse
 62
7
  6
CONTINUOUS
 10
130.9582171053
 20
76.1273732487
 30
0.0
 11
-0.2236315662
 21
0.4472293059
 31
0.0
 40
0.6123445654
 41
-3.1337469158
 42
-2.2555748796
  0
ELLIPSE
  5
63C
100
AcDbEntity
  8
SUPERFICI
100
AcDbEllipse
 62
7
  6
CONTINUOUS
 10
130.9582171053
 20
114.0491945015
 30
0.0
 11
-0.223611546
 21
0.4472115081
 31
0.0
 40
0.6124054886
 41
-2.2555017776
 42
-0.6847562194
  0
ELLIPSE
  5
63D
100
AcDbEntity
  8
SUPERFICI
100
AcDbEllipse
 62
7
  6
CONTINUOUS
 10
122.5661991354
 20
119.8778247629
 30
0.0
 11
-0.090948378
 21
0.1781282571
 31
0.0
 40
0.6080538059
 41
-2.2606249166
 42
-0.6898793584
  0
ELLIPSE
  5
63E
100
AcDbEntity
  8
SUPERFICI
100
AcDbEllipse
 62
7
  6
CONTINUOUS
 10
130.5261105751
 20
120.2143329657
 30
0.0
 11
0.2273952932
 21
0.4453119217
 31
0.0
 40
0.6079814556
 41
0.2357074224
 42
0.6840559135
  0
ELLIPSE
  5
63F
100
AcDbEntity
  8
SUPERFICI
100
AcDbEllipse
 62
7
  6
CONTINUOUS
 10
127.1511700523
 20
114.7430531034
 30
0.0
 11
0.249929385
 21
0.0111824824
 31
0.0
 40
0.5313301283
 41
3.1178197826
 42
3.9032222197
  0
ELLIPSE
  5
640
100
AcDbEntity
  8
SUPERFICI
100
AcDbEllipse
 62
7
  6
CONTINUOUS
 10
114.8475120597
 20
120.8948820998
 30
0.0
 11
0.249929385
 21
0.0111824824
 31
0.0
 40
0.5313301283
 41
3.1178197826
 42
3.9032222197
  0
ELLIPSE
  5
641
100
AcDbEntity
  8
SUPERFICI
100
AcDbEllipse
 62
7
  6
CONTINUOUS
 10
116.5342777839
 20
120.0514992376
 30
0.0
 11
0.249929385
 21
0.0111824824
 31
0.0
 40
0.5313301283
 41
-2.3799630874
 42
-0.8149845248
  0
ELLIPSE
  5
642
100
AcDbEntity
  8
SUPERFICI
100
AcDbEllipse
 62
7
  6
CONTINUOUS
 10
130.8583353783
 20
119.1285671772
 30
0.0
 11
0.4530414621
 21
-0.0021419047
 31
0.0
 40
0.4964289597
 41
-0.77723337
 42
0.0023234052
  0
ELLIPSE
  5
643
100
AcDbEntity
  8
SUPERFICI
100
AcDbEllipse
 62
7
  6
CONTINUOUS
 10
125.9792619483
 20
121.2542729272
 30
0.0
 11
1.0205811965
 21
-0.0048251373
 31
0.0
 40
0.4964289597
 41
1.3061600176
 42
2.3584907469
  0
ELLIPSE
  5
644
100
AcDbEntity
  8
SUPERFICI
100
AcDbEllipse
 62
7
  6
CONTINUOUS
 10
125.2678887652
 20
121.9237904837
 30
0.0
 11
0.4530414621
 21
-0.0021419047
 31
0.0
 40
0.4964289597
 41
-0.4806702637
 42
0.0023660984
  0
ELLIPSE
  5
645
100
AcDbEntity
  8
SUPERFICI
100
AcDbEllipse
 62
7
  6
CONTINUOUS
 10
128.3857079058
 20
121.9231129991
 30
0.0
 11
0.4394935595
 21
0.8982713957
 31
0.0
 40
0.6167074461
 41
5.3917895557
 42
6.9567681183
  0
ELLIPSE
  5
646
100
AcDbEntity
  8
SUPERFICI
100
AcDbEllipse
 62
7
  6
CONTINUOUS
 10
136.2964083172
 20
117.9677627934
 30
0.0
 11
-0.7356038977
 21
1.2035991204
 31
0.0
 40
0.5552491559
 41
5.0404636726
 42
6.2356708126
  0
ELLIPSE
  5
647
100
AcDbEntity
  8
SUPERFICI
100
AcDbEllipse
 62
7
  6
CONTINUOUS
 10
136.2087618312
 20
80.8751128094
 30
0.0
 11
0.499443764
 21
0.3120915671
 31
0.0
 40
0.0755486457
 41
5.9766181181
 42
7.0039564932
  0
ELLIPSE
  5
648
100
AcDbEntity
  8
SUPERFICI
100
AcDbEllipse
 62
7
  6
CONTINUOUS
 10
136.2087618312
 20
118.9001526199
 30
0.0
 11
-0.3739417019
 21
0.598522373
 31
0.0
 40
0.554557473
 41
-3.1836090632
 42
-2.1562706881
  0
ELLIPSE
  5
649
100
AcDbEntity
  8
SUPERFICI
100
AcDbEllipse
 62
7
  6
CONTINUOUS
 10
180.2486336574
 20
144.4780560536
 30
0.0
 11
60.4168605605
 21
30.5632322457
 31
0.0
 40
0.005706723
 41
2.5167363259
 42
2.6876789752
  0
ELLIPSE
  5
64A
100
AcDbEntity
  8
SUPERFICI
100
AcDbEllipse
 62
7
  6
CONTINUOUS
 10
131.145679728
 20
119.9045483893
 30
0.0
 11
0.221538876
 21
0.4482453432
 31
0.0
 40
0.6088015717
 41
0.5825560023
 42
0.6760875334
  0
ELLIPSE
  5
64B
100
AcDbEntity
  8
SUPERFICI
100
AcDbEllipse
 62
7
  6
CONTINUOUS
 10
120.0408357916
 20
120.2376258788
 30
0.0
 11
0.0907039967
 21
0.1782526758
 31
0.0
 40
0.6176975122
 41
0.6948951487
 42
2.2598737113
  0
ELLIPSE
  5
64C
100
AcDbEntity
  8
SUPERFICI
100
AcDbEllipse
 62
7
  6
CONTINUOUS
 10
180.2486336574
 20
144.4780560536
 30
0.0
 11
60.4168605605
 21
30.5632322457
 31
0.0
 40
0.005706723
 41
-2.6934527084
 42
-2.5225100591
  0
ELLIPSE
  5
64D
100
AcDbEntity
  8
SUPERFICI
100
AcDbEllipse
 62
7
  6
CONTINUOUS
 10
123.364860131
 20
117.351076651
 30
0.0
 11
0.199943508
 21
0.008945986
 31
0.0
 40
0.5313301283
 41
3.1178423524
 42
3.9032222197
  0
ELLIPSE
  5
64E
100
AcDbEntity
  8
SUPERFICI
100
AcDbEllipse
 62
7
  6
CONTINUOUS
 10
121.6640905895
 20
118.2014614218
 30
0.0
 11
0.199943508
 21
0.008945986
 31
0.0
 40
0.5313301283
 41
-2.3799630874
 42
-0.8178934069
  0
ELLIPSE
  5
64F
100
AcDbEntity
  8
SUPERFICI
100
AcDbEllipse
 62
7
  6
CONTINUOUS
 10
125.5337059319
 20
122.7105352873
 30
0.0
 11
0.2197467797
 21
0.4491356978
 31
0.0
 40
0.6167074461
 41
0.2252343201
 42
0.6735828111
  0
ELLIPSE
  5
650
100
AcDbEntity
  8
SUPERFICI
100
AcDbEllipse
 62
7
  6
CONTINUOUS
 10
125.2678887652
 20
164.8418093533
 30
0.0
 11
-0.3192264997
 21
45.1189143812
 31
0.0
 40
0.0071249215
 41
3.4474731796
 42
3.5354687861
  0
ELLIPSE
  5
651
100
AcDbEntity
  8
SUPERFICI
100
AcDbEllipse
 62
7
  6
CONTINUOUS
 10
128.8379357766
 20
113.8996702413
 30
0.0
 11
0.249929385
 21
0.0111824824
 31
0.0
 40
0.5313301283
 41
-2.3799630874
 42
-0.8149845248
  0
ELLIPSE
  5
652
100
AcDbEntity
  8
DRAFT
100
AcDbEllipse
 62
7
  6
CONTINUOUS
 10
153.693329592
 20
99.6110045529
 30
0.0
 11
0.9261626287
 21
1.8847694129
 31
0.0
 40
0.607010042
 41
-2.811164929
 42
-2.4610674593
  0
ELLIPSE
  5
653
100
AcDbEntity
  8
DRAFT
100
AcDbEllipse
 62
7
  6
CONTINUOUS
 10
153.693329592
 20
95.280877534
 30
0.0
 11
0.9261626287
 21
1.8847694129
 31
0.0
 40
0.607010042
 41
-2.811164929
 42
-2.4610674593
  0
ELLIPSE
  5
654
100
AcDbEntity
  8
RACCORDO
100
AcDbEllipse
 62
7
  6
CONTINUOUS
 10
149.4259661231
 20
121.1678719392
 30
0.0
 11
-0.447101003
 21
0.8945282396
 31
0.0
 40
0.6124326778
 41
-1.4698904957
 42
-0.6846185041
  0
ELLIPSE
  5
655
100
AcDbEntity
  8
RACCORDO
100
AcDbEllipse
 62
7
  6
CONTINUOUS
 10
149.0218835203
 20
120.6398799016
 30
0.0
 11
-0.894612936
 21
1.7887945813
 31
0.0
 40
0.6124635976
 41
-2.2555607096
 42
-1.470288718
  0
ELLIPSE
  5
656
100
AcDbEntity
  8
RACCORDO
100
AcDbEllipse
 62
7
  6
CONTINUOUS
 10
157.7188861574
 20
111.7963095777
 30
0.0
 11
0.9985969906
 21
-0.623107864
 31
0.0
 40
0.084982534
 41
0.0528483921
 42
0.8209229347
  0
ELLIPSE
  5
657
100
AcDbEntity
  8
DRAFT
100
AcDbEllipse
 62
7
  6
CONTINUOUS
 10
154.4312065789
 20
99.2420660595
 30
0.0
 11
0.9134242373
 21
1.8910797574
 31
0.0
 40
0.6016116119
 41
0.6764898932
 42
3.8180825468
  0
ELLIPSE
  5
658
100
AcDbEntity
  8
DRAFT
100
AcDbEllipse
 62
7
  6
CONTINUOUS
 10
154.4312065789
 20
94.9119390405
 30
0.0
 11
0.9134242373
 21
1.8910797574
 31
0.0
 40
0.6016116119
 41
0.6764898932
 42
3.8180825468
  0
ELLIPSE
  5
659
100
AcDbEntity
  8
RACCORDO
100
AcDbEllipse
 62
7
  6
CONTINUOUS
 10
145.1772456779
 20
129.7516099213
 30
0.0
 11
-0.1341676082
 21
0.2683327138
 31
0.0
 40
0.6123610127
 41
-2.9771062615
 42
-2.3489982891
  0
ELLIPSE
  5
65A
100
AcDbEntity
  8
RACCORDO
100
AcDbEllipse
 62
7
  6
CONTINUOUS
 10
125.0047567193
 20
119.1087724303
 30
0.0
 11
1.2181247452
 21
0.9560445338
 31
0.0
 40
0.2321910517
 41
0.1093596625
 42
0.1138484791
  0
ENDSEC
  0
SECTION
  2
OBJECTS
  0
DICTIONARY
  5
C
100
AcDbDictionary
280
0
281
1
  3
ACAD_GROUP
350
D
  3
ACAD_MLINESTYLE
350
17
  3
ACAD_LAYOUT
350
1A
  3
ACAD_PLOTSETTINGS
350
19
  3
ACAD_PLOTSTYLENAME
350
E
  0
DICTIONARY
  5
D
102
{ACAD_REACTORS
330
C
102
}
100
AcDbDictionary
280
0
281
1
  0
ACDBDICTIONARYWDFLT
  5
E
102
{ACAD_REACTORS
330
C
102
}
100
AcDbDictionary
281
1
  3
Normal
350
F
100
AcDbDictionaryWithDefault
340
F
  0
DICTIONARY
  5
17
102
{ACAD_REACTORS
330
C
102
}
100
AcDbDictionary
280
0
281
1
  3
Standard
350
18
  0
DICTIONARY
  5
19
102
{ACAD_REACTORS
330
C
102
}
100
AcDbDictionary
281
1
  0
DICTIONARY
  5
1A
102
{ACAD_REACTORS
330
C
102
}
100
AcDbDictionary
281
1
  3
Model
350
65B
  3
Layout1
350
65C
  0
ACDBPLACEHOLDER
  5
F
102
{ACAD_REACTORS
330
E
102
}
  0
MLINESTYLE
  5
18
102
{ACAD_REACTORS
330
17
102
}
100
AcDbMlineStyle
  2
STANDARD
 70
0
  3

 62
256
 51
90.0
 52
90.0
 71
2
 49
0.5
 62
256
  6
BYLAYER
 49
-0.5
 62
256
  6
BYLAYER
  0
LAYOUT
  5
65B
102
{ACAD_REACTORS
330
1A
102
}
100
AcDbPlotSettings
  1

  2
none_device
  4
ISO_A4_(297.00_x_210.00_MM)
  6

 40
0.0
 41
0.0
 42
0.0
 43
0.0
 44
297.0
 45
210.0
 46
0.0
 47
0.0
 48
0.0
 49
0.0
140
0.0
141
0.0
142
1.0
143
1.0
 70
1024
 72
1
 73
0
 74
0
  7

 75
0
147
1.0
148
0.0
149
0.0
100
AcDbLayout
  1
Model
 70
0
 71
0
 10
0.0
 20
0.0
 11
297.0
 21
210.0
 12
0.0
 22
0.0
 32
0.0
 14
0.0
 24
0.0
 34
0.0
 15
0.0
 25
0.0
 35
0.0
146
0.0
 13
0.0
 23
0.0
 33
0.0
 16
1.0
 26
0.0
 36
0.0
 17
0.0
 27
1.0
 37
0.0
 76
0
330
2F5
345
0
346
0
  0
LAYOUT
  5
65C
102
{ACAD_REACTORS
330
1A
102
}
100
AcDbPlotSettings
  1

  2
none_device
  4
ISO_A4_(297.00_x_210.00_MM)
  6

 40
0.0
 41
0.0
 42
0.0
 43
0.0
 44
297.0
 45
210.0
 46
0.0
 47
0.0
 48
0.0
 49
0.0
140
0.0
141
0.0
142
1.0
143
1.0
 70
0
 72
1
 73
0
 74
0
  7

 75
0
147
1.0
148
0.0
149
0.0
100
AcDbLayout
  1
Layout1
 70
0
 71
1
 10
0.0
 20
0.0
 11
297.0
 21
210.0
 12
0.0
 22
0.0
 32
0.0
 14
0.0
 24
0.0
 34
0.0
 15
0.0
 25
0.0
 35
0.0
146
0.0
 13
0.0
 23
0.0
 33
0.0
 16
1.0
 26
0.0
 36
0.0
 17
0.0
 27
1.0
 37
0.0
 76
0
330
2F6
345
0
346
0
  0
ENDSEC
  0
EOF
