0
SECTION
2
HEADER
9
$ACADVER
1
AC1014
9
$HANDSEED
5
       3D9
9
$EXTMAX
10
297.0000000000
20
210.0000000000
9
$EXTMIN
10
0.0000000000
20
0.0000000000
9
$LIMMIN
10
0.0000000000
20
0.0000000000
9
$LIMMAX
10
297.0000000000
20
210.0000000000
9
$VIEWCTR
10
148.5000000000
20
105.0000000000
9
$VIEWSIZE
40
210.0000000000
9
$CLAYER
8
0
9
$LTSCALE
40
16.3350000000
9
$CELTYPE
6
BYLAYER
9
$DIMSCALE
40
1
9
$DIMASZ
40
3.0000000000
9
$DIMEXO
40
1.8562500000
9
$DIMDLI
40
11.2860000000
9
$DIMEXE
40
5.3460000000
9
$DIMCEN
40
2.6730000000
9
$DIMLFAC
40
1.0000000000
9
$DIMTXT
40
3.0000000000
9
$DIMTOL
70
1
9
$DIMLIM
70
0
9
$DIMTFAC
40
1.0000000000
9
$DIMTP
40
0.0100000000
9
$DIMTM
40
0.0100000000
9
$MEASUREMENT
70
1
0
ENDSEC
0
SECTION
2
CLASSES
0
ENDSEC
0
SECTION
2
TABLES
0
TABLE
2
VPORT
5
8
100
AcDbSymbolTable
70
2
0
VPORT
5
1F4
100
AcDbSymbolTableRecord
100
AcDbViewportTableRecord
2
*ACTIVE
70
0
10
0.0
20
0.0
11
1.0
21
1.0
12
148.5000000000
22
105.0000000000
13
0.0
23
0.0
14
1.0
24
1.0
15
0.0
25
0.0
16
0.0
26
0.0
36
1.0
17
0.0
27
0.0
37
0.0
40
210.0000000000
41
1.4142857143
42
50.0
43
0.0
44
0.0
50
0.0
51
0.0
71
0
72
100
73
1
74
1
75
0
76
0
77
0
78
0
0
ENDTAB
0
TABLE
2
LTYPE
5
5
100
AcDbSymbolTable
70
6
0
LTYPE
5
14
100
AcDbSymbolTableRecord
100
AcDbLinetypeTableRecord
2
BYBLOCK
70
0
3

72
65
73
0
40
0.0
0
LTYPE
5
15
100
AcDbSymbolTableRecord
100
AcDbLinetypeTableRecord
2
BYLAYER
70
0
3

72
65
73
0
40
0.0
0
LTYPE
5
16
100
AcDbSymbolTableRecord
100
AcDbLinetypeTableRecord
2
CONTINUOUS
70
64
3
Solid line
72
65
73
0
40
0
0
LTYPE
5
1F5
100
AcDbSymbolTableRecord
100
AcDbLinetypeTableRecord
2
CENTER
70
64
3
____ _ ____ _ ____ _ ____ _ ____ _ ____ _ ____
72
65
73
4
40
0.6
49
0.375
74
0
49
-0.075
74
0
49
0.075
74
0
49
-0.075
74
0
0
LTYPE
5
1F6
100
AcDbSymbolTableRecord
100
AcDbLinetypeTableRecord
2
HIDDEN
70
64
3
- - - - - - - - - - - - - - - - - - - -
72
65
73
2
40
0.2
49
0.1
74
0
49
-0.1
74
0
0
LTYPE
5
1F7
100
AcDbSymbolTableRecord
100
AcDbLinetypeTableRecord
2
PHANTOM
70
64
3
_____ _ _ _____ _ _ _____ _ _ _____
72
65
73
6
40
0.8
49
0.45
74
0
49
-0.05
74
0
49
0.1
74
0
49
-0.05
74
0
49
0.1
74
0
49
-0.05
74
0
0
LTYPE
5
1F8
100
AcDbSymbolTableRecord
100
AcDbLinetypeTableRecord
2
DOT
70
64
3
. . . . . . . . . . . . . . . . . . . .
72
65
73
2
40
0.2
49
0.1
74
0
49
-0.1
74
0
0
LTYPE
5
1F9
100
AcDbSymbolTableRecord
100
AcDbLinetypeTableRecord
2
DASHED
70
64
3
- - - - - - - - - - - - - - - - - - - -
72
65
73
2
40
0.2
49
0.1
74
0
49
-0.1
74
0
0
ENDTAB
0
TABLE
2
LAYER
5
2
100
AcDbSymbolTable
70
36
0
LAYER
5
10
100
AcDbSymbolTableRecord
100
AcDbLayerTableRecord
2
0
70
0
62
7
6
CONTINUOUS
0
LAYER
5
1FA
100
AcDbSymbolTableRecord
100
AcDbLayerTableRecord
2
DEFAULT_1
70
0
62
7
6
CENTER
0
LAYER
5
1FB
100
AcDbSymbolTableRecord
100
AcDbLayerTableRecord
2
DEFAULT_2
70
0
62
8
6
HIDDEN
0
LAYER
5
1FC
100
AcDbSymbolTableRecord
100
AcDbLayerTableRecord
2
DEFAULT_3
70
0
62
7
6
PHANTOM
0
LAYER
5
1FD
100
AcDbSymbolTableRecord
100
AcDbLayerTableRecord
2
_BLACK_HOLE
70
0
62
7
6
CONTINUOUS
0
LAYER
5
1FE
100
AcDbSymbolTableRecord
100
AcDbLayerTableRecord
2
ASSI
70
0
62
7
6
CONTINUOUS
0
LAYER
5
1FF
100
AcDbSymbolTableRecord
100
AcDbLayerTableRecord
2
COORDINATE
70
0
62
7
6
CONTINUOUS
0
LAYER
5
200
100
AcDbSymbolTableRecord
100
AcDbLayerTableRecord
2
COORD_ORIGINE
70
0
62
7
6
CONTINUOUS
0
LAYER
5
201
100
AcDbSymbolTableRecord
100
AcDbLayerTableRecord
2
COPIA_X_PUBLISH
70
0
62
7
6
CONTINUOUS
0
LAYER
5
202
100
AcDbSymbolTableRecord
100
AcDbLayerTableRecord
2
COPY_PLACCA
70
0
62
7
6
CONTINUOUS
0
LAYER
5
203
100
AcDbSymbolTableRecord
100
AcDbLayerTableRecord
2
COPY_SUPP
70
0
62
7
6
CONTINUOUS
0
LAYER
5
204
100
AcDbSymbolTableRecord
100
AcDbLayerTableRecord
2
CURVE
70
0
62
7
6
CONTINUOUS
0
LAYER
5
205
100
AcDbSymbolTableRecord
100
AcDbLayerTableRecord
2
DRAFT
70
0
62
7
6
CONTINUOUS
0
LAYER
5
206
100
AcDbSymbolTableRecord
100
AcDbLayerTableRecord
2
IMPORT_SCRITTE
70
0
62
7
6
CONTINUOUS
0
LAYER
5
207
100
AcDbSymbolTableRecord
100
AcDbLayerTableRecord
2
NOTE
70
0
62
7
6
CONTINUOUS
0
LAYER
5
208
100
AcDbSymbolTableRecord
100
AcDbLayerTableRecord
2
PIANI
70
0
62
7
6
CONTINUOUS
0
LAYER
5
209
100
AcDbSymbolTableRecord
100
AcDbLayerTableRecord
2
PIANI_ORIGINE
70
0
62
7
6
CONTINUOUS
0
LAYER
5
20A
100
AcDbSymbolTableRecord
100
AcDbLayerTableRecord
2
PUNTI
70
0
62
7
6
CONTINUOUS
0
LAYER
5
20B
100
AcDbSymbolTableRecord
100
AcDbLayerTableRecord
2
RACCORDO
70
0
62
7
6
CONTINUOUS
0
LAYER
5
20C
100
AcDbSymbolTableRecord
100
AcDbLayerTableRecord
2
SMUSSO
70
0
62
7
6
CONTINUOUS
0
LAYER
5
20D
100
AcDbSymbolTableRecord
100
AcDbLayerTableRecord
2
SUPERFICI
70
0
62
7
6
CONTINUOUS
0
LAYER
5
20E
100
AcDbSymbolTableRecord
100
AcDbLayerTableRecord
2
TRASH
70
0
62
7
6
CONTINUOUS
0
LAYER
5
20F
100
AcDbSymbolTableRecord
100
AcDbLayerTableRecord
2
XSEC_DATUMS
70
0
62
7
6
CONTINUOUS
0
ENDTAB
0
TABLE
2
STYLE
5
3
100
AcDbSymbolTable
70
1
0
STYLE
5
11
100
AcDbSymbolTableRecord
100
AcDbTextStyleTableRecord
2
STANDARD
70
0
40
0.0
41
0.8000000000
50
0.0
71
0
42
0.2
3
txt
4

0
ENDTAB
0
TABLE
2
VIEW
5
6
100
AcDbSymbolTable
70
0
0
ENDTAB
0
TABLE
2
UCS
5
7
100
AcDbSymbolTable
70
0
0
ENDTAB
0
TABLE
2
APPID
5
9
100
AcDbSymbolTable
70
1
0
APPID
5
210
100
AcDbSymbolTableRecord
100
AcDbRegAppTableRecord
2
ACAD
70
0
0
ENDTAB
0
TABLE
2
DIMSTYLE
5
A
100
AcDbSymbolTable
70
1
0
DIMSTYLE
105
211
100
AcDbSymbolTableRecord
100
AcDbDimStyleTableRecord
2
STANDARD
70
0
3

4

5

6

7

40
1.0
41
3.0000000000
42
0.0625
43
0.38
44
0.18
45
0.0
46
0.0
47
0.0100000000
48
0.0100000000
140
3.0000000000
141
0.09
142
0.0
143
25.4
144
1.0000000000
145
0.0
146
1.0000000000
147
0.09
71
1
72
0
73
0
74
0
75
0
76
0
77
1
78
8
170
0
171
2
172
0
173
0
174
0
175
0
176
0
177
0
178
0
270
2
271
2
272
2
273
2
274
2
340
11
275
0
280
0
281
0
282
0
283
1
284
8
285
0
286
0
287
3
288
0
0
ENDTAB
0
TABLE
2
BLOCK_RECORD
5
1
100
AcDbSymbolTable
70
0
0
BLOCK_RECORD
5
1B
100
AcDbSymbolTableRecord
100
AcDbBlockTableRecord
2
*MODEL_SPACE
0
BLOCK_RECORD
5
1C
100
AcDbSymbolTableRecord
100
AcDbBlockTableRecord
2
*PAPER_SPACE
0
ENDTAB
0
ENDSEC
0
SECTION
2
BLOCKS
0
BLOCK
5
1E
100
AcDbEntity
8
0
100
AcDbBlockBegin
2
*MODEL_SPACE
70
0
10
0.0
20
0.0
30
0.0
3
*MODEL_SPACE
1

0
ENDBLK
5
1F
100
AcDbEntity
8
0
100
AcDbBlockEnd
0
BLOCK
5
20
100
AcDbEntity
8
0
100
AcDbBlockBegin
2
*PAPER_SPACE
70
0
10
0.0
20
0.0
30
0.0
3
*PAPER_SPACE
1

0
ENDBLK
5
21
100
AcDbEntity
8
0
100
AcDbBlockEnd
0
ENDSEC
0
SECTION
2
ENTITIES
0
LINE
5
212
100
AcDbEntity
8
0
100
AcDbLine
62
7
6
CONTINUOUS
10
-30.6587003857
20
50.1359121279
11
-33.5052611542
21
48.3632485289
0
LINE
5
213
100
AcDbEntity
8
0
100
AcDbLine
62
7
6
CONTINUOUS
10
-29.8325424390
20
50.0706720139
11
-32.6278871006
21
48.3298658196
0
LINE
5
214
100
AcDbEntity
8
0
100
AcDbLine
62
7
6
CONTINUOUS
10
-29.0507729471
20
49.9315238970
11
-29.3226691319
21
49.7722531373
0
LINE
5
215
100
AcDbEntity
8
0
100
AcDbLine
62
7
6
CONTINUOUS
10
-28.5816932576
20
49.9149767660
11
-29.0831452497
21
49.6320644927
0
LINE
5
216
100
AcDbEntity
8
0
100
AcDbLine
62
7
6
CONTINUOUS
10
24.0199087524
20
-53.2486471125
11
24.0201938845
21
-53.2487682663
0
LINE
5
217
100
AcDbEntity
8
0
100
AcDbLine
62
7
6
CONTINUOUS
10
-34.1405362184
20
47.0871569806
11
-34.1405362184
21
-22.6957528152
0
LINE
5
218
100
AcDbEntity
8
0
100
AcDbLine
62
7
6
CONTINUOUS
10
-33.9268116129
20
46.7960272485
11
-33.9268116129
21
-22.9868821099
0
LINE
5
219
100
AcDbEntity
8
0
100
AcDbLine
62
7
6
CONTINUOUS
10
-22.5139793275
20
27.7295310506
11
-22.5113281270
21
27.7308201245
0
LINE
5
21A
100
AcDbEntity
8
0
100
AcDbLine
62
7
6
CONTINUOUS
10
-33.0475342121
20
-24.7145584805
11
-33.0474353823
21
-24.7146165063
0
LINE
5
21B
100
AcDbEntity
8
0
100
AcDbLine
62
7
6
CONTINUOUS
10
-20.5846867251
20
24.6513718841
11
-20.6576429242
21
24.6229764411
0
LINE
5
21C
100
AcDbEntity
8
0
100
AcDbLine
62
7
6
CONTINUOUS
10
-17.9397362007
20
21.0655166626
11
-19.7223922134
21
20.1741886563
0
LINE
5
21D
100
AcDbEntity
8
0
100
AcDbLine
62
7
6
CONTINUOUS
10
-17.3740507758
20
20.7826739501
11
-19.7223922134
21
19.6085032313
0
LINE
5
21E
100
AcDbEntity
8
0
100
AcDbLine
62
7
6
CONTINUOUS
10
-22.9311102997
20
-15.8690326971
11
-22.9311102997
21
27.1428544409
0
LINE
5
21F
100
AcDbEntity
8
0
100
AcDbLine
62
7
6
CONTINUOUS
10
-22.7869396151
20
-15.8711088033
11
-22.7869396151
21
27.1407783347
0
LINE
5
220
100
AcDbEntity
8
0
100
AcDbLine
62
7
6
CONTINUOUS
10
-22.7499767022
20
-15.9373777342
11
-22.7499767022
21
26.9007306806
0
LINE
5
221
100
AcDbEntity
8
0
100
AcDbLine
62
7
6
CONTINUOUS
10
-22.7239982830
20
-15.9709962022
11
-22.7239982830
21
26.8671122124
0
LINE
5
222
100
AcDbEntity
8
0
100
AcDbLine
62
7
6
CONTINUOUS
10
-21.7328870917
20
26.2732601308
11
-21.7328870917
21
-16.4650848981
0
LINE
5
223
100
AcDbEntity
8
0
100
AcDbLine
62
7
6
CONTINUOUS
10
-21.4514091657
20
25.4856006645
11
-21.4514091657
21
-15.6911509402
0
LINE
5
224
100
AcDbEntity
8
0
100
AcDbLine
62
7
6
CONTINUOUS
10
-17.3740507758
20
15.5865215274
11
-19.7223922134
21
14.4123508086
0
LINE
5
225
100
AcDbEntity
8
0
100
AcDbLine
62
7
6
CONTINUOUS
10
29.4010627997
20
-18.2765998999
11
28.9060880529
21
-18.3978690135
0
LINE
5
226
100
AcDbEntity
8
0
100
AcDbLine
62
7
6
CONTINUOUS
10
-8.3777405191
20
-23.7271174494
11
-8.1048637696
21
-23.8635558241
0
LINE
5
227
100
AcDbEntity
8
0
100
AcDbLine
62
7
6
CONTINUOUS
10
-7.4286038146
20
-24.2016858016
11
-7.1438625204
21
-24.3440564487
0
LINE
5
228
100
AcDbEntity
8
0
100
AcDbLine
62
7
6
CONTINUOUS
10
-6.8947141532
20
-24.4686306323
11
-6.6099735661
21
-24.6110009259
0
LINE
5
229
100
AcDbEntity
8
0
100
AcDbLine
62
7
6
CONTINUOUS
10
-6.3370968166
20
-24.7474393006
11
-6.0523555224
21
-24.8898099477
0
LINE
5
22A
100
AcDbEntity
8
0
100
AcDbLine
62
7
6
CONTINUOUS
10
-5.7794787729
20
-25.0262483225
11
-5.4947381859
21
-25.1686186160
0
LINE
5
22B
100
AcDbEntity
8
0
100
AcDbLine
62
7
6
CONTINUOUS
10
-5.2693182009
20
-25.2813286085
11
-4.9845769067
21
-25.4236992556
0
LINE
5
22C
100
AcDbEntity
8
0
100
AcDbLine
62
7
6
CONTINUOUS
10
-4.3557737162
20
-25.7381008508
11
-4.0710331292
21
-25.8804711443
0
LINE
5
22D
100
AcDbEntity
8
0
100
AcDbLine
62
7
6
CONTINUOUS
10
-3.8456131442
20
-25.9931811368
11
-3.5608718500
21
-26.1355517839
0
LINE
5
22E
100
AcDbEntity
8
0
100
AcDbLine
62
7
6
CONTINUOUS
10
-3.0269828957
20
-26.4024962611
11
-2.7066493817
21
-26.5626630181
0
LINE
5
22F
100
AcDbEntity
8
0
100
AcDbLine
62
7
6
CONTINUOUS
10
-8.2997199182
20
-23.6881071489
11
-8.0666658076
21
-23.8046342042
0
LINE
5
230
100
AcDbEntity
8
0
100
AcDbLine
62
7
6
CONTINUOUS
10
-7.3505832137
20
-24.1626755012
11
-7.1223483433
21
-24.2767929364
0
LINE
5
231
100
AcDbEntity
8
0
100
AcDbLine
62
7
6
CONTINUOUS
10
-6.8166935523
20
-24.4296203319
11
-6.5884593890
21
-24.5437374136
0
LINE
5
232
100
AcDbEntity
8
0
100
AcDbLine
62
7
6
CONTINUOUS
10
-6.2590762157
20
-24.7084290002
11
-6.0158303374
21
-24.8300519394
0
LINE
5
233
100
AcDbEntity
8
0
100
AcDbLine
62
7
6
CONTINUOUS
10
-5.7014581721
20
-24.9872380220
11
-5.4732240087
21
-25.1013551037
0
LINE
5
234
100
AcDbEntity
8
0
100
AcDbLine
62
7
6
CONTINUOUS
10
-5.1912976000
20
-25.2423183081
11
-4.9475693025
21
-25.3641824568
0
LINE
5
235
100
AcDbEntity
8
0
100
AcDbLine
62
7
6
CONTINUOUS
10
-4.2777531154
20
-25.6990905504
11
-4.0662027113
21
-25.8048657524
0
LINE
5
236
100
AcDbEntity
8
0
100
AcDbLine
62
7
6
CONTINUOUS
10
-3.7675925433
20
-25.9541708364
11
-3.5393576728
21
-26.0682882716
0
LINE
5
237
100
AcDbEntity
8
0
100
AcDbLine
62
7
6
CONTINUOUS
10
-2.9489622948
20
-26.3634859607
11
-2.7127097377
21
-26.4816122392
0
LINE
5
238
100
AcDbEntity
8
0
100
AcDbLine
62
7
6
CONTINUOUS
10
-4.7862043900
20
-25.1046703037
11
-4.3353651272
21
-25.3300899352
0
LINE
5
239
100
AcDbEntity
8
0
100
AcDbLine
62
7
6
CONTINUOUS
10
-4.7081837892
20
-25.0656600033
11
-4.2573445263
21
-25.2910796347
0
LINE
5
23A
100
AcDbEntity
8
0
100
AcDbLine
62
7
6
CONTINUOUS
10
-3.3352403932
20
-25.4301209339
11
-3.0860920259
21
-25.5546951175
0
LINE
5
23B
100
AcDbEntity
8
0
100
AcDbLine
62
7
6
CONTINUOUS
10
-4.3081054799
20
-24.9436883905
11
-4.5809822294
21
-24.8072500158
0
LINE
5
23C
100
AcDbEntity
8
0
100
AcDbLine
62
7
6
CONTINUOUS
10
-3.2572197923
20
-25.3911106335
11
-3.0080714251
21
-25.5156848171
0
LINE
5
23D
100
AcDbEntity
8
0
100
AcDbLine
62
7
6
CONTINUOUS
10
-2.8808687425
20
-25.2572754305
11
-3.2367963062
21
-25.0793116091
0
LINE
5
23E
100
AcDbEntity
8
0
100
AcDbLine
62
7
6
CONTINUOUS
10
-3.0863754449
20
-24.6090247194
11
-2.7304492919
21
-24.7869877996
0
LINE
5
23F
100
AcDbEntity
8
0
100
AcDbLine
62
7
6
CONTINUOUS
10
-3.0083548441
20
-24.5700144189
11
-2.6524285678
21
-24.7479775571
0
LINE
5
240
100
AcDbEntity
8
0
100
AcDbLine
62
7
6
CONTINUOUS
10
-2.5845469546
20
-24.4599075737
11
-3.2489435628
21
-24.1277092921
0
LINE
5
241
100
AcDbEntity
8
0
100
AcDbLine
62
7
6
CONTINUOUS
10
-3.9370673554
20
-23.7836473959
11
-4.2218086495
21
-23.6412767488
0
LINE
5
242
100
AcDbEntity
8
0
100
AcDbLine
62
7
6
CONTINUOUS
10
-4.8980686045
20
-23.3031467713
11
-5.3251794851
21
-23.0895913310
0
LINE
5
243
100
AcDbEntity
8
0
100
AcDbLine
62
7
6
CONTINUOUS
10
-5.8590691465
20
-22.8226465003
11
-6.2980445718
21
-22.6031587876
0
LINE
5
244
100
AcDbEntity
8
0
100
AcDbLine
62
7
6
CONTINUOUS
10
-6.5471929391
20
-22.4785846040
11
-6.8319342333
21
-22.3362139569
0
LINE
5
245
100
AcDbEntity
8
0
100
AcDbLine
62
7
6
CONTINUOUS
10
-7.0454896736
20
-22.2294362368
11
-7.3302309678
21
-22.0870655897
0
LINE
5
246
100
AcDbEntity
8
0
100
AcDbLine
62
7
6
CONTINUOUS
10
-7.9590334511
20
-21.7726643480
11
-8.2437747453
21
-21.6302937009
0
LINE
5
247
100
AcDbEntity
8
0
100
AcDbLine
62
7
6
CONTINUOUS
10
-20.8404924969
20
-14.7467041395
11
10.4871896900
21
-30.4105452329
0
LINE
5
248
100
AcDbEntity
8
0
100
AcDbLine
62
7
6
CONTINUOUS
10
-20.5164153810
20
-14.3573978635
11
10.4871896900
21
-29.8592003990
0
LINE
5
249
100
AcDbEntity
8
0
100
AcDbLine
62
7
6
CONTINUOUS
10
10.4871896900
20
-28.9341778465
11
-19.6016309496
21
-13.8897675267
0
LINE
5
24A
100
AcDbEntity
8
0
100
AcDbLine
62
7
6
CONTINUOUS
10
8.2939253813
20
-27.8185241111
11
4.4048380847
21
-25.8739804628
0
LINE
5
24B
100
AcDbEntity
8
0
100
AcDbLine
62
7
6
CONTINUOUS
10
-7.6159771954
20
-19.8635728227
11
-11.5050644920
21
-17.9190291744
0
LINE
5
24C
100
AcDbEntity
8
0
100
AcDbLine
62
7
6
CONTINUOUS
10
-19.7428584928
20
-13.6461860459
11
-19.7428584928
21
24.2304577680
0
LINE
5
24D
100
AcDbEntity
8
0
100
AcDbLine
62
7
6
CONTINUOUS
10
-19.7223922134
20
24.2202246283
11
-19.7223922134
21
6.8343084876
0
LINE
5
24E
100
AcDbEntity
8
0
100
AcDbLine
62
7
6
CONTINUOUS
10
-19.7223922134
20
5.8154759896
11
-19.7223922134
21
-13.2341861478
0
LINE
5
24F
100
AcDbEntity
8
0
100
AcDbLine
62
7
6
CONTINUOUS
10
-19.6907638012
20
-13.2210545752
11
-19.6907638012
21
-13.8063918590
0
LINE
5
250
100
AcDbEntity
8
0
100
AcDbLine
62
7
6
CONTINUOUS
10
-19.6907638012
20
5.8388819153
11
-19.6907638012
21
6.8560726156
0
LINE
5
251
100
AcDbEntity
8
0
100
AcDbLine
62
7
6
CONTINUOUS
10
-17.3740507758
20
-3.8990500577
11
-17.3740507758
21
1.2971023650
0
LINE
5
252
100
AcDbEntity
8
0
100
AcDbLine
62
7
6
CONTINUOUS
10
-17.3740507758
20
15.5865215274
11
-17.3740507758
21
20.7826739501
0
LINE
5
253
100
AcDbEntity
8
0
100
AcDbLine
62
7
6
CONTINUOUS
10
-19.6907638012
20
6.8560726156
11
-19.7223922134
21
6.8343084876
0
LINE
5
254
100
AcDbEntity
8
0
100
AcDbLine
62
7
6
CONTINUOUS
10
8.4353467375
20
-27.7478134329
11
4.5462594410
21
-25.8032697847
0
LINE
5
255
100
AcDbEntity
8
0
100
AcDbLine
62
7
6
CONTINUOUS
10
-7.4745558392
20
-19.7928621446
11
-11.3636431357
21
-17.8483184963
0
LINE
5
256
100
AcDbEntity
8
0
100
AcDbLine
62
7
6
CONTINUOUS
10
8.6474787719
20
-27.6417474158
11
4.7583914753
21
-25.6972037675
0
LINE
5
257
100
AcDbEntity
8
0
100
AcDbLine
62
7
6
CONTINUOUS
10
-7.2624238048
20
-19.6867961274
11
-11.1515111014
21
-17.7422524791
0
LINE
5
258
100
AcDbEntity
8
0
100
AcDbLine
62
7
6
CONTINUOUS
10
8.7889001281
20
-27.5710367376
11
4.8998128316
21
-25.6264930894
0
LINE
5
259
100
AcDbEntity
8
0
100
AcDbLine
62
7
6
CONTINUOUS
10
-7.1210024486
20
-19.6160854493
11
-11.0100897451
21
-17.6715418010
0
LINE
5
25A
100
AcDbEntity
8
0
100
AcDbLine
62
7
6
CONTINUOUS
10
9.0010321625
20
-27.4649707205
11
5.1119448659
21
-25.5204270722
0
LINE
5
25B
100
AcDbEntity
8
0
100
AcDbLine
62
7
6
CONTINUOUS
10
-6.9088704142
20
-19.5100194321
11
-10.7979577108
21
-17.5654757838
0
LINE
5
25C
100
AcDbEntity
8
0
100
AcDbLine
62
7
6
CONTINUOUS
10
9.1424535187
20
-27.3942600423
11
5.2533662222
21
-25.4497163941
0
LINE
5
25D
100
AcDbEntity
8
0
100
AcDbLine
62
7
6
CONTINUOUS
10
-6.7674490580
20
-19.4393087540
11
-10.6565363545
21
-17.4947651057
0
LINE
5
25E
100
AcDbEntity
8
0
100
AcDbLine
62
7
6
CONTINUOUS
10
9.3545855531
20
-27.2881940252
11
5.4654982565
21
-25.3436503769
0
LINE
5
25F
100
AcDbEntity
8
0
100
AcDbLine
62
7
6
CONTINUOUS
10
-6.5553170236
20
-19.3332427368
11
-10.4444043202
21
-17.3886990885
0
LINE
5
260
100
AcDbEntity
8
0
100
AcDbLine
62
7
6
CONTINUOUS
10
9.4960069093
20
-27.2174833470
11
5.6069196128
21
-25.2729396988
0
LINE
5
261
100
AcDbEntity
8
0
100
AcDbLine
62
7
6
CONTINUOUS
10
-6.4138956674
20
-19.2625320587
11
-10.3029829639
21
-17.3179884104
0
LINE
5
262
100
AcDbEntity
8
0
100
AcDbLine
62
7
6
CONTINUOUS
10
9.7081389436
20
-27.1114173299
11
5.8190516471
21
-25.1668736816
0
LINE
5
263
100
AcDbEntity
8
0
100
AcDbLine
62
7
6
CONTINUOUS
10
-6.2017636331
20
-19.1564660415
11
-10.0908509296
21
-17.2119223933
0
LINE
5
264
100
AcDbEntity
8
0
100
AcDbLine
62
7
6
CONTINUOUS
10
-10.0275518307
20
-17.1259883799
11
-9.9732673667
21
-17.1531306118
0
LINE
5
265
100
AcDbEntity
8
0
100
AcDbLine
62
7
6
CONTINUOUS
10
-5.9542762596
20
-19.1626261654
11
-5.7700879851
21
-19.2547203026
0
LINE
5
266
100
AcDbEntity
8
0
100
AcDbLine
62
7
6
CONTINUOUS
10
5.8823507460
20
-25.0809396682
11
5.9366352100
21
-25.1080819002
0
LINE
5
267
100
AcDbEntity
8
0
100
AcDbLine
62
7
6
CONTINUOUS
10
9.9556263171
20
-27.1175774537
11
10.1398145916
21
-27.2096715910
0
LINE
5
268
100
AcDbEntity
8
0
100
AcDbLine
62
7
6
CONTINUOUS
10
9.8495602999
20
-27.0407066517
11
5.9604730034
21
-25.0961630035
0
LINE
5
269
100
AcDbEntity
8
0
100
AcDbLine
62
7
6
CONTINUOUS
10
-6.0603422768
20
-19.0857553634
11
-9.9494295733
21
-17.1412117151
0
LINE
5
26A
100
AcDbEntity
8
0
100
AcDbLine
62
7
6
CONTINUOUS
10
-9.9057493084
20
-17.1364879240
11
-5.7130050692
21
-19.2328600436
0
LINE
5
26B
100
AcDbEntity
8
0
100
AcDbLine
62
7
6
CONTINUOUS
10
6.0041532683
20
-25.0914392123
11
10.1968975075
21
-27.1878113320
0
LINE
5
26C
100
AcDbEntity
8
0
100
AcDbLine
62
7
6
CONTINUOUS
10
-7.4745558392
20
-19.7928621446
11
-7.3684898220
21
-19.8697329466
0
LINE
5
26D
100
AcDbEntity
8
0
100
AcDbLine
62
7
6
CONTINUOUS
10
-7.1210024486
20
-19.6160854493
11
-7.0149364314
21
-19.6929562513
0
LINE
5
26E
100
AcDbEntity
8
0
100
AcDbLine
62
7
6
CONTINUOUS
10
-6.7674490580
20
-19.4393087540
11
-6.6613830408
21
-19.5161795560
0
LINE
5
26F
100
AcDbEntity
8
0
100
AcDbLine
62
7
6
CONTINUOUS
10
-6.4138956674
20
-19.2625320587
11
-6.3078296502
21
-19.3394028607
0
LINE
5
270
100
AcDbEntity
8
0
100
AcDbLine
62
7
6
CONTINUOUS
10
-6.0603422768
20
-19.0857553634
11
-5.9542762596
21
-19.1626261654
0
LINE
5
271
100
AcDbEntity
8
0
100
AcDbLine
62
7
6
CONTINUOUS
10
8.4353467375
20
-27.7478134329
11
8.5414127547
21
-27.8246842349
0
LINE
5
272
100
AcDbEntity
8
0
100
AcDbLine
62
7
6
CONTINUOUS
10
8.7889001281
20
-27.5710367376
11
8.8949661453
21
-27.6479075396
0
LINE
5
273
100
AcDbEntity
8
0
100
AcDbLine
62
7
6
CONTINUOUS
10
9.1424535187
20
-27.3942600423
11
9.2485195359
21
-27.4711308443
0
LINE
5
274
100
AcDbEntity
8
0
100
AcDbLine
62
7
6
CONTINUOUS
10
-21.1024898945
20
-14.6632756650
11
-21.4514091657
21
-15.6911509402
0
LINE
5
275
100
AcDbEntity
8
0
100
AcDbLine
62
7
6
CONTINUOUS
10
-20.8404924969
20
-14.7467041395
11
-21.1894117680
21
-15.7745794147
0
LINE
5
276
100
AcDbEntity
8
0
100
AcDbLine
62
7
6
CONTINUOUS
10
-19.6907638012
20
5.8388819153
11
-19.7223922134
21
5.8154759896
0
LINE
5
277
100
AcDbEntity
8
0
100
AcDbLine
62
7
6
CONTINUOUS
10
9.4960069093
20
-27.2174833470
11
9.6020729265
21
-27.2943541490
0
LINE
5
278
100
AcDbEntity
8
0
100
AcDbLine
62
7
6
CONTINUOUS
10
9.8495602999
20
-27.0407066517
11
9.9556263171
21
-27.1175774537
0
LINE
5
279
100
AcDbEntity
8
0
100
AcDbLine
62
7
6
CONTINUOUS
10
-17.9397362007
20
1.5799450774
11
-19.7223922134
21
0.6886170711
0
LINE
5
27A
100
AcDbEntity
8
0
100
AcDbLine
62
7
6
CONTINUOUS
10
-17.3740507758
20
1.2971023650
11
-19.7223922134
21
0.1229316462
0
LINE
5
27B
100
AcDbEntity
8
0
100
AcDbLine
62
7
6
CONTINUOUS
10
-2.7066493817
20
-26.5626630181
11
-2.7744449986
21
-25.6559691658
0
LINE
5
27C
100
AcDbEntity
8
0
100
AcDbLine
62
7
6
CONTINUOUS
10
-3.0860920259
20
-25.5546951175
11
-3.0269828957
21
-26.4024962611
0
LINE
5
27D
100
AcDbEntity
8
0
100
AcDbLine
62
7
6
CONTINUOUS
10
-3.0080714251
20
-25.5156848171
11
-2.9489622948
21
-26.3634859607
0
LINE
5
27E
100
AcDbEntity
8
0
100
AcDbLine
62
7
6
CONTINUOUS
10
-5.7630744553
20
-19.2510630172
11
-5.7630744553
21
-19.7631891521
0
LINE
5
27F
100
AcDbEntity
8
0
100
AcDbLine
62
7
6
CONTINUOUS
10
-5.7117034204
20
-19.2353045853
11
-5.7117034204
21
-19.7458553698
0
LINE
5
280
100
AcDbEntity
8
0
100
AcDbLine
62
7
6
CONTINUOUS
10
-8.2437747453
20
-21.6302937009
11
-8.3777405191
21
-23.7271174494
0
LINE
5
281
100
AcDbEntity
8
0
100
AcDbLine
62
7
6
CONTINUOUS
10
-8.1705845622
20
-21.6668887924
11
-8.2997199182
21
-23.6881071489
0
LINE
5
282
100
AcDbEntity
8
0
100
AcDbLine
62
7
6
CONTINUOUS
10
-8.0667290296
20
-23.2280264097
11
-7.9590334511
21
-21.7726643480
0
LINE
5
283
100
AcDbEntity
8
0
100
AcDbLine
62
7
6
CONTINUOUS
10
-6.2188793267
20
-23.3882550126
11
-6.3370968166
21
-24.7474393006
0
LINE
5
284
100
AcDbEntity
8
0
100
AcDbLine
62
7
6
CONTINUOUS
10
-6.1408587259
20
-23.3492447121
11
-6.2590762157
21
-24.7084290002
0
LINE
5
285
100
AcDbEntity
8
0
100
AcDbLine
62
7
6
CONTINUOUS
10
28.1254990030
20
20.9564365479
11
28.6939560185
21
21.2771521280
0
LINE
5
286
100
AcDbEntity
8
0
100
AcDbLine
62
7
6
CONTINUOUS
10
24.3418875404
20
19.8449784991
11
27.4465016757
21
21.4311499565
0
LINE
5
287
100
AcDbEntity
8
0
100
AcDbLine
62
7
6
CONTINUOUS
10
25.7377331485
20
17.5647158983
11
28.9060880529
21
19.1834868477
0
LINE
5
288
100
AcDbEntity
8
0
100
AcDbLine
62
7
6
CONTINUOUS
10
-17.3740507758
20
-3.8990500577
11
-19.7223922134
21
-5.0732207765
0
LINE
5
289
100
AcDbEntity
8
0
100
AcDbLine
62
7
6
CONTINUOUS
10
28.8134494005
20
19.7930285930
11
29.4010627997
21
20.0575733336
0
LINE
5
28A
100
AcDbEntity
8
0
100
AcDbLine
62
7
6
CONTINUOUS
10
-17.3740507758
20
1.2971023650
11
-17.9397362007
21
1.5799450774
0
LINE
5
28B
100
AcDbEntity
8
0
100
AcDbLine
62
7
6
CONTINUOUS
10
-21.1024898945
20
24.7718937122
11
-21.4514091657
21
25.4856006645
0
LINE
5
28C
100
AcDbEntity
8
0
100
AcDbLine
62
7
6
CONTINUOUS
10
-20.8404924969
20
24.8348644980
11
-21.1894117680
21
25.5485714503
0
LINE
5
28D
100
AcDbEntity
8
0
100
AcDbLine
62
7
6
CONTINUOUS
10
-4.3353651272
20
-25.3300899352
11
-4.3557737162
21
-25.7381008508
0
LINE
5
28E
100
AcDbEntity
8
0
100
AcDbLine
62
7
6
CONTINUOUS
10
-4.2573445263
20
-25.2910796347
11
-4.2777531154
21
-25.6990905504
0
LINE
5
28F
100
AcDbEntity
8
0
100
AcDbLine
62
7
6
CONTINUOUS
10
-4.0710331292
20
-25.8804711443
11
-3.9370673554
21
-23.7836473959
0
LINE
5
290
100
AcDbEntity
8
0
100
AcDbLine
62
7
6
CONTINUOUS
10
-4.2649568760
20
-24.2924832619
11
-4.3081054799
21
-24.9436883905
0
LINE
5
291
100
AcDbEntity
8
0
100
AcDbLine
62
7
6
CONTINUOUS
10
-4.1869362752
20
-24.2534729614
11
-4.2300848790
21
-24.9046780901
0
LINE
5
292
100
AcDbEntity
8
0
100
AcDbLine
62
7
6
CONTINUOUS
10
-5.9891504740
20
-24.1758988695
11
-5.8590691465
21
-22.8226465003
0
LINE
5
293
100
AcDbEntity
8
0
100
AcDbLine
62
7
6
CONTINUOUS
10
-6.3150578740
20
-20.4236016190
11
-6.2324984492
21
-20.0875178798
0
LINE
5
294
100
AcDbEntity
8
0
100
AcDbLine
62
7
6
CONTINUOUS
10
-6.8319342333
20
-22.3362139569
11
-7.4286038146
21
-24.2016858016
0
LINE
5
295
100
AcDbEntity
8
0
100
AcDbLine
62
7
6
CONTINUOUS
10
-6.7754278095
20
-22.3644671688
11
-7.3505832137
21
-24.1626755012
0
LINE
5
296
100
AcDbEntity
8
0
100
AcDbLine
62
7
6
CONTINUOUS
10
-11.5136144975
20
-17.9337757527
11
-11.5050644920
21
-17.9190291744
0
LINE
5
297
100
AcDbEntity
8
0
100
AcDbLine
62
7
6
CONTINUOUS
10
-11.2468622749
20
-17.9067089267
11
-11.1515111014
21
-17.7422524791
0
LINE
5
298
100
AcDbEntity
8
0
100
AcDbLine
62
7
6
CONTINUOUS
10
-10.8933088843
20
-17.7299322314
11
-10.7979577108
21
-17.5654757838
0
LINE
5
299
100
AcDbEntity
8
0
100
AcDbLine
62
7
6
CONTINUOUS
10
-10.5397554937
20
-17.5531555361
11
-10.4444043202
21
-17.3886990885
0
LINE
5
29A
100
AcDbEntity
8
0
100
AcDbLine
62
7
6
CONTINUOUS
10
-10.1862021031
20
-17.3763788408
11
-10.0908509296
21
-17.2119223933
0
LINE
5
29B
100
AcDbEntity
8
0
100
AcDbLine
62
7
6
CONTINUOUS
10
28.9060880529
20
-17.7519109582
11
29.4010627997
21
-17.9993983317
0
LINE
5
29C
100
AcDbEntity
8
0
100
AcDbLine
62
7
6
CONTINUOUS
10
-19.6907638012
20
6.8560726156
11
-19.7223922134
21
6.8718868217
0
LINE
5
29D
100
AcDbEntity
8
0
100
AcDbLine
62
7
6
CONTINUOUS
10
-7.1438625204
20
-24.3440564487
11
-6.5471929391
21
-22.4785846040
0
LINE
5
29E
100
AcDbEntity
8
0
100
AcDbLine
62
7
6
CONTINUOUS
10
-6.2980445718
20
-22.6031587876
11
-6.8947141532
21
-24.4686306323
0
LINE
5
29F
100
AcDbEntity
8
0
100
AcDbLine
62
7
6
CONTINUOUS
10
-6.2415381481
20
-22.6314119995
11
-6.8166935523
21
-24.4296203319
0
LINE
5
2A0
100
AcDbEntity
8
0
100
AcDbLine
62
7
6
CONTINUOUS
10
-6.6099735661
20
-24.6110009259
11
-6.2188793267
21
-23.3882550126
0
LINE
5
2A1
100
AcDbEntity
8
0
100
AcDbLine
62
7
6
CONTINUOUS
10
-5.3883845336
20
-23.8035024092
11
-5.7794787729
21
-25.0262483225
0
LINE
5
2A2
100
AcDbEntity
8
0
100
AcDbLine
62
7
6
CONTINUOUS
10
-5.3103639327
20
-23.7644921087
11
-5.7014581721
21
-24.9872380220
0
LINE
5
2A3
100
AcDbEntity
8
0
100
AcDbLine
62
7
6
CONTINUOUS
10
-5.4947381859
20
-25.1686186160
11
-4.8980686045
21
-23.3031467713
0
LINE
5
2A4
100
AcDbEntity
8
0
100
AcDbLine
62
7
6
CONTINUOUS
10
-3.2489435628
20
-24.1277092921
11
-3.8456131442
21
-25.9931811368
0
LINE
5
2A5
100
AcDbEntity
8
0
100
AcDbLine
62
7
6
CONTINUOUS
10
-3.1924371386
20
-24.1559625023
11
-3.7675925433
21
-25.9541708364
0
LINE
5
2A6
100
AcDbEntity
8
0
100
AcDbLine
62
7
6
CONTINUOUS
10
-3.2367963062
20
-25.0793116091
11
-3.0863754449
21
-24.6090247194
0
LINE
5
2A7
100
AcDbEntity
8
0
100
AcDbLine
62
7
6
CONTINUOUS
10
-3.5608718500
20
-26.1355517839
11
-3.3352403932
21
-25.4301209339
0
LINE
5
2A8
100
AcDbEntity
8
0
100
AcDbLine
62
7
6
CONTINUOUS
10
-7.6245272010
20
-19.8783194010
11
-7.6159771954
21
-19.8635728227
0
LINE
5
2A9
100
AcDbEntity
8
0
100
AcDbLine
62
7
6
CONTINUOUS
10
-7.3684898220
20
-19.8697329466
11
-7.2624238048
21
-19.6867961274
0
LINE
5
2AA
100
AcDbEntity
8
0
100
AcDbLine
62
7
6
CONTINUOUS
10
-7.0149364314
20
-19.6929562513
11
-6.9088704142
21
-19.5100194321
0
LINE
5
2AB
100
AcDbEntity
8
0
100
AcDbLine
62
7
6
CONTINUOUS
10
-6.6613830408
20
-19.5161795560
11
-6.5553170236
21
-19.3332427368
0
LINE
5
2AC
100
AcDbEntity
8
0
100
AcDbLine
62
7
6
CONTINUOUS
10
-6.3078296502
20
-19.3394028607
11
-6.2017636331
21
-19.1564660415
0
LINE
5
2AD
100
AcDbEntity
8
0
100
AcDbLine
62
7
6
CONTINUOUS
10
-19.7428584928
20
-13.6461860459
11
-20.6576429242
21
-14.1138163827
0
LINE
5
2AE
100
AcDbEntity
8
0
100
AcDbLine
62
7
6
CONTINUOUS
10
-19.6016309496
20
-13.8897675267
11
-20.5164153810
21
-14.3573978635
0
LINE
5
2AF
100
AcDbEntity
8
0
100
AcDbLine
62
7
6
CONTINUOUS
10
-19.6907638012
20
-13.2210545752
11
-19.7223922134
21
-13.2341861478
0
LINE
5
2B0
100
AcDbEntity
8
0
100
AcDbLine
62
7
6
CONTINUOUS
10
-5.3251794851
20
-23.0895913310
11
-5.9891504740
21
-24.1758988695
0
LINE
5
2B1
100
AcDbEntity
8
0
100
AcDbLine
62
7
6
CONTINUOUS
10
-5.2836840693
20
-23.1103390389
11
-5.9111298731
21
-24.1368885691
0
LINE
5
2B2
100
AcDbEntity
8
0
100
AcDbLine
62
7
6
CONTINUOUS
10
-6.0523555224
20
-24.8898099477
11
-5.3883845336
21
-23.8035024092
0
LINE
5
2B3
100
AcDbEntity
8
0
100
AcDbLine
62
7
6
CONTINUOUS
10
-7.3302309678
20
-22.0870655897
11
-8.0667290296
21
-23.2280264097
0
LINE
5
2B4
100
AcDbEntity
8
0
100
AcDbLine
62
7
6
CONTINUOUS
10
-7.2902846090
20
-22.1070387690
11
-7.9887084287
21
-23.1890161093
0
LINE
5
2B5
100
AcDbEntity
8
0
100
AcDbLine
62
7
6
CONTINUOUS
10
-8.1048637696
20
-23.8635558241
11
-7.0454896736
21
-22.2294362368
0
LINE
5
2B6
100
AcDbEntity
8
0
100
AcDbLine
62
7
6
CONTINUOUS
10
-22.0527866642
20
-17.1634587445
11
-22.1138659713
21
-17.1940611866
0
LINE
5
2B7
100
AcDbEntity
8
0
100
AcDbLine
62
7
6
CONTINUOUS
10
10.1468281214
20
-27.2060143055
11
10.1468281214
21
-27.7181404404
0
LINE
5
2B8
100
AcDbEntity
8
0
100
AcDbLine
62
7
6
CONTINUOUS
10
10.1981991563
20
-27.1902558736
11
10.1981991563
21
-27.7008066582
0
LINE
5
2B9
100
AcDbEntity
8
0
100
AcDbLine
62
7
6
CONTINUOUS
10
10.4871896928
20
-32.2393637019
11
10.4871897014
21
-32.2396808929
0
LINE
5
2BA
100
AcDbEntity
8
0
100
AcDbLine
62
7
6
CONTINUOUS
10
10.4871896900
20
-32.2389894947
11
10.4871897047
21
9.9102837956
0
LINE
5
2BB
100
AcDbEntity
8
0
100
AcDbLine
62
7
6
CONTINUOUS
10
10.5522862261
20
-32.6076715634
11
10.5522862261
21
10.1306734641
0
LINE
5
2BC
100
AcDbEntity
8
0
100
AcDbLine
62
7
6
CONTINUOUS
10
11.6402270107
20
9.6849995655
11
11.6402270107
21
-33.1531088491
0
LINE
5
2BD
100
AcDbEntity
8
0
100
AcDbLine
62
7
6
CONTINUOUS
10
11.7743770074
20
9.6848531146
11
11.7743770074
21
-33.1532553000
0
LINE
5
2BE
100
AcDbEntity
8
0
100
AcDbLine
62
7
6
CONTINUOUS
10
11.9851055766
20
9.7053727992
11
11.9851055766
21
-33.3065143451
0
LINE
5
2BF
100
AcDbEntity
8
0
100
AcDbLine
62
7
6
CONTINUOUS
10
12.0179327440
20
9.6683329187
11
12.0179327440
21
-33.3435542193
0
LINE
5
2C0
100
AcDbEntity
8
0
100
AcDbLine
62
7
6
CONTINUOUS
10
-4.5809822294
20
-24.8072500158
11
-4.2649568760
21
-24.2924832619
0
LINE
5
2C1
100
AcDbEntity
8
0
100
AcDbLine
62
7
6
CONTINUOUS
10
-4.9845769067
20
-25.4236992556
11
-4.7862043900
21
-25.1046703037
0
LINE
5
2C2
100
AcDbEntity
8
0
100
AcDbLine
62
7
6
CONTINUOUS
10
-4.2218086495
20
-23.6412767488
11
-5.2693182009
21
-25.2813286085
0
LINE
5
2C3
100
AcDbEntity
8
0
100
AcDbLine
62
7
6
CONTINUOUS
10
-4.1815582095
20
-23.6614019688
11
-5.1912976000
21
-25.2423183081
0
LINE
5
2C4
100
AcDbEntity
8
0
100
AcDbLine
62
7
6
CONTINUOUS
10
-6.0249869378
20
-19.9817786844
11
-5.7702820641
21
-19.7971826336
0
LINE
5
2C5
100
AcDbEntity
8
0
100
AcDbLine
62
7
6
CONTINUOUS
10
-11.5050644920
20
-17.9190291744
11
-11.3636431357
21
-17.8483184963
0
LINE
5
2C6
100
AcDbEntity
8
0
100
AcDbLine
62
7
6
CONTINUOUS
10
-11.1515111014
20
-17.7422524791
11
-11.0100897451
21
-17.6715418010
0
LINE
5
2C7
100
AcDbEntity
8
0
100
AcDbLine
62
7
6
CONTINUOUS
10
-10.7979577108
20
-17.5654757838
11
-10.6565363545
21
-17.4947651057
0
LINE
5
2C8
100
AcDbEntity
8
0
100
AcDbLine
62
7
6
CONTINUOUS
10
-10.4444043202
20
-17.3886990885
11
-10.3029829639
21
-17.3179884104
0
LINE
5
2C9
100
AcDbEntity
8
0
100
AcDbLine
62
7
6
CONTINUOUS
10
-10.0908509296
20
-17.2119223933
11
-9.9494295733
21
-17.1412117151
0
LINE
5
2CA
100
AcDbEntity
8
0
100
AcDbLine
62
7
6
CONTINUOUS
10
-10.0275518307
20
-17.1259883799
11
-11.6596455015
21
-17.8607602508
0
LINE
5
2CB
100
AcDbEntity
8
0
100
AcDbLine
62
7
6
CONTINUOUS
10
-17.3740507758
20
20.7826739501
11
-17.9397362007
21
21.0655166626
0
LINE
5
2CC
100
AcDbEntity
8
0
100
AcDbLine
62
7
6
CONTINUOUS
10
10.4871896900
20
9.1154336766
11
-20.7365476571
21
24.7273023502
0
LINE
5
2CD
100
AcDbEntity
8
0
100
AcDbLine
62
7
6
CONTINUOUS
10
10.4871896900
20
9.1710234046
11
-20.8404924969
21
24.8348644980
0
LINE
5
2CE
100
AcDbEntity
8
0
100
AcDbLine
62
7
6
CONTINUOUS
10
9.5948447027
20
-28.3785529073
11
9.6774041275
21
-28.0424691681
0
LINE
5
2CF
100
AcDbEntity
8
0
100
AcDbLine
62
7
6
CONTINUOUS
10
4.3962880792
20
-25.8887270411
11
4.4048380847
21
-25.8739804628
0
LINE
5
2D0
100
AcDbEntity
8
0
100
AcDbLine
62
7
6
CONTINUOUS
10
4.6630403018
20
-25.8616602151
11
4.7583914753
21
-25.6972037675
0
LINE
5
2D1
100
AcDbEntity
8
0
100
AcDbLine
62
7
6
CONTINUOUS
10
5.0165936924
20
-25.6848835198
11
5.1119448659
21
-25.5204270722
0
LINE
5
2D2
100
AcDbEntity
8
0
100
AcDbLine
62
7
6
CONTINUOUS
10
5.3701470830
20
-25.5081068245
11
5.4654982565
21
-25.3436503769
0
LINE
5
2D3
100
AcDbEntity
8
0
100
AcDbLine
62
7
6
CONTINUOUS
10
-5.7700879851
20
-19.2547203026
11
-7.2396317270
21
-20.0707671380
0
LINE
5
2D4
100
AcDbEntity
8
0
100
AcDbLine
62
7
6
CONTINUOUS
10
-6.0249869378
20
-19.9817786844
11
-6.7147053096
21
-20.3332303467
0
LINE
5
2D5
100
AcDbEntity
8
0
100
AcDbLine
62
7
6
CONTINUOUS
10
-6.3150578740
20
-20.4236016190
11
-6.4242653792
21
-20.4784503119
0
LINE
5
2D6
100
AcDbEntity
8
0
100
AcDbLine
62
7
6
CONTINUOUS
10
-7.6159771954
20
-19.8635728227
11
-7.4745558392
21
-19.7928621446
0
LINE
5
2D7
100
AcDbEntity
8
0
100
AcDbLine
62
7
6
CONTINUOUS
10
-7.2624238048
20
-19.6867961274
11
-7.1210024486
21
-19.6160854493
0
LINE
5
2D8
100
AcDbEntity
8
0
100
AcDbLine
62
7
6
CONTINUOUS
10
-6.9088704142
20
-19.5100194321
11
-6.7674490580
21
-19.4393087540
0
LINE
5
2D9
100
AcDbEntity
8
0
100
AcDbLine
62
7
6
CONTINUOUS
10
-6.5553170236
20
-19.3332427368
11
-6.4138956674
21
-19.2625320587
0
LINE
5
2DA
100
AcDbEntity
8
0
100
AcDbLine
62
7
6
CONTINUOUS
10
-6.2017636331
20
-19.1564660415
11
-6.0603422768
21
-19.0857553634
0
LINE
5
2DB
100
AcDbEntity
8
0
100
AcDbLine
62
7
6
CONTINUOUS
10
-5.9542762596
20
-19.1626261654
11
-7.5050949659
21
-19.9380355185
0
LINE
5
2DC
100
AcDbEntity
8
0
100
AcDbLine
62
7
6
CONTINUOUS
10
-8.0667290296
20
-23.2280264097
11
-7.9887084287
21
-23.1890161093
0
LINE
5
2DD
100
AcDbEntity
8
0
100
AcDbLine
62
7
6
CONTINUOUS
10
-8.3777405191
20
-23.7271174494
11
-8.2997199182
21
-23.6881071489
0
LINE
5
2DE
100
AcDbEntity
8
0
100
AcDbLine
62
7
6
CONTINUOUS
10
-5.7630744553
20
-19.7631891521
11
-6.8108125130
21
-20.2851767450
0
LINE
5
2DF
100
AcDbEntity
8
0
100
AcDbLine
62
7
6
CONTINUOUS
10
-22.1595192586
20
27.7146357549
11
-22.1594009165
21
27.7145838653
0
LINE
5
2E0
100
AcDbEntity
8
0
100
AcDbLine
62
7
6
CONTINUOUS
10
11.2246643146
20
11.0224975651
11
11.2247360449
21
11.0224576765
0
LINE
5
2E1
100
AcDbEntity
8
0
100
AcDbLine
62
7
6
CONTINUOUS
10
5.7237004736
20
-25.3313301292
11
5.8190516471
21
-25.1668736816
0
LINE
5
2E2
100
AcDbEntity
8
0
100
AcDbLine
62
7
6
CONTINUOUS
10
8.2853753757
20
-27.8332706893
11
8.2939253813
21
-27.8185241111
0
LINE
5
2E3
100
AcDbEntity
8
0
100
AcDbLine
62
7
6
CONTINUOUS
10
8.5414127547
20
-27.8246842349
11
8.6474787719
21
-27.6417474158
0
LINE
5
2E4
100
AcDbEntity
8
0
100
AcDbLine
62
7
6
CONTINUOUS
10
8.8949661453
20
-27.6479075396
11
9.0010321625
21
-27.4649707205
0
LINE
5
2E5
100
AcDbEntity
8
0
100
AcDbLine
62
7
6
CONTINUOUS
10
9.2485195359
20
-27.4711308443
11
9.3545855531
21
-27.2881940252
0
LINE
5
2E6
100
AcDbEntity
8
0
100
AcDbLine
62
7
6
CONTINUOUS
10
-6.2188793267
20
-23.3882550126
11
-6.1408587259
21
-23.3492447121
0
LINE
5
2E7
100
AcDbEntity
8
0
100
AcDbLine
62
7
6
CONTINUOUS
10
-7.4286038146
20
-24.2016858016
11
-7.3505832137
21
-24.1626755012
0
LINE
5
2E8
100
AcDbEntity
8
0
100
AcDbLine
62
7
6
CONTINUOUS
10
-6.8947141532
20
-24.4686306323
11
-6.8166935523
21
-24.4296203319
0
LINE
5
2E9
100
AcDbEntity
8
0
100
AcDbLine
62
7
6
CONTINUOUS
10
-5.3883845336
20
-23.8035024092
11
-5.3103639327
21
-23.7644921087
0
LINE
5
2EA
100
AcDbEntity
8
0
100
AcDbLine
62
7
6
CONTINUOUS
10
-5.9891504740
20
-24.1758988695
11
-5.9111298731
21
-24.1368885691
0
LINE
5
2EB
100
AcDbEntity
8
0
100
AcDbLine
62
7
6
CONTINUOUS
10
-6.3370968166
20
-24.7474393006
11
-6.2590762157
21
-24.7084290002
0
LINE
5
2EC
100
AcDbEntity
8
0
100
AcDbLine
62
7
6
CONTINUOUS
10
-5.7794787729
20
-25.0262483225
11
-5.7014581721
21
-24.9872380220
0
LINE
5
2ED
100
AcDbEntity
8
0
100
AcDbLine
62
7
6
CONTINUOUS
10
-4.2649568760
20
-24.2924832619
11
-4.1869362752
21
-24.2534729614
0
LINE
5
2EE
100
AcDbEntity
8
0
100
AcDbLine
62
7
6
CONTINUOUS
10
-5.2693182009
20
-25.2813286085
11
-5.1912976000
21
-25.2423183081
0
LINE
5
2EF
100
AcDbEntity
8
0
100
AcDbLine
62
7
6
CONTINUOUS
10
-4.7862043900
20
-25.1046703037
11
-4.7081837892
21
-25.0656600033
0
LINE
5
2F0
100
AcDbEntity
8
0
100
AcDbLine
62
7
6
CONTINUOUS
10
-4.3081054799
20
-24.9436883905
11
-4.2300848790
21
-24.9046780901
0
LINE
5
2F1
100
AcDbEntity
8
0
100
AcDbLine
62
7
6
CONTINUOUS
10
-3.0863754449
20
-24.6090247194
11
-3.0083548441
21
-24.5700144189
0
LINE
5
2F2
100
AcDbEntity
8
0
100
AcDbLine
62
7
6
CONTINUOUS
10
-4.3353651272
20
-25.3300899352
11
-4.2573445263
21
-25.2910796347
0
LINE
5
2F3
100
AcDbEntity
8
0
100
AcDbLine
62
7
6
CONTINUOUS
10
-2.7304491745
20
-24.7869878604
11
-2.6524285678
21
-24.7479775571
0
LINE
5
2F4
100
AcDbEntity
8
0
100
AcDbLine
62
7
6
CONTINUOUS
10
-4.3557737162
20
-25.7381008508
11
-4.2777531154
21
-25.6990905504
0
LINE
5
2F5
100
AcDbEntity
8
0
100
AcDbLine
62
7
6
CONTINUOUS
10
-3.3352403932
20
-25.4301209339
11
-3.2572197923
21
-25.3911106335
0
LINE
5
2F6
100
AcDbEntity
8
0
100
AcDbLine
62
7
6
CONTINUOUS
10
-2.7412516099
20
-25.2557326038
11
-2.6632310091
21
-25.2167223033
0
LINE
5
2F7
100
AcDbEntity
8
0
100
AcDbLine
62
7
6
CONTINUOUS
10
-3.0860920259
20
-25.5546951175
11
-3.0080714251
21
-25.5156848171
0
LINE
5
2F8
100
AcDbEntity
8
0
100
AcDbLine
62
7
6
CONTINUOUS
10
-3.8456131442
20
-25.9931811368
11
-3.7675925433
21
-25.9541708364
0
LINE
5
2F9
100
AcDbEntity
8
0
100
AcDbLine
62
7
6
CONTINUOUS
10
-2.7744449986
20
-25.6559691658
11
-2.6964243978
21
-25.6169588654
0
LINE
5
2FA
100
AcDbEntity
8
0
100
AcDbLine
62
7
6
CONTINUOUS
10
24.5532561392
20
-52.2269159859
11
24.5532561392
21
17.5559933725
0
LINE
5
2FB
100
AcDbEntity
8
0
100
AcDbLine
62
7
6
CONTINUOUS
10
25.7377331485
20
-52.2181934602
11
25.7377331485
21
17.5647158983
0
LINE
5
2FC
100
AcDbEntity
8
0
100
AcDbLine
62
7
6
CONTINUOUS
10
9.6020729265
20
-27.2943541490
11
9.7081389436
21
-27.1114173299
0
LINE
5
2FD
100
AcDbEntity
8
0
100
AcDbLine
62
7
6
CONTINUOUS
10
28.9060880529
20
-12.0807192897
11
29.4010627997
21
-11.7563111394
0
LINE
5
2FE
100
AcDbEntity
8
0
100
AcDbLine
62
7
6
CONTINUOUS
10
-3.0269828957
20
-26.4024962611
11
-2.9489622948
21
-26.3634859607
0
LINE
5
2FF
100
AcDbEntity
8
0
100
AcDbLine
62
7
6
CONTINUOUS
10
4.4048380847
20
-25.8739804628
11
4.5462594410
21
-25.8032697847
0
LINE
5
300
100
AcDbEntity
8
0
100
AcDbLine
62
7
6
CONTINUOUS
10
4.7583914753
20
-25.6972037675
11
4.8998128316
21
-25.6264930894
0
LINE
5
301
100
AcDbEntity
8
0
100
AcDbLine
62
7
6
CONTINUOUS
10
5.1119448659
20
-25.5204270722
11
5.2533662222
21
-25.4497163941
0
LINE
5
302
100
AcDbEntity
8
0
100
AcDbLine
62
7
6
CONTINUOUS
10
5.4654982565
20
-25.3436503769
11
5.6069196128
21
-25.2729396988
0
LINE
5
303
100
AcDbEntity
8
0
100
AcDbLine
62
7
6
CONTINUOUS
10
5.8190516471
20
-25.1668736816
11
5.9604730034
21
-25.0961630035
0
LINE
5
304
100
AcDbEntity
8
0
100
AcDbLine
62
7
6
CONTINUOUS
10
5.8823507460
20
-25.0809396682
11
4.2502570752
21
-25.8157115391
0
LINE
5
305
100
AcDbEntity
8
0
100
AcDbLine
62
7
6
CONTINUOUS
10
28.9060880529
20
19.1834868477
11
28.9060880529
21
-50.9841648400
0
LINE
5
306
100
AcDbEntity
8
0
100
AcDbLine
62
7
6
CONTINUOUS
10
29.4010627997
20
-17.9993983317
11
29.4010627997
21
-50.0904843729
0
LINE
5
307
100
AcDbEntity
8
0
100
AcDbLine
62
7
6
CONTINUOUS
10
29.4010627997
20
-11.7563111394
11
29.4010627997
21
20.4111267242
0
LINE
5
308
100
AcDbEntity
8
0
100
AcDbLine
62
7
6
CONTINUOUS
10
9.8849156389
20
-27.9367299728
11
10.1396205125
21
-27.7521339219
0
LINE
5
309
100
AcDbEntity
8
0
100
AcDbLine
62
7
6
CONTINUOUS
10
10.1398145916
20
-27.2096715910
11
8.6702708497
21
-28.0257184264
0
LINE
5
30A
100
AcDbEntity
8
0
100
AcDbLine
62
7
6
CONTINUOUS
10
9.8849156389
20
-27.9367299728
11
9.1951972671
21
-28.2881816351
0
LINE
5
30B
100
AcDbEntity
8
0
100
AcDbLine
62
7
6
CONTINUOUS
10
9.5948447027
20
-28.3785529073
11
9.4856371975
21
-28.4334016003
0
LINE
5
30C
100
AcDbEntity
8
0
100
AcDbLine
62
7
6
CONTINUOUS
10
8.2939253813
20
-27.8185241111
11
8.4353467375
21
-27.7478134329
0
LINE
5
30D
100
AcDbEntity
8
0
100
AcDbLine
62
7
6
CONTINUOUS
10
8.6474787719
20
-27.6417474158
11
8.7889001281
21
-27.5710367376
0
LINE
5
30E
100
AcDbEntity
8
0
100
AcDbLine
62
7
6
CONTINUOUS
10
9.0010321625
20
-27.4649707205
11
9.1424535187
21
-27.3942600423
0
LINE
5
30F
100
AcDbEntity
8
0
100
AcDbLine
62
7
6
CONTINUOUS
10
9.3545855531
20
-27.2881940252
11
9.4960069093
21
-27.2174833470
0
LINE
5
310
100
AcDbEntity
8
0
100
AcDbLine
62
7
6
CONTINUOUS
10
9.7081389436
20
-27.1114173299
11
9.8495602999
21
-27.0407066517
0
LINE
5
311
100
AcDbEntity
8
0
100
AcDbLine
62
7
6
CONTINUOUS
10
9.9556263171
20
-27.1175774537
11
8.4048076108
21
-27.8929868069
0
LINE
5
312
100
AcDbEntity
8
0
100
AcDbLine
62
7
6
CONTINUOUS
10
10.1468281214
20
-27.7181404404
11
9.0990900637
21
-28.2401280334
0
LINE
5
313
100
AcDbEntity
8
0
100
AcDbLine
62
7
6
CONTINUOUS
10
-28.5816932576
20
49.9149767660
11
28.6939560185
21
21.2771521280
0
LINE
5
314
100
AcDbEntity
8
0
100
AcDbLine
62
7
6
CONTINUOUS
10
28.8353773747
20
21.1889441835
11
29.1182200872
21
20.9768121491
0
LINE
5
315
100
AcDbEntity
8
0
100
AcDbLine
62
7
6
CONTINUOUS
10
11.8982086247
20
-33.5566956903
11
11.2666285585
21
-33.8843084517
0
LINE
5
316
100
AcDbEntity
8
0
100
AcDbLine
62
7
6
CONTINUOUS
10
11.7184638690
20
-33.8713559149
11
11.7168722857
21
-33.8721769929
0
LINE
5
317
100
AcDbEntity
8
0
100
AcDbLine
62
7
6
CONTINUOUS
10
29.4010627997
20
-50.0904843729
11
28.9060880529
21
-50.3133230049
0
LINE
5
318
100
AcDbEntity
8
0
100
AcDbLine
62
7
6
CONTINUOUS
10
29.1185662326
20
-50.6417382548
11
28.9060880529
21
-50.7309218147
0
LINE
5
319
100
AcDbEntity
8
0
100
AcDbLine
62
7
6
CONTINUOUS
10
28.9060880529
20
-50.9841648400
11
25.7377331485
21
-52.2181934602
0
LINE
5
31A
100
AcDbEntity
8
0
100
AcDbLine
62
7
6
CONTINUOUS
10
25.1460887875
20
-53.2864850899
11
28.3012629044
21
-52.0576038632
0
SPLINE
5
31B
100
AcDbEntity
8
0
100
AcDbSpline
62
7
6
CONTINUOUS
70
0
71
3
72
29
73
25
74
23
42
0.0000001000
43
0.0000001000
44
0.0000000001
12
1.2250176260
22
-0.6125088130
32
0.0000000000
13
-1.2257667351
23
-0.6129010628
33
0.0000000000
40
0.0000000000
40
0.0000000000
40
0.0000000000
40
0.0000000000
40
0.0386025671
40
0.0788693101
40
0.1205560323
40
0.1635693047
40
0.2082454156
40
0.2542226399
40
0.3010312306
40
0.3487553448
40
0.3974916378
40
0.4468992475
40
0.4966650151
40
0.5471059592
40
0.5976365811
40
0.6474758513
40
0.6963038511
40
0.7444017655
40
0.7914469786
40
0.8371571142
40
0.8818380461
40
0.9254567874
40
0.9676481197
40
1.0000000000
40
1.0000000000
40
1.0000000000
40
1.0000000000
10
-2.5845469546
20
-24.4599075737
30
0.0000000000
10
-2.5687840129
20
-24.4677890445
30
0.0000000000
10
-2.5376684764
20
-24.4861538897
30
0.0000000000
10
-2.4940959174
20
-24.5199915653
30
0.0000000000
10
-2.4534051884
20
-24.5601643477
30
0.0000000000
10
-2.4161978942
20
-24.6061863219
30
0.0000000000
10
-2.3830635870
20
-24.6575672860
30
0.0000000000
10
-2.3546846220
20
-24.7136638252
30
0.0000000000
10
-2.3315166130
20
-24.7735882015
30
0.0000000000
10
-2.3137131566
20
-24.8366212859
30
0.0000000000
10
-2.3014461022
20
-24.9021652672
30
0.0000000000
10
-2.2948437516
20
-24.9694505738
30
0.0000000000
10
-2.2938904230
20
-25.0378266936
30
0.0000000000
10
-2.2987070075
20
-25.1065599322
30
0.0000000000
10
-2.3095193867
20
-25.1746477758
30
0.0000000000
10
-2.3260894885
20
-25.2408042681
30
0.0000000000
10
-2.3479131566
20
-25.3042415186
30
0.0000000000
10
-2.3747221051
20
-25.3643540299
30
0.0000000000
10
-2.4063902456
20
-25.4204364003
30
0.0000000000
10
-2.4425338872
20
-25.4718540070
30
0.0000000000
10
-2.4827811659
20
-25.5180893967
30
0.0000000000
10
-2.5267947708
20
-25.5584388481
30
0.0000000000
10
-2.5707227114
20
-25.5899760569
30
0.0000000000
10
-2.6004182716
20
-25.6067259222
30
0.0000000000
10
-2.6136368912
20
-25.6133354228
30
0.0000000000
11
-2.5845469546
21
-24.4599075737
31
0.0000000000
11
-2.5389502356
21
-24.4866700557
31
0.0000000000
11
-2.4953177719
21
-24.5203999714
31
0.0000000000
11
-2.4546172305
21
-24.5604407026
31
0.0000000000
11
-2.4175137849
21
-24.6061998012
31
0.0000000000
11
-2.3842984772
21
-24.6575887672
31
0.0000000000
11
-2.3558032044
21
-24.7137435284
31
0.0000000000
11
-2.3326090278
21
-24.7735103084
31
0.0000000000
11
-2.3147873929
21
-24.8363973096
31
0.0000000000
11
-2.3024575289
21
-24.9019984341
31
0.0000000000
11
-2.2958016362
21
-24.9693395270
31
0.0000000000
11
-2.2948419461
21
-25.0374925301
31
0.0000000000
11
-2.2997055507
21
-25.1064056058
31
0.0000000000
11
-2.3105704047
21
-25.1747547617
31
0.0000000000
11
-2.3271493051
21
-25.2409712728
31
0.0000000000
11
-2.3489444531
21
-25.3041953844
31
0.0000000000
11
-2.3758571794
21
-25.3643225826
31
0.0000000000
11
-2.4076008115
21
-25.4203943049
31
0.0000000000
11
-2.4436678188
21
-25.4715662899
31
0.0000000000
11
-2.4839358426
21
-25.5176464031
31
0.0000000000
11
-2.5280404591
21
-25.5579420205
31
0.0000000000
11
-2.5750160023
21
-25.5915944888
31
0.0000000000
11
-2.6136368912
21
-25.6133354228
31
0.0000000000
0
SPLINE
5
31C
100
AcDbEntity
8
0
100
AcDbSpline
62
7
6
CONTINUOUS
70
0
71
3
72
13
73
9
74
7
42
0.0000001000
43
0.0000001000
44
0.0000000001
12
0.1293275970
22
-0.0646637985
32
0.0000000000
13
0.1294513510
23
0.0648070789
33
0.0000000000
40
0.0000000000
40
0.0000000000
40
0.0000000000
40
0.0000000000
40
0.1815927207
40
0.3678009825
40
0.5578113215
40
0.7527458170
40
0.9554503277
40
1.0000000000
40
1.0000000000
40
1.0000000000
40
1.0000000000
10
-2.8808687425
20
-25.2572754305
30
0.0000000000
10
-2.8730404258
20
-25.2611895889
30
0.0000000000
10
-2.8564397553
20
-25.2677143714
30
0.0000000000
10
-2.8299360164
20
-25.2729809978
30
0.0000000000
10
-2.8022646647
20
-25.2734772016
30
0.0000000000
10
-2.7741574464
20
-25.2689383357
30
0.0000000000
10
-2.7539432049
20
-25.2618309007
30
0.0000000000
10
-2.7431732006
20
-25.2566913939
30
0.0000000000
10
-2.7412508621
20
-25.2557290158
30
0.0000000000
11
-2.8808687425
21
-25.2572754305
31
0.0000000000
11
-2.8564347944
21
-25.2668884834
31
0.0000000000
11
-2.8300305488
21
-25.2721550019
31
0.0000000000
11
-2.8025612222
21
-25.2726670302
31
0.0000000000
11
-2.7747312820
21
-25.2682004446
31
0.0000000000
11
-2.7470715312
21
-25.2585056115
31
0.0000000000
11
-2.7412508621
21
-25.2557290158
31
0.0000000000
0
SPLINE
5
31D
100
AcDbEntity
8
0
100
AcDbSpline
62
7
6
CONTINUOUS
70
0
71
3
72
22
73
18
74
16
42
0.0000001000
43
0.0000001000
44
0.0000000001
12
-0.0000134651
22
-1.3530127183
32
0.0000000000
13
1.1290883620
23
-0.7456222134
33
0.0000000000
40
0.0000000000
40
0.0000000000
40
0.0000000000
40
0.0000000000
40
0.0550144877
40
0.1214266754
40
0.1893884110
40
0.2586387256
40
0.3288684377
40
0.3997411703
40
0.4709051005
40
0.5420011328
40
0.6126734070
40
0.6825767947
40
0.7513890972
40
0.8188008719
40
0.8845100934
40
0.9482812742
40
1.0000000000
40
1.0000000000
40
1.0000000000
40
1.0000000000
10
-22.7499767338
20
-15.9373757834
30
0.0000000000
10
-22.7499769807
20
-15.9621875506
30
0.0000000000
10
-22.7481275092
20
-16.0169667494
30
0.0000000000
10
-22.7394631111
20
-16.1019990018
30
0.0000000000
10
-22.7239399431
20
-16.1925728165
30
0.0000000000
10
-22.7022179412
20
-16.2836267502
30
0.0000000000
10
-22.6745395685
20
-16.3744203600
30
0.0000000000
10
-22.6411747905
20
-16.4642006810
30
0.0000000000
10
-22.6024213934
20
-16.5522161810
30
0.0000000000
10
-22.5586038958
20
-16.6377221980
30
0.0000000000
10
-22.5100717375
20
-16.7199857546
30
0.0000000000
10
-22.4571956062
20
-16.7982907583
30
0.0000000000
10
-22.4003680981
20
-16.8719344334
30
0.0000000000
10
-22.3400122588
20
-16.9402184500
30
0.0000000000
10
-22.2765759410
20
-17.0024607820
30
0.0000000000
10
-22.2139759666
20
-17.0551066269
30
0.0000000000
10
-22.1716014103
20
-17.0854974411
30
0.0000000000
10
-22.1521364064
20
-17.0983516513
30
0.0000000000
11
-22.7499767338
21
-15.9373757834
31
0.0000000000
11
-22.7475404355
21
-16.0117714055
31
0.0000000000
11
-22.7385333866
21
-16.1011662508
31
0.0000000000
11
-22.7230795123
21
-16.1918020079
31
0.0000000000
11
-22.7013967553
21
-16.2829454597
31
0.0000000000
11
-22.6737292365
21
-16.3738399380
31
0.0000000000
11
-22.6403490576
21
-16.4637238931
31
0.0000000000
11
-22.6015563154
21
-16.5518385136
31
0.0000000000
11
-22.5576788573
21
-16.6374314629
31
0.0000000000
11
-22.5090695040
21
-16.7197634770
31
0.0000000000
11
-22.4561040877
21
-16.7981105648
31
0.0000000000
11
-22.3991755949
21
-16.8717701543
31
0.0000000000
11
-22.3387080552
21
-16.9400422221
31
0.0000000000
11
-22.2751749561
21
-17.0022203573
31
0.0000000000
11
-22.2090573300
21
-17.0576437188
31
0.0000000000
11
-22.1521364064
21
-17.0983516513
31
0.0000000000
0
SPLINE
5
31E
100
AcDbEntity
8
0
100
AcDbSpline
62
7
6
CONTINUOUS
70
0
71
3
72
18
73
14
74
12
42
0.0000001000
43
0.0000001000
44
0.0000000001
12
31.0676358805
22
-20.5168615188
32
0.0000000000
13
35.0985500144
23
-12.4189979705
33
0.0000000000
40
0.0000000000
40
0.0000000000
40
0.0000000000
40
0.0000000000
40
0.0920878242
40
0.1841164560
40
0.2757965034
40
0.3671582049
40
0.4582319412
40
0.5490481614
40
0.6396374311
40
0.7300303250
40
0.8202576486
40
0.9103500288
40
1.0000000000
40
1.0000000000
40
1.0000000000
40
1.0000000000
10
-22.1521390863
20
-17.0983498017
30
0.0000000000
10
-21.1984887563
20
-17.7281341803
30
0.0000000000
10
-19.2783378882
20
-18.9670509469
30
0.0000000000
10
-16.3628106322
20
-20.7604918826
30
0.0000000000
10
-13.4167539792
20
-22.4856010590
30
0.0000000000
10
-10.4440100480
20
-24.1400675148
30
0.0000000000
10
-7.4450236415
20
-25.7236528253
30
0.0000000000
10
-4.4202632675
20
-27.2361244110
30
0.0000000000
10
-1.3702046285
20
-28.6772447063
30
0.0000000000
10
1.7046671869
20
-30.0467694959
30
0.0000000000
10
4.8038575074
20
-31.3444683103
30
0.0000000000
10
7.9229360216
20
-32.5685472069
30
0.0000000000
10
10.0174968762
20
-33.3364291135
30
0.0000000000
10
11.0663582088
20
-33.7075500502
30
0.0000000000
11
-22.1521390863
21
-17.0983498017
31
0.0000000000
11
-19.2711665572
21
-18.9570300559
31
0.0000000000
11
-16.3527224306
21
-20.7520976579
31
0.0000000000
11
-13.4071605450
21
-22.4767667389
31
0.0000000000
11
-10.4349245128
21
-24.1308102996
31
0.0000000000
11
-7.4364651151
21
-25.7139930044
31
0.0000000000
11
-4.4122479118
21
-27.2260810806
31
0.0000000000
11
-1.3627475307
21
-28.6668378416
31
0.0000000000
11
1.7115495495
21
-30.0360222709
31
0.0000000000
11
4.8101506402
21
-31.3333991760
31
0.0000000000
11
7.9325490299
21
-32.5587215843
31
0.0000000000
11
11.0663582088
21
-33.7075500502
31
0.0000000000
0
SPLINE
5
31F
100
AcDbEntity
8
0
100
AcDbSpline
62
7
6
CONTINUOUS
70
0
71
3
72
14
73
10
74
8
42
0.0000001000
43
0.0000001000
44
0.0000000001
12
0.3892618951
22
-0.1377306755
32
0.0000000000
13
0.3842820417
23
0.1515897110
33
0.0000000000
40
0.0000000000
40
0.0000000000
40
0.0000000000
40
0.0000000000
40
0.1562535216
40
0.3348433884
40
0.5067543080
40
0.6729522008
40
0.8344134519
40
0.9921471588
40
1.0000000000
40
1.0000000000
40
1.0000000000
40
1.0000000000
10
11.0663580375
20
-33.7075498941
30
0.0000000000
10
11.0866325515
20
-33.7147235285
30
0.0000000000
10
11.1307433138
20
-33.7282941143
30
0.0000000000
10
11.1992170316
20
-33.7421844304
30
0.0000000000
10
11.2702257551
20
-33.7482547883
30
0.0000000000
10
11.3391020431
20
-33.7456943914
30
0.0000000000
10
11.4051636360
20
-33.7346143303
30
0.0000000000
10
11.4482885568
20
-33.7212701211
30
0.0000000000
10
11.4695279214
20
-33.7129758200
30
0.0000000000
10
11.4705338234
20
-33.7125790167
30
0.0000000000
11
11.0663580375
21
-33.7075498941
31
0.0000000000
11
11.1280477601
21
-33.7264323766
31
0.0000000000
11
11.2003293067
21
-33.7409423153
31
0.0000000000
11
11.2710496403
21
-33.7468470260
31
0.0000000000
11
11.3396057178
21
-33.7441778497
31
0.0000000000
11
11.4053248190
21
-33.7330611609
31
0.0000000000
11
11.4675120552
21
-33.7137590652
31
0.0000000000
11
11.4705338234
21
-33.7125790167
31
0.0000000000
0
SPLINE
5
320
100
AcDbEntity
8
0
100
AcDbSpline
62
7
6
CONTINUOUS
70
0
71
3
72
17
73
13
74
11
42
0.0000001000
43
0.0000001000
44
0.0000000001
12
-0.5359568606
22
-0.3307814880
32
0.0000000000
13
0.0000075787
23
-0.6294151239
33
0.0000000000
40
0.0000000000
40
0.0000000000
40
0.0000000000
40
0.0000000000
40
0.0185115462
40
0.1128606737
40
0.2099734409
40
0.3106159480
40
0.4156317959
40
0.5259147392
40
0.6419900122
40
0.7637765383
40
0.8909032409
40
1.0000000000
40
1.0000000000
40
1.0000000000
40
1.0000000000
10
-22.5047981233
20
27.4515559160
30
0.0000000000
10
-22.5081052534
20
27.4495148237
30
0.0000000000
10
-22.5280906886
20
27.4367836092
30
0.0000000000
10
-22.5631748988
20
27.4099049031
30
0.0000000000
10
-22.6062751442
20
27.3660794010
30
0.0000000000
10
-22.6444728696
20
27.3151118042
30
0.0000000000
10
-22.6773310232
20
27.2573672109
30
0.0000000000
10
-22.7044967003
20
27.1932234824
30
0.0000000000
10
-22.7256433989
20
27.1231863314
30
0.0000000000
10
-22.7405064698
20
27.0479625344
30
0.0000000000
10
-22.7484328238
20
26.9731923974
30
0.0000000000
10
-22.7499770555
20
26.9236171628
30
0.0000000000
10
-22.7499767799
20
26.9007281128
30
0.0000000000
11
-22.5047981233
21
27.4515559160
31
0.0000000000
11
-22.5146309867
21
27.4452922772
31
0.0000000000
11
-22.5618047343
21
27.4092347167
31
0.0000000000
11
-22.6047342252
21
27.3657360994
31
0.0000000000
11
-22.6428297420
21
27.3151371593
31
0.0000000000
11
-22.6756552036
21
27.2577767199
31
0.0000000000
11
-22.7028807364
21
27.1939361548
31
0.0000000000
11
-22.7241625277
21
27.1240562169
31
0.0000000000
11
-22.7391817646
21
27.0488992630
31
0.0000000000
11
-22.7477645389
21
26.9693573103
31
0.0000000000
11
-22.7499767799
21
26.9007281128
31
0.0000000000
0
SPLINE
5
321
100
AcDbEntity
8
0
100
AcDbSpline
62
7
6
CONTINUOUS
70
0
71
3
72
8
73
4
74
2
42
0.0000001000
43
0.0000001000
44
0.0000000001
12
0.2792579541
22
0.1101460517
32
0.0000000000
13
0.2792575886
23
0.1101469785
33
0.0000000000
40
0.0000000000
40
0.0000000000
40
0.0000000000
40
0.0000000000
40
1.0000000000
40
1.0000000000
40
1.0000000000
40
1.0000000000
10
11.4705194144
20
-33.7125849983
30
0.0000000000
10
11.5636053991
20
-33.6758696477
30
0.0000000000
10
11.6566913229
20
-33.6391541427
30
0.0000000000
10
11.7497771858
20
-33.6024384832
30
0.0000000000
11
11.4705194144
21
-33.7125849983
31
0.0000000000
11
11.7497771858
21
-33.6024384832
31
0.0000000000
0
SPLINE
5
322
100
AcDbEntity
8
0
100
AcDbSpline
62
7
6
CONTINUOUS
70
0
71
3
72
8
73
4
74
2
42
0.0000001000
43
0.0000001000
44
0.0000000001
12
0.1587289916
22
0.0626071396
32
0.0000000000
13
0.1587288735
23
0.0626074389
33
0.0000000000
40
0.0000000000
40
0.0000000000
40
0.0000000000
40
0.0000000000
40
1.0000000000
40
1.0000000000
40
1.0000000000
40
1.0000000000
10
11.7497771858
20
-33.6024384832
30
0.0000000000
10
11.8026868496
20
-33.5815694367
30
0.0000000000
10
11.8555964938
20
-33.5607003402
30
0.0000000000
10
11.9085061183
20
-33.5398311939
30
0.0000000000
11
11.7497771858
21
-33.6024384832
31
0.0000000000
11
11.9085061183
21
-33.5398311939
31
0.0000000000
0
SPLINE
5
323
100
AcDbEntity
8
0
100
AcDbSpline
62
7
6
CONTINUOUS
70
0
71
3
72
8
73
4
74
2
42
0.0000001000
43
0.0000001000
44
0.0000000001
12
0.0535455572
22
0.0211199773
32
0.0000000000
13
0.0535455437
23
0.0211200113
33
0.0000000000
40
0.0000000000
40
0.0000000000
40
0.0000000000
40
0.0000000000
40
1.0000000000
40
1.0000000000
40
1.0000000000
40
1.0000000000
10
11.9085061183
20
-33.5398311939
30
0.0000000000
10
11.9263546374
20
-33.5327912015
30
0.0000000000
10
11.9442031542
20
-33.5257512034
30
0.0000000000
10
11.9620516688
20
-33.5187111996
30
0.0000000000
11
11.9085061183
21
-33.5398311939
31
0.0000000000
11
11.9620516688
21
-33.5187111996
31
0.0000000000
0
SPLINE
5
324
100
AcDbEntity
8
0
100
AcDbSpline
62
7
6
CONTINUOUS
70
0
71
3
72
8
73
4
74
2
42
0.0000001000
43
0.0000001000
44
0.0000000001
12
-0.0011482115
22
-0.0007087304
32
0.0000000000
13
-0.0011482115
23
-0.0007087304
33
0.0000000000
40
0.0000000000
40
0.0000000000
40
0.0000000000
40
0.0000000000
40
1.0000000000
40
1.0000000000
40
1.0000000000
40
1.0000000000
10
-22.1123623738
20
27.6937875916
30
0.0000000000
10
-22.1127451110
20
27.6935513481
30
0.0000000000
10
-22.1131278481
20
27.6933151046
30
0.0000000000
10
-22.1135105853
20
27.6930788611
30
0.0000000000
11
-22.1123623738
21
27.6937875916
31
0.0000000000
11
-22.1135105853
21
27.6930788611
31
0.0000000000
0
SPLINE
5
325
100
AcDbEntity
8
0
100
AcDbSpline
62
7
6
CONTINUOUS
70
0
71
3
72
8
73
4
74
2
42
0.0000001000
43
0.0000001000
44
0.0000000001
12
-0.1336821029
22
-0.0825149168
32
0.0000000000
13
-0.1336819676
23
-0.0825151359
33
0.0000000000
40
0.0000000000
40
0.0000000000
40
0.0000000000
40
0.0000000000
40
1.0000000000
40
1.0000000000
40
1.0000000000
40
1.0000000000
10
-22.1135105853
20
27.6930788611
30
0.0000000000
10
-22.1580712862
20
27.6655738889
30
0.0000000000
10
-22.2026319646
20
27.6380688801
30
0.0000000000
10
-22.2471926205
20
27.6105638348
30
0.0000000000
11
-22.1135105853
21
27.6930788611
31
0.0000000000
11
-22.2471926205
21
27.6105638348
31
0.0000000000
0
SPLINE
5
326
100
AcDbEntity
8
0
100
AcDbSpline
62
7
6
CONTINUOUS
70
0
71
3
72
8
73
4
74
2
42
0.0000001000
43
0.0000001000
44
0.0000000001
12
-0.0092380486
22
-0.0057021815
32
0.0000000000
13
-0.0092380480
23
-0.0057021825
33
0.0000000000
40
0.0000000000
40
0.0000000000
40
0.0000000000
40
0.0000000000
40
1.0000000000
40
1.0000000000
40
1.0000000000
40
1.0000000000
10
-22.2471926205
20
27.6105638348
30
0.0000000000
10
-22.2502719700
20
27.6086631076
30
0.0000000000
10
-22.2533513195
20
27.6067623803
30
0.0000000000
10
-22.2564306688
20
27.6048616528
30
0.0000000000
11
-22.2471926205
21
27.6105638348
31
0.0000000000
11
-22.2564306688
21
27.6048616528
31
0.0000000000
0
SPLINE
5
327
100
AcDbEntity
8
0
100
AcDbSpline
62
7
6
CONTINUOUS
70
0
71
3
72
8
73
4
74
2
42
0.0000001000
43
0.0000001000
44
0.0000000001
12
-0.2483726702
22
-0.1533079607
32
0.0000000000
13
-0.2483722032
23
-0.1533087174
33
0.0000000000
40
0.0000000000
40
0.0000000000
40
0.0000000000
40
0.0000000000
40
1.0000000000
40
1.0000000000
40
1.0000000000
40
1.0000000000
10
-22.2564306688
20
27.6048616528
30
0.0000000000
10
-22.3392215589
20
27.5537589992
30
0.0000000000
10
-22.4220123711
20
27.5026562196
30
0.0000000000
10
-22.5048031055
20
27.4515533138
30
0.0000000000
11
-22.2564306688
21
27.6048616528
31
0.0000000000
11
-22.5048031055
21
27.4515533138
31
0.0000000000
0
SPLINE
5
328
100
AcDbEntity
8
0
100
AcDbSpline
62
7
6
CONTINUOUS
70
0
71
3
72
18
73
14
74
12
42
0.0000001000
43
0.0000001000
44
0.0000000001
12
0.5224302378
22
-0.3918394666
32
0.0000000000
13
0.0000000000
23
-0.6527642186
33
0.0000000000
40
0.0000000000
40
0.0000000000
40
0.0000000000
40
0.0000000000
40
0.0405564686
40
0.1315242101
40
0.2261727155
40
0.3236478079
40
0.4229820113
40
0.5231372695
40
0.6230452611
40
0.7216467234
40
0.8179310697
40
0.9109776258
40
1.0000000000
40
1.0000000000
40
1.0000000000
40
1.0000000000
10
29.1182241771
20
20.9768104617
30
0.0000000000
10
29.1252868189
20
20.9715132534
30
0.0000000000
10
29.1477603666
20
20.9537614617
30
0.0000000000
10
29.1840404071
20
20.9203944441
30
0.0000000000
10
29.2253769152
20
20.8746172419
30
0.0000000000
10
29.2636966185
20
20.8239914847
30
0.0000000000
10
29.2983537919
20
20.7693720365
30
0.0000000000
10
29.3287638542
20
20.7116816720
30
0.0000000000
10
29.3544128008
20
20.6518954239
30
0.0000000000
10
29.3748669145
20
20.5910242576
30
0.0000000000
10
29.3897800733
20
20.5300925264
30
0.0000000000
10
29.3988989019
20
20.4701352543
30
0.0000000000
10
29.4010627997
20
20.4304969310
30
0.0000000000
10
29.4010627997
20
20.4111267242
30
0.0000000000
11
29.1182241771
21
20.9768104617
31
0.0000000000
11
29.1390157600
21
20.9604083959
31
0.0000000000
11
29.1828084341
21
20.9203054796
31
0.0000000000
11
29.2242861044
21
20.8745150718
31
0.0000000000
11
29.2627390764
21
20.8238206593
31
0.0000000000
11
29.2975094091
21
20.7690896373
31
0.0000000000
11
29.3280021725
21
20.7112584690
31
0.0000000000
11
29.3536956269
21
20.6513166615
31
0.0000000000
11
29.3741501503
21
20.5902898359
31
0.0000000000
11
29.3890157600
21
20.5292221780
31
0.0000000000
11
29.3980381014
21
20.4691585725
31
0.0000000000
11
29.4010627997
21
20.4111267242
31
0.0000000000
0
SPLINE
5
329
100
AcDbEntity
8
0
100
AcDbSpline
62
7
6
CONTINUOUS
70
0
71
3
72
17
73
13
74
11
42
0.0000001000
43
0.0000001000
44
0.0000000001
12
0.0000000000
22
-0.6561924367
32
0.0000000000
13
-0.6057132401
23
-0.2542130537
33
0.0000000000
40
0.0000000000
40
0.0000000000
40
0.0000000000
40
0.0000000000
40
0.1268538402
40
0.2482710670
40
0.3638583074
40
0.4740080581
40
0.5786497855
40
0.6787040306
40
0.7747217836
40
0.8680104793
40
0.9598176003
40
1.0000000000
40
1.0000000000
40
1.0000000000
40
1.0000000000
10
29.4010627997
20
-50.0904843729
30
0.0000000000
10
29.4010627997
20
-50.1182312164
30
0.0000000000
10
29.3989357275
20
-50.1725676556
30
0.0000000000
10
29.3889120222
20
-50.2516275385
30
0.0000000000
10
29.3722002415
20
-50.3258298063
30
0.0000000000
10
29.3489517841
20
-50.3944079597
30
0.0000000000
10
29.3193352000
20
-50.4567706412
30
0.0000000000
10
29.2836263910
20
-50.5122458049
30
0.0000000000
10
29.2421016602
20
-50.5603094498
30
0.0000000000
10
29.1951670767
20
-50.6004151165
30
0.0000000000
10
29.1529373366
20
-50.6262156219
30
0.0000000000
10
29.1266793317
20
-50.6383311860
30
0.0000000000
10
29.1185663278
20
-50.6417361495
30
0.0000000000
11
29.4010627997
21
-50.0904843729
31
0.0000000000
11
29.3976588904
21
-50.1736552772
31
0.0000000000
11
29.3874706161
21
-50.2526742401
31
0.0000000000
11
29.3706227998
21
-50.3266268617
31
0.0000000000
11
29.3472255638
21
-50.3950146225
31
0.0000000000
11
29.3175834577
21
-50.4569520336
31
0.0000000000
11
29.2818829888
21
-50.5120522549
31
0.0000000000
11
29.2405677733
21
-50.5596214102
31
0.0000000000
11
29.1939560185
21
-50.5993034180
31
0.0000000000
11
29.1425266256
21
-50.6306762292
31
0.0000000000
11
29.1185663278
21
-50.6417361495
31
0.0000000000
0
SPLINE
5
32A
100
AcDbEntity
8
0
100
AcDbSpline
62
7
6
CONTINUOUS
70
0
71
3
72
15
73
11
74
9
42
0.0000001000
43
0.0000001000
44
0.0000000001
12
0.4226741064
22
0.2476212103
32
0.0000000000
13
0.4376827600
23
-0.2188413800
33
0.0000000000
40
0.0000000000
40
0.0000000000
40
0.0000000000
40
0.0000000000
40
0.0476775691
40
0.1706425402
40
0.2956542316
40
0.4241314445
40
0.5580145168
40
0.6980062748
40
0.8452920211
40
1.0000000000
40
1.0000000000
40
1.0000000000
40
1.0000000000
10
-29.0507691401
20
49.9315240806
30
0.0000000000
10
-29.0440517822
20
49.9354594064
30
0.0000000000
10
-29.0195744827
20
49.9488003979
30
0.0000000000
10
-28.9747240998
20
49.9670820872
30
0.0000000000
10
-28.9146676152
20
49.9810264103
30
0.0000000000
10
-28.8514409726
20
49.9858734151
30
0.0000000000
10
-28.7857488951
20
49.9816191744
30
0.0000000000
10
-28.7181674697
20
49.9683505929
30
0.0000000000
10
-28.6493942111
20
49.9462472181
30
0.0000000000
10
-28.6042642627
20
49.9262622686
30
0.0000000000
10
-28.5816932576
20
49.9149767660
30
0.0000000000
11
-29.0507691401
21
49.9315240806
31
0.0000000000
11
-29.0302638647
21
49.9426966091
31
0.0000000000
11
-28.9745569459
21
49.9654437480
31
0.0000000000
11
-28.9149931482
21
49.9793858154
31
0.0000000000
11
-28.8523201247
21
49.9843533210
31
0.0000000000
11
-28.7869298702
21
49.9803138385
31
0.0000000000
11
-28.7196697153
21
49.9673180378
31
0.0000000000
11
-28.6509916567
21
49.9454570451
31
0.0000000000
11
-28.5816932576
21
49.9149767660
31
0.0000000000
0
SPLINE
5
32B
100
AcDbEntity
8
0
100
AcDbSpline
62
7
6
CONTINUOUS
70
0
71
3
72
8
73
4
74
2
42
0.0000001000
43
0.0000001000
44
0.0000000001
12
0.0007939798
22
-0.0013580555
32
0.0000000000
13
0.0003717627
23
-0.0017712456
33
0.0000000000
40
0.0000000000
40
0.0000000000
40
0.0000000000
40
0.0000000000
40
1.0000000000
40
1.0000000000
40
1.0000000000
40
1.0000000000
10
-5.7130971587
20
-19.2332116205
30
0.0000000000
10
-5.7128324988
20
-19.2336643056
30
0.0000000000
10
-5.7126385296
20
-19.2342170173
30
0.0000000000
10
-5.7125146088
20
-19.2348074325
30
0.0000000000
11
-5.7130971587
21
-19.2332116205
31
0.0000000000
11
-5.7125146088
21
-19.2348074325
31
0.0000000000
0
SPLINE
5
32C
100
AcDbEntity
8
0
100
AcDbSpline
62
7
6
CONTINUOUS
70
0
71
3
72
11
73
7
74
5
42
0.0000001000
43
0.0000001000
44
0.0000000001
12
-0.0962552428
22
0.0480794250
32
0.0000000000
13
-0.1040694768
23
-0.0280463984
33
0.0000000000
40
0.0000000000
40
0.0000000000
40
0.0000000000
40
0.0000000000
40
0.0617005584
40
0.4621855957
40
0.8018322241
40
1.0000000000
40
1.0000000000
40
1.0000000000
40
1.0000000000
10
-9.9060815871
20
-17.1363212652
30
0.0000000000
10
-9.9080612545
20
-17.1353324227
30
0.0000000000
10
-9.9229920545
20
-17.1281216343
30
0.0000000000
10
-9.9502233797
20
-17.1182888718
30
0.0000000000
10
-9.9840140334
20
-17.1148099656
30
0.0000000000
10
-10.0033278017
20
-17.1176977114
30
0.0000000000
10
-10.0102022073
20
-17.1195503422
30
0.0000000000
11
-9.9060815871
21
-17.1363212652
31
0.0000000000
11
-9.9120613446
21
-17.1334346801
31
0.0000000000
11
-9.9527340528
21
-17.1193967495
31
0.0000000000
11
-9.9890873835
21
-17.1162324195
31
0.0000000000
11
-10.0102022073
21
-17.1195503422
31
0.0000000000
0
SPLINE
5
32D
100
AcDbEntity
8
0
100
AcDbSpline
62
7
6
CONTINUOUS
70
0
71
3
72
8
73
4
74
2
42
0.0000001000
43
0.0000001000
44
0.0000000001
12
-0.0097473490
22
-0.0026268801
32
0.0000000000
13
-0.0093484860
23
-0.0037236898
33
0.0000000000
40
0.0000000000
40
0.0000000000
40
0.0000000000
40
0.0000000000
40
1.0000000000
40
1.0000000000
40
1.0000000000
40
1.0000000000
10
-10.0102022073
20
-17.1195503422
30
0.0000000000
10
-10.0134513237
20
-17.1204259689
30
0.0000000000
10
-10.0166463547
20
-17.1214777565
30
0.0000000000
10
-10.0197625167
20
-17.1227189865
30
0.0000000000
11
-10.0102022073
21
-17.1195503422
31
0.0000000000
11
-10.0197625167
21
-17.1227189865
31
0.0000000000
0
SPLINE
5
32E
100
AcDbEntity
8
0
100
AcDbSpline
62
7
6
CONTINUOUS
70
0
71
3
72
10
73
6
74
4
42
0.0000001000
43
0.0000001000
44
0.0000000001
12
0.0774178382
22
0.0632233885
32
0.0000000000
13
0.0237236076
23
0.0965743011
33
0.0000000000
40
0.0000000000
40
0.0000000000
40
0.0000000000
40
0.0000000000
40
0.0185822240
40
0.4830448330
40
1.0000000000
40
1.0000000000
40
1.0000000000
40
1.0000000000
10
-6.3644811828
20
-20.5083878683
30
0.0000000000
10
-6.3640016510
20
-20.5079962580
30
0.0000000000
10
-6.3516201998
20
-20.4977176315
30
0.0000000000
10
-6.3306105789
20
-20.4711982618
30
0.0000000000
10
-6.3191458879
20
-20.4402431470
30
0.0000000000
10
-6.3150578740
20
-20.4236016190
30
0.0000000000
11
-6.3644811828
21
-20.5083878683
31
0.0000000000
11
-6.3630523526
21
-20.5072016960
31
0.0000000000
11
-6.3337637845
21
-20.4714864779
31
0.0000000000
11
-6.3150578740
21
-20.4236016190
31
0.0000000000
0
SPLINE
5
32F
100
AcDbEntity
8
0
100
AcDbSpline
62
7
6
CONTINUOUS
70
0
71
3
72
8
73
4
74
2
42
0.0000001000
43
0.0000001000
44
0.0000000001
12
0.0007939798
22
-0.0013580555
32
0.0000000000
13
0.0003717627
23
-0.0017712456
33
0.0000000000
40
0.0000000000
40
0.0000000000
40
0.0000000000
40
0.0000000000
40
1.0000000000
40
1.0000000000
40
1.0000000000
40
1.0000000000
10
10.1968054180
20
-27.1881629088
30
0.0000000000
10
10.1970700779
20
-27.1886155940
30
0.0000000000
10
10.1972640471
20
-27.1891683057
30
0.0000000000
10
10.1973879679
20
-27.1897587209
30
0.0000000000
11
10.1968054180
21
-27.1881629088
31
0.0000000000
11
10.1973879679
21
-27.1897587209
31
0.0000000000
0
SPLINE
5
330
100
AcDbEntity
8
0
100
AcDbSpline
62
7
6
CONTINUOUS
70
0
71
3
72
11
73
7
74
5
42
0.0000001000
43
0.0000001000
44
0.0000000001
12
-0.0962552428
22
0.0480794250
32
0.0000000000
13
-0.1040694768
23
-0.0280463984
33
0.0000000000
40
0.0000000000
40
0.0000000000
40
0.0000000000
40
0.0000000000
40
0.0617005584
40
0.4621855957
40
0.8018322241
40
1.0000000000
40
1.0000000000
40
1.0000000000
40
1.0000000000
10
6.0038209896
20
-25.0912725535
30
0.0000000000
10
6.0018413222
20
-25.0902837111
30
0.0000000000
10
5.9869105222
20
-25.0830729227
30
0.0000000000
10
5.9596791970
20
-25.0732401602
30
0.0000000000
10
5.9258885433
20
-25.0697612539
30
0.0000000000
10
5.9065747750
20
-25.0726489997
30
0.0000000000
10
5.8997003694
20
-25.0745016305
30
0.0000000000
11
6.0038209896
21
-25.0912725535
31
0.0000000000
11
5.9978412321
21
-25.0883859685
31
0.0000000000
11
5.9571685239
21
-25.0743480378
31
0.0000000000
11
5.9208151932
21
-25.0711837078
31
0.0000000000
11
5.8997003694
21
-25.0745016305
31
0.0000000000
0
SPLINE
5
331
100
AcDbEntity
8
0
100
AcDbSpline
62
7
6
CONTINUOUS
70
0
71
3
72
8
73
4
74
2
42
0.0000001000
43
0.0000001000
44
0.0000000001
12
-0.0097473490
22
-0.0026268801
32
0.0000000000
13
-0.0093484860
23
-0.0037236898
33
0.0000000000
40
0.0000000000
40
0.0000000000
40
0.0000000000
40
0.0000000000
40
1.0000000000
40
1.0000000000
40
1.0000000000
40
1.0000000000
10
5.8997003694
20
-25.0745016305
30
0.0000000000
10
5.8964512530
20
-25.0753772572
30
0.0000000000
10
5.8932562220
20
-25.0764290449
30
0.0000000000
10
5.8901400600
20
-25.0776702748
30
0.0000000000
11
5.8997003694
21
-25.0745016305
31
0.0000000000
11
5.8901400600
21
-25.0776702748
31
0.0000000000
0
SPLINE
5
332
100
AcDbEntity
8
0
100
AcDbSpline
62
7
6
CONTINUOUS
70
0
71
3
72
10
73
6
74
4
42
0.0000001000
43
0.0000001000
44
0.0000000001
12
0.0774178382
22
0.0632233885
32
0.0000000000
13
0.0237236076
23
0.0965743011
33
0.0000000000
40
0.0000000000
40
0.0000000000
40
0.0000000000
40
0.0000000000
40
0.0185822240
40
0.4830448330
40
1.0000000000
40
1.0000000000
40
1.0000000000
40
1.0000000000
10
9.5454213939
20
-28.4633391567
30
0.0000000000
10
9.5459009257
20
-28.4629475463
30
0.0000000000
10
9.5582823769
20
-28.4526689199
30
0.0000000000
10
9.5792919978
20
-28.4261495501
30
0.0000000000
10
9.5907566888
20
-28.3951944353
30
0.0000000000
10
9.5948447027
20
-28.3785529073
30
0.0000000000
11
9.5454213939
21
-28.4633391567
31
0.0000000000
11
9.5468502241
21
-28.4621529844
31
0.0000000000
11
9.5761387922
21
-28.4264377662
31
0.0000000000
11
9.5948447027
21
-28.3785529073
31
0.0000000000
0
SPLINE
5
333
100
AcDbEntity
8
0
100
AcDbSpline
62
7
6
CONTINUOUS
70
0
71
3
72
18
73
14
74
12
42
0.0000001000
43
0.0000001000
44
0.0000000001
12
0.0000000000
22
-0.2940606100
32
0.0000000000
13
0.2630158054
23
-0.1315079027
33
0.0000000000
40
0.0000000000
40
0.0000000000
40
0.0000000000
40
0.0000000000
40
0.0859940400
40
0.1767766892
40
0.2704071519
40
0.3657848576
40
0.4628376728
40
0.5602226828
40
0.6554812853
40
0.7474995813
40
0.8363342207
40
0.9210137654
40
1.0000000000
40
1.0000000000
40
1.0000000000
40
1.0000000000
10
-19.7428584928
20
-13.6461860459
30
0.0000000000
10
-19.7428584928
20
-13.6546151992
30
0.0000000000
10
-19.7418307123
20
-13.6719539348
30
0.0000000000
10
-19.7375133318
20
-13.6981471055
30
0.0000000000
10
-19.7304684208
20
-13.7246936562
30
0.0000000000
10
-19.7208469544
20
-13.7510696973
30
0.0000000000
10
-19.7087976178
20
-13.7768355206
30
0.0000000000
10
-19.6945461451
20
-13.8014391518
30
0.0000000000
10
-19.6784444307
20
-13.8242739146
30
0.0000000000
10
-19.6608462830
20
-13.8448889319
30
0.0000000000
10
-19.6420435670
20
-13.8629543768
30
0.0000000000
10
-19.6224024350
20
-13.8780969710
30
0.0000000000
10
-19.6085558256
20
-13.8863050887
30
0.0000000000
10
-19.6016309496
20
-13.8897675267
30
0.0000000000
11
-19.7428584928
21
-13.6461860459
31
0.0000000000
11
-19.7414338628
21
-13.6714333439
31
0.0000000000
11
-19.7371470689
21
-13.6977825094
31
0.0000000000
11
-19.7301202461
21
-13.7244037707
31
0.0000000000
11
-19.7205278683
21
-13.7507592399
31
0.0000000000
11
-19.7084423563
21
-13.7766134141
31
0.0000000000
11
-19.6940787205
21
-13.8013877800
31
0.0000000000
11
-19.6779136709
21
-13.8242646736
31
0.0000000000
11
-19.6603120923
21
-13.8448163535
31
0.0000000000
11
-19.6414321015
21
-13.8628702995
31
0.0000000000
11
-19.6216609266
21
-13.8780082119
31
0.0000000000
11
-19.6016309496
21
-13.8897675267
31
0.0000000000
0
SPLINE
5
334
100
AcDbEntity
8
0
100
AcDbSpline
62
7
6
CONTINUOUS
70
0
71
3
72
10
73
6
74
4
42
0.0000001000
43
0.0000001000
44
0.0000000001
12
0.1492336917
22
-0.0746168458
32
0.0000000000
13
0.1335106756
23
-0.1001329949
33
0.0000000000
40
0.0000000000
40
0.0000000000
40
0.0000000000
40
0.0000000000
40
0.4760606858
40
0.9742224755
40
1.0000000000
40
1.0000000000
40
1.0000000000
40
1.0000000000
10
28.6939560185
20
21.2771521280
30
0.0000000000
10
28.7176374497
20
21.2653114124
30
0.0000000000
10
28.7649316444
20
21.2386872248
30
0.0000000000
10
28.8108794731
20
21.2072438468
30
0.0000000000
10
28.8342320942
20
21.1898031341
30
0.0000000000
10
28.8353792858
20
21.1889427406
30
0.0000000000
11
28.6939560185
21
21.2771521280
31
0.0000000000
11
28.7632544176
21
21.2383340079
31
0.0000000000
11
28.8319324762
21
21.1915169420
31
0.0000000000
11
28.8353792858
21
21.1889427406
31
0.0000000000
0
SPLINE
5
335
100
AcDbEntity
8
0
100
AcDbSpline
62
7
6
CONTINUOUS
70
0
71
3
72
9
73
5
74
3
42
0.0000001000
43
0.0000001000
44
0.0000000001
12
0.0077036343
22
0.0034681917
32
0.0000000000
13
0.0078730259
23
0.0030642778
33
0.0000000000
40
0.0000000000
40
0.0000000000
40
0.0000000000
40
0.0000000000
40
0.5038139722
40
1.0000000000
40
1.0000000000
40
1.0000000000
40
1.0000000000
10
-10.0275518307
20
-17.1259883799
30
0.0000000000
10
-10.0262580978
20
-17.1254059387
30
0.0000000000
10
-10.0236755245
20
-17.1242822201
30
0.0000000000
10
-10.0210646785
20
-17.1232258038
30
0.0000000000
10
-10.0197625167
20
-17.1227189865
30
0.0000000000
11
-10.0275518307
21
-17.1259883799
31
0.0000000000
11
-10.0236486484
21
-17.1242907317
31
0.0000000000
11
-10.0197625167
21
-17.1227189865
31
0.0000000000
0
SPLINE
5
336
100
AcDbEntity
8
0
100
AcDbSpline
62
7
6
CONTINUOUS
70
0
71
3
72
13
73
9
74
7
42
0.0000001000
43
0.0000001000
44
0.0000000001
12
0.0635281429
22
0.0460416957
32
0.0000000000
13
-0.0274942937
23
0.0599031400
33
0.0000000000
40
0.0000000000
40
0.0000000000
40
0.0000000000
40
0.0000000000
40
0.3320932760
40
0.6016748525
40
0.7994672382
40
0.9301754932
40
0.9994962578
40
1.0000000000
40
1.0000000000
40
1.0000000000
40
1.0000000000
10
-5.7702820641
20
-19.7971826336
30
0.0000000000
10
-5.7632496411
20
-19.7920859210
30
0.0000000000
10
-5.7505276325
20
-19.7826798402
30
0.0000000000
10
-5.7343578793
20
-19.7698843885
30
0.0000000000
10
-5.7219217306
20
-19.7593009768
30
0.0000000000
10
-5.7158155168
20
-19.7525896476
30
0.0000000000
10
-5.7110888635
20
-19.7472520418
30
0.0000000000
10
-5.7117126193
20
-19.7458544448
30
0.0000000000
10
-5.7117172360
20
-19.7458443862
30
0.0000000000
11
-5.7702820641
21
-19.7971826336
31
0.0000000000
11
-5.7493742543
21
-19.7816344324
31
0.0000000000
11
-5.7328176186
21
-19.7684725238
31
0.0000000000
11
-5.7211751913
21
-19.7582121797
31
0.0000000000
11
-5.7141710799
21
-19.7507215353
31
0.0000000000
11
-5.7117037374
21
-19.7458746345
31
0.0000000000
11
-5.7117172360
21
-19.7458443862
31
0.0000000000
0
SPLINE
5
337
100
AcDbEntity
8
0
100
AcDbSpline
62
7
6
CONTINUOUS
70
0
71
3
72
9
73
5
74
3
42
0.0000001000
43
0.0000001000
44
0.0000000001
12
0.0077036343
22
0.0034681917
32
0.0000000000
13
0.0078730259
23
0.0030642778
33
0.0000000000
40
0.0000000000
40
0.0000000000
40
0.0000000000
40
0.0000000000
40
0.5038139722
40
1.0000000000
40
1.0000000000
40
1.0000000000
40
1.0000000000
10
5.8823507460
20
-25.0809396682
30
0.0000000000
10
5.8836444789
20
-25.0803572271
30
0.0000000000
10
5.8862270522
20
-25.0792335084
30
0.0000000000
10
5.8888378982
20
-25.0781770921
30
0.0000000000
10
5.8901400600
20
-25.0776702748
30
0.0000000000
11
5.8823507460
21
-25.0809396682
31
0.0000000000
11
5.8862539283
21
-25.0792420200
31
0.0000000000
11
5.8901400600
21
-25.0776702748
31
0.0000000000
0
SPLINE
5
338
100
AcDbEntity
8
0
100
AcDbSpline
62
7
6
CONTINUOUS
70
0
71
3
72
13
73
9
74
7
42
0.0000001000
43
0.0000001000
44
0.0000000001
12
0.0635281429
22
0.0460416957
32
0.0000000000
13
-0.0274942937
23
0.0599031400
33
0.0000000000
40
0.0000000000
40
0.0000000000
40
0.0000000000
40
0.0000000000
40
0.3320932760
40
0.6016748525
40
0.7994672382
40
0.9301754932
40
0.9994962578
40
1.0000000000
40
1.0000000000
40
1.0000000000
40
1.0000000000
10
10.1396205125
20
-27.7521339219
30
0.0000000000
10
10.1466529356
20
-27.7470372094
30
0.0000000000
10
10.1593749442
20
-27.7376311286
30
0.0000000000
10
10.1755446974
20
-27.7248356768
30
0.0000000000
10
10.1879808461
20
-27.7142522652
30
0.0000000000
10
10.1940870599
20
-27.7075409360
30
0.0000000000
10
10.1988137132
20
-27.7022033301
30
0.0000000000
10
10.1981899574
20
-27.7008057332
30
0.0000000000
10
10.1981853407
20
-27.7007956746
30
0.0000000000
11
10.1396205125
21
-27.7521339219
31
0.0000000000
11
10.1605283224
21
-27.7365857208
31
0.0000000000
11
10.1770849581
21
-27.7234238122
31
0.0000000000
11
10.1887273854
21
-27.7131634680
31
0.0000000000
11
10.1957314968
21
-27.7056728237
31
0.0000000000
11
10.1981988393
21
-27.7008259228
31
0.0000000000
11
10.1981853407
21
-27.7007956746
31
0.0000000000
0
SPLINE
5
339
100
AcDbEntity
8
0
100
AcDbSpline
62
7
6
CONTINUOUS
70
0
71
3
72
9
73
5
74
3
42
0.0000001000
43
0.0000001000
44
0.0000000001
12
-0.0071103887
22
-0.0034668137
32
0.0000000000
13
-0.0069157758
23
-0.0038403736
33
0.0000000000
40
0.0000000000
40
0.0000000000
40
0.0000000000
40
0.0000000000
40
0.4954356311
40
1.0000000000
40
1.0000000000
40
1.0000000000
40
1.0000000000
10
-5.7630744553
20
-19.2510630172
30
0.0000000000
10
-5.7642487019
20
-19.2516355449
30
0.0000000000
10
-5.7666030086
20
-19.2528238576
30
0.0000000000
10
-5.7689248338
20
-19.2540743974
30
0.0000000000
10
-5.7700879851
20
-19.2547203026
30
0.0000000000
11
-5.7630744553
21
-19.2510630172
31
0.0000000000
11
-5.7665735440
21
-19.2528282838
31
0.0000000000
11
-5.7700879851
21
-19.2547203026
31
0.0000000000
0
SPLINE
5
33A
100
AcDbEntity
8
0
100
AcDbSpline
62
7
6
CONTINUOUS
70
0
71
3
72
24
73
20
74
18
42
0.0000001000
43
0.0000001000
44
0.0000000001
12
0.4975025032
22
0.2490640983
32
0.0000000000
13
-0.4970268967
23
0.2485134483
33
0.0000000000
40
0.0000000000
40
0.0000000000
40
0.0000000000
40
0.0000000000
40
0.0429820141
40
0.0987851977
40
0.1562747150
40
0.2157990122
40
0.2767593658
40
0.3384230343
40
0.4014033820
40
0.4658259871
40
0.5307032906
40
0.5951549294
40
0.6594471585
40
0.7230605087
40
0.7844518572
40
0.8427654793
40
0.8983549939
40
0.9510231354
40
1.0000000000
40
1.0000000000
40
1.0000000000
40
1.0000000000
10
-2.7412508621
20
-25.2557290158
30
0.0000000000
10
-2.7341229756
20
-25.2521605903
30
0.0000000000
10
-2.7183153309
20
-25.2428105786
30
0.0000000000
10
-2.6957679597
20
-25.2244717408
30
0.0000000000
10
-2.6740806963
20
-25.2007848015
30
0.0000000000
10
-2.6552458046
20
-25.1736169373
30
0.0000000000
10
-2.6395266561
20
-25.1436747499
30
0.0000000000
10
-2.6271305094
20
-25.1115260537
30
0.0000000000
10
-2.6183464690
20
-25.0775491090
30
0.0000000000
10
-2.6131890784
20
-25.0422401952
30
0.0000000000
10
-2.6118339770
20
-25.0063052472
30
0.0000000000
10
-2.6144613341
20
-24.9704622795
30
0.0000000000
10
-2.6211089687
20
-24.9353723812
30
0.0000000000
10
-2.6318740913
20
-24.9019000875
30
0.0000000000
10
-2.6464246193
20
-24.8711117029
30
0.0000000000
10
-2.6640595419
20
-24.8437359263
30
0.0000000000
10
-2.6842012965
20
-24.8202264901
30
0.0000000000
10
-2.7062482915
20
-24.8010328990
30
0.0000000000
10
-2.7223350189
20
-24.7910449362
30
0.0000000000
10
-2.7304492919
20
-24.7869877996
30
0.0000000000
11
-2.7412508621
21
-25.2557290158
31
0.0000000000
11
-2.7206613449
21
-25.2435995709
31
0.0000000000
11
-2.6965276686
21
-25.2241277754
31
0.0000000000
11
-2.6748914342
21
-25.2006234456
31
0.0000000000
11
-2.6559721300
21
-25.1734911166
31
0.0000000000
11
-2.6401786272
21
-25.1435228479
31
0.0000000000
11
-2.6278385762
21
-25.1115558889
31
0.0000000000
11
-2.6190248726
21
-25.0776861361
31
0.0000000000
11
-2.6138377219
21
-25.0422647392
31
0.0000000000
11
-2.6125002506
21
-25.0062376958
31
0.0000000000
11
-2.6151407297
21
-24.9705198407
31
0.0000000000
11
-2.6218534220
21
-24.9354293909
31
0.0000000000
11
-2.6327289561
21
-24.9017944496
31
0.0000000000
11
-2.6473372904
21
-24.8709656954
31
0.0000000000
11
-2.6649401690
21
-24.8437592934
31
0.0000000000
11
-2.6851053926
21
-24.8203584551
31
0.0000000000
11
-2.7072583700
21
-24.8012319981
31
0.0000000000
11
-2.7304492919
21
-24.7869877996
31
0.0000000000
0
SPLINE
5
33B
100
AcDbEntity
8
0
100
AcDbSpline
62
7
6
CONTINUOUS
70
0
71
3
72
12
73
8
74
6
42
0.0000001000
43
0.0000001000
44
0.0000000001
12
-0.0000090132
22
-0.0445988520
32
0.0000000000
13
0.0389079546
23
-0.0214170103
33
0.0000000000
40
0.0000000000
40
0.0000000000
40
0.0000000000
40
0.0000000000
40
0.0024478163
40
0.2118018215
40
0.4405779148
40
0.7015722029
40
1.0000000000
40
1.0000000000
40
1.0000000000
40
1.0000000000
10
-22.7499766894
20
-15.9373777342
30
0.0000000000
10
-22.7499766968
20
-15.9374141241
30
0.0000000000
10
-22.7499701962
20
-15.9405628230
30
0.0000000000
10
-22.7486689876
20
-15.9471064300
30
0.0000000000
10
-22.7432897444
20
-15.9561320565
30
0.0000000000
10
-22.7348592706
20
-15.9643367403
30
0.0000000000
10
-22.7278686881
20
-15.9688657252
30
0.0000000000
10
-22.7239982830
20
-15.9709962022
30
0.0000000000
11
-22.7499766894
21
-15.9373777342
31
0.0000000000
11
-22.7499764639
21
-15.9374869034
31
0.0000000000
11
-22.7482520905
21
-15.9466236529
31
0.0000000000
11
-22.7432168760
21
-15.9554489128
31
0.0000000000
11
-22.7350404539
21
-15.9636653651
31
0.0000000000
11
-22.7239982830
21
-15.9709962022
31
0.0000000000
0
SPLINE
5
33C
100
AcDbEntity
8
0
100
AcDbSpline
62
7
6
CONTINUOUS
70
0
71
3
72
22
73
18
74
16
42
0.0000001000
43
0.0000001000
44
0.0000000001
12
-1.0466618366
22
0.6912084639
32
0.0000000000
13
-0.0000171557
23
1.2543006579
33
0.0000000000
40
0.0000000000
40
0.0000000000
40
0.0000000000
40
0.0000000000
40
0.0586786928
40
0.1200391242
40
0.1838180359
40
0.2497146037
40
0.3173826698
40
0.3864362255
40
0.4564619718
40
0.5270279313
40
0.5976941698
40
0.6680182047
40
0.7375661316
40
0.8059197505
40
0.8726851422
40
0.9374957355
40
1.0000000000
40
1.0000000000
40
1.0000000000
40
1.0000000000
10
-22.1709443896
20
-17.0485824324
30
0.0000000000
10
-22.1914166391
20
-17.0350626960
30
0.0000000000
10
-22.2320562091
20
-17.0054903753
30
0.0000000000
10
-22.2904042566
20
-16.9553599105
30
0.0000000000
10
-22.3470138656
20
-16.8989154164
30
0.0000000000
10
-22.4013295309
20
-16.8367248965
30
0.0000000000
10
-22.4528373925
20
-16.7693965710
30
0.0000000000
10
-22.5010494216
20
-16.6975855993
30
0.0000000000
10
-22.5455104662
20
-16.6219873794
30
0.0000000000
10
-22.5858019428
20
-16.5433301050
30
0.0000000000
10
-22.6215451232
20
-16.4623683974
30
0.0000000000
10
-22.6524043789
20
-16.3798758127
30
0.0000000000
10
-22.6780894321
20
-16.2966381443
30
0.0000000000
10
-22.6983578270
20
-16.2134466996
30
0.0000000000
10
-22.7130153127
20
-16.1310913209
30
0.0000000000
10
-22.7219182636
20
-16.0503765595
30
0.0000000000
10
-22.7239979256
20
-15.9971292489
30
0.0000000000
10
-22.7239982830
20
-15.9709962022
30
0.0000000000
11
-22.1709443896
21
-17.0485824324
31
0.0000000000
11
-22.2305422133
21
-17.0053948666
31
0.0000000000
11
-22.2890019388
21
-16.9553350635
31
0.0000000000
11
-22.3457245996
21
-16.8989239944
31
0.0000000000
11
-22.4001584818
21
-16.8367254890
31
0.0000000000
11
-22.4517812515
21
-16.7693530763
31
0.0000000000
11
-22.5000987616
21
-16.6974685201
31
0.0000000000
11
-22.5446510444
21
-16.6217731461
31
0.0000000000
11
-22.5850153178
21
-16.5430018947
31
0.0000000000
11
-22.6208102519
21
-16.4619143558
31
0.0000000000
11
-22.6516971031
21
-16.3792913412
31
0.0000000000
11
-22.6773836924
21
-16.2959248509
31
0.0000000000
11
-22.6976258243
21
-16.2126126913
31
0.0000000000
11
-22.7122289710
21
-16.1301518845
31
0.0000000000
11
-22.7210495424
21
-16.0493398688
31
0.0000000000
11
-22.7239982830
21
-15.9709962022
31
0.0000000000
0
SPLINE
5
33D
100
AcDbEntity
8
0
100
AcDbSpline
62
7
6
CONTINUOUS
70
0
71
3
72
26
73
22
74
20
42
0.0000001000
43
0.0000001000
44
0.0000000001
12
-35.0826696367
22
12.4140833922
32
0.0000000000
13
-31.0540913598
23
20.5072325077
33
0.0000000000
40
0.0000000000
40
0.0000000000
40
0.0000000000
40
0.0000000000
40
0.0305315512
40
0.0654695218
40
0.1048510867
40
0.1487139989
40
0.1971073844
40
0.2504534355
40
0.3100221249
40
0.3773896930
40
0.4550403719
40
0.5376676752
40
0.6156901509
40
0.6836721525
40
0.7440058790
40
0.7982155696
40
0.8475417791
40
0.8923747363
40
0.9327258087
40
0.9685986501
40
1.0000000000
40
1.0000000000
40
1.0000000000
40
1.0000000000
10
11.0323579555
20
-33.6502336050
30
0.0000000000
10
10.6753151812
20
-33.5238931975
30
0.0000000000
10
9.9107399718
20
-33.2500297700
30
0.0000000000
10
8.6899109188
20
-32.8013468650
30
0.0000000000
10
7.3186409738
20
-32.2827725651
30
0.0000000000
10
5.7973623975
20
-31.6892237143
30
0.0000000000
10
4.1223959609
20
-31.0133020089
30
0.0000000000
10
2.2764173015
20
-30.2409318581
30
0.0000000000
10
0.2256318562
20
-29.3487731568
30
0.0000000000
10
-2.0854160921
20
-28.2997995022
30
0.0000000000
10
-4.6356622251
20
-27.0867155520
30
0.0000000000
10
-7.2797986599
20
-25.7645809163
30
0.0000000000
10
-9.7913191248
20
-24.4466938612
30
0.0000000000
10
-12.0365567216
20
-23.2174983690
30
0.0000000000
10
-14.0056723445
20
-22.0997010710
30
0.0000000000
10
-15.7596391165
20
-21.0721031979
30
0.0000000000
10
-17.3361476298
20
-20.1222913347
30
0.0000000000
10
-18.7557529447
20
-19.2453983918
30
0.0000000000
10
-20.0254287496
20
-18.4435014722
30
0.0000000000
10
-21.1478473497
20
-17.7205787829
30
0.0000000000
10
-21.8458975929
20
-17.2632340272
30
0.0000000000
10
-22.1709443896
20
-17.0485824324
30
0.0000000000
11
11.0323579555
21
-33.6502336050
31
0.0000000000
11
9.9626962848
21
-33.2670927935
31
0.0000000000
11
8.7423143299
21
-32.8185771591
31
0.0000000000
11
7.3715033852
21
-32.3001812718
31
0.0000000000
11
5.8508209124
21
-31.7068716674
31
0.0000000000
11
4.1807487954
21
-31.0329345463
31
0.0000000000
11
2.3493516745
21
-30.2666815520
31
0.0000000000
11
0.3165625782
21
-29.3823746204
31
0.0000000000
11
-1.9663315114
21
-28.3462162169
31
0.0000000000
11
-4.5758891379
21
-27.1049830134
31
0.0000000000
11
-7.3261838576
21
-25.7298508046
31
0.0000000000
11
-9.8972919796
21
-24.3807731916
31
0.0000000000
11
-12.1164243697
21
-23.1659257902
31
0.0000000000
11
-14.0690463598
21
-22.0575330276
31
0.0000000000
11
-15.8097001590
21
-21.0377652968
31
0.0000000000
11
-17.3820379047
21
-20.0904917206
31
0.0000000000
11
-18.8015057745
21
-19.2137031966
31
0.0000000000
11
-20.0711307284
21
-18.4118526157
31
0.0000000000
11
-21.1934711991
21
-17.6889906666
31
0.0000000000
11
-22.1709443896
21
-17.0485824324
31
0.0000000000
0
SPLINE
5
33E
100
AcDbEntity
8
0
100
AcDbSpline
62
7
6
CONTINUOUS
70
0
71
3
72
15
73
11
74
9
42
0.0000001000
43
0.0000001000
44
0.0000000001
12
-0.1254056812
22
-0.0564578919
32
0.0000000000
13
-0.1252189526
23
0.0568708391
33
0.0000000000
40
0.0000000000
40
0.0000000000
40
0.0000000000
40
0.0000000000
40
0.1141620170
40
0.2374797517
40
0.3672374635
40
0.5002960508
40
0.6333145269
40
0.7629543081
40
0.8860836912
40
1.0000000000
40
1.0000000000
40
1.0000000000
40
1.0000000000
10
11.7743770074
20
-33.1532553000
30
0.0000000000
10
11.7696048189
20
-33.1554037489
30
0.0000000000
10
11.7593516903
20
-33.1591646427
30
0.0000000000
10
11.7429626986
20
-33.1631381220
30
0.0000000000
10
11.7254006112
20
-33.1655693345
30
0.0000000000
10
11.7072471152
20
-33.1663755145
30
0.0000000000
10
11.6891007927
20
-33.1655301995
30
0.0000000000
10
11.6715599392
20
-33.1630611596
30
0.0000000000
10
11.6552054720
20
-33.1590524298
30
0.0000000000
10
11.6449818376
20
-33.1552683544
30
0.0000000000
10
11.6402270107
20
-33.1531088491
30
0.0000000000
11
11.7743770074
21
-33.1532553000
31
0.0000000000
11
11.7596672434
21
-33.1587443242
31
0.0000000000
11
11.7431987798
21
-33.1627966179
31
0.0000000000
11
11.7255264318
21
-33.1652756620
31
0.0000000000
11
11.7072455724
21
-33.1660979396
31
0.0000000000
11
11.6889720746
21
-33.1652357497
31
0.0000000000
11
11.6713215621
21
-33.1627181404
31
0.0000000000
11
11.6548886699
21
-33.1586299299
31
0.0000000000
11
11.6402270107
21
-33.1531088491
31
0.0000000000
0
SPLINE
5
33F
100
AcDbEntity
8
0
100
AcDbSpline
62
7
6
CONTINUOUS
70
0
71
3
72
22
73
18
74
16
42
0.0000001000
43
0.0000001000
44
0.0000000001
12
-0.0000141302
22
-0.9503122057
32
0.0000000000
13
-0.8958844643
23
0.3169926105
33
0.0000000000
40
0.0000000000
40
0.0000000000
40
0.0000000000
40
0.0000000000
40
0.0792566594
40
0.1552343734
40
0.2278629990
40
0.2972400475
40
0.3636160761
40
0.4273966444
40
0.4891417637
40
0.5495478552
40
0.6094134595
40
0.6695809687
40
0.7308726742
40
0.7940288119
40
0.8596638802
40
0.9282342698
40
1.0000000000
40
1.0000000000
40
1.0000000000
40
1.0000000000
10
11.6402270107
20
-33.1531088491
30
0.0000000000
10
11.6402266374
20
-33.1782150394
30
0.0000000000
10
11.6381932714
20
-33.2274207044
30
0.0000000000
10
11.6286214501
20
-33.2990700140
30
0.0000000000
10
11.6126709411
20
-33.3663833652
30
0.0000000000
10
11.5904777674
20
-33.4287028305
30
0.0000000000
10
11.5622295575
20
-33.4854303912
30
0.0000000000
10
11.5281665696
20
-33.5360049915
30
0.0000000000
10
11.4885900923
20
-33.5799042141
30
0.0000000000
10
11.4438718004
20
-33.6166524412
30
0.0000000000
10
11.3944599028
20
-33.6458385951
30
0.0000000000
10
11.3408726247
20
-33.6671387777
30
0.0000000000
10
11.2836789871
20
-33.6803314986
30
0.0000000000
10
11.2234752760
20
-33.6852993379
30
0.0000000000
10
11.1608672266
20
-33.6820160523
30
0.0000000000
10
11.0964886676
20
-33.6705435286
30
0.0000000000
10
11.0537892230
20
-33.6578166737
30
0.0000000000
10
11.0323579555
20
-33.6502336050
30
0.0000000000
11
11.6402270107
21
-33.1531088491
31
0.0000000000
11
11.6369805390
21
-33.2283574207
31
0.0000000000
11
11.6272701167
21
-33.2999040194
31
0.0000000000
11
11.6111949632
21
-33.3670257879
31
0.0000000000
11
11.5889147793
21
-33.4290768904
31
0.0000000000
11
11.5606458541
21
-33.4854656806
31
0.0000000000
11
11.5266595880
21
-33.5356521518
31
0.0000000000
11
11.4872804991
21
-33.5791526597
31
0.0000000000
11
11.4428846676
21
-33.6155436411
31
0.0000000000
11
11.3938949797
21
-33.6444676452
31
0.0000000000
11
11.3407796292
21
-33.6656354011
31
0.0000000000
11
11.2840475581
21
-33.6788300377
31
0.0000000000
11
11.2242448748
21
-33.6839099214
31
0.0000000000
11
11.1619481004
21
-33.6808109468
31
0.0000000000
11
11.0977653420
21
-33.6695492266
31
0.0000000000
11
11.0323579555
21
-33.6502336050
31
0.0000000000
0
SPLINE
5
340
100
AcDbEntity
8
0
100
AcDbSpline
62
7
6
CONTINUOUS
70
0
71
3
72
17
73
13
74
11
42
0.0000001000
43
0.0000001000
44
0.0000000001
12
-0.0027714498
22
-0.6760680744
32
0.0000000000
13
-0.6295408071
23
-0.2483360240
33
0.0000000000
40
0.0000000000
40
0.0000000000
40
0.0000000000
40
0.0000000000
40
0.1240522417
40
0.2428889741
40
0.3564578261
40
0.4648866435
40
0.5685442208
40
0.6680424094
40
0.7642384079
40
0.8582097991
40
0.9512036243
40
1.0000000000
40
1.0000000000
40
1.0000000000
40
1.0000000000
10
11.7743768829
20
-33.1532552308
30
0.0000000000
10
11.7742622814
20
-33.1812111509
30
0.0000000000
10
11.7717962254
20
-33.2359733957
30
0.0000000000
10
11.7609203373
20
-33.3156804835
30
0.0000000000
10
11.7430413067
20
-33.3905224428
30
0.0000000000
10
11.7183098792
20
-33.4597859165
30
0.0000000000
10
11.6869354351
20
-33.5228072153
30
0.0000000000
10
11.6491842026
20
-33.5789647373
30
0.0000000000
10
11.6053883873
20
-33.6276797870
30
0.0000000000
10
11.5559566786
20
-33.6684248684
30
0.0000000000
10
11.5100550221
20
-33.6956068067
30
0.0000000000
10
11.4807724626
20
-33.7085385632
30
0.0000000000
10
11.4705326927
20
-33.7125778625
30
0.0000000000
11
11.7743768829
21
-33.1532552308
31
0.0000000000
11
11.7704534307
21
-33.2370318738
31
0.0000000000
11
11.7594260780
21
-33.3166138949
31
0.0000000000
11
11.7414071057
21
-33.3912505236
31
0.0000000000
11
11.7165755636
21
-33.4602225920
31
0.0000000000
11
11.6851723228
21
-33.5228729420
31
0.0000000000
11
11.6474987762
21
-33.5786017769
31
0.0000000000
11
11.6039145235
21
-33.6268722738
31
0.0000000000
11
11.5548355247
21
-33.6672147449
31
0.0000000000
11
11.5007287708
21
-33.6992332109
31
0.0000000000
11
11.4705326927
21
-33.7125778625
31
0.0000000000
0
SPLINE
5
341
100
AcDbEntity
8
0
100
AcDbSpline
62
7
6
CONTINUOUS
70
0
71
3
72
15
73
11
74
9
42
0.0000001000
43
0.0000001000
44
0.0000000001
12
-0.1254056814
22
-0.0564578914
32
0.0000000000
13
-0.1252189528
23
0.0568708385
33
0.0000000000
40
0.0000000000
40
0.0000000000
40
0.0000000000
40
0.0000000000
40
0.1141619336
40
0.2374795873
40
0.3672372354
40
0.5002957902
40
0.6333142739
40
0.7629541054
40
0.8860835768
40
1.0000000000
40
1.0000000000
40
1.0000000000
40
1.0000000000
10
11.7743770074
20
9.6848531146
30
0.0000000000
10
11.7696048224
20
9.6827046673
30
0.0000000000
10
11.7593517011
20
9.6789437757
30
0.0000000000
10
11.7429627201
20
9.6749702971
30
0.0000000000
10
11.7254006411
20
9.6725390831
30
0.0000000000
10
11.7072471493
20
9.6717329003
30
0.0000000000
10
11.6891008255
20
9.6725782121
30
0.0000000000
10
11.6715599649
20
9.6750472499
30
0.0000000000
10
11.6552054858
20
9.6790559801
30
0.0000000000
10
11.6449818424
20
9.6828400580
30
0.0000000000
10
11.6402270107
20
9.6849995655
30
0.0000000000
11
11.7743770074
21
9.6848531146
31
0.0000000000
11
11.7596672544
21
9.6793640938
31
0.0000000000
11
11.7431988021
21
9.6753118010
31
0.0000000000
11
11.7255264631
21
9.6728327556
31
0.0000000000
11
11.7072456083
21
9.6720104751
31
0.0000000000
11
11.6889721093
21
9.6728726618
31
0.0000000000
11
11.6713215895
21
9.6753902690
31
0.0000000000
11
11.6548886850
21
9.6794784801
31
0.0000000000
11
11.6402270107
21
9.6849995655
31
0.0000000000
0
SPLINE
5
342
100
AcDbEntity
8
0
100
AcDbSpline
62
7
6
CONTINUOUS
70
0
71
3
72
15
73
11
74
9
42
0.0000001000
43
0.0000001000
44
0.0000000001
12
-0.1205459481
22
-0.0741690412
32
0.0000000000
13
-0.0108328691
23
-0.1411205910
33
0.0000000000
40
0.0000000000
40
0.0000000000
40
0.0000000000
40
0.0000000000
40
0.1115104566
40
0.2326911322
40
0.3610788090
40
0.4936524285
40
0.6270958790
40
0.7580340102
40
0.8832637659
40
1.0000000000
40
1.0000000000
40
1.0000000000
40
1.0000000000
10
11.1023045515
20
10.8532787461
30
0.0000000000
10
11.0978238403
20
10.8505218716
30
0.0000000000
10
11.0889491813
20
10.8439804697
30
0.0000000000
10
11.0766524478
20
10.8321363110
30
0.0000000000
10
11.0651558063
20
10.8182009072
30
0.0000000000
10
11.0548631978
20
10.8026606457
30
0.0000000000
10
11.0461323576
20
10.7860567190
30
0.0000000000
10
11.0392683492
20
10.7689678262
30
0.0000000000
10
11.0345102273
20
10.7519941498
30
0.0000000000
10
11.0327794854
20
10.7406695105
30
0.0000000000
10
11.0323579559
20
10.7351782151
30
0.0000000000
11
11.1023045515
21
10.8532787461
31
0.0000000000
11
11.0895362204
21
10.8440016833
31
0.0000000000
11
11.0771315304
21
10.8321570994
31
0.0000000000
11
11.0655336489
21
10.8181681516
31
0.0000000000
11
11.0551569195
21
10.8025346061
31
0.0000000000
11
11.0463720590
21
10.7858149837
31
0.0000000000
11
11.0394929134
21
10.7686066062
31
0.0000000000
11
11.0347652459
21
10.7515242565
31
0.0000000000
11
11.0323579559
21
10.7351782151
31
0.0000000000
0
SPLINE
5
343
100
AcDbEntity
8
0
100
AcDbSpline
62
7
6
CONTINUOUS
70
0
71
3
72
22
73
18
74
16
42
0.0000001000
43
0.0000001000
44
0.0000000001
12
1.1045989901
22
-0.6157873007
32
0.0000000000
13
0.0000188023
23
-1.2646473533
33
0.0000000000
40
0.0000000000
40
0.0000000000
40
0.0000000000
40
0.0000000000
40
0.0607406440
40
0.1237372737
40
0.1887334319
40
0.2554474476
40
0.3235600403
40
0.3927185490
40
0.4625487787
40
0.5326632900
40
0.6026713227
40
0.6721840071
40
0.7408256908
40
0.8082407186
40
0.8741018648
40
0.9381132878
40
1.0000000000
40
1.0000000000
40
1.0000000000
40
1.0000000000
10
11.0323579555
20
10.7351782148
30
0.0000000000
10
11.0547226401
20
10.7227104424
30
0.0000000000
10
11.0991570139
20
10.6952469198
30
0.0000000000
10
11.1632506280
20
10.6479795785
30
0.0000000000
10
11.2254575200
20
10.5943163756
30
0.0000000000
10
11.2851633870
20
10.5347986270
30
0.0000000000
10
11.3418001385
20
10.4700090213
30
0.0000000000
10
11.3948281205
20
10.4005776934
30
0.0000000000
10
11.4437436233
20
10.3271761122
30
0.0000000000
10
11.4880829454
20
10.2505099453
30
0.0000000000
10
11.5274260195
20
10.1713130726
30
0.0000000000
10
11.5614000967
20
10.0903404036
30
0.0000000000
10
11.5896823623
20
10.0083612950
30
0.0000000000
10
11.6120027166
20
9.9261531578
30
0.0000000000
10
11.6281442346
20
9.8444941765
30
0.0000000000
10
11.6379459170
20
9.7641811334
30
0.0000000000
10
11.6402266228
20
9.7110878544
30
0.0000000000
10
11.6402270107
20
9.6849995655
30
0.0000000000
11
11.0323579555
21
10.7351782148
31
0.0000000000
11
11.0977653420
21
10.6948980211
31
0.0000000000
11
11.1619481004
21
10.6477000681
31
0.0000000000
11
11.2242448748
21
10.5940764280
31
0.0000000000
11
11.2840475581
21
10.5345626822
31
0.0000000000
11
11.3407796292
21
10.4697452632
31
0.0000000000
11
11.3938949797
21
10.4002599561
31
0.0000000000
11
11.4428846676
21
10.3267835977
31
0.0000000000
11
11.4872804991
21
10.2500281268
31
0.0000000000
11
11.5266595880
21
10.1707323680
31
0.0000000000
11
11.5606458541
21
10.0896587489
31
0.0000000000
11
11.5889147793
21
10.0075830886
31
0.0000000000
11
11.6111949632
21
9.9252895940
31
0.0000000000
11
11.6272701167
21
9.8435644398
31
0.0000000000
11
11.6369805390
21
9.7631970705
31
0.0000000000
11
11.6402270107
21
9.6849995655
31
0.0000000000
0
SPLINE
5
344
100
AcDbEntity
8
0
100
AcDbSpline
62
7
6
CONTINUOUS
70
0
71
3
72
22
73
18
74
16
42
0.0000001000
43
0.0000001000
44
0.0000000001
12
1.2204369204
22
-0.6927862574
32
0.0000000000
13
0.0057740724
23
-1.4033480449
33
0.0000000000
40
0.0000000000
40
0.0000000000
40
0.0000000000
40
0.0000000000
40
0.0605633757
40
0.1234024849
40
0.1882951252
40
0.2549530297
40
0.3230509379
40
0.3922293589
40
0.4621068889
40
0.5322884974
40
0.6023758904
40
0.6719721617
40
0.7406931537
40
0.8081744037
40
0.8740799647
40
0.9381039165
40
1.0000000000
40
1.0000000000
40
1.0000000000
40
1.0000000000
10
11.1023045515
20
10.8532787461
30
0.0000000000
10
11.1269424781
20
10.8392929213
30
0.0000000000
10
11.1758830668
20
10.8085250450
30
0.0000000000
10
11.2464624483
20
10.7556868129
30
0.0000000000
10
11.3149847698
20
10.6957815628
30
0.0000000000
10
11.3807878097
20
10.6294026453
30
0.0000000000
10
11.4432453706
20
10.5571999773
30
0.0000000000
10
11.5017625743
20
10.4798756020
30
0.0000000000
10
11.5557837516
20
10.3981772709
30
0.0000000000
10
11.6047971121
20
10.3128902255
30
0.0000000000
10
11.6483386418
20
10.2248306065
30
0.0000000000
10
11.6859961078
20
10.1348375367
30
0.0000000000
10
11.7174118996
20
10.0437660180
30
0.0000000000
10
11.7422862234
20
9.9524796120
30
0.0000000000
10
11.7603775515
20
9.8618428575
30
0.0000000000
10
11.7715078978
20
9.7727227835
30
0.0000000000
10
11.7742577521
20
9.7138070997
30
0.0000000000
10
11.7743768830
20
9.6848531837
30
0.0000000000
11
11.1023045515
21
10.8532787461
31
0.0000000000
11
11.1743337664
21
10.8081625772
31
0.0000000000
11
11.2450022731
21
10.7554111514
31
0.0000000000
11
11.3136292946
21
10.6955474438
31
0.0000000000
11
11.3795438944
21
10.6291702000
31
0.0000000000
11
11.4421110907
21
10.5569332118
31
0.0000000000
11
11.5007287701
21
10.4795450615
31
0.0000000000
11
11.5548355241
21
10.3977595194
31
0.0000000000
11
11.6039145230
21
10.3123689863
31
0.0000000000
11
11.6474987757
21
10.2241948557
31
0.0000000000
11
11.6851723224
21
10.1340845743
31
0.0000000000
11
11.7165755632
21
10.0429003364
31
0.0000000000
11
11.7414071055
21
9.9515133802
31
0.0000000000
11
11.7594260779
21
9.8607963860
31
0.0000000000
11
11.7704534306
21
9.7716270133
31
0.0000000000
11
11.7743768830
21
9.6848531837
31
0.0000000000
0
SPLINE
5
345
100
AcDbEntity
8
0
100
AcDbSpline
62
7
6
CONTINUOUS
70
0
71
3
72
15
73
11
74
9
42
0.0000001000
43
0.0000001000
44
0.0000000001
12
-0.1271892415
22
-0.0669510894
32
0.0000000000
13
0.0093477124
23
-0.1434300240
33
0.0000000000
40
0.0000000000
40
0.0000000000
40
0.0000000000
40
0.0000000000
40
0.1131101403
40
0.2335142562
40
0.3597665389
40
0.4898321826
40
0.6213274997
40
0.7517442091
40
0.8786677311
40
1.0000000000
40
1.0000000000
40
1.0000000000
40
1.0000000000
10
-22.1070230517
20
27.4579427156
30
0.0000000000
10
-22.1118185160
20
27.4554184332
30
0.0000000000
10
-22.1212296163
20
27.4492438838
30
0.0000000000
10
-22.1339741521
20
27.4375469775
30
0.0000000000
10
-22.1454116423
20
27.4235076069
30
0.0000000000
10
-22.1551445384
20
27.4076181390
30
0.0000000000
10
-22.1628394355
20
27.3904306619
30
0.0000000000
10
-22.1682281783
20
27.3725413425
30
0.0000000000
10
-22.1711222694
20
27.3545771663
30
0.0000000000
10
-22.1713224492
20
27.3426302841
30
0.0000000000
10
-22.1709443895
20
27.3368293874
30
0.0000000000
11
-22.1070230517
21
27.4579427156
31
0.0000000000
11
-22.1206684190
21
27.4491041486
31
0.0000000000
11
-22.1334693545
21
27.4374576603
31
0.0000000000
11
-22.1449685335
21
27.4234193315
31
0.0000000000
11
-22.1547551377
21
27.4074906941
31
0.0000000000
11
-22.1624795322
21
27.3902408125
31
0.0000000000
11
-22.1678657560
21
27.3722859538
31
0.0000000000
11
-22.1707213817
21
27.3542675713
31
0.0000000000
11
-22.1709443895
21
27.3368293874
31
0.0000000000
0
SPLINE
5
346
100
AcDbEntity
8
0
100
AcDbSpline
62
7
6
CONTINUOUS
70
0
71
3
72
26
73
22
74
20
42
0.0000001000
43
0.0000001000
44
0.0000000001
12
34.0298548942
22
-14.8694308119
32
0.0000000000
13
32.4370758051
23
-18.0822318867
33
0.0000000000
40
0.0000000000
40
0.0000000000
40
0.0000000000
40
0.0000000000
40
0.0287554727
40
0.0618253849
40
0.0993033070
40
0.1412902511
40
0.1879047131
40
0.2396391575
40
0.2978353211
40
0.3641815520
40
0.4413162837
40
0.5241182773
40
0.6029594900
40
0.6721666820
40
0.7339813197
40
0.7898237317
40
0.8408720666
40
0.8874566694
40
0.9295333558
40
0.9670586312
40
1.0000000000
40
1.0000000000
40
1.0000000000
40
1.0000000000
10
-22.1709443896
20
27.3368293873
30
0.0000000000
10
-21.8447628679
20
27.1943035498
30
0.0000000000
10
-21.1439910475
20
26.8866504155
30
0.0000000000
10
-20.0202410606
20
26.3883696596
30
0.0000000000
10
-18.7490944708
20
25.8184566407
30
0.0000000000
10
-17.3278714380
20
25.1734800623
30
0.0000000000
10
-15.7495236746
20
24.4477298176
30
0.0000000000
10
-13.9932547962
20
23.6286851294
30
0.0000000000
10
-12.0210573439
20
22.6948203197
30
0.0000000000
10
-9.7716306085
20
21.6118264344
30
0.0000000000
10
-7.2566008302
20
20.3784929266
30
0.0000000000
10
-4.6129033166
20
19.0564383759
30
0.0000000000
10
-2.0667656463
20
17.7588990408
30
0.0000000000
10
0.2398835827
20
16.5637481111
30
0.0000000000
10
2.2875298372
20
15.4876643274
30
0.0000000000
10
4.1312157371
20
14.5067437918
30
0.0000000000
10
5.8043912531
20
13.6067717956
30
0.0000000000
10
7.3241446384
20
12.7813269342
30
0.0000000000
10
8.6940721307
20
12.0307904444
30
0.0000000000
10
9.9137192509
20
11.3574674749
30
0.0000000000
10
10.6761840635
20
10.9337293711
30
0.0000000000
10
11.0323579555
20
10.7351782148
30
0.0000000000
11
-22.1709443896
21
27.3368293873
31
0.0000000000
11
-21.1931393714
21
26.9075633376
31
0.0000000000
11
-20.0704452812
21
26.4097662283
31
0.0000000000
11
-18.8004355089
21
25.8403848137
31
0.0000000000
11
-17.3805426555
21
25.1960408734
31
0.0000000000
11
-15.8077263417
21
24.4728716609
31
0.0000000000
11
-14.0664998729
21
23.6608930229
31
0.0000000000
11
-12.1131781079
21
22.7360330695
31
0.0000000000
11
-9.8931598584
21
21.6672914639
31
0.0000000000
11
-7.3211802059
21
20.4061695276
31
0.0000000000
11
-4.5708487868
21
19.0309481497
31
0.0000000000
11
-1.9621110054
21
17.7016331631
31
0.0000000000
11
0.3199202420
21
16.5193184583
31
0.0000000000
11
2.3520150595
21
15.4514615528
31
0.0000000000
11
4.1828338631
21
14.4774235148
31
0.0000000000
11
5.8524146097
21
13.5794132627
31
0.0000000000
11
7.3726533483
21
12.7537249877
31
0.0000000000
11
8.7430561698
21
12.0029419349
31
0.0000000000
11
9.9630577331
21
11.3294329256
31
0.0000000000
11
11.0323579555
21
10.7351782148
31
0.0000000000
0
SPLINE
5
347
100
AcDbEntity
8
0
100
AcDbSpline
62
7
6
CONTINUOUS
70
0
71
3
72
26
73
22
74
20
42
0.0000001000
43
0.0000001000
44
0.0000000001
12
34.0365533686
22
-14.8709786788
32
0.0000000000
13
32.4424410756
23
-18.0864863679
33
0.0000000000
40
0.0000000000
40
0.0000000000
40
0.0000000000
40
0.0000000000
40
0.0287555922
40
0.0618255883
40
0.0993035904
40
0.1412906062
40
0.1879051317
40
0.2396396256
40
0.2978358180
40
0.3641820586
40
0.4413167602
40
0.5241186865
40
0.6029598241
40
0.6721669520
40
0.7339815258
40
0.7898238825
40
0.8408721675
40
0.8874567236
40
0.9295333714
40
0.9670586154
40
1.0000000000
40
1.0000000000
40
1.0000000000
40
1.0000000000
10
-22.1070230517
20
27.4579427156
30
0.0000000000
10
-21.7807759686
20
27.3154014493
30
0.0000000000
10
-21.0798641988
20
27.0077143668
30
0.0000000000
10
-19.9558913101
20
26.5093757895
30
0.0000000000
10
-18.6844948897
20
25.9393932165
30
0.0000000000
10
-17.2629947837
20
25.2943334592
30
0.0000000000
10
-15.6843420555
20
24.5684842489
30
0.0000000000
10
-13.9277372061
20
23.7493214520
30
0.0000000000
10
-11.9551666325
20
22.8153141769
30
0.0000000000
10
-9.7053197222
20
21.7321454341
30
0.0000000000
10
-7.1898269048
20
20.4986008279
30
0.0000000000
10
-4.5456502363
20
19.1763065294
30
0.0000000000
10
-1.9990580761
20
17.8785192887
30
0.0000000000
10
0.3079972693
20
16.6831299824
30
0.0000000000
10
2.3559997212
20
15.6068239833
30
0.0000000000
10
4.2000028198
20
14.6256949822
30
0.0000000000
10
5.8734633518
20
13.7255269945
30
0.0000000000
10
7.3934732723
20
12.8998985639
30
0.0000000000
10
8.7636301196
20
12.1491921084
30
0.0000000000
10
9.9834804145
20
11.4757140006
30
0.0000000000
10
10.7460715807
20
11.0518768790
30
0.0000000000
10
11.1023045568
20
10.8532789113
30
0.0000000000
11
-22.1070230517
21
27.4579427156
31
0.0000000000
11
-21.1290219138
21
27.0286289368
31
0.0000000000
11
-20.0061054857
21
26.5307742269
31
0.0000000000
11
-18.7358460566
21
25.9613233147
31
0.0000000000
11
-17.3156763899
21
25.3168962960
31
0.0000000000
11
-15.7425561095
21
24.5936284594
31
0.0000000000
11
-14.0009964590
21
23.7815327203
31
0.0000000000
11
-12.0473051565
21
22.8565317247
31
0.0000000000
11
-9.8268719913
21
21.7876175066
31
0.0000000000
11
-7.2544188241
21
20.5262798083
31
0.0000000000
11
-4.5035891684
21
19.1508092648
31
0.0000000000
11
-1.8943858724
21
17.8212404590
31
0.0000000000
11
0.3880472573
21
16.6386899410
31
0.0000000000
11
2.4204954613
21
15.5706126084
31
0.0000000000
11
4.2516292746
21
14.5963675807
31
0.0000000000
11
5.9214944464
21
13.6981617730
31
0.0000000000
11
7.4419897543
21
12.8722899135
31
0.0000000000
11
8.8126220170
21
12.1213368448
31
0.0000000000
11
10.0328263847
21
11.4476729000
31
0.0000000000
11
11.1023045568
21
10.8532789113
31
0.0000000000
0
SPLINE
5
348
100
AcDbEntity
8
0
100
AcDbSpline
62
7
6
CONTINUOUS
70
0
71
3
72
22
73
18
74
16
42
0.0000001000
43
0.0000001000
44
0.0000000001
12
0.0000120895
22
0.8972122751
32
0.0000000000
13
0.8221594992
23
-0.3592264251
33
0.0000000000
40
0.0000000000
40
0.0000000000
40
0.0000000000
40
0.0000000000
40
0.0837680000
40
0.1636229362
40
0.2393832865
40
0.3110514030
40
0.3788071322
40
0.4430234485
40
0.5042829456
40
0.5633753499
40
0.6212692481
40
0.6790425203
40
0.7377888015
40
0.7985175130
40
0.8620779366
40
0.9291094530
40
1.0000000000
40
1.0000000000
40
1.0000000000
40
1.0000000000
10
-22.7239982830
20
26.8671122124
30
0.0000000000
10
-22.7239979454
20
26.8921647716
30
0.0000000000
10
-22.7221656999
20
26.9411264193
30
0.0000000000
10
-22.7134983311
20
27.0122818912
30
0.0000000000
10
-22.6990487057
20
27.0788135368
30
0.0000000000
10
-22.6789382015
20
27.1400802343
30
0.0000000000
10
-22.6533298743
20
27.1955047725
30
0.0000000000
10
-22.6224266328
20
27.2445499525
30
0.0000000000
10
-22.5864787682
20
27.2867131530
30
0.0000000000
10
-22.5457991634
20
27.3215265875
30
0.0000000000
10
-22.5007828952
20
27.3485735377
30
0.0000000000
10
-22.4519125279
20
27.3675230265
30
0.0000000000
10
-22.3997354967
20
27.3781631593
30
0.0000000000
10
-22.3448238391
20
27.3804093488
30
0.0000000000
10
-22.2877433033
20
27.3742817585
30
0.0000000000
10
-22.2290701826
20
27.3598902057
30
0.0000000000
10
-22.1903721685
20
27.3453179732
30
0.0000000000
10
-22.1709443896
20
27.3368293873
30
0.0000000000
11
-22.7239982830
21
26.8671122124
31
0.0000000000
11
-22.7210493497
21
26.9422120149
31
0.0000000000
11
-22.7122285790
21
27.0133137877
31
0.0000000000
11
-22.6976251934
21
27.0796996722
31
0.0000000000
11
-22.6773828012
21
27.1407318788
31
0.0000000000
11
-22.6516959311
21
27.1958296415
31
0.0000000000
11
-22.6208087833
21
27.2444665536
31
0.0000000000
11
-22.5850135323
21
27.2861751425
31
0.0000000000
11
-22.5446490429
21
27.3205504530
31
0.0000000000
11
-22.5000966886
21
27.3472557902
31
0.0000000000
11
-22.4517791373
21
27.3660246465
31
0.0000000000
11
-22.4001563549
21
27.3766646388
31
0.0000000000
11
-22.3457224928
21
27.3790601118
31
0.0000000000
11
-22.2889998781
21
27.3731740574
31
0.0000000000
11
-22.2305402050
21
27.3590507945
31
0.0000000000
11
-22.1709443896
21
27.3368293873
31
0.0000000000
0
SPLINE
5
349
100
AcDbEntity
8
0
100
AcDbSpline
62
7
6
CONTINUOUS
70
0
71
3
72
12
73
8
74
6
42
0.0000001000
43
0.0000001000
44
0.0000000001
12
-0.0466396887
22
0.0307389225
32
0.0000000000
13
0.0038949181
23
0.0554902798
33
0.0000000000
40
0.0000000000
40
0.0000000000
40
0.0000000000
40
0.0000000000
40
0.0579703384
40
0.2639789697
40
0.4853819842
40
0.7297608963
40
1.0000000000
40
1.0000000000
40
1.0000000000
40
1.0000000000
10
-22.1521375210
20
-17.0983474270
30
0.0000000000
10
-22.1530387605
20
-17.0977534450
30
0.0000000000
10
-22.1570186182
20
-17.0948626259
30
0.0000000000
10
-22.1631298411
20
-17.0880570062
30
0.0000000000
10
-22.1684992953
20
-17.0766543765
30
0.0000000000
10
-22.1712354037
20
-17.0631800084
30
0.0000000000
10
-22.1712952422
20
-17.0535809800
30
0.0000000000
10
-22.1709443891
20
-17.0485824322
30
0.0000000000
11
-22.1521375210
21
-17.0983474270
31
0.0000000000
11
-22.1547550846
21
-17.0964447000
31
0.0000000000
11
-22.1624794826
21
-17.0879797040
31
0.0000000000
11
-22.1678657165
21
-17.0769040133
31
0.0000000000
11
-22.1707213587
21
-17.0636133158
31
0.0000000000
11
-22.1709443891
21
-17.0485824322
31
0.0000000000
0
SPLINE
5
34A
100
AcDbEntity
8
0
100
AcDbSpline
62
7
6
CONTINUOUS
70
0
71
3
72
17
73
13
74
11
42
0.0000001000
43
0.0000001000
44
0.0000000001
12
0.0133585610
22
-0.2914378073
32
0.0000000000
13
0.2546907603
23
-0.1422921758
33
0.0000000000
40
0.0000000000
40
0.0000000000
40
0.0000000000
40
0.0000000000
40
0.0943482987
40
0.1943234627
40
0.2984754561
40
0.4051349341
40
0.5125094586
40
0.6187725366
40
0.7221508072
40
0.8210141420
40
0.9139742967
40
1.0000000000
40
1.0000000000
40
1.0000000000
40
1.0000000000
10
-20.6576429242
20
-14.1138163827
30
0.0000000000
10
-20.6572228051
20
-14.1229819365
30
0.0000000000
10
-20.6551885650
20
-14.1418174659
30
0.0000000000
10
-20.6490698722
20
-14.1702361260
30
0.0000000000
10
-20.6399297481
20
-14.1990895191
30
0.0000000000
10
-20.6279885240
20
-14.2276777563
30
0.0000000000
10
-20.6135341249
20
-14.2553126302
30
0.0000000000
10
-20.5969155351
20
-14.2813263486
30
0.0000000000
10
-20.5785343068
20
-14.3050913650
30
0.0000000000
10
-20.5588295207
20
-14.3260379558
30
0.0000000000
10
-20.5382768062
20
-14.3436611787
30
0.0000000000
10
-20.5237186983
20
-14.3533176020
30
0.0000000000
10
-20.5164153810
20
-14.3573978635
30
0.0000000000
11
-20.6576429242
21
-14.1138163827
31
0.0000000000
11
-20.6547879442
21
-14.1411934529
31
0.0000000000
11
-20.6487192292
21
-14.1697222531
31
0.0000000000
11
-20.6395856945
21
-14.1987027504
31
0.0000000000
11
-20.6276114585
21
-14.2274238299
31
0.0000000000
11
-20.6130903435
21
-14.2551807431
31
0.0000000000
11
-20.5963786655
21
-14.2812924011
31
0.0000000000
11
-20.5778864912
21
-14.3051180862
31
0.0000000000
11
-20.5580675757
21
-14.3260731738
31
0.0000000000
11
-20.5374082285
21
-14.3436434770
31
0.0000000000
11
-20.5164153810
21
-14.3573978635
31
0.0000000000
0
SPLINE
5
34B
100
AcDbEntity
8
0
100
AcDbSpline
62
7
6
CONTINUOUS
70
0
71
3
72
13
73
9
74
7
42
0.0000001000
43
0.0000001000
44
0.0000000001
12
-0.0665413549
22
0.0235076729
32
0.0000000000
13
-0.0050327846
23
0.0701501586
33
0.0000000000
40
0.0000000000
40
0.0000000000
40
0.0000000000
40
0.0000000000
40
0.0124423119
40
0.1817950129
40
0.3605698963
40
0.5550511208
40
0.7682118889
40
1.0000000000
40
1.0000000000
40
1.0000000000
40
1.0000000000
10
11.0663580955
20
-33.7075497297
30
0.0000000000
10
11.0660821194
20
-33.7074522331
30
0.0000000000
10
11.0620662390
20
-33.7059817009
30
0.0000000000
10
11.0546096274
20
-33.7017308502
30
0.0000000000
10
11.0457094534
20
-33.6924286361
30
0.0000000000
10
11.0388639884
20
-33.6803733661
30
0.0000000000
10
11.0342309907
20
-33.6660292950
30
0.0000000000
10
11.0327468021
20
-33.6556535958
30
0.0000000000
10
11.0323579556
20
-33.6502336049
30
0.0000000000
11
11.0663580955
21
-33.7075497297
31
0.0000000000
11
11.0655336149
21
-33.7072477914
31
0.0000000000
11
11.0551568797
21
-33.7014008236
31
0.0000000000
11
11.0463720191
21
-33.6924055695
31
0.0000000000
11
11.0394928800
21
-33.6805833924
31
0.0000000000
11
11.0347652256
21
-33.6663566499
31
0.0000000000
11
11.0323579556
21
-33.6502336049
31
0.0000000000
0
SPLINE
5
34C
100
AcDbEntity
8
0
100
AcDbSpline
62
7
6
CONTINUOUS
70
0
71
3
72
12
73
8
74
6
42
0.0000001000
43
0.0000001000
44
0.0000000001
12
-0.0000042589
22
-0.0445962796
32
0.0000000000
13
0.0389057146
23
-0.0214157775
33
0.0000000000
40
0.0000000000
40
0.0000000000
40
0.0000000000
40
0.0000000000
40
0.0023907808
40
0.2117568533
40
0.4405460932
40
0.7015552892
40
1.0000000000
40
1.0000000000
40
1.0000000000
40
1.0000000000
10
-22.7499766898
20
26.9007281128
30
0.0000000000
10
-22.7499766932
20
26.9006925728
30
0.0000000000
10
-22.7499700251
20
26.8975447244
30
0.0000000000
10
-22.7486689806
20
26.8910019677
30
0.0000000000
10
-22.7432897339
20
26.8819763459
30
0.0000000000
10
-22.7348592625
20
26.8737716689
30
0.0000000000
10
-22.7278686846
20
26.8692426875
30
0.0000000000
10
-22.7239982830
20
26.8671122124
30
0.0000000000
11
-22.7499766898
21
26.9007281128
31
0.0000000000
11
-22.7499764638
21
26.9006214934
31
0.0000000000
11
-22.7482520840
21
26.8914847444
31
0.0000000000
11
-22.7432168654
21
26.8826594882
31
0.0000000000
11
-22.7350404446
21
26.8744430420
31
0.0000000000
11
-22.7239982830
21
26.8671122124
31
0.0000000000
0
SPLINE
5
34D
100
AcDbEntity
8
0
100
AcDbSpline
62
7
6
CONTINUOUS
70
0
71
3
72
14
73
10
74
8
42
0.0000001000
43
0.0000001000
44
0.0000000001
12
0.3523469230
22
0.2174575921
32
0.0000000000
13
0.3803138625
23
-0.1624496304
33
0.0000000000
40
0.0000000000
40
0.0000000000
40
0.0000000000
40
0.0000000000
40
0.0806531714
40
0.2208491581
40
0.3635061654
40
0.5110031705
40
0.6653354010
40
0.8279962236
40
1.0000000000
40
1.0000000000
40
1.0000000000
40
1.0000000000
10
-22.5047949303
20
27.4515557371
30
0.0000000000
10
-22.4953222981
20
27.4574019519
30
0.0000000000
10
-22.4686174918
20
27.4721683600
30
0.0000000000
10
-22.4216985519
20
27.4904358071
30
0.0000000000
10
-22.3633462810
20
27.5025139164
30
0.0000000000
10
-22.3018983697
20
27.5053075588
30
0.0000000000
10
-22.2379857117
20
27.4988342832
30
0.0000000000
10
-22.1722378725
20
27.4832068677
30
0.0000000000
10
-22.1288281715
20
27.4672565209
30
0.0000000000
10
-22.1070230313
20
27.4579425376
30
0.0000000000
11
-22.5047949303
21
27.4515557371
31
0.0000000000
11
-22.4755771498
21
27.4676980208
31
0.0000000000
11
-22.4215631909
21
27.4887703520
31
0.0000000000
11
-22.3638165264
21
27.5008504099
31
0.0000000000
11
-22.3028899623
21
27.5038070719
31
0.0000000000
11
-22.2393678614
21
27.4975962184
31
0.0000000000
11
-22.1738690929
21
27.4822640067
31
0.0000000000
11
-22.1070230313
21
27.4579425376
31
0.0000000000
0
SPLINE
5
34E
100
AcDbEntity
8
0
100
AcDbSpline
62
7
6
CONTINUOUS
70
0
71
3
72
17
73
13
74
11
42
0.0000001000
43
0.0000001000
44
0.0000000001
12
0.2751102427
22
-0.0258483542
32
0.0000000000
13
0.2437189961
23
-0.1302107291
33
0.0000000000
40
0.0000000000
40
0.0000000000
40
0.0000000000
40
0.0000000000
40
0.0801986952
40
0.1705760863
40
0.2692417462
40
0.3740655597
40
0.4827486282
40
0.5928892218
40
0.7020472635
40
0.8078084994
40
0.9078488680
40
1.0000000000
40
1.0000000000
40
1.0000000000
40
1.0000000000
10
-21.1024898945
20
-14.6632756650
30
0.0000000000
10
-21.0951354004
20
-14.6639666665
30
0.0000000000
10
-21.0795451463
20
-14.6660025883
30
0.0000000000
10
-21.0551436744
20
-14.6704673676
30
0.0000000000
10
-21.0287396140
20
-14.6764549951
30
0.0000000000
10
-21.0009428583
20
-14.6838319108
30
0.0000000000
10
-20.9723944360
20
-14.6924313616
30
0.0000000000
10
-20.9437539186
20
-14.7020561025
30
0.0000000000
10
-20.9156828005
20
-14.7124839978
30
0.0000000000
10
-20.8888284496
20
-14.7234732415
30
0.0000000000
10
-20.8638102972
20
-14.7347677655
30
0.0000000000
10
-20.8479788240
20
-14.7427044508
30
0.0000000000
10
-20.8404924969
20
-14.7467041395
30
0.0000000000
11
-21.1024898945
21
-14.6632756650
31
0.0000000000
11
-21.0805043878
21
-14.6660563305
31
0.0000000000
11
-21.0559285417
21
-14.6704937900
31
0.0000000000
11
-21.0293315571
21
-14.6764852676
31
0.0000000000
11
-21.0013294466
21
-14.6838919948
31
0.0000000000
11
-20.9725707667
21
-14.6925424243
31
0.0000000000
11
-20.9437215970
21
-14.7022362037
31
0.0000000000
11
-20.9154501127
21
-14.7127488155
31
0.0000000000
11
-20.8884111096
21
-14.7238367771
31
0.0000000000
11
-20.8632308376
21
-14.7352432805
31
0.0000000000
11
-20.8404924969
21
-14.7467041395
31
0.0000000000
0
SPLINE
5
34F
100
AcDbEntity
8
0
100
AcDbSpline
62
7
6
CONTINUOUS
70
0
71
3
72
17
73
13
74
11
42
0.0000001000
43
0.0000001000
44
0.0000000001
12
0.2751102422
22
-0.0258483577
32
0.0000000000
13
0.2437189974
23
-0.1302107263
33
0.0000000000
40
0.0000000000
40
0.0000000000
40
0.0000000000
40
0.0000000000
40
0.0801987802
40
0.1705762640
40
0.2692420108
40
0.3740658920
40
0.4827489975
40
0.5928895899
40
0.7020475886
40
0.8078087426
40
0.9078489984
40
1.0000000000
40
1.0000000000
40
1.0000000000
40
1.0000000000
10
-21.4514091657
20
-15.6911509402
30
0.0000000000
10
-21.4440546637
20
-15.6918419424
30
0.0000000000
10
-21.4284643934
20
-15.6938778671
30
0.0000000000
10
-21.4040628979
20
-15.6983426527
30
0.0000000000
10
-21.3776588159
20
-15.7043302877
30
0.0000000000
10
-21.3498620439
20
-15.7117072107
30
0.0000000000
10
-21.3213136134
20
-15.7203066673
30
0.0000000000
10
-21.2926730977
20
-15.7299314110
30
0.0000000000
10
-21.2646019915
20
-15.7403593050
30
0.0000000000
10
-21.2377476618
20
-15.7513485428
30
0.0000000000
10
-21.2127295374
20
-15.7626430560
30
0.0000000000
10
-21.1968980845
20
-15.7705797317
30
0.0000000000
10
-21.1894117680
20
-15.7745794147
30
0.0000000000
11
-21.4514091657
21
-15.6911509402
31
0.0000000000
11
-21.4294236357
21
-15.6939316095
31
0.0000000000
11
-21.4048477648
21
-15.6983690754
31
0.0000000000
11
-21.3782507573
21
-15.7043605608
31
0.0000000000
11
-21.3502486295
21
-15.7117672956
31
0.0000000000
11
-21.3214899407
21
-15.7204177311
31
0.0000000000
11
-21.2926407724
21
-15.7301115135
31
0.0000000000
11
-21.2643693003
21
-15.7406241239
31
0.0000000000
11
-21.2373303191
21
-15.7517120793
31
0.0000000000
11
-21.2121500763
21
-15.7631185714
31
0.0000000000
11
-21.1894117680
21
-15.7745794147
31
0.0000000000
0
SPLINE
5
350
100
AcDbEntity
8
0
100
AcDbSpline
62
7
6
CONTINUOUS
70
0
71
3
72
11
73
7
74
5
42
0.0000001000
43
0.0000001000
44
0.0000000001
12
0.0482009592
22
0.0239889202
32
0.0000000000
13
0.0251738994
23
-0.0430584636
33
0.0000000000
40
0.0000000000
40
0.0000000000
40
0.0000000000
40
0.0000000000
40
0.4645705024
40
0.8050613832
40
0.9884282404
40
1.0000000000
40
1.0000000000
40
1.0000000000
40
1.0000000000
10
-5.7630744553
20
-19.2510630172
30
0.0000000000
10
-5.7556102073
20
-19.2473481690
30
0.0000000000
10
-5.7418015049
20
-19.2405186436
30
0.0000000000
10
-5.7273656243
20
-19.2363071246
30
0.0000000000
10
-5.7149903524
20
-19.2304744409
30
0.0000000000
10
-5.7131942608
20
-19.2330455331
30
0.0000000000
10
-5.7130971587
20
-19.2332116205
30
0.0000000000
11
-5.7630744553
21
-19.2510630172
31
0.0000000000
11
-5.7403561892
21
-19.2405980166
31
0.0000000000
11
-5.7231879755
21
-19.2341697881
31
0.0000000000
11
-5.7134170441
21
-19.2327568304
31
0.0000000000
11
-5.7130971587
21
-19.2332116205
31
0.0000000000
0
SPLINE
5
351
100
AcDbEntity
8
0
100
AcDbSpline
62
7
6
CONTINUOUS
70
0
71
3
72
11
73
7
74
5
42
0.0000001000
43
0.0000001000
44
0.0000000001
12
0.0682724192
22
-0.0918986412
32
0.0000000000
13
0.0337882673
23
-0.1093838950
33
0.0000000000
40
0.0000000000
40
0.0000000000
40
0.0000000000
40
0.0000000000
40
0.2508864183
40
0.5035311703
40
0.7543915860
40
1.0000000000
40
1.0000000000
40
1.0000000000
40
1.0000000000
10
-21.6616136910
20
-16.3564647943
30
0.0000000000
10
-21.6559041501
20
-16.3641501679
30
0.0000000000
10
-21.6451033489
20
-16.3800749431
30
0.0000000000
10
-21.6309533888
20
-16.4051820567
30
0.0000000000
10
-21.6190103432
20
-16.4311898671
30
0.0000000000
10
-21.6125864780
20
-16.4490440026
30
0.0000000000
10
-21.6098202504
20
-16.4579992043
30
0.0000000000
11
-21.6616136910
21
-16.3564647943
31
0.0000000000
11
-21.6454777455
21
-16.3802262272
31
0.0000000000
11
-21.6312766361
21
-16.4054235898
31
0.0000000000
11
-21.6193073631
21
-16.4315299097
31
0.0000000000
11
-21.6098202504
21
-16.4579992043
31
0.0000000000
0
SPLINE
5
352
100
AcDbEntity
8
0
100
AcDbSpline
62
7
6
CONTINUOUS
70
0
71
3
72
18
73
14
74
12
42
0.0000001000
43
0.0000001000
44
0.0000000001
12
-0.4855631248
22
-0.1889810336
32
0.0000000000
13
-0.2288552209
23
0.4680925839
33
0.0000000000
40
0.0000000000
40
0.0000000000
40
0.0000000000
40
0.0000000000
40
0.1020467833
40
0.2006358623
40
0.2954867717
40
0.3867148222
40
0.4747647507
40
0.5606986935
40
0.6459763461
40
0.7318305127
40
0.8190799358
40
0.9083647932
40
1.0000000000
40
1.0000000000
40
1.0000000000
40
1.0000000000
10
-20.6576429242
20
24.6229764411
30
0.0000000000
10
-20.6741596425
20
24.6165481389
30
0.0000000000
10
-20.7072720767
20
24.6054636757
30
0.0000000000
10
-20.7575166769
20
24.5944999766
30
0.0000000000
10
-20.8068604437
20
24.5897634931
30
0.0000000000
10
-20.8545881571
20
24.5914078761
30
0.0000000000
10
-20.9001087022
20
24.5994288072
30
0.0000000000
10
-20.9429823101
20
24.6137391083
30
0.0000000000
10
-20.9828463511
20
24.6342338160
30
0.0000000000
10
-21.0192775281
20
24.6607360500
30
0.0000000000
10
-21.0518007485
20
24.6928963841
30
0.0000000000
10
-21.0799870270
20
24.7301555845
30
0.0000000000
10
-21.0954994960
20
24.7575957919
30
0.0000000000
10
-21.1024898945
20
24.7718937122
30
0.0000000000
11
-20.6576429242
21
24.6229764411
31
0.0000000000
11
-20.7081023778
21
24.6062143102
31
0.0000000000
11
-20.7583180218
21
24.5953895957
31
0.0000000000
11
-20.8075255985
21
24.5907976951
31
0.0000000000
11
-20.8550268977
21
24.5925524527
31
0.0000000000
11
-20.9001924842
21
24.6006047137
31
0.0000000000
11
-20.9426468048
21
24.6148333164
31
0.0000000000
11
-20.9821588058
21
24.6351586440
31
0.0000000000
11
-21.0183549159
21
24.6614444480
31
0.0000000000
11
-21.0507358501
21
24.6933528667
31
0.0000000000
11
-21.0788867608
21
24.7303900036
31
0.0000000000
11
-21.1024898945
21
24.7718937122
31
0.0000000000
0
SPLINE
5
353
100
AcDbEntity
8
0
100
AcDbSpline
62
7
6
CONTINUOUS
70
0
71
3
72
11
73
7
74
5
42
0.0000001000
43
0.0000001000
44
0.0000000001
12
0.0640143904
22
0.0378164951
32
0.0000000000
13
0.0403528401
23
0.0624465994
33
0.0000000000
40
0.0000000000
40
0.0000000000
40
0.0000000000
40
0.0000000000
40
0.3046890928
40
0.5748375259
40
0.8070390536
40
1.0000000000
40
1.0000000000
40
1.0000000000
40
1.0000000000
10
10.4456779627
20
-32.4857483143
30
0.0000000000
10
10.4521794582
20
-32.4819075564
30
0.0000000000
10
10.4642331814
20
-32.4742901234
30
0.0000000000
10
10.4802835486
20
-32.4623093627
30
0.0000000000
10
10.4930083536
20
-32.4506454538
30
0.0000000000
10
10.4997521328
20
-32.4424619562
30
0.0000000000
10
10.5023476402
20
-32.4384453712
30
0.0000000000
11
10.4456779627
21
-32.4857483143
31
0.0000000000
11
10.4647828894
21
-32.4735750008
31
0.0000000000
11
10.4808076679
21
-32.4614656763
31
0.0000000000
11
10.4934171563
21
-32.4496735937
31
0.0000000000
11
10.5023476402
21
-32.4384453712
31
0.0000000000
0
SPLINE
5
354
100
AcDbEntity
8
0
100
AcDbSpline
62
7
6
CONTINUOUS
70
0
71
3
72
11
73
7
74
5
42
0.0000001000
43
0.0000001000
44
0.0000000001
12
-0.0282233755
22
0.1119783013
32
0.0000000000
13
-0.0820980517
23
0.0812133535
33
0.0000000000
40
0.0000000000
40
0.0000000000
40
0.0000000000
40
0.0000000000
40
0.2492595104
40
0.4994338821
40
0.7498967788
40
1.0000000000
40
1.0000000000
40
1.0000000000
40
1.0000000000
10
10.5023475155
20
10.0327207057
30
0.0000000000
10
10.5000025339
20
10.0420245912
30
0.0000000000
10
10.4940107503
20
10.0603663861
30
0.0000000000
10
10.4813690170
20
10.0864120195
30
0.0000000000
10
10.4653122501
20
10.1105416187
30
0.0000000000
10
10.4525223012
20
10.1250464908
30
0.0000000000
10
10.4456779722
20
10.1318170646
30
0.0000000000
11
10.5023475155
21
10.0327207057
31
0.0000000000
11
10.4934170337
21
10.0600848705
31
0.0000000000
11
10.4808075699
21
10.0860780560
31
0.0000000000
11
10.4647828365
21
10.1101566457
31
0.0000000000
11
10.4456779722
21
10.1318170646
31
0.0000000000
0
SPLINE
5
355
100
AcDbEntity
8
0
100
AcDbSpline
62
7
6
CONTINUOUS
70
0
71
3
72
17
73
13
74
11
42
0.0000001000
43
0.0000001000
44
0.0000000001
12
-0.2565098060
22
0.1243128031
32
0.0000000000
13
-0.2021267783
23
-0.2009868629
33
0.0000000000
40
0.0000000000
40
0.0000000000
40
0.0000000000
40
0.0000000000
40
0.0854237591
40
0.1757181949
40
0.2707923971
40
0.3701587191
40
0.4730173686
40
0.5783395494
40
0.6849463392
40
0.7915838725
40
0.8969965167
40
1.0000000000
40
1.0000000000
40
1.0000000000
40
1.0000000000
10
-20.8404924969
20
24.8348644980
30
0.0000000000
10
-20.8477965075
20
24.8384042536
30
0.0000000000
10
-20.8635008101
20
24.8443381390
30
0.0000000000
10
-20.8887801649
20
24.8495792911
30
0.0000000000
10
-20.9158605620
20
24.8513188802
30
0.0000000000
10
-20.9441216025
20
24.8495274591
30
0.0000000000
10
-20.9729283068
20
24.8442554935
30
0.0000000000
10
-21.0016278428
20
24.8356264744
30
0.0000000000
10
-21.0295686043
20
24.8238390190
30
0.0000000000
10
-21.0561161084
20
24.8091608512
30
0.0000000000
10
-21.0806619617
20
24.7919294322
30
0.0000000000
10
-21.0955499738
20
24.7787944945
30
0.0000000000
10
-21.1024898945
20
24.7718937122
30
0.0000000000
11
-20.8404924969
21
24.8348644980
31
0.0000000000
11
-20.8632308376
21
24.8435750565
31
0.0000000000
11
-20.8884111096
21
24.8489042071
31
0.0000000000
11
-20.9154501127
21
24.8507285214
31
0.0000000000
11
-20.9437215970
21
24.8490057464
31
0.0000000000
11
-20.9725707667
21
24.8437757833
31
0.0000000000
11
-21.0013294466
21
24.8351597632
31
0.0000000000
11
-21.0293315571
21
24.8233572417
31
0.0000000000
11
-21.0559285417
21
24.8086415769
31
0.0000000000
11
-21.0805043878
21
24.7913535982
31
0.0000000000
11
-21.1024898945
21
24.7718937122
31
0.0000000000
0
SPLINE
5
356
100
AcDbEntity
8
0
100
AcDbSpline
62
7
6
CONTINUOUS
70
0
71
3
72
17
73
13
74
11
42
0.0000001000
43
0.0000001000
44
0.0000000001
12
-0.2565098059
22
0.1243128033
32
0.0000000000
13
-0.2021267781
23
-0.2009868632
33
0.0000000000
40
0.0000000000
40
0.0000000000
40
0.0000000000
40
0.0000000000
40
0.0854237534
40
0.1757181845
40
0.2707923830
40
0.3701587028
40
0.4730173517
40
0.5783395334
40
0.6849463258
40
0.7915838629
40
0.8969965117
40
1.0000000000
40
1.0000000000
40
1.0000000000
40
1.0000000000
10
-21.1894117680
20
25.5485714503
30
0.0000000000
10
-21.1967157781
20
25.5521112057
30
0.0000000000
10
-21.2124200798
20
25.5580450909
30
0.0000000000
10
-21.2376994331
20
25.5632862430
30
0.0000000000
10
-21.2647798292
20
25.5650258326
30
0.0000000000
10
-21.2930408691
20
25.5632344120
30
0.0000000000
10
-21.3218475734
20
25.5579624470
30
0.0000000000
10
-21.3505471098
20
25.5493334283
30
0.0000000000
10
-21.3784878721
20
25.5375459730
30
0.0000000000
10
-21.4050353773
20
25.5228678050
30
0.0000000000
10
-21.4295812317
20
25.5056363855
30
0.0000000000
10
-21.4444692446
20
25.4925014472
30
0.0000000000
10
-21.4514091657
20
25.4856006645
30
0.0000000000
11
-21.1894117680
21
25.5485714503
31
0.0000000000
11
-21.2121501072
21
25.5572820084
31
0.0000000000
11
-21.2373303777
21
25.5626111591
31
0.0000000000
11
-21.2643693798
21
25.5644354738
31
0.0000000000
11
-21.2926408635
21
25.5627126993
31
0.0000000000
11
-21.3214900331
21
25.5574827368
31
0.0000000000
11
-21.3502487134
21
25.5488667171
31
0.0000000000
11
-21.3782508248
21
25.5370641958
31
0.0000000000
11
-21.4048478105
21
25.5223485308
31
0.0000000000
11
-21.4294236578
21
25.5050605514
31
0.0000000000
11
-21.4514091657
21
25.4856006645
31
0.0000000000
0
SPLINE
5
357
100
AcDbEntity
8
0
100
AcDbSpline
62
7
6
CONTINUOUS
70
0
71
3
72
11
73
7
74
5
42
0.0000001000
43
0.0000001000
44
0.0000000001
12
-0.0554284605
22
-0.0403378691
32
0.0000000000
13
-0.0501279298
23
-0.0467616142
33
0.0000000000
40
0.0000000000
40
0.0000000000
40
0.0000000000
40
0.0000000000
40
0.1751932245
40
0.4034750284
40
0.6802988680
40
1.0000000000
40
1.0000000000
40
1.0000000000
40
1.0000000000
10
-21.6098202598
20
26.1595661660
30
0.0000000000
10
-21.6130571567
20
26.1572105256
30
0.0000000000
10
-21.6202995339
20
26.1514964726
30
0.0000000000
10
-21.6321598384
20
26.1414457914
30
0.0000000000
10
-21.6462439498
20
26.1289185360
30
0.0000000000
10
-21.6562716542
20
26.1196846186
30
0.0000000000
10
-21.6616136395
20
26.1147013716
30
0.0000000000
11
-21.6098202598
21
26.1595661660
31
0.0000000000
11
-21.6193073383
21
26.1522017765
31
0.0000000000
11
-21.6312765907
21
26.1421202150
31
0.0000000000
11
-21.6454776918
21
26.1295323261
31
0.0000000000
11
-21.6616136395
21
26.1147013716
31
0.0000000000
0
SPLINE
5
358
100
AcDbEntity
8
0
100
AcDbSpline
62
7
6
CONTINUOUS
70
0
71
3
72
10
73
6
74
4
42
0.0000001000
43
0.0000001000
44
0.0000000001
12
-0.1226724568
22
-0.0125329494
32
0.0000000000
13
-0.1233091302
23
-0.0006818279
33
0.0000000000
40
0.0000000000
40
0.0000000000
40
0.0000000000
40
0.0000000000
40
0.3360278596
40
0.6735783906
40
1.0000000000
40
1.0000000000
40
1.0000000000
40
1.0000000000
10
-21.6098202649
20
-16.4579992033
30
0.0000000000
10
-21.6235607192
20
-16.4594030100
30
0.0000000000
10
-21.6511432694
20
-16.4618511558
30
0.0000000000
10
-21.6921808138
20
-16.4642744767
30
0.0000000000
10
-21.7194700356
20
-16.4650107230
30
0.0000000000
10
-21.7328869572
20
-16.4650849108
30
0.0000000000
11
-21.6098202649
21
-16.4579992033
31
0.0000000000
11
-21.6510957132
21
-16.4616425804
31
0.0000000000
11
-21.6926482265
21
-16.4640758773
31
0.0000000000
11
-21.7328869572
21
-16.4650849108
31
0.0000000000
0
SPLINE
5
359
100
AcDbEntity
8
0
100
AcDbSpline
62
7
6
CONTINUOUS
70
0
71
3
72
9
73
5
74
3
42
0.0000001000
43
0.0000001000
44
0.0000000001
12
-0.0071103887
22
-0.0034668137
32
0.0000000000
13
-0.0069157758
23
-0.0038403736
33
0.0000000000
40
0.0000000000
40
0.0000000000
40
0.0000000000
40
0.0000000000
40
0.4954356311
40
1.0000000000
40
1.0000000000
40
1.0000000000
40
1.0000000000
10
10.1468281214
20
-27.2060143055
30
0.0000000000
10
10.1456538748
20
-27.2065868332
30
0.0000000000
10
10.1432995681
20
-27.2077751460
30
0.0000000000
10
10.1409777429
20
-27.2090256858
30
0.0000000000
10
10.1398145916
20
-27.2096715910
30
0.0000000000
11
10.1468281214
21
-27.2060143055
31
0.0000000000
11
10.1433290327
21
-27.2077795722
31
0.0000000000
11
10.1398145916
21
-27.2096715910
31
0.0000000000
0
SPLINE
5
35A
100
AcDbEntity
8
0
100
AcDbSpline
62
7
6
CONTINUOUS
70
0
71
3
72
20
73
16
74
14
42
0.0000001000
43
0.0000001000
44
0.0000000001
12
-33.4723965460
22
11.4974004219
32
0.0000000000
13
-29.4911929702
23
19.5676294353
33
0.0000000000
40
0.0000000000
40
0.0000000000
40
0.0000000000
40
0.0000000000
40
0.0775405703
40
0.1551795891
40
0.2329333300
40
0.3108180210
40
0.3888497566
40
0.4670534515
40
0.5454739238
40
0.6241669613
40
0.7031773819
40
0.7825293960
40
0.8622373409
40
0.9423148360
40
1.0000000000
40
1.0000000000
40
1.0000000000
40
1.0000000000
10
10.5522862261
20
-32.6076715967
30
0.0000000000
10
9.6871299867
20
-32.3104999347
30
0.0000000000
10
7.9618072015
20
-31.6978826141
30
0.0000000000
10
5.3915414902
20
-30.7251564790
30
0.0000000000
10
2.8380330425
20
-29.6982930893
30
0.0000000000
10
0.3018332057
20
-28.6175324635
30
0.0000000000
10
-2.2166405690
20
-27.4831003706
30
0.0000000000
10
-4.7172911773
20
-26.2951018637
30
0.0000000000
10
-7.2004505707
20
-25.0534246488
30
0.0000000000
10
-9.6666492186
20
-23.7578040272
30
0.0000000000
10
-12.1161879838
20
-22.4080370958
30
0.0000000000
10
-14.5489369574
20
-21.0041337304
30
0.0000000000
10
-16.9644680788
20
-19.5462926277
30
0.0000000000
10
-19.1349483132
20
-18.1780994241
30
0.0000000000
10
-20.4953753332
20
-17.2887930929
30
0.0000000000
10
-21.0624434339
20
-16.9125391221
30
0.0000000000
11
10.5522862261
21
-32.6076715967
31
0.0000000000
11
7.9661522302
21
-31.6894299112
31
0.0000000000
11
5.3962252910
21
-30.7168722327
31
0.0000000000
11
2.8430583552
21
-29.6901972815
31
0.0000000000
11
0.3071864358
21
-28.6096393830
31
0.0000000000
11
-2.2108733699
21
-27.4754681810
31
0.0000000000
11
-4.7109092181
21
-26.2878476424
31
0.0000000000
11
-7.1933515968
21
-25.0466263277
31
0.0000000000
11
-9.6589630084
21
-23.7514230749
31
0.0000000000
11
-12.1081416711
21
-22.4019749660
31
0.0000000000
11
-14.5406444952
21
-20.9983453919
31
0.0000000000
11
-16.9559460530
21
-19.5407861304
31
0.0000000000
11
-19.3535296547
21
-18.0295887696
31
0.0000000000
11
-21.0624434339
21
-16.9125391221
31
0.0000000000
0
SPLINE
5
35B
100
AcDbEntity
8
0
100
AcDbSpline
62
7
6
CONTINUOUS
70
0
71
3
72
8
73
4
74
2
42
0.0000001000
43
0.0000001000
44
0.0000000001
12
-0.3020661676
22
0.2004231853
32
0.0000000000
13
-0.3015772273
23
0.2011549729
33
0.0000000000
40
0.0000000000
40
0.0000000000
40
0.0000000000
40
0.0000000000
40
1.0000000000
40
1.0000000000
40
1.0000000000
40
1.0000000000
10
-21.0624434339
20
-16.9125391221
30
0.0000000000
10
-21.1631321564
20
-16.8457313937
30
0.0000000000
10
-21.2637394877
20
-16.7788014646
30
0.0000000000
10
-21.3642652301
20
-16.7117498070
30
0.0000000000
11
-21.0624434339
21
-16.9125391221
31
0.0000000000
11
-21.3642652301
21
-16.7117498070
31
0.0000000000
0
SPLINE
5
35C
100
AcDbEntity
8
0
100
AcDbSpline
62
7
6
CONTINUOUS
70
0
71
3
72
8
73
4
74
2
42
0.0000001000
43
0.0000001000
44
0.0000000001
12
-0.3689886446
22
0.2461190504
32
0.0000000000
13
-0.3682547166
23
0.2472098414
33
0.0000000000
40
0.0000000000
40
0.0000000000
40
0.0000000000
40
0.0000000000
40
1.0000000000
40
1.0000000000
40
1.0000000000
40
1.0000000000
10
-21.3642652301
20
-16.7117498070
30
0.0000000000
10
-21.4872614450
20
-16.6297101235
30
0.0000000000
10
-21.6101355195
20
-16.5474882093
30
0.0000000000
10
-21.7328870917
20
-16.4650849289
30
0.0000000000
11
-21.3642652301
21
-16.7117498070
31
0.0000000000
11
-21.7328870917
21
-16.4650849289
31
0.0000000000
0
SPLINE
5
35D
100
AcDbEntity
8
0
100
AcDbSpline
62
7
6
CONTINUOUS
70
0
71
3
72
10
73
6
74
4
42
0.0000001000
43
0.0000001000
44
0.0000000001
12
0.0941754586
22
-0.1320091279
32
0.0000000000
13
0.1168636440
23
-0.1124202632
33
0.0000000000
40
0.0000000000
40
0.0000000000
40
0.0000000000
40
0.0000000000
40
0.3053174209
40
0.6419255720
40
1.0000000000
40
1.0000000000
40
1.0000000000
40
1.0000000000
10
10.4456779577
20
-32.4857483139
30
0.0000000000
10
10.4552624270
20
-32.4991832094
30
0.0000000000
10
10.4764323288
20
-32.5267122872
30
0.0000000000
10
10.5120096570
20
-32.5674442939
30
0.0000000000
10
10.5383376669
20
-32.5942532680
30
0.0000000000
10
10.5522862943
20
-32.6076715418
30
0.0000000000
11
10.4456779577
21
-32.4857483139
31
0.0000000000
11
10.4757777586
21
-32.5250577049
31
0.0000000000
11
10.5116246718
21
-32.5662208364
31
0.0000000000
11
10.5522862943
21
-32.6076715418
31
0.0000000000
0
SPLINE
5
35E
100
AcDbEntity
8
0
100
AcDbSpline
62
7
6
CONTINUOUS
70
0
71
3
72
19
73
15
74
13
42
0.0000001000
43
0.0000001000
44
0.0000000001
12
-0.3271007167
22
0.6690690151
32
0.0000000000
13
-0.5326054221
23
0.5205570960
33
0.0000000000
40
0.0000000000
40
0.0000000000
40
0.0000000000
40
0.0000000000
40
0.0875063031
40
0.1837021598
40
0.2848236455
40
0.3866818422
40
0.4844590253
40
0.5748472970
40
0.6579054258
40
0.7352660034
40
0.8080806408
40
0.8764707454
40
0.9403046284
40
1.0000000000
40
1.0000000000
40
1.0000000000
40
1.0000000000
10
-21.1894117680
20
25.5485714503
30
0.0000000000
10
-21.1989528928
20
25.5680873690
30
0.0000000000
10
-21.2195417586
20
25.6087859218
30
0.0000000000
10
-21.2531243292
20
25.6710183372
30
0.0000000000
10
-21.2901495593
20
25.7354120499
30
0.0000000000
10
-21.3291099258
20
25.7991142009
30
0.0000000000
10
-21.3683145696
20
25.8595125077
30
0.0000000000
10
-21.4064482563
20
25.9150129791
30
0.0000000000
10
-21.4430226192
20
25.9654093795
30
0.0000000000
10
-21.4782394264
20
26.0113762610
30
0.0000000000
10
-21.5123928898
20
26.0535460949
30
0.0000000000
10
-21.5455629919
20
26.0921649354
30
0.0000000000
10
-21.5777303773
20
26.1273211157
30
0.0000000000
10
-21.5992222933
20
26.1492079330
30
0.0000000000
10
-21.6098203195
20
26.1595662161
30
0.0000000000
11
-21.1894117680
21
25.5485714503
31
0.0000000000
11
-21.2188108337
21
25.6067335706
31
0.0000000000
11
-21.2528179614
21
25.6697893542
31
0.0000000000
11
-21.2903497438
21
25.7350806337
31
0.0000000000
11
-21.3299315060
21
25.7997939292
31
0.0000000000
11
-21.3695888313
21
25.8608671884
31
0.0000000000
11
-21.4077251263
21
25.9163389920
31
0.0000000000
11
-21.4440756825
21
25.9663885932
31
0.0000000000
11
-21.4791357781
21
26.0121069722
31
0.0000000000
11
-21.5132912736
21
26.0542274087
31
0.0000000000
11
-21.5465064412
21
26.0928403195
31
0.0000000000
11
-21.5786342674
21
26.1278812062
31
0.0000000000
11
-21.6098203195
21
26.1595662161
31
0.0000000000
0
SPLINE
5
35F
100
AcDbEntity
8
0
100
AcDbSpline
62
7
6
CONTINUOUS
70
0
71
3
72
10
73
6
74
4
42
0.0000001000
43
0.0000001000
44
0.0000000001
12
0.0350500166
22
-0.1731117711
32
0.0000000000
13
0.0636548088
23
-0.1647551343
33
0.0000000000
40
0.0000000000
40
0.0000000000
40
0.0000000000
40
0.0000000000
40
0.3134751041
40
0.6504606043
40
1.0000000000
40
1.0000000000
40
1.0000000000
40
1.0000000000
10
10.5023481856
20
-32.4384452585
30
0.0000000000
10
10.5060106215
20
-32.4565340020
30
0.0000000000
10
10.5147417174
20
-32.4938464406
30
0.0000000000
10
10.5313362660
20
-32.5503626769
30
0.0000000000
10
10.5448696050
20
-32.5884754267
30
0.0000000000
10
10.5522862261
20
-32.6076715634
30
0.0000000000
11
10.5023481856
21
-32.4384452585
31
0.0000000000
11
10.5149052807
21
-32.4923698731
31
0.0000000000
11
10.5316437376
21
-32.5494876390
31
0.0000000000
11
10.5522862261
21
-32.6076715634
31
0.0000000000
0
SPLINE
5
360
100
AcDbEntity
8
0
100
AcDbSpline
62
7
6
CONTINUOUS
70
0
71
3
72
34
73
30
74
28
42
0.0000001000
43
0.0000001000
44
0.0000000001
12
33.0180496860
22
-13.9894599479
32
0.0000000000
13
31.1570129415
23
-17.7521023899
33
0.0000000000
40
0.0000000000
40
0.0000000000
40
0.0000000000
40
0.0000000000
40
0.0833314750
40
0.1677735462
40
0.2516392999
40
0.3294607083
40
0.3987972408
40
0.4605082113
40
0.5159367005
40
0.5658444832
40
0.6109025508
40
0.6517455266
40
0.6888355543
40
0.7225788615
40
0.7533486810
40
0.7814680243
40
0.8072651273
40
0.8310151108
40
0.8528180962
40
0.8727394342
40
0.8908454952
40
0.9072031900
40
0.9220291587
40
0.9357314870
40
0.9487446754
40
0.9614952534
40
0.9743744202
40
0.9874863206
40
1.0000000000
40
1.0000000000
40
1.0000000000
40
1.0000000000
10
-21.6098203195
20
26.1595662161
30
0.0000000000
10
-20.6926727251
20
25.7709787720
30
0.0000000000
10
-18.8509066527
20
24.9773588333
30
0.0000000000
10
-16.1027173619
20
23.7545867573
30
0.0000000000
10
-13.4284387601
20
22.5281890970
30
0.0000000000
10
-10.9304842834
20
21.3508549813
30
0.0000000000
10
-8.6819626272
20
20.2657274118
30
0.0000000000
10
-6.6822537431
20
19.2810590901
30
0.0000000000
10
-4.8970173071
20
18.3866607378
30
0.0000000000
10
-3.2946513520
20
17.5717225798
30
0.0000000000
10
-1.8516333658
20
16.8281116793
30
0.0000000000
10
-0.5480107596
20
16.1485082965
30
0.0000000000
10
0.6330682479
20
15.5264381007
30
0.0000000000
10
1.7054698444
20
14.9564265359
30
0.0000000000
10
2.6814201147
20
14.4334312917
30
0.0000000000
10
3.5721861133
20
13.9525760757
30
0.0000000000
10
4.3878919704
20
13.5093232910
30
0.0000000000
10
5.1362329752
20
13.1002364053
30
0.0000000000
10
5.8220859627
20
12.7232674277
30
0.0000000000
10
6.4481006151
20
12.3774915460
30
0.0000000000
10
7.0165486959
20
12.0621168466
30
0.0000000000
10
7.5312545768
20
11.7754192724
30
0.0000000000
10
7.9995773216
20
11.5136243737
30
0.0000000000
10
8.4326694884
20
11.2707372931
30
0.0000000000
10
8.8438271747
20
11.0394552138
30
0.0000000000
10
9.2461291264
20
10.8124999821
30
0.0000000000
10
9.6491802755
20
10.5844720846
30
0.0000000000
10
10.0494869820
20
10.3573446001
30
0.0000000000
10
10.3157150031
20
10.2058650902
30
0.0000000000
10
10.4456779599
20
10.1318170510
30
0.0000000000
11
-21.6098203195
21
26.1595662161
31
0.0000000000
11
-18.8654388478
21
24.9772762592
31
0.0000000000
11
-16.0987873929
21
23.7465535840
31
0.0000000000
11
-13.3650615486
21
22.4931377503
31
0.0000000000
11
-10.8406884900
21
21.3035365134
31
0.0000000000
11
-8.6013959511
21
20.2229870247
31
0.0000000000
11
-6.6160744076
21
19.2454870480
31
0.0000000000
11
-4.8389678418
21
18.3552203749
31
0.0000000000
11
-3.2437427955
21
17.5439551410
31
0.0000000000
11
-1.8074618143
21
16.8038456242
31
0.0000000000
11
-0.5087332033
21
16.1268148391
31
0.0000000000
11
0.6680529428
21
15.5070213736
31
0.0000000000
11
1.7365176704
21
14.9391139398
31
0.0000000000
11
2.7090666334
21
14.4179498615
31
0.0000000000
11
3.5963815762
21
13.9389640886
31
0.0000000000
11
4.4091990470
21
13.4972857452
31
0.0000000000
11
5.1564908002
21
13.0887761694
31
0.0000000000
11
5.8416598833
21
12.7121859216
31
0.0000000000
11
6.4669806080
21
12.3667955118
31
0.0000000000
11
7.0347297009
21
12.0518102181
31
0.0000000000
11
7.5471736051
21
11.7663737608
31
0.0000000000
11
8.0112387487
21
11.5069597412
31
0.0000000000
11
8.4398011766
21
11.2666136992
31
0.0000000000
11
8.8465154161
21
11.0378316912
31
0.0000000000
11
9.2447448259
21
10.8131744946
31
0.0000000000
11
9.6467126328
21
10.5857600547
31
0.0000000000
11
10.0556583356
21
10.3537315233
31
0.0000000000
11
10.4456779599
21
10.1318170510
31
0.0000000000
0
SPLINE
5
361
100
AcDbEntity
8
0
100
AcDbSpline
62
7
6
CONTINUOUS
70
0
71
3
72
19
73
15
74
13
42
0.0000001000
43
0.0000001000
44
0.0000000001
12
-0.1435772794
22
0.3561087823
32
0.0000000000
13
0.3210611858
23
0.2105337062
33
0.0000000000
40
0.0000000000
40
0.0000000000
40
0.0000000000
40
0.0000000000
40
0.1529568178
40
0.3022783836
40
0.4323298424
40
0.5436798030
40
0.6377522625
40
0.7169562763
40
0.7838526177
40
0.8406310014
40
0.8889555446
40
0.9303629994
40
0.9666953412
40
1.0000000000
40
1.0000000000
40
1.0000000000
40
1.0000000000
10
10.4871640273
20
9.7671507117
30
0.0000000000
10
10.4798436527
20
9.7853071338
30
0.0000000000
10
10.4659745437
20
9.8214292953
30
0.0000000000
10
10.4481912143
20
9.8738408680
30
0.0000000000
10
10.4343270094
20
9.9219051427
30
0.0000000000
10
10.4245990259
20
9.9637446702
30
0.0000000000
10
10.4184919638
20
9.9996805316
30
0.0000000000
10
10.4154768853
20
10.0302987904
30
0.0000000000
10
10.4151065059
20
10.0562966986
30
0.0000000000
10
10.4170665728
20
10.0782698111
30
0.0000000000
10
10.4211561286
20
10.0966362575
30
0.0000000000
10
10.4272609718
20
10.1116726502
30
0.0000000000
10
10.4353107243
20
10.1235337464
30
0.0000000000
10
10.4421136822
20
10.1294797999
30
0.0000000000
10
10.4456779599
20
10.1318170510
30
0.0000000000
11
10.4871640273
21
9.7671507117
31
0.0000000000
11
10.4661752534
21
9.8219976729
31
0.0000000000
11
10.4478495128
21
9.8763193085
31
0.0000000000
11
10.4341178269
21
9.9243250711
31
0.0000000000
11
10.4245531941
21
9.9659923430
31
0.0000000000
11
10.4186276178
21
10.0016204848
31
0.0000000000
11
10.4157830248
21
10.0318961977
31
0.0000000000
11
10.4155664457
21
10.0575790131
31
0.0000000000
11
10.4176695400
21
10.0792764351
31
0.0000000000
11
10.4218830621
21
10.0973450490
31
0.0000000000
11
10.4280374997
21
10.1120031423
31
0.0000000000
11
10.4360079047
21
10.1234509648
31
0.0000000000
11
10.4456779599
21
10.1318170510
31
0.0000000000
0
SPLINE
5
362
100
AcDbEntity
8
0
100
AcDbSpline
62
7
6
CONTINUOUS
70
0
71
3
72
10
73
6
74
4
42
0.0000001000
43
0.0000001000
44
0.0000000001
12
0.0406078013
22
0.1022812747
32
0.0000000000
13
0.0564147491
23
0.0944871883
33
0.0000000000
40
0.0000000000
40
0.0000000000
40
0.0000000000
40
0.0000000000
40
0.2851535445
40
0.6207745519
40
1.0000000000
40
1.0000000000
40
1.0000000000
40
1.0000000000
10
10.5023481856
20
10.0327208442
30
0.0000000000
10
10.5062080051
20
10.0424428002
30
0.0000000000
10
10.5154268438
20
10.0632851796
30
0.0000000000
10
10.5321216680
20
10.0959638715
30
0.0000000000
10
10.5451549233
20
10.1187294819
30
0.0000000000
10
10.5522862261
20
10.1306734641
30
0.0000000000
11
10.5023481856
21
10.0327208442
31
0.0000000000
11
10.5149189490
21
10.0614733679
31
0.0000000000
11
10.5316359575
21
10.0944078591
31
0.0000000000
11
10.5522862261
21
10.1306734641
31
0.0000000000
0
SPLINE
5
363
100
AcDbEntity
8
0
100
AcDbSpline
62
7
6
CONTINUOUS
70
0
71
3
72
12
73
8
74
6
42
0.0000001000
43
0.0000001000
44
0.0000000001
12
-0.1359817358
22
0.0681294293
32
0.0000000000
13
-0.0675421230
23
0.1361133410
33
0.0000000000
40
0.0000000000
40
0.0000000000
40
0.0000000000
40
0.0000000000
40
0.1211535051
40
0.3351385310
40
0.5520327944
40
0.7733382793
40
1.0000000000
40
1.0000000000
40
1.0000000000
40
1.0000000000
10
-20.7367194253
20
24.7273892175
30
0.0000000000
10
-20.7422109799
20
24.7301405905
30
0.0000000000
10
-20.7570780933
20
24.7383978313
30
0.0000000000
10
-20.7798260363
20
24.7548368323
30
0.0000000000
10
-20.8035186729
20
24.7780252101
30
0.0000000000
10
-20.8240633505
20
24.8048370975
30
0.0000000000
10
-20.8353894256
20
24.8245806033
30
0.0000000000
10
-20.8404924969
20
24.8348644980
30
0.0000000000
11
-20.7367194253
21
24.7273892175
31
0.0000000000
11
-20.7528218700
21
24.7363357718
31
0.0000000000
11
-20.7791876098
21
24.7553640026
31
0.0000000000
11
-20.8027757591
21
24.7783806812
31
0.0000000000
11
-20.8232836882
21
24.8050307027
31
0.0000000000
11
-20.8404924969
21
24.8348644980
31
0.0000000000
0
SPLINE
5
364
100
AcDbEntity
8
0
100
AcDbSpline
62
7
6
CONTINUOUS
70
0
71
3
72
10
73
6
74
4
42
0.0000001000
43
0.0000001000
44
0.0000000001
12
0.1062065970
22
-0.0101585417
32
0.0000000000
13
0.1065675902
23
0.0051367255
33
0.0000000000
40
0.0000000000
40
0.0000000000
40
0.0000000000
40
0.0000000000
40
0.2829648271
40
0.6185796625
40
1.0000000000
40
1.0000000000
40
1.0000000000
40
1.0000000000
10
10.4456779577
20
10.1318170491
30
0.0000000000
10
10.4556955348
20
10.1308588791
30
0.0000000000
10
10.4776702406
20
10.1295459123
30
0.0000000000
10
10.5132425745
20
10.1291932638
30
0.0000000000
10
10.5387372564
20
10.1300204831
30
0.0000000000
10
10.5522862718
20
10.1306735669
30
0.0000000000
11
10.4456779577
21
10.1318170491
31
0.0000000000
11
10.4758060751
21
10.1298867612
31
0.0000000000
11
10.5116105517
21
10.1294460404
31
0.0000000000
11
10.5522862718
21
10.1306735669
31
0.0000000000
0
SPLINE
5
365
100
AcDbEntity
8
0
100
AcDbSpline
62
7
6
CONTINUOUS
70
0
71
3
72
20
73
16
74
14
42
0.0000001000
43
0.0000001000
44
0.0000000001
12
33.2607056467
22
-14.0758790986
32
0.0000000000
13
31.3749332300
23
-17.8890602696
33
0.0000000000
40
0.0000000000
40
0.0000000000
40
0.0000000000
40
0.0000000000
40
0.0716959728
40
0.1442648139
40
0.2176986073
40
0.2919887449
40
0.3671259201
40
0.4431089419
40
0.5199561283
40
0.5976973257
40
0.6763523871
40
0.7559209970
40
0.8363928101
40
0.9177565479
40
1.0000000000
40
1.0000000000
40
1.0000000000
40
1.0000000000
10
-21.7328870917
20
26.2732601641
30
0.0000000000
10
-20.9380008757
20
25.9368655491
30
0.0000000000
10
-19.3421173825
20
25.2515209300
30
0.0000000000
10
-16.9446470017
20
24.1926705215
30
0.0000000000
10
-14.5294642801
20
23.0969478327
30
0.0000000000
10
-12.0970893454
20
21.9645975955
30
0.0000000000
10
-9.6479486034
20
20.7958406083
30
0.0000000000
10
-7.1821647463
20
19.5907635444
30
0.0000000000
10
-4.6994313464
20
18.3492369243
30
0.0000000000
10
-2.1992177375
20
17.0709952041
30
0.0000000000
10
0.3188032390
20
15.7558509320
30
0.0000000000
10
2.8545314073
20
14.4038291751
30
0.0000000000
10
5.4075453790
20
13.0151335575
30
0.0000000000
10
7.9773084204
20
11.5900480772
30
0.0000000000
10
9.6921586196
20
10.6210928522
30
0.0000000000
10
10.5522862261
20
10.1306734948
30
0.0000000000
11
-21.7328870917
21
26.2732601641
31
0.0000000000
11
-19.3535328484
21
25.2516328911
31
0.0000000000
11
-16.9559501531
21
24.1929061860
31
0.0000000000
11
-14.5406489812
21
23.0973002090
31
0.0000000000
11
-12.1081459587
21
21.9650582897
31
0.0000000000
11
-9.6589644963
21
20.7964470829
31
0.0000000000
11
-7.1933496028
21
19.5916151049
31
0.0000000000
11
-4.7109072063
21
18.3503939406
31
0.0000000000
11
-2.2108748836
21
17.0724024565
31
0.0000000000
11
0.3071819986
21
15.7573947204
31
0.0000000000
11
2.8430536507
21
14.4054494640
31
0.0000000000
11
5.3962209353
21
13.0168212632
31
0.0000000000
11
7.9661487882
21
11.5917925733
31
0.0000000000
11
10.5522862261
21
10.1306734948
31
0.0000000000
0
SPLINE
5
366
100
AcDbEntity
8
0
100
AcDbSpline
62
7
6
CONTINUOUS
70
0
71
3
72
10
73
6
74
4
42
0.0000001000
43
0.0000001000
44
0.0000000001
12
-0.0226954558
22
-0.0559975538
32
0.0000000000
13
-0.0026536672
23
-0.0602832552
33
0.0000000000
40
0.0000000000
40
0.0000000000
40
0.0000000000
40
0.0000000000
40
0.1429283907
40
0.5558897415
40
1.0000000000
40
1.0000000000
40
1.0000000000
40
1.0000000000
10
-20.6457256584
20
24.6818895764
30
0.0000000000
10
-20.6468069334
20
24.6792216963
30
0.0000000000
10
-20.6506804431
20
24.6687101926
30
0.0000000000
10
-20.6554827969
20
24.6491045680
30
0.0000000000
10
-20.6572500839
20
24.6319005784
30
0.0000000000
10
-20.6576429242
20
24.6229764411
30
0.0000000000
11
-20.6457256584
21
24.6818895764
31
0.0000000000
11
-20.6487192290
21
24.6737907473
31
0.0000000000
11
-20.6547879442
21
24.6496222671
31
0.0000000000
11
-20.6576429242
21
24.6229764411
31
0.0000000000
0
SPLINE
5
367
100
AcDbEntity
8
0
100
AcDbSpline
62
7
6
CONTINUOUS
70
0
71
3
72
10
73
6
74
4
42
0.0000001000
43
0.0000001000
44
0.0000000001
12
-0.1328971444
22
0.1023435517
32
0.0000000000
13
-0.1128282175
23
0.1241194863
33
0.0000000000
40
0.0000000000
40
0.0000000000
40
0.0000000000
40
0.0000000000
40
0.3176552300
40
0.6547203408
40
1.0000000000
40
1.0000000000
40
1.0000000000
40
1.0000000000
10
-21.6098202649
20
26.1595661606
30
0.0000000000
10
-21.6238920892
20
26.1704028154
30
0.0000000000
10
-21.6522261709
20
26.1936202534
30
0.0000000000
10
-21.6933836500
20
26.2315075808
30
0.0000000000
10
-21.7199012149
20
26.2589748890
30
0.0000000000
10
-21.7328869777
20
26.2732602003
30
0.0000000000
11
-21.6098202649
21
26.1595661606
31
0.0000000000
11
-21.6510595774
21
26.1933057967
31
0.0000000000
11
-21.6926634232
21
26.2315904623
31
0.0000000000
11
-21.7328869777
21
26.2732602003
31
0.0000000000
0
SPLINE
5
368
100
AcDbEntity
8
0
100
AcDbSpline
62
7
6
CONTINUOUS
70
0
71
3
72
13
73
9
74
7
42
0.0000001000
43
0.0000001000
44
0.0000000001
12
0.0000257070
22
0.1239662608
32
0.0000000000
13
0.0457050272
23
0.1152264974
33
0.0000000000
40
0.0000000000
40
0.0000000000
40
0.0000000000
40
0.0000000000
40
0.1066581475
40
0.3425006438
40
0.5474995565
40
0.7238973709
40
0.8740750172
40
1.0000000000
40
1.0000000000
40
1.0000000000
40
1.0000000000
10
10.4871893019
20
9.9102837957
30
0.0000000000
10
10.4871902159
20
9.9146911329
30
0.0000000000
10
10.4872972772
20
9.9288439138
30
0.0000000000
10
10.4880607658
20
9.9514604263
30
0.0000000000
10
10.4900985085
20
9.9768938465
30
0.0000000000
10
10.4930988841
20
9.9986686443
30
0.0000000000
10
10.4969889595
20
10.0169747484
30
0.0000000000
10
10.5004297174
20
10.0278842126
30
0.0000000000
10
10.5023481856
20
10.0327208442
30
0.0000000000
11
10.4871893019
21
9.9102837957
31
0.0000000000
11
10.4872928310
21
9.9235053320
31
0.0000000000
11
10.4883443716
21
9.9527214635
31
0.0000000000
11
10.4904510904
21
9.9780456622
31
0.0000000000
11
10.4935281962
21
9.9996943513
31
0.0000000000
11
10.4975131697
21
10.0178788649
31
0.0000000000
11
10.5023481856
21
10.0327208442
31
0.0000000000
0
SPLINE
5
369
100
AcDbEntity
8
0
100
AcDbSpline
62
7
6
CONTINUOUS
70
0
71
3
72
12
73
8
74
6
42
0.0000001000
43
0.0000001000
44
0.0000000001
12
0.0000197969
22
-0.1996351401
32
0.0000000000
13
0.0396145978
23
-0.1956580178
33
0.0000000000
40
0.0000000000
40
0.0000000000
40
0.0000000000
40
0.0000000000
40
0.1675643277
40
0.4131568203
40
0.6333770392
40
0.8283938182
40
1.0000000000
40
1.0000000000
40
1.0000000000
40
1.0000000000
10
10.4871893299
20
-32.2396808930
30
0.0000000000
10
10.4871904356
20
-32.2508314690
30
0.0000000000
10
10.4874294761
20
-32.2783248689
30
0.0000000000
10
10.4888152885
20
-32.3204559299
30
0.0000000000
10
10.4918115163
20
-32.3643385363
30
0.0000000000
10
10.4961192856
20
-32.4031625902
30
0.0000000000
10
10.5000821490
20
-32.4272532167
30
0.0000000000
10
10.5023481856
20
-32.4384452585
30
0.0000000000
11
10.4871893299
21
-32.2396808930
31
0.0000000000
11
10.4874937050
21
-32.2731307017
31
0.0000000000
11
10.4891745824
21
-32.3221290406
31
0.0000000000
11
10.4922535750
21
-32.3659832286
31
0.0000000000
11
10.4966509388
21
-32.4046649111
31
0.0000000000
11
10.5023481856
21
-32.4384452585
31
0.0000000000
0
SPLINE
5
36A
100
AcDbEntity
8
0
100
AcDbSpline
62
7
6
CONTINUOUS
70
0
71
3
72
10
73
6
74
4
42
0.0000001000
43
0.0000001000
44
0.0000000001
12
-0.0779658456
22
-0.1040235283
32
0.0000000000
13
-0.0635158470
23
-0.1134253266
33
0.0000000000
40
0.0000000000
40
0.0000000000
40
0.0000000000
40
0.0000000000
40
0.3323539723
40
0.6696846507
40
1.0000000000
40
1.0000000000
40
1.0000000000
40
1.0000000000
10
-21.6616134141
20
-16.3564644592
30
0.0000000000
10
-21.6702508336
20
-16.3679886702
30
0.0000000000
10
-21.6872037525
20
-16.3915525155
30
0.0000000000
10
-21.7110553516
20
-16.4277436249
30
0.0000000000
10
-21.7258936719
20
-16.4525961893
30
0.0000000000
10
-21.7328870917
20
-16.4650848981
30
0.0000000000
11
-21.6616134141
21
-16.3564644592
31
0.0000000000
11
-21.6868364284
21
-16.3915431084
31
0.0000000000
11
-21.7109454160
21
-16.4281735886
31
0.0000000000
11
-21.7328870917
21
-16.4650848981
31
0.0000000000
0
SPLINE
5
36B
100
AcDbEntity
8
0
100
AcDbSpline
62
7
6
CONTINUOUS
70
0
71
3
72
20
73
16
74
14
42
0.0000001000
43
0.0000001000
44
0.0000000001
12
-0.1268159104
22
-0.6900533682
32
0.0000000000
13
-0.4208379936
23
-0.5613833889
33
0.0000000000
40
0.0000000000
40
0.0000000000
40
0.0000000000
40
0.0000000000
40
0.1323887872
40
0.2557206803
40
0.3692186688
40
0.4722525135
40
0.5642519598
40
0.6454059275
40
0.7168390715
40
0.7799860429
40
0.8360503052
40
0.8856941555
40
0.9293116799
40
0.9673246888
40
1.0000000000
40
1.0000000000
40
1.0000000000
40
1.0000000000
10
-21.4514091657
20
-15.6911509402
30
0.0000000000
10
-21.4570055005
20
-15.7216027164
30
0.0000000000
10
-21.4684274872
20
-15.7803127106
30
0.0000000000
10
-21.4867160767
20
-15.8647092255
30
0.0000000000
10
-21.5052177156
20
-15.9420163375
30
0.0000000000
10
-21.5235656394
20
-16.0118071221
30
0.0000000000
10
-21.5414326185
20
-16.0738850325
30
0.0000000000
10
-21.5585944186
20
-16.1284576150
30
0.0000000000
10
-21.5749866175
20
-16.1761807783
30
0.0000000000
10
-21.5906751737
20
-16.2179225816
30
0.0000000000
10
-21.6057558068
20
-16.2544282778
30
0.0000000000
10
-21.6202878974
20
-16.2861940061
30
0.0000000000
10
-21.6342888612
20
-16.3135310951
30
0.0000000000
10
-21.6477502009
20
-16.3366430368
30
0.0000000000
10
-21.6570297433
20
-16.3503500002
30
0.0000000000
10
-21.6616134141
20
-16.3564644592
30
0.0000000000
11
-21.4514091657
21
-15.6911509402
31
0.0000000000
11
-21.4691656236
21
-15.7823231669
31
0.0000000000
11
-21.4875182245
21
-15.8668853733
31
0.0000000000
11
-21.5060866206
21
-15.9443215005
31
0.0000000000
11
-21.5245061325
21
-16.0142249860
31
0.0000000000
11
-21.5424018538
21
-16.0762422995
31
0.0000000000
11
-21.5595275594
21
-16.1305441524
31
0.0000000000
11
-21.5758554349
21
-16.1779280301
31
0.0000000000
11
-21.5914928016
21
-16.2193811719
31
0.0000000000
11
-21.6065673075
21
-16.2557132355
31
0.0000000000
11
-21.6211210819
21
-16.2873574802
31
0.0000000000
11
-21.6351455785
21
-16.3145571989
31
0.0000000000
11
-21.6486549280
21
-16.3375528898
31
0.0000000000
11
-21.6616134141
21
-16.3564644592
31
0.0000000000
0
SPLINE
5
36C
100
AcDbEntity
8
0
100
AcDbSpline
62
7
6
CONTINUOUS
70
0
71
3
72
19
73
15
74
13
42
0.0000001000
43
0.0000001000
44
0.0000000001
12
-0.1430572002
22
0.6496542216
32
0.0000000000
13
-0.3304305195
23
0.5773488044
33
0.0000000000
40
0.0000000000
40
0.0000000000
40
0.0000000000
40
0.0000000000
40
0.0989670829
40
0.2053723051
40
0.3146206663
40
0.4219874605
40
0.5224756245
40
0.6130166721
40
0.6940689810
40
0.7675344159
40
0.8346878313
40
0.8957576491
40
0.9507192960
40
1.0000000000
40
1.0000000000
40
1.0000000000
40
1.0000000000
10
-21.4514091657
20
25.4856006645
30
0.0000000000
10
-21.4561284836
20
25.5070321256
30
0.0000000000
10
-21.4662987559
20
25.5514236642
30
0.0000000000
10
-21.4830551211
20
25.6191490329
30
0.0000000000
10
-21.5015407586
20
25.6883534557
30
0.0000000000
10
-21.5210067947
20
25.7559244715
30
0.0000000000
10
-21.5406100525
20
25.8191249854
30
0.0000000000
10
-21.5596841718
20
25.8763664116
30
0.0000000000
10
-21.5779725201
20
25.9275402880
30
0.0000000000
10
-21.5955708177
20
25.9734402029
30
0.0000000000
10
-21.6126286820
20
26.0147873200
30
0.0000000000
10
-21.6291888466
20
26.0518849178
30
0.0000000000
10
-21.6452390096
20
26.0848483484
30
0.0000000000
10
-21.6561854646
20
26.1052175925
30
0.0000000000
10
-21.6616134141
20
26.1147016444
30
0.0000000000
11
-21.4514091657
21
25.4856006645
31
0.0000000000
11
-21.4661086714
21
25.5497733994
31
0.0000000000
11
-21.4831120505
21
25.6184835330
31
0.0000000000
11
-21.5018776232
21
25.6886930185
31
0.0000000000
11
-21.5216679970
21
25.7573188213
31
0.0000000000
11
-21.5414965932
21
25.8211568664
31
0.0000000000
11
-21.5605655027
21
25.8782881327
31
0.0000000000
11
-21.5787411265
21
25.9290497825
31
0.0000000000
11
-21.5962709713
21
25.9746681835
31
0.0000000000
11
-21.6133481079
21
26.0159469081
31
0.0000000000
11
-21.6299560227
21
26.0530218390
31
0.0000000000
11
-21.6460200716
21
26.0858652689
31
0.0000000000
11
-21.6616134141
21
26.1147016444
31
0.0000000000
0
SPLINE
5
36D
100
AcDbEntity
8
0
100
AcDbSpline
62
7
6
CONTINUOUS
70
0
71
3
72
10
73
6
74
4
42
0.0000001000
43
0.0000001000
44
0.0000000001
12
-0.0864546724
22
0.1510682100
32
0.0000000000
13
-0.0570953950
23
0.1644266716
33
0.0000000000
40
0.0000000000
40
0.0000000000
40
0.0000000000
40
0.0000000000
40
0.3094486908
40
0.6462242037
40
1.0000000000
40
1.0000000000
40
1.0000000000
40
1.0000000000
10
-21.6616134141
20
26.1147016444
30
0.0000000000
10
-21.6705311758
20
26.1302842643
30
0.0000000000
10
-21.6880317739
20
26.1634775153
30
0.0000000000
10
-21.7118840825
20
26.2164014251
30
0.0000000000
10
-21.7261541021
20
26.2538700719
30
0.0000000000
10
-21.7328870917
20
26.2732601308
30
0.0000000000
11
-21.6616134141
21
26.1147016444
31
0.0000000000
11
-21.6868132494
21
26.1623048897
31
0.0000000000
11
-21.7109550425
21
26.2157209875
31
0.0000000000
11
-21.7328870917
21
26.2732601308
31
0.0000000000
0
SPLINE
5
36E
100
AcDbEntity
8
0
100
AcDbSpline
62
7
6
CONTINUOUS
70
0
71
3
72
18
73
14
74
12
42
0.0000001000
43
0.0000001000
44
0.0000000001
12
-0.4654143349
22
-0.2287272803
32
0.0000000000
13
-0.1701779521
23
-0.4898633856
33
0.0000000000
40
0.0000000000
40
0.0000000000
40
0.0000000000
40
0.0000000000
40
0.0808188051
40
0.1653635850
40
0.2530703006
40
0.3432504469
40
0.4351382320
40
0.5283386087
40
0.6227640629
40
0.7180202816
40
0.8132581163
40
0.9075516905
40
1.0000000000
40
1.0000000000
40
1.0000000000
40
1.0000000000
10
-20.5164153810
20
-14.3573978635
30
0.0000000000
10
-20.5289534578
20
-14.3635596854
30
0.0000000000
10
-20.5540429814
20
-14.3773449002
30
0.0000000000
10
-20.5905294479
20
-14.4015600090
30
0.0000000000
10
-20.6262771790
20
-14.4295613571
30
0.0000000000
10
-20.6607836674
20
-14.4609899455
30
0.0000000000
10
-20.6936400995
20
-14.4954603066
30
0.0000000000
10
-20.7245551428
20
-14.5326387251
30
0.0000000000
10
-20.7532969901
20
-14.5722422062
30
0.0000000000
10
-20.7795963599
20
-14.6139245445
30
0.0000000000
10
-20.8031382314
20
-14.6571987921
30
0.0000000000
10
-20.8236242729
20
-14.7014639203
30
0.0000000000
10
-20.8352482755
20
-14.7316084589
30
0.0000000000
10
-20.8404924969
20
-14.7467041395
30
0.0000000000
11
-20.5164153810
21
-14.3573978635
31
0.0000000000
11
-20.5531795196
21
-14.3775210065
31
0.0000000000
11
-20.5897433501
21
-14.4017145115
31
0.0000000000
11
-20.6255809551
21
-14.4297212228
31
0.0000000000
11
-20.6601834715
21
-14.4611807355
31
0.0000000000
11
-20.6930838815
21
-14.4956511442
31
0.0000000000
11
-20.7240030124
21
-14.5327993319
31
0.0000000000
11
-20.7527754691
21
-14.5724218090
31
0.0000000000
11
-20.7791388822
21
-14.6141967188
31
0.0000000000
11
-20.8027370618
21
-14.6575828544
31
0.0000000000
11
-20.8232629515
21
-14.7019651672
31
0.0000000000
11
-20.8404924969
21
-14.7467041395
31
0.0000000000
0
SPLINE
5
36F
100
AcDbEntity
8
0
100
AcDbSpline
62
7
6
CONTINUOUS
70
0
71
3
72
8
73
4
74
2
42
0.0000001000
43
0.0000001000
44
0.0000000001
12
-0.2107284779
22
-0.0831169932
32
0.0000000000
13
-0.2107286861
23
-0.0831164654
33
0.0000000000
40
0.0000000000
40
0.0000000000
40
0.0000000000
40
0.0000000000
40
1.0000000000
40
1.0000000000
40
1.0000000000
40
1.0000000000
10
11.9851055894
20
-33.0701385707
30
0.0000000000
10
11.9148627635
20
-33.0978442351
30
0.0000000000
10
11.8446199028
20
-33.1255498115
30
0.0000000000
10
11.7743770074
20
-33.1532553000
30
0.0000000000
11
11.9851055894
21
-33.0701385707
31
0.0000000000
11
11.7743770074
21
-33.1532553000
31
0.0000000000
0
SPLINE
5
370
100
AcDbEntity
8
0
100
AcDbSpline
62
7
6
CONTINUOUS
70
0
71
3
72
21
73
17
74
15
42
0.0000001000
43
0.0000001000
44
0.0000000001
12
1.0448259910
22
-0.7836194011
32
0.0000000000
13
0.0000000000
23
-1.3057194186
33
0.0000000000
40
0.0000000000
40
0.0000000000
40
0.0000000000
40
0.0000000000
40
0.0628923996
40
0.1315633139
40
0.2021853173
40
0.2746430769
40
0.3483342994
40
0.4229858925
40
0.4980999418
40
0.5731675512
40
0.6478902225
40
0.7216099441
40
0.7941524817
40
0.8648799652
40
0.9336444697
40
1.0000000000
40
1.0000000000
40
1.0000000000
40
1.0000000000
10
28.8353792858
20
21.1889427406
30
0.0000000000
10
28.8572831570
20
21.1725148391
30
0.0000000000
10
28.9017730504
20
21.1363802574
30
0.0000000000
10
28.9659326407
20
21.0760421751
30
0.0000000000
10
29.0285578177
20
21.0083297055
30
0.0000000000
10
29.0879478553
20
20.9349358449
30
0.0000000000
10
29.1435849007
20
20.8565017759
30
0.0000000000
10
29.1949085256
20
20.7738183314
30
0.0000000000
10
29.2414348317
20
20.6876631733
30
0.0000000000
10
29.2827276777
20
20.5988468396
30
0.0000000000
10
29.3183697776
20
20.5082664700
30
0.0000000000
10
29.3480498625
20
20.4167137905
30
0.0000000000
10
29.3714562363
20
20.3251503407
30
0.0000000000
10
29.3883867325
20
20.2343581167
30
0.0000000000
10
29.3986649227
20
20.1452841357
30
0.0000000000
10
29.4010627997
20
20.0864539017
30
0.0000000000
10
29.4010627997
20
20.0575733336
30
0.0000000000
11
28.8353792858
21
21.1889427406
31
0.0000000000
11
28.8991926311
21
21.1372525879
31
0.0000000000
11
28.9645828856
21
21.0759018159
31
0.0000000000
11
29.0272559091
21
21.0082612867
31
0.0000000000
11
29.0868197068
21
20.9347554217
31
0.0000000000
11
29.1425266256
21
20.8563013639
31
0.0000000000
11
29.1939560185
21
20.7734991599
31
0.0000000000
11
29.2405677733
21
20.6872053973
31
0.0000000000
11
29.2818829888
21
20.5983210265
31
0.0000000000
11
29.3175834577
21
20.5075203362
31
0.0000000000
11
29.3472255638
21
20.4159408190
31
0.0000000000
11
29.3706227998
21
20.3241558223
31
0.0000000000
11
29.3874706161
21
20.2333553844
31
0.0000000000
11
29.3976588904
21
20.1441481472
31
0.0000000000
11
29.4010627997
21
20.0575733336
31
0.0000000000
0
SPLINE
5
371
100
AcDbEntity
8
0
100
AcDbSpline
62
7
6
CONTINUOUS
70
0
71
3
72
8
73
4
74
2
42
0.0000001000
43
0.0000001000
44
0.0000000001
12
0.1508402554
22
0.0762931906
32
0.0000000000
13
0.1508403807
23
0.0762929428
33
0.0000000000
40
0.0000000000
40
0.0000000000
40
0.0000000000
40
0.0000000000
40
1.0000000000
40
1.0000000000
40
1.0000000000
40
1.0000000000
10
11.1023045568
20
10.8532789119
30
0.0000000000
10
11.1525846419
20
10.8787099754
30
0.0000000000
10
11.2028647480
20
10.9041409976
30
0.0000000000
10
11.2531448749
20
10.9295719786
30
0.0000000000
11
11.1023045568
21
10.8532789119
31
0.0000000000
11
11.2531448749
21
10.9295719786
31
0.0000000000
0
SPLINE
5
372
100
AcDbEntity
8
0
100
AcDbSpline
62
7
6
CONTINUOUS
70
0
71
3
72
8
73
4
74
2
42
0.0000001000
43
0.0000001000
44
0.0000000001
12
0.0147471889
22
0.0074589207
32
0.0000000000
13
0.0147471901
23
0.0074589183
33
0.0000000000
40
0.0000000000
40
0.0000000000
40
0.0000000000
40
0.0000000000
40
1.0000000000
40
1.0000000000
40
1.0000000000
40
1.0000000000
10
11.2531448749
20
10.9295719786
30
0.0000000000
10
11.2580606045
20
10.9320582855
30
0.0000000000
10
11.2629763343
20
10.9345445920
30
0.0000000000
10
11.2678920644
20
10.9370308981
30
0.0000000000
11
11.2531448749
21
10.9295719786
31
0.0000000000
11
11.2678920644
21
10.9370308981
31
0.0000000000
0
SPLINE
5
373
100
AcDbEntity
8
0
100
AcDbSpline
62
7
6
CONTINUOUS
70
0
71
3
72
8
73
4
74
2
42
0.0000001000
43
0.0000001000
44
0.0000000001
12
0.0512588617
22
0.0259260009
32
0.0000000000
13
0.0512588762
23
0.0259259723
33
0.0000000000
40
0.0000000000
40
0.0000000000
40
0.0000000000
40
0.0000000000
40
1.0000000000
40
1.0000000000
40
1.0000000000
40
1.0000000000
10
11.2678920644
20
10.9370308981
30
0.0000000000
10
11.2849783516
20
10.9456728984
30
0.0000000000
10
11.3020646413
20
10.9543148939
30
0.0000000000
10
11.3191509333
20
10.9629568847
30
0.0000000000
11
11.2678920644
21
10.9370308981
31
0.0000000000
11
11.3191509333
21
10.9629568847
31
0.0000000000
0
SPLINE
5
374
100
AcDbEntity
8
0
100
AcDbSpline
62
7
6
CONTINUOUS
70
0
71
3
72
8
73
4
74
2
42
0.0000001000
43
0.0000001000
44
0.0000000001
12
0.1519464761
22
0.0768818745
32
0.0000000000
13
0.1519466038
23
0.0768816221
33
0.0000000000
40
0.0000000000
40
0.0000000000
40
0.0000000000
40
0.0000000000
40
1.0000000000
40
1.0000000000
40
1.0000000000
40
1.0000000000
10
11.7743770074
20
9.6848531146
30
0.0000000000
10
11.8250258328
20
9.7104804061
30
0.0000000000
10
11.8756746794
20
9.7361076556
30
0.0000000000
10
11.9263235474
20
9.7617348629
30
0.0000000000
11
11.7743770074
21
9.6848531146
31
0.0000000000
11
11.9263235474
21
9.7617348629
31
0.0000000000
0
SPLINE
5
375
100
AcDbEntity
8
0
100
AcDbSpline
62
7
6
CONTINUOUS
70
0
71
3
72
8
73
4
74
2
42
0.0000001000
43
0.0000001000
44
0.0000000001
12
0.0546766261
22
0.0276651639
32
0.0000000000
13
0.0546766426
23
0.0276651312
33
0.0000000000
40
0.0000000000
40
0.0000000000
40
0.0000000000
40
0.0000000000
40
1.0000000000
40
1.0000000000
40
1.0000000000
40
1.0000000000
10
11.9263235474
20
9.7617348629
30
0.0000000000
10
11.9445490894
20
9.7709565842
30
0.0000000000
10
11.9627746342
20
9.7801783001
30
0.0000000000
10
11.9810001817
20
9.7894000105
30
0.0000000000
11
11.9263235474
21
9.7617348629
31
0.0000000000
11
11.9810001817
21
9.7894000105
31
0.0000000000
0
SPLINE
5
376
100
AcDbEntity
8
0
100
AcDbSpline
62
7
6
CONTINUOUS
70
0
71
3
72
8
73
4
74
2
42
0.0000001000
43
0.0000001000
44
0.0000000001
12
-0.2203605151
22
-0.1360602112
32
0.0000000000
13
-0.2203601434
23
-0.1360608133
33
0.0000000000
40
0.0000000000
40
0.0000000000
40
0.0000000000
40
0.0000000000
40
1.0000000000
40
1.0000000000
40
1.0000000000
40
1.0000000000
10
-21.8866627225
20
27.5940032284
30
0.0000000000
10
-21.9601162275
20
27.5486498246
30
0.0000000000
10
-22.0335696706
20
27.5032963206
30
0.0000000000
10
-22.1070230517
20
27.4579427161
30
0.0000000000
11
-21.8866627225
21
27.5940032284
31
0.0000000000
11
-22.1070230517
21
27.4579427161
31
0.0000000000
0
SPLINE
5
377
100
AcDbEntity
8
0
100
AcDbSpline
62
7
6
CONTINUOUS
70
0
71
3
72
18
73
14
74
12
42
0.0000001000
43
0.0000001000
44
0.0000000001
12
-0.6440557982
22
-0.3292499603
32
0.0000000000
13
-0.2325145293
23
-0.6849455462
33
0.0000000000
40
0.0000000000
40
0.0000000000
40
0.0000000000
40
0.0000000000
40
0.0801815718
40
0.1642874849
40
0.2516925852
40
0.3417076233
40
0.4335591746
40
0.5268352202
40
0.6214361038
40
0.7169547978
40
0.8125261535
40
0.9072062910
40
1.0000000000
40
1.0000000000
40
1.0000000000
40
1.0000000000
10
-20.6576429242
20
-14.1138163827
30
0.0000000000
10
-20.6748567263
20
-14.1226163092
30
0.0000000000
10
-20.7093157189
20
-14.1422714689
30
0.0000000000
10
-20.7593890517
20
-14.1766661870
30
0.0000000000
10
-20.8084627977
20
-14.2163618955
30
0.0000000000
10
-20.8558336433
20
-14.2608412321
30
0.0000000000
10
-20.9009393987
20
-14.3095581741
30
0.0000000000
10
-20.9433789753
20
-14.3620403035
30
0.0000000000
10
-20.9828331196
20
-14.4178865356
30
0.0000000000
10
-21.0189323554
20
-14.4766075530
30
0.0000000000
10
-21.0512442729
20
-14.5375170657
30
0.0000000000
10
-21.0793533984
20
-14.5997530790
30
0.0000000000
10
-21.0952979327
20
-14.6420894525
30
0.0000000000
10
-21.1024898945
20
-14.6632756650
30
0.0000000000
11
-20.6576429242
21
-14.1138163827
31
0.0000000000
11
-20.7080698899
21
-14.1424678104
31
0.0000000000
11
-20.7582665264
21
-14.1768394138
31
0.0000000000
11
-20.8074683267
21
-14.2165427005
31
0.0000000000
11
-20.8549765377
21
-14.2610670181
31
0.0000000000
11
-20.9001490302
21
-14.3097870796
31
0.0000000000
11
-20.9425992158
21
-14.3622290332
31
0.0000000000
11
-20.9820999173
21
-14.4181048110
31
0.0000000000
11
-21.0182912468
21
-14.4769596587
31
0.0000000000
11
-21.0506844354
21
-14.5380305349
31
0.0000000000
11
-21.0788588629
21
-14.6004521535
31
0.0000000000
11
-21.1024898945
21
-14.6632756650
31
0.0000000000
0
SPLINE
5
378
100
AcDbEntity
8
0
100
AcDbSpline
62
7
6
CONTINUOUS
70
0
71
3
72
18
73
14
74
12
42
0.0000001000
43
0.0000001000
44
0.0000000001
12
-0.1868669659
22
-0.7317181462
32
0.0000000000
13
0.2334358955
23
-0.7181779200
33
0.0000000000
40
0.0000000000
40
0.0000000000
40
0.0000000000
40
0.0000000000
40
0.0882608187
40
0.2152670087
40
0.3392785359
40
0.4546897687
40
0.5582038200
40
0.6505547984
40
0.7340907545
40
0.8104190862
40
0.8799690851
40
0.9429152466
40
1.0000000000
40
1.0000000000
40
1.0000000000
40
1.0000000000
10
10.4871599006
20
-31.7396787929
30
0.0000000000
10
10.4816622235
20
-31.7612061404
30
0.0000000000
10
10.4688972898
20
-31.8138751049
30
0.0000000000
10
10.4513343189
20
-31.8974737570
30
0.0000000000
10
10.4358417585
20
-31.9884258515
30
0.0000000000
10
10.4247986974
20
-32.0740661247
30
0.0000000000
10
10.4180594789
20
-32.1521547399
30
0.0000000000
10
10.4150935605
20
-32.2224470357
30
0.0000000000
10
10.4153915163
20
-32.2859595170
30
0.0000000000
10
10.4186449486
20
-32.3436447914
30
0.0000000000
10
10.4246801765
20
-32.3958984964
30
0.0000000000
10
10.4333557046
20
-32.4428642515
30
0.0000000000
10
10.4412361016
20
-32.4720827200
30
0.0000000000
10
10.4456779785
20
-32.4857483898
30
0.0000000000
11
10.4871599006
21
-31.7396787929
31
0.0000000000
11
10.4714674006
21
-31.8044580684
31
0.0000000000
11
10.4517888619
21
-31.8983280119
31
0.0000000000
11
10.4361255061
21
-31.9906577984
31
0.0000000000
11
10.4250575401
21
-32.0771065115
31
0.0000000000
11
10.4184214856
21
-32.1549943549
31
0.0000000000
11
10.4155720016
21
-32.2246762014
31
0.0000000000
11
10.4159675008
21
-32.2877582627
31
0.0000000000
11
10.4193289346
21
-32.3453005308
31
0.0000000000
11
10.4254865866
21
-32.3974599367
31
0.0000000000
11
10.4342805486
21
-32.4441740491
31
0.0000000000
11
10.4456779785
21
-32.4857483898
31
0.0000000000
0
SPLINE
5
379
100
AcDbEntity
8
0
100
AcDbSpline
62
7
6
CONTINUOUS
70
0
71
3
72
33
73
29
74
27
42
0.0000001000
43
0.0000001000
44
0.0000000001
12
-33.2906415318
22
11.4670754099
32
0.0000000000
13
-29.3450525024
23
19.4584018898
33
0.0000000000
40
0.0000000000
40
0.0000000000
40
0.0000000000
40
0.0000000000
40
0.0898256779
40
0.1797285986
40
0.2679838745
40
0.3490234252
40
0.4205815009
40
0.4837900418
40
0.5402003817
40
0.5907131982
40
0.6361009905
40
0.6770728786
40
0.7141453754
40
0.7477653972
40
0.7783365586
40
0.8062045656
40
0.8317140869
40
0.8551523096
40
0.8766303517
40
0.8962230678
40
0.9140046987
40
0.9300485890
40
0.9445734423
40
0.9579835760
40
0.9707070783
40
0.9831624560
40
0.9957321801
40
1.0000000000
40
1.0000000000
40
1.0000000000
40
1.0000000000
10
10.4456779785
20
-32.4857483898
30
0.0000000000
10
9.4488931643
20
-32.1424024492
30
0.0000000000
10
7.4625665534
20
-31.4316362668
30
0.0000000000
10
4.5269235103
20
-30.3018519946
30
0.0000000000
10
1.7138940431
20
-29.1429065851
30
0.0000000000
10
-0.8755396805
20
-28.0084558022
30
0.0000000000
10
-3.1750759371
20
-26.9462628248
30
0.0000000000
10
-5.1955040935
20
-25.9700827628
30
0.0000000000
10
-6.9799974066
20
-25.0739589654
30
0.0000000000
10
-8.5665127510
20
-24.2500771983
30
0.0000000000
10
-9.9831404950
20
-23.4925023712
30
0.0000000000
10
-11.2531790326
20
-22.7955203250
30
0.0000000000
10
-12.3959381604
20
-22.1538339582
30
0.0000000000
10
-13.4271121082
20
-21.5628523196
30
0.0000000000
10
-14.3602691051
20
-21.0181810689
30
0.0000000000
10
-15.2076257369
20
-20.5154017159
30
0.0000000000
10
-15.9799646236
20
-20.0502931733
30
0.0000000000
10
-16.6855019235
20
-19.6196638447
30
0.0000000000
10
-17.3296051985
20
-19.2217001690
30
0.0000000000
10
-17.9154197853
20
-18.8557215877
30
0.0000000000
10
-18.4456425822
20
-18.5211468026
30
0.0000000000
10
-18.9243288623
20
-18.2163681043
30
0.0000000000
10
-19.3587185518
20
-17.9375546153
30
0.0000000000
10
-19.7594502345
20
-17.6784540041
30
0.0000000000
10
-20.1390179920
20
-17.4313591294
30
0.0000000000
10
-20.5095946920
20
-17.1885361424
30
0.0000000000
10
-20.7966022066
20
-16.9992534975
30
0.0000000000
10
-20.9613567975
20
-16.8901259609
30
0.0000000000
10
-21.0031032641
20
-16.8624443091
30
0.0000000000
11
10.4456779785
21
-32.4857483898
31
0.0000000000
11
7.4677865950
21
-31.4202154176
31
0.0000000000
11
4.5134890336
21
-30.2833184104
31
0.0000000000
11
1.6402634858
21
-29.0996534540
31
0.0000000000
11
-0.9733642983
21
-27.9546797962
31
0.0000000000
11
-3.2607318303
21
-26.8981684477
31
0.0000000000
11
-5.2646955528
21
-25.9299900475
31
0.0000000000
11
-7.0396952149
21
-25.0386700744
31
0.0000000000
11
-8.6181322163
21
-24.2190108683
31
0.0000000000
11
-10.0273990290
21
-23.4653942322
31
0.0000000000
11
-11.2921076713
21
-22.7713533168
31
0.0000000000
11
-12.4302824666
21
-22.1322539702
31
0.0000000000
11
-13.4573388260
21
-21.5436420860
31
0.0000000000
11
-14.3869860002
21
-21.0010268020
31
0.0000000000
11
-15.2308597311
21
-20.5003200640
31
0.0000000000
11
-16.0003082106
21
-20.0369568059
31
0.0000000000
11
-16.7047301050
21
-19.6070118656
31
0.0000000000
11
-17.3480843256
21
-19.2095137814
31
0.0000000000
11
-17.9331587638
21
-18.8439998643
31
0.0000000000
11
-18.4626527009
21
-18.5098866789
31
0.0000000000
11
-18.9391731219
21
-18.2064882168
31
0.0000000000
11
-19.3695688297
21
-17.9302391872
31
0.0000000000
11
-19.7660809123
21
-17.6738675565
31
0.0000000000
11
-20.1415318822
21
-17.4294532948
31
0.0000000000
11
-20.5083536353
21
-17.1890913875
31
0.0000000000
11
-20.8778220097
21
-16.9454260973
31
0.0000000000
11
-21.0031032641
21
-16.8624443091
31
0.0000000000
0
SPLINE
5
37A
100
AcDbEntity
8
0
100
AcDbSpline
62
7
6
CONTINUOUS
70
0
71
3
72
8
73
4
74
2
42
0.0000001000
43
0.0000001000
44
0.0000000001
12
-0.0177501790
22
0.0117699608
32
0.0000000000
13
-0.0177484971
23
0.0117724970
33
0.0000000000
40
0.0000000000
40
0.0000000000
40
0.0000000000
40
0.0000000000
40
1.0000000000
40
1.0000000000
40
1.0000000000
40
1.0000000000
10
-21.0031032641
20
-16.8624443091
30
0.0000000000
10
-21.0090199904
20
-16.8585209888
30
0.0000000000
10
-21.0149364365
20
-16.8545972458
30
0.0000000000
10
-21.0208526022
20
-16.8506730801
30
0.0000000000
11
-21.0031032641
21
-16.8624443091
31
0.0000000000
11
-21.0208526022
21
-16.8506730801
31
0.0000000000
0
SPLINE
5
37B
100
AcDbEntity
8
0
100
AcDbSpline
62
7
6
CONTINUOUS
70
0
71
3
72
9
73
5
74
3
42
0.0000001000
43
0.0000001000
44
0.0000000001
12
-0.5898977347
22
0.3912764713
32
0.0000000000
13
-0.5880363625
23
0.3940678785
33
0.0000000000
40
0.0000000000
40
0.0000000000
40
0.0000000000
40
0.0000000000
40
0.3935871523
40
1.0000000000
40
1.0000000000
40
1.0000000000
40
1.0000000000
10
-21.0208526022
20
-16.8506730801
30
0.0000000000
10
-21.0982446587
20
-16.7993392828
30
0.0000000000
10
-21.2947553525
20
-16.6687300278
30
0.0000000000
10
-21.4909560003
20
-16.5376551472
30
0.0000000000
10
-21.6098202687
20
-16.4579992057
30
0.0000000000
11
-21.0208526022
21
-16.8506730801
31
0.0000000000
11
-21.2528847980
21
-16.6964549028
31
0.0000000000
11
-21.6098202687
21
-16.4579992057
31
0.0000000000
0
SPLINE
5
37C
100
AcDbEntity
8
0
100
AcDbSpline
62
7
6
CONTINUOUS
70
0
71
3
72
20
73
16
74
14
42
0.0000001000
43
0.0000001000
44
0.0000000001
12
-0.2621265417
22
-0.7721654858
32
0.0000000000
13
-0.7102613797
23
-0.4005978456
33
0.0000000000
40
0.0000000000
40
0.0000000000
40
0.0000000000
40
0.0000000000
40
0.1281633607
40
0.2477874683
40
0.3582019060
40
0.4588564576
40
0.5492288337
40
0.6295126161
40
0.7008117829
40
0.7645519946
40
0.8219597535
40
0.8737437721
40
0.9203624740
40
0.9623280318
40
1.0000000000
40
1.0000000000
40
1.0000000000
40
1.0000000000
10
-21.1894117680
20
-15.7745794147
30
0.0000000000
10
-21.2006101075
20
-15.8075671892
30
0.0000000000
10
-21.2234805996
20
-15.8709392871
30
0.0000000000
10
-21.2600783803
20
-15.9611891025
30
0.0000000000
10
-21.2971038859
20
-16.0431226964
30
0.0000000000
10
-21.3338226815
20
-16.1163961212
30
0.0000000000
10
-21.3695797494
20
-16.1809189895
30
0.0000000000
10
-21.4039279254
20
-16.2370290098
30
0.0000000000
10
-21.4367420838
20
-16.2855190786
30
0.0000000000
10
-21.4681588408
20
-16.3273723032
30
0.0000000000
10
-21.4983738785
20
-16.3634131146
30
0.0000000000
10
-21.5275091007
20
-16.3941902069
30
0.0000000000
10
-21.5556075248
20
-16.4200538087
30
0.0000000000
10
-21.5826529281
20
-16.4412419354
30
0.0000000000
10
-21.6009012873
20
-16.4529687693
30
0.0000000000
10
-21.6098202687
20
-16.4579992057
30
0.0000000000
11
-21.1894117680
21
-15.7745794147
31
0.0000000000
11
-21.2249231775
21
-15.8728713497
31
0.0000000000
11
-21.2616285003
21
-15.9632489096
31
0.0000000000
11
-21.2987654210
21
-16.0452701527
31
0.0000000000
11
-21.3356046240
21
-16.1186166279
31
0.0000000000
11
-21.3713959312
21
-16.1830350917
31
0.0000000000
11
-21.4056470595
21
-16.2388274302
31
0.0000000000
11
-21.4383026238
21
-16.2869307989
31
0.0000000000
11
-21.4695773749
21
-16.3284453499
31
0.0000000000
11
-21.4997267858
21
-16.3642567384
31
0.0000000000
11
-21.5288342777
21
-16.3948487834
31
0.0000000000
11
-21.5568832811
21
-16.4205079178
31
0.0000000000
11
-21.5839028727
21
-16.4415076848
31
0.0000000000
11
-21.6098202687
21
-16.4579992057
31
0.0000000000
0
SPLINE
5
37D
100
AcDbEntity
8
0
100
AcDbSpline
62
7
6
CONTINUOUS
70
0
71
3
72
11
73
7
74
5
42
0.0000001000
43
0.0000001000
44
0.0000000001
12
0.0482009592
22
0.0239889202
32
0.0000000000
13
0.0251738994
23
-0.0430584636
33
0.0000000000
40
0.0000000000
40
0.0000000000
40
0.0000000000
40
0.0000000000
40
0.4645705024
40
0.8050613832
40
0.9884282404
40
1.0000000000
40
1.0000000000
40
1.0000000000
40
1.0000000000
10
10.1468281214
20
-27.2060143055
30
0.0000000000
10
10.1542923694
20
-27.2022994573
30
0.0000000000
10
10.1681010718
20
-27.1954699319
30
0.0000000000
10
10.1825369524
20
-27.1912584130
30
0.0000000000
10
10.1949122243
20
-27.1854257293
30
0.0000000000
10
10.1967083159
20
-27.1879968214
30
0.0000000000
10
10.1968054180
20
-27.1881629088
30
0.0000000000
11
10.1468281214
21
-27.2060143055
31
0.0000000000
11
10.1695463875
21
-27.1955493050
31
0.0000000000
11
10.1867146012
21
-27.1891210765
31
0.0000000000
11
10.1964855326
21
-27.1877081187
31
0.0000000000
11
10.1968054180
21
-27.1881629088
31
0.0000000000
0
SPLINE
5
37E
100
AcDbEntity
8
0
100
AcDbSpline
62
7
6
CONTINUOUS
70
0
71
3
72
24
73
20
74
18
42
0.0000001000
43
0.0000001000
44
0.0000000001
12
0.4970309755
22
-0.2485154877
32
0.0000000000
13
-0.4974720656
23
-0.2490277145
33
0.0000000000
40
0.0000000000
40
0.0000000000
40
0.0000000000
40
0.0000000000
40
0.0495465166
40
0.1031423859
40
0.1599114828
40
0.2191381320
40
0.2794712183
40
0.3409033040
40
0.4033455370
40
0.4670212835
40
0.5315003768
40
0.5963701065
40
0.6607346424
40
0.7239486169
40
0.7854941661
40
0.8447297903
40
0.9015673797
40
0.9560352691
40
1.0000000000
40
1.0000000000
40
1.0000000000
40
1.0000000000
10
-2.6524285678
20
-24.7479775571
30
0.0000000000
10
-2.6442198500
20
-24.7520819160
30
0.0000000000
10
-2.6279048845
20
-24.7622356780
30
0.0000000000
10
-2.6055406740
20
-24.7818280317
30
0.0000000000
10
-2.5851597073
20
-24.8058760263
30
0.0000000000
10
-2.5676169642
20
-24.8335418945
30
0.0000000000
10
-2.5534496624
20
-24.8640283516
30
0.0000000000
10
-2.5430695534
20
-24.8966244742
30
0.0000000000
10
-2.5365500797
20
-24.9308258194
30
0.0000000000
10
-2.5338482198
20
-24.9660992435
30
0.0000000000
10
-2.5350485815
20
-25.0019041828
30
0.0000000000
10
-2.5401007138
20
-25.0374980537
30
0.0000000000
10
-2.5489475669
20
-25.0721103851
30
0.0000000000
10
-2.5615756186
20
-25.1048746545
30
0.0000000000
10
-2.5775135212
20
-25.1350915772
30
0.0000000000
10
-2.5963792993
20
-25.1621572323
30
0.0000000000
10
-2.6178201190
20
-25.1854943596
30
0.0000000000
10
-2.6402057668
20
-25.2037272723
30
0.0000000000
10
-2.6559410241
20
-25.2130707638
30
0.0000000000
10
-2.6632314326
20
-25.2167202427
30
0.0000000000
11
-2.6524285678
21
-24.7479775571
31
0.0000000000
11
-2.6289815633
21
-24.7624100647
31
0.0000000000
11
-2.6064966022
21
-24.7819410422
31
0.0000000000
11
-2.5860298246
21
-24.8059470688
31
0.0000000000
11
-2.5683494126
21
-24.8337069230
31
0.0000000000
11
-2.5541911436
21
-24.8640977041
31
0.0000000000
11
-2.5437841925
21
-24.8966103948
31
0.0000000000
11
-2.5372293737
21
-24.9306846454
31
0.0000000000
11
-2.5345048541
21
-24.9659640533
31
0.0000000000
11
-2.5356845524
21
-25.0017755003
31
0.0000000000
11
-2.5407615273
21
-25.0374641385
31
0.0000000000
11
-2.5496759259
21
-25.0721026581
31
0.0000000000
11
-2.5623228124
21
-25.1048749336
31
0.0000000000
11
-2.5783280935
21
-25.1350994187
31
0.0000000000
11
-2.5972237063
21
-25.1620529084
31
0.0000000000
11
-2.6186535299
21
-25.1852551451
31
0.0000000000
11
-2.6421928037
21
-25.2042823497
31
0.0000000000
11
-2.6632314326
21
-25.2167202427
31
0.0000000000
0
SPLINE
5
37F
100
AcDbEntity
8
0
100
AcDbSpline
62
7
6
CONTINUOUS
70
0
71
3
72
9
73
5
74
3
42
0.0000001000
43
0.0000001000
44
0.0000000001
12
0.1040537435
22
0.0037384460
32
0.0000000000
13
0.0990764321
23
0.0322461503
33
0.0000000000
40
0.0000000000
40
0.0000000000
40
0.0000000000
40
0.0000000000
40
0.4892723648
40
1.0000000000
40
1.0000000000
40
1.0000000000
40
1.0000000000
10
-2.6964243978
20
-25.6169588654
30
0.0000000000
10
-2.6794541907
20
-25.6163491593
30
0.0000000000
10
-2.6448193859
20
-25.6125133115
30
0.0000000000
10
-2.6110887685
20
-25.6039197032
30
0.0000000000
10
-2.5942217446
20
-25.5984300365
30
0.0000000000
11
-2.6964243978
21
-25.6169588654
31
0.0000000000
11
-2.6457789361
21
-25.6114566625
31
0.0000000000
11
-2.5942217446
21
-25.5984300365
31
0.0000000000
0
SPLINE
5
380
100
AcDbEntity
8
0
100
AcDbSpline
62
7
6
CONTINUOUS
70
0
71
3
72
11
73
7
74
5
42
0.0000001000
43
0.0000001000
44
0.0000000001
12
-0.1499159727
22
-0.0749601505
32
0.0000000000
13
-0.1674007123
23
-0.0060143778
33
0.0000000000
40
0.0000000000
40
0.0000000000
40
0.0000000000
40
0.0000000000
40
0.0670557691
40
0.3884174419
40
0.6998650940
40
1.0000000000
40
1.0000000000
40
1.0000000000
40
1.0000000000
10
-2.6136368912
20
-25.6133354228
30
0.0000000000
10
-2.6169878015
20
-25.6150109263
30
0.0000000000
10
-2.6365208907
20
-25.6244705400
30
0.0000000000
10
-2.6729588748
20
-25.6388847739
30
0.0000000000
10
-2.7236195638
20
-25.6516268894
30
0.0000000000
10
-2.7576973996
20
-25.6553674576
30
0.0000000000
10
-2.7744449986
20
-25.6559691658
30
0.0000000000
11
-2.6136368912
21
-25.6133354228
31
0.0000000000
11
-2.6237526770
21
-25.6182336016
31
0.0000000000
11
-2.6738402219
21
-25.6379567288
31
0.0000000000
11
-2.7244588953
21
-25.6505852444
31
0.0000000000
11
-2.7744449986
21
-25.6559691658
31
0.0000000000
0
SPLINE
5
381
100
AcDbEntity
8
0
100
AcDbSpline
62
7
6
CONTINUOUS
70
0
71
3
72
11
73
7
74
5
42
0.0000001000
43
0.0000001000
44
0.0000000001
12
55.1042727836
22
-32.7207934918
32
0.0000000000
13
59.0654746848
23
-24.8676678841
33
0.0000000000
40
0.0000000000
40
0.0000000000
40
0.0000000000
40
0.0000000000
40
0.2403097999
40
0.4871835037
40
0.7404739135
40
1.0000000000
40
1.0000000000
40
1.0000000000
40
1.0000000000
10
-29.8325424388
20
50.0706720137
30
0.0000000000
10
-25.4185101829
20
47.4496295679
30
0.0000000000
10
-16.3665434942
20
42.3082310034
30
0.0000000000
10
-2.3369123722
20
34.9949977240
30
0.0000000000
10
12.3046030419
20
27.9883706374
30
0.0000000000
10
22.3368245113
20
23.5824194654
30
0.0000000000
10
27.4465016754
20
21.4311499566
30
0.0000000000
11
-29.8325424388
21
50.0706720137
31
0.0000000000
11
-16.4450435695
21
42.4577374712
31
0.0000000000
11
-2.4187423537
21
35.1379927917
31
0.0000000000
11
12.2207004293
21
28.1248654718
31
0.0000000000
11
27.4465016754
21
21.4311499566
31
0.0000000000
0
SPLINE
5
382
100
AcDbEntity
8
0
100
AcDbSpline
62
7
6
CONTINUOUS
70
0
71
3
72
8
73
4
74
2
42
0.0000001000
43
0.0000001000
44
0.0000000001
12
-0.0169217144
22
0.0059762210
32
0.0000000000
13
-0.0169210034
23
0.0059782860
33
0.0000000000
40
0.0000000000
40
0.0000000000
40
0.0000000000
40
0.0000000000
40
1.0000000000
40
1.0000000000
40
1.0000000000
40
1.0000000000
10
11.8982086819
20
-33.5566955289
30
0.0000000000
10
11.8925681104
20
-33.5547034552
30
0.0000000000
10
11.8869276574
20
-33.5527110374
30
0.0000000000
10
11.8812873230
20
-33.5507182754
30
0.0000000000
11
11.8982086819
21
-33.5566955289
31
0.0000000000
11
11.8812873230
21
-33.5507182754
31
0.0000000000
0
SPLINE
5
383
100
AcDbEntity
8
0
100
AcDbSpline
62
7
6
CONTINUOUS
70
0
71
3
72
13
73
9
74
7
42
0.0000001000
43
0.0000001000
44
0.0000000001
12
2.5935659647
22
-1.0919397061
32
0.0000000000
13
0.0000000000
23
-2.8140569886
33
0.0000000000
40
0.0000000000
40
0.0000000000
40
0.0000000000
40
0.0000000000
40
0.1531326232
40
0.3224079966
40
0.4962764997
40
0.6712911968
40
0.8433826894
40
1.0000000000
40
1.0000000000
40
1.0000000000
40
1.0000000000
10
27.4465016754
20
21.4311499566
30
0.0000000000
10
27.5788881953
20
21.3754127594
30
0.0000000000
10
27.8431120123
20
21.2222224748
30
0.0000000000
10
28.1921530307
20
20.9102230038
30
0.0000000000
10
28.4921019663
20
20.5246174840
30
0.0000000000
10
28.7231597417
20
20.0912301290
30
0.0000000000
10
28.8694558511
20
19.6392734406
30
0.0000000000
10
28.9060880529
20
19.3303969741
30
0.0000000000
10
28.9060880529
20
19.1834869617
30
0.0000000000
11
27.4465016754
21
21.4311499566
31
0.0000000000
11
27.8214300356
21
21.2187254831
31
0.0000000000
11
28.1785308515
21
20.9034655091
31
0.0000000000
11
28.4797093361
21
20.5178719359
31
0.0000000000
11
28.7109476728
21
20.0830312836
31
0.0000000000
11
28.8578239522
21
19.6215663407
31
0.0000000000
11
28.9060880529
21
19.1834869617
31
0.0000000000
0
SPLINE
5
384
100
AcDbEntity
8
0
100
AcDbSpline
62
7
6
CONTINUOUS
70
0
71
3
72
11
73
7
74
5
42
0.0000001000
43
0.0000001000
44
0.0000000001
12
0.0000000000
22
-1.3057923035
32
0.0000000000
13
-1.2247756289
23
-0.4781105097
33
0.0000000000
40
0.0000000000
40
0.0000000000
40
0.0000000000
40
0.0000000000
40
0.3068493346
40
0.5895785022
40
0.8455654232
40
1.0000000000
40
1.0000000000
40
1.0000000000
40
1.0000000000
10
28.9060880529
20
-50.9841649540
30
0.0000000000
10
28.9060880529
20
-51.1177254538
30
0.0000000000
10
28.8784200436
20
-51.3759253645
30
0.0000000000
10
28.7356827086
20
-51.7220909025
30
0.0000000000
10
28.5242149480
20
-51.9479407687
30
0.0000000000
10
28.3642392015
20
-52.0327944138
30
0.0000000000
10
28.3011899662
20
-52.0574066785
30
0.0000000000
11
28.9060880529
21
-50.9841649540
31
0.0000000000
11
28.8578239522
21
-51.3819290054
31
0.0000000000
11
28.7109476728
21
-51.7206403049
31
0.0000000000
11
28.4797093361
21
-51.9620164100
31
0.0000000000
11
28.3011899662
21
-52.0574066785
31
0.0000000000
0
SPLINE
5
385
100
AcDbEntity
8
0
100
AcDbSpline
62
7
6
CONTINUOUS
70
0
71
3
72
8
73
4
74
2
42
0.0000001000
43
0.0000001000
44
0.0000000001
12
0.0481020255
22
-0.0169881117
32
0.0000000000
13
0.0493108485
23
-0.0139082650
33
0.0000000000
40
0.0000000000
40
0.0000000000
40
0.0000000000
40
0.0000000000
40
1.0000000000
40
1.0000000000
40
1.0000000000
40
1.0000000000
10
11.8982086249
20
-33.5566956904
30
0.0000000000
10
11.9142426334
20
-33.5623583943
30
0.0000000000
10
11.9305006674
20
-33.5675435827
30
0.0000000000
10
11.9469376169
20
-33.5721796711
30
0.0000000000
11
11.8982086249
21
-33.5566956904
31
0.0000000000
11
11.9469376169
21
-33.5721796711
31
0.0000000000
0
SPLINE
5
386
100
AcDbEntity
8
0
100
AcDbSpline
62
7
6
CONTINUOUS
70
0
71
3
72
11
73
7
74
5
42
0.0000001000
43
0.0000001000
44
0.0000000001
12
34.1788778908
22
-14.9298215032
32
0.0000000000
13
32.5778141005
23
-18.1598875615
33
0.0000000000
40
0.0000000000
40
0.0000000000
40
0.0000000000
40
0.0000000000
40
0.2345644743
40
0.4826583498
40
0.7397712292
40
1.0000000000
40
1.0000000000
40
1.0000000000
40
1.0000000000
10
-22.1594008821
20
27.7145839439
30
0.0000000000
10
-19.4870173744
20
26.5472487000
30
0.0000000000
10
-14.0218742922
20
24.0673269866
30
0.0000000000
10
-5.7466300811
20
20.0517513891
30
0.0000000000
10
2.7128668735
20
15.6915106092
30
0.0000000000
10
8.3632372078
20
12.6175652422
30
0.0000000000
10
11.1891320477
20
11.0423235027
30
0.0000000000
11
-22.1594008821
21
27.7145839439
31
0.0000000000
11
-14.1906605052
21
24.1037736910
31
0.0000000000
11
-5.8638864357
21
20.0680217332
31
0.0000000000
11
2.6618261725
21
15.6779034270
31
0.0000000000
11
11.1891320477
21
11.0423235027
31
0.0000000000
0
SPLINE
5
387
100
AcDbEntity
8
0
100
AcDbSpline
62
7
6
CONTINUOUS
70
0
71
3
72
8
73
4
74
2
42
0.0000001000
43
0.0000001000
44
0.0000000001
12
0.0355403824
22
-0.0198113154
32
0.0000000000
13
0.0355386631
23
-0.0198143740
33
0.0000000000
40
0.0000000000
40
0.0000000000
40
0.0000000000
40
0.0000000000
40
1.0000000000
40
1.0000000000
40
1.0000000000
40
1.0000000000
10
11.1891320477
20
11.0423235027
30
0.0000000000
10
11.2009788419
20
11.0357197309
30
0.0000000000
10
11.2128253494
20
11.0291154492
30
0.0000000000
10
11.2246715705
20
11.0225106579
30
0.0000000000
11
11.1891320477
21
11.0423235027
31
0.0000000000
11
11.2246715705
21
11.0225106579
31
0.0000000000
0
SPLINE
5
388
100
AcDbEntity
8
0
100
AcDbSpline
62
7
6
CONTINUOUS
70
0
71
3
72
8
73
4
74
2
42
0.0000001000
43
0.0000001000
44
0.0000000001
12
0.0481886375
22
0.0234221264
32
0.0000000000
13
0.0515798205
23
0.0153306176
33
0.0000000000
40
0.0000000000
40
0.0000000000
40
0.0000000000
40
0.0000000000
40
1.0000000000
40
1.0000000000
40
1.0000000000
40
1.0000000000
10
-22.5139414204
20
27.7292227776
30
0.0000000000
10
-22.4978785412
20
27.7370301531
30
0.0000000000
10
-22.4810925926
20
27.7435168613
30
0.0000000000
10
-22.4638993191
20
27.7486270672
30
0.0000000000
11
-22.5139414204
21
27.7292227776
31
0.0000000000
11
-22.4638993191
21
27.7486270672
31
0.0000000000
0
SPLINE
5
389
100
AcDbEntity
8
0
100
AcDbSpline
62
7
6
CONTINUOUS
70
0
71
3
72
10
73
6
74
4
42
0.0000001000
43
0.0000001000
44
0.0000000001
12
0.3018420077
22
0.0897138523
32
0.0000000000
13
0.2854887412
23
-0.1244433928
33
0.0000000000
40
0.0000000000
40
0.0000000000
40
0.0000000000
40
0.0000000000
40
0.1745396476
40
0.7541920226
40
1.0000000000
40
1.0000000000
40
1.0000000000
40
1.0000000000
10
-22.4638993191
20
27.7486270672
30
0.0000000000
10
-22.4463381865
20
27.7538466086
30
0.0000000000
10
-22.3686197224
20
27.7701952767
30
0.0000000000
10
-22.2633802706
20
27.7548478525
30
0.0000000000
10
-22.1828990876
20
27.7248595561
30
0.0000000000
10
-22.1595072843
20
27.7146631633
30
0.0000000000
11
-22.4638993191
21
27.7486270672
31
0.0000000000
11
-22.4102775456
21
27.7599180919
31
0.0000000000
11
-22.2313975421
21
27.7411837497
31
0.0000000000
11
-22.1595072843
21
27.7146631633
31
0.0000000000
0
SPLINE
5
38A
100
AcDbEntity
8
0
100
AcDbSpline
62
7
6
CONTINUOUS
70
0
71
3
72
8
73
4
74
2
42
0.0000001000
43
0.0000001000
44
0.0000000001
12
0.0000660788
22
-0.1363652435
32
0.0000000000
13
-0.0185011441
23
-0.1353496013
33
0.0000000000
40
0.0000000000
40
0.0000000000
40
0.0000000000
40
0.0000000000
40
1.0000000000
40
1.0000000000
40
1.0000000000
40
1.0000000000
10
11.9850969605
20
-33.3065587717
30
0.0000000000
10
11.9851189867
20
-33.3520138529
30
0.0000000000
10
11.9823638272
20
-33.3975644405
30
0.0000000000
10
11.9761967791
20
-33.4426809743
30
0.0000000000
11
11.9850969605
21
-33.3065587717
31
0.0000000000
11
11.9761967791
21
-33.4426809743
31
0.0000000000
0
SPLINE
5
38B
100
AcDbEntity
8
0
100
AcDbSpline
62
7
6
CONTINUOUS
70
0
71
3
72
9
73
5
74
3
42
0.0000001000
43
0.0000001000
44
0.0000000001
12
-0.0219587266
22
-0.1606443837
32
0.0000000000
13
-0.0544226193
23
-0.1531304348
33
0.0000000000
40
0.0000000000
40
0.0000000000
40
0.0000000000
40
0.0000000000
40
0.5149771238
40
1.0000000000
40
1.0000000000
40
1.0000000000
40
1.0000000000
10
11.9761967791
20
-33.4426809743
30
0.0000000000
10
11.9724273652
20
-33.4702570352
30
0.0000000000
10
11.9626326489
20
-33.5234902804
30
0.0000000000
10
11.9474851286
20
-33.5756561133
30
0.0000000000
10
11.9386863901
20
-33.6004133679
30
0.0000000000
11
11.9761967791
21
-33.4426809743
31
0.0000000000
11
11.9609196842
21
-33.5248017629
31
0.0000000000
11
11.9386863901
21
-33.6004133679
31
0.0000000000
0
SPLINE
5
38C
100
AcDbEntity
8
0
100
AcDbSpline
62
7
6
CONTINUOUS
70
0
71
3
72
10
73
6
74
4
42
0.0000001000
43
0.0000001000
44
0.0000000001
12
-0.1202286972
22
-0.3382908232
32
0.0000000000
13
-0.3196904908
23
-0.1629020633
33
0.0000000000
40
0.0000000000
40
0.0000000000
40
0.0000000000
40
0.0000000000
40
0.4019987313
40
0.9318599228
40
1.0000000000
40
1.0000000000
40
1.0000000000
40
1.0000000000
10
11.9386863901
20
-33.6004133679
30
0.0000000000
10
11.9225757956
20
-33.6457441952
30
0.0000000000
10
11.8739472619
20
-33.7465934954
30
0.0000000000
10
11.7868773494
20
-33.8339124951
30
0.0000000000
10
11.7242148908
20
-33.8683902193
30
0.0000000000
10
11.7169536459
20
-33.8720902724
30
0.0000000000
11
11.9386863901
21
-33.6004133679
31
0.0000000000
11
11.8745698428
21
-33.7291304667
31
0.0000000000
11
11.7383576538
21
-33.8603026747
31
0.0000000000
11
11.7169536459
21
-33.8720902724
31
0.0000000000
0
SPLINE
5
38D
100
AcDbEntity
8
0
100
AcDbSpline
62
7
6
CONTINUOUS
70
0
71
3
72
8
73
4
74
2
42
0.0000001000
43
0.0000001000
44
0.0000000001
12
0.1028893282
22
-0.0573897361
32
0.0000000000
13
0.0962699989
23
-0.0678766045
33
0.0000000000
40
0.0000000000
40
0.0000000000
40
0.0000000000
40
0.0000000000
40
1.0000000000
40
1.0000000000
40
1.0000000000
40
1.0000000000
10
11.2247486712
20
11.0224803131
30
0.0000000000
10
11.2590451139
20
11.0033504011
30
0.0000000000
10
11.2922905963
20
10.9822159509
30
0.0000000000
10
11.3243805960
20
10.9595904161
30
0.0000000000
11
11.2247486712
21
11.0224803131
31
0.0000000000
11
11.3243805960
21
10.9595904161
31
0.0000000000
0
SPLINE
5
38E
100
AcDbEntity
8
0
100
AcDbSpline
62
7
6
CONTINUOUS
70
0
71
3
72
8
73
4
74
2
42
0.0000001000
43
0.0000001000
44
0.0000000001
12
0.1711666474
22
-0.1206836082
32
0.0000000000
13
0.1498311504
23
-0.1455187011
33
0.0000000000
40
0.0000000000
40
0.0000000000
40
0.0000000000
40
0.0000000000
40
1.0000000000
40
1.0000000000
40
1.0000000000
40
1.0000000000
10
11.3243805960
20
10.9595904161
30
0.0000000000
10
11.3814361451
20
10.9193625467
30
0.0000000000
10
11.4348389453
20
10.8744210129
30
0.0000000000
10
11.4847826621
20
10.8259147791
30
0.0000000000
11
11.3243805960
21
10.9595904161
31
0.0000000000
11
11.4847826621
21
10.8259147791
31
0.0000000000
0
SPLINE
5
38F
100
AcDbEntity
8
0
100
AcDbSpline
62
7
6
CONTINUOUS
70
0
71
3
72
11
73
7
74
5
42
0.0000001000
43
0.0000001000
44
0.0000000001
12
0.7307419355
22
-0.7097096769
32
0.0000000000
13
0.1894863660
23
-1.0011541868
33
0.0000000000
40
0.0000000000
40
0.0000000000
40
0.0000000000
40
0.0000000000
40
0.1078514152
40
0.4441879743
40
0.7833139802
40
1.0000000000
40
1.0000000000
40
1.0000000000
40
1.0000000000
10
11.4847826621
20
10.8259147791
30
0.0000000000
10
11.5110531794
20
10.8004003815
30
0.0000000000
10
11.6153071277
20
10.6912568846
30
0.0000000000
10
11.7713715674
20
10.4742850285
30
0.0000000000
10
11.8987561673
20
10.1978684787
30
0.0000000000
10
11.9481744504
20
10.0152784205
30
0.0000000000
10
11.9618607992
20
9.9429663819
30
0.0000000000
11
11.4847826621
21
10.8259147791
31
0.0000000000
11
11.5607512360
21
10.7465799708
31
0.0000000000
11
11.7613615682
21
10.4695578067
31
0.0000000000
11
11.9050916214
21
10.1560678163
31
0.0000000000
11
11.9618607992
21
9.9429663819
31
0.0000000000
0
SPLINE
5
390
100
AcDbEntity
8
0
100
AcDbSpline
62
7
6
CONTINUOUS
70
0
71
3
72
9
73
5
74
3
42
0.0000001000
43
0.0000001000
44
0.0000000001
12
0.0443696096
22
-0.2344275280
32
0.0000000000
13
0.0000491575
23
-0.2390046229
33
0.0000000000
40
0.0000000000
40
0.0000000000
40
0.0000000000
40
0.0000000000
40
0.4405419076
40
1.0000000000
40
1.0000000000
40
1.0000000000
40
1.0000000000
10
11.9618607992
20
9.9429663819
30
0.0000000000
10
11.9683763567
20
9.9085413317
30
0.0000000000
10
11.9802958128
20
9.8298183116
30
0.0000000000
10
11.9851277468
20
9.7500274219
30
0.0000000000
10
11.9851369140
20
9.7054563984
30
0.0000000000
11
11.9618607992
21
9.9429663819
31
0.0000000000
11
11.9775028703
21
9.8389725037
31
0.0000000000
11
11.9851369140
21
9.7054563984
31
0.0000000000
0
SPLINE
5
391
100
AcDbEntity
8
0
100
AcDbSpline
62
7
6
CONTINUOUS
70
0
71
3
72
11
73
7
74
5
42
0.0000001000
43
0.0000001000
44
0.0000000001
12
1.0644285473
22
-0.4527598315
32
0.0000000000
13
1.0788835168
23
0.4224135016
33
0.0000000000
40
0.0000000000
40
0.0000000000
40
0.0000000000
40
0.0000000000
40
0.2065686837
40
0.5765957055
40
0.9292556332
40
1.0000000000
40
1.0000000000
40
1.0000000000
40
1.0000000000
10
24.0201880222
20
-53.2487820485
30
0.0000000000
10
24.0934805569
20
-53.2799573827
30
0.0000000000
10
24.3040608731
20
-53.3532739499
30
0.0000000000
10
24.6628368331
20
-53.4001262605
30
0.0000000000
10
24.9681726561
20
-53.3507548354
30
0.0000000000
10
25.1222488602
20
-53.2957699312
30
0.0000000000
10
25.1476905039
20
-53.2858088060
30
0.0000000000
11
24.0201880222
21
-53.2487820485
31
0.0000000000
11
24.2459086970
21
-53.3268108060
31
0.0000000000
11
24.6693033559
21
-53.3796603321
31
0.0000000000
11
25.0705139059
21
-53.3133446915
31
0.0000000000
11
25.1476905039
21
-53.2858088060
31
0.0000000000
0
SPLINE
5
392
100
AcDbEntity
8
0
100
AcDbSpline
62
7
6
CONTINUOUS
70
0
71
3
72
11
73
7
74
5
42
0.0000001000
43
0.0000001000
44
0.0000000001
12
54.7029455071
22
-32.1284150845
32
0.0000000000
13
58.3555668155
23
-24.8857394082
33
0.0000000000
40
0.0000000000
40
0.0000000000
40
0.0000000000
40
0.0000000000
40
0.2412639008
40
0.4911441364
40
0.7470591997
40
1.0000000000
40
1.0000000000
40
1.0000000000
40
1.0000000000
10
-33.0475342253
20
-24.7145585030
30
0.0000000000
10
-28.6482522196
20
-27.2983674194
30
0.0000000000
10
-19.5980703646
20
-32.3988885822
30
0.0000000000
10
-5.5798849949
20
-39.6891272780
30
0.0000000000
10
8.8881562325
20
-46.6311855112
30
0.0000000000
10
18.7275493617
20
-50.9919050753
30
0.0000000000
10
23.6477172860
20
-53.0901113560
30
0.0000000000
11
-33.0475342253
21
-24.7145585030
31
0.0000000000
11
-19.7168116929
21
-32.2351704101
31
0.0000000000
11
-5.6555823597
21
-39.5550454343
31
0.0000000000
11
8.9793255930
21
-46.5837690357
31
0.0000000000
11
23.6477172860
21
-53.0901113560
31
0.0000000000
0
SPLINE
5
393
100
AcDbEntity
8
0
100
AcDbSpline
62
7
6
CONTINUOUS
70
0
71
3
72
8
73
4
74
2
42
0.0000001000
43
0.0000001000
44
0.0000000001
12
0.3721252699
22
-0.1586928720
32
0.0000000000
13
0.3722365149
23
-0.1584283456
33
0.0000000000
40
0.0000000000
40
0.0000000000
40
0.0000000000
40
0.0000000000
40
1.0000000000
40
1.0000000000
40
1.0000000000
40
1.0000000000
10
23.6477172860
20
-53.0901113560
30
0.0000000000
10
23.7717590427
20
-53.1430089800
30
0.0000000000
10
23.8958193757
20
-53.1958624883
30
0.0000000000
10
24.0198982140
20
-53.2486719368
30
0.0000000000
11
23.6477172860
21
-53.0901113560
31
0.0000000000
11
24.0198982140
21
-53.2486719368
31
0.0000000000
0
SPLINE
5
394
100
AcDbEntity
8
0
100
AcDbSpline
62
7
6
CONTINUOUS
70
0
71
3
72
8
73
4
74
2
42
0.0000001000
43
0.0000001000
44
0.0000000001
12
-0.0000684011
22
-0.3227831199
32
0.0000000000
13
0.0472211937
23
-0.3201771029
33
0.0000000000
40
0.0000000000
40
0.0000000000
40
0.0000000000
40
0.0000000000
40
1.0000000000
40
1.0000000000
40
1.0000000000
40
1.0000000000
10
-34.1405080210
20
-22.6952221585
30
0.0000000000
10
-34.1405308214
20
-22.8028165318
30
0.0000000000
10
-34.1320992549
20
-22.9106193466
30
0.0000000000
10
-34.1163588570
20
-23.0173450475
30
0.0000000000
11
-34.1405080210
21
-22.6952221585
31
0.0000000000
11
-34.1163588570
21
-23.0173450475
31
0.0000000000
0
SPLINE
5
395
100
AcDbEntity
8
0
100
AcDbSpline
62
7
6
CONTINUOUS
70
0
71
3
72
8
73
4
74
2
42
0.0000001000
43
0.0000001000
44
0.0000000001
12
0.0177384209
22
-0.1202730334
32
0.0000000000
13
0.0237443259
23
-0.1191566574
33
0.0000000000
40
0.0000000000
40
0.0000000000
40
0.0000000000
40
0.0000000000
40
1.0000000000
40
1.0000000000
40
1.0000000000
40
1.0000000000
10
-34.1163588570
20
-23.0173450475
30
0.0000000000
10
-34.1104460500
20
-23.0574360587
30
0.0000000000
10
-34.1035018981
20
-23.0973750789
30
0.0000000000
10
-34.0955871228
20
-23.1370939647
30
0.0000000000
11
-34.1163588570
21
-23.0173450475
31
0.0000000000
11
-34.0955871228
21
-23.1370939647
31
0.0000000000
0
SPLINE
5
396
100
AcDbEntity
8
0
100
AcDbSpline
62
7
6
CONTINUOUS
70
0
71
3
72
10
73
6
74
4
42
0.0000001000
43
0.0000001000
44
0.0000000001
12
0.2502991630
22
-1.2560816304
32
0.0000000000
13
0.8217565397
23
-0.9810976468
33
0.0000000000
40
0.0000000000
40
0.0000000000
40
0.0000000000
40
0.0000000000
40
0.4268884698
40
0.8561645506
40
1.0000000000
40
1.0000000000
40
1.0000000000
40
1.0000000000
10
-34.0955871228
20
-23.1370939647
30
0.0000000000
10
-34.0599705139
20
-23.3158295531
30
0.0000000000
10
-33.9491176440
20
-23.6653599700
30
0.0000000000
10
-33.7401939983
20
-24.0397222980
30
0.0000000000
10
-33.5907817544
20
-24.2335134894
30
0.0000000000
10
-33.5513825141
20
-24.2805523630
30
0.0000000000
11
-34.0955871228
21
-23.1370939647
31
0.0000000000
11
-33.9325164580
21
-23.6571719593
31
0.0000000000
11
-33.6639094014
21
-24.1349331947
31
0.0000000000
11
-33.5513825141
21
-24.2805523630
31
0.0000000000
0
SPLINE
5
397
100
AcDbEntity
8
0
100
AcDbSpline
62
7
6
CONTINUOUS
70
0
71
3
72
8
73
4
74
2
42
0.0000001000
43
0.0000001000
44
0.0000000001
12
0.2322579937
22
-0.2772935292
32
0.0000000000
13
0.2770145994
23
-0.2336877610
33
0.0000000000
40
0.0000000000
40
0.0000000000
40
0.0000000000
40
0.0000000000
40
1.0000000000
40
1.0000000000
40
1.0000000000
40
1.0000000000
10
-33.5513825141
20
-24.2805523630
30
0.0000000000
10
-33.4739631828
20
-24.3729835394
30
0.0000000000
10
-33.3892043923
20
-24.4592465948
30
0.0000000000
10
-33.2968661925
20
-24.5371425151
30
0.0000000000
11
-33.5513825141
21
-24.2805523630
31
0.0000000000
11
-33.2968661925
21
-24.5371425151
31
0.0000000000
0
SPLINE
5
398
100
AcDbEntity
8
0
100
AcDbSpline
62
7
6
CONTINUOUS
70
0
71
3
72
8
73
4
74
2
42
0.0000001000
43
0.0000001000
44
0.0000000001
12
0.2341492795
22
-0.1975268487
32
0.0000000000
13
0.2638640606
23
-0.1551051847
33
0.0000000000
40
0.0000000000
40
0.0000000000
40
0.0000000000
40
0.0000000000
40
1.0000000000
40
1.0000000000
40
1.0000000000
40
1.0000000000
10
-33.2968661925
20
-24.5371425151
30
0.0000000000
10
-33.2188164327
20
-24.6029847980
30
0.0000000000
10
-33.1353514579
20
-24.6628490643
30
0.0000000000
10
-33.0473967710
20
-24.7145507926
30
0.0000000000
11
-33.2968661925
21
-24.5371425151
31
0.0000000000
11
-33.0473967710
21
-24.7145507926
31
0.0000000000
0
SPLINE
5
399
100
AcDbEntity
8
0
100
AcDbSpline
62
7
6
CONTINUOUS
70
0
71
3
72
11
73
7
74
5
42
0.0000001000
43
0.0000001000
44
0.0000000001
12
-1.2654034920
22
-0.7883862823
32
0.0000000000
13
0.0000314496
23
-1.4880923710
33
0.0000000000
40
0.0000000000
40
0.0000000000
40
0.0000000000
40
0.0000000000
40
0.2255483276
40
0.5019126527
40
0.7975040289
40
1.0000000000
40
1.0000000000
40
1.0000000000
40
1.0000000000
10
-33.5053269468
20
48.3632062192
30
0.0000000000
10
-33.6004634940
20
48.3039331500
30
0.0000000000
10
-33.7937261480
20
48.1428108152
30
0.0000000000
10
-34.0138124748
20
47.8075785374
30
0.0000000000
10
-34.1224146025
20
47.4350481938
30
0.0000000000
10
-34.1405354421
20
47.1877408823
30
0.0000000000
10
-34.1405333193
20
47.0872966457
30
0.0000000000
11
-33.5053269468
21
48.3632062192
31
0.0000000000
11
-33.7631030253
21
48.1490553476
31
0.0000000000
11
-33.9903803725
21
47.8075585982
31
0.0000000000
11
-34.1172521170
21
47.3875498846
31
0.0000000000
11
-34.1405333193
21
47.0872966457
31
0.0000000000
0
SPLINE
5
39A
100
AcDbEntity
8
0
100
AcDbSpline
62
7
6
CONTINUOUS
70
0
71
3
72
10
73
6
74
4
42
0.0000001000
43
0.0000001000
44
0.0000000001
12
0.7447344653
22
0.4585602329
32
0.0000000000
13
0.7457998330
23
-0.4428542667
33
0.0000000000
40
0.0000000000
40
0.0000000000
40
0.0000000000
40
0.0000000000
40
0.2595848983
40
0.6055167578
40
1.0000000000
40
1.0000000000
40
1.0000000000
40
1.0000000000
10
-30.6585807137
20
50.1357149495
30
0.0000000000
10
-30.5941401069
20
50.1753933866
30
0.0000000000
10
-30.4257904037
20
50.2401182048
30
0.0000000000
10
-30.1287263135
20
50.2183464780
30
0.0000000000
10
-29.9306109508
20
50.1289048760
30
0.0000000000
10
-29.8325424388
20
50.0706720137
30
0.0000000000
11
-30.6585807137
21
50.1357149495
31
0.0000000000
11
-30.4476785676
21
50.2165702186
31
0.0000000000
11
-30.1479155943
21
50.2033982980
31
0.0000000000
11
-29.8325424388
21
50.0706720137
31
0.0000000000
0
SPLINE
5
39B
100
AcDbEntity
8
0
100
AcDbSpline
62
7
6
CONTINUOUS
70
0
71
3
72
14
73
10
74
8
42
0.0000001000
43
0.0000001000
44
0.0000000001
12
-0.0593342971
22
2.7876119800
32
0.0000000000
13
-2.5069050815
23
1.2205441500
33
0.0000000000
40
0.0000000000
40
0.0000000000
40
0.0000000000
40
0.0000000000
40
0.1361103219
40
0.2809855441
40
0.4319047957
40
0.5835542845
40
0.7315058939
40
0.8713770353
40
1.0000000000
40
1.0000000000
40
1.0000000000
40
1.0000000000
10
25.7377010223
20
17.5647337388
30
0.0000000000
10
25.7350090189
20
17.6912079934
30
0.0000000000
10
25.7043742260
20
17.9520846338
30
0.0000000000
10
25.5959118871
20
18.3399330512
30
0.0000000000
10
25.4284777974
20
18.7220620385
30
0.0000000000
10
25.2096198697
20
19.0805164618
30
0.0000000000
10
24.9499710947
20
19.3976645455
30
0.0000000000
10
24.6619333718
20
19.6584073808
30
0.0000000000
10
24.4493706290
20
19.7926175928
30
0.0000000000
10
24.3418887744
20
19.8449475952
30
0.0000000000
11
25.7377010223
21
17.5647337388
31
0.0000000000
11
25.6959608949
21
17.9419400715
31
0.0000000000
11
25.5886965578
21
18.3313856343
31
0.0000000000
11
25.4203509891
21
18.7170436119
31
0.0000000000
11
25.1997612885
21
19.0777792466
31
0.0000000000
11
24.9375280165
21
19.3962296581
31
0.0000000000
11
24.6468649319
21
19.6562506232
31
0.0000000000
11
24.3418887744
21
19.8449475952
31
0.0000000000
0
SPLINE
5
39C
100
AcDbEntity
8
0
100
AcDbSpline
62
7
6
CONTINUOUS
70
0
71
3
72
11
73
7
74
5
42
0.0000001000
43
0.0000001000
44
0.0000000001
12
1.1150542748
22
-0.4730230852
32
0.0000000000
13
1.1044709808
23
0.4972330717
33
0.0000000000
40
0.0000000000
40
0.0000000000
40
0.0000000000
40
0.0000000000
40
0.2392158065
40
0.5019551339
40
0.7636558502
40
1.0000000000
40
1.0000000000
40
1.0000000000
40
1.0000000000
10
24.5532561392
20
17.5559933725
30
0.0000000000
10
24.6421690084
20
17.5182751729
30
0.0000000000
10
24.8396138755
20
17.4644696274
30
0.0000000000
10
25.1484066597
20
17.4400226049
30
0.0000000000
10
25.4556554191
20
17.4687883134
30
0.0000000000
10
25.6507213965
20
17.5255431899
30
0.0000000000
10
25.7377331482
20
17.5647158991
30
0.0000000000
11
24.5532561392
21
17.5559933725
31
0.0000000000
11
24.8316159792
21
17.4755617398
31
0.0000000000
11
25.1487603955
21
17.4491802432
31
0.0000000000
11
25.4642189768
21
17.4802178951
31
0.0000000000
11
25.7377331482
21
17.5647158991
31
0.0000000000
0
SPLINE
5
39D
100
AcDbEntity
8
0
100
AcDbSpline
62
7
6
CONTINUOUS
70
0
71
3
72
11
73
7
74
5
42
0.0000001000
43
0.0000001000
44
0.0000000001
12
-58.7292596892
22
25.0326727101
32
0.0000000000
13
-55.0668940520
23
32.3016690917
33
0.0000000000
40
0.0000000000
40
0.0000000000
40
0.0000000000
40
0.0000000000
40
0.2588872457
40
0.5119962153
40
0.7590987106
40
1.0000000000
40
1.0000000000
40
1.0000000000
40
1.0000000000
10
23.7887341112
20
18.7421450210
30
0.0000000000
10
18.7206486826
20
20.9023582515
30
0.0000000000
10
8.7581586335
20
25.3185589299
30
0.0000000000
10
-5.8070165461
20
32.3107342579
30
0.0000000000
10
-19.8032082851
20
39.5856258578
30
0.0000000000
10
-28.8549649177
20
44.6811042542
30
0.0000000000
10
-33.2768601773
20
47.2749421652
30
0.0000000000
11
23.7887341112
21
18.7421450210
31
0.0000000000
11
8.6811565477
21
25.4450697691
31
0.0000000000
11
-5.8835763182
21
32.4435481721
31
0.0000000000
11
-19.8781749765
21
39.7247362042
31
0.0000000000
11
-33.2768601773
21
47.2749421652
31
0.0000000000
0
SPLINE
5
39E
100
AcDbEntity
8
0
100
AcDbSpline
62
7
6
CONTINUOUS
70
0
71
3
72
11
73
7
74
5
42
0.0000001000
43
0.0000001000
44
0.0000000001
12
-58.6304641146
22
24.9910445729
32
0.0000000000
13
-54.9746893746
23
32.2469713198
33
0.0000000000
40
0.0000000000
40
0.0000000000
40
0.0000000000
40
0.0000000000
40
0.2588866161
40
0.5119951311
40
0.7590977090
40
1.0000000000
40
1.0000000000
40
1.0000000000
40
1.0000000000
10
24.3418875407
20
19.8449784909
30
0.0000000000
10
19.2823400563
20
22.0015941448
30
0.0000000000
10
9.3366228891
20
26.4104186397
30
0.0000000000
10
-5.2040605735
20
33.3908706498
30
0.0000000000
10
-19.1767738688
20
40.6535259286
30
0.0000000000
10
-28.2133775578
20
45.7404093856
30
0.0000000000
10
-32.6278870964
20
48.3298658082
30
0.0000000000
11
24.3418875407
21
19.8449784909
31
0.0000000000
11
9.2597503693
21
26.5367080709
31
0.0000000000
11
-5.2804860579
21
33.5234474379
31
0.0000000000
11
-19.2516023186
21
40.7923850077
31
0.0000000000
11
-32.6278870964
21
48.3298658082
31
0.0000000000
0
SPLINE
5
39F
100
AcDbEntity
8
0
100
AcDbSpline
62
7
6
CONTINUOUS
70
0
71
3
72
11
73
7
74
5
42
0.0000001000
43
0.0000001000
44
0.0000000001
12
0.0003086521
22
1.2740133364
32
0.0000000000
13
1.0646804128
23
0.6996897135
33
0.0000000000
40
0.0000000000
40
0.0000000000
40
0.0000000000
40
0.0000000000
40
0.2479487867
40
0.5138968206
40
0.7723375955
40
1.0000000000
40
1.0000000000
40
1.0000000000
40
1.0000000000
10
23.7887342358
20
18.7421450941
30
0.0000000000
10
23.7887597458
20
18.8474417811
30
0.0000000000
10
23.8209085820
20
19.0659515076
30
0.0000000000
10
23.9373967304
20
19.3748844678
30
0.0000000000
10
24.1097836344
20
19.6462713377
30
0.0000000000
10
24.2610916398
20
19.7918808100
30
0.0000000000
10
24.3418875407
20
19.8449784909
30
0.0000000000
11
23.7887342358
21
18.7421450941
31
0.0000000000
11
23.8303420824
21
19.0552829609
31
0.0000000000
11
23.9491030050
21
19.3726089003
31
0.0000000000
11
24.1281118801
21
19.6489528834
31
0.0000000000
11
24.3418875407
21
19.8449784909
31
0.0000000000
0
SPLINE
5
3A0
100
AcDbEntity
8
0
100
AcDbSpline
62
7
6
CONTINUOUS
70
0
71
3
72
14
73
10
74
8
42
0.0000001000
43
0.0000001000
44
0.0000000001
12
-0.8940622593
22
0.5242518758
32
0.0000000000
13
0.0000281929
23
-1.0364300999
33
0.0000000000
40
0.0000000000
40
0.0000000000
40
0.0000000000
40
0.0000000000
40
0.1524237612
40
0.2865344972
40
0.4092717324
40
0.5327397310
40
0.6689544487
40
0.8240743267
40
1.0000000000
40
1.0000000000
40
1.0000000000
40
1.0000000000
10
-33.2768601773
20
47.2749421652
30
0.0000000000
10
-33.3222856214
20
47.3015783128
30
0.0000000000
10
-33.4132458082
20
47.3434202707
30
0.0000000000
10
-33.5556369700
20
47.3643675058
30
0.0000000000
10
-33.6871423871
20
47.3336383427
30
0.0000000000
10
-33.7951720646
20
47.2515774191
30
0.0000000000
10
-33.8722119076
20
47.1278864138
30
0.0000000000
10
-33.9178841116
20
46.9715716023
30
0.0000000000
10
-33.9268132662
20
46.8568054696
30
0.0000000000
10
-33.9268116129
20
46.7960272485
30
0.0000000000
11
-33.2768601773
21
47.2749421652
31
0.0000000000
11
-33.4215293838
21
47.3384041116
31
0.0000000000
11
-33.5594445228
21
47.3557077144
31
0.0000000000
11
-33.6830172294
21
47.3255116028
31
0.0000000000
11
-33.7858908910
21
47.2494044797
31
0.0000000000
11
-33.8630973509
21
47.1312092288
31
0.0000000000
11
-33.9107063585
21
46.9776492466
31
0.0000000000
11
-33.9268116129
21
46.7960272485
31
0.0000000000
0
SPLINE
5
3A1
100
AcDbEntity
8
0
100
AcDbSpline
62
7
6
CONTINUOUS
70
0
71
3
72
11
73
7
74
5
42
0.0000001000
43
0.0000001000
44
0.0000000001
12
-0.8143052677
22
0.4182293264
32
0.0000000000
13
-0.7805600278
23
-0.4877960466
33
0.0000000000
40
0.0000000000
40
0.0000000000
40
0.0000000000
40
0.0000000000
40
0.3416188034
40
0.6437363899
40
0.9207120220
40
1.0000000000
40
1.0000000000
40
1.0000000000
40
1.0000000000
10
-32.6278856276
20
48.3298347974
30
0.0000000000
10
-32.7206129580
20
48.3774597981
30
0.0000000000
10
-32.9053730144
20
48.4502970069
30
0.0000000000
10
-33.1892667500
20
48.4793359227
30
0.0000000000
10
-33.3887551375
20
48.4288954663
30
0.0000000000
10
-33.4845642777
20
48.3760706210
30
0.0000000000
10
-33.5051939532
20
48.3631785003
30
0.0000000000
11
-32.6278856276
21
48.3298347974
31
0.0000000000
11
-32.9205771819
21
48.4399717145
31
0.0000000000
11
-33.1961768775
21
48.4630822034
31
0.0000000000
11
-33.4413176101
21
48.3983188734
31
0.0000000000
11
-33.5051939532
21
48.3631785003
31
0.0000000000
0
SPLINE
5
3A2
100
AcDbEntity
8
0
100
AcDbSpline
62
7
6
CONTINUOUS
70
0
71
3
72
11
73
7
74
5
42
0.0000001000
43
0.0000001000
44
0.0000000001
12
-0.0002384348
22
1.2927641498
32
0.0000000000
13
1.1628257620
23
0.5648676403
33
0.0000000000
40
0.0000000000
40
0.0000000000
40
0.0000000000
40
0.0000000000
40
0.2424193239
40
0.5032317328
40
0.7622750761
40
1.0000000000
40
1.0000000000
40
1.0000000000
40
1.0000000000
10
-33.2768600937
20
47.2749422008
30
0.0000000000
10
-33.2768793607
20
47.3794058712
30
0.0000000000
10
-33.2392526399
20
47.5967508674
30
0.0000000000
10
-33.1008267573
20
47.8980263995
30
0.0000000000
10
-32.8958161846
20
48.1560475313
30
0.0000000000
10
-32.7200298495
20
48.2850737585
30
0.0000000000
10
-32.6278856276
20
48.3298347974
30
0.0000000000
11
-33.2768600937
21
47.2749422008
31
0.0000000000
11
-33.2281528652
21
47.5845250413
31
0.0000000000
11
-33.0888576970
21
47.8915751166
31
0.0000000000
11
-32.8788020708
21
48.1523864593
31
0.0000000000
11
-32.6278856276
21
48.3298347974
31
0.0000000000
0
SPLINE
5
3A3
100
AcDbEntity
8
0
100
AcDbSpline
62
7
6
CONTINUOUS
70
0
71
3
72
9
73
5
74
3
42
0.0000001000
43
0.0000001000
44
0.0000000001
12
-0.3215205013
22
0.1894787656
32
0.0000000000
13
-0.0022581912
23
0.3725029480
33
0.0000000000
40
0.0000000000
40
0.0000000000
40
0.0000000000
40
0.0000000000
40
0.5699913274
40
1.0000000000
40
1.0000000000
40
1.0000000000
40
1.0000000000
10
-33.9268116129
20
46.7960272485
30
0.0000000000
10
-33.9878995787
20
46.8320276663
30
0.0000000000
10
-34.0905158249
20
46.9088136104
30
0.0000000000
10
-34.1401836299
20
47.0337639897
30
0.0000000000
10
-34.1405073105
20
47.0871571558
30
0.0000000000
11
-33.9268116129
21
46.7960272485
31
0.0000000000
11
-34.0876778944
21
46.9352104595
31
0.0000000000
11
-34.1405073105
21
47.0871571558
31
0.0000000000
0
SPLINE
5
3A4
100
AcDbEntity
8
0
100
AcDbSpline
62
7
6
CONTINUOUS
70
0
71
3
72
14
73
10
74
8
42
0.0000001000
43
0.0000001000
44
0.0000000001
12
-0.0000401749
22
-1.4558941860
32
0.0000000000
13
1.2552633564
23
-0.7375240935
33
0.0000000000
40
0.0000000000
40
0.0000000000
40
0.0000000000
40
0.0000000000
40
0.1382304036
40
0.2859043232
40
0.4390283881
40
0.5918093096
40
0.7392765422
40
0.8766332903
40
1.0000000000
40
1.0000000000
40
1.0000000000
40
1.0000000000
10
-33.9268116129
20
-22.9868821099
30
0.0000000000
10
-33.9268134640
20
-23.0539650569
30
0.0000000000
10
-33.9148079551
20
-23.1928481743
30
0.0000000000
10
-33.8668237407
20
-23.4010208289
30
0.0000000000
10
-33.7902089029
20
-23.6080160901
30
0.0000000000
10
-33.6884307796
20
-23.8037334717
30
0.0000000000
10
-33.5664344943
20
-23.9783956672
30
0.0000000000
10
-33.4303372968
20
-24.1233216641
30
0.0000000000
10
-33.3284794140
20
-24.1999904144
30
0.0000000000
10
-33.2768601773
20
-24.2303190546
30
0.0000000000
11
-33.9268116129
21
-22.9868821099
31
0.0000000000
11
-33.9107063509
21
-23.1874854911
31
0.0000000000
11
-33.8630973557
21
-23.3971455780
31
0.0000000000
11
-33.7858908898
21
-23.6062819751
31
0.0000000000
11
-33.6830172294
21
-23.8034960345
31
0.0000000000
11
-33.5594445226
21
-23.9790649762
31
0.0000000000
11
-33.4215293841
21
-24.1238757893
31
0.0000000000
11
-33.2768601773
21
-24.2303190546
31
0.0000000000
0
SPLINE
5
3A5
100
AcDbEntity
8
0
100
AcDbSpline
62
7
6
CONTINUOUS
70
0
71
3
72
9
73
5
74
3
42
0.0000001000
43
0.0000001000
44
0.0000000001
12
-0.3215206569
22
0.1894781899
32
0.0000000000
13
-0.0022568554
23
0.3725025508
33
0.0000000000
40
0.0000000000
40
0.0000000000
40
0.0000000000
40
0.0000000000
40
0.5699804408
40
1.0000000000
40
1.0000000000
40
1.0000000000
40
1.0000000000
10
-33.9268116129
20
-22.9868821099
30
0.0000000000
10
-33.9878984414
20
-22.9508824892
30
0.0000000000
10
-34.0905145079
20
-22.8740970174
30
0.0000000000
10
-34.1401838514
20
-22.7491471516
30
0.0000000000
10
-34.1405073487
20
-22.6957526907
30
0.0000000000
11
-33.9268116129
21
-22.9868821099
31
0.0000000000
11
-34.0876755333
21
-22.8477025174
31
0.0000000000
11
-34.1405073487
21
-22.6957526907
31
0.0000000000
0
SPLINE
5
3A6
100
AcDbEntity
8
0
100
AcDbSpline
62
7
6
CONTINUOUS
70
0
71
3
72
8
73
4
74
2
42
0.0000001000
43
0.0000001000
44
0.0000000001
12
0.3804304355
22
-0.2234360900
32
0.0000000000
13
0.3806614806
23
-0.2230459709
33
0.0000000000
40
0.0000000000
40
0.0000000000
40
0.0000000000
40
0.0000000000
40
1.0000000000
40
1.0000000000
40
1.0000000000
40
1.0000000000
10
-33.2768601773
20
-24.2303190546
30
0.0000000000
10
-33.1500500321
20
-24.3047977513
30
0.0000000000
10
-33.0232013029
20
-24.3792113794
30
0.0000000000
10
-32.8963141427
20
-24.4535600364
30
0.0000000000
11
-33.2768601773
21
-24.2303190546
31
0.0000000000
11
-32.8963141427
21
-24.4535600364
31
0.0000000000
0
SPLINE
5
3A7
100
AcDbEntity
8
0
100
AcDbSpline
62
7
6
CONTINUOUS
70
0
71
3
72
11
73
7
74
5
42
0.0000001000
43
0.0000001000
44
0.0000000001
12
54.7025904469
22
-32.0526058414
32
0.0000000000
13
58.3371861111
23
-24.8290408343
33
0.0000000000
40
0.0000000000
40
0.0000000000
40
0.0000000000
40
0.0000000000
40
0.2356718682
40
0.4845084108
40
0.7393598816
40
1.0000000000
40
1.0000000000
40
1.0000000000
40
1.0000000000
10
-32.8963141427
20
-24.4535600364
30
0.0000000000
10
-28.5990269149
20
-26.9715258689
30
0.0000000000
10
-19.6737844370
20
-31.9949084114
30
0.0000000000
10
-5.8079450738
20
-39.2043437634
30
0.0000000000
10
8.7573340646
20
-46.1942114636
30
0.0000000000
10
18.7203970793
20
-50.6059681512
30
0.0000000000
10
23.7887341112
20
-52.7631161988
30
0.0000000000
11
-32.8963141427
21
-24.4535600364
31
0.0000000000
11
-19.8781655009
21
-31.7876781997
31
0.0000000000
11
-5.8835642520
21
-39.0712200506
31
0.0000000000
11
8.6811668141
21
-46.0673442440
31
0.0000000000
11
23.7887341112
21
-52.7631161988
31
0.0000000000
0
SPLINE
5
3A8
100
AcDbEntity
8
0
100
AcDbSpline
62
7
6
CONTINUOUS
70
0
71
3
72
10
73
6
74
4
42
0.0000001000
43
0.0000001000
44
0.0000000001
12
-0.0001147735
22
-0.5561265207
32
0.0000000000
13
0.4861811235
23
-0.2808854100
33
0.0000000000
40
0.0000000000
40
0.0000000000
40
0.0000000000
40
0.0000000000
40
0.4897668193
40
0.9109303383
40
1.0000000000
40
1.0000000000
40
1.0000000000
40
1.0000000000
10
-33.2768600310
20
-24.2303189923
30
0.0000000000
10
-33.2768787684
20
-24.3211097647
30
0.0000000000
10
-33.2519807659
20
-24.4928128174
30
0.0000000000
10
-33.1412991128
20
-24.6530423535
30
0.0000000000
10
-33.0618145321
20
-24.7059518744
30
0.0000000000
10
-33.0473798694
20
-24.7142913306
30
0.0000000000
11
-33.2768600310
21
-24.2303189923
31
0.0000000000
11
-33.2281576765
21
-24.4983017585
31
0.0000000000
11
-33.0888640056
21
-24.6866004012
31
0.0000000000
11
-33.0473798694
21
-24.7142913306
31
0.0000000000
0
SPLINE
5
3A9
100
AcDbEntity
8
0
100
AcDbSpline
62
7
6
CONTINUOUS
70
0
71
3
72
14
73
10
74
8
42
0.0000001000
43
0.0000001000
44
0.0000000001
12
1.0534882537
22
-0.4481798486
32
0.0000000000
13
-0.0000368469
23
1.1448592385
33
0.0000000000
40
0.0000000000
40
0.0000000000
40
0.0000000000
40
0.0000000000
40
0.1549095425
40
0.2965845291
40
0.4285396460
40
0.5578898197
40
0.6929558932
40
0.8392452908
40
1.0000000000
40
1.0000000000
40
1.0000000000
40
1.0000000000
10
23.7887341112
20
-52.7631161988
30
0.0000000000
10
23.8431325723
20
-52.7862586439
30
0.0000000000
10
23.9522972664
20
-52.8203234049
30
0.0000000000
10
24.1178209205
20
-52.8277905503
30
0.0000000000
10
24.2689592909
20
-52.7864912057
30
0.0000000000
10
24.3949574125
20
-52.6973524505
30
0.0000000000
10
24.4871724986
20
-52.5673854643
30
0.0000000000
10
24.5422688327
20
-52.4059646854
30
0.0000000000
10
24.5532581136
20
-52.2882631573
30
0.0000000000
10
24.5532561392
20
-52.2269159859
30
0.0000000000
11
23.7887341112
21
-52.7631161988
31
0.0000000000
11
23.9586393245
21
-52.8139601419
31
0.0000000000
11
24.1207537383
21
-52.8191641072
31
0.0000000000
11
24.2661265689
21
-52.7780679336
31
0.0000000000
11
24.3872335046
21
-52.6928441734
31
0.0000000000
11
24.4781746516
21
-52.5677815790
31
0.0000000000
11
24.5342747582
21
-52.4099760473
31
0.0000000000
11
24.5532561392
21
-52.2269159859
31
0.0000000000
0
SPLINE
5
3AA
100
AcDbEntity
8
0
100
AcDbSpline
62
7
6
CONTINUOUS
70
0
71
3
72
10
73
6
74
4
42
0.0000001000
43
0.0000001000
44
0.0000000001
12
0.0001478115
22
-0.5635490098
32
0.0000000000
13
0.5297716175
23
-0.2220590660
33
0.0000000000
40
0.0000000000
40
0.0000000000
40
0.0000000000
40
0.0000000000
40
0.4749849547
40
0.8547215544
40
1.0000000000
40
1.0000000000
40
1.0000000000
40
1.0000000000
10
23.7887341824
20
-52.7631161570
30
0.0000000000
10
23.7887575852
20
-52.8523419240
30
0.0000000000
10
23.8077976799
20
-53.0141850850
30
0.0000000000
10
23.9074614714
20
-53.1858019044
30
0.0000000000
10
23.9947297010
20
-53.2367586449
30
0.0000000000
10
24.0203845000
20
-53.2475121102
30
0.0000000000
11
23.7887341824
21
-52.7631161570
31
0.0000000000
11
23.8303465067
21
-53.0275392211
31
0.0000000000
11
23.9491088132
21
-53.2055605591
31
0.0000000000
11
24.0203845000
21
-53.2475121102
31
0.0000000000
0
SPLINE
5
3AB
100
AcDbEntity
8
0
100
AcDbSpline
62
7
6
CONTINUOUS
70
0
71
3
72
11
73
7
74
5
42
0.0000001000
43
0.0000001000
44
0.0000000001
12
1.1150537613
22
-0.4730248311
32
0.0000000000
13
1.1044704226
23
0.4972348207
33
0.0000000000
40
0.0000000000
40
0.0000000000
40
0.0000000000
40
0.0000000000
40
0.2392213313
40
0.5019625464
40
0.7636607943
40
1.0000000000
40
1.0000000000
40
1.0000000000
40
1.0000000000
10
24.5532561392
20
-52.2269159859
30
0.0000000000
10
24.6421710209
20
-52.2646351959
30
0.0000000000
10
24.8396190248
20
-52.3184412133
30
0.0000000000
10
25.1484139624
20
-52.3428871675
30
0.0000000000
10
25.4556604256
20
-52.3141202498
30
0.0000000000
10
25.6507232611
20
-52.2573654877
30
0.0000000000
10
25.7377331485
20
-52.2181934602
30
0.0000000000
11
24.5532561392
21
-52.2269159859
31
0.0000000000
11
24.8316225610
21
-52.3073491268
31
0.0000000000
11
25.1487694211
21
-52.3337294908
31
0.0000000000
11
25.4642249335
21
-52.3026906236
31
0.0000000000
11
25.7377331485
21
-52.2181934602
31
0.0000000000
0
SPLINE
5
3AC
100
AcDbEntity
8
0
100
AcDbSpline
62
7
6
CONTINUOUS
70
0
71
3
72
8
73
4
74
2
42
0.0000001000
43
0.0000001000
44
0.0000000001
12
-0.0788508558
22
-0.0379772383
32
0.0000000000
13
-0.0788508521
23
-0.0379772460
33
0.0000000000
40
0.0000000000
40
0.0000000000
40
0.0000000000
40
0.0000000000
40
1.0000000000
40
1.0000000000
40
1.0000000000
40
1.0000000000
10
-22.7080887611
20
27.1787555766
30
0.0000000000
10
-22.7343723797
20
27.1660964971
30
0.0000000000
10
-22.7606559978
20
27.1534374167
30
0.0000000000
10
-22.7869396151
20
27.1407783347
30
0.0000000000
11
-22.7080887611
21
27.1787555766
31
0.0000000000
11
-22.7869396151
21
27.1407783347
31
0.0000000000
0
SPLINE
5
3AD
100
AcDbEntity
8
0
100
AcDbSpline
62
7
6
CONTINUOUS
70
0
71
3
72
8
73
4
74
2
42
0.0000001000
43
0.0000001000
44
0.0000000001
12
-0.0369629142
22
-0.0185207632
32
0.0000000000
13
-0.0369629151
23
-0.0185207613
33
0.0000000000
40
0.0000000000
40
0.0000000000
40
0.0000000000
40
0.0000000000
40
1.0000000000
40
1.0000000000
40
1.0000000000
40
1.0000000000
10
-22.7499767005
20
-15.8525880410
30
0.0000000000
10
-22.7622976719
20
-15.8587616287
30
0.0000000000
10
-22.7746186434
20
-15.8649352162
30
0.0000000000
10
-22.7869396151
20
-15.8711088033
30
0.0000000000
11
-22.7499767005
21
-15.8525880410
31
0.0000000000
11
-22.7869396151
21
-15.8711088033
31
0.0000000000
0
SPLINE
5
3AE
100
AcDbEntity
8
0
100
AcDbSpline
62
7
6
CONTINUOUS
70
0
71
3
72
8
73
4
74
2
42
0.0000001000
43
0.0000001000
44
0.0000000001
12
0.0828781365
22
-0.0461670847
32
0.0000000000
13
0.0790572160
23
-0.0527102106
33
0.0000000000
40
0.0000000000
40
0.0000000000
40
0.0000000000
40
0.0000000000
40
1.0000000000
40
1.0000000000
40
1.0000000000
40
1.0000000000
10
11.2060352212
20
11.0728855386
30
0.0000000000
10
11.2336612667
20
11.0574965103
30
0.0000000000
10
11.2606590930
20
11.0409430352
30
0.0000000000
10
11.2870114984
20
11.0233729650
30
0.0000000000
11
11.2060352212
21
11.0728855386
31
0.0000000000
11
11.2870114984
21
11.0233729650
31
0.0000000000
0
SPLINE
5
3AF
100
AcDbEntity
8
0
100
AcDbSpline
62
7
6
CONTINUOUS
70
0
71
3
72
9
73
5
74
3
42
0.0000001000
43
0.0000001000
44
0.0000000001
12
0.2330184825
22
-0.1553615712
32
0.0000000000
13
0.1982590911
23
-0.1976780264
33
0.0000000000
40
0.0000000000
40
0.0000000000
40
0.0000000000
40
0.0000000000
40
0.6672580787
40
1.0000000000
40
1.0000000000
40
1.0000000000
40
1.0000000000
10
11.2870114984
20
11.0233729650
30
0.0000000000
10
11.3388393200
20
10.9888175438
30
0.0000000000
10
11.4127707434
20
10.9311373115
30
0.0000000000
10
11.4808011255
20
10.8671515487
30
0.0000000000
10
11.5027908292
20
10.8452262933
30
0.0000000000
11
11.2870114984
21
11.0233729650
31
0.0000000000
11
11.4348746587
21
10.9090349094
31
0.0000000000
11
11.5027908292
21
10.8452262933
31
0.0000000000
0
SPLINE
5
3B0
100
AcDbEntity
8
0
100
AcDbSpline
62
7
6
CONTINUOUS
70
0
71
3
72
11
73
7
74
5
42
0.0000001000
43
0.0000001000
44
0.0000000001
12
0.7269639974
22
-0.7248333859
32
0.0000000000
13
0.2120191464
23
-1.0054978501
33
0.0000000000
40
0.0000000000
40
0.0000000000
40
0.0000000000
40
0.0000000000
40
0.1808880822
40
0.4465623051
40
0.7163659339
40
1.0000000000
40
1.0000000000
40
1.0000000000
40
1.0000000000
10
11.5027908292
20
10.8452262933
30
0.0000000000
10
11.5466238703
20
10.8015217196
30
0.0000000000
10
11.6484902554
20
10.6874032209
30
0.0000000000
10
11.7872760967
20
10.4846142216
30
0.0000000000
10
11.9105988232
20
10.2321549870
30
0.0000000000
10
11.9666163980
20
10.0506636051
30
0.0000000000
10
11.9866616822
20
9.9555991238
30
0.0000000000
11
11.5027908292
21
10.8452262933
31
0.0000000000
11
11.6266306609
21
10.7070529522
31
0.0000000000
11
11.7807844969
21
10.4824706242
31
0.0000000000
11
11.9020269526
21
10.2338234076
31
0.0000000000
11
11.9866616822
21
9.9555991238
31
0.0000000000
0
SPLINE
5
3B1
100
AcDbEntity
8
0
100
AcDbSpline
62
7
6
CONTINUOUS
70
0
71
3
72
8
73
4
74
2
42
0.0000001000
43
0.0000001000
44
0.0000000001
12
0.0517892466
22
-0.2456097809
32
0.0000000000
13
0.0077255071
23
-0.2504613191
33
0.0000000000
40
0.0000000000
40
0.0000000000
40
0.0000000000
40
0.0000000000
40
1.0000000000
40
1.0000000000
40
1.0000000000
40
1.0000000000
10
11.9866616822
20
9.9555991238
30
0.0000000000
10
12.0039247644
20
9.8737291969
30
0.0000000000
10
12.0147624072
20
9.7903380618
30
0.0000000000
10
12.0173375763
20
9.7068509555
30
0.0000000000
11
11.9866616822
21
9.9555991238
31
0.0000000000
11
12.0173375763
21
9.7068509555
31
0.0000000000
0
SPLINE
5
3B2
100
AcDbEntity
8
0
100
AcDbSpline
62
7
6
CONTINUOUS
70
0
71
3
72
8
73
4
74
2
42
0.0000001000
43
0.0000001000
44
0.0000000001
12
0.0011880430
22
-0.0385164111
32
0.0000000000
13
-0.0000043884
23
-0.0385144791
33
0.0000000000
40
0.0000000000
40
0.0000000000
40
0.0000000000
40
0.0000000000
40
1.0000000000
40
1.0000000000
40
1.0000000000
40
1.0000000000
10
12.0173375763
20
9.7068509555
30
0.0000000000
10
12.0177335906
20
9.6940121518
30
0.0000000000
10
12.0179342068
20
9.6811710784
30
0.0000000000
10
12.0179327440
20
9.6683329187
30
0.0000000000
11
12.0173375763
21
9.7068509555
31
0.0000000000
11
12.0179327440
21
9.6683329187
31
0.0000000000
0
SPLINE
5
3B3
100
AcDbEntity
8
0
100
AcDbSpline
62
7
6
CONTINUOUS
70
0
71
3
72
9
73
5
74
3
42
0.0000001000
43
0.0000001000
44
0.0000000001
12
-0.0042643345
22
-0.0551895213
32
0.0000000000
13
0.0486990957
23
-0.0293117301
33
0.0000000000
40
0.0000000000
40
0.0000000000
40
0.0000000000
40
0.0000000000
40
0.6701975329
40
1.0000000000
40
1.0000000000
40
1.0000000000
40
1.0000000000
10
11.2060376621
20
11.0728868778
30
0.0000000000
10
11.2050850132
20
11.0605575841
30
0.0000000000
10
11.2055594097
20
11.0405218130
30
0.0000000000
10
11.2195595916
20
11.0261335708
30
0.0000000000
10
11.2249132856
20
11.0229112105
30
0.0000000000
11
11.2060376621
21
11.0728868778
31
0.0000000000
11
11.2117961978
21
11.0362384062
31
0.0000000000
11
11.2249132856
21
11.0229112105
31
0.0000000000
0
SPLINE
5
3B4
100
AcDbEntity
8
0
100
AcDbSpline
62
7
6
CONTINUOUS
70
0
71
3
72
9
73
5
74
3
42
0.0000001000
43
0.0000001000
44
0.0000000001
12
-0.0463725397
22
0.0210244669
32
0.0000000000
13
-0.0009277189
23
0.0529527442
33
0.0000000000
40
0.0000000000
40
0.0000000000
40
0.0000000000
40
0.0000000000
40
0.7109538194
40
1.0000000000
40
1.0000000000
40
1.0000000000
40
1.0000000000
10
12.0179327440
20
9.6683329187
30
0.0000000000
10
12.0069431659
20
9.6733153937
30
0.0000000000
10
11.9902619082
20
9.6825115259
30
0.0000000000
10
11.9859812831
20
9.7002846457
30
0.0000000000
10
11.9858918986
20
9.7053865752
30
0.0000000000
11
12.0179327440
21
9.6683329187
31
0.0000000000
11
11.9894919240
21
9.6907267284
31
0.0000000000
11
11.9858918986
21
9.7053865752
31
0.0000000000
0
SPLINE
5
3B5
100
AcDbEntity
8
0
100
AcDbSpline
62
7
6
CONTINUOUS
70
0
71
3
72
8
73
4
74
2
42
0.0000001000
43
0.0000001000
44
0.0000000001
12
0.0000886641
22
-0.2594824571
32
0.0000000000
13
-0.0653954333
23
-0.2521691637
33
0.0000000000
40
0.0000000000
40
0.0000000000
40
0.0000000000
40
0.0000000000
40
1.0000000000
40
1.0000000000
40
1.0000000000
40
1.0000000000
10
12.0179327440
20
-33.3435542193
30
0.0000000000
10
12.0179622987
20
-33.4300483716
30
0.0000000000
10
12.0087937522
20
-33.5171294023
30
0.0000000000
10
11.9869952744
20
-33.6011857902
30
0.0000000000
11
12.0179327440
21
-33.3435542193
31
0.0000000000
11
11.9869952744
21
-33.6011857902
31
0.0000000000
0
SPLINE
5
3B6
100
AcDbEntity
8
0
100
AcDbSpline
62
7
6
CONTINUOUS
70
0
71
3
72
8
73
4
74
2
42
0.0000001000
43
0.0000001000
44
0.0000000001
12
-0.0189451321
22
-0.0730536963
32
0.0000000000
13
-0.0255870308
23
-0.0709990377
33
0.0000000000
40
0.0000000000
40
0.0000000000
40
0.0000000000
40
0.0000000000
40
1.0000000000
40
1.0000000000
40
1.0000000000
40
1.0000000000
10
11.9869952744
20
-33.6011857902
30
0.0000000000
10
11.9806802304
20
-33.6255370223
30
0.0000000000
10
11.9733051972
20
-33.6496344060
30
0.0000000000
10
11.9647761869
20
-33.6733007519
30
0.0000000000
11
11.9869952744
21
-33.6011857902
31
0.0000000000
11
11.9647761869
21
-33.6733007519
31
0.0000000000
0
SPLINE
5
3B7
100
AcDbEntity
8
0
100
AcDbSpline
62
7
6
CONTINUOUS
70
0
71
3
72
10
73
6
74
4
42
0.0000001000
43
0.0000001000
44
0.0000000001
12
-0.1291076502
22
-0.3582486380
32
0.0000000000
13
-0.3197337364
23
-0.2080225940
33
0.0000000000
40
0.0000000000
40
0.0000000000
40
0.0000000000
40
0.0000000000
40
0.3628878773
40
0.8452581820
40
1.0000000000
40
1.0000000000
40
1.0000000000
40
1.0000000000
10
11.9647761869
20
-33.6733007519
30
0.0000000000
10
11.9491589866
20
-33.7166354478
30
0.0000000000
10
11.9037705122
20
-33.8142067679
30
0.0000000000
10
11.8215348641
20
-33.9133820912
30
0.0000000000
10
11.7562431613
20
-33.9615273027
30
0.0000000000
10
11.7397511014
20
-33.9722572341
30
0.0000000000
11
11.9647761869
21
-33.6733007519
31
0.0000000000
11
11.9057403710
21
-33.7978814704
31
0.0000000000
11
11.7871983798
21
-33.9372530258
31
0.0000000000
11
11.7397511014
21
-33.9722572341
31
0.0000000000
0
SPLINE
5
3B8
100
AcDbEntity
8
0
100
AcDbSpline
62
7
6
CONTINUOUS
70
0
71
3
72
10
73
6
74
4
42
0.0000001000
43
0.0000001000
44
0.0000000001
12
-0.4654238434
22
-0.3028103206
32
0.0000000000
13
-0.5205934606
23
0.1839642084
33
0.0000000000
40
0.0000000000
40
0.0000000000
40
0.0000000000
40
0.0000000000
40
0.2157062281
40
0.5764202201
40
1.0000000000
40
1.0000000000
40
1.0000000000
40
1.0000000000
10
11.7397511014
20
-33.9722572341
30
0.0000000000
10
11.7062861608
20
-33.9940299248
30
0.0000000000
10
11.6098836629
20
-34.0416097621
30
0.0000000000
10
11.4234325109
20
-34.0671025925
30
0.0000000000
10
11.2795395096
20
-34.0362767957
30
0.0000000000
10
11.2060352218
20
-34.0103022894
30
0.0000000000
11
11.7397511014
21
-33.9722572341
31
0.0000000000
11
11.6325847948
21
-34.0250350934
31
0.0000000000
11
11.4356487748
21
-34.0547501692
31
0.0000000000
11
11.2060352218
21
-34.0103022894
31
0.0000000000
0
SPLINE
5
3B9
100
AcDbEntity
8
0
100
AcDbSpline
62
7
6
CONTINUOUS
70
0
71
3
72
9
73
5
74
3
42
0.0000001000
43
0.0000001000
44
0.0000000001
12
-0.0463345649
22
0.0210072489
32
0.0000000000
13
-0.0009931856
23
0.0529116246
33
0.0000000000
40
0.0000000000
40
0.0000000000
40
0.0000000000
40
0.0000000000
40
0.7115875849
40
1.0000000000
40
1.0000000000
40
1.0000000000
40
1.0000000000
10
12.0179327440
20
-33.3435542193
30
0.0000000000
10
12.0069423769
20
-33.3385713868
30
0.0000000000
10
11.9902742862
20
-33.3293822340
30
0.0000000000
10
11.9859881969
20
-33.3116308115
30
0.0000000000
10
11.9858927146
20
-33.3065440217
30
0.0000000000
11
12.0179327440
21
-33.3435542193
31
0.0000000000
11
11.9894904758
21
-33.3211580484
31
0.0000000000
11
11.9858927146
21
-33.3065440217
31
0.0000000000
0
SPLINE
5
3BA
100
AcDbEntity
8
0
100
AcDbSpline
62
7
6
CONTINUOUS
70
0
71
3
72
9
73
5
74
3
42
0.0000001000
43
0.0000001000
44
0.0000000001
12
-1.3790582062
22
0.4870819078
32
0.0000000000
13
-1.3741779158
23
0.5006995536
33
0.0000000000
40
0.0000000000
40
0.0000000000
40
0.0000000000
40
0.0000000000
40
0.7078174775
40
1.0000000000
40
1.0000000000
40
1.0000000000
40
1.0000000000
10
11.2060352218
20
-34.0103022894
30
0.0000000000
10
10.8806613882
20
-33.8953805936
30
0.0000000000
10
10.4215427056
20
-33.7314092243
30
0.0000000000
10
9.9632424889
20
-33.5651707862
30
0.0000000000
10
9.8294055656
20
-33.5164055667
30
0.0000000000
11
11.2060352218
21
-34.0103022894
31
0.0000000000
11
10.2311269886
21
-33.6621211775
31
0.0000000000
11
9.8294055656
21
-33.5164055667
31
0.0000000000
0
SPLINE
5
3BB
100
AcDbEntity
8
0
100
AcDbSpline
62
7
6
CONTINUOUS
70
0
71
3
72
8
73
4
74
2
42
0.0000001000
43
0.0000001000
44
0.0000000001
12
-0.1059586493
22
0.0386074087
32
0.0000000000
13
-0.1059292076
23
0.0386881455
33
0.0000000000
40
0.0000000000
40
0.0000000000
40
0.0000000000
40
0.0000000000
40
1.0000000000
40
1.0000000000
40
1.0000000000
40
1.0000000000
10
9.8294055656
20
-33.5164055667
30
0.0000000000
10
9.7940860159
20
-33.5035364305
30
0.0000000000
10
9.7587713683
20
-33.4906538355
30
0.0000000000
10
9.7234616324
20
-33.4777577870
30
0.0000000000
11
9.8294055656
21
-33.5164055667
31
0.0000000000
11
9.7234616324
21
-33.4777577870
31
0.0000000000
0
SPLINE
5
3BC
100
AcDbEntity
8
0
100
AcDbSpline
62
7
6
CONTINUOUS
70
0
71
3
72
24
73
20
74
18
42
0.0000001000
43
0.0000001000
44
0.0000000001
12
-33.6834578303
22
12.3020887761
32
0.0000000000
13
-29.9123205425
23
19.7777843429
33
0.0000000000
40
0.0000000000
40
0.0000000000
40
0.0000000000
40
0.0000000000
40
0.0239123041
40
0.0717075109
40
0.1270894415
40
0.1888245500
40
0.2556783348
40
0.3264122841
40
0.3997819856
40
0.4745354831
40
0.5494148486
40
0.6231631606
40
0.6945148365
40
0.7621925099
40
0.8249076610
40
0.8813617783
40
0.9302477123
40
0.9702527025
40
1.0000000000
40
1.0000000000
40
1.0000000000
40
1.0000000000
10
9.7234616324
20
-33.4777577870
30
0.0000000000
10
9.4549786038
20
-33.3797006911
30
0.0000000000
10
8.6507111980
20
-33.0833174631
30
0.0000000000
10
7.2298756973
20
-32.5456685051
30
0.0000000000
10
5.3950133900
20
-31.8250811397
30
0.0000000000
10
3.3596324105
20
-30.9924073134
30
0.0000000000
10
1.1685857224
20
-30.0562921828
30
0.0000000000
10
-1.1337472967
20
-29.0275060153
30
0.0000000000
10
-3.5036456873
20
-27.9193814060
30
0.0000000000
10
-5.8982625303
20
-26.7480896354
30
0.0000000000
10
-8.2759018083
20
-25.5327342987
30
0.0000000000
10
-10.5961761283
20
-24.2953837634
30
0.0000000000
10
-12.8200026194
20
-23.0609126778
30
0.0000000000
10
-14.9094786344
20
-21.8568196752
30
0.0000000000
10
-16.8277899648
20
-20.7128923811
30
0.0000000000
10
-18.5390695605
20
-19.6607520930
30
0.0000000000
10
-20.0081621934
20
-18.7332683155
30
0.0000000000
10
-21.1996952539
20
-17.9642933559
30
0.0000000000
10
-21.8967021833
20
-17.5067436819
30
0.0000000000
10
-22.1933057497
20
-17.3106318034
30
0.0000000000
11
9.7234616324
21
-33.4777577870
31
0.0000000000
11
8.9188686420
21
-33.1812553614
31
0.0000000000
11
7.3158785964
21
-32.5746854980
31
0.0000000000
11
5.4673424361
21
-31.8487403366
31
0.0000000000
11
3.4183724146
21
-31.0105258404
31
0.0000000000
11
1.2137953690
21
-30.0686593359
31
0.0000000000
11
-1.1020227198
21
-29.0338851435
31
0.0000000000
11
-3.4853741348
21
-27.9195142580
31
0.0000000000
11
-5.8933929226
21
-26.7417165643
31
0.0000000000
11
-8.2843124423
21
-25.5196345289
31
0.0000000000
11
-10.6178461581
21
-24.2752742746
31
0.0000000000
11
-12.8549454675
21
-23.0334925255
31
0.0000000000
11
-14.9577041572
21
-21.8217966076
31
0.0000000000
11
-16.8893009794
21
-20.6699923031
31
0.0000000000
11
-18.6138593652
21
-19.6097221773
31
0.0000000000
11
-20.0962012612
21
-18.6738968266
31
0.0000000000
11
-21.3015516708
21
-17.8960176277
31
0.0000000000
11
-22.1933057497
21
-17.3106318034
31
0.0000000000
0
SPLINE
5
3BD
100
AcDbEntity
8
0
100
AcDbSpline
62
7
6
CONTINUOUS
70
0
71
3
72
8
73
4
74
2
42
0.0000001000
43
0.0000001000
44
0.0000000001
12
-0.2872917200
22
0.1014612669
32
0.0000000000
13
-0.2870821964
23
0.1020539683
33
0.0000000000
40
0.0000000000
40
0.0000000000
40
0.0000000000
40
0.0000000000
40
1.0000000000
40
1.0000000000
40
1.0000000000
40
1.0000000000
10
11.2666285585
20
-33.8843084515
30
0.0000000000
10
11.1708646518
20
-33.8504880292
30
0.0000000000
10
11.0751355579
20
-33.8165687686
30
0.0000000000
10
10.9794414924
20
-33.7825507791
30
0.0000000000
11
11.2666285585
21
-33.8843084515
31
0.0000000000
11
10.9794414924
21
-33.7825507791
31
0.0000000000
0
SPLINE
5
3BE
100
AcDbEntity
8
0
100
AcDbSpline
62
7
6
CONTINUOUS
70
0
71
3
72
9
73
5
74
3
42
0.0000001000
43
0.0000001000
44
0.0000000001
12
-1.0901850490
22
0.3875465350
32
0.0000000000
13
-1.0871193999
23
0.3960711177
33
0.0000000000
40
0.0000000000
40
0.0000000000
40
0.0000000000
40
0.0000000000
40
0.6308973169
40
1.0000000000
40
1.0000000000
40
1.0000000000
40
1.0000000000
10
10.9794414924
20
-33.7825507791
30
0.0000000000
10
10.7501765516
20
-33.7010500894
30
0.0000000000
10
10.3871002251
20
-33.5709696750
30
0.0000000000
10
10.0245364915
20
-33.4394693011
30
0.0000000000
10
9.8907835957
20
-33.3907389970
30
0.0000000000
11
10.9794414924
21
-33.7825507791
31
0.0000000000
11
10.2922528192
21
-33.5363501320
31
0.0000000000
11
9.8907835957
21
-33.3907389970
31
0.0000000000
0
SPLINE
5
3BF
100
AcDbEntity
8
0
100
AcDbSpline
62
7
6
CONTINUOUS
70
0
71
3
72
8
73
4
74
2
42
0.0000001000
43
0.0000001000
44
0.0000000001
12
-0.1186341883
22
0.0432220928
32
0.0000000000
13
-0.1185972511
23
0.0433233792
33
0.0000000000
40
0.0000000000
40
0.0000000000
40
0.0000000000
40
0.0000000000
40
1.0000000000
40
1.0000000000
40
1.0000000000
40
1.0000000000
10
9.8907835957
20
-33.3907389970
30
0.0000000000
10
9.8512388663
20
-33.3763316328
30
0.0000000000
10
9.8117002864
20
-33.3619073837
30
0.0000000000
10
9.7721678694
20
-33.3474662573
30
0.0000000000
11
9.8907835957
21
-33.3907389970
31
0.0000000000
11
9.7721678694
21
-33.3474662573
31
0.0000000000
0
SPLINE
5
3C0
100
AcDbEntity
8
0
100
AcDbSpline
62
7
6
CONTINUOUS
70
0
71
3
72
24
73
20
74
18
42
0.0000001000
43
0.0000001000
44
0.0000000001
12
-33.6510071323
22
12.2926571045
32
0.0000000000
13
-29.8836005887
23
19.7600873802
33
0.0000000000
40
0.0000000000
40
0.0000000000
40
0.0000000000
40
0.0000000000
40
0.0235440808
40
0.0713574768
40
0.1267604308
40
0.1885189141
40
0.2553979532
40
0.3261585750
40
0.3995558964
40
0.4743374933
40
0.5492449908
40
0.6230210198
40
0.6943995250
40
0.7621026608
40
0.8248414344
40
0.8813168470
40
0.9302212493
40
0.9702413744
40
1.0000000000
40
1.0000000000
40
1.0000000000
40
1.0000000000
10
9.7721678694
20
-33.3474662573
30
0.0000000000
10
9.5080738591
20
-33.2509931533
30
0.0000000000
10
8.7084904617
20
-32.9563193317
30
0.0000000000
10
7.2926522336
20
-32.4206020958
30
0.0000000000
10
5.4588034899
20
-31.7004596423
30
0.0000000000
10
3.4245508192
20
-30.8682917971
30
0.0000000000
10
1.2347233300
20
-29.9327361350
30
0.0000000000
10
-1.0663234187
20
-28.9045546132
30
0.0000000000
10
-3.4348921642
20
-27.7970706786
30
0.0000000000
10
-5.8281596337
20
-26.6264454492
30
0.0000000000
10
-8.2044533867
20
-25.4117712686
30
0.0000000000
10
-10.5234092384
20
-24.1751043054
30
0.0000000000
10
-12.7459669267
20
-22.9413062086
30
0.0000000000
10
-14.8342460383
20
-21.7378617861
30
0.0000000000
10
-16.7514544063
20
-20.5945440599
30
0.0000000000
10
-18.4617467892
20
-19.5429591136
30
0.0000000000
10
-19.9299894351
20
-18.6159609072
30
0.0000000000
10
-21.1208319839
20
-17.8473854700
30
0.0000000000
10
-21.8174343502
20
-17.3900721963
30
0.0000000000
10
-22.1138659775
20
-17.1940611821
30
0.0000000000
11
9.7721678694
21
-33.3474662573
31
0.0000000000
11
8.9807149402
21
-33.0557895379
31
0.0000000000
11
7.3786073977
21
-32.4495997031
31
0.0000000000
11
5.5310922217
21
-31.7241027019
31
0.0000000000
11
3.4832580327
21
-30.8863975404
31
0.0000000000
11
1.2799078361
21
-29.9450939863
31
0.0000000000
11
-1.0346164080
21
-28.9109279748
31
0.0000000000
11
-3.4166305327
21
-27.7972014194
31
0.0000000000
11
-5.8232920524
21
-26.6200741379
31
0.0000000000
11
-8.2128582114
21
-25.3986772054
31
0.0000000000
11
-10.5450658432
21
-24.1550044539
31
0.0000000000
11
-12.7808887224
21
-22.9138997236
31
0.0000000000
11
-14.8824427428
21
-21.7028565896
31
0.0000000000
11
-16.8129289210
21
-20.5516660940
31
0.0000000000
11
-18.5364924876
21
-19.4919555816
31
0.0000000000
11
-20.0179768264
21
-18.5566201186
31
0.0000000000
11
-21.2226282320
21
-17.7791453870
31
0.0000000000
11
-22.1138659775
21
-17.1940611821
31
0.0000000000
0
SPLINE
5
3C1
100
AcDbEntity
8
0
100
AcDbSpline
62
7
6
CONTINUOUS
70
0
71
3
72
10
73
6
74
4
42
0.0000001000
43
0.0000001000
44
0.0000000001
12
-0.0104585247
22
0.1451950261
32
0.0000000000
13
0.1272574670
23
0.0706860201
33
0.0000000000
40
0.0000000000
40
0.0000000000
40
0.0000000000
40
0.0000000000
40
0.3416811413
40
0.6930128448
40
1.0000000000
40
1.0000000000
40
1.0000000000
40
1.0000000000
10
11.2060352219
20
-34.0103022893
30
0.0000000000
10
11.2048440616
20
-33.9937654886
30
0.0000000000
10
11.2094828125
20
-33.9596004666
30
0.0000000000
10
11.2303139502
20
-33.9151824583
30
0.0000000000
10
11.2536064226
20
-33.8915416849
30
0.0000000000
10
11.2666285585
20
-33.8843084515
30
0.0000000000
11
11.2060352219
21
-34.0103022893
31
0.0000000000
11
11.2117998467
21
-33.9608985357
31
0.0000000000
11
11.2339659190
21
-33.9148078480
31
0.0000000000
11
11.2666285585
21
-33.8843084515
31
0.0000000000
0
SPLINE
5
3C2
100
AcDbEntity
8
0
100
AcDbSpline
62
7
6
CONTINUOUS
70
0
71
3
72
13
73
9
74
7
42
0.0000001000
43
0.0000001000
44
0.0000000001
12
-1.3977509248
22
0.9233402102
32
0.0000000000
13
0.0001972553
23
1.6751909600
33
0.0000000000
40
0.0000000000
40
0.0000000000
40
0.0000000000
40
0.0000000000
40
0.1620600515
40
0.3253047040
40
0.4868853538
40
0.6522633311
40
0.8268184901
40
1.0000000000
40
1.0000000000
40
1.0000000000
40
1.0000000000
10
-22.1933057497
20
-17.3106318034
30
0.0000000000
10
-22.2688122787
20
-17.2607529494
30
0.0000000000
10
-22.4079890086
20
-17.1414791657
30
0.0000000000
10
-22.5807432648
20
-16.9303267713
30
0.0000000000
10
-22.7223228883
20
-16.6950486133
30
0.0000000000
10
-22.8339448848
20
-16.4372980561
30
0.0000000000
10
-22.9103694094
20
-16.1601640777
30
0.0000000000
10
-22.9311216867
20
-15.9657367304
30
0.0000000000
10
-22.9311102997
20
-15.8690326971
30
0.0000000000
11
-22.1933057497
21
-17.3106318034
31
0.0000000000
11
-22.4015869354
21
-17.1365020483
31
0.0000000000
11
-22.5759192645
21
-16.9258082545
31
0.0000000000
11
-22.7159361111
21
-16.6941574318
31
0.0000000000
11
-22.8259784773
21
-16.4399101704
31
0.0000000000
11
-22.9027524602
21
-16.1577555134
31
0.0000000000
11
-22.9311102997
21
-15.8690326971
31
0.0000000000
0
SPLINE
5
3C3
100
AcDbEntity
8
0
100
AcDbSpline
62
7
6
CONTINUOUS
70
0
71
3
72
8
73
4
74
2
42
0.0000001000
43
0.0000001000
44
0.0000000001
12
-0.0682616570
22
0.0454123300
32
0.0000000000
13
-0.0645922802
23
0.0506843969
33
0.0000000000
40
0.0000000000
40
0.0000000000
40
0.0000000000
40
0.0000000000
40
1.0000000000
40
1.0000000000
40
1.0000000000
40
1.0000000000
10
-22.1138648081
20
-17.1940435745
30
0.0000000000
10
-22.1366186938
20
-17.1789061312
30
0.0000000000
10
-22.1587566179
20
-17.1628226906
30
0.0000000000
10
-22.1802873780
20
-17.1459278916
30
0.0000000000
11
-22.1138648081
21
-17.1940435745
31
0.0000000000
11
-22.1802873780
21
-17.1459278916
31
0.0000000000
0
SPLINE
5
3C4
100
AcDbEntity
8
0
100
AcDbSpline
62
7
6
CONTINUOUS
70
0
71
3
72
8
73
4
74
2
42
0.0000001000
43
0.0000001000
44
0.0000000001
12
-0.1312815635
22
0.1030142744
32
0.0000000000
13
-0.1164542957
23
0.1197329282
33
0.0000000000
40
0.0000000000
40
0.0000000000
40
0.0000000000
40
0.0000000000
40
1.0000000000
40
1.0000000000
40
1.0000000000
40
1.0000000000
10
-22.1802873780
20
-17.1459278916
30
0.0000000000
10
-22.2240478991
20
-17.1115898002
30
0.0000000000
10
-22.2653002773
20
-17.0739000563
30
0.0000000000
10
-22.3041183759
20
-17.0339890802
30
0.0000000000
11
-22.1802873780
21
-17.1459278916
31
0.0000000000
11
-22.3041183759
21
-17.0339890802
31
0.0000000000
0
SPLINE
5
3C5
100
AcDbEntity
8
0
100
AcDbSpline
62
7
6
CONTINUOUS
70
0
71
3
72
12
73
8
74
6
42
0.0000001000
43
0.0000001000
44
0.0000000001
12
-0.8990607075
22
0.9243726946
32
0.0000000000
13
0.0008376544
23
1.2864817897
33
0.0000000000
40
0.0000000000
40
0.0000000000
40
0.0000000000
40
0.0000000000
40
0.1945115274
40
0.3870236056
40
0.5840768089
40
0.7922176386
40
1.0000000000
40
1.0000000000
40
1.0000000000
40
1.0000000000
10
-22.3041183759
20
-17.0339890802
30
0.0000000000
10
-22.3624109330
20
-16.9740553653
30
0.0000000000
10
-22.4674743836
20
-16.8448374891
30
0.0000000000
10
-22.5964887887
20
-16.6292398496
30
0.0000000000
10
-22.6982012221
20
-16.3931457180
30
0.0000000000
10
-22.7680522777
20
-16.1388351657
30
0.0000000000
10
-22.7869649012
20
-15.9602282031
30
0.0000000000
10
-22.7869068846
20
-15.8711254617
30
0.0000000000
11
-22.3041183759
21
-17.0339890802
31
0.0000000000
11
-22.4630726325
21
-16.8407239896
31
0.0000000000
11
-22.5906610245
21
-16.6284545147
31
0.0000000000
11
-22.6909270816
21
-16.3956204292
31
0.0000000000
11
-22.7609599845
21
-16.1371714641
31
0.0000000000
11
-22.7869068846
21
-15.8711254617
31
0.0000000000
0
SPLINE
5
3C6
100
AcDbEntity
8
0
100
AcDbSpline
62
7
6
CONTINUOUS
70
0
71
3
72
10
73
6
74
4
42
0.0000001000
43
0.0000001000
44
0.0000000001
12
0.0102429073
22
0.1458102839
32
0.0000000000
13
0.1327712114
23
0.0611339632
33
0.0000000000
40
0.0000000000
40
0.0000000000
40
0.0000000000
40
0.0000000000
40
0.3259781988
40
0.6790620288
40
1.0000000000
40
1.0000000000
40
1.0000000000
40
1.0000000000
10
-22.1933030699
20
-17.3106305822
30
0.0000000000
10
-22.1921900817
20
-17.2947869243
30
0.0000000000
10
-22.1821548886
20
-17.2623061055
30
0.0000000000
10
-22.1545164283
20
-17.2216327874
30
0.0000000000
10
-22.1280685826
20
-17.2005836446
30
0.0000000000
10
-22.1138648081
20
-17.1940435745
30
0.0000000000
11
-22.1933030699
21
-17.3106305822
31
0.0000000000
11
-22.1805430138
21
-17.2647228148
31
0.0000000000
11
-22.1514823374
21
-17.2220721136
31
0.0000000000
11
-22.1138648081
21
-17.1940435745
31
0.0000000000
0
SPLINE
5
3C7
100
AcDbEntity
8
0
100
AcDbSpline
62
7
6
CONTINUOUS
70
0
71
3
72
10
73
6
74
4
42
0.0000001000
43
0.0000001000
44
0.0000000001
12
0.1297281417
22
-0.0715336019
32
0.0000000000
13
0.1329603393
23
0.0653298944
33
0.0000000000
40
0.0000000000
40
0.0000000000
40
0.0000000000
40
0.0000000000
40
0.3171993280
40
0.6752195185
40
1.0000000000
40
1.0000000000
40
1.0000000000
40
1.0000000000
10
-22.9311102997
20
-15.8690326971
30
0.0000000000
10
-22.9173937399
20
-15.8765961673
30
0.0000000000
10
-22.8844572775
20
-15.8857232555
30
0.0000000000
10
-22.8348341993
20
-15.8863665352
30
0.0000000000
10
-22.8013339228
20
-15.8781814281
30
0.0000000000
10
-22.7869396151
20
-15.8711088033
30
0.0000000000
11
-22.9311102997
21
-15.8690326971
31
0.0000000000
11
-22.8863226812
21
-15.8832531076
31
0.0000000000
11
-22.8332898756
21
-15.8840168007
31
0.0000000000
11
-22.7869396151
21
-15.8711088033
31
0.0000000000
0
SPLINE
5
3C8
100
AcDbEntity
8
0
100
AcDbSpline
62
7
6
CONTINUOUS
70
0
71
3
72
12
73
8
74
6
42
0.0000001000
43
0.0000001000
44
0.0000000001
12
-0.0003298764
22
0.9153461259
32
0.0000000000
13
0.9213984746
23
0.0484012358
33
0.0000000000
40
0.0000000000
40
0.0000000000
40
0.0000000000
40
0.0000000000
40
0.2815569381
40
0.5071793949
40
0.6948292967
40
0.8717691072
40
1.0000000000
40
1.0000000000
40
1.0000000000
40
1.0000000000
10
-22.9311102997
20
27.1428544409
30
0.0000000000
10
-22.9311412593
20
27.2287617917
30
0.0000000000
10
-22.9164935128
20
27.3844114966
30
0.0000000000
10
-22.8438684003
20
27.5863919037
30
0.0000000000
10
-22.7316186867
20
27.7317827887
30
0.0000000000
10
-22.5979758861
20
27.8095063224
30
0.0000000000
10
-22.5049944930
20
27.8259953676
30
0.0000000000
10
-22.4656105767
20
27.8280642121
30
0.0000000000
11
-22.9311102997
21
27.1428544409
31
0.0000000000
11
-22.9030549999
21
27.3990449269
31
0.0000000000
11
-22.8293477298
21
27.5919667904
31
0.0000000000
11
-22.7217592875
21
27.7258615714
31
0.0000000000
11
-22.5813295126
21
27.8065517339
31
0.0000000000
11
-22.4656105767
21
27.8280642121
31
0.0000000000
0
SPLINE
5
3C9
100
AcDbEntity
8
0
100
AcDbSpline
62
7
6
CONTINUOUS
70
0
71
3
72
9
73
5
74
3
42
0.0000001000
43
0.0000001000
44
0.0000000001
12
0.2027062765
22
0.0106481990
32
0.0000000000
13
0.1928386188
23
-0.0615118109
33
0.0000000000
40
0.0000000000
40
0.0000000000
40
0.0000000000
40
0.0000000000
40
0.3121695547
40
1.0000000000
40
1.0000000000
40
1.0000000000
40
1.0000000000
10
-22.4656105767
20
27.8280642121
30
0.0000000000
10
-22.4445176673
20
27.8291722266
30
0.0000000000
10
-22.3766606702
20
27.8282562422
30
0.0000000000
10
-22.3102319249
20
27.8141814636
30
0.0000000000
10
-22.2660185005
20
27.8000782315
30
0.0000000000
11
-22.4656105767
21
27.8280642121
31
0.0000000000
11
-22.4022910731
21
27.8273180195
31
0.0000000000
11
-22.2660185005
21
27.8000782315
31
0.0000000000
0
SPLINE
5
3CA
100
AcDbEntity
8
0
100
AcDbSpline
62
7
6
CONTINUOUS
70
0
71
3
72
8
73
4
74
2
42
0.0000001000
43
0.0000001000
44
0.0000000001
12
0.0742429322
22
-0.0236820676
32
0.0000000000
13
0.0710418272
23
-0.0310460966
33
0.0000000000
40
0.0000000000
40
0.0000000000
40
0.0000000000
40
0.0000000000
40
1.0000000000
40
1.0000000000
40
1.0000000000
40
1.0000000000
10
-22.2660185005
20
27.8000782315
30
0.0000000000
10
-22.2412708565
20
27.7921842090
30
0.0000000000
10
-22.2169863593
20
27.7829047235
30
0.0000000000
10
-22.1933057503
20
27.7725560246
30
0.0000000000
11
-22.2660185005
21
27.8000782315
31
0.0000000000
11
-22.1933057503
21
27.7725560246
31
0.0000000000
0
SPLINE
5
3CB
100
AcDbEntity
8
0
100
AcDbSpline
62
7
6
CONTINUOUS
70
0
71
3
72
11
73
7
74
5
42
0.0000001000
43
0.0000001000
44
0.0000000001
12
-0.0005152228
22
0.6805036804
32
0.0000000000
13
0.6141615328
23
0.3031782547
33
0.0000000000
40
0.0000000000
40
0.0000000000
40
0.0000000000
40
0.0000000000
40
0.3471242768
40
0.6245932959
40
0.8549357219
40
1.0000000000
40
1.0000000000
40
1.0000000000
40
1.0000000000
10
-22.7869250902
20
27.1407709523
30
0.0000000000
10
-22.7869847056
20
27.2195107349
30
0.0000000000
10
-22.7737607526
20
27.3620229347
30
0.0000000000
10
-22.7076391850
20
27.5468843113
30
0.0000000000
10
-22.6156045826
20
27.6666582180
30
0.0000000000
10
-22.5436338210
20
27.7147835492
30
0.0000000000
10
-22.5139361879
20
27.7294436607
30
0.0000000000
11
-22.7869250902
21
27.1407709523
31
0.0000000000
11
-22.7614500189
21
27.3756126714
31
0.0000000000
11
-22.6943479013
21
27.5521057972
31
0.0000000000
11
-22.5964109568
21
27.6744927934
31
0.0000000000
11
-22.5139361879
21
27.7294436607
31
0.0000000000
0
SPLINE
5
3CC
100
AcDbEntity
8
0
100
AcDbSpline
62
7
6
CONTINUOUS
70
0
71
3
72
10
73
6
74
4
42
0.0000001000
43
0.0000001000
44
0.0000000001
12
0.1297281380
22
-0.0715335972
32
0.0000000000
13
0.1329603417
23
0.0653298771
33
0.0000000000
40
0.0000000000
40
0.0000000000
40
0.0000000000
40
0.0000000000
40
0.3172312295
40
0.6752465223
40
1.0000000000
40
1.0000000000
40
1.0000000000
40
1.0000000000
10
-22.9311102997
20
27.1428544409
30
0.0000000000
10
-22.9173923608
20
27.1352902105
30
0.0000000000
10
-22.8844542760
20
27.1261633748
30
0.0000000000
10
-22.8348312206
20
27.1255210890
30
0.0000000000
10
-22.8013327261
20
27.1337063076
30
0.0000000000
10
-22.7869396150
20
27.1407783426
30
0.0000000000
11
-22.9311102997
21
27.1428544409
31
0.0000000000
11
-22.8863179537
21
27.1286333090
31
0.0000000000
11
-22.8332858580
21
27.1278708375
31
0.0000000000
11
-22.7869396150
21
27.1407783426
31
0.0000000000
0
SPLINE
5
3CD
100
AcDbEntity
8
0
100
AcDbSpline
62
7
6
CONTINUOUS
70
0
71
3
72
8
73
4
74
2
42
0.0000001000
43
0.0000001000
44
0.0000000001
12
0.0495893085
22
-0.0216624826
32
0.0000000000
13
0.0495855152
23
-0.0216711725
33
0.0000000000
40
0.0000000000
40
0.0000000000
40
0.0000000000
40
0.0000000000
40
1.0000000000
40
1.0000000000
40
1.0000000000
40
1.0000000000
10
-22.1933057503
20
27.7725560246
30
0.0000000000
10
-22.1767759808
20
27.7653351970
30
0.0000000000
10
-22.1602468436
20
27.7581129206
30
0.0000000000
10
-22.1437183385
20
27.7508891964
30
0.0000000000
11
-22.1933057503
21
27.7725560246
31
0.0000000000
11
-22.1437183385
21
27.7508891964
31
0.0000000000
0
SPLINE
5
3CE
100
AcDbEntity
8
0
100
AcDbSpline
62
7
6
CONTINUOUS
70
0
71
3
72
8
73
4
74
2
42
0.0000001000
43
0.0000001000
44
0.0000000001
12
0.2115112233
22
-0.0924402254
32
0.0000000000
13
0.2114422671
23
-0.0925979776
33
0.0000000000
40
0.0000000000
40
0.0000000000
40
0.0000000000
40
0.0000000000
40
1.0000000000
40
1.0000000000
40
1.0000000000
40
1.0000000000
10
-22.1437183385
20
27.7508891964
30
0.0000000000
10
-22.0732145974
20
27.7200757879
30
0.0000000000
10
-22.0027223575
20
27.6892360386
30
0.0000000000
10
-21.9322416018
20
27.6583700460
30
0.0000000000
11
-22.1437183385
21
27.7508891964
31
0.0000000000
11
-21.9322416018
21
27.6583700460
31
0.0000000000
0
SPLINE
5
3CF
100
AcDbEntity
8
0
100
AcDbSpline
62
7
6
CONTINUOUS
70
0
71
3
72
25
73
21
74
19
42
0.0000001000
43
0.0000001000
44
0.0000000001
12
33.6536963079
22
-14.7381328235
32
0.0000000000
13
32.1017622435
23
-17.8678585652
33
0.0000000000
40
0.0000000000
40
0.0000000000
40
0.0000000000
40
0.0000000000
40
0.0186359441
40
0.0544336433
40
0.0986011621
40
0.1501455814
40
0.2080592567
40
0.2713070495
40
0.3388153725
40
0.4094651819
40
0.4820879566
40
0.5554645450
40
0.6283260667
40
0.6993566817
40
0.7671985496
40
0.8304588963
40
0.8877182430
40
0.9375391091
40
0.9784765969
40
1.0000000000
40
1.0000000000
40
1.0000000000
40
1.0000000000
10
-21.9322416018
20
27.6583700460
30
0.0000000000
10
-21.7231854679
20
27.5668170397
30
0.0000000000
10
-21.1128494886
20
27.2987258860
30
0.0000000000
10
-20.0088407912
20
26.8095765207
30
0.0000000000
10
-18.5393821365
20
26.1503996996
30
0.0000000000
10
-16.8269744456
20
25.3711345866
30
0.0000000000
10
-14.9071762631
20
24.4835462216
30
0.0000000000
10
-12.8162285558
20
23.5003871414
30
0.0000000000
10
-10.5912767822
20
22.4357934731
30
0.0000000000
10
-8.2705270587
20
21.3055517348
30
0.0000000000
10
-5.8933107774
20
20.1272672133
30
0.0000000000
10
-3.5000787797
20
18.9204489950
30
0.0000000000
10
-1.1323207456
20
17.7065542370
30
0.0000000000
10
1.1675124642
20
16.5088620200
30
0.0000000000
10
3.3561492956
20
15.3523134182
30
0.0000000000
10
5.3896748801
20
14.2632865336
30
0.0000000000
10
7.2237225755
20
13.2693110493
30
0.0000000000
10
8.8136592716
20
12.3986924834
30
0.0000000000
10
10.0173401989
20
11.7339115100
30
0.0000000000
10
10.6860213117
20
11.3624592572
30
0.0000000000
10
10.9163343679
20
11.2342668831
30
0.0000000000
11
-21.9322416018
21
27.6583700460
31
0.0000000000
11
-21.3053758682
21
27.3830209159
31
0.0000000000
11
-20.1029228497
21
26.8502730219
31
0.0000000000
11
-18.6223631534
21
26.1861504042
31
0.0000000000
11
-16.8987136841
21
25.4018209298
31
0.0000000000
11
-14.9673954074
21
24.5089751241
31
0.0000000000
11
-12.8645315581
21
23.5203001819
31
0.0000000000
11
-10.6271968417
21
22.4498801580
31
0.0000000000
11
-8.2935595735
21
21.3134655500
31
0.0000000000
11
-5.9029442466
21
20.1286427567
31
0.0000000000
11
-3.4958130112
21
18.9149220017
31
0.0000000000
11
-1.1136935779
21
17.6937598492
31
0.0000000000
11
1.2009064356
21
16.4884581167
31
0.0000000000
11
3.4046384649
21
15.3239980474
31
0.0000000000
11
5.4535006829
21
14.2268099047
31
0.0000000000
11
7.3030341092
21
13.2244781186
31
0.0000000000
11
8.9084965048
21
12.3453807416
31
0.0000000000
11
10.2250713833
21
11.6182616609
31
0.0000000000
11
10.9163343679
21
11.2342668831
31
0.0000000000
0
SPLINE
5
3D0
100
AcDbEntity
8
0
100
AcDbSpline
62
7
6
CONTINUOUS
70
0
71
3
72
8
73
4
74
2
42
0.0000001000
43
0.0000001000
44
0.0000000001
12
0.2897577128
22
-0.1612793027
32
0.0000000000
13
0.2896440204
23
-0.1614832757
33
0.0000000000
40
0.0000000000
40
0.0000000000
40
0.0000000000
40
0.0000000000
40
1.0000000000
40
1.0000000000
40
1.0000000000
40
1.0000000000
10
10.9163343679
20
11.2342668831
30
0.0000000000
10
11.0129202721
20
11.1805071156
30
0.0000000000
10
11.1094872144
20
11.1267132971
30
0.0000000000
10
11.2060352212
20
11.0728855386
30
0.0000000000
11
10.9163343679
21
11.2342668831
31
0.0000000000
11
11.2060352212
21
11.0728855386
31
0.0000000000
0
SPLINE
5
3D1
100
AcDbEntity
8
0
100
AcDbSpline
62
7
6
CONTINUOUS
70
0
71
3
72
9
73
5
74
3
42
0.0000001000
43
0.0000001000
44
0.0000000001
12
0.0045210988
22
-0.0691406717
32
0.0000000000
13
0.0639045414
23
-0.0294031746
33
0.0000000000
40
0.0000000000
40
0.0000000000
40
0.0000000000
40
0.0000000000
40
0.6078905225
40
1.0000000000
40
1.0000000000
40
1.0000000000
40
1.0000000000
10
-22.1933057502
20
27.7725560246
30
0.0000000000
10
-22.1923896392
20
27.7585460383
30
0.0000000000
10
-22.1865802148
20
27.7347040966
30
0.0000000000
10
-22.1678178281
20
27.7185961098
30
0.0000000000
10
-22.1594653027
20
27.7147530220
30
0.0000000000
11
-22.1933057502
21
27.7725560246
31
0.0000000000
11
-22.1805401315
21
27.7324173927
31
0.0000000000
11
-22.1594653027
21
27.7147530220
31
0.0000000000
0
SPLINE
5
3D2
100
AcDbEntity
8
0
100
AcDbSpline
62
7
6
CONTINUOUS
70
0
71
3
72
10
73
6
74
4
42
0.0000001000
43
0.0000001000
44
0.0000000001
12
-0.4121954016
22
-0.2121484055
32
0.0000000000
13
-0.4350690626
23
0.1524339625
33
0.0000000000
40
0.0000000000
40
0.0000000000
40
0.0000000000
40
0.0000000000
40
0.1348217212
40
0.5316043451
40
1.0000000000
40
1.0000000000
40
1.0000000000
40
1.0000000000
10
11.7168350078
20
-33.8721045634
30
0.0000000000
10
11.6983107100
20
-33.8816386345
30
0.0000000000
10
11.6227592640
20
-33.9143030277
30
0.0000000000
10
11.4671868393
20
-33.9361008602
30
0.0000000000
10
11.3345536043
20
-33.9080671539
30
0.0000000000
10
11.2666254515
20
-33.8842673520
30
0.0000000000
11
11.7168350078
21
-33.8721045634
31
0.0000000000
11
11.6595290840
21
-33.8968512231
31
0.0000000000
11
11.4787410697
21
-33.9246770684
31
0.0000000000
11
11.2666254515
21
-33.8842673520
31
0.0000000000
0
SPLINE
5
3D3
100
AcDbEntity
8
0
100
AcDbSpline
62
7
6
CONTINUOUS
70
0
71
3
72
12
73
8
74
6
42
0.0000001000
43
0.0000001000
44
0.0000000001
12
1.2072102713
22
0.4711709277
32
0.0000000000
13
0.0269357890
23
1.2897540786
33
0.0000000000
40
0.0000000000
40
0.0000000000
40
0.0000000000
40
0.0000000000
40
0.0439994748
40
0.2544798782
40
0.4789842773
40
0.7257201617
40
1.0000000000
40
1.0000000000
40
1.0000000000
40
1.0000000000
10
25.1474803229
20
-53.2859044961
30
0.0000000000
10
25.1651858621
20
-53.2789940716
30
0.0000000000
10
25.2660835905
20
-53.2352440626
30
0.0000000000
10
25.4361531041
20
-53.1115174559
30
0.0000000000
10
25.6057630063
20
-52.8667591169
30
0.0000000000
10
25.7108401021
20
-52.5605809464
30
0.0000000000
10
25.7352383673
20
-52.3360934644
30
0.0000000000
10
25.7377010152
20
-52.2181756177
30
0.0000000000
11
25.1474803229
21
-53.2859044961
31
0.0000000000
11
25.1997610933
21
-53.2632081323
31
0.0000000000
11
25.4203507994
21
-53.1048819596
31
0.0000000000
11
25.5886963999
21
-52.8692154698
31
0.0000000000
11
25.6959608034
21
-52.5695356946
31
0.0000000000
11
25.7377010152
21
-52.2181756177
31
0.0000000000
0
SPLINE
5
3D4
100
AcDbEntity
8
0
100
AcDbSpline
62
7
6
CONTINUOUS
70
0
71
3
72
14
73
10
74
8
42
0.0000001000
43
0.0000001000
44
0.0000000001
12
0.0000483751
22
1.4817450555
32
0.0000000000
13
-1.3629954969
23
0.5812156977
33
0.0000000000
40
0.0000000000
40
0.0000000000
40
0.0000000000
40
0.0000000000
40
0.1350217297
40
0.2787289336
40
0.4283987757
40
0.5793782249
40
0.7276201756
40
0.8690124965
40
1.0000000000
40
1.0000000000
40
1.0000000000
40
1.0000000000
10
24.5532561392
20
17.5559933725
30
0.0000000000
10
24.5532583164
20
17.6226826326
30
0.0000000000
10
24.5392130134
20
17.7605573393
30
0.0000000000
10
24.4824149126
20
17.9652470186
30
0.0000000000
10
24.3917442617
20
18.1660420966
30
0.0000000000
10
24.2713625649
20
18.3531738149
30
0.0000000000
10
24.1271627039
20
18.5173326596
30
0.0000000000
10
23.9664034563
20
18.6503381014
30
0.0000000000
10
23.8482459036
20
18.7167676899
30
0.0000000000
10
23.7887341112
20
18.7421450210
30
0.0000000000
11
24.5532561392
21
17.5559933725
31
0.0000000000
11
24.5342747492
21
17.7551586898
31
0.0000000000
11
24.4781746573
21
17.9605732283
31
0.0000000000
11
24.3872335033
21
18.1628422813
31
0.0000000000
11
24.2661265689
21
18.3509397036
31
0.0000000000
11
24.1207537380
21
18.5156085834
31
0.0000000000
11
23.9586393248
21
18.6483197591
31
0.0000000000
11
23.7887341112
21
18.7421450210
31
0.0000000000
0
ENDSEC
0
SECTION
2
OBJECTS
0
DICTIONARY
5
3D5
100
AcDbDictionary
3
ACAD_GROUP
350
3D6
3
ACAD_MLINESTYLE
350
3D7
0
DICTIONARY
5
3D6
102
{ACAD_REACTORS
330
3D5
102
}
100
AcDbDictionary
0
DICTIONARY
5
3D7
102
{ACAD_REACTORS
330
3D5
102
}
100
AcDbDictionary
3
STANDARD
350
3D8
0
MLINESTYLE
5
3D8
102
{ACAD_REACTORS
330
3D7
102
}
100
AcDbMlineStyle
2
STANDARD
70
0
3

62
256
51
90.0
52
90.0
71
2
49
0.5
62
256
6
BYLAYER
49
-0.5
62
256
6
BYLAYER
0
ENDSEC
0
EOF
