  0
SECTION
  2
HEADER
  9
$ACADVER
  1
AC1015
  9
$DWGCODEPAGE
  3
ANSI_1252
  9
$EXTMAX
 10
297.0
 20
210.0
 30
0.0
  9
$EXTMIN
 10
0.0
 20
0.0
 30
0.0
  9
$LIMMIN
 10
0.0
 20
0.0
  9
$LIMMAX
 10
297.0
 20
210.0
  9
$VIEWCTR
 10
148.5
 20
105.0
  9
$VIEWSIZE
 40
210.0
  9
$CLAYER
  8
0
  9
$LTSCALE
 40
16.335
  9
$CELTYPE
  6
BYLAYER
  9
$DIMSCALE
 40
1.0
  9
$DIMASZ
 40
3.0
  9
$DIMEXO
 40
0.5
  9
$DIMDLI
 40
11.286
  9
$DIMEXE
 40
1.5
  9
$DIMCEN
 40
2.673
  9
$DIMLFAC
 40
1.0
  9
$DIMBLK
  1
_FILLED
  9
$DIMTXT
 40
3.0
  9
$DIMTOL
 70
1
  9
$DIMLIM
 70
0
  9
$DIMTFAC
 40
1.0
  9
$DIMTP
 40
0.01
  9
$DIMTM
 40
0.01
  9
$DIMGAP
 40
0.625
  9
$DIMDSEP
 70
44
  9
$PDMODE
 70
3
  9
$PDSIZE
 40
3.0
  9
$HANDSEED
  5
3DD
  9
$TILEMODE
 70
1
  9
$MEASUREMENT
 70
1
  9
$INSUNITS
 70
4
  0
ENDSEC
  0
SECTION
  2
CLASSES
  0
CLASS
  1
ACDBDICTIONARYWDFLT
  2
AcDbDictionaryWithDefault
  3
AutoCAD 2000
 90
0
280
0
281
0
  0
CLASS
  1
ACDBPLACEHOLDER
  2
AcDbPlaceHolder
  3
AutoCAD 2000
 90
0
280
0
281
0
  0
CLASS
  1
LAYOUT
  2
AcDbLayout
  3
AutoCAD 2000
 90
0
280
0
281
0
  0
ENDSEC
  0
SECTION
  2
TABLES
  0
TABLE
  2
VPORT
  5
8
100
AcDbSymbolTable
 70
2
  0
VPORT
  5
1F4
100
AcDbSymbolTableRecord
100
AcDbViewportTableRecord
  2
*ACTIVE
 70
0
 10
0.0
 20
0.0
 11
1.0
 21
1.0
 12
148.5
 22
105.0
 13
0.0
 23
0.0
 14
1.0
 24
1.0
 15
0.0
 25
0.0
 16
0.0
 26
0.0
 36
1.0
 17
0.0
 27
0.0
 37
0.0
 40
210.0
 41
1.4142857143
 42
50.0
 43
0.0
 44
0.0
 50
0.0
 51
0.0
 71
0
 72
100
 73
1
 74
1
 75
0
 76
0
 77
0
 78
0
  0
ENDTAB
  0
TABLE
  2
LTYPE
  5
5
100
AcDbSymbolTable
 70
6
  0
LTYPE
  5
14
100
AcDbSymbolTableRecord
100
AcDbLinetypeTableRecord
  2
BYBLOCK
 70
0
  3

 72
65
 73
0
 40
0.0
  0
LTYPE
  5
15
100
AcDbSymbolTableRecord
100
AcDbLinetypeTableRecord
  2
BYLAYER
 70
0
  3

 72
65
 73
0
 40
0.0
  0
LTYPE
  5
16
100
AcDbSymbolTableRecord
100
AcDbLinetypeTableRecord
  2
CONTINUOUS
 70
64
  3
Solid line
 72
65
 73
0
 40
0.0
  0
LTYPE
  5
1F5
100
AcDbSymbolTableRecord
100
AcDbLinetypeTableRecord
  2
CENTER
 70
64
  3
____ _ ____ _ ____ _ ____ _ ____ _ ____ _ ____
 72
65
 73
4
 40
0.6
 49
0.375
 74
0
 49
-0.075
 74
0
 49
0.075
 74
0
 49
-0.075
 74
0
  0
LTYPE
  5
1F6
100
AcDbSymbolTableRecord
100
AcDbLinetypeTableRecord
  2
HIDDEN
 70
64
  3
- - - - - - - - - - - - - - - - - - - -
 72
65
 73
2
 40
0.2
 49
0.1
 74
0
 49
-0.1
 74
0
  0
LTYPE
  5
1F7
100
AcDbSymbolTableRecord
100
AcDbLinetypeTableRecord
  2
PHANTOM
 70
64
  3
_____ _ _ _____ _ _ _____ _ _ _____
 72
65
 73
6
 40
0.8
 49
0.45
 74
0
 49
-0.05
 74
0
 49
0.1
 74
0
 49
-0.05
 74
0
 49
0.1
 74
0
 49
-0.05
 74
0
  0
LTYPE
  5
1F8
100
AcDbSymbolTableRecord
100
AcDbLinetypeTableRecord
  2
DOT
 70
64
  3
. . . . . . . . . . . . . . . . . . . .
 72
65
 73
2
 40
0.2
 49
0.1
 74
0
 49
-0.1
 74
0
  0
LTYPE
  5
1F9
100
AcDbSymbolTableRecord
100
AcDbLinetypeTableRecord
  2
DASHED
 70
64
  3
- - - - - - - - - - - - - - - - - - - -
 72
65
 73
2
 40
0.2
 49
0.1
 74
0
 49
-0.1
 74
0
  0
ENDTAB
  0
TABLE
  2
LAYER
  5
2
100
AcDbSymbolTable
 70
36
  0
LAYER
  5
10
100
AcDbSymbolTableRecord
100
AcDbLayerTableRecord
  2
0
 70
0
 62
7
  6
CONTINUOUS
370
-3
390
F
  0
LAYER
  5
1FA
100
AcDbSymbolTableRecord
100
AcDbLayerTableRecord
  2
DEFAULT_1
 70
0
 62
7
  6
CENTER
370
-3
390
F
  0
LAYER
  5
1FB
100
AcDbSymbolTableRecord
100
AcDbLayerTableRecord
  2
DEFAULT_2
 70
0
 62
7
  6
HIDDEN
370
-3
390
F
  0
LAYER
  5
1FC
100
AcDbSymbolTableRecord
100
AcDbLayerTableRecord
  2
DEFAULT_3
 70
0
 62
7
  6
PHANTOM
370
-3
390
F
  0
LAYER
  5
1FD
100
AcDbSymbolTableRecord
100
AcDbLayerTableRecord
  2
ASSI
 70
0
 62
7
  6
CONTINUOUS
370
-3
390
F
  0
LAYER
  5
1FE
100
AcDbSymbolTableRecord
100
AcDbLayerTableRecord
  2
COORDINATE
 70
0
 62
7
  6
CONTINUOUS
370
-3
390
F
  0
LAYER
  5
1FF
100
AcDbSymbolTableRecord
100
AcDbLayerTableRecord
  2
COORD_ORIGINE
 70
0
 62
7
  6
CONTINUOUS
370
-3
390
F
  0
LAYER
  5
200
100
AcDbSymbolTableRecord
100
AcDbLayerTableRecord
  2
COPY_DENTI
 70
0
 62
7
  6
CONTINUOUS
370
-3
390
F
  0
LAYER
  5
201
100
AcDbSymbolTableRecord
100
AcDbLayerTableRecord
  2
COPY_PLACCA
 70
0
 62
7
  6
CONTINUOUS
370
-3
390
F
  0
LAYER
  5
202
100
AcDbSymbolTableRecord
100
AcDbLayerTableRecord
  2
COPY_PUBLISH
 70
0
 62
7
  6
CONTINUOUS
370
-3
390
F
  0
LAYER
  5
203
100
AcDbSymbolTableRecord
100
AcDbLayerTableRecord
  2
COPY_SUPP
 70
0
 62
7
  6
CONTINUOUS
370
-3
390
F
  0
LAYER
  5
204
100
AcDbSymbolTableRecord
100
AcDbLayerTableRecord
  2
COSMETIC
 70
0
 62
7
  6
CONTINUOUS
370
-3
390
F
  0
LAYER
  5
205
100
AcDbSymbolTableRecord
100
AcDbLayerTableRecord
  2
CURVE
 70
0
 62
7
  6
CONTINUOUS
370
-3
390
F
  0
LAYER
  5
206
100
AcDbSymbolTableRecord
100
AcDbLayerTableRecord
  2
DRAFT
 70
0
 62
7
  6
CONTINUOUS
370
-3
390
F
  0
LAYER
  5
207
100
AcDbSymbolTableRecord
100
AcDbLayerTableRecord
  2
IMPORT_IGES
 70
0
 62
7
  6
CONTINUOUS
370
-3
390
F
  0
LAYER
  5
208
100
AcDbSymbolTableRecord
100
AcDbLayerTableRecord
  2
INTFCLR_1
 70
0
 62
7
  6
CONTINUOUS
370
-3
390
F
  0
LAYER
  5
209
100
AcDbSymbolTableRecord
100
AcDbLayerTableRecord
  2
NOTE
 70
0
 62
7
  6
CONTINUOUS
370
-3
390
F
  0
LAYER
  5
20A
100
AcDbSymbolTableRecord
100
AcDbLayerTableRecord
  2
PIANI
 70
0
 62
7
  6
CONTINUOUS
370
-3
390
F
  0
LAYER
  5
20B
100
AcDbSymbolTableRecord
100
AcDbLayerTableRecord
  2
PIANI_ORIGINE
 70
0
 62
7
  6
CONTINUOUS
370
-3
390
F
  0
LAYER
  5
20C
100
AcDbSymbolTableRecord
100
AcDbLayerTableRecord
  2
RACCORDO
 70
0
 62
7
  6
CONTINUOUS
370
-3
390
F
  0
LAYER
  5
20D
100
AcDbSymbolTableRecord
100
AcDbLayerTableRecord
  2
SKELETON
 70
0
 62
7
  6
CONTINUOUS
370
-3
390
F
  0
LAYER
  5
20E
100
AcDbSymbolTableRecord
100
AcDbLayerTableRecord
  2
SMUSSO
 70
0
 62
7
  6
CONTINUOUS
370
-3
390
F
  0
LAYER
  5
20F
100
AcDbSymbolTableRecord
100
AcDbLayerTableRecord
  2
SNAPLINE
 70
0
 62
7
  6
CONTINUOUS
370
-3
390
F
  0
LAYER
  5
210
100
AcDbSymbolTableRecord
100
AcDbLayerTableRecord
  2
SUPERFICI
 70
0
 62
7
  6
CONTINUOUS
370
-3
390
F
  0
LAYER
  5
211
100
AcDbSymbolTableRecord
100
AcDbLayerTableRecord
  2
TRASH
 70
0
 62
7
  6
CONTINUOUS
370
-3
390
F
  0
LAYER
  5
212
100
AcDbSymbolTableRecord
100
AcDbLayerTableRecord
  2
XSEC_DATUMS
 70
0
 62
7
  6
CONTINUOUS
370
-3
390
F
  0
ENDTAB
  0
TABLE
  2
STYLE
  5
3
100
AcDbSymbolTable
 70
1
  0
STYLE
  5
11
100
AcDbSymbolTableRecord
100
AcDbTextStyleTableRecord
  2
STANDARD
 70
0
 40
0.0
 41
0.8
 50
0.0
 71
0
 42
0.2
  3
txt
  4

  0
STYLE
  5
213
100
AcDbSymbolTableRecord
100
AcDbTextStyleTableRecord
  2
TEXTSTYLE_1
 70
0
 40
0.0
 41
0.8
 50
0.0
 71
0
 42
0.2
  3
gdt
  4

  0
ENDTAB
  0
TABLE
  2
VIEW
  5
6
100
AcDbSymbolTable
 70
0
  0
ENDTAB
  0
TABLE
  2
UCS
  5
7
100
AcDbSymbolTable
 70
0
  0
ENDTAB
  0
TABLE
  2
APPID
  5
9
100
AcDbSymbolTable
 70
1
  0
APPID
  5
214
100
AcDbSymbolTableRecord
100
AcDbRegAppTableRecord
  2
ACAD
 70
0
  0
ENDTAB
  0
TABLE
  2
BLOCK_RECORD
  5
1
100
AcDbSymbolTable
 70
0
  0
BLOCK_RECORD
  5
215
100
AcDbSymbolTableRecord
100
AcDbBlockTableRecord
  2
*Model_Space
  0
BLOCK_RECORD
  5
216
100
AcDbSymbolTableRecord
100
AcDbBlockTableRecord
  2
*Paper_Space
  0
ENDTAB
  0
TABLE
  2
DIMSTYLE
  5
A
100
AcDbSymbolTable
 70
1
100
AcDbDimStyleTable
 71
0
  0
DIMSTYLE
105
217
100
AcDbSymbolTableRecord
100
AcDbDimStyleTableRecord
  2
STANDARD
 70
0
  3

  4

 40
1.0
 41
3.0
 42
0.5
 43
0.38
 44
1.5
 45
0.0
 46
0.0
 47
0.01
 48
0.01
140
3.0
141
0.09
142
0.0
143
25.4
144
1.0
145
0.0
146
1.0
147
0.625
 71
1.0
 72
0.0
 73
0
 74
0
 75
0
 76
0
 77
1
 78
8
170
0
171
2
172
0
173
0
174
0
175
0
176
0
177
0
178
0
270
2
271
2
272
2
273
2
274
2
275
0
280
0
281
0
282
0
283
1
284
8
285
0
286
0
287
3
288
0
340
11
278
44
  0
ENDTAB
  0
ENDSEC
  0
SECTION
  2
BLOCKS
  0
BLOCK
  5
20
100
AcDbEntity
  8
0
100
AcDbBlockBegin
  2
*Model_Space
 70
0
 10
0.0
 20
0.0
 30
0.0
  3
*Model_Space
  1

  0
ENDBLK
  5
21
100
AcDbEntity
  8
0
100
AcDbBlockEnd
  0
BLOCK
  5
1C
100
AcDbEntity
  8
0
100
AcDbBlockBegin
  2
*Paper_Space
 70
0
 10
0.0
 20
0.0
 30
0.0
  3
*Paper_Space
  1

  0
ENDBLK
  5
1D
100
AcDbEntity
  8
0
100
AcDbBlockEnd
  0
ENDSEC
  0
SECTION
  2
ENTITIES
  0
LINE
  5
218
100
AcDbEntity
  8
DRAFT
100
AcDbLine
 62
7
  6
CONTINUOUS
 10
114.4390734941
 20
157.4302927676
 11
114.0516567916
 21
157.0643106802
  0
LWPOLYLINE
  5
219
100
AcDbEntity
  8
DRAFT
100
AcDbPolyline
 62
7
  6
CONTINUOUS
 90
33
 70
0
 10
114.4390734941
 20
157.4302927676
 10
114.4541116688
 20
157.4438733689
 10
114.4691604927
 20
157.4563030358
 10
114.4847402501
 20
157.4680739619
 10
114.5008377589
 20
157.4791761876
 10
114.517439399
 20
157.4896003195
 10
114.5345311238
 20
157.4993375376
 10
114.552098472
 20
157.5083796033
 10
114.5701265798
 20
157.5167188661
 10
114.5886001937
 20
157.5243482702
 10
114.6075036832
 20
157.5312613603
 10
114.6268210539
 20
157.5374522872
 10
114.6465359616
 20
157.5429158129
 10
114.6666317253
 20
157.5476473146
 10
114.6870913422
 20
157.551642789
 10
114.7078975012
 20
157.5548988555
 10
114.7290325984
 20
157.5574127592
 10
114.7504787513
 20
157.559182373
 10
114.7722178143
 20
157.5602061998
 10
114.794231394
 20
157.5604833731
 10
114.8165008647
 20
157.5600136586
 10
114.8390073843
 20
157.5587974537
 10
114.8617319099
 20
157.5568357873
 10
114.8846552144
 20
157.5541303192
 10
114.9077579023
 20
157.5506833386
 10
114.9310204265
 20
157.5464977619
 10
114.9544231046
 20
157.5415771305
 10
114.9779461355
 20
157.5359256078
 10
115.0015696164
 20
157.5295479756
 10
115.0252735595
 20
157.5224496299
 10
115.0490379088
 20
157.5146365766
 10
115.0728425575
 20
157.5061154265
 10
115.0966673643
 20
157.4968933892
  0
LINE
  5
21A
100
AcDbEntity
  8
DRAFT
100
AcDbLine
 62
7
  6
CONTINUOUS
 10
115.0966673643
 20
157.4968933892
 11
114.4194198649
 21
156.8914354048
  0
LWPOLYLINE
  5
21B
100
AcDbEntity
  8
RACCORDO
100
AcDbPolyline
 62
7
  6
CONTINUOUS
 90
11
 70
0
 10
109.7145198984
 20
154.854273973
 10
109.6613365541
 20
154.8079891445
 10
109.5822185056
 20
154.7266583917
 10
109.5102591872
 20
154.6358111767
 10
109.4464062748
 20
154.5360349314
 10
109.3916024441
 20
154.4282838805
 10
109.3463566616
 20
154.3131508313
 10
109.311031848
 20
154.1911874663
 10
109.2860176057
 20
154.0632277433
 10
109.2715303624
 20
153.9298662601
 10
109.2676168848
 20
153.8124793769
  0
LINE
  5
21C
100
AcDbEntity
  8
RACCORDO
100
AcDbLine
 62
7
  6
CONTINUOUS
 10
113.7447186134
 20
157.2085938503
 11
110.9257611728
 21
154.8994391001
  0
LINE
  5
21D
100
AcDbEntity
  8
RACCORDO
100
AcDbLine
 62
7
  6
CONTINUOUS
 10
112.5502554796
 20
157.1771939394
 11
109.7118201017
 21
154.8520826626
  0
LWPOLYLINE
  5
21E
100
AcDbEntity
  8
RACCORDO
100
AcDbPolyline
 62
7
  6
CONTINUOUS
 90
12
 70
0
 10
112.5512116437
 20
157.1779275932
 10
112.5629255574
 20
157.1873263352
 10
112.6529655261
 20
157.2487356667
 10
112.7511936721
 20
157.2975356819
 10
112.8576151075
 20
157.3337518909
 10
112.970579011
 20
157.3564515471
 10
113.0909433424
 20
157.3652697459
 10
113.2178604275
 20
157.3605785079
 10
113.3471168085
 20
157.3425475928
 10
113.4773077393
 20
157.3112334199
 10
113.6098410209
 20
157.2665817145
 10
113.7447186134
 20
157.2085938503
  0
LWPOLYLINE
  5
21F
100
AcDbEntity
  8
RACCORDO
100
AcDbPolyline
 62
7
  6
CONTINUOUS
 90
3
 70
0
 10
109.2676171817
 20
87.4614213438
 10
109.2733203116
 20
87.3157913098
 10
109.2930704326
 20
87.1501898722
  0
LWPOLYLINE
  5
220
100
AcDbEntity
  8
RACCORDO
100
AcDbPolyline
 62
7
  6
CONTINUOUS
 90
13
 70
0
 10
110.6070188082
 20
154.2689033697
 10
110.609745661
 20
154.3242537485
 10
110.6178795724
 20
154.3824377908
 10
110.6312813911
 20
154.4424599704
 10
110.649721832
 20
154.5032933091
 10
110.6728853936
 20
154.5638969326
 10
110.7003757521
 20
154.6232338806
 10
110.7317225545
 20
154.680288879
 10
110.766389457
 20
154.7340856865
 10
110.8037832906
 20
154.7837037897
 10
110.8432642317
 20
154.8282941896
 10
110.8841567544
 20
154.8670939235
 10
110.9257611727
 20
154.8994391001
  0
LWPOLYLINE
  5
221
100
AcDbEntity
  8
RACCORDO
100
AcDbPolyline
 62
7
  6
CONTINUOUS
 90
13
 70
0
 10
178.3246930381
 20
59.5781668728
 10
178.3800389679
 20
59.5622191092
 10
178.4383978678
 20
59.5503185734
 10
178.4988742231
 20
59.5426478787
 10
178.5605400269
 20
59.5393247314
 10
178.6224490201
 20
59.5404001251
 10
178.6836512122
 20
59.545857558
 10
178.7432074582
 20
59.555613286
 10
178.8002038703
 20
59.5695176079
 10
178.8537658411
 20
59.5873571625
 10
178.9030714645
 20
59.6088582026
 10
178.9473641481
 20
59.6336907958
 10
178.9859642226
 20
59.6614738871
  0
LWPOLYLINE
  5
222
100
AcDbEntity
  8
RACCORDO
100
AcDbPolyline
 62
7
  6
CONTINUOUS
 90
12
 70
0
 10
177.1176336038
 20
58.5590125144
 10
177.2493061206
 20
58.5195248022
 10
177.4017016699
 20
58.4858084411
 10
177.551971499
 20
58.4652744353
 10
177.6994359555
 20
58.4577765263
 10
177.8436280667
 20
58.4631467608
 10
177.9836770008
 20
58.4812839666
 10
178.1187535241
 20
58.5119950759
 10
178.2482725708
 20
58.5550839077
 10
178.3712847734
 20
58.6102782834
 10
178.4868028556
 20
58.6771221941
 10
178.5995450965
 20
58.7595937445
  0
LWPOLYLINE
  5
223
100
AcDbEntity
  8
RACCORDO
100
AcDbPolyline
 62
7
  6
CONTINUOUS
 90
25
 70
0
 10
177.0240938759
 20
58.7855369643
 10
177.0999298555
 20
58.7611164462
 10
177.178220015
 20
58.741536694
 10
177.258965125
 20
58.7267984652
 10
177.3432515739
 20
58.7163106483
 10
177.429994837
 20
58.7106661871
 10
177.5159382193
 20
58.711640849
 10
177.6010085971
 20
58.7197835622
 10
177.685278513
 20
58.7345448374
 10
177.7657076198
 20
58.7560507064
 10
177.8418937364
 20
58.7847743678
 10
177.9142365304
 20
58.8202401622
 10
177.9808969622
 20
58.8611493941
 10
178.0414385052
 20
58.9077451968
 10
178.0962947039
 20
58.9597815101
 10
178.1449311732
 20
59.0152254022
 10
178.1870146215
 20
59.0741793261
 10
178.222876035
 20
59.1365385625
 10
178.2529776286
 20
59.1999596006
 10
178.277059573
 20
59.264398036
 10
178.2953804275
 20
59.3298970236
 10
178.3091803497
 20
59.3942447446
 10
178.318872622
 20
59.4567038241
 10
178.3240435493
 20
59.518011231
 10
178.3246930381
 20
59.5781668728
  0
LWPOLYLINE
  5
224
100
AcDbEntity
  8
RACCORDO
100
AcDbPolyline
 62
7
  6
CONTINUOUS
 90
13
 70
0
 10
177.117632288
 20
58.5590111186
 10
171.3077899874
 20
60.5438736186
 10
165.5447509921
 20
62.5732140851
 10
159.8295482187
 20
64.6466702443
 10
154.1632064492
 20
66.7638718015
 10
148.5467410101
 20
68.9244409299
 10
142.9811574898
 20
71.1279924193
 10
137.4674530492
 20
73.3741331798
 10
132.0066166443
 20
75.6624621058
 10
126.5996274784
 20
77.9925706856
 10
121.247454904
 20
80.3640430591
 10
115.9510584062
 20
82.7764560347
 10
110.711387623
 20
85.2293790807
  0
LINE
  5
225
100
AcDbEntity
  8
RACCORDO
100
AcDbLine
 62
7
  6
CONTINUOUS
 10
110.5599404861
 20
85.3092080821
 11
110.7116531
 21
85.229258016
  0
LINE
  5
226
100
AcDbEntity
  8
RACCORDO
100
AcDbLine
 62
7
  6
CONTINUOUS
 10
110.4149135224
 20
85.401058533
 11
110.5599404861
 21
85.3092080821
  0
LWPOLYLINE
  5
227
100
AcDbEntity
  8
RACCORDO
100
AcDbPolyline
 62
7
  6
CONTINUOUS
 90
12
 70
0
 10
109.3266992906
 20
86.9824653281
 10
109.3737967233
 20
86.8140118038
 10
109.4334443631
 20
86.6473483029
 10
109.5046777789
 20
86.4840195017
 10
109.5870131008
 20
86.3245099941
 10
109.6797138147
 20
86.1698975784
 10
109.7820276763
 20
86.0212760348
 10
109.8933001439
 20
85.8795841868
 10
110.0128934569
 20
85.7457090514
 10
110.1403592153
 20
85.6204800771
 10
110.2747725302
 20
85.5051280835
 10
110.4149135224
 20
85.401058533
  0
LINE
  5
228
100
AcDbEntity
  8
RACCORDO
100
AcDbLine
 62
7
  6
CONTINUOUS
 10
109.2930704326
 20
87.1501898722
 11
109.3266992906
 21
86.9824653281
  0
LWPOLYLINE
  5
229
100
AcDbEntity
  8
RACCORDO
100
AcDbPolyline
 62
7
  6
CONTINUOUS
 90
7
 70
0
 10
110.6070188082
 20
85.4601316494
 10
110.6097456938
 20
85.4085615874
 10
110.6178796926
 20
85.3616545867
 10
110.6312816296
 20
85.320213239
 10
110.6497221937
 20
85.2849466169
 10
110.6728858615
 20
85.2564581423
 10
110.7003762957
 20
85.2352352607
  0
LWPOLYLINE
  5
22A
100
AcDbEntity
  8
RACCORDO
100
AcDbPolyline
 62
7
  6
CONTINUOUS
 90
25
 70
0
 10
109.4477263012
 20
87.2407095092
 10
109.4484864341
 20
87.176805115
 10
109.453515467
 20
87.1085054334
 10
109.4628135382
 20
87.0358105596
 10
109.4760522487
 20
86.9582520163
 10
109.4935606005
 20
86.8762986965
 10
109.5163251205
 20
86.7913569493
 10
109.5445796247
 20
86.7032266957
 10
109.5780920467
 20
86.612109221
 10
109.6171505302
 20
86.5200132248
 10
109.6620733317
 20
86.4267737052
 10
109.7125452425
 20
86.3325577672
 10
109.7679043517
 20
86.2398723705
 10
109.8285650228
 20
86.1486488506
 10
109.8941166277
 20
86.0589584531
 10
109.9626589864
 20
85.9735174644
 10
110.0345032679
 20
85.8925794002
 10
110.1093410746
 20
85.8158926648
 10
110.1843408167
 20
85.7454144549
 10
110.2594852738
 20
85.6816742255
 10
110.3347917993
 20
85.6241426201
 10
110.4074779843
 20
85.5731867644
 10
110.4766149762
 20
85.5289280778
 10
110.5431289575
 20
85.4912432974
 10
110.6070188082
 20
85.4601316494
  0
LINE
  5
22B
100
AcDbEntity
  8
RACCORDO
100
AcDbLine
 62
7
  6
CONTINUOUS
 10
109.2676164802
 20
153.812438419
 11
109.2676164802
 21
87.4611228313
  0
LINE
  5
22C
100
AcDbEntity
  8
RACCORDO
100
AcDbLine
 62
7
  6
CONTINUOUS
 10
109.4477263012
 20
153.5920250966
 11
109.4477263012
 21
87.2407095092
  0
LWPOLYLINE
  5
22D
100
AcDbEntity
  8
RACCORDO
100
AcDbPolyline
 62
7
  6
CONTINUOUS
 90
8
 70
0
 10
123.3277002283
 20
135.3705398553
 10
123.2817785536
 20
135.3267510838
 10
123.2373832598
 20
135.2703675588
 10
123.2004867064
 20
135.2064678231
 10
123.1714363793
 20
135.1357046675
 10
123.1504979705
 20
135.0587989202
 10
123.1378724301
 20
134.9765151867
 10
123.1336687778
 20
134.8896690398
  0
LWPOLYLINE
  5
22E
100
AcDbEntity
  8
RACCORDO
100
AcDbPolyline
 62
7
  6
CONTINUOUS
 90
28
 70
0
 10
123.4154892014
 20
135.1294948136
 10
123.4016085614
 20
135.1168384848
 10
123.3881087589
 20
135.1036376205
 10
123.3750080891
 20
135.0899005979
 10
123.3623228016
 20
135.0756347344
 10
123.3500683321
 20
135.0608473772
 10
123.3382602582
 20
135.0455479248
 10
123.3269127507
 20
135.0297452087
 10
123.3160396489
 20
135.0134483173
 10
123.3056544315
 20
134.996667295
 10
123.2957691931
 20
134.9794119251
 10
123.28639579
 20
134.9616923047
 10
123.2775457241
 20
134.9435187383
 10
123.2692296984
 20
134.9249022846
 10
123.2614571767
 20
134.9058525047
 10
123.2542367555
 20
134.8863766519
 10
123.2475777092
 20
134.8664848571
 10
123.2414885427
 20
134.8461870926
 10
123.2359766588
 20
134.8254890175
 10
123.2310506002
 20
134.8044002229
 10
123.2267182237
 20
134.7829307404
 10
123.2229865781
 20
134.7610855614
 10
123.219863965
 20
134.7388747559
 10
123.2173579217
 20
134.7163072706
 10
123.2154755713
 20
134.6933853606
 10
123.214225172
 20
134.6701159119
 10
123.213614709
 20
134.6465129611
 10
123.2135507986
 20
134.6359505683
  0
LINE
  5
22F
100
AcDbEntity
  8
RACCORDO
100
AcDbLine
 62
7
  6
CONTINUOUS
 10
124.1318421917
 20
135.3346792605
 11
123.9763254
 21
135.1987733423
  0
LINE
  5
230
100
AcDbEntity
  8
RACCORDO
100
AcDbLine
 62
7
  6
CONTINUOUS
 10
123.7839426571
 20
135.4514527307
 11
123.4154892014
 21
135.1294948136
  0
LINE
  5
231
100
AcDbEntity
  8
RACCORDO
100
AcDbLine
 62
7
  6
CONTINUOUS
 10
123.3300887304
 20
135.372509948
 11
123.3277002283
 21
135.3705398553
  0
LINE
  5
232
100
AcDbEntity
  8
RACCORDO
100
AcDbLine
 62
7
  6
CONTINUOUS
 10
123.3666990634
 20
135.0805562747
 11
123.1336687778
 21
134.8896690398
  0
LWPOLYLINE
  5
233
100
AcDbEntity
  8
RACCORDO
100
AcDbPolyline
 62
7
  6
CONTINUOUS
 90
6
 70
0
 10
123.3278651391
 20
135.3706581421
 10
123.345629811
 20
135.3846145323
 10
123.4029483405
 20
135.4200822055
 10
123.4661704393
 20
135.4461717508
 10
123.5354218978
 20
135.462963718
 10
123.6103556958
 20
135.4700718676
  0
LWPOLYLINE
  5
234
100
AcDbEntity
  8
RACCORDO
100
AcDbPolyline
 62
7
  6
CONTINUOUS
 90
10
 70
0
 10
123.1336687778
 20
134.8896690398
 10
123.1220786955
 20
134.8817901079
 10
123.108216962
 20
134.8752283906
 10
123.0925313412
 20
134.8701958449
 10
123.0755285125
 20
134.8668550326
 10
123.0577577036
 20
134.8653138689
 10
123.039792949
 20
134.8656221364
 10
123.0222145485
 20
134.8677698776
 10
123.0055903218
 20
134.8716877155
 10
122.9904572664
 20
134.8772490954
  0
LWPOLYLINE
  5
235
100
AcDbEntity
  8
RACCORDO
100
AcDbPolyline
 62
7
  6
CONTINUOUS
 90
13
 70
0
 10
110.6070188082
 20
85.4601316494
 10
115.8449660557
 20
83.0080018319
 10
121.1405537434
 20
80.595922022
 10
126.4928600506
 20
78.2243447479
 10
131.901249333
 20
75.8935893593
 10
137.3644867423
 20
73.604225339
 10
142.8807091578
 20
71.357049271
 10
148.4489269551
 20
69.1524643234
 10
154.0681400778
 20
66.99086646
 10
159.7364045759
 20
64.8729880646
 10
165.4523645211
 20
62.7993001053
 10
171.2152798502
 20
60.7700357228
 10
177.0240938759
 20
58.7855369643
  0
LWPOLYLINE
  5
236
100
AcDbEntity
  8
RACCORDO
100
AcDbPolyline
 62
7
  6
CONTINUOUS
 90
8
 70
0
 10
109.4477263012
 20
87.2407095092
 10
109.4026696183
 20
87.2650856928
 10
109.3632130169
 20
87.2924700573
 10
109.3299619584
 20
87.3224423924
 10
109.3034266807
 20
87.3545427753
 10
109.2840143692
 20
87.3882786279
 10
109.2720229076
 20
87.4231322749
 10
109.2676164802
 20
87.4611228279
  0
LWPOLYLINE
  5
237
100
AcDbEntity
  8
RACCORDO
100
AcDbPolyline
 62
7
  6
CONTINUOUS
 90
16
 70
0
 10
122.9904572664
 20
93.4691303936
 10
122.9953097574
 20
93.3689882247
 10
123.0090247873
 20
93.2674817784
 10
123.0316030651
 20
93.164611579
 10
123.0634396136
 20
93.0592775193
 10
123.1041422635
 20
92.952581817
 10
123.1525313431
 20
92.8478287859
 10
123.2088242883
 20
92.745155239
 10
123.272808391
 20
92.6444278639
 10
123.3426583217
 20
92.5485454607
 10
123.4186364333
 20
92.4575915704
 10
123.5004854116
 20
92.37148639
 10
123.5855988124
 20
92.2928825095
 10
123.6731083506
 20
92.2226645216
 10
123.7638852726
 20
92.1599500392
 10
123.8579312868
 20
92.1047403359
  0
LWPOLYLINE
  5
238
100
AcDbEntity
  8
RACCORDO
100
AcDbPolyline
 62
7
  6
CONTINUOUS
 90
9
 70
0
 10
125.8559197225
 20
132.7532338138
 10
125.8555011994
 20
132.7522237597
 10
125.8533145394
 20
132.7460434942
 10
125.8514135333
 20
132.7396513029
 10
125.8498017872
 20
132.7330593114
 10
125.8484823584
 20
132.7262800242
 10
125.8474577498
 20
132.7193263011
 10
125.8467299049
 20
132.7122113328
 10
125.8463002046
 20
132.7049486159
  0
LINE
  5
239
100
AcDbEntity
  8
DRAFT
100
AcDbLine
 62
7
  6
CONTINUOUS
 10
128.0556697055
 20
130.040393442
 11
126.7994312379
 21
129.0042525924
  0
LINE
  5
23A
100
AcDbEntity
  8
DRAFT
100
AcDbLine
 62
7
  6
CONTINUOUS
 10
127.4003480701
 20
130.3035853847
 11
126.7994312379
 21
129.843801002
  0
LINE
  5
23B
100
AcDbEntity
  8
RACCORDO
100
AcDbLine
 62
7
  6
CONTINUOUS
 10
125.8952887728
 20
132.7375020167
 11
125.8463002046
 21
132.7049486159
  0
LWPOLYLINE
  5
23C
100
AcDbEntity
  8
RACCORDO
100
AcDbPolyline
 62
7
  6
CONTINUOUS
 90
28
 70
0
 10
125.8463002046
 20
132.7049486159
 10
125.833633131
 20
132.6967777634
 10
125.82100387
 20
132.6891297566
 10
125.8084124216
 20
132.6820045953
 10
125.7958429632
 20
132.6753937101
 10
125.7833113173
 20
132.6693056704
 10
125.7708649516
 20
132.6637661849
 10
125.7585057427
 20
132.6587794269
 10
125.746231814
 20
132.654341223
 10
125.7340850027
 20
132.6504647615
 10
125.7220718657
 20
132.6471535186
 10
125.7101858461
 20
132.6444040181
 10
125.69844911
 20
132.6422190188
 10
125.6868623117
 20
132.6405983531
 10
125.6754247968
 20
132.6395421886
 10
125.6641567686
 20
132.6390537877
 10
125.6530532515
 20
132.639134158
 10
125.642119221
 20
132.6397822919
 10
125.6313898067
 20
132.6409984292
 10
125.6208642529
 20
132.6427862004
 10
125.6105433154
 20
132.6451419751
 10
125.600464391
 20
132.6480551016
 10
125.5906283623
 20
132.6515301037
 10
125.5810343468
 20
132.6555624578
 10
125.5717170936
 20
132.6601279406
 10
125.5626881857
 20
132.6652184778
 10
125.55393604
 20
132.6708421439
 10
125.5454606566
 20
132.6769989387
  0
LWPOLYLINE
  5
23D
100
AcDbEntity
  8
RACCORDO
100
AcDbPolyline
 62
7
  6
CONTINUOUS
 90
9
 70
0
 10
162.5832447585
 20
76.7033297075
 10
162.6746757706
 20
76.6826593014
 10
162.7644102305
 20
76.6712013174
 10
162.8515988809
 20
76.6691043413
 10
162.9354634722
 20
76.6764515392
 10
163.0151561533
 20
76.6931841018
 10
163.089778193
 20
76.7190786312
 10
163.1586006793
 20
76.7538759082
 10
163.2243566514
 20
76.7999761642
  0
LWPOLYLINE
  5
23E
100
AcDbEntity
  8
RACCORDO
100
AcDbPolyline
 62
7
  6
CONTINUOUS
 90
11
 70
0
 10
162.536911731
 20
76.5703897923
 10
162.6374716371
 20
76.5474857128
 10
162.7345361918
 20
76.5347970073
 10
162.8281038764
 20
76.5323223041
 10
162.9190913295
 20
76.5402242987
 10
163.0065792783
 20
76.5583379149
 10
163.087811357
 20
76.5861692319
 10
163.1625186343
 20
76.624010781
 10
163.2309656442
 20
76.6715660396
 10
163.2911948286
 20
76.7274562405
 10
163.3429741444
 20
76.7920044993
  0
LWPOLYLINE
  5
23F
100
AcDbEntity
  8
RACCORDO
100
AcDbPolyline
 62
7
  6
CONTINUOUS
 90
55
 70
0
 10
162.4037775336
 20
77.0021551143
 10
162.4223300717
 20
76.9972196464
 10
162.4407987162
 20
76.9928037234
 10
162.4591834603
 20
76.9889073389
 10
162.4774989271
 20
76.9855281385
 10
162.4957304804
 20
76.9826684649
 10
162.513834221
 20
76.980335355
 10
162.5318090385
 20
76.9785302305
 10
162.5496560227
 20
76.977251651
 10
162.5673345677
 20
76.9765023542
 10
162.5848441947
 20
76.9762835478
 10
162.6021853561
 20
76.9765940003
 10
162.6193188374
 20
76.9774327854
 10
162.6362441449
 20
76.9788010829
 10
162.6529617408
 20
76.9806976845
 10
162.6694338391
 20
76.9831180764
 10
162.6856598683
 20
76.9860634329
 10
162.7016403641
 20
76.9895325474
 10
162.717339197
 20
76.9935173308
 10
162.732755683
 20
76.9980189281
 10
162.7478904671
 20
77.003036159
 10
162.7627094086
 20
77.0085574419
 10
162.7772117604
 20
77.0145838928
 10
162.7913982285
 20
77.0211143584
 10
162.8052368482
 20
77.0281338499
 10
162.8187267963
 20
77.0356434413
 10
162.8318688539
 20
77.0436420202
 10
162.8446334595
 20
77.0521113152
 10
162.8570197312
 20
77.0610523566
 10
162.8690285087
 20
77.0704640758
 10
162.8806328118
 20
77.0803250512
 10
162.8918317001
 20
77.090636259
 10
162.902626073
 20
77.1013966859
 10
162.9129917078
 20
77.1125819236
 10
162.9229276218
 20
77.1241929001
 10
162.9324347592
 20
77.1362286524
 10
162.9414917871
 20
77.1486619349
 10
162.9500976781
 20
77.1614936166
 10
162.9582534243
 20
77.1747227966
 10
162.9659407217
 20
77.1883195739
 10
162.9731584974
 20
77.2022847322
 10
162.9799077932
 20
77.2166174598
 10
162.9861734776
 20
77.2312854626
 10
162.9919544655
 20
77.2462894711
 10
162.997251816
 20
77.2616287315
 10
163.0020536146
 20
77.2772687238
 10
163.0063587474
 20
77.2932101795
 10
163.0101683083
 20
77.309452349
 10
163.0134736959
 20
77.3259584924
 10
163.0162737724
 20
77.3427301155
 10
163.018569662
 20
77.3597657002
 10
163.0203561569
 20
77.3770239717
 10
163.0216315189
 20
77.3944911699
 10
163.0223974794
 20
77.4121810487
 10
163.0226540366
 20
77.4300936066
  0
LWPOLYLINE
  5
240
100
AcDbEntity
  8
RACCORDO
100
AcDbPolyline
 62
7
  6
CONTINUOUS
 90
30
 70
0
 10
162.4569211719
 20
76.9064623752
 10
162.4681559321
 20
76.9033952227
 10
162.4938512945
 20
76.8969262983
 10
162.5194723724
 20
76.8912353007
 10
162.545004719
 20
76.8863233172
 10
162.5704272005
 20
76.8821918311
 10
162.5957099107
 20
76.8788429208
 10
162.6208371384
 20
76.8762755845
 10
162.6457915853
 20
76.8744884065
 10
162.6705409668
 20
76.8734804683
 10
162.6950685925
 20
76.8732485381
 10
162.7193582857
 20
76.8737886223
 10
162.7433785224
 20
76.8750957518
 10
162.7671135398
 20
76.8771640249
 10
162.7905466563
 20
76.8799866889
 10
162.8136448613
 20
76.8835540826
 10
162.8363901407
 20
76.8878566019
 10
162.8587689957
 20
76.8928844447
 10
162.8807550847
 20
76.8986243204
 10
162.9023243224
 20
76.9050612996
 10
162.9234708899
 20
76.9121843581
 10
162.9441946767
 20
76.9199857197
 10
162.9644790128
 20
76.9284520644
 10
162.9843103751
 20
76.9375698632
 10
163.0036909837
 20
76.9473334204
 10
163.0226055503
 20
76.9577294589
 10
163.0410391112
 20
76.9687432765
 10
163.0589920374
 20
76.9803693856
 10
163.0764489342
 20
76.9925932695
 10
163.0883588502
 20
77.00149208
  0
LWPOLYLINE
  5
241
100
AcDbEntity
  8
RACCORDO
100
AcDbPolyline
 62
7
  6
CONTINUOUS
 90
34
 70
0
 10
161.5641957662
 20
78.3382939304
 10
160.4092258074
 20
78.6687940632
 10
159.2568057239
 20
79.0066107163
 10
158.1069712054
 20
79.3517974588
 10
156.9600900993
 20
79.7043623249
 10
155.8158470089
 20
80.0643903583
 10
154.6732378378
 20
80.4320501219
 10
153.531845352
 20
80.8074925773
 10
152.3920781055
 20
81.1906642236
 10
151.2541652608
 20
81.5814142901
 10
150.118095418
 20
81.9797510557
 10
148.9838587159
 20
82.3857182178
 10
147.8516911376
 20
82.7991928518
 10
146.7217327561
 20
83.2201193102
 10
145.5939170177
 20
83.6485384124
 10
144.4682003517
 20
84.0844511456
 10
143.34461894
 20
84.5278402365
 10
142.2232159762
 20
84.9786965084
 10
141.103958285
 20
85.4370326935
 10
139.9868736068
 20
85.9028298019
 10
138.8720110062
 20
86.3760714296
 10
137.7593690031
 20
86.8567731925
 10
136.6488703853
 20
87.3449493281
 10
135.5406463281
 20
87.8405482773
 10
134.4349512855
 20
88.3434977836
 10
133.33121755
 20
88.8540158772
 10
132.2299127608
 20
89.3718814393
 10
131.1328422623
 20
89.8963074139
 10
130.0378911033
 20
90.4282286518
 10
128.947157124
 20
90.9665911816
 10
127.8687036527
 20
91.5074091365
 10
126.8051510859
 20
92.0491115058
 10
125.75373272
 20
92.5927300502
 10
124.714378809
 20
93.1380111801
  0
LWPOLYLINE
  5
242
100
AcDbEntity
  8
RACCORDO
100
AcDbPolyline
 62
7
  6
CONTINUOUS
 90
34
 70
0
 10
161.5463078538
 20
78.2018721426
 10
160.3911975404
 20
78.5342706855
 10
159.2386368047
 20
78.8739181915
 10
158.0886312168
 20
79.2208089877
 10
156.941516233
 20
79.5748272075
 10
155.7969662618
 20
79.9360763408
 10
154.6540004812
 20
80.3048843426
 10
153.5122371662
 20
80.681375609
 10
152.3720808399
 20
81.0654247403
 10
151.2337342562
 20
81.4569886693
 10
150.0971905444
 20
81.8560774432
 10
148.9624759683
 20
82.2626769389
 10
147.8298406135
 20
82.6767057887
 10
146.6993712777
 20
83.0981340536
 10
145.570997497
 20
83.5269849657
 10
144.4447320911
 20
83.9632557513
 10
143.3205789595
 20
84.4069456859
 10
142.1985506988
 20
84.8580489259
 10
141.0786730254
 20
85.3165548966
 10
139.960950676
 20
85.7824627146
 10
138.8453951108
 20
86.255766453
 10
137.7320418481
 20
86.7364477434
 10
136.6208395464
 20
87.2245320144
 10
135.5118555417
 20
87.7199868712
 10
134.4053019766
 20
88.22270611
 10
133.3006799648
 20
88.7329392255
 10
132.1985036264
 20
89.2504291722
 10
131.1004930799
 20
89.7743009685
 10
130.0045300104
 20
90.3056673955
 10
128.912733607
 20
90.8433971635
 10
127.8331210743
 20
91.3832039512
 10
126.7683081456
 20
91.923609878
 10
125.7155632751
 20
92.4659869383
 10
124.6748341696
 20
93.0102872221
  0
LINE
  5
243
100
AcDbEntity
  8
RACCORDO
100
AcDbLine
 62
7
  6
CONTINUOUS
 10
159.2704420485
 20
77.6582164613
 11
162.5832447585
 21
76.7033297075
  0
LWPOLYLINE
  5
244
100
AcDbEntity
  8
RACCORDO
100
AcDbPolyline
 62
7
  6
CONTINUOUS
 90
34
 70
0
 10
163.0226540366
 20
77.4300936066
 10
163.0304782476
 20
77.4274028272
 10
163.0385082496
 20
77.4249195
 10
163.046727335
 20
77.4226487922
 10
163.0551184028
 20
77.4205954281
 10
163.0636639941
 20
77.4187636801
 10
163.0723463285
 20
77.4171573594
 10
163.0811473411
 20
77.4157798084
 10
163.0900487203
 20
77.414633893
 10
163.0990319452
 20
77.4137219976
 10
163.108078325
 20
77.4130460195
 10
163.1171690373
 20
77.4126073652
 10
163.1262851676
 20
77.4124069474
 10
163.1354077485
 20
77.4124451831
 10
163.1445177989
 20
77.4127219926
 10
163.1535963642
 20
77.4132368002
 10
163.162624555
 20
77.4139885345
 10
163.1715835868
 20
77.4149756316
 10
163.1804548191
 20
77.4161960377
 10
163.1892197939
 20
77.4176472134
 10
163.1978602744
 20
77.4193261395
 10
163.2063582828
 20
77.4212293227
 10
163.2146961377
 20
77.423352803
 10
163.222856491
 20
77.4256921623
 10
163.2308223639
 20
77.4282425333
 10
163.2385771822
 20
77.4309986094
 10
163.2461048108
 20
77.4339546563
 10
163.2533895874
 20
77.4371045235
 10
163.260416355
 20
77.4404416572
 10
163.2671704933
 20
77.443959114
 10
163.2736379493
 20
77.4476495753
 10
163.2798052665
 20
77.4515053625
 10
163.2856596129
 20
77.4555184532
 10
163.2911888077
 20
77.4596804975
  0
LWPOLYLINE
  5
245
100
AcDbEntity
  8
RACCORDO
100
AcDbPolyline
 62
7
  6
CONTINUOUS
 90
13
 70
0
 10
123.8579312868
 20
92.1047403359
 10
126.9797869194
 20
90.4752325163
 10
130.1213141245
 20
88.9060659792
 10
133.2823422798
 20
87.3973384086
 10
136.463084956
 20
85.9489803537
 10
139.6629871066
 20
84.561258072
 10
142.8807034206
 20
83.2347562174
 10
146.1160333656
 20
81.969568467
 10
149.3687847323
 20
80.7657586813
 10
152.6375849793
 20
79.62383426
 10
155.9218233791
 20
78.5439975383
 10
159.2216717228
 20
77.5261631638
 10
162.536911731
 20
76.5703897923
  0
LWPOLYLINE
  5
246
100
AcDbEntity
  8
RACCORDO
100
AcDbPolyline
 62
7
  6
CONTINUOUS
 90
12
 70
0
 10
123.9261881149
 20
92.2288751585
 10
127.0455600903
 20
90.6004576761
 10
130.1855490748
 20
89.0319994153
 10
133.3454742145
 20
87.5238027391
 10
136.5245226126
 20
86.0762000217
 10
139.722145163
 20
84.6894305779
 10
142.9380570686
 20
83.3636576576
 10
146.1716000201
 20
82.0991834256
 10
149.4220713073
 20
80.8962519092
 10
152.6891195233
 20
79.7549559185
 10
155.9721733413
 20
78.6755068299
 10
159.2704420485
 20
77.6582164613
  0
LWPOLYLINE
  5
247
100
AcDbEntity
  8
RACCORDO
100
AcDbPolyline
 62
7
  6
CONTINUOUS
 90
34
 70
0
 10
123.8986178773
 20
92.3922910718
 10
125.0164745973
 20
91.8021210987
 10
126.1497050338
 20
91.2130385435
 10
127.2855506223
 20
90.6318303104
 10
128.4239472088
 20
90.0585281935
 10
129.5648767346
 20
89.4931390319
 10
130.7083648726
 20
88.935648817
 10
131.8543741792
 20
88.3860752302
 10
133.0028637592
 20
87.8444362715
 10
134.1538550662
 20
87.3107209419
 10
135.3073082433
 20
86.7849475174
 10
136.4631826213
 20
86.2671332163
 10
137.6214993199
 20
85.7572679493
 10
138.7822179678
 20
85.255369532
 10
139.9452978336
 20
84.7614545487
 10
141.1107603226
 20
84.2755135837
 10
142.2785646261
 20
83.7975640114
 10
143.4486694695
 20
83.327622011
 10
144.6210963312
 20
82.8656789326
 10
145.7958040238
 20
82.411751673
 10
146.9727507714
 20
81.9658559835
 10
148.1519578814
 20
81.5279840795
 10
149.3333838467
 20
81.0981523642
 10
150.5169864402
 20
80.6763761542
 10
151.7027865375
 20
80.2626486288
 10
152.8907418012
 20
79.8569858671
 10
154.0808096168
 20
79.4594026753
 10
155.2730110321
 20
79.069892941
 10
156.4673025651
 20
78.6884725123
 10
157.663643254
 20
78.3151551574
 10
158.862058469
 20
77.949934343
 10
160.0625280602
 20
77.5928185399
 10
161.2649820621
 20
77.2438297825
 10
162.4569216978
 20
76.9064621404
  0
LWPOLYLINE
  5
248
100
AcDbEntity
  8
RACCORDO
100
AcDbPolyline
 62
7
  6
CONTINUOUS
 90
34
 70
0
 10
123.8703456304
 20
92.4780500825
 10
124.999607067
 20
91.8819509676
 10
126.1314252288
 20
91.2937332407
 10
127.2657918709
 20
90.713401392
 10
128.4026921885
 20
90.1409648723
 10
129.542124395
 20
89.5764231536
 10
130.6840998604
 20
89.0197658344
 10
131.8286367052
 20
88.4709842699
 10
132.9757004549
 20
87.9300962521
 10
134.1252233028
 20
87.3971308242
 10
135.277188907
 20
86.8720957976
 10
136.4315962282
 20
86.3549917476
 10
137.5883997842
 20
85.8458363773
 10
138.7475833336
 20
85.3446364609
 10
139.9091451601
 20
84.8513931745
 10
141.0730612226
 20
84.3661155518
 10
142.2393336926
 20
83.8888025858
 10
143.4079422138
 20
83.4194630624
 10
144.5788285432
 20
82.9581203728
 10
145.7519718798
 20
82.5047822607
 10
146.9273740607
 20
82.059448123
 10
148.1050103969
 20
81.6221284974
 10
149.2848787284
 20
81.192823765
 10
150.4669620485
 20
80.7715405045
 10
151.6512130712
 20
80.3582982697
 10
152.837629814
 20
79.9530976957
 10
154.0261945742
 20
79.5559446469
 10
155.2168359059
 20
79.1668660162
 10
156.409516264
 20
78.78587295
 10
157.6042526156
 20
78.4129599892
 10
158.8010550345
 20
78.0481288924
 10
159.9999201549
 20
77.691382245
 10
161.200831047
 20
77.3427233499
 10
162.4037775336
 20
77.0021551143
  0
LWPOLYLINE
  5
249
100
AcDbEntity
  8
RACCORDO
100
AcDbPolyline
 62
7
  6
CONTINUOUS
 90
46
 70
0
 10
124.6748341696
 20
93.0102872221
 10
124.6680765518
 20
93.0139311776
 10
124.6611859949
 20
93.0179122702
 10
124.6541625043
 20
93.022230504
 10
124.6470029636
 20
93.0268705253
 10
124.6397105
 20
93.0318476958
 10
124.6322944843
 20
93.0372080923
 10
124.6247564518
 20
93.0429477921
 10
124.6170948778
 20
93.0490707258
 10
124.609314542
 20
93.0556347499
 10
124.601408209
 20
93.0626434609
 10
124.5933831252
 20
93.0700932704
 10
124.5852657922
 20
93.0780312568
 10
124.5770519884
 20
93.0864606978
 10
124.5687459443
 20
93.0953783223
 10
124.5603868371
 20
93.1048213824
 10
124.5519753689
 20
93.1147875676
 10
124.5435108428
 20
93.1252791923
 10
124.535030333
 20
93.1363404439
 10
124.5265281754
 20
93.1479770076
 10
124.5180100359
 20
93.1601831995
 10
124.5095299796
 20
93.1729861502
 10
124.5010835273
 20
93.1863926313
 10
124.4926751546
 20
93.2003958684
 10
124.4843723529
 20
93.2150026686
 10
124.4761724953
 20
93.2302186796
 10
124.4680781988
 20
93.2460382463
 10
124.4601648146
 20
93.2624512167
 10
124.4524274607
 20
93.2794719412
 10
124.4448710029
 20
93.2970860575
 10
124.4375854075
 20
93.3152403393
 10
124.430569073
 20
93.3339497801
 10
124.4238235786
 20
93.3531993699
 10
124.4174436543
 20
93.372890872
 10
124.4114323088
 20
93.3930317748
 10
124.4057865072
 20
93.4136145704
 10
124.4005919092
 20
93.4345185245
 10
124.3958526287
 20
93.455747524
 10
124.391564526
 20
93.4772976627
 10
124.3878008769
 20
93.4990365143
 10
124.3845655485
 20
93.520966889
 10
124.3818546526
 20
93.5430859607
 10
124.379729832
 20
93.5652528486
 10
124.3782116298
 20
93.587420589
 10
124.3772794905
 20
93.6096361362
 10
124.3769334109
 20
93.6318994881
  0
LINE
  5
24A
100
AcDbEntity
  8
RACCORDO
100
AcDbLine
 62
7
  6
CONTINUOUS
 10
123.8412169745
 20
92.279044094
 11
123.9261881149
 21
92.2288751585
  0
LWPOLYLINE
  5
24B
100
AcDbEntity
  8
RACCORDO
100
AcDbPolyline
 62
7
  6
CONTINUOUS
 90
46
 70
0
 10
124.714378809
 20
93.1380111801
 10
124.7111156832
 20
93.1400893317
 10
124.7078390358
 20
93.1424511013
 10
124.7045481238
 20
93.1450968177
 10
124.7012375964
 20
93.1480121073
 10
124.6979119648
 20
93.1512117111
 10
124.6945854884
 20
93.1547395352
 10
124.6912590059
 20
93.1585919438
 10
124.6879320937
 20
93.1627723764
 10
124.6846171832
 20
93.1673353215
 10
124.6813123724
 20
93.1722819674
 10
124.6780213862
 20
93.1776102958
 10
124.6747653794
 20
93.1833698572
 10
124.6715457454
 20
93.189561408
 10
124.6683653653
 20
93.196182261
 10
124.6652482826
 20
93.2032765066
 10
124.6621994814
 20
93.2108398988
 10
124.6592212786
 20
93.2188733948
 10
124.6563345
 20
93.2274285376
 10
124.6535438868
 20
93.2365063515
 10
124.6508554762
 20
93.2461009618
 10
124.6482929888
 20
93.2562531352
 10
124.6458643939
 20
93.266964061
 10
124.6435766943
 20
93.2782258177
 10
124.6414532608
 20
93.2900650119
 10
124.6395053701
 20
93.302481045
 10
124.6377412982
 20
93.3154657288
 10
124.6361810878
 20
93.3290337604
 10
124.6348386548
 20
93.3431910803
 10
124.6337246013
 20
93.3579207348
 10
124.6328549301
 20
93.3732026626
 10
124.6322470376
 20
93.3890433574
 10
124.6319122838
 20
93.405423415
 10
124.6318576874
 20
93.4222838978
 10
124.6321024168
 20
93.4396250467
 10
124.6326585386
 20
93.4574326053
 10
124.6335216878
 20
93.4756262218
 10
124.6347111417
 20
93.4942030612
 10
124.6362400332
 20
93.513151424
 10
124.6380938196
 20
93.5323780981
 10
124.6402912551
 20
93.551877977
 10
124.6428462692
 20
93.5716415195
 10
124.6457363886
 20
93.5915691767
 10
124.6489649459
 20
93.6116229189
 10
124.6525613388
 20
93.6318261181
 10
124.6565419222
 20
93.6521714522
  0
LINE
  5
24C
100
AcDbEntity
  8
RACCORDO
100
AcDbLine
 62
7
  6
CONTINUOUS
 10
123.7577229087
 20
92.337147503
 11
123.8412169745
 21
92.279044094
  0
LWPOLYLINE
  5
24D
100
AcDbEntity
  8
RACCORDO
100
AcDbPolyline
 62
7
  6
CONTINUOUS
 90
16
 70
0
 10
124.6748341701
 20
133.6975878428
 10
124.6756119707
 20
133.689501735
 10
124.6766744309
 20
133.6816484015
 10
124.6780190535
 20
133.6740463011
 10
124.6796426782
 20
133.6667133016
 10
124.6815414887
 20
133.6596666385
 10
124.6837110221
 20
133.6529228746
 10
124.6861461791
 20
133.6464978602
 10
124.688841236
 20
133.6404066968
 10
124.6917898585
 20
133.6346637012
 10
124.694985116
 20
133.6292823716
 10
124.6984194983
 20
133.6242753564
 10
124.7020849334
 20
133.6196544242
 10
124.7059728058
 20
133.615430436
 10
124.7100739776
 20
133.6116133198
 10
124.7143788093
 20
133.6082120475
  0
LWPOLYLINE
  5
24E
100
AcDbEntity
  8
RACCORDO
100
AcDbPolyline
 62
7
  6
CONTINUOUS
 90
37
 70
0
 10
123.8703456306
 20
134.9407044804
 10
123.8698734006
 20
134.9480702216
 10
123.8696283571
 20
134.95559049
 10
123.8696109539
 20
134.9632513589
 10
123.8698212232
 20
134.9710386413
 10
123.8702587756
 20
134.9789379161
 10
123.8709228008
 20
134.9869345548
 10
123.8718120691
 20
134.9950137485
 10
123.8729249337
 20
135.0031605356
 10
123.8742593338
 20
135.0113598292
 10
123.8758127981
 20
135.0195964452
 10
123.8775824498
 20
135.0278551303
 10
123.8795650118
 20
135.0361205905
 10
123.8817568125
 20
135.0443775191
 10
123.8841537931
 20
135.0526106253
 10
123.8867515146
 20
135.0608046623
 10
123.8895451664
 20
135.0689444558
 10
123.8925295748
 20
135.0770149319
 10
123.8956992133
 20
135.085001145
 10
123.8990482119
 20
135.0928883055
 10
123.9025703687
 20
135.1006618075
 10
123.9062591612
 20
135.1083072553
 10
123.9101077581
 20
135.1158104905
 10
123.9141090322
 20
135.123157618
 10
123.9182555738
 20
135.1303350317
 10
123.9225397038
 20
135.13732944
 10
123.9269534887
 20
135.1441278901
 10
123.9314887546
 20
135.150717792
 10
123.9361371027
 20
135.1570869421
 10
123.9408899248
 20
135.1632235454
 10
123.9457384194
 20
135.1691162377
 10
123.9506736075
 20
135.1747541065
 10
123.9556863498
 20
135.180126711
 10
123.9607673633
 20
135.1852241018
 10
123.9659072385
 20
135.1900368393
 10
123.9710964571
 20
135.1945560107
 10
123.9763254092
 20
135.1987732472
  0
LWPOLYLINE
  5
24F
100
AcDbEntity
  8
RACCORDO
100
AcDbPolyline
 62
7
  6
CONTINUOUS
 90
37
 70
0
 10
125.8463002161
 20
96.0532725519
 10
125.8467299163
 20
96.0462873082
 10
125.8474577611
 20
96.0391813431
 10
125.8484823697
 20
96.0319681361
 10
125.8498017985
 20
96.02466137
 10
125.8514135447
 20
96.0172749053
 10
125.8533145508
 20
96.0098227536
 10
125.8555012109
 20
96.002319051
 10
125.857969377
 20
95.9947780314
 10
125.8607143672
 20
95.9872139997
 10
125.8637309745
 20
95.9796413043
 10
125.8670134765
 20
95.97207431
 10
125.8705556466
 20
95.9645273708
 10
125.8743507656
 20
95.9570148027
 10
125.8783916343
 20
95.9495508565
 10
125.8826705877
 20
95.9421496907
 10
125.8871795088
 20
95.9348253449
 10
125.8919098446
 20
95.9275917128
 10
125.8968526219
 20
95.9204625159
 10
125.9019984646
 20
95.913451278
 10
125.9073376116
 20
95.9065712987
 10
125.9128599347
 20
95.899835629
 10
125.9185549587
 20
95.8932570458
 10
125.9244118804
 20
95.8868480284
 10
125.9304195896
 20
95.880620734
 10
125.9365666903
 20
95.8745869754
 10
125.9428415218
 20
95.8687581982
 10
125.9492321812
 20
95.8631454592
 10
125.9557265459
 20
95.8577594054
 10
125.9623122967
 20
95.8526102536
 10
125.9689769407
 20
95.8477077715
 10
125.9757078367
 20
95.843061258
 10
125.9824922156
 20
95.838679528
 10
125.989317205
 20
95.8345708949
 10
125.9961698571
 20
95.8307431526
 10
126.0030371742
 20
95.8272035611
 10
126.0099061293
 20
95.8239588344
  0
LWPOLYLINE
  5
250
100
AcDbEntity
  8
RACCORDO
100
AcDbPolyline
 62
7
  6
CONTINUOUS
 90
14
 70
0
 10
123.1336687778
 20
93.4815503381
 10
123.1378750879
 20
93.3908624243
 10
123.1505074779
 20
93.2972201606
 10
123.1714543395
 20
93.2015279725
 10
123.2005108589
 20
93.104678238
 10
123.2374095833
 20
93.0076398086
 10
123.2818065255
 20
92.9114476672
 10
123.3332255327
 20
92.8170511523
 10
123.3911655703
 20
92.7253346582
 10
123.4551301682
 20
92.6372088412
 10
123.5244975039
 20
92.5534848097
 10
123.5985490894
 20
92.4750060144
 10
123.6765551708
 20
92.4026548395
 10
123.7577229087
 20
92.337147503
  0
LWPOLYLINE
  5
251
100
AcDbEntity
  8
RACCORDO
100
AcDbPolyline
 62
7
  6
CONTINUOUS
 90
55
 70
0
 10
123.2911151229
 20
93.387175361
 10
123.2913551138
 20
93.3690614139
 10
123.2920713966
 20
93.350774731
 10
123.2932639735
 20
93.3323153136
 10
123.2949344663
 20
93.3136682185
 10
123.2970812611
 20
93.2948483949
 10
123.2996995074
 20
93.2759006845
 10
123.3027902735
 20
93.2568255647
 10
123.3063525068
 20
93.2376225696
 10
123.3103781778
 20
93.2183351278
 10
123.3148683274
 20
93.198963132
 10
123.3198219376
 20
93.1795067065
 10
123.3252278918
 20
93.1600096283
 10
123.3310872063
 20
93.1404718211
 10
123.3373988944
 20
93.1208933831
 10
123.3441488358
 20
93.1013183545
 10
123.3513380358
 20
93.081746724
 10
123.3589655246
 20
93.0621785292
 10
123.3670142193
 20
93.0426578839
 10
123.3754850857
 20
93.0231849
 10
123.3843771986
 20
93.0037594955
 10
123.3936706382
 20
92.9844254934
 10
123.4033663344
 20
92.9651830973
 10
123.4134634016
 20
92.9460321363
 10
123.4239391967
 20
92.927015871
 10
123.4347945976
 20
92.9081346121
 10
123.4460287732
 20
92.8893880838
 10
123.4576165151
 20
92.8708186647
 10
123.4695586501
 20
92.8524267569
 10
123.4818543995
 20
92.8342119942
 10
123.4944761448
 20
92.8162156015
 10
123.5074246499
 20
92.7984380776
 10
123.5206991991
 20
92.7808789595
 10
123.5342699511
 20
92.7635780271
 10
123.5481376141
 20
92.7465358577
 10
123.5623015269
 20
92.7297519088
 10
123.5767297894
 20
92.7132642776
 10
123.5914230479
 20
92.6970736235
 10
123.6063807006
 20
92.6811793202
 10
123.6215689713
 20
92.6656175326
 10
123.6369884003
 20
92.6503890347
 10
123.6526384881
 20
92.635493083
 10
123.6684838931
 20
92.6209635619
 10
123.6845250783
 20
92.6068013086
 10
123.7007616168
 20
92.5930055128
 10
123.7171568258
 20
92.5796075834
 10
123.7337111553
 20
92.5666083917
 10
123.7504241855
 20
92.5540070889
 10
123.7672579219
 20
92.5418324985
 10
123.7842135619
 20
92.5300851178
 10
123.8012899316
 20
92.518764467
 10
123.818445473
 20
92.5078978983
 10
123.8356663366
 20
92.4974945314
 10
123.8529663864
 20
92.4875452575
 10
123.8703456304
 20
92.4780500825
  0
LWPOLYLINE
  5
252
100
AcDbEntity
  8
RACCORDO
100
AcDbPolyline
 62
7
  6
CONTINUOUS
 90
52
 70
0
 10
123.2135507499
 20
93.477885199
 10
123.213606808
 20
93.4679520423
 10
123.2142232789
 20
93.4433042761
 10
123.2155171998
 20
93.4184895406
 10
123.2174852376
 20
93.3935207334
 10
123.2201229665
 20
93.3684161588
 10
123.2234246515
 20
93.3432017275
 10
123.2273854397
 20
93.3178920286
 10
123.2320000028
 20
93.2925021422
 10
123.2372606131
 20
93.2670597752
 10
123.2431613367
 20
93.2415801442
 10
123.2496956648
 20
93.2160789132
 10
123.2568534013
 20
93.1905855155
 10
123.2646272802
 20
93.165115331
 10
123.2730095262
 20
93.139684374
 10
123.2819871176
 20
93.1143239495
 10
123.2915510081
 20
93.0890503887
 10
123.3016923404
 20
93.0638789744
 10
123.3123960259
 20
93.0388400263
 10
123.3236499867
 20
93.0139531963
 10
123.335445656
 20
92.9892300824
 10
123.3477714924
 20
92.9646892835
 10
123.3606154191
 20
92.9403486961
 10
123.373968001
 20
92.9162213061
 10
123.3878209714
 20
92.8923186802
 10
123.4021636895
 20
92.8686558654
 10
123.4169853239
 20
92.8452486072
 10
123.432276889
 20
92.8221096902
 10
123.4480276698
 20
92.79925396
 10
123.4642266128
 20
92.7766971996
 10
123.4808636507
 20
92.7544534147
 10
123.4979275829
 20
92.7325376632
 10
123.51540736
 20
92.7109652289
 10
123.5332926214
 20
92.6897499799
 10
123.5515722056
 20
92.6689065502
 10
123.5702345871
 20
92.6484503521
 10
123.5892685297
 20
92.6283957358
 10
123.608663432
 20
92.6087564265
 10
123.6284067677
 20
92.5895483753
 10
123.6484841869
 20
92.5707882973
 10
123.6688840069
 20
92.5524903559
 10
123.6895940933
 20
92.5346692134
 10
123.7105994359
 20
92.5173411627
 10
123.7318880388
 20
92.5005200807
 10
123.753447606
 20
92.4842199635
 10
123.775262921
 20
92.4684563116
 10
123.7973214019
 20
92.4532429025
 10
123.8196110651
 20
92.438592919
 10
123.8421184918
 20
92.4245201726
 10
123.8648315463
 20
92.4110379562
 10
123.8877369236
 20
92.3981596793
 10
123.8986194393
 20
92.3922903775
  0
LINE
  5
253
100
AcDbEntity
  8
RACCORDO
100
AcDbLine
 62
7
  6
CONTINUOUS
 10
122.9904572664
 20
134.8772490954
 11
122.9904572664
 21
93.4691303936
  0
LINE
  5
254
100
AcDbEntity
  8
RACCORDO
100
AcDbLine
 62
7
  6
CONTINUOUS
 10
123.1336687778
 20
134.8896690398
 11
123.1336687778
 21
93.4815503381
  0
LINE
  5
255
100
AcDbEntity
  8
RACCORDO
100
AcDbLine
 62
7
  6
CONTINUOUS
 10
123.2135506607
 20
134.6359497841
 11
123.2135506607
 21
93.4778830589
  0
LINE
  5
256
100
AcDbEntity
  8
RACCORDO
100
AcDbLine
 62
7
  6
CONTINUOUS
 10
123.2911151229
 20
134.5452420861
 11
123.2911151229
 21
93.387175361
  0
LINE
  5
257
100
AcDbEntity
  8
RACCORDO
100
AcDbLine
 62
7
  6
CONTINUOUS
 10
124.3769334109
 20
93.6318994881
 11
124.3769334109
 21
133.3388690738
  0
LINE
  5
258
100
AcDbEntity
  8
RACCORDO
100
AcDbLine
 62
7
  6
CONTINUOUS
 10
124.6565419222
 20
93.6521714522
 11
124.6565419222
 21
133.3591410381
  0
LINE
  5
259
100
AcDbEntity
  8
RACCORDO
100
AcDbLine
 62
7
  6
CONTINUOUS
 10
126.6867337616
 20
96.7287950225
 11
126.6867337616
 21
132.4212421145
  0
LINE
  5
25A
100
AcDbEntity
  8
DRAFT
100
AcDbLine
 62
7
  6
CONTINUOUS
 10
126.7994312379
 20
96.5280638872
 11
126.7994312379
 21
132.3762084188
  0
LINE
  5
25B
100
AcDbEntity
  8
DRAFT
100
AcDbLine
 62
7
  6
CONTINUOUS
 10
128.0556697055
 20
106.6945601798
 11
128.0556697055
 21
111.6094724455
  0
LINE
  5
25C
100
AcDbEntity
  8
DRAFT
100
AcDbLine
 62
7
  6
CONTINUOUS
 10
128.0556697055
 20
125.1254811763
 11
128.0556697055
 21
130.040393442
  0
LWPOLYLINE
  5
25D
100
AcDbEntity
  8
RACCORDO
100
AcDbPolyline
 62
7
  6
CONTINUOUS
 90
46
 70
0
 10
124.3769334109
 20
133.3388690738
 10
124.3772745167
 20
133.3607402116
 10
124.3782007289
 20
133.3820647145
 10
124.3797120506
 20
133.4028425846
 10
124.3818280024
 20
133.4231051983
 10
124.3845290762
 20
133.4428211885
 10
124.3877567332
 20
133.4618964443
 10
124.3915156406
 20
133.4803246411
 10
124.3958011526
 20
133.4981121194
 10
124.4005407608
 20
133.5151837647
 10
124.4057397052
 20
133.5315322112
 10
124.4113927721
 20
133.5471648442
 10
124.4174117693
 20
133.5620286745
 10
124.4237997446
 20
133.5761113556
 10
124.4305536766
 20
133.5894252536
 10
124.437576264
 20
133.6019544436
 10
124.4448644783
 20
133.613683239
 10
124.4524213701
 20
133.6246273427
 10
124.4601587503
 20
133.6348179088
 10
124.4680731889
 20
133.644246952
 10
124.4761681321
 20
133.6529224695
 10
124.484365698
 20
133.6608995837
 10
124.4926623352
 20
133.6681738815
 10
124.5010616048
 20
133.6747497832
 10
124.5094962874
 20
133.6806956557
 10
124.5179598366
 20
133.6860083685
 10
124.5264588021
 20
133.6906910547
 10
124.5349456029
 20
133.6948214719
 10
124.5434187254
 20
133.6984008568
 10
124.5518796819
 20
133.7014279718
 10
124.5602854261
 20
133.7039768611
 10
124.5686354663
 20
133.7060479725
 10
124.5769302888
 20
133.7076408542
 10
124.5851283098
 20
133.7088281981
 10
124.59322292
 20
133.7096104448
 10
124.6012207195
 20
133.7099871467
 10
124.6090999357
 20
133.7100296613
 10
124.616851931
 20
133.7097419289
 10
124.624485332
 20
133.709120001
 10
124.6320042614
 20
133.7082234007
 10
124.6394059332
 20
133.7070573998
 10
124.6466931235
 20
133.7056167191
 10
124.6538782992
 20
133.703945056
 10
124.6609656135
 20
133.7020569744
 10
124.667950905
 20
133.6999379042
 10
124.6748341696
 20
133.6975878424
  0
LWPOLYLINE
  5
25E
100
AcDbEntity
  8
RACCORDO
100
AcDbPolyline
 62
7
  6
CONTINUOUS
 90
20
 70
0
 10
123.8703456314
 20
92.4780500833
 10
123.8698733987
 20
92.4713708575
 10
123.8696283526
 20
92.4648721687
 10
123.869610947
 20
92.4585660517
 10
123.8698212139
 20
92.4524641847
 10
123.8702587642
 20
92.4465778677
 10
123.8709227873
 20
92.4409180013
 10
123.8718120538
 20
92.435495067
 10
123.8729249167
 20
92.4303191074
 10
123.8742593152
 20
92.4253997078
 10
123.8758127781
 20
92.4207459784
 10
123.8775824286
 20
92.4163665372
 10
123.8795649895
 20
92.4122694944
 10
123.8817567893
 20
92.4084624374
 10
123.8841537691
 20
92.4049524164
 10
123.88675149
 20
92.4017459314
 10
123.8895451412
 20
92.3988489205
 10
123.8925295494
 20
92.3962667486
 10
123.8956991877
 20
92.3940041976
 10
123.8986178773
 20
92.3922910718
  0
LWPOLYLINE
  5
25F
100
AcDbEntity
  8
RACCORDO
100
AcDbPolyline
 62
7
  6
CONTINUOUS
 90
16
 70
0
 10
124.6748341886
 20
93.0102872363
 10
124.6756119867
 20
93.0180275541
 10
124.6766744447
 20
93.0259634478
 10
124.6780190652
 20
93.0340762649
 10
124.6796426878
 20
93.0423469369
 10
124.6815414965
 20
93.0507560245
 10
124.6837110281
 20
93.0592837627
 10
124.6861461835
 20
93.067910108
 10
124.688841239
 20
93.0766147849
 10
124.6917898602
 20
93.0853773339
 10
124.6949851165
 20
93.0941771595
 10
124.6984194978
 20
93.1029935784
 10
124.702084932
 20
93.1118058684
 10
124.7059728037
 20
93.1205933172
 10
124.7100739749
 20
93.1293352705
 10
124.7143788061
 20
93.1380111814
  0
LINE
  5
260
100
AcDbEntity
  8
DRAFT
100
AcDbLine
 62
7
  6
CONTINUOUS
 10
128.0556697055
 20
125.1254811763
 11
126.7994312379
 21
124.0251070214
  0
LWPOLYLINE
  5
261
100
AcDbEntity
  8
SUPERFICI
100
AcDbPolyline
 62
7
  6
CONTINUOUS
 90
10
 70
0
 10
155.1357372724
 20
86.8305675084
 10
155.125638656
 20
86.8343104627
 10
155.1123812951
 20
86.8382780706
 10
155.0995403539
 20
86.8410638906
 10
155.087280562
 20
86.8426393809
 10
155.0756646863
 20
86.8430103869
 10
155.0647039553
 20
86.8422465182
 10
155.0544607491
 20
86.8404334467
 10
155.0449621183
 20
86.8376285688
 10
155.0362060426
 20
86.83385599
  0
LWPOLYLINE
  5
262
100
AcDbEntity
  8
0
100
AcDbPolyline
 62
7
  6
CONTINUOUS
 90
26
 70
0
 10
146.4835475966
 20
85.3170552323
 10
146.4904596623
 20
85.3144413386
 10
146.4975856968
 20
85.3121425197
 10
146.5049256903
 20
85.3101587471
 10
146.5124978136
 20
85.3084779107
 10
146.5202838755
 20
85.3071120618
 10
146.5282293213
 20
85.3060974087
 10
146.536337924
 20
85.3054390209
 10
146.5446058863
 20
85.3051317568
 10
146.5529672971
 20
85.3051965012
 10
146.5614131131
 20
85.3056357756
 10
146.5699523529
 20
85.3064469831
 10
146.5785461973
 20
85.3076433298
 10
146.5871934238
 20
85.309224097
 10
146.5958952313
 20
85.3111899303
 10
146.6046164336
 20
85.3135560829
 10
146.6133657362
 20
85.3163262379
 10
146.622134412
 20
85.3194966444
 10
146.6308611284
 20
85.32307141
 10
146.6395429958
 20
85.3270534545
 10
146.6481828877
 20
85.3314398056
 10
146.6567281203
 20
85.3362257425
 10
146.6651669806
 20
85.3414104483
 10
146.6735111727
 20
85.3469947086
 10
146.6817431419
 20
85.3529762152
 10
146.6903381953
 20
85.3597411156
  0
LWPOLYLINE
  5
263
100
AcDbEntity
  8
RACCORDO
100
AcDbPolyline
 62
7
  6
CONTINUOUS
 90
25
 70
0
 10
161.8635456599
 20
78.576430893
 10
161.8563150033
 20
78.5791918591
 10
161.8493001803
 20
78.5821303054
 10
161.8425144231
 20
78.585240689
 10
161.8359705321
 20
78.5885171427
 10
161.8296808511
 20
78.5919534861
 10
161.8236572446
 20
78.5955432371
 10
161.8179110752
 20
78.5992796244
 10
161.812453182
 20
78.6031555999
 10
161.8072938605
 20
78.6071638522
 10
161.8024428429
 20
78.6112968205
 10
161.7979092799
 20
78.6155467087
 10
161.7937017234
 20
78.6199055001
 10
161.7898281102
 20
78.6243649726
 10
161.7862957474
 20
78.6289167142
 10
161.7831112981
 20
78.6335521387
 10
161.7802807694
 20
78.6382625023
 10
161.7778095006
 20
78.6430389197
 10
161.7757021535
 20
78.6478723809
 10
161.7739627033
 20
78.6527537685
 10
161.7725944311
 20
78.6576738745
 10
161.7715999181
 20
78.6626234181
 10
161.7709810403
 20
78.6675930626
 10
161.7707389652
 20
78.6725734337
 10
161.770735178
 20
78.6732739201
  0
LWPOLYLINE
  5
264
100
AcDbEntity
  8
RACCORDO
100
AcDbPolyline
 62
7
  6
CONTINUOUS
 90
6
 70
0
 10
126.0099061293
 20
95.8239588343
 10
127.4968064846
 20
95.230651486
 10
129.0318837758
 20
94.6175402869
 10
130.6151380027
 20
93.9846252369
 10
132.2423974172
 20
93.3335434917
 10
133.9178337675
 20
92.6626578956
  0
LINE
  5
265
100
AcDbEntity
  8
0
100
AcDbLine
 62
7
  6
CONTINUOUS
 10
140.3637973783
 20
86.3822191125
 11
140.0470805245
 21
86.5086858722
  0
LINE
  5
266
100
AcDbEntity
  8
0
100
AcDbLine
 62
7
  6
CONTINUOUS
 10
140.4122468539
 20
86.4516334933
 11
140.1199376689
 21
86.568366951
  0
LINE
  5
267
100
AcDbEntity
  8
0
100
AcDbLine
 62
7
  6
CONTINUOUS
 10
141.4786525936
 20
85.9363947191
 11
141.1484118716
 21
86.0685618966
  0
LINE
  5
268
100
AcDbEntity
  8
0
100
AcDbLine
 62
7
  6
CONTINUOUS
 10
141.5077992271
 20
86.0135143751
 11
141.2212275304
 21
86.1282089924
  0
LWPOLYLINE
  5
269
100
AcDbEntity
  8
RACCORDO
100
AcDbPolyline
 62
7
  6
CONTINUOUS
 90
3
 70
0
 10
159.4548785939
 20
82.0049987716
 10
160.9972868462
 20
81.387633025
 10
161.7707351778
 20
81.0784218419
  0
LINE
  5
26A
100
AcDbEntity
  8
0
100
AcDbLine
 62
7
  6
CONTINUOUS
 10
142.0976591655
 20
85.6884217049
 11
141.767553846
 21
85.8206997977
  0
LINE
  5
26B
100
AcDbEntity
  8
0
100
AcDbLine
 62
7
  6
CONTINUOUS
 10
142.1268003936
 20
85.7655501884
 11
141.840354395
 21
85.8803345162
  0
LINE
  5
26C
100
AcDbEntity
  8
0
100
AcDbLine
 62
7
  6
CONTINUOUS
 10
140.3236045749
 20
88.8718798678
 11
140.6537041138
 21
88.7395970399
  0
LINE
  5
26D
100
AcDbEntity
  8
RACCORDO
100
AcDbLine
 62
7
  6
CONTINUOUS
 10
156.2028596921
 20
83.3079578648
 11
159.4548785939
 21
82.0049987716
  0
LINE
  5
26E
100
AcDbEntity
  8
0
100
AcDbLine
 62
7
  6
CONTINUOUS
 10
141.3825887035
 20
88.4474026496
 11
141.7126115817
 21
88.3150570249
  0
LINE
  5
26F
100
AcDbEntity
  8
RACCORDO
100
AcDbLine
 62
7
  6
CONTINUOUS
 10
152.717192861
 20
84.7053568758
 11
156.2028596921
 21
83.3079578648
  0
LINE
  5
270
100
AcDbEntity
  8
RACCORDO
100
AcDbLine
 62
7
  6
CONTINUOUS
 10
133.9178337675
 20
92.6626578956
 11
137.461675236
 21
91.2424024922
  0
LINE
  5
271
100
AcDbEntity
  8
0
100
AcDbLine
 62
7
  6
CONTINUOUS
 10
142.7439076878
 20
85.4292069461
 11
142.4139427413
 21
85.5616000256
  0
LINE
  5
272
100
AcDbEntity
  8
0
100
AcDbLine
 62
7
  6
CONTINUOUS
 10
142.7903852456
 20
85.4993919397
 11
142.4867337281
 21
85.6212269113
  0
LINE
  5
273
100
AcDbEntity
  8
0
100
AcDbLine
 62
7
  6
CONTINUOUS
 10
141.9601133382
 20
88.2157851897
 11
142.2900952748
 21
88.0834060276
  0
LINE
  5
274
100
AcDbEntity
  8
0
100
AcDbLine
 62
7
  6
CONTINUOUS
 10
142.5788104393
 20
87.9675586718
 11
143.0874560804
 21
87.7634114566
  0
LINE
  5
275
100
AcDbEntity
  8
RACCORDO
100
AcDbLine
 62
7
  6
CONTINUOUS
 10
148.9325199106
 20
86.2238032764
 11
152.717192861
 21
84.7053568758
  0
LINE
  5
276
100
AcDbEntity
  8
RACCORDO
100
AcDbLine
 62
7
  6
CONTINUOUS
 10
137.461675236
 20
91.2424024922
 11
141.2390162186
 21
89.7270508696
  0
LINE
  5
277
100
AcDbEntity
  8
0
100
AcDbLine
 62
7
  6
CONTINUOUS
 10
143.7060056017
 20
87.5150640485
 11
144.200787249
 21
87.3163386363
  0
LINE
  5
278
100
AcDbEntity
  8
RACCORDO
100
AcDbLine
 62
7
  6
CONTINUOUS
 10
144.9991261153
 20
87.802887549
 11
148.9325199106
 21
86.2238032764
  0
LINE
  5
279
100
AcDbEntity
  8
RACCORDO
100
AcDbLine
 62
7
  6
CONTINUOUS
 10
141.2390162186
 20
89.7270508696
 11
145.2086485048
 21
88.1331468682
  0
LINE
  5
27A
100
AcDbEntity
  8
RACCORDO
100
AcDbLine
 62
7
  6
CONTINUOUS
 10
161.7707351778
 20
82.4746632184
 11
126.8503396469
 21
96.4994813255
  0
LINE
  5
27B
100
AcDbEntity
  8
SUPERFICI
100
AcDbLine
 62
7
  6
CONTINUOUS
 10
158.3925491526
 20
83.9482349179
 11
153.887212909
 21
85.7576795238
  0
LINE
  5
27C
100
AcDbEntity
  8
SUPERFICI
100
AcDbLine
 62
7
  6
CONTINUOUS
 10
139.9616281561
 20
91.3505083055
 11
135.4562919125
 21
93.1599529114
  0
LINE
  5
27D
100
AcDbEntity
  8
SUPERFICI
100
AcDbLine
 62
7
  6
CONTINUOUS
 10
158.5072644399
 20
84.04220418
 11
154.0019281963
 21
85.8516487859
  0
LINE
  5
27E
100
AcDbEntity
  8
SUPERFICI
100
AcDbLine
 62
7
  6
CONTINUOUS
 10
140.0763434434
 20
91.4444775676
 11
135.5710071998
 21
93.2539221734
  0
LINE
  5
27F
100
AcDbEntity
  8
SUPERFICI
100
AcDbLine
 62
7
  6
CONTINUOUS
 10
158.6793373708
 20
84.1831580731
 11
154.1740011272
 21
85.992602679
  0
LINE
  5
280
100
AcDbEntity
  8
SUPERFICI
100
AcDbLine
 62
7
  6
CONTINUOUS
 10
140.2484163743
 20
91.5854314607
 11
135.7430801307
 21
93.3948760666
  0
LINE
  5
281
100
AcDbEntity
  8
SUPERFICI
100
AcDbLine
 62
7
  6
CONTINUOUS
 10
158.7940526581
 20
84.2771273352
 11
154.2887164145
 21
86.0865719411
  0
LINE
  5
282
100
AcDbEntity
  8
SUPERFICI
100
AcDbLine
 62
7
  6
CONTINUOUS
 10
140.3631316616
 20
91.6794007228
 11
135.857795418
 21
93.4888453286
  0
LINE
  5
283
100
AcDbEntity
  8
SUPERFICI
100
AcDbLine
 62
7
  6
CONTINUOUS
 10
158.966125589
 20
84.4180812283
 11
154.4607893454
 21
86.2275258342
  0
LINE
  5
284
100
AcDbEntity
  8
SUPERFICI
100
AcDbLine
 62
7
  6
CONTINUOUS
 10
140.5352045925
 20
91.8203546159
 11
136.0298683489
 21
93.6297992218
  0
LINE
  5
285
100
AcDbEntity
  8
SUPERFICI
100
AcDbLine
 62
7
  6
CONTINUOUS
 10
159.0808408763
 20
84.5120504904
 11
154.5755046327
 21
86.3214950963
  0
LINE
  5
286
100
AcDbEntity
  8
SUPERFICI
100
AcDbLine
 62
7
  6
CONTINUOUS
 10
140.6499198798
 20
91.914323878
 11
136.1445836362
 21
93.7237684838
  0
LINE
  5
287
100
AcDbEntity
  8
SUPERFICI
100
AcDbLine
 62
7
  6
CONTINUOUS
 10
159.2529138072
 20
84.6530043835
 11
154.7475775636
 21
86.4624489894
  0
LINE
  5
288
100
AcDbEntity
  8
SUPERFICI
100
AcDbLine
 62
7
  6
CONTINUOUS
 10
140.8219928107
 20
92.0552777711
 11
136.3166565671
 21
93.864722377
  0
LINE
  5
289
100
AcDbEntity
  8
SUPERFICI
100
AcDbLine
 62
7
  6
CONTINUOUS
 10
159.3676290944
 20
84.7469736456
 11
154.8622928508
 21
86.5564182514
  0
LINE
  5
28A
100
AcDbEntity
  8
SUPERFICI
100
AcDbLine
 62
7
  6
CONTINUOUS
 10
140.9367080979
 20
92.1492470332
 11
136.4313718543
 21
93.958691639
  0
LINE
  5
28B
100
AcDbEntity
  8
SUPERFICI
100
AcDbLine
 62
7
  6
CONTINUOUS
 10
159.5397020253
 20
84.8879275387
 11
155.0343657817
 21
86.6973721446
  0
LINE
  5
28C
100
AcDbEntity
  8
SUPERFICI
100
AcDbLine
 62
7
  6
CONTINUOUS
 10
141.1087810288
 20
92.2902009263
 11
136.6034447852
 21
94.0996455322
  0
LINE
  5
28D
100
AcDbEntity
  8
SUPERFICI
100
AcDbLine
 62
7
  6
CONTINUOUS
 10
136.590822539
 20
94.2269147425
 11
136.7035450272
 21
94.18164285
  0
LINE
  5
28E
100
AcDbEntity
  8
SUPERFICI
100
AcDbLine
 62
7
  6
CONTINUOUS
 10
141.3095327816
 20
92.3317743283
 11
141.5229067805
 21
92.2460785199
  0
LINE
  5
28F
100
AcDbEntity
  8
SUPERFICI
100
AcDbLine
 62
7
  6
CONTINUOUS
 10
155.0217435355
 20
86.824641355
 11
155.1344660237
 21
86.7793694624
  0
LINE
  5
290
100
AcDbEntity
  8
SUPERFICI
100
AcDbLine
 62
7
  6
CONTINUOUS
 10
159.7404537781
 20
84.9295009407
 11
159.953827777
 21
84.8438051323
  0
LINE
  5
291
100
AcDbEntity
  8
SUPERFICI
100
AcDbLine
 62
7
  6
CONTINUOUS
 10
159.6544173126
 20
84.9818968008
 11
155.149081069
 21
86.7913414066
  0
LINE
  5
292
100
AcDbEntity
  8
SUPERFICI
100
AcDbLine
 62
7
  6
CONTINUOUS
 10
141.2234963161
 20
92.3841701884
 11
136.7181600725
 21
94.1936147942
  0
LINE
  5
293
100
AcDbEntity
  8
SUPERFICI
100
AcDbLine
 62
7
  6
CONTINUOUS
 10
136.7053895513
 20
94.2325989611
 11
141.5574150835
 21
92.2839161211
  0
LINE
  5
294
100
AcDbEntity
  8
SUPERFICI
100
AcDbLine
 62
7
  6
CONTINUOUS
 10
155.1363105478
 20
86.8303255735
 11
159.98833608
 21
84.8816427335
  0
LINE
  5
295
100
AcDbEntity
  8
0
100
AcDbLine
 62
7
  6
CONTINUOUS
 10
143.389882073
 20
85.1697676263
 11
143.0600570362
 21
85.3022753131
  0
LINE
  5
296
100
AcDbEntity
  8
0
100
AcDbLine
 62
7
  6
CONTINUOUS
 10
143.419031266
 20
85.246929315
 11
143.1328447691
 21
85.3618995334
  0
LINE
  5
297
100
AcDbEntity
  8
RACCORDO
100
AcDbLine
 62
7
  6
CONTINUOUS
 10
141.0241831925
 20
89.3996058316
 11
144.9991261153
 21
87.802887549
  0
LINE
  5
298
100
AcDbEntity
  8
0
100
AcDbLine
 62
7
  6
CONTINUOUS
 10
144.9840860603
 20
87.0016036769
 11
145.3138572652
 21
86.8690518935
  0
LWPOLYLINE
  5
299
100
AcDbEntity
  8
RACCORDO
100
AcDbPolyline
 62
7
  6
CONTINUOUS
 90
8
 70
0
 10
145.2086485048
 20
88.1331468682
 10
149.1361520474
 20
86.5547891023
 10
151.0585740739
 20
85.7816893411
 10
152.9147289678
 20
85.034852885
 10
154.6876997953
 20
84.3211061948
 10
156.3944034903
 20
83.6336228096
 10
158.0442068897
 20
82.9685388308
 10
159.6402322727
 20
82.3245662923
  0
LINE
  5
29A
100
AcDbEntity
  8
0
100
AcDbLine
 62
7
  6
CONTINUOUS
 10
143.9806398044
 20
84.9322115626
 11
143.650942884
 21
85.0648241963
  0
LINE
  5
29B
100
AcDbEntity
  8
0
100
AcDbLine
 62
7
  6
CONTINUOUS
 10
144.0276883743
 20
85.0021989871
 11
143.7237331543
 21
85.1244504951
  0
LINE
  5
29C
100
AcDbEntity
  8
RACCORDO
100
AcDbLine
 62
7
  6
CONTINUOUS
 10
135.4336008537
 20
91.646907389
 11
141.0241831925
 21
89.3996058316
  0
LINE
  5
29D
100
AcDbEntity
  8
0
100
AcDbLine
 62
7
  6
CONTINUOUS
 10
144.4934062343
 20
85.6611071998
 11
144.8093238414
 21
85.5339857365
  0
LINE
  5
29E
100
AcDbEntity
  8
0
100
AcDbLine
 62
7
  6
CONTINUOUS
 10
146.1107085634
 20
86.5486399584
 11
146.8799520134
 21
86.239170043
  0
LINE
  5
29F
100
AcDbEntity
  8
0
100
AcDbLine
 62
7
  6
CONTINUOUS
 10
144.7554547045
 20
85.0983673818
 11
144.2335571419
 21
85.3084377815
  0
LINE
  5
2A0
100
AcDbEntity
  8
0
100
AcDbLine
 62
7
  6
CONTINUOUS
 10
144.8282600884
 20
85.1580060608
 11
144.3063525033
 21
85.3680682506
  0
LINE
  5
2A1
100
AcDbEntity
  8
0
100
AcDbLine
 62
7
  6
CONTINUOUS
 10
146.6884695713
 20
85.8586106926
 11
146.2764823076
 21
86.024486158
  0
LINE
  5
2A2
100
AcDbEntity
  8
0
100
AcDbLine
 62
7
  6
CONTINUOUS
 10
146.7613239029
 20
85.9182894673
 11
146.3493192273
 21
86.0841506696
  0
LINE
  5
2A3
100
AcDbEntity
  8
0
100
AcDbLine
 62
7
  6
CONTINUOUS
 10
145.0478723373
 20
84.5913453342
 11
144.7812740394
 21
84.69879104
  0
LINE
  5
2A4
100
AcDbEntity
  8
0
100
AcDbLine
 62
7
  6
CONTINUOUS
 10
146.0716899726
 20
85.4830368945
 11
146.4835475948
 21
85.317055233
  0
LINE
  5
2A5
100
AcDbEntity
  8
0
100
AcDbLine
 62
7
  6
CONTINUOUS
 10
145.0379317088
 20
84.5063481545
 11
144.7084659972
 21
84.6391501834
  0
LINE
  5
2A6
100
AcDbEntity
  8
0
100
AcDbLine
 62
7
  6
CONTINUOUS
 10
146.2234767048
 20
84.9642041275
 11
145.9352358359
 21
85.0804400035
  0
LINE
  5
2A7
100
AcDbEntity
  8
0
100
AcDbLine
 62
7
  6
CONTINUOUS
 10
146.2963261475
 20
85.0238788974
 11
146.0080733104
 21
85.1401049696
  0
LINE
  5
2A8
100
AcDbEntity
  8
0
100
AcDbLine
 62
7
  6
CONTINUOUS
 10
145.628041818
 20
84.2682615899
 11
145.2987070658
 21
84.4011708944
  0
LINE
  5
2A9
100
AcDbEntity
  8
0
100
AcDbLine
 62
7
  6
CONTINUOUS
 10
145.6572674162
 20
84.3455300215
 11
145.371532505
 21
84.4608260017
  0
LWPOLYLINE
  5
2AA
100
AcDbEntity
  8
RACCORDO
100
AcDbPolyline
 62
7
  6
CONTINUOUS
 90
5
 70
0
 10
125.7886397255
 20
95.5309530719
 10
127.2745806356
 20
94.9313920932
 10
128.8092185883
 20
94.3129673274
 10
130.392492999
 20
93.6754804451
 10
135.4336008537
 20
91.646907389
  0
LINE
  5
2AB
100
AcDbEntity
  8
RACCORDO
100
AcDbLine
 62
7
  6
CONTINUOUS
 10
159.6402322727
 20
82.3245662923
 11
161.7707351778
 21
81.4639349202
  0
LINE
  5
2AC
100
AcDbEntity
  8
0
100
AcDbLine
 62
7
  6
CONTINUOUS
 10
146.6155997761
 20
83.8691680901
 11
146.2453447367
 21
84.0188930246
  0
LINE
  5
2AD
100
AcDbEntity
  8
0
100
AcDbLine
 62
7
  6
CONTINUOUS
 10
146.6130748829
 20
83.9593697988
 11
146.3182095327
 21
84.0785803712
  0
LWPOLYLINE
  5
2AE
100
AcDbEntity
  8
RACCORDO
100
AcDbPolyline
 62
7
  6
CONTINUOUS
 90
37
 70
0
 10
124.3769334109
 20
93.6318994881
 10
124.3839297498
 20
93.628946572
 10
124.3911430358
 20
93.6261706894
 10
124.3985596621
 20
93.6235770765
 10
124.4061656386
 20
93.6211706258
 10
124.4139466179
 20
93.6189558764
 10
124.4218879224
 20
93.6169370063
 10
124.4299745722
 20
93.6151178237
 10
124.4381913133
 20
93.6135017601
 10
124.4465226461
 20
93.6120918641
 10
124.454952855
 20
93.610890795
 10
124.4634660377
 20
93.6099008186
 10
124.4720461357
 20
93.6091238022
 10
124.480676964
 20
93.6085612117
 10
124.489342242
 20
93.6082141081
 10
124.4980256242
 20
93.6080831462
 10
124.5067107307
 20
93.6081685732
 10
124.5153811786
 20
93.6084702278
 10
124.5240206125
 20
93.6089875411
 10
124.5326127357
 20
93.6097195371
 10
124.5411413405
 20
93.6106648352
 10
124.5495903392
 20
93.6118216521
 10
124.5579437941
 20
93.6131878058
 10
124.5661859479
 20
93.6147607191
 10
124.5743012531
 20
93.6165374252
 10
124.5822744015
 20
93.6185145724
 10
124.5900903533
 20
93.6206884314
 10
124.5977343648
 20
93.6230549014
 10
124.6051920169
 20
93.6256095185
 10
124.6124492422
 20
93.6283474638
 10
124.6194923509
 20
93.6312635727
 10
124.6263080575
 20
93.6343523444
 10
124.6328835053
 20
93.6376079525
 10
124.6392062909
 20
93.6410242558
 10
124.6452644873
 20
93.6445948101
 10
124.6510466668
 20
93.6483128801
 10
124.6565419222
 20
93.6521714522
  0
LWPOLYLINE
  5
2AF
100
AcDbEntity
  8
0
100
AcDbPolyline
 62
7
  6
CONTINUOUS
 90
66
 70
0
 10
146.8799520113
 20
86.2391700439
 10
146.8938995972
 20
86.2332651186
 10
146.9077293602
 20
86.2267675815
 10
146.9214413391
 20
86.2196775511
 10
146.9350623715
 20
86.2119888183
 10
146.9485657007
 20
86.2037078383
 10
146.9618709745
 20
86.1948537239
 10
146.9749729446
 20
86.1854248147
 10
146.9878769402
 20
86.1754230171
 10
147.0005184721
 20
86.1648727819
 10
147.0128971976
 20
86.1537698102
 10
147.0250135369
 20
86.142118636
 10
147.0368041383
 20
86.129956939
 10
147.0482611406
 20
86.1172908101
 10
147.0593924729
 20
86.1041143634
 10
147.0701584608
 20
86.0904472916
 10
147.0805609908
 20
86.0762870313
 10
147.0905982369
 20
86.061636328
 10
147.100224948
 20
86.0465228146
 10
147.1094350315
 20
86.0309555449
 10
147.1182346274
 20
86.014925607
 10
147.1265968285
 20
85.9984336658
 10
147.1345229686
 20
85.981473408
 10
147.1420117535
 20
85.9640512658
 10
147.1490323287
 20
85.9461870036
 10
147.1555845938
 20
85.9278861021
 10
147.1616686744
 20
85.909143155
 10
147.1672540479
 20
85.8899615739
 10
147.1723453379
 20
85.8703283568
 10
147.1769379344
 20
85.850256544
 10
147.1809874533
 20
85.8297885762
 10
147.1844916042
 20
85.8089246453
 10
147.1874526672
 20
85.7876645232
 10
147.1898330988
 20
85.7660499731
 10
147.1916307323
 20
85.7440628431
 10
147.1928477012
 20
85.7217211779
 10
147.1934528936
 20
85.6991209764
 10
147.1934462009
 20
85.6762725111
 10
147.1928276655
 20
85.6531653
 10
147.1915663813
 20
85.6298641469
 10
147.1896600314
 20
85.6063467299
 10
147.1871108413
 20
85.582635084
 10
147.1838946973
 20
85.5588604826
 10
147.1799997109
 20
85.5350153712
 10
147.175437646
 20
85.5111069149
 10
147.1702198457
 20
85.4872884014
 10
147.1643308078
 20
85.463566202
 10
147.1577858879
 20
85.4399334893
 10
147.1506427074
 20
85.4165237257
 10
147.1429117948
 20
85.3933689148
 10
147.1345824752
 20
85.3704366
 10
147.1256805655
 20
85.3477635579
 10
147.1161977572
 20
85.3253226479
 10
147.1061422197
 20
85.3031405831
 10
147.0955644915
 20
85.2813349343
 10
147.0844556435
 20
85.2599034028
 10
147.0728244766
 20
85.2388478961
 10
147.0607481338
 20
85.2182923249
 10
147.0482196442
 20
85.1982490146
 10
147.0352458742
 20
85.1787053249
 10
147.0219247408
 20
85.1597477721
 10
147.0082728811
 20
85.1414023676
 10
146.9942735888
 20
85.1236428964
 10
146.979974782
 20
85.1064775892
 10
146.9653785626
 20
85.0899040773
 10
146.9504827845
 20
85.0739246047
  0
LWPOLYLINE
  5
2B0
100
AcDbEntity
  8
RACCORDO
100
AcDbPolyline
 62
7
  6
CONTINUOUS
 90
3
 70
0
 10
125.5454606629
 20
95.6395029124
 10
125.7817128826
 20
95.5340560428
 10
125.7886397254
 20
95.5309530717
  0
LWPOLYLINE
  5
2B1
100
AcDbEntity
  8
RACCORDO
100
AcDbPolyline
 62
7
  6
CONTINUOUS
 90
21
 70
0
 10
123.2911151229
 20
93.387175361
 10
123.2840307725
 20
93.3904721957
 10
123.277215907
 20
93.3939509016
 10
123.2706847059
 20
93.3976042408
 10
123.2644507582
 20
93.4014246119
 10
123.2585270347
 20
93.4054040662
 10
123.2529258604
 20
93.4095343239
 10
123.2476588896
 20
93.4138067912
 10
123.242737081
 20
93.4182125787
 10
123.2381706751
 20
93.4227425196
 10
123.233969173
 20
93.4273871886
 10
123.2301413166
 20
93.4321369219
 10
123.2266950704
 20
93.4369818368
 10
123.2236376048
 20
93.441911853
 10
123.2209752814
 20
93.4469167126
 10
123.2187136395
 20
93.4519860024
 10
123.2168573848
 20
93.4571091749
 10
123.2154103796
 20
93.4622755708
 10
123.2143756346
 20
93.4674744404
 10
123.2137553028
 20
93.4726949667
 10
123.2135506607
 20
93.4778830588
  0
LINE
  5
2B2
100
AcDbEntity
  8
SUPERFICI
100
AcDbLine
 62
7
  6
CONTINUOUS
 10
140.0763434434
 20
91.4444775676
 11
140.1623799089
 21
91.3920817075
  0
LINE
  5
2B3
100
AcDbEntity
  8
SUPERFICI
100
AcDbLine
 62
7
  6
CONTINUOUS
 10
140.3631316616
 20
91.6794007228
 11
140.449168127
 21
91.6270048627
  0
LINE
  5
2B4
100
AcDbEntity
  8
SUPERFICI
100
AcDbLine
 62
7
  6
CONTINUOUS
 10
140.6499198798
 20
91.914323878
 11
140.7359563452
 21
91.8619280179
  0
LINE
  5
2B5
100
AcDbEntity
  8
SUPERFICI
100
AcDbLine
 62
7
  6
CONTINUOUS
 10
140.9367080979
 20
92.1492470332
 11
141.0227445634
 21
92.0968511731
  0
LWPOLYLINE
  5
2B6
100
AcDbEntity
  8
RACCORDO
100
AcDbPolyline
 62
7
  6
CONTINUOUS
 90
3
 70
0
 10
125.5454606629
 20
95.6395029124
 10
125.4463672605
 20
95.4178122101
 10
125.3473551491
 20
95.1963408455
  0
LWPOLYLINE
  5
2B7
100
AcDbEntity
  8
RACCORDO
100
AcDbPolyline
 62
7
  6
CONTINUOUS
 90
3
 70
0
 10
125.3473551491
 20
95.1963408455
 10
125.1495749704
 20
94.7540565482
 10
125.0508069029
 20
94.5332436154
  0
LINE
  5
2B8
100
AcDbEntity
  8
RACCORDO
100
AcDbLine
 62
7
  6
CONTINUOUS
 10
125.0508069029
 20
94.5332436154
 11
124.8535129377
 21
94.0922715784
  0
LINE
  5
2B9
100
AcDbEntity
  8
RACCORDO
100
AcDbLine
 62
7
  6
CONTINUOUS
 10
124.8535129377
 20
94.0922715784
 11
124.6565419222
 21
93.6521714522
  0
LWPOLYLINE
  5
2BA
100
AcDbEntity
  8
RACCORDO
100
AcDbPolyline
 62
7
  6
CONTINUOUS
 90
3
 70
0
 10
125.7886397255
 20
95.5309530719
 10
125.549095634
 20
94.9969589001
 10
125.4294996123
 20
94.7304407158
  0
LINE
  5
2BB
100
AcDbEntity
  8
RACCORDO
100
AcDbLine
 62
7
  6
CONTINUOUS
 10
125.4294996123
 20
94.7304407158
 11
125.1906596974
 21
94.1983619668
  0
LINE
  5
2BC
100
AcDbEntity
  8
RACCORDO
100
AcDbLine
 62
7
  6
CONTINUOUS
 10
125.1906596974
 20
94.1983619668
 11
124.9522864492
 21
93.6675531166
  0
LINE
  5
2BD
100
AcDbEntity
  8
RACCORDO
100
AcDbLine
 62
7
  6
CONTINUOUS
 10
124.9522864492
 20
93.6675531166
 11
124.714378809
 21
93.1380111801
  0
LINE
  5
2BE
100
AcDbEntity
  8
DRAFT
100
AcDbLine
 62
7
  6
CONTINUOUS
 10
128.0556697055
 20
111.6094724455
 11
126.7994312379
 21
110.5733315959
  0
LINE
  5
2BF
100
AcDbEntity
  8
DRAFT
100
AcDbLine
 62
7
  6
CONTINUOUS
 10
127.4003480701
 20
111.8726643882
 11
126.7994312379
 21
111.4128800055
  0
LWPOLYLINE
  5
2C0
100
AcDbEntity
  8
SUPERFICI
100
AcDbPolyline
 62
7
  6
CONTINUOUS
 90
10
 70
0
 10
136.7048162759
 20
94.232840896
 10
136.6947176595
 20
94.2365838503
 10
136.6814602986
 20
94.2405514582
 10
136.6686193574
 20
94.2433372781
 10
136.6563595655
 20
94.2449127684
 10
136.6447436898
 20
94.2452837744
 10
136.6337829588
 20
94.2445199058
 10
136.6235397526
 20
94.2427068343
 10
136.6140411218
 20
94.2399019564
 10
136.6052850461
 20
94.2361293776
  0
LINE
  5
2C1
100
AcDbEntity
  8
SUPERFICI
100
AcDbLine
 62
7
  6
CONTINUOUS
 10
141.2234963161
 20
92.3841701884
 11
141.3095327816
 21
92.3317743283
  0
LINE
  5
2C2
100
AcDbEntity
  8
SUPERFICI
100
AcDbLine
 62
7
  6
CONTINUOUS
 10
158.5072644399
 20
84.04220418
 11
158.5933009054
 21
83.9898083199
  0
LINE
  5
2C3
100
AcDbEntity
  8
SUPERFICI
100
AcDbLine
 62
7
  6
CONTINUOUS
 10
158.7940526581
 20
84.2771273352
 11
158.8800891235
 21
84.2247314751
  0
LINE
  5
2C4
100
AcDbEntity
  8
SUPERFICI
100
AcDbLine
 62
7
  6
CONTINUOUS
 10
159.0808408763
 20
84.5120504904
 11
159.1668773417
 21
84.4596546303
  0
LINE
  5
2C5
100
AcDbEntity
  8
SUPERFICI
100
AcDbLine
 62
7
  6
CONTINUOUS
 10
159.3676290944
 20
84.7469736456
 11
159.4536655599
 21
84.6945777855
  0
LINE
  5
2C6
100
AcDbEntity
  8
SUPERFICI
100
AcDbLine
 62
7
  6
CONTINUOUS
 10
159.6544173126
 20
84.9818968008
 11
159.7404537781
 21
84.9295009407
  0
LWPOLYLINE
  5
2C7
100
AcDbEntity
  8
RACCORDO
100
AcDbPolyline
 62
7
  6
CONTINUOUS
 90
46
 70
0
 10
124.6565419222
 20
133.359141038
 10
124.6525783209
 20
133.3732073691
 10
124.6489927989
 20
133.3869785697
 10
124.6457699353
 20
133.4004434827
 10
124.6428807406
 20
133.4136048931
 10
124.6403232256
 20
133.426440425
 10
124.6381218225
 20
133.4389030107
 10
124.636263077
 20
133.4509858003
 10
124.6347285393
 20
133.4626825278
 10
124.6335339196
 20
133.4739497281
 10
124.6326662996
 20
133.4847839262
 10
124.6321064333
 20
133.4951828007
 10
124.6318591163
 20
133.5051083793
 10
124.6319123516
 20
133.5145583711
 10
124.6322465924
 20
133.5235376963
 10
124.6328542782
 20
133.5320235482
 10
124.6337237137
 20
133.5400142083
 10
124.6348374912
 20
133.5475221226
 10
124.6361796039
 20
133.5545489542
 10
124.6377397259
 20
133.5610988928
 10
124.6395036606
 20
133.5671831945
 10
124.6414505792
 20
133.5728156802
 10
124.6435719801
 20
133.5780034784
 10
124.6458567387
 20
133.5827578085
 10
124.6482812521
 20
133.5870993682
 10
124.6508377442
 20
133.5910358548
 10
124.6535190427
 20
133.5945796207
 10
124.6563035895
 20
133.5977580519
 10
124.6591867434
 20
133.6005811312
 10
124.6621623974
 20
133.603058202
 10
124.6652077559
 20
133.6052149701
 10
124.6683202791
 20
133.6070610917
 10
124.6714952407
 20
133.6086058818
 10
124.6747073901
 20
133.6098744559
 10
124.6779529235
 20
133.6108758149
 10
124.6812314898
 20
133.6116200748
 10
124.6845236537
 20
133.6121336013
 10
124.6878247912
 20
133.6124256739
 10
124.6911377364
 20
133.6125044961
 10
124.6944543619
 20
133.6123929367
 10
124.697772389
 20
133.6120992946
 10
124.7010934781
 20
133.6116292773
 10
124.704415039
 20
133.610999246
 10
124.7077359792
 20
133.6102177625
 10
124.7110571664
 20
133.6092869236
 10
124.714378809
 20
133.6082120468
  0
LINE
  5
2C8
100
AcDbEntity
  8
SUPERFICI
100
AcDbLine
 62
7
  6
CONTINUOUS
 10
141.5284611589
 20
92.2509524387
 11
141.5284611589
 21
91.7665449738
  0
LINE
  5
2C9
100
AcDbEntity
  8
SUPERFICI
100
AcDbLine
 62
7
  6
CONTINUOUS
 10
141.5588515397
 20
92.2818405563
 11
141.5588515397
 21
91.7985273826
  0
LINE
  5
2CA
100
AcDbEntity
  8
DRAFT
100
AcDbLine
 62
7
  6
CONTINUOUS
 10
128.0556697055
 20
106.6945601798
 11
126.7994312379
 21
105.5941860249
  0
LINE
  5
2CB
100
AcDbEntity
  8
DRAFT
100
AcDbLine
 62
7
  6
CONTINUOUS
 10
128.0556697055
 20
111.6094724455
 11
127.4003480701
 21
111.8726643882
  0
LWPOLYLINE
  5
2CC
100
AcDbEntity
  8
SUPERFICI
100
AcDbPolyline
 62
7
  6
CONTINUOUS
 90
3
 70
0
 10
141.5588515299
 20
92.2823130297
 10
141.5586620502
 20
92.2831141279
 10
141.5579293436
 20
92.2837212771
  0
LWPOLYLINE
  5
2CD
100
AcDbEntity
  8
0
100
AcDbPolyline
 62
7
  6
CONTINUOUS
 90
3
 70
0
 10
146.5870656911
 20
84.8799450477
 10
146.5935622532
 20
84.6514380658
 10
146.5967771863
 20
84.5380181188
  0
LWPOLYLINE
  5
2CE
100
AcDbEntity
  8
0
100
AcDbPolyline
 62
7
  6
CONTINUOUS
 90
3
 70
0
 10
146.5967771863
 20
84.5380181188
 10
146.6031403668
 20
84.3128453097
 10
146.6062885939
 20
84.2010924534
  0
LWPOLYLINE
  5
2CF
100
AcDbEntity
  8
0
100
AcDbPolyline
 62
7
  6
CONTINUOUS
 90
3
 70
0
 10
146.6062885939
 20
84.2010924534
 10
146.612518296
 20
83.9792538443
 10
146.6155997761
 20
83.8691680901
  0
LWPOLYLINE
  5
2D0
100
AcDbEntity
  8
0
100
AcDbPolyline
 62
7
  6
CONTINUOUS
 90
4
 70
0
 10
146.2309079903
 20
84.6449488256
 10
146.2284466531
 20
84.7509059729
 10
146.225969558
 20
84.8573244069
 10
146.2234767048
 20
84.9642041275
  0
LWPOLYLINE
  5
2D1
100
AcDbEntity
  8
0
100
AcDbPolyline
 62
7
  6
CONTINUOUS
 90
4
 70
0
 10
146.3037620604
 20
84.7046431444
 10
146.3012991258
 20
84.8105954818
 10
146.2988204882
 20
84.9170073995
 10
146.2963261475
 20
85.0238788974
  0
LWPOLYLINE
  5
2D2
100
AcDbEntity
  8
0
100
AcDbPolyline
 62
7
  6
CONTINUOUS
 90
3
 70
0
 10
146.2381974536
 20
84.3298451035
 10
146.235783417
 20
84.4344183862
 10
146.2309079903
 20
84.6449488256
  0
LWPOLYLINE
  5
2D3
100
AcDbEntity
  8
0
100
AcDbPolyline
 62
7
  6
CONTINUOUS
 90
4
 70
0
 10
146.3134566857
 20
84.2854296121
 10
146.3110566458
 20
84.3895436139
 10
146.3086408479
 20
84.4941172056
 10
146.3037620604
 20
84.7046431444
  0
LWPOLYLINE
  5
2D4
100
AcDbEntity
  8
0
100
AcDbPolyline
 62
7
  6
CONTINUOUS
 90
3
 70
0
 10
146.2453447367
 20
84.0188930246
 10
146.2429781068
 20
84.1220824239
 10
146.2381974536
 20
84.3298451035
  0
LINE
  5
2D5
100
AcDbEntity
  8
0
100
AcDbLine
 62
7
  6
CONTINUOUS
 10
146.3182095327
 20
84.0785803712
 11
146.3134566857
 21
84.2854296121
  0
LINE
  5
2D6
100
AcDbEntity
  8
0
100
AcDbLine
 62
7
  6
CONTINUOUS
 10
144.7084659972
 20
84.6391501834
 11
144.7554547045
 21
85.0983673818
  0
LINE
  5
2D7
100
AcDbEntity
  8
0
100
AcDbLine
 62
7
  6
CONTINUOUS
 10
144.7812740394
 20
84.69879104
 11
144.8282600884
 21
85.1580060608
  0
LWPOLYLINE
  5
2D8
100
AcDbEntity
  8
0
100
AcDbPolyline
 62
7
  6
CONTINUOUS
 90
3
 70
0
 10
140.0470805245
 20
86.5086858722
 10
140.1102809221
 20
87.049781515
 10
140.1415058958
 20
87.3169133423
  0
LWPOLYLINE
  5
2D9
100
AcDbEntity
  8
0
100
AcDbPolyline
 62
7
  6
CONTINUOUS
 90
3
 70
0
 10
140.1199376689
 20
86.568366951
 10
140.1831486803
 20
87.1095086642
 10
140.2143779797
 20
87.3766547109
  0
LWPOLYLINE
  5
2DA
100
AcDbEntity
  8
0
100
AcDbPolyline
 62
7
  6
CONTINUOUS
 90
5
 70
0
 10
145.3138572652
 20
86.8690518935
 10
145.1280894398
 20
85.2775292827
 10
145.0978351782
 20
85.0186480931
 10
145.0677826012
 20
84.7615877171
 10
145.0379317088
 20
84.5063481545
  0
LWPOLYLINE
  5
2DB
100
AcDbEntity
  8
0
100
AcDbPolyline
 62
7
  6
CONTINUOUS
 90
3
 70
0
 10
140.1415058958
 20
87.3169133423
 10
140.2032052462
 20
87.8443450475
 10
140.2336799171
 20
88.1046448481
  0
LWPOLYLINE
  5
2DC
100
AcDbEntity
  8
0
100
AcDbPolyline
 62
7
  6
CONTINUOUS
 90
3
 70
0
 10
140.2143779797
 20
87.3766547109
 10
140.2760840228
 20
87.9040972221
 10
140.3065610524
 20
88.1643936112
  0
LWPOLYLINE
  5
2DD
100
AcDbEntity
  8
0
100
AcDbPolyline
 62
7
  6
CONTINUOUS
 90
3
 70
0
 10
140.2336799171
 20
88.1046448481
 10
140.2938796182
 20
88.6184122485
 10
140.3236045749
 20
88.8718798678
  0
LWPOLYLINE
  5
2DE
100
AcDbEntity
  8
0
100
AcDbPolyline
 62
7
  6
CONTINUOUS
 90
3
 70
0
 10
140.3065610524
 20
88.1643936112
 10
140.3667634848
 20
88.6781365622
 10
140.3865293464
 20
88.8466658874
  0
LINE
  5
2DF
100
AcDbEntity
  8
0
100
AcDbLine
 62
7
  6
CONTINUOUS
 10
144.8093238414
 20
85.5339857365
 11
144.8967389447
 21
86.2678225533
  0
LINE
  5
2E0
100
AcDbEntity
  8
0
100
AcDbLine
 62
7
  6
CONTINUOUS
 10
144.8821270537
 20
85.5936226367
 11
144.9695387711
 21
86.3274566798
  0
LINE
  5
2E1
100
AcDbEntity
  8
0
100
AcDbLine
 62
7
  6
CONTINUOUS
 10
140.6537041138
 20
88.7395970399
 11
140.4444275429
 21
87.0980415915
  0
LINE
  5
2E2
100
AcDbEntity
  8
0
100
AcDbLine
 62
7
  6
CONTINUOUS
 10
142.4139427413
 20
85.5616000256
 11
142.6292978126
 21
87.0955169205
  0
LINE
  5
2E3
100
AcDbEntity
  8
0
100
AcDbLine
 62
7
  6
CONTINUOUS
 10
142.4867337281
 20
85.6212269113
 11
142.7020926502
 21
87.1551469605
  0
LINE
  5
2E4
100
AcDbEntity
  8
0
100
AcDbLine
 62
7
  6
CONTINUOUS
 10
143.0874560804
 20
87.7634114566
 11
142.8583315589
 21
86.2349938097
  0
LINE
  5
2E5
100
AcDbEntity
  8
SUPERFICI
100
AcDbLine
 62
7
  6
CONTINUOUS
 10
140.8424680591
 20
91.1622798357
 11
140.8510814123
 21
91.1909659907
  0
LINE
  5
2E6
100
AcDbEntity
  8
SUPERFICI
100
AcDbLine
 62
7
  6
CONTINUOUS
 10
135.4121924615
 20
93.0608482127
 11
135.4562919125
 21
93.1599529114
  0
LINE
  5
2E7
100
AcDbEntity
  8
SUPERFICI
100
AcDbLine
 62
7
  6
CONTINUOUS
 10
135.6637791116
 20
93.2166628822
 11
135.7430801307
 21
93.3948760666
  0
LINE
  5
2E8
100
AcDbEntity
  8
SUPERFICI
100
AcDbLine
 62
7
  6
CONTINUOUS
 10
135.9505673297
 20
93.4515860374
 11
136.0298683489
 21
93.6297992218
  0
LINE
  5
2E9
100
AcDbEntity
  8
SUPERFICI
100
AcDbLine
 62
7
  6
CONTINUOUS
 10
136.2373555479
 20
93.6865091926
 11
136.3166565671
 21
93.864722377
  0
LINE
  5
2EA
100
AcDbEntity
  8
SUPERFICI
100
AcDbLine
 62
7
  6
CONTINUOUS
 10
136.5241437661
 20
93.9214323478
 11
136.6034447852
 21
94.0996455322
  0
LINE
  5
2EB
100
AcDbEntity
  8
SUPERFICI
100
AcDbLine
 62
7
  6
CONTINUOUS
 10
139.917528705
 20
91.2514036068
 11
139.9616281561
 21
91.3505083055
  0
LINE
  5
2EC
100
AcDbEntity
  8
SUPERFICI
100
AcDbLine
 62
7
  6
CONTINUOUS
 10
140.1623799089
 20
91.3920817075
 11
140.2484163743
 21
91.5854314607
  0
LINE
  5
2ED
100
AcDbEntity
  8
SUPERFICI
100
AcDbLine
 62
7
  6
CONTINUOUS
 10
140.449168127
 20
91.6270048627
 11
140.5352045925
 21
91.8203546159
  0
LINE
  5
2EE
100
AcDbEntity
  8
SUPERFICI
100
AcDbLine
 62
7
  6
CONTINUOUS
 10
140.7359563452
 20
91.8619280179
 11
140.8219928107
 21
92.0552777711
  0
LINE
  5
2EF
100
AcDbEntity
  8
SUPERFICI
100
AcDbLine
 62
7
  6
CONTINUOUS
 10
141.0227445634
 20
92.0968511731
 11
141.1087810288
 21
92.2902009263
  0
LWPOLYLINE
  5
2F0
100
AcDbEntity
  8
RACCORDO
100
AcDbPolyline
 62
7
  6
CONTINUOUS
 90
10
 70
0
 10
123.92618827
 20
92.2288768713
 10
123.9154428845
 20
92.2198269237
 10
123.90480788
 20
92.2086485355
 10
123.8946080711
 20
92.1956831176
 10
123.8851549803
 20
92.1813266601
 10
123.8767373237
 20
92.1660176381
 10
123.8696121928
 20
92.1502236196
 10
123.8639972031
 20
92.1344269855
 10
123.8600638476
 20
92.1191101964
 10
123.8579322587
 20
92.1047410578
  0
LWPOLYLINE
  5
2F1
100
AcDbEntity
  8
RACCORDO
100
AcDbPolyline
 62
7
  6
CONTINUOUS
 90
28
 70
0
 10
125.8463002161
 20
96.0532725519
 10
125.8336385407
 20
96.0428491886
 10
125.8210138877
 20
96.0319580455
 10
125.8084262571
 20
96.0205991223
 10
125.7958597987
 20
96.008757815
 10
125.7833303628
 20
95.9964487277
 10
125.7708854993
 20
95.9837156734
 10
125.7585269168
 20
95.97055701
 10
125.7462529068
 20
95.9569743796
 10
125.7341058941
 20
95.943016521
 10
125.722092294
 20
95.9286892758
 10
125.7102056913
 20
95.9139868024
 10
125.6984692649
 20
95.8989403146
 10
125.6868841663
 20
95.8835515284
 10
125.6754492441
 20
95.8678187279
 10
125.664184223
 20
95.8517679788
 10
125.6530845558
 20
95.8353918144
 10
125.6421547897
 20
95.8186977014
 10
125.6314282906
 20
95.8017341062
 10
125.6209037261
 20
95.7844955893
 10
125.6105824286
 20
95.7669875902
 10
125.6005017614
 20
95.7492748936
 10
125.5906625145
 20
95.7313541586
 10
125.5810638978
 20
95.7132287262
 10
125.571740905
 20
95.6949734046
 10
125.5627052005
 20
95.6766131298
 10
125.5539451198
 20
95.6581229657
 10
125.5454606629
 20
95.6395029124
  0
LINE
  5
2F2
100
AcDbEntity
  8
RACCORDO
100
AcDbLine
 62
7
  6
CONTINUOUS
 10
123.2135506607
 20
93.5469857458
 11
123.1336687778
 21
93.4815503381
  0
LINE
  5
2F3
100
AcDbEntity
  8
RACCORDO
100
AcDbLine
 62
7
  6
CONTINUOUS
 10
124.0366923737
 20
92.319394948
 11
123.9261881149
 21
92.2288751585
  0
LINE
  5
2F4
100
AcDbEntity
  8
RACCORDO
100
AcDbLine
 62
7
  6
CONTINUOUS
 10
126.6867337616
 20
96.7287950225
 11
125.8463002161
 21
96.0532725519
  0
LINE
  5
2F5
100
AcDbEntity
  8
RACCORDO
100
AcDbLine
 62
7
  6
CONTINUOUS
 10
126.8503396469
 20
96.4994813255
 11
126.0099061293
 21
95.8239588343
  0
LWPOLYLINE
  5
2F6
100
AcDbEntity
  8
RACCORDO
100
AcDbPolyline
 62
7
  6
CONTINUOUS
 90
28
 70
0
 10
126.0099061565
 20
95.8239588424
 10
126.0006074267
 20
95.8166316189
 10
125.9913211805
 20
95.8089580085
 10
125.982054719
 20
95.8009437299
 10
125.9728109689
 20
95.792591852
 10
125.9636017238
 20
95.783911506
 10
125.9544474599
 20
95.7749190989
 10
125.9453562368
 20
95.7656235781
 10
125.9363342944
 20
95.7560325028
 10
125.9273989705
 20
95.7461624565
 10
125.9185614598
 20
95.7360281016
 10
125.9098239847
 20
95.7256343984
 10
125.9011902492
 20
95.71498397
 10
125.892667769
 20
95.7040876321
 10
125.8842622186
 20
95.6929541973
 10
125.8759748474
 20
95.6815824934
 10
125.8678088968
 20
95.6699772157
 10
125.8597745171
 20
95.6581531021
 10
125.8518833545
 20
95.6461239881
 10
125.8441399651
 20
95.6338975008
 10
125.8365523227
 20
95.6214872416
 10
125.8291364219
 20
95.6089170515
 10
125.8218975956
 20
95.5961980222
 10
125.8148412345
 20
95.5833422492
 10
125.8079821298
 20
95.5703762192
 10
125.8013277719
 20
95.5573170592
 10
125.7948789885
 20
95.5441719952
 10
125.788639693
 20
95.5309530843
  0
LWPOLYLINE
  5
2F7
100
AcDbEntity
  8
RACCORDO
100
AcDbPolyline
 62
7
  6
CONTINUOUS
 90
10
 70
0
 10
123.1336687778
 20
93.4815503381
 10
123.1220819278
 20
93.4736732362
 10
123.1082236764
 20
93.4671123172
 10
123.092541172
 20
93.4620796541
 10
123.0755408281
 20
93.4587380538
 10
123.0577713131
 20
93.457195633
 10
123.0398057722
 20
93.457502547
 10
123.0222243752
 20
93.4596494324
 10
123.0055956282
 20
93.4635674295
 10
122.9904572705
 20
93.4691303917
  0
LINE
  5
2F8
100
AcDbEntity
  8
0
100
AcDbLine
 62
7
  6
CONTINUOUS
 10
181.8298818394
 20
93.9380461355
 11
182.144347192
 21
93.8117497605
  0
LINE
  5
2F9
100
AcDbEntity
  8
0
100
AcDbLine
 62
7
  6
CONTINUOUS
 10
141.767553846
 20
85.8206997977
 11
142.5788104393
 21
87.9675586718
  0
LINE
  5
2FA
100
AcDbEntity
  8
0
100
AcDbLine
 62
7
  6
CONTINUOUS
 10
141.840354395
 20
85.8803345162
 11
142.6224574185
 21
87.9500433098
  0
LINE
  5
2FB
100
AcDbEntity
  8
0
100
AcDbLine
 62
7
  6
CONTINUOUS
 10
142.6292978126
 20
87.0955169205
 11
142.0976591655
 21
85.6884217049
  0
LINE
  5
2FC
100
AcDbEntity
  8
0
100
AcDbLine
 62
7
  6
CONTINUOUS
 10
143.0600570362
 20
85.3022753131
 11
143.5915591983
 21
86.7092587267
  0
LINE
  5
2FD
100
AcDbEntity
  8
0
100
AcDbLine
 62
7
  6
CONTINUOUS
 10
143.1328447691
 20
85.3618995334
 11
143.6643468949
 21
86.7688829172
  0
LINE
  5
2FE
100
AcDbEntity
  8
0
100
AcDbLine
 62
7
  6
CONTINUOUS
 10
144.200787249
 20
87.3163386363
 11
143.389882073
 21
85.1697676263
  0
LINE
  5
2FF
100
AcDbEntity
  8
0
100
AcDbLine
 62
7
  6
CONTINUOUS
 10
141.1484118716
 20
86.0685618966
 11
141.9601133382
 21
88.2157851897
  0
LINE
  5
300
100
AcDbEntity
  8
0
100
AcDbLine
 62
7
  6
CONTINUOUS
 10
141.2212275304
 20
86.1282089924
 11
142.0037621009
 21
88.1982761778
  0
LINE
  5
301
100
AcDbEntity
  8
0
100
AcDbLine
 62
7
  6
CONTINUOUS
 10
142.2900952748
 20
88.0834060276
 11
141.4786525936
 21
85.9363947191
  0
LINE
  5
302
100
AcDbEntity
  8
0
100
AcDbLine
 62
7
  6
CONTINUOUS
 10
145.2987070658
 20
84.4011708944
 11
146.1107085634
 21
86.5486399584
  0
LINE
  5
303
100
AcDbEntity
  8
0
100
AcDbLine
 62
7
  6
CONTINUOUS
 10
145.371532505
 20
84.4608260017
 11
146.1543412607
 21
86.5310903002
  0
LINE
  5
304
100
AcDbEntity
  8
0
100
AcDbLine
 62
7
  6
CONTINUOUS
 10
146.2764823076
 20
86.024486158
 11
146.0716899726
 21
85.4830368945
  0
LINE
  5
305
100
AcDbEntity
  8
0
100
AcDbLine
 62
7
  6
CONTINUOUS
 10
145.9352358359
 20
85.0804400035
 11
145.628041818
 21
84.2682615899
  0
LINE
  5
306
100
AcDbEntity
  8
0
100
AcDbLine
 62
7
  6
CONTINUOUS
 10
140.4444275429
 20
87.0980415915
 11
141.3825887035
 21
88.4474026496
  0
LINE
  5
307
100
AcDbEntity
  8
0
100
AcDbLine
 62
7
  6
CONTINUOUS
 10
141.4037310025
 20
88.4327052593
 11
141.4071122341
 21
88.4375691846
  0
LINE
  5
308
100
AcDbEntity
  8
0
100
AcDbLine
 62
7
  6
CONTINUOUS
 10
140.517277819
 20
87.1577170441
 11
141.4037310025
 21
88.4327052593
  0
LINE
  5
309
100
AcDbEntity
  8
0
100
AcDbLine
 62
7
  6
CONTINUOUS
 10
141.7126115817
 20
88.3150570249
 11
140.3637973783
 21
86.3822191125
  0
LINE
  5
30A
100
AcDbEntity
  8
DRAFT
100
AcDbLine
 62
7
  6
CONTINUOUS
 10
180.7456758663
 20
130.2208479869
 11
181.4479829517
 21
130.8487091938
  0
LINE
  5
30B
100
AcDbEntity
  8
RACCORDO
100
AcDbLine
 62
7
  6
CONTINUOUS
 10
177.2770767602
 20
128.2512549048
 11
180.0960342008
 21
130.560409655
  0
LINE
  5
30C
100
AcDbEntity
  8
SUPERFICI
100
AcDbLine
 62
7
  6
CONTINUOUS
 10
135.4562919125
 20
93.1599529114
 11
135.5710071998
 21
93.2539221734
  0
LINE
  5
30D
100
AcDbEntity
  8
SUPERFICI
100
AcDbLine
 62
7
  6
CONTINUOUS
 10
135.7430801307
 20
93.3948760666
 11
135.857795418
 21
93.4888453286
  0
LINE
  5
30E
100
AcDbEntity
  8
SUPERFICI
100
AcDbLine
 62
7
  6
CONTINUOUS
 10
136.0298683489
 20
93.6297992218
 11
136.1445836362
 21
93.7237684838
  0
LINE
  5
30F
100
AcDbEntity
  8
SUPERFICI
100
AcDbLine
 62
7
  6
CONTINUOUS
 10
136.3166565671
 20
93.864722377
 11
136.4313718543
 21
93.958691639
  0
LINE
  5
310
100
AcDbEntity
  8
SUPERFICI
100
AcDbLine
 62
7
  6
CONTINUOUS
 10
136.6034447852
 20
94.0996455322
 11
136.7181600725
 21
94.1936147942
  0
LINE
  5
311
100
AcDbEntity
  8
RACCORDO
100
AcDbLine
 62
7
  6
CONTINUOUS
 10
178.9859642226
 20
126.0127894745
 11
181.8298818394
 21
128.3423904041
  0
LINE
  5
312
100
AcDbEntity
  8
RACCORDO
100
AcDbLine
 62
7
  6
CONTINUOUS
 10
163.4157284603
 20
118.718842803
 11
163.2911888077
 21
118.6177472226
  0
LINE
  5
313
100
AcDbEntity
  8
RACCORDO
100
AcDbLine
 62
7
  6
CONTINUOUS
 10
162.666426422
 20
119.834000306
 11
162.5229762288
 21
119.7175693555
  0
LINE
  5
314
100
AcDbEntity
  8
DRAFT
100
AcDbLine
 62
7
  6
CONTINUOUS
 10
181.6076995426
 20
129.2164464023
 11
182.267134996
 21
129.7005672212
  0
LINE
  5
315
100
AcDbEntity
  8
SUPERFICI
100
AcDbLine
 62
7
  6
CONTINUOUS
 10
136.590822539
 20
94.2269147425
 11
135.1473653173
 21
93.1672087642
  0
LWPOLYLINE
  5
316
100
AcDbEntity
  8
RACCORDO
100
AcDbPolyline
 62
7
  6
CONTINUOUS
 90
3
 70
0
 10
125.7886397221
 20
132.7854287289
 10
125.6688089832
 20
132.8774321301
 10
124.714378809
 20
133.6082120468
  0
LINE
  5
317
100
AcDbEntity
  8
RACCORDO
100
AcDbLine
 62
7
  6
CONTINUOUS
 10
125.5454606566
 20
132.6769989387
 11
124.6565419222
 21
133.3591410381
  0
LWPOLYLINE
  5
318
100
AcDbEntity
  8
SUPERFICI
100
AcDbPolyline
 62
7
  6
CONTINUOUS
 90
3
 70
0
 10
159.9897725264
 20
84.8800396421
 10
159.9895830467
 20
84.8808407403
 10
159.9888503401
 20
84.8814478896
  0
LWPOLYLINE
  5
319
100
AcDbEntity
  8
RACCORDO
100
AcDbPolyline
 62
7
  6
CONTINUOUS
 90
23
 70
0
 10
162.4037775338
 20
77.0021551145
 10
162.4045014101
 20
76.9949955098
 10
162.4054220526
 20
76.9880286597
 10
162.4065377564
 20
76.9812674659
 10
162.4078464552
 20
76.9747244493
 10
162.4093457255
 20
76.9684117269
 10
162.4110327909
 20
76.9623409889
 10
162.4129045272
 20
76.9565234777
 10
162.414957468
 20
76.9509699666
 10
162.4171878116
 20
76.9456907401
 10
162.4195914277
 20
76.9406955746
 10
162.422163865
 20
76.9359937206
 10
162.4249003598
 20
76.9315938854
 10
162.4277958443
 20
76.9275042169
 10
162.4308449564
 20
76.9237322887
 10
162.4340420496
 20
76.920285086
 10
162.4373812033
 20
76.9171689925
 10
162.4408562336
 20
76.914389779
 10
162.4444607054
 20
76.9119525921
 10
162.4481879434
 20
76.9098619453
 10
162.4520310455
 20
76.9081217102
 10
162.4559828944
 20
76.9067351094
 10
162.4569211719
 20
76.9064623752
  0
LWPOLYLINE
  5
31A
100
AcDbEntity
  8
RACCORDO
100
AcDbPolyline
 62
7
  6
CONTINUOUS
 90
7
 70
0
 10
163.4178645699
 20
77.2623229366
 10
163.4184582159
 20
77.2561062501
 10
163.4220112962
 20
77.2460009324
 10
163.4286606406
 20
77.2364236235
 10
163.438191461
 20
77.2276836907
 10
163.4502958914
 20
77.2200634523
 10
163.4645829327
 20
77.2138090583
  0
LWPOLYLINE
  5
31B
100
AcDbEntity
  8
RACCORDO
100
AcDbPolyline
 62
7
  6
CONTINUOUS
 90
16
 70
0
 10
161.5463078546
 20
78.2018721433
 10
161.5457585776
 20
78.2101454466
 10
161.5454628252
 20
78.2186268302
 10
161.5454212927
 20
78.2272963595
 10
161.5456340776
 20
78.2361336576
 10
161.5461006798
 20
78.2451179532
 10
161.5468200026
 20
78.2542281295
 10
161.5477903554
 20
78.263442774
 10
161.5490094573
 20
78.2727402285
 10
161.550474443
 20
78.2820986401
 10
161.5521818692
 20
78.2914960129
 10
161.5541277227
 20
78.3009102591
 10
161.55630743
 20
78.3103192515
 10
161.5587158679
 20
78.3197008751
 10
161.5613473756
 20
78.3290330793
 10
161.564195768
 20
78.3382939296
  0
LINE
  5
31C
100
AcDbEntity
  8
SUPERFICI
100
AcDbLine
 62
7
  6
CONTINUOUS
 10
159.9593821554
 20
84.8486790511
 11
159.9593821554
 21
84.3642715862
  0
LINE
  5
31D
100
AcDbEntity
  8
SUPERFICI
100
AcDbLine
 62
7
  6
CONTINUOUS
 10
159.9897725362
 20
84.8795671687
 11
159.9897725362
 21
84.396253995
  0
LINE
  5
31E
100
AcDbEntity
  8
RACCORDO
100
AcDbLine
 62
7
  6
CONTINUOUS
 10
161.7707169018
 20
118.3846238485
 11
161.7707351778
 21
78.6732794181
  0
LINE
  5
31F
100
AcDbEntity
  8
RACCORDO
100
AcDbLine
 62
7
  6
CONTINUOUS
 10
161.8635456599
 20
118.2834004786
 11
161.8635456599
 21
78.576430893
  0
LINE
  5
320
100
AcDbEntity
  8
RACCORDO
100
AcDbLine
 62
7
  6
CONTINUOUS
 10
163.0226540366
 20
77.4300936066
 11
163.0226540366
 21
118.5881603318
  0
LWPOLYLINE
  5
321
100
AcDbEntity
  8
RACCORDO
100
AcDbPolyline
 62
7
  6
CONTINUOUS
 90
15
 70
0
 10
161.7707351629
 20
78.6732739201
 10
161.7707229105
 20
78.6697091953
 10
161.7704614767
 20
78.6565238073
 10
161.7698768254
 20
78.6438237427
 10
161.7689909502
 20
78.6316139194
 10
161.7678255892
 20
78.6198987609
 10
161.7664026763
 20
78.6086839916
 10
161.7647432451
 20
78.5979718774
 10
161.7628687869
 20
78.5877680451
 10
161.7608029773
 20
78.5780842782
 10
161.7585681294
 20
78.5689215091
 10
161.7561865607
 20
78.5602819916
 10
161.7536845631
 20
78.5521775061
 10
161.7510876556
 20
78.5446101357
 10
161.7500230482
 20
78.5417202974
  0
LWPOLYLINE
  5
322
100
AcDbEntity
  8
RACCORDO
100
AcDbPolyline
 62
7
  6
CONTINUOUS
 90
46
 70
0
 10
161.8635456599
 20
78.576430893
 10
161.8631822232
 20
78.5545414628
 10
161.8621953777
 20
78.5331672921
 10
161.8605851262
 20
78.5123083833
 10
161.8583306802
 20
78.4919323218
 10
161.8554528389
 20
78.4720715322
 10
161.8520139887
 20
78.4528232771
 10
161.8480091762
 20
78.4341936465
 10
161.8434433733
 20
78.4161765674
 10
161.8383938541
 20
78.3988510579
 10
161.8328550604
 20
78.3822242231
 10
161.8268325732
 20
78.3662889787
 10
161.8204203737
 20
78.351103056
 10
161.8136152397
 20
78.3366786585
 10
161.8064204164
 20
78.3230036035
 10
161.7989395806
 20
78.3100990384
 10
161.7911759794
 20
78.2979808288
 10
161.7831263851
 20
78.2866331268
 10
161.7748847554
 20
78.2760295037
 10
161.7664547594
 20
78.2661781406
 10
161.7578327423
 20
78.2570708694
 10
161.7491016696
 20
78.2486567321
 10
161.7402653333
 20
78.2409403386
 10
161.7313199498
 20
78.2339170867
 10
161.7223371157
 20
78.2275221947
 10
161.7133238056
 20
78.2217591442
 10
161.7042730477
 20
78.2166244561
 10
161.695235513
 20
78.2120429041
 10
161.6862128123
 20
78.2080133311
 10
161.6772033337
 20
78.2045368931
 10
161.6682529113
 20
78.2015418295
 10
161.6593620632
 20
78.1990277142
 10
161.6505302666
 20
78.1969949691
 10
161.64180179
 20
78.1953731014
 10
161.6331836613
 20
78.1941620135
 10
161.6246688445
 20
78.1933617958
 10
161.61628051
 20
78.1929022359
 10
161.6080278427
 20
78.1927798418
 10
161.599901648
 20
78.1929980968
 10
161.5918975273
 20
78.1934972517
 10
161.5840184367
 20
78.194272174
 10
161.5762614112
 20
78.1953279882
 10
161.5686131714
 20
78.1966203314
 10
161.5610692884
 20
78.1981344138
 10
161.5536341837
 20
78.1998850186
 10
161.5463078538
 20
78.2018721426
  0
LWPOLYLINE
  5
323
100
AcDbEntity
  8
RACCORDO
100
AcDbPolyline
 62
7
  6
CONTINUOUS
 90
16
 70
0
 10
161.5463078706
 20
118.889172778
 10
161.5457585917
 20
118.8816196523
 10
161.5454628376
 20
118.8743118056
 10
161.5454213034
 20
118.8672664143
 10
161.5456340867
 20
118.8605000379
 10
161.5461006873
 20
118.8540285802
 10
161.5468200085
 20
118.8478672517
 10
161.5477903598
 20
118.8420305341
 10
161.5490094603
 20
118.8365321461
 10
161.5504744446
 20
118.831385011
 10
161.5521818695
 20
118.8266012268
 10
161.5541277218
 20
118.8221920373
 10
161.556307428
 20
118.8181678059
 10
161.5587158649
 20
118.8145379912
 10
161.5613473716
 20
118.8113111247
 10
161.5641957631
 20
118.8084947909
  0
LWPOLYLINE
  5
324
100
AcDbEntity
  8
RACCORDO
100
AcDbPolyline
 62
7
  6
CONTINUOUS
 90
37
 70
0
 10
162.4037775345
 20
119.4648095128
 10
162.4045014089
 20
119.4716948714
 10
162.4054220496
 20
119.4787469749
 10
162.4065377516
 20
119.4859527636
 10
162.4078464489
 20
119.4932988932
 10
162.4093457178
 20
119.5007717596
 10
162.411032782
 20
119.508357524
 10
162.4129045171
 20
119.5160421384
 10
162.4149574569
 20
119.5238113718
 10
162.4171877997
 20
119.5316508365
 10
162.4195914151
 20
119.5395460147
 10
162.4221638519
 20
119.5474822856
 10
162.4249003462
 20
119.555444952
 10
162.4277958305
 20
119.5634192682
 10
162.4308449425
 20
119.5713904665
 10
162.4340420357
 20
119.5793437853
 10
162.4373811894
 20
119.587264496
 10
162.44085622
 20
119.5951379303
 10
162.4444606921
 20
119.6029495076
 10
162.4481879307
 20
119.6106847618
 10
162.4520310333
 20
119.6183293682
 10
162.455982883
 20
119.6258691697
 10
162.4600361613
 20
119.6332902036
 10
162.4641833623
 20
119.640578727
 10
162.4684168056
 20
119.6477212425
 10
162.4727286515
 20
119.6547045229
 10
162.4771109149
 20
119.6615156361
 10
162.4815554804
 20
119.6681419686
 10
162.4860541173
 20
119.6745712494
 10
162.4905984945
 20
119.680791572
 10
162.4951801964
 20
119.6867914173
 10
162.4997907383
 20
119.6925596742
 10
162.504421582
 20
119.6980856605
 10
162.5090641516
 20
119.703359143
 10
162.5137098498
 20
119.7083703555
 10
162.5183500732
 20
119.7131100181
 10
162.5229762286
 20
119.7175693534
  0
LINE
  5
325
100
AcDbEntity
  8
0
100
AcDbLine
 62
7
  6
CONTINUOUS
 10
143.5915591983
 20
86.7092587267
 11
142.7439076878
 21
85.4292069461
  0
LINE
  5
326
100
AcDbEntity
  8
0
100
AcDbLine
 62
7
  6
CONTINUOUS
 10
142.8583315589
 20
86.2349938097
 11
143.7060056017
 21
87.5150640485
  0
LINE
  5
327
100
AcDbEntity
  8
0
100
AcDbLine
 62
7
  6
CONTINUOUS
 10
142.9311210939
 20
86.294619506
 11
143.7323143459
 21
87.5044988205
  0
LINE
  5
328
100
AcDbEntity
  8
0
100
AcDbLine
 62
7
  6
CONTINUOUS
 10
144.8967389447
 20
86.2678225533
 11
144.4934062343
 21
85.6611071998
  0
LINE
  5
329
100
AcDbEntity
  8
0
100
AcDbLine
 62
7
  6
CONTINUOUS
 10
144.2335571419
 20
85.3084377815
 11
143.9806398044
 21
84.9322115626
  0
LINE
  5
32A
100
AcDbEntity
  8
0
100
AcDbLine
 62
7
  6
CONTINUOUS
 10
143.650942884
 20
85.0648241963
 11
144.9840860603
 21
87.0016036769
  0
LINE
  5
32B
100
AcDbEntity
  8
0
100
AcDbLine
 62
7
  6
CONTINUOUS
 10
143.7237331543
 20
85.1244504951
 11
145.0089545209
 21
86.9916087245
  0
LINE
  5
32C
100
AcDbEntity
  8
SUPERFICI
100
AcDbLine
 62
7
  6
CONTINUOUS
 10
141.5229067805
 20
92.2460785199
 11
140.2804775893
 21
91.1056351524
  0
LWPOLYLINE
  5
32D
100
AcDbEntity
  8
SUPERFICI
100
AcDbPolyline
 62
7
  6
CONTINUOUS
 90
7
 70
0
 10
140.7953896119
 20
91.089320811
 10
140.7993748394
 20
91.0927429396
 10
140.8107675485
 20
91.1041580598
 10
140.8207980861
 20
91.1168431504
 10
140.8293835818
 20
91.1307187417
 10
140.8366069062
 20
91.1458643035
 10
140.8424680591
 20
91.1622798357
  0
LWPOLYLINE
  5
32E
100
AcDbEntity
  8
SUPERFICI
100
AcDbPolyline
 62
7
  6
CONTINUOUS
 90
10
 70
0
 10
141.5284611589
 20
92.2509524387
 10
141.534757522
 20
92.2563420989
 10
141.5404602928
 20
92.2613409538
 10
141.5455076026
 20
92.2659335826
 10
141.5498421024
 20
92.2701197238
 10
141.5533961771
 20
92.2738582726
 10
141.5561023029
 20
92.277065623
 10
141.5579141141
 20
92.2796862773
 10
141.5587796662
 20
92.2817100436
 10
141.5588515299
 20
92.2823130297
  0
LINE
  5
32F
100
AcDbEntity
  8
SUPERFICI
100
AcDbLine
 62
7
  6
CONTINUOUS
 10
141.5284611589
 20
91.7665449738
 11
140.599751564
 21
90.9774075263
  0
LINE
  5
330
100
AcDbEntity
  8
SUPERFICI
100
AcDbLine
 62
7
  6
CONTINUOUS
 10
140.7954479423
 20
91.0893424232
 11
140.6398763433
 21
90.9612925104
  0
LINE
  5
331
100
AcDbEntity
  8
0
100
AcDbLine
 62
7
  6
CONTINUOUS
 10
140.8424680591
 20
91.1622798357
 11
140.611856982
 21
90.9725457175
  0
LINE
  5
332
100
AcDbEntity
  8
SUPERFICI
100
AcDbLine
 62
7
  6
CONTINUOUS
 10
139.9616281561
 20
91.3505083055
 11
140.0763434434
 21
91.4444775676
  0
LINE
  5
333
100
AcDbEntity
  8
SUPERFICI
100
AcDbLine
 62
7
  6
CONTINUOUS
 10
140.2484163743
 20
91.5854314607
 11
140.3631316616
 21
91.6794007228
  0
LINE
  5
334
100
AcDbEntity
  8
SUPERFICI
100
AcDbLine
 62
7
  6
CONTINUOUS
 10
140.5352045925
 20
91.8203546159
 11
140.6499198798
 21
91.914323878
  0
LINE
  5
335
100
AcDbEntity
  8
SUPERFICI
100
AcDbLine
 62
7
  6
CONTINUOUS
 10
140.8219928107
 20
92.0552777711
 11
140.9367080979
 21
92.1492470332
  0
LINE
  5
336
100
AcDbEntity
  8
SUPERFICI
100
AcDbLine
 62
7
  6
CONTINUOUS
 10
141.1087810288
 20
92.2902009263
 11
141.2234963161
 21
92.3841701884
  0
LINE
  5
337
100
AcDbEntity
  8
SUPERFICI
100
AcDbLine
 62
7
  6
CONTINUOUS
 10
141.3095327816
 20
92.3317743283
 11
139.9665895751
 21
91.2316996554
  0
LINE
  5
338
100
AcDbEntity
  8
0
100
AcDbLine
 62
7
  6
CONTINUOUS
 10
140.517277819
 20
87.1577170441
 11
140.4444275429
 21
87.0980415915
  0
LINE
  5
339
100
AcDbEntity
  8
0
100
AcDbLine
 62
7
  6
CONTINUOUS
 10
140.1199376689
 20
86.568366951
 11
140.0470805245
 21
86.5086858722
  0
LINE
  5
33A
100
AcDbEntity
  8
0
100
AcDbLine
 62
7
  6
CONTINUOUS
 10
141.2212275304
 20
86.1282089924
 11
141.1484118716
 21
86.0685618966
  0
LINE
  5
33B
100
AcDbEntity
  8
0
100
AcDbLine
 62
7
  6
CONTINUOUS
 10
142.7020926502
 20
87.1551469605
 11
142.6292978126
 21
87.0955169205
  0
LINE
  5
33C
100
AcDbEntity
  8
SUPERFICI
100
AcDbLine
 62
7
  6
CONTINUOUS
 10
136.6052850461
 20
94.2361293776
 11
136.5972756291
 21
94.2314277184
  0
LWPOLYLINE
  5
33D
100
AcDbEntity
  8
RACCORDO
100
AcDbPolyline
 62
7
  6
CONTINUOUS
 90
34
 70
0
 10
163.0226540366
 20
118.5881603318
 10
163.0304782449
 20
118.5854695532
 10
163.0385082443
 20
118.5829862268
 10
163.0467273272
 20
118.5807155194
 10
163.0551183926
 20
118.5786621556
 10
163.0636639816
 20
118.5768304077
 10
163.072346314
 20
118.5752240871
 10
163.0811473248
 20
118.5738465359
 10
163.0900487023
 20
118.5727006203
 10
163.0990319258
 20
118.5717887245
 10
163.1080783044
 20
118.571112746
 10
163.1171690158
 20
118.5706740912
 10
163.1262851454
 20
118.5704736728
 10
163.1354077257
 20
118.5705119079
 10
163.144517776
 20
118.5707887168
 10
163.1535963413
 20
118.5713035238
 10
163.1626245323
 20
118.5720552576
 10
163.1715835646
 20
118.5730423541
 10
163.1804547976
 20
118.5742627596
 10
163.1892197732
 20
118.5757139349
 10
163.1978602548
 20
118.5773928606
 10
163.2063582644
 20
118.5792960435
 10
163.2146961207
 20
118.5814195236
 10
163.2228564754
 20
118.5837588828
 10
163.2308223499
 20
118.5863092538
 10
163.2385771698
 20
118.58906533
 10
163.2461048001
 20
118.5920213771
 10
163.2533895783
 20
118.5951712446
 10
163.2604163476
 20
118.5985083787
 10
163.2671704875
 20
118.602025836
 10
163.2736379451
 20
118.6057162979
 10
163.2798052638
 20
118.6095720859
 10
163.2856596116
 20
118.6135851774
 10
163.2911888077
 20
118.6177472226
  0
LWPOLYLINE
  5
33E
100
AcDbEntity
  8
RACCORDO
100
AcDbPolyline
 62
7
  6
CONTINUOUS
 90
34
 70
0
 10
124.714378809
 20
133.6082120468
 10
125.7537327179
 20
133.2377973738
 10
126.8051510822
 20
132.86018099
 10
127.8687036478
 20
132.4752315314
 10
128.9471571185
 20
132.0818205183
 10
130.0378910977
 20
131.6807973176
 10
131.1328422567
 20
131.2750911225
 10
132.2299127553
 20
130.8654637792
 10
133.3312175448
 20
130.4511034393
 10
134.4349512805
 20
130.0326936321
 10
135.5406463233
 20
129.6104085006
 10
136.6488703807
 20
129.1840213408
 10
137.7593689987
 20
128.7536362975
 10
138.872011002
 20
128.3193043779
 10
139.9868736028
 20
127.8809907806
 10
141.1039582811
 20
127.4386971078
 10
142.2232159725
 20
126.9924431128
 10
143.3446189366
 20
126.5422381896
 10
144.4682003484
 20
126.0880689343
 10
145.5939170146
 20
125.6299546066
 10
146.7217327533
 20
125.1679098622
 10
147.851691135
 20
124.7019146083
 10
148.9838587135
 20
124.2319453648
 10
150.1180954158
 20
123.758060356
 10
151.2541652587
 20
123.280351898
 10
152.3920781036
 20
122.7988252902
 10
153.5318453503
 20
122.3134790565
 10
154.6732378364
 20
121.8244019744
 10
155.8158470077
 20
121.3317906114
 10
156.9600900982
 20
120.8354762799
 10
158.1069712046
 20
120.3350075611
 10
159.2568057233
 20
119.8302535907
 10
160.4092258071
 20
119.3214036931
 10
161.5641957662
 20
118.8084947971
  0
LWPOLYLINE
  5
33F
100
AcDbEntity
  8
RACCORDO
100
AcDbPolyline
 62
7
  6
CONTINUOUS
 90
34
 70
0
 10
124.6748341696
 20
133.6975878424
 10
125.7155632723
 20
133.3266227311
 10
126.7683081408
 20
132.9481502325
 10
127.8331210681
 20
132.5622182567
 10
128.9127336002
 20
132.1679843471
 10
130.0045300036
 20
131.7663968464
 10
131.1004930734
 20
131.3601534628
 10
132.19850362
 20
130.9499489413
 10
133.3006799587
 20
130.5351070454
 10
134.4053019707
 20
130.1162237768
 10
135.5118555361
 20
129.6934744806
 10
136.620839541
 20
129.2666913625
 10
137.732041843
 20
128.835946747
 10
138.8453951059
 20
128.4012641507
 10
139.9609506713
 20
127.9626270231
 10
141.078673021
 20
127.5200464876
 10
142.1985506946
 20
127.0735261714
 10
143.3205789555
 20
126.6230692574
 10
144.4447320873
 20
126.1686859742
 10
145.5709974935
 20
125.7103805292
 10
146.6993712744
 20
125.248155283
 10
147.8298406105
 20
124.782017572
 10
148.9624759656
 20
124.3119357978
 10
150.0971905419
 20
123.8379482658
 10
151.2337342539
 20
123.360166004
 10
152.3720808379
 20
122.8785917283
 10
153.5122371645
 20
122.393226799
 10
154.6540004797
 20
121.9041781659
 10
155.7969662606
 20
121.4116185906
 10
156.941516232
 20
120.9153763152
 10
158.088631216
 20
120.4150451816
 10
159.2386368042
 20
119.9104956325
 10
160.3911975402
 20
119.4018696019
 10
161.5463078538
 20
118.8891727629
  0
LWPOLYLINE
  5
340
100
AcDbEntity
  8
RACCORDO
100
AcDbPolyline
 62
7
  6
CONTINUOUS
 90
37
 70
0
 10
125.788639722
 20
132.785428729
 10
125.7817128792
 20
132.7879528766
 10
125.7746441361
 20
132.7901494188
 10
125.7674462463
 20
132.7920143924
 10
125.7601321961
 20
132.7935444327
 10
125.7527151814
 20
132.7947367793
 10
125.7452085841
 20
132.7955892808
 10
125.7376259475
 20
132.7961003992
 10
125.7299809522
 20
132.7962692123
 10
125.7222873913
 20
132.7960954156
 10
125.7145591454
 20
132.7955793227
 10
125.7068101578
 20
132.7947218646
 10
125.6990544093
 20
132.7935245884
 10
125.6913058926
 20
132.7919896543
 10
125.6835785878
 20
132.7901198314
 10
125.6758864362
 20
132.7879184934
 10
125.6682433162
 20
132.785389612
 10
125.6606630173
 20
132.7825377496
 10
125.653159216
 20
132.7793680517
 10
125.6457454505
 20
132.7758862369
 10
125.6384350968
 20
132.7720985872
 10
125.6312413441
 20
132.7680119362
 10
125.6241771714
 20
132.7636336571
 10
125.6172553239
 20
132.7589716491
 10
125.61048829
 20
132.7540343234
 10
125.6038882786
 20
132.7488305879
 10
125.5974671975
 20
132.7433698312
 10
125.5912366316
 20
132.7376619055
 10
125.5852078221
 20
132.7317171091
 10
125.5793916462
 20
132.7255461675
 10
125.5737985972
 20
132.7191602144
 10
125.5684387663
 20
132.7125707712
 10
125.5633218236
 20
132.7057897266
 10
125.558457001
 20
132.698829315
 10
125.5538530757
 20
132.6917020942
 10
125.549518354
 20
132.6844209232
 10
125.5454606566
 20
132.6769989387
  0
LWPOLYLINE
  5
341
100
AcDbEntity
  8
RACCORDO
100
AcDbPolyline
 62
7
  6
CONTINUOUS
 90
25
 70
0
 10
161.8635456599
 20
118.2834004786
 10
161.8563149966
 20
118.2861614474
 10
161.8493001677
 20
118.2890998965
 10
161.8425144055
 20
118.2922102831
 10
161.8359705102
 20
118.2954867398
 10
161.8296808257
 20
118.2989230863
 10
161.8236572164
 20
118.3025128404
 10
161.817911045
 20
118.3062492307
 10
161.8124531505
 20
118.310125209
 10
161.8072938283
 20
118.3141334641
 10
161.8024428107
 20
118.318266435
 10
161.7979092483
 20
118.3225163256
 10
161.7937016929
 20
118.3268751191
 10
161.7898280813
 20
118.3313345935
 10
161.7862957205
 20
118.3358863367
 10
161.7831112736
 20
118.3405217625
 10
161.7802807476
 20
118.3452321271
 10
161.7778094817
 20
118.3500085452
 10
161.7757021377
 20
118.3548420068
 10
161.7739626906
 20
118.3597233943
 10
161.7725944216
 20
118.3646435
 10
161.7715999118
 20
118.3695930429
 10
161.7709810371
 20
118.3745626864
 10
161.7707389649
 20
118.3795430562
 10
161.7707351778
 20
118.3802490039
  0
LINE
  5
342
100
AcDbEntity
  8
RACCORDO
100
AcDbLine
 62
7
  6
CONTINUOUS
 10
127.2694777362
 20
132.1951793909
 11
125.7886397221
 21
132.7854287289
  0
LWPOLYLINE
  5
343
100
AcDbEntity
  8
RACCORDO
100
AcDbPolyline
 62
7
  6
CONTINUOUS
 90
10
 70
0
 10
125.8204357208
 20
132.767413139
 10
129.9526380872
 20
131.1161929991
 10
134.0830966126
 20
129.4623012133
 10
138.1966635943
 20
127.8130478903
 10
142.2933728017
 20
126.1689979039
 10
146.373265935
 20
124.5303719387
 10
150.4364066161
 20
122.897152666
 10
154.4827767083
 20
121.269130466
 10
158.51225285
 20
119.6458181569
 10
161.7707351778
 20
118.3304714252
  0
LINE
  5
344
100
AcDbEntity
  8
DRAFT
100
AcDbLine
 62
7
  6
CONTINUOUS
 10
128.0556697055
 20
130.040393442
 11
127.4003480701
 21
130.3035853847
  0
LWPOLYLINE
  5
345
100
AcDbEntity
  8
RACCORDO
100
AcDbPolyline
 62
7
  6
CONTINUOUS
 90
21
 70
0
 10
161.7707351778
 20
118.336370772
 10
160.9923479616
 20
118.6513522639
 10
159.4529405893
 20
119.2734859939
 10
157.8647021177
 20
119.9146637293
 10
156.2318687371
 20
120.5732736592
 10
154.5500973806
 20
121.251127672
 10
152.8064943759
 20
121.9534135602
 10
150.9892256243
 20
122.6848910463
 10
149.1101024469
 20
123.4408238852
 10
147.1917238684
 20
124.2121252732
 10
145.2192040984
 20
125.0047781104
 10
143.2074804546
 20
125.8127452843
 10
141.2238447746
 20
126.6090034761
 10
139.2776885466
 20
127.3898081611
 10
137.3596483213
 20
128.1588958269
 10
135.508799584
 20
128.9005948013
 10
133.7420023218
 20
129.608146126
 10
132.04236748
 20
130.2883208411
 10
130.3983245254
 20
130.9457554892
 10
128.8060566138
 20
131.5819240306
 10
127.2694777362
 20
132.1951793909
  0
LWPOLYLINE
  5
346
100
AcDbEntity
  8
RACCORDO
100
AcDbPolyline
 62
7
  6
CONTINUOUS
 90
37
 70
0
 10
124.3769334109
 20
133.3388690738
 10
124.3839297432
 20
133.3359161605
 10
124.3911430225
 20
133.3331402801
 10
124.3985596423
 20
133.3305466689
 10
124.4061656124
 20
133.3281402194
 10
124.4139465854
 20
133.325925471
 10
124.421887884
 20
133.3239066013
 10
124.4299745283
 20
133.3220874188
 10
124.4381912642
 20
133.320471355
 10
124.4465225923
 20
133.3190614583
 10
124.4549527969
 20
133.3178603884
 10
124.463465976
 20
133.3168704108
 10
124.4720460708
 20
133.3160933932
 10
124.4806768966
 20
133.3155308011
 10
124.4893421726
 20
133.3151836959
 10
124.4980255534
 20
133.3150527323
 10
124.5067106592
 20
133.3151381575
 10
124.515381107
 20
133.3154398103
 10
124.5240205415
 20
133.3159571218
 10
124.5326126657
 20
133.3166891161
 10
124.5411412722
 20
133.3176344126
 10
124.5495902731
 20
133.318791228
 10
124.5579437307
 20
133.3201573804
 10
124.5661858877
 20
133.3217302927
 10
124.5743011965
 20
133.3235069978
 10
124.5822743489
 20
133.3254841445
 10
124.590090305
 20
133.3276580031
 10
124.5977343211
 20
133.330024473
 10
124.605191978
 20
133.3325790903
 10
124.6124492082
 20
133.3353170362
 10
124.619492322
 20
133.338233146
 10
124.6263080337
 20
133.341321919
 10
124.6328834866
 20
133.3445775286
 10
124.6392062771
 20
133.3479938339
 10
124.6452644783
 20
133.3515643904
 10
124.6510466624
 20
133.3552824629
 10
124.6565419222
 20
133.359141038
  0
LWPOLYLINE
  5
347
100
AcDbEntity
  8
RACCORDO
100
AcDbPolyline
 62
7
  6
CONTINUOUS
 90
6
 70
0
 10
125.8204357208
 20
132.767413139
 10
125.8148202487
 20
132.7698057645
 10
125.8079653976
 20
132.773148546
 10
125.8013160005
 20
132.776869607
 10
125.7948728215
 20
132.7809649411
 10
125.7886396884
 20
132.785428798
  0
LWPOLYLINE
  5
348
100
AcDbEntity
  8
RACCORDO
100
AcDbPolyline
 62
7
  6
CONTINUOUS
 90
29
 70
0
 10
156.5267803626
 20
122.3562050022
 10
155.3337033289
 20
122.8715501939
 10
154.1426639228
 20
123.3827824634
 10
152.9537212757
 20
123.8898767644
 10
151.766903895
 20
124.3928263009
 10
150.5822516616
 20
124.8916156173
 10
149.3997878716
 20
125.3862353093
 10
148.2195161213
 20
125.87668734
 10
147.0414755748
 20
126.3629564014
 10
145.8656901661
 20
126.8450329974
 10
144.6921406078
 20
127.3229267799
 10
143.5208473942
 20
127.7966297072
 10
142.3518530811
 20
128.2661241764
 10
141.185171459
 20
128.7314046487
 10
140.0208456437
 20
129.1924543198
 10
138.8588955694
 20
129.6492649949
 10
137.6993002684
 20
130.1018431893
 10
136.5420843008
 20
130.550178922
 10
135.3872862048
 20
130.994256294
 10
134.2349060174
 20
131.4340718837
 10
133.0849682156
 20
131.8696159103
 10
131.9375114994
 20
132.3008722697
 10
130.7925572754
 20
132.727827707
 10
129.6501637953
 20
133.1504601171
 10
128.5103360255
 20
133.568766828
 10
127.3730155505
 20
133.9827624424
 10
126.2382041019
 20
134.3924422067
 10
125.1059634602
 20
134.7977835902
 10
123.9763254
 20
135.1987733423
  0
LWPOLYLINE
  5
349
100
AcDbEntity
  8
RACCORDO
100
AcDbPolyline
 62
7
  6
CONTINUOUS
 90
12
 70
0
 10
162.536911731
 20
119.9370071736
 10
159.2216759533
 20
121.4081268043
 10
155.9218304414
 20
122.8476184513
 10
152.6375934948
 20
124.2554234775
 10
149.3687926312
 20
125.6316400212
 10
146.1160393185
 20
126.9760530038
 10
142.8807082319
 20
128.2881167209
 10
139.6629929624
 20
129.5677415668
 10
136.4630926197
 20
130.8148595761
 10
133.282350442
 20
132.0289249744
 10
130.1213208153
 20
133.209684488
 10
126.9797908818
 20
134.3571946246
  0
LINE
  5
34A
100
AcDbEntity
  8
RACCORDO
100
AcDbLine
 62
7
  6
CONTINUOUS
 10
159.3759055504
 20
121.3030549011
 11
162.5495300783
 21
119.8942006684
  0
LWPOLYLINE
  5
34B
100
AcDbEntity
  8
RACCORDO
100
AcDbPolyline
 62
7
  6
CONTINUOUS
 90
34
 70
0
 10
162.4037775336
 20
119.464809512
 10
161.2008302846
 20
120.0005488715
 10
159.9999188882
 20
120.5321688134
 10
158.8010535201
 20
121.0596664294
 10
157.6042512332
 20
121.5830340822
 10
156.409515267
 20
122.1022735178
 10
155.2168351744
 20
122.6173959776
 10
154.0261938181
 20
123.1284109554
 10
152.8376289152
 20
123.6353032717
 10
151.6512120519
 20
124.1380469325
 10
150.4669609873
 20
124.636635266
 10
149.2848776469
 20
125.131068444
 10
148.1050092868
 20
125.6213302329
 10
146.9273728945
 20
126.1074144784
 10
145.7519706494
 20
126.589320375
 10
144.578827268
 20
127.0670394329
 10
143.4079409222
 20
127.540572937
 10
142.2393324037
 20
128.0099124616
 10
141.0730599554
 20
128.4750346152
 10
139.9091439427
 20
128.9359312947
 10
138.7475821846
 20
129.3926028242
 10
137.588398695
 20
129.8450381225
 10
136.4315951716
 20
130.2932364377
 10
135.2771878744
 20
130.7371905716
 10
134.125222315
 20
131.1768795014
 10
132.9756995874
 20
131.612301845
 10
131.8286359782
 20
132.0434505973
 10
130.6840991596
 20
132.4702958166
 10
129.5421234433
 20
132.8928237469
 10
128.4026908737
 20
133.3110389985
 10
127.2657904361
 20
133.724938967
 10
126.1314240334
 20
134.1345198438
 10
124.9996063504
 20
134.5397765119
 10
123.8703456304
 20
134.9407044802
  0
LWPOLYLINE
  5
34C
100
AcDbEntity
  8
RACCORDO
100
AcDbPolyline
 62
7
  6
CONTINUOUS
 90
6
 70
0
 10
162.5229762288
 20
119.7175693555
 10
161.3196776886
 20
120.2535395683
 10
160.1183713569
 20
120.7854032723
 10
158.9190890087
 20
121.313148199
 10
157.7218909376
 20
121.8367478506
 10
156.5267803626
 20
122.3562050022
  0
LWPOLYLINE
  5
34D
100
AcDbEntity
  8
RACCORDO
100
AcDbPolyline
 62
7
  6
CONTINUOUS
 90
46
 70
0
 10
161.5463078538
 20
118.8891727629
 10
161.5535004477
 20
118.885885119
 10
161.5608347129
 20
118.8822674909
 10
161.568310654
 20
118.878319883
 10
161.5759315989
 20
118.8740578218
 10
161.5836942292
 20
118.8694657894
 10
161.5915885808
 20
118.8644972226
 10
161.5996130294
 20
118.8591559715
 10
161.6077692084
 20
118.8534381946
 10
161.61605204
 20
118.8472857909
 10
161.6244692376
 20
118.8406955557
 10
161.6330130974
 20
118.8336707026
 10
161.6416554139
 20
118.8261627576
 10
161.6504006905
 20
118.8181686736
 10
161.6592444316
 20
118.8096915047
 10
161.6681449307
 20
118.8006919268
 10
161.6771014449
 20
118.7911722172
 10
161.6861147215
 20
118.7811301026
 10
161.6951452859
 20
118.7705194293
 10
161.7041991715
 20
118.7593348147
 10
161.7132703464
 20
118.7475816429
 10
161.7223012344
 20
118.7352299071
 10
161.7312966023
 20
118.7222730714
 10
161.7402516802
 20
118.7087176689
 10
161.7490945817
 20
118.6945532926
 10
161.7578280951
 20
118.6797744268
 10
161.7664494233
 20
118.6643865792
 10
161.774878296
 20
118.6483958723
 10
161.7831198975
 20
118.6317882032
 10
161.7911690294
 20
118.6145776619
 10
161.7989298406
 20
118.5968126541
 10
161.8064040152
 20
118.5784782539
 10
161.8135898496
 20
118.5595893695
 10
161.8203864061
 20
118.5402391525
 10
161.8267904532
 20
118.5204199321
 10
161.8328051995
 20
118.5001393582
 10
161.8383393617
 20
118.4795135589
 10
161.8433885308
 20
118.4585384052
 10
161.8479570931
 20
118.4372180055
 10
161.8519669569
 20
118.4156808412
 10
161.8554139799
 20
118.3939238767
 10
161.8583022858
 20
118.3719501307
 10
161.8605661809
 20
118.3498971659
 10
161.8621837632
 20
118.327810833
 10
161.8631769238
 20
118.3056452714
 10
161.8635456599
 20
118.2834004786
  0
LWPOLYLINE
  5
34E
100
AcDbEntity
  8
RACCORDO
100
AcDbPolyline
 62
7
  6
CONTINUOUS
 90
21
 70
0
 10
123.2911151229
 20
134.5452420861
 10
123.2840307701
 20
134.548538922
 10
123.2772159027
 20
134.5520176291
 10
123.2706846999
 20
134.5556709695
 10
123.2644507509
 20
134.5594913418
 10
123.2585270264
 20
134.5634707973
 10
123.2529258514
 20
134.567601056
 10
123.2476588802
 20
134.5718735244
 10
123.2427370714
 20
134.5762793129
 10
123.2381706656
 20
134.5808092547
 10
123.2339691639
 20
134.5854539245
 10
123.230141308
 20
134.5902036585
 10
123.2266950625
 20
134.595048574
 10
123.2236375977
 20
134.5999785906
 10
123.2209752752
 20
134.6049834505
 10
123.2187136343
 20
134.6100527405
 10
123.2168573806
 20
134.6151759131
 10
123.2154103765
 20
134.6203423089
 10
123.2143756326
 20
134.6255411783
 10
123.2137553019
 20
134.6307617043
 10
123.2135506607
 20
134.6359497841
  0
LWPOLYLINE
  5
34F
100
AcDbEntity
  8
RACCORDO
100
AcDbPolyline
 62
7
  6
CONTINUOUS
 90
12
 70
0
 10
161.5641957662
 20
118.8084947971
 10
161.5678808517
 20
118.8067622947
 10
161.5716911564
 20
118.8048376715
 10
161.5756219769
 20
118.8027161374
 10
161.5796616242
 20
118.8003981079
 10
161.5838115909
 20
118.7978737598
 10
161.5880863365
 20
118.7951227124
 10
161.592477066
 20
118.7921420839
 10
161.5969802295
 20
118.78892518
 10
161.6016169673
 20
118.7854450125
 10
161.6063819693
 20
118.7816944851
 10
161.6087724867
 20
118.779747114
  0
LWPOLYLINE
  5
350
100
AcDbEntity
  8
RACCORDO
100
AcDbPolyline
 62
7
  6
CONTINUOUS
 90
6
 70
0
 10
123.8857087255
 20
135.4224359033
 10
123.8767306066
 20
135.4274670368
 10
123.8696061744
 20
135.4350196897
 10
123.8639932693
 20
135.4450689579
 10
123.8600634464
 20
135.4573076915
 10
123.8579368184
 20
135.4713618208
  0
LWPOLYLINE
  5
351
100
AcDbEntity
  8
RACCORDO
100
AcDbPolyline
 62
7
  6
CONTINUOUS
 90
7
 70
0
 10
163.4178645612
 20
118.6704658893
 10
163.4184568372
 20
118.6642321879
 10
163.4220074116
 20
118.6541271344
 10
163.428654804
 20
118.6445489359
 10
163.4381852456
 20
118.635807094
 10
163.4502914817
 20
118.6281844729
 10
163.4645829284
 20
118.6219277617
  0
LINE
  5
352
100
AcDbEntity
  8
RACCORDO
100
AcDbLine
 62
7
  6
CONTINUOUS
 10
163.4645829327
 20
118.62192776
 11
163.4593858275
 21
118.7217876375
  0
LWPOLYLINE
  5
353
100
AcDbEntity
  8
RACCORDO
100
AcDbPolyline
 62
7
  6
CONTINUOUS
 90
55
 70
0
 10
163.2911888077
 20
118.6177472226
 10
163.2908207215
 20
118.6403179132
 10
163.2898194691
 20
118.6631060331
 10
163.2881859943
 20
118.6860944824
 10
163.2859218012
 20
118.7092657613
 10
163.2830286635
 20
118.7326026905
 10
163.2795085472
 20
118.7560884465
 10
163.2753640334
 20
118.7797056823
 10
163.2705983805
 20
118.8034363244
 10
163.2652151925
 20
118.8272623073
 10
163.2592185135
 20
118.8511654866
 10
163.2526128813
 20
118.8751280145
 10
163.2454033007
 20
118.8991321607
 10
163.2375950852
 20
118.9231597477
 10
163.2291940949
 20
118.9471926492
 10
163.2202067695
 20
118.9712131637
 10
163.2106396821
 20
118.9952030842
 10
163.2004999598
 20
119.0191442368
 10
163.1897954757
 20
119.0430189801
 10
163.1785340512
 20
119.0668091379
 10
163.1667240188
 20
119.0904966673
 10
163.1543746035
 20
119.1140641954
 10
163.1414948126
 20
119.1374937267
 10
163.1280941395
 20
119.1607674393
 10
163.1141830971
 20
119.1838683476
 10
163.0997718077
 20
119.2067787737
 10
163.0848708745
 20
119.2294812168
 10
163.0694920598
 20
119.2519591417
 10
163.0536465522
 20
119.274195284
 10
163.0373459842
 20
119.2961726049
 10
163.0206032827
 20
119.3178751522
 10
163.0034306307
 20
119.3392861915
 10
162.9858406137
 20
119.3603892614
 10
162.9678472232
 20
119.3811691204
 10
162.9494635379
 20
119.4016096983
 10
162.9307030302
 20
119.4216952003
 10
162.9115807032
 20
119.4414111565
 10
162.8921104511
 20
119.4607422647
 10
162.8723065417
 20
119.4796735135
 10
162.8521849212
 20
119.4981912862
 10
162.8317602525
 20
119.5162811175
 10
162.8110474633
 20
119.5339289288
 10
162.7900632301
 20
119.5511221541
 10
162.7688228543
 20
119.5678472937
 10
162.7473418484
 20
119.584091265
 10
162.7256374846
 20
119.5998426396
 10
162.7037254355
 20
119.6150890812
 10
162.6816218511
 20
119.6298184743
 10
162.6593449538
 20
119.6440203033
 10
162.636911324
 20
119.6576831113
 10
162.6143370209
 20
119.6707962921
 10
162.5916396539
 20
119.6833511869
 10
162.5688361555
 20
119.6953383176
 10
162.5459427806
 20
119.706747445
 10
162.5229762288
 20
119.7175693555
  0
LWPOLYLINE
  5
354
100
AcDbEntity
  8
RACCORDO
100
AcDbPolyline
 62
7
  6
CONTINUOUS
 90
55
 70
0
 10
163.0226540366
 20
118.5881603318
 10
163.0223973586
 20
118.6062606096
 10
163.0216312723
 20
118.6245064959
 10
163.0203557794
 20
118.6428979924
 10
163.0185691515
 20
118.6614499552
 10
163.0162731239
 20
118.6801475344
 10
163.0134728954
 20
118.6989461738
 10
163.0101673378
 20
118.7178453467
 10
163.006357593
 20
118.7368455923
 10
163.0020522672
 20
118.7559039543
 10
162.9972502684
 20
118.7750204981
 10
162.9919527086
 20
118.7941951766
 10
162.9861715018
 20
118.8133848659
 10
162.9799055888
 20
118.8325896071
 10
162.9731560546
 20
118.8518093826
 10
162.9659380308
 20
118.8710009805
 10
162.9582504757
 20
118.8901643824
 10
162.9500944618
 20
118.9092996348
 10
162.9414882926
 20
118.9283636237
 10
162.9324309736
 20
118.9473562138
 10
162.9229235344
 20
118.9662775724
 10
162.9129873142
 20
118.9850850395
 10
162.902621361
 20
119.0037783933
 10
162.8918266654
 20
119.0223578905
 10
162.8806274792
 20
119.0407815886
 10
162.8690229087
 20
119.0590491635
 10
162.8570138885
 20
119.0771609764
 10
162.8446274121
 20
119.0950761105
 10
162.8318626419
 20
119.112794155
 10
162.8187204576
 20
119.1303155588
 10
162.805230426
 20
119.147600693
 10
162.791391777
 20
119.1646490537
 10
162.777205323
 20
119.1814611831
 10
162.7627030017
 20
119.1979990186
 10
162.7478841014
 20
119.2142619801
 10
162.732749375
 20
119.230250685
 10
162.7173329535
 20
119.2459288638
 10
162.7016341896
 20
119.261295856
 10
162.6856537695
 20
119.2763523574
 10
162.6694278207
 20
119.2910641288
 10
162.6529558055
 20
119.3054303985
 10
162.6362382973
 20
119.3194519706
 10
162.6193130854
 20
119.3330969657
 10
162.6021797102
 20
119.3463645494
 10
162.584838663
 20
119.3592555845
 10
162.5673291539
 20
119.3717407327
 10
162.5496507316
 20
119.3838191215
 10
162.531803874
 20
119.3954916472
 10
162.513829179
 20
119.4067316191
 10
162.4957253913
 20
119.4175384922
 10
162.4774937869
 20
119.4279128302
 10
162.4591787546
 20
119.4378295996
 10
162.4407950936
 20
119.4472804586
 10
162.4223280177
 20
119.4562737607
 10
162.4037775336
 20
119.464809512
  0
LINE
  5
355
100
AcDbEntity
  8
RACCORDO
100
AcDbLine
 62
7
  6
CONTINUOUS
 10
163.2911888077
 20
77.4596804975
 11
163.2911888077
 21
118.6177472226
  0
LINE
  5
356
100
AcDbEntity
  8
RACCORDO
100
AcDbLine
 62
7
  6
CONTINUOUS
 10
163.4178645612
 20
77.2623468701
 11
163.4178645612
 21
118.6704655787
  0
LINE
  5
357
100
AcDbEntity
  8
RACCORDO
100
AcDbLine
 62
7
  6
CONTINUOUS
 10
163.4645829327
 20
77.2138090583
 11
163.4645829327
 21
118.62192776
  0
LWPOLYLINE
  5
358
100
AcDbEntity
  8
RACCORDO
100
AcDbPolyline
 62
7
  6
CONTINUOUS
 90
3
 70
0
 10
163.4178193329
 20
77.2623230072
 10
163.4174277134
 20
77.2365742416
 10
163.4108248204
 20
77.1560275952
  0
LWPOLYLINE
  5
359
100
AcDbEntity
  8
RACCORDO
100
AcDbPolyline
 62
7
  6
CONTINUOUS
 90
3
 70
0
 10
163.4447529001
 20
77.0277887004
 10
163.4594144285
 20
77.1178117291
 10
163.4645829327
 20
77.2138090583
  0
LWPOLYLINE
  5
35A
100
AcDbEntity
  8
RACCORDO
100
AcDbPolyline
 62
7
  6
CONTINUOUS
 90
4
 70
0
 10
163.4108248204
 20
77.1560275952
 10
163.3960278759
 20
77.0796799332
 10
163.3731560125
 20
77.0082979941
 10
163.3423461248
 20
76.9424617019
  0
LINE
  5
35B
100
AcDbEntity
  8
SUPERFICI
100
AcDbLine
 62
7
  6
CONTINUOUS
 10
159.2733890556
 20
83.7600064481
 11
159.2820024088
 21
83.7886926032
  0
LINE
  5
35C
100
AcDbEntity
  8
SUPERFICI
100
AcDbLine
 62
7
  6
CONTINUOUS
 10
153.843113458
 20
85.6585748251
 11
153.887212909
 21
85.7576795238
  0
LINE
  5
35D
100
AcDbEntity
  8
SUPERFICI
100
AcDbLine
 62
7
  6
CONTINUOUS
 10
154.0947001081
 20
85.8143894946
 11
154.1740011272
 21
85.992602679
  0
LINE
  5
35E
100
AcDbEntity
  8
SUPERFICI
100
AcDbLine
 62
7
  6
CONTINUOUS
 10
154.3814883263
 20
86.0493126498
 11
154.4607893454
 21
86.2275258342
  0
LINE
  5
35F
100
AcDbEntity
  8
SUPERFICI
100
AcDbLine
 62
7
  6
CONTINUOUS
 10
154.6682765444
 20
86.284235805
 11
154.7475775636
 21
86.4624489894
  0
LINE
  5
360
100
AcDbEntity
  8
SUPERFICI
100
AcDbLine
 62
7
  6
CONTINUOUS
 10
154.9550647626
 20
86.5191589602
 11
155.0343657817
 21
86.6973721446
  0
LINE
  5
361
100
AcDbEntity
  8
SUPERFICI
100
AcDbLine
 62
7
  6
CONTINUOUS
 10
158.3484497016
 20
83.8491302193
 11
158.3925491526
 21
83.9482349179
  0
LINE
  5
362
100
AcDbEntity
  8
SUPERFICI
100
AcDbLine
 62
7
  6
CONTINUOUS
 10
158.5933009054
 20
83.9898083199
 11
158.6793373708
 21
84.1831580731
  0
LINE
  5
363
100
AcDbEntity
  8
SUPERFICI
100
AcDbLine
 62
7
  6
CONTINUOUS
 10
158.8800891235
 20
84.2247314751
 11
158.966125589
 21
84.4180812283
  0
LINE
  5
364
100
AcDbEntity
  8
SUPERFICI
100
AcDbLine
 62
7
  6
CONTINUOUS
 10
159.1668773417
 20
84.4596546303
 11
159.2529138072
 21
84.6530043835
  0
LINE
  5
365
100
AcDbEntity
  8
SUPERFICI
100
AcDbLine
 62
7
  6
CONTINUOUS
 10
159.4536655599
 20
84.6945777855
 11
159.5397020253
 21
84.8879275387
  0
LWPOLYLINE
  5
366
100
AcDbEntity
  8
0
100
AcDbPolyline
 62
7
  6
CONTINUOUS
 90
6
 70
0
 10
146.9504827845
 20
85.0739246047
 10
146.9353290059
 20
85.0585543583
 10
146.9199222606
 20
85.0438000145
 10
146.9042574944
 20
85.0296548474
 10
146.8883611427
 20
85.0161139696
 10
146.8860828532
 20
85.0142374483
  0
LWPOLYLINE
  5
367
100
AcDbEntity
  8
0
100
AcDbPolyline
 62
7
  6
CONTINUOUS
 90
57
 70
0
 10
146.6903381953
 20
85.3597411156
 10
146.6978752208
 20
85.3661306954
 10
146.7057481449
 20
85.373301851
 10
146.7134951478
 20
85.3808786933
 10
146.7211051519
 20
85.3888508413
 10
146.7285201486
 20
85.3971852228
 10
146.7357362128
 20
85.4058833129
 10
146.7427572837
 20
85.4149436756
 10
146.749537154
 20
85.4243288892
 10
146.7560733254
 20
85.4340358261
 10
146.7623683195
 20
85.4440676818
 10
146.7683834642
 20
85.4543965327
 10
146.7741272886
 20
85.4650354372
 10
146.779591295
 20
85.4759714302
 10
146.7847112757
 20
85.4871375693
 10
146.7894844662
 20
85.4985575901
 10
146.7939136718
 20
85.5102078798
 10
146.797943043
 20
85.5219504832
 10
146.8015558297
 20
85.5337791842
 10
146.8047688256
 20
85.545700331
 10
146.8075764947
 20
85.557594808
 10
146.8099730585
 20
85.5694395222
 10
146.8119643325
 20
85.5812576798
 10
146.8135621664
 20
85.5929995987
 10
146.8147670527
 20
85.6046651427
 10
146.8155785297
 20
85.6162545436
 10
146.8160070125
 20
85.6277186574
 10
146.8160494598
 20
85.6390628481
 10
146.8157089369
 20
85.650281827
 10
146.8150050115
 20
85.6613104532
 10
146.8139372119
 20
85.6721394089
 10
146.8125060239
 20
85.6827780568
 10
146.8107324457
 20
85.6931892581
 10
146.8086200638
 20
85.7033606791
 10
146.8061652975
 20
85.7133046737
 10
146.8033783911
 20
85.7230211234
 10
146.8002518984
 20
85.7325217316
 10
146.7967932679
 20
85.7417948051
 10
146.793035083
 20
85.7508051207
 10
146.7889724991
 20
85.759555033
 10
146.7846103549
 20
85.7680421725
 10
146.7799957528
 20
85.776224211
 10
146.7751296882
 20
85.7840949666
 10
146.7700111514
 20
85.7916605798
 10
146.7646842315
 20
85.7988971888
 10
146.7591541096
 20
85.805798941
 10
146.753415585
 20
85.8123716308
 10
146.7474971709
 20
85.818608858
 10
146.7413876541
 20
85.8245194975
 10
146.7350982264
 20
85.8300946108
 10
146.7286910058
 20
85.8353010685
 10
146.7221655035
 20
85.8401322048
 10
146.7155221827
 20
85.844594608
 10
146.7088245867
 20
85.8486750201
 10
146.7020938876
 20
85.8523689943
 10
146.6953088872
 20
85.8556808976
 10
146.6884695729
 20
85.858610692
  0
LWPOLYLINE
  5
368
100
AcDbEntity
  8
0
100
AcDbPolyline
 62
7
  6
CONTINUOUS
 90
57
 70
0
 10
146.763200279
 20
85.4194262587
 10
146.7707593519
 20
85.4258351751
 10
146.7786334197
 20
85.4330087998
 10
146.7863813868
 20
85.4405881534
 10
146.7939921845
 20
85.448562845
 10
146.8014077528
 20
85.4568996925
 10
146.8086241441
 20
85.4656001592
 10
146.8156453206
 20
85.4746628218
 10
146.8224250914
 20
85.4840501852
 10
146.8289609584
 20
85.4937591143
 10
146.8352554437
 20
85.5037928128
 10
146.8412698922
 20
85.5141233082
 10
146.8470128349
 20
85.5247636813
 10
146.8524757728
 20
85.5357009449
 10
146.8575945096
 20
85.5468680401
 10
146.8623662442
 20
85.5582886624
 10
146.8667938191
 20
85.5699392391
 10
146.8708215077
 20
85.5816818193
 10
146.8744325741
 20
85.5935101531
 10
146.8776437983
 20
85.6054306222
 10
146.8804497246
 20
85.6173242156
 10
146.8828445915
 20
85.6291678329
 10
146.8848341979
 20
85.6409846871
 10
146.8864304238
 20
85.6527252225
 10
146.887633766
 20
85.6643893532
 10
146.8884437586
 20
85.6759772597
 10
146.8888708334
 20
85.6874397727
 10
146.88891195
 20
85.6987822236
 10
146.8885701726
 20
85.7099993551
 10
146.8878650833
 20
85.7210260963
 10
146.8867962181
 20
85.7318531306
 10
146.8853640547
 20
85.7424898183
 10
146.8835895819
 20
85.7528990858
 10
146.8814763867
 20
85.7630686094
 10
146.8790208876
 20
85.773010732
 10
146.8762333163
 20
85.7827253691
 10
146.8731062186
 20
85.7922242444
 10
146.8696470509
 20
85.8014956434
 10
146.8658884064
 20
85.8105043145
 10
146.8618254478
 20
85.8192525958
 10
146.8574630065
 20
85.8277381335
 10
146.8528481731
 20
85.8359186197
 10
146.8479819439
 20
85.8437878754
 10
146.842863308
 20
85.8513520378
 10
146.8375363408
 20
85.8585872578
 10
146.8320062232
 20
85.8654876852
 10
146.8262677545
 20
85.8720591119
 10
146.8203494341
 20
85.8782951435
 10
146.8142400466
 20
85.8842046556
 10
146.8079507858
 20
85.8897787089
 10
146.8015437629
 20
85.8949841777
 10
146.7950184958
 20
85.8998143944
 10
146.7883754408
 20
85.9042759492
 10
146.7816781143
 20
85.9083555943
 10
146.7749476796
 20
85.9120488865
 10
146.7681629472
 20
85.9153601899
 10
146.7613239045
 20
85.9182894666
  0
LINE
  5
369
100
AcDbEntity
  8
0
100
AcDbLine
 62
7
  6
CONTINUOUS
 10
141.840354395
 20
85.8803345162
 11
141.767553846
 21
85.8206997977
  0
LINE
  5
36A
100
AcDbEntity
  8
0
100
AcDbLine
 62
7
  6
CONTINUOUS
 10
142.9311210939
 20
86.294619506
 11
142.8583315589
 21
86.2349938097
  0
LINE
  5
36B
100
AcDbEntity
  8
0
100
AcDbLine
 62
7
  6
CONTINUOUS
 10
143.6643468949
 20
86.7688829172
 11
143.5915591983
 21
86.7092587267
  0
LINE
  5
36C
100
AcDbEntity
  8
0
100
AcDbLine
 62
7
  6
CONTINUOUS
 10
142.4867337281
 20
85.6212269113
 11
142.4139427413
 21
85.5616000256
  0
LINE
  5
36D
100
AcDbEntity
  8
0
100
AcDbLine
 62
7
  6
CONTINUOUS
 10
143.1328447691
 20
85.3618995334
 11
143.0600570362
 21
85.3022753131
  0
LINE
  5
36E
100
AcDbEntity
  8
0
100
AcDbLine
 62
7
  6
CONTINUOUS
 10
144.9695387711
 20
86.3274566798
 11
144.8967389447
 21
86.2678225533
  0
LINE
  5
36F
100
AcDbEntity
  8
0
100
AcDbLine
 62
7
  6
CONTINUOUS
 10
143.7237331543
 20
85.1244504951
 11
143.650942884
 21
85.0648241963
  0
LINE
  5
370
100
AcDbEntity
  8
0
100
AcDbLine
 62
7
  6
CONTINUOUS
 10
144.3063525033
 20
85.3680682506
 11
144.2335571419
 21
85.3084377815
  0
LINE
  5
371
100
AcDbEntity
  8
0
100
AcDbLine
 62
7
  6
CONTINUOUS
 10
144.8821270537
 20
85.5936226367
 11
144.8093238414
 21
85.5339857365
  0
LINE
  5
372
100
AcDbEntity
  8
0
100
AcDbLine
 62
7
  6
CONTINUOUS
 10
144.8282600884
 20
85.1580060608
 11
144.7554547045
 21
85.0983673818
  0
LINE
  5
373
100
AcDbEntity
  8
0
100
AcDbLine
 62
7
  6
CONTINUOUS
 10
146.3493192273
 20
86.0841506696
 11
146.2764823076
 21
86.024486158
  0
LINE
  5
374
100
AcDbEntity
  8
0
100
AcDbLine
 62
7
  6
CONTINUOUS
 10
144.7812740394
 20
84.69879104
 11
144.7084659972
 21
84.6391501834
  0
LINE
  5
375
100
AcDbEntity
  8
0
100
AcDbLine
 62
7
  6
CONTINUOUS
 10
146.7613239029
 20
85.9182894673
 11
146.6884695713
 21
85.8586106926
  0
LINE
  5
376
100
AcDbEntity
  8
0
100
AcDbLine
 62
7
  6
CONTINUOUS
 10
146.0080733104
 20
85.1401049696
 11
145.9352358359
 21
85.0804400035
  0
LINE
  5
377
100
AcDbEntity
  8
0
100
AcDbLine
 62
7
  6
CONTINUOUS
 10
145.371532505
 20
84.4608260017
 11
145.2987070658
 21
84.4011708944
  0
LINE
  5
378
100
AcDbEntity
  8
SUPERFICI
100
AcDbLine
 62
7
  6
CONTINUOUS
 10
146.6903379822
 20
85.3597414522
 11
146.7632000735
 21
85.4194265833
  0
LINE
  5
379
100
AcDbEntity
  8
0
100
AcDbLine
 62
7
  6
CONTINUOUS
 10
146.2963261475
 20
85.0238788974
 11
146.2234767048
 21
84.9642041275
  0
LINE
  5
37A
100
AcDbEntity
  8
0
100
AcDbLine
 62
7
  6
CONTINUOUS
 10
146.6599311102
 20
84.9396329048
 11
146.5870656911
 21
84.8799450477
  0
LINE
  5
37B
100
AcDbEntity
  8
0
100
AcDbLine
 62
7
  6
CONTINUOUS
 10
146.3182095327
 20
84.0785803712
 11
146.2453447367
 21
84.0188930246
  0
LWPOLYLINE
  5
37C
100
AcDbEntity
  8
0
100
AcDbPolyline
 62
7
  6
CONTINUOUS
 90
19
 70
0
 10
146.8860828532
 20
85.0142374483
 10
146.8722215821
 20
85.0031719082
 10
146.855850434
 20
84.9908341454
 10
146.8393090109
 20
84.9791122562
 10
146.8225986697
 20
84.968006966
 10
146.8057180752
 20
84.957517632
 10
146.7887245129
 20
84.9476538104
 10
146.7715973908
 20
84.938407945
 10
146.7543573414
 20
84.929787732
 10
146.737123501
 20
84.9218256463
 10
146.7198972775
 20
84.9145304637
 10
146.7026773291
 20
84.9078936231
 10
146.6855786816
 20
84.901921633
 10
146.6685915868
 20
84.8966214441
 10
146.6517258744
 20
84.8919863622
 10
146.6351259475
 20
84.8880024513
 10
146.6188399718
 20
84.8846651604
 10
146.6028198717
 20
84.8819793146
 10
146.5870656911
 20
84.8799450477
  0
LWPOLYLINE
  5
37D
100
AcDbEntity
  8
0
100
AcDbPolyline
 62
7
  6
CONTINUOUS
 90
3
 70
0
 10
146.9218972956
 20
85.0456914163
 10
146.912231113
 20
85.0388402688
 10
146.8955168791
 20
85.0277303326
  0
LINE
  5
37E
100
AcDbEntity
  8
0
100
AcDbLine
 62
7
  6
CONTINUOUS
 10
146.8955168791
 20
85.0277303326
 11
146.8786322242
 21
85.0172365918
  0
LWPOLYLINE
  5
37F
100
AcDbEntity
  8
0
100
AcDbPolyline
 62
7
  6
CONTINUOUS
 90
14
 70
0
 10
146.8786322242
 20
85.0172365918
 10
146.8616345223
 20
85.00736864
 10
146.8445031755
 20
84.9981189232
 10
146.8272588214
 20
84.9894951323
 10
146.8100207008
 20
84.9815297689
 10
146.792790208
 20
84.9742316152
 10
146.7755660148
 20
84.9675921013
 10
146.7584632934
 20
84.961617741
 10
146.7414722942
 20
84.956315501
 10
146.7246028487
 20
84.9516786698
 10
146.7079995109
 20
84.9476932683
 10
146.691710497
 20
84.9443547318
 10
146.675687682
 20
84.9416678993
 10
146.6599311102
 20
84.9396329048
  0
LWPOLYLINE
  5
380
100
AcDbEntity
  8
RACCORDO
100
AcDbPolyline
 62
7
  6
CONTINUOUS
 90
3
 70
0
 10
123.8579312868
 20
135.4713577172
 10
123.7637687476
 20
135.4995022129
 10
123.6729087536
 20
135.5172733971
  0
LWPOLYLINE
  5
381
100
AcDbEntity
  8
RACCORDO
100
AcDbPolyline
 62
7
  6
CONTINUOUS
 90
31
 70
0
 10
123.9763254
 20
135.1987733423
 10
123.9544317115
 20
135.2059683301
 10
123.932609232
 20
135.2125181152
 10
123.9108750229
 20
135.2184183481
 10
123.8892468074
 20
135.2236656144
 10
123.867740737
 20
135.2282561036
 10
123.8463713908
 20
135.2321855574
 10
123.8251551447
 20
135.2354515636
 10
123.8041088744
 20
135.2380521381
 10
123.7832477211
 20
135.2399843911
 10
123.7625880376
 20
135.2412473798
 10
123.7421458243
 20
135.2418407228
 10
123.7219354379
 20
135.2417631501
 10
123.7019725708
 20
135.241015215
 10
123.6822727903
 20
135.2395980173
 10
123.6628499641
 20
135.2375118525
 10
123.6437191386
 20
135.2347587589
 10
123.6248952177
 20
135.2313413283
 10
123.6063914996
 20
135.2272614329
 10
123.5882223201
 20
135.2225225959
 10
123.5704017751
 20
135.2171288782
 10
123.5529423973
 20
135.2110836918
 10
123.5358576764
 20
135.2043920037
 10
123.5191608523
 20
135.1970593135
 10
123.5028636391
 20
135.1890905383
 10
123.4869785876
 20
135.1804920444
 10
123.471518002
 20
135.1712707315
 10
123.4564927431
 20
135.1614329974
 10
123.4419143563
 20
135.1509865715
 10
123.4277941116
 20
135.1399396989
 10
123.4169804287
 20
135.1308027275
  0
LINE
  5
382
100
AcDbEntity
  8
RACCORDO
100
AcDbLine
 62
7
  6
CONTINUOUS
 10
123.8595923109
 20
135.4312346165
 11
123.8857087255
 21
135.4224359033
  0
LWPOLYLINE
  5
383
100
AcDbEntity
  8
RACCORDO
100
AcDbPolyline
 62
7
  6
CONTINUOUS
 90
55
 70
0
 10
123.8703456304
 20
134.9407044802
 10
123.8529644622
 20
134.9465994781
 10
123.835662943
 20
134.9519714543
 10
123.818441065
 20
134.9568204029
 10
123.801285117
 20
134.9611494254
 10
123.7842087953
 20
134.9649554094
 10
123.7672531998
 20
134.9682290247
 10
123.7504193488
 20
134.9709687743
 10
123.7337062005
 20
134.9731761378
 10
123.7171517563
 20
134.974846244
 10
123.7007564373
 20
134.975977838
 10
123.6845197922
 20
134.9765721524
 10
123.6684785079
 20
134.9766280427
 10
123.6526330137
 20
134.9761442764
 10
123.6369828441
 20
134.9751220593
 10
123.6215633377
 20
134.9735639002
 10
123.606374992
 20
134.9714685642
 10
123.5914172686
 20
134.9688372559
 10
123.576723946
 20
134.9656761383
 10
123.5622956233
 20
134.961983997
 10
123.5481316569
 20
134.9577620133
 10
123.5342639556
 20
134.9530199408
 10
123.5206931754
 20
134.9477565886
 10
123.5074186133
 20
134.9419731127
 10
123.4944701359
 20
134.9356827831
 10
123.4818484689
 20
134.928884446
 10
123.4695528383
 20
134.9215792195
 10
123.4576108576
 20
134.9137837794
 10
123.4460233075
 20
134.9054970123
 10
123.434789359
 20
134.8967199959
 10
123.4239342085
 20
134.8874726905
 10
123.4134586922
 20
134.8777540342
 10
123.403361927
 20
134.8675650542
 10
123.3936665288
 20
134.8569288422
 10
123.3843733756
 20
134.8458443845
 10
123.3754815451
 20
134.8343126622
 10
123.3670109511
 20
134.8223597581
 10
123.3589625167
 20
134.809984718
 10
123.3513352783
 20
134.7971884664
 10
123.3441463194
 20
134.7839999041
 10
123.3373966101
 20
134.7704181633
 10
123.3310851449
 20
134.7564440856
 10
123.3252260442
 20
134.7421091366
 10
123.3198202948
 20
134.7274125054
 10
123.3148668803
 20
134.712354981
 10
123.3103769179
 20
134.6969704299
 10
123.3063514274
 20
134.6812580438
 10
123.302789366
 20
134.665218614
 10
123.299698759
 20
134.6488884085
 10
123.2970806546
 20
134.6322658483
 10
123.294933989
 20
134.6153525007
 10
123.2932636205
 20
134.5981893544
 10
123.292071166
 20
134.5807900701
 10
123.2913550008
 20
134.5631409812
 10
123.2911151229
 20
134.5452420861
  0
LWPOLYLINE
  5
384
100
AcDbEntity
  8
RACCORDO
100
AcDbPolyline
 62
7
  6
CONTINUOUS
 90
12
 70
0
 10
123.8857087255
 20
135.4224359033
 10
126.8861367104
 20
134.3522065972
 10
130.0493379917
 20
133.1977253016
 10
133.2339306848
 20
132.0088894075
 10
136.4390033373
 20
130.7860531643
 10
139.6637045885
 20
129.5295565407
 10
142.9072077956
 20
128.2397309413
 10
146.1686527214
 20
126.9169209223
 10
149.4471472252
 20
125.5614847745
 10
152.7418178028
 20
124.1737729342
 10
156.0517530683
 20
122.7541524468
 10
159.3759055504
 20
121.3030549011
  0
LINE
  5
385
100
AcDbEntity
  8
RACCORDO
100
AcDbLine
 62
7
  6
CONTINUOUS
 10
126.9797908818
 20
134.3571946246
 11
123.8579312868
 21
135.4713577172
  0
LINE
  5
386
100
AcDbEntity
  8
RACCORDO
100
AcDbLine
 62
7
  6
CONTINUOUS
 10
162.5495531957
 20
119.8941488458
 11
162.5898338755
 21
119.8752837569
  0
LINE
  5
387
100
AcDbEntity
  8
RACCORDO
100
AcDbLine
 62
7
  6
CONTINUOUS
 10
162.6373471749
 20
119.8870313846
 11
162.536911731
 21
119.9370071736
  0
LWPOLYLINE
  5
388
100
AcDbEntity
  8
RACCORDO
100
AcDbPolyline
 62
7
  6
CONTINUOUS
 90
3
 70
0
 10
162.5898338755
 20
119.8752837569
 10
162.6833144364
 20
119.8248976511
 10
162.775020758
 20
119.7660326762
  0
LWPOLYLINE
  5
389
100
AcDbEntity
  8
RACCORDO
100
AcDbPolyline
 62
7
  6
CONTINUOUS
 90
8
 70
0
 10
109.4477263012
 20
153.5920250966
 10
109.402669592
 20
153.6164012964
 10
109.3632129763
 20
153.6437856769
 10
109.329961914
 20
153.673758026
 10
109.3034266412
 20
153.7058584196
 10
109.2840143404
 20
153.7395942783
 10
109.2720228925
 20
153.7744479272
 10
109.2676164802
 20
153.812438419
  0
LWPOLYLINE
  5
38A
100
AcDbEntity
  8
RACCORDO
100
AcDbPolyline
 62
7
  6
CONTINUOUS
 90
3
 70
0
 10
162.8278374973
 20
119.7640957331
 10
162.734322931
 20
119.82939469
 10
162.6373471749
 20
119.8870313846
  0
LWPOLYLINE
  5
38B
100
AcDbEntity
  8
RACCORDO
100
AcDbPolyline
 62
7
  6
CONTINUOUS
 90
6
 70
0
 10
162.5495300783
 20
119.8942006684
 10
162.544747959
 20
119.8975539372
 10
162.540427698
 20
119.9039724395
 10
162.5376330114
 20
119.9128802702
 10
162.5364492544
 20
119.9240053661
 10
162.5369125811
 20
119.9370079443
  0
LWPOLYLINE
  5
38C
100
AcDbEntity
  8
RACCORDO
100
AcDbPolyline
 62
7
  6
CONTINUOUS
 90
11
 70
0
 10
162.775020758
 20
119.7660326762
 10
162.8638977601
 20
119.6993307062
 10
162.948909614
 20
119.6255308055
 10
163.0291031035
 20
119.545403828
 10
163.1036246557
 20
119.4598424493
 10
163.1716391404
 20
119.3698147624
 10
163.2323400641
 20
119.2763827247
 10
163.2851916316
 20
119.1805390602
 10
163.3297543695
 20
119.0831787798
 10
163.365510704
 20
118.9854306826
 10
163.3921605233
 20
118.8883504128
  0
LINE
  5
38D
100
AcDbEntity
  8
RACCORDO
100
AcDbLine
 62
7
  6
CONTINUOUS
 10
161.6502857359
 20
118.7374382384
 11
161.5641957662
 21
118.8084947971
  0
LWPOLYLINE
  5
38E
100
AcDbEntity
  8
RACCORDO
100
AcDbPolyline
 62
7
  6
CONTINUOUS
 90
70
 70
0
 10
161.6087820157
 20
118.7797392219
 10
161.6102961932
 20
118.7784810448
 10
161.6139316905
 20
118.7753734144
 10
161.6176076275
 20
118.772106832
 10
161.6213177005
 20
118.7686829428
 10
161.6250487118
 20
118.7651106158
 10
161.6287930843
 20
118.7613945702
 10
161.6325448247
 20
118.7575385578
 10
161.6362940341
 20
118.7535510273
 10
161.640034857
 20
118.749436945
 10
161.643762009
 20
118.7452011197
 10
161.647467087
 20
118.7408525984
 10
161.6511448341
 20
118.736397573
 10
161.6547917934
 20
118.7318405115
 10
161.6584030972
 20
118.7271879269
 10
161.6619749514
 20
118.7224453229
 10
161.6655052081
 20
118.7176163747
 10
161.6689922181
 20
118.7127042571
 10
161.6724331026
 20
118.7077140868
 10
161.6758260018
 20
118.7026497227
 10
161.6791711644
 20
118.6975117121
 10
161.6824663763
 20
118.6923043641
 10
161.6857105127
 20
118.6870305057
 10
161.6889054626
 20
118.6816879733
 10
161.6920495544
 20
118.6762803502
 10
161.6951415187
 20
118.67081063
 10
161.6981836872
 20
118.6652750841
 10
161.7011745924
 20
118.6596765738
 10
161.7041131231
 20
118.6540174643
 10
161.7070018218
 20
118.648292904
 10
161.7098392819
 20
118.6425054778
 10
161.7126242801
 20
118.6366575179
 10
161.7153592028
 20
118.630743368
 10
161.7180434344
 20
118.6247632191
 10
161.7206747205
 20
118.6187210049
 10
161.7232527114
 20
118.6126164612
 10
161.7257765306
 20
118.6064504611
 10
161.7282443394
 20
118.6002263069
 10
161.7306543565
 20
118.5939473919
 10
161.7330052494
 20
118.5876159756
 10
161.7352958906
 20
118.581233821
 10
161.7375248906
 20
118.5748035578
 10
161.7396910716
 20
118.5683273829
 10
161.7417934059
 20
118.5618071527
 10
161.7438307925
 20
118.5552450306
 10
161.745802194
 20
118.5486430441
 10
161.7477065458
 20
118.5420032255
 10
161.7495427369
 20
118.5353277988
 10
161.751309833
 20
118.5286184565
 10
161.7530067327
 20
118.5218776161
 10
161.754632151
 20
118.5151086479
 10
161.7561851903
 20
118.5083135396
 10
161.7576649246
 20
118.5014944585
 10
161.759070107
 20
118.4946551287
 10
161.7603998247
 20
118.4877978401
 10
161.7616532275
 20
118.4809246822
 10
161.7628292436
 20
118.4740391846
 10
161.763927078
 20
118.4671435851
 10
161.7649459516
 20
118.4602401173
 10
161.7658849188
 20
118.4533323793
 10
161.7667432441
 20
118.4464227075
 10
161.76752017
 20
118.4395134585
 10
161.7682148203
 20
118.4326083605
 10
161.7688264991
 20
118.425709933
 10
161.7693545359
 20
118.4188206134
 10
161.7697981974
 20
118.4119441206
 10
161.7701568798
 20
118.4050829049
 10
161.7704299759
 20
118.3982396474
 10
161.7706168351
 20
118.3914187653
 10
161.7707169018
 20
118.3846238485
  0
LWPOLYLINE
  5
38F
100
AcDbEntity
  8
RACCORDO
100
AcDbPolyline
 62
7
  6
CONTINUOUS
 90
10
 70
0
 10
163.4205178578
 20
118.9240552436
 10
163.3864269021
 20
119.027542601
 10
163.3428475859
 20
119.1318818763
 10
163.2910467266
 20
119.2338401411
 10
163.230795827
 20
119.3332715215
 10
163.1623275024
 20
119.430325637
 10
163.0875998568
 20
119.5222124501
 10
163.0063369473
 20
119.6088372874
 10
162.9188191176
 20
119.6902988166
 10
162.8278374973
 20
119.7640957331
  0
LWPOLYLINE
  5
390
100
AcDbEntity
  8
RACCORDO
100
AcDbPolyline
 62
7
  6
CONTINUOUS
 90
4
 70
0
 10
163.3921605233
 20
118.8883504128
 10
163.4095064141
 20
118.7927891278
 10
163.4173301891
 20
118.699806949
 10
163.417820919
 20
118.6705512893
  0
LWPOLYLINE
  5
391
100
AcDbEntity
  8
RACCORDO
100
AcDbPolyline
 62
7
  6
CONTINUOUS
 90
3
 70
0
 10
163.4593858275
 20
118.7217876375
 10
163.4446972638
 20
118.8224966116
 10
163.4205178578
 20
118.9240552436
  0
LWPOLYLINE
  5
392
100
AcDbEntity
  8
RACCORDO
100
AcDbPolyline
 62
7
  6
CONTINUOUS
 90
8
 70
0
 10
177.0240938759
 20
58.7855369643
 10
177.0262581666
 20
58.734192977
 10
177.0327140161
 20
58.6879600235
 10
177.04335097
 20
58.6476291677
 10
177.0579870345
 20
58.6138904886
 10
177.0763717888
 20
58.5873212756
 10
177.0981906683
 20
58.5683761479
 10
177.117632288
 20
58.5590111186
  0
LWPOLYLINE
  5
393
100
AcDbEntity
  8
RACCORDO
100
AcDbPolyline
 62
7
  6
CONTINUOUS
 90
13
 70
0
 10
177.0240938759
 20
127.5943086846
 10
177.0262581801
 20
127.6498853767
 10
177.0327140606
 20
127.7087437088
 10
177.0433510555
 20
127.769876598
 10
177.0579871625
 20
127.8322380438
 10
177.0763719535
 20
127.894761024
 10
177.0981908592
 20
127.956375752
 10
177.1230705517
 20
128.0160279829
 10
177.1505853323
 20
128.0726970507
 10
177.1802644149
 20
128.1254133318
 10
177.2115999821
 20
128.1732748365
 10
177.2440558736
 20
128.2154626422
 10
177.2770767602
 20
128.2512549048
  0
LINE
  5
394
100
AcDbEntity
  8
RACCORDO
100
AcDbLine
 62
7
  6
CONTINUOUS
 10
161.7707351778
 20
78.8898814386
 11
161.5641957662
 21
78.3382939304
  0
LWPOLYLINE
  5
395
100
AcDbEntity
  8
RACCORDO
100
AcDbPolyline
 62
7
  6
CONTINUOUS
 90
36
 70
0
 10
161.7500175973
 20
78.5417062251
 10
161.7469277486
 20
78.5336148686
 10
161.7409104749
 20
78.5185576376
 10
161.7347992916
 20
78.5041452654
 10
161.7286030575
 20
78.4903640764
 10
161.722356158
 20
78.477258851
 10
161.7160794299
 20
78.4648387962
 10
161.7097814812
 20
78.4530842574
 10
161.7034809086
 20
78.4419956932
 10
161.6971962617
 20
78.4315756505
 10
161.6909390538
 20
78.4218106748
 10
161.6847179054
 20
78.412676945
 10
161.6785495729
 20
78.4041740945
 10
161.6724462671
 20
78.3962917937
 10
161.6664095742
 20
78.3889913098
 10
161.660456217
 20
78.3822722742
 10
161.6545965154
 20
78.3761249129
 10
161.6488214016
 20
78.3704967527
 10
161.6431418858
 20
78.3653830278
 10
161.6375704267
 20
78.3607795979
 10
161.6320988558
 20
78.356635393
 10
161.6267366814
 20
78.3529464651
 10
161.6214951022
 20
78.3497088009
 10
161.6163678355
 20
78.3468714546
 10
161.6113669474
 20
78.3444321932
 10
161.6064989905
 20
78.3423859808
 10
161.6017486144
 20
78.3406779566
 10
161.5971265581
 20
78.3393038507
 10
161.5926376836
 20
78.3382617637
 10
161.588256195
 20
78.3375010383
 10
161.583987152
 20
78.3370156537
 10
161.5798374146
 20
78.3368068821
 10
161.5757820024
 20
78.3368357776
 10
161.5718152986
 20
78.3370882826
 10
161.5679518163
 20
78.3375748993
 10
161.5641957662
 20
78.3382939304
  0
LINE
  5
396
100
AcDbEntity
  8
SUPERFICI
100
AcDbLine
 62
7
  6
CONTINUOUS
 10
159.953827777
 20
84.8438051323
 11
158.7113985858
 21
83.7033617648
  0
LWPOLYLINE
  5
397
100
AcDbEntity
  8
SUPERFICI
100
AcDbPolyline
 62
7
  6
CONTINUOUS
 90
7
 70
0
 10
159.2263106084
 20
83.6870474234
 10
159.2302958359
 20
83.690469552
 10
159.241688545
 20
83.7018846722
 10
159.2517190826
 20
83.7145697628
 10
159.2603045783
 20
83.7284453541
 10
159.2675279027
 20
83.7435909159
 10
159.2733890556
 20
83.7600064481
  0
LWPOLYLINE
  5
398
100
AcDbEntity
  8
SUPERFICI
100
AcDbPolyline
 62
7
  6
CONTINUOUS
 90
10
 70
0
 10
159.9593821554
 20
84.8486790511
 10
159.9656785185
 20
84.8540687113
 10
159.9713812893
 20
84.8590675662
 10
159.9764285991
 20
84.863660195
 10
159.9807630989
 20
84.8678463362
 10
159.9843171736
 20
84.871584885
 10
159.9870232994
 20
84.8747922354
 10
159.9888351106
 20
84.8774128897
 10
159.9897006627
 20
84.879436656
 10
159.9897725264
 20
84.8800396421
  0
LINE
  5
399
100
AcDbEntity
  8
0
100
AcDbLine
 62
7
  6
CONTINUOUS
 10
159.9593821554
 20
84.3642715862
 11
159.0306725605
 21
83.5751341387
  0
LINE
  5
39A
100
AcDbEntity
  8
SUPERFICI
100
AcDbLine
 62
7
  6
CONTINUOUS
 10
159.2263689388
 20
83.6870690356
 11
159.0707973398
 21
83.5590191228
  0
LINE
  5
39B
100
AcDbEntity
  8
0
100
AcDbLine
 62
7
  6
CONTINUOUS
 10
159.2733890556
 20
83.7600064481
 11
159.0427779785
 21
83.57027233
  0
LINE
  5
39C
100
AcDbEntity
  8
SUPERFICI
100
AcDbLine
 62
7
  6
CONTINUOUS
 10
153.887212909
 20
85.7576795238
 11
154.0019281963
 21
85.8516487859
  0
LINE
  5
39D
100
AcDbEntity
  8
SUPERFICI
100
AcDbLine
 62
7
  6
CONTINUOUS
 10
154.1740011272
 20
85.992602679
 11
154.2887164145
 21
86.0865719411
  0
LINE
  5
39E
100
AcDbEntity
  8
SUPERFICI
100
AcDbLine
 62
7
  6
CONTINUOUS
 10
154.4607893454
 20
86.2275258342
 11
154.5755046327
 21
86.3214950963
  0
LINE
  5
39F
100
AcDbEntity
  8
SUPERFICI
100
AcDbLine
 62
7
  6
CONTINUOUS
 10
154.7475775636
 20
86.4624489894
 11
154.8622928508
 21
86.5564182514
  0
LINE
  5
3A0
100
AcDbEntity
  8
SUPERFICI
100
AcDbLine
 62
7
  6
CONTINUOUS
 10
155.0343657817
 20
86.6973721446
 11
155.149081069
 21
86.7913414066
  0
LINE
  5
3A1
100
AcDbEntity
  8
SUPERFICI
100
AcDbLine
 62
7
  6
CONTINUOUS
 10
158.3925491526
 20
83.9482349179
 11
158.5072644399
 21
84.04220418
  0
LINE
  5
3A2
100
AcDbEntity
  8
SUPERFICI
100
AcDbLine
 62
7
  6
CONTINUOUS
 10
158.6793373708
 20
84.1831580731
 11
158.7940526581
 21
84.2771273352
  0
LINE
  5
3A3
100
AcDbEntity
  8
SUPERFICI
100
AcDbLine
 62
7
  6
CONTINUOUS
 10
158.966125589
 20
84.4180812283
 11
159.0808408763
 21
84.5120504904
  0
LINE
  5
3A4
100
AcDbEntity
  8
SUPERFICI
100
AcDbLine
 62
7
  6
CONTINUOUS
 10
159.2529138072
 20
84.6530043835
 11
159.3676290944
 21
84.7469736456
  0
LINE
  5
3A5
100
AcDbEntity
  8
SUPERFICI
100
AcDbLine
 62
7
  6
CONTINUOUS
 10
159.5397020253
 20
84.8879275387
 11
159.6544173126
 21
84.9818968008
  0
LINE
  5
3A6
100
AcDbEntity
  8
SUPERFICI
100
AcDbLine
 62
7
  6
CONTINUOUS
 10
159.7404537781
 20
84.9295009407
 11
158.3975105716
 21
83.8294262678
  0
LINE
  5
3A7
100
AcDbEntity
  8
SUPERFICI
100
AcDbLine
 62
7
  6
CONTINUOUS
 10
155.0217435355
 20
86.824641355
 11
153.5782863138
 21
85.7649353766
  0
LINE
  5
3A8
100
AcDbEntity
  8
SUPERFICI
100
AcDbLine
 62
7
  6
CONTINUOUS
 10
155.0362060426
 20
86.83385599
 11
155.0281966256
 21
86.8291543308
  0
LWPOLYLINE
  5
3A9
100
AcDbEntity
  8
RACCORDO
100
AcDbPolyline
 62
7
  6
CONTINUOUS
 90
13
 70
0
 10
123.5853495773
 20
135.524669982
 10
123.5002307954
 20
135.5215753214
 10
123.4184098317
 20
135.5081038276
 10
123.3424606026
 20
135.4845999677
 10
123.2726297569
 20
135.4507529576
 10
123.2086656109
 20
135.4068698461
 10
123.152392984
 20
135.3542206672
 10
123.1040240507
 20
135.2924660303
 10
123.0633419104
 20
135.2219418265
 10
123.0315273279
 20
135.144930687
 10
123.0089728372
 20
135.0621927092
 10
122.9952830527
 20
134.9729656864
 10
122.9904572664
 20
134.8772490954
  0
LWPOLYLINE
  5
3AA
100
AcDbEntity
  8
RACCORDO
100
AcDbPolyline
 62
7
  6
CONTINUOUS
 90
8
 70
0
 10
125.8175116919
 20
132.7683921098
 10
125.8169694301
 20
132.7684111699
 10
125.8168899696
 20
132.7684166056
 10
125.8172032307
 20
132.7683687395
 10
125.8178633964
 20
132.7682320047
 10
125.8187499455
 20
132.7679960995
 10
125.8197986014
 20
132.7676530822
 10
125.8204358389
 20
132.767413087
  0
LWPOLYLINE
  5
3AB
100
AcDbEntity
  8
RACCORDO
100
AcDbPolyline
 62
7
  6
CONTINUOUS
 90
4
 70
0
 10
123.6103556958
 20
135.4700718676
 10
123.6899845147
 20
135.4672137157
 10
123.7733973769
 20
135.4542710605
 10
123.8595923109
 20
135.4312346165
  0
LINE
  5
3AC
100
AcDbEntity
  8
RACCORDO
100
AcDbLine
 62
7
  6
CONTINUOUS
 10
123.6729087536
 20
135.5172733971
 11
123.5853495773
 21
135.524669982
  0
LWPOLYLINE
  5
3AD
100
AcDbEntity
  8
RACCORDO
100
AcDbPolyline
 62
7
  6
CONTINUOUS
 90
13
 70
0
 10
178.3246930381
 20
125.9294824602
 10
178.3800389326
 20
125.9135347053
 10
178.4383978015
 20
125.9016341719
 10
178.4988741324
 20
125.8939634744
 10
178.5605399205
 20
125.890640321
 10
178.6224489074
 20
125.8917157068
 10
178.6836511013
 20
125.8971731317
 10
178.7432073573
 20
125.9069288532
 10
178.8002037863
 20
125.9208331714
 10
178.8537657774
 20
125.9386727258
 10
178.9030714226
 20
125.9601737695
 10
178.9473641281
 20
125.9850063706
 10
178.9859642226
 20
126.0127894745
  0
LWPOLYLINE
  5
3AE
100
AcDbEntity
  8
RACCORDO
100
AcDbPolyline
 62
7
  6
CONTINUOUS
 90
13
 70
0
 10
177.0240938759
 20
127.5943086846
 10
171.2152798502
 20
129.578807443
 10
165.4523645211
 20
131.6080718256
 10
159.7364045759
 20
133.6817597849
 10
154.0681400778
 20
135.7996381803
 10
148.4489269551
 20
137.9612360436
 10
142.8807091578
 20
140.1658209913
 10
137.3644867423
 20
142.4129970593
 10
131.901249333
 20
144.7023610795
 10
126.4928600506
 20
147.0331164682
 10
121.1405537434
 20
149.4046937422
 10
115.8449660557
 20
151.8167735522
 10
110.6070188082
 20
154.2689033697
  0
LWPOLYLINE
  5
3AF
100
AcDbEntity
  8
RACCORDO
100
AcDbPolyline
 62
7
  6
CONTINUOUS
 90
13
 70
0
 10
177.2770767602
 20
128.2512549048
 10
171.4723211874
 20
130.2343523035
 10
165.7154975884
 20
132.261481076
 10
160.0066059634
 20
134.3326412225
 10
154.34431302
 20
136.4483299267
 10
148.7299520505
 20
138.6080500048
 10
143.1675229315
 20
140.8103099051
 10
137.6570906465
 20
143.0551599756
 10
132.1985902121
 20
145.3425498682
 10
126.7958265548
 20
147.6708369867
 10
121.4500679836
 20
150.0394737987
 10
116.1600461896
 20
152.4490078365
 10
110.9257611728
 20
154.8994391001
  0
LWPOLYLINE
  5
3B0
100
AcDbEntity
  8
RACCORDO
100
AcDbPolyline
 62
7
  6
CONTINUOUS
 90
14
 70
0
 10
110.9257611728
 20
154.8994391001
 10
110.8401560662
 20
154.9360402254
 10
110.7500551494
 20
154.9692257066
 10
110.6558435893
 20
154.9980134456
 10
110.5574091444
 20
155.0215166811
 10
110.4559877458
 20
155.0384030025
 10
110.3540520926
 20
155.0473912512
 10
110.2522537192
 20
155.0478042588
 10
110.1514300842
 20
155.0389825925
 10
110.0541051038
 20
155.0206630208
 10
109.9609972494
 20
154.9928285487
 10
109.8726102066
 20
154.9554802022
 10
109.7906584751
 20
154.9093820767
 10
109.7145757079
 20
154.8543366969
  0
LWPOLYLINE
  5
3B1
100
AcDbEntity
  8
RACCORDO
100
AcDbPolyline
 62
7
  6
CONTINUOUS
 90
25
 70
0
 10
110.6070188082
 20
154.2689033697
 10
110.5431877997
 20
154.2984230123
 10
110.4767183595
 20
154.3238898375
 10
110.4076116128
 20
154.3453046226
 10
110.3349391221
 20
154.3634298604
 10
110.2596320079
 20
154.3775049106
 10
110.1844794662
 20
154.3852449735
 10
110.1094642975
 20
154.3861357619
 10
110.0346035755
 20
154.3806914695
 10
109.9627352188
 20
154.3681681592
 10
109.8941681589
 20
154.3480155058
 10
109.8285906929
 20
154.3207819145
 10
109.7679077222
 20
154.2873701168
 10
109.7125311349
 20
154.247454259
 10
109.6620453031
 20
154.2013576105
 10
109.6171130705
 20
154.1509560474
 10
109.578050591
 20
154.0961118634
 10
109.5445386597
 20
154.0369606595
 10
109.5162872253
 20
153.9757883718
 10
109.4935288615
 20
153.9125726208
 10
109.4760292444
 20
153.8473345794
 10
109.4627984177
 20
153.7824258163
 10
109.4535062369
 20
153.7186300783
 10
109.4484822441
 20
153.6551632034
 10
109.4477263012
 20
153.5920250966
  0
LINE
  5
3B2
100
AcDbEntity
  8
DRAFT
100
AcDbLine
 62
7
  6
CONTINUOUS
 10
182.267134996
 20
93.4845509445
 11
182.144347192
 21
93.8117497605
  0
LWPOLYLINE
  5
3B3
100
AcDbEntity
  8
RACCORDO
100
AcDbPolyline
 62
7
  6
CONTINUOUS
 90
25
 70
0
 10
178.9859642226
 20
126.0127894745
 10
178.9837610594
 20
126.0976321371
 10
178.9765596816
 20
126.1880480961
 10
178.9637156837
 20
126.283988621
 10
178.9445277497
 20
126.3856827953
 10
178.9183553925
 20
126.4925795798
 10
178.8848162066
 20
126.6033104387
 10
178.8434488072
 20
126.7174538343
 10
178.7938568048
 20
126.8345300879
 10
178.7361496857
 20
126.9529443598
 10
178.6701232283
 20
127.0721222718
 10
178.5957484008
 20
127.1913011406
 10
178.5138532927
 20
127.3085937619
 10
178.4244922459
 20
127.4234688451
 10
178.3281131624
 20
127.535001293
 10
178.2266663957
 20
127.640958944
 10
178.1206184335
 20
127.7409506077
 10
178.0107227637
 20
127.834401435
 10
177.8998460121
 20
127.9194105422
 10
177.7888314433
 20
127.995959908
 10
177.6783227862
 20
128.0642045055
 10
177.5711145092
 20
128.1233085506
 10
177.4685495937
 20
128.1735651716
 10
177.3704084685
 20
128.2159907379
 10
177.2770767602
 20
128.2512549048
  0
LWPOLYLINE
  5
3B4
100
AcDbEntity
  8
RACCORDO
100
AcDbPolyline
 62
7
  6
CONTINUOUS
 90
25
 70
0
 10
178.3246930381
 20
125.9294824602
 10
178.3238384519
 20
125.9933094829
 10
178.3181845767
 20
126.0610973236
 10
178.307731521
 20
126.1328460894
 10
178.2928489402
 20
126.2090580531
 10
178.2731676537
 20
126.289231409
 10
178.2475797423
 20
126.3718603693
 10
178.2158238991
 20
126.4571224939
 10
178.1781628089
 20
126.5448415786
 10
178.134274887
 20
126.6329815305
 10
178.0838052691
 20
126.7216773641
 10
178.0271112227
 20
126.8107964269
 10
177.9649394746
 20
126.8979012366
 10
177.8968281342
 20
126.9830215255
 10
177.8232420435
 20
127.0661304575
 10
177.7463174127
 20
127.1447050909
 10
177.6657076584
 20
127.2184629001
 10
177.5817615618
 20
127.2876885612
 10
177.4976567546
 20
127.3507083385
 10
177.4134126777
 20
127.4069945957
 10
177.3290100061
 20
127.4570750744
 10
177.2475661022
 20
127.5008570268
 10
177.1701189942
 20
127.5383084648
 10
177.0956285469
 20
127.5694593068
 10
177.0240938759
 20
127.5943086846
  0
LINE
  5
3B5
100
AcDbEntity
  8
RACCORDO
100
AcDbLine
 62
7
  6
CONTINUOUS
 10
178.3246930381
 20
59.5781668728
 11
178.3246930381
 21
125.9294824602
  0
LINE
  5
3B6
100
AcDbEntity
  8
RACCORDO
100
AcDbLine
 62
7
  6
CONTINUOUS
 10
178.9859642226
 20
59.6614738871
 11
178.9859642226
 21
126.0127894745
  0
LINE
  5
3B7
100
AcDbEntity
  8
RACCORDO
100
AcDbLine
 62
7
  6
CONTINUOUS
 10
181.8298818394
 20
128.3423904041
 11
181.8298818394
 21
61.9910748167
  0
LINE
  5
3B8
100
AcDbEntity
  8
DRAFT
100
AcDbLine
 62
7
  6
CONTINUOUS
 10
182.267134996
 20
129.7005672212
 11
182.267134996
 21
99.5652679106
  0
LINE
  5
3B9
100
AcDbEntity
  8
DRAFT
100
AcDbLine
 62
7
  6
CONTINUOUS
 10
182.267134996
 20
93.4845509445
 11
182.267134996
 21
63.3492516338
  0
LWPOLYLINE
  5
3BA
100
AcDbEntity
  8
DRAFT
100
AcDbPolyline
 62
7
  6
CONTINUOUS
 90
27
 70
0
 10
182.267134996
 20
63.3492516338
 10
182.2667884538
 20
63.3255660062
 10
182.2657491204
 20
63.3021787772
 10
182.2640178752
 20
63.279109735
 10
182.2615961829
 20
63.2563783981
 10
182.2584860927
 20
63.2340039995
 10
182.2546902358
 20
63.2120054703
 10
182.2502118241
 20
63.1904014234
 10
182.2450546466
 20
63.1692101379
 10
182.239223067
 20
63.1484495439
 10
182.2327220191
 20
63.1281372068
 10
182.2255570037
 20
63.1082903128
 10
182.217734083
 20
63.0889256546
 10
182.209259876
 20
63.0700596164
 10
182.2001415528
 20
63.0517081609
 10
182.1903868282
 20
63.0338868152
 10
182.1800039559
 20
63.0166106579
 10
182.1690017207
 20
62.9998943064
 10
182.1573894316
 20
62.9837519045
 10
182.1451769139
 20
62.9681971101
 10
182.1323745004
 20
62.9532430842
 10
182.1189930234
 20
62.9389024794
 10
182.1050438048
 20
62.9251874293
 10
182.0905386472
 20
62.9121095381
 10
182.0754898233
 20
62.8996798712
 10
182.059910066
 20
62.8879089451
 10
182.0563373415
 20
62.8853555183
  0
LWPOLYLINE
  5
3BB
100
AcDbEntity
  8
RACCORDO
100
AcDbPolyline
 62
7
  6
CONTINUOUS
 90
4
 70
0
 10
163.3429741444
 20
76.7920044993
 10
163.3865315179
 20
76.8648839563
 10
163.4205989627
 20
76.9437405325
 10
163.4447529001
 20
77.0277887004
  0
LWPOLYLINE
  5
3BC
100
AcDbEntity
  8
RACCORDO
100
AcDbPolyline
 62
7
  6
CONTINUOUS
 90
4
 70
0
 10
163.3423461248
 20
76.9424617019
 10
163.3037148334
 20
76.8827951761
 10
163.2575213252
 20
76.8298834027
 10
163.2243738467
 20
76.8000056599
  0
LWPOLYLINE
  5
3BD
100
AcDbEntity
  8
RACCORDO
100
AcDbPolyline
 62
7
  6
CONTINUOUS
 90
10
 70
0
 10
162.5832409371
 20
76.7033750502
 10
162.5740342183
 20
76.6937031303
 10
162.5653268826
 20
76.6817452226
 10
162.5573850643
 20
76.6678668136
 10
162.5504515
 20
76.6524920891
 10
162.5447381097
 20
76.6360909681
 10
162.5404195202
 20
76.6191647405
 10
162.5376277264
 20
76.602230746
 10
162.5364480574
 20
76.5858065618
 10
162.536916569
 20
76.5703941831
  0
LINE
  5
3BE
100
AcDbEntity
  8
DRAFT
100
AcDbLine
 62
7
  6
CONTINUOUS
 10
182.267134996
 20
99.5652679106
 11
181.8298818394
 21
99.1418188248
  0
LINE
  5
3BF
100
AcDbEntity
  8
DRAFT
100
AcDbLine
 62
7
  6
CONTINUOUS
 10
182.267134996
 20
93.4845509445
 11
181.8298818394
 21
93.2659861525
  0
LWPOLYLINE
  5
3C0
100
AcDbEntity
  8
RACCORDO
100
AcDbPolyline
 62
7
  6
CONTINUOUS
 90
16
 70
0
 10
180.0960342008
 20
130.560409655
 10
175.4455526221
 20
132.141921015
 10
170.8260700468
 20
133.7518491492
 10
166.2375864747
 20
135.3901940574
 10
161.6795211862
 20
137.0571711726
 10
157.1524549011
 20
138.752565062
 10
152.6581297779
 20
140.4757294272
 10
148.1966074745
 20
142.2266573023
 10
143.7678263331
 20
144.0053556532
 10
139.3733435389
 20
145.8111990793
 10
135.0131265913
 20
147.6442184307
 10
130.687207991
 20
149.5043828572
 10
126.3972424244
 20
151.3909744076
 10
122.1437814536
 20
153.3037537647
 10
117.9262735167
 20
155.2429602456
 10
113.7447186134
 20
157.2085938503
  0
LWPOLYLINE
  5
3C1
100
AcDbEntity
  8
RACCORDO
100
AcDbPolyline
 62
7
  6
CONTINUOUS
 90
19
 70
0
 10
180.0960342008
 20
130.560409655
 10
180.2472255232
 20
130.5035057937
 10
180.3958619972
 20
130.4352333865
 10
180.5419420426
 20
130.3555909069
 10
180.6870426849
 20
130.2634338562
 10
180.82958443
 20
130.1599043532
 10
180.9648282396
 20
130.0484281624
 10
181.0918113024
 20
129.9293603951
 10
181.2114882894
 20
129.8023379624
 10
181.3219930978
 20
129.6697060869
 10
181.4233215005
 20
129.5314389031
 10
181.5154698479
 20
129.3875545286
 10
181.5965718314
 20
129.2404630969
 10
181.666648336
 20
129.0892185174
 10
181.7256717375
 20
128.934760234
 10
181.7717025579
 20
128.7823262774
 10
181.8040927441
 20
128.6336611163
 10
181.8234861762
 20
128.4870161595
 10
181.8298818394
 20
128.3423904041
  0
LINE
  5
3C2
100
AcDbEntity
  8
DRAFT
100
AcDbLine
 62
7
  6
CONTINUOUS
 10
115.0966673643
 20
157.4968933892
 11
181.4479829517
 21
130.8487091938
  0
LWPOLYLINE
  5
3C3
100
AcDbEntity
  8
DRAFT
100
AcDbPolyline
 62
7
  6
CONTINUOUS
 90
10
 70
0
 10
181.4479829517
 20
130.8487091938
 10
181.4718077585
 20
130.8387940721
 10
181.4956124072
 20
130.8281942551
 10
181.5193767566
 20
130.8169187114
 10
181.5430806997
 20
130.8049769813
 10
181.5667041806
 20
130.7923791685
 10
181.5902272114
 20
130.7791359321
 10
181.6136298895
 20
130.7652584773
 10
181.6368924137
 20
130.7507585457
 10
181.6481766301
 20
130.7434674905
  0
LWPOLYLINE
  5
3C4
100
AcDbEntity
  8
RACCORDO
100
AcDbPolyline
 62
7
  6
CONTINUOUS
 90
9
 70
0
 10
181.8298818394
 20
61.9910748167
 10
181.8234559431
 20
61.8506651335
 10
181.8040619414
 20
61.7169281567
 10
181.7717008468
 20
61.5898648872
 10
181.7257403557
 20
61.4681877276
 10
181.6668169288
 20
61.3531883822
 10
181.5968352929
 20
61.2487373633
 10
181.5158183902
 20
61.1557271085
 10
181.4365289044
 20
61.0835562654
  0
LINE
  5
3C5
100
AcDbEntity
  8
RACCORDO
100
AcDbLine
 62
7
  6
CONTINUOUS
 10
163.2243566514
 20
76.7999761642
 11
163.2245324293
 21
76.8001202194
  0
LINE
  5
3C6
100
AcDbEntity
  8
RACCORDO
100
AcDbLine
 62
7
  6
CONTINUOUS
 10
162.8008447332
 20
76.8815771716
 11
162.5832447585
 21
76.7033297075
  0
LWPOLYLINE
  5
3C7
100
AcDbEntity
  8
RACCORDO
100
AcDbPolyline
 62
7
  6
CONTINUOUS
 90
27
 70
0
 10
163.0883698267
 20
77.0015003556
 10
163.0997715534
 20
77.0105278384
 10
163.1141828477
 20
77.0227891666
 10
163.1280938956
 20
77.0356162918
 10
163.1414945747
 20
77.0489997163
 10
163.1543743721
 20
77.0629289562
 10
163.166723794
 20
77.0773935862
 10
163.1785338335
 20
77.0923828444
 10
163.1897952662
 20
77.1078851403
 10
163.2004997598
 20
77.1238888363
 10
163.2106394924
 20
77.1403819866
 10
163.2202065907
 20
77.1573519733
 10
163.2291939284
 20
77.1747860028
 10
163.2375949311
 20
77.1926710452
 10
163.245403157
 20
77.2109936076
 10
163.2526127441
 20
77.2297398645
 10
163.2592183821
 20
77.2488957607
 10
163.2652150706
 20
77.2684469882
 10
163.2705982738
 20
77.288378904
 10
163.2753639435
 20
77.308676403
 10
163.2795084714
 20
77.3293240383
 10
163.2830285962
 20
77.3503058224
 10
163.2859217429
 20
77.3716062611
 10
163.288185952
 20
77.3932102812
 10
163.2898194462
 20
77.4151019097
 10
163.2908207143
 20
77.437264242
 10
163.2911888077
 20
77.4596804975
  0
LINE
  5
3C8
100
AcDbEntity
  8
RACCORDO
100
AcDbLine
 62
7
  6
CONTINUOUS
 10
163.4178645612
 20
77.5568618691
 11
163.2911888077
 21
77.4596804975
  0
LINE
  5
3C9
100
AcDbEntity
  8
RACCORDO
100
AcDbLine
 62
7
  6
CONTINUOUS
 10
163.0883698971
 20
77.0015004096
 11
163.4176949908
 21
77.2541475827
  0
LINE
  5
3CA
100
AcDbEntity
  8
0
100
AcDbLine
 62
7
  6
CONTINUOUS
 10
181.6481766301
 20
130.7434674905
 11
181.8348680091
 21
130.6214354752
  0
LWPOLYLINE
  5
3CB
100
AcDbEntity
  8
DRAFT
100
AcDbPolyline
 62
7
  6
CONTINUOUS
 90
32
 70
0
 10
181.6481766301
 20
130.7434674905
 10
181.6599951016
 20
130.7356484057
 10
181.6829184061
 20
130.719940842
 10
181.7056429317
 20
130.7036491448
 10
181.7281494513
 20
130.6867870984
 10
181.7504189221
 20
130.6693689699
 10
181.7724325018
 20
130.6514094968
 10
181.7941715648
 20
130.6329238744
 10
181.8156177177
 20
130.6139277436
 10
181.8367528148
 20
130.5944371769
 10
181.8575589739
 20
130.5744686653
 10
181.8780185907
 20
130.5540391042
 10
181.8981143545
 20
130.5331657789
 10
181.9178292621
 20
130.5118663505
 10
181.9371466329
 20
130.4901588404
 10
181.9560501223
 20
130.4680616152
 10
181.9745237362
 20
130.4455933715
 10
181.9925518441
 20
130.4227731196
 10
182.0101191923
 20
130.3996201677
 10
182.0272109171
 20
130.3761541056
 10
182.0438125572
 20
130.3523947879
 10
182.059910066
 20
130.3283623173
 10
182.0754898233
 20
130.3040770276
 10
182.0905386472
 20
130.2795594668
 10
182.1050438048
 20
130.254830379
 10
182.1189930234
 20
130.2299106876
 10
182.1323745004
 20
130.2048214771
 10
182.1451769139
 20
130.1795839755
 10
182.1573894316
 20
130.1542195362
 10
182.1690017207
 20
130.12874962
 10
182.1800039559
 20
130.1031957772
 10
182.1873345303
 20
130.0852772266
  0
LWPOLYLINE
  5
3CC
100
AcDbEntity
  8
0
100
AcDbPolyline
 62
7
  6
CONTINUOUS
 90
25
 70
0
 10
181.8348588741
 20
130.6214408023
 10
181.8407700281
 20
130.6175295219
 10
181.8555022998
 20
130.6073684151
 10
181.8700455543
 20
130.5967430421
 10
181.8843989994
 20
130.5856514566
 10
181.8985634274
 20
130.5740956048
 10
181.9124795458
 20
130.5621238596
 10
181.9261463139
 20
130.5497344777
 10
181.9395647723
 20
130.5369292024
 10
181.9526787514
 20
130.5237616368
 10
181.9654869749
 20
130.5102302621
 10
181.9779907189
 20
130.4963365971
 10
181.9901376428
 20
130.4821388007
 10
182.0019262507
 20
130.4676355982
 10
182.0133580385
 20
130.4528282643
 10
182.0243851526
 20
130.4377787828
 10
182.0350058965
 20
130.4224861386
 10
182.0452219667
 20
130.4069513467
 10
182.0549905985
 20
130.391239436
 10
182.0643099163
 20
130.3753496639
 10
182.0731817959
 20
130.359282773
 10
182.0815690993
 20
130.3431060195
 10
182.0894697953
 20
130.3268189428
 10
182.0968859151
 20
130.3104220034
 10
182.1044456912
 20
130.2923434526
  0
LINE
  5
3CD
100
AcDbEntity
  8
0
100
AcDbLine
 62
7
  6
CONTINUOUS
 10
182.1873345303
 20
130.0852772266
 11
182.1044469592
 21
130.2923403433
  0
LWPOLYLINE
  5
3CE
100
AcDbEntity
  8
DRAFT
100
AcDbPolyline
 62
7
  6
CONTINUOUS
 90
17
 70
0
 10
182.1873345303
 20
130.0852772266
 10
182.1903868282
 20
130.0775796287
 10
182.2001415528
 20
130.0519228484
 10
182.209259876
 20
130.0262471445
 10
182.217734083
 20
130.0005742412
 10
182.2255570037
 20
129.9749258603
 10
182.2327220191
 20
129.9493237029
 10
182.239223067
 20
129.9237894311
 10
182.2450546466
 20
129.8983446493
 10
182.2502118241
 20
129.8730108864
 10
182.2546902358
 20
129.8478095772
 10
182.2584860927
 20
129.8227620446
 10
182.2615961829
 20
129.7978894814
 10
182.2640178752
 20
129.7732129321
 10
182.2657491204
 20
129.7487532756
 10
182.2667884538
 20
129.7245312072
 10
182.267134996
 20
129.7005672212
  0
LWPOLYLINE
  5
3CF
100
AcDbEntity
  8
RACCORDO
100
AcDbPolyline
 62
7
  6
CONTINUOUS
 90
13
 70
0
 10
178.5998281326
 20
58.7598197509
 10
178.6140305736
 20
58.7717120179
 10
178.6861139125
 20
58.8398551842
 10
178.7497917987
 20
58.9134548558
 10
178.8051818411
 20
58.9916782913
 10
178.8525196947
 20
59.0737790715
 10
178.8917474605
 20
59.1581995525
 10
178.9233185092
 20
59.2440518181
 10
178.9477738926
 20
59.3306070115
 10
178.9655738937
 20
59.4163838569
 10
178.9774007646
 20
59.5003992286
 10
178.9839757109
 20
59.5822767661
 10
178.9859642226
 20
59.6614738871
  0
LINE
  5
3D0
100
AcDbEntity
  8
RACCORDO
100
AcDbLine
 62
7
  6
CONTINUOUS
 10
178.9859642226
 20
59.6614738871
 11
181.8298818394
 21
61.9910748167
  0
LINE
  5
3D1
100
AcDbEntity
  8
RACCORDO
100
AcDbLine
 62
7
  6
CONTINUOUS
 10
178.5985794847
 20
58.7587957917
 11
181.4363213006
 21
61.0833378014
  0
LINE
  5
3D2
100
AcDbEntity
  8
DRAFT
100
AcDbLine
 62
7
  6
CONTINUOUS
 10
182.267134996
 20
63.3492516338
 11
181.8298818394
 21
63.0282446949
  0
LINE
  5
3D3
100
AcDbEntity
  8
DRAFT
100
AcDbLine
 62
7
  6
CONTINUOUS
 10
182.0563373415
 20
62.8853555183
 11
181.8298818394
 21
62.725164165
  0
ELLIPSE
  5
3D4
100
AcDbEntity
  8
SUPERFICI
100
AcDbEllipse
 62
7
  6
CONTINUOUS
 10
155.0217435355
 20
86.6608109461
 30
0.0
 11
0.0820063524
 21
0.1825471329
 31
0.0
 40
0.504400903
 41
0.6752534469
 42
0.7276133244
  0
ELLIPSE
  5
3D5
100
AcDbEntity
  8
SUPERFICI
100
AcDbEllipse
 62
7
  6
CONTINUOUS
 10
136.590822539
 20
94.0630843337
 30
0.0
 11
0.0820063524
 21
0.1825471329
 31
0.0
 40
0.504400903
 41
0.6752534469
 42
0.7276133244
  0
ELLIPSE
  5
3D6
100
AcDbEntity
  8
SUPERFICI
100
AcDbEllipse
 62
7
  6
CONTINUOUS
 10
141.3588515397
 20
91.6636583837
 30
0.0
 11
0.19974097
 21
0.1359120531
 31
0.0
 40
0.0748697584
 41
-0.60940585
 42
-0.0505348179
  0
ELLIPSE
  5
3D7
100
AcDbEntity
  8
SUPERFICI
100
AcDbEllipse
 62
7
  6
CONTINUOUS
 10
159.7897725362
 20
84.2613849962
 30
0.0
 11
0.19974097
 21
0.1359120531
 31
0.0
 40
0.0748697584
 41
-0.60940585
 42
-0.0505348179
  0
ELLIPSE
  5
3D8
100
AcDbEntity
  8
RACCORDO
100
AcDbEllipse
 62
7
  6
CONTINUOUS
 10
126.8507890024
 20
96.663356095
 30
0.0
 11
-0.1268434165
 21
0.1546379889
 31
0.0
 40
0.6728141967
 41
0.6869639216
 42
2.2550211926
  0
ELLIPSE
  5
3D9
100
AcDbEntity
  8
SUPERFICI
100
AcDbEllipse
 62
7
  6
CONTINUOUS
 10
159.953827777
 20
84.6799747235
 30
0.0
 11
0.067652159
 21
0.1883288026
 31
0.0
 40
0.4341965489
 41
0.6388247178
 42
0.6911845954
  0
ELLIPSE
  5
3DA
100
AcDbEntity
  8
SUPERFICI
100
AcDbEllipse
 62
7
  6
CONTINUOUS
 10
141.5229067805
 20
92.082248111
 30
0.0
 11
0.067652159
 21
0.1883288026
 31
0.0
 40
0.4341965489
 41
0.6388247178
 42
0.6911845954
  0
ENDSEC
  0
SECTION
  2
OBJECTS
  0
DICTIONARY
  5
C
100
AcDbDictionary
280
0
281
1
  3
ACAD_GROUP
350
D
  3
ACAD_MLINESTYLE
350
17
  3
ACAD_LAYOUT
350
1A
  3
ACAD_PLOTSETTINGS
350
19
  3
ACAD_PLOTSTYLENAME
350
E
  0
DICTIONARY
  5
D
102
{ACAD_REACTORS
330
C
102
}
100
AcDbDictionary
280
0
281
1
  0
ACDBDICTIONARYWDFLT
  5
E
102
{ACAD_REACTORS
330
C
102
}
100
AcDbDictionary
281
1
  3
Normal
350
F
100
AcDbDictionaryWithDefault
340
F
  0
DICTIONARY
  5
17
102
{ACAD_REACTORS
330
C
102
}
100
AcDbDictionary
280
0
281
1
  3
Standard
350
18
  0
DICTIONARY
  5
19
102
{ACAD_REACTORS
330
C
102
}
100
AcDbDictionary
281
1
  0
DICTIONARY
  5
1A
102
{ACAD_REACTORS
330
C
102
}
100
AcDbDictionary
281
1
  3
Model
350
3DB
  3
Layout1
350
3DC
  0
ACDBPLACEHOLDER
  5
F
102
{ACAD_REACTORS
330
E
102
}
  0
MLINESTYLE
  5
18
102
{ACAD_REACTORS
330
17
102
}
100
AcDbMlineStyle
  2
STANDARD
 70
0
  3

 62
256
 51
90.0
 52
90.0
 71
2
 49
0.5
 62
256
  6
BYLAYER
 49
-0.5
 62
256
  6
BYLAYER
  0
LAYOUT
  5
3DB
102
{ACAD_REACTORS
330
1A
102
}
100
AcDbPlotSettings
  1

  2
none_device
  4
ISO_A4_(297.00_x_210.00_MM)
  6

 40
0.0
 41
0.0
 42
0.0
 43
0.0
 44
297.0
 45
210.0
 46
0.0
 47
0.0
 48
0.0
 49
0.0
140
0.0
141
0.0
142
1.0
143
1.0
 70
1024
 72
1
 73
0
 74
0
  7

 75
0
147
1.0
148
0.0
149
0.0
100
AcDbLayout
  1
Model
 70
0
 71
0
 10
0.0
 20
0.0
 11
297.0
 21
210.0
 12
0.0
 22
0.0
 32
0.0
 14
0.0
 24
0.0
 34
0.0
 15
0.0
 25
0.0
 35
0.0
146
0.0
 13
0.0
 23
0.0
 33
0.0
 16
1.0
 26
0.0
 36
0.0
 17
0.0
 27
1.0
 37
0.0
 76
0
330
215
345
0
346
0
  0
LAYOUT
  5
3DC
102
{ACAD_REACTORS
330
1A
102
}
100
AcDbPlotSettings
  1

  2
none_device
  4
ISO_A4_(297.00_x_210.00_MM)
  6

 40
0.0
 41
0.0
 42
0.0
 43
0.0
 44
297.0
 45
210.0
 46
0.0
 47
0.0
 48
0.0
 49
0.0
140
0.0
141
0.0
142
1.0
143
1.0
 70
0
 72
1
 73
0
 74
0
  7

 75
0
147
1.0
148
0.0
149
0.0
100
AcDbLayout
  1
Layout1
 70
0
 71
1
 10
0.0
 20
0.0
 11
297.0
 21
210.0
 12
0.0
 22
0.0
 32
0.0
 14
0.0
 24
0.0
 34
0.0
 15
0.0
 25
0.0
 35
0.0
146
0.0
 13
0.0
 23
0.0
 33
0.0
 16
1.0
 26
0.0
 36
0.0
 17
0.0
 27
1.0
 37
0.0
 76
0
330
216
345
0
346
0
  0
ENDSEC
  0
EOF
