  0
SECTION
  2
HEADER
  9
$ACADVER
  1
AC1015
  9
$DWGCODEPAGE
  3
ANSI_1252
  9
$EXTMAX
 10
297.0
 20
210.0
 30
0.0
  9
$EXTMIN
 10
0.0
 20
0.0
 30
0.0
  9
$LIMMIN
 10
0.0
 20
0.0
  9
$LIMMAX
 10
297.0
 20
210.0
  9
$VIEWCTR
 10
148.5
 20
105.0
  9
$VIEWSIZE
 40
210.0
  9
$CLAYER
  8
0
  9
$LTSCALE
 40
16.335
  9
$CELTYPE
  6
BYLAYER
  9
$DIMSCALE
 40
1.0
  9
$DIMASZ
 40
3.0
  9
$DIMEXO
 40
0.5
  9
$DIMDLI
 40
11.286
  9
$DIMEXE
 40
1.5
  9
$DIMCEN
 40
2.673
  9
$DIMLFAC
 40
1.0
  9
$DIMBLK
  1
_FILLED
  9
$DIMTXT
 40
3.0
  9
$DIMTOL
 70
1
  9
$DIMLIM
 70
0
  9
$DIMTFAC
 40
1.0
  9
$DIMTP
 40
0.01
  9
$DIMTM
 40
0.01
  9
$DIMGAP
 40
0.625
  9
$DIMDSEP
 70
44
  9
$PDMODE
 70
3
  9
$PDSIZE
 40
3.0
  9
$HANDSEED
  5
435
  9
$TILEMODE
 70
1
  9
$MEASUREMENT
 70
1
  9
$INSUNITS
 70
4
  0
ENDSEC
  0
SECTION
  2
CLASSES
  0
CLASS
  1
ACDBDICTIONARYWDFLT
  2
AcDbDictionaryWithDefault
  3
AutoCAD 2000
 90
0
280
0
281
0
  0
CLASS
  1
ACDBPLACEHOLDER
  2
AcDbPlaceHolder
  3
AutoCAD 2000
 90
0
280
0
281
0
  0
CLASS
  1
LAYOUT
  2
AcDbLayout
  3
AutoCAD 2000
 90
0
280
0
281
0
  0
ENDSEC
  0
SECTION
  2
TABLES
  0
TABLE
  2
VPORT
  5
8
100
AcDbSymbolTable
 70
2
  0
VPORT
  5
1F4
100
AcDbSymbolTableRecord
100
AcDbViewportTableRecord
  2
*ACTIVE
 70
0
 10
0.0
 20
0.0
 11
1.0
 21
1.0
 12
148.5
 22
105.0
 13
0.0
 23
0.0
 14
1.0
 24
1.0
 15
0.0
 25
0.0
 16
0.0
 26
0.0
 36
1.0
 17
0.0
 27
0.0
 37
0.0
 40
210.0
 41
1.4142857143
 42
50.0
 43
0.0
 44
0.0
 50
0.0
 51
0.0
 71
0
 72
100
 73
1
 74
1
 75
0
 76
0
 77
0
 78
0
  0
ENDTAB
  0
TABLE
  2
LTYPE
  5
5
100
AcDbSymbolTable
 70
6
  0
LTYPE
  5
14
100
AcDbSymbolTableRecord
100
AcDbLinetypeTableRecord
  2
BYBLOCK
 70
0
  3

 72
65
 73
0
 40
0.0
  0
LTYPE
  5
15
100
AcDbSymbolTableRecord
100
AcDbLinetypeTableRecord
  2
BYLAYER
 70
0
  3

 72
65
 73
0
 40
0.0
  0
LTYPE
  5
16
100
AcDbSymbolTableRecord
100
AcDbLinetypeTableRecord
  2
CONTINUOUS
 70
64
  3
Solid line
 72
65
 73
0
 40
0.0
  0
LTYPE
  5
1F5
100
AcDbSymbolTableRecord
100
AcDbLinetypeTableRecord
  2
CENTER
 70
64
  3
____ _ ____ _ ____ _ ____ _ ____ _ ____ _ ____
 72
65
 73
4
 40
0.6
 49
0.375
 74
0
 49
-0.075
 74
0
 49
0.075
 74
0
 49
-0.075
 74
0
  0
LTYPE
  5
1F6
100
AcDbSymbolTableRecord
100
AcDbLinetypeTableRecord
  2
HIDDEN
 70
64
  3
- - - - - - - - - - - - - - - - - - - -
 72
65
 73
2
 40
0.2
 49
0.1
 74
0
 49
-0.1
 74
0
  0
LTYPE
  5
1F7
100
AcDbSymbolTableRecord
100
AcDbLinetypeTableRecord
  2
PHANTOM
 70
64
  3
_____ _ _ _____ _ _ _____ _ _ _____
 72
65
 73
6
 40
0.8
 49
0.45
 74
0
 49
-0.05
 74
0
 49
0.1
 74
0
 49
-0.05
 74
0
 49
0.1
 74
0
 49
-0.05
 74
0
  0
LTYPE
  5
1F8
100
AcDbSymbolTableRecord
100
AcDbLinetypeTableRecord
  2
DOT
 70
64
  3
. . . . . . . . . . . . . . . . . . . .
 72
65
 73
2
 40
0.2
 49
0.1
 74
0
 49
-0.1
 74
0
  0
LTYPE
  5
1F9
100
AcDbSymbolTableRecord
100
AcDbLinetypeTableRecord
  2
DASHED
 70
64
  3
- - - - - - - - - - - - - - - - - - - -
 72
65
 73
2
 40
0.2
 49
0.1
 74
0
 49
-0.1
 74
0
  0
ENDTAB
  0
TABLE
  2
LAYER
  5
2
100
AcDbSymbolTable
 70
36
  0
LAYER
  5
10
100
AcDbSymbolTableRecord
100
AcDbLayerTableRecord
  2
0
 70
0
 62
7
  6
CONTINUOUS
370
-3
390
F
  0
LAYER
  5
1FA
100
AcDbSymbolTableRecord
100
AcDbLayerTableRecord
  2
DEFAULT_1
 70
0
 62
7
  6
CENTER
370
-3
390
F
  0
LAYER
  5
1FB
100
AcDbSymbolTableRecord
100
AcDbLayerTableRecord
  2
DEFAULT_2
 70
0
 62
7
  6
HIDDEN
370
-3
390
F
  0
LAYER
  5
1FC
100
AcDbSymbolTableRecord
100
AcDbLayerTableRecord
  2
DEFAULT_3
 70
0
 62
7
  6
PHANTOM
370
-3
390
F
  0
LAYER
  5
1FD
100
AcDbSymbolTableRecord
100
AcDbLayerTableRecord
  2
ASSI
 70
0
 62
7
  6
CONTINUOUS
370
-3
390
F
  0
LAYER
  5
1FE
100
AcDbSymbolTableRecord
100
AcDbLayerTableRecord
  2
COORDINATE
 70
0
 62
7
  6
CONTINUOUS
370
-3
390
F
  0
LAYER
  5
1FF
100
AcDbSymbolTableRecord
100
AcDbLayerTableRecord
  2
COORD_ORIGINE
 70
0
 62
7
  6
CONTINUOUS
370
-3
390
F
  0
LAYER
  5
200
100
AcDbSymbolTableRecord
100
AcDbLayerTableRecord
  2
COPIA_X_PUBLISH
 70
0
 62
7
  6
CONTINUOUS
370
-3
390
F
  0
LAYER
  5
201
100
AcDbSymbolTableRecord
100
AcDbLayerTableRecord
  2
COPY_PLACCA
 70
0
 62
7
  6
CONTINUOUS
370
-3
390
F
  0
LAYER
  5
202
100
AcDbSymbolTableRecord
100
AcDbLayerTableRecord
  2
COPY_SUPP
 70
0
 62
7
  6
CONTINUOUS
370
-3
390
F
  0
LAYER
  5
203
100
AcDbSymbolTableRecord
100
AcDbLayerTableRecord
  2
CURVE
 70
0
 62
7
  6
CONTINUOUS
370
-3
390
F
  0
LAYER
  5
204
100
AcDbSymbolTableRecord
100
AcDbLayerTableRecord
  2
DRAFT
 70
0
 62
7
  6
CONTINUOUS
370
-3
390
F
  0
LAYER
  5
205
100
AcDbSymbolTableRecord
100
AcDbLayerTableRecord
  2
IMPORT_SCRITTE
 70
0
 62
7
  6
CONTINUOUS
370
-3
390
F
  0
LAYER
  5
206
100
AcDbSymbolTableRecord
100
AcDbLayerTableRecord
  2
INTF_1
 70
0
 62
7
  6
CONTINUOUS
370
-3
390
F
  0
LAYER
  5
207
100
AcDbSymbolTableRecord
100
AcDbLayerTableRecord
  2
INTF_5
 70
0
 62
7
  6
CONTINUOUS
370
-3
390
F
  0
LAYER
  5
208
100
AcDbSymbolTableRecord
100
AcDbLayerTableRecord
  2
INTF_CYAN
 70
0
 62
7
  6
CONTINUOUS
370
-3
390
F
  0
LAYER
  5
209
100
AcDbSymbolTableRecord
100
AcDbLayerTableRecord
  2
NOTE
 70
0
 62
7
  6
CONTINUOUS
370
-3
390
F
  0
LAYER
  5
20A
100
AcDbSymbolTableRecord
100
AcDbLayerTableRecord
  2
PIANI
 70
0
 62
7
  6
CONTINUOUS
370
-3
390
F
  0
LAYER
  5
20B
100
AcDbSymbolTableRecord
100
AcDbLayerTableRecord
  2
PIANI_ORIGINE
 70
0
 62
7
  6
CONTINUOUS
370
-3
390
F
  0
LAYER
  5
20C
100
AcDbSymbolTableRecord
100
AcDbLayerTableRecord
  2
PIANI_RIFERIMENTO
 70
0
 62
7
  6
CONTINUOUS
370
-3
390
F
  0
LAYER
  5
20D
100
AcDbSymbolTableRecord
100
AcDbLayerTableRecord
  2
PUNTI
 70
0
 62
7
  6
CONTINUOUS
370
-3
390
F
  0
LAYER
  5
20E
100
AcDbSymbolTableRecord
100
AcDbLayerTableRecord
  2
RACCORDO
 70
0
 62
7
  6
CONTINUOUS
370
-3
390
F
  0
LAYER
  5
20F
100
AcDbSymbolTableRecord
100
AcDbLayerTableRecord
  2
SMUSSO
 70
0
 62
7
  6
CONTINUOUS
370
-3
390
F
  0
LAYER
  5
210
100
AcDbSymbolTableRecord
100
AcDbLayerTableRecord
  2
SNAPLINE
 70
0
 62
7
  6
CONTINUOUS
370
-3
390
F
  0
LAYER
  5
211
100
AcDbSymbolTableRecord
100
AcDbLayerTableRecord
  2
SUPERFICI
 70
0
 62
7
  6
CONTINUOUS
370
-3
390
F
  0
LAYER
  5
212
100
AcDbSymbolTableRecord
100
AcDbLayerTableRecord
  2
TRASH
 70
0
 62
7
  6
CONTINUOUS
370
-3
390
F
  0
LAYER
  5
213
100
AcDbSymbolTableRecord
100
AcDbLayerTableRecord
  2
XSEC_DATUMS
 70
0
 62
7
  6
CONTINUOUS
370
-3
390
F
  0
ENDTAB
  0
TABLE
  2
STYLE
  5
3
100
AcDbSymbolTable
 70
1
  0
STYLE
  5
11
100
AcDbSymbolTableRecord
100
AcDbTextStyleTableRecord
  2
STANDARD
 70
0
 40
0.0
 41
0.8
 50
0.0
 71
0
 42
0.2
  3
txt
  4

  0
STYLE
  5
214
100
AcDbSymbolTableRecord
100
AcDbTextStyleTableRecord
  2
TEXTSTYLE_1
 70
0
 40
0.0
 41
0.8
 50
0.0
 71
0
 42
0.2
  3
gdt
  4

  0
ENDTAB
  0
TABLE
  2
VIEW
  5
6
100
AcDbSymbolTable
 70
0
  0
ENDTAB
  0
TABLE
  2
UCS
  5
7
100
AcDbSymbolTable
 70
0
  0
ENDTAB
  0
TABLE
  2
APPID
  5
9
100
AcDbSymbolTable
 70
1
  0
APPID
  5
215
100
AcDbSymbolTableRecord
100
AcDbRegAppTableRecord
  2
ACAD
 70
0
  0
ENDTAB
  0
TABLE
  2
BLOCK_RECORD
  5
1
100
AcDbSymbolTable
 70
0
  0
BLOCK_RECORD
  5
216
100
AcDbSymbolTableRecord
100
AcDbBlockTableRecord
  2
*Model_Space
  0
BLOCK_RECORD
  5
217
100
AcDbSymbolTableRecord
100
AcDbBlockTableRecord
  2
*Paper_Space
  0
ENDTAB
  0
TABLE
  2
DIMSTYLE
  5
A
100
AcDbSymbolTable
 70
1
100
AcDbDimStyleTable
 71
0
  0
DIMSTYLE
105
218
100
AcDbSymbolTableRecord
100
AcDbDimStyleTableRecord
  2
STANDARD
 70
0
  3

  4

 40
1.0
 41
3.0
 42
0.5
 43
0.38
 44
1.5
 45
0.0
 46
0.0
 47
0.01
 48
0.01
140
3.0
141
0.09
142
0.0
143
25.4
144
1.0
145
0.0
146
1.0
147
0.625
 71
1.0
 72
0.0
 73
0
 74
0
 75
0
 76
0
 77
1
 78
8
170
0
171
2
172
0
173
0
174
0
175
0
176
0
177
0
178
0
270
2
271
2
272
2
273
2
274
2
275
0
280
0
281
0
282
0
283
1
284
8
285
0
286
0
287
3
288
0
340
11
278
44
  0
ENDTAB
  0
ENDSEC
  0
SECTION
  2
BLOCKS
  0
BLOCK
  5
20
100
AcDbEntity
  8
0
100
AcDbBlockBegin
  2
*Model_Space
 70
0
 10
0.0
 20
0.0
 30
0.0
  3
*Model_Space
  1

  0
ENDBLK
  5
21
100
AcDbEntity
  8
0
100
AcDbBlockEnd
  0
BLOCK
  5
1C
100
AcDbEntity
  8
0
100
AcDbBlockBegin
  2
*Paper_Space
 70
0
 10
0.0
 20
0.0
 30
0.0
  3
*Paper_Space
  1

  0
ENDBLK
  5
1D
100
AcDbEntity
  8
0
100
AcDbBlockEnd
  0
ENDSEC
  0
SECTION
  2
ENTITIES
  0
LWPOLYLINE
  5
219
100
AcDbEntity
  8
RACCORDO
100
AcDbPolyline
 62
7
  6
CONTINUOUS
 90
3
 70
0
 10
-34.7460650486
 20
55.2421948507
 10
-34.999260232
 20
55.0340485783
 10
-35.1880734102
 20
54.7752234079
  0
LINE
  5
21A
100
AcDbEntity
  8
RACCORDO
100
AcDbLine
 62
7
  6
CONTINUOUS
 10
-31.9807640245
 20
56.9644807028
 11
-34.747235358
 21
55.2414829312
  0
LINE
  5
21B
100
AcDbEntity
  8
RACCORDO
100
AcDbLine
 62
7
  6
CONTINUOUS
 10
-31.1343937229
 20
56.910142786
 11
-33.8609062519
 21
55.2120079887
  0
LINE
  5
21C
100
AcDbEntity
  8
RACCORDO
100
AcDbLine
 62
7
  6
CONTINUOUS
 10
-33.9736793755
 20
55.1444620405
 11
-33.8609061633
 21
55.212006085
  0
LWPOLYLINE
  5
21D
100
AcDbEntity
  8
RACCORDO
100
AcDbPolyline
 62
7
  6
CONTINUOUS
 90
6
 70
0
 10
-31.9787915979
 20
56.9605340727
 10
-31.9384591861
 20
56.9843776358
 10
-31.7612551103
 20
57.0488527538
 10
-31.5706573096
 20
57.0560331619
 10
-31.3617128019
 20
57.0097924153
 10
-31.1343937227
 20
56.9101427859
  0
LINE
  5
21E
100
AcDbEntity
  8
DRAFT
100
AcDbLine
 62
7
  6
CONTINUOUS
 10
-30.1617085908
 20
56.866403863
 11
-30.5992605006
 21
56.6100956505
  0
LINE
  5
21F
100
AcDbEntity
  8
DRAFT
100
AcDbLine
 62
7
  6
CONTINUOUS
 10
-29.6926289013
 20
56.849856732
 11
-30.3576815222
 21
56.4746432483
  0
LWPOLYLINE
  5
220
100
AcDbEntity
  8
DRAFT
100
AcDbPolyline
 62
7
  6
CONTINUOUS
 90
12
 70
0
 10
-30.1616822799
 20
56.8664192739
 10
-30.1228414686
 20
56.8862335601
 10
-30.085188854
 20
56.9004202836
 10
-30.0460713871
 20
56.9106309762
 10
-30.0055629002
 20
56.9168989126
 10
-29.9635919721
 20
56.9192306853
 10
-29.9201582342
 20
56.9175628257
 10
-29.8755956601
 20
56.9118460865
 10
-29.8303363645
 20
56.9021289849
 10
-29.7846636766
 20
56.8885072046
 10
-29.7386951773
 20
56.8710501218
 10
-29.6926289013
 20
56.849856732
  0
LWPOLYLINE
  5
221
100
AcDbEntity
  8
RACCORDO
100
AcDbPolyline
 62
7
  6
CONTINUOUS
 90
3
 70
0
 10
-34.1835184429
 20
54.952633483
 10
-34.0822443078
 20
55.0571784164
 10
-33.9736793755
 20
55.1444620405
  0
LWPOLYLINE
  5
222
100
AcDbEntity
  8
RACCORDO
100
AcDbPolyline
 62
7
  6
CONTINUOUS
 90
4
 70
0
 10
30.2854169392
 20
-58.6944804147
 10
30.4800020927
 20
-58.7086802748
 10
30.6697941954
 20
-58.697048859
 10
30.8511675129
 20
-58.6608609243
  0
LWPOLYLINE
  5
223
100
AcDbEntity
  8
RACCORDO
100
AcDbPolyline
 62
7
  6
CONTINUOUS
 90
3
 70
0
 10
-35.1880734102
 20
54.7752234079
 10
-35.316505958
 20
54.4680808443
 10
-35.3800892413
 20
54.1171534774
  0
LINE
  5
224
100
AcDbEntity
  8
RACCORDO
100
AcDbLine
 62
7
  6
CONTINUOUS
 10
30.0902421549
 20
-58.654240171
 11
30.2854169392
 21
-58.6944804147
  0
LWPOLYLINE
  5
225
100
AcDbEntity
  8
RACCORDO
100
AcDbPolyline
 62
7
  6
CONTINUOUS
 90
10
 70
0
 10
30.3768041552
 20
-57.5539031033
 10
30.4932873087
 20
-57.5972312707
 10
30.6221881358
 20
-57.630631204
 10
30.760152407
 20
-57.6532337774
 10
30.9035900456
 20
-57.6644508315
 10
31.0487685485
 20
-57.6639904786
 10
31.1919101119
 20
-57.6518646979
 10
31.3292899369
 20
-57.6283890239
 10
31.4573331553
 20
-57.5941743354
 10
31.5727078541
 20
-57.5501109598
  0
LWPOLYLINE
  5
226
100
AcDbEntity
  8
RACCORDO
100
AcDbPolyline
 62
7
  6
CONTINUOUS
 90
14
 70
0
 10
29.6242065494
 20
-58.0850821044
 10
29.6793975835
 20
-58.1071103491
 10
29.7339582661
 20
-58.1242622412
 10
29.7878884256
 20
-58.1365378775
 10
29.8414886438
 20
-58.1440275112
 10
29.8944580543
 20
-58.1466410498
 10
29.945894081
 20
-58.1441082043
 10
29.9958231943
 20
-58.1363224795
 10
30.0442181596
 20
-58.1233908042
 10
30.0900953925
 20
-58.1053632813
 10
30.1334142407
 20
-58.0820879931
 10
30.1742142432
 20
-58.0537174903
 10
30.2116317443
 20
-58.020758783
 10
30.2455635909
 20
-57.9830761535
  0
LWPOLYLINE
  5
227
100
AcDbEntity
  8
RACCORDO
100
AcDbPolyline
 62
7
  6
CONTINUOUS
 90
3
 70
0
 10
29.8572068606
 20
-58.5714371243
 10
29.8969872796
 20
-58.5883302774
 10
30.0902421549
 20
-58.654240171
  0
LINE
  5
228
100
AcDbEntity
  8
RACCORDO
100
AcDbLine
 62
7
  6
CONTINUOUS
 10
29.8563300481
 20
-58.5710529695
 11
29.8572068606
 21
-58.5714371243
  0
LINE
  5
229
100
AcDbEntity
  8
RACCORDO
100
AcDbLine
 62
7
  6
CONTINUOUS
 10
22.8355389001
 20
-55.4400320308
 11
29.8563294633
 21
-58.5710543108
  0
LINE
  5
22A
100
AcDbEntity
  8
RACCORDO
100
AcDbLine
 62
7
  6
CONTINUOUS
 10
-34.4476920231
 20
-26.3917962177
 11
-34.270460462
 21
-26.5074274057
  0
LINE
  5
22B
100
AcDbEntity
  8
RACCORDO
100
AcDbLine
 62
7
  6
CONTINUOUS
 10
-34.7177654384
 20
-26.1502688438
 11
-34.4476920231
 21
-26.3917962177
  0
LWPOLYLINE
  5
22C
100
AcDbEntity
  8
RACCORDO
100
AcDbPolyline
 62
7
  6
CONTINUOUS
 90
5
 70
0
 10
-34.6922157716
 20
-25.8771753038
 10
-34.6450714189
 20
-25.9200579559
 10
-34.5976272575
 20
-25.95846948
 10
-34.5496185951
 20
-25.9926022602
 10
-34.5010452379
 20
-26.0224562108
  0
LWPOLYLINE
  5
22D
100
AcDbEntity
  8
RACCORDO
100
AcDbPolyline
 62
7
  6
CONTINUOUS
 90
4
 70
0
 10
-35.2833708953
 20
-25.1559588786
 10
-35.1477062542
 20
-25.5096159816
 10
-34.9578644814
 20
-25.8467744275
 10
-34.7177654384
 20
-26.1502688438
  0
LWPOLYLINE
  5
22E
100
AcDbEntity
  8
RACCORDO
100
AcDbPolyline
 62
7
  6
CONTINUOUS
 90
6
 70
0
 10
-34.5010451026
 20
-26.0224561513
 10
-34.491456009
 20
-26.1491024679
 10
-34.4629572182
 20
-26.263711019
 10
-34.4163579059
 20
-26.363027685
 10
-34.3529811824
 20
-26.4442325337
 10
-34.2704611428
 20
-26.5074286182
  0
LINE
  5
22F
100
AcDbEntity
  8
RACCORDO
100
AcDbLine
 62
7
  6
CONTINUOUS
 10
-35.3861156827
 20
-24.4862655892
 11
-35.3654822264
 21
-24.7825513569
  0
LINE
  5
230
100
AcDbEntity
  8
RACCORDO
100
AcDbLine
 62
7
  6
CONTINUOUS
 10
-35.1607579578
 20
53.7294136143
 11
-35.1625336199
 21
53.6663010964
  0
LINE
  5
231
100
AcDbEntity
  8
RACCORDO
100
AcDbLine
 62
7
  6
CONTINUOUS
 10
-35.3800892413
 20
54.1171534774
 11
-35.386074224
 21
53.9676073465
  0
LWPOLYLINE
  5
232
100
AcDbEntity
  8
RACCORDO
100
AcDbPolyline
 62
7
  6
CONTINUOUS
 90
7
 70
0
 10
-34.5010452351
 20
54.1519254868
 10
-34.4914560054
 20
54.2870156144
 10
-34.462957107
 20
54.4267118983
 10
-34.4163577177
 20
54.5670478996
 10
-34.352980948
 20
54.7040390157
 10
-34.2746262737
 20
54.8337956163
 10
-34.1835184429
 20
54.952633483
  0
LWPOLYLINE
  5
233
100
AcDbEntity
  8
RACCORDO
100
AcDbPolyline
 62
7
  6
CONTINUOUS
 90
10
 70
0
 10
-34.5010452379
 20
-26.0224562108
 10
-27.7856939073
 20
-29.7833712599
 10
-20.9646851293
 20
-33.4963731724
 10
-14.0393847349
 20
-37.1607201869
 10
-7.0112049908
 20
-40.7756672952
 10
0.1184717959
 20
-44.3405057237
 10
7.3482972086
 20
-47.8545612535
 10
14.6768537208
 20
-51.3171427202
 10
22.1026513357
 20
-54.7275439795
 10
29.6242065494
 20
-58.0850821044
  0
LWPOLYLINE
  5
234
100
AcDbEntity
  8
RACCORDO
100
AcDbPolyline
 62
7
  6
CONTINUOUS
 90
9
 70
0
 10
-34.270018249
 20
-26.5076806143
 10
-28.0590704153
 20
-29.9898050347
 10
-21.10613244
 20
-33.7815689676
 10
-14.0447638841
 20
-37.5226199147
 10
-6.8766199313
 20
-41.2120778089
 10
0.3968792429
 20
-44.8492302536
 10
7.7744201149
 20
-48.4334280491
 10
15.2545658441
 20
-51.9639693014
 10
22.8355389001
 20
-55.4400320308
  0
LINE
  5
235
100
AcDbEntity
  8
RACCORDO
100
AcDbLine
 62
7
  6
CONTINUOUS
 10
-34.2704611428
 20
-26.5074286182
 11
-34.270018249
 21
-26.5076806143
  0
LWPOLYLINE
  5
236
100
AcDbEntity
  8
RACCORDO
100
AcDbPolyline
 62
7
  6
CONTINUOUS
 90
6
 70
0
 10
-35.1625336199
 20
-24.7842342158
 10
-35.2491899186
 20
-24.725992674
 10
-35.3159897755
 20
-24.6615422908
 10
-35.3611949327
 20
-24.592560177
 10
-35.3836290639
 20
-24.520841368
 10
-35.3861189899
 20
-24.4873911641
  0
LWPOLYLINE
  5
237
100
AcDbEntity
  8
RACCORDO
100
AcDbPolyline
 62
7
  6
CONTINUOUS
 90
13
 70
0
 10
-35.1172938799
 20
-25.1239054982
 10
-35.0975012253
 20
-25.1947529967
 10
-35.0741395746
 20
-25.2656803474
 10
-35.0473158947
 20
-25.3366364107
 10
-35.0175174417
 20
-25.4061841899
 10
-34.9846535242
 20
-25.4742836066
 10
-34.9488134677
 20
-25.540974139
 10
-34.9107547482
 20
-25.604938211
 10
-34.8704415348
 20
-25.666060957
 10
-34.8279083927
 20
-25.7244566858
 10
-34.7840188012
 20
-25.779151763
 10
-34.7387959449
 20
-25.8300140503
 10
-34.6922157716
 20
-25.8771753038
  0
LINE
  5
238
100
AcDbEntity
  8
RACCORDO
100
AcDbLine
 62
7
  6
CONTINUOUS
 10
-35.1336256013
 20
-25.0530871935
 11
-35.1172938799
 21
-25.1239054982
  0
LINE
  5
239
100
AcDbEntity
  8
RACCORDO
100
AcDbLine
 62
7
  6
CONTINUOUS
 10
-35.3654822264
 20
-24.7825513569
 11
-35.2833708953
 21
-25.1559588786
  0
LWPOLYLINE
  5
23A
100
AcDbEntity
  8
RACCORDO
100
AcDbPolyline
 62
7
  6
CONTINUOUS
 90
5
 70
0
 10
-35.1625336199
 20
-24.7842342158
 10
-35.1607579577
 20
-24.8493698215
 10
-35.1553573526
 20
-24.9158192289
 10
-35.1463316622
 20
-24.9835823754
 10
-35.1336256013
 20
-25.0530871935
  0
LINE
  5
23B
100
AcDbEntity
  8
RACCORDO
100
AcDbLine
 62
7
  6
CONTINUOUS
 10
-35.3861189899
 20
53.9631441729
 11
-35.3861189899
 21
-24.4873911533
  0
LINE
  5
23C
100
AcDbEntity
  8
RACCORDO
100
AcDbLine
 62
7
  6
CONTINUOUS
 10
-35.1625336199
 20
53.6663010964
 11
-35.1625336199
 21
-24.7842342158
  0
LWPOLYLINE
  5
23D
100
AcDbEntity
  8
RACCORDO
100
AcDbPolyline
 62
7
  6
CONTINUOUS
 90
12
 70
0
 10
-20.1899718457
 20
28.4719676737
 10
-20.2216662281
 20
28.4503136953
 10
-20.2584124018
 20
28.4193422859
 10
-20.2920058999
 20
28.3841461679
 10
-20.3222946434
 20
28.3449897827
 10
-20.3491519455
 20
28.3021729692
 10
-20.3725259876
 20
28.2559155033
 10
-20.392419251
 20
28.2063104934
 10
-20.4087571158
 20
28.1535887397
 10
-20.4214926168
 20
28.0979337158
 10
-20.4306053494
 20
28.0393066996
 10
-20.4360056546
 20
27.9778257138
  0
LINE
  5
23E
100
AcDbEntity
  8
RACCORDO
100
AcDbLine
 62
7
  6
CONTINUOUS
 10
-19.6650974476
 20
28.7967969388
 11
-20.1901390795
 21
28.4718650129
  0
LWPOLYLINE
  5
23F
100
AcDbEntity
  8
RACCORDO
100
AcDbPolyline
 62
7
  6
CONTINUOUS
 90
13
 70
0
 10
-19.4255325101
 20
28.6866622948
 10
-19.7785644878
 20
28.4681567597
 10
-19.7873815247
 20
28.4612639629
 10
-19.7957825933
 20
28.4531878359
 10
-19.8036337229
 20
28.4440571676
 10
-19.8108097128
 20
28.4340175633
 10
-19.8171961284
 20
28.4232291233
 10
-19.8226911266
 20
28.4118638892
 10
-19.8272070793
 20
28.4001031007
 10
-19.8306719714
 20
28.3881343054
 10
-19.8330305487
 20
28.376148368
 10
-19.8342451993
 20
28.3643364265
 10
-19.8342965534
 20
28.3528868442
  0
LWPOLYLINE
  5
240
100
AcDbEntity
  8
RACCORDO
100
AcDbPolyline
 62
7
  6
CONTINUOUS
 90
19
 70
0
 10
-20.1899594724
 20
28.471975333
 10
-20.1859702473
 20
28.4744046555
 10
-20.1620076064
 20
28.4875524309
 10
-20.1372605677
 20
28.4987414245
 10
-20.111790012
 20
28.5079807261
 10
-20.0856681261
 20
28.51528404
 10
-20.0592167662
 20
28.5206281279
 10
-20.0325186258
 20
28.5240861992
 10
-20.0056538441
 20
28.5257373572
 10
-19.9789696558
 20
28.5256707083
 10
-19.9525510037
 20
28.5240163226
 10
-19.9264722866
 20
28.5209049451
 10
-19.9010790832
 20
28.5165187785
 10
-19.8764417176
 20
28.5110259269
 10
-19.8526187252
 20
28.5045885492
 10
-19.8299399412
 20
28.4974537699
 10
-19.8085453116
 20
28.4898383566
 10
-19.7883796472
 20
28.4818863014
 10
-19.7694720833
 20
28.4737562727
  0
LWPOLYLINE
  5
241
100
AcDbEntity
  8
RACCORDO
100
AcDbPolyline
 62
7
  6
CONTINUOUS
 90
10
 70
0
 10
-19.2750533799
 20
26.9298580761
 10
-19.2795093832
 20
26.9271850528
 10
-19.2846059617
 20
26.9237615532
 10
-19.2903160023
 20
26.9196057875
 10
-19.2966091283
 20
26.9147398609
 10
-19.3034518612
 20
26.9091896567
 10
-19.3108077992
 20
26.902984698
 10
-19.31863781
 20
26.8961579912
 10
-19.3269002397
 20
26.8887458497
 10
-19.3355511341
 20
26.8807877016
  0
LINE
  5
242
100
AcDbEntity
  8
RACCORDO
100
AcDbLine
 62
7
  6
CONTINUOUS
 10
-20.3121584307
 20
28.9391673765
 11
-20.3086471213
 21
28.9408793319
  0
LINE
  5
243
100
AcDbEntity
  8
RACCORDO
100
AcDbLine
 62
7
  6
CONTINUOUS
 10
-19.9484850969
 20
28.6568976121
 11
-20.5887674548
 21
28.3486715115
  0
LWPOLYLINE
  5
244
100
AcDbEntity
  8
RACCORDO
100
AcDbPolyline
 62
7
  6
CONTINUOUS
 90
6
 70
0
 10
-20.3122050876
 20
28.9391449275
 10
-20.2491391123
 20
28.962617944
 10
-20.1866735184
 20
28.9727735819
 10
-20.1200346452
 20
28.9720901864
 10
-20.0498971155
 20
28.9605281772
 10
-19.9771452459
 20
28.9382185689
  0
LINE
  5
245
100
AcDbEntity
  8
RACCORDO
100
AcDbLine
 62
7
  6
CONTINUOUS
 10
-18.1859724249
 20
25.4782835243
 11
-18.258928624
 21
25.4498880812
  0
LWPOLYLINE
  5
246
100
AcDbEntity
  8
RACCORDO
100
AcDbPolyline
 62
7
  6
CONTINUOUS
 90
31
 70
0
 10
-18.258928624
 20
25.4498880812
 10
-18.2738585277
 20
25.4442274193
 10
-18.28927378
 20
25.4390325988
 10
-18.3051743808
 20
25.4343036196
 10
-18.3216414308
 20
25.4299662669
 10
-18.3385938295
 20
25.4260947555
 10
-18.3557882745
 20
25.4229117299
 10
-18.3732172782
 20
25.4204415486
 10
-18.3908883282
 20
25.4186598531
 10
-18.4085805858
 20
25.4177162129
 10
-18.426295111
 20
25.4176362659
 10
-18.4440308438
 20
25.4183943742
 10
-18.4615637643
 20
25.4200631943
 10
-18.4788874514
 20
25.4226723805
 10
-18.4960083262
 20
25.4261922786
 10
-18.5127216329
 20
25.4306065821
 10
-18.5290139274
 20
25.4359449187
 10
-18.5448986537
 20
25.4421776609
 10
-18.560211388
 20
25.4491996199
 10
-18.5749336367
 20
25.4570364002
 10
-18.5890838934
 20
25.4656623974
 10
-18.6025532148
 20
25.4748956101
 10
-18.6153211168
 20
25.484754798
 10
-18.6274080834
 20
25.4952212014
 10
-18.6387666235
 20
25.5060565398
 10
-18.6493779068
 20
25.517272469
 10
-18.6592607636
 20
25.5288573332
 10
-18.6684241926
 20
25.5405378845
 10
-18.6768711936
 20
25.5522230403
 10
-18.6845987669
 20
25.5640038833
 10
-18.6916069124
 20
25.5758804133
  0
LINE
  5
247
100
AcDbEntity
  8
DRAFT
100
AcDbLine
 62
7
  6
CONTINUOUS
 10
35.3611949679
 20
-19.1768401299
 11
34.6457811273
 21
-19.3521169553
  0
LWPOLYLINE
  5
248
100
AcDbEntity
  8
RACCORDO
100
AcDbPolyline
 62
7
  6
CONTINUOUS
 90
6
 70
0
 10
13.4463081789
 20
-33.1394430848
 10
13.4228092455
 20
-33.1351934749
 10
13.4000335415
 20
-33.1299290274
 10
13.3783943943
 20
-33.1241674405
 10
13.3580294719
 20
-33.1180813381
 10
13.3388008385
 20
-33.1114982394
  0
LINE
  5
249
100
AcDbEntity
  8
RACCORDO
100
AcDbLine
 62
7
  6
CONTINUOUS
 10
13.7518076685
 20
-33.6928138014
 11
13.6797347858
 21
-33.6753824192
  0
LINE
  5
24A
100
AcDbEntity
  8
RACCORDO
100
AcDbLine
 62
7
  6
CONTINUOUS
 10
14.2991367093
 20
-33.1979905058
 11
14.3618003315
 21
-33.2149985428
  0
LINE
  5
24B
100
AcDbEntity
  8
RACCORDO
100
AcDbLine
 62
7
  6
CONTINUOUS
 10
13.6797347858
 20
-33.6753824192
 11
13.6043635436
 21
-33.6505226521
  0
LINE
  5
24C
100
AcDbEntity
  8
RACCORDO
100
AcDbLine
 62
7
  6
CONTINUOUS
 10
13.7363583279
 20
-33.5490668067
 11
13.6676765423
 21
-33.5256903975
  0
LWPOLYLINE
  5
24D
100
AcDbEntity
  8
RACCORDO
100
AcDbPolyline
 62
7
  6
CONTINUOUS
 90
3
 70
0
 10
-20.4070261031
 20
27.9681543675
 10
-20.4047137171
 20
27.9909406049
 10
-20.4015627024
 20
28.0142999317
  0
LWPOLYLINE
  5
24E
100
AcDbEntity
  8
RACCORDO
100
AcDbPolyline
 62
7
  6
CONTINUOUS
 90
34
 70
0
 10
-20.4015627024
 20
28.0142999317
 10
-20.3975531304
 20
28.0383290655
 10
-20.3927048898
 20
28.0629313074
 10
-20.3868232735
 20
28.0875666053
 10
-20.3798867062
 20
28.1122159201
 10
-20.3719166751
 20
28.1368983319
 10
-20.3627830432
 20
28.1611309782
 10
-20.3524547854
 20
28.18490696
 10
-20.3409627758
 20
28.2082332468
 10
-20.3282697037
 20
28.23064779
 10
-20.3143421414
 20
28.2521272037
 10
-20.2992133036
 20
28.2726949732
 10
-20.2829458316
 20
28.2919593617
 10
-20.2655004569
 20
28.3098878952
 10
-20.2469161921
 20
28.3265131673
 10
-20.2273731157
 20
28.3415410345
 10
-20.2068217906
 20
28.3549241905
 10
-20.1853113963
 20
28.3667100621
 10
-20.1631699958
 20
28.3767465783
 10
-20.1403672339
 20
28.3849630815
 10
-20.1169332761
 20
28.391430318
 10
-20.0932870743
 20
28.3962082727
 10
-20.0694175807
 20
28.3992277146
 10
-20.0453357759
 20
28.4005579063
 10
-20.0214937892
 20
28.4004665095
 10
-19.9978974736
 20
28.3988990269
 10
-19.9745410522
 20
28.3959099203
 10
-19.9518593468
 20
28.3919302262
 10
-19.9298684157
 20
28.3869266152
 10
-19.9085524011
 20
28.3809323229
 10
-19.8882983684
 20
28.3744781789
 10
-19.8692354546
 20
28.3677410721
 10
-19.8512348089
 20
28.3605439796
 10
-19.8342965573
 20
28.3528868424
  0
LINE
  5
24F
100
AcDbEntity
  8
RACCORDO
100
AcDbLine
 62
7
  6
CONTINUOUS
 10
-19.9047240959
 20
28.9516325559
 11
-19.9355833803
 21
28.8153874937
  0
LWPOLYLINE
  5
250
100
AcDbEntity
  8
RACCORDO
100
AcDbPolyline
 62
7
  6
CONTINUOUS
 90
5
 70
0
 10
-18.2468128436
 20
25.5087037337
 10
-18.2500049408
 20
25.5007023516
 10
-18.2544020688
 20
25.4848959829
 10
-18.257387495
 20
25.4678960239
 10
-18.258928624
 20
25.4498880812
  0
LINE
  5
251
100
AcDbEntity
  8
0
100
AcDbLine
 62
7
  6
CONTINUOUS
 10
-15.0775514304
 20
22.3361091524
 11
-16.9461778919
 21
21.4409076878
  0
LINE
  5
252
100
AcDbEntity
  8
0
100
AcDbLine
 62
7
  6
CONTINUOUS
 10
-14.7019651401
 20
22.1413896542
 11
-16.9461778919
 21
21.1633306746
  0
LINE
  5
253
100
AcDbEntity
  8
DRAFT
100
AcDbLine
 62
7
  6
CONTINUOUS
 10
34.8662202211
 20
-18.6521511882
 11
34.6457811273
 21
-18.7061589
  0
LWPOLYLINE
  5
254
100
AcDbEntity
  8
COPIA_X_PUBLISH
100
AcDbPolyline
 62
7
  6
CONTINUOUS
 90
3
 70
0
 10
9.0526691887
 20
-23.8806358899
 10
9.0417310704
 20
-23.8817638022
 10
9.0314508319
 20
-23.8839397371
  0
LWPOLYLINE
  5
255
100
AcDbEntity
  8
0
100
AcDbPolyline
 62
7
  6
CONTINUOUS
 90
5
 70
0
 10
-0.7742644656
 20
-24.1380312502
 10
-0.7682250581
 20
-24.1389490536
 10
-0.7619758206
 20
-24.1390254082
 10
-0.7555167531
 20
-24.1382603142
 10
-0.7534998673
 20
-24.1377313394
  0
LWPOLYLINE
  5
256
100
AcDbEntity
  8
0
100
AcDbPolyline
 62
7
  6
CONTINUOUS
 90
10
 70
0
 10
-0.9599398366
 20
-23.2472831826
 10
-0.9343059529
 20
-23.2532318025
 10
-0.9092088572
 20
-23.2602608444
 10
-0.8846485492
 20
-23.2683703083
 10
-0.8606518305
 20
-23.277543148
 10
-0.8371918996
 20
-23.2877964096
 10
-0.8141883527
 20
-23.2991812319
 10
-0.7916143885
 20
-23.3117146613
 10
-0.7694968083
 20
-23.3253796514
 10
-0.7478356121
 20
-23.3401762022
  0
LWPOLYLINE
  5
257
100
AcDbEntity
  8
0
100
AcDbPolyline
 62
7
  6
CONTINUOUS
 90
4
 70
0
 10
-1.1884303457
 20
-22.8584139345
 10
-1.1549390014
 20
-22.8670934262
 10
-1.1215943852
 20
-22.8761639952
 10
-1.0883964974
 20
-22.8856256415
  0
LWPOLYLINE
  5
258
100
AcDbEntity
  8
RACCORDO
100
AcDbPolyline
 62
7
  6
CONTINUOUS
 90
10
 70
0
 10
13.3523233715
 20
-33.1609285457
 10
13.4017403651
 20
-33.1785129354
 10
13.4544679199
 20
-33.1929895078
 10
13.5066121519
 20
-33.2028664252
 10
13.5579458219
 20
-33.2081278183
 10
13.60820102
 20
-33.2087777767
 10
13.6571684508
 20
-33.2048494729
 10
13.7045899223
 20
-33.1963985287
 10
13.7501079719
 20
-33.1835515051
 10
13.7721166834
 20
-33.1755120865
  0
LINE
  5
259
100
AcDbEntity
  8
RACCORDO
100
AcDbLine
 62
7
  6
CONTINUOUS
 10
13.3388008385
 20
-33.1114982394
 11
13.3207083761
 21
-33.1044182076
  0
LINE
  5
25A
100
AcDbEntity
  8
RACCORDO
100
AcDbLine
 62
7
  6
CONTINUOUS
 10
13.3207083761
 20
-33.1044182076
 11
11.6155524028
 21
-32.4204354582
  0
LINE
  5
25B
100
AcDbEntity
  8
RACCORDO
100
AcDbLine
 62
7
  6
CONTINUOUS
 10
11.1273453247
 20
-32.2675125679
 11
13.3523248371
 21
-33.1609291555
  0
LWPOLYLINE
  5
25C
100
AcDbEntity
  8
RACCORDO
100
AcDbPolyline
 62
7
  6
CONTINUOUS
 90
23
 70
0
 10
12.7584066286
 20
-31.6829198775
 10
11.6140425372
 20
-31.2222848946
 10
10.5063875715
 20
-30.7702399922
 10
9.4354417315
 20
-30.3267851701
 10
8.4025211286
 20
-29.8918770649
 10
7.4063096514
 20
-29.4655590402
 10
6.442858966
 20
-29.0479611863
 10
5.5121306968
 20
-28.6392000257
 10
4.6141632193
 20
-28.239159036
 10
3.7451233261
 20
-27.8476187412
 10
2.9049638147
 20
-27.4646736438
 10
2.0937318875
 20
-27.0902292412
 10
1.3077359448
 20
-26.7237825492
 10
0.5466885618
 20
-26.3652908393
 10
-0.1891228368
 20
-26.0147968399
 10
-0.9025275761
 20
-25.6719257522
 10
-1.5937185863
 20
-25.3366527599
 10
-2.2625029373
 20
-25.0090026792
 10
-2.9111311637
 20
-24.6886751602
 10
-3.5396183128
 20
-24.3757186136
 10
-4.1479493374
 20
-24.0700846288
 10
-4.7383296299
 20
-23.7713276235
 10
-5.3109807736
 20
-23.4793793413
  0
LINE
  5
25D
100
AcDbEntity
  8
RACCORDO
100
AcDbLine
 62
7
  6
CONTINUOUS
 10
14.3854943683
 20
-32.9842024767
 11
14.3230920141
 21
-32.9589956339
  0
LWPOLYLINE
  5
25E
100
AcDbEntity
  8
RACCORDO
100
AcDbPolyline
 62
7
  6
CONTINUOUS
 90
15
 70
0
 10
12.8754400543
 20
-31.8260417348
 10
10.6581760735
 20
-30.9302389885
 10
8.4500411525
 20
-30.008586917
 10
6.251073482
 20
-29.0611058432
 10
4.06131616
 20
-28.0878147044
 10
1.8808018753
 20
-27.0887354605
 10
-0.2904468819
 20
-26.0638929856
 10
-2.4522911858
 20
-25.0133621592
 10
-4.6047957228
 20
-23.9371096698
 10
-6.7482394271
 20
-22.8349960806
 10
-8.8826815715
 20
-21.7069927007
 10
-11.0079797591
 20
-20.5531653464
 10
-13.124106391
 20
-19.3735143539
 10
-15.2310249572
 20
-18.1680524441
 10
-17.328690233
 20
-16.9368048178
  0
LWPOLYLINE
  5
25F
100
AcDbEntity
  8
RACCORDO
100
AcDbPolyline
 62
7
  6
CONTINUOUS
 90
7
 70
0
 10
13.6043635436
 20
-33.6505226521
 10
9.7661273645
 20
-32.0951051373
 10
5.9542804093
 20
-30.461978772
 10
2.1690414488
 20
-28.7512380486
 10
-1.5896852452
 20
-26.9628228744
 10
-5.321365773
 20
-25.0969825441
 10
-9.0248597146
 20
-23.1542872815
  0
LWPOLYLINE
  5
260
100
AcDbEntity
  8
RACCORDO
100
AcDbPolyline
 62
7
  6
CONTINUOUS
 90
7
 70
0
 10
13.6676766612
 20
-33.5256924921
 10
9.8322602262
 20
-31.9715184732
 10
6.0216031726
 20
-30.3389596549
 10
2.2368240801
 20
-28.6284615587
 10
-1.5205786237
 20
-26.8406826552
 10
-5.2501591056
 20
-24.9758936774
 10
-8.9523507818
 20
-23.0338782444
  0
LINE
  5
261
100
AcDbEntity
  8
RACCORDO
100
AcDbLine
 62
7
  6
CONTINUOUS
 10
14.2991367093
 20
-33.1979905058
 11
14.0115170125
 21
-33.0814352466
  0
LWPOLYLINE
  5
262
100
AcDbEntity
  8
RACCORDO
100
AcDbPolyline
 62
7
  6
CONTINUOUS
 90
23
 70
0
 10
11.6155524028
 20
-32.4204354582
 10
9.9717420241
 20
-31.7467773273
 10
8.3887879588
 20
-31.0837192128
 10
6.8681283308
 20
-30.4313347641
 10
5.4073782278
 20
-29.7900747204
 10
4.0003823809
 20
-29.1607398174
 10
2.6508873064
 20
-28.5458003172
 10
1.3543636073
 20
-27.9432093494
 10
0.0924425283
 20
-27.3468857978
 10
-1.1305437964
 20
-26.7597285609
 10
-2.3193890175
 20
-26.1790877773
 10
-3.5057860193
 20
-25.5903728589
 10
-4.6896780565
 20
-24.9943097766
 10
-5.8711043019
 20
-24.3901768946
 10
-7.0814541632
 20
-23.7609885375
 10
-8.3250652427
 20
-23.1048245426
 10
-9.5970885675
 20
-22.4233677982
 10
-10.9147599226
 20
-21.704854404
 10
-12.2817990916
 20
-20.9471901569
 10
-13.6936246905
 20
-20.1520707709
 10
-15.1548124093
 20
-19.3133189903
 10
-16.6665190155
 20
-18.4287088633
 10
-18.2265320489
 20
-17.4999899252
  0
LWPOLYLINE
  5
263
100
AcDbEntity
  8
RACCORDO
100
AcDbPolyline
 62
7
  6
CONTINUOUS
 90
9
 70
0
 10
13.3523233609
 20
-33.1609285725
 10
13.3492272936
 20
-33.1595460474
 10
13.3425220217
 20
-33.1553034512
 10
13.3365587793
 20
-33.1496673373
 10
13.3314326615
 20
-33.1427275841
 10
13.3272254137
 20
-33.1345948588
 10
13.3240041282
 20
-33.1253988528
 10
13.3218201745
 20
-33.1152862135
 10
13.3207083797
 20
-33.1044182057
  0
LWPOLYLINE
  5
264
100
AcDbEntity
  8
RACCORDO
100
AcDbPolyline
 62
7
  6
CONTINUOUS
 90
10
 70
0
 10
-20.7319916434
 20
-15.4177504608
 10
-20.7188051166
 20
-15.423669373
 10
-20.7037361509
 20
-15.428331584
 10
-20.68725794
 20
-15.4315906919
 10
-20.6698879301
 20
-15.4333443546
 10
-20.6521715719
 20
-15.4335375037
 10
-20.634665192
 20
-15.4321640742
 10
-20.6179185231
 20
-15.4292671942
 10
-20.6024574418
 20
-15.4249378311
 10
-20.5887674548
 20
-15.4193119351
  0
LINE
  5
265
100
AcDbEntity
  8
0
100
AcDbLine
 62
7
  6
CONTINUOUS
 10
-1.8572249033
 20
-24.7333193474
 11
-1.5926337483
 21
-24.8656149248
  0
LINE
  5
266
100
AcDbEntity
  8
0
100
AcDbLine
 62
7
  6
CONTINUOUS
 10
-1.1858119635
 20
-25.0690258172
 11
-0.9302778352
 21
-25.1967928814
  0
LINE
  5
267
100
AcDbEntity
  8
0
100
AcDbLine
 62
7
  6
CONTINUOUS
 10
-5.46482779
 20
-22.9295177674
 11
-5.2307146342
 21
-23.0465743453
  0
LINE
  5
268
100
AcDbEntity
  8
0
100
AcDbLine
 62
7
  6
CONTINUOUS
 10
-4.7230338856
 20
-23.3004147196
 11
-4.4573738679
 21
-23.4332447284
  0
LINE
  5
269
100
AcDbEntity
  8
0
100
AcDbLine
 62
7
  6
CONTINUOUS
 10
-4.3143608143
 20
-23.5047512552
 11
-4.0602103737
 21
-23.6318264755
  0
LINE
  5
26A
100
AcDbEntity
  8
0
100
AcDbLine
 62
7
  6
CONTINUOUS
 10
-3.6912300345
 20
-23.8163166451
 11
-3.653971164
 21
-23.8349460804
  0
LINE
  5
26B
100
AcDbEntity
  8
0
100
AcDbLine
 62
7
  6
CONTINUOUS
 10
-3.2835207497
 20
-24.0201712875
 11
-3.0236342589
 21
-24.1501145329
  0
LINE
  5
26C
100
AcDbEntity
  8
0
100
AcDbLine
 62
7
  6
CONTINUOUS
 10
-2.9819184944
 20
-24.1709724152
 11
-2.7191406439
 21
-24.3023613404
  0
LINE
  5
26D
100
AcDbEntity
  8
0
100
AcDbLine
 62
7
  6
CONTINUOUS
 10
-2.2152301887
 20
-24.554316568
 11
-1.9352357023
 21
-24.6943138112
  0
LINE
  5
26E
100
AcDbEntity
  8
0
100
AcDbLine
 62
7
  6
CONTINUOUS
 10
-5.3847429937
 20
-22.8894753692
 11
-5.1918156206
 21
-22.9859390558
  0
LINE
  5
26F
100
AcDbEntity
  8
0
100
AcDbLine
 62
7
  6
CONTINUOUS
 10
-4.6429490893
 20
-23.2603723214
 11
-4.4331307997
 21
-23.3652814662
  0
LINE
  5
270
100
AcDbEntity
  8
0
100
AcDbLine
 62
7
  6
CONTINUOUS
 10
-4.234276018
 20
-23.4647088571
 11
-4.0328219661
 21
-23.565435883
  0
LINE
  5
271
100
AcDbEntity
  8
0
100
AcDbLine
 62
7
  6
CONTINUOUS
 10
-3.2034359534
 20
-23.9801288894
 11
-3.003654807
 21
-24.0800194625
  0
LINE
  5
272
100
AcDbEntity
  8
0
100
AcDbLine
 62
7
  6
CONTINUOUS
 10
-2.9018336981
 20
-24.130930017
 11
-2.6871067254
 21
-24.2382935034
  0
LINE
  5
273
100
AcDbEntity
  8
0
100
AcDbLine
 62
7
  6
CONTINUOUS
 10
-2.1351453924
 20
-24.5142741699
 11
-1.9249821606
 21
-24.6193557858
  0
LINE
  5
274
100
AcDbEntity
  8
0
100
AcDbLine
 62
7
  6
CONTINUOUS
 10
-1.777140107
 20
-24.6932769492
 11
-1.5683906801
 21
-24.7976516626
  0
LINE
  5
275
100
AcDbEntity
  8
0
100
AcDbLine
 62
7
  6
CONTINUOUS
 10
-1.1057271672
 20
-25.0289834191
 11
-0.9180813992
 21
-25.1228063031
  0
LINE
  5
276
100
AcDbEntity
  8
0
100
AcDbLine
 62
7
  6
CONTINUOUS
 10
-2.5107413029
 20
-23.960291512
 11
-2.1489564823
 21
-24.1411839223
  0
LINE
  5
277
100
AcDbEntity
  8
0
100
AcDbLine
 62
7
  6
CONTINUOUS
 10
-2.4306565066
 20
-23.9202491138
 11
-2.068871686
 21
-24.1011415241
  0
LWPOLYLINE
  5
278
100
AcDbEntity
  8
RACCORDO
100
AcDbPolyline
 62
7
  6
CONTINUOUS
 90
3
 70
0
 10
-5.3109807736
 20
-23.4793793413
 10
-6.4039715081
 20
-22.915872902
 10
-6.9263762435
 20
-22.6438260373
  0
LINE
  5
279
100
AcDbEntity
  8
RACCORDO
100
AcDbLine
 62
7
  6
CONTINUOUS
 10
-6.9263762435
 20
-22.6438260373
 11
-7.9219225857
 21
-22.1201436762
  0
LINE
  5
27A
100
AcDbEntity
  8
RACCORDO
100
AcDbLine
 62
7
  6
CONTINUOUS
 10
-7.9219225857
 20
-22.1201436762
 11
-8.8516919019
 21
-21.6250466666
  0
LINE
  5
27B
100
AcDbEntity
  8
RACCORDO
100
AcDbLine
 62
7
  6
CONTINUOUS
 10
-8.8516919019
 20
-21.6250466666
 11
-9.7150886219
 21
-21.1601884741
  0
LINE
  5
27C
100
AcDbEntity
  8
RACCORDO
100
AcDbLine
 62
7
  6
CONTINUOUS
 10
-9.7150886219
 20
-21.1601884741
 11
-10.5136398198
 21
-20.7255707164
  0
LINE
  5
27D
100
AcDbEntity
  8
RACCORDO
100
AcDbLine
 62
7
  6
CONTINUOUS
 10
-9.0248597146
 20
-23.1542872815
 11
-12.6996685228
 21
-21.1350040568
  0
LINE
  5
27E
100
AcDbEntity
  8
RACCORDO
100
AcDbLine
 62
7
  6
CONTINUOUS
 10
-8.9523507818
 20
-23.0338782444
 11
-12.6266889884
 21
-21.0148190405
  0
LINE
  5
27F
100
AcDbEntity
  8
RACCORDO
100
AcDbLine
 62
7
  6
CONTINUOUS
 10
-10.5136398198
 20
-20.7255707164
 11
-11.2521620702
 21
-20.3197775169
  0
LINE
  5
280
100
AcDbEntity
  8
RACCORDO
100
AcDbLine
 62
7
  6
CONTINUOUS
 10
-11.2521620702
 20
-20.3197775169
 11
-11.9373613238
 21
-19.9400023119
  0
LINE
  5
281
100
AcDbEntity
  8
RACCORDO
100
AcDbLine
 62
7
  6
CONTINUOUS
 10
-11.9373613238
 20
-19.9400023119
 11
-12.8753275304
 21
-19.4147795435
  0
LINE
  5
282
100
AcDbEntity
  8
RACCORDO
100
AcDbLine
 62
7
  6
CONTINUOUS
 10
-12.8753275304
 20
-19.4147795435
 11
-13.7198751119
 21
-18.9366422123
  0
LINE
  5
283
100
AcDbEntity
  8
RACCORDO
100
AcDbLine
 62
7
  6
CONTINUOUS
 10
-13.7198751119
 20
-18.9366422123
 11
-14.4797183658
 21
-18.5022039855
  0
LINE
  5
284
100
AcDbEntity
  8
RACCORDO
100
AcDbLine
 62
7
  6
CONTINUOUS
 10
-12.6996685228
 20
-21.1350040568
 11
-16.3459124387
 21
-19.0390850323
  0
LINE
  5
285
100
AcDbEntity
  8
RACCORDO
100
AcDbLine
 62
7
  6
CONTINUOUS
 10
-12.6266889884
 20
-21.0148190405
 11
-16.2717741299
 21
-18.9195049113
  0
LINE
  5
286
100
AcDbEntity
  8
RACCORDO
100
AcDbLine
 62
7
  6
CONTINUOUS
 10
-14.4797183658
 20
-18.5022039855
 11
-15.161550448
 21
-18.1089189218
  0
LINE
  5
287
100
AcDbEntity
  8
RACCORDO
100
AcDbLine
 62
7
  6
CONTINUOUS
 10
-15.161550448
 20
-18.1089189218
 11
-15.9604933156
 21
-17.6438958198
  0
LINE
  5
288
100
AcDbEntity
  8
RACCORDO
100
AcDbLine
 62
7
  6
CONTINUOUS
 10
-15.9604933156
 20
-17.6438958198
 11
-16.651788004
 21
-17.2379027729
  0
LINE
  5
289
100
AcDbEntity
  8
RACCORDO
100
AcDbLine
 62
7
  6
CONTINUOUS
 10
-16.651788004
 20
-17.2379027729
 11
-17.4133508948
 21
-16.7867008951
  0
LINE
  5
28A
100
AcDbEntity
  8
RACCORDO
100
AcDbLine
 62
7
  6
CONTINUOUS
 10
-17.4133508948
 20
-16.7867008951
 11
-18.1296423996
 21
-16.3585331858
  0
LINE
  5
28B
100
AcDbEntity
  8
RACCORDO
100
AcDbLine
 62
7
  6
CONTINUOUS
 10
-16.3459124387
 20
-19.0390850323
 11
-19.9634025277
 21
-16.8666396164
  0
LINE
  5
28C
100
AcDbEntity
  8
RACCORDO
100
AcDbLine
 62
7
  6
CONTINUOUS
 10
-16.2717741299
 20
-18.9195049113
 11
-19.886606791
 21
-16.7485507256
  0
LINE
  5
28D
100
AcDbEntity
  8
RACCORDO
100
AcDbLine
 62
7
  6
CONTINUOUS
 10
-17.328690233
 20
-16.9368048178
 11
-19.4170616007
 21
-15.6797905831
  0
LWPOLYLINE
  5
28E
100
AcDbEntity
  8
RACCORDO
100
AcDbPolyline
 62
7
  6
CONTINUOUS
 90
15
 70
0
 10
-19.8135140374
 20
-16.5780272386
 10
-17.7168639755
 20
-17.8458695011
 10
-15.5587840857
 20
-19.118002078
 10
-13.3899101569
 20
-20.3633893434
 10
-11.2104251941
 20
-21.5819181503
 10
-9.0205010213
 20
-22.7734899603
 10
-6.8203159038
 20
-23.9379955328
 10
-4.610054824
 20
-25.075321488
 10
-2.3899123189
 20
-26.1853567092
 10
-0.1600871108
 20
-27.2680018724
 10
2.0792208352
 20
-28.3231711183
 10
4.3278145236
 20
-29.3507868362
 10
6.5854989431
 20
-30.3507718015
 10
8.8520793059
 20
-31.3230415282
 10
11.1273453247
 20
-32.2675125679
  0
LINE
  5
28F
100
AcDbEntity
  8
RACCORDO
100
AcDbLine
 62
7
  6
CONTINUOUS
 10
-18.1296423996
 20
-16.3585331858
 11
-18.857170853
 21
-15.9198751175
  0
LINE
  5
290
100
AcDbEntity
  8
RACCORDO
100
AcDbLine
 62
7
  6
CONTINUOUS
 10
-18.2265320489
 20
-17.4999899252
 11
-19.8342965573
 21
-16.5269157409
  0
LINE
  5
291
100
AcDbEntity
  8
RACCORDO
100
AcDbLine
 62
7
  6
CONTINUOUS
 10
-18.857170853
 20
-15.9198751175
 11
-19.2750518649
 21
-15.666190486
  0
LINE
  5
292
100
AcDbEntity
  8
RACCORDO
100
AcDbLine
 62
7
  6
CONTINUOUS
 10
-19.8134663415
 20
-16.5780563783
 11
-19.8135140319
 21
-16.5780272296
  0
LWPOLYLINE
  5
293
100
AcDbEntity
  8
RACCORDO
100
AcDbPolyline
 62
7
  6
CONTINUOUS
 90
37
 70
0
 10
-19.8342965573
 20
-16.5269157409
 10
-19.8506673974
 20
-16.5168502405
 10
-19.868150554
 20
-16.5051930855
 10
-19.8867458991
 20
-16.4919442159
 10
-19.9065820649
 20
-16.4771463723
 10
-19.9275301266
 20
-16.4607566772
 10
-19.949203661
 20
-16.4426466637
 10
-19.9716192064
 20
-16.4227674197
 10
-19.9947600118
 20
-16.4011677579
 10
-20.0181898345
 20
-16.3778658516
 10
-20.0419159754
 20
-16.3528007092
 10
-20.0659310425
 20
-16.3260332799
 10
-20.0897768913
 20
-16.2977647128
 10
-20.1134442396
 20
-16.2679356231
 10
-20.136942423
 20
-16.2366054208
 10
-20.1598413622
 20
-16.2041535124
 10
-20.1821119388
 20
-16.1705387989
 10
-20.2037834523
 20
-16.135802464
 10
-20.2245135618
 20
-16.1004473895
 10
-20.2442531258
 20
-16.0644760784
 10
-20.2630515414
 20
-16.0278861471
 10
-20.2807143395
 20
-15.9911731774
 10
-20.2972012385
 20
-15.9543457801
 10
-20.3125527788
 20
-15.9173954654
 10
-20.3266957442
 20
-15.8807921739
 10
-20.3395956188
 20
-15.8445480707
 10
-20.3512871363
 20
-15.8086510925
 10
-20.361800945
 20
-15.773534833
 10
-20.3711050076
 20
-15.7392253541
 10
-20.3792315169
 20
-15.7056966666
 10
-20.3863074438
 20
-15.6733042766
 10
-20.3923098473
 20
-15.6420572295
 10
-20.3972617597
 20
-15.6119465226
 10
-20.4013590876
 20
-15.5833005781
 10
-20.4045820136
 20
-15.5562178263
 10
-20.4069503967
 20
-15.5305998563
 10
-20.4087196401
 20
-15.5064798205
  0
LINE
  5
294
100
AcDbEntity
  8
RACCORDO
100
AcDbLine
 62
7
  6
CONTINUOUS
 10
-19.8611959025
 20
-16.5467334812
 11
-19.8134663415
 21
-16.5780563783
  0
LWPOLYLINE
  5
295
100
AcDbEntity
  8
RACCORDO
100
AcDbPolyline
 62
7
  6
CONTINUOUS
 90
7
 70
0
 10
-19.9634025277
 20
-16.8666396164
 10
-20.0308736366
 20
-16.8219330254
 10
-20.0972593291
 20
-16.7705842646
 10
-20.1625600742
 20
-16.7125935546
 10
-20.2274038076
 20
-16.6474366865
 10
-20.2911633343
 20
-16.5756382177
 10
-20.3519572039
 20
-16.4987718805
  0
LWPOLYLINE
  5
296
100
AcDbEntity
  8
RACCORDO
100
AcDbPolyline
 62
7
  6
CONTINUOUS
 90
6
 70
0
 10
-19.8866067787
 20
-16.7485504527
 10
-19.9475210463
 20
-16.7078155607
 10
-20.0083593109
 20
-16.6606320857
 10
-20.0686767036
 20
-16.6071359223
 10
-20.1281196682
 20
-16.5473734551
 10
-20.1860910763
 20
-16.4817173392
  0
LWPOLYLINE
  5
297
100
AcDbEntity
  8
RACCORDO
100
AcDbPolyline
 62
7
  6
CONTINUOUS
 90
8
 70
0
 10
-19.8135140319
 20
-16.5780272296
 10
-19.8171961266
 20
-16.5754443679
 10
-19.8226911253
 20
-16.5700423777
 10
-19.8272070787
 20
-16.5634077087
 10
-19.8306719716
 20
-16.555646163
 10
-19.83303055
 20
-16.5468815128
 10
-19.8342452017
 20
-16.5372535267
 10
-19.8342965571
 20
-16.5269157408
  0
LINE
  5
298
100
AcDbEntity
  8
RACCORDO
100
AcDbLine
 62
7
  6
CONTINUOUS
 10
-19.9125517833
 20
-16.5082132646
 11
-19.8611959025
 21
-16.5467334812
  0
LWPOLYLINE
  5
299
100
AcDbEntity
  8
RACCORDO
100
AcDbPolyline
 62
7
  6
CONTINUOUS
 90
6
 70
0
 10
-20.1860910763
 20
-16.4817173392
 10
-20.2417812095
 20
-16.4109191662
 10
-20.2947750443
 20
-16.3353515427
 10
-20.3445966766
 20
-16.2555916256
 10
-20.3904609183
 20
-16.1728995033
 10
-20.4320264947
 20
-16.087975309
  0
LWPOLYLINE
  5
29A
100
AcDbEntity
  8
RACCORDO
100
AcDbPolyline
 62
7
  6
CONTINUOUS
 90
10
 70
0
 10
-19.3355492484
 20
-15.5526301068
 10
-19.3268981369
 20
-15.5640913245
 10
-19.3186355357
 20
-15.5759953071
 10
-19.3108054062
 20
-15.5882787186
 10
-19.303449409
 20
-15.6008762045
 10
-19.2966066822
 20
-15.6137207392
 10
-19.2903136326
 20
-15.6267439826
 10
-19.2846037427
 20
-15.6398766438
 10
-19.2795073922
 20
-15.6530488497
 10
-19.2750516966
 20
-15.6661905169
  0
LWPOLYLINE
  5
29B
100
AcDbEntity
  8
RACCORDO
100
AcDbPolyline
 62
7
  6
CONTINUOUS
 90
3
 70
0
 10
-20.3519572039
 20
-16.4987718805
 10
-20.4097075822
 20
-16.4165004719
 10
-20.4644946353
 20
-16.3291622857
  0
LWPOLYLINE
  5
29C
100
AcDbEntity
  8
RACCORDO
100
AcDbPolyline
 62
7
  6
CONTINUOUS
 90
11
 70
0
 10
-20.4644946353
 20
-16.3291622857
 10
-20.5146752065
 20
-16.2393449032
 10
-20.5599766005
 20
-16.1470091203
 10
-20.6006744708
 20
-16.0521955227
 10
-20.6359487866
 20
-15.9576116574
 10
-20.665531644
 20
-15.8635168594
 10
-20.6896933091
 20
-15.769652896
 10
-20.7084209373
 20
-15.6779509302
 10
-20.7217106314
 20
-15.5890548623
 10
-20.7295674393
 20
-15.5023213286
 10
-20.7319916434
 20
-15.4177504608
  0
LINE
  5
29D
100
AcDbEntity
  8
RACCORDO
100
AcDbLine
 62
7
  6
CONTINUOUS
 10
-20.4320264947
 20
-16.087975309
 11
-20.4690819517
 21
-16.0014207871
  0
LWPOLYLINE
  5
29E
100
AcDbEntity
  8
RACCORDO
100
AcDbPolyline
 62
7
  6
CONTINUOUS
 90
8
 70
0
 10
-20.4690819517
 20
-16.0014207871
 10
-20.5012253124
 20
-15.9144485978
 10
-20.52830083
 20
-15.8278823243
 10
-20.5503443566
 20
-15.7421700673
 10
-20.5673550687
 20
-15.6579351113
 10
-20.5793593814
 20
-15.5757330943
 10
-20.5864541798
 20
-15.4960421522
 10
-20.5887655523
 20
-15.4193129027
  0
LWPOLYLINE
  5
29F
100
AcDbEntity
  8
RACCORDO
100
AcDbPolyline
 62
7
  6
CONTINUOUS
 90
16
 70
0
 10
-18.258928624
 20
-13.2900620589
 10
-18.2573874055
 20
-13.3081522626
 10
-18.254401801
 20
-13.3268562512
 10
-18.2500044376
 20
-13.3459697898
 10
-18.2442433577
 20
-13.3652841734
 10
-18.2371814887
 20
-13.3845885209
 10
-18.2288959528
 20
-13.4036720771
 10
-18.2194772357
 20
-13.4223264855
 10
-18.2090281893
 20
-13.4403480884
 10
-18.1976628972
 20
-13.4575401612
 10
-18.1855054577
 20
-13.4737150131
 10
-18.172688611
 20
-13.488696068
 10
-18.1593522712
 20
-13.5023198073
 10
-18.1456420348
 20
-13.5144375106
 10
-18.1317075945
 20
-13.5249168864
 10
-18.1177010809
 20
-13.5336435397
  0
LINE
  5
2A0
100
AcDbEntity
  8
RACCORDO
100
AcDbLine
 62
7
  6
CONTINUOUS
 10
-20.4361184446
 20
-15.4666071805
 11
-20.4308026097
 21
-15.5336667521
  0
LWPOLYLINE
  5
2A1
100
AcDbEntity
  8
RACCORDO
100
AcDbPolyline
 62
7
  6
CONTINUOUS
 90
3
 70
0
 10
-20.4087196401
 20
-15.5064798205
 10
-20.4099748806
 20
-15.4838687706
 10
-20.4106309927
 20
-15.4627556603
  0
LINE
  5
2A2
100
AcDbEntity
  8
RACCORDO
100
AcDbLine
 62
7
  6
CONTINUOUS
 10
-20.4376073221
 20
-15.4090050827
 11
-20.4361184446
 21
-15.4666071805
  0
LINE
  5
2A3
100
AcDbEntity
  8
RACCORDO
100
AcDbLine
 62
7
  6
CONTINUOUS
 10
-20.7319916434
 20
-15.4177504608
 11
-20.7319916434
 21
28.3502329857
  0
LINE
  5
2A4
100
AcDbEntity
  8
RACCORDO
100
AcDbLine
 62
7
  6
CONTINUOUS
 10
-20.5887674548
 20
-15.4193119351
 11
-20.5887674548
 21
28.3486715115
  0
LINE
  5
2A5
100
AcDbEntity
  8
RACCORDO
100
AcDbLine
 62
7
  6
CONTINUOUS
 10
-20.4376073712
 20
-15.4090112335
 11
-20.4376073712
 21
27.919618845
  0
LINE
  5
2A6
100
AcDbEntity
  8
RACCORDO
100
AcDbLine
 62
7
  6
CONTINUOUS
 10
-20.4106309927
 20
-15.4627556603
 11
-20.4106879791
 21
27.8854895879
  0
LINE
  5
2A7
100
AcDbEntity
  8
RACCORDO
100
AcDbLine
 62
7
  6
CONTINUOUS
 10
-19.4170616007
 20
27.0604928066
 11
-19.4170616007
 21
-15.6797885846
  0
LINE
  5
2A8
100
AcDbEntity
  8
RACCORDO
100
AcDbLine
 62
7
  6
CONTINUOUS
 10
-19.1373532546
 20
26.3508117245
 11
-19.1373532546
 21
-14.9819227921
  0
LWPOLYLINE
  5
2A9
100
AcDbEntity
  8
RACCORDO
100
AcDbPolyline
 62
7
  6
CONTINUOUS
 90
5
 70
0
 10
-20.4106879791
 20
27.8854895879
 10
-20.4106276117
 20
27.9049004242
 10
-20.409983045
 20
27.9251342797
 10
-20.4087542766
 20
27.9461911555
 10
-20.4070261031
 20
27.9681543675
  0
LINE
  5
2AA
100
AcDbEntity
  8
RACCORDO
100
AcDbLine
 62
7
  6
CONTINUOUS
 10
-20.4360056546
 20
27.9778257138
 11
-20.4376073249
 21
27.9195894991
  0
LWPOLYLINE
  5
2AB
100
AcDbEntity
  8
RACCORDO
100
AcDbPolyline
 62
7
  6
CONTINUOUS
 90
18
 70
0
 10
-20.7319916434
 20
28.3502329857
 10
-20.7293817907
 20
28.4349257751
 10
-20.7210042346
 20
28.5156059779
 10
-20.7068586557
 20
28.5922737432
 10
-20.6868331925
 20
28.6656819226
 10
-20.6610383944
 20
28.7350782764
 10
-20.629807285
 20
28.7982054441
 10
-20.5928420242
 20
28.8548184734
 10
-20.5504379576
 20
28.9051634807
 10
-20.5038179927
 20
28.9477196596
 10
-20.452365188
 20
28.9820139041
 10
-20.3966936242
 20
29.0085206563
 10
-20.3398740274
 20
29.0271398329
 10
-20.283580488
 20
29.0377180896
 10
-20.2261384817
 20
29.0404089749
 10
-20.1655961744
 20
29.0355725759
 10
-20.1013017722
 20
29.023329475
 10
-20.0339043474
 20
29.0035603638
  0
LWPOLYLINE
  5
2AC
100
AcDbEntity
  8
RACCORDO
100
AcDbPolyline
 62
7
  6
CONTINUOUS
 90
12
 70
0
 10
-20.5887672514
 20
28.3486714081
 10
-20.5863015237
 20
28.425227695
 10
-20.5787272947
 20
28.4993585504
 10
-20.565934226
 20
28.5704422159
 10
-20.5477859749
 20
28.6379620166
 10
-20.5242852925
 20
28.7011525674
 10
-20.495630374
 20
28.759065115
 10
-20.4619187066
 20
28.8112003294
 10
-20.4233674379
 20
28.8570605317
 10
-20.3805627542
 20
28.8959364566
 10
-20.3335549777
 20
28.9277457909
 10
-20.3121584307
 20
28.9391673765
  0
LINE
  5
2AD
100
AcDbEntity
  8
RACCORDO
100
AcDbLine
 62
7
  6
CONTINUOUS
 10
-19.9355833803
 20
28.8153874937
 11
-19.9484850969
 21
28.6568977217
  0
LWPOLYLINE
  5
2AE
100
AcDbEntity
  8
0
100
AcDbPolyline
 62
7
  6
CONTINUOUS
 90
6
 70
0
 10
-14.6547718184
 20
16.9817420605
 10
-14.6506331103
 20
16.993910132
 10
-14.6473776277
 20
17.0070949734
 10
-14.6450522531
 20
17.021128035
 10
-14.6437237137
 20
17.0358946948
 10
-14.643392232
 20
17.0486399605
  0
LINE
  5
2AF
100
AcDbEntity
  8
0
100
AcDbLine
 62
7
  6
CONTINUOUS
 10
-14.6597576402
 20
16.9706488994
 11
-14.6547718184
 21
16.9817420605
  0
LWPOLYLINE
  5
2B0
100
AcDbEntity
  8
0
100
AcDbPolyline
 62
7
  6
CONTINUOUS
 90
6
 70
0
 10
-14.6947575313
 20
16.9313553305
 10
-14.6866063908
 20
16.9370500933
 10
-14.6789917012
 20
16.9438185776
 10
-14.6719545571
 20
16.951670259
 10
-14.6655207103
 20
16.9606154164
 10
-14.6597576402
 20
16.9706488994
  0
LINE
  5
2B1
100
AcDbEntity
  8
0
100
AcDbLine
 62
7
  6
CONTINUOUS
 10
-14.7019651401
 20
16.9270826442
 11
-16.9461778919
 21
15.6609288721
  0
LWPOLYLINE
  5
2B2
100
AcDbEntity
  8
RACCORDO
100
AcDbPolyline
 62
7
  6
CONTINUOUS
 90
16
 70
0
 10
-19.1373532546
 20
-14.9819227921
 10
-19.1233514437
 20
-14.9845728953
 10
-19.1081128768
 20
-14.9879626777
 10
-19.0917948391
 20
-14.9920571513
 10
-19.0745657561
 20
-14.9968140547
 10
-19.0566034581
 20
-15.0021842892
 10
-19.0380933447
 20
-15.0081124249
 10
-19.0192264675
 20
-15.0145372744
 10
-19.0001975592
 20
-15.0213925236
 10
-18.9812030268
 20
-15.0286074155
 10
-18.9624389203
 20
-15.0361074819
 10
-18.9440989102
 20
-15.0438153113
 10
-18.9263722906
 20
-15.0516513478
 10
-18.9094420233
 20
-15.0595347126
 10
-18.8934828495
 20
-15.067384039
 10
-18.8786594872
 20
-15.0751183115
  0
LWPOLYLINE
  5
2B3
100
AcDbEntity
  8
COPIA_X_PUBLISH
100
AcDbPolyline
 62
7
  6
CONTINUOUS
 90
5
 70
0
 10
9.1023911431
 20
-23.8873682317
 10
9.0891704434
 20
-23.8838737299
 10
9.0764513901
 20
-23.8816316002
 10
9.0642568887
 20
-23.8805758654
 10
9.0526691887
 20
-23.8806358899
  0
LWPOLYLINE
  5
2B4
100
AcDbEntity
  8
0
100
AcDbPolyline
 62
7
  6
CONTINUOUS
 90
19
 70
0
 10
-1.0883964974
 20
-22.8856256415
 10
-1.0553433467
 20
-22.8953908439
 10
-1.0224369242
 20
-22.9055471236
 10
-0.9896832031
 20
-22.916357044
 10
-0.9570726556
 20
-22.9278112136
 10
-0.9246148093
 20
-22.9399190239
 10
-0.8923442202
 20
-22.9529712131
 10
-0.8602127707
 20
-22.9669748316
 10
-0.8282685783
 20
-22.981922829
 10
-0.796690551
 20
-22.998084792
 10
-0.7654564055
 20
-23.0154723986
 10
-0.7345884251
 20
-23.0340739707
 10
-0.7043323675
 20
-23.054124061
 10
-0.6746321041
 20
-23.0756632553
 10
-0.6455437636
 20
-23.0986509677
 10
-0.6174814893
 20
-23.123199994
 10
-0.5905833293
 20
-23.1493479327
 10
-0.5647112356
 20
-23.1770571852
 10
-0.5398652083
 20
-23.2063277515
  0
LWPOLYLINE
  5
2B5
100
AcDbEntity
  8
0
100
AcDbPolyline
 62
7
  6
CONTINUOUS
 90
14
 70
0
 10
-1.0739700526
 20
-23.8840191931
 10
-1.0616653516
 20
-23.889493294
 10
-1.049173919
 20
-23.8942954011
 10
-1.0364957548
 20
-23.8984255143
 10
-1.0236434546
 20
-23.9019683014
 10
-1.0106044227
 20
-23.9048390946
 10
-0.9973408723
 20
-23.9067838913
 10
-0.983777375
 20
-23.9078363077
 10
-0.9699893592
 20
-23.9079627276
 10
-0.9561653232
 20
-23.9068083001
 10
-0.9422781937
 20
-23.9043306663
 10
-0.9283550439
 20
-23.9005721852
 10
-0.9146655919
 20
-23.8953050817
 10
-0.908840734
 20
-23.8925029332
  0
LINE
  5
2B6
100
AcDbEntity
  8
0
100
AcDbLine
 62
7
  6
CONTINUOUS
 10
-2.0975142069
 20
-23.8215841399
 11
-2.3518647587
 21
-23.6944088639
  0
LINE
  5
2B7
100
AcDbEntity
  8
0
100
AcDbLine
 62
7
  6
CONTINUOUS
 10
-1.3278104881
 20
-24.1232067244
 11
-1.1853698956
 21
-24.1944270206
  0
LINE
  5
2B8
100
AcDbEntity
  8
0
100
AcDbLine
 62
7
  6
CONTINUOUS
 10
-1.2477256918
 20
-24.0831643262
 11
-1.1052850993
 21
-24.1543846225
  0
LINE
  5
2B9
100
AcDbEntity
  8
0
100
AcDbLine
 62
7
  6
CONTINUOUS
 10
-1.0739700526
 20
-23.8840191931
 11
-1.2257921595
 21
-23.8081081396
  0
LINE
  5
2BA
100
AcDbEntity
  8
0
100
AcDbLine
 62
7
  6
CONTINUOUS
 10
-1.6490269159
 20
-22.6019981892
 11
-1.90602134
 21
-22.4735009771
  0
LINE
  5
2BB
100
AcDbEntity
  8
0
100
AcDbLine
 62
7
  6
CONTINUOUS
 10
-2.4659445518
 20
-22.1935393712
 11
-2.7287888703
 21
-22.062117212
  0
LINE
  5
2BC
100
AcDbEntity
  8
0
100
AcDbLine
 62
7
  6
CONTINUOUS
 10
-3.257303106
 20
-21.7978600941
 11
-3.5227439205
 21
-21.6651396869
  0
LINE
  5
2BD
100
AcDbEntity
  8
0
100
AcDbLine
 62
7
  6
CONTINUOUS
 10
-4.1449201062
 20
-21.354051594
 11
-4.4103991046
 21
-21.2213120948
  0
LINE
  5
2BE
100
AcDbEntity
  8
0
100
AcDbLine
 62
7
  6
CONTINUOUS
 10
-4.9030050437
 20
-20.9750091253
 11
-5.1915937059
 21
-20.8307147942
  0
LINE
  5
2BF
100
AcDbEntity
  8
0
100
AcDbLine
 62
7
  6
CONTINUOUS
 10
-3.7806325345
 20
-21.5360612438
 11
-4.0462925521
 21
-21.403231235
  0
LINE
  5
2C0
100
AcDbEntity
  8
RACCORDO
100
AcDbLine
 62
7
  6
CONTINUOUS
 10
-18.4329131451
 20
-13.8988351911
 11
12.8122551721
 21
-29.5214193497
  0
LINE
  5
2C1
100
AcDbEntity
  8
RACCORDO
100
AcDbLine
 62
7
  6
CONTINUOUS
 10
-18.1177010809
 20
-13.5336435397
 11
12.8122551721
 21
-28.9986216662
  0
LINE
  5
2C2
100
AcDbEntity
  8
RACCORDO
100
AcDbLine
 62
7
  6
CONTINUOUS
 10
-16.8049503487
 20
-12.8625760772
 11
12.8122551721
 21
-27.6711788377
  0
LINE
  5
2C3
100
AcDbEntity
  8
COPIA_X_PUBLISH
100
AcDbLine
 62
7
  6
CONTINUOUS
 10
11.2134983904
 20
-26.7340507436
 11
7.3244110938
 21
-24.7895070953
  0
LINE
  5
2C4
100
AcDbEntity
  8
COPIA_X_PUBLISH
100
AcDbLine
 62
7
  6
CONTINUOUS
 10
-4.6964041863
 20
-18.7790994552
 11
-8.5854914829
 21
-16.8345558069
  0
LINE
  5
2C5
100
AcDbEntity
  8
COPIA_X_PUBLISH
100
AcDbLine
 62
7
  6
CONTINUOUS
 10
11.4256304247
 20
-26.6279847264
 11
7.5365431282
 21
-24.6834410781
  0
LINE
  5
2C6
100
AcDbEntity
  8
COPIA_X_PUBLISH
100
AcDbLine
 62
7
  6
CONTINUOUS
 10
-4.484272152
 20
-18.673033438
 11
-8.3733594485
 21
-16.7284897898
  0
LINE
  5
2C7
100
AcDbEntity
  8
COPIA_X_PUBLISH
100
AcDbLine
 62
7
  6
CONTINUOUS
 10
11.567051781
 20
-26.5572740483
 11
7.6779644844
 21
-24.6127304
  0
LINE
  5
2C8
100
AcDbEntity
  8
COPIA_X_PUBLISH
100
AcDbLine
 62
7
  6
CONTINUOUS
 10
-4.3428507957
 20
-18.6023227599
 11
-8.2319380923
 21
-16.6577791116
  0
LINE
  5
2C9
100
AcDbEntity
  8
COPIA_X_PUBLISH
100
AcDbLine
 62
7
  6
CONTINUOUS
 10
11.7791838153
 20
-26.4512080311
 11
7.8900965188
 21
-24.5066643828
  0
LINE
  5
2CA
100
AcDbEntity
  8
COPIA_X_PUBLISH
100
AcDbLine
 62
7
  6
CONTINUOUS
 10
-4.1307187614
 20
-18.4962567427
 11
-8.0198060579
 21
-16.5517130945
  0
LINE
  5
2CB
100
AcDbEntity
  8
COPIA_X_PUBLISH
100
AcDbLine
 62
7
  6
CONTINUOUS
 10
11.9206051716
 20
-26.380497353
 11
8.031517875
 21
-24.4359537047
  0
LINE
  5
2CC
100
AcDbEntity
  8
COPIA_X_PUBLISH
100
AcDbLine
 62
7
  6
CONTINUOUS
 10
-3.9892974051
 20
-18.4255460646
 11
-7.8783847017
 21
-16.4810024163
  0
LINE
  5
2CD
100
AcDbEntity
  8
COPIA_X_PUBLISH
100
AcDbLine
 62
7
  6
CONTINUOUS
 10
12.1327372059
 20
-26.2744313358
 11
8.2436499094
 21
-24.3298876875
  0
LINE
  5
2CE
100
AcDbEntity
  8
COPIA_X_PUBLISH
100
AcDbLine
 62
7
  6
CONTINUOUS
 10
-3.7771653708
 20
-18.3194800474
 11
-7.6662526673
 21
-16.3749363992
  0
LINE
  5
2CF
100
AcDbEntity
  8
COPIA_X_PUBLISH
100
AcDbLine
 62
7
  6
CONTINUOUS
 10
12.2741585621
 20
-26.2037206577
 11
8.3850712656
 21
-24.2591770094
  0
LINE
  5
2D0
100
AcDbEntity
  8
COPIA_X_PUBLISH
100
AcDbLine
 62
7
  6
CONTINUOUS
 10
-3.6357440146
 20
-18.2487693693
 11
-7.5248313111
 21
-16.304225721
  0
LWPOLYLINE
  5
2D1
100
AcDbEntity
  8
RACCORDO
100
AcDbPolyline
 62
7
  6
CONTINUOUS
 90
6
 70
0
 10
14.4272197996
 20
-32.9973561823
 10
14.4153819561
 20
-32.9907629061
 10
14.4060575284
 20
-32.9832284115
 10
14.3995393177
 20
-32.9749892974
 10
14.3960320039
 20
-32.9663042892
 10
14.3954456581
 20
-32.9618794871
  0
LWPOLYLINE
  5
2D2
100
AcDbEntity
  8
0
100
AcDbPolyline
 62
7
  6
CONTINUOUS
 90
22
 70
0
 10
-1.1052850993
 20
-24.1543846225
 10
-1.0945034802
 20
-24.1604694529
 10
-1.0843763832
 20
-24.1674458959
 10
-1.0749038083
 20
-24.1753139515
 10
-1.0660313293
 20
-24.1841698599
 10
-1.0578133724
 20
-24.1939173808
 10
-1.0504132157
 20
-24.2042677934
 10
-1.0439227069
 20
-24.2152210739
 10
-1.0382499983
 20
-24.2267772461
 10
-1.0332828255
 20
-24.2386476611
 10
-1.0290389882
 20
-24.2507761761
 10
-1.0255006866
 20
-24.2632189339
 10
-1.0225022567
 20
-24.2758557142
 10
-1.0200168868
 20
-24.2886767501
 10
-1.0180713885
 20
-24.3016918086
 10
-1.0165805321
 20
-24.3148099697
 10
-1.0155285524
 20
-24.3280055431
 10
-1.0149312146
 20
-24.3413042192
 10
-1.0147505841
 20
-24.3546921496
 10
-1.0149740162
 20
-24.368164718
 10
-1.0156141557
 20
-24.3817265406
 10
-1.0166710026
 20
-24.3953776174
  0
LWPOLYLINE
  5
2D3
100
AcDbEntity
  8
0
100
AcDbPolyline
 62
7
  6
CONTINUOUS
 90
7
 70
0
 10
-0.8279267373
 20
-23.3802140607
 10
-0.8600014303
 20
-23.3587125449
 10
-0.8933861059
 20
-23.3396190702
 10
-0.9280807639
 20
-23.3229336364
 10
-0.9640854044
 20
-23.3086562435
 10
-1.0014000274
 20
-23.2967868916
 10
-1.0400246329
 20
-23.2873255807
  0
LINE
  5
2D4
100
AcDbEntity
  8
COPIA_X_PUBLISH
100
AcDbLine
 62
7
  6
CONTINUOUS
 10
-4.6964041863
 20
-18.7790994552
 11
-4.5903381692
 21
-18.8559702572
  0
LWPOLYLINE
  5
2D5
100
AcDbEntity
  8
0
100
AcDbPolyline
 62
7
  6
CONTINUOUS
 90
25
 70
0
 10
-0.7478356121
 20
-23.3401762022
 10
-0.7379456298
 20
-23.3479002302
 10
-0.7285771983
 20
-23.3563617437
 10
-0.7197303174
 20
-23.3655607425
 10
-0.7113719671
 20
-23.3755404083
 10
-0.7035351674
 20
-23.3862575595
 10
-0.696318979
 20
-23.3975826519
 10
-0.6897228322
 20
-23.4095241516
 10
-0.6837472967
 20
-23.4220735925
 10
-0.6784931418
 20
-23.4350760318
 10
-0.673985472
 20
-23.4485465817
 10
-0.6701991829
 20
-23.46247013
 10
-0.6671597298
 20
-23.4766463978
 10
-0.6649051814
 20
-23.4910627082
 10
-0.6633974691
 20
-23.505731738
 10
-0.6625478429
 20
-23.5204912391
 10
-0.6623470062
 20
-23.535328833
 10
-0.6628042556
 20
-23.5502568982
 10
-0.6638587304
 20
-23.5651503218
 10
-0.6654951716
 20
-23.5799993975
 10
-0.6677288383
 20
-23.5948138317
 10
-0.6705446475
 20
-23.6094976306
 10
-0.6739375716
 20
-23.6240187963
 10
-0.6779126384
 20
-23.6384093266
 10
-0.6824698476
 20
-23.6526692217
  0
LWPOLYLINE
  5
2D6
100
AcDbEntity
  8
RACCORDO
100
AcDbPolyline
 62
7
  6
CONTINUOUS
 90
17
 70
0
 10
-20.4308026097
 20
-15.5336667521
 10
-20.4216984883
 20
-15.6016816282
 10
-20.4088898966
 20
-15.6703031693
 10
-20.3924688173
 20
-15.7392015788
 10
-20.3725330541
 20
-15.8080531073
 10
-20.3492000813
 20
-15.8765095175
 10
-20.3225978123
 20
-15.9442213675
 10
-20.2928656791
 20
-16.0108511874
 10
-20.2601572737
 20
-16.07605387
 10
-20.2246376541
 20
-16.1394934067
 10
-20.1864737826
 20
-16.2008537055
 10
-20.1458487897
 20
-16.2598121569
 10
-20.1029562196
 20
-16.3160560228
 10
-20.05797885
 20
-16.369300686
 10
-20.0111211568
 20
-16.4192545776
 10
-19.9625888917
 20
-16.4656366999
 10
-19.9125517833
 20
-16.5082132646
  0
LWPOLYLINE
  5
2D7
100
AcDbEntity
  8
RACCORDO
100
AcDbPolyline
 62
7
  6
CONTINUOUS
 90
7
 70
0
 10
-20.4376073712
 20
-15.4090112335
 10
-20.4367265786
 20
-15.4156328404
 10
-20.4343353313
 20
-15.4216968724
 10
-20.4304660033
 20
-15.4275670576
 10
-20.4251777212
 20
-15.4331536951
 10
-20.4185512941
 20
-15.4383714163
 10
-20.4106879791
 20
-15.4431404906
  0
LINE
  5
2D8
100
AcDbEntity
  8
RACCORDO
100
AcDbLine
 62
7
  6
CONTINUOUS
 10
-16.9461778919
 20
24.8583862578
 11
-16.9461778919
 21
-12.6189945964
  0
LINE
  5
2D9
100
AcDbEntity
  8
0
100
AcDbLine
 62
7
  6
CONTINUOUS
 10
-14.7019651401
 20
22.1413896542
 11
-14.7019651401
 21
16.9270826442
  0
LINE
  5
2DA
100
AcDbEntity
  8
0
100
AcDbLine
 62
7
  6
CONTINUOUS
 10
-14.7019651401
 20
2.6558180691
 11
-14.7019651401
 21
-2.5584889409
  0
LINE
  5
2DB
100
AcDbEntity
  8
0
100
AcDbLine
 62
7
  6
CONTINUOUS
 10
-14.6433864964
 20
22.1604652717
 11
-14.6433864964
 21
17.0494283829
  0
LINE
  5
2DC
100
AcDbEntity
  8
0
100
AcDbLine
 62
7
  6
CONTINUOUS
 10
-14.6433864964
 20
2.6748936866
 11
-14.6433864964
 21
-2.4361432022
  0
LWPOLYLINE
  5
2DD
100
AcDbEntity
  8
RACCORDO
100
AcDbPolyline
 62
7
  6
CONTINUOUS
 90
10
 70
0
 10
-19.9634024915
 20
-16.8666395995
 10
-19.9615664401
 20
-16.8515721899
 10
-19.9575855738
 20
-16.8359295836
 10
-19.9515798293
 20
-16.8201830657
 10
-19.9437301494
 20
-16.804807052
 10
-19.9342730317
 20
-16.7902647953
 10
-19.9234934029
 20
-16.7769944292
 10
-19.9117160349
 20
-16.7653957672
 10
-19.8992957596
 20
-16.755818257
 10
-19.8866067787
 20
-16.7485504527
  0
LWPOLYLINE
  5
2DE
100
AcDbEntity
  8
RACCORDO
100
AcDbPolyline
 62
7
  6
CONTINUOUS
 90
28
 70
0
 10
-19.1373532546
 20
-14.9819227921
 10
-19.1444369666
 20
-15.015370114
 10
-19.1516366274
 20
-15.0477152948
 10
-19.1589203261
 20
-15.0789632445
 10
-19.1662430663
 20
-15.109091961
 10
-19.173590755
 20
-15.1381362909
 10
-19.1809839925
 20
-15.166184613
 10
-19.188405201
 20
-15.1932485059
 10
-19.1958300269
 20
-15.2193261308
 10
-19.2032760408
 20
-15.2444813661
 10
-19.210729809
 20
-15.2687246611
 10
-19.2181727212
 20
-15.2920533182
 10
-19.225618709
 20
-15.3145081571
 10
-19.2330559736
 20
-15.3360958415
 10
-19.2404704734
 20
-15.3568159002
 10
-19.2478751325
 20
-15.3766957679
 10
-19.2552562285
 20
-15.3957342871
 10
-19.2626055723
 20
-15.413937458
 10
-19.269945704
 20
-15.4313405356
 10
-19.277264585
 20
-15.4479482442
 10
-19.284554529
 20
-15.4637581636
 10
-19.2918448669
 20
-15.4787911456
 10
-19.2991214341
 20
-15.4930532873
 10
-19.3063784781
 20
-15.5065376638
 10
-19.3136566685
 20
-15.5192408976
 10
-19.3209612482
 20
-15.531158774
 10
-19.3282630462
 20
-15.5422894053
 10
-19.3355494466
 20
-15.5526303984
  0
LWPOLYLINE
  5
2DF
100
AcDbEntity
  8
COPIA_X_PUBLISH
100
AcDbPolyline
 62
7
  6
CONTINUOUS
 90
3
 70
0
 10
-6.857233388
 20
-15.9256846015
 10
-6.8681715063
 20
-15.9268125139
 10
-6.8784517448
 20
-15.9289884488
  0
LWPOLYLINE
  5
2E0
100
AcDbEntity
  8
RACCORDO
100
AcDbPolyline
 62
7
  6
CONTINUOUS
 90
16
 70
0
 10
-18.6916069124
 20
-13.8056396717
 10
-18.6776051417
 20
-13.8082897668
 10
-18.6623666168
 20
-13.8116795381
 10
-18.6460486205
 20
-13.8157739987
 10
-18.6288195774
 20
-13.8205308878
 10
-18.610857315
 20
-13.8259011077
 10
-18.5923472289
 20
-13.8318292304
 10
-18.5734803691
 20
-13.8382540693
 10
-18.5544514678
 20
-13.8451093111
 10
-18.5354569297
 20
-13.8523242003
 10
-18.516692805
 20
-13.859824269
 10
-18.4983527655
 20
-13.8675321062
 10
-18.480626106
 20
-13.8753681563
 10
-18.4636957903
 20
-13.8832515402
 10
-18.4477365628
 20
-13.8911008906
 10
-18.4329131451
 20
-13.8988351911
  0
LWPOLYLINE
  5
2E1
100
AcDbEntity
  8
COPIA_X_PUBLISH
100
AcDbPolyline
 62
7
  6
CONTINUOUS
 90
5
 70
0
 10
-6.8075114336
 20
-15.9324169434
 10
-6.8207321333
 20
-15.9289224415
 10
-6.8334511866
 20
-15.9266803119
 10
-6.845645688
 20
-15.9256245771
 10
-6.857233388
 20
-15.9256846015
  0
LWPOLYLINE
  5
2E2
100
AcDbEntity
  8
COPIA_X_PUBLISH
100
AcDbPolyline
 62
7
  6
CONTINUOUS
 90
4
 70
0
 10
9.1355362896
 20
-23.9007274264
 10
9.129933209
 20
-23.8980272497
 10
9.1160385304
 20
-23.8921061592
 10
9.1023911431
 20
-23.8873682317
  0
LWPOLYLINE
  5
2E3
100
AcDbEntity
  8
COPIA_X_PUBLISH
100
AcDbPolyline
 62
7
  6
CONTINUOUS
 90
4
 70
0
 10
-6.7743662871
 20
-15.9457761381
 10
-6.7799693677
 20
-15.9430759613
 10
-6.7938640463
 20
-15.9371548708
 10
-6.8075114336
 20
-15.9324169434
  0
LINE
  5
2E4
100
AcDbEntity
  8
COPIA_X_PUBLISH
100
AcDbLine
 62
7
  6
CONTINUOUS
 10
12.4862905965
 20
-26.0976546405
 11
8.5972033
 21
-24.1531109922
  0
LINE
  5
2E5
100
AcDbEntity
  8
COPIA_X_PUBLISH
100
AcDbLine
 62
7
  6
CONTINUOUS
 10
-3.4236119802
 20
-18.1427033521
 11
-7.3126992767
 21
-16.1981597039
  0
LINE
  5
2E6
100
AcDbEntity
  8
COPIA_X_PUBLISH
100
AcDbLine
 62
7
  6
CONTINUOUS
 10
12.6277119527
 20
-26.0269439624
 11
8.7386246562
 21
-24.0824003141
  0
LINE
  5
2E7
100
AcDbEntity
  8
COPIA_X_PUBLISH
100
AcDbLine
 62
7
  6
CONTINUOUS
 10
-3.282190624
 20
-18.071992674
 11
-7.1712779205
 21
-16.1274490258
  0
LINE
  5
2E8
100
AcDbEntity
  8
COPIA_X_PUBLISH
100
AcDbLine
 62
7
  6
CONTINUOUS
 10
12.8122551721
 20
-25.9070835377
 11
8.9507566906
 21
-23.9763342969
  0
LINE
  5
2E9
100
AcDbEntity
  8
COPIA_X_PUBLISH
100
AcDbLine
 62
7
  6
CONTINUOUS
 10
-3.0700585896
 20
-17.9659266568
 11
-6.9591458861
 21
-16.0213830086
  0
LINE
  5
2EA
100
AcDbEntity
  8
COPIA_X_PUBLISH
100
AcDbLine
 62
7
  6
CONTINUOUS
 10
-6.8958467872
 20
-15.9354489952
 11
-6.8415623233
 21
-15.9625912272
  0
LINE
  5
2EB
100
AcDbEntity
  8
COPIA_X_PUBLISH
100
AcDbLine
 62
7
  6
CONTINUOUS
 10
-2.8225712162
 20
-17.9720867807
 11
-2.6383829417
 21
-18.064180918
  0
LINE
  5
2EC
100
AcDbEntity
  8
COPIA_X_PUBLISH
100
AcDbLine
 62
7
  6
CONTINUOUS
 10
9.0140557895
 20
-23.8904002835
 11
9.0683402534
 21
-23.9175425155
  0
LINE
  5
2ED
100
AcDbEntity
  8
COPIA_X_PUBLISH
100
AcDbLine
 62
7
  6
CONTINUOUS
 10
12.8122551721
 20
-25.7656621815
 11
9.0921780468
 21
-23.9056236188
  0
LINE
  5
2EE
100
AcDbEntity
  8
COPIA_X_PUBLISH
100
AcDbLine
 62
7
  6
CONTINUOUS
 10
-2.9286372334
 20
-17.8952159787
 11
-6.8177245299
 21
-15.9506723305
  0
LINE
  5
2EF
100
AcDbEntity
  8
COPIA_X_PUBLISH
100
AcDbLine
 62
7
  6
CONTINUOUS
 10
-6.7740601552
 20
-15.9459405942
 11
-2.5812841355
 21
-18.042328604
  0
LINE
  5
2F0
100
AcDbEntity
  8
COPIA_X_PUBLISH
100
AcDbLine
 62
7
  6
CONTINUOUS
 10
9.1358424215
 20
-23.9008918825
 11
12.8122551721
 21
-25.7390982579
  0
LINE
  5
2F1
100
AcDbEntity
  8
COPIA_X_PUBLISH
100
AcDbLine
 62
7
  6
CONTINUOUS
 10
-4.3428507957
 20
-18.6023227599
 11
-4.2367847786
 21
-18.6791935619
  0
LINE
  5
2F2
100
AcDbEntity
  8
COPIA_X_PUBLISH
100
AcDbLine
 62
7
  6
CONTINUOUS
 10
-3.9892974051
 20
-18.4255460646
 11
-3.883231388
 21
-18.5024168666
  0
LINE
  5
2F3
100
AcDbEntity
  8
COPIA_X_PUBLISH
100
AcDbLine
 62
7
  6
CONTINUOUS
 10
-3.6357440146
 20
-18.2487693693
 11
-3.5296779974
 21
-18.3256401713
  0
LINE
  5
2F4
100
AcDbEntity
  8
COPIA_X_PUBLISH
100
AcDbLine
 62
7
  6
CONTINUOUS
 10
-3.282190624
 20
-18.071992674
 11
-3.1761246068
 21
-18.148863476
  0
LINE
  5
2F5
100
AcDbEntity
  8
COPIA_X_PUBLISH
100
AcDbLine
 62
7
  6
CONTINUOUS
 10
-2.9286372334
 20
-17.8952159787
 11
-2.8225712162
 21
-17.9720867807
  0
LINE
  5
2F6
100
AcDbEntity
  8
COPIA_X_PUBLISH
100
AcDbLine
 62
7
  6
CONTINUOUS
 10
11.2134983904
 20
-26.7340507436
 11
11.3195644075
 21
-26.8109215455
  0
LINE
  5
2F7
100
AcDbEntity
  8
COPIA_X_PUBLISH
100
AcDbLine
 62
7
  6
CONTINUOUS
 10
11.567051781
 20
-26.5572740483
 11
11.6731177981
 21
-26.6341448502
  0
LINE
  5
2F8
100
AcDbEntity
  8
COPIA_X_PUBLISH
100
AcDbLine
 62
7
  6
CONTINUOUS
 10
11.9206051716
 20
-26.380497353
 11
12.0266711887
 21
-26.4573681549
  0
LINE
  5
2F9
100
AcDbEntity
  8
COPIA_X_PUBLISH
100
AcDbLine
 62
7
  6
CONTINUOUS
 10
12.2741585621
 20
-26.2037206577
 11
12.3802245793
 21
-26.2805914596
  0
LINE
  5
2FA
100
AcDbEntity
  8
COPIA_X_PUBLISH
100
AcDbLine
 62
7
  6
CONTINUOUS
 10
12.6277119527
 20
-26.0269439624
 11
12.7337779699
 21
-26.1038147643
  0
LWPOLYLINE
  5
2FB
100
AcDbEntity
  8
COPIA_X_PUBLISH
100
AcDbPolyline
 62
7
  6
CONTINUOUS
 90
3
 70
0
 10
-2.5810144972
 20
-18.042452033
 10
-2.5803427581
 20
-18.0429859892
 10
-2.579998408
 20
-18.0440982441
  0
LWPOLYLINE
  5
2FC
100
AcDbEntity
  8
0
100
AcDbPolyline
 62
7
  6
CONTINUOUS
 90
48
 70
0
 10
-0.5398652083
 20
-23.2063277515
 10
-0.5279360351
 20
-23.2233526216
 10
-0.5167248336
 20
-23.2421672508
 10
-0.5062316038
 20
-23.262771639
 10
-0.4963748982
 20
-23.2851785231
 10
-0.4872361644
 20
-23.3093751663
 10
-0.479059745
 20
-23.3353233585
 10
-0.4717767062
 20
-23.3630891578
 10
-0.4654559819
 20
-23.392606506
 10
-0.4605487162
 20
-23.4236390187
 10
-0.4571386426
 20
-23.4565719632
 10
-0.4551420277
 20
-23.4910200722
 10
-0.4547588155
 20
-23.5255911594
 10
-0.4561979142
 20
-23.5602424102
 10
-0.4592504157
 20
-23.5950166392
 10
-0.4634895389
 20
-23.6286501044
 10
-0.468970092
 20
-23.6608237064
 10
-0.4756372669
 20
-23.6918565446
 10
-0.4828998582
 20
-23.7214421748
 10
-0.490652416
 20
-23.7494080213
 10
-0.4990003902
 20
-23.7759266597
 10
-0.5076689249
 20
-23.8012093732
 10
-0.516603317
 20
-23.8252704854
 10
-0.5258582696
 20
-23.8480956725
 10
-0.5353230355
 20
-23.8698532459
 10
-0.5449943254
 20
-23.8905651498
 10
-0.5548754287
 20
-23.9102094398
 10
-0.5648654661
 20
-23.9288885948
 10
-0.5749593178
 20
-23.9466022089
 10
-0.5851621037
 20
-23.9633506878
 10
-0.5953883046
 20
-23.9792377283
 10
-0.6056299973
 20
-23.9942638211
 10
-0.615895105
 20
-24.0084284754
 10
-0.6261218782
 20
-24.0218339153
 10
-0.6363033623
 20
-24.0344876369
 10
-0.6464465119
 20
-24.0463821442
 10
-0.6565104417
 20
-24.0575971735
 10
-0.6664960454
 20
-24.0681416592
 10
-0.6764024292
 20
-24.0780066668
 10
-0.6861860272
 20
-24.0872451288
 10
-0.6958429308
 20
-24.0958445015
 10
-0.7053770486
 20
-24.1038173287
 10
-0.7147565398
 20
-24.1112541741
 10
-0.7239778441
 20
-24.1181386546
 10
-0.7330445218
 20
-24.1244871534
 10
-0.741935413
 20
-24.1304393839
 10
-0.7506447536
 20
-24.1360026059
 10
-0.7591783076
 20
-24.1411695597
  0
LWPOLYLINE
  5
2FD
100
AcDbEntity
  8
0
100
AcDbPolyline
 62
7
  6
CONTINUOUS
 90
3
 70
0
 10
-0.8583479729
 20
-24.1892836751
 10
-0.8484372971
 20
-24.205561438
 10
-0.8398219942
 20
-24.2225634578
  0
LWPOLYLINE
  5
2FE
100
AcDbEntity
  8
0
100
AcDbPolyline
 62
7
  6
CONTINUOUS
 90
3
 70
0
 10
-14.643392232
 20
2.6755758687
 10
-14.6437237137
 20
2.6766653353
 10
-14.6443933474
 20
2.6771961892
  0
LWPOLYLINE
  5
2FF
100
AcDbEntity
  8
RACCORDO
100
AcDbPolyline
 62
7
  6
CONTINUOUS
 90
7
 70
0
 10
-20.437607354
 20
27.9195894991
 10
-20.4367265775
 20
27.9129972338
 10
-20.4343353292
 20
27.9069332022
 10
-20.4304660007
 20
27.9010630176
 10
-20.4251777187
 20
27.8954763811
 10
-20.4185512924
 20
27.8902586609
 10
-20.4106879791
 20
27.8854895879
  0
LWPOLYLINE
  5
300
100
AcDbEntity
  8
RACCORDO
100
AcDbPolyline
 62
7
  6
CONTINUOUS
 90
7
 70
0
 10
-19.9634024219
 20
28.9762659349
 10
-19.9615663298
 20
28.961440963
 10
-19.9575854381
 20
28.9480917797
 10
-19.9515796837
 20
28.9366205702
 10
-19.9437300082
 20
28.9273729401
 10
-19.9342729076
 20
28.9206275029
 10
-19.931913163
 20
28.9194592343
  0
LWPOLYLINE
  5
301
100
AcDbEntity
  8
0
100
AcDbPolyline
 62
7
  6
CONTINUOUS
 90
6
 70
0
 10
-14.6547718184
 20
-2.5038295246
 10
-14.6506331103
 20
-2.4916614531
 10
-14.6473776277
 20
-2.4784766118
 10
-14.6450522531
 20
-2.4644435501
 10
-14.6437237137
 20
-2.4496768904
 10
-14.643392232
 20
-2.4369316247
  0
LINE
  5
302
100
AcDbEntity
  8
RACCORDO
100
AcDbLine
 62
7
  6
CONTINUOUS
 10
-18.6916069124
 20
-13.8056396717
 11
-19.1373532546
 21
-14.9819227921
  0
LINE
  5
303
100
AcDbEntity
  8
RACCORDO
100
AcDbLine
 62
7
  6
CONTINUOUS
 10
-18.4329131451
 20
-13.8988351911
 11
-18.8786594872
 21
-15.0751183115
  0
LWPOLYLINE
  5
304
100
AcDbEntity
  8
RACCORDO
100
AcDbPolyline
 62
7
  6
CONTINUOUS
 90
28
 70
0
 10
-18.8786594872
 20
-15.0751183115
 10
-18.8929269766
 20
-15.1115887132
 10
-18.9073048669
 20
-15.1467509156
 10
-18.9217931581
 20
-15.1806049188
 10
-18.9364117224
 20
-15.2131076029
 10
-18.9511406876
 20
-15.2443020878
 10
-18.9659204367
 20
-15.2743177333
 10
-18.9807442678
 20
-15.3031663891
 10
-18.9956188829
 20
-15.3308362056
 10
-19.0105047709
 20
-15.3574209931
 10
-19.0253989073
 20
-15.3829311373
 10
-19.0403043166
 20
-15.4073562527
 10
-19.0551905618
 20
-15.4307589937
 10
-19.0700548991
 20
-15.4531458135
 10
-19.0849000723
 20
-15.4745102588
 10
-19.099703875
 20
-15.4948956243
 10
-19.114457888
 20
-15.5143013852
 10
-19.1291705305
 20
-15.5327280662
 10
-19.1438448538
 20
-15.5502205358
 10
-19.1584756721
 20
-15.5667865994
 10
-19.1730681711
 20
-15.5824184517
 10
-19.1876409596
 20
-15.5971375449
 10
-19.202187245
 20
-15.6109560886
 10
-19.2167138198
 20
-15.6238618734
 10
-19.2312596705
 20
-15.6358397231
 10
-19.2458377927
 20
-15.6468845791
 10
-19.2604351908
 20
-15.6570015001
 10
-19.2750518649
 20
-15.666190486
  0
LINE
  5
305
100
AcDbEntity
  8
0
100
AcDbLine
 62
7
  6
CONTINUOUS
 10
-14.6597576402
 20
-2.5149226858
 11
-14.6547718184
 21
-2.5038295246
  0
LINE
  5
306
100
AcDbEntity
  8
0
100
AcDbLine
 62
7
  6
CONTINUOUS
 10
-15.0775514304
 20
2.8505375672
 11
-16.9461778919
 21
1.9553361027
  0
LWPOLYLINE
  5
307
100
AcDbEntity
  8
RACCORDO
100
AcDbPolyline
 62
7
  6
CONTINUOUS
 90
7
 70
0
 10
-19.2750518713
 20
-15.6661904905
 10
-19.2985712973
 20
-15.6692160251
 10
-19.3222619207
 20
-15.6720717051
 10
-19.3460384403
 20
-15.6746666578
 10
-19.3698160315
 20
-15.6768980759
 10
-19.3935115972
 20
-15.6786513205
 10
-19.4170451535
 20
-15.6798002361
  0
LWPOLYLINE
  5
308
100
AcDbEntity
  8
0
100
AcDbPolyline
 62
7
  6
CONTINUOUS
 90
19
 70
0
 10
-0.8398219942
 20
-24.2225634578
 10
-0.8325020642
 20
-24.2402897345
 10
-0.826603715
 20
-24.2589208247
 10
-0.8220007388
 20
-24.2782761718
 10
-0.8183145114
 20
-24.2978141056
 10
-0.8155190458
 20
-24.3174199361
 10
-0.8136403292
 20
-24.3372083533
 10
-0.8123776989
 20
-24.356981757
 10
-0.8116953713
 20
-24.3767193911
 10
-0.81162913
 20
-24.3964420117
 10
-0.8119856635
 20
-24.4160142867
 10
-0.8127439429
 20
-24.4354107151
 10
-0.813924997
 20
-24.4546567977
 10
-0.815398601
 20
-24.4736937052
 10
-0.8171514577
 20
-24.4924821928
 10
-0.8191968643
 20
-24.5110615052
 10
-0.8214444879
 20
-24.5294905473
 10
-0.8239029943
 20
-24.5477539577
 10
-0.8265637178
 20
-24.5658670979
  0
LWPOLYLINE
  5
309
100
AcDbEntity
  8
RACCORDO
100
AcDbPolyline
 62
7
  6
CONTINUOUS
 90
28
 70
0
 10
-19.1373532546
 20
26.3508117245
 10
-19.1444477487
 20
26.3782161832
 10
-19.1516626716
 20
26.4049872627
 10
-19.158966378
 20
26.4311203141
 10
-19.1663176011
 20
26.4566033513
 10
-19.1736990581
 20
26.4814361845
 10
-19.1811203582
 20
26.5056329843
 10
-19.1885601778
 20
26.5291820599
 10
-19.1959966552
 20
26.5520843588
 10
-19.2034449664
 20
26.5743765831
 10
-19.2108877308
 20
26.5960500604
 10
-19.2183094694
 20
26.6171044517
 10
-19.2257326722
 20
26.6375926819
 10
-19.233145113
 20
26.6575162401
 10
-19.2405333576
 20
26.6768673179
 10
-19.247920943
 20
26.6956886594
 10
-19.2552956788
 20
26.7139816696
 10
-19.2626482103
 20
26.7317412181
 10
-19.270007767
 20
26.7490041109
 10
-19.2773694569
 20
26.7657897139
 10
-19.2847182215
 20
26.7820784051
 10
-19.2920682269
 20
26.7978517479
 10
-19.2994216326
 20
26.8131364473
 10
-19.3067556333
 20
26.8279073684
 10
-19.3140468681
 20
26.8420686378
 10
-19.3212808583
 20
26.8555874759
 10
-19.3284517607
 20
26.8684950039
 10
-19.3355494465
 20
26.8807901853
  0
LWPOLYLINE
  5
30A
100
AcDbEntity
  8
RACCORDO
100
AcDbPolyline
 62
7
  6
CONTINUOUS
 90
7
 70
0
 10
-19.3355494466
 20
-15.5526303984
 10
-19.3500639914
 20
-15.5728874826
 10
-19.3643760749
 20
-15.5935285192
 10
-19.3783640163
 20
-15.6145417913
 10
-19.3918987819
 20
-15.6359213604
 10
-19.4048449026
 20
-15.6576677456
 10
-19.4170616007
 20
-15.6797885846
  0
LWPOLYLINE
  5
30B
100
AcDbEntity
  8
0
100
AcDbPolyline
 62
7
  6
CONTINUOUS
 90
6
 70
0
 10
-14.6947575313
 20
-2.5542162546
 10
-14.6866063908
 20
-2.5485214919
 10
-14.6789917012
 20
-2.5417530076
 10
-14.6719545571
 20
-2.5339013261
 10
-14.6655207103
 20
-2.5249561687
 10
-14.6597576402
 20
-2.5149226858
  0
LINE
  5
30C
100
AcDbEntity
  8
0
100
AcDbLine
 62
7
  6
CONTINUOUS
 10
-14.7019651401
 20
-2.5584889409
 11
-16.9461778919
 21
-3.8246427131
  0
LINE
  5
30D
100
AcDbEntity
  8
DRAFT
100
AcDbLine
 62
7
  6
CONTINUOUS
 10
33.8878140659
 20
24.2441769351
 11
34.6540881867
 21
24.676498188
  0
LINE
  5
30E
100
AcDbEntity
  8
RACCORDO
100
AcDbLine
 62
7
  6
CONTINUOUS
 10
30.1876709286
 20
23.1877193985
 11
33.215814901
 21
24.7350384741
  0
LINE
  5
30F
100
AcDbEntity
  8
RACCORDO
100
AcDbLine
 62
7
  6
CONTINUOUS
 10
31.5727078541
 20
20.9004243524
 11
34.6457811273
 21
22.470722873
  0
LINE
  5
310
100
AcDbEntity
  8
RACCORDO
100
AcDbLine
 62
7
  6
CONTINUOUS
 10
13.3898272317
 20
11.8941066634
 11
13.7361516611
 21
12.0697982201
  0
LINE
  5
311
100
AcDbEntity
  8
DRAFT
100
AcDbLine
 62
7
  6
CONTINUOUS
 10
34.5516831917
 20
23.0924755551
 11
35.3611949679
 21
23.4569193936
  0
LINE
  5
312
100
AcDbEntity
  8
0
100
AcDbLine
 62
7
  6
CONTINUOUS
 10
-14.7019651401
 20
2.6558180691
 11
-16.9461778919
 21
1.6777590895
  0
LWPOLYLINE
  5
313
100
AcDbEntity
  8
RACCORDO
100
AcDbPolyline
 62
7
  6
CONTINUOUS
 90
13
 70
0
 10
14.0722579467
 20
10.710985475
 10
14.0625778436
 20
10.7071415317
 10
14.0520231752
 20
10.7039241192
 10
14.0407552251
 20
10.7013824022
 10
14.0289461768
 20
10.6995552203
 10
14.0167764819
 20
10.6984704941
 10
14.004432103
 20
10.6981447993
 10
13.9921016722
 20
10.6985831126
 10
13.9799736083
 20
10.6997787363
 10
13.9682332378
 20
10.7017134002
 10
13.957059963
 20
10.7043575413
 10
13.9466245204
 20
10.7076707548
 10
13.937086372
 20
10.7116024123
  0
LINE
  5
314
100
AcDbEntity
  8
0
100
AcDbLine
 62
7
  6
CONTINUOUS
 10
-15.0775514304
 20
2.8505375672
 11
-14.6947575313
 21
2.6591406177
  0
LINE
  5
315
100
AcDbEntity
  8
0
100
AcDbLine
 62
7
  6
CONTINUOUS
 10
-15.0268865094
 20
2.8684427734
 11
-14.6446731278
 21
2.6773360826
  0
LWPOLYLINE
  5
316
100
AcDbEntity
  8
RACCORDO
100
AcDbPolyline
 62
7
  6
CONTINUOUS
 90
7
 70
0
 10
12.7584065936
 20
-31.6829197109
 10
12.7738910617
 20
-31.7056556303
 10
12.7909043248
 20
-31.7289783998
 10
12.8095086483
 20
-31.7527900486
 10
12.829763312
 20
-31.7769832704
 10
12.8517236296
 20
-31.8014418164
 10
12.8754399158
 20
-31.8260410536
  0
LWPOLYLINE
  5
317
100
AcDbEntity
  8
0
100
AcDbPolyline
 62
7
  6
CONTINUOUS
 90
3
 70
0
 10
-14.643392232
 20
22.1611474539
 10
-14.6437237137
 20
22.1622369204
 10
-14.6443933474
 20
22.1627677744
  0
LINE
  5
318
100
AcDbEntity
  8
COPIA_X_PUBLISH
100
AcDbLine
 62
7
  6
CONTINUOUS
 10
-2.6313694118
 20
-18.0605236325
 11
-2.6313694118
 21
-18.5726497674
  0
LINE
  5
319
100
AcDbEntity
  8
COPIA_X_PUBLISH
100
AcDbLine
 62
7
  6
CONTINUOUS
 10
-2.5799983769
 20
-18.0447708576
 11
-2.5799983769
 21
-18.555316204
  0
LINE
  5
31A
100
AcDbEntity
  8
0
100
AcDbLine
 62
7
  6
CONTINUOUS
 10
-3.5610080649
 20
-22.4217401682
 11
-3.6912300345
 21
-23.8163166451
  0
LINE
  5
31B
100
AcDbEntity
  8
0
100
AcDbLine
 62
7
  6
CONTINUOUS
 10
-3.4809232686
 20
-22.38169777
 11
-3.6111452382
 21
-23.776274247
  0
LINE
  5
31C
100
AcDbEntity
  8
0
100
AcDbLine
 62
7
  6
CONTINUOUS
 10
-3.3701554103
 20
-22.9825466599
 11
-3.257303106
 21
-21.7978600941
  0
LINE
  5
31D
100
AcDbEntity
  8
0
100
AcDbLine
 62
7
  6
CONTINUOUS
 10
-5.1915937059
 20
-20.8307147942
 11
-5.46482779
 21
-22.9295177674
  0
LINE
  5
31E
100
AcDbEntity
  8
0
100
AcDbLine
 62
7
  6
CONTINUOUS
 10
-5.1212976275
 20
-20.8658628334
 11
-5.3847429937
 21
-22.8894753692
  0
LINE
  5
31F
100
AcDbEntity
  8
0
100
AcDbLine
 62
7
  6
CONTINUOUS
 10
-5.1262012884
 20
-22.4021195203
 11
-4.9030050437
 21
-20.9750091253
  0
LWPOLYLINE
  5
320
100
AcDbEntity
  8
RACCORDO
100
AcDbPolyline
 62
7
  6
CONTINUOUS
 90
13
 70
0
 10
13.3898272312
 20
11.8941066112
 10
13.381189532
 20
11.8882797151
 10
13.3726772371
 20
11.8812345509
 10
13.3644260907
 20
11.8730834667
 10
13.3565676725
 20
11.8639564466
 10
13.3492272997
 20
11.8539990378
 10
13.342522028
 20
11.8433700297
 10
13.3365587854
 20
11.8322389213
 10
13.3314326668
 20
11.8207832189
 10
13.3272254176
 20
11.8091856046
 10
13.3240041303
 20
11.797631024
 10
13.3218201741
 20
11.7863037363
 10
13.3207083764
 20
11.7753843758
  0
LINE
  5
321
100
AcDbEntity
  8
RACCORDO
100
AcDbLine
 62
7
  6
CONTINUOUS
 10
14.0722579467
 20
10.710985475
 11
14.3914379308
 21
10.8729502313
  0
LWPOLYLINE
  5
322
100
AcDbEntity
  8
0
100
AcDbPolyline
 62
7
  6
CONTINUOUS
 90
11
 70
0
 10
-14.6443933474
 20
2.6771961892
 10
-14.6450522531
 20
2.6774349984
 10
-14.6473776277
 20
2.6775955197
 10
-14.6506331103
 20
2.6771277438
 10
-14.6547718184
 20
2.6760630694
 10
-14.6597576402
 20
2.6744464303
 10
-14.6655207103
 20
2.6722959614
 10
-14.6719545571
 20
2.6696416643
 10
-14.6789917012
 20
2.6665299273
 10
-14.6866063908
 20
2.6630127217
 10
-14.6947575313
 20
2.6591406177
  0
LINE
  5
323
100
AcDbEntity
  8
DRAFT
100
AcDbLine
 62
7
  6
CONTINUOUS
 10
34.8662202211
 20
-18.6521511882
 11
35.3611949679
 21
-18.8996385616
  0
LWPOLYLINE
  5
324
100
AcDbEntity
  8
RACCORDO
100
AcDbPolyline
 62
7
  6
CONTINUOUS
 90
28
 70
0
 10
-18.8786594872
 20
26.4202459249
 10
-18.8929481695
 20
26.4446213967
 10
-18.9073570545
 20
26.4685698975
 10
-18.9218861423
 20
26.4920914275
 10
-18.9365628492
 20
26.5151940285
 10
-18.9513597589
 20
26.5378696586
 10
-18.9661946225
 20
26.5600941921
 10
-18.9810554268
 20
26.5818580752
 10
-18.995954185
 20
26.6031708618
 10
-19.0108446887
 20
26.624037088
 10
-19.025716188
 20
26.6444488693
 10
-19.0405794329
 20
26.6644140902
 10
-19.0554204648
 20
26.6839609402
 10
-19.0702347868
 20
26.7030897727
 10
-19.0850268959
 20
26.7218002344
 10
-19.0997963234
 20
26.7401194539
 10
-19.1145372871
 20
26.7580462444
 10
-19.1292555694
 20
26.7755817929
 10
-19.143968049
 20
26.7927567893
 10
-19.1586843241
 20
26.8095870047
 10
-19.1733947966
 20
26.826056668
 10
-19.1880875508
 20
26.8421491559
 10
-19.2027881048
 20
26.8578919008
 10
-19.2174709406
 20
26.8732574702
 10
-19.2320475876
 20
26.8881469436
 10
-19.2464885559
 20
26.9025273473
 10
-19.2608233355
 20
26.916431655
 10
-19.2750519264
 20
26.9298598666
  0
LINE
  5
325
100
AcDbEntity
  8
RACCORDO
100
AcDbLine
 62
7
  6
CONTINUOUS
 10
-18.6916069124
 20
25.5758804133
 11
-19.1373532546
 21
26.3508117245
  0
LINE
  5
326
100
AcDbEntity
  8
RACCORDO
100
AcDbLine
 62
7
  6
CONTINUOUS
 10
-18.4329131451
 20
25.6453146137
 11
-18.8786594872
 21
26.4202459249
  0
LWPOLYLINE
  5
327
100
AcDbEntity
  8
RACCORDO
100
AcDbPolyline
 62
7
  6
CONTINUOUS
 90
7
 70
0
 10
-19.3355494465
 20
26.8807901853
 10
-19.350167169
 20
26.9068324135
 10
-19.3645350082
 20
26.9344347928
 10
-19.3785346122
 20
26.9636040341
 10
-19.3920419823
 20
26.9943412464
 10
-19.4049284132
 20
27.0266413984
 10
-19.4170616007
 20
27.0604928066
  0
LWPOLYLINE
  5
328
100
AcDbEntity
  8
0
100
AcDbPolyline
 62
7
  6
CONTINUOUS
 90
16
 70
0
 10
-1.0967682659
 20
-24.4355543026
 10
-1.09529175
 20
-24.4146524026
 10
-1.0948063876
 20
-24.3940755974
 10
-1.0953121788
 20
-24.373823887
 10
-1.0967698484
 20
-24.3537671926
 10
-1.0992186716
 20
-24.334035593
 10
-1.1027764737
 20
-24.3150193247
 10
-1.1074505455
 20
-24.296666463
 10
-1.1132335963
 20
-24.2790289327
 10
-1.1202215786
 20
-24.2626527444
 10
-1.1285307374
 20
-24.2476291166
 10
-1.1380448278
 20
-24.2338668307
 10
-1.148511067
 20
-24.2216382427
 10
-1.1598451943
 20
-24.2110341376
 10
-1.1721314705
 20
-24.2019637302
 10
-1.1853698956
 20
-24.1944270206
  0
LWPOLYLINE
  5
329
100
AcDbEntity
  8
0
100
AcDbPolyline
 62
7
  6
CONTINUOUS
 90
6
 70
0
 10
-1.0166710026
 20
-24.3953776174
 10
-1.0242012999
 20
-24.4611939348
 10
-1.0324916915
 20
-24.5281384266
 10
-1.0415421774
 20
-24.596211093
 10
-1.0515779395
 20
-24.6653880574
 10
-1.0732542014
 20
-24.807198139
  0
LINE
  5
32A
100
AcDbEntity
  8
0
100
AcDbLine
 62
7
  6
CONTINUOUS
 10
-1.9352357023
 20
-24.6943138112
 11
-1.6490269159
 21
-22.6019981892
  0
LINE
  5
32B
100
AcDbEntity
  8
0
100
AcDbLine
 62
7
  6
CONTINUOUS
 10
-1.1858119635
 20
-25.0690258172
 11
-1.1529847642
 21
-24.8448368379
  0
LINE
  5
32C
100
AcDbEntity
  8
0
100
AcDbLine
 62
7
  6
CONTINUOUS
 10
-1.0732542014
 20
-24.807198139
 11
-1.1057271672
 21
-25.0289834191
  0
LWPOLYLINE
  5
32D
100
AcDbEntity
  8
0
100
AcDbPolyline
 62
7
  6
CONTINUOUS
 90
6
 70
0
 10
-1.1529847642
 20
-24.8448368379
 10
-1.1312697132
 20
-24.7027395367
 10
-1.1212746607
 20
-24.6338366845
 10
-1.1123054503
 20
-24.5663294715
 10
-1.104136652
 20
-24.5002353442
 10
-1.0967682659
 20
-24.4355543026
  0
LWPOLYLINE
  5
32E
100
AcDbEntity
  8
0
100
AcDbPolyline
 62
7
  6
CONTINUOUS
 90
4
 70
0
 10
-0.8265637178
 20
-24.5658670979
 10
-0.8321040497
 20
-24.6019925303
 10
-0.8349836581
 20
-24.6200048226
 10
-0.8692312774
 20
-24.829700957
  0
LINE
  5
32F
100
AcDbEntity
  8
0
100
AcDbLine
 62
7
  6
CONTINUOUS
 10
-2.1489564823
 20
-24.1411839223
 11
-2.2152301887
 21
-24.554316568
  0
LINE
  5
330
100
AcDbEntity
  8
0
100
AcDbLine
 62
7
  6
CONTINUOUS
 10
-2.068871686
 20
-24.1011415241
 11
-2.1351453924
 21
-24.5142741699
  0
LINE
  5
331
100
AcDbEntity
  8
0
100
AcDbLine
 62
7
  6
CONTINUOUS
 10
-0.8692312774
 20
-24.829700957
 11
-0.9302778352
 21
-25.1967928814
  0
LINE
  5
332
100
AcDbEntity
  8
0
100
AcDbLine
 62
7
  6
CONTINUOUS
 10
-1.9684560589
 20
-23.0565200559
 11
-2.0975142069
 21
-23.8215841399
  0
LINE
  5
333
100
AcDbEntity
  8
0
100
AcDbLine
 62
7
  6
CONTINUOUS
 10
-1.8883712626
 20
-23.0164776577
 11
-2.0174294106
 21
-23.7815417417
  0
LINE
  5
334
100
AcDbEntity
  8
DRAFT
100
AcDbLine
 62
7
  6
CONTINUOUS
 10
-3.1251114106
 20
-18.9093699342
 11
-3.2072035102
 21
-19.2435512813
  0
LINE
  5
335
100
AcDbEntity
  8
0
100
AcDbLine
 62
7
  6
CONTINUOUS
 10
-3.0236342589
 20
-24.1501145329
 11
-2.4659445518
 21
-22.1935393712
  0
LWPOLYLINE
  5
336
100
AcDbEntity
  8
DRAFT
100
AcDbPolyline
 62
7
  6
CONTINUOUS
 90
8
 70
0
 10
-3.2072035102
 20
-19.2435512813
 10
-3.2128550716
 20
-19.2621659477
 10
-3.2200174249
 20
-19.2789299974
 10
-3.2286905702
 20
-19.2938434305
 10
-3.2390066224
 20
-19.3070246909
 10
-3.2508334666
 20
-19.3183553347
 10
-3.2637747582
 20
-19.3274800299
 10
-3.2694763876
 20
-19.3305957674
  0
LINE
  5
337
100
AcDbEntity
  8
0
100
AcDbLine
 62
7
  6
CONTINUOUS
 10
-2.8980702678
 20
-22.7592948704
 11
-3.2835207497
 21
-24.0201712875
  0
LINE
  5
338
100
AcDbEntity
  8
0
100
AcDbLine
 62
7
  6
CONTINUOUS
 10
-2.8179854715
 20
-22.7192524723
 11
-3.2034359534
 21
-23.9801288894
  0
LINE
  5
339
100
AcDbEntity
  8
0
100
AcDbLine
 62
7
  6
CONTINUOUS
 10
-4.0462925521
 20
-21.403231235
 11
-4.7230338856
 21
-23.3004147196
  0
LINE
  5
33A
100
AcDbEntity
  8
0
100
AcDbLine
 62
7
  6
CONTINUOUS
 10
-3.9904508241
 20
-21.431152099
 11
-4.6429490893
 21
-23.2603723214
  0
LINE
  5
33B
100
AcDbEntity
  8
0
100
AcDbLine
 62
7
  6
CONTINUOUS
 10
-4.4573738679
 20
-23.4332447284
 11
-3.7806325345
 21
-21.5360612438
  0
LINE
  5
33C
100
AcDbEntity
  8
COPIA_X_PUBLISH
100
AcDbLine
 62
7
  6
CONTINUOUS
 10
-8.4687106221
 20
-16.8929462373
 11
-8.3733594485
 21
-16.7284897898
  0
LINE
  5
33D
100
AcDbEntity
  8
COPIA_X_PUBLISH
100
AcDbLine
 62
7
  6
CONTINUOUS
 10
-8.1151572315
 20
-16.716169542
 11
-8.0198060579
 21
-16.5517130945
  0
LINE
  5
33E
100
AcDbEntity
  8
COPIA_X_PUBLISH
100
AcDbLine
 62
7
  6
CONTINUOUS
 10
-7.7616038409
 20
-16.5393928467
 11
-7.6662526673
 21
-16.3749363992
  0
LINE
  5
33F
100
AcDbEntity
  8
COPIA_X_PUBLISH
100
AcDbLine
 62
7
  6
CONTINUOUS
 10
-7.4080504503
 20
-16.3626161514
 11
-7.3126992767
 21
-16.1981597039
  0
LINE
  5
340
100
AcDbEntity
  8
COPIA_X_PUBLISH
100
AcDbLine
 62
7
  6
CONTINUOUS
 10
-7.0544970597
 20
-16.1858394562
 11
-6.9591458861
 21
-16.0213830086
  0
LWPOLYLINE
  5
341
100
AcDbEntity
  8
RACCORDO
100
AcDbPolyline
 62
7
  6
CONTINUOUS
 90
16
 70
0
 10
-18.258928624
 20
-13.2900620589
 10
-18.2950303236
 20
-13.3100449856
 10
-18.3304431819
 20
-13.3324600783
 10
-18.3651671991
 20
-13.357307337
 10
-18.3993455507
 20
-13.3847266059
 10
-18.432835061
 20
-13.4145780407
 10
-18.4652062032
 20
-13.4464421088
 10
-18.496442393
 20
-13.4803318733
 10
-18.5265602145
 20
-13.5162342711
 10
-18.5551798929
 20
-13.5536905802
 10
-18.5822885583
 20
-13.592714688
 10
-18.6078990806
 20
-13.6332927073
 10
-18.6316702938
 20
-13.6749242537
 10
-18.6534884758
 20
-13.7174425325
 10
-18.6734673487
 20
-13.7610143385
 10
-18.6916069124
 20
-13.8056396717
  0
LWPOLYLINE
  5
342
100
AcDbEntity
  8
RACCORDO
100
AcDbPolyline
 62
7
  6
CONTINUOUS
 90
16
 70
0
 10
-18.1177010809
 20
-13.5336435397
 10
-18.1438985712
 20
-13.5475447984
 10
-18.1697921891
 20
-13.5633769943
 10
-18.1952688418
 20
-13.5810455068
 10
-18.2202122625
 20
-13.6004328496
 10
-18.2445235445
 20
-13.6214434808
 10
-18.2681182247
 20
-13.6440136338
 10
-18.2908981762
 20
-13.6680340004
 10
-18.3127630547
 20
-13.6933810682
 10
-18.3336247645
 20
-13.7199735291
 10
-18.3533900422
 20
-13.747683944
 10
-18.3719732955
 20
-13.7763815415
 10
-18.3892967854
 20
-13.8059804131
 10
-18.4052792825
 20
-13.8363597008
 10
-18.4198418193
 20
-13.8673601935
 10
-18.4329131451
 20
-13.8988351911
  0
LINE
  5
343
100
AcDbEntity
  8
RACCORDO
100
AcDbLine
 62
7
  6
CONTINUOUS
 10
-16.9461778919
 20
-12.6189945964
 11
-18.258928624
 21
-13.2900620589
  0
LINE
  5
344
100
AcDbEntity
  8
RACCORDO
100
AcDbLine
 62
7
  6
CONTINUOUS
 10
-16.8049503487
 20
-12.8625760772
 11
-18.1177010809
 21
-13.5336435397
  0
LINE
  5
345
100
AcDbEntity
  8
RACCORDO
100
AcDbLine
 62
7
  6
CONTINUOUS
 10
-20.4638390731
 20
-15.3566845438
 11
-20.5887674548
 21
-15.4193119351
  0
LWPOLYLINE
  5
346
100
AcDbEntity
  8
0
100
AcDbPolyline
 62
7
  6
CONTINUOUS
 90
16
 70
0
 10
-0.7625004772
 20
-23.692554695
 10
-0.7554770868
 20
-23.6700143072
 10
-0.7499807476
 20
-23.6468869243
 10
-0.7460114595
 20
-23.6231725462
 10
-0.7434380514
 20
-23.5985497404
 10
-0.7423916944
 20
-23.5733399394
 10
-0.7432659019
 20
-23.5485074408
 10
-0.7462453351
 20
-23.523984096
 10
-0.7511453327
 20
-23.4998380536
 10
-0.7578054244
 20
-23.4772380564
 10
-0.7664121298
 20
-23.4564339984
 10
-0.7767789292
 20
-23.4371759856
 10
-0.7881857927
 20
-23.4198830794
 10
-0.8003927102
 20
-23.4046949667
 10
-0.8136396918
 20
-23.3914719604
 10
-0.8279267373
 20
-23.3802140607
  0
LWPOLYLINE
  5
347
100
AcDbEntity
  8
RACCORDO
100
AcDbPolyline
 62
7
  6
CONTINUOUS
 90
7
 70
0
 10
12.8228970599
 20
10.8015669257
 10
12.8284693766
 20
10.8173528995
 10
12.8352964853
 20
10.8342514507
 10
12.8434018201
 20
10.8523234196
 10
12.8527972578
 20
10.8716333233
 10
12.8634817611
 20
10.8922488965
 10
12.8754400543
 20
10.914240528
  0
LINE
  5
348
100
AcDbEntity
  8
0
100
AcDbLine
 62
7
  6
CONTINUOUS
 10
-1.1884303457
 20
-22.8584139345
 11
-1.8572249033
 21
-24.7333193474
  0
LINE
  5
349
100
AcDbEntity
  8
0
100
AcDbLine
 62
7
  6
CONTINUOUS
 10
-1.1300565451
 20
-22.879236361
 11
-1.777140107
 21
-24.6932769492
  0
LINE
  5
34A
100
AcDbEntity
  8
0
100
AcDbLine
 62
7
  6
CONTINUOUS
 10
-1.2257921595
 20
-23.8081081396
 11
-1.0400246329
 21
-23.2873255807
  0
LINE
  5
34B
100
AcDbEntity
  8
0
100
AcDbLine
 62
7
  6
CONTINUOUS
 10
-1.5926337483
 20
-24.8656149248
 11
-1.3278104881
 21
-24.1232067244
  0
LINE
  5
34C
100
AcDbEntity
  8
0
100
AcDbLine
 62
7
  6
CONTINUOUS
 10
-0.8583479729
 20
-24.1892836751
 11
-0.854349262
 21
-24.1780736484
  0
LWPOLYLINE
  5
34D
100
AcDbEntity
  8
0
100
AcDbPolyline
 62
7
  6
CONTINUOUS
 90
16
 70
0
 10
-0.6824698476
 20
-23.6526692217
 10
-0.6910222138
 20
-23.6749859455
 10
-0.6998784893
 20
-23.6958956878
 10
-0.7090386744
 20
-23.7153984486
 10
-0.718571803
 20
-23.7334401829
 10
-0.728408841
 20
-23.7500749357
 10
-0.7383426862
 20
-23.7654648419
 10
-0.7482921213
 20
-23.7795898144
 10
-0.7583383636
 20
-23.7924699403
 10
-0.7685179629
 20
-23.8043276161
 10
-0.778848098
 20
-23.8152447076
 10
-0.7893115902
 20
-23.8251393489
 10
-0.7998934533
 20
-23.8339883386
 10
-0.8106141979
 20
-23.8417871019
 10
-0.8214533134
 20
-23.8485402136
 10
-0.828751091
 20
-23.8524788647
  0
LINE
  5
34E
100
AcDbEntity
  8
0
100
AcDbLine
 62
7
  6
CONTINUOUS
 10
-4.0602103737
 20
-23.6318264755
 11
-3.5610080649
 21
-22.4217401682
  0
LINE
  5
34F
100
AcDbEntity
  8
0
100
AcDbLine
 62
7
  6
CONTINUOUS
 10
-3.5227439205
 20
-21.6651396869
 11
-4.3143608143
 21
-23.5047512552
  0
LINE
  5
350
100
AcDbEntity
  8
0
100
AcDbLine
 62
7
  6
CONTINUOUS
 10
-3.4697104385
 20
-21.6879609177
 11
-4.234276018
 21
-23.4647088571
  0
LINE
  5
351
100
AcDbEntity
  8
COPIA_X_PUBLISH
100
AcDbLine
 62
7
  6
CONTINUOUS
 10
-4.5903381692
 20
-18.8559702572
 11
-4.484272152
 21
-18.673033438
  0
LINE
  5
352
100
AcDbEntity
  8
COPIA_X_PUBLISH
100
AcDbLine
 62
7
  6
CONTINUOUS
 10
-4.2367847786
 20
-18.6791935619
 11
-4.1307187614
 21
-18.4962567427
  0
LINE
  5
353
100
AcDbEntity
  8
COPIA_X_PUBLISH
100
AcDbLine
 62
7
  6
CONTINUOUS
 10
-3.883231388
 20
-18.5024168666
 11
-3.7771653708
 21
-18.3194800474
  0
LINE
  5
354
100
AcDbEntity
  8
COPIA_X_PUBLISH
100
AcDbLine
 62
7
  6
CONTINUOUS
 10
-3.5296779974
 20
-18.3256401713
 11
-3.4236119802
 21
-18.1427033521
  0
LINE
  5
355
100
AcDbEntity
  8
COPIA_X_PUBLISH
100
AcDbLine
 62
7
  6
CONTINUOUS
 10
-3.1761246068
 20
-18.148863476
 11
-3.0700585896
 21
-17.9659266568
  0
LINE
  5
356
100
AcDbEntity
  8
0
100
AcDbLine
 62
7
  6
CONTINUOUS
 10
-4.4103991046
 20
-21.2213120948
 11
-5.1262012884
 21
-22.4021195203
  0
LINE
  5
357
100
AcDbEntity
  8
0
100
AcDbLine
 62
7
  6
CONTINUOUS
 10
-4.3695857788
 20
-21.2460530196
 11
-5.0461164921
 21
-22.3620771221
  0
LINE
  5
358
100
AcDbEntity
  8
0
100
AcDbLine
 62
7
  6
CONTINUOUS
 10
-5.2307146342
 20
-23.0465743453
 11
-4.1449201062
 21
-21.354051594
  0
LINE
  5
359
100
AcDbEntity
  8
RACCORDO
100
AcDbLine
 62
7
  6
CONTINUOUS
 10
-19.6924599133
 20
-16.6512285503
 11
-19.8866067891
 21
-16.7485506829
  0
LWPOLYLINE
  5
35A
100
AcDbEntity
  8
RACCORDO
100
AcDbPolyline
 62
7
  6
CONTINUOUS
 90
7
 70
0
 10
-19.2750518712
 20
26.929859813
 10
-19.2989294747
 20
26.9483991639
 10
-19.3228172822
 20
26.9682846602
 10
-19.3466429384
 20
26.9894856415
 10
-19.370336166
 20
27.0119595802
 10
-19.3938297886
 20
27.0356514723
 10
-19.4170608212
 20
27.060493335
  0
LWPOLYLINE
  5
35B
100
AcDbEntity
  8
RACCORDO
100
AcDbPolyline
 62
7
  6
CONTINUOUS
 90
7
 70
0
 10
12.8228970598
 20
-31.6318536414
 10
12.8285136974
 20
-31.662396415
 10
12.8353802811
 20
-31.6937494239
 10
12.8435102332
 20
-31.7258534921
 10
12.8529057719
 20
-31.7586466203
 10
12.8635568345
 20
-31.7920644556
 10
12.8754400543
 20
-31.8260408459
  0
LINE
  5
35C
100
AcDbEntity
  8
RACCORDO
100
AcDbLine
 62
7
  6
CONTINUOUS
 10
14.3954456581
 20
-32.9618794871
 11
14.3954219085
 21
-32.9608144871
  0
LWPOLYLINE
  5
35D
100
AcDbEntity
  8
RACCORDO
100
AcDbPolyline
 62
7
  6
CONTINUOUS
 90
6
 70
0
 10
13.6043635775
 20
12.1923828679
 10
13.6046059416
 20
12.178354666
 10
13.606899292
 20
12.1658491681
 10
13.6111745341
 20
12.1552431435
 10
13.617302862
 20
12.1468561336
 10
13.6250437212
 20
12.1409710484
  0
LWPOLYLINE
  5
35E
100
AcDbEntity
  8
RACCORDO
100
AcDbPolyline
 62
7
  6
CONTINUOUS
 90
10
 70
0
 10
12.8122551721
 20
-31.4759143204
 10
12.8123880291
 20
-31.4960398321
 10
12.812782972
 20
-31.5154154783
 10
12.8134396367
 20
-31.5341171467
 10
12.8143577225
 20
-31.5521546989
 10
12.8155359627
 20
-31.5695087929
 10
12.816977829
 20
-31.5861620358
 10
12.8186858638
 20
-31.6021051953
 10
12.8206589799
 20
-31.617337428
 10
12.8228970598
 20
-31.6318536414
  0
LINE
  5
35F
100
AcDbEntity
  8
RACCORDO
100
AcDbLine
 62
7
  6
CONTINUOUS
 10
12.8122551721
 20
-31.4759118091
 11
12.8122551721
 21
10.7091411004
  0
LINE
  5
360
100
AcDbEntity
  8
RACCORDO
100
AcDbLine
 62
7
  6
CONTINUOUS
 10
12.8754400543
 20
-31.8260408459
 11
12.8754400543
 21
10.914240528
  0
LINE
  5
361
100
AcDbEntity
  8
RACCORDO
100
AcDbLine
 62
7
  6
CONTINUOUS
 10
13.9370297715
 20
10.7308470123
 11
13.937086372
 21
-32.6170276661
  0
LINE
  5
362
100
AcDbEntity
  8
RACCORDO
100
AcDbLine
 62
7
  6
CONTINUOUS
 10
14.0722579467
 20
10.710985475
 11
14.0722579467
 21
-32.6176446034
  0
LINE
  5
363
100
AcDbEntity
  8
RACCORDO
100
AcDbLine
 62
7
  6
CONTINUOUS
 10
14.395421896
 20
10.8071938953
 11
14.395421896
 21
-32.9607895512
  0
LINE
  5
364
100
AcDbEntity
  8
RACCORDO
100
AcDbLine
 62
7
  6
CONTINUOUS
 10
14.4272197996
 20
10.7706272643
 11
14.4272197996
 21
-32.9973561823
  0
LWPOLYLINE
  5
365
100
AcDbEntity
  8
RACCORDO
100
AcDbPolyline
 62
7
  6
CONTINUOUS
 90
22
 70
0
 10
13.937086372
 20
-32.6170276661
 10
13.9370217399
 20
-32.6364406348
 10
13.9363316392
 20
-32.6566972573
 10
13.9350160721
 20
-32.6777975324
 10
13.9331658339
 20
-32.6998217768
 10
13.9306901395
 20
-32.7226896683
 10
13.9273166277
 20
-32.7461602437
 10
13.9230239982
 20
-32.7703309063
 10
13.9178335887
 20
-32.7951042327
 10
13.9115370113
 20
-32.8199470111
 10
13.90411125
 20
-32.8448409228
 10
13.8955794032
 20
-32.8698042425
 10
13.8858022768
 20
-32.8943586361
 10
13.8747468027
 20
-32.918498226
 10
13.86244619
 20
-32.9422288144
 10
13.8488606825
 20
-32.9650895753
 10
13.8339547071
 20
-32.9870581955
 10
13.8177640361
 20
-33.0081568816
 10
13.8003559412
 20
-33.0279915815
 10
13.7816886498
 20
-33.0465310734
 10
13.761804174
 20
-33.0638064509
 10
13.7408954483
 20
-33.0795171428
  0
LWPOLYLINE
  5
366
100
AcDbEntity
  8
RACCORDO
100
AcDbPolyline
 62
7
  6
CONTINUOUS
 90
9
 70
0
 10
12.8122551725
 20
10.710016987
 10
12.8123753106
 20
10.7222364153
 10
12.8128351691
 20
10.7361106084
 10
12.8136408914
 20
10.7491809683
 10
12.814792356
 20
10.7614363888
 10
12.8162924916
 20
10.7728031957
 10
12.8181436628
 20
10.7832619553
 10
12.8203452976
 20
10.7928472973
 10
12.8228970599
 20
10.8015669257
  0
LWPOLYLINE
  5
367
100
AcDbEntity
  8
RACCORDO
100
AcDbPolyline
 62
7
  6
CONTINUOUS
 90
10
 70
0
 10
13.6043636425
 20
-33.6505225992
 10
13.6046060494
 20
-33.6346583779
 10
13.6068994288
 20
-33.618172059
 10
13.6111746857
 20
-33.6015603438
 10
13.6173030148
 20
-33.5853237115
 10
13.6250997812
 20
-33.5699513408
 10
13.6343300833
 20
-33.5559063717
 10
13.6447158298
 20
-33.5436119525
 10
13.6559441181
 20
-33.5334384903
 10
13.6676766612
 20
-33.5256924921
  0
LINE
  5
368
100
AcDbEntity
  8
0
100
AcDbLine
 62
7
  6
CONTINUOUS
 10
-2.3518647587
 20
-23.6944088639
 11
-1.9684560589
 21
-23.0565200559
  0
LINE
  5
369
100
AcDbEntity
  8
0
100
AcDbLine
 62
7
  6
CONTINUOUS
 10
-2.7191406439
 20
-24.3023613404
 11
-2.5107413029
 21
-23.960291512
  0
LINE
  5
36A
100
AcDbEntity
  8
0
100
AcDbLine
 62
7
  6
CONTINUOUS
 10
-1.90602134
 20
-22.4735009771
 11
-2.9819184944
 21
-24.1709724152
  0
LINE
  5
36B
100
AcDbEntity
  8
0
100
AcDbLine
 62
7
  6
CONTINUOUS
 10
-1.8669946348
 20
-22.4982370169
 11
-2.9018336981
 21
-24.130930017
  0
LINE
  5
36C
100
AcDbEntity
  8
0
100
AcDbLine
 62
7
  6
CONTINUOUS
 10
-2.7287888703
 20
-22.062117212
 11
-3.3701554103
 21
-22.9825466599
  0
LINE
  5
36D
100
AcDbEntity
  8
0
100
AcDbLine
 62
7
  6
CONTINUOUS
 10
-2.6936619108
 20
-22.0865941087
 11
-3.290070614
 21
-22.9425042618
  0
LINE
  5
36E
100
AcDbEntity
  8
0
100
AcDbLine
 62
7
  6
CONTINUOUS
 10
-3.653971164
 20
-23.8349460804
 11
-2.8980702678
 21
-22.7592948704
  0
LINE
  5
36F
100
AcDbEntity
  8
COPIA_X_PUBLISH
100
AcDbLine
 62
7
  6
CONTINUOUS
 10
-2.8932818943
 20
-18.7912392998
 11
-2.6385770207
 21
-18.6066432489
  0
LINE
  5
370
100
AcDbEntity
  8
COPIA_X_PUBLISH
100
AcDbLine
 62
7
  6
CONTINUOUS
 10
-8.7232411861
 20
-16.9034306585
 11
-8.5854914829
 21
-16.8345558069
  0
LINE
  5
371
100
AcDbEntity
  8
COPIA_X_PUBLISH
100
AcDbLine
 62
7
  6
CONTINUOUS
 10
-8.3733594485
 20
-16.7284897898
 11
-8.2319380923
 21
-16.6577791116
  0
LINE
  5
372
100
AcDbEntity
  8
COPIA_X_PUBLISH
100
AcDbLine
 62
7
  6
CONTINUOUS
 10
-8.0198060579
 20
-16.5517130945
 11
-7.8783847017
 21
-16.4810024163
  0
LINE
  5
373
100
AcDbEntity
  8
COPIA_X_PUBLISH
100
AcDbLine
 62
7
  6
CONTINUOUS
 10
-7.6662526673
 20
-16.3749363992
 11
-7.5248313111
 21
-16.304225721
  0
LINE
  5
374
100
AcDbEntity
  8
COPIA_X_PUBLISH
100
AcDbLine
 62
7
  6
CONTINUOUS
 10
-7.3126992767
 20
-16.1981597039
 11
-7.1712779205
 21
-16.1274490258
  0
LINE
  5
375
100
AcDbEntity
  8
COPIA_X_PUBLISH
100
AcDbLine
 62
7
  6
CONTINUOUS
 10
-6.9591458861
 20
-16.0213830086
 11
-6.8177245299
 21
-15.9506723305
  0
LINE
  5
376
100
AcDbEntity
  8
0
100
AcDbLine
 62
7
  6
CONTINUOUS
 10
-6.8958467872
 20
-15.9354489952
 11
-8.8761402606
 21
-16.8269811213
  0
LINE
  5
377
100
AcDbEntity
  8
COPIA_X_PUBLISH
100
AcDbLine
 62
7
  6
CONTINUOUS
 10
-6.8784517448
 20
-15.9289884488
 11
-6.8880574732
 21
-15.9321796018
  0
LWPOLYLINE
  5
378
100
AcDbEntity
  8
RACCORDO
100
AcDbPolyline
 62
7
  6
CONTINUOUS
 90
7
 70
0
 10
12.7584065937
 20
10.913130576
 10
12.7736395325
 20
10.9120129897
 10
12.7904822174
 20
10.9114447678
 10
12.8090099444
 20
10.9114153435
 10
12.8292963009
 20
10.9119011209
 10
12.85141193
 20
10.9128643343
 10
12.875423182
 20
10.9142519958
  0
LINE
  5
379
100
AcDbEntity
  8
0
100
AcDbLine
 62
7
  6
CONTINUOUS
 10
-15.0775514304
 20
22.3361091524
 11
-14.6947575313
 21
22.1447122028
  0
LINE
  5
37A
100
AcDbEntity
  8
0
100
AcDbLine
 62
7
  6
CONTINUOUS
 10
-15.0268865094
 20
22.3540143586
 11
-14.6446731278
 21
22.1629076678
  0
LWPOLYLINE
  5
37B
100
AcDbEntity
  8
RACCORDO
100
AcDbPolyline
 62
7
  6
CONTINUOUS
 90
13
 70
0
 10
-18.3378609979
 20
25.554227811
 10
-18.347924092
 20
25.559597102
 10
-18.3582311302
 20
25.5658400372
 10
-18.3680365286
 20
25.5725492422
 10
-18.3773416587
 20
25.5796884969
 10
-18.3861530223
 20
25.5872244736
 10
-18.3944175656
 20
25.5950637901
 10
-18.402147893
 20
25.6031618488
 10
-18.4093604679
 20
25.61147755
 10
-18.4160236413
 20
25.6199042334
 10
-18.4221458381
 20
25.6283714341
 10
-18.4277676149
 20
25.6368555802
 10
-18.4329131451
 20
25.6453146137
  0
LINE
  5
37C
100
AcDbEntity
  8
RACCORDO
100
AcDbLine
 62
7
  6
CONTINUOUS
 10
14.3865832302
 20
10.9525692994
 11
14.3954232074
 21
10.8075900713
  0
LINE
  5
37D
100
AcDbEntity
  8
RACCORDO
100
AcDbLine
 62
7
  6
CONTINUOUS
 10
14.424620333
 20
10.8551105008
 11
14.4272197996
 21
10.7706272643
  0
LINE
  5
37E
100
AcDbEntity
  8
RACCORDO
100
AcDbLine
 62
7
  6
CONTINUOUS
 10
14.3954456596
 20
10.8061039236
 11
14.395425035
 21
10.80759006
  0
LWPOLYLINE
  5
37F
100
AcDbEntity
  8
RACCORDO
100
AcDbPolyline
 62
7
  6
CONTINUOUS
 90
26
 70
0
 10
14.0722579171
 20
-32.617644587
 10
14.0719408071
 20
-32.6391346309
 10
14.0711142231
 20
-32.6616989971
 10
14.0696893607
 20
-32.6852762503
 10
14.0675720432
 20
-32.7097972772
 10
14.0646661479
 20
-32.7351828913
 10
14.0608732434
 20
-32.7613428017
 10
14.0560712893
 20
-32.7882660979
 10
14.0501645992
 20
-32.8157507617
 10
14.0431150683
 20
-32.8434218515
 10
14.0348451802
 20
-32.8711458817
 10
14.025266351
 20
-32.8988258138
 10
14.014369296
 20
-32.9261640778
 10
14.0020925406
 20
-32.9530443814
 10
13.9883804845
 20
-32.9793415368
 10
13.9732762752
 20
-33.0047736884
 10
13.9567514679
 20
-33.029228193
 10
13.938782235
 20
-33.0525943935
 10
13.9194638384
 20
-33.0746341063
 10
13.8987949138
 20
-33.095261091
 10
13.8767912562
 20
-33.114381813
 10
13.8536192477
 20
-33.1318018633
 10
13.8292985303
 20
-33.1474777886
 10
13.8038897022
 20
-33.1613486577
 10
13.777669653
 20
-33.1732741565
 10
13.7721146986
 20
-33.1755128664
  0
LWPOLYLINE
  5
380
100
AcDbEntity
  8
RACCORDO
100
AcDbPolyline
 62
7
  6
CONTINUOUS
 90
3
 70
0
 10
14.4272197996
 20
-32.9973561823
 10
14.4244212636
 20
-33.0821433133
 10
14.4154382432
 20
-33.1631262483
  0
LWPOLYLINE
  5
381
100
AcDbEntity
  8
RACCORDO
100
AcDbPolyline
 62
7
  6
CONTINUOUS
 90
3
 70
0
 10
14.3954217156
 20
-32.9608144867
 10
14.3889924994
 20
-33.0777601898
 10
14.36318989
 20
-33.2113749407
  0
LINE
  5
382
100
AcDbEntity
  8
DRAFT
100
AcDbLine
 62
7
  6
CONTINUOUS
 10
12.7847911661
 20
-26.8643212226
 11
12.7026990665
 21
-27.1985025696
  0
LINE
  5
383
100
AcDbEntity
  8
COPIA_X_PUBLISH
100
AcDbLine
 62
7
  6
CONTINUOUS
 10
7.4411919546
 20
-24.8478975257
 11
7.5365431282
 21
-24.6834410781
  0
LINE
  5
384
100
AcDbEntity
  8
0
100
AcDbLine
 62
7
  6
CONTINUOUS
 10
-2.6383829417
 20
-18.064180918
 11
-4.4214471939
 21
-19.0543276546
  0
LINE
  5
385
100
AcDbEntity
  8
0
100
AcDbLine
 62
7
  6
CONTINUOUS
 10
-2.8932818943
 20
-18.7912392998
 11
-3.9107279312
 21
-19.309687286
  0
LINE
  5
386
100
AcDbEntity
  8
DRAFT
100
AcDbLine
 62
7
  6
CONTINUOUS
 10
-3.5683769117
 20
-19.4808627958
 11
-3.2695130016
 21
-19.3306051805
  0
LINE
  5
387
100
AcDbEntity
  8
DRAFT
100
AcDbLine
 62
7
  6
CONTINUOUS
 10
-3.2072035102
 20
-19.2435512813
 11
-3.6241665236
 21
-19.4529679898
  0
LINE
  5
388
100
AcDbEntity
  8
COPIA_X_PUBLISH
100
AcDbLine
 62
7
  6
CONTINUOUS
 10
-4.8341538896
 20
-18.8479743068
 11
-4.6964041863
 21
-18.7790994552
  0
LINE
  5
389
100
AcDbEntity
  8
COPIA_X_PUBLISH
100
AcDbLine
 62
7
  6
CONTINUOUS
 10
-4.484272152
 20
-18.673033438
 11
-4.3428507957
 21
-18.6023227599
  0
LINE
  5
38A
100
AcDbEntity
  8
COPIA_X_PUBLISH
100
AcDbLine
 62
7
  6
CONTINUOUS
 10
-4.1307187614
 20
-18.4962567427
 11
-3.9892974051
 21
-18.4255460646
  0
LINE
  5
38B
100
AcDbEntity
  8
COPIA_X_PUBLISH
100
AcDbLine
 62
7
  6
CONTINUOUS
 10
-3.7771653708
 20
-18.3194800474
 11
-3.6357440146
 21
-18.2487693693
  0
LINE
  5
38C
100
AcDbEntity
  8
COPIA_X_PUBLISH
100
AcDbLine
 62
7
  6
CONTINUOUS
 10
-3.4236119802
 20
-18.1427033521
 11
-3.282190624
 21
-18.071992674
  0
LINE
  5
38D
100
AcDbEntity
  8
COPIA_X_PUBLISH
100
AcDbLine
 62
7
  6
CONTINUOUS
 10
-3.0700585896
 20
-17.9659266568
 11
-2.9286372334
 21
-17.8952159787
  0
LINE
  5
38E
100
AcDbEntity
  8
COPIA_X_PUBLISH
100
AcDbLine
 62
7
  6
CONTINUOUS
 10
-2.8225712162
 20
-17.9720867807
 11
-4.704250079
 21
-18.9129262121
  0
LINE
  5
38F
100
AcDbEntity
  8
0
100
AcDbLine
 62
7
  6
CONTINUOUS
 10
-5.1262012884
 20
-22.4021195203
 11
-5.0461164921
 21
-22.3620771221
  0
LINE
  5
390
100
AcDbEntity
  8
0
100
AcDbLine
 62
7
  6
CONTINUOUS
 10
-5.46482779
 20
-22.9295177674
 11
-5.3847429937
 21
-22.8894753692
  0
LINE
  5
391
100
AcDbEntity
  8
0
100
AcDbLine
 62
7
  6
CONTINUOUS
 10
-3.5610080649
 20
-22.4217401682
 11
-3.4809232686
 21
-22.38169777
  0
LINE
  5
392
100
AcDbEntity
  8
0
100
AcDbLine
 62
7
  6
CONTINUOUS
 10
-4.7230338856
 20
-23.3004147196
 11
-4.6429490893
 21
-23.2603723214
  0
LINE
  5
393
100
AcDbEntity
  8
0
100
AcDbLine
 62
7
  6
CONTINUOUS
 10
-2.6313694118
 20
-18.5726497674
 11
-4.0105628244
 21
-19.2597698394
  0
LWPOLYLINE
  5
394
100
AcDbEntity
  8
COPIA_X_PUBLISH
100
AcDbPolyline
 62
7
  6
CONTINUOUS
 90
11
 70
0
 10
-2.6313694118
 20
-18.0605236325
 10
-2.6232524232
 20
-18.0565881096
 10
-2.6156279379
 20
-18.0530842981
 10
-2.6085615648
 20
-18.0500205132
 10
-2.6021124046
 20
-18.0473912188
 10
-2.5963568299
 20
-18.0452274902
 10
-2.5913780014
 20
-18.0435995075
 10
-2.5872258869
 20
-18.0425597167
 10
-2.58396458
 20
-18.042104604
 10
-2.5816614047
 20
-18.0422299428
 10
-2.5810144972
 20
-18.042452033
  0
LWPOLYLINE
  5
395
100
AcDbEntity
  8
0
100
AcDbPolyline
 62
7
  6
CONTINUOUS
 90
11
 70
0
 10
-14.6443933474
 20
22.1627677744
 10
-14.6450522531
 20
22.1630065835
 10
-14.6473776277
 20
22.1631671049
 10
-14.6506331103
 20
22.162699329
 10
-14.6547718184
 20
22.1616346545
 10
-14.6597576402
 20
22.1600180154
 10
-14.6655207103
 20
22.1578675465
 10
-14.6719545571
 20
22.1552132495
 10
-14.6789917012
 20
22.1521015125
 10
-14.6866063908
 20
22.1485843068
 10
-14.6947575313
 20
22.1447122028
  0
LWPOLYLINE
  5
396
100
AcDbEntity
  8
RACCORDO
100
AcDbPolyline
 62
7
  6
CONTINUOUS
 90
16
 70
0
 10
-18.4329131451
 20
25.6453146137
 10
-18.4477365628
 20
25.6514463105
 10
-18.4636957903
 20
25.6560310329
 10
-18.480626106
 20
25.6590214604
 10
-18.4983527655
 20
25.6603867276
 10
-18.516692805
 20
25.660112743
 10
-18.5354569297
 20
25.6582023344
 10
-18.5544514678
 20
25.65467522
 10
-18.5734803691
 20
25.6495678046
 10
-18.5923472289
 20
25.6429328036
 10
-18.610857315
 20
25.6348386997
 10
-18.6288195774
 20
25.6253690352
 10
-18.6460486205
 20
25.6146215503
 10
-18.6623666168
 20
25.6027071739
 10
-18.6776051417
 20
25.589748879
 10
-18.6916069124
 20
25.5758804133
  0
LWPOLYLINE
  5
397
100
AcDbEntity
  8
RACCORDO
100
AcDbPolyline
 62
7
  6
CONTINUOUS
 90
16
 70
0
 10
-18.8786594872
 20
26.4202459249
 10
-18.8934828734
 20
26.4263776105
 10
-18.9094420704
 20
26.4309623296
 10
-18.9263723585
 20
26.43395276
 10
-18.9440989953
 20
26.4353180349
 10
-18.9624390179
 20
26.4350440612
 10
-18.9812031322
 20
26.4331336651
 10
-19.000197667
 20
26.429606563
 10
-19.0192265722
 20
26.4244991581
 10
-19.0380934419
 20
26.4178641651
 10
-19.0566035434
 20
26.409770065
 10
-19.0745658261
 20
26.4003003995
 10
-19.091794892
 20
26.3895529087
 10
-19.1081129119
 20
26.3776385218
 10
-19.1233514608
 20
26.3646802111
 10
-19.1373532546
 20
26.3508117245
  0
LWPOLYLINE
  5
398
100
AcDbEntity
  8
RACCORDO
100
AcDbPolyline
 62
7
  6
CONTINUOUS
 90
10
 70
0
 10
-20.7319916434
 20
28.3502329857
 10
-20.718805091
 20
28.344314064
 10
-20.7037361018
 20
28.3396518501
 10
-20.6872578737
 20
28.3363927448
 10
-20.6698878574
 20
28.3346390879
 10
-20.6521715038
 20
28.334445945
 10
-20.6346651356
 20
28.3358193793
 10
-20.6179184829
 20
28.3387162613
 10
-20.6024574215
 20
28.3430456223
 10
-20.5887674548
 20
28.3486715115
  0
LINE
  5
399
100
AcDbEntity
  8
RACCORDO
100
AcDbLine
 62
7
  6
CONTINUOUS
 10
-19.7694720866
 20
28.4737563078
 11
-18.162791971
 21
27.7377128031
  0
LWPOLYLINE
  5
39A
100
AcDbEntity
  8
RACCORDO
100
AcDbPolyline
 62
7
  6
CONTINUOUS
 90
8
 70
0
 10
-19.2750519264
 20
26.9298598666
 10
-18.1981202395
 20
26.4354105491
 10
-17.1519907158
 20
25.9525089479
 10
-16.1366633555
 20
25.4811550629
 10
-15.1530292534
 20
25.0215176314
 10
-14.2001973146
 20
24.5734279161
 10
-13.2754942543
 20
24.1363797057
 10
-12.3789641736
 20
23.7104485963
  0
LWPOLYLINE
  5
39B
100
AcDbEntity
  8
RACCORDO
100
AcDbPolyline
 62
7
  6
CONTINUOUS
 90
21
 70
0
 10
-19.8342965573
 20
28.3528868424
 10
-18.2276765429
 20
27.6148931164
 10
-16.6687792125
 20
26.8941263632
 10
-15.1581587338
 20
26.1903404859
 10
-13.6980547203
 20
25.5030719028
 10
-12.2872819358
 20
24.8323083545
 10
-10.9211798057
 20
24.1785134692
 10
-9.6043098388
 20
23.5438449179
 10
-8.3329694367
 20
22.9257478188
 10
-7.0898927682
 20
22.3177155735
 10
-5.8799130832
 20
21.7224732179
 10
-4.698705989
 20
21.1370596729
 10
-3.514895503
 20
20.5466219367
 10
-2.3284502727
 20
19.9518428897
 10
-1.1394173096
 20
19.3520449436
 10
0.0839091666
 20
18.7305580642
 10
1.3463384715
 20
18.0857705134
 10
2.6435252404
 20
17.4195443094
 10
3.9938078246
 20
16.7206064092
 10
5.4017342903
 20
15.9873860681
 10
6.8635419378
 20
15.221878731
  0
LWPOLYLINE
  5
39C
100
AcDbEntity
  8
RACCORDO
100
AcDbPolyline
 62
7
  6
CONTINUOUS
 90
10
 70
0
 10
-19.931913163
 20
28.9194592343
 10
-16.8354872445
 20
27.4959466739
 10
-13.0540393017
 20
25.7211269134
 10
-9.2402254433
 20
23.8915930446
 10
-5.3951470498
 20
22.0078822219
 10
-1.5197697313
 20
20.0704743499
 10
2.3850086919
 20
18.079817036
 10
6.3182008927
 20
16.0364039784
 10
10.2785722303
 20
13.9408636873
 10
13.6250439106
 20
12.1409713993
  0
LWPOLYLINE
  5
39D
100
AcDbEntity
  8
RACCORDO
100
AcDbPolyline
 62
7
  6
CONTINUOUS
 90
16
 70
0
 10
-19.4170616007
 20
27.0604936956
 10
-17.3286815837
 20
26.1002502603
 10
-15.2310093274
 20
25.1233678612
 10
-13.1240854737
 20
24.1298655956
 10
-11.0079556681
 20
23.1197610429
 10
-8.8826560504
 20
22.0930745215
 10
-6.7482130404
 20
21.0498291917
 10
-4.6047686387
 20
19.9900984784
 10
-2.4522639806
 20
18.9138460767
 10
-0.2904201437
 20
17.8209325468
 10
1.8808279545
 20
16.7113322074
 10
4.0613409806
 20
15.5851123019
 10
6.2510952116
 20
14.4422747948
 10
8.4500575264
 20
13.2828339982
 10
10.6581852115
 20
12.1068164718
 10
12.8754400543
 20
10.9142425266
  0
LWPOLYLINE
  5
39E
100
AcDbEntity
  8
RACCORDO
100
AcDbPolyline
 62
7
  6
CONTINUOUS
 90
10
 70
0
 10
-19.9634025277
 20
28.9762658854
 10
-16.3460602658
 20
27.3105591571
 10
-12.699888908
 20
25.5946722299
 10
-9.0250755847
 20
23.8287153631
 10
-5.3214436946
 20
22.0126140409
 10
-1.5895438003
 20
20.1466640602
 10
2.1693192305
 20
18.2315179483
 10
5.9545538074
 20
16.2674509867
 10
9.7663087805
 20
14.2543747814
 10
13.6043635436
 20
12.1923828497
  0
LWPOLYLINE
  5
39F
100
AcDbEntity
  8
RACCORDO
100
AcDbPolyline
 62
7
  6
CONTINUOUS
 90
24
 70
0
 10
-18.162791971
 20
27.7377128031
 10
-16.6036384654
 20
27.01645228
 10
-15.0926823242
 20
26.3109895993
 10
-13.6323355007
 20
25.6231407361
 10
-12.2214235295
 20
24.9530198629
 10
-10.8551368029
 20
24.2989431238
 10
-9.5380644109
 20
23.6636746613
 10
-8.2665859321
 20
23.0460092681
 10
-7.0233453486
 20
22.4379258565
 10
-5.8131927234
 20
21.8421281608
 10
-4.6318509095
 20
21.2568320568
 10
-3.447883533
 20
20.6666097732
 10
-2.261281553
 20
20.0714577297
 10
-1.0721151547
 20
19.4714133775
 10
0.1513818538
 20
18.850305558
 10
1.4139721148
 20
18.205403919
 10
2.7112924415
 20
17.5386165507
 10
4.0617721188
 20
16.8400751661
 10
5.4698764012
 20
16.1069493085
 10
6.9318136024
 20
15.3406700358
 10
8.4538088191
 20
14.5374004298
 10
10.0382102125
 20
13.6952644055
 10
11.6834282204
 20
12.81445265
 10
13.3898272316
 20
11.8941066499
  0
LWPOLYLINE
  5
3A0
100
AcDbEntity
  8
RACCORDO
100
AcDbPolyline
 62
7
  6
CONTINUOUS
 90
3
 70
0
 10
-12.3789641736
 20
23.7104485963
 10
-10.6674850594
 20
22.8909778928
 10
-9.8497551214
 20
22.4967642474
  0
LINE
  5
3A1
100
AcDbEntity
  8
RACCORDO
100
AcDbLine
 62
7
  6
CONTINUOUS
 10
-9.8497551214
 20
22.4967642474
 11
-8.2873854756
 21
21.738352627
  0
LINE
  5
3A2
100
AcDbEntity
  8
RACCORDO
100
AcDbLine
 62
7
  6
CONTINUOUS
 10
-8.2873854756
 20
21.738352627
 11
-6.8143392775
 21
21.0173897899
  0
LINE
  5
3A3
100
AcDbEntity
  8
RACCORDO
100
AcDbLine
 62
7
  6
CONTINUOUS
 10
-6.8143392775
 20
21.0173897899
 11
-5.4243079923
 21
20.331901221
  0
LINE
  5
3A4
100
AcDbEntity
  8
RACCORDO
100
AcDbLine
 62
7
  6
CONTINUOUS
 10
-5.4243079923
 20
20.331901221
 11
-4.113338657
 21
19.6806463558
  0
LINE
  5
3A5
100
AcDbEntity
  8
RACCORDO
100
AcDbLine
 62
7
  6
CONTINUOUS
 10
12.8122551721
 20
9.9791697258
 11
-18.3378508607
 21
25.5542227422
  0
LINE
  5
3A6
100
AcDbEntity
  8
RACCORDO
100
AcDbLine
 62
7
  6
CONTINUOUS
 10
12.8122551721
 20
10.0227304551
 11
-18.4329131451
 21
25.6453146137
  0
LINE
  5
3A7
100
AcDbEntity
  8
RACCORDO
100
AcDbLine
 62
7
  6
CONTINUOUS
 10
-4.113338657
 20
19.6806463558
 11
-2.8763694897
 21
19.0620867124
  0
LINE
  5
3A8
100
AcDbEntity
  8
RACCORDO
100
AcDbLine
 62
7
  6
CONTINUOUS
 10
-2.8763694897
 20
19.0620867124
 11
-1.7077506668
 21
18.4741480318
  0
LINE
  5
3A9
100
AcDbEntity
  8
RACCORDO
100
AcDbLine
 62
7
  6
CONTINUOUS
 10
-1.7077506668
 20
18.4741480318
 11
-0.6044514057
 21
17.915783176
  0
LINE
  5
3AA
100
AcDbEntity
  8
RACCORDO
100
AcDbLine
 62
7
  6
CONTINUOUS
 10
-0.6044514057
 20
17.915783176
 11
0.4380409713
 21
17.3853571424
  0
LINE
  5
3AB
100
AcDbEntity
  8
RACCORDO
100
AcDbLine
 62
7
  6
CONTINUOUS
 10
0.4380409713
 20
17.3853571424
 11
1.8838659025
 21
16.6451942113
  0
LINE
  5
3AC
100
AcDbEntity
  8
RACCORDO
100
AcDbLine
 62
7
  6
CONTINUOUS
 10
1.8838659025
 20
16.6451942113
 11
3.1847295956
 21
15.9747640691
  0
LINE
  5
3AD
100
AcDbEntity
  8
RACCORDO
100
AcDbLine
 62
7
  6
CONTINUOUS
 10
3.1847295956
 20
15.9747640691
 11
4.3480080902
 21
15.3716714668
  0
LINE
  5
3AE
100
AcDbEntity
  8
RACCORDO
100
AcDbLine
 62
7
  6
CONTINUOUS
 10
4.3480080902
 20
15.3716714668
 11
5.7143455205
 21
14.6590354165
  0
LINE
  5
3AF
100
AcDbEntity
  8
RACCORDO
100
AcDbLine
 62
7
  6
CONTINUOUS
 10
5.7143455205
 20
14.6590354165
 11
6.9059910592
 21
14.03377469
  0
LWPOLYLINE
  5
3B0
100
AcDbEntity
  8
RACCORDO
100
AcDbPolyline
 62
7
  6
CONTINUOUS
 90
5
 70
0
 10
6.8635419378
 20
15.221878731
 10
8.3853026226
 20
14.4182664244
 10
9.9693735892
 20
13.5747937413
 10
11.6143455235
 20
12.6937411299
 10
13.3207083761
 20
11.7753843757
  0
LINE
  5
3B1
100
AcDbEntity
  8
RACCORDO
100
AcDbLine
 62
7
  6
CONTINUOUS
 10
6.9059910592
 20
14.03377469
 11
8.1827529674
 21
13.3599945726
  0
LINE
  5
3B2
100
AcDbEntity
  8
RACCORDO
100
AcDbLine
 62
7
  6
CONTINUOUS
 10
8.1827529674
 20
13.3599945726
 11
9.4422944078
 21
12.6914449486
  0
LINE
  5
3B3
100
AcDbEntity
  8
RACCORDO
100
AcDbLine
 62
7
  6
CONTINUOUS
 10
9.4422944078
 20
12.6914449486
 11
10.7824614655
 21
11.9759156243
  0
LINE
  5
3B4
100
AcDbEntity
  8
RACCORDO
100
AcDbLine
 62
7
  6
CONTINUOUS
 10
10.7824614655
 20
11.9759156243
 11
12.0022440861
 21
11.3209322091
  0
LINE
  5
3B5
100
AcDbEntity
  8
RACCORDO
100
AcDbLine
 62
7
  6
CONTINUOUS
 10
12.0022440861
 20
11.3209322091
 11
12.7584065957
 21
10.9131305786
  0
LWPOLYLINE
  5
3B6
100
AcDbEntity
  8
RACCORDO
100
AcDbPolyline
 62
7
  6
CONTINUOUS
 90
39
 70
0
 10
13.3207083761
 20
11.7753843757
 10
13.3386272403
 20
11.7656291542
 10
13.3577091784
 20
11.7543064108
 10
13.3779543102
 20
11.7414162097
 10
13.3995022651
 20
11.7270035252
 10
13.4222136865
 20
11.7110235287
 10
13.4456701748
 20
11.6933415578
 10
13.469889243
 20
11.6739075561
 10
13.494853571
 20
11.6527716831
 10
13.5200923993
 20
11.6299495414
 10
13.5456123184
 20
11.6053797425
 10
13.5714068131
 20
11.5791237154
 10
13.596985335
 20
11.5513812181
 10
13.622336123
 20
11.5220931969
 10
13.6474708775
 20
11.4913186732
 10
13.6719341125
 20
11.4594344494
 10
13.6956929736
 20
11.4264000343
 10
13.7187801374
 20
11.3922558242
 10
13.7408383134
 20
11.357499898
 10
13.7618137606
 20
11.3221354528
 10
13.7817599769
 20
11.2861591617
 10
13.8004804735
 20
11.2500592871
 10
13.8179323242
 20
11.2138437788
 10
13.8341582133
 20
11.1775045576
 10
13.8490900537
 20
11.1415058348
 10
13.8626912489
 20
11.1058589264
 10
13.8749981945
 20
11.0705524089
 10
13.8860523012
 20
11.0360163905
 10
13.8958197087
 20
11.0022765196
 10
13.9043341354
 20
10.9693070718
 10
13.9117383828
 20
10.9374611079
 10
13.9180089217
 20
10.9067436357
 10
13.9231691989
 20
10.8771496033
 10
13.9274325021
 20
10.8490169935
 10
13.9307778915
 20
10.8224578824
 10
13.9332262698
 20
10.797360174
 10
13.9350537041
 20
10.7737256016
 10
13.9363522147
 20
10.7515547417
 10
13.9370297715
 20
10.7308470123
  0
LWPOLYLINE
  5
3B7
100
AcDbEntity
  8
RACCORDO
100
AcDbPolyline
 62
7
  6
CONTINUOUS
 90
6
 70
0
 10
14.4272197996
 20
10.7706272643
 10
14.4153819753
 20
10.7772205277
 10
14.4060575531
 20
10.7847550105
 10
14.3995393373
 20
10.792994116
 10
14.396032012
 20
10.8016791209
 10
14.3954456596
 20
10.8061039236
  0
LWPOLYLINE
  5
3B8
100
AcDbEntity
  8
RACCORDO
100
AcDbPolyline
 62
7
  6
CONTINUOUS
 90
40
 70
0
 10
13.3898272312
 20
11.8941066112
 10
13.4095039194
 20
11.8829603209
 10
13.4305429124
 20
11.8703358079
 10
13.4529137627
 20
11.8561023106
 10
13.476674272
 20
11.8400568579
 10
13.5016770854
 20
11.8221237298
 10
13.5275752524
 20
11.8023922543
 10
13.5543062499
 20
11.78075816
 10
13.5817947504
 20
11.7571231044
 10
13.6096764082
 20
11.7316584609
 10
13.6378714924
 20
11.7043081219
 10
13.6662879168
 20
11.6750278911
 10
13.6945578744
 20
11.6440861755
 10
13.7225953642
 20
11.6114852515
 10
13.7503098051
 20
11.5772368568
 10
13.7773580623
 20
11.5416986572
 10
13.8036627645
 20
11.5049310935
 10
13.8291563423
 20
11.4669887558
 10
13.8535567922
 20
11.4282806279
 10
13.8768027708
 20
11.3889260366
 10
13.8988742652
 20
11.3489858493
 10
13.9196014675
 20
11.3088166115
 10
13.9389686072
 20
11.2685282666
 10
13.9569772677
 20
11.2282054538
 10
13.9735302462
 20
11.1881794196
 10
13.9886522015
 20
11.1485398778
 10
14.0023724617
 20
11.1093726462
 10
14.0146472599
 20
11.0710015937
 10
14.0255337256
 20
11.0335007715
 10
14.0350948294
 20
10.9969284832
 10
14.0433403698
 20
10.9615730031
 10
14.0503606315
 20
10.927450211
 10
14.0562353289
 20
10.8946187538
 10
14.0610044397
 20
10.8634109722
 10
14.0647662139
 20
10.8339319042
 10
14.0676430531
 20
10.8060846372
 10
14.0697334221
 20
10.7798805134
 10
14.0711357418
 20
10.7553121329
 10
14.0719470032
 20
10.7323547005
 10
14.0722579123
 20
10.7109854941
  0
LWPOLYLINE
  5
3B9
100
AcDbEntity
  8
RACCORDO
100
AcDbPolyline
 62
7
  6
CONTINUOUS
 90
10
 70
0
 10
13.6043635436
 20
12.1923828497
 10
13.6764943
 20
12.1500060825
 10
13.7474842316
 20
12.1009594412
 10
13.8173328972
 20
12.0452426914
 10
13.8867113066
 20
11.9823531613
 10
13.954947753
 20
11.9127931524
 10
14.0200269957
 20
11.8380695018
 10
14.0818633058
 20
11.7578410591
 10
14.1405402305
 20
11.6724478087
 10
14.1942952365
 20
11.5844176436
  0
LWPOLYLINE
  5
3BA
100
AcDbEntity
  8
RACCORDO
100
AcDbPolyline
 62
7
  6
CONTINUOUS
 90
4
 70
0
 10
13.62544285
 20
12.1407585142
 10
13.7223900354
 20
12.0810861525
 10
13.8849350561
 20
11.9477590848
 10
14.0340414403
 20
11.7824049481
  0
LINE
  5
3BB
100
AcDbEntity
  8
RACCORDO
100
AcDbLine
 62
7
  6
CONTINUOUS
 10
14.0340414403
 20
11.7824049481
 11
14.1641364372
 21
11.5912933843
  0
LWPOLYLINE
  5
3BC
100
AcDbEntity
  8
RACCORDO
100
AcDbPolyline
 62
7
  6
CONTINUOUS
 90
9
 70
0
 10
14.1942952365
 20
11.5844176436
 10
14.242833062
 20
11.4937000764
 10
14.2864462056
 20
11.4003441154
 10
14.3242532129
 20
11.3070265958
 10
14.3559643542
 20
11.2139959399
 10
14.3818671547
 20
11.1210025442
 10
14.4019461062
 20
11.02997624
 10
14.4161956808
 20
10.9415601123
 10
14.424620333
 20
10.8551105008
  0
LWPOLYLINE
  5
3BD
100
AcDbEntity
  8
RACCORDO
100
AcDbPolyline
 62
7
  6
CONTINUOUS
 90
4
 70
0
 10
14.1641364372
 20
11.5912933843
 10
14.2692896061
 20
11.3827270517
 10
14.3444420411
 20
11.1667877679
 10
14.3865832302
 20
10.9525692994
  0
LWPOLYLINE
  5
3BE
100
AcDbEntity
  8
RACCORDO
100
AcDbPolyline
 62
7
  6
CONTINUOUS
 90
6
 70
0
 10
12.8139233731
 20
10.6118072743
 10
12.8025539
 20
10.6355086942
 10
12.792303158
 20
10.6580287969
 10
12.783119939
 20
10.6794086672
 10
12.7748506188
 20
10.6997715595
 10
12.7674792586
 20
10.7191291434
  0
LWPOLYLINE
  5
3BF
100
AcDbEntity
  8
RACCORDO
100
AcDbPolyline
 62
7
  6
CONTINUOUS
 90
18
 70
0
 10
12.7674792586
 20
10.7191291434
 10
12.7610217973
 20
10.7374697491
 10
12.7553724276
 20
10.7548816221
 10
12.7505197521
 20
10.7713728828
 10
12.7464751682
 20
10.7869354107
 10
12.7431670608
 20
10.801633089
 10
12.740584852
 20
10.8154700972
 10
12.7387391197
 20
10.8284422558
 10
12.7375899835
 20
10.8406009095
 10
12.7371258731
 20
10.8519636682
 10
12.7373583587
 20
10.8625129221
 10
12.7382822702
 20
10.8722471868
 10
12.7398932451
 20
10.8811809472
 10
12.7421956458
 20
10.8892997184
 10
12.7451973895
 20
10.896558561
 10
12.7489011153
 20
10.9029424954
 10
12.753304184
 20
10.9084665013
 10
12.7584065957
 20
10.9131305786
  0
LWPOLYLINE
  5
3C0
100
AcDbEntity
  8
RACCORDO
100
AcDbPolyline
 62
7
  6
CONTINUOUS
 90
10
 70
0
 10
12.8228976431
 20
10.8015670249
 10
12.8193948759
 20
10.8156024151
 10
12.8149032577
 20
10.8293918895
 10
12.8094466865
 20
10.8428620806
 10
12.8030541942
 20
10.8559413194
 10
12.7957597924
 20
10.8685600171
 10
12.7876022913
 20
10.8806510352
 10
12.7786250933
 20
10.8921500427
 10
12.7688759621
 20
10.9029958587
 10
12.7584067684
 20
10.9131307772
  0
LWPOLYLINE
  5
3C1
100
AcDbEntity
  8
RACCORDO
100
AcDbPolyline
 62
7
  6
CONTINUOUS
 90
15
 70
0
 10
14.4154382432
 20
-33.1631262483
 10
14.4002710363
 20
-33.2403048276
 10
14.378800798
 20
-33.3144353945
 10
14.3511475969
 20
-33.3847609497
 10
14.317670357
 20
-33.4490111827
 10
14.2780521361
 20
-33.5069506921
 10
14.2326122043
 20
-33.5588136321
 10
14.1826637053
 20
-33.603034078
 10
14.1275484528
 20
-33.6391595463
 10
14.0679273055
 20
-33.6676410903
 10
14.0070907759
 20
-33.6882687333
 10
13.946831533
 20
-33.7008298417
 10
13.8853573162
 20
-33.7055368323
 10
13.8205809057
 20
-33.7028174848
 10
13.7518076685
 20
-33.6928138014
  0
LWPOLYLINE
  5
3C2
100
AcDbEntity
  8
RACCORDO
100
AcDbPolyline
 62
7
  6
CONTINUOUS
 90
26
 70
0
 10
12.8122551721
 20
-31.0232176085
 10
12.8053779122
 20
-31.0470492399
 10
12.7957537165
 20
-31.0828240046
 10
12.787044407
 20
-31.1177078616
 10
12.7791249121
 20
-31.151699811
 10
12.7719879757
 20
-31.1847826851
 10
12.7656408539
 20
-31.2169736516
 10
12.7599802429
 20
-31.2483232143
 10
12.7549970985
 20
-31.2788262848
 10
12.750700465
 20
-31.3084879515
 10
12.747014172
 20
-31.337373983
 10
12.7439291369
 20
-31.3654945081
 10
12.7414544423
 20
-31.392839398
 10
12.7395411662
 20
-31.4194440349
 10
12.7381827855
 20
-31.4453102779
 10
12.7373858234
 20
-31.4704362678
 10
12.7371209274
 20
-31.4948518097
 10
12.7373813203
 20
-31.5185608462
 10
12.7381737793
 20
-31.5415594347
 10
12.7394892842
 20
-31.5638655511
 10
12.7413226656
 20
-31.5854954253
 10
12.7436790928
 20
-31.6064328275
 10
12.7465650539
 20
-31.6266470451
 10
12.7499827116
 20
-31.6461278405
 10
12.7539299031
 20
-31.6648854513
 10
12.7584066286
 20
-31.6829198775
  0
LWPOLYLINE
  5
3C3
100
AcDbEntity
  8
DRAFT
100
AcDbPolyline
 62
7
  6
CONTINUOUS
 90
8
 70
0
 10
12.7026990665
 20
-27.1985025696
 10
12.6970475051
 20
-27.217117236
 10
12.6898851518
 20
-27.2338812858
 10
12.6812120064
 20
-27.2487947189
 10
12.6708959543
 20
-27.2619759793
 10
12.6590691101
 20
-27.273306623
 10
12.6461278185
 20
-27.2824313182
 10
12.6404261891
 20
-27.2855470557
  0
LINE
  5
3C4
100
AcDbEntity
  8
COPIA_X_PUBLISH
100
AcDbLine
 62
7
  6
CONTINUOUS
 10
7.7947453452
 20
-24.6711208304
 11
7.8900965188
 21
-24.5066643828
  0
LINE
  5
3C5
100
AcDbEntity
  8
COPIA_X_PUBLISH
100
AcDbLine
 62
7
  6
CONTINUOUS
 10
8.1482987358
 20
-24.4943441351
 11
8.2436499094
 21
-24.3298876875
  0
LINE
  5
3C6
100
AcDbEntity
  8
COPIA_X_PUBLISH
100
AcDbLine
 62
7
  6
CONTINUOUS
 10
8.5018521264
 20
-24.3175674398
 11
8.5972033
 21
-24.1531109922
  0
LINE
  5
3C7
100
AcDbEntity
  8
COPIA_X_PUBLISH
100
AcDbLine
 62
7
  6
CONTINUOUS
 10
8.855405517
 20
-24.1407907445
 11
8.9507566906
 21
-23.9763342969
  0
LINE
  5
3C8
100
AcDbEntity
  8
COPIA_X_PUBLISH
100
AcDbLine
 62
7
  6
CONTINUOUS
 10
11.3195644075
 20
-26.8109215455
 11
11.4256304247
 21
-26.6279847264
  0
LINE
  5
3C9
100
AcDbEntity
  8
COPIA_X_PUBLISH
100
AcDbLine
 62
7
  6
CONTINUOUS
 10
11.6731177981
 20
-26.6341448502
 11
11.7791838153
 21
-26.4512080311
  0
LWPOLYLINE
  5
3CA
100
AcDbEntity
  8
0
100
AcDbPolyline
 62
7
  6
CONTINUOUS
 90
4
 70
0
 10
-0.7591783076
 20
-24.1411695597
 10
-0.7675322075
 20
-24.1460581797
 10
-0.7757012525
 20
-24.1506811341
 10
-0.7836906435
 20
-24.1550257548
  0
LWPOLYLINE
  5
3CB
100
AcDbEntity
  8
0
100
AcDbPolyline
 62
7
  6
CONTINUOUS
 90
16
 70
0
 10
-0.908840734
 20
-23.8925029332
 10
-0.9012243748
 20
-23.8883480702
 10
-0.8880168555
 20
-23.8798824364
 10
-0.8752691404
 20
-23.870224263
 10
-0.8630296727
 20
-23.8593282789
 10
-0.8512500092
 20
-23.8472397552
 10
-0.8400109269
 20
-23.834410587
 10
-0.8293513061
 20
-23.8209270477
 10
-0.8192322665
 20
-23.8067028639
 10
-0.809617945
 20
-23.7919311109
 10
-0.8004948648
 20
-23.7766625578
 10
-0.7918765027
 20
-23.7608464354
 10
-0.7837674261
 20
-23.7445235112
 10
-0.7761691576
 20
-23.7277073743
 10
-0.7690801746
 20
-23.7103844356
 10
-0.7625004772
 20
-23.692554695
  0
LINE
  5
3CC
100
AcDbEntity
  8
0
100
AcDbLine
 62
7
  6
CONTINUOUS
 10
-0.7836906435
 20
-24.1550257548
 11
-0.799162681
 21
-24.1632146393
  0
LINE
  5
3CD
100
AcDbEntity
  8
0
100
AcDbLine
 62
7
  6
CONTINUOUS
 10
-0.799162681
 20
-24.1632146393
 11
-0.806939071
 21
-24.1672044839
  0
LINE
  5
3CE
100
AcDbEntity
  8
0
100
AcDbLine
 62
7
  6
CONTINUOUS
 10
-1.096768283
 20
-24.435554459
 11
-1.0166710026
 21
-24.3953776174
  0
LINE
  5
3CF
100
AcDbEntity
  8
0
100
AcDbLine
 62
7
  6
CONTINUOUS
 10
-3.3701554103
 20
-22.9825466599
 11
-3.290070614
 21
-22.9425042618
  0
LINE
  5
3D0
100
AcDbEntity
  8
0
100
AcDbLine
 62
7
  6
CONTINUOUS
 10
-2.8980702678
 20
-22.7592948704
 11
-2.8179854715
 21
-22.7192524723
  0
LINE
  5
3D1
100
AcDbEntity
  8
0
100
AcDbLine
 62
7
  6
CONTINUOUS
 10
-4.3143608143
 20
-23.5047512552
 11
-4.234276018
 21
-23.4647088571
  0
LINE
  5
3D2
100
AcDbEntity
  8
0
100
AcDbLine
 62
7
  6
CONTINUOUS
 10
-3.6912300345
 20
-23.8163166451
 11
-3.6111452382
 21
-23.776274247
  0
LINE
  5
3D3
100
AcDbEntity
  8
0
100
AcDbLine
 62
7
  6
CONTINUOUS
 10
-1.9684560589
 20
-23.0565200559
 11
-1.8883712626
 21
-23.0164776577
  0
LINE
  5
3D4
100
AcDbEntity
  8
0
100
AcDbLine
 62
7
  6
CONTINUOUS
 10
-3.2835207497
 20
-24.0201712875
 11
-3.2034359534
 21
-23.9801288894
  0
LINE
  5
3D5
100
AcDbEntity
  8
0
100
AcDbLine
 62
7
  6
CONTINUOUS
 10
-2.9819184944
 20
-24.1709724152
 11
-2.9018336981
 21
-24.130930017
  0
LINE
  5
3D6
100
AcDbEntity
  8
0
100
AcDbLine
 62
7
  6
CONTINUOUS
 10
-2.5107413029
 20
-23.960291512
 11
-2.4306565066
 21
-23.9202491138
  0
LINE
  5
3D7
100
AcDbEntity
  8
0
100
AcDbLine
 62
7
  6
CONTINUOUS
 10
-1.0400246329
 20
-23.2873255807
 11
-0.9599398366
 21
-23.2472831826
  0
LINE
  5
3D8
100
AcDbEntity
  8
0
100
AcDbLine
 62
7
  6
CONTINUOUS
 10
-2.0975142069
 20
-23.8215841399
 11
-2.0174294106
 21
-23.7815417417
  0
LINE
  5
3D9
100
AcDbEntity
  8
0
100
AcDbLine
 62
7
  6
CONTINUOUS
 10
-0.8279267376
 20
-23.3802140605
 11
-0.7478356121
 21
-23.3401762022
  0
LINE
  5
3DA
100
AcDbEntity
  8
0
100
AcDbLine
 62
7
  6
CONTINUOUS
 10
-2.1489564823
 20
-24.1411839223
 11
-2.068871686
 21
-24.1011415241
  0
LINE
  5
3DB
100
AcDbEntity
  8
0
100
AcDbLine
 62
7
  6
CONTINUOUS
 10
-0.9088293237
 20
-23.8925464592
 11
-0.8287445274
 21
-23.8525040611
  0
LINE
  5
3DC
100
AcDbEntity
  8
0
100
AcDbLine
 62
7
  6
CONTINUOUS
 10
-2.2152301887
 20
-24.554316568
 11
-2.1351453924
 21
-24.5142741699
  0
LINE
  5
3DD
100
AcDbEntity
  8
0
100
AcDbLine
 62
7
  6
CONTINUOUS
 10
-1.3278104881
 20
-24.1232067244
 11
-1.2477256918
 21
-24.0831643262
  0
LINE
  5
3DE
100
AcDbEntity
  8
0
100
AcDbLine
 62
7
  6
CONTINUOUS
 10
-1.1853698956
 20
-24.1944270206
 11
-1.1052850993
 21
-24.1543846225
  0
LINE
  5
3DF
100
AcDbEntity
  8
0
100
AcDbLine
 62
7
  6
CONTINUOUS
 10
-0.854349262
 20
-24.1780736484
 11
-0.7742644656
 21
-24.1380312502
  0
LINE
  5
3E0
100
AcDbEntity
  8
0
100
AcDbLine
 62
7
  6
CONTINUOUS
 10
-1.8572249033
 20
-24.7333193474
 11
-1.777140107
 21
-24.6932769492
  0
LINE
  5
3E1
100
AcDbEntity
  8
0
100
AcDbLine
 62
7
  6
CONTINUOUS
 10
-1.1858119635
 20
-25.0690258172
 11
-1.1057271672
 21
-25.0289834191
  0
LINE
  5
3E2
100
AcDbEntity
  8
0
100
AcDbLine
 62
7
  6
CONTINUOUS
 10
-0.7625005065
 20
-23.692554767
 11
-0.6824698476
 21
-23.6526692217
  0
LWPOLYLINE
  5
3E3
100
AcDbEntity
  8
0
100
AcDbPolyline
 62
7
  6
CONTINUOUS
 90
8
 70
0
 10
-0.806939071
 20
-24.1672044839
 10
-0.8139807514
 20
-24.1705001366
 10
-0.8211978416
 20
-24.173625723
 10
-0.8282677089
 20
-24.1763482791
 10
-0.8351243818
 20
-24.1782010274
 10
-0.8417458697
 20
-24.1790283754
 10
-0.848154163
 20
-24.1789859158
 10
-0.854349262
 20
-24.1780736484
  0
LINE
  5
3E4
100
AcDbEntity
  8
RACCORDO
100
AcDbLine
 62
7
  6
CONTINUOUS
 10
-20.0339043474
 20
29.0035603638
 11
-19.9634025277
 21
28.9762658854
  0
LINE
  5
3E5
100
AcDbEntity
  8
RACCORDO
100
AcDbLine
 62
7
  6
CONTINUOUS
 10
-19.9771452459
 20
28.9382185689
 11
-19.9319139218
 21
28.9194575596
  0
LWPOLYLINE
  5
3E6
100
AcDbEntity
  8
RACCORDO
100
AcDbPolyline
 62
7
  6
CONTINUOUS
 90
7
 70
0
 10
29.6242065518
 20
-58.0850821031
 10
29.6326506811
 20
-58.2111555512
 10
29.6577387362
 20
-58.3240583584
 10
29.6987583845
 20
-58.4205848409
 10
29.7545449424
 20
-58.4979942931
 10
29.8235144455
 20
-58.554088805
 10
29.8563300481
 20
-58.5710529695
  0
LWPOLYLINE
  5
3E7
100
AcDbEntity
  8
RACCORDO
100
AcDbPolyline
 62
7
  6
CONTINUOUS
 90
10
 70
0
 10
29.6242066684
 20
22.0892996596
 10
29.6326506666
 20
22.224962522
 10
29.6577386182
 20
22.3663644444
 10
29.6987581926
 20
22.5094905537
 10
29.7545447069
 20
22.6502770213
 10
29.8235141957
 20
22.7847264492
 10
29.9037083846
 20
22.9090213686
 10
29.9928502926
 20
23.0196326316
 10
30.0884088833
 20
23.1134196148
 10
30.1876709288
 20
23.1877193924
  0
LINE
  5
3E8
100
AcDbEntity
  8
RACCORDO
100
AcDbLine
 62
7
  6
CONTINUOUS
 10
14.36318989
 20
-33.2113749407
 11
14.3191074012
 21
-33.3263304493
  0
LINE
  5
3E9
100
AcDbEntity
  8
COPIA_X_PUBLISH
100
AcDbLine
 62
7
  6
CONTINUOUS
 10
12.0266711887
 20
-26.4573681549
 11
12.1327372059
 21
-26.2744313358
  0
LINE
  5
3EA
100
AcDbEntity
  8
COPIA_X_PUBLISH
100
AcDbLine
 62
7
  6
CONTINUOUS
 10
12.3802245793
 20
-26.2805914596
 11
12.4862905965
 21
-26.0976546405
  0
LINE
  5
3EB
100
AcDbEntity
  8
COPIA_X_PUBLISH
100
AcDbLine
 62
7
  6
CONTINUOUS
 10
12.7337779699
 20
-26.1038147643
 11
12.8122551721
 21
-25.9684616123
  0
LINE
  5
3EC
100
AcDbEntity
  8
COPIA_X_PUBLISH
100
AcDbLine
 62
7
  6
CONTINUOUS
 10
7.1866613906
 20
-24.8583819469
 11
7.3244110938
 21
-24.7895070953
  0
LINE
  5
3ED
100
AcDbEntity
  8
COPIA_X_PUBLISH
100
AcDbLine
 62
7
  6
CONTINUOUS
 10
7.5365431282
 20
-24.6834410781
 11
7.6779644844
 21
-24.6127304
  0
LINE
  5
3EE
100
AcDbEntity
  8
COPIA_X_PUBLISH
100
AcDbLine
 62
7
  6
CONTINUOUS
 10
7.8900965188
 20
-24.5066643828
 11
8.031517875
 21
-24.4359537047
  0
LINE
  5
3EF
100
AcDbEntity
  8
COPIA_X_PUBLISH
100
AcDbLine
 62
7
  6
CONTINUOUS
 10
8.2436499094
 20
-24.3298876875
 11
8.3850712656
 21
-24.2591770094
  0
LINE
  5
3F0
100
AcDbEntity
  8
COPIA_X_PUBLISH
100
AcDbLine
 62
7
  6
CONTINUOUS
 10
8.5972033
 20
-24.1531109922
 11
8.7386246562
 21
-24.0824003141
  0
LINE
  5
3F1
100
AcDbEntity
  8
COPIA_X_PUBLISH
100
AcDbLine
 62
7
  6
CONTINUOUS
 10
8.9507566906
 20
-23.9763342969
 11
9.0921780468
 21
-23.9056236188
  0
LINE
  5
3F2
100
AcDbEntity
  8
0
100
AcDbLine
 62
7
  6
CONTINUOUS
 10
9.0140557895
 20
-23.8904002835
 11
7.0337623161
 21
-24.7819324097
  0
LINE
  5
3F3
100
AcDbEntity
  8
COPIA_X_PUBLISH
100
AcDbLine
 62
7
  6
CONTINUOUS
 10
9.0314508319
 20
-23.8839397371
 11
9.0218451035
 21
-23.8871308902
  0
LWPOLYLINE
  5
3F4
100
AcDbEntity
  8
RACCORDO
100
AcDbPolyline
 62
7
  6
CONTINUOUS
 90
6
 70
0
 10
-35.1625336199
 20
53.6663010964
 10
-35.2491899546
 20
53.7245426731
 10
-35.3159898212
 20
53.7889930867
 10
-35.3611949679
 20
53.8579752222
 10
-35.3836290761
 20
53.9296940416
 10
-35.3861189899
 20
53.9631441729
  0
LWPOLYLINE
  5
3F5
100
AcDbEntity
  8
RACCORDO
100
AcDbPolyline
 62
7
  6
CONTINUOUS
 90
22
 70
0
 10
31.5727072744
 20
20.9004246743
 10
31.5664724459
 20
21.0215997632
 10
31.552907813
 20
21.1463728334
 10
31.5319601124
 20
21.274091316
 10
31.5035623926
 20
21.4041475723
 10
31.4677825929
 20
21.5357594351
 10
31.4248142268
 20
21.6679798216
 10
31.3747866214
 20
21.8001208607
 10
31.3179394028
 20
21.931343968
 10
31.2547447429
 20
22.0604702697
 10
31.1855646317
 20
22.1867578186
 10
31.1108095607
 20
22.309480264
 10
31.0311521355
 20
22.427537282
 10
30.9471496647
 20
22.5402476956
 10
30.8593095386
 20
22.6470955845
 10
30.7683056191
 20
22.7473197899
 10
30.6747943572
 20
22.8403896467
 10
30.5792921712
 20
22.92600988
 10
30.4822702846
 20
23.0038254509
 10
30.3842630432
 20
23.0735152386
 10
30.2858767341
 20
23.1348701424
 10
30.1876710064
 20
23.1877174967
  0
LWPOLYLINE
  5
3F6
100
AcDbEntity
  8
RACCORDO
100
AcDbPolyline
 62
7
  6
CONTINUOUS
 90
22
 70
0
 10
30.3768041552
 20
20.8966322088
 10
30.3747810673
 20
20.9616441017
 10
30.3686280213
 20
21.0277172886
 10
30.3583451422
 20
21.0948518407
 10
30.343869928
 20
21.1634720822
 10
30.3252653858
 20
21.2331539764
 10
30.3027200121
 20
21.3026251155
 10
30.276111736
 20
21.3719291535
 10
30.2455635909
 20
21.4410229842
 10
30.2116317443
 20
21.5085040665
 10
30.1742142432
 20
21.5743266914
 10
30.1334142407
 20
21.6385372509
 10
30.0900953926
 20
21.6998712586
 10
30.0442181596
 20
21.7582119947
 10
29.9958231942
 20
21.8136768119
 10
29.9458940809
 20
21.8653521282
 10
29.8944580542
 20
21.9131078303
 10
29.8414886439
 20
21.9570744653
 10
29.7878884257
 20
21.9967291847
 10
29.7339582662
 20
22.0318977097
 10
29.6793975836
 20
22.0627544798
 10
29.6242065494
 20
22.089299592
  0
LINE
  5
3F7
100
AcDbEntity
  8
RACCORDO
100
AcDbLine
 62
7
  6
CONTINUOUS
 10
30.3768041552
 20
-57.5539031033
 11
30.3768041552
 21
20.8966322088
  0
LINE
  5
3F8
100
AcDbEntity
  8
RACCORDO
100
AcDbLine
 62
7
  6
CONTINUOUS
 10
31.5727078541
 20
-57.5501109598
 11
31.5727078541
 21
20.9004243524
  0
LINE
  5
3F9
100
AcDbEntity
  8
RACCORDO
100
AcDbLine
 62
7
  6
CONTINUOUS
 10
30.3747810674
 20
-57.6171393341
 11
30.3768041552
 21
-57.5539031033
  0
LWPOLYLINE
  5
3FA
100
AcDbEntity
  8
RACCORDO
100
AcDbPolyline
 62
7
  6
CONTINUOUS
 90
3
 70
0
 10
14.3191074012
 20
-33.3263304493
 10
14.259369887
 20
-33.4194422331
 10
14.1862510871
 20
-33.4900168283
  0
LINE
  5
3FB
100
AcDbEntity
  8
DRAFT
100
AcDbLine
 62
7
  6
CONTINUOUS
 10
35.3611949679
 20
-12.7176328272
 11
34.6457811273
 21
-13.1865175173
  0
LINE
  5
3FC
100
AcDbEntity
  8
0
100
AcDbLine
 62
7
  6
CONTINUOUS
 10
12.8122551721
 20
-26.2741646364
 11
11.4884553828
 21
-27.009278943
  0
LINE
  5
3FD
100
AcDbEntity
  8
0
100
AcDbLine
 62
7
  6
CONTINUOUS
 10
12.8122551721
 20
-26.8503267127
 11
11.9991746455
 21
-27.2646385744
  0
LINE
  5
3FE
100
AcDbEntity
  8
DRAFT
100
AcDbLine
 62
7
  6
CONTINUOUS
 10
12.341525665
 20
-27.4358140841
 11
12.6403895751
 21
-27.2855564689
  0
LINE
  5
3FF
100
AcDbEntity
  8
DRAFT
100
AcDbLine
 62
7
  6
CONTINUOUS
 10
12.7026990665
 20
-27.1985025696
 11
12.2857360531
 21
-27.4079192782
  0
LINE
  5
400
100
AcDbEntity
  8
COPIA_X_PUBLISH
100
AcDbLine
 62
7
  6
CONTINUOUS
 10
11.0757486871
 20
-26.8029255952
 11
11.2134983904
 21
-26.7340507436
  0
LINE
  5
401
100
AcDbEntity
  8
COPIA_X_PUBLISH
100
AcDbLine
 62
7
  6
CONTINUOUS
 10
11.4256304247
 20
-26.6279847264
 11
11.567051781
 21
-26.5572740483
  0
LINE
  5
402
100
AcDbEntity
  8
COPIA_X_PUBLISH
100
AcDbLine
 62
7
  6
CONTINUOUS
 10
11.7791838153
 20
-26.4512080311
 11
11.9206051716
 21
-26.380497353
  0
LINE
  5
403
100
AcDbEntity
  8
COPIA_X_PUBLISH
100
AcDbLine
 62
7
  6
CONTINUOUS
 10
12.1327372059
 20
-26.2744313358
 11
12.2741585621
 21
-26.2037206577
  0
LINE
  5
404
100
AcDbEntity
  8
COPIA_X_PUBLISH
100
AcDbLine
 62
7
  6
CONTINUOUS
 10
12.4862905965
 20
-26.0976546405
 11
12.6277119527
 21
-26.0269439624
  0
LINE
  5
405
100
AcDbEntity
  8
COPIA_X_PUBLISH
100
AcDbLine
 62
7
  6
CONTINUOUS
 10
12.8122551721
 20
-26.0645761632
 11
11.2056524977
 21
-26.8678775004
  0
LINE
  5
406
100
AcDbEntity
  8
RACCORDO
100
AcDbLine
 62
7
  6
CONTINUOUS
 10
11.8993397523
 20
-27.2147211277
 11
12.8122551721
 21
-26.7599027511
  0
LWPOLYLINE
  5
407
100
AcDbEntity
  8
RACCORDO
100
AcDbPolyline
 62
7
  6
CONTINUOUS
 90
10
 70
0
 10
30.3768041552
 20
20.8966322088
 10
30.4932872512
 20
20.8533040657
 10
30.6221880271
 20
20.8199041419
 10
30.7601522608
 20
20.7973015664
 10
30.903589882
 20
20.7860845024
 10
31.0487683891
 20
20.7865448422
 10
31.1919099749
 20
20.7986706109
 10
31.329289837
 20
20.8221462775
 10
31.4573331033
 20
20.8563609663
 10
31.5727078541
 20
20.9004243524
  0
LWPOLYLINE
  5
408
100
AcDbEntity
  8
RACCORDO
100
AcDbPolyline
 62
7
  6
CONTINUOUS
 90
10
 70
0
 10
29.6242065494
 20
22.089299592
 10
22.1026555536
 20
25.4471127643
 10
14.6768610044
 20
28.8577202585
 10
7.3483064445
 20
32.3204391709
 10
0.1184819078
 20
35.8345633811
 10
-7.0111950341
 20
39.3994017454
 10
-14.0393759121
 20
43.014280061
 10
-20.9646783723
 20
46.6784895732
 10
-27.7856901065
 20
50.3912852954
 10
-34.5010452379
 20
54.1519254856
  0
LWPOLYLINE
  5
409
100
AcDbEntity
  8
RACCORDO
100
AcDbPolyline
 62
7
  6
CONTINUOUS
 90
21
 70
0
 10
-34.5010452379
 20
54.1519254856
 10
-34.549618595
 20
54.1772625687
 10
-34.5976272574
 20
54.1976904709
 10
-34.6450714188
 20
54.2132091062
 10
-34.6922157716
 20
54.2239266726
 10
-34.7387959449
 20
54.2297348299
 10
-34.7840188013
 20
54.2303085695
 10
-34.8279083928
 20
54.2255426056
 10
-34.8704415348
 20
54.2155418419
 10
-34.9107547482
 20
54.2002963289
 10
-34.9488134676
 20
54.179651105
 10
-34.9846535243
 20
54.1537605751
 10
-35.0175174418
 20
54.1230786596
 10
-35.0473158947
 20
54.087462727
 10
-35.0741395745
 20
54.0470548087
 10
-35.0975012252
 20
54.0027357341
 10
-35.1172938799
 20
53.9544336093
 10
-35.1336256015
 20
53.902219847
 10
-35.1463316624
 20
53.8471902431
 10
-35.1553573527
 20
53.7897099757
 10
-35.1607579578
 20
53.7294136143
  0
LINE
  5
40A
100
AcDbEntity
  8
RACCORDO
100
AcDbLine
 62
7
  6
CONTINUOUS
 10
34.6457811273
 20
22.470722873
 11
34.6457811273
 21
-56.3534018769
  0
LINE
  5
40B
100
AcDbEntity
  8
DRAFT
100
AcDbLine
 62
7
  6
CONTINUOUS
 10
35.3611949679
 20
-55.3513923507
 11
35.3611949679
 21
-18.8996385616
  0
LINE
  5
40C
100
AcDbEntity
  8
DRAFT
100
AcDbLine
 62
7
  6
CONTINUOUS
 10
35.3611949679
 20
-12.7176328272
 11
35.3611949679
 21
23.8104727842
  0
LWPOLYLINE
  5
40D
100
AcDbEntity
  8
DRAFT
100
AcDbPolyline
 62
7
  6
CONTINUOUS
 90
16
 70
0
 10
35.3611949679
 20
-55.3513923507
 10
35.3596928198
 20
-55.4070607119
 10
35.3551799069
 20
-55.4611039393
 10
35.3476562472
 20
-55.5132794997
 10
35.3371131973
 20
-55.563439065
 10
35.3235883007
 20
-55.6112544008
 10
35.3072183531
 20
-55.6562646747
 10
35.288179909
 20
-55.6981491316
 10
35.2665246399
 20
-55.7369340586
 10
35.2422180053
 20
-55.7726896583
 10
35.2152629785
 20
-55.8053269915
 10
35.1858217253
 20
-55.8345727594
 10
35.1540881867
 20
-55.8602113958
 10
35.1201991648
 20
-55.8821323736
 10
35.084300754
 20
-55.900241192
 10
35.078635227
 20
-55.9026727418
  0
LWPOLYLINE
  5
40E
100
AcDbEntity
  8
RACCORDO
100
AcDbPolyline
 62
7
  6
CONTINUOUS
 90
4
 70
0
 10
13.7408954483
 20
-33.0795171428
 10
13.718909835
 20
-33.0936174429
 10
13.6959002128
 20
-33.1061529285
 10
13.6722177347
 20
-33.1169599835
  0
LINE
  5
40F
100
AcDbEntity
  8
RACCORDO
100
AcDbLine
 62
7
  6
CONTINUOUS
 10
14.1862510871
 20
-33.4900168283
 11
14.1362841515
 21
-33.521715573
  0
LWPOLYLINE
  5
410
100
AcDbEntity
  8
RACCORDO
100
AcDbPolyline
 62
7
  6
CONTINUOUS
 90
10
 70
0
 10
12.7584050847
 20
-31.6829194828
 10
12.7688733552
 20
-31.6772403261
 10
12.7786216606
 20
-31.6714909636
 10
12.7875981433
 20
-31.6657019772
 10
12.7957550519
 20
-31.6599041598
 10
12.8030489945
 20
-31.6541283514
 10
12.8094411697
 20
-31.6484052746
 10
12.8148975735
 20
-31.6427653717
 10
12.8193891794
 20
-31.6372386424
 10
12.8228920935
 20
-31.6318544846
  0
LINE
  5
411
100
AcDbEntity
  8
RACCORDO
100
AcDbLine
 62
7
  6
CONTINUOUS
 10
14.2991367087
 20
-33.1979905056
 11
13.6676766563
 21
-33.5256924056
  0
LWPOLYLINE
  5
412
100
AcDbEntity
  8
RACCORDO
100
AcDbPolyline
 62
7
  6
CONTINUOUS
 90
8
 70
0
 10
14.1330458569
 20
-33.5234112609
 10
14.0939281239
 20
-33.5413620783
 10
14.0376684545
 20
-33.559811199
 10
13.981884074
 20
-33.5706789538
 10
13.9257127897
 20
-33.5750977828
 10
13.8662925225
 20
-33.5733791985
 10
13.8026988472
 20
-33.5648443349
 10
13.7363583279
 20
-33.5490668067
  0
LINE
  5
413
100
AcDbEntity
  8
RACCORDO
100
AcDbLine
 62
7
  6
CONTINUOUS
 10
14.395421896
 20
-32.4906528532
 11
14.0625778418
 21
-32.6214885474
  0
LINE
  5
414
100
AcDbEntity
  8
RACCORDO
100
AcDbLine
 62
7
  6
CONTINUOUS
 10
13.771677953
 20
-33.1756847838
 11
14.38512716
 21
-32.9346176858
  0
LWPOLYLINE
  5
415
100
AcDbEntity
  8
RACCORDO
100
AcDbPolyline
 62
7
  6
CONTINUOUS
 90
10
 70
0
 10
13.6722177347
 20
-33.1169599835
 10
13.6478301217
 20
-33.1259689122
 10
13.6227698303
 20
-33.1332493155
 10
13.5974850174
 20
-33.1388465758
 10
13.5719639374
 20
-33.1426918109
 10
13.5462183988
 20
-33.1448538695
 10
13.5207317624
 20
-33.1455847976
 10
13.4955102082
 20
-33.1448299343
 10
13.4705474851
 20
-33.1426439785
 10
13.4463081789
 20
-33.1394430848
  0
LWPOLYLINE
  5
416
100
AcDbEntity
  8
RACCORDO
100
AcDbPolyline
 62
7
  6
CONTINUOUS
 90
12
 70
0
 10
14.0625778418
 20
-32.6214885474
 10
14.0520231715
 20
-32.6247059603
 10
14.0407552197
 20
-32.6272476773
 10
14.0289461699
 20
-32.6290748591
 10
14.0167764738
 20
-32.6301595848
 10
14.0044320944
 20
-32.6304852792
 10
13.9921016636
 20
-32.6300469654
 10
13.9799736004
 20
-32.6288513412
 10
13.9682332312
 20
-32.626916677
 10
13.9570599583
 20
-32.6242725359
 10
13.946624518
 20
-32.6209593227
 10
13.937086372
 20
-32.6170276661
  0
LWPOLYLINE
  5
417
100
AcDbEntity
  8
RACCORDO
100
AcDbPolyline
 62
7
  6
CONTINUOUS
 90
10
 70
0
 10
30.1876709288
 20
23.1877193924
 10
22.6753479207
 20
26.5414516422
 10
15.2583721401
 20
29.9480268863
 10
7.9384566842
 20
33.4066645301
 10
0.7172708165
 20
36.9165925158
 10
-6.4038355984
 20
40.4771455751
 10
-13.4236254882
 20
44.0877050179
 10
-20.340769484
 20
47.74759685
 10
-27.1537194189
 20
51.4559847885
 10
-33.8609062514
 20
55.2120079803
  0
LWPOLYLINE
  5
418
100
AcDbEntity
  8
RACCORDO
100
AcDbPolyline
 62
7
  6
CONTINUOUS
 90
11
 70
0
 10
-33.8609061633
 20
55.212006085
 10
-33.9572750718
 20
55.2564460552
 10
-34.0533463574
 20
55.292319944
 10
-34.1486279385
 20
55.3192745615
 10
-34.2426412717
 20
55.3369765998
 10
-34.3348641394
 20
55.3452188961
 10
-34.4247228573
 20
55.343834032
 10
-34.5117641097
 20
55.3326324134
 10
-34.5954164868
 20
55.3115307757
 10
-34.6749369571
 20
55.280581832
 10
-34.74611857
 20
55.2421615256
  0
LWPOLYLINE
  5
419
100
AcDbEntity
  8
RACCORDO
100
AcDbPolyline
 62
7
  6
CONTINUOUS
 90
10
 70
0
 10
-31.1343937227
 20
56.9101427859
 10
-24.3999332578
 20
53.1341567562
 10
-17.5582476119
 20
49.4066740118
 10
-10.6107338162
 20
45.7284556939
 10
-3.558810322
 20
42.1002527885
 10
3.5960827254
 20
38.5228062642
 10
10.8524837533
 20
34.9968469076
 10
18.2089108246
 20
31.5230947914
 10
25.6638619677
 20
28.1022591418
 10
33.2158149007
 20
24.7350384742
  0
LWPOLYLINE
  5
41A
100
AcDbEntity
  8
RACCORDO
100
AcDbPolyline
 62
7
  6
CONTINUOUS
 90
7
 70
0
 10
34.6457811273
 20
-56.3534022896
 10
34.6207084405
 20
-56.6365713456
 10
34.55791882
 20
-56.8802090399
 10
34.4574239227
 20
-57.0843087085
 10
34.3136154319
 20
-57.2530718973
 10
34.1321493136
 20
-57.3822698467
 10
34.05315083
 20
-57.4198942405
  0
LINE
  5
41B
100
AcDbEntity
  8
DRAFT
100
AcDbLine
 62
7
  6
CONTINUOUS
 10
-29.6926289013
 20
56.849856732
 11
34.6540881867
 21
24.676498188
  0
LWPOLYLINE
  5
41C
100
AcDbEntity
  8
DRAFT
100
AcDbPolyline
 62
7
  6
CONTINUOUS
 90
4
 70
0
 10
34.6540881867
 20
24.676498188
 10
34.7001544627
 20
24.6516253018
 10
34.746122962
 20
24.6231138853
 10
34.7954988332
 20
24.5882982758
  0
LWPOLYLINE
  5
41D
100
AcDbEntity
  8
RACCORDO
100
AcDbPolyline
 62
7
  6
CONTINUOUS
 90
10
 70
0
 10
33.2158149007
 20
24.7350384742
 10
33.4745512626
 20
24.5916603831
 10
33.7125975788
 20
24.4144057177
 10
33.9299293057
 20
24.2032605458
 10
34.1321493136
 20
23.9490733859
 10
34.3136154319
 20
23.6609733713
 10
34.4574239227
 20
23.3663608181
 10
34.55791882
 20
23.0743569476
 10
34.6207084405
 20
22.7758133248
 10
34.6457811273
 20
22.4707232858
  0
LINE
  5
41E
100
AcDbEntity
  8
SMUSSO
100
AcDbLine
 62
7
  6
CONTINUOUS
 10
34.7955095429
 20
24.5882902435
 11
35.0783522554
 21
24.3761582092
  0
LWPOLYLINE
  5
41F
100
AcDbEntity
  8
DRAFT
100
AcDbPolyline
 62
7
  6
CONTINUOUS
 90
22
 70
0
 10
34.7954988332
 20
24.5882982758
 10
34.8370549455
 20
24.5555207836
 10
34.8816175197
 20
24.5166749488
 10
34.9250512575
 20
24.4749090705
 10
34.9670221856
 20
24.4306063697
 10
35.0075306726
 20
24.3838299464
 10
35.0466481394
 20
24.3345017869
 10
35.084300754
 20
24.2826624488
 10
35.1201991648
 20
24.2286552196
 10
35.1540881867
 20
24.1728452199
 10
35.1858217253
 20
24.1154730448
 10
35.2152629785
 20
24.0567860238
 10
35.2422180053
 20
23.9971936637
 10
35.2665246399
 20
23.9371314295
 10
35.288179909
 20
23.8766912333
 10
35.3072183531
 20
23.8157683323
 10
35.3235883007
 20
23.7543881109
 10
35.3371131973
 20
23.6930478784
 10
35.3476562472
 20
23.6323452633
 10
35.3551799069
 20
23.5726460432
 10
35.3596928198
 20
23.514089903
 10
35.3611949679
 20
23.4569193936
  0
LWPOLYLINE
  5
420
100
AcDbEntity
  8
SMUSSO
100
AcDbPolyline
 62
7
  6
CONTINUOUS
 90
14
 70
0
 10
35.0788976729
 20
24.3756891304
 10
35.1168955834
 20
24.3444420282
 10
35.151294342
 20
24.3109971125
 10
35.184504818
 20
24.2736672529
 10
35.2154550462
 20
24.2336573797
 10
35.244071277
 20
24.1908800468
 10
35.2704272599
 20
24.1454227003
 10
35.2936722787
 20
24.0987526091
 10
35.3137048256
 20
24.0508302023
 10
35.3306264083
 20
24.0016950508
 10
35.3438908333
 20
23.9529331352
 10
35.3533160359
 20
23.9050731157
 10
35.3590840808
 20
23.857586332
 10
35.3611949679
 20
23.8104727842
  0
LWPOLYLINE
  5
421
100
AcDbEntity
  8
RACCORDO
100
AcDbPolyline
 62
7
  6
CONTINUOUS
 90
8
 70
0
 10
30.2455635909
 20
-57.9830761535
 10
30.276111736
 20
-57.9408060026
 10
30.302720012
 20
-57.8948636153
 10
30.3252653858
 20
-57.845185131
 10
30.3438699282
 20
-57.7918349582
 10
30.3583451424
 20
-57.7359207778
 10
30.3686280215
 20
-57.677811916
 10
30.3747810674
 20
-57.6171393341
  0
LINE
  5
422
100
AcDbEntity
  8
DRAFT
100
AcDbLine
 62
7
  6
CONTINUOUS
 10
35.3611949679
 20
-55.3513923507
 11
34.6457811273
 21
-55.6734731085
  0
LWPOLYLINE
  5
423
100
AcDbEntity
  8
RACCORDO
100
AcDbPolyline
 62
7
  6
CONTINUOUS
 90
14
 70
0
 10
30.9913440607
 20
-58.6143885879
 10
31.0311521308
 20
-58.5972115198
 10
31.1108095561
 20
-58.5540852753
 10
31.1855646279
 20
-58.5012351925
 10
31.25474474
 20
-58.439069909
 10
31.3179394006
 20
-58.3679338519
 10
31.3747866197
 20
-58.2882813431
 10
31.4248142249
 20
-58.2008530932
 10
31.4677825907
 20
-58.1062558696
 10
31.5035623905
 20
-58.0050913667
 10
31.5319601119
 20
-57.8981856539
 10
31.5529078153
 20
-57.7862781802
 10
31.5664724491
 20
-57.670020123
 10
31.5727072732
 20
-57.5501106373
  0
LINE
  5
424
100
AcDbEntity
  8
DRAFT
100
AcDbLine
 62
7
  6
CONTINUOUS
 10
35.0786984008
 20
-55.9026462326
 11
34.6457811273
 21
-56.0843547903
  0
LINE
  5
425
100
AcDbEntity
  8
RACCORDO
100
AcDbLine
 62
7
  6
CONTINUOUS
 10
34.6457811273
 20
-56.3534018769
 11
31.5727078541
 21
-57.5501109598
  0
LINE
  5
426
100
AcDbEntity
  8
RACCORDO
100
AcDbLine
 62
7
  6
CONTINUOUS
 10
30.986174401
 20
-58.6164251784
 11
34.054072187
 21
-57.4217319409
  0
LINE
  5
427
100
AcDbEntity
  8
RACCORDO
100
AcDbLine
 62
7
  6
CONTINUOUS
 10
30.8511675129
 20
-58.6608609243
 11
30.9914284081
 21
-58.6143557551
  0
ELLIPSE
  5
428
100
AcDbEntity
  8
RACCORDO
100
AcDbEllipse
 62
7
  6
CONTINUOUS
 10
-16.8045624566
 20
-12.6893272452
 30
0.0
 11
-0.0893486075
 21
0.1789386858
 31
0.0
 40
0.6140178746
 41
0.8880524522
 42
2.4561097232
  0
ELLIPSE
  5
429
100
AcDbEntity
  8
0
100
AcDbEllipse
 62
7
  6
CONTINUOUS
 10
-14.8433864964
 20
16.9977933223
 30
0.0
 11
0.199943508
 21
0.008945986
 31
0.0
 40
0.5313301283
 41
-0.8091667606
 42
-0.7568068831
  0
ELLIPSE
  5
42A
100
AcDbEntity
  8
0
100
AcDbEllipse
 62
7
  6
CONTINUOUS
 10
-15.2262412918
 20
22.230084952
 30
0.0
 11
0.2005530505
 21
0.1230188791
 31
0.0
 40
0.0848418117
 41
0.0514035331
 42
0.6851403278
  0
ELLIPSE
  5
42B
100
AcDbEntity
  8
0
100
AcDbEllipse
 62
7
  6
CONTINUOUS
 10
-14.8433864964
 20
-2.4877782628
 30
0.0
 11
0.199943508
 21
0.008945986
 31
0.0
 40
0.5313301283
 41
-0.8091667606
 42
-0.7568068831
  0
ELLIPSE
  5
42C
100
AcDbEntity
  8
0
100
AcDbEllipse
 62
7
  6
CONTINUOUS
 10
-15.2262412918
 20
2.7445133668
 30
0.0
 11
0.2005530505
 21
0.1230188791
 31
0.0
 40
0.0848418117
 41
0.0514035331
 42
0.6851403278
  0
ELLIPSE
  5
42D
100
AcDbEntity
  8
COPIA_X_PUBLISH
100
AcDbEllipse
 62
7
  6
CONTINUOUS
 10
-6.8958467872
 20
-16.1086540759
 30
0.0
 11
0.0974129977
 21
0.1748074534
 31
0.0
 40
0.6437101552
 41
0.6611775963
 42
0.7135374739
  0
ELLIPSE
  5
42E
100
AcDbEntity
  8
COPIA_X_PUBLISH
100
AcDbEllipse
 62
7
  6
CONTINUOUS
 10
9.0140557895
 20
-24.0636053643
 30
0.0
 11
0.0974129977
 21
0.1748074534
 31
0.0
 40
0.6437101552
 41
0.6611775963
 42
0.7135374739
  0
ELLIPSE
  5
42F
100
AcDbEntity
  8
0
100
AcDbEllipse
 62
7
  6
CONTINUOUS
 10
-14.8433864964
 20
22.2121003323
 30
0.0
 11
0.1999631714
 21
-0.0082132501
 31
0.0
 40
0.4672909446
 41
-0.7662070983
 42
-0.7138472208
  0
ELLIPSE
  5
430
100
AcDbEntity
  8
0
100
AcDbEllipse
 62
7
  6
CONTINUOUS
 10
-14.8433864964
 20
2.7265287472
 30
0.0
 11
0.1999631714
 21
-0.0082132501
 31
0.0
 40
0.4672909446
 41
-0.7662070983
 42
-0.7138472208
  0
ELLIPSE
  5
431
100
AcDbEntity
  8
COPIA_X_PUBLISH
100
AcDbEllipse
 62
7
  6
CONTINUOUS
 10
-2.7799983769
 20
-18.6787789985
 30
0.0
 11
0.1997674032
 21
0.1243735635
 31
0.0
 40
0.0775313764
 41
5.4495541764
 42
6.9679906257
  0
ELLIPSE
  5
432
100
AcDbEntity
  8
COPIA_X_PUBLISH
100
AcDbEllipse
 62
7
  6
CONTINUOUS
 10
-2.6383829417
 20
-18.2373859987
 30
0.0
 11
0.0823576675
 21
0.1823694112
 31
0.0
 40
0.5796795686
 41
0.6094740628
 42
0.6618339404
  0
ENDSEC
  0
SECTION
  2
OBJECTS
  0
DICTIONARY
  5
C
100
AcDbDictionary
280
0
281
1
  3
ACAD_GROUP
350
D
  3
ACAD_MLINESTYLE
350
17
  3
ACAD_LAYOUT
350
1A
  3
ACAD_PLOTSETTINGS
350
19
  3
ACAD_PLOTSTYLENAME
350
E
  0
DICTIONARY
  5
D
102
{ACAD_REACTORS
330
C
102
}
100
AcDbDictionary
280
0
281
1
  0
ACDBDICTIONARYWDFLT
  5
E
102
{ACAD_REACTORS
330
C
102
}
100
AcDbDictionary
281
1
  3
Normal
350
F
100
AcDbDictionaryWithDefault
340
F
  0
DICTIONARY
  5
17
102
{ACAD_REACTORS
330
C
102
}
100
AcDbDictionary
280
0
281
1
  3
Standard
350
18
  0
DICTIONARY
  5
19
102
{ACAD_REACTORS
330
C
102
}
100
AcDbDictionary
281
1
  0
DICTIONARY
  5
1A
102
{ACAD_REACTORS
330
C
102
}
100
AcDbDictionary
281
1
  3
Model
350
433
  3
Layout1
350
434
  0
ACDBPLACEHOLDER
  5
F
102
{ACAD_REACTORS
330
E
102
}
  0
MLINESTYLE
  5
18
102
{ACAD_REACTORS
330
17
102
}
100
AcDbMlineStyle
  2
STANDARD
 70
0
  3

 62
256
 51
90.0
 52
90.0
 71
2
 49
0.5
 62
256
  6
BYLAYER
 49
-0.5
 62
256
  6
BYLAYER
  0
LAYOUT
  5
433
102
{ACAD_REACTORS
330
1A
102
}
100
AcDbPlotSettings
  1

  2
none_device
  4
ISO_A4_(297.00_x_210.00_MM)
  6

 40
0.0
 41
0.0
 42
0.0
 43
0.0
 44
297.0
 45
210.0
 46
0.0
 47
0.0
 48
0.0
 49
0.0
140
0.0
141
0.0
142
1.0
143
1.0
 70
1024
 72
1
 73
0
 74
0
  7

 75
0
147
1.0
148
0.0
149
0.0
100
AcDbLayout
  1
Model
 70
0
 71
0
 10
0.0
 20
0.0
 11
297.0
 21
210.0
 12
0.0
 22
0.0
 32
0.0
 14
0.0
 24
0.0
 34
0.0
 15
0.0
 25
0.0
 35
0.0
146
0.0
 13
0.0
 23
0.0
 33
0.0
 16
1.0
 26
0.0
 36
0.0
 17
0.0
 27
1.0
 37
0.0
 76
0
330
216
345
0
346
0
  0
LAYOUT
  5
434
102
{ACAD_REACTORS
330
1A
102
}
100
AcDbPlotSettings
  1

  2
none_device
  4
ISO_A4_(297.00_x_210.00_MM)
  6

 40
0.0
 41
0.0
 42
0.0
 43
0.0
 44
297.0
 45
210.0
 46
0.0
 47
0.0
 48
0.0
 49
0.0
140
0.0
141
0.0
142
1.0
143
1.0
 70
0
 72
1
 73
0
 74
0
  7

 75
0
147
1.0
148
0.0
149
0.0
100
AcDbLayout
  1
Layout1
 70
0
 71
1
 10
0.0
 20
0.0
 11
297.0
 21
210.0
 12
0.0
 22
0.0
 32
0.0
 14
0.0
 24
0.0
 34
0.0
 15
0.0
 25
0.0
 35
0.0
146
0.0
 13
0.0
 23
0.0
 33
0.0
 16
1.0
 26
0.0
 36
0.0
 17
0.0
 27
1.0
 37
0.0
 76
0
330
217
345
0
346
0
  0
ENDSEC
  0
EOF
