  0
SECTION
  2
HEADER
  9
$ACADVER
  1
AC1015
  9
$DWGCODEPAGE
  3
ANSI_1252
  9
$EXTMAX
 10
297.0
 20
210.0
 30
0.0
  9
$EXTMIN
 10
0.0
 20
0.0
 30
0.0
  9
$LIMMIN
 10
0.0
 20
0.0
  9
$LIMMAX
 10
297.0
 20
210.0
  9
$VIEWCTR
 10
148.5
 20
105.0
  9
$VIEWSIZE
 40
210.0
  9
$CLAYER
  8
0
  9
$LTSCALE
 40
16.335
  9
$CELTYPE
  6
BYLAYER
  9
$DIMSCALE
 40
1.0
  9
$DIMASZ
 40
3.0
  9
$DIMEXO
 40
0.5
  9
$DIMDLI
 40
11.286
  9
$DIMEXE
 40
1.5
  9
$DIMCEN
 40
2.673
  9
$DIMLFAC
 40
1.0
  9
$DIMBLK
  1
_FILLED
  9
$DIMTXT
 40
3.0
  9
$DIMTOL
 70
1
  9
$DIMLIM
 70
0
  9
$DIMTFAC
 40
1.0
  9
$DIMTP
 40
0.01
  9
$DIMTM
 40
0.01
  9
$DIMGAP
 40
0.625
  9
$DIMDSEP
 70
44
  9
$PDMODE
 70
3
  9
$PDSIZE
 40
3.0
  9
$HANDSEED
  5
3DC
  9
$TILEMODE
 70
1
  9
$MEASUREMENT
 70
1
  9
$INSUNITS
 70
4
  0
ENDSEC
  0
SECTION
  2
CLASSES
  0
CLASS
  1
ACDBDICTIONARYWDFLT
  2
AcDbDictionaryWithDefault
  3
AutoCAD 2000
 90
0
280
0
281
0
  0
CLASS
  1
ACDBPLACEHOLDER
  2
AcDbPlaceHolder
  3
AutoCAD 2000
 90
0
280
0
281
0
  0
CLASS
  1
LAYOUT
  2
AcDbLayout
  3
AutoCAD 2000
 90
0
280
0
281
0
  0
ENDSEC
  0
SECTION
  2
TABLES
  0
TABLE
  2
VPORT
  5
8
100
AcDbSymbolTable
 70
2
  0
VPORT
  5
1F4
100
AcDbSymbolTableRecord
100
AcDbViewportTableRecord
  2
*ACTIVE
 70
0
 10
0.0
 20
0.0
 11
1.0
 21
1.0
 12
148.5
 22
105.0
 13
0.0
 23
0.0
 14
1.0
 24
1.0
 15
0.0
 25
0.0
 16
0.0
 26
0.0
 36
1.0
 17
0.0
 27
0.0
 37
0.0
 40
210.0
 41
1.4142857143
 42
50.0
 43
0.0
 44
0.0
 50
0.0
 51
0.0
 71
0
 72
100
 73
1
 74
1
 75
0
 76
0
 77
0
 78
0
  0
ENDTAB
  0
TABLE
  2
LTYPE
  5
5
100
AcDbSymbolTable
 70
6
  0
LTYPE
  5
14
100
AcDbSymbolTableRecord
100
AcDbLinetypeTableRecord
  2
BYBLOCK
 70
0
  3

 72
65
 73
0
 40
0.0
  0
LTYPE
  5
15
100
AcDbSymbolTableRecord
100
AcDbLinetypeTableRecord
  2
BYLAYER
 70
0
  3

 72
65
 73
0
 40
0.0
  0
LTYPE
  5
16
100
AcDbSymbolTableRecord
100
AcDbLinetypeTableRecord
  2
CONTINUOUS
 70
64
  3
Solid line
 72
65
 73
0
 40
0.0
  0
LTYPE
  5
1F5
100
AcDbSymbolTableRecord
100
AcDbLinetypeTableRecord
  2
CENTER
 70
64
  3
____ _ ____ _ ____ _ ____ _ ____ _ ____ _ ____
 72
65
 73
4
 40
0.6
 49
0.375
 74
0
 49
-0.075
 74
0
 49
0.075
 74
0
 49
-0.075
 74
0
  0
LTYPE
  5
1F6
100
AcDbSymbolTableRecord
100
AcDbLinetypeTableRecord
  2
HIDDEN
 70
64
  3
- - - - - - - - - - - - - - - - - - - -
 72
65
 73
2
 40
0.2
 49
0.1
 74
0
 49
-0.1
 74
0
  0
LTYPE
  5
1F7
100
AcDbSymbolTableRecord
100
AcDbLinetypeTableRecord
  2
PHANTOM
 70
64
  3
_____ _ _ _____ _ _ _____ _ _ _____
 72
65
 73
6
 40
0.8
 49
0.45
 74
0
 49
-0.05
 74
0
 49
0.1
 74
0
 49
-0.05
 74
0
 49
0.1
 74
0
 49
-0.05
 74
0
  0
LTYPE
  5
1F8
100
AcDbSymbolTableRecord
100
AcDbLinetypeTableRecord
  2
DOT
 70
64
  3
. . . . . . . . . . . . . . . . . . . .
 72
65
 73
2
 40
0.2
 49
0.1
 74
0
 49
-0.1
 74
0
  0
LTYPE
  5
1F9
100
AcDbSymbolTableRecord
100
AcDbLinetypeTableRecord
  2
DASHED
 70
64
  3
- - - - - - - - - - - - - - - - - - - -
 72
65
 73
2
 40
0.2
 49
0.1
 74
0
 49
-0.1
 74
0
  0
ENDTAB
  0
TABLE
  2
LAYER
  5
2
100
AcDbSymbolTable
 70
36
  0
LAYER
  5
10
100
AcDbSymbolTableRecord
100
AcDbLayerTableRecord
  2
0
 70
0
 62
7
  6
CONTINUOUS
370
-3
390
F
  0
LAYER
  5
1FA
100
AcDbSymbolTableRecord
100
AcDbLayerTableRecord
  2
DEFAULT_1
 70
0
 62
7
  6
CENTER
370
-3
390
F
  0
LAYER
  5
1FB
100
AcDbSymbolTableRecord
100
AcDbLayerTableRecord
  2
DEFAULT_2
 70
0
 62
7
  6
HIDDEN
370
-3
390
F
  0
LAYER
  5
1FC
100
AcDbSymbolTableRecord
100
AcDbLayerTableRecord
  2
DEFAULT_3
 70
0
 62
7
  6
PHANTOM
370
-3
390
F
  0
LAYER
  5
1FD
100
AcDbSymbolTableRecord
100
AcDbLayerTableRecord
  2
ASSI
 70
0
 62
7
  6
CONTINUOUS
370
-3
390
F
  0
LAYER
  5
1FE
100
AcDbSymbolTableRecord
100
AcDbLayerTableRecord
  2
COORDINATE
 70
0
 62
7
  6
CONTINUOUS
370
-3
390
F
  0
LAYER
  5
1FF
100
AcDbSymbolTableRecord
100
AcDbLayerTableRecord
  2
COORD_ORIGINE
 70
0
 62
7
  6
CONTINUOUS
370
-3
390
F
  0
LAYER
  5
200
100
AcDbSymbolTableRecord
100
AcDbLayerTableRecord
  2
COPIA_X_PUBLISH
 70
0
 62
7
  6
CONTINUOUS
370
-3
390
F
  0
LAYER
  5
201
100
AcDbSymbolTableRecord
100
AcDbLayerTableRecord
  2
COPY_PLACCA
 70
0
 62
7
  6
CONTINUOUS
370
-3
390
F
  0
LAYER
  5
202
100
AcDbSymbolTableRecord
100
AcDbLayerTableRecord
  2
COPY_SUPP
 70
0
 62
7
  6
CONTINUOUS
370
-3
390
F
  0
LAYER
  5
203
100
AcDbSymbolTableRecord
100
AcDbLayerTableRecord
  2
CURVE
 70
0
 62
7
  6
CONTINUOUS
370
-3
390
F
  0
LAYER
  5
204
100
AcDbSymbolTableRecord
100
AcDbLayerTableRecord
  2
DRAFT
 70
0
 62
7
  6
CONTINUOUS
370
-3
390
F
  0
LAYER
  5
205
100
AcDbSymbolTableRecord
100
AcDbLayerTableRecord
  2
IMPORT_SCRITTE
 70
0
 62
7
  6
CONTINUOUS
370
-3
390
F
  0
LAYER
  5
206
100
AcDbSymbolTableRecord
100
AcDbLayerTableRecord
  2
INTF_1
 70
0
 62
7
  6
CONTINUOUS
370
-3
390
F
  0
LAYER
  5
207
100
AcDbSymbolTableRecord
100
AcDbLayerTableRecord
  2
INTF_CYAN
 70
0
 62
7
  6
CONTINUOUS
370
-3
390
F
  0
LAYER
  5
208
100
AcDbSymbolTableRecord
100
AcDbLayerTableRecord
  2
NOTE
 70
0
 62
7
  6
CONTINUOUS
370
-3
390
F
  0
LAYER
  5
209
100
AcDbSymbolTableRecord
100
AcDbLayerTableRecord
  2
PIANI
 70
0
 62
7
  6
CONTINUOUS
370
-3
390
F
  0
LAYER
  5
20A
100
AcDbSymbolTableRecord
100
AcDbLayerTableRecord
  2
PIANI_ORIGINE
 70
0
 62
7
  6
CONTINUOUS
370
-3
390
F
  0
LAYER
  5
20B
100
AcDbSymbolTableRecord
100
AcDbLayerTableRecord
  2
PIANI_RIFERIMENTO
 70
0
 62
7
  6
CONTINUOUS
370
-3
390
F
  0
LAYER
  5
20C
100
AcDbSymbolTableRecord
100
AcDbLayerTableRecord
  2
PUNTI
 70
0
 62
7
  6
CONTINUOUS
370
-3
390
F
  0
LAYER
  5
20D
100
AcDbSymbolTableRecord
100
AcDbLayerTableRecord
  2
RACCORDO
 70
0
 62
7
  6
CONTINUOUS
370
-3
390
F
  0
LAYER
  5
20E
100
AcDbSymbolTableRecord
100
AcDbLayerTableRecord
  2
SMUSSO
 70
0
 62
7
  6
CONTINUOUS
370
-3
390
F
  0
LAYER
  5
20F
100
AcDbSymbolTableRecord
100
AcDbLayerTableRecord
  2
SNAPLINE
 70
0
 62
7
  6
CONTINUOUS
370
-3
390
F
  0
LAYER
  5
210
100
AcDbSymbolTableRecord
100
AcDbLayerTableRecord
  2
SUPERFICI
 70
0
 62
7
  6
CONTINUOUS
370
-3
390
F
  0
LAYER
  5
211
100
AcDbSymbolTableRecord
100
AcDbLayerTableRecord
  2
TRASH
 70
0
 62
7
  6
CONTINUOUS
370
-3
390
F
  0
LAYER
  5
212
100
AcDbSymbolTableRecord
100
AcDbLayerTableRecord
  2
XSEC_DATUMS
 70
0
 62
7
  6
CONTINUOUS
370
-3
390
F
  0
ENDTAB
  0
TABLE
  2
STYLE
  5
3
100
AcDbSymbolTable
 70
1
  0
STYLE
  5
11
100
AcDbSymbolTableRecord
100
AcDbTextStyleTableRecord
  2
STANDARD
 70
0
 40
0.0
 41
0.8
 50
0.0
 71
0
 42
0.2
  3
txt
  4

  0
STYLE
  5
213
100
AcDbSymbolTableRecord
100
AcDbTextStyleTableRecord
  2
TEXTSTYLE_1
 70
0
 40
0.0
 41
0.8
 50
0.0
 71
0
 42
0.2
  3
gdt
  4

  0
ENDTAB
  0
TABLE
  2
VIEW
  5
6
100
AcDbSymbolTable
 70
0
  0
ENDTAB
  0
TABLE
  2
UCS
  5
7
100
AcDbSymbolTable
 70
0
  0
ENDTAB
  0
TABLE
  2
APPID
  5
9
100
AcDbSymbolTable
 70
1
  0
APPID
  5
214
100
AcDbSymbolTableRecord
100
AcDbRegAppTableRecord
  2
ACAD
 70
0
  0
ENDTAB
  0
TABLE
  2
BLOCK_RECORD
  5
1
100
AcDbSymbolTable
 70
0
  0
BLOCK_RECORD
  5
215
100
AcDbSymbolTableRecord
100
AcDbBlockTableRecord
  2
*Model_Space
  0
BLOCK_RECORD
  5
216
100
AcDbSymbolTableRecord
100
AcDbBlockTableRecord
  2
*Paper_Space
  0
ENDTAB
  0
TABLE
  2
DIMSTYLE
  5
A
100
AcDbSymbolTable
 70
1
100
AcDbDimStyleTable
 71
0
  0
DIMSTYLE
105
217
100
AcDbSymbolTableRecord
100
AcDbDimStyleTableRecord
  2
STANDARD
 70
0
  3

  4

 40
1.0
 41
3.0
 42
0.5
 43
0.38
 44
1.5
 45
0.0
 46
0.0
 47
0.01
 48
0.01
140
3.0
141
0.09
142
0.0
143
25.4
144
1.0
145
0.0
146
1.0
147
0.625
 71
1.0
 72
0.0
 73
0
 74
0
 75
0
 76
0
 77
1
 78
8
170
0
171
2
172
0
173
0
174
0
175
0
176
0
177
0
178
0
270
2
271
2
272
2
273
2
274
2
275
0
280
0
281
0
282
0
283
1
284
8
285
0
286
0
287
3
288
0
340
11
278
44
  0
ENDTAB
  0
ENDSEC
  0
SECTION
  2
BLOCKS
  0
BLOCK
  5
20
100
AcDbEntity
  8
0
100
AcDbBlockBegin
  2
*Model_Space
 70
0
 10
0.0
 20
0.0
 30
0.0
  3
*Model_Space
  1

  0
ENDBLK
  5
21
100
AcDbEntity
  8
0
100
AcDbBlockEnd
  0
BLOCK
  5
1C
100
AcDbEntity
  8
0
100
AcDbBlockBegin
  2
*Paper_Space
 70
0
 10
0.0
 20
0.0
 30
0.0
  3
*Paper_Space
  1

  0
ENDBLK
  5
1D
100
AcDbEntity
  8
0
100
AcDbBlockEnd
  0
ENDSEC
  0
SECTION
  2
ENTITIES
  0
LWPOLYLINE
  5
218
100
AcDbEntity
  8
RACCORDO
100
AcDbPolyline
 62
7
  6
CONTINUOUS
 90
12
 70
0
 10
-34.7354127129
 20
55.2409611711
 10
-34.7833061535
 20
55.2095011518
 10
-34.8888546194
 20
55.1278703105
 10
-34.9866997796
 20
55.0337895125
 10
-35.0756011567
 20
54.92788889
 10
-35.1543518592
 20
54.8110505904
 10
-35.2218373964
 20
54.6844457129
 10
-35.2774890884
 20
54.5486500388
 10
-35.3207654412
 20
54.4046277495
 10
-35.3512057272
 20
54.2536614845
 10
-35.3685909116
 20
54.0962730306
 10
-35.3730107312
 20
53.9635488288
  0
LINE
  5
219
100
AcDbEntity
  8
RACCORDO
100
AcDbLine
 62
7
  6
CONTINUOUS
 10
-31.9676711336
 20
56.9647779494
 11
-34.7351541015
 21
55.2411223513
  0
LINE
  5
21A
100
AcDbEntity
  8
RACCORDO
100
AcDbLine
 62
7
  6
CONTINUOUS
 10
-31.1213696255
 20
56.91040296
 11
-33.8479053066
 21
55.212254422
  0
LINE
  5
21B
100
AcDbEntity
  8
DRAFT
100
AcDbLine
 62
7
  6
CONTINUOUS
 10
-30.1498575097
 20
56.8660776401
 11
-30.5873005022
 21
56.6098332289
  0
LWPOLYLINE
  5
21C
100
AcDbEntity
  8
DRAFT
100
AcDbPolyline
 62
7
  6
CONTINUOUS
 90
24
 70
0
 10
-30.1498575097
 20
56.8660776401
 10
-30.1470057172
 20
56.8677314266
 10
-30.1293616134
 20
56.8772436919
 10
-30.1112371548
 20
56.8857989194
 10
-30.0926517496
 20
56.8933879482
 10
-30.0736252994
 20
56.9000026516
 10
-30.0541781783
 20
56.9056359465
 10
-30.0343312108
 20
56.9102818006
 10
-30.0141056495
 20
56.9139352389
 10
-29.9935231523
 20
56.9165923494
 10
-29.9726057596
 20
56.9182502867
 10
-29.9513758703
 20
56.9189072755
 10
-29.9298562178
 20
56.9185626122
 10
-29.9080698459
 20
56.9172166658
 10
-29.886040084
 20
56.9148708778
 10
-29.8637905221
 20
56.9115277599
 10
-29.8413449857
 20
56.9071908922
 10
-29.8187275099
 20
56.9018649186
 10
-29.7959623141
 20
56.8955555423
 10
-29.7730737759
 20
56.8882695195
 10
-29.7500864048
 20
56.8800146523
 10
-29.7270248164
 20
56.8707997803
 10
-29.7039137056
 20
56.8606347709
 10
-29.6807778202
 20
56.849530509
  0
LWPOLYLINE
  5
21D
100
AcDbEntity
  8
RACCORDO
100
AcDbPolyline
 62
7
  6
CONTINUOUS
 90
10
 70
0
 10
-31.9676636624
 20
56.9647628617
 10
-31.9290330558
 20
56.98693716
 10
-31.8423459548
 20
57.0245972185
 10
-31.7503291236
 20
57.0487458089
 10
-31.6522335306
 20
57.0589852985
 10
-31.5488004555
 20
57.0557167254
 10
-31.443637408
 20
57.0391981199
 10
-31.3379472324
 20
57.0095153461
 10
-31.230525083
 20
56.9665834289
 10
-31.1213696254
 20
56.91040296
  0
LINE
  5
21E
100
AcDbEntity
  8
DRAFT
100
AcDbLine
 62
7
  6
CONTINUOUS
 10
-29.6807778202
 20
56.849530509
 11
-30.3461686646
 21
56.4741262044
  0
LWPOLYLINE
  5
21F
100
AcDbEntity
  8
RACCORDO
100
AcDbPolyline
 62
7
  6
CONTINUOUS
 90
29
 70
0
 10
-27.8010666234
 20
31.9801394317
 10
-27.8112333879
 20
31.9736667604
 10
-27.8273545646
 20
31.9625083549
 10
-27.8430602611
 20
31.9504995337
 10
-27.8583161613
 20
31.9376550324
 10
-27.8730997329
 20
31.9239832806
 10
-27.8873907442
 20
31.9094934178
 10
-27.9011624666
 20
31.8942032595
 10
-27.914395967
 20
31.878124889
 10
-27.927076204
 20
31.8612685379
 10
-27.9391856149
 20
31.8436491196
 10
-27.9507086609
 20
31.8252799431
 10
-27.9616335688
 20
31.8061709652
 10
-27.9719497565
 20
31.7863304114
 10
-27.9816469797
 20
31.7657639807
 10
-27.9907108456
 20
31.7444879829
 10
-27.9991256874
 20
31.722526316
 10
-28.0068840583
 20
31.6998823441
 10
-28.0139727693
 20
31.6765776913
 10
-28.0203719327
 20
31.652667728
 10
-28.0260753619
 20
31.6281689058
 10
-28.0310775962
 20
31.6030984839
 10
-28.0353664717
 20
31.5775195799
 10
-28.0389399863
 20
31.5514533607
 10
-28.0417971035
 20
31.5249197787
 10
-28.0439336806
 20
31.4979862444
 10
-28.0453515029
 20
31.4706924657
 10
-28.0460554629
 20
31.4430502206
 10
-28.0461408639
 20
31.4293767787
  0
LINE
  5
220
100
AcDbEntity
  8
RACCORDO
100
AcDbLine
 62
7
  6
CONTINUOUS
 10
-27.2771934575
 20
32.3029358307
 11
-27.8010806046
 21
31.980130833
  0
LINE
  5
221
100
AcDbEntity
  8
RACCORDO
100
AcDbLine
 62
7
  6
CONTINUOUS
 10
-27.0593918215
 20
32.2107333304
 11
-27.4161397632
 21
31.9908611402
  0
LWPOLYLINE
  5
222
100
AcDbEntity
  8
RACCORDO
100
AcDbPolyline
 62
7
  6
CONTINUOUS
 90
22
 70
0
 10
-27.8010646798
 20
31.9801406294
 10
-27.7902063444
 20
31.9865597907
 10
-27.7744484969
 20
31.9949567179
 10
-27.758284051
 20
32.002516815
 10
-27.7417274737
 20
32.0092322736
 10
-27.7247941024
 20
32.0150968142
 10
-27.7074993425
 20
32.0201047294
 10
-27.6898587677
 20
32.0242505372
 10
-27.6718886325
 20
32.0275303042
 10
-27.6536054264
 20
32.0299406466
 10
-27.6350256294
 20
32.0314784857
 10
-27.6161663266
 20
32.0321422069
 10
-27.5970450169
 20
32.0319307666
 10
-27.5776788259
 20
32.0308434931
 10
-27.5580857756
 20
32.0288811983
 10
-27.5382848951
 20
32.0260454554
 10
-27.5182945234
 20
32.0223382457
 10
-27.4981325099
 20
32.0177625935
 10
-27.4778171502
 20
32.0123220867
 10
-27.4573665562
 20
32.0060206529
 10
-27.4368003016
 20
31.9988643717
 10
-27.4161397445
 20
31.990860994
  0
LWPOLYLINE
  5
223
100
AcDbEntity
  8
RACCORDO
100
AcDbPolyline
 62
7
  6
CONTINUOUS
 90
28
 70
0
 10
-27.4161397626
 20
31.990861136
 10
-27.4202424333
 20
31.988554955
 10
-27.4242969865
 20
31.9859799553
 10
-27.4282906885
 20
31.983144224
 10
-27.4322109967
 20
31.9800566668
 10
-27.436045599
 20
31.9767269807
 10
-27.4397824524
 20
31.9731656229
 10
-27.443409821
 20
31.9693837781
 10
-27.4469163126
 20
31.9653933236
 10
-27.4502909148
 20
31.9612067918
 10
-27.4535230292
 20
31.956837331
 10
-27.4566025052
 20
31.9522986639
 10
-27.4595196712
 20
31.9476050446
 10
-27.4622653656
 20
31.9427712139
 10
-27.4648309654
 20
31.937812353
 10
-27.4672084129
 20
31.9327440356
 10
-27.4693902416
 20
31.9275821794
 10
-27.4713695992
 20
31.9223429956
 10
-27.4731402693
 20
31.9170429384
 10
-27.474696691
 20
31.9116986532
 10
-27.4760339761
 20
31.9063269243
 10
-27.4771479249
 20
31.9009446221
 10
-27.4780350388
 20
31.8955686503
 10
-27.4786925317
 20
31.8902158926
 10
-27.4791183388
 20
31.88490316
 10
-27.4793111226
 20
31.8796471376
 10
-27.4792702779
 20
31.8744643325
 10
-27.4789959328
 20
31.8693710218
  0
LINE
  5
224
100
AcDbEntity
  8
RACCORDO
100
AcDbLine
 62
7
  6
CONTINUOUS
 10
-27.9194982616
 20
32.4395141696
 11
-27.9157271322
 21
32.4413588675
  0
LINE
  5
225
100
AcDbEntity
  8
RACCORDO
100
AcDbLine
 62
7
  6
CONTINUOUS
 10
-27.5511698341
 20
32.1597842278
 11
-28.1906663101
 21
31.8516712318
  0
LWPOLYLINE
  5
226
100
AcDbEntity
  8
RACCORDO
100
AcDbPolyline
 62
7
  6
CONTINUOUS
 90
13
 70
0
 10
30.3899007694
 20
-57.553651674
 10
30.4759747672
 20
-57.5870340397
 10
30.5694844084
 20
-57.6149724071
 10
30.669059804
 20
-57.6370574872
 10
30.7732422038
 20
-57.6529657399
 10
30.880505366
 20
-57.6624641143
 10
30.9892779171
 20
-57.6654134617
 10
31.097966371
 20
-57.6617705752
 10
31.2049784738
 20
-57.6515888218
 10
31.3087465296
 20
-57.6350173615
 10
31.407750367
 20
-57.6122989613
 10
31.5005396086
 20
-57.5837664389
 10
31.585754919
 20
-57.5498377875
  0
LWPOLYLINE
  5
227
100
AcDbEntity
  8
RACCORDO
100
AcDbPolyline
 62
7
  6
CONTINUOUS
 90
19
 70
0
 10
29.6372506524
 20
-58.0848526406
 10
29.7032830141
 20
-58.1105653223
 10
29.7680031597
 20
-58.1293442193
 10
29.8314106667
 20
-58.1411895707
 10
29.8940247514
 20
-58.1461150051
 10
29.9553254832
 20
-58.1441072984
 10
30.0137532638
 20
-58.1351266693
 10
30.069192161
 20
-58.1189800011
 10
30.1217564686
 20
-58.0958613414
 10
30.1702312064
 20
-58.0663120669
 10
30.2145130624
 20
-58.0301544566
 10
30.2547034624
 20
-57.9875673045
 10
30.2898941647
 20
-57.9396269688
 10
30.31994064
 20
-57.8862515245
 10
30.3449857961
 20
-57.8275238199
 10
30.3645524948
 20
-57.7647674033
 10
30.3784813646
 20
-57.6984236429
 10
30.3869308653
 20
-57.6280516899
 10
30.3899007694
 20
-57.553651674
  0
LWPOLYLINE
  5
228
100
AcDbEntity
  8
RACCORDO
100
AcDbPolyline
 62
7
  6
CONTINUOUS
 90
10
 70
0
 10
29.8696353972
 20
-58.5708837016
 10
29.938198699
 20
-58.5992992489
 10
30.080027144
 20
-58.6474253292
 10
30.2230780971
 20
-58.6817862026
 10
30.3663775627
 20
-58.7021306839
 10
30.5085309259
 20
-58.7084243142
 10
30.6483215257
 20
-58.7008341526
 10
30.7846731485
 20
-58.6796332636
 10
30.9160686709
 20
-58.6453689002
 10
30.9998059604
 20
-58.615867541
  0
LINE
  5
229
100
AcDbEntity
  8
RACCORDO
100
AcDbLine
 62
7
  6
CONTINUOUS
 10
29.8693894202
 20
-58.5707756334
 11
29.8696353972
 21
-58.5708837016
  0
LINE
  5
22A
100
AcDbEntity
  8
RACCORDO
100
AcDbLine
 62
7
  6
CONTINUOUS
 10
24.3490324149
 20
-56.1162955172
 11
29.869368717
 21
-58.5708228058
  0
LWPOLYLINE
  5
22B
100
AcDbEntity
  8
RACCORDO
100
AcDbPolyline
 62
7
  6
CONTINUOUS
 90
3
 70
0
 10
-34.4972308333
 20
-26.3431775755
 10
-34.3585571797
 20
-26.44489212
 10
-34.2566661346
 20
-26.5075761686
  0
LWPOLYLINE
  5
22C
100
AcDbEntity
  8
RACCORDO
100
AcDbPolyline
 62
7
  6
CONTINUOUS
 90
3
 70
0
 10
-34.7530729224
 20
-26.0968013469
 10
-34.6289531095
 20
-26.2268374598
 10
-34.4972308333
 20
-26.3431775755
  0
LWPOLYLINE
  5
22D
100
AcDbEntity
  8
RACCORDO
100
AcDbPolyline
 62
7
  6
CONTINUOUS
 90
7
 70
0
 10
-35.2834940157
 20
-25.1106089275
 10
-35.2247915057
 20
-25.2924007472
 10
-35.1531989121
 20
-25.4688875662
 10
-35.0693566163
 20
-25.6391674592
 10
-34.9736028943
 20
-25.8023645673
 10
-34.8679918623
 20
-25.9551638062
 10
-34.7530729224
 20
-26.0968013469
  0
LWPOLYLINE
  5
22E
100
AcDbEntity
  8
RACCORDO
100
AcDbPolyline
 62
7
  6
CONTINUOUS
 90
13
 70
0
 10
-34.4880843703
 20
54.1521949734
 10
-34.482681169
 20
54.2529234442
 10
-34.466563233
 20
54.3567937642
 10
-34.4399882373
 20
54.4621453697
 10
-34.403381033
 20
54.5672940155
 10
-34.3573268551
 20
54.6705587016
 10
-34.3025619668
 20
54.7702885468
 10
-34.2399618885
 20
54.864889181
 10
-34.1705274011
 20
54.9528482342
 10
-34.0953685476
 20
55.0327595154
 10
-34.0156868854
 20
55.1033454921
 10
-33.9327562769
 20
55.1634777143
 10
-33.8479025256
 20
55.212194855
  0
LWPOLYLINE
  5
22F
100
AcDbEntity
  8
RACCORDO
100
AcDbPolyline
 62
7
  6
CONTINUOUS
 90
34
 70
0
 10
-26.813657677
 20
29.8336972031
 10
-26.8208607633
 20
29.8306059252
 10
-26.8283490948
 20
29.8276890201
 10
-26.8361058023
 20
29.8249530588
 10
-26.8441134123
 20
29.8224042045
 10
-26.8523538859
 20
29.8200481993
 10
-26.8608086598
 20
29.8178903503
 10
-26.8694586877
 20
29.8159355187
 10
-26.8782844837
 20
29.8141881081
 10
-26.8872661657
 20
29.8126520549
 10
-26.8963835007
 20
29.8113308194
 10
-26.9056159499
 20
29.8102273781
 10
-26.9149427152
 20
29.8093442165
 10
-26.9243427862
 20
29.8086833242
 10
-26.9337949873
 20
29.8082461901
 10
-26.9432780253
 20
29.8080337988
 10
-26.9527705376
 20
29.8080466288
 10
-26.9622511405
 20
29.8082846512
 10
-26.9716984768
 20
29.8087473299
 10
-26.9810912644
 20
29.8094336224
 10
-26.9904083442
 20
29.8103419829
 10
-26.9996287273
 20
29.811470365
 10
-27.0087316429
 20
29.8128162269
 10
-27.0176965849
 20
29.8143765366
 10
-27.0265033577
 20
29.8161477792
 10
-27.0351321222
 20
29.8181259648
 10
-27.0435634404
 20
29.8203066369
 10
-27.0517783189
 20
29.8226848831
 10
-27.059758252
 20
29.825255346
 10
-27.0674852631
 20
29.828012235
 10
-27.0749419456
 20
29.8309493397
 10
-27.0821115017
 20
29.8340600436
 10
-27.0889777804
 20
29.8373373392
 10
-27.0955253141
 20
29.8407738437
  0
LWPOLYLINE
  5
230
100
AcDbEntity
  8
RACCORDO
100
AcDbPolyline
 62
7
  6
CONTINUOUS
 90
6
 70
0
 10
-27.9194190172
 20
32.4395524466
 10
-27.8685244001
 20
32.4595055351
 10
-27.8149304824
 20
32.4703485064
 10
-27.7581526462
 20
32.4725604354
 10
-27.6985740154
 20
32.4662183763
 10
-27.6365875882
 20
32.4513283696
  0
LINE
  5
231
100
AcDbEntity
  8
RACCORDO
100
AcDbLine
 62
7
  6
CONTINUOUS
 10
-26.1891554732
 20
29.4949247685
 11
-26.2621116724
 21
29.4665293254
  0
LWPOLYLINE
  5
232
100
AcDbEntity
  8
RACCORDO
100
AcDbPolyline
 62
7
  6
CONTINUOUS
 90
34
 70
0
 10
-26.2621116724
 20
29.4665293254
 10
-26.2789585801
 20
29.4602822355
 10
-26.295778398
 20
29.4546948586
 10
-26.3125711259
 20
29.4497671946
 10
-26.3293650697
 20
29.4454883028
 10
-26.3461319236
 20
29.441869124
 10
-26.36278677
 20
29.4389424801
 10
-26.3793271627
 20
29.4367150952
 10
-26.3957555479
 20
29.4351802452
 10
-26.4119943467
 20
29.4343505794
 10
-26.4280410119
 20
29.434232135
 10
-26.4438980907
 20
29.4348188747
 10
-26.4594956458
 20
29.436105337
 10
-26.4748242743
 20
29.4380941889
 10
-26.4898933792
 20
29.4407827634
 10
-26.5046612323
 20
29.444157598
 10
-26.5191224819
 20
29.4482171542
 10
-26.5332824796
 20
29.4529629706
 10
-26.547115553
 20
29.4583862008
 10
-26.5606269804
 20
29.4644889423
 10
-26.5738114833
 20
29.4712690977
 10
-26.5866275539
 20
29.4787115283
 10
-26.5990798483
 20
29.4868237012
 10
-26.6111637104
 20
29.4955981493
 10
-26.622823664
 20
29.5049973323
 10
-26.6340565819
 20
29.5150270294
 10
-26.6448655914
 20
29.5256814614
 10
-26.6552045983
 20
29.536905751
 10
-26.6650700064
 20
29.5487061297
 10
-26.6744654119
 20
29.5610763659
 10
-26.6833555089
 20
29.5739428879
 10
-26.6917285287
 20
29.5872811717
 10
-26.69959624
 20
29.6011157412
 10
-26.7069586427
 20
29.6154465965
  0
LWPOLYLINE
  5
233
100
AcDbEntity
  8
RACCORDO
100
AcDbPolyline
 62
7
  6
CONTINUOUS
 90
13
 70
0
 10
-34.4880844811
 20
-26.0221850738
 10
-29.462489744
 20
-28.8471733326
 10
-24.3769739913
 20
-31.6454240787
 10
-19.2321028261
 20
-34.4166183683
 10
-14.0283733035
 20
-37.160478913
 10
-8.7664382978
 20
-39.8766532856
 10
-3.4471147464
 20
-42.5647179797
 10
1.9289975834
 20
-45.2243711941
 10
7.3612923848
 20
-47.8553116937
 10
12.8489185818
 20
-50.4571289864
 10
18.3911699571
 20
-53.0294959653
 10
23.9874932791
 20
-55.5721647823
 10
29.6372506524
 20
-58.0848526406
  0
LWPOLYLINE
  5
234
100
AcDbEntity
  8
RACCORDO
100
AcDbPolyline
 62
7
  6
CONTINUOUS
 90
12
 70
0
 10
-34.2570626613
 20
-26.5074065997
 10
-29.359097032
 20
-29.2614001408
 10
-24.2491797472
 20
-32.0744540433
 10
-19.0796683092
 20
-34.859991002
 10
-13.8512151216
 20
-37.6176597124
 10
-8.5644119249
 20
-40.3471572472
 10
-3.2198220668
 20
-43.0481987629
 10
2.181963761
 20
-45.7204871839
 10
7.6403441936
 20
-48.3637295368
 10
13.154741279
 20
-50.9776460867
 10
18.7245412086
 20
-53.5619429797
 10
24.3490324149
 20
-56.1162955172
  0
LWPOLYLINE
  5
235
100
AcDbEntity
  8
RACCORDO
100
AcDbPolyline
 62
7
  6
CONTINUOUS
 90
7
 70
0
 10
-35.1495223589
 20
-24.7839401098
 10
-35.2162838545
 20
-24.7409056931
 10
-35.2721590534
 20
-24.694153283
 10
-35.3163291275
 20
-24.6443676306
 10
-35.3481466815
 20
-24.5922779435
 10
-35.3671452248
 20
-24.5386472405
 10
-35.373064243
 20
-24.4871225548
  0
LWPOLYLINE
  5
236
100
AcDbEntity
  8
RACCORDO
100
AcDbPolyline
 62
7
  6
CONTINUOUS
 90
3
 70
0
 10
-35.3574075043
 20
-24.7437611718
 10
-35.3278402092
 20
-24.9272222239
 10
-35.2834940157
 20
-25.1106089275
  0
LWPOLYLINE
  5
237
100
AcDbEntity
  8
RACCORDO
100
AcDbPolyline
 62
7
  6
CONTINUOUS
 90
8
 70
0
 10
-34.4880844073
 20
-26.0221850413
 10
-34.4826849595
 20
-26.1181631215
 10
-34.4665700976
 20
-26.2078536337
 10
-34.4399974633
 20
-26.2898226203
 10
-34.4033918956
 20
-26.3627595746
 10
-34.3573386384
 20
-26.4254983922
 10
-34.3025739839
 20
-26.4770360151
 10
-34.2570626613
 20
-26.5074065997
  0
LWPOLYLINE
  5
238
100
AcDbEntity
  8
RACCORDO
100
AcDbPolyline
 62
7
  6
CONTINUOUS
 90
19
 70
0
 10
-35.1495223589
 20
-24.7839401098
 10
-35.146916049
 20
-24.86112823
 10
-35.1395008492
 20
-24.9394325319
 10
-35.1272765001
 20
-25.0188529019
 10
-35.1101031643
 20
-25.0999793386
 10
-35.0881196406
 20
-25.1822213875
 10
-35.0617434381
 20
-25.2638081731
 10
-35.030847586
 20
-25.3447917845
 10
-34.9955572086
 20
-25.4251193218
 10
-34.9566680181
 20
-25.5028624528
 10
-34.9140891182
 20
-25.5779385454
 10
-34.867909259
 20
-25.6504292886
 10
-34.8191940418
 20
-25.7186530149
 10
-34.7678414152
 20
-25.7825238498
 10
-34.7139515688
 20
-25.8421268487
 10
-34.658894286
 20
-25.8960370996
 10
-34.6031260891
 20
-25.9437795998
 10
-34.5461896469
 20
-25.985828995
 10
-34.4880844811
 20
-26.0221850738
  0
LWPOLYLINE
  5
239
100
AcDbEntity
  8
RACCORDO
100
AcDbPolyline
 62
7
  6
CONTINUOUS
 90
3
 70
0
 10
-35.3730103482
 20
-24.4867185562
 10
-35.3717289115
 20
-24.559918562
 10
-35.3574075043
 20
-24.7437611718
  0
LINE
  5
23A
100
AcDbEntity
  8
RACCORDO
100
AcDbLine
 62
7
  6
CONTINUOUS
 10
-35.373064243
 20
53.9634183792
 11
-35.373064243
 21
-24.4871225119
  0
LINE
  5
23B
100
AcDbEntity
  8
RACCORDO
100
AcDbLine
 62
7
  6
CONTINUOUS
 10
-35.1495223589
 20
53.6666000776
 11
-35.1495223589
 21
-24.7839401098
  0
LINE
  5
23C
100
AcDbEntity
  8
RACCORDO
100
AcDbLine
 62
7
  6
CONTINUOUS
 10
-27.5221129637
 20
32.4066182054
 11
-27.5371149563
 21
32.3371835907
  0
LWPOLYLINE
  5
23D
100
AcDbEntity
  8
RACCORDO
100
AcDbPolyline
 62
7
  6
CONTINUOUS
 90
9
 70
0
 10
-26.2501677489
 20
29.5254309063
 10
-26.2522403375
 20
29.5200755683
 10
-26.2545247331
 20
29.5131612848
 10
-26.2565241525
 20
29.5059739722
 10
-26.2582340819
 20
29.4985298552
 10
-26.2596506612
 20
29.4908457385
 10
-26.2607706925
 20
29.4829389682
 10
-26.2615916473
 20
29.4748273934
 10
-26.2621116724
 20
29.4665293254
  0
LWPOLYLINE
  5
23E
100
AcDbEntity
  8
RACCORDO
100
AcDbPolyline
 62
7
  6
CONTINUOUS
 90
13
 70
0
 10
-28.0461409645
 20
-10.6303055976
 10
-28.0459462681
 20
-10.6334241461
 10
-28.0453780894
 20
-10.6364698706
 10
-28.0444384803
 20
-10.639492523
 10
-28.0431309576
 20
-10.6424807901
 10
-28.0414604151
 20
-10.6454234872
 10
-28.0394331055
 20
-10.6483096001
 10
-28.0370566168
 20
-10.6511283267
 10
-28.0343398436
 20
-10.6538691167
 10
-28.0312929546
 20
-10.6565217118
 10
-28.0279273539
 20
-10.6590761838
 10
-28.0242556383
 20
-10.6615229715
 10
-28.0202915507
 20
-10.6638529171
  0
LWPOLYLINE
  5
23F
100
AcDbEntity
  8
RACCORDO
100
AcDbPolyline
 62
7
  6
CONTINUOUS
 90
58
 70
0
 10
-27.0955253141
 20
-10.1288299254
 10
-27.0951806702
 20
-10.1655753076
 10
-27.0944270053
 20
-10.2012934446
 10
-27.0932643173
 20
-10.2359843354
 10
-27.0916564573
 20
-10.269627311
 10
-27.0896395661
 20
-10.3022430367
 10
-27.0873220765
 20
-10.333893513
 10
-27.0847148363
 20
-10.3645721325
 10
-27.0818069875
 20
-10.394285498
 10
-27.0786744072
 20
-10.4231154263
 10
-27.0753250968
 20
-10.4510588231
 10
-27.0717510449
 20
-10.4781187781
 10
-27.0680041109
 20
-10.5043863856
 10
-27.0640890696
 20
-10.5298675189
 10
-27.0600011371
 20
-10.5545563005
 10
-27.0557778371
 20
-10.5785261985
 10
-27.0514231667
 20
-10.6017783941
 10
-27.0469331208
 20
-10.6243117026
 10
-27.0423332216
 20
-10.646196044
 10
-27.0376271959
 20
-10.6674312977
 10
-27.03281131
 20
-10.688017581
 10
-27.0278998964
 20
-10.7080251714
 10
-27.0228903185
 20
-10.7274731496
 10
-27.0177852063
 20
-10.7463424318
 10
-27.0126067934
 20
-10.7646460493
 10
-27.0073518926
 20
-10.7823939301
 10
-27.0020236858
 20
-10.7995761437
 10
-26.9966539628
 20
-10.8161759344
 10
-26.9912487202
 20
-10.8321751737
 10
-26.9858019586
 20
-10.8475919888
 10
-26.9803274756
 20
-10.8624640085
 10
-26.9748282861
 20
-10.87678802
 10
-26.9693013733
 20
-10.8905672353
 10
-26.9637514879
 20
-10.9038489207
 10
-26.9581731685
 20
-10.9166474674
 10
-26.9525718746
 20
-10.9289484833
 10
-26.9469687399
 20
-10.9407560608
 10
-26.9413634788
 20
-10.9520685189
 10
-26.9357563767
 20
-10.9628875383
 10
-26.9301694256
 20
-10.9732222545
 10
-26.9246059618
 20
-10.9830657369
 10
-26.9190626506
 20
-10.9924249168
 10
-26.9135514784
 20
-11.0013297216
 10
-26.9080698162
 20
-11.0097834869
 10
-26.9026202955
 20
-11.0177828783
 10
-26.8972227942
 20
-11.0253478189
 10
-26.8918730936
 20
-11.0324804038
 10
-26.8865754162
 20
-11.0391785395
 10
-26.8813623041
 20
-11.045455868
 10
-26.8762345696
 20
-11.0513069337
 10
-26.8711914065
 20
-11.0567371948
 10
-26.8662629303
 20
-11.0617766647
 10
-26.8614584478
 20
-11.0664154294
 10
-26.8567686602
 20
-11.0706634065
 10
-26.8521957761
 20
-11.074580357
 10
-26.8477405344
 20
-11.0781862024
 10
-26.8434022035
 20
-11.0814610244
 10
-26.8391807869
 20
-11.0844048247
  0
LWPOLYLINE
  5
240
100
AcDbEntity
  8
RACCORDO
100
AcDbPolyline
 62
7
  6
CONTINUOUS
 90
46
 70
0
 10
-28.046140852
 20
-10.6303036597
 10
-28.0460324731
 20
-10.6458108824
 10
-28.0452668582
 20
-10.6746335634
 10
-28.0437731955
 20
-10.7036963069
 10
-28.04155869
 20
-10.7329653728
 10
-28.0386311917
 20
-10.7624161998
 10
-28.0349972482
 20
-10.7920304584
 10
-28.0306644903
 20
-10.8217803807
 10
-28.0256413697
 20
-10.8516369794
 10
-28.019934552
 20
-10.8815791209
 10
-28.0135525026
 20
-10.9115784475
 10
-28.006504406
 20
-10.9416059362
 10
-27.9987976848
 20
-10.9716388216
 10
-27.9904420034
 20
-11.0016482886
 10
-27.9814473158
 20
-11.0316055828
 10
-27.971821803
 20
-11.0614873934
 10
-27.9615762499
 20
-11.0912649269
 10
-27.9507214976
 20
-11.1209095379
 10
-27.9392665433
 20
-11.1503978682
 10
-27.9272231841
 20
-11.1797014228
 10
-27.9146032003
 20
-11.2087916415
 10
-27.9014164817
 20
-11.2376451765
 10
-27.8876757342
 20
-11.2662339883
 10
-27.8733936991
 20
-11.2945297139
 10
-27.8585812277
 20
-11.3225090414
 10
-27.8432518359
 20
-11.3501444972
 10
-27.8274192258
 20
-11.3774080542
 10
-27.8110952636
 20
-11.404276446
 10
-27.7942943805
 20
-11.4307225458
 10
-27.7770310249
 20
-11.456719157
 10
-27.759317468
 20
-11.4822439718
 10
-27.7411683155
 20
-11.5072711096
 10
-27.7225992214
 20
-11.5317734458
 10
-27.7036240137
 20
-11.5557279045
 10
-27.6842570151
 20
-11.5791103097
 10
-27.6645154267
 20
-11.6018934725
 10
-27.6444170901
 20
-11.6240511306
 10
-27.6239781061
 20
-11.6455588242
 10
-27.6032152226
 20
-11.6663923188
 10
-27.5821467067
 20
-11.6865269582
 10
-27.5607897327
 20
-11.7059389041
 10
-27.5391604087
 20
-11.7246062232
 10
-27.5172741209
 20
-11.7425078862
 10
-27.495146671
 20
-11.759622134
 10
-27.4727976309
 20
-11.7759257841
 10
-27.4614807681
 20
-11.7838112836
  0
LINE
  5
241
100
AcDbEntity
  8
RACCORDO
100
AcDbLine
 62
7
  6
CONTINUOUS
 10
-28.334962417
 20
-10.6246796637
 11
-28.334962417
 21
31.8538166274
  0
LINE
  5
242
100
AcDbEntity
  8
RACCORDO
100
AcDbLine
 62
7
  6
CONTINUOUS
 10
-28.1906663101
 20
-10.6268250592
 11
-28.1906663101
 21
31.8516712318
  0
LINE
  5
243
100
AcDbEntity
  8
RACCORDO
100
AcDbLine
 62
7
  6
CONTINUOUS
 10
-28.0461409645
 20
-10.6303055976
 11
-28.0461409645
 21
31.4293793333
  0
LINE
  5
244
100
AcDbEntity
  8
RACCORDO
100
AcDbLine
 62
7
  6
CONTINUOUS
 10
-28.0202915507
 20
-10.6638529171
 11
-28.0202915507
 21
31.3958320137
  0
LINE
  5
245
100
AcDbEntity
  8
RACCORDO
100
AcDbLine
 62
7
  6
CONTINUOUS
 10
-27.5511698341
 20
32.1597842278
 11
-27.5511698341
 21
32.1341194939
  0
LINE
  5
246
100
AcDbEntity
  8
RACCORDO
100
AcDbLine
 62
7
  6
CONTINUOUS
 10
-27.0955253141
 20
29.8407738437
 11
-27.0955253141
 21
-10.1288299254
  0
LWPOLYLINE
  5
247
100
AcDbEntity
  8
RACCORDO
100
AcDbPolyline
 62
7
  6
CONTINUOUS
 90
49
 70
0
 10
-28.0202915507
 20
31.3958320137
 10
-28.0200086886
 20
31.4194421963
 10
-28.019166549
 20
31.4426753026
 10
-28.0177651286
 20
31.465531334
 10
-28.0158019674
 20
31.4880316
 10
-28.0132795123
 20
31.5101547971
 10
-28.0102051169
 20
31.5318370085
 10
-28.0065772745
 20
31.5530759916
 10
-28.0023974662
 20
31.5738740006
 10
-27.9976775242
 20
31.5941738654
 10
-27.992416014
 20
31.6139740778
 10
-27.9866143328
 20
31.6332761628
 10
-27.9802885586
 20
31.6520275007
 10
-27.9734373165
 20
31.6702265995
 10
-27.9660619335
 20
31.6878749728
 10
-27.9581825397
 20
31.7049245104
 10
-27.9497977673
 20
31.7213736947
 10
-27.9409089271
 20
31.7372240691
 10
-27.9315401675
 20
31.7524321149
 10
-27.9216901692
 20
31.7669961807
 10
-27.9113601876
 20
31.780917947
 10
-27.9005782339
 20
31.7941588924
 10
-27.8893430532
 20
31.8067172477
 10
-27.8776558315
 20
31.8185948134
 10
-27.865548244
 20
31.8297584216
 10
-27.8530191121
 20
31.8402062058
 10
-27.8400695426
 20
31.8499400649
 10
-27.8267346426
 20
31.8589324774
 10
-27.8130132916
 20
31.867181504
 10
-27.798906538
 20
31.8746891167
 10
-27.7844527469
 20
31.8814336574
 10
-27.7696508728
 20
31.8874131033
 10
-27.7545018909
 20
31.8926295092
 10
-27.7390472056
 20
31.8970673306
 10
-27.723285916
 20
31.9007244643
 10
-27.7072188568
 20
31.9036030436
 10
-27.6908900445
 20
31.9056938752
 10
-27.674298658
 20
31.9069948216
 10
-27.6574454587
 20
31.9075080473
 10
-27.6403768461
 20
31.907230808
 10
-27.6230920095
 20
31.9061608775
 10
-27.6055917086
 20
31.9043005053
 10
-27.5879247089
 20
31.901653656
 10
-27.5700895757
 20
31.8982177263
 10
-27.5520877029
 20
31.8939953382
 10
-27.5339721116
 20
31.8889982887
 10
-27.5157604691
 20
31.8832305132
 10
-27.4974350813
 20
31.8766880885
 10
-27.4789959339
 20
31.8693710213
  0
LWPOLYLINE
  5
248
100
AcDbEntity
  8
RACCORDO
100
AcDbPolyline
 62
7
  6
CONTINUOUS
 90
10
 70
0
 10
-28.1906471647
 20
31.8516615043
 10
-28.1872176383
 20
31.9426361196
 10
-28.1767813833
 20
32.0287926591
 10
-28.1594783461
 20
32.1093615531
 10
-28.1354532368
 20
32.1835848308
 10
-28.1049072081
 20
32.250739642
 10
-28.0681721279
 20
32.310208158
 10
-28.0255997697
 20
32.3613985134
 10
-27.9775512314
 20
32.403773512
 10
-27.9194982616
 20
32.4395141696
  0
LINE
  5
249
100
AcDbEntity
  8
RACCORDO
100
AcDbLine
 62
7
  6
CONTINUOUS
 10
-27.5475310892
 20
32.2515238587
 11
-27.5511698341
 21
32.1597842433
  0
LWPOLYLINE
  5
24A
100
AcDbEntity
  8
RACCORDO
100
AcDbPolyline
 62
7
  6
CONTINUOUS
 90
12
 70
0
 10
-28.334962417
 20
31.8538166274
 10
-28.3308397778
 20
31.9544857193
 10
-28.3193788106
 20
32.0482899123
 10
-28.3005789305
 20
32.1352294707
 10
-28.2741182242
 20
32.2160194102
 10
-28.2403162615
 20
32.2899457739
 10
-28.2001343457
 20
32.354865519
 10
-28.1533971462
 20
32.410501473
 10
-28.100276107
 20
32.4571325657
 10
-28.0422530401
 20
32.4934497519
 10
-27.9791122245
 20
32.5191422307
 10
-27.9110652052
 20
32.5345226935
  0
LINE
  5
24B
100
AcDbEntity
  8
RACCORDO
100
AcDbLine
 62
7
  6
CONTINUOUS
 10
-27.5371149563
 20
32.3371835907
 11
-27.5475310892
 21
32.2515238587
  0
LINE
  5
24C
100
AcDbEntity
  8
DRAFT
100
AcDbLine
 62
7
  6
CONTINUOUS
 10
35.3730460489
 20
-19.1618959884
 11
34.6589053233
 21
-19.3368608998
  0
LWPOLYLINE
  5
24D
100
AcDbEntity
  8
RACCORDO
100
AcDbPolyline
 62
7
  6
CONTINUOUS
 90
41
 70
0
 10
20.9435164181
 20
-34.8894625054
 10
20.9459203451
 20
-34.889904721
 10
20.9484356465
 20
-34.890112677
 10
20.9510587638
 20
-34.8900858518
 10
20.9537791763
 20
-34.8898433522
 10
20.956599769
 20
-34.8893648597
 10
20.9595366917
 20
-34.8885906128
 10
20.9625910949
 20
-34.8875171527
 10
20.9657525612
 20
-34.8861462826
 10
20.9690201306
 20
-34.884426095
 10
20.9723909837
 20
-34.8823508753
 10
20.9758590668
 20
-34.8799244433
 10
20.9794197744
 20
-34.8771092842
 10
20.9830672702
 20
-34.8739030763
 10
20.9867993682
 20
-34.8703061195
 10
20.9906178617
 20
-34.8662849073
 10
20.9945169577
 20
-34.8618394599
 10
20.9984944511
 20
-34.8569675227
 10
21.0025576304
 20
-34.8516321397
 10
21.0067047344
 20
-34.845827579
 10
21.0109287045
 20
-34.8395569728
 10
21.0152290289
 20
-34.8327966352
 10
21.0196017781
 20
-34.8255433888
 10
21.0240424463
 20
-34.817797664
 10
21.0285501634
 20
-34.809541235
 10
21.0331157769
 20
-34.8007824263
 10
21.0377404744
 20
-34.7915100603
 10
21.0424382639
 20
-34.7816764606
 10
21.0472049809
 20
-34.7712785505
 10
21.0520346379
 20
-34.760315826
 10
21.0569370303
 20
-34.7487440582
 10
21.0619116301
 20
-34.7365478014
 10
21.0669472304
 20
-34.7237382379
 10
21.0720374716
 20
-34.7103109754
 10
21.0771742374
 20
-34.6962711962
 10
21.0823552679
 20
-34.6816094871
 10
21.0875830838
 20
-34.6662995028
 10
21.0928467709
 20
-34.6503550683
 10
21.0981462635
 20
-34.6337576359
 10
21.1034981994
 20
-34.6164315917
 10
21.1052411892
 20
-34.6106647116
  0
LINE
  5
24E
100
AcDbEntity
  8
RACCORDO
100
AcDbLine
 62
7
  6
CONTINUOUS
 10
22.6293097571
 20
-36.3792942075
 11
22.6651820992
 21
-36.3889760384
  0
LWPOLYLINE
  5
24F
100
AcDbEntity
  8
RACCORDO
100
AcDbPolyline
 62
7
  6
CONTINUOUS
 90
19
 70
0
 10
21.6773982828
 20
-36.3531551075
 10
21.6897423701
 20
-36.3571288389
 10
21.7136529532
 20
-36.3641573213
 10
21.7374653584
 20
-36.3702747165
 10
21.7611581299
 20
-36.3754782289
 10
21.7847125584
 20
-36.3797673419
 10
21.8081104045
 20
-36.3831418333
 10
21.8313339269
 20
-36.3856016058
 10
21.8543622987
 20
-36.3871474476
 10
21.8771716986
 20
-36.387780577
 10
21.8997428922
 20
-36.3875028919
 10
21.9220541434
 20
-36.3863179063
 10
21.944076685
 20
-36.3842308549
 10
21.9657897676
 20
-36.3812474043
 10
21.987172105
 20
-36.3773749617
 10
22.0081932442
 20
-36.3726244056
 10
22.0288331273
 20
-36.3670057839
 10
22.0490700835
 20
-36.360531234
 10
22.0691965256
 20
-36.3530907501
  0
LINE
  5
250
100
AcDbEntity
  8
RACCORDO
100
AcDbLine
 62
7
  6
CONTINUOUS
 10
22.679123262
 20
-36.2296679243
 11
22.5174625167
 21
-36.1758479125
  0
LWPOLYLINE
  5
251
100
AcDbEntity
  8
RACCORDO
100
AcDbPolyline
 62
7
  6
CONTINUOUS
 90
9
 70
0
 10
21.6416795117
 20
-36.295270034
 10
20.6285229557
 20
-35.9569305223
 10
19.5894765567
 20
-35.6023500429
 10
18.5246939664
 20
-35.2314484497
 10
17.4293904951
 20
-34.8426760613
 10
16.3086916116
 20
-34.4374061106
 10
15.1775355212
 20
-34.0199875307
 10
14.0370072765
 20
-33.5904761503
 10
12.8861824697
 20
-33.1487405386
  0
LWPOLYLINE
  5
252
100
AcDbEntity
  8
RACCORDO
100
AcDbPolyline
 62
7
  6
CONTINUOUS
 90
7
 70
0
 10
21.9977392249
 20
-36.7067873762
 10
20.3358349844
 20
-36.1493967427
 10
18.7261883263
 20
-35.5928632098
 10
17.168586092
 20
-35.038592779
 10
15.6644710439
 20
-34.4885630416
 10
14.2119271107
 20
-33.943497583
 10
12.8057262307
 20
-33.4027240152
  0
LWPOLYLINE
  5
253
100
AcDbEntity
  8
RACCORDO
100
AcDbPolyline
 62
7
  6
CONTINUOUS
 90
7
 70
0
 10
21.9385830737
 20
-36.833344445
 10
20.2757239335
 20
-36.2737708367
 10
18.6654537415
 20
-35.7173520646
 10
17.1073850499
 20
-35.1643151212
 10
15.6026929182
 20
-34.6144889615
 10
14.1494475474
 20
-34.0684798889
 10
12.7426547569
 20
-33.5276500025
  0
LINE
  5
254
100
AcDbEntity
  8
RACCORDO
100
AcDbLine
 62
7
  6
CONTINUOUS
 10
22.6293097571
 20
-36.3792942075
 11
22.2942361368
 21
-36.2641111522
  0
LWPOLYLINE
  5
255
100
AcDbEntity
  8
RACCORDO
100
AcDbPolyline
 62
7
  6
CONTINUOUS
 90
19
 70
0
 10
21.6773982413
 20
-36.3531552327
 10
21.6762033235
 20
-36.3527379855
 10
21.6729377454
 20
-36.3513718454
 10
21.6697849786
 20
-36.3497131925
 10
21.6667549247
 20
-36.347767236
 10
21.6638570999
 20
-36.3455400873
 10
21.6611006051
 20
-36.3430387411
 10
21.6584940973
 20
-36.3402710531
 10
21.6560457626
 20
-36.3372457154
 10
21.6537632902
 20
-36.3339722295
 10
21.6516538484
 20
-36.3304608761
 10
21.6497240621
 20
-36.3267226829
 10
21.647979992
 20
-36.3227693901
 10
21.6464271156
 20
-36.3186134135
 10
21.6450703099
 20
-36.3142678052
 10
21.6439138359
 20
-36.3097462131
 10
21.6429613257
 20
-36.3050628377
 10
21.6422157708
 20
-36.3002323876
 10
21.6416795127
 20
-36.2952700334
  0
LWPOLYLINE
  5
256
100
AcDbEntity
  8
RACCORDO
100
AcDbPolyline
 62
7
  6
CONTINUOUS
 90
34
 70
0
 10
-26.2621116724
 20
-9.272124435
 10
-26.2615916473
 20
-9.2802580381
 10
-26.2607706925
 20
-9.2885410395
 10
-26.2596506612
 20
-9.2969547408
 10
-26.258234082
 20
-9.3054801487
 10
-26.2565241526
 20
-9.3140980174
 10
-26.2545247333
 20
-9.3227888929
 10
-26.2522403377
 20
-9.3315331559
 10
-26.2496761228
 20
-9.3403110668
 10
-26.2468378771
 20
-9.3491028103
 10
-26.2437320078
 20
-9.3578885394
 10
-26.2403655263
 20
-9.366648421
 10
-26.2367460323
 20
-9.3753626804
 10
-26.2328816966
 20
-9.3840116456
 10
-26.2287812427
 20
-9.3925757924
 10
-26.2244539271
 20
-9.4010357878
 10
-26.2199095185
 20
-9.4093725339
 10
-26.2151582756
 20
-9.4175672113
 10
-26.210210924
 20
-9.425601321
 10
-26.205078632
 20
-9.4334567268
 10
-26.1997729855
 20
-9.4411156955
 10
-26.1943059615
 20
-9.4485609378
 10
-26.1886899016
 20
-9.4557756466
 10
-26.1829374834
 20
-9.4627435353
 10
-26.1770616928
 20
-9.4694488744
 10
-26.1710757939
 20
-9.4758765272
 10
-26.1649932993
 20
-9.4820119837
 10
-26.15882794
 20
-9.4878413938
 10
-26.1525936336
 20
-9.4933515979
 10
-26.1463044537
 20
-9.4985301573
 10
-26.1399745976
 20
-9.5033653818
 10
-26.1336183544
 20
-9.5078463562
 10
-26.127250073
 20
-9.5119629652
 10
-26.1208841292
 20
-9.5157059158
  0
LWPOLYLINE
  5
257
100
AcDbEntity
  8
RACCORDO
100
AcDbPolyline
 62
7
  6
CONTINUOUS
 90
13
 70
0
 10
-28.0461409644
 20
31.4293767787
 10
-28.0459462663
 20
31.42626077
 10
-28.0453780858
 20
31.4232150457
 10
-28.044438475
 20
31.4201923937
 10
-28.0431309509
 20
31.4172041274
 10
-28.0414604072
 20
31.4142614313
 10
-28.0394330969
 20
31.4113753196
 10
-28.0370566079
 20
31.4085565945
 10
-28.0343398351
 20
31.4058158061
 10
-28.0312929471
 20
31.4031632128
 10
-28.027927348
 20
31.4006087429
 10
-28.024255635
 20
31.3981619572
 10
-28.0202915507
 20
31.3958320137
  0
LINE
  5
258
100
AcDbEntity
  8
RACCORDO
100
AcDbLine
 62
7
  6
CONTINUOUS
 10
-26.813657677
 20
29.8336972031
 11
-26.813657677
 21
-10.1359065659
  0
LINE
  5
259
100
AcDbEntity
  8
RACCORDO
100
AcDbLine
 62
7
  6
CONTINUOUS
 10
-24.9599887773
 20
28.8803414205
 11
-24.9599887773
 21
-8.6064898362
  0
LINE
  5
25A
100
AcDbEntity
  8
RACCORDO
100
AcDbLine
 62
7
  6
CONTINUOUS
 10
-24.7855860537
 20
28.7931400587
 11
-24.7855860537
 21
-8.8666589072
  0
LINE
  5
25B
100
AcDbEntity
  8
RACCORDO
100
AcDbLine
 62
7
  6
CONTINUOUS
 10
-24.7013879938
 20
28.7510410288
 11
-24.7013879938
 21
-8.9087579371
  0
LWPOLYLINE
  5
25C
100
AcDbEntity
  8
RACCORDO
100
AcDbPolyline
 62
7
  6
CONTINUOUS
 90
10
 70
0
 10
-27.6131652636
 20
-12.0574669819
 10
-27.6108312825
 20
-12.0427073148
 10
-27.6063257423
 20
-12.0273776896
 10
-27.5997849706
 20
-12.0119419467
 10
-27.5914068773
 20
-11.9968671375
 10
-27.5814449645
 20
-11.9826093927
 10
-27.5702006568
 20
-11.9696001205
 10
-27.5580141819
 20
-11.9582329531
 10
-27.5452542759
 20
-11.9488518358
 10
-27.5323070257
 20
-11.9417406206
  0
LWPOLYLINE
  5
25D
100
AcDbEntity
  8
RACCORDO
100
AcDbPolyline
 62
7
  6
CONTINUOUS
 90
58
 70
0
 10
-26.813657677
 20
-10.1359065659
 10
-26.8195493755
 20
-10.1719713339
 10
-26.8249682216
 20
-10.2069416939
 10
-26.8299472314
 20
-10.2408036278
 10
-26.8345169701
 20
-10.2735017486
 10
-26.838706625
 20
-10.3050642373
 10
-26.8425404815
 20
-10.335605262
 10
-26.8460365793
 20
-10.3651149719
 10
-26.8492174307
 20
-10.3935834775
 10
-26.8521064634
 20
-10.4211290654
 10
-26.8547171564
 20
-10.4477458539
 10
-26.8570645798
 20
-10.4734248812
 10
-26.8591696998
 20
-10.4982828183
 10
-26.8610431857
 20
-10.5223228904
 10
-26.8626947166
 20
-10.5455307249
 10
-26.8641407355
 20
-10.5679987174
 10
-26.8653891598
 20
-10.5897260518
 10
-26.8664470767
 20
-10.6107048888
 10
-26.8673278284
 20
-10.6310185779
 10
-26.8680378151
 20
-10.6506655966
 10
-26.8685819364
 20
-10.6696407146
 10
-26.868970118
 20
-10.6880229019
 10
-26.869207416
 20
-10.7058281452
 10
-26.8692975549
 20
-10.7230353
 10
-26.8692478317
 20
-10.7396683237
 10
-26.8690608657
 20
-10.7557341899
 10
-26.8687411717
 20
-10.7712214005
 10
-26.8682984613
 20
-10.7861263125
 10
-26.8677354134
 20
-10.8004308003
 10
-26.8670548041
 20
-10.814148658
 10
-26.8662661433
 20
-10.8273242569
 10
-26.8653724248
 20
-10.8399536107
 10
-26.864374834
 20
-10.8520371208
 10
-26.863280114
 20
-10.8636260963
 10
-26.8620888021
 20
-10.8747320398
 10
-26.8608038592
 20
-10.8853405701
 10
-26.8594355304
 20
-10.8954643556
 10
-26.8579839672
 20
-10.905100637
 10
-26.8564513463
 20
-10.9142495387
 10
-26.854850505
 20
-10.922928072
 10
-26.8531823876
 20
-10.9311291033
 10
-26.8514471187
 20
-10.9388574217
 10
-26.8496559754
 20
-10.9461479888
 10
-26.847807696
 20
-10.9530025873
 10
-26.8459038949
 20
-10.9594174938
 10
-26.8439598203
 20
-10.9654194868
 10
-26.8419722048
 20
-10.9710088075
 10
-26.8399435696
 20
-10.9761835987
 10
-26.8378969801
 20
-10.9809675398
 10
-26.8358297125
 20
-10.9853551457
 10
-26.8337419529
 20
-10.9893506286
 10
-26.8316599514
 20
-10.9929922909
 10
-26.8295850008
 20
-10.9962724748
 10
-26.8275115381
 20
-10.9991979955
 10
-26.8254550049
 20
-11.0018289681
 10
-26.8234191562
 20
-11.0041852761
 10
-26.8213959546
 20
-11.0062465712
 10
-26.8193831873
 20
-11.008012702
  0
LWPOLYLINE
  5
25E
100
AcDbEntity
  8
0
100
AcDbPolyline
 62
7
  6
CONTINUOUS
 90
5
 70
0
 10
-0.7613585368
 20
-24.3624065373
 10
-0.7589931304
 20
-24.3617441437
 10
-0.7565614175
 20
-24.361038409
 10
-0.7540625986
 20
-24.3602928024
 10
-0.7530907939
 20
-24.3599939074
  0
LWPOLYLINE
  5
25F
100
AcDbEntity
  8
0
100
AcDbPolyline
 62
7
  6
CONTINUOUS
 90
10
 70
0
 10
-0.8381693049
 20
-24.4010792212
 10
-0.8430337139
 20
-24.4024076514
 10
-0.8453755824
 20
-24.4030190634
 10
-0.8476605362
 20
-24.4035316882
 10
-0.8498917034
 20
-24.4039524432
 10
-0.852065956
 20
-24.4042744111
 10
-0.8541779131
 20
-24.4044203223
 10
-0.856225781
 20
-24.4043644205
 10
-0.8582113535
 20
-24.4041324621
 10
-0.8601346305
 20
-24.4037244471
  0
LINE
  5
260
100
AcDbEntity
  8
DRAFT
100
AcDbLine
 62
7
  6
CONTINUOUS
 10
34.8780713021
 20
-18.6372070467
 11
34.6589053233
 21
-18.6909028446
  0
LWPOLYLINE
  5
261
100
AcDbEntity
  8
0
100
AcDbPolyline
 62
7
  6
CONTINUOUS
 90
10
 70
0
 10
-0.7821140296
 20
-24.3647141466
 10
-0.7802697619
 20
-24.3651113453
 10
-0.7783730419
 20
-24.365345562
 10
-0.7764238697
 20
-24.3654167968
 10
-0.7744207712
 20
-24.3653025784
 10
-0.7723652205
 20
-24.3650253781
 10
-0.7702616399
 20
-24.3646526096
 10
-0.7681144276
 20
-24.3641884288
 10
-0.7659191854
 20
-24.3636286798
 10
-0.7613585368
 20
-24.3624065373
  0
LWPOLYLINE
  5
262
100
AcDbEntity
  8
0
100
AcDbPolyline
 62
7
  6
CONTINUOUS
 90
13
 70
0
 10
-0.9974996834
 20
-23.4888212204
 10
-0.9775569358
 20
-23.493552597
 10
-0.9580176046
 20
-23.4988623023
 10
-0.9388816898
 20
-23.5047503363
 10
-0.9201383476
 20
-23.5112275641
 10
-0.9017984217
 20
-23.5182831205
 10
-0.8838944437
 20
-23.5258844105
 10
-0.8664298026
 20
-23.5340551115
 10
-0.8494011094
 20
-23.542771546
 10
-0.832830728
 20
-23.5519300865
 10
-0.8167261131
 20
-23.5614961905
 10
-0.80107981
 20
-23.5715044005
 10
-0.7858918188
 20
-23.5819547165
  0
LWPOLYLINE
  5
263
100
AcDbEntity
  8
0
100
AcDbPolyline
 62
7
  6
CONTINUOUS
 90
37
 70
0
 10
-1.2371336187
 20
-23.1055236855
 10
-1.2173154456
 20
-23.1108774084
 10
-1.1973723974
 20
-23.1164524021
 10
-1.1773044742
 20
-23.1222486664
 10
-1.1570375875
 20
-23.1282794844
 10
-1.1366458257
 20
-23.134531573
 10
-1.1163514547
 20
-23.1409650834
 10
-1.0961640634
 20
-23.1475855549
 10
-1.0760740629
 20
-23.1543874481
 10
-1.0562749525
 20
-23.1613142964
 10
-1.0368057478
 20
-23.1683594407
 10
-1.0176274332
 20
-23.1755295401
 10
-0.9988164615
 20
-23.1827881052
 10
-0.9804480904
 20
-23.1901021494
 10
-0.9624470622
 20
-23.1975046594
 10
-0.9446640563
 20
-23.2050581058
 10
-0.9271023083
 20
-23.2127455779
 10
-0.9097585826
 20
-23.2205839865
 10
-0.8924738518
 20
-23.2286865347
 10
-0.8752443172
 20
-23.2370416728
 10
-0.8580737775
 20
-23.2456609504
 10
-0.840814601
 20
-23.2546922195
 10
-0.8234445798
 20
-23.2641309771
 10
-0.8059859218
 20
-23.2739817261
 10
-0.7883576189
 20
-23.2844058272
 10
-0.7704526864
 20
-23.2954494485
 10
-0.752378109
 20
-23.3070664219
 10
-0.7343738327
 20
-23.3192796033
 10
-0.7164130501
 20
-23.3321131066
 10
-0.6985225687
 20
-23.3455428179
 10
-0.6810227565
 20
-23.3595192517
 10
-0.6639128202
 20
-23.3740961761
 10
-0.6471935531
 20
-23.3892198229
 10
-0.631187703
 20
-23.4046794022
 10
-0.6160028525
 20
-23.4204046506
 10
-0.6015314191
 20
-23.4364658315
 10
-0.5877734026
 20
-23.4528629447
  0
LWPOLYLINE
  5
264
100
AcDbEntity
  8
RACCORDO
100
AcDbPolyline
 62
7
  6
CONTINUOUS
 90
58
 70
0
 10
20.9371319557
 20
-34.972561196
 10
20.941774274
 20
-34.9740492628
 10
20.9465452494
 20
-34.9753290937
 10
20.9514448851
 20
-34.9764006871
 10
20.9564739926
 20
-34.9772847326
 10
20.9616317671
 20
-34.9779605369
 10
20.9669157868
 20
-34.9783660235
 10
20.9723362866
 20
-34.9785010415
 10
20.9778830387
 20
-34.9783657379
 10
20.9835229274
 20
-34.9778984836
 10
20.9892568456
 20
-34.9770946704
 10
20.9950839057
 20
-34.9759589034
 10
21.000968319
 20
-34.9744433756
 10
21.0069054444
 20
-34.9725457483
 10
21.0128999264
 20
-34.9702683582
 10
21.0189299021
 20
-34.9675704118
 10
21.0249924794
 20
-34.9644524818
 10
21.0310905527
 20
-34.9609139942
 10
21.0372109379
 20
-34.9569124362
 10
21.0433573053
 20
-34.9524443794
 10
21.0495259861
 20
-34.9475132513
 10
21.0556927865
 20
-34.9420868239
 10
21.0618573924
 20
-34.9361631168
 10
21.0680201178
 20
-34.9297441105
 10
21.0741577099
 20
-34.9228035196
 10
21.0802641595
 20
-34.9153500017
 10
21.0863454741
 20
-34.9073749002
 10
21.0923964244
 20
-34.8988259585
 10
21.0984203279
 20
-34.889703132
 10
21.1044138651
 20
-34.8800064664
 10
21.1103618508
 20
-34.8696838412
 10
21.1162708838
 20
-34.8587234284
 10
21.1221343625
 20
-34.8471370576
 10
21.1279172993
 20
-34.8349080957
 10
21.1336161868
 20
-34.8220431284
 10
21.1392345276
 20
-34.8085355726
 10
21.1447478468
 20
-34.794349043
 10
21.1501532432
 20
-34.7794998576
 10
21.1554536119
 20
-34.7639717016
 10
21.1606331718
 20
-34.7476792407
 10
21.1656960253
 20
-34.7306262757
 10
21.1706380635
 20
-34.7128090092
 10
21.1754311876
 20
-34.6941307108
 10
21.1800797977
 20
-34.6745967679
 10
21.1845794865
 20
-34.6542017969
 10
21.1888889421
 20
-34.632832912
 10
21.1930134209
 20
-34.610501011
 10
21.1969476583
 20
-34.5871952006
 10
21.2006345587
 20
-34.5627699092
 10
21.2040829308
 20
-34.5372304572
 10
21.2072839569
 20
-34.5105715291
 10
21.2101540996
 20
-34.4826316011
 10
21.2127053009
 20
-34.4534154702
 10
21.2149256097
 20
-34.4229183445
 10
21.2166956471
 20
-34.3909643177
 10
21.2179756173
 20
-34.3574947559
 10
21.2188053089
 20
-34.3225682972
 10
21.2191847199
 20
-34.2861849424
  0
LINE
  5
265
100
AcDbEntity
  8
RACCORDO
100
AcDbLine
 62
7
  6
CONTINUOUS
 10
22.703007525
 20
-36.1637799009
 11
22.6198781572
 21
-36.1353527911
  0
LWPOLYLINE
  5
266
100
AcDbEntity
  8
RACCORDO
100
AcDbPolyline
 62
7
  6
CONTINUOUS
 90
24
 70
0
 10
12.8861824697
 20
-33.1487405386
 10
11.7368265397
 20
-32.6989346191
 10
10.5925047275
 20
-32.2423288281
 10
9.4496596352
 20
-31.7776598085
 10
8.3092938529
 20
-31.3053229414
 10
7.1718581565
 20
-30.8255019987
 10
6.0369099998
 20
-30.3380200399
 10
4.9041079291
 20
-29.8427335297
 10
3.7732534723
 20
-29.3395548543
 10
2.644560471
 20
-28.8285747535
 10
1.5183063993
 20
-28.3099169854
 10
0.3946039368
 20
-27.7836326906
 10
-0.726649123
 20
-27.2496763945
 10
-1.845499065
 20
-26.7080276682
 10
-2.9619883607
 20
-26.1586658448
 10
-4.0760627765
 20
-25.601616606
 10
-5.1876238336
 20
-25.0369291926
 10
-6.2966184216
 20
-24.4646315983
 10
-7.4030896223
 20
-23.8847017108
 10
-8.5070835369
 20
-23.2971137577
 10
-9.6087001367
 20
-22.7018121016
 10
-10.7078281157
 20
-22.098857615
 10
-11.8041981363
 20
-21.4884000073
 10
-12.8976069051
 20
-20.8705571683
  0
LWPOLYLINE
  5
267
100
AcDbEntity
  8
RACCORDO
100
AcDbPolyline
 62
7
  6
CONTINUOUS
 90
23
 70
0
 10
12.7426547569
 20
-33.5276500025
 10
11.3824775404
 20
-32.9925930077
 10
10.0681299217
 20
-32.4630668087
 10
8.7932861964
 20
-31.9391281097
 10
7.5528368565
 20
-31.4189342274
 10
6.3514221216
 20
-30.9045890661
 10
5.1973359639
 20
-30.4020694512
 10
4.0959263954
 20
-29.9140870842
 10
3.0412624426
 20
-29.438242855
 10
2.0247275437
 20
-28.9728416775
 10
1.0493144095
 20
-28.5197960811
 10
0.1116120333
 20
-28.0774149222
 10
-0.8064431526
 20
-27.638515459
 10
-1.7049406457
 20
-27.2035042579
 10
-2.583976232
 20
-26.7720742246
 10
-3.4614295784
 20
-26.3358738929
 10
-4.3373054685
 20
-25.895230393
 10
-5.2115943902
 20
-25.449819544
 10
-6.101968243
 20
-24.9902197544
 10
-7.0083272945
 20
-24.5167404058
 10
-7.9305739277
 20
-24.0289802674
 10
-8.8861869977
 20
-23.5163552927
 10
-9.8781120191
 20
-22.9773761416
  0
LWPOLYLINE
  5
268
100
AcDbEntity
  8
RACCORDO
100
AcDbPolyline
 62
7
  6
CONTINUOUS
 90
23
 70
0
 10
12.8057262307
 20
-33.4027240152
 10
11.4460902599
 20
-32.8675189297
 10
10.1323608929
 20
-32.3387844918
 10
8.8580580825
 20
-31.8149541842
 10
7.6181183161
 20
-31.2948184307
 10
6.4172600286
 20
-30.7812072514
 10
5.2636627372
 20
-30.2786067253
 10
4.1627067386
 20
-29.7904788104
 10
3.1085259754
 20
-29.3152977537
 10
2.0924318005
 20
-28.850027844
 10
1.1174287831
 20
-28.3968381109
 10
0.1801498967
 20
-27.9549285807
 10
-0.7375045335
 20
-27.5162981995
 10
-1.6356159661
 20
-27.0812545724
 10
-2.5142572972
 20
-26.6501038488
 10
-3.3913286254
 20
-26.2142315081
 10
-4.2668226889
 20
-25.7736416885
 10
-5.140718109
 20
-25.3283466939
 10
-6.030707071
 20
-24.8691639485
 10
-6.9366670541
 20
-24.3958150554
 10
-7.8584927476
 20
-23.9080071227
 10
-8.8136983662
 20
-23.3959340039
 10
-9.8051862118
 20
-22.8572627597
  0
LWPOLYLINE
  5
269
100
AcDbEntity
  8
0
100
AcDbPolyline
 62
7
  6
CONTINUOUS
 90
19
 70
0
 10
-1.0866157694
 20
-24.113100166
 10
-1.0746875559
 20
-24.1182580644
 10
-1.0631054233
 20
-24.1227612703
 10
-1.0518693716
 20
-24.1266097837
 10
-1.0409925997
 20
-24.1297705535
 10
-1.0304619087
 20
-24.1322766309
 10
-1.0202377022
 20
-24.1342271689
 10
-1.0103296839
 20
-24.1356340293
 10
-1.0007281502
 20
-24.1364853504
 10
-0.9913643928
 20
-24.1368447
 10
-0.9822164069
 20
-24.136720372
 10
-0.9733061975
 20
-24.1361040727
 10
-0.9646310712
 20
-24.1350344889
 10
-0.9561983312
 20
-24.1335157061
 10
-0.9480006744
 20
-24.131543639
 10
-0.9400134984
 20
-24.1291447175
 10
-0.9322447628
 20
-24.1263243569
 10
-0.9246865079
 20
-24.1230771419
 10
-0.9205790424
 20
-24.1211016534
  0
LINE
  5
26A
100
AcDbEntity
  8
0
100
AcDbLine
 62
7
  6
CONTINUOUS
 10
-5.4312674339
 20
-23.1354957038
 11
-5.1971542782
 21
-23.2525522817
  0
LINE
  5
26B
100
AcDbEntity
  8
0
100
AcDbLine
 62
7
  6
CONTINUOUS
 10
-4.6894735296
 20
-23.506392656
 11
-4.4238135119
 21
-23.6392226648
  0
LINE
  5
26C
100
AcDbEntity
  8
0
100
AcDbLine
 62
7
  6
CONTINUOUS
 10
-4.2808004583
 20
-23.7107291916
 11
-4.0266500177
 21
-23.8378044119
  0
LINE
  5
26D
100
AcDbEntity
  8
0
100
AcDbLine
 62
7
  6
CONTINUOUS
 10
-3.6576696784
 20
-24.0222945815
 11
-3.6204108079
 21
-24.0409240168
  0
LINE
  5
26E
100
AcDbEntity
  8
0
100
AcDbLine
 62
7
  6
CONTINUOUS
 10
-3.2499603937
 20
-24.2261492239
 11
-2.9900739029
 21
-24.3560924693
  0
LINE
  5
26F
100
AcDbEntity
  8
0
100
AcDbLine
 62
7
  6
CONTINUOUS
 10
-2.9483581383
 20
-24.3769503516
 11
-2.6855802878
 21
-24.5083392768
  0
LINE
  5
270
100
AcDbEntity
  8
0
100
AcDbLine
 62
7
  6
CONTINUOUS
 10
-2.1816698326
 20
-24.7602945044
 11
-1.9016753463
 21
-24.9002917476
  0
LINE
  5
271
100
AcDbEntity
  8
0
100
AcDbLine
 62
7
  6
CONTINUOUS
 10
-1.8236645421
 20
-24.9392972812
 11
-1.5590733872
 21
-25.0715928587
  0
LINE
  5
272
100
AcDbEntity
  8
0
100
AcDbLine
 62
7
  6
CONTINUOUS
 10
-1.1522516024
 20
-25.2750037511
 11
-0.8967174741
 21
-25.4027708152
  0
LINE
  5
273
100
AcDbEntity
  8
0
100
AcDbLine
 62
7
  6
CONTINUOUS
 10
-5.353246833
 20
-23.0964854034
 11
-5.1608097029
 21
-23.1927039684
  0
LINE
  5
274
100
AcDbEntity
  8
0
100
AcDbLine
 62
7
  6
CONTINUOUS
 10
-4.6114529287
 20
-23.4673823555
 11
-4.4022993347
 21
-23.5719591525
  0
LINE
  5
275
100
AcDbEntity
  8
0
100
AcDbLine
 62
7
  6
CONTINUOUS
 10
-4.2027798574
 20
-23.6717188912
 11
-4.0019530615
 21
-23.7721322891
  0
LINE
  5
276
100
AcDbEntity
  8
0
100
AcDbLine
 62
7
  6
CONTINUOUS
 10
-3.1719397928
 20
-24.1871389235
 11
-2.9728740928
 21
-24.2866717735
  0
LINE
  5
277
100
AcDbEntity
  8
0
100
AcDbLine
 62
7
  6
CONTINUOUS
 10
-2.8703375374
 20
-24.3379400512
 11
-2.6507545204
 21
-24.4477315597
  0
LINE
  5
278
100
AcDbEntity
  8
0
100
AcDbLine
 62
7
  6
CONTINUOUS
 10
-2.1036492317
 20
-24.721284204
 11
-1.8943172159
 21
-24.8259502119
  0
LINE
  5
279
100
AcDbEntity
  8
0
100
AcDbLine
 62
7
  6
CONTINUOUS
 10
-1.7456439412
 20
-24.9002869808
 11
-1.53755921
 21
-25.0043293464
  0
LINE
  5
27A
100
AcDbEntity
  8
0
100
AcDbLine
 62
7
  6
CONTINUOUS
 10
-1.0742310015
 20
-25.2359934506
 11
-0.8873976873
 21
-25.3294101077
  0
LINE
  5
27B
100
AcDbEntity
  8
0
100
AcDbLine
 62
7
  6
CONTINUOUS
 10
-2.4937978418
 20
-24.1745778959
 11
-2.1320130212
 21
-24.3554703062
  0
LINE
  5
27C
100
AcDbEntity
  8
0
100
AcDbLine
 62
7
  6
CONTINUOUS
 10
-2.4157772409
 20
-24.1355675954
 11
-2.0539924203
 21
-24.3164600057
  0
LINE
  5
27D
100
AcDbEntity
  8
0
100
AcDbLine
 62
7
  6
CONTINUOUS
 10
-2.0934288091
 20
-24.0422995554
 11
-2.3477793609
 21
-23.9151242795
  0
LINE
  5
27E
100
AcDbEntity
  8
RACCORDO
100
AcDbLine
 62
7
  6
CONTINUOUS
 10
-9.8781120191
 20
-22.9773761416
 11
-10.9029626282
 21
-22.4133239512
  0
LINE
  5
27F
100
AcDbEntity
  8
RACCORDO
100
AcDbLine
 62
7
  6
CONTINUOUS
 10
-9.8051862118
 20
-22.8572627597
 11
-10.8295587968
 21
-22.2930305037
  0
LWPOLYLINE
  5
280
100
AcDbEntity
  8
RACCORDO
100
AcDbPolyline
 62
7
  6
CONTINUOUS
 90
3
 70
0
 10
-10.8295587968
 20
-22.2930305037
 10
-11.8947033977
 20
-21.6979923279
 10
-13.0056275054
 20
-21.0682483511
  0
LWPOLYLINE
  5
281
100
AcDbEntity
  8
RACCORDO
100
AcDbPolyline
 62
7
  6
CONTINUOUS
 90
3
 70
0
 10
-10.9029626282
 20
-22.4133239512
 10
-11.9685562864
 20
-21.817691455
 10
-13.0799635035
 20
-21.1873836997
  0
LWPOLYLINE
  5
282
100
AcDbEntity
  8
RACCORDO
100
AcDbPolyline
 62
7
  6
CONTINUOUS
 90
15
 70
0
 10
-12.8976069051
 20
-20.8705571683
 10
-13.9882514768
 20
-20.2452188994
 10
-15.0764625552
 20
-19.6121925474
 10
-16.1626625334
 20
-18.971222248
 10
-17.2464153333
 20
-18.3225679697
 10
-18.326768298
 20
-17.6668128574
 10
-19.4070888692
 20
-17.0017547181
 10
-20.4839954458
 20
-16.329599666
 10
-21.5464966215
 20
-15.6575829945
 10
-22.5956098179
 20
-14.9848631509
 10
-23.6304697913
 20
-14.3123624591
 10
-24.6374339209
 20
-13.6500417868
 10
-25.6121083945
 20
-13.0012948681
 10
-26.5592420014
 20
-12.3628993004
 10
-27.4789959339
 20
-11.7349323112
  0
LWPOLYLINE
  5
283
100
AcDbEntity
  8
RACCORDO
100
AcDbPolyline
 62
7
  6
CONTINUOUS
 90
12
 70
0
 10
-13.0799635035
 20
-21.1873836997
 10
-14.2314926767
 20
-20.5252061221
 10
-15.4148061387
 20
-19.8334977858
 10
-16.6250649124
 20
-19.1148916879
 10
-17.8665867438
 20
-18.3665207199
 10
-19.1447684682
 20
-17.5824757233
 10
-20.4597111761
 20
-16.7625558734
 10
-21.8106127204
 20
-15.9066514555
 10
-23.2014120558
 20
-15.0089441732
 10
-24.6331185488
 20
-14.0673624526
 10
-26.1038549675
 20
-13.0836016261
 10
-27.6131687175
 20
-12.0574685481
  0
LWPOLYLINE
  5
284
100
AcDbEntity
  8
RACCORDO
100
AcDbPolyline
 62
7
  6
CONTINUOUS
 90
12
 70
0
 10
-13.0056275054
 20
-21.0682483511
 10
-14.1566092666
 20
-20.4058909587
 10
-15.3394205452
 20
-19.7146314088
 10
-16.5491473028
 20
-18.9964531506
 10
-17.7900646346
 20
-18.2479033502
 10
-19.0677146781
 20
-17.4645417028
 10
-20.3820777313
 20
-16.6451507743
 10
-21.7322983346
 20
-15.7889959282
 10
-23.1225325687
 20
-14.8920619664
 10
-24.5537746765
 20
-13.9521747159
 10
-26.023902719
 20
-12.9691431834
 10
-27.5323088923
 20
-11.9417633132
  0
LWPOLYLINE
  5
285
100
AcDbEntity
  8
RACCORDO
100
AcDbPolyline
 62
7
  6
CONTINUOUS
 90
43
 70
0
 10
-26.8391807869
 20
-11.0844048247
 10
-25.754979553
 20
-11.8175632583
 10
-24.668032719
 20
-12.5427858886
 10
-23.5783453893
 20
-13.2600694801
 10
-22.4859049337
 20
-13.969423393
 10
-21.3907341511
 20
-14.6708317718
 10
-20.2928917021
 20
-15.364253746
 10
-19.1923831171
 20
-16.0496848791
 10
-18.0892139883
 20
-16.7271235482
 10
-16.9834438675
 20
-17.3965334757
 10
-15.8750787877
 20
-18.0579103816
 10
-14.7641246915
 20
-18.7112528915
 10
-13.6506417851
 20
-19.3565294624
 10
-12.5346376849
 20
-19.9937354
 10
-11.4161175905
 20
-20.6228701583
 10
-10.2951388376
 20
-21.2439087846
 10
-9.1717359806
 20
-21.856833321
 10
-8.0458881711
 20
-22.4616569394
 10
-6.9175697858
 20
-23.0584014573
 10
-5.7868171245
 20
-23.6470505738
 10
-4.6536072064
 20
-24.2276156411
 10
-3.5178244475
 20
-24.8001594469
 10
-2.3794746256
 20
-25.3646818894
 10
-1.2385635523
 20
-25.9211772749
 10
-0.094974059
 20
-26.4696991856
 10
1.051319016
 20
-27.010260336
 10
2.2002806151
 20
-27.5428413515
 10
3.3519385953
 20
-28.0674471614
 10
4.5063165898
 20
-28.5840868355
 10
5.6633813921
 20
-29.0927444519
 10
6.8230754462
 20
-29.5933875248
 10
7.9853947745
 20
-30.0860120129
 10
9.1503328724
 20
-30.5706155505
 10
10.3178276599
 20
-31.0471685436
 10
11.4878735426
 20
-31.5156665991
 10
12.6604648042
 20
-31.976108123
 10
13.8355384295
 20
-32.4284681155
 10
15.0130883396
 20
-32.8727423644
 10
16.193108493
 20
-33.3089295214
 10
17.3755351859
 20
-33.7370092805
 10
18.5603427189
 20
-34.1569732509
 10
19.7475437994
 20
-34.56882474
 10
20.9371319557
 20
-34.972561196
  0
LWPOLYLINE
  5
286
100
AcDbEntity
  8
RACCORDO
100
AcDbPolyline
 62
7
  6
CONTINUOUS
 90
43
 70
0
 10
-26.8193832561
 20
-11.0080129048
 10
-25.7354776865
 20
-11.7410098666
 10
-24.6488375735
 20
-12.4660648638
 10
-23.559462917
 20
-13.1831778966
 10
-22.4673306252
 20
-13.8923646586
 10
-21.3724637899
 20
-14.5936094561
 10
-20.2749316868
 20
-15.2868652081
 10
-19.1747337143
 20
-15.9721302623
 10
-18.071870474
 20
-16.6494062711
 10
-16.9664130458
 20
-17.3186511109
 10
-15.8583609305
 20
-17.9798630675
 10
-14.7477146272
 20
-18.633043855
 10
-13.6345467137
 20
-19.2781564925
 10
-12.5188578796
 20
-19.9151986492
 10
-11.4006474353
 20
-20.5441726559
 10
-10.27998589
 20
-21.1650485236
 10
-9.1569008264
 20
-21.7778106286
 10
-8.0313646617
 20
-22.3824745947
 10
-6.9033651571
 20
-22.9790573045
 10
-5.7729326217
 20
-23.5675452634
 10
-4.6400367462
 20
-24.1479519661
 10
-3.5045743638
 20
-24.7203347788
 10
-2.3665465278
 20
-25.2846970327
 10
-1.2259521848
 20
-25.8410353968
 10
-0.0826850073
 20
-26.389397244
 10
1.0632844514
 20
-26.9297989531
 10
2.2119267445
 20
-27.4622241454
 10
3.3632598593
 20
-27.9866710581
 10
4.5173123346
 20
-28.5031521275
 10
5.6740556317
 20
-29.0116549173
 10
6.8334221212
 20
-29.5121403561
 10
7.9954135796
 20
-30.0046073464
 10
9.1600282304
 20
-30.4890569857
 10
10.3271931157
 20
-30.965453495
 10
11.4969088191
 20
-31.4337952025
 10
12.6691747569
 20
-31.89408378
 10
13.8439162202
 20
-32.3462884642
 10
15.021133686
 20
-32.7904075403
 10
16.2008266773
 20
-33.2264427232
 10
17.3829190539
 20
-33.6543683936
 10
18.567385436
 20
-34.0741760119
 10
19.7542512034
 20
-34.4858741178
 10
20.9435163562
 20
-34.8894627112
  0
LWPOLYLINE
  5
287
100
AcDbEntity
  8
RACCORDO
100
AcDbPolyline
 62
7
  6
CONTINUOUS
 90
46
 70
0
 10
-27.4614833884
 20
-11.783809609
 10
-26.4335184076
 20
-12.4844254926
 10
-25.3929502922
 20
-13.1846282078
 10
-24.3496877083
 20
-13.8776219161
 10
-23.3037702058
 20
-14.5633811359
 10
-22.2552114216
 20
-15.2418983317
 10
-21.2040002168
 20
-15.9131813653
 10
-20.1501624919
 20
-16.5772142418
 10
-19.0937250705
 20
-17.2339811871
 10
-18.0346778292
 20
-17.8834890029
 10
-16.9730471526
 20
-18.5257218618
 10
-15.9088603218
 20
-19.1606642804
 10
-14.8421080126
 20
-19.7883222625
 10
-13.7728171073
 20
-20.408680212
 10
-12.7010150698
 20
-21.0217230913
 10
-11.6266929397
 20
-21.627456362
 10
-10.5498781663
 20
-22.2258646086
 10
-9.4705984967
 20
-22.8169331858
 10
-8.3888448995
 20
-23.4006672833
 10
-7.3046451413
 20
-23.9770518196
 10
-6.2180274455
 20
-24.5460724177
 10
-5.1289829531
 20
-25.1077338508
 10
-4.0375398357
 20
-25.6620213267
 10
-2.9437267052
 20
-26.2089207801
 10
-1.847534866
 20
-26.7484365735
 10
-0.7489928886
 20
-27.2805542136
 10
0.3518702275
 20
-27.8052599396
 10
1.455063005
 20
-28.3225576977
 10
2.5605564722
 20
-28.8324332989
 10
3.6683212503
 20
-29.3348732848
 10
4.7783656873
 20
-29.8298811842
 10
5.8906604954
 20
-30.3174431561
 10
7.0051758314
 20
-30.7975460031
 10
8.1219196033
 20
-31.2701927271
 10
9.2408619887
 20
-31.7353697538
 10
10.3619729511
 20
-32.1930642531
 10
11.4852604311
 20
-32.6432788825
 10
12.6106939574
 20
-33.0860002815
 10
13.7382432235
 20
-33.5212159654
 10
14.8679166836
 20
-33.9489284484
 10
15.9996835187
 20
-34.3691247149
 10
17.1335131902
 20
-34.7817925702
 10
18.2694149888
 20
-35.1869343877
 10
19.407371697
 20
-35.584542301
 10
20.5473370055
 20
-35.9745989069
 10
21.6773982507
 20
-36.3531552358
  0
LWPOLYLINE
  5
288
100
AcDbEntity
  8
RACCORDO
100
AcDbPolyline
 62
7
  6
CONTINUOUS
 90
49
 70
0
 10
-27.4789959339
 20
-11.7349323112
 10
-27.4974357859
 20
-11.721916067
 10
-27.5157617058
 20
-11.7082491795
 10
-27.5339737079
 20
-11.693931655
 10
-27.552089429
 20
-11.6789479694
 10
-27.5700912591
 20
-11.6633136591
 10
-27.5879263496
 20
-11.647075325
 10
-27.6055933642
 20
-11.6302318828
 10
-27.62309368
 20
-11.6127844352
 10
-27.6403785302
 20
-11.5947828687
 10
-27.6574471555
 20
-11.576225824
 10
-27.6743003664
 20
-11.5571146836
 10
-27.6908917614
 20
-11.5375034516
 10
-27.7072205781
 20
-11.5173908647
 10
-27.7232876385
 20
-11.4967782132
 10
-27.7390489272
 20
-11.4757233357
 10
-27.7545036097
 20
-11.4542250873
 10
-27.7696525865
 20
-11.4322846429
 10
-27.7844544534
 20
-11.4099633239
 10
-27.7989082358
 20
-11.3872602226
 10
-27.8130149785
 20
-11.3641762786
 10
-27.8267363136
 20
-11.3407755886
 10
-27.8400711965
 20
-11.3170574027
 10
-27.8530207439
 20
-11.2930225034
 10
-27.8655498353
 20
-11.2687372881
 10
-27.8776573533
 20
-11.2442011749
 10
-27.889344487
 20
-11.2194147783
 10
-27.9005795798
 20
-11.1944462921
 10
-27.9113614511
 20
-11.1692952876
 10
-27.9216913505
 20
-11.1439622248
 10
-27.9315412684
 20
-11.1185166315
 10
-27.9409099503
 20
-11.0929582784
 10
-27.9497987147
 20
-11.0672874238
 10
-27.958183413
 20
-11.0415743275
 10
-27.9660627338
 20
-11.0158189541
 10
-27.9734380453
 20
-10.9900213648
 10
-27.9802892178
 20
-10.964251965
 10
-27.9866149244
 20
-10.9385107591
 10
-27.99241654
 20
-10.9127977643
 10
-27.9976779868
 20
-10.887183405
 10
-28.0023978675
 20
-10.8616677389
 10
-28.0065776169
 20
-10.8362507251
 10
-28.0102054036
 20
-10.8110026384
 10
-28.0132797481
 20
-10.785922815
 10
-28.0158021557
 20
-10.7610119303
 10
-28.0177652698
 20
-10.7363422674
 10
-28.0191666427
 20
-10.7119379225
 10
-28.0200087352
 20
-10.6877748052
 10
-28.0202915507
 20
-10.6638529171
  0
LWPOLYLINE
  5
289
100
AcDbEntity
  8
RACCORDO
100
AcDbPolyline
 62
7
  6
CONTINUOUS
 90
16
 70
0
 10
-27.4614833313
 20
-11.7838095257
 10
-27.4622653232
 20
-11.7832569987
 10
-27.4648309232
 20
-11.7811959678
 10
-27.4672083714
 20
-11.7788841509
 10
-27.4693902012
 20
-11.7763288084
 10
-27.4713695603
 20
-11.7735379655
 10
-27.4731402325
 20
-11.7705203873
 10
-27.4746966566
 20
-11.7672855506
 10
-27.4760339447
 20
-11.7638436148
 10
-27.4771478967
 20
-11.7602053897
 10
-27.4780350144
 20
-11.7563823013
 10
-27.4786925115
 20
-11.7523863566
 10
-27.4791183232
 20
-11.7482301051
 10
-27.4793111122
 20
-11.7439266
 10
-27.4792702729
 20
-11.7394893568
 10
-27.4789959336
 20
-11.734932311
  0
LWPOLYLINE
  5
28A
100
AcDbEntity
  8
RACCORDO
100
AcDbPolyline
 62
7
  6
CONTINUOUS
 90
16
 70
0
 10
-27.6131687175
 20
-12.0574685481
 10
-27.692290604
 20
-11.9976986343
 10
-27.7684469077
 20
-11.930418623
 10
-27.8416391842
 20
-11.8556292206
 10
-27.9125229746
 20
-11.772458035
 10
-27.9804454643
 20
-11.6817786956
 10
-28.0434465046
 20
-11.5862113155
 10
-28.1013666188
 20
-11.4856446903
 10
-28.1543694497
 20
-11.3801919104
 10
-28.2009807383
 20
-11.2728100779
 10
-28.2410294808
 20
-11.1633480429
 10
-28.2746905605
 20
-11.0519587094
 10
-28.3010088887
 20
-10.9420554129
 10
-28.3196669614
 20
-10.8347763202
 10
-28.3309846116
 20
-10.7289843167
 10
-28.334962417
 20
-10.6246796637
  0
LWPOLYLINE
  5
28B
100
AcDbEntity
  8
RACCORDO
100
AcDbPolyline
 62
7
  6
CONTINUOUS
 90
16
 70
0
 10
-27.5323070257
 20
-11.9417406206
 10
-27.6034709463
 20
-11.8879171904
 10
-27.6731594048
 20
-11.8259421753
 10
-27.7407373956
 20
-11.7564470768
 10
-27.8055802583
 20
-11.680061364
 10
-27.8670684316
 20
-11.5974854174
 10
-27.9246173242
 20
-11.5095703994
 10
-27.9776612016
 20
-11.4171792126
 10
-28.0256768249
 20
-11.3211537419
 10
-28.0682496256
 20
-11.2224048907
 10
-28.1049995188
 20
-11.1218568636
 10
-28.1355256531
 20
-11.0205040958
 10
-28.1595298023
 20
-10.919379033
 10
-28.1768180287
 20
-10.8194493533
 10
-28.1872121052
 20
-10.7216235633
 10
-28.190620037
 20
-10.6268486137
  0
LINE
  5
28C
100
AcDbEntity
  8
RACCORDO
100
AcDbLine
 62
7
  6
CONTINUOUS
 10
-26.7069586427
 20
-9.8215837173
 11
-26.813657677
 21
-10.1359065659
  0
LINE
  5
28D
100
AcDbEntity
  8
RACCORDO
100
AcDbLine
 62
7
  6
CONTINUOUS
 10
-26.444961245
 20
-9.9050121918
 11
-26.8193832561
 21
-11.0080129048
  0
LWPOLYLINE
  5
28E
100
AcDbEntity
  8
RACCORDO
100
AcDbPolyline
 62
7
  6
CONTINUOUS
 90
10
 70
0
 10
-26.8193825241
 20
-11.0080133933
 10
-26.8228938896
 20
-11.0166882179
 10
-26.8260923802
 20
-11.0253640861
 10
-26.8289703963
 20
-11.034020384
 10
-26.8315210999
 20
-11.0426365445
 10
-26.8337384304
 20
-11.0511920958
 10
-26.8356171196
 20
-11.0596667102
 10
-26.8371527038
 20
-11.0680402521
 10
-26.8383415344
 20
-11.0762928262
 10
-26.8391807868
 20
-11.0844048246
  0
LWPOLYLINE
  5
28F
100
AcDbEntity
  8
RACCORDO
100
AcDbPolyline
 62
7
  6
CONTINUOUS
 90
10
 70
0
 10
-28.334962417
 20
-10.6246796637
 10
-28.3218258155
 20
-10.6307561874
 10
-28.306733389
 20
-10.6355646582
 10
-28.2901684979
 20
-10.6389510764
 10
-28.2726616607
 20
-10.6408069865
 10
-28.2547735635
 20
-10.6410729494
 10
-28.2370771021
 20
-10.6397404456
 10
-28.2201390359
 20
-10.6368521503
 10
-28.2045018357
 20
-10.632500566
 10
-28.1906663101
 20
-10.6268250592
  0
LINE
  5
290
100
AcDbEntity
  8
0
100
AcDbLine
 62
7
  6
CONTINUOUS
 10
-1.3268241418
 20
-24.3454716656
 11
-1.1843835492
 21
-24.4166919619
  0
LINE
  5
291
100
AcDbEntity
  8
0
100
AcDbLine
 62
7
  6
CONTINUOUS
 10
-1.2488035409
 20
-24.3064613652
 11
-1.1063629484
 21
-24.3776816614
  0
LINE
  5
292
100
AcDbEntity
  8
0
100
AcDbLine
 62
7
  6
CONTINUOUS
 10
-1.0866157694
 20
-24.113100166
 11
-1.2384378763
 21
-24.0371891125
  0
LINE
  5
293
100
AcDbEntity
  8
0
100
AcDbLine
 62
7
  6
CONTINUOUS
 10
-1.6987026755
 20
-22.8495941834
 11
-1.9556970996
 21
-22.7210969714
  0
LINE
  5
294
100
AcDbEntity
  8
0
100
AcDbLine
 62
7
  6
CONTINUOUS
 10
-2.5156203114
 20
-22.4411353655
 11
-2.7784646299
 21
-22.3097132062
  0
LINE
  5
295
100
AcDbEntity
  8
0
100
AcDbLine
 62
7
  6
CONTINUOUS
 10
-3.3069788656
 20
-22.0454560884
 11
-3.5724196801
 21
-21.9127356811
  0
LINE
  5
296
100
AcDbEntity
  8
0
100
AcDbLine
 62
7
  6
CONTINUOUS
 10
-4.1945958658
 20
-21.6016475882
 11
-4.4600748642
 21
-21.4689080891
  0
LINE
  5
297
100
AcDbEntity
  8
0
100
AcDbLine
 62
7
  6
CONTINUOUS
 10
-4.9526808033
 20
-21.2226051195
 11
-5.2412694655
 21
-21.0783107884
  0
LINE
  5
298
100
AcDbEntity
  8
0
100
AcDbLine
 62
7
  6
CONTINUOUS
 10
-3.8303132886
 20
-21.7836597353
 11
-4.0959733063
 21
-21.6508297265
  0
LINE
  5
299
100
AcDbEntity
  8
RACCORDO
100
AcDbLine
 62
7
  6
CONTINUOUS
 10
-26.444961245
 20
-9.9050121918
 11
21.1536604039
 21
-33.7043230162
  0
LINE
  5
29A
100
AcDbEntity
  8
RACCORDO
100
AcDbLine
 62
7
  6
CONTINUOUS
 10
-26.1208841292
 20
-9.5157059158
 11
21.1536604039
 21
-33.1529781824
  0
LINE
  5
29B
100
AcDbEntity
  8
RACCORDO
100
AcDbLine
 62
7
  6
CONTINUOUS
 10
21.1536604039
 20
-31.836282136
 11
-24.8187612341
 21
-8.850071317
  0
LINE
  5
29C
100
AcDbEntity
  8
0
100
AcDbLine
 62
7
  6
CONTINUOUS
 10
19.1803007598
 20
-30.7118526107
 11
15.2912134632
 21
-28.7673089624
  0
LINE
  5
29D
100
AcDbEntity
  8
0
100
AcDbLine
 62
7
  6
CONTINUOUS
 10
-12.6395043936
 20
-14.801950034
 11
-16.5285916901
 21
-12.8574063857
  0
LINE
  5
29E
100
AcDbEntity
  8
0
100
AcDbLine
 62
7
  6
CONTINUOUS
 10
19.3924327941
 20
-30.6057865935
 11
15.5033454976
 21
-28.6612429452
  0
LINE
  5
29F
100
AcDbEntity
  8
0
100
AcDbLine
 62
7
  6
CONTINUOUS
 10
-12.4273723593
 20
-14.6958840168
 11
-16.3164596558
 21
-12.7513403685
  0
LINE
  5
2A0
100
AcDbEntity
  8
0
100
AcDbLine
 62
7
  6
CONTINUOUS
 10
19.5338541504
 20
-30.5350759154
 11
15.6447668538
 21
-28.5905322671
  0
LINE
  5
2A1
100
AcDbEntity
  8
0
100
AcDbLine
 62
7
  6
CONTINUOUS
 10
-12.285951003
 20
-14.6251733387
 11
-16.1750382996
 21
-12.6806296904
  0
LINE
  5
2A2
100
AcDbEntity
  8
0
100
AcDbLine
 62
7
  6
CONTINUOUS
 10
19.7459861847
 20
-30.4290098982
 11
15.8568988882
 21
-28.4844662499
  0
LINE
  5
2A3
100
AcDbEntity
  8
0
100
AcDbLine
 62
7
  6
CONTINUOUS
 10
-12.0738189687
 20
-14.5191073215
 11
-15.9629062652
 21
-12.5745636732
  0
LINE
  5
2A4
100
AcDbEntity
  8
0
100
AcDbLine
 62
7
  6
CONTINUOUS
 10
19.887407541
 20
-30.3582992201
 11
15.9983202444
 21
-28.4137555718
  0
LINE
  5
2A5
100
AcDbEntity
  8
0
100
AcDbLine
 62
7
  6
CONTINUOUS
 10
-11.9323976124
 20
-14.4483966434
 11
-15.821484909
 21
-12.5038529951
  0
LINE
  5
2A6
100
AcDbEntity
  8
0
100
AcDbLine
 62
7
  6
CONTINUOUS
 10
20.0995395753
 20
-30.2522332029
 11
16.2104522788
 21
-28.3076895546
  0
LINE
  5
2A7
100
AcDbEntity
  8
0
100
AcDbLine
 62
7
  6
CONTINUOUS
 10
-11.7202655781
 20
-14.3423306262
 11
-15.6093528746
 21
-12.3977869779
  0
LINE
  5
2A8
100
AcDbEntity
  8
0
100
AcDbLine
 62
7
  6
CONTINUOUS
 10
20.2409609316
 20
-30.1815225248
 11
16.351873635
 21
-28.2369788765
  0
LINE
  5
2A9
100
AcDbEntity
  8
0
100
AcDbLine
 62
7
  6
CONTINUOUS
 10
-11.5788442218
 20
-14.2716199481
 11
-15.4679315184
 21
-12.3270762998
  0
LWPOLYLINE
  5
2AA
100
AcDbEntity
  8
0
100
AcDbPolyline
 62
7
  6
CONTINUOUS
 90
31
 70
0
 10
-1.1063629484
 20
-24.3776816614
 10
-1.1005152165
 20
-24.3807883965
 10
-1.09480664
 20
-24.3841862224
 10
-1.089237219
 20
-24.387875139
 10
-1.0838039721
 20
-24.3918518122
 10
-1.0785098806
 20
-24.3961195762
 10
-1.0733638886
 20
-24.4006884334
 10
-1.0683598704
 20
-24.4055565335
 10
-1.0635039517
 20
-24.4107257268
 10
-1.0588234529
 20
-24.416211567
 10
-1.0543208481
 20
-24.4220061508
 10
-1.0499936633
 20
-24.4281173815
 10
-1.0458617974
 20
-24.4345845231
 10
-1.0419291843
 20
-24.4414150114
 10
-1.03819189
 20
-24.4486014106
 10
-1.0346580113
 20
-24.4561606771
 10
-1.0313237857
 20
-24.4641032929
 10
-1.0281929757
 20
-24.472418776
 10
-1.0252849663
 20
-24.4810926364
 10
-1.0225996645
 20
-24.4901174677
 10
-1.0201371632
 20
-24.4995006764
 10
-1.0179171258
 20
-24.5092499922
 10
-1.0159350764
 20
-24.5193498046
 10
-1.0141954909
 20
-24.529815724
 10
-1.0127314604
 20
-24.5407023111
 10
-1.0115306535
 20
-24.5520221767
 10
-1.0106054016
 20
-24.56376271
 10
-1.0100257891
 20
-24.5759406393
 10
-1.0098151777
 20
-24.5885615407
 10
-1.0099502058
 20
-24.6016198382
 10
-1.0104308734
 20
-24.6151155318
  0
LWPOLYLINE
  5
2AB
100
AcDbEntity
  8
RACCORDO
100
AcDbPolyline
 62
7
  6
CONTINUOUS
 90
6
 70
0
 10
22.7363777657
 20
-36.160349757
 10
22.7242228727
 20
-36.1537802606
 10
22.7146053869
 20
-36.1462329367
 10
22.707833021
 20
-36.13794968
 10
22.704122303
 20
-36.1291959596
 10
22.703412064
 20
-36.1232943155
  0
LWPOLYLINE
  5
2AC
100
AcDbEntity
  8
0
100
AcDbPolyline
 62
7
  6
CONTINUOUS
 90
13
 70
0
 10
-0.8639124197
 20
-23.6209650169
 10
-0.8790988421
 20
-23.6105156918
 10
-0.8947437847
 20
-23.6005082639
 10
-0.9108472474
 20
-23.5909427334
 10
-0.92741655
 20
-23.581784574
 10
-0.9444443728
 20
-23.5730683118
 10
-0.9619087562
 20
-23.5648975254
 10
-0.9798134408
 20
-23.5572957567
 10
-0.9981546859
 20
-23.5502394638
 10
-1.016899311
 20
-23.5437615985
 10
-1.0360362556
 20
-23.5378731449
 10
-1.05557658
 20
-23.532563119
 10
-1.0755202843
 20
-23.5278315208
  0
LINE
  5
2AD
100
AcDbEntity
  8
0
100
AcDbLine
 62
7
  6
CONTINUOUS
 10
-12.6395043936
 20
-14.801950034
 11
-12.5334383764
 21
-14.878820836
  0
LINE
  5
2AE
100
AcDbEntity
  8
0
100
AcDbLine
 62
7
  6
CONTINUOUS
 10
-12.285951003
 20
-14.6251733387
 11
-12.1798849858
 21
-14.7020441407
  0
LINE
  5
2AF
100
AcDbEntity
  8
0
100
AcDbLine
 62
7
  6
CONTINUOUS
 10
-11.9323976124
 20
-14.4483966434
 11
-11.8263315953
 21
-14.5252674454
  0
LINE
  5
2B0
100
AcDbEntity
  8
0
100
AcDbLine
 62
7
  6
CONTINUOUS
 10
-11.5788442218
 20
-14.2716199481
 11
-11.4727782047
 21
-14.3484907501
  0
LINE
  5
2B1
100
AcDbEntity
  8
0
100
AcDbLine
 62
7
  6
CONTINUOUS
 10
-11.2252908312
 20
-14.0948432528
 11
-11.1192248141
 21
-14.1717140548
  0
LWPOLYLINE
  5
2B2
100
AcDbEntity
  8
0
100
AcDbPolyline
 62
7
  6
CONTINUOUS
 90
37
 70
0
 10
-0.7858918188
 20
-23.5819547165
 10
-0.7794082201
 20
-23.5868012435
 10
-0.7731382751
 20
-23.5919317214
 10
-0.7670819837
 20
-23.5973461502
 10
-0.7612361566
 20
-23.6030570314
 10
-0.7556039832
 20
-23.6090518636
 10
-0.7501950312
 20
-23.6152931424
 10
-0.745013098
 20
-23.6217685368
 10
-0.7400543863
 20
-23.628490378
 10
-0.7353170713
 20
-23.6354581547
 10
-0.7307937258
 20
-23.6426745178
 10
-0.7264917772
 20
-23.6501368164
 10
-0.7224316828
 20
-23.6578365877
 10
-0.7186087263
 20
-23.665781505
 10
-0.7150276241
 20
-23.6739638948
 10
-0.7117229833
 20
-23.6823522746
 10
-0.7086998751
 20
-23.6909387719
 10
-0.7059532284
 20
-23.6997312592
 10
-0.7035024373
 20
-23.7087218706
 10
-0.7013539264
 20
-23.717919535
 10
-0.6995012711
 20
-23.7273153236
 10
-0.6979445914
 20
-23.7368745846
 10
-0.6966844976
 20
-23.7466112766
 10
-0.6957203794
 20
-23.7565114411
 10
-0.6950505263
 20
-23.7664985501
 10
-0.6946755239
 20
-23.7765622204
 10
-0.6945947866
 20
-23.7867128353
 10
-0.694804847
 20
-23.796905016
 10
-0.6953023343
 20
-23.8071325215
 10
-0.6960906193
 20
-23.8174015929
 10
-0.6971763466
 20
-23.827685574
 10
-0.6985587306
 20
-23.8379989969
 10
-0.7002385568
 20
-23.8483273295
 10
-0.7022248274
 20
-23.8586003198
 10
-0.704520543
 20
-23.8687945505
 10
-0.707122703
 20
-23.878933439
 10
-0.7100313072
 20
-23.8890169851
  0
LWPOLYLINE
  5
2B3
100
AcDbEntity
  8
RACCORDO
100
AcDbPolyline
 62
7
  6
CONTINUOUS
 90
7
 70
0
 10
-27.6131687141
 20
32.4888108169
 10
-27.6108314671
 20
32.4737251184
 10
-27.6063235497
 20
32.4601111668
 10
-27.5997813092
 20
32.4483807335
 10
-27.591402624
 20
32.4388886207
 10
-27.5814409177
 20
32.4319219293
 10
-27.5775940019
 20
32.4301045245
  0
LWPOLYLINE
  5
2B4
100
AcDbEntity
  8
0
100
AcDbPolyline
 62
7
  6
CONTINUOUS
 90
10
 70
0
 10
17.102338659
 20
-27.8785292936
 10
17.0967355784
 20
-27.8758291168
 10
17.0828408998
 20
-27.8699080263
 10
17.0691935125
 20
-27.8651700989
 10
17.0559728128
 20
-27.861675597
 10
17.0432537595
 20
-27.8594334673
 10
17.0310592581
 20
-27.8583777326
 10
17.0194715581
 20
-27.858437757
 10
17.0085334398
 20
-27.8595656693
 10
16.9982532013
 20
-27.8617416042
  0
LWPOLYLINE
  5
2B5
100
AcDbEntity
  8
0
100
AcDbPolyline
 62
7
  6
CONTINUOUS
 90
10
 70
0
 10
-14.7174664943
 20
-11.9686267169
 10
-14.723069575
 20
-11.9659265401
 10
-14.7369642536
 20
-11.9600054496
 10
-14.7506116409
 20
-11.9552675222
 10
-14.7638323406
 20
-11.9517730203
 10
-14.7765513939
 20
-11.9495308906
 10
-14.7887458953
 20
-11.9484751559
 10
-14.8003335953
 20
-11.9485351803
 10
-14.8112717136
 20
-11.9496630926
 10
-14.8215519521
 20
-11.9518390275
  0
LINE
  5
2B6
100
AcDbEntity
  8
0
100
AcDbLine
 62
7
  6
CONTINUOUS
 10
20.4530929659
 20
-30.0754565076
 11
16.5640056694
 21
-28.1309128594
  0
LINE
  5
2B7
100
AcDbEntity
  8
0
100
AcDbLine
 62
7
  6
CONTINUOUS
 10
-11.3667121875
 20
-14.1655539309
 11
-15.255799484
 21
-12.2210102827
  0
LINE
  5
2B8
100
AcDbEntity
  8
0
100
AcDbLine
 62
7
  6
CONTINUOUS
 10
20.5945143221
 20
-30.0047458295
 11
16.7054270256
 21
-28.0602021812
  0
LINE
  5
2B9
100
AcDbEntity
  8
0
100
AcDbLine
 62
7
  6
CONTINUOUS
 10
-11.2252908312
 20
-14.0948432528
 11
-15.1143781278
 21
-12.1502996045
  0
LINE
  5
2BA
100
AcDbEntity
  8
0
100
AcDbLine
 62
7
  6
CONTINUOUS
 10
20.8066463565
 20
-29.8986798123
 11
16.91755906
 21
-27.9541361641
  0
LINE
  5
2BB
100
AcDbEntity
  8
0
100
AcDbLine
 62
7
  6
CONTINUOUS
 10
-11.0131587969
 20
-13.9887772356
 11
-14.9022460934
 21
-12.0442335874
  0
LINE
  5
2BC
100
AcDbEntity
  8
0
100
AcDbLine
 62
7
  6
CONTINUOUS
 10
-14.8389469945
 20
-11.958299574
 11
-14.7846625306
 21
-11.9854418059
  0
LINE
  5
2BD
100
AcDbEntity
  8
0
100
AcDbLine
 62
7
  6
CONTINUOUS
 10
-10.7656714235
 20
-13.9949373595
 11
-10.581483149
 21
-14.0870314967
  0
LINE
  5
2BE
100
AcDbEntity
  8
0
100
AcDbLine
 62
7
  6
CONTINUOUS
 10
16.9808581589
 20
-27.8682021507
 11
17.0351426228
 21
-27.8953443826
  0
LINE
  5
2BF
100
AcDbEntity
  8
0
100
AcDbLine
 62
7
  6
CONTINUOUS
 10
21.0541337299
 20
-29.9048399362
 11
21.1536604039
 21
-29.9546032732
  0
LINE
  5
2C0
100
AcDbEntity
  8
0
100
AcDbLine
 62
7
  6
CONTINUOUS
 10
20.9480677127
 20
-29.8279691342
 11
17.0589804162
 21
-27.8834254859
  0
LINE
  5
2C1
100
AcDbEntity
  8
0
100
AcDbLine
 62
7
  6
CONTINUOUS
 10
-10.8717374407
 20
-13.9180665575
 11
-14.7608247372
 21
-11.9735229092
  0
LINE
  5
2C2
100
AcDbEntity
  8
0
100
AcDbLine
 62
7
  6
CONTINUOUS
 10
-14.7171603625
 20
-11.968791173
 11
-10.5243843428
 21
-14.0651791828
  0
LINE
  5
2C3
100
AcDbEntity
  8
0
100
AcDbLine
 62
7
  6
CONTINUOUS
 10
17.1026447909
 20
-27.8786937497
 11
21.1536604039
 21
-29.9042015562
  0
LINE
  5
2C4
100
AcDbEntity
  8
0
100
AcDbLine
 62
7
  6
CONTINUOUS
 10
-10.8717374407
 20
-13.9180665575
 11
-10.7656714235
 21
-13.9949373595
  0
LINE
  5
2C5
100
AcDbEntity
  8
0
100
AcDbLine
 62
7
  6
CONTINUOUS
 10
19.1803007598
 20
-30.7118526107
 11
19.286366777
 21
-30.7887234127
  0
LINE
  5
2C6
100
AcDbEntity
  8
0
100
AcDbLine
 62
7
  6
CONTINUOUS
 10
19.5338541504
 20
-30.5350759154
 11
19.6399201675
 21
-30.6119467174
  0
LWPOLYLINE
  5
2C7
100
AcDbEntity
  8
0
100
AcDbPolyline
 62
7
  6
CONTINUOUS
 90
3
 70
0
 10
-10.5241147045
 20
-14.0653026118
 10
-10.5234429654
 20
-14.0658365679
 10
-10.5230986153
 20
-14.0669488228
  0
LWPOLYLINE
  5
2C8
100
AcDbEntity
  8
0
100
AcDbPolyline
 62
7
  6
CONTINUOUS
 90
76
 70
0
 10
-0.5877734026
 20
-23.4528629447
 10
-0.5812371422
 20
-23.4612434528
 10
-0.5747461195
 20
-23.4704463207
 10
-0.5683003347
 20
-23.4804715484
 10
-0.5618901816
 20
-23.4912939564
 10
-0.5555252664
 20
-23.5029387242
 10
-0.5492344076
 20
-23.5154813906
 10
-0.5429776709
 20
-23.5289588001
 10
-0.5367949907
 20
-23.5433341083
 10
-0.5308349889
 20
-23.5585723209
 10
-0.5250726327
 20
-23.5747709183
 10
-0.5195329548
 20
-23.59183242
 10
-0.514439675
 20
-23.6094293905
 10
-0.5098362646
 20
-23.6275281106
 10
-0.5056792522
 20
-23.6461622994
 10
-0.502061944
 20
-23.6651056788
 10
-0.49900756
 20
-23.6842896086
 10
-0.4964928801
 20
-23.7037827291
 10
-0.4945415501
 20
-23.7235646828
 10
-0.4931500112
 20
-23.7436264181
 10
-0.4923218221
 20
-23.7639769867
 10
-0.492091305
 20
-23.784623186
 10
-0.4924542422
 20
-23.8055550075
 10
-0.4934148514
 20
-23.8267824598
 10
-0.4950201074
 20
-23.8483423655
 10
-0.4972533783
 20
-23.8702006812
 10
-0.5001312961
 20
-23.8923914503
 10
-0.5037507319
 20
-23.9150536261
 10
-0.5081854399
 20
-23.9384424899
 10
-0.5133616658
 20
-23.9623027603
 10
-0.5191550184
 20
-23.9860075469
 10
-0.5256604518
 20
-24.0096840784
 10
-0.5327830119
 20
-24.033205126
 10
-0.540113444
 20
-24.0555621128
 10
-0.5475641091
 20
-24.076396707
 10
-0.5552226462
 20
-24.0960672403
 10
-0.562942718
 20
-24.1146401317
 10
-0.5707006932
 20
-24.1320740896
 10
-0.5785202031
 20
-24.1484104055
 10
-0.5863258038
 20
-24.1638393733
 10
-0.5941106553
 20
-24.1783754924
 10
-0.6018815976
 20
-24.1920042633
 10
-0.609583708
 20
-24.2048724813
 10
-0.617211206
 20
-24.2169859163
 10
-0.6247698721
 20
-24.2283387984
 10
-0.6322221244
 20
-24.2390606124
 10
-0.6395624002
 20
-24.249158242
 10
-0.6467962621
 20
-24.2586248036
 10
-0.6539028159
 20
-24.2675691299
 10
-0.6608784424
 20
-24.2759975948
 10
-0.6677267607
 20
-24.2839038245
 10
-0.6744377337
 20
-24.2913775311
 10
-0.6810090168
 20
-24.2984240204
 10
-0.6874429546
 20
-24.3050379866
 10
-0.6937365436
 20
-24.3112932246
 10
-0.6998881504
 20
-24.3171942668
 10
-0.7058994084
 20
-24.3227365808
 10
-0.7117722136
 20
-24.3279803642
 10
-0.7175058055
 20
-24.3329289272
 10
-0.7231009446
 20
-24.3375789596
 10
-0.7285618093
 20
-24.3419807285
 10
-0.733887779
 20
-24.3461369111
 10
-0.7390794741
 20
-24.3500448301
 10
-0.7441429342
 20
-24.3537467209
 10
-0.749077572
 20
-24.3572449799
 10
-0.7538839746
 20
-24.3605372105
 10
-0.7585699433
 20
-24.3636584582
 10
-0.763135275
 20
-24.366611949
 10
-0.7675801728
 20
-24.3693944569
 10
-0.771913047
 20
-24.3720313488
 10
-0.7761338546
 20
-24.3745256505
 10
-0.7802426384
 20
-24.3768743363
 10
-0.7842479378
 20
-24.3790936965
 10
-0.7881502392
 20
-24.3811843596
 10
-0.7919490561
 20
-24.383145697
 10
-0.7934852113
 20
-24.3839192634
  0
LWPOLYLINE
  5
2C9
100
AcDbEntity
  8
0
100
AcDbPolyline
 62
7
  6
CONTINUOUS
 90
33
 70
0
 10
-0.8636414886
 20
-24.4146885473
 10
-0.8588361786
 20
-24.4214118333
 10
-0.8542494487
 20
-24.4284377672
 10
-0.8498812989
 20
-24.4357663489
 10
-0.8457280377
 20
-24.44341977
 10
-0.8417933566
 20
-24.4513758391
 10
-0.83808833
 20
-24.4595679814
 10
-0.8346143807
 20
-24.4679966717
 10
-0.831370086
 20
-24.4766614354
 10
-0.8283622515
 20
-24.4854942741
 10
-0.8255996348
 20
-24.4944587666
 10
-0.8230734783
 20
-24.5035913341
 10
-0.8207643154
 20
-24.512933242
 10
-0.8186721976
 20
-24.522465823
 10
-0.8167970733
 20
-24.5322077444
 10
-0.815119322
 20
-24.5422562738
 10
-0.8136329494
 20
-24.5526123246
 10
-0.8123439497
 20
-24.5632749835
 10
-0.8112506852
 20
-24.5743387776
 10
-0.8103498647
 20
-24.5858058094
 10
-0.8096447793
 20
-24.5976739765
 10
-0.8091436647
 20
-24.6100314987
 10
-0.8088431135
 20
-24.622897632
 10
-0.808746533
 20
-24.6362531204
 10
-0.8088723815
 20
-24.6501284162
 10
-0.8092246549
 20
-24.664542148
 10
-0.8097993574
 20
-24.6794756871
 10
-0.8106029593
 20
-24.6949035998
 10
-0.8116460536
 20
-24.7108248801
 10
-0.8129180473
 20
-24.7272405338
 10
-0.8143936322
 20
-24.7441281451
 10
-0.8160846793
 20
-24.7614817209
 10
-0.8179793176
 20
-24.7793072541
  0
LINE
  5
2CA
100
AcDbEntity
  8
0
100
AcDbLine
 62
7
  6
CONTINUOUS
 10
-10.5744696191
 20
-14.0833742113
 11
-10.5744696191
 21
-14.5955003462
  0
LINE
  5
2CB
100
AcDbEntity
  8
0
100
AcDbLine
 62
7
  6
CONTINUOUS
 10
-10.5230985842
 20
-14.0676214364
 11
-10.5230985842
 21
-14.5781667828
  0
LWPOLYLINE
  5
2CC
100
AcDbEntity
  8
RACCORDO
100
AcDbPolyline
 62
7
  6
CONTINUOUS
 90
31
 70
0
 10
-26.7069586427
 20
-9.8215837173
 10
-26.6999507589
 20
-9.8223217322
 10
-26.6926159539
 20
-9.8232494179
 10
-26.684973136
 20
-9.8243643828
 10
-26.6770420073
 20
-9.8256637526
 10
-26.6688430132
 20
-9.8271441779
 10
-26.6603972898
 20
-9.8288018423
 10
-26.651726609
 20
-9.8306324724
 10
-26.6428533228
 20
-9.8326313492
 10
-26.6338003052
 20
-9.8347933199
 10
-26.6245908939
 20
-9.8371128111
 10
-26.6152488295
 20
-9.8395838435
 10
-26.6057981947
 20
-9.842200047
 10
-26.5962633519
 20
-9.8449546775
 10
-26.5866688809
 20
-9.8478406339
 10
-26.5770395148
 20
-9.8508504766
 10
-26.567400077
 20
-9.8539764464
 10
-26.5577754167
 20
-9.8572104852
 10
-26.5481903451
 20
-9.860544256
 10
-26.5386695712
 20
-9.8639691647
 10
-26.5292376383
 20
-9.8674763823
 10
-26.5199188609
 20
-9.8710568678
 10
-26.5107372614
 20
-9.874701391
 10
-26.5017165089
 20
-9.8784005568
 10
-26.4928798577
 20
-9.8821448294
 10
-26.4842500876
 20
-9.8859245564
 10
-26.4758494451
 20
-9.8897299941
 10
-26.4676995858
 20
-9.8935513327
 10
-26.4598215191
 20
-9.8973787212
 10
-26.4522355536
 20
-9.9012022931
 10
-26.444961245
 20
-9.9050121918
  0
LINE
  5
2CD
100
AcDbEntity
  8
0
100
AcDbLine
 62
7
  6
CONTINUOUS
 10
19.887407541
 20
-30.3582992201
 11
19.9934735581
 21
-30.4351700221
  0
LINE
  5
2CE
100
AcDbEntity
  8
0
100
AcDbLine
 62
7
  6
CONTINUOUS
 10
20.2409609316
 20
-30.1815225248
 11
20.3470269487
 21
-30.2583933268
  0
LINE
  5
2CF
100
AcDbEntity
  8
0
100
AcDbLine
 62
7
  6
CONTINUOUS
 10
20.5945143221
 20
-30.0047458295
 11
20.7005803393
 21
-30.0816166315
  0
LINE
  5
2D0
100
AcDbEntity
  8
0
100
AcDbLine
 62
7
  6
CONTINUOUS
 10
20.9480677127
 20
-29.8279691342
 11
21.0541337299
 21
-29.9048399362
  0
LWPOLYLINE
  5
2D1
100
AcDbEntity
  8
RACCORDO
100
AcDbPolyline
 62
7
  6
CONTINUOUS
 90
10
 70
0
 10
-26.8193825395
 20
30.4442881334
 10
-26.8228938998
 20
30.4509904176
 10
-26.8260923839
 20
30.4580029653
 10
-26.8289703921
 20
30.4653091145
 10
-26.8315210865
 20
30.472891506
 10
-26.8337384065
 20
30.4807321242
 10
-26.8356170839
 20
30.4888123398
 10
-26.837152655
 20
30.4971129543
 10
-26.8383414712
 20
30.5056142455
 10
-26.839180708
 20
30.5142960147
  0
LINE
  5
2D2
100
AcDbEntity
  8
RACCORDO
100
AcDbLine
 62
7
  6
CONTINUOUS
 10
-26.7069586427
 20
29.6154465965
 11
-26.813657677
 21
29.8336972031
  0
LINE
  5
2D3
100
AcDbEntity
  8
RACCORDO
100
AcDbLine
 62
7
  6
CONTINUOUS
 10
-26.444961245
 20
29.6784173823
 11
-26.8193837224
 21
30.4442886591
  0
LINE
  5
2D4
100
AcDbEntity
  8
DRAFT
100
AcDbLine
 62
7
  6
CONTINUOUS
 10
-11.0682116179
 20
-14.932220513
 11
-11.1503037175
 21
-15.2664018601
  0
LWPOLYLINE
  5
2D5
100
AcDbEntity
  8
DRAFT
100
AcDbPolyline
 62
7
  6
CONTINUOUS
 90
16
 70
0
 10
-11.1503037175
 20
-15.2664018601
 10
-11.1526015454
 20
-15.2748983214
 10
-11.1552285977
 20
-15.2830631529
 10
-11.1581848746
 20
-15.2908963547
 10
-11.161477248
 20
-15.2984115577
 10
-11.165098846
 20
-15.3055951309
 10
-11.1690290521
 20
-15.3124061811
 10
-11.1732696265
 20
-15.3188425837
 10
-11.1778188091
 20
-15.3249064632
 10
-11.1826507032
 20
-15.3305633004
 10
-11.1877669212
 20
-15.3358107738
 10
-11.1931658507
 20
-15.3406512049
 10
-11.1988167577
 20
-15.3450570391
 10
-11.2047210794
 20
-15.3490257976
 10
-11.2108773786
 20
-15.3525599592
 10
-11.2126187873
 20
-15.3534574715
  0
LINE
  5
2D6
100
AcDbEntity
  8
0
100
AcDbLine
 62
7
  6
CONTINUOUS
 10
-16.4118108293
 20
-12.9157968161
 11
-16.3164596558
 21
-12.7513403685
  0
LINE
  5
2D7
100
AcDbEntity
  8
0
100
AcDbLine
 62
7
  6
CONTINUOUS
 10
-16.0582574388
 20
-12.7390201208
 11
-15.9629062652
 21
-12.5745636732
  0
LINE
  5
2D8
100
AcDbEntity
  8
0
100
AcDbLine
 62
7
  6
CONTINUOUS
 10
-15.7047040482
 20
-12.5622434255
 11
-15.6093528746
 21
-12.3977869779
  0
LINE
  5
2D9
100
AcDbEntity
  8
0
100
AcDbLine
 62
7
  6
CONTINUOUS
 10
-15.3511506576
 20
-12.3854667302
 11
-15.255799484
 21
-12.2210102827
  0
LINE
  5
2DA
100
AcDbEntity
  8
0
100
AcDbLine
 62
7
  6
CONTINUOUS
 10
-14.997597267
 20
-12.2086900349
 11
-14.9022460934
 21
-12.0442335874
  0
LINE
  5
2DB
100
AcDbEntity
  8
DRAFT
100
AcDbLine
 62
7
  6
CONTINUOUS
 10
33.9022739749
 20
24.2453225768
 11
34.6659392678
 21
24.6761719651
  0
LWPOLYLINE
  5
2DC
100
AcDbEntity
  8
RACCORDO
100
AcDbPolyline
 62
7
  6
CONTINUOUS
 90
34
 70
0
 10
-26.2621116724
 20
-9.272124435
 10
-26.2789462531
 20
-9.2810393358
 10
-26.2957552417
 20
-9.2905898117
 10
-26.3125386381
 20
-9.3007758627
 10
-26.3293247574
 20
-9.3116118773
 10
-26.3460852846
 20
-9.3230834671
 10
-26.3627352745
 20
-9.3351474661
 10
-26.3792722917
 20
-9.3478083987
 10
-26.3956987715
 20
-9.3610617407
 10
-26.4119370748
 20
-9.3748507527
 10
-26.4279851043
 20
-9.3891796806
 10
-26.4438449572
 20
-9.4040442786
 10
-26.4594452859
 20
-9.4193750704
 10
-26.4747766258
 20
-9.4351664472
 10
-26.4898484413
 20
-9.4514240177
 10
-26.5046177784
 20
-9.4680951319
 10
-26.5190787327
 20
-9.4851729087
 10
-26.5332372086
 20
-9.502664229
 10
-26.547067964
 20
-9.5205370854
 10
-26.5605759141
 20
-9.5387976514
 10
-26.5737561438
 20
-9.5574397535
 10
-26.5865686654
 20
-9.5764128633
 10
-26.5990182525
 20
-9.5957283989
 10
-26.6111001316
 20
-9.6153749422
 10
-26.622759995
 20
-9.6352677109
 10
-26.6339953187
 20
-9.6554104919
 10
-26.6448086267
 20
-9.6757994983
 10
-26.6551531835
 20
-9.6963385872
 10
-26.6650254341
 20
-9.7170308534
 10
-26.6744289335
 20
-9.7378732022
 10
-26.6833276111
 20
-9.7587602057
 10
-26.6917094434
 20
-9.7796567215
 10
-26.6995864539
 20
-9.800597892
 10
-26.7069586427
 20
-9.8215837173
  0
LINE
  5
2DD
100
AcDbEntity
  8
RACCORDO
100
AcDbLine
 62
7
  6
CONTINUOUS
 10
30.20066904
 20
23.1879672487
 11
33.2288387772
 21
24.7352987587
  0
LINE
  5
2DE
100
AcDbEntity
  8
RACCORDO
100
AcDbLine
 62
7
  6
CONTINUOUS
 10
31.585754919
 20
20.9007023999
 11
34.6589053233
 21
22.4710399461
  0
LINE
  5
2DF
100
AcDbEntity
  8
DRAFT
100
AcDbLine
 62
7
  6
CONTINUOUS
 10
34.5648699622
 20
23.0927506622
 11
35.3730460489
 21
23.4565931707
  0
LWPOLYLINE
  5
2E0
100
AcDbEntity
  8
0
100
AcDbPolyline
 62
7
  6
CONTINUOUS
 90
31
 70
0
 10
-1.088451474
 20
-24.6541258283
 10
-1.0879716886
 20
-24.6408770698
 10
-1.0878294917
 20
-24.6280312937
 10
-1.0880248833
 20
-24.6155885
 10
-1.088578304
 20
-24.6035549603
 10
-1.0894693131
 20
-24.591924403
 10
-1.090636589
 20
-24.5806780133
 10
-1.0920692573
 20
-24.5698224386
 10
-1.0937781922
 20
-24.5593510314
 10
-1.0957346947
 20
-24.5492250345
 10
-1.0979359715
 20
-24.5394284349
 10
-1.1003848159
 20
-24.5299772457
 10
-1.1030609079
 20
-24.520880749
 10
-1.1059642593
 20
-24.5121352424
 10
-1.1090948584
 20
-24.5037444285
 10
-1.1124323496
 20
-24.4957286971
 10
-1.1159730306
 20
-24.4880995166
 10
-1.1197206036
 20
-24.4808454187
 10
-1.1236658201
 20
-24.4739523881
 10
-1.1278136454
 20
-24.4674278468
 10
-1.1321591142
 20
-24.4612643728
 10
-1.136678082
 20
-24.4554256856
 10
-1.1413709859
 20
-24.4499065969
 10
-1.1462373888
 20
-24.4447122951
 10
-1.1512518345
 20
-24.4398220639
 10
-1.1564063169
 20
-24.4352339156
 10
-1.1617088421
 20
-24.4309498381
 10
-1.1671579718
 20
-24.4269550792
 10
-1.1727532265
 20
-24.4232447215
 10
-1.1784950856
 20
-24.4198236824
 10
-1.1843835492
 20
-24.4166919619
  0
LINE
  5
2E1
100
AcDbEntity
  8
0
100
AcDbLine
 62
7
  6
CONTINUOUS
 10
-3.6576696784
 20
-24.0222945815
 11
-3.5817993357
 21
-22.654893918
  0
LINE
  5
2E2
100
AcDbEntity
  8
0
100
AcDbLine
 62
7
  6
CONTINUOUS
 10
-3.5037787348
 20
-22.6158836175
 11
-3.5794514717
 21
-23.9797228575
  0
LINE
  5
2E3
100
AcDbEntity
  8
0
100
AcDbLine
 62
7
  6
CONTINUOUS
 10
-3.3736181983
 20
-23.2070361684
 11
-3.3069788656
 21
-22.0454560884
  0
LWPOLYLINE
  5
2E4
100
AcDbEntity
  8
0
100
AcDbPolyline
 62
7
  6
CONTINUOUS
 90
5
 70
0
 10
-1.0104308734
 20
-24.6151155318
 10
-1.0112859011
 20
-24.6289584525
 10
-1.0122356047
 20
-24.6427704096
 10
-1.0132799842
 20
-24.6565514031
 10
-1.014432611
 20
-24.6702882678
  0
LINE
  5
2E5
100
AcDbEntity
  8
0
100
AcDbLine
 62
7
  6
CONTINUOUS
 10
-5.4312674339
 20
-23.1354957038
 11
-5.2412694655
 21
-21.0783107884
  0
LINE
  5
2E6
100
AcDbEntity
  8
0
100
AcDbLine
 62
7
  6
CONTINUOUS
 10
-5.1701366383
 20
-21.113877202
 11
-5.353246833
 21
-23.0964854034
  0
LINE
  5
2E7
100
AcDbEntity
  8
0
100
AcDbLine
 62
7
  6
CONTINUOUS
 10
-1.9016753463
 20
-24.9002917476
 11
-1.6987026755
 21
-22.8495941834
  0
LINE
  5
2E8
100
AcDbEntity
  8
0
100
AcDbLine
 62
7
  6
CONTINUOUS
 10
-5.1185830633
 20
-22.6210685222
 11
-4.9526808033
 21
-21.2226051195
  0
LINE
  5
2E9
100
AcDbEntity
  8
0
100
AcDbLine
 62
7
  6
CONTINUOUS
 10
-12.5334383764
 20
-14.878820836
 11
-12.4273723593
 21
-14.6958840168
  0
LINE
  5
2EA
100
AcDbEntity
  8
0
100
AcDbLine
 62
7
  6
CONTINUOUS
 10
-12.1798849858
 20
-14.7020441407
 11
-12.0738189687
 21
-14.5191073215
  0
LINE
  5
2EB
100
AcDbEntity
  8
0
100
AcDbLine
 62
7
  6
CONTINUOUS
 10
-11.8263315953
 20
-14.5252674454
 11
-11.7202655781
 21
-14.3423306262
  0
LINE
  5
2EC
100
AcDbEntity
  8
0
100
AcDbLine
 62
7
  6
CONTINUOUS
 10
-11.4727782047
 20
-14.3484907501
 11
-11.3667121875
 21
-14.1655539309
  0
LINE
  5
2ED
100
AcDbEntity
  8
0
100
AcDbLine
 62
7
  6
CONTINUOUS
 10
-11.1192248141
 20
-14.1717140548
 11
-11.0131587969
 21
-13.9887772356
  0
LINE
  5
2EE
100
AcDbEntity
  8
RACCORDO
100
AcDbLine
 62
7
  6
CONTINUOUS
 10
-24.9599887773
 20
-8.6064898362
 11
-26.2621116724
 21
-9.272124435
  0
LWPOLYLINE
  5
2EF
100
AcDbEntity
  8
RACCORDO
100
AcDbPolyline
 62
7
  6
CONTINUOUS
 90
34
 70
0
 10
-24.8187612341
 20
-8.850071317
 10
-26.1331401483
 20
-9.5219546672
 10
-26.1453989924
 20
-9.5286635237
 10
-26.1576482677
 20
-9.5358290588
 10
-26.1698822328
 20
-9.5434505862
 10
-26.1820812375
 20
-9.5515205635
 10
-26.1942120983
 20
-9.5600225638
 10
-26.2062620328
 20
-9.5689489189
 10
-26.2182185561
 20
-9.5782915813
 10
-26.2300497033
 20
-9.5880292751
 10
-26.241742939
 20
-9.5981509444
 10
-26.2532868099
 20
-9.6086456966
 10
-26.2646522197
 20
-9.6194887877
 10
-26.2758223189
 20
-9.6306610151
 10
-26.2867924517
 20
-9.6421543459
 10
-26.2975526297
 20
-9.6539591965
 10
-26.3080884445
 20
-9.6660569251
 10
-26.3183940757
 20
-9.6784379599
 10
-26.3284717605
 20
-9.6911073842
 10
-26.3383143761
 20
-9.7040562106
 10
-26.3479080963
 20
-9.7172662707
 10
-26.3572442173
 20
-9.7307298612
 10
-26.3663170629
 20
-9.7444398481
 10
-26.3751119477
 20
-9.7583748154
 10
-26.3836076303
 20
-9.772504771
 10
-26.3917961947
 20
-9.7868153931
 10
-26.3996688737
 20
-9.8012894192
 10
-26.40720581
 20
-9.8158909066
 10
-26.4144006871
 20
-9.8306034531
 10
-26.4212478572
 20
-9.845410137
 10
-26.4277316997
 20
-9.8602732195
 10
-26.4338454123
 20
-9.8751687859
 10
-26.439589476
 20
-9.8900872339
 10
-26.444961245
 20
-9.9050121918
  0
LINE
  5
2F0
100
AcDbEntity
  8
RACCORDO
100
AcDbLine
 62
7
  6
CONTINUOUS
 10
-28.0461409645
 20
-10.554433522
 11
-28.1906663101
 21
-10.6268250592
  0
LINE
  5
2F1
100
AcDbEntity
  8
RACCORDO
100
AcDbLine
 62
7
  6
CONTINUOUS
 10
-27.3578992513
 20
-11.8544080176
 11
-27.5323088821
 21
-11.9417633232
  0
LWPOLYLINE
  5
2F2
100
AcDbEntity
  8
RACCORDO
100
AcDbPolyline
 62
7
  6
CONTINUOUS
 90
34
 70
0
 10
-26.813657677
 20
-10.1359065659
 10
-26.8208607813
 20
-10.1389978512
 10
-26.8283491316
 20
-10.1419147626
 10
-26.8361058585
 20
-10.1446507292
 10
-26.8441134884
 20
-10.1471995876
 10
-26.8523539821
 20
-10.1495555959
 10
-26.8608087758
 20
-10.1517134468
 10
-26.8694588232
 20
-10.1536682792
 10
-26.878284638
 20
-10.1554156896
 10
-26.8872663379
 20
-10.1569517415
 10
-26.8963836894
 20
-10.1582729747
 10
-26.9056161538
 20
-10.159376413
 10
-26.9149429326
 20
-10.1602595707
 10
-26.9243430152
 20
-10.1609204584
 10
-26.9337952257
 20
-10.1613575874
 10
-26.9432782709
 20
-10.1615699731
 10
-26.952770788
 20
-10.1615571372
 10
-26.9622513933
 20
-10.1613191087
 10
-26.9716987294
 20
-10.160856424
 10
-26.9810915142
 20
-10.1601701256
 10
-26.9904085885
 20
-10.1592617595
 10
-26.9996289636
 20
-10.1581333723
 10
-27.0087318687
 20
-10.1567875061
 10
-27.0176967978
 20
-10.1552271927
 10
-27.0265035555
 20
-10.1534559474
 10
-27.0351323028
 20
-10.1514777604
 10
-27.0435636019
 20
-10.1492970881
 10
-27.0517784598
 20
-10.1469188431
 10
-27.0597583708
 20
-10.1443483829
 10
-27.0674853588
 20
-10.1415914982
 10
-27.0749420175
 20
-10.1386543997
 10
-27.0821115495
 20
-10.1355437038
 10
-27.0889778041
 20
-10.132266418
 10
-27.0955253141
 20
-10.1288299254
  0
LINE
  5
2F3
100
AcDbEntity
  8
DRAFT
100
AcDbLine
 62
7
  6
CONTINUOUS
 10
34.8780713021
 20
-18.6372070467
 11
35.3730460489
 21
-18.8846944201
  0
LWPOLYLINE
  5
2F4
100
AcDbEntity
  8
0
100
AcDbPolyline
 62
7
  6
CONTINUOUS
 90
5
 70
0
 10
-1.0924771006
 20
-24.7095725885
 10
-1.0913174407
 20
-24.6957697375
 10
-1.0902668479
 20
-24.6819210489
 10
-1.0893115256
 20
-24.6680397459
 10
-1.088451474
 20
-24.6541258283
  0
LINE
  5
2F5
100
AcDbEntity
  8
0
100
AcDbLine
 62
7
  6
CONTINUOUS
 10
-1.014432611
 20
-24.6702882678
 11
-1.0169811784
 21
-24.6977086019
  0
LINE
  5
2F6
100
AcDbEntity
  8
0
100
AcDbLine
 62
7
  6
CONTINUOUS
 10
-1.0950408433
 20
-24.7371201161
 11
-1.0924771006
 21
-24.7095725885
  0
LINE
  5
2F7
100
AcDbEntity
  8
0
100
AcDbLine
 62
7
  6
CONTINUOUS
 10
-1.0978172062
 20
-24.7646928412
 11
-1.0950408433
 21
-24.7371201161
  0
LINE
  5
2F8
100
AcDbEntity
  8
0
100
AcDbLine
 62
7
  6
CONTINUOUS
 10
-1.0169811784
 20
-24.6977086019
 11
-1.0197427988
 21
-24.7251593805
  0
LINE
  5
2F9
100
AcDbEntity
  8
0
100
AcDbLine
 62
7
  6
CONTINUOUS
 10
-1.1291897809
 20
-25.0649626975
 11
-1.0978172062
 21
-24.7646928412
  0
LINE
  5
2FA
100
AcDbEntity
  8
0
100
AcDbLine
 62
7
  6
CONTINUOUS
 10
-1.0197427988
 20
-24.7251593805
 11
-1.0510888318
 21
-25.0252081781
  0
LINE
  5
2FB
100
AcDbEntity
  8
0
100
AcDbLine
 62
7
  6
CONTINUOUS
 10
-1.1522516024
 20
-25.2750037511
 11
-1.1291897809
 21
-25.0649626975
  0
LINE
  5
2FC
100
AcDbEntity
  8
0
100
AcDbLine
 62
7
  6
CONTINUOUS
 10
-1.0510888318
 20
-25.0252081781
 11
-1.0742310015
 21
-25.2359934506
  0
LINE
  5
2FD
100
AcDbEntity
  8
0
100
AcDbLine
 62
7
  6
CONTINUOUS
 10
-0.8179793176
 20
-24.7793072541
 11
-0.8221762955
 21
-24.8163594021
  0
LINE
  5
2FE
100
AcDbEntity
  8
0
100
AcDbLine
 62
7
  6
CONTINUOUS
 10
-2.1816698326
 20
-24.7602945044
 11
-2.1320130212
 21
-24.3554703062
  0
LINE
  5
2FF
100
AcDbEntity
  8
0
100
AcDbLine
 62
7
  6
CONTINUOUS
 10
-2.0539924203
 20
-24.3164600057
 11
-2.1036492317
 21
-24.721284204
  0
LINE
  5
300
100
AcDbEntity
  8
0
100
AcDbLine
 62
7
  6
CONTINUOUS
 10
-0.8221762955
 20
-24.8163594021
 11
-0.8269236441
 21
-24.8552801517
  0
LINE
  5
301
100
AcDbEntity
  8
0
100
AcDbLine
 62
7
  6
CONTINUOUS
 10
-0.8269236441
 20
-24.8552801517
 11
-0.8509758994
 21
-25.046974481
  0
LINE
  5
302
100
AcDbEntity
  8
0
100
AcDbLine
 62
7
  6
CONTINUOUS
 10
-0.8509758994
 20
-25.046974481
 11
-0.8967174741
 21
-25.4027708152
  0
LINE
  5
303
100
AcDbEntity
  8
0
100
AcDbLine
 62
7
  6
CONTINUOUS
 10
-1.9952606557
 20
-23.2926804687
 11
-2.0934288091
 21
-24.0422995554
  0
LINE
  5
304
100
AcDbEntity
  8
0
100
AcDbLine
 62
7
  6
CONTINUOUS
 10
-1.9172400548
 20
-23.2536701682
 11
-2.0154082082
 21
-24.003289255
  0
LINE
  5
305
100
AcDbEntity
  8
0
100
AcDbLine
 62
7
  6
CONTINUOUS
 10
-2.9900739029
 20
-24.3560924693
 11
-2.5156203114
 21
-22.4411353655
  0
LINE
  5
306
100
AcDbEntity
  8
0
100
AcDbLine
 62
7
  6
CONTINUOUS
 10
-3.2499603937
 20
-24.2261492239
 11
-2.9186349329
 21
-22.9923353174
  0
LINE
  5
307
100
AcDbEntity
  8
0
100
AcDbLine
 62
7
  6
CONTINUOUS
 10
-2.840614332
 20
-22.953325017
 11
-3.1719397928
 21
-24.1871389235
  0
LINE
  5
308
100
AcDbEntity
  8
0
100
AcDbLine
 62
7
  6
CONTINUOUS
 10
-4.6894735296
 20
-23.506392656
 11
-4.0959733063
 21
-21.6508297265
  0
LINE
  5
309
100
AcDbEntity
  8
0
100
AcDbLine
 62
7
  6
CONTINUOUS
 10
-4.0394668826
 20
-21.6790829384
 11
-4.6114529287
 21
-23.4673823555
  0
LINE
  5
30A
100
AcDbEntity
  8
0
100
AcDbLine
 62
7
  6
CONTINUOUS
 10
-4.4238135119
 20
-23.6392226648
 11
-3.8303132886
 21
-21.7836597353
  0
LINE
  5
30B
100
AcDbEntity
  8
0
100
AcDbLine
 62
7
  6
CONTINUOUS
 10
-4.0266500177
 20
-23.8378044119
 11
-3.5817993357
 21
-22.654893918
  0
LINE
  5
30C
100
AcDbEntity
  8
0
100
AcDbLine
 62
7
  6
CONTINUOUS
 10
-4.2808004583
 20
-23.7107291916
 11
-3.5724196801
 21
-21.9127356811
  0
LINE
  5
30D
100
AcDbEntity
  8
0
100
AcDbLine
 62
7
  6
CONTINUOUS
 10
-3.5200791775
 20
-21.9389059324
 11
-4.2027798574
 21
-23.6717188912
  0
LINE
  5
30E
100
AcDbEntity
  8
RACCORDO
100
AcDbLine
 62
7
  6
CONTINUOUS
 10
22.3732275978
 20
6.265994341
 11
22.699860464
 21
6.4309465195
  0
LINE
  5
30F
100
AcDbEntity
  8
RACCORDO
100
AcDbLine
 62
7
  6
CONTINUOUS
 10
21.7126750644
 20
7.4264537264
 11
22.0542445636
 21
7.5988961149
  0
LINE
  5
310
100
AcDbEntity
  8
0
100
AcDbLine
 62
7
  6
CONTINUOUS
 10
-16.6663413934
 20
-12.9262812373
 11
-16.5285916901
 21
-12.8574063857
  0
LINE
  5
311
100
AcDbEntity
  8
0
100
AcDbLine
 62
7
  6
CONTINUOUS
 10
-16.3164596558
 20
-12.7513403685
 11
-16.1750382996
 21
-12.6806296904
  0
LINE
  5
312
100
AcDbEntity
  8
0
100
AcDbLine
 62
7
  6
CONTINUOUS
 10
-15.9629062652
 20
-12.5745636732
 11
-15.821484909
 21
-12.5038529951
  0
LINE
  5
313
100
AcDbEntity
  8
0
100
AcDbLine
 62
7
  6
CONTINUOUS
 10
-15.6093528746
 20
-12.3977869779
 11
-15.4679315184
 21
-12.3270762998
  0
LINE
  5
314
100
AcDbEntity
  8
0
100
AcDbLine
 62
7
  6
CONTINUOUS
 10
-15.255799484
 20
-12.2210102827
 11
-15.1143781278
 21
-12.1502996045
  0
LINE
  5
315
100
AcDbEntity
  8
0
100
AcDbLine
 62
7
  6
CONTINUOUS
 10
-14.9022460934
 20
-12.0442335874
 11
-14.7608247372
 21
-11.9735229092
  0
LINE
  5
316
100
AcDbEntity
  8
0
100
AcDbLine
 62
7
  6
CONTINUOUS
 10
-14.8389469945
 20
-11.958299574
 11
-16.8192404678
 21
-12.8498317001
  0
LWPOLYLINE
  5
317
100
AcDbEntity
  8
RACCORDO
100
AcDbPolyline
 62
7
  6
CONTINUOUS
 90
25
 70
0
 10
22.3732275978
 20
6.265994341
 10
22.3685580242
 20
6.2640180023
 10
22.3636554821
 20
6.2621881351
 10
22.3585383209
 20
6.2605115881
 10
22.3532256936
 20
6.2589946366
 10
22.3477374845
 20
6.2576429583
 10
22.3420942353
 20
6.2564616123
 10
22.3363170677
 20
6.2554550201
 10
22.3304276049
 20
6.2546269495
 10
22.3244478903
 20
6.2539804996
 10
22.3184003052
 20
6.25351809
 10
22.3123074847
 20
6.2532414516
 10
22.3061922335
 20
6.2531516197
 10
22.3000774401
 20
6.2532489305
 10
22.2939859912
 20
6.2535330199
 10
22.2879406863
 20
6.2540028244
 10
22.2819641522
 20
6.2546565858
 10
22.276078758
 20
6.255491857
 10
22.2703065321
 20
6.2565055118
 10
22.264669079
 20
6.2576937562
 10
22.259187499
 20
6.2590521428
 10
22.2538823087
 20
6.2605755872
 10
22.2487733648
 20
6.2622583876
 10
22.2438797893
 20
6.2640942454
 10
22.2392198982
 20
6.2660762892
  0
LWPOLYLINE
  5
318
100
AcDbEntity
  8
0
100
AcDbPolyline
 62
7
  6
CONTINUOUS
 90
34
 70
0
 10
-0.7880519094
 20
-23.9280272893
 10
-0.7849404499
 20
-23.917194797
 10
-0.7821803028
 20
-23.9062848847
 10
-0.7797714682
 20
-23.8952975525
 10
-0.7777159419
 20
-23.8842111195
 10
-0.776011728
 20
-23.8730472666
 10
-0.774652839
 20
-23.8618710355
 10
-0.773636378
 20
-23.8506841779
 10
-0.7729652418
 20
-23.8394849422
 10
-0.7726421341
 20
-23.8283331154
 10
-0.7726661678
 20
-23.8172177837
 10
-0.77303823
 20
-23.806149861
 10
-0.7737636858
 20
-23.7952218754
 10
-0.7748432232
 20
-23.7844393454
 10
-0.7762761543
 20
-23.7737967525
 10
-0.7780657804
 20
-23.7633700702
 10
-0.780217181
 20
-23.7531755834
 10
-0.7827252766
 20
-23.7431970071
 10
-0.7855781301
 20
-23.73346146
 10
-0.7887855408
 20
-23.7239675615
 10
-0.7923377094
 20
-23.7147166922
 10
-0.7961933007
 20
-23.7057401119
 10
-0.8003501002
 20
-23.6970416375
 10
-0.8048103225
 20
-23.6886174521
 10
-0.8095392758
 20
-23.6804873653
 10
-0.8145265087
 20
-23.6726581889
 10
-0.8197824725
 20
-23.6651231112
 10
-0.8253038304
 20
-23.6578815061
 10
-0.8310926609
 20
-23.6509194069
 10
-0.8371468854
 20
-23.6442507804
 10
-0.8434569308
 20
-23.6379169008
 10
-0.8500196062
 20
-23.631931526
 10
-0.8568381025
 20
-23.626280898
 10
-0.8639124197
 20
-23.6209650169
  0
LWPOLYLINE
  5
319
100
AcDbEntity
  8
0
100
AcDbPolyline
 62
7
  6
CONTINUOUS
 90
26
 70
0
 10
-0.7100313072
 20
-23.8890169851
 10
-0.7133488697
 20
-23.8996014045
 10
-0.7168744349
 20
-23.9101400762
 10
-0.720608003
 20
-23.9206330001
 10
-0.7245561302
 20
-23.9311369504
 10
-0.7287122602
 20
-23.941595153
 10
-0.733056724
 20
-23.9518372854
 10
-0.7375954953
 20
-23.961850883
 10
-0.7423226004
 20
-23.9716484103
 10
-0.7472004485
 20
-23.9810969388
 10
-0.7522215528
 20
-23.9901637687
 10
-0.7573934002
 20
-23.9988815997
 10
-0.7627008604
 20
-24.0072156029
 10
-0.7681384512
 20
-24.0151438823
 10
-0.7737116548
 20
-24.0226883338
 10
-0.7794217877
 20
-24.0298798163
 10
-0.7852691236
 20
-24.0367223895
 10
-0.7912533887
 20
-24.0432119936
 10
-0.7973750782
 20
-24.0493673082
 10
-0.8036271781
 20
-24.0551960665
 10
-0.8100167024
 20
-24.0606905353
 10
-0.8165651875
 20
-24.0658461939
 10
-0.8232583752
 20
-24.0706712618
 10
-0.8301105238
 20
-24.0751575194
 10
-0.8371859447
 20
-24.0792757879
 10
-0.8425605257
 20
-24.0820836452
  0
LINE
  5
31A
100
AcDbEntity
  8
0
100
AcDbLine
 62
7
  6
CONTINUOUS
 10
-1.8236645421
 20
-24.9392972812
 11
-1.2371336187
 21
-23.1055236855
  0
LINE
  5
31B
100
AcDbEntity
  8
0
100
AcDbLine
 62
7
  6
CONTINUOUS
 10
-1.1769715838
 20
-23.1223477246
 11
-1.7456439412
 21
-24.9002869808
  0
LINE
  5
31C
100
AcDbEntity
  8
0
100
AcDbLine
 62
7
  6
CONTINUOUS
 10
-1.2384378763
 20
-24.0371891125
 11
-1.0755202843
 21
-23.5278315208
  0
LINE
  5
31D
100
AcDbEntity
  8
0
100
AcDbLine
 62
7
  6
CONTINUOUS
 10
-1.5590733872
 20
-25.0715928587
 11
-1.3268241418
 21
-24.3454716656
  0
LINE
  5
31E
100
AcDbEntity
  8
0
100
AcDbLine
 62
7
  6
CONTINUOUS
 10
-0.8636414886
 20
-24.4146885473
 11
-0.8601346305
 21
-24.4037244471
  0
LINE
  5
31F
100
AcDbEntity
  8
0
100
AcDbLine
 62
7
  6
CONTINUOUS
 10
-2.3477793609
 20
-23.9151242795
 11
-1.9952606557
 21
-23.2926804687
  0
LINE
  5
320
100
AcDbEntity
  8
0
100
AcDbLine
 62
7
  6
CONTINUOUS
 10
-4.4600748642
 20
-21.4689080891
 11
-5.1185830633
 21
-22.6210685222
  0
LINE
  5
321
100
AcDbEntity
  8
0
100
AcDbLine
 62
7
  6
CONTINUOUS
 10
-4.4167354442
 20
-21.4905777991
 11
-5.0405624625
 21
-22.5820582217
  0
LINE
  5
322
100
AcDbEntity
  8
0
100
AcDbLine
 62
7
  6
CONTINUOUS
 10
-5.1971542782
 20
-23.2525522817
 11
-4.1945958658
 21
-21.6016475882
  0
LINE
  5
323
100
AcDbEntity
  8
0
100
AcDbLine
 62
7
  6
CONTINUOUS
 10
-10.8363821016
 20
-14.8140898785
 11
-10.581677228
 21
-14.6294938277
  0
LWPOLYLINE
  5
324
100
AcDbEntity
  8
RACCORDO
100
AcDbPolyline
 62
7
  6
CONTINUOUS
 90
28
 70
0
 10
21.712675058
 20
7.4264535927
 10
21.7088872561
 20
7.4239899821
 10
21.7050993623
 20
7.4212816579
 10
21.7013232729
 20
7.4183371258
 10
21.6975708472
 20
7.4151656333
 10
21.6938538699
 20
7.411777141
 10
21.6901840146
 20
7.4081822905
 10
21.6865728068
 20
7.404392372
 10
21.6830315879
 20
7.400419288
 10
21.6795714794
 20
7.3962755164
 10
21.676203348
 20
7.391974071
 10
21.6729377718
 20
7.387528461
 10
21.6697850065
 20
7.3829526483
 10
21.6667549538
 20
7.3782610035
 10
21.6638571297
 20
7.3734682613
 10
21.6611006353
 20
7.3685894737
 10
21.6584941274
 20
7.363639963
 10
21.6560457922
 20
7.3586352737
 10
21.6537633189
 20
7.3535911233
 10
21.6516538757
 20
7.3485233537
 10
21.6497240875
 20
7.3434478805
 10
21.6479800151
 20
7.3383806438
 10
21.6464271359
 20
7.3333375576
 10
21.6450703269
 20
7.3283344604
 10
21.6439138491
 20
7.3233870648
 10
21.6429613348
 20
7.3185109086
 10
21.6422157752
 20
7.3137213058
 10
21.641679512
 20
7.3090332986
  0
LINE
  5
325
100
AcDbEntity
  8
0
100
AcDbLine
 62
7
  6
CONTINUOUS
 10
-10.581483149
 20
-14.0870314967
 11
-12.3645474012
 21
-15.0771782334
  0
LINE
  5
326
100
AcDbEntity
  8
0
100
AcDbLine
 62
7
  6
CONTINUOUS
 10
-10.8363821016
 20
-14.8140898785
 11
-11.8538281385
 21
-15.3325378648
  0
LINE
  5
327
100
AcDbEntity
  8
DRAFT
100
AcDbLine
 62
7
  6
CONTINUOUS
 10
-11.5114771189
 20
-15.5037133745
 11
-11.2126132088
 21
-15.3534557593
  0
LINE
  5
328
100
AcDbEntity
  8
DRAFT
100
AcDbLine
 62
7
  6
CONTINUOUS
 10
-11.1503037175
 20
-15.2664018601
 11
-11.5672667308
 21
-15.4758185686
  0
LINE
  5
329
100
AcDbEntity
  8
0
100
AcDbLine
 62
7
  6
CONTINUOUS
 10
-12.7772540968
 20
-14.8708248856
 11
-12.6395043936
 21
-14.801950034
  0
LINE
  5
32A
100
AcDbEntity
  8
0
100
AcDbLine
 62
7
  6
CONTINUOUS
 10
-12.4273723593
 20
-14.6958840168
 11
-12.285951003
 21
-14.6251733387
  0
LINE
  5
32B
100
AcDbEntity
  8
0
100
AcDbLine
 62
7
  6
CONTINUOUS
 10
-12.0738189687
 20
-14.5191073215
 11
-11.9323976124
 21
-14.4483966434
  0
LINE
  5
32C
100
AcDbEntity
  8
0
100
AcDbLine
 62
7
  6
CONTINUOUS
 10
-11.7202655781
 20
-14.3423306262
 11
-11.5788442218
 21
-14.2716199481
  0
LINE
  5
32D
100
AcDbEntity
  8
0
100
AcDbLine
 62
7
  6
CONTINUOUS
 10
-11.3667121875
 20
-14.1655539309
 11
-11.2252908312
 21
-14.0948432528
  0
LINE
  5
32E
100
AcDbEntity
  8
0
100
AcDbLine
 62
7
  6
CONTINUOUS
 10
-11.0131587969
 20
-13.9887772356
 11
-10.8717374407
 21
-13.9180665575
  0
LINE
  5
32F
100
AcDbEntity
  8
0
100
AcDbLine
 62
7
  6
CONTINUOUS
 10
-10.7656714235
 20
-13.9949373595
 11
-12.6473502863
 21
-14.9357767909
  0
LINE
  5
330
100
AcDbEntity
  8
0
100
AcDbLine
 62
7
  6
CONTINUOUS
 10
-10.5744696191
 20
-14.5955003462
 11
-11.9536630317
 21
-15.2826204182
  0
LWPOLYLINE
  5
331
100
AcDbEntity
  8
0
100
AcDbPolyline
 62
7
  6
CONTINUOUS
 90
11
 70
0
 10
-10.5744696191
 20
-14.0833742113
 10
-10.5663526305
 20
-14.0794386883
 10
-10.5587281452
 20
-14.0759348768
 10
-10.5516617721
 20
-14.072871092
 10
-10.5452126119
 20
-14.0702417976
 10
-10.5394570372
 20
-14.068078069
 10
-10.5344782086
 20
-14.0664500863
 10
-10.5303260942
 20
-14.0654102955
 10
-10.5270647873
 20
-14.0649551828
 10
-10.524761612
 20
-14.0650805216
 10
-10.5241147045
 20
-14.0653026118
  0
LINE
  5
332
100
AcDbEntity
  8
0
100
AcDbLine
 62
7
  6
CONTINUOUS
 10
-14.8215519521
 20
-11.9518390275
 11
-14.8311576805
 21
-11.9550301806
  0
LINE
  5
333
100
AcDbEntity
  8
0
100
AcDbLine
 62
7
  6
CONTINUOUS
 10
-2.6855802878
 20
-24.5083392768
 11
-2.4937978418
 21
-24.1745778959
  0
LINE
  5
334
100
AcDbEntity
  8
0
100
AcDbLine
 62
7
  6
CONTINUOUS
 10
-2.9483581383
 20
-24.3769503516
 11
-1.9556970996
 21
-22.7210969714
  0
LINE
  5
335
100
AcDbEntity
  8
0
100
AcDbLine
 62
7
  6
CONTINUOUS
 10
-1.9136622761
 20
-22.7421143831
 11
-2.8703375374
 21
-24.3379400512
  0
LINE
  5
336
100
AcDbEntity
  8
0
100
AcDbLine
 62
7
  6
CONTINUOUS
 10
-2.7784646299
 20
-22.3097132062
 11
-3.3736181983
 21
-23.2070361684
  0
LINE
  5
337
100
AcDbEntity
  8
0
100
AcDbLine
 62
7
  6
CONTINUOUS
 10
-2.739304393
 20
-22.3292933247
 11
-3.2955975974
 21
-23.1680258679
  0
LINE
  5
338
100
AcDbEntity
  8
0
100
AcDbLine
 62
7
  6
CONTINUOUS
 10
-3.6204108079
 20
-24.0409240168
 11
-2.9186349329
 21
-22.9923353174
  0
LWPOLYLINE
  5
339
100
AcDbEntity
  8
RACCORDO
100
AcDbPolyline
 62
7
  6
CONTINUOUS
 90
15
 70
0
 10
-26.3411378807
 20
29.5709160059
 10
-26.3479523534
 20
29.5744810019
 10
-26.3572906181
 20
29.5798886561
 10
-26.3663651096
 20
29.5857700153
 10
-26.3751611008
 20
29.5921177844
 10
-26.3836563579
 20
29.5989168869
 10
-26.3918427492
 20
29.6061601277
 10
-26.3997120165
 20
29.6138393256
 10
-26.4072445072
 20
29.6219335655
 10
-26.4144340361
 20
29.6304321271
 10
-26.4212751307
 20
29.6393239934
 10
-26.4277524364
 20
29.648583587
 10
-26.4338593381
 20
29.6581925536
 10
-26.4395964366
 20
29.6681417694
 10
-26.444961245
 20
29.6784173823
  0
LINE
  5
33A
100
AcDbEntity
  8
0
100
AcDbLine
 62
7
  6
CONTINUOUS
 10
-5.1185830633
 20
-22.6210685222
 11
-5.0405624625
 21
-22.5820582217
  0
LINE
  5
33B
100
AcDbEntity
  8
0
100
AcDbLine
 62
7
  6
CONTINUOUS
 10
-5.4312674339
 20
-23.1354957038
 11
-5.353246833
 21
-23.0964854034
  0
LINE
  5
33C
100
AcDbEntity
  8
0
100
AcDbLine
 62
7
  6
CONTINUOUS
 10
-3.5817993357
 20
-22.654893918
 11
-3.5037787348
 21
-22.6158836175
  0
LINE
  5
33D
100
AcDbEntity
  8
0
100
AcDbLine
 62
7
  6
CONTINUOUS
 10
-4.6894735296
 20
-23.506392656
 11
-4.6114529287
 21
-23.4673823555
  0
LWPOLYLINE
  5
33E
100
AcDbEntity
  8
RACCORDO
100
AcDbPolyline
 62
7
  6
CONTINUOUS
 90
58
 70
0
 10
-26.8391807869
 20
30.5142959787
 10
-26.8434090486
 20
30.5159977083
 10
-26.8477558924
 20
30.5174962653
 10
-26.8522213147
 20
30.5187916512
 10
-26.8568059434
 20
30.5199049311
 10
-26.8615091433
 20
30.5208150433
 10
-26.8663290159
 20
30.5214587997
 10
-26.8712762377
 20
30.5218362936
 10
-26.8763401242
 20
30.5219474354
 10
-26.8814867363
 20
30.521728762
 10
-26.8867153533
 20
30.5211754304
 10
-26.89202669
 20
30.5202922863
 10
-26.8973889629
 20
30.5190303987
 10
-26.9027979732
 20
30.517387399
 10
-26.908257916
 20
30.5153656573
 10
-26.9137496012
 20
30.5129233498
 10
-26.9192705789
 20
30.5100609633
 10
-26.9248232967
 20
30.506778012
 10
-26.9303959116
 20
30.5030312119
 10
-26.9359926142
 20
30.4988162902
 10
-26.9416092124
 20
30.4941375204
 10
-26.9472212905
 20
30.4889644381
 10
-26.9528271517
 20
30.4832962591
 10
-26.9584284933
 20
30.4771337674
 10
-26.9640059926
 20
30.4704488498
 10
-26.9695542512
 20
30.4632504977
 10
-26.9750786694
 20
30.4555297188
 10
-26.9805761236
 20
30.4472314238
 10
-26.9860510822
 20
30.4383531674
 10
-26.9914990786
 20
30.428897394
 10
-26.9969035875
 20
30.4188163494
 10
-27.0022698366
 20
30.408098999
 10
-27.0075926014
 20
30.3967563759
 10
-27.0128396795
 20
30.3847738268
 10
-27.0180068301
 20
30.3721608116
 10
-27.0230982996
 20
30.3589078678
 10
-27.0280946185
 20
30.3449719576
 10
-27.0329940894
 20
30.3303674963
 10
-27.0377984163
 20
30.3150800657
 10
-27.0424932323
 20
30.2990233771
 10
-27.0470824248
 20
30.2822005534
 10
-27.0515621135
 20
30.2646084684
 10
-27.0559062814
 20
30.2461514595
 10
-27.0601186663
 20
30.2268359749
 10
-27.0641955383
 20
30.2066555628
 10
-27.0680996816
 20
30.1854952093
 10
-27.071835947
 20
30.1633655095
 10
-27.0753994927
 20
30.1402558643
 10
-27.0787385655
 20
30.116019467
 10
-27.0818611282
 20
30.0906612141
 10
-27.084759228
 20
30.0641762047
 10
-27.0873572405
 20
30.0364029348
 10
-27.0896657835
 20
30.0073473042
 10
-27.0916742493
 20
29.9770034086
 10
-27.0932751777
 20
29.9451920375
 10
-27.0944327518
 20
29.9118534524
 10
-27.0951827966
 20
29.8770473881
 10
-27.0955253141
 20
29.8407738437
  0
LWPOLYLINE
  5
33F
100
AcDbEntity
  8
RACCORDO
100
AcDbPolyline
 62
7
  6
CONTINUOUS
 90
46
 70
0
 10
-27.4789959339
 20
31.8693710213
 10
-26.5592709124
 20
31.4851355583
 10
-25.6121606136
 20
31.0852621117
 10
-24.6375038119
 20
30.669827924
 10
-23.6305505233
 20
30.2372403717
 10
-22.5956956769
 20
29.7892634449
 10
-21.5465853492
 20
29.3309687321
 10
-20.4840851315
 20
28.862526525
 10
-19.4071772243
 20
28.383847317
 10
-18.3268554404
 20
27.8995332213
 10
-17.2465021306
 20
27.4109646247
 10
-16.1627491089
 20
26.9167650591
 10
-15.0765492168
 20
26.4173616589
 10
-13.9883387435
 20
25.9129483172
 10
-12.89769509
 20
25.4033352426
 10
-11.8042871109
 20
24.8883719941
 10
-10.7079175418
 20
24.3679694497
 10
-9.608789883
 20
23.8422244238
 10
-8.5071736529
 20
23.3112656112
 10
-7.4031802418
 20
22.7751451888
 10
-6.2967095951
 20
22.2338162142
 10
-5.1877155415
 20
21.6872579852
 10
-4.0761549756
 20
21.1354500804
 10
-2.9620810311
 20
20.578418803
 10
-1.8455921864
 20
20.0162133911
 10
-0.7267426508
 20
19.4488612099
 10
0.3945100232
 20
18.8763399092
 10
1.5182120482
 20
18.2986240076
 10
2.6444655425
 20
17.7156593781
 10
3.7731579138
 20
17.1275058131
 10
4.9040118793
 20
16.5343079747
 10
6.0368138189
 20
15.9361775716
 10
7.1717619859
 20
15.3330060226
 10
8.3091973635
 20
14.7246077924
 10
9.4495622607
 20
14.1107403964
 10
10.5924061336
 20
13.4916531478
 10
11.7367266228
 20
12.8678960542
 10
12.8860802481
 20
12.237385245
 10
14.0369026417
 20
11.6022116673
 10
15.1774312415
 20
10.9691454167
 10
16.3085900648
 20
10.337307814
 10
17.4292944813
 20
9.7075019535
 10
18.5246104229
 20
9.088934734
 10
19.5894138348
 20
8.4845987293
 10
20.6284880705
 20
7.89132496
 10
21.6416795117
 20
7.3090332984
  0
LWPOLYLINE
  5
340
100
AcDbEntity
  8
RACCORDO
100
AcDbPolyline
 62
7
  6
CONTINUOUS
 90
46
 70
0
 10
-27.4161397626
 20
31.990861136
 10
-26.496226703
 20
31.6058742287
 10
-25.5489473131
 20
31.2060970339
 10
-24.5741281987
 20
30.7911901856
 10
-23.5670084373
 20
30.3588295857
 10
-22.5319692389
 20
29.9105910594
 10
-21.4826592625
 20
29.4521784189
 10
-20.4199751835
 20
28.983858572
 10
-19.3428888764
 20
28.5050527987
 10
-18.2623630824
 20
28.0205657636
 10
-17.1818138797
 20
27.5319431167
 10
-16.0978885253
 20
27.0376827249
 10
-15.0114923101
 20
26.5381969063
 10
-13.9230860732
 20
26.033704374
 10
-12.8322714746
 20
25.5240272921
 10
-11.7386687486
 20
25.0089902218
 10
-10.6421045018
 20
24.4885100421
 10
-9.5428068104
 20
23.9626935384
 10
-8.4409964504
 20
23.431646919
 10
-7.3368091834
 20
22.8954377721
 10
-6.2301696745
 20
22.3540316424
 10
-5.1209825453
 20
21.8073826484
 10
-4.0092291142
 20
21.2554813414
 10
-2.8949874316
 20
20.6983661978
 10
-1.7783064769
 20
20.1360617074
 10
-0.6592650881
 20
19.5686078364
 10
0.4621541439
 20
18.9959959882
 10
1.586047292
 20
18.4181763239
 10
2.7124917156
 20
17.8351069652
 10
3.8413495115
 20
17.2468571518
 10
4.9723934455
 20
16.6535446492
 10
6.1053849556
 20
16.0552959434
 10
7.240497162
 20
15.4520209181
 10
8.3781216268
 20
14.8435094295
 10
9.5186757078
 20
14.2295316221
 10
10.6616827095
 20
13.6103374461
 10
11.8061904215
 20
12.9864429637
 10
12.9557392755
 20
12.3559048276
 10
14.1067288646
 20
11.7206845429
 10
15.2474301553
 20
11.0873187952
 10
16.3787781996
 20
10.455404363
 10
17.4996548053
 20
9.82568051
 10
18.5951239262
 20
9.2067281429
 10
19.6600765331
 20
8.6017124914
 10
20.6993070485
 20
8.0081805611
 10
21.7126750642
 20
7.4264537224
  0
LWPOLYLINE
  5
341
100
AcDbEntity
  8
RACCORDO
100
AcDbPolyline
 62
7
  6
CONTINUOUS
 90
31
 70
0
 10
-26.444961245
 20
29.6784173823
 10
-26.4522355536
 20
29.6816857281
 10
-26.4598215191
 20
29.6845917448
 10
-26.4676995858
 20
29.6871279409
 10
-26.4758494451
 20
29.6892877784
 10
-26.4842500876
 20
29.6910656897
 10
-26.4928798577
 20
29.6924570915
 10
-26.5017165089
 20
29.6934583968
 10
-26.5107372614
 20
29.6940670246
 10
-26.5199188609
 20
29.6942814057
 10
-26.5292376383
 20
29.6941009876
 10
-26.5386695712
 20
29.6935262354
 10
-26.5481903451
 20
29.6925586307
 10
-26.5577754167
 20
29.6912006678
 10
-26.567400077
 20
29.6894558475
 10
-26.5770395148
 20
29.6873286676
 10
-26.5866688809
 20
29.6848246117
 10
-26.5962633519
 20
29.681950135
 10
-26.6057981947
 20
29.6787126475
 10
-26.6152488295
 20
29.6751204951
 10
-26.6245908939
 20
29.6711829377
 10
-26.6338003052
 20
29.666910126
 10
-26.6428533228
 20
29.6623130748
 10
-26.651726609
 20
29.6574036346
 10
-26.6603972898
 20
29.6521944613
 10
-26.6688430132
 20
29.6466989835
 10
-26.6770420073
 20
29.6409313678
 10
-26.684973136
 20
29.6349064825
 10
-26.6926159539
 20
29.6286398589
 10
-26.6999507589
 20
29.6221476515
 10
-26.7069586427
 20
29.6154465965
  0
LWPOLYLINE
  5
342
100
AcDbEntity
  8
RACCORDO
100
AcDbPolyline
 62
7
  6
CONTINUOUS
 90
10
 70
0
 10
-28.334962417
 20
31.8538166274
 10
-28.3218234222
 20
31.847739182
 10
-28.3067287711
 20
31.8429304406
 10
-28.2901622537
 20
31.8395442597
 10
-28.2726548072
 20
31.8376889035
 10
-28.2547671475
 20
31.8374235486
 10
-28.2370717934
 20
31.83875651
 10
-28.2201352609
 20
31.8416449977
 10
-28.204499926
 20
31.8459963914
 10
-28.1906663098
 20
31.8516712454
  0
LINE
  5
343
100
AcDbEntity
  8
RACCORDO
100
AcDbLine
 62
7
  6
CONTINUOUS
 10
21.1525819074
 20
5.8240560782
 11
-26.3410164052
 21
29.5708552345
  0
LINE
  5
344
100
AcDbEntity
  8
RACCORDO
100
AcDbLine
 62
7
  6
CONTINUOUS
 10
21.1500312765
 20
5.8809211216
 11
-26.444961245
 21
29.6784173823
  0
LWPOLYLINE
  5
345
100
AcDbEntity
  8
RACCORDO
100
AcDbPolyline
 62
7
  6
CONTINUOUS
 90
6
 70
0
 10
22.7363777657
 20
6.3181465383
 10
22.7242247184
 20
6.3247148392
 10
22.7146077775
 20
6.3322610527
 10
22.7078349422
 20
6.3405434989
 10
22.7041231245
 20
6.3492969187
 10
22.7034120195
 20
6.3552491312
  0
LINE
  5
346
100
AcDbEntity
  8
RACCORDO
100
AcDbLine
 62
7
  6
CONTINUOUS
 10
17.7834487665
 20
10.0415973076
 11
21.955820869
 21
7.6633315235
  0
LWPOLYLINE
  5
347
100
AcDbEntity
  8
RACCORDO
100
AcDbPolyline
 62
7
  6
CONTINUOUS
 90
43
 70
0
 10
20.9435163578
 20
6.562838654
 10
19.7542512043
 20
7.2431544745
 10
18.5673854363
 20
7.9180954229
 10
17.3829190539
 20
8.5876614992
 10
16.2008266771
 20
9.2518672547
 10
15.0211336859
 20
9.9106981381
 10
13.8439162202
 20
10.5641104952
 10
12.6691747569
 20
11.2121032114
 10
11.4969088191
 20
11.8546774013
 10
10.3271931157
 20
12.4917927542
 10
9.1600282304
 20
13.1234480977
 10
7.9954135796
 20
13.7496446043
 10
6.8334221212
 20
14.3703454809
 10
5.6740556317
 20
14.9855489488
 10
4.5173123346
 20
15.5952567868
 10
3.3632598593
 20
16.199437538
 10
2.2119267445
 20
16.7980761107
 10
1.0632844514
 20
17.3911875965
 10
-0.0826850073
 20
17.9787858134
 10
-1.2259521848
 20
18.5608567803
 10
-2.3665465278
 20
19.1374144782
 10
-3.5045743638
 20
19.708514668
 10
-4.6400367462
 20
20.2741596065
 10
-5.7729326217
 20
20.8343470369
 10
-6.9033651571
 20
21.389125949
 10
-8.0313646617
 20
21.9385122419
 10
-9.1569008264
 20
22.4824900166
 10
-10.27998589
 20
23.0210605652
 10
-11.4006474353
 20
23.5542368572
 10
-12.5188578796
 20
24.0820059231
 10
-13.6345467137
 20
24.6043301467
 10
-14.7477146272
 20
25.1212089821
 10
-15.8583609305
 20
25.6326429752
 10
-16.9664130458
 20
26.1385961474
 10
-18.071870474
 20
26.6390673686
 10
-19.1747337143
 20
27.134057769
 10
-20.2749316868
 20
27.6235347614
 10
-21.3724637726
 20
28.1074971618
 10
-22.4673305906
 20
28.5859461543
 10
-23.559462917
 20
29.0588527038
 10
-24.6488376771
 20
29.5262071319
 10
-25.7354779456
 20
29.988019117
 10
-26.8193837224
 20
30.4442886591
  0
LWPOLYLINE
  5
348
100
AcDbEntity
  8
RACCORDO
100
AcDbPolyline
 62
7
  6
CONTINUOUS
 90
43
 70
0
 10
20.9371319557
 20
6.6261396074
 10
19.7475437994
 20
7.3066032348
 10
18.5603427189
 20
7.9816975235
 10
17.3755351859
 20
8.6514199216
 10
16.193108493
 20
9.3157797524
 10
15.0130883396
 20
9.974762609
 10
13.8355384295
 20
10.6283301383
 10
12.6604648042
 20
11.2764781585
 10
11.4878735426
 20
11.9192052908
 10
10.3178276599
 20
12.556476988
 10
9.1503328724
 20
13.1882888119
 10
7.9853947745
 20
13.8146392135
 10
6.8230754462
 20
14.435497585
 10
5.6633813921
 20
15.0508586846
 10
4.5063165898
 20
15.6607213467
 10
3.3519385953
 20
16.2650607007
 10
2.2002806151
 20
16.8638581689
 10
1.051319016
 20
17.4571254765
 10
-0.094974059
 20
18.0448831337
 10
-1.2385635523
 20
18.6271141632
 10
-2.3794746256
 20
19.2038288821
 10
-3.5178244475
 20
19.7750892602
 10
-4.6536072064
 20
20.3408951919
 10
-5.7868171245
 20
20.9012409873
 10
-6.9175697858
 20
21.4561810577
 10
-8.0458881711
 20
22.0057291597
 10
-9.1717359806
 20
22.5498665879
 10
-10.2951388376
 20
23.0885995695
 10
-11.4161175905
 20
23.6219386219
 10
-12.5346376849
 20
24.1498684417
 10
-13.6506417851
 20
24.6723564487
 10
-14.7641246915
 20
25.1893992203
 10
-15.8750787877
 20
25.7009949387
 10
-16.9834438675
 20
26.2071130637
 10
-18.0892139883
 20
26.7077493763
 10
-19.1923831171
 20
27.2029024408
 10
-20.2928917021
 20
27.6925455164
 10
-21.3907341511
 20
28.1766741466
 10
-22.4859049337
 20
28.6552867284
 10
-23.5783453893
 20
29.1283604276
 10
-24.668032719
 20
29.595885401
 10
-25.754979553
 20
30.0578649965
 10
-26.8391807869
 20
30.5142959787
  0
LWPOLYLINE
  5
349
100
AcDbEntity
  8
RACCORDO
100
AcDbPolyline
 62
7
  6
CONTINUOUS
 90
49
 70
0
 10
21.6416795117
 20
7.3090332984
 10
21.6620122769
 20
7.2969644094
 10
21.68222116
 20
7.2842396986
 10
21.702306148
 20
7.2708591588
 10
21.7222867288
 20
7.2568081224
 10
21.7421433899
 20
7.2421012435
 10
21.7618176126
 20
7.2267824952
 10
21.7813078178
 20
7.2108507421
 10
21.8006155475
 20
7.194307099
 10
21.8196869531
 20
7.1771989084
 10
21.8385211449
 20
7.1595247455
 10
21.8571189663
 20
7.1412860094
 10
21.8754291589
 20
7.1225342735
 10
21.893450822
 20
7.1032682042
 10
21.9111848024
 20
7.0834891052
 10
21.9285824539
 20
7.0632525008
 10
21.9456427878
 20
7.0425571698
 10
21.962366733
 20
7.0214043004
 10
21.9787085121
 20
6.9998530279
 10
21.9946669765
 20
6.9779023594
 10
22.0102432111
 20
6.9555532527
 10
22.0253947822
 20
6.932867765
 10
22.0401204587
 20
6.9098450643
 10
22.0544214063
 20
6.8864859466
 10
22.0682587818
 20
6.8628549087
 10
22.0816312893
 20
6.838951253
 10
22.0945401597
 20
6.8147756413
 10
22.1069503358
 20
6.7903946076
 10
22.1188604369
 20
6.7658076348
 10
22.1302717812
 20
6.7410152055
 10
22.1411533582
 20
6.716085352
 10
22.1515037152
 20
6.6910177479
 10
22.1613242468
 20
6.6658126877
 10
22.170588213
 20
6.6405391341
 10
22.1792941061
 20
6.6151969529
 10
22.1874433823
 20
6.58978625
 10
22.1950137463
 20
6.5643763482
 10
22.2020036817
 20
6.5389671555
 10
22.2084146617
 20
6.5135587399
 10
22.2142288765
 20
6.488220665
 10
22.2194447426
 20
6.4629528962
 10
22.2240638097
 20
6.4377554495
 10
22.2280729701
 20
6.412697965
 10
22.2314705594
 20
6.3877797612
 10
22.2342582188
 20
6.3630015069
 10
22.2364278021
 20
6.3384348687
 10
22.2379765897
 20
6.3141037332
 10
22.2389072894
 20
6.2899842073
 10
22.2392198982
 20
6.2660762892
  0
LWPOLYLINE
  5
34A
100
AcDbEntity
  8
RACCORDO
100
AcDbPolyline
 62
7
  6
CONTINUOUS
 90
49
 70
0
 10
21.712675058
 20
7.4264535927
 10
21.7350273888
 20
7.4129505264
 10
21.757286536
 20
7.3986941069
 10
21.7794289203
 20
7.3836990517
 10
21.8014325508
 20
7.3679800633
 10
21.8232777756
 20
7.3515520964
 10
21.8449454751
 20
7.3344302705
 10
21.8664159271
 20
7.3166303472
 10
21.8876688212
 20
7.2981696698
 10
21.9086841513
 20
7.2790661828
 10
21.9294419981
 20
7.2593380448
 10
21.9499233601
 20
7.2390039913
 10
21.9701098081
 20
7.2180830297
 10
21.9899824416
 20
7.1965947676
 10
22.0095229559
 20
7.1745596758
 10
22.028713925
 20
7.1519980961
 10
22.0475373536
 20
7.1289310867
 10
22.0659759247
 20
7.1053805748
 10
22.0840132955
 20
7.0813681422
 10
22.1016324776
 20
7.0569162312
 10
22.1188173644
 20
7.0320479368
 10
22.1355529365
 20
7.0067856909
 10
22.1518233848
 20
6.9811530676
 10
22.1676138698
 20
6.9551742038
 10
22.1829107501
 20
6.928872209
 10
22.1976995287
 20
6.9022715806
 10
22.211966724
 20
6.8753973205
 10
22.2257000767
 20
6.8482731315
 10
22.2388865009
 20
6.8209242701
 10
22.2515139828
 20
6.7933763885
 10
22.2635716917
 20
6.7656536551
 10
22.275048039
 20
6.7377819449
 10
22.2859325876
 20
6.7097873092
 10
22.2962160378
 20
6.6816940997
 10
22.3058883965
 20
6.6535285967
 10
22.3149408616
 20
6.6253170811
 10
22.3233657216
 20
6.5970838752
 10
22.3311546998
 20
6.5688553139
 10
22.3383006198
 20
6.5406578169
 10
22.3447972756
 20
6.5125158393
 10
22.3506381732
 20
6.4844555027
 10
22.3558178532
 20
6.4565033886
 10
22.3603316583
 20
6.4286846982
 10
22.3641748832
 20
6.4010260986
 10
22.3673439942
 20
6.3735526915
 10
22.3698361568
 20
6.3462871811
 10
22.3716484696
 20
6.3192538585
 10
22.3727791882
 20
6.2924801906
 10
22.3732274961
 20
6.2659943975
  0
LINE
  5
34B
100
AcDbEntity
  8
RACCORDO
100
AcDbLine
 62
7
  6
CONTINUOUS
 10
21.9385830737
 20
7.7129349224
 11
22.0259179304
 21
7.6572714937
  0
LINE
  5
34C
100
AcDbEntity
  8
RACCORDO
100
AcDbLine
 62
7
  6
CONTINUOUS
 10
21.9558789385
 20
7.6632759031
 11
22.0434358246
 21
7.6072192904
  0
LINE
  5
34D
100
AcDbEntity
  8
RACCORDO
100
AcDbLine
 62
7
  6
CONTINUOUS
 10
22.7319744752
 20
6.4222384485
 11
22.7363777657
 21
6.3181465383
  0
LWPOLYLINE
  5
34E
100
AcDbEntity
  8
RACCORDO
100
AcDbPolyline
 62
7
  6
CONTINUOUS
 90
19
 70
0
 10
21.1536604045
 20
-34.2121713872
 10
21.1537302902
 20
-34.2148075541
 10
21.154206335
 20
-34.2195478556
 10
21.1551316923
 20
-34.2242715237
 10
21.1565042774
 20
-34.2289679176
 10
21.1583209984
 20
-34.2336264574
 10
21.1605777626
 20
-34.238236649
 10
21.1632694863
 20
-34.2427881068
 10
21.1663901057
 20
-34.2472705778
 10
21.169932591
 20
-34.2516739642
 10
21.1738889621
 20
-34.2559883464
 10
21.1782503063
 20
-34.2602040055
 10
21.1830067988
 20
-34.2643114448
 10
21.1881477245
 20
-34.2683014113
 10
21.1936615026
 20
-34.2721649169
 10
21.199535712
 20
-34.2758932581
 10
21.2057571198
 20
-34.2794780362
 10
21.212311711
 20
-34.2829111755
 10
21.2191847199
 20
-34.2861849424
  0
LWPOLYLINE
  5
34F
100
AcDbEntity
  8
RACCORDO
100
AcDbPolyline
 62
7
  6
CONTINUOUS
 90
19
 70
0
 10
21.1536604039
 20
5.7574393381
 10
21.1537302968
 20
5.7547960899
 10
21.1542063538
 20
5.7500557873
 10
21.1551317231
 20
5.7453321193
 10
21.15650432
 20
5.7406357269
 10
21.1583210521
 20
5.7359771897
 10
21.1605778265
 20
5.7313670021
 10
21.1632695589
 20
5.7268155495
 10
21.1663901856
 20
5.722333085
 10
21.1699326761
 20
5.7179297062
 10
21.1738890501
 20
5.7136153325
 10
21.1782503948
 20
5.7093996829
 10
21.1830068848
 20
5.705292254
 10
21.1881478051
 20
5.7013022985
 10
21.1936615744
 20
5.6974388044
 10
21.1995357714
 20
5.693710475
 10
21.2057571633
 20
5.690125709
 10
21.2123117347
 20
5.6866925817
 10
21.2191847199
 20
5.6834188267
  0
LWPOLYLINE
  5
350
100
AcDbEntity
  8
RACCORDO
100
AcDbPolyline
 62
7
  6
CONTINUOUS
 90
10
 70
0
 10
21.9385830761
 20
-36.8333444437
 10
21.9382559137
 20
-36.8172537027
 10
21.9399695704
 20
-36.8005289641
 10
21.9436722145
 20
-36.7836760884
 10
21.9492518555
 20
-36.7672048125
 10
21.95653973
 20
-36.7516133306
 10
21.9653154068
 20
-36.7373732261
 10
21.9753134548
 20
-36.724915209
 10
21.9862314706
 20
-36.7146160888
 10
21.9977392249
 20
-36.7067873762
  0
LWPOLYLINE
  5
351
100
AcDbEntity
  8
RACCORDO
100
AcDbPolyline
 62
7
  6
CONTINUOUS
 90
58
 70
0
 10
21.2191847199
 20
5.6834188267
 10
21.2188053088
 20
5.7201468253
 10
21.2179756171
 20
5.7558269489
 10
21.2166956469
 20
5.7904591986
 10
21.2149256096
 20
5.8240210855
 10
21.212705301
 20
5.8565351025
 10
21.2101540998
 20
5.888068723
 10
21.207283957
 20
5.9186158913
 10
21.2040829308
 20
5.948182668
 10
21.2006345586
 20
5.9768547004
 10
21.1969476582
 20
6.0046293022
 10
21.1930134209
 20
6.0315091645
 10
21.1888889421
 20
6.0575879995
 10
21.1845794865
 20
6.0828719257
 10
21.1800797977
 20
6.1073548292
 10
21.1754311876
 20
6.1311120721
 10
21.1706380635
 20
6.154145041
 10
21.1656960253
 20
6.1764523533
 10
21.1606331718
 20
6.1981052175
 10
21.1554536119
 20
6.219103704
 10
21.1501532432
 20
6.239447746
 10
21.1447478468
 20
6.259208345
 10
21.1392345276
 20
6.2784044525
 10
21.1336161868
 20
6.2970171205
 10
21.1279172993
 20
6.3150605006
 10
21.1221343625
 20
6.3325443634
 10
21.1162708838
 20
6.3494589411
 10
21.1103618508
 20
6.3657890768
 10
21.1044138651
 20
6.3815169445
 10
21.0984203279
 20
6.3966603718
 10
21.0923964244
 20
6.4112576813
 10
21.0863454741
 20
6.4253058124
 10
21.0802641595
 20
6.4388078268
 10
21.0741577099
 20
6.45181123
 10
21.0680201178
 20
6.4643301404
 10
21.0618573924
 20
6.4763504406
 10
21.0556927865
 20
6.4878772825
 10
21.0495259861
 20
6.4989089709
 10
21.0433573053
 20
6.509447201
 10
21.0372109379
 20
6.519502209
 10
21.0310905527
 20
6.5290672308
 10
21.0249924795
 20
6.5381490296
 10
21.0189299021
 20
6.5467781318
 10
21.0128999264
 20
6.5549577404
 10
21.0069054444
 20
6.5626846512
 10
21.000968319
 20
6.5699797797
 10
20.9950839057
 20
6.5768450082
 10
20.9892568456
 20
6.5832784526
 10
20.9835229274
 20
6.5892953781
 10
20.9778830387
 20
6.5948903666
 10
20.9723362865
 20
6.6000688332
 10
20.9669157868
 20
6.6048622913
 10
20.9616317671
 20
6.6092612874
 10
20.9564739927
 20
6.6132752712
 10
20.9514448852
 20
6.6169641099
 10
20.9465452495
 20
6.6203477583
 10
20.941774274
 20
6.6234062581
 10
20.9371319557
 20
6.6261396074
  0
LINE
  5
352
100
AcDbEntity
  8
RACCORDO
100
AcDbLine
 62
7
  6
CONTINUOUS
 10
21.1536604039
 20
-34.2121641845
 11
21.1536536427
 21
5.7627480311
  0
LINE
  5
353
100
AcDbEntity
  8
RACCORDO
100
AcDbLine
 62
7
  6
CONTINUOUS
 10
21.2191847199
 20
-34.2861849424
 11
21.2191847199
 21
5.6834188267
  0
LINE
  5
354
100
AcDbEntity
  8
RACCORDO
100
AcDbLine
 62
7
  6
CONTINUOUS
 10
22.2392198982
 20
6.2660762892
 11
22.2392198982
 21
-35.7936086415
  0
LINE
  5
355
100
AcDbEntity
  8
RACCORDO
100
AcDbLine
 62
7
  6
CONTINUOUS
 10
22.3732275978
 20
6.265994341
 11
22.3732275978
 21
-35.7936905897
  0
LINE
  5
356
100
AcDbEntity
  8
RACCORDO
100
AcDbLine
 62
7
  6
CONTINUOUS
 10
22.7034120195
 20
6.3552491315
 11
22.7034120195
 21
-36.1232471761
  0
LINE
  5
357
100
AcDbEntity
  8
RACCORDO
100
AcDbLine
 62
7
  6
CONTINUOUS
 10
22.7363777657
 20
6.3181465383
 11
22.7363777657
 21
-36.160349757
  0
LWPOLYLINE
  5
358
100
AcDbEntity
  8
RACCORDO
100
AcDbPolyline
 62
7
  6
CONTINUOUS
 90
18
 70
0
 10
21.1536604651
 20
-34.2121713872
 10
21.1535698578
 20
-34.2314542439
 10
21.1530554312
 20
-34.2617989886
 10
21.152101991
 20
-34.2914515729
 10
21.1507244417
 20
-34.3204275245
 10
21.1489380177
 20
-34.3487001301
 10
21.1467618243
 20
-34.3761991245
 10
21.1442109984
 20
-34.4029150724
 10
21.1412995227
 20
-34.4288428975
 10
21.1380489095
 20
-34.4539156643
 10
21.1344745261
 20
-34.4781227187
 10
21.1305913557
 20
-34.5014561428
 10
21.12642502
 20
-34.5238483186
 10
21.1219914561
 20
-34.545294092
 10
21.1173104106
 20
-34.5657730513
 10
21.112420858
 20
-34.5851896624
 10
21.1073555121
 20
-34.6035024674
 10
21.105316853
 20
-34.6104136946
  0
LWPOLYLINE
  5
359
100
AcDbEntity
  8
RACCORDO
100
AcDbPolyline
 62
7
  6
CONTINUOUS
 90
49
 70
0
 10
22.2392198982
 20
-35.7936086415
 10
22.2389072894
 20
-35.8172336975
 10
22.2379765897
 20
-35.8405110839
 10
22.236427802
 20
-35.8634407989
 10
22.2342582188
 20
-35.8860442759
 10
22.2314705594
 20
-35.9083000752
 10
22.2280729701
 20
-35.9301438835
 10
22.2240638097
 20
-35.9515735256
 10
22.2194447426
 20
-35.972591164
 10
22.2142288765
 20
-35.9931389908
 10
22.2084146617
 20
-36.0132155555
 10
22.2020036817
 20
-36.0328222899
 10
22.1950137463
 20
-36.0519057085
 10
22.1874433823
 20
-36.0704643682
 10
22.1792941061
 20
-36.0884996881
 10
22.170588213
 20
-36.1059624754
 10
22.1613242468
 20
-36.1228512565
 10
22.1515037152
 20
-36.1391674766
 10
22.1411533582
 20
-36.1548663211
 10
22.1302717812
 20
-36.1699461763
 10
22.1188604369
 20
-36.184408624
 10
22.1069503358
 20
-36.1982136431
 10
22.0945401597
 20
-36.2113594961
 10
22.0816312893
 20
-36.2238478862
 10
22.0682587818
 20
-36.2356439543
 10
22.0544214063
 20
-36.2467458603
 10
22.0401204587
 20
-36.2571554085
 10
22.0253947822
 20
-36.2668432092
 10
22.0102432111
 20
-36.2758073459
 10
21.9946669765
 20
-36.284049699
 10
21.9787085121
 20
-36.2915465764
 10
21.9623667331
 20
-36.2982959748
 10
21.9456427878
 20
-36.3042998623
 10
21.9285824539
 20
-36.3095405081
 10
21.9111848024
 20
-36.3140158227
 10
21.8934508221
 20
-36.3177278626
 10
21.8754291589
 20
-36.3206651196
 10
21.8571189663
 20
-36.322825469
 10
21.8385211449
 20
-36.3242110058
 10
21.8196869531
 20
-36.3248165561
 10
21.8006155475
 20
-36.3246399102
 10
21.7813078179
 20
-36.3236832523
 10
21.7618176126
 20
-36.3219480057
 10
21.7421433899
 20
-36.3194316208
 10
21.7222867288
 20
-36.3161366269
 10
21.7023061481
 20
-36.3120720721
 10
21.6822211601
 20
-36.3072409694
 10
21.6620122769
 20
-36.3016402924
 10
21.6416795117
 20
-36.295270034
  0
LWPOLYLINE
  5
35A
100
AcDbEntity
  8
RACCORDO
100
AcDbPolyline
 62
7
  6
CONTINUOUS
 90
32
 70
0
 10
22.3732274961
 20
-35.7936905333
 10
22.3727791882
 20
-35.8199563642
 10
22.3716484696
 20
-35.8458793458
 10
22.3698361568
 20
-35.8714319962
 10
22.3673439942
 20
-35.8965885353
 10
22.3641748833
 20
-35.9213271671
 10
22.3603316584
 20
-35.9456273902
 10
22.3558178534
 20
-35.9694672405
 10
22.3506381733
 20
-35.9928243156
 10
22.3447972758
 20
-36.0156773645
 10
22.33830062
 20
-36.0380046673
 10
22.3311547
 20
-36.0597859759
 10
22.3233657218
 20
-36.0810022965
 10
22.3149408618
 20
-36.101633613
 10
22.3058883968
 20
-36.1216610639
 10
22.2962160381
 20
-36.1410672596
 10
22.2859325879
 20
-36.1598337834
 10
22.2750480393
 20
-36.1779433709
 10
22.263571692
 20
-36.1953801501
 10
22.2515139832
 20
-36.2121274048
 10
22.2388865013
 20
-36.2281697123
 10
22.2257000771
 20
-36.2434928806
 10
22.2119667245
 20
-36.2580820144
 10
22.1976995292
 20
-36.2719236592
 10
22.1829107506
 20
-36.2850054926
 10
22.1676138703
 20
-36.2973145965
 10
22.1518233853
 20
-36.3088395503
 10
22.135552937
 20
-36.3195699863
 10
22.1188173649
 20
-36.329495082
 10
22.1016324782
 20
-36.3386055289
 10
22.0840132961
 20
-36.346892994
 10
22.0691926474
 20
-36.3530922836
  0
LWPOLYLINE
  5
35B
100
AcDbEntity
  8
RACCORDO
100
AcDbPolyline
 62
7
  6
CONTINUOUS
 90
3
 70
0
 10
22.7033934129
 20
-36.1232942882
 10
22.702516952
 20
-36.1673791997
 10
22.6949556511
 20
-36.2558297948
  0
LWPOLYLINE
  5
35C
100
AcDbEntity
  8
RACCORDO
100
AcDbPolyline
 62
7
  6
CONTINUOUS
 90
6
 70
0
 10
21.9385862037
 20
7.7129366482
 10
21.9382556197
 20
7.6991786797
 10
21.9399665734
 20
7.6869573015
 10
21.9436672951
 20
7.6766423053
 10
21.9492458097
 20
7.6685458002
 10
21.955811282
 20
7.6633147799
  0
LWPOLYLINE
  5
35D
100
AcDbEntity
  8
0
100
AcDbPolyline
 62
7
  6
CONTINUOUS
 90
26
 70
0
 10
-0.9205790424
 20
-24.1211016534
 10
-0.9172902522
 20
-24.1194132578
 10
-0.9100452715
 20
-24.1153239317
 10
-0.90296229
 20
-24.1108179364
 10
-0.8960249986
 20
-24.1059317757
 10
-0.8892216284
 20
-24.100663708
 10
-0.8825639482
 20
-24.0950154748
 10
-0.8760709554
 20
-24.0890288049
 10
-0.8697513425
 20
-24.0827222548
 10
-0.863596417
 20
-24.0760772679
 10
-0.8575990984
 20
-24.0690799026
 10
-0.8517568002
 20
-24.0617303552
 10
-0.8460721089
 20
-24.0540284295
 10
-0.8405457038
 20
-24.0459595953
 10
-0.8351728429
 20
-24.0375002037
 10
-0.8299582681
 20
-24.0286739037
 10
-0.8249168847
 20
-24.0195371122
 10
-0.8200458727
 20
-24.0100676569
 10
-0.8153480521
 20
-24.0002877101
 10
-0.8108467874
 20
-23.9903202059
 10
-0.8065484478
 20
-23.9801614946
 10
-0.8024466641
 20
-23.9698152259
 10
-0.7985456927
 20
-23.9594152828
 10
-0.7948469526
 20
-23.9490062928
 10
-0.7913490248
 20
-23.9385436283
 10
-0.7880519094
 20
-23.9280272893
  0
LINE
  5
35E
100
AcDbEntity
  8
0
100
AcDbLine
 62
7
  6
CONTINUOUS
 10
-3.3736181983
 20
-23.2070361684
 11
-3.2955975974
 21
-23.1680258679
  0
LINE
  5
35F
100
AcDbEntity
  8
0
100
AcDbLine
 62
7
  6
CONTINUOUS
 10
-2.9186349329
 20
-22.9923353174
 11
-2.840614332
 21
-22.953325017
  0
LINE
  5
360
100
AcDbEntity
  8
0
100
AcDbLine
 62
7
  6
CONTINUOUS
 10
-4.2808004583
 20
-23.7107291916
 11
-4.2027798574
 21
-23.6717188912
  0
LINE
  5
361
100
AcDbEntity
  8
0
100
AcDbLine
 62
7
  6
CONTINUOUS
 10
-3.6576696784
 20
-24.0222945815
 11
-3.5829343167
 21
-23.9849269007
  0
LINE
  5
362
100
AcDbEntity
  8
0
100
AcDbLine
 62
7
  6
CONTINUOUS
 10
-1.9952606557
 20
-23.2926804687
 11
-1.9172400548
 21
-23.2536701682
  0
LINE
  5
363
100
AcDbEntity
  8
0
100
AcDbLine
 62
7
  6
CONTINUOUS
 10
-3.2499603937
 20
-24.2261492239
 11
-3.1719397928
 21
-24.1871389235
  0
LINE
  5
364
100
AcDbEntity
  8
0
100
AcDbLine
 62
7
  6
CONTINUOUS
 10
-2.9483581383
 20
-24.3769503516
 11
-2.8703375374
 21
-24.3379400512
  0
LINE
  5
365
100
AcDbEntity
  8
0
100
AcDbLine
 62
7
  6
CONTINUOUS
 10
-2.4937978418
 20
-24.1745778959
 11
-2.4157772409
 21
-24.1355675954
  0
LINE
  5
366
100
AcDbEntity
  8
0
100
AcDbLine
 62
7
  6
CONTINUOUS
 10
-1.0755202843
 20
-23.5278315208
 11
-0.9974996834
 21
-23.4888212204
  0
LINE
  5
367
100
AcDbEntity
  8
0
100
AcDbLine
 62
7
  6
CONTINUOUS
 10
-2.0934288091
 20
-24.0422995554
 11
-2.0154082082
 21
-24.003289255
  0
LINE
  5
368
100
AcDbEntity
  8
0
100
AcDbLine
 62
7
  6
CONTINUOUS
 10
-0.8639124204
 20
-23.6209650163
 11
-0.7858918195
 21
-23.5819547159
  0
LINE
  5
369
100
AcDbEntity
  8
0
100
AcDbLine
 62
7
  6
CONTINUOUS
 10
-2.1320130212
 20
-24.3554703062
 11
-2.0539924203
 21
-24.3164600057
  0
LINE
  5
36A
100
AcDbEntity
  8
0
100
AcDbLine
 62
7
  6
CONTINUOUS
 10
-0.7880519363
 20
-23.92802737
 11
-0.7100313355
 21
-23.8890170696
  0
LINE
  5
36B
100
AcDbEntity
  8
0
100
AcDbLine
 62
7
  6
CONTINUOUS
 10
-0.9205773835
 20
-24.1211078124
 11
-0.8425567827
 21
-24.0820975119
  0
LINE
  5
36C
100
AcDbEntity
  8
0
100
AcDbLine
 62
7
  6
CONTINUOUS
 10
-2.1816698326
 20
-24.7602945044
 11
-2.1036492317
 21
-24.721284204
  0
LINE
  5
36D
100
AcDbEntity
  8
0
100
AcDbLine
 62
7
  6
CONTINUOUS
 10
-1.3268241418
 20
-24.3454716656
 11
-1.2488035409
 21
-24.3064613652
  0
LINE
  5
36E
100
AcDbEntity
  8
0
100
AcDbLine
 62
7
  6
CONTINUOUS
 10
-1.1843835492
 20
-24.4166919619
 11
-1.1063629484
 21
-24.3776816614
  0
LINE
  5
36F
100
AcDbEntity
  8
0
100
AcDbLine
 62
7
  6
CONTINUOUS
 10
-0.8601346305
 20
-24.4037244471
 11
-0.7821140296
 21
-24.3647141466
  0
LINE
  5
370
100
AcDbEntity
  8
0
100
AcDbLine
 62
7
  6
CONTINUOUS
 10
-1.8236645421
 20
-24.9392972812
 11
-1.7456439412
 21
-24.9002869808
  0
LINE
  5
371
100
AcDbEntity
  8
0
100
AcDbLine
 62
7
  6
CONTINUOUS
 10
-1.088451496
 20
-24.6541261659
 11
-1.0104308951
 21
-24.6151158655
  0
LINE
  5
372
100
AcDbEntity
  8
0
100
AcDbLine
 62
7
  6
CONTINUOUS
 10
-1.1522516024
 20
-25.2750037511
 11
-1.0742310015
 21
-25.2359934506
  0
LWPOLYLINE
  5
373
100
AcDbEntity
  8
0
100
AcDbPolyline
 62
7
  6
CONTINUOUS
 90
16
 70
0
 10
-0.7934852113
 20
-24.3839192634
 10
-0.7956514678
 20
-24.3849921134
 10
-0.7992581837
 20
-24.3867240007
 10
-0.8027684944
 20
-24.3883409669
 10
-0.8061873519
 20
-24.389856241
 10
-0.8095147475
 20
-24.3912685054
 10
-0.8127506899
 20
-24.3925790777
 10
-0.8159001563
 20
-24.3938051398
 10
-0.8189625043
 20
-24.3949459499
 10
-0.8219383763
 20
-24.3960022499
 10
-0.8248346771
 20
-24.3969934467
 10
-0.8276509069
 20
-24.3979207615
 10
-0.8303875654
 20
-24.3987829732
 10
-0.8330530563
 20
-24.3995958255
 10
-0.8356467644
 20
-24.400362203
 10
-0.8381693049
 20
-24.4010792212
  0
LWPOLYLINE
  5
374
100
AcDbEntity
  8
RACCORDO
100
AcDbPolyline
 62
7
  6
CONTINUOUS
 90
58
 70
0
 10
-26.8193836096
 20
30.4442884284
 10
-26.8213993612
 20
30.4449272559
 10
-26.8234260806
 20
30.4453815259
 10
-26.8254660236
 20
30.4456477782
 10
-26.827527335
 20
30.4457360344
 10
-26.8296062366
 20
30.4456289878
 10
-26.8316871422
 20
30.4452818511
 10
-26.8337761452
 20
30.4446884892
 10
-26.8358715462
 20
30.4438464211
 10
-26.8379454638
 20
30.4427167856
 10
-26.839996961
 20
30.4412926977
 10
-26.8420294066
 20
30.4395735429
 10
-26.8440201218
 20
30.4375312541
 10
-26.845966589
 20
30.4351619884
 10
-26.8478720135
 20
30.432463228
 10
-26.849721464
 20
30.4294098226
 10
-26.8515134043
 20
30.4259996824
 10
-26.8532489923
 20
30.4222288339
 10
-26.8549170143
 20
30.4180694577
 10
-26.8565174966
 20
30.4135140529
 10
-26.858049332
 20
30.4085636012
 10
-26.8594992338
 20
30.4032033163
 10
-26.8608645816
 20
30.3974305476
 10
-26.8621455457
 20
30.3912423894
 10
-26.863332567
 20
30.3846242289
 10
-26.8644228267
 20
30.3775817315
 10
-26.8654156125
 20
30.3701042087
 10
-26.8663044439
 20
30.3621519088
 10
-26.8670883155
 20
30.3537178306
 10
-26.8677640679
 20
30.3448022465
 10
-26.8683219251
 20
30.3353752522
 10
-26.8687588422
 20
30.3254233066
 10
-26.8690723591
 20
30.3149527568
 10
-26.8692532075
 20
30.3039637301
 10
-26.8692969465
 20
30.2924624478
 10
-26.8692008775
 20
30.2804371807
 10
-26.8689579244
 20
30.2678612257
 10
-26.8685644645
 20
30.254743038
 10
-26.8680153562
 20
30.2410682857
 10
-26.8673006074
 20
30.2267744562
 10
-26.8664152513
 20
30.2118581379
 10
-26.8653529632
 20
30.1963148335
 10
-26.8641005576
 20
30.1800780075
 10
-26.8626510142
 20
30.1631463943
 10
-26.8609963949
 20
30.1455119305
 10
-26.8591202946
 20
30.1270953502
 10
-26.8570130158
 20
30.1078976956
 10
-26.8546639611
 20
30.0879071867
 10
-26.8520523493
 20
30.0670221913
 10
-26.8491630671
 20
30.0452375572
 10
-26.8459827845
 20
30.0225460603
 10
-26.8424886114
 20
29.9988393005
 10
-26.8386582748
 20
29.9741126876
 10
-26.8344737793
 20
29.9483578184
 10
-26.8299111886
 20
29.9214565397
 10
-26.8249416087
 20
29.8933640057
 10
-26.8195346793
 20
29.8641121488
 10
-26.813657677
 20
29.8336972031
  0
LINE
  5
375
100
AcDbEntity
  8
RACCORDO
100
AcDbLine
 62
7
  6
CONTINUOUS
 10
-27.6916434965
 20
32.516297616
 11
-27.6131687169
 21
32.4888108157
  0
LINE
  5
376
100
AcDbEntity
  8
RACCORDO
100
AcDbLine
 62
7
  6
CONTINUOUS
 10
-27.6365875882
 20
32.4513283696
 11
-27.5776130908
 21
32.430058464
  0
LINE
  5
377
100
AcDbEntity
  8
RACCORDO
100
AcDbLine
 62
7
  6
CONTINUOUS
 10
-27.5775940019
 20
32.4301045245
 11
-27.5774887085
 21
32.4300605551
  0
LWPOLYLINE
  5
378
100
AcDbEntity
  8
RACCORDO
100
AcDbPolyline
 62
7
  6
CONTINUOUS
 90
43
 70
0
 10
-27.6131687169
 20
32.4888108157
 10
-26.1021608824
 20
31.8537839556
 10
-24.6297619842
 20
31.2288843005
 10
-23.1964255853
 20
30.6139183065
 10
-21.8040286623
 20
30.0083618642
 10
-20.4515639458
 20
29.4123620661
 10
-19.1350969191
 20
28.8267573955
 10
-17.8554395759
 20
28.2518219166
 10
-16.6124826585
 20
27.6869702878
 10
-15.4008064539
 20
27.1317978205
 10
-14.2160477418
 20
26.584104007
 10
-13.0630917365
 20
26.045854916
 10
-11.9503914351
 20
25.5228934704
 10
-10.8836867289
 20
25.0177012159
 10
-9.8578615926
 20
24.5275057628
 10
-8.8650737611
 20
24.0502731042
 10
-7.908698265
 20
23.5877359919
 10
-6.9858025848
 20
23.1379526576
 10
-6.0789192702
 20
22.6934563893
 10
-5.1881540984
 20
22.2545572208
 10
-4.3136001293
 20
21.8208525322
 10
-3.4375745022
 20
21.3839032307
 10
-2.5600782293
 20
20.944038726
 10
-1.6811162084
 20
20.5009319681
 10
-0.7828251061
 20
20.0452523265
 10
0.1348826957
 20
19.5774043591
 10
1.0721033477
 20
19.0970822176
 10
2.0469061467
 20
18.5939878163
 10
3.0627143173
 20
18.0668840873
 10
4.1165212023
 20
17.5172286034
 10
5.2169094993
 20
16.9388472083
 10
6.3697565864
 20
16.3290157469
 10
7.5697651494
 20
15.6907694557
 10
8.8087643408
 20
15.0265792365
 10
10.0821638961
 20
14.3392156823
 10
11.3950225334
 20
13.6261689455
 10
12.7536386083
 20
12.8819893539
 10
14.1587882447
 20
12.1068190022
 10
15.6103165705
 20
11.3008664279
 10
17.1132170548
 20
10.4588331376
 10
18.669418602
 20
9.5791048527
 10
20.2777451232
 20
8.6637299819
 10
21.9385830737
 20
7.7129349224
  0
LWPOLYLINE
  5
379
100
AcDbEntity
  8
RACCORDO
100
AcDbPolyline
 62
7
  6
CONTINUOUS
 90
12
 70
0
 10
-27.5774887085
 20
32.4300605551
 10
-23.7799942043
 20
30.8224579014
 10
-19.7875348269
 20
29.0750539461
 10
-15.7546973477
 20
27.2522015978
 10
-11.682877425
 20
25.3546057783
 10
-7.5735334085
 20
23.3830107936
 10
-3.4281648942
 20
21.3381057721
 10
0.7516841469
 20
19.2205886441
 10
4.9644249969
 20
17.0313237966
 10
9.2084248919
 20
14.7711853734
 10
13.4820023037
 20
12.4409954848
 10
17.7834487665
 20
10.0415973076
  0
LWPOLYLINE
  5
37A
100
AcDbEntity
  8
RACCORDO
100
AcDbPolyline
 62
7
  6
CONTINUOUS
 90
4
 70
0
 10
22.0259179304
 20
7.6572714937
 10
22.1100068106
 20
7.5939577706
 10
22.1908483016
 20
7.5229929755
 10
22.2691637709
 20
7.4435376295
  0
LWPOLYLINE
  5
37B
100
AcDbEntity
  8
RACCORDO
100
AcDbPolyline
 62
7
  6
CONTINUOUS
 90
3
 70
0
 10
22.0434358246
 20
7.6072192904
 10
22.1258541274
 20
7.5437537929
 10
22.2059790555
 20
7.4713660729
  0
LWPOLYLINE
  5
37C
100
AcDbEntity
  8
RACCORDO
100
AcDbPolyline
 62
7
  6
CONTINUOUS
 90
10
 70
0
 10
22.2059790555
 20
7.4713660729
 10
22.2828157149
 20
7.3908310184
 10
22.3554352325
 20
7.3030500855
 10
22.4229711883
 20
7.2090712149
 10
22.4846156881
 20
7.1099351094
 10
22.5396455073
 20
7.0067603819
 10
22.587456257
 20
6.9007954886
 10
22.6274945212
 20
6.7933110624
 10
22.6593188004
 20
6.6855640324
 10
22.6826671601
 20
6.5787903719
  0
LWPOLYLINE
  5
37D
100
AcDbEntity
  8
RACCORDO
100
AcDbPolyline
 62
7
  6
CONTINUOUS
 90
9
 70
0
 10
22.2691637709
 20
7.4435376295
 10
22.3442293763
 20
7.3564298483
 10
22.4138751411
 20
7.2641848307
 10
22.4779203844
 20
7.1666807704
 10
22.5365420151
 20
7.0640373908
 10
22.5881053476
 20
6.9591315806
 10
22.6324170017
 20
6.8518010018
 10
22.6696668494
 20
6.7422060527
 10
22.6987947773
 20
6.6337075565
  0
LWPOLYLINE
  5
37E
100
AcDbEntity
  8
RACCORDO
100
AcDbPolyline
 62
7
  6
CONTINUOUS
 90
27
 70
0
 10
21.0350543215
 20
6.4248971716
 10
21.0331157769
 20
6.4291667907
 10
21.0285501634
 20
6.4390203194
 10
21.0240424463
 20
6.4484680603
 10
21.0196017781
 20
6.4574987279
 10
21.0152290289
 20
6.4661203032
 10
21.0109287045
 20
6.474332204
 10
21.0067047344
 20
6.4821354311
 10
21.0025576304
 20
6.4895408331
 10
20.9984944511
 20
6.4965443334
 10
20.9945169577
 20
6.5031515396
 10
20.9906178617
 20
6.5093881303
 10
20.9867993682
 20
6.5152576219
 10
20.9830672702
 20
6.5207583798
 10
20.9794197744
 20
6.5259086622
 10
20.9758590668
 20
6.5307114369
 10
20.9723909838
 20
6.5351665041
 10
20.9690201306
 20
6.5392883134
 10
20.9657525612
 20
6.5430757685
 10
20.9625910948
 20
6.5465343979
 10
20.9595366917
 20
6.5496898594
 10
20.9565997689
 20
6.5525390572
 10
20.9537791762
 20
6.555091013
 10
20.9510587638
 20
6.5573900459
 10
20.9484356468
 20
6.5594527199
 10
20.9459203461
 20
6.5612679653
 10
20.9435164198
 20
6.5628385166
  0
LINE
  5
37F
100
AcDbEntity
  8
RACCORDO
100
AcDbLine
 62
7
  6
CONTINUOUS
 10
21.1058755732
 20
6.202980503
 11
20.9435163578
 21
6.562838654
  0
LWPOLYLINE
  5
380
100
AcDbEntity
  8
RACCORDO
100
AcDbPolyline
 62
7
  6
CONTINUOUS
 90
45
 70
0
 10
21.0350543215
 20
6.4248971716
 10
21.0358391779
 20
6.4231523628
 10
21.0412247598
 20
6.4108422671
 10
21.0464744244
 20
6.3982586577
 10
21.0515970721
 20
6.3854005821
 10
21.0565766357
 20
6.372328119
 10
21.0614152897
 20
6.3590549874
 10
21.0661136315
 20
6.345599964
 10
21.0706716047
 20
6.3319826275
 10
21.075091532
 20
6.3182130823
 10
21.0793739357
 20
6.3043074702
 10
21.0835213315
 20
6.29027536
 10
21.0875388321
 20
6.2761138388
 10
21.0914270091
 20
6.261834591
 10
21.0951880735
 20
6.2474436657
 10
21.0988286107
 20
6.2329275567
 10
21.1023502438
 20
6.2182884774
 10
21.1057525597
 20
6.2035370914
 10
21.1090381195
 20
6.1886712044
 10
21.1122077
 20
6.173694522
 10
21.1152612147
 20
6.15861358
 10
21.118199634
 20
6.1434296895
 10
21.1210223733
 20
6.1281520891
 10
21.123730581
 20
6.1127800478
 10
21.1263271791
 20
6.0972995111
 10
21.1288116516
 20
6.0817145475
 10
21.1311835638
 20
6.0660286676
 10
21.1334450275
 20
6.0502267132
 10
21.135594875
 20
6.0343125763
 10
21.1376319173
 20
6.018289633
 10
21.1395571727
 20
6.0021419483
 10
21.1413690157
 20
5.9858722425
 10
21.1430655629
 20
5.9694849965
 10
21.1446464084
 20
5.9529671771
 10
21.1461091546
 20
5.9363223059
 10
21.1474512837
 20
5.9195548969
 10
21.1486713216
 20
5.9026537124
 10
21.1497662848
 20
5.885623356
 10
21.1507330634
 20
5.8684680307
 10
21.1515691066
 20
5.8511763202
 10
21.1522706624
 20
5.8337535129
 10
21.1528339042
 20
5.8162046322
 10
21.1532552099
 20
5.7985184291
 10
21.1535300991
 20
5.78069541
 10
21.1536536427
 20
5.7627480311
  0
LWPOLYLINE
  5
381
100
AcDbEntity
  8
RACCORDO
100
AcDbPolyline
 62
7
  6
CONTINUOUS
 90
10
 70
0
 10
20.9435155582
 20
6.5628391087
 10
20.9415430158
 20
6.5687719794
 10
20.9398796921
 20
6.5750169404
 10
20.9385295392
 20
6.5815591538
 10
20.937495765
 20
6.5883830754
 10
20.9367808257
 20
6.5954724919
 10
20.9363864199
 20
6.6028105588
 10
20.9363134849
 20
6.6103798411
 10
20.9365621938
 20
6.6181623543
 10
20.9371319558
 20
6.6261396075
  0
LWPOLYLINE
  5
382
100
AcDbEntity
  8
RACCORDO
100
AcDbPolyline
 62
7
  6
CONTINUOUS
 90
3
 70
0
 10
22.6987947773
 20
6.6337075565
 10
22.7194466384
 20
6.5274253583
 10
22.7319744752
 20
6.4222384485
  0
LWPOLYLINE
  5
383
100
AcDbEntity
  8
RACCORDO
100
AcDbPolyline
 62
7
  6
CONTINUOUS
 90
4
 70
0
 10
22.6826671601
 20
6.5787903719
 10
22.6973308657
 20
6.4742767674
 10
22.7032258836
 20
6.3732992389
 10
22.7033668902
 20
6.3553428696
  0
LWPOLYLINE
  5
384
100
AcDbEntity
  8
RACCORDO
100
AcDbPolyline
 62
7
  6
CONTINUOUS
 90
9
 70
0
 10
29.63725075
 20
-58.0848525852
 10
29.6420089775
 20
-58.1805003415
 10
29.6561967275
 20
-58.2692178186
 10
29.6795871811
 20
-58.3495866994
 10
29.7118063971
 20
-58.420322135
 10
29.7523392901
 20
-58.4802932857
 10
29.8005378653
 20
-58.5285413992
 10
29.8556315772
 20
-58.5642951382
 10
29.8693894202
 20
-58.5707756334
  0
LINE
  5
385
100
AcDbEntity
  8
RACCORDO
100
AcDbLine
 62
7
  6
CONTINUOUS
 10
22.7363777657
 20
-36.160349757
 11
22.7318141506
 21
-36.2612393364
  0
LINE
  5
386
100
AcDbEntity
  8
RACCORDO
100
AcDbLine
 62
7
  6
CONTINUOUS
 10
22.7318141506
 20
-36.2612393364
 11
22.7191276836
 21
-36.3556562791
  0
LWPOLYLINE
  5
387
100
AcDbEntity
  8
RACCORDO
100
AcDbPolyline
 62
7
  6
CONTINUOUS
 90
10
 70
0
 10
20.9435155294
 20
-34.8894624324
 10
20.9415429915
 20
-34.898906663
 10
20.9398796755
 20
-34.9083501088
 10
20.9385295335
 20
-34.9177703322
 10
20.9374957735
 20
-34.9271449509
 10
20.9367808516
 20
-34.9364516907
 10
20.9363864665
 20
-34.945668439
 10
20.9363135553
 20
-34.9547732967
 10
20.9365622914
 20
-34.9637446309
 10
20.9371320837
 20
-34.9725611256
  0
LINE
  5
388
100
AcDbEntity
  8
DRAFT
100
AcDbLine
 62
7
  6
CONTINUOUS
 10
20.7515935355
 20
-30.8421230897
 11
20.6695014359
 21
-31.1763044368
  0
LWPOLYLINE
  5
389
100
AcDbEntity
  8
DRAFT
100
AcDbPolyline
 62
7
  6
CONTINUOUS
 90
16
 70
0
 10
20.6695014359
 20
-31.1763044368
 10
20.667203608
 20
-31.1848008981
 10
20.6645765557
 20
-31.1929657296
 10
20.6616202788
 20
-31.2007989314
 10
20.6583279054
 20
-31.2083141344
 10
20.6547063074
 20
-31.2154977076
 10
20.6507761013
 20
-31.2223087578
 10
20.6465355269
 20
-31.2287451604
 10
20.6419863443
 20
-31.2348090399
 10
20.6371544502
 20
-31.2404658771
 10
20.6320382322
 20
-31.2457133505
 10
20.6266393027
 20
-31.2505537816
 10
20.6209883957
 20
-31.2549596158
 10
20.615084074
 20
-31.2589283743
 10
20.6089277748
 20
-31.2624625359
 10
20.6071863661
 20
-31.2633600482
  0
LINE
  5
38A
100
AcDbEntity
  8
0
100
AcDbLine
 62
7
  6
CONTINUOUS
 10
15.407994324
 20
-28.8256993928
 11
15.5033454976
 21
-28.6612429452
  0
LINE
  5
38B
100
AcDbEntity
  8
0
100
AcDbLine
 62
7
  6
CONTINUOUS
 10
15.7615477146
 20
-28.6489226975
 11
15.8568988882
 21
-28.4844662499
  0
LINE
  5
38C
100
AcDbEntity
  8
0
100
AcDbLine
 62
7
  6
CONTINUOUS
 10
16.1151011052
 20
-28.4721460022
 11
16.2104522788
 21
-28.3076895546
  0
LWPOLYLINE
  5
38D
100
AcDbEntity
  8
RACCORDO
100
AcDbPolyline
 62
7
  6
CONTINUOUS
 90
7
 70
0
 10
-35.1495223589
 20
53.6666000776
 10
-35.2162870904
 20
53.7096370765
 10
-35.2721638252
 20
53.7563918971
 10
-35.3163339854
 20
53.8061795949
 10
-35.3481504911
 20
53.8582707946
 10
-35.36714724
 20
53.9119023757
 10
-35.373064243
 20
53.9634183792
  0
LWPOLYLINE
  5
38E
100
AcDbEntity
  8
RACCORDO
100
AcDbPolyline
 62
7
  6
CONTINUOUS
 90
19
 70
0
 10
31.5856920855
 20
20.9007372883
 10
31.5775212256
 20
21.0450425266
 10
31.5591643229
 20
21.1930734332
 10
31.5307409261
 20
21.3436275976
 10
31.4926141591
 20
21.4954074033
 10
31.4450952191
 20
21.6474399428
 10
31.3883407152
 20
21.7990659062
 10
31.3226859611
 20
21.9493725559
 10
31.2486989284
 20
22.0969846921
 10
31.1669560274
 20
22.2405367746
 10
31.0781355852
 20
22.3788654208
 10
30.9829314165
 20
22.5110491955
 10
30.8819917604
 20
22.636093253
 10
30.7760840767
 20
22.7530311644
 10
30.6660307828
 20
22.8610105087
 10
30.5525760694
 20
22.959205651
 10
30.4365452358
 20
23.0468351763
 10
30.3188968245
 20
23.1232437137
 10
30.2006714582
 20
23.1879078539
  0
LWPOLYLINE
  5
38F
100
AcDbEntity
  8
RACCORDO
100
AcDbPolyline
 62
7
  6
CONTINUOUS
 90
19
 70
0
 10
30.3899007694
 20
20.8968885135
 10
30.3869308555
 20
20.9738948316
 10
30.3784813494
 20
21.0516819804
 10
30.364552479
 20
21.1302500897
 10
30.344985787
 20
21.2101798483
 10
30.3199406421
 20
21.2908910866
 10
30.2898941741
 20
21.3706427395
 10
30.2547034703
 20
21.449478925
 10
30.2145130648
 20
21.5273564483
 10
30.1702312046
 20
21.6024032444
 10
30.1217564662
 20
21.6745314178
 10
30.0691921594
 20
21.7438299372
 10
30.013753263
 20
21.8086918239
 10
29.9553254831
 20
21.8690250821
 10
29.8940247522
 20
21.9249226387
 10
29.831410668
 20
21.975054489
 10
29.7680031609
 20
22.0189773341
 10
29.7032830149
 20
22.0571348774
 10
29.6372506524
 20
22.0895273578
  0
LINE
  5
390
100
AcDbEntity
  8
RACCORDO
100
AcDbLine
 62
7
  6
CONTINUOUS
 10
30.3899007694
 20
-57.553651674
 11
30.3899007694
 21
20.8968885135
  0
LINE
  5
391
100
AcDbEntity
  8
RACCORDO
100
AcDbLine
 62
7
  6
CONTINUOUS
 10
31.585754919
 20
-57.5498377875
 11
31.585754919
 21
20.9007023999
  0
LWPOLYLINE
  5
392
100
AcDbEntity
  8
RACCORDO
100
AcDbPolyline
 62
7
  6
CONTINUOUS
 90
13
 70
0
 10
29.6372507174
 20
22.0895273948
 10
29.6420054193
 20
22.1905825498
 10
29.6561902758
 20
22.2954229212
 10
29.679578502
 20
22.402372338
 10
29.7117961703
 20
22.5097209103
 10
29.7523281902
 20
22.6157523665
 10
29.8005265423
 20
22.7187714927
 10
29.8556206388
 20
22.8171312361
 10
29.9167296446
 20
22.9092590369
 10
29.9828765599
 20
22.9936819701
 10
30.0530038389
 20
23.0690502953
 10
30.1259902975
 20
23.1341590362
 10
30.2006690402
 20
23.1879672446
  0
LWPOLYLINE
  5
393
100
AcDbEntity
  8
RACCORDO
100
AcDbPolyline
 62
7
  6
CONTINUOUS
 90
4
 70
0
 10
22.6949556511
 20
-36.2558297948
 10
22.6798901703
 20
-36.3385430265
 10
22.6576780372
 20
-36.4147069751
 10
22.6287262252
 20
-36.4835612445
  0
LINE
  5
394
100
AcDbEntity
  8
RACCORDO
100
AcDbLine
 62
7
  6
CONTINUOUS
 10
22.7191276836
 20
-36.3556562791
 11
22.6983188932
 21
-36.4436002925
  0
LINE
  5
395
100
AcDbEntity
  8
RACCORDO
100
AcDbLine
 62
7
  6
CONTINUOUS
 10
20.9435163562
 20
-34.8894627112
 11
21.1536604039
 21
-34.1903031158
  0
LINE
  5
396
100
AcDbEntity
  8
RACCORDO
100
AcDbLine
 62
7
  6
CONTINUOUS
 10
21.1052411892
 20
-34.6106647116
 11
21.1053168919
 21
-34.6104128448
  0
LINE
  5
397
100
AcDbEntity
  8
0
100
AcDbLine
 62
7
  6
CONTINUOUS
 10
16.4686544958
 20
-28.2953693069
 11
16.5640056694
 21
-28.1309128594
  0
LINE
  5
398
100
AcDbEntity
  8
0
100
AcDbLine
 62
7
  6
CONTINUOUS
 10
16.8222078864
 20
-28.1185926116
 11
16.91755906
 21
-27.9541361641
  0
LINE
  5
399
100
AcDbEntity
  8
0
100
AcDbLine
 62
7
  6
CONTINUOUS
 10
19.286366777
 20
-30.7887234127
 11
19.3924327941
 21
-30.6057865935
  0
LINE
  5
39A
100
AcDbEntity
  8
0
100
AcDbLine
 62
7
  6
CONTINUOUS
 10
19.6399201675
 20
-30.6119467174
 11
19.7459861847
 21
-30.4290098982
  0
LINE
  5
39B
100
AcDbEntity
  8
0
100
AcDbLine
 62
7
  6
CONTINUOUS
 10
19.9934735581
 20
-30.4351700221
 11
20.0995395753
 21
-30.2522332029
  0
LINE
  5
39C
100
AcDbEntity
  8
0
100
AcDbLine
 62
7
  6
CONTINUOUS
 10
20.3470269487
 20
-30.2583933268
 11
20.4530929659
 21
-30.0754565076
  0
LINE
  5
39D
100
AcDbEntity
  8
DRAFT
100
AcDbLine
 62
7
  6
CONTINUOUS
 10
35.3730460489
 20
-12.7332294147
 11
34.6589053233
 21
-13.2012797008
  0
LINE
  5
39E
100
AcDbEntity
  8
0
100
AcDbLine
 62
7
  6
CONTINUOUS
 10
15.15346376
 20
-28.836183814
 11
15.2912134632
 21
-28.7673089624
  0
LINE
  5
39F
100
AcDbEntity
  8
0
100
AcDbLine
 62
7
  6
CONTINUOUS
 10
15.5033454976
 20
-28.6612429452
 11
15.6447668538
 21
-28.5905322671
  0
LINE
  5
3A0
100
AcDbEntity
  8
0
100
AcDbLine
 62
7
  6
CONTINUOUS
 10
15.8568988882
 20
-28.4844662499
 11
15.9983202444
 21
-28.4137555718
  0
LINE
  5
3A1
100
AcDbEntity
  8
0
100
AcDbLine
 62
7
  6
CONTINUOUS
 10
16.2104522788
 20
-28.3076895546
 11
16.351873635
 21
-28.2369788765
  0
LINE
  5
3A2
100
AcDbEntity
  8
0
100
AcDbLine
 62
7
  6
CONTINUOUS
 10
16.5640056694
 20
-28.1309128594
 11
16.7054270256
 21
-28.0602021812
  0
LINE
  5
3A3
100
AcDbEntity
  8
0
100
AcDbLine
 62
7
  6
CONTINUOUS
 10
16.91755906
 20
-27.9541361641
 11
17.0589804162
 21
-27.8834254859
  0
LINE
  5
3A4
100
AcDbEntity
  8
0
100
AcDbLine
 62
7
  6
CONTINUOUS
 10
16.9808581589
 20
-27.8682021507
 11
15.0005646856
 21
-28.7597342768
  0
LINE
  5
3A5
100
AcDbEntity
  8
0
100
AcDbLine
 62
7
  6
CONTINUOUS
 10
16.9982532013
 20
-27.8617416042
 11
16.9886474729
 21
-27.8649327573
  0
LWPOLYLINE
  5
3A6
100
AcDbEntity
  8
RACCORDO
100
AcDbPolyline
 62
7
  6
CONTINUOUS
 90
13
 70
0
 10
30.3899007694
 20
20.8968885135
 10
30.475970029
 20
20.8635079787
 10
30.5694751993
 20
20.8355705543
 10
30.6690467779
 20
20.8134856541
 10
30.7732263515
 20
20.7975769769
 10
30.8804878806
 20
20.7880777668
 10
30.9892600452
 20
20.7851273757
 10
31.0979494372
 20
20.7887692121
 10
31.2049636964
 20
20.7989501125
 10
31.3087347765
 20
20.8155210708
 10
31.4077422365
 20
20.8382394387
 10
31.5005355013
 20
20.8667725176
 10
31.5857549178
 20
20.9007023971
  0
LWPOLYLINE
  5
3A7
100
AcDbEntity
  8
RACCORDO
100
AcDbPolyline
 62
7
  6
CONTINUOUS
 90
13
 70
0
 10
29.6372506524
 20
22.0895273578
 10
23.9874900402
 20
24.6024345907
 10
18.3911641823
 20
27.1452818501
 10
12.8489109562
 20
29.7177863286
 10
7.3612836441
 20
32.3196988507
 10
1.9289883744
 20
34.9506936154
 10
-3.4471239979
 20
37.6103640738
 10
-8.7664473126
 20
40.2984116203
 10
-14.0283816793
 20
43.0145318124
 10
-19.2321099791
 20
45.7582971813
 10
-24.3769792939
 20
48.5293539713
 10
-29.4624926551
 20
51.3274262033
 10
-34.4880844811
 20
54.1521949246
  0
LWPOLYLINE
  5
3A8
100
AcDbEntity
  8
RACCORDO
100
AcDbPolyline
 62
7
  6
CONTINUOUS
 90
19
 70
0
 10
-34.4880844811
 20
54.1521949246
 10
-34.5461896462
 20
54.1818712047
 10
-34.603126088
 20
54.2045419535
 10
-34.6588942849
 20
54.22020696
 10
-34.7139515682
 20
54.2289107951
 10
-34.7678414153
 20
54.2306085307
 10
-34.8191940425
 20
54.2251654784
 10
-34.8679092604
 20
54.2123806498
 10
-34.9140891202
 20
54.192454214
 10
-34.9566680196
 20
54.1658528587
 10
-34.9955572065
 20
54.132391583
 10
-35.030847579
 20
54.0922544446
 10
-35.0617434299
 20
54.0464615346
 10
-35.0881196387
 20
53.9949212235
 10
-35.1101031723
 20
53.9377243302
 10
-35.127276514
 20
53.8761645921
 10
-35.1395008625
 20
53.8106730924
 10
-35.1469160576
 20
53.7408182922
 10
-35.1495223589
 20
53.6666000776
  0
LINE
  5
3A9
100
AcDbEntity
  8
RACCORDO
100
AcDbLine
 62
7
  6
CONTINUOUS
 10
34.6589053233
 20
22.4710399461
 11
34.6589053233
 21
-56.3530982809
  0
LINE
  5
3AA
100
AcDbEntity
  8
DRAFT
100
AcDbLine
 62
7
  6
CONTINUOUS
 10
35.3730460489
 20
-18.8846944201
 11
35.3730460489
 21
-55.3517185737
  0
LINE
  5
3AB
100
AcDbEntity
  8
DRAFT
100
AcDbLine
 62
7
  6
CONTINUOUS
 10
35.3730460489
 20
-12.7332294147
 11
35.3730460489
 21
23.8101465613
  0
LWPOLYLINE
  5
3AC
100
AcDbEntity
  8
DRAFT
100
AcDbPolyline
 62
7
  6
CONTINUOUS
 90
30
 70
0
 10
35.3730460489
 20
-55.3517185737
 10
35.3726674551
 20
-55.3798648337
 10
35.371532079
 20
-55.4076023602
 10
35.3696411365
 20
-55.434901451
 10
35.3669966524
 20
-55.4617328738
 10
35.3636014585
 20
-55.4880678966
 10
35.3594591904
 20
-55.5138783193
 10
35.3545742838
 20
-55.5391365035
 10
35.3489519697
 20
-55.5638154021
 10
35.3425982683
 20
-55.5878885882
 10
35.3355199836
 20
-55.6113302838
 10
35.3277246951
 20
-55.6341153868
 10
35.3192207502
 20
-55.6562194984
 10
35.3100172551
 20
-55.6776189489
 10
35.3001240652
 20
-55.6982908233
 10
35.2895517743
 20
-55.7182129857
 10
35.2783117035
 20
-55.7373641028
 10
35.2664158889
 20
-55.7557236673
 10
35.253877069
 20
-55.7732720191
 10
35.2407086705
 20
-55.7899903671
 10
35.2269247946
 20
-55.8058608089
 10
35.2125402013
 20
-55.8208663499
 10
35.197570294
 20
-55.834990922
 10
35.1820311029
 20
-55.8482194001
 10
35.1659392678
 20
-55.8605376188
 10
35.1493120201
 20
-55.8719323875
 10
35.1321671648
 20
-55.8823915045
 10
35.1145230609
 20
-55.8919037697
 10
35.0963986023
 20
-55.9004589973
 10
35.0905494819
 20
-55.9029724556
  0
LWPOLYLINE
  5
3AD
100
AcDbEntity
  8
RACCORDO
100
AcDbPolyline
 62
7
  6
CONTINUOUS
 90
12
 70
0
 10
34.6589053233
 20
-56.3530983644
 10
34.6538590125
 20
-56.4924586366
 10
34.638070524
 20
-56.6251160727
 10
34.611540693
 20
-56.7510701949
 10
34.573757578
 20
-56.871723479
 10
34.5252365779
 20
-56.9856714724
 10
34.4675200254
 20
-57.0887030264
 10
34.4006016275
 20
-57.1798101305
 10
34.3244933329
 20
-57.2599975644
 10
34.240764511
 20
-57.3280735527
 10
34.1494178733
 20
-57.3839855529
 10
34.0671625117
 20
-57.4214661407
  0
LINE
  5
3AE
100
AcDbEntity
  8
RACCORDO
100
AcDbLine
 62
7
  6
CONTINUOUS
 10
22.6983188932
 20
-36.4436002925
 11
22.6690334495
 21
-36.5258026006
  0
LWPOLYLINE
  5
3AF
100
AcDbEntity
  8
RACCORDO
100
AcDbPolyline
 62
7
  6
CONTINUOUS
 90
6
 70
0
 10
22.6690334495
 20
-36.5258026006
 10
22.6316277999
 20
-36.6015308077
 10
22.5871689431
 20
-36.6685890234
 10
22.5354665207
 20
-36.726707589
 10
22.4767144056
 20
-36.77615422
 10
22.4125556307
 20
-36.8155392605
  0
LINE
  5
3B0
100
AcDbEntity
  8
0
100
AcDbLine
 62
7
  6
CONTINUOUS
 10
20.7005803393
 20
-30.0816166315
 11
20.8066463565
 21
-29.8986798123
  0
LINE
  5
3B1
100
AcDbEntity
  8
0
100
AcDbLine
 62
7
  6
CONTINUOUS
 10
20.9834230518
 20
-30.7239924552
 11
21.1536604039
 21
-30.6006138073
  0
LINE
  5
3B2
100
AcDbEntity
  8
0
100
AcDbLine
 62
7
  6
CONTINUOUS
 10
21.1536604039
 20
-30.04394719
 11
19.4552577522
 21
-30.9870808101
  0
LINE
  5
3B3
100
AcDbEntity
  8
0
100
AcDbLine
 62
7
  6
CONTINUOUS
 10
20.9834230518
 20
-30.7239924552
 11
19.9659770149
 21
-31.2424404415
  0
LINE
  5
3B4
100
AcDbEntity
  8
DRAFT
100
AcDbLine
 62
7
  6
CONTINUOUS
 10
20.3083280345
 20
-31.4136159512
 11
20.6071919445
 21
-31.263358336
  0
LINE
  5
3B5
100
AcDbEntity
  8
DRAFT
100
AcDbLine
 62
7
  6
CONTINUOUS
 10
20.6695014359
 20
-31.1763044368
 11
20.2525384226
 21
-31.3857211453
  0
LINE
  5
3B6
100
AcDbEntity
  8
0
100
AcDbLine
 62
7
  6
CONTINUOUS
 10
19.0425510566
 20
-30.7807274623
 11
19.1803007598
 21
-30.7118526107
  0
LINE
  5
3B7
100
AcDbEntity
  8
0
100
AcDbLine
 62
7
  6
CONTINUOUS
 10
19.3924327941
 20
-30.6057865935
 11
19.5338541504
 21
-30.5350759154
  0
LINE
  5
3B8
100
AcDbEntity
  8
0
100
AcDbLine
 62
7
  6
CONTINUOUS
 10
19.7459861847
 20
-30.4290098982
 11
19.887407541
 21
-30.3582992201
  0
LINE
  5
3B9
100
AcDbEntity
  8
0
100
AcDbLine
 62
7
  6
CONTINUOUS
 10
20.0995395753
 20
-30.2522332029
 11
20.2409609316
 21
-30.1815225248
  0
LINE
  5
3BA
100
AcDbEntity
  8
0
100
AcDbLine
 62
7
  6
CONTINUOUS
 10
20.4530929659
 20
-30.0754565076
 11
20.5945143221
 21
-30.0047458295
  0
LINE
  5
3BB
100
AcDbEntity
  8
0
100
AcDbLine
 62
7
  6
CONTINUOUS
 10
20.8066463565
 20
-29.8986798123
 11
20.9480677127
 21
-29.8279691342
  0
LINE
  5
3BC
100
AcDbEntity
  8
0
100
AcDbLine
 62
7
  6
CONTINUOUS
 10
21.0541337299
 20
-29.9048399362
 11
19.1724548671
 21
-30.8456793676
  0
LINE
  5
3BD
100
AcDbEntity
  8
0
100
AcDbLine
 62
7
  6
CONTINUOUS
 10
21.1536604039
 20
-30.5510758659
 11
19.8661421217
 21
-31.1925229949
  0
LWPOLYLINE
  5
3BE
100
AcDbEntity
  8
RACCORDO
100
AcDbPolyline
 62
7
  6
CONTINUOUS
 90
4
 70
0
 10
-27.9110652052
 20
32.5345226935
 10
-27.8402359878
 20
32.5392167487
 10
-27.7673321029
 20
32.5330998135
 10
-27.6916434965
 20
32.516297616
  0
LWPOLYLINE
  5
3BF
100
AcDbEntity
  8
RACCORDO
100
AcDbPolyline
 62
7
  6
CONTINUOUS
 90
13
 70
0
 10
30.2006690402
 20
23.1879672446
 10
24.5577766885
 20
25.6978455096
 10
18.9681369827
 20
28.2376707446
 10
13.4324702169
 20
30.8071269879
 10
7.9513973013
 20
33.4059412997
 10
2.5256185017
 20
36.0337869406
 10
-2.8440339003
 20
38.6902634209
 10
-8.1569681328
 20
41.3750804076
 10
-13.4126025411
 20
44.0879415074
 10
-18.6101347197
 20
46.8284297957
 10
-23.7489096767
 20
49.5961943886
 10
-28.8283784431
 20
52.3909233009
 10
-33.8479052926
 20
55.2122544094
  0
LWPOLYLINE
  5
3C0
100
AcDbEntity
  8
RACCORDO
100
AcDbPolyline
 62
7
  6
CONTINUOUS
 90
10
 70
0
 10
-33.8479025256
 20
55.212194855
 10
-33.9638961572
 20
55.2646402282
 10
-34.0786304795
 20
55.3044230722
 10
-34.1911916361
 20
55.3310895653
 10
-34.300810729
 20
55.344431361
 10
-34.4066954372
 20
55.3444210639
 10
-34.507984123
 20
55.3310813932
 10
-34.6039396713
 20
55.3044849989
 10
-34.6939149817
 20
55.2648910204
 10
-34.7341889591
 20
55.2417239599
  0
LWPOLYLINE
  5
3C1
100
AcDbEntity
  8
RACCORDO
100
AcDbPolyline
 62
7
  6
CONTINUOUS
 90
19
 70
0
 10
33.2288387771
 20
24.7352987588
 10
33.3530669825
 20
24.6747873961
 10
33.4753797476
 20
24.6028518561
 10
33.5957758889
 20
24.5194914714
 10
33.7156261702
 20
24.4235034126
 10
33.8335580496
 20
24.3160895084
 10
33.9454530259
 20
24.2008547342
 10
34.0504573064
 20
24.0781955879
 10
34.1494178733
 20
23.9477116955
 10
34.240764511
 20
23.8118110813
 10
34.3244933329
 20
23.6704414274
 10
34.4006016275
 20
23.5236512885
 10
34.4675200254
 20
23.3739994721
 10
34.5252365779
 20
23.2204855247
 10
34.573757578
 20
23.064106669
 10
34.611540693
 20
22.9104180399
 10
34.638070524
 20
22.7612706126
 10
34.6538590125
 20
22.6148114351
 10
34.6589053233
 20
22.4710400296
  0
LWPOLYLINE
  5
3C2
100
AcDbEntity
  8
RACCORDO
100
AcDbPolyline
 62
7
  6
CONTINUOUS
 90
13
 70
0
 10
-31.1213696254
 20
56.91040296
 10
-26.0810016903
 20
54.0737251422
 10
-20.9800526488
 20
51.264250874
 10
-15.8191097228
 20
48.4823035882
 10
-10.5987669796
 20
45.7282028792
 10
-5.3196254461
 20
43.0022664755
 10
0.0177069541
 20
40.3048101997
 10
5.4126157771
 20
37.6361458631
 10
10.8644799561
 20
34.9965794097
 10
16.3726716794
 20
32.3864128849
 10
21.936556768
 20
29.8059461633
 10
27.5554947557
 20
27.2554769175
 10
33.2288387771
 20
24.7352987588
  0
LWPOLYLINE
  5
3C3
100
AcDbEntity
  8
RACCORDO
100
AcDbPolyline
 62
7
  6
CONTINUOUS
 90
6
 70
0
 10
22.6287262252
 20
-36.4835612445
 10
22.5935846763
 20
-36.5445293912
 10
22.5529736776
 20
-36.5970889238
 10
22.5073339644
 20
-36.6411467415
 10
22.456656025
 20
-36.6769538988
 10
22.4356102357
 20
-36.6886532443
  0
LWPOLYLINE
  5
3C4
100
AcDbEntity
  8
RACCORDO
100
AcDbPolyline
 62
7
  6
CONTINUOUS
 90
25
 70
0
 10
22.3732275978
 20
-35.7936905897
 10
22.3685580213
 20
-35.7956669296
 10
22.3636554762
 20
-35.7974967978
 10
22.358538312
 20
-35.7991733454
 10
22.3532256815
 20
-35.8006902974
 10
22.3477374694
 20
-35.802041976
 10
22.3420942171
 20
-35.8032233221
 10
22.3363170468
 20
-35.804229914
 10
22.3304275815
 20
-35.8050579843
 10
22.3244478648
 20
-35.8057044337
 10
22.3184002779
 20
-35.8061668425
 10
22.3123074562
 20
-35.8064434801
 10
22.3061922043
 20
-35.8065333112
 10
22.3000774106
 20
-35.8064359995
 10
22.293985962
 20
-35.8061519092
 10
22.2879406581
 20
-35.8056821038
 10
22.2819641254
 20
-35.8050283417
 10
22.2760787332
 20
-35.8041930699
 10
22.2703065098
 20
-35.8031794148
 10
22.2646690597
 20
-35.8019911702
 10
22.259187483
 20
-35.8006327838
 10
22.2538822964
 20
-35.7991093398
 10
22.2487733565
 20
-35.7974265403
 10
22.2438797851
 20
-35.7955906837
 10
22.2392198982
 20
-35.7936086415
  0
LINE
  5
3C5
100
AcDbEntity
  8
RACCORDO
100
AcDbLine
 62
7
  6
CONTINUOUS
 10
22.7034120195
 20
-35.6631369398
 11
22.3732275978
 21
-35.7936905897
  0
LINE
  5
3C6
100
AcDbEntity
  8
RACCORDO
100
AcDbLine
 62
7
  6
CONTINUOUS
 10
22.0691618568
 20
-36.3531045605
 11
22.7034120195
 21
-36.1023234593
  0
LINE
  5
3C7
100
AcDbEntity
  8
DRAFT
100
AcDbLine
 62
7
  6
CONTINUOUS
 10
-29.6807778202
 20
56.849530509
 11
34.6659392678
 21
24.6761719651
  0
LWPOLYLINE
  5
3C8
100
AcDbEntity
  8
DRAFT
100
AcDbPolyline
 62
7
  6
CONTINUOUS
 90
8
 70
0
 10
34.6659392678
 20
24.6761719651
 10
34.6890751531
 20
24.6641403415
 10
34.7121862639
 20
24.6511942401
 10
34.7352478524
 20
24.6373475237
 10
34.7582352234
 20
24.6226150199
 10
34.7811237616
 20
24.6070125044
 10
34.8038889574
 20
24.5905566849
 10
34.807360624
 20
24.5879640206
  0
LINE
  5
3C9
100
AcDbEntity
  8
SMUSSO
100
AcDbLine
 62
7
  6
CONTINUOUS
 10
34.807360624
 20
24.5879640206
 11
35.0902033365
 21
24.3758319862
  0
LWPOLYLINE
  5
3CA
100
AcDbEntity
  8
SMUSSO
100
AcDbPolyline
 62
7
  6
CONTINUOUS
 90
33
 70
0
 10
35.0902053233
 20
24.3758274948
 10
35.0960247739
 20
24.3714008768
 10
35.1109990093
 20
24.359428233
 10
35.1257982859
 20
24.3467433652
 10
35.140423596
 20
24.3333503127
 10
35.1547916834
 20
24.3193253167
 10
35.1689010811
 20
24.3046647729
 10
35.1827532562
 20
24.2893722856
 10
35.1962693536
 20
24.2735349089
 10
35.2094474568
 20
24.2571495351
 10
35.2222894823
 20
24.2402192718
 10
35.2347223256
 20
24.2228404964
 10
35.2467436531
 20
24.2050106507
 10
35.2583557985
 20
24.1867322929
 10
35.2694926584
 20
24.1681094744
 10
35.280151522
 20
24.1491402306
 10
35.2903351001
 20
24.1298265261
 10
35.2999854218
 20
24.1102783061
 10
35.3090994454
 20
24.0904942331
 10
35.3176802125
 20
24.0704756446
 10
35.3256788762
 20
24.0503364986
 10
35.3330921164
 20
24.0300761074
 10
35.3399232532
 20
24.0096951587
 10
35.3461333996
 20
23.989309673
 10
35.3517190138
 20
23.9689196245
 10
35.3566836376
 20
23.9485250391
 10
35.3609990093
 20
23.9282420151
 10
35.364661426
 20
23.9080711888
 10
35.3676745908
 20
23.8880119238
 10
35.3700213507
 20
23.8681784096
 10
35.3716959882
 20
23.8486087093
 10
35.372704221
 20
23.8292647599
 10
35.3730460489
 20
23.8101465613
  0
LWPOLYLINE
  5
3CB
100
AcDbEntity
  8
DRAFT
100
AcDbPolyline
 62
7
  6
CONTINUOUS
 90
43
 70
0
 10
34.807360624
 20
24.5879640206
 10
34.8265064332
 20
24.5732651828
 10
34.8489519697
 20
24.5551565141
 10
34.8712015315
 20
24.53625007
 10
34.8932312934
 20
24.5165660962
 10
34.9150176653
 20
24.4961256706
 10
34.9365373178
 20
24.4749506814
 10
34.9577672072
 20
24.4530638033
 10
34.9786845999
 20
24.4304884734
 10
34.999267097
 20
24.4072488657
 10
35.0194926584
 20
24.383369866
 10
35.0393396259
 20
24.3588770444
 10
35.058786747
 20
24.3337966284
 10
35.0778131971
 20
24.3081554748
 10
35.0963986023
 20
24.2819810409
 10
35.1145230609
 20
24.2553013547
 10
35.1321671648
 20
24.2281449856
 10
35.1493120201
 20
24.2005410134
 10
35.1659392678
 20
24.172518997
 10
35.1820311029
 20
24.1441089431
 10
35.197570294
 20
24.1153412739
 10
35.2125402013
 20
24.0862467946
 10
35.2269247946
 20
24.0568566602
 10
35.2407086705
 20
24.0272023425
 10
35.253877069
 20
23.9973155961
 10
35.2664158889
 20
23.9672284243
 10
35.2783117035
 20
23.9369730453
 10
35.2895517743
 20
23.9065818574
 10
35.3001240652
 20
23.8760874041
 10
35.3100172551
 20
23.8455223397
 10
35.3192207502
 20
23.8149193941
 10
35.3277246951
 20
23.7843113376
 10
35.3355199836
 20
23.7537309461
 10
35.3425982683
 20
23.7232109658
 10
35.3489519697
 20
23.6927840784
 10
35.3545742838
 20
23.6624828656
 10
35.3594591904
 20
23.6323397748
 10
35.3636014585
 20
23.602387084
 10
35.3669966524
 20
23.5726568673
 10
35.3696411365
 20
23.5431809604
 10
35.371532079
 20
23.513990927
 10
35.3726674551
 20
23.4851180245
 10
35.3730460489
 20
23.4565931707
  0
LINE
  5
3CC
100
AcDbEntity
  8
RACCORDO
100
AcDbLine
 62
7
  6
CONTINUOUS
 10
22.629309757
 20
-36.3792942074
 11
21.9977392251
 21
-36.7067873781
  0
LINE
  5
3CD
100
AcDbEntity
  8
RACCORDO
100
AcDbLine
 62
7
  6
CONTINUOUS
 10
22.4361050773
 20
-36.688396856
 11
22.4356633442
 21
-36.6886256697
  0
LWPOLYLINE
  5
3CE
100
AcDbEntity
  8
RACCORDO
100
AcDbPolyline
 62
7
  6
CONTINUOUS
 90
7
 70
0
 10
22.4356633442
 20
-36.6886256697
 10
22.3702827826
 20
-36.7163135789
 10
22.3017111319
 20
-36.7338426807
 10
22.2294670023
 20
-36.7416592821
 10
22.1542638603
 20
-36.7397360244
 10
22.0767681366
 20
-36.7280525328
 10
21.9977339731
 20
-36.7067284387
  0
LWPOLYLINE
  5
3CF
100
AcDbEntity
  8
RACCORDO
100
AcDbPolyline
 62
7
  6
CONTINUOUS
 90
7
 70
0
 10
22.4125556307
 20
-36.8155392605
 10
22.3427557195
 20
-36.8445612875
 10
22.2675529297
 20
-36.8635196362
 10
22.189298226
 20
-36.8719264351
 10
22.1087756921
 20
-36.869618825
 10
22.0252035351
 20
-36.8567584036
 10
21.9385830737
 20
-36.833344445
  0
LWPOLYLINE
  5
3D0
100
AcDbEntity
  8
RACCORDO
100
AcDbPolyline
 62
7
  6
CONTINUOUS
 90
12
 70
0
 10
30.999929934
 20
-58.6158192811
 10
31.0781352858
 20
-58.58002167
 10
31.1669557195
 20
-58.524974822
 10
31.2486986216
 20
-58.4573860101
 10
31.3226856655
 20
-58.3778526447
 10
31.3883404403
 20
-58.2871582216
 10
31.4450949737
 20
-58.1861591804
 10
31.4926139502
 20
-58.0755050778
 10
31.5307407594
 20
-57.9557173548
 10
31.5591642035
 20
-57.8274971261
 10
31.5775211579
 20
-57.6918263434
 10
31.5856920766
 20
-57.5498028896
  0
LINE
  5
3D1
100
AcDbEntity
  8
DRAFT
100
AcDbLine
 62
7
  6
CONTINUOUS
 10
35.3730460489
 20
-55.3517185737
 11
34.6589053233
 21
-55.6732261725
  0
LINE
  5
3D2
100
AcDbEntity
  8
DRAFT
100
AcDbLine
 62
7
  6
CONTINUOUS
 10
35.0905494819
 20
-55.9029724556
 11
34.6589053233
 21
-56.0841466482
  0
LINE
  5
3D3
100
AcDbEntity
  8
RACCORDO
100
AcDbLine
 62
7
  6
CONTINUOUS
 10
34.6589053233
 20
-56.3530982809
 11
31.585754919
 21
-57.5498377875
  0
LINE
  5
3D4
100
AcDbEntity
  8
RACCORDO
100
AcDbLine
 62
7
  6
CONTINUOUS
 10
30.9991832979
 20
-58.6161106214
 11
34.0671522399
 21
-57.4214452081
  0
ELLIPSE
  5
3D5
100
AcDbEntity
  8
0
100
AcDbEllipse
 62
7
  6
CONTINUOUS
 10
-14.8389469945
 20
-12.1315046547
 30
0.0
 11
0.0974129977
 21
0.1748074534
 31
0.0
 40
0.6437101552
 41
0.6611775963
 42
0.7135374739
  0
ELLIPSE
  5
3D6
100
AcDbEntity
  8
0
100
AcDbEllipse
 62
7
  6
CONTINUOUS
 10
16.9808581589
 20
-28.0414072314
 30
0.0
 11
0.0974129977
 21
0.1748074534
 31
0.0
 40
0.6437101552
 41
0.6611775963
 42
0.7135374739
  0
ELLIPSE
  5
3D7
100
AcDbEntity
  8
RACCORDO
100
AcDbEllipse
 62
7
  6
CONTINUOUS
 10
-24.818373342
 20
-8.676822485
 30
0.0
 11
-0.0893486075
 21
0.1789386858
 31
0.0
 40
0.6140178746
 41
0.8880524522
 42
2.4561097232
  0
ELLIPSE
  5
3D8
100
AcDbEntity
  8
0
100
AcDbEllipse
 62
7
  6
CONTINUOUS
 10
-10.581483149
 20
-14.2602365775
 30
0.0
 11
0.0823576675
 21
0.1823694112
 31
0.0
 40
0.5796795686
 41
0.6094740628
 42
0.6618339404
  0
ELLIPSE
  5
3D9
100
AcDbEntity
  8
0
100
AcDbEllipse
 62
7
  6
CONTINUOUS
 10
-10.7230985842
 20
-14.7016295772
 30
0.0
 11
0.1997674032
 21
0.1243735635
 31
0.0
 40
0.0775313764
 41
5.4495541764
 42
6.9679906257
  0
ENDSEC
  0
SECTION
  2
OBJECTS
  0
DICTIONARY
  5
C
100
AcDbDictionary
280
0
281
1
  3
ACAD_GROUP
350
D
  3
ACAD_MLINESTYLE
350
17
  3
ACAD_LAYOUT
350
1A
  3
ACAD_PLOTSETTINGS
350
19
  3
ACAD_PLOTSTYLENAME
350
E
  0
DICTIONARY
  5
D
102
{ACAD_REACTORS
330
C
102
}
100
AcDbDictionary
280
0
281
1
  0
ACDBDICTIONARYWDFLT
  5
E
102
{ACAD_REACTORS
330
C
102
}
100
AcDbDictionary
281
1
  3
Normal
350
F
100
AcDbDictionaryWithDefault
340
F
  0
DICTIONARY
  5
17
102
{ACAD_REACTORS
330
C
102
}
100
AcDbDictionary
280
0
281
1
  3
Standard
350
18
  0
DICTIONARY
  5
19
102
{ACAD_REACTORS
330
C
102
}
100
AcDbDictionary
281
1
  0
DICTIONARY
  5
1A
102
{ACAD_REACTORS
330
C
102
}
100
AcDbDictionary
281
1
  3
Model
350
3DA
  3
Layout1
350
3DB
  0
ACDBPLACEHOLDER
  5
F
102
{ACAD_REACTORS
330
E
102
}
  0
MLINESTYLE
  5
18
102
{ACAD_REACTORS
330
17
102
}
100
AcDbMlineStyle
  2
STANDARD
 70
0
  3

 62
256
 51
90.0
 52
90.0
 71
2
 49
0.5
 62
256
  6
BYLAYER
 49
-0.5
 62
256
  6
BYLAYER
  0
LAYOUT
  5
3DA
102
{ACAD_REACTORS
330
1A
102
}
100
AcDbPlotSettings
  1

  2
none_device
  4
ISO_A4_(297.00_x_210.00_MM)
  6

 40
0.0
 41
0.0
 42
0.0
 43
0.0
 44
297.0
 45
210.0
 46
0.0
 47
0.0
 48
0.0
 49
0.0
140
0.0
141
0.0
142
1.0
143
1.0
 70
1024
 72
1
 73
0
 74
0
  7

 75
0
147
1.0
148
0.0
149
0.0
100
AcDbLayout
  1
Model
 70
0
 71
0
 10
0.0
 20
0.0
 11
297.0
 21
210.0
 12
0.0
 22
0.0
 32
0.0
 14
0.0
 24
0.0
 34
0.0
 15
0.0
 25
0.0
 35
0.0
146
0.0
 13
0.0
 23
0.0
 33
0.0
 16
1.0
 26
0.0
 36
0.0
 17
0.0
 27
1.0
 37
0.0
 76
0
330
215
345
0
346
0
  0
LAYOUT
  5
3DB
102
{ACAD_REACTORS
330
1A
102
}
100
AcDbPlotSettings
  1

  2
none_device
  4
ISO_A4_(297.00_x_210.00_MM)
  6

 40
0.0
 41
0.0
 42
0.0
 43
0.0
 44
297.0
 45
210.0
 46
0.0
 47
0.0
 48
0.0
 49
0.0
140
0.0
141
0.0
142
1.0
143
1.0
 70
0
 72
1
 73
0
 74
0
  7

 75
0
147
1.0
148
0.0
149
0.0
100
AcDbLayout
  1
Layout1
 70
0
 71
1
 10
0.0
 20
0.0
 11
297.0
 21
210.0
 12
0.0
 22
0.0
 32
0.0
 14
0.0
 24
0.0
 34
0.0
 15
0.0
 25
0.0
 35
0.0
146
0.0
 13
0.0
 23
0.0
 33
0.0
 16
1.0
 26
0.0
 36
0.0
 17
0.0
 27
1.0
 37
0.0
 76
0
330
216
345
0
346
0
  0
ENDSEC
  0
EOF
