  0
SECTION
  2
HEADER
  9
$ACADVER
  1
AC1015
  9
$DWGCODEPAGE
  3
ANSI_1252
  9
$EXTMAX
 10
297.0
 20
210.0
 30
0.0
  9
$EXTMIN
 10
0.0
 20
0.0
 30
0.0
  9
$LIMMIN
 10
0.0
 20
0.0
  9
$LIMMAX
 10
297.0
 20
210.0
  9
$VIEWCTR
 10
148.5
 20
105.0
  9
$VIEWSIZE
 40
210.0
  9
$CLAYER
  8
0
  9
$LTSCALE
 40
16.335
  9
$CELTYPE
  6
BYLAYER
  9
$DIMSCALE
 40
1.0
  9
$DIMASZ
 40
3.0
  9
$DIMEXO
 40
0.5
  9
$DIMDLI
 40
11.286
  9
$DIMEXE
 40
1.5
  9
$DIMCEN
 40
2.673
  9
$DIMLFAC
 40
1.0
  9
$DIMBLK
  1
_FILLED
  9
$DIMTXT
 40
3.0
  9
$DIMTOL
 70
1
  9
$DIMLIM
 70
0
  9
$DIMTFAC
 40
1.0
  9
$DIMTP
 40
0.01
  9
$DIMTM
 40
0.01
  9
$DIMGAP
 40
0.625
  9
$DIMDSEP
 70
44
  9
$PDMODE
 70
3
  9
$PDSIZE
 40
3.0
  9
$HANDSEED
  5
42D
  9
$TILEMODE
 70
1
  9
$MEASUREMENT
 70
1
  9
$INSUNITS
 70
4
  0
ENDSEC
  0
SECTION
  2
CLASSES
  0
CLASS
  1
ACDBDICTIONARYWDFLT
  2
AcDbDictionaryWithDefault
  3
AutoCAD 2000
 90
0
280
0
281
0
  0
CLASS
  1
ACDBPLACEHOLDER
  2
AcDbPlaceHolder
  3
AutoCAD 2000
 90
0
280
0
281
0
  0
CLASS
  1
LAYOUT
  2
AcDbLayout
  3
AutoCAD 2000
 90
0
280
0
281
0
  0
ENDSEC
  0
SECTION
  2
TABLES
  0
TABLE
  2
VPORT
  5
8
100
AcDbSymbolTable
 70
2
  0
VPORT
  5
1F4
100
AcDbSymbolTableRecord
100
AcDbViewportTableRecord
  2
*ACTIVE
 70
0
 10
0.0
 20
0.0
 11
1.0
 21
1.0
 12
148.5
 22
105.0
 13
0.0
 23
0.0
 14
1.0
 24
1.0
 15
0.0
 25
0.0
 16
0.0
 26
0.0
 36
1.0
 17
0.0
 27
0.0
 37
0.0
 40
210.0
 41
1.4142857143
 42
50.0
 43
0.0
 44
0.0
 50
0.0
 51
0.0
 71
0
 72
100
 73
1
 74
1
 75
0
 76
0
 77
0
 78
0
  0
ENDTAB
  0
TABLE
  2
LTYPE
  5
5
100
AcDbSymbolTable
 70
6
  0
LTYPE
  5
14
100
AcDbSymbolTableRecord
100
AcDbLinetypeTableRecord
  2
BYBLOCK
 70
0
  3

 72
65
 73
0
 40
0.0
  0
LTYPE
  5
15
100
AcDbSymbolTableRecord
100
AcDbLinetypeTableRecord
  2
BYLAYER
 70
0
  3

 72
65
 73
0
 40
0.0
  0
LTYPE
  5
16
100
AcDbSymbolTableRecord
100
AcDbLinetypeTableRecord
  2
CONTINUOUS
 70
64
  3
Solid line
 72
65
 73
0
 40
0.0
  0
LTYPE
  5
1F5
100
AcDbSymbolTableRecord
100
AcDbLinetypeTableRecord
  2
CENTER
 70
64
  3
____ _ ____ _ ____ _ ____ _ ____ _ ____ _ ____
 72
65
 73
4
 40
0.6
 49
0.375
 74
0
 49
-0.075
 74
0
 49
0.075
 74
0
 49
-0.075
 74
0
  0
LTYPE
  5
1F6
100
AcDbSymbolTableRecord
100
AcDbLinetypeTableRecord
  2
HIDDEN
 70
64
  3
- - - - - - - - - - - - - - - - - - - -
 72
65
 73
2
 40
0.2
 49
0.1
 74
0
 49
-0.1
 74
0
  0
LTYPE
  5
1F7
100
AcDbSymbolTableRecord
100
AcDbLinetypeTableRecord
  2
PHANTOM
 70
64
  3
_____ _ _ _____ _ _ _____ _ _ _____
 72
65
 73
6
 40
0.8
 49
0.45
 74
0
 49
-0.05
 74
0
 49
0.1
 74
0
 49
-0.05
 74
0
 49
0.1
 74
0
 49
-0.05
 74
0
  0
LTYPE
  5
1F8
100
AcDbSymbolTableRecord
100
AcDbLinetypeTableRecord
  2
DOT
 70
64
  3
. . . . . . . . . . . . . . . . . . . .
 72
65
 73
2
 40
0.2
 49
0.1
 74
0
 49
-0.1
 74
0
  0
LTYPE
  5
1F9
100
AcDbSymbolTableRecord
100
AcDbLinetypeTableRecord
  2
DASHED
 70
64
  3
- - - - - - - - - - - - - - - - - - - -
 72
65
 73
2
 40
0.2
 49
0.1
 74
0
 49
-0.1
 74
0
  0
ENDTAB
  0
TABLE
  2
LAYER
  5
2
100
AcDbSymbolTable
 70
36
  0
LAYER
  5
10
100
AcDbSymbolTableRecord
100
AcDbLayerTableRecord
  2
0
 70
0
 62
7
  6
CONTINUOUS
370
-3
390
F
  0
LAYER
  5
1FA
100
AcDbSymbolTableRecord
100
AcDbLayerTableRecord
  2
DEFAULT_1
 70
0
 62
7
  6
CENTER
370
-3
390
F
  0
LAYER
  5
1FB
100
AcDbSymbolTableRecord
100
AcDbLayerTableRecord
  2
DEFAULT_2
 70
0
 62
7
  6
HIDDEN
370
-3
390
F
  0
LAYER
  5
1FC
100
AcDbSymbolTableRecord
100
AcDbLayerTableRecord
  2
DEFAULT_3
 70
0
 62
7
  6
PHANTOM
370
-3
390
F
  0
LAYER
  5
1FD
100
AcDbSymbolTableRecord
100
AcDbLayerTableRecord
  2
ASSI
 70
0
 62
7
  6
CONTINUOUS
370
-3
390
F
  0
LAYER
  5
1FE
100
AcDbSymbolTableRecord
100
AcDbLayerTableRecord
  2
COORDINATE
 70
0
 62
7
  6
CONTINUOUS
370
-3
390
F
  0
LAYER
  5
1FF
100
AcDbSymbolTableRecord
100
AcDbLayerTableRecord
  2
COORD_ORIGINE
 70
0
 62
7
  6
CONTINUOUS
370
-3
390
F
  0
LAYER
  5
200
100
AcDbSymbolTableRecord
100
AcDbLayerTableRecord
  2
COPY_DENTI
 70
0
 62
7
  6
CONTINUOUS
370
-3
390
F
  0
LAYER
  5
201
100
AcDbSymbolTableRecord
100
AcDbLayerTableRecord
  2
COPY_PLACCA
 70
0
 62
7
  6
CONTINUOUS
370
-3
390
F
  0
LAYER
  5
202
100
AcDbSymbolTableRecord
100
AcDbLayerTableRecord
  2
COPY_PUBLISH
 70
0
 62
7
  6
CONTINUOUS
370
-3
390
F
  0
LAYER
  5
203
100
AcDbSymbolTableRecord
100
AcDbLayerTableRecord
  2
COPY_SUPP
 70
0
 62
7
  6
CONTINUOUS
370
-3
390
F
  0
LAYER
  5
204
100
AcDbSymbolTableRecord
100
AcDbLayerTableRecord
  2
COSMETIC
 70
0
 62
7
  6
CONTINUOUS
370
-3
390
F
  0
LAYER
  5
205
100
AcDbSymbolTableRecord
100
AcDbLayerTableRecord
  2
CURVE
 70
0
 62
7
  6
CONTINUOUS
370
-3
390
F
  0
LAYER
  5
206
100
AcDbSymbolTableRecord
100
AcDbLayerTableRecord
  2
DRAFT
 70
0
 62
7
  6
CONTINUOUS
370
-3
390
F
  0
LAYER
  5
207
100
AcDbSymbolTableRecord
100
AcDbLayerTableRecord
  2
IMPORT_IGES
 70
0
 62
7
  6
CONTINUOUS
370
-3
390
F
  0
LAYER
  5
208
100
AcDbSymbolTableRecord
100
AcDbLayerTableRecord
  2
NOTE
 70
0
 62
7
  6
CONTINUOUS
370
-3
390
F
  0
LAYER
  5
209
100
AcDbSymbolTableRecord
100
AcDbLayerTableRecord
  2
PIANI
 70
0
 62
7
  6
CONTINUOUS
370
-3
390
F
  0
LAYER
  5
20A
100
AcDbSymbolTableRecord
100
AcDbLayerTableRecord
  2
PIANI_ORIGINE
 70
0
 62
7
  6
CONTINUOUS
370
-3
390
F
  0
LAYER
  5
20B
100
AcDbSymbolTableRecord
100
AcDbLayerTableRecord
  2
RACCORDO
 70
0
 62
7
  6
CONTINUOUS
370
-3
390
F
  0
LAYER
  5
20C
100
AcDbSymbolTableRecord
100
AcDbLayerTableRecord
  2
SKELETON
 70
0
 62
7
  6
CONTINUOUS
370
-3
390
F
  0
LAYER
  5
20D
100
AcDbSymbolTableRecord
100
AcDbLayerTableRecord
  2
SMUSSO
 70
0
 62
7
  6
CONTINUOUS
370
-3
390
F
  0
LAYER
  5
20E
100
AcDbSymbolTableRecord
100
AcDbLayerTableRecord
  2
SUPERFICI
 70
0
 62
7
  6
CONTINUOUS
370
-3
390
F
  0
LAYER
  5
20F
100
AcDbSymbolTableRecord
100
AcDbLayerTableRecord
  2
TRASH
 70
0
 62
7
  6
CONTINUOUS
370
-3
390
F
  0
LAYER
  5
210
100
AcDbSymbolTableRecord
100
AcDbLayerTableRecord
  2
WHITE
 70
0
 62
7
  6
CONTINUOUS
370
-3
390
F
  0
LAYER
  5
211
100
AcDbSymbolTableRecord
100
AcDbLayerTableRecord
  2
XSEC_DATUMS
 70
0
 62
7
  6
CONTINUOUS
370
-3
390
F
  0
ENDTAB
  0
TABLE
  2
STYLE
  5
3
100
AcDbSymbolTable
 70
1
  0
STYLE
  5
11
100
AcDbSymbolTableRecord
100
AcDbTextStyleTableRecord
  2
STANDARD
 70
0
 40
0.0
 41
0.8
 50
0.0
 71
0
 42
0.2
  3
txt
  4

  0
STYLE
  5
212
100
AcDbSymbolTableRecord
100
AcDbTextStyleTableRecord
  2
TEXTSTYLE_1
 70
0
 40
0.0
 41
0.8
 50
0.0
 71
0
 42
0.2
  3
gdt
  4

  0
ENDTAB
  0
TABLE
  2
VIEW
  5
6
100
AcDbSymbolTable
 70
0
  0
ENDTAB
  0
TABLE
  2
UCS
  5
7
100
AcDbSymbolTable
 70
0
  0
ENDTAB
  0
TABLE
  2
APPID
  5
9
100
AcDbSymbolTable
 70
1
  0
APPID
  5
213
100
AcDbSymbolTableRecord
100
AcDbRegAppTableRecord
  2
ACAD
 70
0
  0
ENDTAB
  0
TABLE
  2
BLOCK_RECORD
  5
1
100
AcDbSymbolTable
 70
0
  0
BLOCK_RECORD
  5
214
100
AcDbSymbolTableRecord
100
AcDbBlockTableRecord
  2
*Model_Space
  0
BLOCK_RECORD
  5
215
100
AcDbSymbolTableRecord
100
AcDbBlockTableRecord
  2
*Paper_Space
  0
ENDTAB
  0
TABLE
  2
DIMSTYLE
  5
A
100
AcDbSymbolTable
 70
1
100
AcDbDimStyleTable
 71
0
  0
DIMSTYLE
105
216
100
AcDbSymbolTableRecord
100
AcDbDimStyleTableRecord
  2
STANDARD
 70
0
  3

  4

 40
1.0
 41
3.0
 42
0.5
 43
0.38
 44
1.5
 45
0.0
 46
0.0
 47
0.01
 48
0.01
140
3.0
141
0.09
142
0.0
143
25.4
144
1.0
145
0.0
146
1.0
147
0.625
 71
1.0
 72
0.0
 73
0
 74
0
 75
0
 76
0
 77
1
 78
8
170
0
171
2
172
0
173
0
174
0
175
0
176
0
177
0
178
0
270
2
271
2
272
2
273
2
274
2
275
0
280
0
281
0
282
0
283
1
284
8
285
0
286
0
287
3
288
0
340
11
278
44
  0
ENDTAB
  0
ENDSEC
  0
SECTION
  2
BLOCKS
  0
BLOCK
  5
20
100
AcDbEntity
  8
0
100
AcDbBlockBegin
  2
*Model_Space
 70
0
 10
0.0
 20
0.0
 30
0.0
  3
*Model_Space
  1

  0
ENDBLK
  5
21
100
AcDbEntity
  8
0
100
AcDbBlockEnd
  0
BLOCK
  5
1C
100
AcDbEntity
  8
0
100
AcDbBlockBegin
  2
*Paper_Space
 70
0
 10
0.0
 20
0.0
 30
0.0
  3
*Paper_Space
  1

  0
ENDBLK
  5
1D
100
AcDbEntity
  8
0
100
AcDbBlockEnd
  0
ENDSEC
  0
SECTION
  2
ENTITIES
  0
LINE
  5
217
100
AcDbEntity
  8
DRAFT
100
AcDbLine
 62
7
  6
CONTINUOUS
 10
98.5491470062
 20
160.7313963804
 11
98.2381173008
 21
160.4375750244
  0
LWPOLYLINE
  5
218
100
AcDbEntity
  8
DRAFT
100
AcDbPolyline
 62
7
  6
CONTINUOUS
 90
35
 70
0
 10
98.5491488322
 20
160.7313981054
 10
98.5603255358
 20
160.7416073046
 10
98.5744291613
 20
160.7535565471
 10
98.5890077567
 20
160.7649143561
 10
98.604059847
 20
160.7756795722
 10
98.6195814014
 20
160.7858477691
 10
98.6355545475
 20
160.7954057396
 10
98.6519565505
 20
160.8043398798
 10
98.6687670254
 20
160.8126405044
 10
98.685979927
 20
160.8203060105
 10
98.7035935035
 20
160.8273356266
 10
98.7216025962
 20
160.8337260034
 10
98.7399863867
 20
160.8394684898
 10
98.758719263
 20
160.8445550677
 10
98.7777787709
 20
160.8489807976
 10
98.7971577545
 20
160.8527451541
 10
98.8168530833
 20
160.8558475521
 10
98.8368577457
 20
160.8582858643
 10
98.8571493449
 20
160.8600563526
 10
98.87770142
 20
160.8611566758
 10
98.8984910168
 20
160.8615864817
 10
98.9195091376
 20
160.8613464501
 10
98.9407498859
 20
160.8604366837
 10
98.9622035688
 20
160.8588568688
 10
98.9838478471
 20
160.8566079283
 10
99.0056577059
 20
160.8536924158
 10
99.027611369
 20
160.8501138047
 10
99.0496971444
 20
160.8458745595
 10
99.0719048993
 20
160.840976672
 10
99.0942214679
 20
160.8354226528
 10
99.1166263192
 20
160.8292172201
 10
99.1390982088
 20
160.8223661993
 10
99.1616186352
 20
160.8148754085
 10
99.1841719012
 20
160.8067502462
 10
99.2067408765
 20
160.797997002
  0
LINE
  5
219
100
AcDbEntity
  8
DRAFT
100
AcDbLine
 62
7
  6
CONTINUOUS
 10
99.2067408765
 20
160.797997002
 11
98.6137576641
 21
160.267871131
  0
LWPOLYLINE
  5
21A
100
AcDbEntity
  8
RACCORDO
100
AcDbPolyline
 62
7
  6
CONTINUOUS
 90
11
 70
0
 10
93.8949828209
 20
158.213045265
 10
93.8336477639
 20
158.1592297268
 10
93.7530918092
 20
158.0749442472
 10
93.680122584
 20
157.9809311886
 10
93.615743544
 20
157.8777922715
 10
93.5608869325
 20
157.7665568006
 10
93.5160773709
 20
157.6478762642
 10
93.4817175872
 20
157.5223353987
 10
93.4581725381
 20
157.3908398631
 10
93.4456723482
 20
157.2540343419
 10
93.4435371997
 20
157.1675276341
  0
LINE
  5
21B
100
AcDbEntity
  8
RACCORDO
100
AcDbLine
 62
7
  6
CONTINUOUS
 10
97.9343037374
 20
160.5748295626
 11
95.1189271377
 21
158.2686080654
  0
LINE
  5
21C
100
AcDbEntity
  8
RACCORDO
100
AcDbLine
 62
7
  6
CONTINUOUS
 10
96.7217810709
 20
160.5286361484
 11
93.8919912562
 21
158.2106074216
  0
LWPOLYLINE
  5
21D
100
AcDbEntity
  8
RACCORDO
100
AcDbPolyline
 62
7
  6
CONTINUOUS
 90
12
 70
0
 10
96.7225961981
 20
160.5292494326
 10
96.7347592678
 20
160.5390083466
 10
96.8262591977
 20
160.6015561563
 10
96.9260798421
 20
160.6515795767
 10
97.0342096943
 20
160.6891105904
 10
97.1489211809
 20
160.7132041927
 10
97.2710381775
 20
160.7235071144
 10
97.3997420521
 20
160.7203764022
 10
97.5308393357
 20
160.7039309922
 10
97.6629321007
 20
160.6742104577
 10
97.7974198918
 20
160.6311763992
 10
97.9343037374
 20
160.5748295626
  0
LWPOLYLINE
  5
21E
100
AcDbEntity
  8
RACCORDO
100
AcDbPolyline
 62
7
  6
CONTINUOUS
 90
8
 70
0
 10
94.8076556114
 20
88.8258240067
 10
94.8103185827
 20
88.7742836896
 10
94.8182619324
 20
88.72746541
 10
94.8313497474
 20
88.6861702414
 10
94.8493580915
 20
88.6511047557
 10
94.8719788369
 20
88.6228689329
 10
94.8988249361
 20
88.6019458959
 10
94.9113729809
 20
88.5953743241
  0
LWPOLYLINE
  5
21F
100
AcDbEntity
  8
RACCORDO
100
AcDbPolyline
 62
7
  6
CONTINUOUS
 90
3
 70
0
 10
93.4435372598
 20
90.8164153816
 10
93.4468372917
 20
90.7065939846
 10
93.4643003359
 20
90.537770248
  0
LWPOLYLINE
  5
220
100
AcDbEntity
  8
RACCORDO
100
AcDbPolyline
 62
7
  6
CONTINUOUS
 90
25
 70
0
 10
93.6316455865
 20
90.5920109465
 10
93.6326651589
 20
90.5249192299
 10
93.6381859092
 20
90.4538790369
 10
93.6482079173
 20
90.3788904253
 10
93.6623760614
 20
90.299642911
 10
93.6810458053
 20
90.2164472236
 10
93.7052832702
 20
90.1302353582
 10
93.735446712
 20
90.040446839
 10
93.7711788721
 20
89.9476428586
 10
93.8124728141
 20
89.8544380681
 10
93.8596465796
 20
89.7608544897
 10
93.9123837419
 20
89.6668712628
 10
93.9697256476
 20
89.5750387044
 10
94.0320329983
 20
89.4853928573
 10
94.0989469109
 20
89.3978989878
 10
94.1684288571
 20
89.31500089
 10
94.2406905906
 20
89.2370039101
 10
94.3155215577
 20
89.1636035671
 10
94.3902487237
 20
89.0963281623
 10
94.4648480356
 20
89.0356321667
 10
94.5393434885
 20
88.9810610692
 10
94.6111328609
 20
88.9327787918
 10
94.6793480662
 20
88.8908394858
 10
94.74485584
 20
88.8551880278
 10
94.8076556114
 20
88.8258240067
  0
LINE
  5
221
100
AcDbEntity
  8
RACCORDO
100
AcDbLine
 62
7
  6
CONTINUOUS
 10
93.4435360654
 20
157.1674799772
 11
93.4435360654
 21
90.8161643891
  0
LINE
  5
222
100
AcDbEntity
  8
RACCORDO
100
AcDbLine
 62
7
  6
CONTINUOUS
 10
93.6316455865
 20
156.9433265339
 11
93.6316455865
 21
90.5920109465
  0
LWPOLYLINE
  5
223
100
AcDbEntity
  8
RACCORDO
100
AcDbPolyline
 62
7
  6
CONTINUOUS
 90
13
 70
0
 10
94.8076556114
 20
157.634595727
 10
94.8103185772
 20
157.6899761467
 10
94.8182619117
 20
157.7482491668
 10
94.8313497061
 20
157.8084177232
 10
94.8493580287
 20
157.8694523183
 10
94.8719787552
 20
157.9303086334
 10
94.8988248408
 20
157.9899453975
 10
94.929436944
 20
158.0473422087
 10
94.9632912846
 20
158.101516989
 10
94.999808604
 20
158.1515427869
 10
95.03836408
 20
158.1965636436
 10
95.0782980183
 20
158.2358092385
 10
95.1189271376
 20
158.2686080655
  0
LWPOLYLINE
  5
224
100
AcDbEntity
  8
RACCORDO
100
AcDbPolyline
 62
7
  6
CONTINUOUS
 90
11
 70
0
 10
93.4966743458
 20
90.3660732392
 10
93.5436685854
 20
90.1930735238
 10
93.6043056415
 20
90.0216934715
 10
93.6776151903
 20
89.8536173799
 10
93.7630887146
 20
89.689381562
 10
93.8598492996
 20
89.5303757845
 10
93.9670834371
 20
89.377788471
 10
94.0840361197
 20
89.232650211
 10
94.2098764979
 20
89.0961368353
 10
94.3440574797
 20
88.9690741867
 10
94.4855335086
 20
88.8528541858
  0
LINE
  5
225
100
AcDbEntity
  8
RACCORDO
100
AcDbLine
 62
7
  6
CONTINUOUS
 10
93.4643003359
 20
90.537770248
 11
93.4966743458
 21
90.3660732392
  0
LWPOLYLINE
  5
226
100
AcDbEntity
  8
RACCORDO
100
AcDbPolyline
 62
7
  6
CONTINUOUS
 90
11
 70
0
 10
190.087059786
 20
50.3798340752
 10
190.2480268593
 20
50.3408281346
 10
190.4066687656
 20
50.3168487634
 10
190.5622081202
 20
50.3076758744
 10
190.714156721
 20
50.3131834811
 10
190.8614821935
 20
50.3332156362
 10
191.0031624332
 20
50.3675698673
 10
191.1385063581
 20
50.4160898014
 10
191.2663722878
 20
50.4783988313
 10
191.3854808194
 20
50.5539423263
 10
191.4483454026
 20
50.602092976
  0
LWPOLYLINE
  5
227
100
AcDbEntity
  8
RACCORDO
100
AcDbPolyline
 62
7
  6
CONTINUOUS
 90
3
 70
0
 10
94.4855335086
 20
88.8528541858
 10
94.6326382467
 20
88.7490944096
 10
94.7842779013
 20
88.6588010522
  0
LWPOLYLINE
  5
228
100
AcDbEntity
  8
RACCORDO
100
AcDbPolyline
 62
7
  6
CONTINUOUS
 90
8
 70
0
 10
121.6130040287
 20
133.1130339114
 10
121.5741349645
 20
133.0767439819
 10
121.5269182335
 20
133.0194093698
 10
121.4876278201
 20
132.9542322718
 10
121.4566697598
 20
132.8819168158
 10
121.4343471664
 20
132.8032324464
 10
121.4208773118
 20
132.7189882128
 10
121.4163842263
 20
132.6300551599
  0
LWPOLYLINE
  5
229
100
AcDbEntity
  8
RACCORDO
100
AcDbPolyline
 62
7
  6
CONTINUOUS
 90
30
 70
0
 10
121.712039324
 20
132.8712599783
 10
121.6997344759
 20
132.8601651485
 10
121.6868159822
 20
132.8477603527
 10
121.6742588422
 20
132.8348912504
 10
121.6620754106
 20
132.8215645517
 10
121.6502770411
 20
132.8077863436
 10
121.6388758474
 20
132.7935640692
 10
121.6278831259
 20
132.7789055236
 10
121.6173085007
 20
132.7638171521
 10
121.6071624505
 20
132.7483068387
 10
121.5974555154
 20
132.7323833389
 10
121.5881965223
 20
132.716054194
 10
121.5793948461
 20
132.6993285165
 10
121.5710592716
 20
132.6822148008
 10
121.5631969672
 20
132.6647191355
 10
121.555816151
 20
132.6468510661
 10
121.5489243228
 20
132.6286188746
 10
121.5425272375
 20
132.6100259314
 10
121.5366321086
 20
132.5910806254
 10
121.5312460478
 20
132.5717918588
 10
121.526374776
 20
132.552162802
 10
121.5220252967
 20
132.5322020291
 10
121.5182040976
 20
132.511917981
 10
121.5149168118
 20
132.491312675
 10
121.5121704504
 20
132.4703946368
 10
121.509971429
 20
132.449171635
 10
121.5083257682
 20
132.4276436326
 10
121.5072405852
 20
132.405815962
 10
121.5067228009
 20
132.3837013867
 10
121.5066760384
 20
132.3747182227
  0
LINE
  5
22A
100
AcDbEntity
  8
RACCORDO
100
AcDbLine
 62
7
  6
CONTINUOUS
 10
122.087327445
 20
133.1994914382
 11
121.7120483662
 21
132.8712680283
  0
LINE
  5
22B
100
AcDbEntity
  8
RACCORDO
100
AcDbLine
 62
7
  6
CONTINUOUS
 10
122.4608839106
 20
133.0713301121
 11
122.3060041947
 21
132.9358601602
  0
LINE
  5
22C
100
AcDbEntity
  8
RACCORDO
100
AcDbLine
 62
7
  6
CONTINUOUS
 10
121.6163694816
 20
133.115816593
 11
121.6130040287
 21
133.1130339114
  0
LINE
  5
22D
100
AcDbEntity
  8
RACCORDO
100
AcDbLine
 62
7
  6
CONTINUOUS
 10
121.7297371942
 20
132.8867388841
 11
121.4163842263
 21
132.6300551599
  0
LWPOLYLINE
  5
22E
100
AcDbEntity
  8
RACCORDO
100
AcDbPolyline
 62
7
  6
CONTINUOUS
 90
5
 70
0
 10
121.6131997965
 20
133.1131656836
 10
121.6411544724
 20
133.1346258282
 10
121.7048766515
 20
133.1715942932
 10
121.7753964416
 20
133.1979722322
 10
121.8526366322
 20
133.2137394034
  0
LWPOLYLINE
  5
22F
100
AcDbEntity
  8
RACCORDO
100
AcDbPolyline
 62
7
  6
CONTINUOUS
 90
10
 70
0
 10
121.4163842263
 20
132.6300551599
 10
121.4049750818
 20
132.6222791512
 10
121.3913523124
 20
132.6157801847
 10
121.3759436225
 20
132.6107623031
 10
121.3592327875
 20
132.6073830483
 10
121.3417444648
 20
132.6057485162
 10
121.3240277214
 20
132.6059100258
 10
121.306638796
 20
132.6078625067
 10
121.2901236353
 20
132.6115446575
 10
121.275000753
 20
132.6168408724
  0
LWPOLYLINE
  5
230
100
AcDbEntity
  8
RACCORDO
100
AcDbPolyline
 62
7
  6
CONTINUOUS
 90
10
 70
0
 10
191.1620706596
 20
51.4215934652
 10
191.2368933382
 20
51.4000960715
 10
191.3169189657
 20
51.3860575054
 10
191.3999058158
 20
51.3798710235
 10
191.4835292109
 20
51.3817099255
 10
191.565446642
 20
51.3915226987
 10
191.6433633885
 20
51.409034462
 10
191.7150967995
 20
51.4337546653
 10
191.7786374356
 20
51.4649908312
 10
191.8322053579
 20
51.5018679535
  0
LINE
  5
231
100
AcDbEntity
  8
RACCORDO
100
AcDbLine
 62
7
  6
CONTINUOUS
 10
189.97477877
 20
50.4157143789
 11
190.087059786
 21
50.3798340752
  0
LWPOLYLINE
  5
232
100
AcDbEntity
  8
RACCORDO
100
AcDbPolyline
 62
7
  6
CONTINUOUS
 90
25
 70
0
 10
189.8793304726
 20
50.6428960417
 10
189.9535761332
 20
50.618049511
 10
190.0297446535
 20
50.5978449583
 10
190.1078363641
 20
50.5822826941
 10
190.1885517235
 20
50.5708006691
 10
190.2711910468
 20
50.5639616592
 10
190.3536540702
 20
50.5634528577
 10
190.4362953897
 20
50.5696829134
 10
190.518760384
 20
50.5822431559
 10
190.5978839848
 20
50.6015938825
 10
190.6732795491
 20
50.6282265929
 10
190.7453325029
 20
50.6616486477
 10
190.8120350063
 20
50.7008433148
 10
190.8729846467
 20
50.7461223315
 10
190.9285822511
 20
50.7971724736
 10
190.9780245107
 20
50.8520392571
 10
191.0209501065
 20
50.9109010057
 10
191.0577190463
 20
50.9735781651
 10
191.0886100619
 20
51.0375794826
 10
191.1133080646
 20
51.1029188952
 10
191.1321273913
 20
51.16958176
 10
191.1462911059
 20
51.2350341357
 10
191.1562068337
 20
51.2984313163
 10
191.1614667033
 20
51.3606177768
 10
191.1620706596
 20
51.4215934652
  0
LWPOLYLINE
  5
233
100
AcDbEntity
  8
RACCORDO
100
AcDbPolyline
 62
7
  6
CONTINUOUS
 90
13
 70
0
 10
189.9747758934
 20
50.4157145144
 10
181.7497734881
 20
53.3396251541
 10
173.5770882488
 20
56.3114571328
 10
165.4575679086
 20
59.3309028516
 10
157.392054932
 20
62.3976496967
 10
149.3813857559
 20
65.5113803253
 10
141.4263906732
 20
68.6717727295
 10
133.5278946281
 20
71.878499929
 10
125.686717258
 20
75.131229934
 10
117.9036720655
 20
78.429626074
 10
110.1795664588
 20
81.7733469877
 10
102.5152017195
 20
85.1620466384
 10
94.9113729809
 20
88.5953743241
  0
LWPOLYLINE
  5
234
100
AcDbEntity
  8
RACCORDO
100
AcDbPolyline
 62
7
  6
CONTINUOUS
 90
13
 70
0
 10
94.8076556114
 20
88.8258240067
 10
102.4100410347
 20
85.3931392744
 10
110.0737346466
 20
82.0047137399
 10
117.7979589951
 20
78.6609120584
 10
125.582184195
 20
75.3619878269
 10
133.4253690597
 20
72.1084063261
 10
141.3259423751
 20
68.9008295677
 10
149.2830843616
 20
65.7395903874
 10
157.2959685601
 20
62.6250171347
 10
165.362971781
 20
59.5577307226
 10
173.4829752159
 20
56.538133339
 10
181.6553825581
 20
53.5664236781
 10
189.8793304726
 20
50.6428960417
  0
LINE
  5
235
100
AcDbEntity
  8
RACCORDO
100
AcDbLine
 62
7
  6
CONTINUOUS
 10
94.7842779013
 20
88.6588010522
 11
94.91163189
 21
88.5952574182
  0
LWPOLYLINE
  5
236
100
AcDbEntity
  8
RACCORDO
100
AcDbPolyline
 62
7
  6
CONTINUOUS
 90
7
 70
0
 10
93.6316455865
 20
90.5920109465
 10
93.5708355323
 20
90.6249866974
 10
93.520465745
 20
90.6633178334
 10
93.481947223
 20
90.7059306073
 10
93.4563589819
 20
90.7516313315
 10
93.4444178311
 20
90.7991398116
 10
93.4435360654
 20
90.8161643784
  0
LWPOLYLINE
  5
237
100
AcDbEntity
  8
RACCORDO
100
AcDbPolyline
 62
7
  6
CONTINUOUS
 90
16
 70
0
 10
121.275000753
 20
90.5492543865
 10
121.2802163458
 20
90.4465801283
 10
121.2948391355
 20
90.3427250474
 10
121.3188695217
 20
90.2376894536
 10
121.3527503338
 20
90.1303126943
 10
121.3960403498
 20
90.0217566688
 10
121.4474141108
 20
89.9155056856
 10
121.5071071831
 20
89.8117074554
 10
121.5748866315
 20
89.7102163094
 10
121.648723966
 20
89.6140762713
 10
121.7288879753
 20
89.5233986513
 10
121.8151126138
 20
89.4380742705
 10
121.9045661975
 20
89.3608156868
 10
121.9963050791
 20
89.2925272795
 10
122.0912744301
 20
89.2323058565
 10
122.1894751357
 20
89.1801521073
  0
LWPOLYLINE
  5
238
100
AcDbEntity
  8
RACCORDO
100
AcDbPolyline
 62
7
  6
CONTINUOUS
 90
14
 70
0
 10
121.4163842263
 20
90.562468674
 10
121.4208792926
 20
90.4696623936
 10
121.4343543875
 20
90.373916516
 10
121.4566841698
 20
90.2762025473
 10
121.4876496514
 20
90.1774834249
 10
121.5269466466
 20
90.0787935815
 10
121.5741696362
 20
89.9812270235
 10
121.6287970698
 20
89.885803204
 10
121.6902753733
 20
89.7934585588
 10
121.7580259866
 20
89.7051298884
 10
121.8313699232
 20
89.6216814604
 10
121.9095236455
 20
89.5439950998
 10
121.9916611134
 20
89.4729490437
 10
122.076914292
 20
89.4092749172
  0
LWPOLYLINE
  5
239
100
AcDbEntity
  8
RACCORDO
100
AcDbPolyline
 62
7
  6
CONTINUOUS
 90
58
 70
0
 10
121.5878173045
 20
90.4757201464
 10
121.5880463633
 20
90.4581650521
 10
121.5887302586
 20
90.4404523126
 10
121.5898689911
 20
90.4225819285
 10
121.5914640234
 20
90.4045402555
 10
121.5935138965
 20
90.3863409407
 10
121.5960142308
 20
90.3680249234
 10
121.5989659838
 20
90.3495927011
 10
121.6023682051
 20
90.3310437818
 10
121.6062136536
 20
90.3124176217
 10
121.6105032647
 20
90.2937141229
 10
121.6152361136
 20
90.2749333915
 10
121.6204021697
 20
90.2561151901
 10
121.6260023559
 20
90.2372594242
 10
121.632035763
 20
90.2183661989
 10
121.6384896131
 20
90.1994755762
 10
121.6453648031
 20
90.1805875665
 10
121.6526604525
 20
90.1617021721
 10
121.6603611182
 20
90.1428594433
 10
121.668467668
 20
90.1240594703
 10
121.6769792527
 20
90.1053021774
 10
121.6858778533
 20
90.0866273655
 10
121.6951642956
 20
90.0680352211
 10
121.7048377741
 20
90.0495255736
 10
121.7148778231
 20
90.0311376882
 10
121.7252852403
 20
90.0128718107
 10
121.7360592496
 20
89.9947277122
 10
121.7471770234
 20
89.9767439447
 10
121.7586392906
 20
89.9589208713
 10
121.7704453447
 20
89.9412581463
 10
121.7825702033
 20
89.9237932574
 10
121.7950145668
 20
89.9065266116
 10
121.8077777575
 20
89.8894578197
 10
121.8208327244
 20
89.8726231732
 10
121.8341800861
 20
89.8560231891
 10
121.8478192462
 20
89.8396573678
 10
121.861721329
 20
89.8235604751
 10
121.8758869189
 20
89.8077330693
 10
121.8903154527
 20
89.7921746087
 10
121.9049763318
 20
89.7769182068
 10
121.9198700651
 20
89.7619645074
 10
121.9349961634
 20
89.7473128821
 10
121.9503225285
 20
89.7329945352
 10
121.9658496028
 20
89.7190101765
 10
121.9815769616
 20
89.70535911
 10
121.9974712034
 20
89.6920704287
 10
122.0135326729
 20
89.6791449185
 10
122.0297610407
 20
89.6665818054
 10
122.046121891
 20
89.6544078399
 10
122.0626155676
 20
89.6426238244
 10
122.0792417392
 20
89.6312289663
 10
122.0959649743
 20
89.6202476201
 10
122.1127863567
 20
89.6096802521
 10
122.129704812
 20
89.5995264035
 10
122.1466816677
 20
89.5898090385
 10
122.163704034
 20
89.5805358129
 10
122.1807848059
 20
89.5716990752
 10
122.1979239864
 20
89.5632988275
  0
LWPOLYLINE
  5
23A
100
AcDbEntity
  8
RACCORDO
100
AcDbPolyline
 62
7
  6
CONTINUOUS
 90
55
 70
0
 10
121.5066759938
 20
90.56798132
 10
121.5067236545
 20
90.5588800197
 10
121.5072951748
 20
90.535018503
 10
121.5085112148
 20
90.5109953561
 10
121.5103697899
 20
90.4868206649
 10
121.5128676948
 20
90.4625128657
 10
121.515999858
 20
90.4381006683
 10
121.5197624048
 20
90.4135968318
 10
121.5241508456
 20
90.3890157348
 10
121.5291571216
 20
90.3643894131
 10
121.5347757053
 20
90.3397319435
 10
121.5410006105
 20
90.3150574368
 10
121.5478207172
 20
90.2903988425
 10
121.5552284955
 20
90.2657714065
 10
121.5632167029
 20
90.2411882797
 10
121.5717722643
 20
90.2166799737
 10
121.5808848111
 20
90.1922651586
 10
121.5905470358
 20
90.1679534428
 10
121.6007489651
 20
90.143762297
 10
121.6114808764
 20
90.1197070248
 10
121.622734048
 20
90.0958004319
 10
121.6344993961
 20
90.0720567443
 10
121.646767432
 20
90.048489935
 10
121.6595287012
 20
90.0251139918
 10
121.6727735356
 20
90.0019434817
 10
121.6864920071
 20
89.9789923586
 10
121.7006744523
 20
89.9562743869
 10
121.7153108178
 20
89.9338038988
 10
121.7303906092
 20
89.9115949838
 10
121.7459040918
 20
89.8896609411
 10
121.7618416309
 20
89.8680147417
 10
121.7781927278
 20
89.8466699557
 10
121.7949471999
 20
89.8256401064
 10
121.8120953239
 20
89.8049377396
 10
121.8296265538
 20
89.7845760756
 10
121.8475303404
 20
89.7645686814
 10
121.8657965481
 20
89.7449280962
 10
121.8844152171
 20
89.7256665958
 10
121.9033748227
 20
89.7067983789
 10
121.9226625547
 20
89.6883380753
 10
121.9422678597
 20
89.6702980299
 10
121.9621792011
 20
89.6526916709
 10
121.982382052
 20
89.6355341928
 10
122.0028650846
 20
89.6188379762
 10
122.0236169387
 20
89.6026154567
 10
122.0446230958
 20
89.5868808273
 10
122.0658721181
 20
89.5716460251
 10
122.0873523788
 20
89.5569229775
 10
122.1090493258
 20
89.5427250215
 10
122.1309508203
 20
89.5290640479
 10
122.1530457377
 20
89.51595112
 10
122.1753218382
 20
89.5033977326
 10
122.1977677393
 20
89.4914151704
 10
122.2203707178
 20
89.4800149121
 10
122.2306245759
 20
89.4750612683
  0
LINE
  5
23B
100
AcDbEntity
  8
RACCORDO
100
AcDbLine
 62
7
  6
CONTINUOUS
 10
121.275000753
 20
132.6168408724
 11
121.275000753
 21
90.5492543865
  0
LINE
  5
23C
100
AcDbEntity
  8
RACCORDO
100
AcDbLine
 62
7
  6
CONTINUOUS
 10
121.4163842263
 20
132.6300551599
 11
121.4163842263
 21
90.562468674
  0
LINE
  5
23D
100
AcDbEntity
  8
RACCORDO
100
AcDbLine
 62
7
  6
CONTINUOUS
 10
121.5066759109
 20
132.3747173215
 11
121.5066759109
 21
90.5679797542
  0
LINE
  5
23E
100
AcDbEntity
  8
RACCORDO
100
AcDbLine
 62
7
  6
CONTINUOUS
 10
121.5878173045
 20
132.2824577136
 11
121.5878173045
 21
90.4757201464
  0
LWPOLYLINE
  5
23F
100
AcDbEntity
  8
RACCORDO
100
AcDbPolyline
 62
7
  6
CONTINUOUS
 90
9
 70
0
 10
124.3066119396
 20
130.3006345547
 10
124.3049809633
 20
130.2963298936
 10
124.3030938766
 20
130.2905257798
 10
124.3014516688
 20
130.2845458128
 10
124.3000569943
 20
130.2783996585
 10
124.2989121074
 20
130.2720972512
 10
124.2980188586
 20
130.2656487777
 10
124.2973786918
 20
130.2590646611
 10
124.2969926418
 20
130.2523555437
  0
LWPOLYLINE
  5
240
100
AcDbEntity
  8
SUPERFICI
100
AcDbPolyline
 62
7
  6
CONTINUOUS
 90
8
 70
0
 10
126.0807071395
 20
122.7671933929
 10
126.0870463848
 20
122.7742360025
 10
126.0927395281
 20
122.7823016564
 10
126.0977535832
 20
122.7913922166
 10
126.1020713637
 20
122.8015104984
 10
126.1056350589
 20
122.8126422192
 10
126.1083482835
 20
122.8247493698
 10
126.1101432758
 20
122.8378415784
  0
LINE
  5
241
100
AcDbEntity
  8
DRAFT
100
AcDbLine
 62
7
  6
CONTINUOUS
 10
125.2446655251
 20
125.6921786177
 11
125.1319680488
 21
125.5963449622
  0
LINE
  5
242
100
AcDbEntity
  8
0
100
AcDbLine
 62
7
  6
CONTINUOUS
 10
125.5962996747
 20
127.8929278813
 11
125.2446655251
 21
127.6040680001
  0
LINE
  5
243
100
AcDbEntity
  8
SUPERFICI
100
AcDbLine
 62
7
  6
CONTINUOUS
 10
126.0749279292
 20
127.4804461346
 11
125.2446655251
 21
126.800334989
  0
LINE
  5
244
100
AcDbEntity
  8
SUPERFICI
100
AcDbLine
 62
7
  6
CONTINUOUS
 10
125.2446655251
 20
126.650334989
 11
125.2513996158
 21
126.6558512332
  0
LINE
  5
245
100
AcDbEntity
  8
SUPERFICI
100
AcDbLine
 62
7
  6
CONTINUOUS
 10
125.4234725467
 20
126.7968051263
 11
125.538187834
 21
126.8907743884
  0
LINE
  5
246
100
AcDbEntity
  8
SUPERFICI
100
AcDbLine
 62
7
  6
CONTINUOUS
 10
125.7102607649
 20
127.0317282815
 11
125.8249760522
 21
127.1256975436
  0
LINE
  5
247
100
AcDbEntity
  8
SUPERFICI
100
AcDbLine
 62
7
  6
CONTINUOUS
 10
125.9970489831
 20
127.2666514367
 11
126.1117642704
 21
127.3606206988
  0
LINE
  5
248
100
AcDbEntity
  8
0
100
AcDbLine
 62
7
  6
CONTINUOUS
 10
125.2476183655
 20
127.707008201
 11
125.2446655251
 21
127.7046291585
  0
LINE
  5
249
100
AcDbEntity
  8
0
100
AcDbLine
 62
7
  6
CONTINUOUS
 10
126.0749279292
 20
127.6938201336
 11
125.2446655251
 21
127.0758508623
  0
LINE
  5
24A
100
AcDbEntity
  8
RACCORDO
100
AcDbLine
 62
7
  6
CONTINUOUS
 10
124.3459472337
 20
130.2848863632
 11
124.2969926418
 21
130.2523555437
  0
LWPOLYLINE
  5
24B
100
AcDbEntity
  8
RACCORDO
100
AcDbPolyline
 62
7
  6
CONTINUOUS
 90
31
 70
0
 10
124.2969926418
 20
130.2523555437
 10
124.285327704
 20
130.2448125437
 10
124.2736889265
 20
130.2377102568
 10
124.2620763093
 20
130.231048683
 10
124.2504773634
 20
130.2248204172
 10
124.2389045778
 20
130.2190328646
 10
124.2273954194
 20
130.2137082404
 10
124.2159502873
 20
130.2088493874
 10
124.2045687824
 20
130.2044534629
 10
124.193287174
 20
130.2005341547
 10
124.182109424
 20
130.1970946474
 10
124.1710315705
 20
130.1941317565
 10
124.160077997
 20
130.1916496168
 10
124.1492521173
 20
130.1896491772
 10
124.1385505177
 20
130.1881294889
 10
124.1279873398
 20
130.1870918405
 10
124.1175608122
 20
130.1865359597
 10
124.1072727064
 20
130.1864621187
 10
124.0971424788
 20
130.186872423
 10
124.0871669603
 20
130.1877684715
 10
124.07734932
 20
130.1891486653
 10
124.0677185219
 20
130.1910103126
 10
124.0582746885
 20
130.1933562954
 10
124.0490176973
 20
130.1961837318
 10
124.0399761444
 20
130.1994812841
 10
124.0311508911
 20
130.2032522138
 10
124.0225410762
 20
130.2074932593
 10
124.0141727122
 20
130.2121832987
 10
124.0060544701
 20
130.2173152912
 10
123.9981776789
 20
130.2228962777
 10
123.9905423387
 20
130.2289262579
  0
LINE
  5
24C
100
AcDbEntity
  8
SUPERFICI
100
AcDbLine
 62
7
  6
CONTINUOUS
 10
125.5426827369
 20
127.8835680687
 11
125.2476183655
 21
127.707008201
  0
LWPOLYLINE
  5
24D
100
AcDbEntity
  8
RACCORDO
100
AcDbPolyline
 62
7
  6
CONTINUOUS
 90
11
 70
0
 10
160.7977631375
 20
73.6741932423
 10
160.8996295879
 20
73.6460516773
 10
160.9981161841
 20
73.6286277991
 10
161.0932220855
 20
73.6219208829
 10
161.1859088875
 20
73.6260673928
 10
161.2752135437
 20
73.6409296135
 10
161.3582476497
 20
73.6660950298
 10
161.4347483833
 20
73.7018873617
 10
161.5049760152
 20
73.7479806835
 10
161.5668259169
 20
73.8029872636
 10
161.6200530495
 20
73.8672561534
  0
LWPOLYLINE
  5
24E
100
AcDbEntity
  8
RACCORDO
100
AcDbPolyline
 62
7
  6
CONTINUOUS
 90
10
 70
0
 10
160.8487345369
 20
73.8055215209
 10
160.9410635132
 20
73.7799877792
 10
161.0319625414
 20
73.7640670413
 10
161.1205175191
 20
73.7579481035
 10
161.2058694573
 20
73.7617347875
 10
161.2871213525
 20
73.7754023842
 10
161.3633561648
 20
73.7987776201
 10
161.4337868876
 20
73.8316132888
 10
161.4977372131
 20
73.8735870779
 10
161.5106236862
 20
73.8838037893
  0
LWPOLYLINE
  5
24F
100
AcDbEntity
  8
RACCORDO
100
AcDbPolyline
 62
7
  6
CONTINUOUS
 90
58
 70
0
 10
160.6722759096
 20
74.1111317112
 10
160.6900210976
 20
74.1055218364
 10
160.707705961
 20
74.100396113
 10
160.7253304972
 20
74.0957545385
 10
160.7429079131
 20
74.0915942691
 10
160.7604249968
 20
74.0879181444
 10
160.7778421158
 20
74.0847346856
 10
160.79515829
 20
74.082045191
 10
160.8123744908
 20
74.0798483546
 10
160.8294540095
 20
74.0781487891
 10
160.8463964878
 20
74.0769475615
 10
160.8632022723
 20
74.0762435946
 10
160.8798357096
 20
74.0760382817
 10
160.8962964435
 20
74.0763326732
 10
160.9125848159
 20
74.0771257062
 10
160.9286662173
 20
74.0784156027
 10
160.944540191
 20
74.0802034125
 10
160.9602071771
 20
74.0824880712
 10
160.9756339101
 20
74.0852646271
 10
160.9908198644
 20
74.0885341166
 10
161.0057655471
 20
74.0922954872
 10
161.0204392382
 20
74.0965406516
 10
161.0348403392
 20
74.1012706242
 10
161.0489694288
 20
74.1064843734
 10
161.0627965518
 20
74.1121707413
 10
161.0763210637
 20
74.1183307251
 10
161.0895435882
 20
74.1249633096
 10
161.1024360714
 20
74.1320543167
 10
161.1149977835
 20
74.1396046974
 10
161.1272294333
 20
74.1476134825
 10
161.1391051226
 20
74.1560636118
 10
161.1506240938
 20
74.1649560141
 10
161.1617870837
 20
74.1742897426
 10
161.1725704358
 20
74.1840449227
 10
161.1829733237
 20
74.1942224226
 10
161.1929965535
 20
74.2048213567
 10
161.202618917
 20
74.2158192191
 10
161.2118395647
 20
74.2272168508
 10
161.2206593271
 20
74.2390133945
 10
161.2290595147
 20
74.2511837958
 10
161.2370392299
 20
74.2637288335
 10
161.244599353
 20
74.2766477138
 10
161.2517238628
 20
74.289913024
 10
161.2584118301
 20
74.3035254887
 10
161.2646641688
 20
74.31748437
 10
161.2704676227
 20
74.3317600617
 10
161.2758212367
 20
74.3463532074
 10
161.2807259533
 20
74.3612631525
 10
161.2851713636
 20
74.3764583439
 10
161.2891564959
 20
74.3919394342
 10
161.2926823122
 20
74.4077057625
 10
161.2957413046
 20
74.4237238057
 10
161.2983324846
 20
74.439994974
 10
161.3004568341
 20
74.4565178514
 10
161.3021098017
 20
74.4732546775
 10
161.303289869
 20
74.4901928643
 10
161.3039985511
 20
74.5073449967
 10
161.3042358469
 20
74.524711074
  0
LWPOLYLINE
  5
250
100
AcDbEntity
  8
RACCORDO
100
AcDbPolyline
 62
7
  6
CONTINUOUS
 90
33
 70
0
 10
160.7203495413
 20
74.0167339844
 10
160.7298344488
 20
74.0136637494
 10
160.7535859053
 20
74.006441126
 10
160.7773053937
 20
73.9998928654
 10
160.8009818888
 20
73.994020924
 10
160.8245975999
 20
73.9888282356
 10
160.8481263954
 20
73.9843187677
 10
160.8715556845
 20
73.9804929955
 10
160.8948716667
 20
73.9773510829
 10
160.9180464962
 20
73.9748945734
 10
160.9410668615
 20
73.9731223429
 10
160.9639195192
 20
73.972032562
 10
160.9865766862
 20
73.9716234816
 10
161.0090252266
 20
73.9718918798
 10
161.0312519582
 20
73.972833795
 10
161.0532288359
 20
73.9744438687
 10
161.0749431881
 20
73.9767165787
 10
161.096381585
 20
73.9796454776
 10
161.1175147022
 20
73.9832208496
 10
161.1383241036
 20
73.9874330094
 10
161.1588031207
 20
73.9922735526
 10
161.178939664
 20
73.9977327753
 10
161.1987159922
 20
74.003798956
 10
161.2181252148
 20
74.010462667
 10
161.2371702158
 20
74.0177182995
 10
161.2558385833
 20
74.0255555158
 10
161.2741175875
 20
74.033963181
 10
161.2920080331
 20
74.0429359714
 10
161.3094973343
 20
74.0524626519
 10
161.3265731657
 20
74.0625315775
 10
161.3432354444
 20
74.0731379008
 10
161.3594718259
 20
74.0842694098
 10
161.3760092957
 20
74.0964788773
  0
LWPOLYLINE
  5
251
100
AcDbEntity
  8
RACCORDO
100
AcDbPolyline
 62
7
  6
CONTINUOUS
 90
25
 70
0
 10
159.8828722865
 20
75.4641787197
 10
158.3217804031
 20
75.9856727646
 10
156.7630744654
 20
76.5153489657
 10
155.2067597441
 20
77.0532444477
 10
153.6531191039
 20
77.5993288036
 10
152.1019168534
 20
78.1536761659
 10
150.5523843892
 20
78.7164788602
 10
149.0041957681
 20
79.2878656125
 10
147.4577434887
 20
79.8677380228
 10
145.9133329796
 20
80.4559445522
 10
144.3710503597
 20
81.0524495408
 10
142.8308394647
 20
81.6572952298
 10
141.2927804148
 20
82.2704388631
 10
139.7568819377
 20
82.8918674534
 10
138.2231583343
 20
83.5215845085
 10
136.6916964611
 20
84.159565733
 10
135.1624210518
 20
84.8058218822
 10
133.6354247493
 20
85.4603166114
 10
132.1110389242
 20
86.1229459245
 10
130.5896081657
 20
86.7935128942
 10
129.0708135942
 20
87.4721476722
 10
127.5539889364
 20
88.1592328943
 10
126.0389310378
 20
88.8548692836
 10
124.525888988
 20
89.5588723273
 10
123.0148441789
 20
90.2712099779
  0
LWPOLYLINE
  5
252
100
AcDbEntity
  8
RACCORDO
100
AcDbPolyline
 62
7
  6
CONTINUOUS
 90
25
 70
0
 10
159.8618630084
 20
75.3332588855
 10
158.3007146573
 20
75.8562954903
 10
156.7419232915
 20
76.3874253642
 10
155.1854938088
 20
76.9266451601
 10
153.6316713649
 20
77.4738604783
 10
152.0802199128
 20
78.0291584689
 10
150.5304254174
 20
78.5928105493
 10
148.9819443901
 20
79.1649443388
 10
147.4351367664
 20
79.7454311591
 10
145.8903451778
 20
80.3341592723
 10
144.3476580289
 20
80.9310997291
 10
142.8069994485
 20
81.5362771008
 10
141.2684639146
 20
82.1496584784
 10
139.7320589377
 20
82.7712439307
 10
138.1977889883
 20
83.4010285506
 10
136.665743259
 20
84.0389713709
 10
135.135845985
 20
84.6851085786
 10
133.6081843928
 20
85.339398731
 10
132.083090416
 20
86.0016830124
 10
130.5609012571
 20
86.6718109192
 10
129.0412871491
 20
87.3499245125
 10
127.5235810394
 20
88.0363049927
 10
126.0075665487
 20
88.7310460575
 10
124.4934747744
 20
89.4340513636
 10
122.9813127524
 20
90.1453193208
  0
LINE
  5
253
100
AcDbEntity
  8
RACCORDO
100
AcDbLine
 62
7
  6
CONTINUOUS
 10
156.4966166497
 20
75.2706506499
 11
160.8487345369
 21
73.8055215209
  0
LWPOLYLINE
  5
254
100
AcDbEntity
  8
RACCORDO
100
AcDbPolyline
 62
7
  6
CONTINUOUS
 90
37
 70
0
 10
161.3042358469
 20
74.524711074
 10
161.3114080684
 20
74.5221082206
 10
161.3187663619
 20
74.5196822467
 10
161.3262974761
 20
74.5174375213
 10
161.3339878489
 20
74.5153780866
 10
161.341823631
 20
74.5135076514
 10
161.3497907114
 20
74.5118295841
 10
161.3578747427
 20
74.5103469066
 10
161.3660611669
 20
74.5090622889
 10
161.3743352414
 20
74.5079780445
 10
161.3826820661
 20
74.5070961259
 10
161.3910866096
 20
74.5064181212
 10
161.3995337367
 20
74.5059452516
 10
161.4080082354
 20
74.5056783684
 10
161.4164948445
 20
74.5056179524
 10
161.424978281
 20
74.5057641124
 10
161.4334432676
 20
74.5061165851
 10
161.4418745601
 20
74.5066747358
 10
161.4502569752
 20
74.5074375593
 10
161.4585754174
 20
74.508403682
 10
161.4668149067
 20
74.5095713639
 10
161.4749606049
 20
74.5109385023
 10
161.4829978429
 20
74.5125026352
 10
161.490912147
 20
74.5142609459
 10
161.4986892648
 20
74.5162102678
 10
161.506315191
 20
74.5183470906
 10
161.5137761923
 20
74.5206675662
 10
161.5210588329
 20
74.5231675158
 10
161.5281499977
 20
74.5258424374
 10
161.5350369167
 20
74.5286875138
 10
161.5417071878
 20
74.5316976216
 10
161.5481487988
 20
74.53486734
 10
161.5543501493
 20
74.5381909608
 10
161.5603000718
 20
74.5416624988
 10
161.5659878513
 20
74.5452757023
 10
161.5714032451
 20
74.5490240644
 10
161.576536501
 20
74.552900835
  0
LWPOLYLINE
  5
255
100
AcDbEntity
  8
RACCORDO
100
AcDbPolyline
 62
7
  6
CONTINUOUS
 90
24
 70
0
 10
160.1769951391
 20
75.7073156492
 10
160.1699627375
 20
75.7101239834
 10
160.1631465184
 20
75.7131025202
 10
160.1565589943
 20
75.716245792
 10
160.1502122577
 20
75.7195480289
 10
160.1441179593
 20
75.7230031688
 10
160.1382872862
 20
75.7266048694
 10
160.1327309418
 20
75.730346519
 10
160.1274591257
 20
75.7342212492
 10
160.1224815154
 20
75.7382219472
 10
160.1178072481
 20
75.742341269
 10
160.1134449044
 20
75.7465716529
 10
160.1094024922
 20
75.7509053331
 10
160.105687432
 20
75.7553343546
 10
160.1023065435
 20
75.7598505869
 10
160.0992660331
 20
75.7644457397
 10
160.0965714821
 20
75.7691113778
 10
160.0942278369
 20
75.7738389366
 10
160.0922393998
 20
75.7786197378
 10
160.0906098208
 20
75.7834450052
 10
160.0893420914
 20
75.7883058814
 10
160.0884385388
 20
75.7931934431
 10
160.0879008216
 20
75.7980987185
 10
160.0877297083
 20
75.8028369234
  0
LINE
  5
256
100
AcDbEntity
  8
0
100
AcDbLine
 62
7
  6
CONTINUOUS
 10
138.8095939003
 20
83.9264595352
 11
138.4930189226
 21
84.053042513
  0
LINE
  5
257
100
AcDbEntity
  8
0
100
AcDbLine
 62
7
  6
CONTINUOUS
 10
138.8580341136
 20
83.9958736289
 11
138.5658594053
 21
84.1127099433
  0
LINE
  5
258
100
AcDbEntity
  8
0
100
AcDbLine
 62
7
  6
CONTINUOUS
 10
139.9240794838
 20
83.4803323572
 11
139.5939275838
 21
83.6125722934
  0
LINE
  5
259
100
AcDbEntity
  8
0
100
AcDbLine
 62
7
  6
CONTINUOUS
 10
139.9532255785
 20
83.5574591299
 11
139.6667363208
 21
83.6722137191
  0
LINE
  5
25A
100
AcDbEntity
  8
0
100
AcDbLine
 62
7
  6
CONTINUOUS
 10
140.542965352
 20
83.2322604683
 11
140.2129170205
 21
83.3645852429
  0
LINE
  5
25B
100
AcDbEntity
  8
0
100
AcDbLine
 62
7
  6
CONTINUOUS
 10
140.5721072778
 20
83.3093939976
 11
140.2857141738
 21
83.4242171798
  0
LINE
  5
25C
100
AcDbEntity
  8
0
100
AcDbLine
 62
7
  6
CONTINUOUS
 10
141.189150668
 20
82.9729939339
 11
140.8592100255
 21
83.1054069221
  0
LINE
  5
25D
100
AcDbEntity
  8
0
100
AcDbLine
 62
7
  6
CONTINUOUS
 10
141.2356283535
 20
83.0431797751
 11
140.9319998519
 21
83.1650328572
  0
LINE
  5
25E
100
AcDbEntity
  8
0
100
AcDbLine
 62
7
  6
CONTINUOUS
 10
141.8351254426
 20
82.7135549331
 11
141.5052922765
 21
82.8460559608
  0
LINE
  5
25F
100
AcDbEntity
  8
0
100
AcDbLine
 62
7
  6
CONTINUOUS
 10
141.8642734978
 20
82.7907140152
 11
141.5780796286
 21
82.9056798691
  0
LINE
  5
260
100
AcDbEntity
  8
0
100
AcDbLine
 62
7
  6
CONTINUOUS
 10
142.4259392203
 20
82.4760447799
 11
142.0962044387
 21
82.6086263994
  0
LINE
  5
261
100
AcDbEntity
  8
0
100
AcDbLine
 62
7
  6
CONTINUOUS
 10
142.4729847185
 20
82.5460270458
 11
142.1689937714
 21
82.6682519301
  0
LINE
  5
262
100
AcDbEntity
  8
0
100
AcDbLine
 62
7
  6
CONTINUOUS
 10
143.4834662158
 20
82.0503739472
 11
143.1539084455
 21
82.1831005659
  0
LINE
  5
263
100
AcDbEntity
  8
0
100
AcDbLine
 62
7
  6
CONTINUOUS
 10
143.4933924039
 20
82.135345735
 11
143.2267114866
 21
82.2427373258
  0
LINE
  5
264
100
AcDbEntity
  8
0
100
AcDbLine
 62
7
  6
CONTINUOUS
 10
144.1029914258
 20
81.8896990538
 11
143.8171431419
 21
82.0049141562
  0
LINE
  5
265
100
AcDbEntity
  8
0
100
AcDbLine
 62
7
  6
CONTINUOUS
 10
144.0737847974
 20
81.812458153
 11
143.7443267311
 21
81.9452664445
  0
LINE
  5
266
100
AcDbEntity
  8
0
100
AcDbLine
 62
7
  6
CONTINUOUS
 10
145.0592558718
 20
81.5038963541
 11
144.7642139633
 21
81.6229911027
  0
LINE
  5
267
100
AcDbEntity
  8
0
100
AcDbLine
 62
7
  6
CONTINUOUS
 10
145.0618215445
 20
81.4137568543
 11
144.6913674231
 21
81.5633187104
  0
LWPOLYLINE
  5
268
100
AcDbEntity
  8
RACCORDO
100
AcDbPolyline
 62
7
  6
CONTINUOUS
 90
37
 70
0
 10
122.6765554024
 20
90.7683376751
 10
122.6835615332
 20
90.7655078182
 10
122.6907725689
 20
90.7628526935
 10
122.6981752724
 20
90.7603771749
 10
122.7057560547
 20
90.7580858067
 10
122.7135009997
 20
90.7559827951
 10
122.7213958903
 20
90.7540720006
 10
122.7294262339
 20
90.7523569309
 10
122.7375772894
 20
90.7508407341
 10
122.745834094
 20
90.7495261936
 10
122.7541814908
 20
90.7484157225
 10
122.7626041568
 20
90.7475113592
 10
122.7710866304
 20
90.7468147639
 10
122.7796133407
 20
90.7463272152
 10
122.7881686352
 20
90.7460496082
 10
122.7967368092
 20
90.7459824525
 10
122.8053021342
 20
90.7461258713
 10
122.8138488869
 20
90.7464796014
 10
122.8223613783
 20
90.7470429935
 10
122.8308239822
 20
90.7478150132
 10
122.8392211638
 20
90.7487942435
 10
122.8475375086
 20
90.7499788868
 10
122.8557577505
 20
90.7513667685
 10
122.8638667996
 20
90.7529553408
 10
122.8718497703
 20
90.7547416876
 10
122.8796920085
 20
90.7567225298
 10
122.8873791183
 20
90.7588942312
 10
122.8948969885
 20
90.7612528051
 10
122.9022318188
 20
90.7637939221
 10
122.9093701447
 20
90.7665129175
 10
122.9162988625
 20
90.7694047999
 10
122.9230052533
 20
90.7724642609
 10
122.9294770064
 20
90.7756856843
 10
122.9357022415
 20
90.7790631564
 10
122.9416695311
 20
90.7825904774
 10
122.9473679213
 20
90.7862611723
 10
122.9527869515
 20
90.7900685027
  0
LWPOLYLINE
  5
269
100
AcDbEntity
  8
RACCORDO
100
AcDbPolyline
 62
7
  6
CONTINUOUS
 90
23
 70
0
 10
121.5878173045
 20
90.4757201464
 10
121.5810999969
 20
90.4786956408
 10
121.5746088312
 20
90.4818319217
 10
121.5683554971
 20
90.4851233411
 10
121.5623512557
 20
90.4885639717
 10
121.5566069198
 20
90.4921476175
 10
121.551132834
 20
90.4958678249
 10
121.5459388563
 20
90.4997178944
 10
121.5410343402
 20
90.5036908927
 10
121.536428118
 20
90.507779665
 10
121.5321284848
 20
90.5119768482
 10
121.5281431836
 20
90.5162748837
 10
121.5244793912
 20
90.5206660316
 10
121.5211437057
 20
90.525142384
 10
121.5181421339
 20
90.5296958797
 10
121.5154800815
 20
90.5343183187
 10
121.5131623421
 20
90.5390013766
 10
121.5111930899
 20
90.5437366201
 10
121.5095758711
 20
90.5485155217
 10
121.508313598
 20
90.5533294753
 10
121.5074085439
 20
90.5581698119
 10
121.5068623387
 20
90.5630278146
 10
121.5066759109
 20
90.5679797541
  0
LWPOLYLINE
  5
26A
100
AcDbEntity
  8
RACCORDO
100
AcDbPolyline
 62
7
  6
CONTINUOUS
 90
10
 70
0
 10
122.1894751357
 20
89.1801521073
 10
126.411207003
 20
87.2017791161
 10
130.6505599949
 20
85.2870205633
 10
134.9074126707
 20
83.4359358579
 10
139.1820565731
 20
81.6484169376
 10
143.4739586089
 20
79.9246922196
 10
147.78174505
 20
78.2653134894
 10
152.1048593948
 20
76.6704899891
 10
156.4435783752
 20
75.1401015248
 10
160.7977631375
 20
73.6741932423
  0
LWPOLYLINE
  5
26B
100
AcDbEntity
  8
RACCORDO
100
AcDbPolyline
 62
7
  6
CONTINUOUS
 90
9
 70
0
 10
122.2531837229
 20
89.3063648441
 10
126.4728312871
 20
87.3288800978
 10
130.710986818
 20
85.4146396631
 10
134.9670561287
 20
83.5638985817
 10
139.2403577906
 20
81.7769404375
 10
143.5303846466
 20
80.0539687772
 10
147.836803893
 20
78.3951173333
 10
152.1591083712
 20
76.8005900212
 10
156.4966166497
 20
75.2706506499
  0
LWPOLYLINE
  5
26C
100
AcDbEntity
  8
RACCORDO
100
AcDbPolyline
 62
7
  6
CONTINUOUS
 90
28
 70
0
 10
122.2306231618
 20
89.4750618153
 10
123.61952751
 20
88.8171494477
 10
125.0234271178
 20
88.1600142072
 10
126.4293385848
 20
87.5098426575
 10
127.837222115
 20
86.8666530762
 10
129.2470639894
 20
86.230451084
 10
130.6588747119
 20
85.6012316694
 10
132.072630228
 20
84.9790055666
 10
133.4883037401
 20
84.3637841466
 10
134.9059019422
 20
83.7555643513
 10
136.3253985831
 20
83.1543575503
 10
137.746767774
 20
82.5601743439
 10
139.1700170341
 20
81.9730114959
 10
140.5951203328
 20
81.3928799207
 10
142.0220513252
 20
80.8197900629
 10
143.4508173268
 20
80.2537389753
 10
144.8813920022
 20
79.6947373546
 10
146.3137488736
 20
79.142795359
 10
147.7478952939
 20
78.5979102336
 10
149.1838049517
 20
78.0600923271
 10
150.621450696
 20
77.5293517013
 10
152.0608388511
 20
77.0056861689
 10
153.5019417294
 20
76.4891062256
 10
154.9447339751
 20
75.9796209652
 10
156.3892256321
 20
75.4772271295
 10
157.8354020584
 20
74.9819304734
 10
159.2832213184
 20
74.4937455297
 10
160.7203502519
 20
74.016733668
  0
LWPOLYLINE
  5
26D
100
AcDbEntity
  8
RACCORDO
100
AcDbPolyline
 62
7
  6
CONTINUOUS
 90
28
 70
0
 10
122.1979239864
 20
89.5632988275
 10
123.5983761966
 20
88.8999667748
 10
125.000811905
 20
88.243595797
 10
126.4052268063
 20
87.5941881808
 10
127.8116220013
 20
86.9517442935
 10
129.219987768
 20
86.3162683401
 10
130.6303034896
 20
85.6877683063
 10
132.0425720435
 20
85.0662430915
 10
133.456781758
 20
84.4516982451
 10
134.872889965
 20
83.8441515498
 10
136.290890903
 20
83.2436056319
 10
137.7107811713
 20
82.6500620288
 10
139.1325213468
 20
82.0635366532
 10
140.5561016344
 20
81.4840334257
 10
141.981522346
 20
80.9115523335
 10
143.4087589995
 20
80.346103209
 10
144.837811852
 20
79.7876858367
 10
146.2686710006
 20
79.2363042068
 10
147.701296505
 20
78.6919742808
 10
149.1356845734
 20
78.1546974092
 10
150.5718290423
 20
77.6244757557
 10
152.0096861274
 20
77.1013262605
 10
153.4492433222
 20
76.5852530878
 10
154.8905028374
 20
76.0762552923
 10
156.3334427508
 20
75.5743419667
 10
157.778052252
 20
75.0795171499
 10
159.2243317113
 20
74.5917798853
 10
160.6722759096
 20
74.1111317112
  0
LWPOLYLINE
  5
26E
100
AcDbEntity
  8
RACCORDO
100
AcDbPolyline
 62
7
  6
CONTINUOUS
 90
52
 70
0
 10
122.9813127524
 20
90.1453193208
 10
122.9750775057
 20
90.1483659588
 10
122.9688534211
 20
90.1515975852
 10
122.9626404986
 20
90.1550142001
 10
122.9564894184
 20
90.1585768438
 10
122.9503494992
 20
90.1623244751
 10
122.9440687011
 20
90.1663739734
 10
122.9375833755
 20
90.1707581461
 10
122.9309571769
 20
90.1754441904
 10
122.9242290223
 20
90.1804505728
 10
122.9174101994
 20
90.1857687785
 10
122.9104894243
 20
90.1914073251
 10
122.9034717555
 20
90.1974102274
 10
122.8963511405
 20
90.2037811904
 10
122.8891336358
 20
90.2105165122
 10
122.8818424632
 20
90.2176490965
 10
122.8744765264
 20
90.2251793746
 10
122.8670369247
 20
90.2331069177
 10
122.8595501718
 20
90.2414633388
 10
122.8520172478
 20
90.2502458063
 10
122.8444371745
 20
90.2594571535
 10
122.8368335267
 20
90.2691374903
 10
122.8292014066
 20
90.2792912202
 10
122.8215457131
 20
90.2899139407
 10
122.8139047137
 20
90.3010325512
 10
122.8062746541
 20
90.3126521886
 10
122.798659288
 20
90.3247677157
 10
122.7911081428
 20
90.33739062
 10
122.7836198247
 20
90.3505234332
 10
122.7761957248
 20
90.3641636215
 10
122.7688895459
 20
90.3783150719
 10
122.7616981911
 20
90.3929848516
 10
122.7546247525
 20
90.4081658897
 10
122.7477322139
 20
90.4238408641
 10
122.7410175514
 20
90.4400212719
 10
122.7344837819
 20
90.4566956106
 10
122.7282029476
 20
90.4738120563
 10
122.7221754089
 20
90.4913785429
 10
122.7164007964
 20
90.5093871296
 10
122.7109500562
 20
90.5277621787
 10
122.7058254511
 20
90.5465073905
 10
122.7010247084
 20
90.565619057
 10
122.6966119684
 20
90.5850104271
 10
122.6925895027
 20
90.6046845614
 10
122.6889550304
 20
90.6246383919
 10
122.6857658616
 20
90.6447759731
 10
122.6830241069
 20
90.6650997845
 10
122.6807276481
 20
90.6856073406
 10
122.6789274534
 20
90.7061952485
 10
122.6776405105
 20
90.7268290427
 10
122.6768498272
 20
90.7475431852
 10
122.6765554024
 20
90.7683376751
  0
LINE
  5
26F
100
AcDbEntity
  8
RACCORDO
100
AcDbLine
 62
7
  6
CONTINUOUS
 10
122.1643931491
 20
89.3535661785
 11
122.2531837229
 21
89.3063648441
  0
LWPOLYLINE
  5
270
100
AcDbEntity
  8
RACCORDO
100
AcDbPolyline
 62
7
  6
CONTINUOUS
 90
52
 70
0
 10
123.0148441789
 20
90.2712099779
 10
123.0117774142
 20
90.2728424516
 10
123.0087491296
 20
90.2746493508
 10
123.0057604893
 20
90.2766301544
 10
123.0028351049
 20
90.278757779
 10
122.999952195
 20
90.2810580729
 10
122.9970442804
 20
90.2836106995
 10
122.9940786484
 20
90.2864344683
 10
122.9910862189
 20
90.2895110683
 10
122.9880934411
 20
90.292865049
 10
122.9851061651
 20
90.2964901529
 10
122.9821190689
 20
90.3003921752
 10
122.9791422899
 20
90.3046135526
 10
122.9761742564
 20
90.3091558572
 10
122.9732180023
 20
90.3140165995
 10
122.9702908167
 20
90.3192320018
 10
122.9673944507
 20
90.3248010892
 10
122.96453031
 20
90.3307231675
 10
122.9617156065
 20
90.337034683
 10
122.9589538034
 20
90.3437315422
 10
122.9562465292
 20
90.3508153127
 10
122.9536087331
 20
90.358330703
 10
122.9510431082
 20
90.3662786173
 10
122.9485543234
 20
90.3746545995
 10
122.9461609137
 20
90.3834950287
 10
122.9438679418
 20
90.3928010329
 10
122.9416804995
 20
90.4025667046
 10
122.9396179003
 20
90.4128175482
 10
122.9376877507
 20
90.4235520089
 10
122.9358956552
 20
90.4347655424
 10
122.9342587271
 20
90.4464788216
 10
122.9327861545
 20
90.4586934354
 10
122.9314853419
 20
90.4714002359
 10
122.9303715352
 20
90.4846034473
 10
122.9294562294
 20
90.4983081916
 10
122.9287479065
 20
90.512500353
 10
122.9282577445
 20
90.5271551345
 10
122.9279993692
 20
90.5422746987
 10
122.9279816865
 20
90.5578468617
 10
122.9282086882
 20
90.5738254057
 10
122.928694819
 20
90.5902087629
 10
122.9294498064
 20
90.6069878699
 10
122.93047019
 20
90.6241054796
 10
122.9317707129
 20
90.6415593561
 10
122.933361943
 20
90.6593407099
 10
122.9352338035
 20
90.6773826598
 10
122.9374010417
 20
90.6956814506
 10
122.9398749042
 20
90.7142296153
 10
122.9426399502
 20
90.7329547853
 10
122.9456999289
 20
90.7518290279
 10
122.9490777891
 20
90.7708688415
 10
122.9527869515
 20
90.7900685027
  0
LINE
  5
271
100
AcDbEntity
  8
RACCORDO
100
AcDbLine
 62
7
  6
CONTINUOUS
 10
122.076914292
 20
89.4092749172
 11
122.1643931491
 21
89.3535661785
  0
LWPOLYLINE
  5
272
100
AcDbEntity
  8
RACCORDO
100
AcDbPolyline
 62
7
  6
CONTINUOUS
 90
19
 70
0
 10
122.9813127527
 20
131.4338718879
 10
122.9817207785
 20
131.4273995715
 10
122.9823101745
 20
131.4210789979
 10
122.9830800358
 20
131.4149198694
 10
122.9840291807
 20
131.40893164
 10
122.9851561523
 20
131.4031235017
 10
122.9864592207
 20
131.3975043698
 10
122.9879363857
 20
131.3920828697
 10
122.9895853799
 20
131.3868673233
 10
122.9914036721
 20
131.3818657364
 10
122.9933884712
 20
131.3770857865
 10
122.9955367307
 20
131.3725348106
 10
122.9978451528
 20
131.3682197945
 10
123.0003101943
 20
131.3641473617
 10
123.0029280713
 20
131.3603237634
 10
123.0056947654
 20
131.3567548686
 10
123.0086060297
 20
131.3534461557
 10
123.0116573955
 20
131.3504027034
 10
123.0148441791
 20
131.3476291835
  0
LWPOLYLINE
  5
273
100
AcDbEntity
  8
RACCORDO
100
AcDbPolyline
 62
7
  6
CONTINUOUS
 90
40
 70
0
 10
124.2969926611
 20
93.6014395054
 10
124.297378711
 20
93.5949960424
 10
124.2980188777
 20
93.5884488385
 10
124.2989121265
 20
93.5818084761
 10
124.3000570134
 20
93.5750856886
 10
124.301451688
 20
93.5682913423
 10
124.3030938959
 20
93.5614364193
 10
124.3049809826
 20
93.5545319996
 10
124.307109898
 20
93.5475892431
 10
124.309477201
 20
93.5406193719
 10
124.3120790651
 20
93.5336336516
 10
124.3149112848
 20
93.5266433736
 10
124.3179692821
 20
93.5196598368
 10
124.3212481144
 20
93.5126943289
 10
124.3247424817
 20
93.5057581086
 10
124.3284467359
 20
93.4988623874
 10
124.3323548897
 20
93.4920183111
 10
124.3364606261
 20
93.4852369422
 10
124.3407573088
 20
93.4785292417
 10
124.3452379927
 20
93.4719060515
 10
124.3498954355
 20
93.4653780772
 10
124.3547221092
 20
93.4589558701
 10
124.3597102121
 20
93.4526498108
 10
124.3648516817
 20
93.4464700921
 10
124.3701382076
 20
93.4404267026
 10
124.3755612449
 20
93.4345294105
 10
124.381112028
 20
93.4287877478
 10
124.386781585
 20
93.4232109951
 10
124.3925607517
 20
93.4178081663
 10
124.3984401872
 20
93.4125879944
 10
124.4044103882
 20
93.4075589169
 10
124.4104617046
 20
93.4027290625
 10
124.4165843556
 20
93.398106238
 10
124.4227684447
 20
93.3936979154
 10
124.4290039758
 20
93.3895112205
 10
124.4352808706
 20
93.38555292
 10
124.4415889848
 20
93.3818294112
 10
124.4479181229
 20
93.3783467126
 10
124.4542580543
 20
93.3751104537
 10
124.4605985313
 20
93.3721258658
  0
LWPOLYLINE
  5
274
100
AcDbEntity
  8
RACCORDO
100
AcDbPolyline
 62
7
  6
CONTINUOUS
 90
40
 70
0
 10
122.1979239865
 20
132.6781359377
 10
122.1976828008
 20
132.6848599926
 10
122.1976300074
 20
132.6917195799
 10
122.19776569
 20
132.6987038374
 10
122.1980896337
 20
132.7058017055
 10
122.1986013255
 20
132.7130019446
 10
122.1992999552
 20
132.720293153
 10
122.2001844165
 20
132.7276637852
 10
122.2012533087
 20
132.7351021695
 10
122.2025049394
 20
132.7425965272
 10
122.2039373266
 20
132.750134991
 10
122.205548202
 20
132.7577056236
 10
122.2073350148
 20
132.7652964368
 10
122.2092949355
 20
132.7728954106
 10
122.2114248607
 20
132.7804905117
 10
122.2137214176
 20
132.7880697134
 10
122.2161809694
 20
132.7956210139
 10
122.2187996216
 20
132.8031324557
 10
122.2215732275
 20
132.8105921441
 10
122.224497395
 20
132.8179882669
 10
122.2275674936
 20
132.8253091122
 10
122.2307786619
 20
132.8325430872
 10
122.2341258149
 20
132.839678737
 10
122.2376036523
 20
132.8467047622
 10
122.2412066671
 20
132.8536100369
 10
122.2449291537
 20
132.8603836267
 10
122.2487652175
 20
132.8670148054
 10
122.2527087842
 20
132.8734930726
 10
122.2567536091
 20
132.8798081698
 10
122.260893287
 20
132.8859500969
 10
122.2651212629
 20
132.8919091283
 10
122.2694308416
 20
132.8976758277
 10
122.2738151989
 20
132.9032410635
 10
122.2782673922
 20
132.9085960231
 10
122.2827803712
 20
132.9137322268
 10
122.2873469898
 20
132.9186415414
 10
122.2919600165
 20
132.9233161929
 10
122.2966121467
 20
132.9277487791
 10
122.3012960136
 20
132.9319322808
 10
122.3060042002
 20
132.9358600735
  0
LINE
  5
275
100
AcDbEntity
  8
RACCORDO
100
AcDbLine
 62
7
  6
CONTINUOUS
 10
122.6765554024
 20
90.7683376751
 11
122.6765554024
 21
131.0683136467
  0
LINE
  5
276
100
AcDbEntity
  8
RACCORDO
100
AcDbLine
 62
7
  6
CONTINUOUS
 10
122.9527869515
 20
90.7900685027
 11
122.9527869515
 21
131.0900444744
  0
LINE
  5
277
100
AcDbEntity
  8
RACCORDO
100
AcDbLine
 62
7
  6
CONTINUOUS
 10
125.1319680488
 20
94.2725748887
 11
125.1319680488
 21
129.9701968042
  0
LINE
  5
278
100
AcDbEntity
  8
SUPERFICI
100
AcDbLine
 62
7
  6
CONTINUOUS
 10
125.1366843286
 20
103.625624731
 11
125.1366843286
 21
108.1309609746
  0
LINE
  5
279
100
AcDbEntity
  8
SUPERFICI
100
AcDbLine
 62
7
  6
CONTINUOUS
 10
125.1366843286
 20
122.0565457275
 11
125.1366843286
 21
125.6003555074
  0
LINE
  5
27A
100
AcDbEntity
  8
DRAFT
100
AcDbLine
 62
7
  6
CONTINUOUS
 10
125.2446655251
 20
94.1548249126
 11
125.2446655251
 21
101.117617289
  0
LINE
  5
27B
100
AcDbEntity
  8
DRAFT
100
AcDbLine
 62
7
  6
CONTINUOUS
 10
125.2446655251
 20
125.6921786177
 11
125.2446655251
 21
129.9250774913
  0
LINE
  5
27C
100
AcDbEntity
  8
SUPERFICI
100
AcDbLine
 62
7
  6
CONTINUOUS
 10
125.2513996158
 20
103.7195939931
 11
125.2513996158
 21
108.2249302367
  0
LINE
  5
27D
100
AcDbEntity
  8
SUPERFICI
100
AcDbLine
 62
7
  6
CONTINUOUS
 10
125.2513996158
 20
122.1505149896
 11
125.2513996158
 21
126.6558512332
  0
LINE
  5
27E
100
AcDbEntity
  8
DRAFT
100
AcDbLine
 62
7
  6
CONTINUOUS
 10
125.3005933335
 20
94.0412452885
 11
125.3005933335
 21
94.2023837977
  0
LINE
  5
27F
100
AcDbEntity
  8
SUPERFICI
100
AcDbLine
 62
7
  6
CONTINUOUS
 10
125.4234725467
 20
103.8605478862
 11
125.4234725467
 21
108.3658841298
  0
LINE
  5
280
100
AcDbEntity
  8
SUPERFICI
100
AcDbLine
 62
7
  6
CONTINUOUS
 10
125.4234725467
 20
122.2914688827
 11
125.4234725467
 21
126.7968051263
  0
LINE
  5
281
100
AcDbEntity
  8
SUPERFICI
100
AcDbLine
 62
7
  6
CONTINUOUS
 10
125.538187834
 20
103.9545171483
 11
125.538187834
 21
108.4598533919
  0
LINE
  5
282
100
AcDbEntity
  8
SUPERFICI
100
AcDbLine
 62
7
  6
CONTINUOUS
 10
125.538187834
 20
122.3854381448
 11
125.538187834
 21
126.8907743884
  0
LINE
  5
283
100
AcDbEntity
  8
SUPERFICI
100
AcDbLine
 62
7
  6
CONTINUOUS
 10
125.7102607649
 20
104.0954710414
 11
125.7102607649
 21
108.600807285
  0
LINE
  5
284
100
AcDbEntity
  8
SUPERFICI
100
AcDbLine
 62
7
  6
CONTINUOUS
 10
125.7102607649
 20
122.5263920379
 11
125.7102607649
 21
127.0317282815
  0
LINE
  5
285
100
AcDbEntity
  8
SUPERFICI
100
AcDbLine
 62
7
  6
CONTINUOUS
 10
125.8249760522
 20
104.1894403035
 11
125.8249760522
 21
108.6947765471
  0
LINE
  5
286
100
AcDbEntity
  8
SUPERFICI
100
AcDbLine
 62
7
  6
CONTINUOUS
 10
125.8249760522
 20
122.6203613
 11
125.8249760522
 21
127.1256975436
  0
LINE
  5
287
100
AcDbEntity
  8
SUPERFICI
100
AcDbLine
 62
7
  6
CONTINUOUS
 10
125.9970489831
 20
104.3303941966
 11
125.9970489831
 21
108.8357304402
  0
LINE
  5
288
100
AcDbEntity
  8
SUPERFICI
100
AcDbLine
 62
7
  6
CONTINUOUS
 10
125.9970489831
 20
122.7613151931
 11
125.9970489831
 21
127.2666514367
  0
LINE
  5
289
100
AcDbEntity
  8
SUPERFICI
100
AcDbLine
 62
7
  6
CONTINUOUS
 10
126.0749279292
 20
127.6938201336
 11
126.0749279292
 21
127.4804461346
  0
LINE
  5
28A
100
AcDbEntity
  8
SUPERFICI
100
AcDbLine
 62
7
  6
CONTINUOUS
 10
126.0749279292
 20
122.825109891
 11
126.0749279292
 21
122.761735892
  0
LINE
  5
28B
100
AcDbEntity
  8
SUPERFICI
100
AcDbLine
 62
7
  6
CONTINUOUS
 10
126.0749279292
 20
109.2628991371
 11
126.0749279292
 21
109.0495251381
  0
LINE
  5
28C
100
AcDbEntity
  8
SUPERFICI
100
AcDbLine
 62
7
  6
CONTINUOUS
 10
126.0749279292
 20
104.3941888945
 11
126.0749279292
 21
104.3308148955
  0
LINE
  5
28D
100
AcDbEntity
  8
SUPERFICI
100
AcDbLine
 62
7
  6
CONTINUOUS
 10
126.1110975203
 20
127.7292670404
 11
126.1110975203
 21
127.3627895791
  0
LINE
  5
28E
100
AcDbEntity
  8
SUPERFICI
100
AcDbLine
 62
7
  6
CONTINUOUS
 10
126.1110975203
 20
109.2983460439
 11
126.1110975203
 21
108.9318685826
  0
LINE
  5
28F
100
AcDbEntity
  8
SUPERFICI
100
AcDbLine
 62
7
  6
CONTINUOUS
 10
126.1117642704
 20
104.4243634587
 11
126.1117642704
 21
108.9296997023
  0
LINE
  5
290
100
AcDbEntity
  8
SUPERFICI
100
AcDbLine
 62
7
  6
CONTINUOUS
 10
126.1117642704
 20
122.8552844552
 11
126.1117642704
 21
127.3606206988
  0
LWPOLYLINE
  5
291
100
AcDbEntity
  8
RACCORDO
100
AcDbPolyline
 62
7
  6
CONTINUOUS
 90
52
 70
0
 10
122.6765554024
 20
131.0683136467
 10
122.6768463642
 20
131.0888048221
 10
122.6776341005
 20
131.1088127019
 10
122.6789186126
 20
131.128337287
 10
122.6807160355
 20
131.1474010659
 10
122.6830102385
 20
131.1659815536
 10
122.6857528249
 20
131.1840112917
 10
122.6889465157
 20
131.2014857985
 10
122.6925885975
 20
131.2184095618
 10
122.6966225226
 20
131.2347285779
 10
122.7010513534
 20
131.2504379622
 10
122.7058720369
 20
131.2655426068
 10
122.7110188517
 20
131.2800031714
 10
122.7164946406
 20
131.2938131702
 10
122.7222965707
 20
131.3069790969
 10
122.7283504048
 20
131.3194810786
 10
122.7346554882
 20
131.3313083489
 10
122.7412124846
 20
131.3424716812
 10
122.7479491324
 20
131.3529835108
 10
122.7548622535
 20
131.3628352578
 10
122.7619550329
 20
131.3720355076
 10
122.7691647516
 20
131.3806224413
 10
122.7764894529
 20
131.3885926932
 10
122.7839310982
 20
131.3959496329
 10
122.791432843
 20
131.4027415434
 10
122.7989919085
 20
131.4089657758
 10
122.8066110759
 20
131.414624981
 10
122.8142418384
 20
131.4197753899
 10
122.8218789999
 20
131.4244150665
 10
122.8295277569
 20
131.4285459472
 10
122.8371551899
 20
131.432230069
 10
122.84475995
 20
131.4354688057
 10
122.8523433852
 20
131.4382607829
 10
122.8598766196
 20
131.4406639146
 10
122.8673602471
 20
131.4426791987
 10
122.8747936718
 20
131.4443056357
 10
122.8821462325
 20
131.4455981426
 10
122.8894139397
 20
131.4465568992
 10
122.8966007794
 20
131.4471817229
 10
122.9036880532
 20
131.4475269865
 10
122.9106687013
 20
131.4475950397
 10
122.9175497793
 20
131.4473835296
 10
122.9243337616
 20
131.4469397746
 10
122.93102659
 20
131.4462652014
 10
122.9376223192
 20
131.4453583804
 10
122.9441055921
 20
131.4442623462
 10
122.9504453659
 20
131.4429887299
 10
122.9566726791
 20
131.4415258968
 10
122.9628652979
 20
131.4398819827
 10
122.9690491448
 20
131.4380596997
 10
122.9751982965
 20
131.4360563348
 10
122.9813127524
 20
131.4338718878
  0
LWPOLYLINE
  5
292
100
AcDbEntity
  8
RACCORDO
100
AcDbPolyline
 62
7
  6
CONTINUOUS
 90
22
 70
0
 10
122.1979239867
 20
89.5632988278
 10
122.1976827988
 20
89.5570046146
 10
122.1976300033
 20
89.5508665485
 10
122.1977656839
 20
89.5448943494
 10
122.1980896258
 20
89.5390974742
 10
122.1986013158
 20
89.5334851024
 10
122.1992999438
 20
89.5280661212
 10
122.2001844035
 20
89.5228491116
 10
122.2012532944
 20
89.5178423349
 10
122.2025049238
 20
89.5130537192
 10
122.2039373098
 20
89.5084908475
 10
122.2055481841
 20
89.5041609451
 10
122.2073349959
 20
89.5000708685
 10
122.2092949159
 20
89.4962270942
 10
122.2114248404
 20
89.4926357091
 10
122.2137213967
 20
89.4893024
 10
122.2161809481
 20
89.4862324454
 10
122.2187996
 20
89.4834307065
 10
122.2215732057
 20
89.4809016199
 10
122.224497373
 20
89.4786491904
 10
122.2275674717
 20
89.4766769849
 10
122.2306231618
 20
89.4750618153
  0
LWPOLYLINE
  5
293
100
AcDbEntity
  8
SUPERFICI
100
AcDbPolyline
 62
7
  6
CONTINUOUS
 90
3
 70
0
 10
126.1101432758
 20
122.8378415784
 10
126.1110016446
 20
122.8518508021
 10
126.1110415777
 20
122.85469246
  0
LWPOLYLINE
  5
294
100
AcDbEntity
  8
SUPERFICI
100
AcDbPolyline
 62
7
  6
CONTINUOUS
 90
3
 70
0
 10
126.1101432758
 20
104.4069205819
 10
126.1110016446
 20
104.4209298056
 10
126.1110415777
 20
104.4237714635
  0
LWPOLYLINE
  5
295
100
AcDbEntity
  8
RACCORDO
100
AcDbPolyline
 62
7
  6
CONTINUOUS
 90
19
 70
0
 10
122.981312765
 20
90.1453193306
 10
122.9817207899
 20
90.1516657397
 10
122.9823101849
 20
90.1581442152
 10
122.9830800453
 20
90.1647448128
 10
122.9840291893
 20
90.1714574005
 10
122.98515616
 20
90.1782716747
 10
122.9864592275
 20
90.1851771754
 10
122.9879363917
 20
90.1921633029
 10
122.989585385
 20
90.1992193334
 10
122.9914036763
 20
90.206334436
 10
122.9933884745
 20
90.2134976892
 10
122.9955367331
 20
90.2206980974
 10
122.9978451544
 20
90.227924608
 10
123.000310195
 20
90.2351661285
 10
123.0029280711
 20
90.2424115431
 10
123.0056947644
 20
90.2496497303
 10
123.008606028
 20
90.2568695794
 10
123.011657393
 20
90.2640600081
 10
123.0148441758
 20
90.2712099792
  0
LWPOLYLINE
  5
296
100
AcDbEntity
  8
SUPERFICI
100
AcDbPolyline
 62
7
  6
CONTINUOUS
 90
10
 70
0
 10
126.1110786333
 20
127.7297659725
 10
126.1110016446
 20
127.7291701696
 10
126.1101432758
 20
127.7271363351
 10
126.1083482835
 20
127.7244921071
 10
126.1056350589
 20
127.7212947064
 10
126.1020713637
 20
127.717569642
 10
126.0977535832
 20
127.7133600666
 10
126.0927395281
 20
127.7087208274
 10
126.0870463848
 20
127.7037084784
 10
126.0807071395
 20
127.6983789227
  0
LWPOLYLINE
  5
297
100
AcDbEntity
  8
SUPERFICI
100
AcDbPolyline
 62
7
  6
CONTINUOUS
 90
10
 70
0
 10
126.1110786333
 20
109.298844976
 10
126.1110016446
 20
109.2982491731
 10
126.1101432758
 20
109.2962153386
 10
126.1083482835
 20
109.2935711106
 10
126.1056350589
 20
109.2903737099
 10
126.1020713637
 20
109.2866486455
 10
126.0977535832
 20
109.2824390701
 10
126.0927395281
 20
109.2777998309
 10
126.0870463848
 20
109.2727874819
 10
126.0807071395
 20
109.2674579262
  0
LINE
  5
298
100
AcDbEntity
  8
0
100
AcDbLine
 62
7
  6
CONTINUOUS
 10
126.0749279292
 20
122.761735892
 11
125.1319680488
 21
121.9187315413
  0
LINE
  5
299
100
AcDbEntity
  8
SUPERFICI
100
AcDbLine
 62
7
  6
CONTINUOUS
 10
125.1366843286
 20
122.0565457275
 11
125.2513996158
 21
122.1505149896
  0
LINE
  5
29A
100
AcDbEntity
  8
SUPERFICI
100
AcDbLine
 62
7
  6
CONTINUOUS
 10
125.4234725467
 20
122.2914688827
 11
125.538187834
 21
122.3854381448
  0
LINE
  5
29B
100
AcDbEntity
  8
SUPERFICI
100
AcDbLine
 62
7
  6
CONTINUOUS
 10
125.7102607649
 20
122.5263920379
 11
125.8249760522
 21
122.6203613
  0
LINE
  5
29C
100
AcDbEntity
  8
SUPERFICI
100
AcDbLine
 62
7
  6
CONTINUOUS
 10
125.9970489831
 20
122.7613151931
 11
126.1117642704
 21
122.8552844552
  0
LWPOLYLINE
  5
29D
100
AcDbEntity
  8
SUPERFICI
100
AcDbPolyline
 62
7
  6
CONTINUOUS
 90
10
 70
0
 10
153.5809715596
 20
84.3743473753
 10
153.5708729432
 20
84.3780903296
 10
153.5576155823
 20
84.3820579376
 10
153.5447746411
 20
84.3848437575
 10
153.5325148493
 20
84.3864192478
 10
153.5208989735
 20
84.3867902538
 10
153.5099382425
 20
84.3860263851
 10
153.4996950363
 20
84.3842133136
 10
153.4901964056
 20
84.3814084357
 10
153.4814403299
 20
84.3776358569
  0
LWPOLYLINE
  5
29E
100
AcDbEntity
  8
SUPERFICI
100
AcDbPolyline
 62
7
  6
CONTINUOUS
 90
10
 70
0
 10
135.1500505631
 20
91.7766207629
 10
135.1399519467
 20
91.7803637172
 10
135.1266945858
 20
91.7843313251
 10
135.1138536446
 20
91.7871171451
 10
135.1015938528
 20
91.7886926354
 10
135.089977977
 20
91.7890636414
 10
135.079017246
 20
91.7882997727
 10
135.0687740398
 20
91.7864867012
 10
135.0592754091
 20
91.7836818233
 10
135.0505193334
 20
91.7799092445
  0
LWPOLYLINE
  5
29F
100
AcDbEntity
  8
0
100
AcDbPolyline
 62
7
  6
CONTINUOUS
 90
27
 70
0
 10
144.9292033005
 20
82.8611803034
 10
144.9358768315
 20
82.8586544811
 10
144.9427474767
 20
82.8564214446
 10
144.9498152316
 20
82.8544811788
 10
144.9570934748
 20
82.852823053
 10
144.9645688189
 20
82.8514576663
 10
144.9722011098
 20
82.8504168456
 10
144.9799956203
 20
82.8497037846
 10
144.987947067
 20
82.8493152514
 10
144.9959994604
 20
82.8492734307
 10
145.0041506762
 20
82.8495817696
 10
145.0124028273
 20
82.8502367802
 10
145.0207062799
 20
82.8512502435
 10
145.0290624273
 20
82.852625117
 10
145.0374698652
 20
82.8543584038
 10
145.0458747635
 20
82.8564529539
 10
145.0542732643
 20
82.8589097998
 10
145.0626692162
 20
82.8617278749
 10
145.0710203498
 20
82.8649068843
 10
145.0793206418
 20
82.8684442933
 10
145.0875761083
 20
82.8723426098
 10
145.0957625405
 20
82.8766091062
 10
145.1038774406
 20
82.8812445939
 10
145.1119233012
 20
82.8862482419
 10
145.1198833995
 20
82.8916248622
 10
145.1277580036
 20
82.8973742955
 10
145.1360186041
 20
82.9038821847
  0
LWPOLYLINE
  5
2A0
100
AcDbEntity
  8
RACCORDO
100
AcDbPolyline
 62
7
  6
CONTINUOUS
 90
10
 70
0
 10
124.4605985313
 20
93.3721258658
 10
128.35049156
 20
91.8151458704
 10
132.3326469083
 20
90.2197890436
 10
136.4070645761
 20
88.5860553853
 10
140.6359506676
 20
86.8889614976
 10
144.9570990787
 20
85.1534907784
 10
149.1838914968
 20
83.4545934218
 10
153.2541218179
 20
81.8172528255
 10
157.229996146
 20
80.2164855918
 10
160.087729708
 20
79.0648616813
  0
LINE
  5
2A1
100
AcDbEntity
  8
0
100
AcDbLine
 62
7
  6
CONTINUOUS
 10
138.7691548169
 20
86.4159185496
 11
139.0991972464
 21
86.2835889405
  0
LINE
  5
2A2
100
AcDbEntity
  8
0
100
AcDbLine
 62
7
  6
CONTINUOUS
 10
139.8279767848
 20
85.9913084972
 11
140.1579613474
 21
85.8589314863
  0
LINE
  5
2A3
100
AcDbEntity
  8
0
100
AcDbLine
 62
7
  6
CONTINUOUS
 10
140.4054380607
 20
85.7596391369
 11
140.7353914607
 21
85.627236599
  0
LINE
  5
2A4
100
AcDbEntity
  8
0
100
AcDbLine
 62
7
  6
CONTINUOUS
 10
141.0240861529
 20
85.5113724733
 11
141.53270581
 21
85.3072039732
  0
LINE
  5
2A5
100
AcDbEntity
  8
0
100
AcDbLine
 62
7
  6
CONTINUOUS
 10
142.151240885
 20
85.0588447314
 11
142.6460244473
 21
84.8601208879
  0
LINE
  5
2A6
100
AcDbEntity
  8
RACCORDO
100
AcDbLine
 62
7
  6
CONTINUOUS
 10
160.087729708
 20
80.0699470628
 11
125.2955739336
 21
94.0432611926
  0
LINE
  5
2A7
100
AcDbEntity
  8
SUPERFICI
100
AcDbLine
 62
7
  6
CONTINUOUS
 10
156.8377834399
 20
81.4920147849
 11
152.3324471963
 21
83.3014593907
  0
LINE
  5
2A8
100
AcDbEntity
  8
SUPERFICI
100
AcDbLine
 62
7
  6
CONTINUOUS
 10
138.4068624434
 20
88.8942881724
 11
133.9015261998
 21
90.7037327783
  0
LINE
  5
2A9
100
AcDbEntity
  8
DRAFT
100
AcDbLine
 62
7
  6
CONTINUOUS
 10
125.2446655251
 20
94.2248456664
 11
125.3005933335
 21
94.2023837977
  0
LINE
  5
2AA
100
AcDbEntity
  8
SUPERFICI
100
AcDbLine
 62
7
  6
CONTINUOUS
 10
156.9524987271
 20
81.5859840469
 11
152.4471624835
 21
83.3954286528
  0
LINE
  5
2AB
100
AcDbEntity
  8
SUPERFICI
100
AcDbLine
 62
7
  6
CONTINUOUS
 10
138.5215777306
 20
88.9882574345
 11
134.016241487
 21
90.7977020404
  0
LINE
  5
2AC
100
AcDbEntity
  8
SUPERFICI
100
AcDbLine
 62
7
  6
CONTINUOUS
 10
157.124571658
 20
81.72693794
 11
152.6192354145
 21
83.5363825459
  0
LINE
  5
2AD
100
AcDbEntity
  8
SUPERFICI
100
AcDbLine
 62
7
  6
CONTINUOUS
 10
138.6936506615
 20
89.1292113276
 11
134.1883144179
 21
90.9386559335
  0
LINE
  5
2AE
100
AcDbEntity
  8
SUPERFICI
100
AcDbLine
 62
7
  6
CONTINUOUS
 10
157.2392869453
 20
81.8209072021
 11
152.7339507017
 21
83.630351808
  0
LINE
  5
2AF
100
AcDbEntity
  8
SUPERFICI
100
AcDbLine
 62
7
  6
CONTINUOUS
 10
138.8083659488
 20
89.2231805897
 11
134.3030297052
 21
91.0326251956
  0
LINE
  5
2B0
100
AcDbEntity
  8
SUPERFICI
100
AcDbLine
 62
7
  6
CONTINUOUS
 10
157.4113598762
 20
81.9618610952
 11
152.9060236326
 21
83.7713057011
  0
LINE
  5
2B1
100
AcDbEntity
  8
SUPERFICI
100
AcDbLine
 62
7
  6
CONTINUOUS
 10
138.9804388797
 20
89.3641344828
 11
134.4751026361
 21
91.1735790887
  0
LINE
  5
2B2
100
AcDbEntity
  8
SUPERFICI
100
AcDbLine
 62
7
  6
CONTINUOUS
 10
157.5260751635
 20
82.0558303573
 11
153.0207389199
 21
83.8652749632
  0
LINE
  5
2B3
100
AcDbEntity
  8
SUPERFICI
100
AcDbLine
 62
7
  6
CONTINUOUS
 10
139.095154167
 20
89.4581037449
 11
134.5898179234
 21
91.2675483508
  0
LINE
  5
2B4
100
AcDbEntity
  8
SUPERFICI
100
AcDbLine
 62
7
  6
CONTINUOUS
 10
157.6981480944
 20
82.1967842504
 11
153.1928118508
 21
84.0062288563
  0
LINE
  5
2B5
100
AcDbEntity
  8
SUPERFICI
100
AcDbLine
 62
7
  6
CONTINUOUS
 10
139.2672270979
 20
89.599057638
 11
134.7618908543
 21
91.4085022439
  0
LINE
  5
2B6
100
AcDbEntity
  8
SUPERFICI
100
AcDbLine
 62
7
  6
CONTINUOUS
 10
157.8128633817
 20
82.2907535125
 11
153.3075271381
 21
84.1001981184
  0
LINE
  5
2B7
100
AcDbEntity
  8
SUPERFICI
100
AcDbLine
 62
7
  6
CONTINUOUS
 10
139.3819423852
 20
89.6930269001
 11
134.8766061416
 21
91.502471506
  0
LINE
  5
2B8
100
AcDbEntity
  8
SUPERFICI
100
AcDbLine
 62
7
  6
CONTINUOUS
 10
157.9849363126
 20
82.4317074056
 11
153.479600069
 21
84.2411520115
  0
LINE
  5
2B9
100
AcDbEntity
  8
SUPERFICI
100
AcDbLine
 62
7
  6
CONTINUOUS
 10
139.5540153161
 20
89.8339807932
 11
135.0486790725
 21
91.6434253991
  0
LINE
  5
2BA
100
AcDbEntity
  8
SUPERFICI
100
AcDbLine
 62
7
  6
CONTINUOUS
 10
135.0360568262
 20
91.7706946095
 11
135.1487793144
 21
91.7254227169
  0
LINE
  5
2BB
100
AcDbEntity
  8
SUPERFICI
100
AcDbLine
 62
7
  6
CONTINUOUS
 10
139.7547670688
 20
89.8755541952
 11
139.9681410678
 21
89.7898583868
  0
LINE
  5
2BC
100
AcDbEntity
  8
SUPERFICI
100
AcDbLine
 62
7
  6
CONTINUOUS
 10
153.4669778227
 20
84.3684212219
 11
153.579700311
 21
84.3231493293
  0
LINE
  5
2BD
100
AcDbEntity
  8
SUPERFICI
100
AcDbLine
 62
7
  6
CONTINUOUS
 10
158.1856880653
 20
82.4732808076
 11
158.3990620643
 21
82.3875849992
  0
LINE
  5
2BE
100
AcDbEntity
  8
SUPERFICI
100
AcDbLine
 62
7
  6
CONTINUOUS
 10
158.0996515998
 20
82.5256766677
 11
153.5943153562
 21
84.3351212736
  0
LINE
  5
2BF
100
AcDbEntity
  8
SUPERFICI
100
AcDbLine
 62
7
  6
CONTINUOUS
 10
139.6687306033
 20
89.9279500553
 11
135.1633943597
 21
91.7373946612
  0
LINE
  5
2C0
100
AcDbEntity
  8
SUPERFICI
100
AcDbLine
 62
7
  6
CONTINUOUS
 10
135.1506238386
 20
91.7763788281
 11
140.0026493707
 21
89.827695988
  0
LINE
  5
2C1
100
AcDbEntity
  8
SUPERFICI
100
AcDbLine
 62
7
  6
CONTINUOUS
 10
153.5815448351
 20
84.3741054405
 11
158.4335703672
 21
82.4254226004
  0
LINE
  5
2C2
100
AcDbEntity
  8
0
100
AcDbLine
 62
7
  6
CONTINUOUS
 10
143.429350823
 20
84.5454085079
 11
143.7591427078
 21
84.4128736645
  0
LINE
  5
2C3
100
AcDbEntity
  8
RACCORDO
100
AcDbLine
 62
7
  6
CONTINUOUS
 10
123.9905423494
 20
93.1749112652
 11
123.9990730829
 21
93.1714960713
  0
LINE
  5
2C4
100
AcDbEntity
  8
0
100
AcDbLine
 62
7
  6
CONTINUOUS
 10
142.9387128604
 20
83.2049463233
 11
143.2546766144
 21
83.0778626613
  0
LINE
  5
2C5
100
AcDbEntity
  8
0
100
AcDbLine
 62
7
  6
CONTINUOUS
 10
144.5560666115
 20
84.0925212044
 11
145.3254114245
 21
83.7831343206
  0
LINE
  5
2C6
100
AcDbEntity
  8
0
100
AcDbLine
 62
7
  6
CONTINUOUS
 10
143.2008465417
 20
82.6422763061
 11
142.6788603569
 21
82.8522741107
  0
LINE
  5
2C7
100
AcDbEntity
  8
0
100
AcDbLine
 62
7
  6
CONTINUOUS
 10
143.2736475392
 20
82.701911392
 11
142.7516536296
 21
82.9119028689
  0
LINE
  5
2C8
100
AcDbEntity
  8
0
100
AcDbLine
 62
7
  6
CONTINUOUS
 10
145.1340084983
 20
83.4026401059
 11
144.7219415009
 21
83.5684502572
  0
LINE
  5
2C9
100
AcDbEntity
  8
0
100
AcDbLine
 62
7
  6
CONTINUOUS
 10
145.206847021
 20
83.4623059306
 11
144.7947667041
 21
83.6281051713
  0
LINE
  5
2CA
100
AcDbEntity
  8
0
100
AcDbLine
 62
7
  6
CONTINUOUS
 10
144.7420152915
 20
82.5680313612
 11
144.4536741068
 21
82.6841850633
  0
LINE
  5
2CB
100
AcDbEntity
  8
0
100
AcDbLine
 62
7
  6
CONTINUOUS
 10
144.5172353791
 20
83.0270716154
 11
144.9292032986
 21
82.8611803042
  0
LWPOLYLINE
  5
2CC
100
AcDbEntity
  8
RACCORDO
100
AcDbPolyline
 62
7
  6
CONTINUOUS
 90
10
 70
0
 10
124.2353740147
 20
93.0699947918
 10
128.1265047087
 20
91.5029859959
 10
132.1111567174
 20
89.900411764
 10
136.1890682
 20
88.2614758423
 10
140.4223919171
 20
86.560645091
 10
144.7488282434
 20
84.8230505977
 10
148.9814255628
 20
83.123776859
 10
153.0578254157
 20
81.4877582271
 10
157.0404333588
 20
79.8905010514
 10
160.087729708
 20
78.6699622897
  0
LINE
  5
2CD
100
AcDbEntity
  8
0
100
AcDbLine
 62
7
  6
CONTINUOUS
 10
144.6691804926
 20
82.5083685868
 11
144.3808484692
 21
82.6245297934
  0
LINE
  5
2CE
100
AcDbEntity
  8
RACCORDO
100
AcDbLine
 62
7
  6
CONTINUOUS
 10
123.9990730829
 20
93.1714960713
 11
124.0138647478
 21
93.1654725844
  0
LINE
  5
2CF
100
AcDbEntity
  8
RACCORDO
100
AcDbLine
 62
7
  6
CONTINUOUS
 10
124.0138647478
 20
93.1654725844
 11
124.0308349404
 21
93.1584564103
  0
LINE
  5
2D0
100
AcDbEntity
  8
RACCORDO
100
AcDbLine
 62
7
  6
CONTINUOUS
 10
124.0308349404
 20
93.1584564103
 11
124.0563702812
 21
93.1477561652
  0
LWPOLYLINE
  5
2D1
100
AcDbEntity
  8
0
100
AcDbPolyline
 62
7
  6
CONTINUOUS
 90
70
 70
0
 10
145.3254114222
 20
83.7831343215
 10
145.3386209134
 20
83.7775528428
 10
145.3517038331
 20
83.7714584956
 10
145.3646601975
 20
83.7648513374
 10
145.3775102828
 20
83.7577244262
 10
145.3902338457
 20
83.7500848222
 10
145.4027701225
 20
83.7419535846
 10
145.4151138802
 20
83.7333308576
 10
145.4272703843
 20
83.7242166131
 10
145.4391946167
 20
83.7146316462
 10
145.4508780583
 20
83.7045840241
 10
145.4623292592
 20
83.6940657896
 10
145.4735288041
 20
83.6830736977
 10
145.4844807312
 20
83.6716073905
 10
145.4951810332
 20
83.6596673362
 10
145.5055982265
 20
83.6472515276
 10
145.5157416884
 20
83.6343471968
 10
145.5256020718
 20
83.6209672196
 10
145.5351198035
 20
83.6071480437
 10
145.5442904909
 20
83.5928900929
 10
145.5531185505
 20
83.5781930287
 10
145.5615576183
 20
83.5630921369
 10
145.5695985888
 20
83.5475973912
 10
145.5772505844
 20
83.5316988778
 10
145.5844945796
 20
83.515402039
 10
145.5913323492
 20
83.4987040677
 10
145.5977621318
 20
83.4816078178
 10
145.6037595947
 20
83.4641272135
 10
145.6093284588
 20
83.4462479859
 10
145.6144650113
 20
83.4279844316
 10
145.6191337638
 20
83.4093933038
 10
145.6233315153
 20
83.3904750214
 10
145.6270614639
 20
83.3712291542
 10
145.6302977122
 20
83.3517111553
 10
145.6330363828
 20
83.3319355366
 10
145.6352813399
 20
83.3118877371
 10
145.6370182934
 20
83.291579583
 10
145.6382490175
 20
83.2709951497
 10
145.6389717194
 20
83.2501502932
 10
145.6391667543
 20
83.2291044929
 10
145.6388331103
 20
83.2078454413
 10
145.6379717703
 20
83.1863853402
 10
145.6365660731
 20
83.1648204039
 10
145.6346138951
 20
83.1431524801
 10
145.6321173189
 20
83.121379572
 10
145.6290659842
 20
83.0995920987
 10
145.6254593952
 20
83.0778074534
 10
145.6212979971
 20
83.0560080591
 10
145.6165728355
 20
83.0342318602
 10
145.6112712572
 20
83.012459683
 10
145.6054058601
 20
82.9907105008
 10
145.5990055638
 20
82.9690794691
 10
145.5920652078
 20
82.9475617437
 10
145.5845898947
 20
82.9261619598
 10
145.5766239369
 20
82.9049894892
 10
145.5681679855
 20
82.8840513806
 10
145.5592213329
 20
82.8633403814
 10
145.5498262549
 20
82.8429444158
 10
145.5399931601
 20
82.8228830577
 10
145.529711588
 20
82.8031365471
 10
145.5189925134
 20
82.7837338136
 10
145.5078221695
 20
82.7646597583
 10
145.4962142756
 20
82.7459293101
 10
145.4842210379
 20
82.7276164532
 10
145.4718376871
 20
82.7097230276
 10
145.4590689544
 20
82.6922470577
 10
145.4459813039
 20
82.6752568261
 10
145.4325812391
 20
82.6587631942
 10
145.4188622304
 20
82.6427552096
 10
145.4048711996
 20
82.6272684579
  0
LINE
  5
2D2
100
AcDbEntity
  8
RACCORDO
100
AcDbLine
 62
7
  6
CONTINUOUS
 10
124.0563702812
 20
93.1477561652
 11
124.0919140571
 21
93.1326592682
  0
LINE
  5
2D3
100
AcDbEntity
  8
RACCORDO
100
AcDbLine
 62
7
  6
CONTINUOUS
 10
124.0919140571
 20
93.1326592682
 11
124.137754061
 21
93.1129233039
  0
LINE
  5
2D4
100
AcDbEntity
  8
RACCORDO
100
AcDbLine
 62
7
  6
CONTINUOUS
 10
124.137754061
 20
93.1129233039
 11
124.1842656218
 21
93.0926290593
  0
LINE
  5
2D5
100
AcDbEntity
  8
RACCORDO
100
AcDbLine
 62
7
  6
CONTINUOUS
 10
124.1842656218
 20
93.0926290593
 11
124.2213662743
 21
93.0762378959
  0
LINE
  5
2D6
100
AcDbEntity
  8
RACCORDO
100
AcDbLine
 62
7
  6
CONTINUOUS
 10
124.2213662743
 20
93.0762378959
 11
124.2353740147
 21
93.0699947918
  0
LINE
  5
2D7
100
AcDbEntity
  8
SUPERFICI
100
AcDbLine
 62
7
  6
CONTINUOUS
 10
138.5215777306
 20
88.9882574345
 11
138.6076141961
 21
88.9358615744
  0
LINE
  5
2D8
100
AcDbEntity
  8
SUPERFICI
100
AcDbLine
 62
7
  6
CONTINUOUS
 10
138.8083659488
 20
89.2231805897
 11
138.8944024143
 21
89.1707847296
  0
LINE
  5
2D9
100
AcDbEntity
  8
SUPERFICI
100
AcDbLine
 62
7
  6
CONTINUOUS
 10
139.095154167
 20
89.4581037449
 11
139.1811906324
 21
89.4057078848
  0
LINE
  5
2DA
100
AcDbEntity
  8
SUPERFICI
100
AcDbLine
 62
7
  6
CONTINUOUS
 10
139.3819423852
 20
89.6930269001
 11
139.4679788506
 21
89.64063104
  0
LINE
  5
2DB
100
AcDbEntity
  8
SUPERFICI
100
AcDbLine
 62
7
  6
CONTINUOUS
 10
139.6687306033
 20
89.9279500553
 11
139.7547670688
 21
89.8755541952
  0
LINE
  5
2DC
100
AcDbEntity
  8
SUPERFICI
100
AcDbLine
 62
7
  6
CONTINUOUS
 10
156.9524987271
 20
81.5859840469
 11
157.0385351926
 21
81.5335881868
  0
LINE
  5
2DD
100
AcDbEntity
  8
SUPERFICI
100
AcDbLine
 62
7
  6
CONTINUOUS
 10
157.2392869453
 20
81.8209072021
 11
157.3253234108
 21
81.768511342
  0
LINE
  5
2DE
100
AcDbEntity
  8
SUPERFICI
100
AcDbLine
 62
7
  6
CONTINUOUS
 10
157.5260751635
 20
82.0558303573
 11
157.6121116289
 21
82.0034344972
  0
LINE
  5
2DF
100
AcDbEntity
  8
SUPERFICI
100
AcDbLine
 62
7
  6
CONTINUOUS
 10
157.8128633817
 20
82.2907535125
 11
157.8988998471
 21
82.2383576524
  0
LINE
  5
2E0
100
AcDbEntity
  8
SUPERFICI
100
AcDbLine
 62
7
  6
CONTINUOUS
 10
125.2513996158
 20
108.2249302367
 11
125.2145632746
 21
108.3447556725
  0
LINE
  5
2E1
100
AcDbEntity
  8
SUPERFICI
100
AcDbLine
 62
7
  6
CONTINUOUS
 10
125.538187834
 20
108.4598533919
 11
125.5013514928
 21
108.5796788277
  0
LINE
  5
2E2
100
AcDbEntity
  8
SUPERFICI
100
AcDbLine
 62
7
  6
CONTINUOUS
 10
125.8249760522
 20
108.6947765471
 11
125.788139711
 21
108.8146019829
  0
LINE
  5
2E3
100
AcDbEntity
  8
SUPERFICI
100
AcDbLine
 62
7
  6
CONTINUOUS
 10
126.1117642704
 20
108.9296997023
 11
126.0749279292
 21
109.0495251381
  0
LWPOLYLINE
  5
2E4
100
AcDbEntity
  8
RACCORDO
100
AcDbPolyline
 62
7
  6
CONTINUOUS
 90
52
 70
0
 10
122.9527869515
 20
131.0900444744
 10
122.9490887728
 20
131.103445906
 10
122.9457173195
 20
131.1165764038
 10
122.942659904
 20
131.129427889
 10
122.9398938021
 20
131.1420027252
 10
122.9374164121
 20
131.1542844986
 10
122.9352449904
 20
131.1662382242
 10
122.93336868
 20
131.1778586675
 10
122.9317729399
 20
131.1891415886
 10
122.9304689698
 20
131.2000551691
 10
122.9294463518
 20
131.2105965594
 10
122.9286903759
 20
131.2207640478
 10
122.9282051087
 20
131.2305297385
 10
122.9279809203
 20
131.2398927141
 10
122.9280030447
 20
131.2488547007
 10
122.9282671672
 20
131.2573945388
 10
122.9287641766
 20
131.265510885
 10
122.9294802146
 20
131.2732116129
 10
122.9304036828
 20
131.2804919339
 10
122.9315259506
 20
131.2873529629
 10
122.93283548
 20
131.2938043128
 10
122.9343168526
 20
131.2998553588
 10
122.9359629334
 20
131.3055111317
 10
122.9377641995
 20
131.3107795479
 10
122.9397024581
 20
131.3156749798
 10
122.9417717233
 20
131.320203329
 10
122.9439646833
 20
131.3243732671
 10
122.9462619612
 20
131.3282036826
 10
122.9486578854
 20
131.3317005738
 10
122.9511479982
 20
131.3348733303
 10
122.9537155106
 20
131.3377455521
 10
122.9563569849
 20
131.3403248713
 10
122.9590685308
 20
131.3426182138
 10
122.9618333113
 20
131.3446473806
 10
122.9646497802
 20
131.3464198281
 10
122.9675144431
 20
131.3479420099
 10
122.9704080739
 20
131.3492340048
 10
122.9733282008
 20
131.3503024123
 10
122.9762742989
 20
131.3511545786
 10
122.9792305018
 20
131.3518114967
 10
122.9821931383
 20
131.3522798788
 10
122.9851645215
 20
131.3525660768
 10
122.98813789
 20
131.3526893728
 10
122.9911155921
 20
131.3526555584
 10
122.9940947143
 20
131.3524693367
 10
122.9970606884
 20
131.3521474618
 10
122.9999981246
 20
131.3516989335
 10
123.0029232192
 20
131.3511256182
 10
123.0058678946
 20
131.3504305103
 10
123.0088419183
 20
131.3496146048
 10
123.0118341663
 20
131.3486801773
 10
123.0148441789
 20
131.3476291832
  0
LINE
  5
2E5
100
AcDbEntity
  8
RACCORDO
100
AcDbLine
 62
7
  6
CONTINUOUS
 10
123.9905423494
 20
93.1749112652
 11
123.7594148013
 21
92.6435440423
  0
LWPOLYLINE
  5
2E6
100
AcDbEntity
  8
RACCORDO
100
AcDbPolyline
 62
7
  6
CONTINUOUS
 90
4
 70
0
 10
123.7594148013
 20
92.6435440423
 10
123.5285821183
 20
92.1129792002
 10
123.4132763637
 20
91.8479977042
 10
123.2980439998
 20
91.5832159639
  0
LINE
  5
2E7
100
AcDbEntity
  8
RACCORDO
100
AcDbLine
 62
7
  6
CONTINUOUS
 10
123.2980439998
 20
91.5832159639
 11
122.9527869515
 21
90.7900685027
  0
LINE
  5
2E8
100
AcDbEntity
  8
RACCORDO
100
AcDbLine
 62
7
  6
CONTINUOUS
 10
124.2353740147
 20
93.0699947918
 11
124.0993551547
 21
92.7579127924
  0
LWPOLYLINE
  5
2E9
100
AcDbEntity
  8
RACCORDO
100
AcDbPolyline
 62
7
  6
CONTINUOUS
 90
3
 70
0
 10
124.0993551547
 20
92.7579127924
 10
123.827621173
 20
92.1345794337
 10
123.6919061094
 20
91.8233281168
  0
LINE
  5
2EA
100
AcDbEntity
  8
RACCORDO
100
AcDbLine
 62
7
  6
CONTINUOUS
 10
123.6919061094
 20
91.8233281168
 11
123.4207791427
 21
91.2016544049
  0
LINE
  5
2EB
100
AcDbEntity
  8
RACCORDO
100
AcDbLine
 62
7
  6
CONTINUOUS
 10
123.4207791427
 20
91.2016544049
 11
123.0148441789
 21
90.2712099779
  0
LWPOLYLINE
  5
2EC
100
AcDbEntity
  8
SUPERFICI
100
AcDbPolyline
 62
7
  6
CONTINUOUS
 90
8
 70
0
 10
126.0807071395
 20
104.3362723964
 10
126.0870463848
 20
104.343315006
 10
126.0927395281
 20
104.3513806599
 10
126.0977535832
 20
104.3604712201
 10
126.1020713637
 20
104.3705895019
 10
126.1056350589
 20
104.3817212227
 10
126.1083482835
 20
104.3938283733
 10
126.1101432758
 20
104.4069205819
  0
LINE
  5
2ED
100
AcDbEntity
  8
0
100
AcDbLine
 62
7
  6
CONTINUOUS
 10
126.0749279292
 20
104.3308148955
 11
125.1319680488
 21
103.4878105448
  0
LINE
  5
2EE
100
AcDbEntity
  8
DRAFT
100
AcDbLine
 62
7
  6
CONTINUOUS
 10
125.2446655251
 20
101.117617289
 11
125.1319680488
 21
101.0217836335
  0
LINE
  5
2EF
100
AcDbEntity
  8
0
100
AcDbLine
 62
7
  6
CONTINUOUS
 10
125.5962996747
 20
109.4620068848
 11
125.1319680488
 21
109.0805684539
  0
LINE
  5
2F0
100
AcDbEntity
  8
SUPERFICI
100
AcDbLine
 62
7
  6
CONTINUOUS
 10
126.0749279292
 20
109.0495251381
 11
125.1319680488
 21
108.2770976244
  0
LINE
  5
2F1
100
AcDbEntity
  8
SUPERFICI
100
AcDbLine
 62
7
  6
CONTINUOUS
 10
125.1366843286
 20
108.1309609746
 11
125.2513996158
 21
108.2249302367
  0
LINE
  5
2F2
100
AcDbEntity
  8
SUPERFICI
100
AcDbLine
 62
7
  6
CONTINUOUS
 10
125.4234725467
 20
108.3658841298
 11
125.538187834
 21
108.4598533919
  0
LINE
  5
2F3
100
AcDbEntity
  8
SUPERFICI
100
AcDbLine
 62
7
  6
CONTINUOUS
 10
125.7102607649
 20
108.600807285
 11
125.8249760522
 21
108.6947765471
  0
LINE
  5
2F4
100
AcDbEntity
  8
SUPERFICI
100
AcDbLine
 62
7
  6
CONTINUOUS
 10
125.9970489831
 20
108.8357304402
 11
126.1117642704
 21
108.9296997023
  0
LINE
  5
2F5
100
AcDbEntity
  8
SUPERFICI
100
AcDbLine
 62
7
  6
CONTINUOUS
 10
125.1366843286
 20
103.625624731
 11
125.2513996158
 21
103.7195939931
  0
LINE
  5
2F6
100
AcDbEntity
  8
SUPERFICI
100
AcDbLine
 62
7
  6
CONTINUOUS
 10
125.4234725467
 20
103.8605478862
 11
125.538187834
 21
103.9545171483
  0
LINE
  5
2F7
100
AcDbEntity
  8
SUPERFICI
100
AcDbLine
 62
7
  6
CONTINUOUS
 10
125.7102607649
 20
104.0954710414
 11
125.8249760522
 21
104.1894403035
  0
LINE
  5
2F8
100
AcDbEntity
  8
SUPERFICI
100
AcDbLine
 62
7
  6
CONTINUOUS
 10
125.9970489831
 20
104.3303941966
 11
126.1117642704
 21
104.4243634587
  0
LINE
  5
2F9
100
AcDbEntity
  8
0
100
AcDbLine
 62
7
  6
CONTINUOUS
 10
125.2476183655
 20
109.2760872045
 11
125.1319680488
 21
109.1829101356
  0
LINE
  5
2FA
100
AcDbEntity
  8
0
100
AcDbLine
 62
7
  6
CONTINUOUS
 10
126.0749279292
 20
109.2628991371
 11
125.1319680488
 21
108.5610484604
  0
LINE
  5
2FB
100
AcDbEntity
  8
SUPERFICI
100
AcDbLine
 62
7
  6
CONTINUOUS
 10
125.5426827369
 20
109.4526470722
 11
125.2476183655
 21
109.2760872045
  0
LINE
  5
2FC
100
AcDbEntity
  8
DRAFT
100
AcDbLine
 62
7
  6
CONTINUOUS
 10
125.2446655251
 20
101.117617289
 11
125.1319680488
 21
101.1628791362
  0
LINE
  5
2FD
100
AcDbEntity
  8
SUPERFICI
100
AcDbLine
 62
7
  6
CONTINUOUS
 10
158.0996515998
 20
82.5256766677
 11
158.1856880653
 21
82.4732808076
  0
LWPOLYLINE
  5
2FE
100
AcDbEntity
  8
SUPERFICI
100
AcDbPolyline
 62
7
  6
CONTINUOUS
 90
3
 70
0
 10
126.1101870311
 20
109.3002103561
 10
126.1109080308
 20
109.2996196155
 10
126.1110786333
 20
109.298844976
  0
LINE
  5
2FF
100
AcDbEntity
  8
SUPERFICI
100
AcDbLine
 62
7
  6
CONTINUOUS
 10
125.2513996158
 20
126.6558512332
 11
125.2446655251
 21
126.6777566486
  0
LINE
  5
300
100
AcDbEntity
  8
SUPERFICI
100
AcDbLine
 62
7
  6
CONTINUOUS
 10
125.538187834
 20
126.8907743884
 11
125.5013514928
 21
127.0105998242
  0
LINE
  5
301
100
AcDbEntity
  8
SUPERFICI
100
AcDbLine
 62
7
  6
CONTINUOUS
 10
125.8249760522
 20
127.1256975436
 11
125.788139711
 21
127.2455229794
  0
LINE
  5
302
100
AcDbEntity
  8
SUPERFICI
100
AcDbLine
 62
7
  6
CONTINUOUS
 10
126.1117642704
 20
127.3606206988
 11
126.0749279292
 21
127.4804461346
  0
LWPOLYLINE
  5
303
100
AcDbEntity
  8
SUPERFICI
100
AcDbPolyline
 62
7
  6
CONTINUOUS
 90
3
 70
0
 10
140.0040858171
 20
89.8260928966
 10
140.0038963374
 20
89.8268939948
 10
140.0031636309
 20
89.8275011441
  0
LINE
  5
304
100
AcDbEntity
  8
0
100
AcDbLine
 62
7
  6
CONTINUOUS
 10
145.0328779267
 20
82.4241983423
 11
145.036162762
 21
82.3102175881
  0
LWPOLYLINE
  5
305
100
AcDbEntity
  8
0
100
AcDbPolyline
 62
7
  6
CONTINUOUS
 90
4
 70
0
 10
145.036162762
 20
82.3102175881
 10
145.0426808194
 20
82.0835381808
 10
145.0459140616
 20
81.9708395246
 10
145.0491300994
 20
81.8585682354
  0
LWPOLYLINE
  5
306
100
AcDbEntity
  8
0
100
AcDbPolyline
 62
7
  6
CONTINUOUS
 90
4
 70
0
 10
145.0491300994
 20
81.8585682354
 10
145.0555103612
 20
81.6353077901
 10
145.0586745852
 20
81.5243186339
 10
145.0618215445
 20
81.4137568543
  0
LINE
  5
307
100
AcDbEntity
  8
0
100
AcDbLine
 62
7
  6
CONTINUOUS
 10
144.6913674231
 20
81.5633187104
 11
144.6691804926
 21
82.5083685868
  0
LINE
  5
308
100
AcDbEntity
  8
0
100
AcDbLine
 62
7
  6
CONTINUOUS
 10
144.7642139633
 20
81.6229911027
 11
144.7420152915
 21
82.5680313612
  0
LINE
  5
309
100
AcDbEntity
  8
SUPERFICI
100
AcDbLine
 62
7
  6
CONTINUOUS
 10
139.9736954461
 20
89.7947323056
 11
139.9736954461
 21
89.3103248407
  0
LINE
  5
30A
100
AcDbEntity
  8
SUPERFICI
100
AcDbLine
 62
7
  6
CONTINUOUS
 10
140.0040858269
 20
89.8256204232
 11
140.0040858269
 21
89.3423072495
  0
LINE
  5
30B
100
AcDbEntity
  8
0
100
AcDbLine
 62
7
  6
CONTINUOUS
 10
143.1539084455
 20
82.1831005659
 11
143.2008465417
 21
82.6422763061
  0
LINE
  5
30C
100
AcDbEntity
  8
0
100
AcDbLine
 62
7
  6
CONTINUOUS
 10
143.2267114866
 20
82.2427373258
 11
143.2736475392
 21
82.701911392
  0
LWPOLYLINE
  5
30D
100
AcDbEntity
  8
0
100
AcDbPolyline
 62
7
  6
CONTINUOUS
 90
3
 70
0
 10
138.4930189226
 20
84.053042513
 10
138.5244667179
 20
84.3225647558
 10
138.555722913
 20
84.5903419058
  0
LWPOLYLINE
  5
30E
100
AcDbEntity
  8
0
100
AcDbPolyline
 62
7
  6
CONTINUOUS
 90
3
 70
0
 10
138.5658594053
 20
84.1127099433
 10
138.5973117012
 20
84.3822538841
 10
138.6285718457
 20
84.6500477766
  0
LWPOLYLINE
  5
30F
100
AcDbEntity
  8
0
100
AcDbPolyline
 62
7
  6
CONTINUOUS
 90
4
 70
0
 10
138.555722913
 20
84.5903419058
 10
138.617660379
 20
85.1206609572
 10
138.6483416498
 20
85.3832028587
 10
138.6788316919
 20
85.6439995776
  0
LWPOLYLINE
  5
310
100
AcDbEntity
  8
0
100
AcDbPolyline
 62
7
  6
CONTINUOUS
 90
4
 70
0
 10
138.6285718457
 20
84.6500477766
 10
138.6905155579
 20
85.1803854466
 10
138.7211991255
 20
85.4429292241
 10
138.7516909092
 20
85.7037228644
  0
LINE
  5
311
100
AcDbEntity
  8
0
100
AcDbLine
 62
7
  6
CONTINUOUS
 10
143.7591427078
 20
84.4128736645
 11
143.4834662158
 21
82.0503739472
  0
LWPOLYLINE
  5
312
100
AcDbEntity
  8
0
100
AcDbPolyline
 62
7
  6
CONTINUOUS
 90
3
 70
0
 10
138.6788316919
 20
85.6439995776
 10
138.7392383373
 20
86.1603574081
 10
138.7691548169
 20
86.4159185496
  0
LWPOLYLINE
  5
313
100
AcDbEntity
  8
0
100
AcDbPolyline
 62
7
  6
CONTINUOUS
 90
3
 70
0
 10
138.7516909092
 20
85.7037228644
 10
138.8120993696
 20
86.2200596748
 10
138.8320754169
 20
86.3906923957
  0
LINE
  5
314
100
AcDbEntity
  8
0
100
AcDbLine
 62
7
  6
CONTINUOUS
 10
143.2546766144
 20
83.0778626613
 11
143.3420398089
 21
83.8116569568
  0
LINE
  5
315
100
AcDbEntity
  8
0
100
AcDbLine
 62
7
  6
CONTINUOUS
 10
143.3274759419
 20
83.1374963792
 11
143.4148365305
 21
83.8712885401
  0
LINE
  5
316
100
AcDbEntity
  8
0
100
AcDbLine
 62
7
  6
CONTINUOUS
 10
139.0991972464
 20
86.2835889405
 11
138.8901660909
 21
84.6422345246
  0
LINE
  5
317
100
AcDbEntity
  8
0
100
AcDbLine
 62
7
  6
CONTINUOUS
 10
140.8592100255
 20
83.1054069221
 11
141.0745720659
 21
84.6393295257
  0
LINE
  5
318
100
AcDbEntity
  8
0
100
AcDbLine
 62
7
  6
CONTINUOUS
 10
140.9319998519
 20
83.1650328572
 11
141.1473648518
 21
84.6989578851
  0
LINE
  5
319
100
AcDbEntity
  8
0
100
AcDbLine
 62
7
  6
CONTINUOUS
 10
141.53270581
 20
85.3072039732
 11
141.3035802428
 21
83.7787854696
  0
LINE
  5
31A
100
AcDbEntity
  8
SUPERFICI
100
AcDbLine
 62
7
  6
CONTINUOUS
 10
139.2877023463
 20
88.7060597026
 11
139.2963156996
 21
88.7347458577
  0
LINE
  5
31B
100
AcDbEntity
  8
SUPERFICI
100
AcDbLine
 62
7
  6
CONTINUOUS
 10
133.8574267487
 20
90.6046280796
 11
133.9015261998
 21
90.7037327783
  0
LINE
  5
31C
100
AcDbEntity
  8
SUPERFICI
100
AcDbLine
 62
7
  6
CONTINUOUS
 10
134.1090133988
 20
90.7604427491
 11
134.1883144179
 21
90.9386559335
  0
LINE
  5
31D
100
AcDbEntity
  8
SUPERFICI
100
AcDbLine
 62
7
  6
CONTINUOUS
 10
134.395801617
 20
90.9953659043
 11
134.4751026361
 21
91.1735790887
  0
LINE
  5
31E
100
AcDbEntity
  8
SUPERFICI
100
AcDbLine
 62
7
  6
CONTINUOUS
 10
134.6825898352
 20
91.2302890595
 11
134.7618908543
 21
91.4085022439
  0
LINE
  5
31F
100
AcDbEntity
  8
SUPERFICI
100
AcDbLine
 62
7
  6
CONTINUOUS
 10
134.9693780533
 20
91.4652122147
 11
135.0486790725
 21
91.6434253991
  0
LINE
  5
320
100
AcDbEntity
  8
SUPERFICI
100
AcDbLine
 62
7
  6
CONTINUOUS
 10
138.3627629923
 20
88.7951834738
 11
138.4068624434
 21
88.8942881724
  0
LINE
  5
321
100
AcDbEntity
  8
SUPERFICI
100
AcDbLine
 62
7
  6
CONTINUOUS
 10
138.6076141961
 20
88.9358615744
 11
138.6936506615
 21
89.1292113276
  0
LINE
  5
322
100
AcDbEntity
  8
SUPERFICI
100
AcDbLine
 62
7
  6
CONTINUOUS
 10
138.8944024143
 20
89.1707847296
 11
138.9804388797
 21
89.3641344828
  0
LINE
  5
323
100
AcDbEntity
  8
SUPERFICI
100
AcDbLine
 62
7
  6
CONTINUOUS
 10
139.1811906324
 20
89.4057078848
 11
139.2672270979
 21
89.599057638
  0
LINE
  5
324
100
AcDbEntity
  8
SUPERFICI
100
AcDbLine
 62
7
  6
CONTINUOUS
 10
139.4679788506
 20
89.64063104
 11
139.5540153161
 21
89.8339807932
  0
LWPOLYLINE
  5
325
100
AcDbEntity
  8
RACCORDO
100
AcDbPolyline
 62
7
  6
CONTINUOUS
 90
10
 70
0
 10
122.253183752
 20
89.3063653796
 10
122.2428003523
 20
89.2971440628
 10
122.2326010002
 20
89.2857667996
 10
122.2228961154
 20
89.2725798607
 10
122.213981069
 20
89.2579845943
 10
122.2061271919
 20
89.2424252114
 10
122.1995735172
 20
89.2263752658
 10
122.1945195069
 20
89.2103232417
 10
122.1911189815
 20
89.1947576863
 10
122.1894754365
 20
89.1801523411
  0
LINE
  5
326
100
AcDbEntity
  8
DRAFT
100
AcDbLine
 62
7
  6
CONTINUOUS
 10
125.2446655251
 20
94.1548249126
 11
125.3005933335
 21
94.2023837977
  0
LWPOLYLINE
  5
327
100
AcDbEntity
  8
RACCORDO
100
AcDbPolyline
 62
7
  6
CONTINUOUS
 90
31
 70
0
 10
124.2969926611
 20
93.6014395054
 10
124.2853338539
 20
93.5918603045
 10
124.2737003766
 20
93.5818783438
 10
124.2620922291
 20
93.5714936232
 10
124.2504968853
 20
93.5606952555
 10
124.2389268715
 20
93.549494128
 10
124.227419766
 20
93.5379229022
 10
124.215975935
 20
93.5259792697
 10
124.2045950125
 20
93.5136655389
 10
124.1933134792
 20
93.5010212959
 10
124.182135058
 20
93.4880488108
 10
124.1710560261
 20
93.4747458136
 10
124.1601016961
 20
93.4611450802
 10
124.1492756222
 20
93.4472507248
 10
124.1385742503
 20
93.4330586332
 10
124.128012231
 20
93.4185892379
 10
124.1175883403
 20
93.4038410169
 10
124.1073038022
 20
93.3888154922
 10
124.0971769394
 20
93.373537663
 10
124.0872045966
 20
93.3580015307
 10
124.0773899291
 20
93.3422130939
 10
124.0677607251
 20
93.3262153472
 10
124.0583166076
 20
93.3100048708
 10
124.0490579536
 20
93.2935850846
 10
124.0400136821
 20
93.2770092424
 10
124.0311847503
 20
93.2602755497
 10
124.022570201
 20
93.243385801
 10
124.0141960815
 20
93.2263986344
 10
124.0060710743
 20
93.2093335959
 10
123.998186497
 20
93.1921711395
 10
123.9905423494
 20
93.1749112652
  0
LINE
  5
328
100
AcDbEntity
  8
RACCORDO
100
AcDbLine
 62
7
  6
CONTINUOUS
 10
121.5066759109
 20
90.636431292
 11
121.4163842263
 21
90.562468674
  0
LINE
  5
329
100
AcDbEntity
  8
RACCORDO
100
AcDbLine
 62
7
  6
CONTINUOUS
 10
122.3754028474
 20
89.4064808897
 11
122.2531837229
 21
89.3063648441
  0
LINE
  5
32A
100
AcDbEntity
  8
RACCORDO
100
AcDbLine
 62
7
  6
CONTINUOUS
 10
125.1319680488
 20
94.2725748887
 11
124.2969926611
 21
93.6014395054
  0
LINE
  5
32B
100
AcDbEntity
  8
RACCORDO
100
AcDbLine
 62
7
  6
CONTINUOUS
 10
125.2955739336
 20
94.0432611926
 11
124.4605985313
 21
93.3721258658
  0
LWPOLYLINE
  5
32C
100
AcDbEntity
  8
RACCORDO
100
AcDbPolyline
 62
7
  6
CONTINUOUS
 90
31
 70
0
 10
124.4605985225
 20
93.3721257668
 10
124.4520396659
 20
93.3653870284
 10
124.4434880567
 20
93.3583518123
 10
124.4349494335
 20
93.3510242919
 10
124.4264261766
 20
93.3434066234
 10
124.4179275011
 20
93.3355055792
 10
124.4094693336
 20
93.327333417
 10
124.4010573415
 20
93.3188959863
 10
124.3926972594
 20
93.3101995039
 10
124.3844048193
 20
93.3012586238
 10
124.3761878948
 20
93.2920833039
 10
124.3680494071
 20
93.2826783839
 10
124.3599973783
 20
93.2730519029
 10
124.3520395144
 20
93.2632147421
 10
124.3441784057
 20
93.253171824
 10
124.3364144685
 20
93.2429220251
 10
124.3287520568
 20
93.232471856
 10
124.3211971752
 20
93.2218302613
 10
124.313752979
 20
93.2109992264
 10
124.3064221227
 20
93.1999827509
 10
124.2992122944
 20
93.1887926187
 10
124.2921340611
 20
93.1774427249
 10
124.2851912415
 20
93.1659399044
 10
124.2783894881
 20
93.1542945316
 10
124.2717414001
 20
93.1425266356
 10
124.2652511697
 20
93.1306454537
 10
124.2589226158
 20
93.1186602479
 10
124.252766776
 20
93.106591847
 10
124.2467892482
 20
93.0944537007
 10
124.2409906617
 20
93.082251529
 10
124.2353739477
 20
93.069994818
  0
LWPOLYLINE
  5
32D
100
AcDbEntity
  8
RACCORDO
100
AcDbPolyline
 62
7
  6
CONTINUOUS
 90
10
 70
0
 10
121.4163842263
 20
90.562468674
 10
121.4049785149
 20
90.5546946105
 10
121.3913594303
 20
90.5481965019
 10
121.3759540323
 20
90.5431785145
 10
121.3592458101
 20
90.5397984503
 10
121.3417588415
 20
90.5381626178
 10
121.324041278
 20
90.5383227158
 10
121.3066492143
 20
90.5402742849
 10
121.2901292865
 20
90.5439565658
 10
121.2750007577
 20
90.549254384
  0
LINE
  5
32E
100
AcDbEntity
  8
SUPERFICI
100
AcDbLine
 62
7
  6
CONTINUOUS
 10
125.1319680488
 20
103.6251477406
 11
125.1366843286
 21
103.625624731
  0
LINE
  5
32F
100
AcDbEntity
  8
SUPERFICI
100
AcDbLine
 62
7
  6
CONTINUOUS
 10
125.2513996158
 20
103.843144946
 11
125.4234725467
 21
103.8605478862
  0
LINE
  5
330
100
AcDbEntity
  8
SUPERFICI
100
AcDbLine
 62
7
  6
CONTINUOUS
 10
125.538187834
 20
104.0780681012
 11
125.7102607649
 21
104.0954710414
  0
LINE
  5
331
100
AcDbEntity
  8
SUPERFICI
100
AcDbLine
 62
7
  6
CONTINUOUS
 10
125.8249760522
 20
104.3129912564
 11
125.9970489831
 21
104.3303941966
  0
LINE
  5
332
100
AcDbEntity
  8
SUPERFICI
100
AcDbLine
 62
7
  6
CONTINUOUS
 10
125.5962996747
 20
109.4620068848
 11
126.0807071395
 21
109.2674579262
  0
LINE
  5
333
100
AcDbEntity
  8
SUPERFICI
100
AcDbLine
 62
7
  6
CONTINUOUS
 10
125.6261323377
 20
109.4946176461
 11
126.1096610641
 21
109.3004216086
  0
LINE
  5
334
100
AcDbEntity
  8
0
100
AcDbLine
 62
7
  6
CONTINUOUS
 10
194.6660061873
 20
85.7021201191
 11
194.9247422543
 21
85.5982058815
  0
LINE
  5
335
100
AcDbEntity
  8
0
100
AcDbLine
 62
7
  6
CONTINUOUS
 10
140.7353914607
 20
85.627236599
 11
139.9240794838
 21
83.4803323572
  0
LINE
  5
336
100
AcDbEntity
  8
0
100
AcDbLine
 62
7
  6
CONTINUOUS
 10
140.2129170205
 20
83.3645852429
 11
141.0240861529
 21
85.5113724733
  0
LINE
  5
337
100
AcDbEntity
  8
0
100
AcDbLine
 62
7
  6
CONTINUOUS
 10
140.2857141738
 20
83.4242171798
 11
141.0677319113
 21
85.4938542827
  0
LINE
  5
338
100
AcDbEntity
  8
0
100
AcDbLine
 62
7
  6
CONTINUOUS
 10
141.0745720659
 20
84.6393295257
 11
140.542965352
 21
83.2322604683
  0
LINE
  5
339
100
AcDbEntity
  8
0
100
AcDbLine
 62
7
  6
CONTINUOUS
 10
141.5052922765
 20
82.8460559608
 11
142.036794014
 21
84.2530390266
  0
LINE
  5
33A
100
AcDbEntity
  8
0
100
AcDbLine
 62
7
  6
CONTINUOUS
 10
141.5780796286
 20
82.9056798691
 11
142.1095813523
 21
84.3126629235
  0
LINE
  5
33B
100
AcDbEntity
  8
0
100
AcDbLine
 62
7
  6
CONTINUOUS
 10
142.6460244473
 20
84.8601208879
 11
141.8351254426
 21
82.7135549331
  0
LINE
  5
33C
100
AcDbEntity
  8
0
100
AcDbLine
 62
7
  6
CONTINUOUS
 10
139.5939275838
 20
83.6125722934
 11
140.4054380607
 21
85.7596391369
  0
LINE
  5
33D
100
AcDbEntity
  8
0
100
AcDbLine
 62
7
  6
CONTINUOUS
 10
139.6667363208
 20
83.6722137191
 11
140.4490851733
 21
85.7421258001
  0
LINE
  5
33E
100
AcDbEntity
  8
0
100
AcDbLine
 62
7
  6
CONTINUOUS
 10
143.7443267311
 20
81.9452664445
 11
144.5560666115
 21
84.0925212044
  0
LINE
  5
33F
100
AcDbEntity
  8
0
100
AcDbLine
 62
7
  6
CONTINUOUS
 10
143.8171431419
 20
82.0049141562
 11
144.5997015457
 21
84.07497671
  0
LINE
  5
340
100
AcDbEntity
  8
0
100
AcDbLine
 62
7
  6
CONTINUOUS
 10
144.7219415009
 20
83.5684502572
 11
144.5172353791
 21
83.0270716154
  0
LINE
  5
341
100
AcDbEntity
  8
0
100
AcDbLine
 62
7
  6
CONTINUOUS
 10
144.3808484692
 20
82.6245297934
 11
144.0737847974
 21
81.812458153
  0
LINE
  5
342
100
AcDbEntity
  8
0
100
AcDbLine
 62
7
  6
CONTINUOUS
 10
142.036794014
 20
84.2530390266
 11
141.189150668
 21
82.9729939339
  0
LINE
  5
343
100
AcDbEntity
  8
0
100
AcDbLine
 62
7
  6
CONTINUOUS
 10
141.3035802428
 20
83.7787854696
 11
142.151240885
 21
85.0588447314
  0
LINE
  5
344
100
AcDbEntity
  8
0
100
AcDbLine
 62
7
  6
CONTINUOUS
 10
141.3763689676
 20
83.8384105024
 11
142.1775494452
 21
85.0482793566
  0
LINE
  5
345
100
AcDbEntity
  8
0
100
AcDbLine
 62
7
  6
CONTINUOUS
 10
138.8901660909
 20
84.6422345246
 11
139.8279767848
 21
85.9913084972
  0
LINE
  5
346
100
AcDbEntity
  8
0
100
AcDbLine
 62
7
  6
CONTINUOUS
 10
138.9630013214
 20
84.7018976526
 11
139.8524992761
 21
85.9814717457
  0
LINE
  5
347
100
AcDbEntity
  8
0
100
AcDbLine
 62
7
  6
CONTINUOUS
 10
140.1579613474
 20
85.8589314863
 11
138.8095939003
 21
83.9264595352
  0
LINE
  5
348
100
AcDbEntity
  8
0
100
AcDbLine
 62
7
  6
CONTINUOUS
 10
139.9681410678
 20
89.7898583868
 11
138.7257118765
 21
88.6494150194
  0
LWPOLYLINE
  5
349
100
AcDbEntity
  8
SUPERFICI
100
AcDbPolyline
 62
7
  6
CONTINUOUS
 90
7
 70
0
 10
139.2406238992
 20
88.6331006779
 10
139.2446091267
 20
88.6365228066
 10
139.2560018357
 20
88.6479379267
 10
139.2660323734
 20
88.6606230173
 10
139.2746178691
 20
88.6744986087
 10
139.2818411934
 20
88.6896441704
 10
139.2877023463
 20
88.7060597026
  0
LWPOLYLINE
  5
34A
100
AcDbEntity
  8
SUPERFICI
100
AcDbPolyline
 62
7
  6
CONTINUOUS
 90
10
 70
0
 10
139.9736954461
 20
89.7947323056
 10
139.9799918093
 20
89.8001219658
 10
139.9856945801
 20
89.8051208207
 10
139.9907418898
 20
89.8097134495
 10
139.9950763896
 20
89.8138995907
 10
139.9986304643
 20
89.8176381395
 10
140.0013365901
 20
89.82084549
 10
140.0031484013
 20
89.8234661442
 10
140.0040139534
 20
89.8254899105
 10
140.0040858171
 20
89.8260928966
  0
LINE
  5
34B
100
AcDbEntity
  8
0
100
AcDbLine
 62
7
  6
CONTINUOUS
 10
139.9736954461
 20
89.3103248407
 11
139.0449858513
 21
88.5211873932
  0
LINE
  5
34C
100
AcDbEntity
  8
SUPERFICI
100
AcDbLine
 62
7
  6
CONTINUOUS
 10
133.9015261998
 20
90.7037327783
 11
134.016241487
 21
90.7977020404
  0
LINE
  5
34D
100
AcDbEntity
  8
SUPERFICI
100
AcDbLine
 62
7
  6
CONTINUOUS
 10
134.1883144179
 20
90.9386559335
 11
134.3030297052
 21
91.0326251956
  0
LINE
  5
34E
100
AcDbEntity
  8
SUPERFICI
100
AcDbLine
 62
7
  6
CONTINUOUS
 10
134.4751026361
 20
91.1735790887
 11
134.5898179234
 21
91.2675483508
  0
LINE
  5
34F
100
AcDbEntity
  8
SUPERFICI
100
AcDbLine
 62
7
  6
CONTINUOUS
 10
134.7618908543
 20
91.4085022439
 11
134.8766061416
 21
91.502471506
  0
LINE
  5
350
100
AcDbEntity
  8
SUPERFICI
100
AcDbLine
 62
7
  6
CONTINUOUS
 10
135.0486790725
 20
91.6434253991
 11
135.1633943597
 21
91.7373946612
  0
LINE
  5
351
100
AcDbEntity
  8
SUPERFICI
100
AcDbLine
 62
7
  6
CONTINUOUS
 10
138.4068624434
 20
88.8942881724
 11
138.5215777306
 21
88.9882574345
  0
LINE
  5
352
100
AcDbEntity
  8
SUPERFICI
100
AcDbLine
 62
7
  6
CONTINUOUS
 10
138.6936506615
 20
89.1292113276
 11
138.8083659488
 21
89.2231805897
  0
LINE
  5
353
100
AcDbEntity
  8
SUPERFICI
100
AcDbLine
 62
7
  6
CONTINUOUS
 10
138.9804388797
 20
89.3641344828
 11
139.095154167
 21
89.4581037449
  0
LINE
  5
354
100
AcDbEntity
  8
SUPERFICI
100
AcDbLine
 62
7
  6
CONTINUOUS
 10
139.2672270979
 20
89.599057638
 11
139.3819423852
 21
89.6930269001
  0
LINE
  5
355
100
AcDbEntity
  8
SUPERFICI
100
AcDbLine
 62
7
  6
CONTINUOUS
 10
139.5540153161
 20
89.8339807932
 11
139.6687306033
 21
89.9279500553
  0
LINE
  5
356
100
AcDbEntity
  8
SUPERFICI
100
AcDbLine
 62
7
  6
CONTINUOUS
 10
139.7547670688
 20
89.8755541952
 11
138.4118238623
 21
88.7754795223
  0
LINE
  5
357
100
AcDbEntity
  8
RACCORDO
100
AcDbLine
 62
7
  6
CONTINUOUS
 10
160.9363487793
 20
117.5992668912
 11
160.789552048
 21
117.479999751
  0
LINE
  5
358
100
AcDbEntity
  8
RACCORDO
100
AcDbLine
 62
7
  6
CONTINUOUS
 10
161.6978301625
 20
116.458193174
 11
161.576536501
 21
116.3596384022
  0
LINE
  5
359
100
AcDbEntity
  8
0
100
AcDbLine
 62
7
  6
CONTINUOUS
 10
135.0360568262
 20
91.7706946095
 11
133.5925996046
 21
90.7109886311
  0
LINE
  5
35A
100
AcDbEntity
  8
SUPERFICI
100
AcDbLine
 62
7
  6
CONTINUOUS
 10
135.0505193334
 20
91.7799092445
 11
135.0425099164
 21
91.7752075853
  0
LINE
  5
35B
100
AcDbEntity
  8
SUPERFICI
100
AcDbLine
 62
7
  6
CONTINUOUS
 10
125.1319680488
 20
108.1304839842
 11
125.1366843286
 21
108.1309609746
  0
LINE
  5
35C
100
AcDbEntity
  8
SUPERFICI
100
AcDbLine
 62
7
  6
CONTINUOUS
 10
125.2145632746
 20
108.3447556725
 11
125.4234725467
 21
108.3658841298
  0
LINE
  5
35D
100
AcDbEntity
  8
SUPERFICI
100
AcDbLine
 62
7
  6
CONTINUOUS
 10
125.5013514928
 20
108.5796788277
 11
125.7102607649
 21
108.600807285
  0
LINE
  5
35E
100
AcDbEntity
  8
SUPERFICI
100
AcDbLine
 62
7
  6
CONTINUOUS
 10
125.788139711
 20
108.8146019829
 11
125.9970489831
 21
108.8357304402
  0
LWPOLYLINE
  5
35F
100
AcDbEntity
  8
RACCORDO
100
AcDbPolyline
 62
7
  6
CONTINUOUS
 90
6
 70
0
 10
122.2141227038
 20
133.1632789988
 10
122.2061194938
 20
133.1679512341
 10
122.199566872
 20
133.1752811515
 10
122.1945153937
 20
133.1851016506
 10
122.1911189258
 20
133.1971136023
 10
122.1894809232
 20
133.2109511267
  0
LWPOLYLINE
  5
360
100
AcDbEntity
  8
SUPERFICI
100
AcDbPolyline
 62
7
  6
CONTINUOUS
 90
3
 70
0
 10
126.1101870311
 20
127.7311313526
 10
126.1109080308
 20
127.730540612
 10
126.1110786333
 20
127.7297659725
  0
LINE
  5
361
100
AcDbEntity
  8
RACCORDO
100
AcDbLine
 62
7
  6
CONTINUOUS
 10
124.2353740096
 20
130.3360518059
 11
123.0148441789
 21
131.3476291831
  0
LWPOLYLINE
  5
362
100
AcDbEntity
  8
RACCORDO
100
AcDbPolyline
 62
7
  6
CONTINUOUS
 90
3
 70
0
 10
123.9905423387
 20
130.2289262579
 10
123.8749417245
 20
130.3249750477
 10
122.9527869515
 20
131.0900444744
  0
LWPOLYLINE
  5
363
100
AcDbEntity
  8
SUPERFICI
100
AcDbPolyline
 62
7
  6
CONTINUOUS
 90
3
 70
0
 10
158.4350068136
 20
82.4238195091
 10
158.4348173339
 20
82.4246206073
 10
158.4340846274
 20
82.4252277565
  0
LWPOLYLINE
  5
364
100
AcDbEntity
  8
RACCORDO
100
AcDbPolyline
 62
7
  6
CONTINUOUS
 90
7
 70
0
 10
161.7005800332
 20
74.3432258905
 10
161.701067928
 20
74.3376060754
 10
161.704371429
 20
74.3276210819
 10
161.7106955165
 20
74.3181272549
 10
161.7198416378
 20
74.3094226642
 10
161.7315226388
 20
74.3017806016
 10
161.7453717799
 20
74.2954409989
  0
LWPOLYLINE
  5
365
100
AcDbEntity
  8
RACCORDO
100
AcDbPolyline
 62
7
  6
CONTINUOUS
 90
7
 70
0
 10
161.7005800098
 20
116.4108520808
 10
161.7010666027
 20
116.4052002553
 10
161.7043674984
 20
116.3952155371
 10
161.7106895433
 20
116.3857207768
 10
161.7198352385
 20
116.377014178
 10
161.7315180788
 20
116.3693695871
 10
161.7453717749
 20
116.3630274871
  0
LWPOLYLINE
  5
366
100
AcDbEntity
  8
RACCORDO
100
AcDbPolyline
 62
7
  6
CONTINUOUS
 90
24
 70
0
 10
160.6722759097
 20
74.1111317113
 10
160.672710509
 20
74.1045660915
 10
160.6733196042
 20
74.0981622
 10
160.6741022309
 20
74.0919301774
 10
160.6750571499
 20
74.0858798923
 10
160.6761828489
 20
74.0800209253
 10
160.6774775455
 20
74.0743625541
 10
160.6789391894
 20
74.0689137388
 10
160.6805654661
 20
74.0636831077
 10
160.6823538005
 20
74.0586789435
 10
160.6843013606
 20
74.0539091704
 10
160.6864050624
 20
74.0493813414
 10
160.6886615749
 20
74.0451026263
 10
160.6910673246
 20
74.0410798005
 10
160.6936185022
 20
74.0373192342
 10
160.6963110678
 20
74.0338268823
 10
160.6991407576
 20
74.030608275
 10
160.7021030909
 20
74.027668509
 10
160.7051933767
 20
74.0250122393
 10
160.7084067216
 20
74.0226436723
 10
160.7117380372
 20
74.0205665587
 10
160.7151820483
 20
74.0187841874
 10
160.7187333014
 20
74.017299381
 10
160.7203495413
 20
74.0167339844
  0
LINE
  5
367
100
AcDbEntity
  8
RACCORDO
100
AcDbLine
 62
7
  6
CONTINUOUS
 10
161.7453717799
 20
116.3630274848
 11
161.7399627003
 21
116.4655432479
  0
LWPOLYLINE
  5
368
100
AcDbEntity
  8
RACCORDO
100
AcDbPolyline
 62
7
  6
CONTINUOUS
 90
19
 70
0
 10
159.8618630088
 20
75.3332588858
 10
159.8616203192
 20
75.3398666378
 10
159.8615480805
 20
75.3466108417
 10
159.8616464033
 20
75.3534811451
 10
159.8619151369
 20
75.3604670021
 10
159.8623538687
 20
75.3675576896
 10
159.8629619252
 20
75.3747423234
 10
159.8637383732
 20
75.3820098751
 10
159.8646820207
 20
75.3893491893
 10
159.8657914193
 20
75.396749
 10
159.867064866
 20
75.4041979487
 10
159.8685004062
 20
75.4116846014
 10
159.8700958363
 20
75.419197466
 10
159.8718487073
 20
75.4267250104
 10
159.8737563285
 20
75.4342556799
 10
159.8758157719
 20
75.441777915
 10
159.8780238762
 20
75.4492801692
 10
159.8803772519
 20
75.4567509266
 10
159.8828722867
 20
75.4641787196
  0
LWPOLYLINE
  5
369
100
AcDbEntity
  8
RACCORDO
100
AcDbPolyline
 62
7
  6
CONTINUOUS
 90
58
 70
0
 10
161.576536501
 20
116.3596384022
 10
161.5761910213
 20
116.3815196208
 10
161.575257824
 20
116.4036118048
 10
161.573737752
 20
116.4258993844
 10
161.5716321728
 20
116.4483665101
 10
161.5689426308
 20
116.4709974654
 10
161.5656707919
 20
116.4937766942
 10
161.5618189835
 20
116.5166883771
 10
161.5573900839
 20
116.5397160956
 10
161.5523871495
 20
116.5628432537
 10
161.5468137927
 20
116.586053361
 10
161.5406740336
 20
116.6093301519
 10
161.5339721304
 20
116.6326572664
 10
161.5267128134
 20
116.6560182039
 10
161.5189012854
 20
116.6793964146
 10
161.5105430714
 20
116.7027754168
 10
161.50164405
 20
116.7261386098
 10
161.4922105382
 20
116.7494694525
 10
161.4822492671
 20
116.7727515561
 10
161.4717672108
 20
116.79596837
 10
161.4607717741
 20
116.81910342
 10
161.4492708633
 20
116.8421404872
 10
161.4372725232
 20
116.8650631397
 10
161.4247851852
 20
116.8878551106
 10
161.4118178372
 20
116.9105005334
 10
161.3983794997
 20
116.9329832716
 10
161.3844796118
 20
116.9552872917
 10
161.3701282666
 20
116.977397037
 10
161.3553354623
 20
116.9992966806
 10
161.3401115416
 20
117.0209706151
 10
161.3244675626
 20
117.0424038193
 10
161.3084143825
 20
117.0635809528
 10
161.29196323
 20
117.0844868521
 10
161.2751261376
 20
117.1051070162
 10
161.2579148163
 20
117.1254266143
 10
161.2403412571
 20
117.1454311032
 10
161.2224182938
 20
117.1651067165
 10
161.2041583462
 20
117.1844393033
 10
161.1855741544
 20
117.2034149497
 10
161.1666793756
 20
117.2220205929
 10
161.1474871146
 20
117.2402427992
 10
161.1280107334
 20
117.2580684327
 10
161.1082645815
 20
117.275485273
 10
161.0882623436
 20
117.2924807114
 10
161.0680179405
 20
117.3090424526
 10
161.0475463398
 20
117.3251591851
 10
161.026861771
 20
117.3408191694
 10
161.0059785752
 20
117.3560110721
 10
160.9849121043
 20
117.3707246624
 10
160.9636768414
 20
117.3849492735
 10
160.9422876486
 20
117.3986744543
 10
160.9207606213
 20
117.4118908202
 10
160.8991109573
 20
117.4245885346
 10
160.8773534104
 20
117.436758481
 10
160.8555035318
 20
117.4483928747
 10
160.8335766187
 20
117.4594834934
 10
160.8115877115
 20
117.47002173
 10
160.789552048
 20
117.479999751
  0
LWPOLYLINE
  5
36A
100
AcDbEntity
  8
RACCORDO
100
AcDbPolyline
 62
7
  6
CONTINUOUS
 90
58
 70
0
 10
161.3042358469
 20
116.3314486413
 10
161.3039984508
 20
116.348996906
 10
161.3032896635
 20
116.3666892552
 10
161.3021094861
 20
116.3845256896
 10
161.3004564058
 20
116.4025198125
 10
161.2983319386
 20
116.4206580234
 10
161.2957406291
 20
116.438899518
 10
161.2926814911
 20
116.4572437758
 10
161.2891555174
 20
116.475691323
 10
161.2851702209
 20
116.4942029264
 10
161.2807246421
 20
116.5127786639
 10
161.2758197503
 20
116.531418466
 10
161.2704659524
 20
116.5500828784
 10
161.2646623049
 20
116.5687719785
 10
161.2584097638
 20
116.5874856997
 10
161.2517215856
 20
116.6061843722
 10
161.2445968567
 20
116.6248679715
 10
161.2370365058
 20
116.6435365352
 10
161.2290565535
 20
116.6621504858
 10
161.2206561184
 20
116.680709722
 10
161.2118360991
 20
116.6992143601
 10
161.202615187
 20
116.7176251498
 10
161.1929925458
 20
116.7359418962
 10
161.1829690308
 20
116.7541648106
 10
161.172565869
 20
116.7722552514
 10
161.1617822548
 20
116.7902129663
 10
161.1506190142
 20
116.8080382252
 10
161.1390998213
 20
116.8256931695
 10
161.1272239426
 20
116.8431774322
 10
161.1149921327
 20
116.8604913984
 10
161.1024302971
 20
116.8775983367
 10
161.0895377321
 20
116.8944978374
 10
161.0763151627
 20
116.9111903284
 10
161.0627906357
 20
116.9276403337
 10
161.0489635318
 20
116.9438473359
 10
161.034834491
 20
116.9598118705
 10
161.0204334479
 20
116.9755000389
 10
161.005759818
 20
116.9909112826
 10
160.9908142055
 20
117.0060461772
 10
160.9756283264
 20
117.0208725242
 10
160.9602016728
 20
117.0353896809
 10
160.9445347711
 20
117.049598306
 10
160.9286608857
 20
117.0634681506
 10
160.9125795761
 20
117.0769985062
 10
160.8962912995
 20
117.0901900958
 10
160.8798306654
 20
117.1030148157
 10
160.8631973318
 20
117.1154718822
 10
160.8463916551
 20
117.1275620916
 10
160.8294492893
 20
117.1392597075
 10
160.8123698907
 20
117.1505639275
 10
160.7951538146
 20
117.1614755642
 10
160.7778377608
 20
117.1719713016
 10
160.760420616
 20
117.1820506497
 10
160.7429035022
 20
117.191714106
 10
160.7253264678
 20
117.2009398334
 10
160.7077028632
 20
117.2097205533
 10
160.6900193429
 20
117.2180635486
 10
160.6722759096
 20
117.2259688213
  0
LINE
  5
36B
100
AcDbEntity
  8
SUPERFICI
100
AcDbLine
 62
7
  6
CONTINUOUS
 10
158.4046164426
 20
82.392458918
 11
158.4046164426
 21
81.9080514532
  0
LINE
  5
36C
100
AcDbEntity
  8
SUPERFICI
100
AcDbLine
 62
7
  6
CONTINUOUS
 10
158.4350068234
 20
82.4233470356
 11
158.4350068234
 21
81.9400338619
  0
LINE
  5
36D
100
AcDbEntity
  8
RACCORDO
100
AcDbLine
 62
7
  6
CONTINUOUS
 10
160.087717333
 20
116.1065691089
 11
160.087729708
 21
75.8028430012
  0
LINE
  5
36E
100
AcDbEntity
  8
RACCORDO
100
AcDbLine
 62
7
  6
CONTINUOUS
 10
160.1769951391
 20
116.0072916209
 11
160.1769951391
 21
75.7073156492
  0
LINE
  5
36F
100
AcDbEntity
  8
RACCORDO
100
AcDbLine
 62
7
  6
CONTINUOUS
 10
161.3042358469
 20
74.524711074
 11
161.3042358469
 21
116.3314486413
  0
LINE
  5
370
100
AcDbEntity
  8
RACCORDO
100
AcDbLine
 62
7
  6
CONTINUOUS
 10
161.576536501
 20
74.552900835
 11
161.576536501
 21
116.3596384022
  0
LINE
  5
371
100
AcDbEntity
  8
RACCORDO
100
AcDbLine
 62
7
  6
CONTINUOUS
 10
161.7005800332
 20
74.3432258905
 11
161.7005800098
 21
116.4108517102
  0
LINE
  5
372
100
AcDbEntity
  8
RACCORDO
100
AcDbLine
 62
7
  6
CONTINUOUS
 10
161.7453717799
 20
74.2954409989
 11
161.7453717799
 21
116.3630274848
  0
LINE
  5
373
100
AcDbEntity
  8
RACCORDO
100
AcDbLine
 62
7
  6
CONTINUOUS
 10
161.7005801533
 20
116.4109489132
 11
161.7005800098
 21
116.4108520808
  0
LWPOLYLINE
  5
374
100
AcDbEntity
  8
RACCORDO
100
AcDbPolyline
 62
7
  6
CONTINUOUS
 90
15
 70
0
 10
160.0877297015
 20
75.8028369234
 10
160.0877161375
 20
75.798929579
 10
160.0874517485
 20
75.7852556678
 10
160.0868661116
 20
75.772078795
 10
160.0859800759
 20
75.7594035484
 10
160.0848143873
 20
75.7472348617
 10
160.083389992
 20
75.7355809518
 10
160.081726965
 20
75.7244444607
 10
160.0798462522
 20
75.713831835
 10
160.0777714887
 20
75.7037587026
 10
160.0755242508
 20
75.6942276916
 10
160.0731269373
 20
75.6852421953
 10
160.0706074649
 20
75.6768192647
 10
160.0679923024
 20
75.6689652035
 10
160.0668733844
 20
75.6658413094
  0
LWPOLYLINE
  5
375
100
AcDbEntity
  8
RACCORDO
100
AcDbPolyline
 62
7
  6
CONTINUOUS
 90
52
 70
0
 10
160.1769951391
 20
75.7073156492
 10
160.1766941882
 20
75.6868162913
 10
160.1758794087
 20
75.6667862591
 10
160.1745508016
 20
75.6472255534
 10
160.1726916816
 20
75.6281112352
 10
160.1703187382
 20
75.6094662472
 10
160.1674820353
 20
75.5913594133
 10
160.1641787657
 20
75.5737951448
 10
160.1604117438
 20
75.5567690366
 10
160.156239466
 20
75.5403366887
 10
160.1516587739
 20
75.5245029067
 10
160.1466728348
 20
75.5092628928
 10
160.1413496333
 20
75.4946578406
 10
160.1356862384
 20
75.480694164
 10
160.1296855904
 20
75.4673654571
 10
160.1234244786
 20
75.4546936835
 10
160.1169035889
 20
75.442689635
 10
160.1101222437
 20
75.4313425269
 10
160.1031551852
 20
75.4206419559
 10
160.096005707
 20
75.4105965965
 10
160.0886705221
 20
75.4011977798
 10
160.0812144991
 20
75.3924090853
 10
160.0736396662
 20
75.3842339376
 10
160.0659439999
 20
75.3766689161
 10
160.0581862888
 20
75.3696673303
 10
160.0503694091
 20
75.3632319089
 10
160.0424904871
 20
75.3573599252
 10
160.0345996849
 20
75.3519965043
 10
160.0267023762
 20
75.3471437275
 10
160.0187931878
 20
75.342799514
 10
160.0109061598
 20
75.3389027443
 10
160.0030426861
 20
75.3354520819
 10
159.9952013719
 20
75.3324488626
 10
159.9874120734
 20
75.3298359754
 10
159.9796741745
 20
75.3276124044
 10
159.9719882893
 20
75.3257791637
 10
159.9643861173
 20
75.3242821873
 10
159.9568717802
 20
75.3231214033
 10
159.9494411531
 20
75.3222968807
 10
159.9421135652
 20
75.3217547633
 10
159.9348963115
 20
75.3214928941
 10
159.9277820931
 20
75.3215134268
 10
159.920768348
 20
75.321768971
 10
159.9138489293
 20
75.3222579324
 10
159.9070299803
 20
75.3229819024
 10
159.9003273737
 20
75.3238982691
 10
159.8937731978
 20
75.3249962574
 10
159.8873353601
 20
75.3262866388
 10
159.8809334623
 20
75.3277591217
 10
159.8745407054
 20
75.3294102757
 10
159.8681838876
 20
75.3312435305
 10
159.8618630084
 20
75.3332588855
  0
LWPOLYLINE
  5
376
100
AcDbEntity
  8
RACCORDO
100
AcDbPolyline
 62
7
  6
CONTINUOUS
 90
19
 70
0
 10
159.8618630201
 20
116.6218114625
 10
159.861620329
 20
116.615600487
 10
159.8615480888
 20
116.6095456398
 10
159.8616464103
 20
116.6036562152
 10
159.8619151425
 20
116.5979412533
 10
159.8623538731
 20
116.5924095265
 10
159.8629619285
 20
116.5870695261
 10
159.8637383754
 20
116.5819294487
 10
159.864682022
 20
116.5769971844
 10
159.8657914197
 20
116.5722803042
 10
159.8670648657
 20
116.5677860485
 10
159.8685004052
 20
116.5635213158
 10
159.8700958347
 20
116.5594926525
 10
159.8718487051
 20
116.5557062425
 10
159.873756326
 20
116.552167898
 10
159.875815769
 20
116.5488830503
 10
159.878023873
 20
116.5458567415
 10
159.8803772485
 20
116.5430936171
 10
159.8828722832
 20
116.5405979184
  0
LWPOLYLINE
  5
377
100
AcDbEntity
  8
RACCORDO
100
AcDbPolyline
 62
7
  6
CONTINUOUS
 90
3
 70
0
 10
161.7005284074
 20
74.3432259636
 10
161.6960919951
 20
74.2572287152
 10
161.6828953624
 20
74.1767266982
  0
LINE
  5
378
100
AcDbEntity
  8
RACCORDO
100
AcDbLine
 62
7
  6
CONTINUOUS
 10
161.7400009868
 20
74.1971856699
 11
161.7453717799
 21
74.2954409989
  0
LWPOLYLINE
  5
379
100
AcDbEntity
  8
RACCORDO
100
AcDbPolyline
 62
7
  6
CONTINUOUS
 90
40
 70
0
 10
160.67227591
 20
117.2259688216
 10
160.6727105074
 20
117.2324214666
 10
160.6733196009
 20
117.2390152253
 10
160.674102226
 20
117.2457396564
 10
160.6750571434
 20
117.2525841118
 10
160.6761828411
 20
117.2595377531
 10
160.6774775364
 20
117.2665895691
 10
160.6789391791
 20
117.2737283933
 10
160.6805654548
 20
117.2809429213
 10
160.6823537882
 20
117.2882217287
 10
160.6843013475
 20
117.2955532894
 10
160.6864050487
 20
117.302925994
 10
160.6886615606
 20
117.3103281675
 10
160.6910673099
 20
117.3177480887
 10
160.6936184871
 20
117.3251740079
 10
160.6963110525
 20
117.3325941661
 10
160.6991407422
 20
117.3399968134
 10
160.7021030755
 20
117.3473702277
 10
160.7051933614
 20
117.3547027331
 10
160.7084067065
 20
117.3619827185
 10
160.7117380224
 20
117.3691986558
 10
160.7151820339
 20
117.3763391187
 10
160.7187332873
 20
117.3833928001
 10
160.7223861594
 20
117.3903485305
 10
160.7261348656
 20
117.3971952952
 10
160.7299734698
 20
117.4039222525
 10
160.7338958936
 20
117.4105187501
 10
160.7378959258
 20
117.4169743424
 10
160.7419672323
 20
117.4232788069
 10
160.7461033661
 20
117.4294221604
 10
160.7502977777
 20
117.4353946747
 10
160.754543825
 20
117.4411868925
 10
160.7588347845
 20
117.4467896416
 10
160.7631638614
 20
117.4521940501
 10
160.7675242005
 20
117.4573915599
 10
160.7719088971
 20
117.4623739407
 10
160.7763110082
 20
117.467133303
 10
160.7807235628
 20
117.4716621102
 10
160.7851395737
 20
117.4759531909
 10
160.789552048
 20
117.4799997501
  0
LINE
  5
37A
100
AcDbEntity
  8
SUPERFICI
100
AcDbLine
 62
7
  6
CONTINUOUS
 10
157.7186233428
 20
81.3037863151
 11
157.7272366961
 21
81.3324724701
  0
LINE
  5
37B
100
AcDbEntity
  8
SUPERFICI
100
AcDbLine
 62
7
  6
CONTINUOUS
 10
152.2883477452
 20
83.202354692
 11
152.3324471963
 21
83.3014593907
  0
LINE
  5
37C
100
AcDbEntity
  8
SUPERFICI
100
AcDbLine
 62
7
  6
CONTINUOUS
 10
152.5399343953
 20
83.3581693615
 11
152.6192354145
 21
83.5363825459
  0
LINE
  5
37D
100
AcDbEntity
  8
SUPERFICI
100
AcDbLine
 62
7
  6
CONTINUOUS
 10
152.8267226135
 20
83.5930925167
 11
152.9060236326
 21
83.7713057011
  0
LINE
  5
37E
100
AcDbEntity
  8
SUPERFICI
100
AcDbLine
 62
7
  6
CONTINUOUS
 10
153.1135108317
 20
83.8280156719
 11
153.1928118508
 21
84.0062288563
  0
LINE
  5
37F
100
AcDbEntity
  8
SUPERFICI
100
AcDbLine
 62
7
  6
CONTINUOUS
 10
153.4002990498
 20
84.0629388271
 11
153.479600069
 21
84.2411520115
  0
LINE
  5
380
100
AcDbEntity
  8
0
100
AcDbLine
 62
7
  6
CONTINUOUS
 10
143.3420398089
 20
83.8116569568
 11
142.9387128604
 21
83.2049463233
  0
LINE
  5
381
100
AcDbEntity
  8
0
100
AcDbLine
 62
7
  6
CONTINUOUS
 10
142.6788603569
 20
82.8522741107
 11
142.4259392203
 21
82.4760447799
  0
LINE
  5
382
100
AcDbEntity
  8
0
100
AcDbLine
 62
7
  6
CONTINUOUS
 10
142.0962044387
 20
82.6086263994
 11
143.429350823
 21
84.5454085079
  0
LINE
  5
383
100
AcDbEntity
  8
0
100
AcDbLine
 62
7
  6
CONTINUOUS
 10
142.1689937714
 20
82.6682519301
 11
143.4542197444
 21
84.535415053
  0
LINE
  5
384
100
AcDbEntity
  8
0
100
AcDbLine
 62
7
  6
CONTINUOUS
 10
145.4048711996
 20
82.6272684579
 11
145.3906140727
 21
82.6123089552
  0
LWPOLYLINE
  5
385
100
AcDbEntity
  8
0
100
AcDbPolyline
 62
7
  6
CONTINUOUS
 90
5
 70
0
 10
145.3906140727
 20
82.6123089552
 10
145.3760849083
 20
82.5978706336
 10
145.3613128311
 20
82.5839709702
 10
145.3462803223
 20
82.5706038098
 10
145.3319087324
 20
82.5585143706
  0
LWPOLYLINE
  5
386
100
AcDbEntity
  8
0
100
AcDbPolyline
 62
7
  6
CONTINUOUS
 90
59
 70
0
 10
145.1360186041
 20
82.9038821847
 10
145.1432323864
 20
82.9099973217
 10
145.1508214597
 20
82.916879251
 10
145.1583072376
 20
82.9241394157
 10
145.1656517173
 20
82.9317739148
 10
145.1728620063
 20
82.9397933113
 10
145.1799310006
 20
82.9481870535
 10
145.1867993831
 20
82.9569195764
 10
145.1934673725
 20
82.9660009781
 10
145.1999347585
 20
82.9754211902
 10
145.2061415834
 20
82.9851144095
 10
145.212082461
 20
82.99507477
 10
145.2177627907
 20
83.0053081846
 10
145.2231387958
 20
83.0157665276
 10
145.2282121293
 20
83.0264594074
 10
145.2329811549
 20
83.0373772752
 10
145.2373971639
 20
83.0484432766
 10
145.2414500134
 20
83.0596627226
 10
145.2451498657
 20
83.0710303718
 10
145.2484784707
 20
83.0824535411
 10
145.2514304052
 20
83.0939269358
 10
145.2540111112
 20
83.1054559181
 10
145.2562186356
 20
83.1169637854
 10
145.2580518077
 20
83.1284493035
 10
145.2595118146
 20
83.139913766
 10
145.2606002371
 20
83.1512842546
 10
145.2613114109
 20
83.1625667784
 10
145.2616510137
 20
83.1737553766
 10
145.261637636
 20
83.1847591639
 10
145.2612685069
 20
83.1955560797
 10
145.2605464051
 20
83.2061682127
 10
145.2594982418
 20
83.2165708908
 10
145.2581269399
 20
83.2267593344
 10
145.2564295808
 20
83.2367383387
 10
145.2544243107
 20
83.2464975868
 10
145.2521129989
 20
83.256033068
 10
145.2494937777
 20
83.2653487997
 10
145.2465791875
 20
83.2744465037
 10
145.2433653349
 20
83.2833325717
 10
145.2398561134
 20
83.2920006131
 10
145.2360757416
 20
83.3004331719
 10
145.2320237946
 20
83.3086319258
 10
145.2277006946
 20
83.3165951885
 10
145.2231319296
 20
83.3243004519
 10
145.2183090317
 20
83.3317565792
 10
145.2132404636
 20
83.3389546898
 10
145.2079771067
 20
83.3458456508
 10
145.2025218799
 20
83.3524200512
 10
145.1968718552
 20
83.3586872702
 10
145.1910691415
 20
83.3646263507
 10
145.185109252
 20
83.3702375365
 10
145.1789966629
 20
83.3755205463
 10
145.1727869263
 20
83.3804536305
 10
145.1664833959
 20
83.3850302255
 10
145.160082706
 20
83.3892568525
 10
145.1536303295
 20
83.3931313852
 10
145.1471414199
 20
83.396653101
 10
145.1406008119
 20
83.399822681
 10
145.1340085
 20
83.4026401052
  0
LWPOLYLINE
  5
387
100
AcDbEntity
  8
0
100
AcDbPolyline
 62
7
  6
CONTINUOUS
 90
59
 70
0
 10
145.20886306
 20
82.9635528753
 10
145.2160923492
 20
82.9696815736
 10
145.2236822271
 20
82.9765652055
 10
145.2311687135
 20
82.9838271162
 10
145.238513761
 20
82.9914633396
 10
145.2457244686
 20
82.9994844452
 10
145.2527937411
 20
83.0078798751
 10
145.2596622419
 20
83.0166139811
 10
145.2663301758
 20
83.0256968466
 10
145.2727973469
 20
83.035118418
 10
145.2790038206
 20
83.0448128519
 10
145.284944209
 20
83.0547742725
 10
145.2906239138
 20
83.0650086027
 10
145.2959991872
 20
83.0754677065
 10
145.3010716781
 20
83.0861611982
 10
145.3058397549
 20
83.0970795232
 10
145.310254751
 20
83.1081457984
 10
145.3143065184
 20
83.1193653184
 10
145.318005225
 20
83.1307328583
 10
145.3213326776
 20
83.1421557572
 10
145.3242834628
 20
83.1536287132
 10
145.3268630131
 20
83.1651570954
 10
145.3290694029
 20
83.176664244
 10
145.3309014638
 20
83.1881489318
 10
145.3323603808
 20
83.1996124448
 10
145.3334477562
 20
83.2109818857
 10
145.3341579257
 20
83.222263247
 10
145.334496567
 20
83.2334505838
 10
145.3344822911
 20
83.2444530804
 10
145.3341123363
 20
83.2552486824
 10
145.333389472
 20
83.2658594717
 10
145.332340602
 20
83.2762608256
 10
145.3309686498
 20
83.2864479793
 10
145.329270696
 20
83.2964257128
 10
145.3272648786
 20
83.3061837134
 10
145.3249530635
 20
83.3157179708
 10
145.3223333863
 20
83.3250325014
 10
145.319418388
 20
83.3341290287
 10
145.3162041771
 20
83.3430139428
 10
145.3126946451
 20
83.3516808542
 10
145.3089140057
 20
83.3601123121
 10
145.3048618327
 20
83.3683099965
 10
145.3005385496
 20
83.3762722185
 10
145.2959696425
 20
83.3839764682
 10
145.2911466446
 20
83.391431605
 10
145.2860780176
 20
83.3986287519
 10
145.2808146373
 20
83.4055187863
 10
145.2753594259
 20
83.4120922968
 10
145.269709452
 20
83.418358663
 10
145.2639068097
 20
83.4242969407
 10
145.2579470127
 20
83.4299073755
 10
145.2518345365
 20
83.4351896843
 10
145.2456249164
 20
83.4401221237
 10
145.2393215082
 20
83.4446981325
 10
145.2329209441
 20
83.4489242296
 10
145.2264686738
 20
83.4527982891
 10
145.2199798432
 20
83.4563195882
 10
145.2134392947
 20
83.4594888084
 10
145.2068470227
 20
83.4623059299
  0
LINE
  5
388
100
AcDbEntity
  8
SUPERFICI
100
AcDbLine
 62
7
  6
CONTINUOUS
 10
139.2406822295
 20
88.6331222901
 11
139.0851106305
 21
88.5050723773
  0
LINE
  5
389
100
AcDbEntity
  8
0
100
AcDbLine
 62
7
  6
CONTINUOUS
 10
139.2877023463
 20
88.7060597026
 11
139.0570912692
 21
88.5163255845
  0
LINE
  5
38A
100
AcDbEntity
  8
0
100
AcDbLine
 62
7
  6
CONTINUOUS
 10
138.9630013214
 20
84.7018976526
 11
138.8901660909
 21
84.6422345246
  0
LINE
  5
38B
100
AcDbEntity
  8
0
100
AcDbLine
 62
7
  6
CONTINUOUS
 10
138.5658594053
 20
84.1127099433
 11
138.4930189226
 21
84.053042513
  0
LINE
  5
38C
100
AcDbEntity
  8
0
100
AcDbLine
 62
7
  6
CONTINUOUS
 10
139.6667363208
 20
83.6722137191
 11
139.5939275838
 21
83.6125722934
  0
LINE
  5
38D
100
AcDbEntity
  8
0
100
AcDbLine
 62
7
  6
CONTINUOUS
 10
141.1473648518
 20
84.6989578851
 11
141.0745720659
 21
84.6393295257
  0
LINE
  5
38E
100
AcDbEntity
  8
0
100
AcDbLine
 62
7
  6
CONTINUOUS
 10
140.2857141738
 20
83.4242171798
 11
140.2129170205
 21
83.3645852429
  0
LINE
  5
38F
100
AcDbEntity
  8
0
100
AcDbLine
 62
7
  6
CONTINUOUS
 10
141.3763689676
 20
83.8384105024
 11
141.3035802428
 21
83.7787854696
  0
LINE
  5
390
100
AcDbEntity
  8
0
100
AcDbLine
 62
7
  6
CONTINUOUS
 10
142.1095813523
 20
84.3126629235
 11
142.036794014
 21
84.2530390266
  0
LINE
  5
391
100
AcDbEntity
  8
0
100
AcDbLine
 62
7
  6
CONTINUOUS
 10
140.9319998519
 20
83.1650328572
 11
140.8592100255
 21
83.1054069221
  0
LINE
  5
392
100
AcDbEntity
  8
0
100
AcDbLine
 62
7
  6
CONTINUOUS
 10
141.5780796286
 20
82.9056798691
 11
141.5052922765
 21
82.8460559608
  0
LINE
  5
393
100
AcDbEntity
  8
0
100
AcDbLine
 62
7
  6
CONTINUOUS
 10
143.4148365305
 20
83.8712885401
 11
143.3420398089
 21
83.8116569568
  0
LINE
  5
394
100
AcDbEntity
  8
0
100
AcDbLine
 62
7
  6
CONTINUOUS
 10
142.1689937714
 20
82.6682519301
 11
142.0962044387
 21
82.6086263994
  0
LINE
  5
395
100
AcDbEntity
  8
0
100
AcDbLine
 62
7
  6
CONTINUOUS
 10
142.7516536296
 20
82.9119028689
 11
142.6788603569
 21
82.8522741107
  0
LINE
  5
396
100
AcDbEntity
  8
0
100
AcDbLine
 62
7
  6
CONTINUOUS
 10
143.3274759419
 20
83.1374963792
 11
143.2546766144
 21
83.0778626613
  0
LINE
  5
397
100
AcDbEntity
  8
0
100
AcDbLine
 62
7
  6
CONTINUOUS
 10
143.2736475392
 20
82.701911392
 11
143.2008465417
 21
82.6422763061
  0
LINE
  5
398
100
AcDbEntity
  8
0
100
AcDbLine
 62
7
  6
CONTINUOUS
 10
144.7947667041
 20
83.6281051713
 11
144.7219415009
 21
83.5684502572
  0
LINE
  5
399
100
AcDbEntity
  8
0
100
AcDbLine
 62
7
  6
CONTINUOUS
 10
143.2267114866
 20
82.2427373258
 11
143.1539084455
 21
82.1831005659
  0
LINE
  5
39A
100
AcDbEntity
  8
0
100
AcDbLine
 62
7
  6
CONTINUOUS
 10
145.206847021
 20
83.4623059306
 11
145.1340084983
 21
83.4026401059
  0
LINE
  5
39B
100
AcDbEntity
  8
0
100
AcDbLine
 62
7
  6
CONTINUOUS
 10
144.4536741068
 20
82.6841850633
 11
144.3808484692
 21
82.6245297934
  0
LINE
  5
39C
100
AcDbEntity
  8
RACCORDO
100
AcDbLine
 62
7
  6
CONTINUOUS
 10
190.1405642752
 20
120.1057763783
 11
192.9559408749
 21
122.4119978755
  0
LINE
  5
39D
100
AcDbEntity
  8
0
100
AcDbLine
 62
7
  6
CONTINUOUS
 10
143.8171431419
 20
82.0049141562
 11
143.7443267311
 21
81.9452664445
  0
LINE
  5
39E
100
AcDbEntity
  8
SUPERFICI
100
AcDbLine
 62
7
  6
CONTINUOUS
 10
145.136016623
 20
82.9038853123
 11
145.2088610812
 21
82.9635559992
  0
LINE
  5
39F
100
AcDbEntity
  8
0
100
AcDbLine
 62
7
  6
CONTINUOUS
 10
144.7420152915
 20
82.5680313612
 11
144.6691804926
 21
82.5083685868
  0
LINE
  5
3A0
100
AcDbEntity
  8
0
100
AcDbLine
 62
7
  6
CONTINUOUS
 10
145.1057249332
 20
82.4838711166
 11
145.0328779267
 21
82.4241983423
  0
LINE
  5
3A1
100
AcDbEntity
  8
DRAFT
100
AcDbLine
 62
7
  6
CONTINUOUS
 10
194.4486888533
 20
121.047387449
 11
195.0475300583
 21
121.4870233422
  0
LINE
  5
3A2
100
AcDbEntity
  8
SUPERFICI
100
AcDbLine
 62
7
  6
CONTINUOUS
 10
125.1319680488
 20
122.0560687371
 11
125.1366843286
 21
122.0565457275
  0
LINE
  5
3A3
100
AcDbEntity
  8
SUPERFICI
100
AcDbLine
 62
7
  6
CONTINUOUS
 10
125.2513996158
 20
122.2740659425
 11
125.4234725467
 21
122.2914688827
  0
LINE
  5
3A4
100
AcDbEntity
  8
SUPERFICI
100
AcDbLine
 62
7
  6
CONTINUOUS
 10
125.538187834
 20
122.5089890977
 11
125.7102607649
 21
122.5263920379
  0
LINE
  5
3A5
100
AcDbEntity
  8
SUPERFICI
100
AcDbLine
 62
7
  6
CONTINUOUS
 10
125.8249760522
 20
122.7439122529
 11
125.9970489831
 21
122.7613151931
  0
LINE
  5
3A6
100
AcDbEntity
  8
RACCORDO
100
AcDbLine
 62
7
  6
CONTINUOUS
 10
122.1162640564
 20
133.193829463
 11
122.2141227038
 21
133.1632789988
  0
LINE
  5
3A7
100
AcDbEntity
  8
RACCORDO
100
AcDbLine
 62
7
  6
CONTINUOUS
 10
122.1894751357
 20
133.2109466325
 11
122.0910969486
 21
133.2419456154
  0
LWPOLYLINE
  5
3A8
100
AcDbEntity
  8
RACCORDO
100
AcDbPolyline
 62
7
  6
CONTINUOUS
 90
33
 70
0
 10
122.3060041947
 20
132.9358601602
 10
122.284473963
 20
132.9433791964
 10
122.2629911952
 20
132.95030018
 10
122.2415714708
 20
132.9566185637
 10
122.2202308152
 20
132.9623304709
 10
122.1989841929
 20
132.9674319681
 10
122.1778455055
 20
132.9719190201
 10
122.1568298096
 20
132.9757887779
 10
122.1359525865
 20
132.979038753
 10
122.1152282371
 20
132.9816660783
 10
122.0946718408
 20
132.9836691773
 10
122.0742981783
 20
132.9850469652
 10
122.054121009
 20
132.985797983
 10
122.0341548658
 20
132.9859219692
 10
122.0144142274
 20
132.9854191324
 10
121.994912536
 20
132.9842893726
 10
121.9756638562
 20
132.9825337447
 10
121.9566820932
 20
132.9801537772
 10
121.9379801675
 20
132.9771507382
 10
121.9195715424
 20
132.9735269893
 10
121.9014695065
 20
132.9692853645
 10
121.8836863923
 20
132.96442849
 10
121.8662349988
 20
132.9589600239
 10
121.8491278907
 20
132.952884082
 10
121.8323766855
 20
132.9462046092
 10
121.8159933885
 20
132.9389265109
 10
121.7999898188
 20
132.931055168
 10
121.7843769134
 20
132.9225958563
 10
121.7691658704
 20
132.9135547323
 10
121.7543676172
 20
132.903938387
 10
121.7399922469
 20
132.8937533468
 10
121.7260500283
 20
132.8830069411
 10
121.7120483953
 20
132.8712680539
  0
LWPOLYLINE
  5
3A9
100
AcDbEntity
  8
RACCORDO
100
AcDbPolyline
 62
7
  6
CONTINUOUS
 90
58
 70
0
 10
122.1979239864
 20
132.6781359376
 10
122.180783111
 20
132.6842408363
 10
122.1637010418
 20
132.6898603398
 10
122.1466777758
 20
132.694994446
 10
122.1297005518
 20
132.6996463638
 10
122.1127821257
 20
132.7038128801
 10
122.0959607682
 20
132.7074843582
 10
122.0792374171
 20
132.7106594651
 10
122.0626111252
 20
132.7133395264
 10
122.0461173328
 20
132.7155188909
 10
122.029756374
 20
132.7171964714
 10
122.0135279022
 20
132.7183733452
 10
121.9974663327
 20
132.7190471047
 10
121.9815719947
 20
132.7192166776
 10
121.9658445435
 20
132.7188831243
 10
121.9503173807
 20
132.7180472336
 10
121.9349909305
 20
132.7167079288
 10
121.9198647509
 20
132.7148662728
 10
121.9049709412
 20
132.712526262
 10
121.8903099896
 20
132.7096868296
 10
121.875881388
 20
132.7063490271
 10
121.8617157393
 20
132.7025200266
 10
121.8478136007
 20
132.6981987801
 10
121.8341743936
 20
132.6933863191
 10
121.8208270135
 20
132.6880929338
 10
121.8077720615
 20
132.6823175908
 10
121.7950089143
 20
132.6760613061
 10
121.7825646298
 20
132.6693374419
 10
121.7704398904
 20
132.6621450083
 10
121.7586339911
 20
132.6544849776
 10
121.7471719067
 20
132.6463736537
 10
121.7360543471
 20
132.6378100684
 10
121.7252805798
 20
132.6287951725
 10
121.7148734157
 20
132.6193481475
 10
121.7048336311
 20
132.6094680844
 10
121.6951604279
 20
132.5991558753
 10
121.6858742537
 20
132.588433403
 10
121.6769759083
 20
132.5772997859
 10
121.6684645716
 20
132.5657558897
 10
121.6603582606
 20
132.5538262181
 10
121.6526578238
 20
132.5415099519
 10
121.6453623942
 20
132.5288078958
 10
121.6384874157
 20
132.5157469897
 10
121.6320337691
 20
132.5023264692
 10
121.6260005573
 20
132.4885470862
 10
121.620400558
 20
132.4744380547
 10
121.6152346793
 20
132.4599986929
 10
121.6105019995
 20
132.445229672
 10
121.606212551
 20
132.430162237
 10
121.6023672609
 20
132.4147956987
 10
121.5989651915
 20
132.399130738
 10
121.5960135789
 20
132.3832006552
 10
121.5935133697
 20
132.3670040058
 10
121.59146361
 20
132.3505422288
 10
121.5898686866
 20
132.3338529497
 10
121.5887300603
 20
132.3169487094
 10
121.5880462666
 20
132.2998169643
 10
121.5878173045
 20
132.2824577136
  0
LWPOLYLINE
  5
3AA
100
AcDbEntity
  8
RACCORDO
100
AcDbPolyline
 62
7
  6
CONTINUOUS
 90
37
 70
0
 10
161.3042358469
 20
116.3314486413
 10
161.3114080662
 20
116.3288457886
 10
161.3187663574
 20
116.3264198154
 10
161.3262974695
 20
116.3241750904
 10
161.3339878402
 20
116.3221156561
 10
161.3418236203
 20
116.3202452211
 10
161.3497906989
 20
116.3185671539
 10
161.3578747285
 20
116.3170844763
 10
161.3660611512
 20
116.3157998585
 10
161.3743352244
 20
116.3147156138
 10
161.3826820479
 20
116.3138336949
 10
161.3910865904
 20
116.3131556899
 10
161.3995337167
 20
116.3126828197
 10
161.4080082147
 20
116.3124159361
 10
161.4164948234
 20
116.3123555196
 10
161.4249782597
 20
116.3125016791
 10
161.4334432462
 20
116.3128541513
 10
161.4418745389
 20
116.3134123014
 10
161.4502569543
 20
116.3141751245
 10
161.4585753971
 20
116.3151412466
 10
161.4668148869
 20
116.3163089282
 10
161.4749605859
 20
116.3176760662
 10
161.4829978249
 20
116.3192401988
 10
161.4909121301
 20
116.3209985092
 10
161.498689249
 20
116.3229478309
 10
161.5063151764
 20
116.3250846536
 10
161.5137761791
 20
116.3274051292
 10
161.521058821
 20
116.3299050788
 10
161.5281499872
 20
116.3325800005
 10
161.5350369077
 20
116.3354250772
 10
161.5417071802
 20
116.3384351853
 10
161.5481487925
 20
116.3416049041
 10
161.5543501445
 20
116.3449285254
 10
161.5603000682
 20
116.348400064
 10
161.565987849
 20
116.3520132681
 10
161.571403244
 20
116.3557616309
 10
161.576536501
 20
116.3596384022
  0
LWPOLYLINE
  5
3AB
100
AcDbEntity
  8
RACCORDO
100
AcDbPolyline
 62
7
  6
CONTINUOUS
 90
37
 70
0
 10
124.2353740096
 20
130.3360518059
 10
124.2284426008
 20
130.3385817839
 10
124.2213662688
 20
130.3407863877
 10
124.2141577852
 20
130.3426616383
 10
124.2068301598
 20
130.3442041513
 10
124.1993966178
 20
130.3454111427
 10
124.1918705753
 20
130.3462804341
 10
124.1842656153
 20
130.3468104567
 10
124.1765954634
 20
130.3470002538
 10
124.1688739629
 20
130.3468494828
 10
124.1611150496
 20
130.346358416
 10
124.153332727
 20
130.3455279395
 10
124.1455410406
 20
130.3443595522
 10
124.137754053
 20
130.3428553629
 10
124.1299858183
 20
130.3410180864
 10
124.1222503567
 20
130.3388510385
 10
124.1145616293
 20
130.3363581304
 10
124.1069335128
 20
130.3335438613
 10
124.0993797746
 20
130.3304133106
 10
124.0919140477
 20
130.3269721281
 10
124.0845498065
 20
130.3232265247
 10
124.0773003419
 20
130.3191832604
 10
124.070178738
 20
130.3148496327
 10
124.063197848
 20
130.3102334628
 10
124.0563702709
 20
130.3053430822
 10
124.0497083295
 20
130.300187317
 10
124.0432240471
 20
130.2947754725
 10
124.0369291268
 20
130.289117316
 10
124.0308349297
 20
130.2832230595
 10
124.0249524547
 20
130.2771033409
 10
124.0192923186
 20
130.2707692054
 10
124.0138647369
 20
130.2642320847
 10
124.0086795053
 20
130.2575037773
 10
124.0037459824
 20
130.2505964264
 10
123.999073072
 20
130.2435224985
 10
123.9946692081
 20
130.2362947608
 10
123.9905423387
 20
130.2289262579
  0
LWPOLYLINE
  5
3AC
100
AcDbEntity
  8
RACCORDO
100
AcDbPolyline
 62
7
  6
CONTINUOUS
 90
25
 70
0
 10
123.0148441789
 20
131.3476291831
 10
124.5258889879
 20
130.7852812108
 10
126.0389310377
 20
130.2182920576
 10
127.5539889363
 20
129.646638862
 10
129.070813594
 20
129.0703958249
 10
130.5896081656
 20
128.4894816095
 10
132.1110389241
 20
127.9036517431
 10
133.6354247492
 20
127.3127753076
 10
135.1624210517
 20
126.7169715626
 10
136.691696461
 20
126.1163742418
 10
138.2231583342
 20
125.5110181025
 10
139.7568819376
 20
124.9008675562
 10
141.2927804147
 20
124.2859583095
 10
142.8308394646
 20
123.6662976143
 10
144.3710503596
 20
123.0418873759
 10
145.9133329795
 20
122.4127589112
 10
147.4577434886
 20
121.7788950637
 10
149.004195768
 20
121.140332833
 10
150.5523843891
 20
120.4971943996
 10
152.1019168533
 20
119.8496568701
 10
153.6531191038
 20
119.1975921297
 10
155.206759744
 20
118.5406677883
 10
156.7630744653
 20
117.878788358
 10
158.321780403
 20
117.2120926166
 10
159.8828722865
 20
116.5405979249
  0
LWPOLYLINE
  5
3AD
100
AcDbEntity
  8
RACCORDO
100
AcDbPolyline
 62
7
  6
CONTINUOUS
 90
25
 70
0
 10
122.9813127524
 20
131.4338718878
 10
124.4934747744
 20
130.870832203
 10
126.0075665486
 20
130.3031773282
 10
127.5235810393
 20
129.7309088534
 10
129.041287149
 20
129.1541196926
 10
130.560901257
 20
128.5727195775
 10
132.0830904159
 20
127.986437596
 10
133.6081843928
 20
127.3951495764
 10
135.1358459849
 20
126.7989881328
 10
136.6657432589
 20
126.1980687011
 10
138.1977889882
 20
125.5924213949
 10
139.7320589377
 20
124.9820213564
 10
141.2684639145
 20
124.3669001607
 10
142.8069994484
 20
123.7470565281
 10
144.3476580288
 20
123.1224965766
 10
145.8903451778
 20
122.4932623843
 10
147.4351367664
 20
121.8593177626
 10
148.98194439
 20
121.220703278
 10
150.5304254174
 20
120.5775746892
 10
152.0802199128
 20
119.9300798287
 10
153.6316713649
 20
119.2780719232
 10
155.1854938087
 20
118.6212661124
 10
156.7419232914
 20
117.9595707656
 10
158.3007146573
 20
117.2930847632
 10
159.8618630084
 20
116.6218114524
  0
LWPOLYLINE
  5
3AE
100
AcDbEntity
  8
RACCORDO
100
AcDbPolyline
 62
7
  6
CONTINUOUS
 90
9
 70
0
 10
122.2141227038
 20
133.1632789988
 10
126.2982822995
 20
131.6407387268
 10
130.5769885818
 20
130.014855699
 10
134.8744380984
 20
128.3505829943
 10
139.1898238267
 20
126.6482386926
 10
143.5224470065
 20
124.9081025993
 10
147.8716463269
 20
123.1304400349
 10
152.236713979
 20
121.3155355733
 10
156.616789345
 20
119.4637403705
  0
LINE
  5
3AF
100
AcDbEntity
  8
RACCORDO
100
AcDbLine
 62
7
  6
CONTINUOUS
 10
126.4112069318
 20
131.6365442461
 11
122.1894751357
 21
133.2109466325
  0
LWPOLYLINE
  5
3B0
100
AcDbEntity
  8
RACCORDO
100
AcDbPolyline
 62
7
  6
CONTINUOUS
 90
24
 70
0
 10
160.1769951391
 20
116.0072916209
 10
160.1699627351
 20
116.010099956
 10
160.1631465139
 20
116.0130784939
 10
160.156558988
 20
116.0162217669
 10
160.1502122499
 20
116.0195240048
 10
160.1441179502
 20
116.0229791459
 10
160.1382872762
 20
116.0265808476
 10
160.132730931
 20
116.0303224983
 10
160.1274591145
 20
116.0341972296
 10
160.122481504
 20
116.0381979286
 10
160.1178072367
 20
116.0423172514
 10
160.1134448932
 20
116.0465476361
 10
160.1094024814
 20
116.0508813171
 10
160.1056874218
 20
116.0553103392
 10
160.1023065341
 20
116.0598265721
 10
160.0992660245
 20
116.0644217254
 10
160.0965714745
 20
116.0690873639
 10
160.0942278303
 20
116.0738149229
 10
160.0922393943
 20
116.0785957242
 10
160.0906098164
 20
116.0834209916
 10
160.0893420882
 20
116.0882818676
 10
160.0884385367
 20
116.0931694291
 10
160.0879008206
 20
116.0980747041
 10
160.087729708
 20
116.102818973
  0
LINE
  5
3B1
100
AcDbEntity
  8
RACCORDO
100
AcDbLine
 62
7
  6
CONTINUOUS
 10
128.1264758485
 20
128.7798941419
 11
124.2353740096
 21
130.3360518059
  0
LWPOLYLINE
  5
3B2
100
AcDbEntity
  8
RACCORDO
100
AcDbPolyline
 62
7
  6
CONTINUOUS
 90
10
 70
0
 10
124.2712404177
 20
130.3147958192
 10
128.3717553306
 20
128.6731227175
 10
132.478808258
 20
127.0270662566
 10
136.5767941103
 20
125.3832897707
 10
140.6657323245
 20
123.7420729489
 10
144.74563668
 20
122.1034714266
 10
148.8165286175
 20
120.4674823076
 10
152.8784019848
 20
118.8340551601
 10
156.931203021
 20
117.2029378407
 10
160.087729708
 20
115.9311927956
  0
LINE
  5
3B3
100
AcDbEntity
  8
SUPERFICI
100
AcDbLine
 62
7
  6
CONTINUOUS
 10
125.5962996747
 20
127.8929278813
 11
126.0807071395
 21
127.6983789227
  0
LINE
  5
3B4
100
AcDbEntity
  8
SUPERFICI
100
AcDbLine
 62
7
  6
CONTINUOUS
 10
125.6261323377
 20
127.9255386426
 11
126.1096610641
 21
127.7313426051
  0
LWPOLYLINE
  5
3B5
100
AcDbEntity
  8
RACCORDO
100
AcDbPolyline
 62
7
  6
CONTINUOUS
 90
9
 70
0
 10
160.087729708
 20
115.9383650875
 10
157.0404166609
 20
117.167403302
 10
153.0577946706
 20
118.7714575909
 10
148.9813834264
 20
120.4115166448
 10
144.7487753338
 20
122.1128911914
 10
140.4223308863
 20
123.8504888407
 10
136.1890077987
 20
125.5492233023
 10
132.1111077206
 20
127.1841197907
 10
128.1264758485
 20
128.7798941419
  0
LWPOLYLINE
  5
3B6
100
AcDbEntity
  8
RACCORDO
100
AcDbPolyline
 62
7
  6
CONTINUOUS
 90
37
 70
0
 10
122.6765554024
 20
131.0683136467
 10
122.6835615307
 20
131.0654837908
 10
122.690772564
 20
131.0628286669
 10
122.6981752651
 20
131.0603531489
 10
122.705756045
 20
131.0580617812
 10
122.7135009878
 20
131.0559587699
 10
122.7213958762
 20
131.0540479756
 10
122.7294262178
 20
131.0523329058
 10
122.7375772714
 20
131.050816709
 10
122.7458340743
 20
131.0495021683
 10
122.7541814697
 20
131.0483916968
 10
122.7626041343
 20
131.0474873331
 10
122.7710866068
 20
131.0467907373
 10
122.7796133162
 20
131.0463031881
 10
122.78816861
 20
131.0460255805
 10
122.7967367835
 20
131.0459584242
 10
122.8053021082
 20
131.0461018424
 10
122.813848861
 20
131.0464555719
 10
122.8223613526
 20
131.0470189633
 10
122.8308239568
 20
131.0477909824
 10
122.8392211391
 20
131.0487702122
 10
122.8475374847
 20
131.0499548549
 10
122.8557577275
 20
131.0513427361
 10
122.8638667778
 20
131.052931308
 10
122.8718497499
 20
131.0547176545
 10
122.8796919895
 20
131.0566984965
 10
122.8873791008
 20
131.0588701977
 10
122.8948969727
 20
131.0612287717
 10
122.9022318047
 20
131.0637698888
 10
122.9093701324
 20
131.0664888843
 10
122.9162988521
 20
131.0693807671
 10
122.9230052447
 20
131.0724402285
 10
122.9294769996
 20
131.0756616524
 10
122.9357022365
 20
131.0790391253
 10
122.9416695279
 20
131.0825664471
 10
122.9473679197
 20
131.0862371429
 10
122.9527869515
 20
131.0900444744
  0
LWPOLYLINE
  5
3B7
100
AcDbEntity
  8
RACCORDO
100
AcDbPolyline
 62
7
  6
CONTINUOUS
 90
7
 70
0
 10
124.2711977891
 20
130.3148128845
 10
124.2652277279
 20
130.3173726319
 10
124.2589026903
 20
130.3204698288
 10
124.2527510182
 20
130.3238913081
 10
124.2467782446
 20
130.32763124
 10
124.2409849313
 20
130.3316862798
 10
124.2353739399
 20
130.3360516444
  0
LWPOLYLINE
  5
3B8
100
AcDbEntity
  8
RACCORDO
100
AcDbPolyline
 62
7
  6
CONTINUOUS
 90
9
 70
0
 10
160.7977631375
 20
117.7049877675
 10
156.4435783275
 20
119.5748668652
 10
152.1048593084
 20
121.4082334146
 10
147.781744934
 20
123.20504227
 10
143.4739584678
 20
124.9654135897
 10
139.1820564159
 20
126.6891381671
 10
134.9074125186
 20
128.3756643222
 10
130.6505598729
 20
130.0247636729
 10
126.4112069318
 20
131.6365442461
  0
LINE
  5
3B9
100
AcDbEntity
  8
RACCORDO
100
AcDbLine
 62
7
  6
CONTINUOUS
 10
156.616789345
 20
119.4637403705
 11
160.813345434
 21
117.6610031102
  0
LWPOLYLINE
  5
3BA
100
AcDbEntity
  8
RACCORDO
100
AcDbPolyline
 62
7
  6
CONTINUOUS
 90
28
 70
0
 10
160.6722759096
 20
117.2259688213
 10
159.224331453
 20
117.8503975443
 10
157.7780518251
 20
118.4708537108
 10
156.3334422446
 20
119.0873357822
 10
154.8905023859
 20
119.6998440166
 10
153.449243014
 20
120.3083750731
 10
152.009685916
 20
120.9129219533
 10
150.5718288181
 20
121.5134862674
 10
149.1356842905
 20
122.1100631869
 10
147.701296173
 20
122.7026358717
 10
146.2686706493
 20
123.2912020341
 10
144.8378114909
 20
123.8757604476
 10
143.4087586326
 20
124.4562956233
 10
141.9815219756
 20
125.0328037284
 10
140.5561012643
 20
125.6052848209
 10
139.1325209811
 20
126.1737290683
 10
137.710780812
 20
126.738136641
 10
136.2908905543
 20
127.2985034608
 10
134.8728896361
 20
127.8548131427
 10
133.4567814782
 20
128.4070640254
 10
132.042571822
 20
128.9552536064
 10
130.630303281
 20
129.4993640026
 10
129.219987465
 20
130.0393903297
 10
127.811621559
 20
130.5753330236
 10
126.4052263119
 20
131.1071820031
 10
125.0008114892
 20
131.6349323643
 10
123.5983759457
 20
132.1585844381
 10
122.1979239864
 20
132.6781359376
  0
LWPOLYLINE
  5
3BB
100
AcDbEntity
  8
RACCORDO
100
AcDbPolyline
 62
7
  6
CONTINUOUS
 90
28
 70
0
 10
160.789552048
 20
117.479999751
 10
159.3412978685
 20
118.1045906311
 10
157.8946762371
 20
118.7252201111
 10
156.4497084786
 20
119.3418795212
 10
155.0064266251
 20
119.9545549739
 10
153.5648412872
 20
120.5632433513
 10
152.1249416379
 20
121.1679518735
 10
150.6867415649
 20
121.7686750874
 10
149.2502697747
 20
122.3654010149
 10
147.8155376487
 20
122.9581266945
 10
146.3825678762
 20
123.546843204
 10
144.9513803492
 20
124.1315423354
 10
143.5219822467
 20
124.7122220226
 10
142.0944000843
 20
125.2888718282
 10
140.6686499165
 20
125.8614852382
 10
139.2447232268
 20
126.430065673
 10
137.8226364031
 20
126.9946066172
 10
136.4024156277
 20
127.5550973433
 10
134.9840670795
 20
128.1115345528
 10
133.5676111034
 20
128.6639102938
 10
132.1530699358
 20
129.2122154457
 10
130.7404526009
 20
129.7564447737
 10
129.3297879128
 20
130.2965871524
 10
127.9210896515
 20
130.832636923
 10
126.5143443087
 20
131.3645966415
 10
125.1095616013
 20
131.8924612643
 10
123.706774455
 20
132.4162185899
 10
122.3060041947
 20
132.9358601602
  0
LWPOLYLINE
  5
3BC
100
AcDbEntity
  8
RACCORDO
100
AcDbPolyline
 62
7
  6
CONTINUOUS
 90
3
 70
0
 10
160.8133840827
 20
117.6609373363
 10
160.8315389868
 20
117.6529074295
 10
160.9294492604
 20
117.6034963046
  0
LWPOLYLINE
  5
3BD
100
AcDbEntity
  8
RACCORDO
100
AcDbPolyline
 62
7
  6
CONTINUOUS
 90
23
 70
0
 10
121.5878173045
 20
132.2824577136
 10
121.5810999948
 20
132.285433209
 10
121.5746088274
 20
132.2885694909
 10
121.5683554917
 20
132.2918609113
 10
121.5623512491
 20
132.2953015429
 10
121.5566069122
 20
132.2988851897
 10
121.5511328257
 20
132.302605398
 10
121.5459388475
 20
132.3064554685
 10
121.5410343311
 20
132.3104284676
 10
121.5364281089
 20
132.3145172408
 10
121.5321284758
 20
132.3187144247
 10
121.5281431749
 20
132.3230124609
 10
121.5244793829
 20
132.3274036094
 10
121.5211436979
 20
132.3318799622
 10
121.5181421269
 20
132.3364334584
 10
121.5154800752
 20
132.3410558977
 10
121.5131623367
 20
132.3457389558
 10
121.5111930854
 20
132.3504741994
 10
121.5095758675
 20
132.355253101
 10
121.5083135954
 20
132.3600670545
 10
121.5074085422
 20
132.3649073909
 10
121.5068623378
 20
132.3697653933
 10
121.5066759109
 20
132.3747173215
  0
LWPOLYLINE
  5
3BE
100
AcDbEntity
  8
RACCORDO
100
AcDbPolyline
 62
7
  6
CONTINUOUS
 90
52
 70
0
 10
159.8618630084
 20
116.6218114524
 10
159.8683087571
 20
116.6189372476
 10
159.8747430402
 20
116.6158778056
 10
159.8811658574
 20
116.6126331265
 10
159.8875248151
 20
116.609240766
 10
159.8938723061
 20
116.6056631676
 10
159.9003655125
 20
116.6017876639
 10
159.9070702417
 20
116.5975832162
 10
159.913920692
 20
116.5930808681
 10
159.9208766339
 20
116.5882610781
 10
159.9279264013
 20
116.5831320511
 10
159.9350816639
 20
116.5776855853
 10
159.9423371957
 20
116.571877529
 10
159.9496992585
 20
116.5657043485
 10
159.9571615943
 20
116.5591695806
 10
159.9647001972
 20
116.5522396793
 10
159.9723162037
 20
116.5449142463
 10
159.9800084802
 20
116.5371936825
 10
159.9877496154
 20
116.529045639
 10
159.9955385976
 20
116.520472922
 10
160.0033764402
 20
116.5114727272
 10
160.0112387685
 20
116.5020042889
 10
160.0191306477
 20
116.4920633413
 10
160.0270470136
 20
116.4816541512
 10
160.0349482958
 20
116.4707487518
 10
160.042838376
 20
116.4593421108
 10
160.0507133719
 20
116.44743926
 10
160.0585220659
 20
116.4350273273
 10
160.0662658966
 20
116.4221038178
 10
160.0739434229
 20
116.4086712243
 10
160.0814991048
 20
116.3947241548
 10
160.0889361401
 20
116.3802556248
 10
160.0962513265
 20
116.3652726149
 10
160.1033795216
 20
116.3497906789
 10
160.1103238454
 20
116.3337983987
 10
160.1170811713
 20
116.3173071866
 10
160.1235769838
 20
116.3003668408
 10
160.1298109014
 20
116.2829694099
 10
160.1357832973
 20
116.2651228379
 10
160.1414207862
 20
116.2469007643
 10
160.1467210174
 20
116.2282994171
 10
160.1516863324
 20
116.2093225602
 10
160.1562503822
 20
116.1900551359
 10
160.1604108075
 20
116.1704940115
 10
160.1641699589
 20
116.1506423121
 10
160.1674685513
 20
116.1305943655
 10
160.1703043939
 20
116.1103476264
 10
160.1726796704
 20
116.0899046339
 10
160.1745416573
 20
116.0693673432
 10
160.1758727786
 20
116.048769738
 10
160.1766906062
 20
116.0280778308
 10
160.1769951391
 20
116.0072916209
  0
LWPOLYLINE
  5
3BF
100
AcDbEntity
  8
RACCORDO
100
AcDbPolyline
 62
7
  6
CONTINUOUS
 90
15
 70
0
 10
159.8828722865
 20
116.5405979249
 10
159.8861336633
 20
116.5391248681
 10
159.8894220391
 20
116.5375310232
 10
159.8927361907
 20
116.5358168629
 10
159.8960430777
 20
116.5340017468
 10
159.899374005
 20
116.5320684473
 10
159.9028212352
 20
116.5299576023
 10
159.906411161
 20
116.527645225
 10
159.9101073191
 20
116.5251450856
 10
159.9139047977
 20
116.5224502773
 10
159.9177920345
 20
116.5195623781
 10
159.9217711636
 20
116.5164729815
 10
159.9258576894
 20
116.5131606555
 10
159.9300481129
 20
116.5096196742
 10
159.9342890984
 20
116.5058885415
  0
LINE
  5
3C0
100
AcDbEntity
  8
RACCORDO
100
AcDbLine
 62
7
  6
CONTINUOUS
 10
160.8994457967
 20
117.6556862677
 11
160.7977631375
 21
117.7049877675
  0
LWPOLYLINE
  5
3C1
100
AcDbEntity
  8
RACCORDO
100
AcDbPolyline
 62
7
  6
CONTINUOUS
 90
7
 70
0
 10
93.6316455865
 20
156.9433265339
 10
93.5708354553
 20
156.9763023345
 10
93.5204656384
 20
157.0146335185
 10
93.4819471255
 20
157.0572463297
 10
93.4563589205
 20
157.1029470724
 10
93.4444178155
 20
157.1504555497
 10
93.4435360654
 20
157.1674799772
  0
LWPOLYLINE
  5
3C2
100
AcDbEntity
  8
RACCORDO
100
AcDbPolyline
 62
7
  6
CONTINUOUS
 90
3
 70
0
 10
160.9294492604
 20
117.6034963046
 10
161.0260061736
 20
117.5443068003
 10
161.1199681997
 20
117.4760539704
  0
LWPOLYLINE
  5
3C3
100
AcDbEntity
  8
RACCORDO
100
AcDbPolyline
 62
7
  6
CONTINUOUS
 90
6
 70
0
 10
160.813345434
 20
117.6610031102
 10
160.8078874018
 20
117.664648541
 10
160.8029789359
 20
117.6713092507
 10
160.7995950465
 20
117.680449352
 10
160.7978387224
 20
117.6917906636
 10
160.7977634177
 20
117.7049880096
  0
LWPOLYLINE
  5
3C4
100
AcDbEntity
  8
RACCORDO
100
AcDbPolyline
 62
7
  6
CONTINUOUS
 90
3
 70
0
 10
161.0928247538
 20
117.532640775
 10
160.9977999445
 20
117.5982375078
 10
160.8994457967
 20
117.6556862677
  0
LWPOLYLINE
  5
3C5
100
AcDbEntity
  8
RACCORDO
100
AcDbPolyline
 62
7
  6
CONTINUOUS
 90
10
 70
0
 10
161.1199681997
 20
117.4760539704
 10
161.2101429446
 20
117.3995457691
 10
161.2953938821
 20
117.3156572138
 10
161.3746892945
 20
117.2254340956
 10
161.4470494595
 20
117.1299786031
 10
161.5115122791
 20
117.030511604
 10
161.567400267
 20
116.9282386923
 10
161.6141516016
 20
116.8242793085
 10
161.6511494088
 20
116.7199761394
 10
161.6780332912
 20
116.6166097252
  0
LINE
  5
3C6
100
AcDbEntity
  8
RACCORDO
100
AcDbLine
 62
7
  6
CONTINUOUS
 10
159.9816287721
 20
116.4518825153
 11
159.8828722865
 21
116.5405979249
  0
LWPOLYLINE
  5
3C7
100
AcDbEntity
  8
RACCORDO
100
AcDbPolyline
 62
7
  6
CONTINUOUS
 90
72
 70
0
 10
159.9342903343
 20
116.5058873763
 10
159.9379700334
 20
116.5025184445
 10
159.9413933804
 20
116.4992629703
 10
159.9448459164
 20
116.4958610931
 10
159.9483165742
 20
116.4923207584
 10
159.9517988817
 20
116.488646187
 10
159.9552870509
 20
116.4848414126
 10
159.9587717705
 20
116.4809149756
 10
159.9622483264
 20
116.4768710182
 10
159.9657119657
 20
116.4727141811
 10
159.9691543718
 20
116.4684540582
 10
159.9725707405
 20
116.4640967118
 10
159.9759584192
 20
116.45964573
 10
159.9793129205
 20
116.4551074121
 10
159.9826308181
 20
116.4504871345
 10
159.9859102112
 20
116.4457884809
 10
159.9891493094
 20
116.4410150273
 10
159.9923456826
 20
116.4361713177
 10
159.9954980475
 20
116.4312603335
 10
159.9986066735
 20
116.4262826921
 10
160.0016696918
 20
116.421242458
 10
160.0046860637
 20
116.4161425303
 10
160.0076573326
 20
116.4109812545
 10
160.010582198
 20
116.405761579
 10
160.0134596946
 20
116.4004860092
 10
160.0162917866
 20
116.395151594
 10
160.0190772954
 20
116.3897610713
 10
160.0218153297
 20
116.3843167557
 10
160.0245080367
 20
116.378814648
 10
160.0271542569
 20
116.3732570406
 10
160.0297531272
 20
116.3676457311
 10
160.0323069176
 20
116.3619755632
 10
160.0348151631
 20
116.3562470062
 10
160.0372761554
 20
116.3504634379
 10
160.0396900428
 20
116.3446239152
 10
160.0420562464
 20
116.3387289084
 10
160.0443731789
 20
116.332781428
 10
160.0466394517
 20
116.326784232
 10
160.0488540663
 20
116.320739236
 10
160.0510161833
 20
116.3146480166
 10
160.0531247478
 20
116.3085128497
 10
160.0551788575
 20
116.3023356139
 10
160.0571777085
 20
116.2961178219
 10
160.0591204434
 20
116.2898612205
 10
160.0610062192
 20
116.2835676153
 10
160.062834299
 20
116.2772385449
 10
160.0646040073
 20
116.2708753764
 10
160.0663146771
 20
116.2644794575
 10
160.0679654642
 20
116.2580527671
 10
160.0695554291
 20
116.2515976489
 10
160.0710838682
 20
116.2451156195
 10
160.0725500179
 20
116.2386085275
 10
160.0739529224
 20
116.2320792485
 10
160.0752919271
 20
116.2255294641
 10
160.0765663863
 20
116.2189608599
 10
160.0777754323
 20
116.2123763586
 10
160.0789184098
 20
116.2057777968
 10
160.0799946992
 20
116.1991668667
 10
160.0810035305
 20
116.1925463566
 10
160.0819443215
 20
116.1859180768
 10
160.0828165053
 20
116.1792838049
 10
160.0836194047
 20
116.1726463268
 10
160.0843524861
 20
116.1660074789
 10
160.0850151938
 20
116.1593691352
 10
160.0856068829
 20
116.1527342092
 10
160.0861270288
 20
116.1461047153
 10
160.0865751266
 20
116.139482566
 10
160.0869506305
 20
116.1328705996
 10
160.0872530755
 20
116.1262707544
 10
160.087481995
 20
116.1196851236
 10
160.0876368958
 20
116.1131169913
 10
160.087717333
 20
116.1065691089
  0
LWPOLYLINE
  5
3C8
100
AcDbEntity
  8
RACCORDO
100
AcDbPolyline
 62
7
  6
CONTINUOUS
 90
10
 70
0
 10
161.6998771925
 20
116.6732606249
 10
161.6647432317
 20
116.779610865
 10
161.6198552281
 20
116.8868578957
 10
161.5665897067
 20
116.9915592394
 10
161.504704835
 20
117.0935620527
 10
161.4344448907
 20
117.1930212954
 10
161.3579153059
 20
117.2869559712
 10
161.2748401007
 20
117.375248879
 10
161.1854978082
 20
117.4580194272
 10
161.0928247538
 20
117.532640775
  0
LWPOLYLINE
  5
3C9
100
AcDbEntity
  8
RACCORDO
100
AcDbPolyline
 62
7
  6
CONTINUOUS
 90
3
 70
0
 10
161.6780332912
 20
116.6166097252
 10
161.6945619091
 20
116.5152976299
 10
161.7005340806
 20
116.4109490499
  0
LWPOLYLINE
  5
3CA
100
AcDbEntity
  8
RACCORDO
100
AcDbPolyline
 62
7
  6
CONTINUOUS
 90
3
 70
0
 10
161.7399627003
 20
116.4655432479
 10
161.7247977141
 20
116.5689541875
 10
161.6998771925
 20
116.6732606249
  0
LWPOLYLINE
  5
3CB
100
AcDbEntity
  8
RACCORDO
100
AcDbPolyline
 62
7
  6
CONTINUOUS
 90
4
 70
0
 10
161.6828953624
 20
74.1767266982
 10
161.6610450438
 20
74.101579714
 10
161.6307172013
 20
74.0325068421
 10
161.5920685895
 20
73.970242093
  0
LWPOLYLINE
  5
3CC
100
AcDbEntity
  8
RACCORDO
100
AcDbPolyline
 62
7
  6
CONTINUOUS
 90
3
 70
0
 10
161.6999933532
 20
74.0200890778
 10
161.7248747212
 20
74.1054015893
 10
161.7400009868
 20
74.1971856699
  0
LINE
  5
3CD
100
AcDbEntity
  8
RACCORDO
100
AcDbLine
 62
7
  6
CONTINUOUS
 10
160.087729708
 20
76.0254405658
 11
159.8828722865
 21
75.4641787197
  0
LWPOLYLINE
  5
3CE
100
AcDbEntity
  8
RACCORDO
100
AcDbPolyline
 62
7
  6
CONTINUOUS
 90
41
 70
0
 10
160.0668663825
 20
75.6658227379
 10
160.0643133797
 20
75.6589354353
 10
160.0589275311
 20
75.6449769864
 10
160.0534637945
 20
75.631557492
 10
160.0479488218
 20
75.6187164092
 10
160.0423971081
 20
75.6064594918
 10
160.0368157396
 20
75.5947733184
 10
160.031222498
 20
75.583667743
 10
160.0256326141
 20
75.5731470571
 10
160.0200539849
 20
75.5631986654
 10
160.0144941981
 20
75.553806778
 10
160.0089659435
 20
75.5449709146
 10
160.0034790523
 20
75.536683411
 10
159.9980368159
 20
75.5289176885
 10
159.9926515067
 20
75.5216729951
 10
159.9873323757
 20
75.5149422477
 10
159.9820779193
 20
75.5086894534
 10
159.976900483
 20
75.5029140808
 10
159.9718077026
 20
75.4976093438
 10
159.9667901583
 20
75.4927301735
 10
159.9618559542
 20
75.4882727599
 10
159.9570143073
 20
75.4842345409
 10
159.9522564065
 20
75.4805727055
 10
159.9475885318
 20
75.4772836751
 10
159.943019577
 20
75.4743654192
 10
159.9385440948
 20
75.4717776474
 10
159.9341705168
 20
75.4695186424
 10
159.9299041808
 20
75.4675850006
 10
159.9257345182
 20
75.4659340745
 10
159.9216701114
 20
75.464563175
 10
159.9177142602
 20
75.463470548
 10
159.9138474026
 20
75.4626153485
 10
159.9100695584
 20
75.461993725
 10
159.9063898842
 20
75.4616060881
 10
159.9028017132
 20
75.4614182891
 10
159.8993239607
 20
75.4614242163
 10
159.8959462364
 20
75.4616267589
 10
159.8926159779
 20
75.4620060156
 10
159.8893162746
 20
75.46255514
 10
159.8860677247
 20
75.4632796173
 10
159.8828722865
 20
75.4641787197
  0
LINE
  5
3CF
100
AcDbEntity
  8
SUPERFICI
100
AcDbLine
 62
7
  6
CONTINUOUS
 10
156.7936839888
 20
81.3929100862
 11
156.8377834399
 21
81.4920147849
  0
LINE
  5
3D0
100
AcDbEntity
  8
SUPERFICI
100
AcDbLine
 62
7
  6
CONTINUOUS
 10
157.0385351926
 20
81.5335881868
 11
157.124571658
 21
81.72693794
  0
LINE
  5
3D1
100
AcDbEntity
  8
SUPERFICI
100
AcDbLine
 62
7
  6
CONTINUOUS
 10
157.3253234108
 20
81.768511342
 11
157.4113598762
 21
81.9618610952
  0
LINE
  5
3D2
100
AcDbEntity
  8
SUPERFICI
100
AcDbLine
 62
7
  6
CONTINUOUS
 10
157.6121116289
 20
82.0034344972
 11
157.6981480944
 21
82.1967842504
  0
LINE
  5
3D3
100
AcDbEntity
  8
SUPERFICI
100
AcDbLine
 62
7
  6
CONTINUOUS
 10
157.8988998471
 20
82.2383576524
 11
157.9849363126
 21
82.4317074056
  0
LINE
  5
3D4
100
AcDbEntity
  8
0
100
AcDbLine
 62
7
  6
CONTINUOUS
 10
158.3990620643
 20
82.3875849992
 11
157.156632873
 21
81.2471416318
  0
LINE
  5
3D5
100
AcDbEntity
  8
DRAFT
100
AcDbLine
 62
7
  6
CONTINUOUS
 10
193.593702356
 20
122.0677664763
 11
194.228378014
 21
122.6351653149
  0
LWPOLYLINE
  5
3D6
100
AcDbEntity
  8
SUPERFICI
100
AcDbPolyline
 62
7
  6
CONTINUOUS
 90
7
 70
0
 10
157.6715448957
 20
81.2308272903
 10
157.6755301232
 20
81.234249419
 10
157.6869228322
 20
81.2456645391
 10
157.6969533699
 20
81.2583496298
 10
157.7055388656
 20
81.2722252211
 10
157.7127621899
 20
81.2873707828
 10
157.7186233428
 20
81.3037863151
  0
LWPOLYLINE
  5
3D7
100
AcDbEntity
  8
SUPERFICI
100
AcDbPolyline
 62
7
  6
CONTINUOUS
 90
10
 70
0
 10
158.4046164426
 20
82.392458918
 10
158.4109128058
 20
82.3978485782
 10
158.4166155766
 20
82.4028474332
 10
158.4216628863
 20
82.4074400619
 10
158.4259973861
 20
82.4116262031
 10
158.4295514608
 20
82.4153647519
 10
158.4322575866
 20
82.4185721024
 10
158.4340693978
 20
82.4211927566
 10
158.4349349499
 20
82.4232165229
 10
158.4350068136
 20
82.4238195091
  0
LINE
  5
3D8
100
AcDbEntity
  8
0
100
AcDbLine
 62
7
  6
CONTINUOUS
 10
158.4046164426
 20
81.9080514532
 11
157.4759068478
 21
81.1189140057
  0
LINE
  5
3D9
100
AcDbEntity
  8
0
100
AcDbLine
 62
7
  6
CONTINUOUS
 10
144.7642139633
 20
81.6229911027
 11
144.6913674231
 21
81.5633187104
  0
LINE
  5
3DA
100
AcDbEntity
  8
RACCORDO
100
AcDbLine
 62
7
  6
CONTINUOUS
 10
191.8322053579
 20
117.8531835409
 11
194.6660061873
 21
120.1744972834
  0
LINE
  5
3DB
100
AcDbEntity
  8
SUPERFICI
100
AcDbLine
 62
7
  6
CONTINUOUS
 10
152.3324471963
 20
83.3014593907
 11
152.4471624835
 21
83.3954286528
  0
LINE
  5
3DC
100
AcDbEntity
  8
SUPERFICI
100
AcDbLine
 62
7
  6
CONTINUOUS
 10
152.6192354145
 20
83.5363825459
 11
152.7339507017
 21
83.630351808
  0
LINE
  5
3DD
100
AcDbEntity
  8
SUPERFICI
100
AcDbLine
 62
7
  6
CONTINUOUS
 10
152.9060236326
 20
83.7713057011
 11
153.0207389199
 21
83.8652749632
  0
LINE
  5
3DE
100
AcDbEntity
  8
SUPERFICI
100
AcDbLine
 62
7
  6
CONTINUOUS
 10
153.1928118508
 20
84.0062288563
 11
153.3075271381
 21
84.1001981184
  0
LINE
  5
3DF
100
AcDbEntity
  8
SUPERFICI
100
AcDbLine
 62
7
  6
CONTINUOUS
 10
153.479600069
 20
84.2411520115
 11
153.5943153562
 21
84.3351212736
  0
LINE
  5
3E0
100
AcDbEntity
  8
SUPERFICI
100
AcDbLine
 62
7
  6
CONTINUOUS
 10
156.8377834399
 20
81.4920147849
 11
156.9524987271
 21
81.5859840469
  0
LINE
  5
3E1
100
AcDbEntity
  8
SUPERFICI
100
AcDbLine
 62
7
  6
CONTINUOUS
 10
157.124571658
 20
81.72693794
 11
157.2392869453
 21
81.8209072021
  0
LINE
  5
3E2
100
AcDbEntity
  8
SUPERFICI
100
AcDbLine
 62
7
  6
CONTINUOUS
 10
157.4113598762
 20
81.9618610952
 11
157.5260751635
 21
82.0558303573
  0
LINE
  5
3E3
100
AcDbEntity
  8
SUPERFICI
100
AcDbLine
 62
7
  6
CONTINUOUS
 10
157.6981480944
 20
82.1967842504
 11
157.8128633817
 21
82.2907535125
  0
LINE
  5
3E4
100
AcDbEntity
  8
SUPERFICI
100
AcDbLine
 62
7
  6
CONTINUOUS
 10
157.9849363126
 20
82.4317074056
 11
158.0996515998
 21
82.5256766677
  0
LINE
  5
3E5
100
AcDbEntity
  8
SUPERFICI
100
AcDbLine
 62
7
  6
CONTINUOUS
 10
158.1856880653
 20
82.4732808076
 11
156.8427448588
 21
81.3732061347
  0
LWPOLYLINE
  5
3E6
100
AcDbEntity
  8
0
100
AcDbPolyline
 62
7
  6
CONTINUOUS
 90
20
 70
0
 10
145.3319087324
 20
82.5585143706
 10
145.3155682237
 20
82.5455213363
 10
145.299966511
 20
82.5338472421
 10
145.2842035628
 20
82.5227477466
 10
145.2683724752
 20
82.512242996
 10
145.2524883345
 20
82.5023444206
 10
145.2365360729
 20
82.4930406597
 10
145.2205635595
 20
82.4843176915
 10
145.204571823
 20
82.4761745219
 10
145.188559859
 20
82.4686122346
 10
145.1725724893
 20
82.4616199336
 10
145.1565977535
 20
82.455194046
 10
145.1406476406
 20
82.4493382495
 10
145.1248029
 20
82.4440525331
 10
145.1090620067
 20
82.439341191
 10
145.093426519
 20
82.4352000504
 10
145.0779818135
 20
82.4316164081
 10
145.0627563612
 20
82.428586073
 10
145.0477217264
 20
82.4261133634
 10
145.0328779267
 20
82.4241983423
  0
LINE
  5
3E7
100
AcDbEntity
  8
0
100
AcDbLine
 62
7
  6
CONTINUOUS
 10
153.4669778227
 20
84.3684212219
 11
152.0235206011
 21
83.3087152435
  0
LWPOLYLINE
  5
3E8
100
AcDbEntity
  8
0
100
AcDbPolyline
 62
7
  6
CONTINUOUS
 90
3
 70
0
 10
145.36744459
 20
82.5897405978
 10
145.3570876739
 20
82.5824468696
 10
145.3412540727
 20
82.5719392006
  0
LINE
  5
3E9
100
AcDbEntity
  8
0
100
AcDbLine
 62
7
  6
CONTINUOUS
 10
145.3412540727
 20
82.5719392006
 11
145.3253673083
 21
82.5620378555
  0
LINE
  5
3EA
100
AcDbEntity
  8
SUPERFICI
100
AcDbLine
 62
7
  6
CONTINUOUS
 10
153.4814403299
 20
84.3776358569
 11
153.4734309129
 21
84.3729341977
  0
LWPOLYLINE
  5
3EB
100
AcDbEntity
  8
0
100
AcDbPolyline
 62
7
  6
CONTINUOUS
 90
15
 70
0
 10
145.3253673083
 20
82.5620378555
 10
145.3094123232
 20
82.5527314682
 10
145.2934370905
 20
82.5440060597
 10
145.2774426582
 20
82.535860652
 10
145.2614280025
 20
82.5282963115
 10
145.2454379918
 20
82.5213021352
 10
145.2294606556
 20
82.5148745498
 10
145.2135079929
 20
82.5090172321
 10
145.1976608304
 20
82.5037301639
 10
145.181917641
 20
82.4990176467
 10
145.1662799854
 20
82.4948754997
 10
145.1508333245
 20
82.4912909892
 10
145.1356061575
 20
82.4882599139
 10
145.1205700212
 20
82.4857866021
 10
145.1057249332
 20
82.4838711166
  0
LINE
  5
3EC
100
AcDbEntity
  8
SUPERFICI
100
AcDbLine
 62
7
  6
CONTINUOUS
 10
125.2446655251
 20
126.7787211203
 11
125.4234725467
 21
126.7968051263
  0
LINE
  5
3ED
100
AcDbEntity
  8
SUPERFICI
100
AcDbLine
 62
7
  6
CONTINUOUS
 10
125.5013514928
 20
127.0105998242
 11
125.7102607649
 21
127.0317282815
  0
LINE
  5
3EE
100
AcDbEntity
  8
SUPERFICI
100
AcDbLine
 62
7
  6
CONTINUOUS
 10
125.788139711
 20
127.2455229794
 11
125.9970489831
 21
127.2666514367
  0
LWPOLYLINE
  5
3EF
100
AcDbEntity
  8
RACCORDO
100
AcDbPolyline
 62
7
  6
CONTINUOUS
 90
4
 70
0
 10
121.8526366322
 20
133.2137394034
 10
121.9360254513
 20
133.2184429473
 10
122.0243053022
 20
133.2118228684
 10
122.1162640564
 20
133.193829463
  0
LWPOLYLINE
  5
3F0
100
AcDbEntity
  8
RACCORDO
100
AcDbPolyline
 62
7
  6
CONTINUOUS
 90
13
 70
0
 10
121.9041826378
 20
133.2715468603
 10
121.8147158481
 20
133.2700380299
 10
121.7285275924
 20
133.2577286152
 10
121.6484032921
 20
133.2349467722
 10
121.5745938355
 20
133.2013590052
 10
121.5068455931
 20
133.1572966805
 10
121.4471862791
 20
133.1040845247
 10
121.3958495632
 20
133.0413641736
 10
121.3525991455
 20
132.9694919504
 10
121.3187575077
 20
132.8908643975
 10
121.2947648807
 20
132.8062799
 10
121.2801794287
 20
132.714938828
 10
121.275000753
 20
132.6168408724
  0
LWPOLYLINE
  5
3F1
100
AcDbEntity
  8
RACCORDO
100
AcDbPolyline
 62
7
  6
CONTINUOUS
 90
9
 70
0
 10
124.2678009607
 20
130.3158209406
 10
124.2677398383
 20
130.3158241854
 10
124.2676003436
 20
130.3158338126
 10
124.2677596565
 20
130.3158118202
 10
124.2682144135
 20
130.3157293455
 10
124.2689287143
 20
130.3155625397
 10
124.2698047245
 20
130.3153099871
 10
124.2707914875
 20
130.3149696431
 10
124.271196612
 20
130.3148134227
  0
LWPOLYLINE
  5
3F2
100
AcDbEntity
  8
RACCORDO
100
AcDbPolyline
 62
7
  6
CONTINUOUS
 90
3
 70
0
 10
122.0910969486
 20
133.2419456154
 10
121.9959997493
 20
133.262145925
 10
121.9041826378
 20
133.2715468603
  0
LWPOLYLINE
  5
3F3
100
AcDbEntity
  8
RACCORDO
100
AcDbPolyline
 62
7
  6
CONTINUOUS
 90
10
 70
0
 10
191.1620706596
 20
117.7729090526
 10
191.2368932309
 20
117.7514116839
 10
191.3169187701
 20
117.7373731176
 10
191.3999055625
 20
117.7311866183
 10
191.4835289397
 20
117.7330254946
 10
191.565446391
 20
117.742838244
 10
191.6433631839
 20
117.7603499924
 10
191.715096658
 20
117.7850701946
 10
191.7786373664
 20
117.8163063786
 10
191.8322053579
 20
117.8531835408
  0
LWPOLYLINE
  5
3F4
100
AcDbEntity
  8
RACCORDO
100
AcDbPolyline
 62
7
  6
CONTINUOUS
 90
13
 70
0
 10
189.8793304726
 20
119.451667762
 10
181.6553825581
 20
122.3751953983
 10
173.4829752159
 20
125.3469050593
 10
165.362971781
 20
128.3665024429
 10
157.2959685601
 20
131.433788855
 10
149.2830843616
 20
134.5483621077
 10
141.3259423751
 20
137.7096012879
 10
133.4253690597
 20
140.9171780464
 10
125.582184195
 20
144.1707595471
 10
117.7979589951
 20
147.4696837786
 10
110.0737346466
 20
150.8134854602
 10
102.4100410347
 20
154.2019109947
 10
94.8076556114
 20
157.634595727
  0
LWPOLYLINE
  5
3F5
100
AcDbEntity
  8
RACCORDO
100
AcDbPolyline
 62
7
  6
CONTINUOUS
 90
13
 70
0
 10
190.1405642752
 20
120.1057763783
 10
181.9195528449
 20
123.0282498919
 10
173.7517582792
 20
125.9982884553
 10
165.6371805782
 20
129.0158920686
 10
157.5747149932
 20
132.0814799668
 10
149.5654662728
 20
135.1946329148
 10
141.612748663
 20
138.3540932081
 10
133.7166038638
 20
141.5598929355
 10
125.8769901752
 20
144.8120000082
 10
118.0970967437
 20
148.1090604547
 10
110.377986618
 20
151.4506229512
 10
102.7185967493
 20
154.8371388214
 10
95.1189271377
 20
158.2686080654
  0
LWPOLYLINE
  5
3F6
100
AcDbEntity
  8
RACCORDO
100
AcDbPolyline
 62
7
  6
CONTINUOUS
 90
15
 70
0
 10
95.1189271377
 20
158.2686080654
 10
95.0355509595
 20
158.3032380357
 10
94.9475393424
 20
158.3348230659
 10
94.8552430858
 20
158.3624078952
 10
94.758542995
 20
158.3851138921
 10
94.6585960194
 20
158.401654436
 10
94.5577398744
 20
158.4107816357
 10
94.4566436698
 20
158.4117850069
 10
94.3560665178
 20
158.4039671636
 10
94.2583152263
 20
158.3869539526
 10
94.1640905137
 20
158.3605733759
 10
94.0740117043
 20
158.3246936725
 10
93.989858178
 20
158.2799005738
 10
93.9120938395
 20
158.226603125
 10
93.8948843763
 20
158.2129717492
  0
LWPOLYLINE
  5
3F7
100
AcDbEntity
  8
RACCORDO
100
AcDbPolyline
 62
7
  6
CONTINUOUS
 90
25
 70
0
 10
94.8076556114
 20
157.634595727
 10
94.7452115188
 20
157.6624232296
 10
94.6799777867
 20
157.6864902629
 10
94.6119550011
 20
157.7067972484
 10
94.5402659029
 20
157.7240969891
 10
94.4657891374
 20
157.7376376796
 10
94.3911585579
 20
157.7451624053
 10
94.3163478221
 20
157.7462327256
 10
94.2413833547
 20
157.7412871387
 10
94.1689768827
 20
157.7293832184
 10
94.0993417108
 20
157.7100129606
 10
94.0322633367
 20
157.6836835058
 10
93.9698107135
 20
157.6509743793
 10
93.9123497152
 20
157.6115130069
 10
93.8595126372
 20
157.5656706449
 10
93.8122675588
 20
157.5151422003
 10
93.7709374938
 20
157.4596126738
 10
93.7351978029
 20
157.3993958954
 10
93.7050450733
 20
157.3371300066
 10
93.6808400931
 20
157.2730436914
 10
93.6622210745
 20
157.206907547
 10
93.6481009573
 20
157.1406727406
 10
93.638117299
 20
157.0749895973
 10
93.632632202
 20
157.0092075475
 10
93.6316455865
 20
156.9433265339
  0
LWPOLYLINE
  5
3F8
100
AcDbEntity
  8
RACCORDO
100
AcDbPolyline
 62
7
  6
CONTINUOUS
 90
3
 70
0
 10
161.6200530495
 20
73.8672561534
 10
161.6649000073
 20
73.9404361856
 10
161.6999933532
 20
74.0200890778
  0
LWPOLYLINE
  5
3F9
100
AcDbEntity
  8
RACCORDO
100
AcDbPolyline
 62
7
  6
CONTINUOUS
 90
3
 70
0
 10
161.5920685895
 20
73.970242093
 10
161.5453902988
 20
73.9154351591
 10
161.5107263045
 20
73.8839142788
  0
LWPOLYLINE
  5
3FA
100
AcDbEntity
  8
RACCORDO
100
AcDbPolyline
 62
7
  6
CONTINUOUS
 90
10
 70
0
 10
160.8487320363
 20
73.8055700612
 10
160.8391820918
 20
73.7960094651
 10
160.83005512
 20
73.7841955584
 10
160.8216291251
 20
73.7704881888
 10
160.8141607591
 20
73.7553048786
 10
160.8078775058
 20
73.739108106
 10
160.8029707521
 20
73.7223912178
 10
160.7995899562
 20
73.705663404
 10
160.7978380949
 20
73.689434188
 10
160.7977685292
 20
73.6741979056
  0
LINE
  5
3FB
100
AcDbEntity
  8
SUPERFICI
100
AcDbLine
 62
7
  6
CONTINUOUS
 10
157.671603226
 20
81.2308489025
 11
157.516031627
 21
81.1027989897
  0
LINE
  5
3FC
100
AcDbEntity
  8
0
100
AcDbLine
 62
7
  6
CONTINUOUS
 10
157.7186233428
 20
81.3037863151
 11
157.4880122658
 21
81.1140521969
  0
LINE
  5
3FD
100
AcDbEntity
  8
RACCORDO
100
AcDbLine
 62
7
  6
CONTINUOUS
 10
161.5106236862
 20
73.8838037893
 11
161.5109146966
 21
73.8840423464
  0
LINE
  5
3FE
100
AcDbEntity
  8
RACCORDO
100
AcDbLine
 62
7
  6
CONTINUOUS
 10
161.0552028713
 20
73.9746504791
 11
160.8487345369
 21
73.8055215209
  0
LWPOLYLINE
  5
3FF
100
AcDbEntity
  8
RACCORDO
100
AcDbPolyline
 62
7
  6
CONTINUOUS
 90
28
 70
0
 10
161.3760265431
 20
74.0964920819
 10
161.3844793998
 20
74.1031271352
 10
161.3983792938
 20
74.1147554847
 10
161.4118176378
 20
74.1269221751
 10
161.424784993
 20
74.1396186108
 10
161.4372723386
 20
74.152835891
 10
161.4492706855
 20
74.1665645324
 10
161.4607716018
 20
74.180794844
 10
161.4717670436
 20
74.1955167989
 10
161.4822491062
 20
74.2107198759
 10
161.492210385
 20
74.2263933035
 10
161.5016439054
 20
74.2425260273
 10
161.5105429359
 20
74.2591065986
 10
161.5189011597
 20
74.2761232556
 10
161.5267126978
 20
74.2935639671
 10
161.5339720237
 20
74.3114164128
 10
161.5406739341
 20
74.3296678757
 10
161.5468136998
 20
74.3483054602
 10
161.5523870648
 20
74.3673161545
 10
161.55739001
 20
74.3866865418
 10
161.5618189209
 20
74.4064027851
 10
161.5656707381
 20
74.4264508475
 10
161.5689425808
 20
74.4468161654
 10
161.5716321273
 20
74.4674845272
 10
161.5737377179
 20
74.4884420943
 10
161.5752578053
 20
74.5096742555
 10
161.5761910154
 20
74.5311656051
 10
161.576536501
 20
74.552900835
  0
LINE
  5
400
100
AcDbEntity
  8
RACCORDO
100
AcDbLine
 62
7
  6
CONTINUOUS
 10
161.7005800098
 20
74.6479665647
 11
161.576536501
 21
74.552900835
  0
LINE
  5
401
100
AcDbEntity
  8
RACCORDO
100
AcDbLine
 62
7
  6
CONTINUOUS
 10
161.3760265968
 20
74.096492123
 11
161.7005800098
 21
74.3452267105
  0
LWPOLYLINE
  5
402
100
AcDbEntity
  8
RACCORDO
100
AcDbPolyline
 62
7
  6
CONTINUOUS
 90
13
 70
0
 10
192.9559408749
 20
122.4119978755
 10
184.7318914212
 20
125.3338409075
 10
176.5619492706
 20
128.3032367325
 10
168.4461144232
 20
131.3201853503
 10
160.3834935696
 20
134.3850318999
 10
152.3749800193
 20
137.4974312424
 10
144.4232536998
 20
140.6563479611
 10
136.5283369485
 20
143.8618003538
 10
128.6902074282
 20
147.1137701227
 10
120.9114780552
 20
150.411166959
 10
113.1930198019
 20
153.7536274262
 10
105.5339616959
 20
157.1415149607
 10
97.9343037374
 20
160.5748295626
  0
LWPOLYLINE
  5
403
100
AcDbEntity
  8
RACCORDO
100
AcDbPolyline
 62
7
  6
CONTINUOUS
 90
19
 70
0
 10
192.9559408749
 20
122.4119978755
 10
193.1051621278
 20
122.3534384545
 10
193.2518092711
 20
122.2835623853
 10
193.3958814347
 20
122.2023688585
 10
193.5389037016
 20
122.1087216771
 10
193.6793496188
 20
122.003755765
 10
193.812639581
 20
121.8908756507
 10
193.9378747471
 20
121.7704140632
 10
194.0559495628
 20
121.6420341552
 10
194.1649725713
 20
121.5081344155
 10
194.2649260248
 20
121.3686946108
 10
194.3558233665
 20
121.2237309334
 10
194.4358193229
 20
121.0756959417
 10
194.5049299393
 20
120.9236766126
 10
194.5631354831
 20
120.7685825029
 10
194.6085367923
 20
120.6155998306
 10
194.6404999598
 20
120.4664565326
 10
194.6596566101
 20
120.3194225246
 10
194.6660061873
 20
120.1744972834
  0
LINE
  5
404
100
AcDbEntity
  8
DRAFT
100
AcDbLine
 62
7
  6
CONTINUOUS
 10
99.2067408765
 20
160.797997002
 11
194.228378014
 21
122.6351653149
  0
LWPOLYLINE
  5
405
100
AcDbEntity
  8
DRAFT
100
AcDbPolyline
 62
7
  6
CONTINUOUS
 90
10
 70
0
 10
194.228378014
 20
122.6351653149
 10
194.2509469893
 20
122.6257901405
 10
194.2735002553
 20
122.6157995027
 10
194.2960206817
 20
122.6052008716
 10
194.3184925713
 20
122.5940014575
 10
194.3408974226
 20
122.5822103034
 10
194.3632139912
 20
122.5698386484
 10
194.3854217461
 20
122.5568982658
 10
194.4075075214
 20
122.5433972205
 10
194.4285714674
 20
122.5299237585
  0
LWPOLYLINE
  5
406
100
AcDbEntity
  8
RACCORDO
100
AcDbPolyline
 62
7
  6
CONTINUOUS
 90
8
 70
0
 10
189.8793304726
 20
50.6428960417
 10
189.8815653591
 20
50.5915277126
 10
189.8882317802
 20
50.5452223073
 10
189.8992156751
 20
50.5047721267
 10
189.91432911
 20
50.4708692877
 10
189.9333134929
 20
50.4440938824
 10
189.9558439976
 20
50.4249040514
 10
189.9747758934
 20
50.4157145144
  0
LWPOLYLINE
  5
407
100
AcDbEntity
  8
RACCORDO
100
AcDbPolyline
 62
7
  6
CONTINUOUS
 90
25
 70
0
 10
191.1620706596
 20
117.7729090526
 10
191.1609573153
 20
117.8399239559
 10
191.1549288497
 20
117.9105482528
 10
191.1439853297
 20
117.9847820061
 10
191.1285147964
 20
118.0629626657
 10
191.1081294943
 20
118.14475305
 10
191.0816659316
 20
118.2291414029
 10
191.048733818
 20
118.3166619589
 10
191.0097242773
 20
118.4067812662
 10
190.9646461169
 20
118.4968862065
 10
190.9131536203
 20
118.5869320875
 10
190.8555938547
 20
118.6769648691
 10
190.7930147927
 20
118.7645074002
 10
190.7250244946
 20
118.8494980493
 10
190.6520164227
 20
118.9319998757
 10
190.5762162362
 20
119.009722374
 10
190.4973940775
 20
119.0823453682
 10
190.4157808111
 20
119.1501899769
 10
190.3342923045
 20
119.2119268158
 10
190.2529547308
 20
119.2671031505
 10
190.1717418711
 20
119.3161716704
 10
190.0934899506
 20
119.3591601384
 10
190.0191438087
 20
119.396077275
 10
189.9477574753
 20
119.426913299
 10
189.8793304726
 20
119.451667762
  0
LINE
  5
408
100
AcDbEntity
  8
RACCORDO
100
AcDbLine
 62
7
  6
CONTINUOUS
 10
191.1620706596
 20
51.4215934652
 11
191.1620706596
 21
117.7729090526
  0
LWPOLYLINE
  5
409
100
AcDbEntity
  8
RACCORDO
100
AcDbPolyline
 62
7
  6
CONTINUOUS
 90
13
 70
0
 10
189.8793304726
 20
119.451667762
 10
189.8815653642
 20
119.5072201747
 10
189.8882317996
 20
119.5660060905
 10
189.899215714
 20
119.6270196661
 10
189.9143291695
 20
119.6892169423
 10
189.9333135706
 20
119.751533706
 10
189.9558440885
 20
119.8129036998
 10
189.9815352197
 20
119.872276866
 10
190.0099473817
 20
119.9286373134
 10
190.0405944342
 20
119.9810206991
 10
190.0729519976
 20
120.028530729
 10
190.1064664249
 20
120.070354494
 10
190.1405642752
 20
120.1057763783
  0
LINE
  5
40A
100
AcDbEntity
  8
DRAFT
100
AcDbLine
 62
7
  6
CONTINUOUS
 10
195.0475300583
 20
85.2710070655
 11
194.6660061873
 21
85.0802990414
  0
LINE
  5
40B
100
AcDbEntity
  8
0
100
AcDbLine
 62
7
  6
CONTINUOUS
 10
194.4285716924
 20
122.5299236115
 11
194.6152630714
 21
122.4078915962
  0
LWPOLYLINE
  5
40C
100
AcDbEntity
  8
DRAFT
100
AcDbPolyline
 62
7
  6
CONTINUOUS
 90
33
 70
0
 10
194.4285714674
 20
122.5299237585
 10
194.4512710434
 20
122.51473851
 10
194.4729153217
 20
122.4996017903
 10
194.4943690046
 20
122.4839490397
 10
194.5156097529
 20
122.4677972794
 10
194.5366278737
 20
122.4511546086
 10
194.5574174705
 20
122.4340256612
 10
194.5779695456
 20
122.4164169845
 10
194.5982611448
 20
122.3983473689
 10
194.6182658072
 20
122.3798404099
 10
194.637961136
 20
122.3609178357
 10
194.6573401196
 20
122.3415874058
 10
194.6763996275
 20
122.3218522198
 10
194.6951325038
 20
122.3017185511
 10
194.7135162943
 20
122.2812093752
 10
194.731525387
 20
122.2603532831
 10
194.7491389635
 20
122.2391756482
 10
194.7663518651
 20
122.2176839634
 10
194.78316234
 20
122.1958804074
 10
194.799564343
 20
122.1737714389
 10
194.8155374891
 20
122.1513831172
 10
194.8310590435
 20
122.128747308
 10
194.8461111338
 20
122.1058915743
 10
194.8606897292
 20
122.0828235801
 10
194.8747933547
 20
122.0595456697
 10
194.8884165891
 20
122.0360651789
 10
194.9015424203
 20
122.0124097586
 10
194.9141525436
 20
121.9886123726
 10
194.9262330016
 20
121.9647010804
 10
194.9377803948
 20
121.9406844034
 10
194.9487928808
 20
121.9165662119
 10
194.9592655164
 20
121.8923555029
 10
194.967730088
 20
121.8717321099
  0
LWPOLYLINE
  5
40D
100
AcDbEntity
  8
0
100
AcDbPolyline
 62
7
  6
CONTINUOUS
 90
26
 70
0
 10
194.6152578566
 20
122.4078940005
 10
194.6280660197
 20
122.3993005895
 10
194.6417321835
 20
122.3896346311
 10
194.6552437087
 20
122.3795548504
 10
194.6686011581
 20
122.3690627532
 10
194.6817558085
 20
122.3581966108
 10
194.6947069194
 20
122.3469550572
 10
194.7074552313
 20
122.3353394583
 10
194.7199542433
 20
122.3233921837
 10
194.7322030447
 20
122.3111120219
 10
194.7442025461
 20
122.2985001843
 10
194.7559089777
 20
122.2856026742
 10
194.7673212692
 20
122.2724184483
 10
194.778440491
 20
122.2589485499
 10
194.7892260842
 20
122.2452421122
 10
194.7996768304
 20
122.2312982713
 10
194.8097939481
 20
122.2171178911
 10
194.8195405337
 20
122.2027526964
 10
194.828915234
 20
122.1882020122
 10
194.8379194023
 20
122.1734665134
 10
194.8465201946
 20
122.1585999498
 10
194.8547161378
 20
122.1436018426
 10
194.8625087051
 20
122.1284726705
 10
194.8698694721
 20
122.1132676191
 10
194.8767968618
 20
122.0979864113
 10
194.8832924512
 20
122.0826293242
  0
LINE
  5
40E
100
AcDbEntity
  8
DRAFT
100
AcDbLine
 62
7
  6
CONTINUOUS
 10
195.0475300583
 20
85.2710070655
 11
194.9247422543
 21
85.5982058815
  0
LWPOLYLINE
  5
40F
100
AcDbEntity
  8
RACCORDO
100
AcDbPolyline
 62
7
  6
CONTINUOUS
 90
25
 70
0
 10
191.8322053579
 20
117.8531835409
 10
191.8297844575
 20
117.9422592339
 10
191.822026673
 20
118.0365376717
 10
191.8083551967
 20
118.135913525
 10
191.7881933918
 20
118.2403063339
 10
191.7609680246
 20
118.3493659019
 10
191.7261652635
 20
118.4624582309
 10
191.6831056589
 20
118.5796249
 10
191.6315015201
 20
118.6998517545
 10
191.5718269423
 20
118.820802576
 10
191.5040976549
 20
118.9416928353
 10
191.4283010001
 20
119.0619434405
 10
191.3454683539
 20
119.1795661596
 10
191.2558301163
 20
119.2940073191
 10
191.1598788168
 20
119.4044789087
 10
191.0595510019
 20
119.5089234025
 10
190.9554410131
 20
119.6069804638
 10
190.8482607118
 20
119.6982495733
 10
190.7405205219
 20
119.7811741045
 10
190.6329761888
 20
119.8558288666
 10
190.5262888283
 20
119.9223758723
 10
190.4229909557
 20
119.9800962382
 10
190.3243039681
 20
120.0293027007
 10
190.2300438901
 20
120.0709769248
 10
190.1405642752
 20
120.1057763783
  0
LINE
  5
410
100
AcDbEntity
  8
RACCORDO
100
AcDbLine
 62
7
  6
CONTINUOUS
 10
191.8322053579
 20
51.5018679535
 11
191.8322053579
 21
117.8531835409
  0
LINE
  5
411
100
AcDbEntity
  8
RACCORDO
100
AcDbLine
 62
7
  6
CONTINUOUS
 10
194.6660061873
 20
120.1744972834
 11
194.6660061873
 21
53.823181696
  0
LINE
  5
412
100
AcDbEntity
  8
DRAFT
100
AcDbLine
 62
7
  6
CONTINUOUS
 10
195.0475300583
 20
121.4870233422
 11
195.0475300583
 21
91.3517240316
  0
LINE
  5
413
100
AcDbEntity
  8
DRAFT
100
AcDbLine
 62
7
  6
CONTINUOUS
 10
195.0475300583
 20
85.2710070655
 11
195.0475300583
 21
55.1357077548
  0
LWPOLYLINE
  5
414
100
AcDbEntity
  8
DRAFT
100
AcDbPolyline
 62
7
  6
CONTINUOUS
 90
28
 70
0
 10
195.0475300583
 20
55.1357077548
 10
195.0472190932
 20
55.1132636702
 10
195.0462863555
 20
55.0910850127
 10
195.0447324353
 20
55.0691886756
 10
195.0425582387
 20
55.0475899924
 10
195.0397653779
 20
55.026306817
 10
195.0363565601
 20
55.0053593064
 10
195.0323353125
 20
54.9847665752
 10
195.0277044124
 20
54.9645406737
 10
195.0224659375
 20
54.9446909003
 10
195.016622119
 20
54.9252280507
 10
195.0101782294
 20
54.9061717837
 10
195.0031417616
 20
54.8875441049
 10
194.9955207646
 20
54.8693641208
 10
194.987319445
 20
54.8516398349
 10
194.9785400683
 20
54.8343762337
 10
194.9691855684
 20
54.8175811366
 10
194.9592655164
 20
54.8012736539
 10
194.9487928808
 20
54.7854750381
 10
194.9377803948
 20
54.7702025719
 10
194.9262330016
 20
54.7554612818
 10
194.9141525436
 20
54.7412535581
 10
194.9015424203
 20
54.7275851917
 10
194.8884165891
 20
54.7144730309
 10
194.8747933547
 20
54.7019353362
 10
194.8606897292
 20
54.6899860937
 10
194.8461111338
 20
54.6786282848
 10
194.8367342583
 20
54.6718129512
  0
LWPOLYLINE
  5
415
100
AcDbEntity
  8
RACCORDO
100
AcDbPolyline
 62
7
  6
CONTINUOUS
 90
9
 70
0
 10
194.6660061873
 20
53.823181696
 10
194.6596154679
 20
53.6826298958
 10
194.6404551143
 20
53.5489772165
 10
194.6085256808
 20
53.4222241797
 10
194.5632107649
 20
53.3011216888
 10
194.5051290406
 20
53.1869209777
 10
194.4361339896
 20
53.0833733572
 10
194.3562371647
 20
52.9913292017
 10
194.2782401878
 20
52.9202464785
  0
LINE
  5
416
100
AcDbEntity
  8
DRAFT
100
AcDbLine
 62
7
  6
CONTINUOUS
 10
195.0475300583
 20
91.3517240316
 11
194.6660061873
 21
90.9822448593
  0
LINE
  5
417
100
AcDbEntity
  8
0
100
AcDbLine
 62
7
  6
CONTINUOUS
 10
194.9677295926
 20
121.8717333477
 11
194.8832924512
 21
122.0826293242
  0
LWPOLYLINE
  5
418
100
AcDbEntity
  8
DRAFT
100
AcDbPolyline
 62
7
  6
CONTINUOUS
 90
18
 70
0
 10
194.967730088
 20
121.8717321099
 10
194.9691855684
 20
121.8680797872
 10
194.9785400683
 20
121.843770734
 10
194.987319445
 20
121.8194551417
 10
194.9955207646
 20
121.795143186
 10
195.0031417616
 20
121.7708416735
 10
195.0101782294
 20
121.7465619865
 10
195.016622119
 20
121.7223296968
 10
195.0224659375
 20
121.6981728288
 10
195.0277044124
 20
121.674115276
 10
195.0323353125
 20
121.6501696268
 10
195.0363565601
 20
121.6263468482
 10
195.0397653779
 20
121.6026612215
 10
195.0425582387
 20
121.5791346944
 10
195.0447324353
 20
121.5557895984
 10
195.0462863555
 20
121.5326450826
 10
195.0472190932
 20
121.5097172081
 10
195.0475300583
 20
121.4870233422
  0
LWPOLYLINE
  5
419
100
AcDbEntity
  8
RACCORDO
100
AcDbPolyline
 62
7
  6
CONTINUOUS
 90
12
 70
0
 10
191.4499515207
 20
50.6033937198
 10
191.524621819
 20
50.6716069456
 10
191.5895822615
 20
50.7446069319
 10
191.6463218439
 20
50.8227899924
 10
191.6949922019
 20
50.9054185151
 10
191.735367582
 20
50.9907392748
 10
191.7679018045
 20
51.0778630321
 10
191.7931182826
 20
51.1660077155
 10
191.8114035713
 20
51.2533292388
 10
191.8234860725
 20
51.3386687885
 10
191.8301790267
 20
51.4217088149
 10
191.8322053579
 20
51.5018679535
  0
LINE
  5
41A
100
AcDbEntity
  8
RACCORDO
100
AcDbLine
 62
7
  6
CONTINUOUS
 10
191.8322053579
 20
51.5018679535
 11
194.6660061873
 21
53.823181696
  0
LINE
  5
41B
100
AcDbEntity
  8
RACCORDO
100
AcDbLine
 62
7
  6
CONTINUOUS
 10
191.4483683874
 20
50.6020965728
 11
194.2781683032
 21
52.9201324049
  0
LINE
  5
41C
100
AcDbEntity
  8
DRAFT
100
AcDbLine
 62
7
  6
CONTINUOUS
 10
195.0475300583
 20
55.1357077548
 11
194.6660061873
 21
54.8556141567
  0
LINE
  5
41D
100
AcDbEntity
  8
DRAFT
100
AcDbLine
 62
7
  6
CONTINUOUS
 10
194.8367324038
 20
54.6718116394
 11
194.6660061873
 21
54.5510423782
  0
ELLIPSE
  5
41E
100
AcDbEntity
  8
SUPERFICI
100
AcDbEllipse
 62
7
  6
CONTINUOUS
 10
139.8040858269
 20
89.2074382507
 30
0.0
 11
0.19974097
 21
0.1359120531
 31
0.0
 40
0.0748697584
 41
-0.60940585
 42
-0.0505348179
  0
ELLIPSE
  5
41F
100
AcDbEntity
  8
SUPERFICI
100
AcDbEllipse
 62
7
  6
CONTINUOUS
 10
158.2350068234
 20
81.8051648631
 30
0.0
 11
0.19974097
 21
0.1359120531
 31
0.0
 40
0.0748697584
 41
-0.60940585
 42
-0.0505348179
  0
ELLIPSE
  5
420
100
AcDbEntity
  8
SUPERFICI
100
AcDbEllipse
 62
7
  6
CONTINUOUS
 10
153.4669778227
 20
84.204590813
 30
0.0
 11
0.0820063524
 21
0.1825471329
 31
0.0
 40
0.504400903
 41
0.6752534469
 42
0.7276133244
  0
ELLIPSE
  5
421
100
AcDbEntity
  8
SUPERFICI
100
AcDbEllipse
 62
7
  6
CONTINUOUS
 10
135.0360568262
 20
91.6068642006
 30
0.0
 11
0.0820063524
 21
0.1825471329
 31
0.0
 40
0.504400903
 41
0.6752534469
 42
0.7276133244
  0
ELLIPSE
  5
422
100
AcDbEntity
  8
SUPERFICI
100
AcDbEllipse
 62
7
  6
CONTINUOUS
 10
125.9110975203
 20
122.8275338777
 30
0.0
 11
0.1999434854
 21
0.0078174272
 31
0.0
 40
0.6081570881
 41
-0.6346385963
 42
-0.5822787188
  0
ELLIPSE
  5
423
100
AcDbEntity
  8
SUPERFICI
100
AcDbEllipse
 62
7
  6
CONTINUOUS
 10
125.9110975203
 20
104.3966128812
 30
0.0
 11
0.1999434854
 21
0.0078174272
 31
0.0
 40
0.6081570881
 41
-0.6346385963
 42
-0.5822787188
  0
ELLIPSE
  5
424
100
AcDbEntity
  8
RACCORDO
100
AcDbEllipse
 62
7
  6
CONTINUOUS
 10
125.2960232897
 20
94.207135962
 30
0.0
 11
-0.1268434165
 21
0.1546379889
 31
0.0
 40
0.6728141967
 41
0.6869639216
 42
2.2550211926
  0
ELLIPSE
  5
425
100
AcDbEntity
  8
SUPERFICI
100
AcDbEllipse
 62
7
  6
CONTINUOUS
 10
158.3990620643
 20
82.2237545904
 30
0.0
 11
0.067652159
 21
0.1883288026
 31
0.0
 40
0.4341965489
 41
0.6388247178
 42
0.6911845954
  0
ELLIPSE
  5
426
100
AcDbEntity
  8
SUPERFICI
100
AcDbEllipse
 62
7
  6
CONTINUOUS
 10
139.9681410678
 20
89.626027978
 30
0.0
 11
0.067652159
 21
0.1883288026
 31
0.0
 40
0.4341965489
 41
0.6388247178
 42
0.6911845954
  0
ELLIPSE
  5
427
100
AcDbEntity
  8
SUPERFICI
100
AcDbEllipse
 62
7
  6
CONTINUOUS
 10
125.4266195097
 20
127.7901401697
 30
0.0
 11
0.2005713813
 21
0.1347479599
 31
0.0
 40
0.0672828894
 41
-0.6091761581
 42
0.9092602911
  0
ELLIPSE
  5
428
100
AcDbEntity
  8
SUPERFICI
100
AcDbEllipse
 62
7
  6
CONTINUOUS
 10
125.9110975203
 20
127.7596181192
 30
0.0
 11
0.199965237
 21
-0.0069314902
 31
0.0
 40
0.537951126
 41
-0.592220143
 42
-0.5398602654
  0
ELLIPSE
  5
429
100
AcDbEntity
  8
SUPERFICI
100
AcDbEllipse
 62
7
  6
CONTINUOUS
 10
125.4266195097
 20
109.3592191732
 30
0.0
 11
0.2005713813
 21
0.1347479599
 31
0.0
 40
0.0672828894
 41
-0.6091761581
 42
0.9092602911
  0
ELLIPSE
  5
42A
100
AcDbEntity
  8
SUPERFICI
100
AcDbEllipse
 62
7
  6
CONTINUOUS
 10
125.9110975203
 20
109.3286971227
 30
0.0
 11
0.199965237
 21
-0.0069314902
 31
0.0
 40
0.537951126
 41
-0.592220143
 42
-0.5398602654
  0
ENDSEC
  0
SECTION
  2
OBJECTS
  0
DICTIONARY
  5
C
100
AcDbDictionary
280
0
281
1
  3
ACAD_GROUP
350
D
  3
ACAD_MLINESTYLE
350
17
  3
ACAD_LAYOUT
350
1A
  3
ACAD_PLOTSETTINGS
350
19
  3
ACAD_PLOTSTYLENAME
350
E
  0
DICTIONARY
  5
D
102
{ACAD_REACTORS
330
C
102
}
100
AcDbDictionary
280
0
281
1
  0
ACDBDICTIONARYWDFLT
  5
E
102
{ACAD_REACTORS
330
C
102
}
100
AcDbDictionary
281
1
  3
Normal
350
F
100
AcDbDictionaryWithDefault
340
F
  0
DICTIONARY
  5
17
102
{ACAD_REACTORS
330
C
102
}
100
AcDbDictionary
280
0
281
1
  3
Standard
350
18
  0
DICTIONARY
  5
19
102
{ACAD_REACTORS
330
C
102
}
100
AcDbDictionary
281
1
  0
DICTIONARY
  5
1A
102
{ACAD_REACTORS
330
C
102
}
100
AcDbDictionary
281
1
  3
Model
350
42B
  3
Layout1
350
42C
  0
ACDBPLACEHOLDER
  5
F
102
{ACAD_REACTORS
330
E
102
}
  0
MLINESTYLE
  5
18
102
{ACAD_REACTORS
330
17
102
}
100
AcDbMlineStyle
  2
STANDARD
 70
0
  3

 62
256
 51
90.0
 52
90.0
 71
2
 49
0.5
 62
256
  6
BYLAYER
 49
-0.5
 62
256
  6
BYLAYER
  0
LAYOUT
  5
42B
102
{ACAD_REACTORS
330
1A
102
}
100
AcDbPlotSettings
  1

  2
none_device
  4
ISO_A4_(297.00_x_210.00_MM)
  6

 40
0.0
 41
0.0
 42
0.0
 43
0.0
 44
297.0
 45
210.0
 46
0.0
 47
0.0
 48
0.0
 49
0.0
140
0.0
141
0.0
142
1.0
143
1.0
 70
1024
 72
1
 73
0
 74
0
  7

 75
0
147
1.0
148
0.0
149
0.0
100
AcDbLayout
  1
Model
 70
0
 71
0
 10
0.0
 20
0.0
 11
297.0
 21
210.0
 12
0.0
 22
0.0
 32
0.0
 14
0.0
 24
0.0
 34
0.0
 15
0.0
 25
0.0
 35
0.0
146
0.0
 13
0.0
 23
0.0
 33
0.0
 16
1.0
 26
0.0
 36
0.0
 17
0.0
 27
1.0
 37
0.0
 76
0
330
214
345
0
346
0
  0
LAYOUT
  5
42C
102
{ACAD_REACTORS
330
1A
102
}
100
AcDbPlotSettings
  1

  2
none_device
  4
ISO_A4_(297.00_x_210.00_MM)
  6

 40
0.0
 41
0.0
 42
0.0
 43
0.0
 44
297.0
 45
210.0
 46
0.0
 47
0.0
 48
0.0
 49
0.0
140
0.0
141
0.0
142
1.0
143
1.0
 70
0
 72
1
 73
0
 74
0
  7

 75
0
147
1.0
148
0.0
149
0.0
100
AcDbLayout
  1
Layout1
 70
0
 71
1
 10
0.0
 20
0.0
 11
297.0
 21
210.0
 12
0.0
 22
0.0
 32
0.0
 14
0.0
 24
0.0
 34
0.0
 15
0.0
 25
0.0
 35
0.0
146
0.0
 13
0.0
 23
0.0
 33
0.0
 16
1.0
 26
0.0
 36
0.0
 17
0.0
 27
1.0
 37
0.0
 76
0
330
215
345
0
346
0
  0
ENDSEC
  0
EOF
