0
SECTION
2
HEADER
9
$ACADVER
1
AC1014
9
$HANDSEED
5
       447
9
$EXTMAX
10
297.0000000000
20
210.0000000000
9
$EXTMIN
10
0.0000000000
20
0.0000000000
9
$LIMMIN
10
0.0000000000
20
0.0000000000
9
$LIMMAX
10
297.0000000000
20
210.0000000000
9
$VIEWCTR
10
148.5000000000
20
105.0000000000
9
$VIEWSIZE
40
210.0000000000
9
$CLAYER
8
0
9
$LTSCALE
40
16.3350000000
9
$CELTYPE
6
BYLAYER
9
$DIMSCALE
40
1
9
$DIMASZ
40
3.0000000000
9
$DIMEXO
40
1.8562500000
9
$DIMDLI
40
11.2860000000
9
$DIMEXE
40
5.3460000000
9
$DIMCEN
40
2.6730000000
9
$DIMLFAC
40
1.0000000000
9
$DIMTXT
40
3.0000000000
9
$DIMTOL
70
1
9
$DIMLIM
70
0
9
$DIMTFAC
40
1.0000000000
9
$DIMTP
40
0.0100000000
9
$DIMTM
40
0.0100000000
9
$MEASUREMENT
70
1
0
ENDSEC
0
SECTION
2
CLASSES
0
ENDSEC
0
SECTION
2
TABLES
0
TABLE
2
VPORT
5
8
100
AcDbSymbolTable
70
2
0
VPORT
5
1F4
100
AcDbSymbolTableRecord
100
AcDbViewportTableRecord
2
*ACTIVE
70
0
10
0.0
20
0.0
11
1.0
21
1.0
12
148.5000000000
22
105.0000000000
13
0.0
23
0.0
14
1.0
24
1.0
15
0.0
25
0.0
16
0.0
26
0.0
36
1.0
17
0.0
27
0.0
37
0.0
40
210.0000000000
41
1.4142857143
42
50.0
43
0.0
44
0.0
50
0.0
51
0.0
71
0
72
100
73
1
74
1
75
0
76
0
77
0
78
0
0
ENDTAB
0
TABLE
2
LTYPE
5
5
100
AcDbSymbolTable
70
6
0
LTYPE
5
14
100
AcDbSymbolTableRecord
100
AcDbLinetypeTableRecord
2
BYBLOCK
70
0
3

72
65
73
0
40
0.0
0
LTYPE
5
15
100
AcDbSymbolTableRecord
100
AcDbLinetypeTableRecord
2
BYLAYER
70
0
3

72
65
73
0
40
0.0
0
LTYPE
5
16
100
AcDbSymbolTableRecord
100
AcDbLinetypeTableRecord
2
CONTINUOUS
70
64
3
Solid line
72
65
73
0
40
0
0
LTYPE
5
1F5
100
AcDbSymbolTableRecord
100
AcDbLinetypeTableRecord
2
CENTER
70
64
3
____ _ ____ _ ____ _ ____ _ ____ _ ____ _ ____
72
65
73
4
40
0.6
49
0.375
74
0
49
-0.075
74
0
49
0.075
74
0
49
-0.075
74
0
0
LTYPE
5
1F6
100
AcDbSymbolTableRecord
100
AcDbLinetypeTableRecord
2
HIDDEN
70
64
3
- - - - - - - - - - - - - - - - - - - -
72
65
73
2
40
0.2
49
0.1
74
0
49
-0.1
74
0
0
LTYPE
5
1F7
100
AcDbSymbolTableRecord
100
AcDbLinetypeTableRecord
2
PHANTOM
70
64
3
_____ _ _ _____ _ _ _____ _ _ _____
72
65
73
6
40
0.8
49
0.45
74
0
49
-0.05
74
0
49
0.1
74
0
49
-0.05
74
0
49
0.1
74
0
49
-0.05
74
0
0
LTYPE
5
1F8
100
AcDbSymbolTableRecord
100
AcDbLinetypeTableRecord
2
DOT
70
64
3
. . . . . . . . . . . . . . . . . . . .
72
65
73
2
40
0.2
49
0.1
74
0
49
-0.1
74
0
0
LTYPE
5
1F9
100
AcDbSymbolTableRecord
100
AcDbLinetypeTableRecord
2
DASHED
70
64
3
- - - - - - - - - - - - - - - - - - - -
72
65
73
2
40
0.2
49
0.1
74
0
49
-0.1
74
0
0
ENDTAB
0
TABLE
2
LAYER
5
2
100
AcDbSymbolTable
70
36
0
LAYER
5
10
100
AcDbSymbolTableRecord
100
AcDbLayerTableRecord
2
0
70
0
62
7
6
CONTINUOUS
0
LAYER
5
1FA
100
AcDbSymbolTableRecord
100
AcDbLayerTableRecord
2
DEFAULT_1
70
0
62
7
6
CENTER
0
LAYER
5
1FB
100
AcDbSymbolTableRecord
100
AcDbLayerTableRecord
2
DEFAULT_2
70
0
62
8
6
HIDDEN
0
LAYER
5
1FC
100
AcDbSymbolTableRecord
100
AcDbLayerTableRecord
2
DEFAULT_3
70
0
62
7
6
PHANTOM
0
LAYER
5
1FD
100
AcDbSymbolTableRecord
100
AcDbLayerTableRecord
2
_BLACK_HOLE
70
0
62
7
6
CONTINUOUS
0
LAYER
5
1FE
100
AcDbSymbolTableRecord
100
AcDbLayerTableRecord
2
ASSI
70
0
62
7
6
CONTINUOUS
0
LAYER
5
1FF
100
AcDbSymbolTableRecord
100
AcDbLayerTableRecord
2
COORDINATE
70
0
62
7
6
CONTINUOUS
0
LAYER
5
200
100
AcDbSymbolTableRecord
100
AcDbLayerTableRecord
2
COORD_ORIGINE
70
0
62
7
6
CONTINUOUS
0
LAYER
5
201
100
AcDbSymbolTableRecord
100
AcDbLayerTableRecord
2
COPY_PLACCA
70
0
62
7
6
CONTINUOUS
0
LAYER
5
202
100
AcDbSymbolTableRecord
100
AcDbLayerTableRecord
2
CURVE
70
0
62
7
6
CONTINUOUS
0
LAYER
5
203
100
AcDbSymbolTableRecord
100
AcDbLayerTableRecord
2
DRAFT
70
0
62
7
6
CONTINUOUS
0
LAYER
5
204
100
AcDbSymbolTableRecord
100
AcDbLayerTableRecord
2
IMPORT_SCRITTE
70
0
62
7
6
CONTINUOUS
0
LAYER
5
205
100
AcDbSymbolTableRecord
100
AcDbLayerTableRecord
2
NOTE
70
0
62
7
6
CONTINUOUS
0
LAYER
5
206
100
AcDbSymbolTableRecord
100
AcDbLayerTableRecord
2
PIANI
70
0
62
7
6
CONTINUOUS
0
LAYER
5
207
100
AcDbSymbolTableRecord
100
AcDbLayerTableRecord
2
PIANI_ORIGINE
70
0
62
7
6
CONTINUOUS
0
LAYER
5
208
100
AcDbSymbolTableRecord
100
AcDbLayerTableRecord
2
PUNTI
70
0
62
7
6
CONTINUOUS
0
LAYER
5
209
100
AcDbSymbolTableRecord
100
AcDbLayerTableRecord
2
RACCORDO
70
0
62
7
6
CONTINUOUS
0
LAYER
5
20A
100
AcDbSymbolTableRecord
100
AcDbLayerTableRecord
2
SMUSSO
70
0
62
7
6
CONTINUOUS
0
LAYER
5
20B
100
AcDbSymbolTableRecord
100
AcDbLayerTableRecord
2
SUPERFICI
70
0
62
7
6
CONTINUOUS
0
LAYER
5
20C
100
AcDbSymbolTableRecord
100
AcDbLayerTableRecord
2
SUPP
70
0
62
7
6
CONTINUOUS
0
LAYER
5
20D
100
AcDbSymbolTableRecord
100
AcDbLayerTableRecord
2
TRASH
70
0
62
7
6
CONTINUOUS
0
LAYER
5
20E
100
AcDbSymbolTableRecord
100
AcDbLayerTableRecord
2
XSEC_DATUMS
70
0
62
7
6
CONTINUOUS
0
ENDTAB
0
TABLE
2
STYLE
5
3
100
AcDbSymbolTable
70
1
0
STYLE
5
11
100
AcDbSymbolTableRecord
100
AcDbTextStyleTableRecord
2
STANDARD
70
0
40
0.0
41
0.8000000000
50
0.0
71
0
42
0.2
3
txt
4

0
ENDTAB
0
TABLE
2
VIEW
5
6
100
AcDbSymbolTable
70
0
0
ENDTAB
0
TABLE
2
UCS
5
7
100
AcDbSymbolTable
70
0
0
ENDTAB
0
TABLE
2
APPID
5
9
100
AcDbSymbolTable
70
1
0
APPID
5
20F
100
AcDbSymbolTableRecord
100
AcDbRegAppTableRecord
2
ACAD
70
0
0
ENDTAB
0
TABLE
2
DIMSTYLE
5
A
100
AcDbSymbolTable
70
1
0
DIMSTYLE
105
210
100
AcDbSymbolTableRecord
100
AcDbDimStyleTableRecord
2
STANDARD
70
0
3

4

5

6

7

40
1.0
41
3.0000000000
42
0.0625
43
0.38
44
0.18
45
0.0
46
0.0
47
0.0100000000
48
0.0100000000
140
3.0000000000
141
0.09
142
0.0
143
25.4
144
1.0000000000
145
0.0
146
1.0000000000
147
0.09
71
1
72
0
73
0
74
0
75
0
76
0
77
1
78
8
170
0
171
2
172
0
173
0
174
0
175
0
176
0
177
0
178
0
270
2
271
2
272
2
273
2
274
2
340
11
275
0
280
0
281
0
282
0
283
1
284
8
285
0
286
0
287
3
288
0
0
ENDTAB
0
TABLE
2
BLOCK_RECORD
5
1
100
AcDbSymbolTable
70
0
0
BLOCK_RECORD
5
1B
100
AcDbSymbolTableRecord
100
AcDbBlockTableRecord
2
*MODEL_SPACE
0
BLOCK_RECORD
5
1C
100
AcDbSymbolTableRecord
100
AcDbBlockTableRecord
2
*PAPER_SPACE
0
ENDTAB
0
ENDSEC
0
SECTION
2
BLOCKS
0
BLOCK
5
1E
100
AcDbEntity
8
0
100
AcDbBlockBegin
2
*MODEL_SPACE
70
0
10
0.0
20
0.0
30
0.0
3
*MODEL_SPACE
1

0
ENDBLK
5
1F
100
AcDbEntity
8
0
100
AcDbBlockEnd
0
BLOCK
5
20
100
AcDbEntity
8
0
100
AcDbBlockBegin
2
*PAPER_SPACE
70
0
10
0.0
20
0.0
30
0.0
3
*PAPER_SPACE
1

0
ENDBLK
5
21
100
AcDbEntity
8
0
100
AcDbBlockEnd
0
ENDSEC
0
SECTION
2
ENTITIES
0
LINE
5
211
100
AcDbEntity
8
0
100
AcDbLine
62
7
6
CONTINUOUS
10
-46.8426921190
20
56.1620151423
11
-46.8435540998
21
56.1614779635
0
LINE
5
212
100
AcDbEntity
8
0
100
AcDbLine
62
7
6
CONTINUOUS
10
-42.4814232204
20
57.6746755502
11
-42.7105522998
21
57.5404568130
0
LINE
5
213
100
AcDbEntity
8
0
100
AcDbLine
62
7
6
CONTINUOUS
10
-42.0123435309
20
57.6581284192
11
-42.4647581982
21
57.4028823258
0
LINE
5
214
100
AcDbEntity
8
0
100
AcDbLine
62
7
6
CONTINUOUS
10
-47.4822365198
20
54.8832952281
11
-47.4822365198
21
-14.9067990824
0
LINE
5
215
100
AcDbEntity
8
0
100
AcDbLine
62
7
6
CONTINUOUS
10
-47.2568276570
20
54.5854165614
11
-47.2568276570
21
-15.2046770319
0
LINE
5
216
100
AcDbEntity
8
0
100
AcDbLine
62
7
6
CONTINUOUS
10
-23.7500582503
20
29.5606283171
11
-23.7500154472
21
29.5606548369
0
LINE
5
217
100
AcDbEntity
8
0
100
AcDbLine
62
7
6
CONTINUOUS
10
-23.7636680081
20
29.8393191593
11
-23.7599120495
21
29.8411521818
0
LINE
5
218
100
AcDbEntity
8
0
100
AcDbLine
62
7
6
CONTINUOUS
10
35.4386370469
20
-57.8277892949
11
35.4387759744
21
-57.8278507078
0
LINE
5
219
100
AcDbEntity
8
0
100
AcDbLine
62
7
6
CONTINUOUS
10
-46.3622459805
20
-16.9272370934
11
-46.3619238645
21
-16.9274188746
0
LINE
5
21A
100
AcDbEntity
8
0
100
AcDbLine
62
7
6
CONTINUOUS
10
-21.6409683276
20
26.2073392019
11
-21.7139245267
21
26.1789437588
0
LINE
5
21B
100
AcDbEntity
8
0
100
AcDbLine
62
7
6
CONTINUOUS
10
40.7191498680
20
-22.9078169175
11
40.2241751211
21
-23.0290860311
0
LINE
5
21C
100
AcDbEntity
8
0
100
AcDbLine
62
7
6
CONTINUOUS
10
-18.8192411080
20
22.2458786037
11
-20.7991400953
21
21.2559291100
0
LINE
5
21D
100
AcDbEntity
8
0
100
AcDbLine
62
7
6
CONTINUOUS
10
-20.7284294172
20
21.1852184319
11
-20.5870080609
21
21.2559291100
0
LINE
5
21E
100
AcDbEntity
8
0
100
AcDbLine
62
7
6
CONTINUOUS
10
-20.3748760266
20
21.3619951272
11
-20.2334546703
21
21.4327058053
0
LINE
5
21F
100
AcDbEntity
8
0
100
AcDbLine
62
7
6
CONTINUOUS
10
-20.0213226360
20
21.5387718225
11
-19.8799012797
21
21.6094825006
0
LINE
5
220
100
AcDbEntity
8
0
100
AcDbLine
62
7
6
CONTINUOUS
10
-19.6677692454
20
21.7155485178
11
-19.5263478891
21
21.7862591959
0
LINE
5
221
100
AcDbEntity
8
0
100
AcDbLine
62
7
6
CONTINUOUS
10
-19.3142158548
20
21.8923252131
11
-19.1727944985
21
21.9630358912
0
LINE
5
222
100
AcDbEntity
8
0
100
AcDbLine
62
7
6
CONTINUOUS
10
-18.9606624642
20
22.0691019084
11
-18.8192411080
21
22.1398125865
0
LINE
5
223
100
AcDbEntity
8
0
100
AcDbLine
62
7
6
CONTINUOUS
10
-19.9701604294
20
22.3476891079
11
-20.7991400953
21
21.9352844386
0
LINE
5
224
100
AcDbEntity
8
0
100
AcDbLine
62
7
6
CONTINUOUS
10
-20.0491984305
20
22.3377212958
11
-20.7991400953
21
21.9648177304
0
LINE
5
225
100
AcDbEntity
8
0
100
AcDbLine
62
7
6
CONTINUOUS
10
-19.2301827372
20
22.6838594160
11
-20.7991400953
21
21.9322202020
0
LINE
5
226
100
AcDbEntity
8
0
100
AcDbLine
62
7
6
CONTINUOUS
10
-18.8192411080
20
22.4714622482
11
-20.7991400953
21
21.6085948656
0
LINE
5
227
100
AcDbEntity
8
0
100
AcDbLine
62
7
6
CONTINUOUS
10
-24.1854825944
20
-15.0643408822
11
-24.1854825944
21
29.2487990760
0
LINE
5
228
100
AcDbEntity
8
0
100
AcDbLine
62
7
6
CONTINUOUS
10
-24.0428656598
20
-15.0655796551
11
-24.0428656598
21
29.2475603031
0
LINE
5
229
100
AcDbEntity
8
0
100
AcDbLine
62
7
6
CONTINUOUS
10
-23.9989895520
20
-15.1243984964
11
-23.9989895520
21
29.0074737668
0
LINE
5
22A
100
AcDbEntity
8
0
100
AcDbLine
62
7
6
CONTINUOUS
10
-23.9714865312
20
-15.1588375295
11
-23.9714865312
21
28.9730347330
0
LINE
5
22B
100
AcDbEntity
8
0
100
AcDbLine
62
7
6
CONTINUOUS
10
-22.9648318905
20
-14.6557961563
11
-22.9648318905
21
27.4120786040
0
LINE
5
22C
100
AcDbEntity
8
0
100
AcDbLine
62
7
6
CONTINUOUS
10
-22.6862238498
20
-14.6611211546
11
-22.6862238498
21
27.4067536057
0
LINE
5
22D
100
AcDbEntity
8
0
100
AcDbLine
62
7
6
CONTINUOUS
10
-20.7991400953
20
-12.0902187281
11
-20.7991400953
21
25.7864250858
0
LINE
5
22E
100
AcDbEntity
8
0
100
AcDbLine
62
7
6
CONTINUOUS
10
-20.7284294172
20
-3.0634928741
11
-20.7284294172
21
1.6996468467
0
LINE
5
22F
100
AcDbEntity
8
0
100
AcDbLine
62
7
6
CONTINUOUS
10
-20.7284294172
20
16.4220787111
11
-20.7284294172
21
21.1852184319
0
LINE
5
230
100
AcDbEntity
8
0
100
AcDbLine
62
7
6
CONTINUOUS
10
-20.5870080609
20
-2.9927821960
11
-20.5870080609
21
1.8764235420
0
LINE
5
231
100
AcDbEntity
8
0
100
AcDbLine
62
7
6
CONTINUOUS
10
-20.5870080609
20
16.4927893892
11
-20.5870080609
21
21.3619951272
0
LINE
5
232
100
AcDbEntity
8
0
100
AcDbLine
62
7
6
CONTINUOUS
10
-20.3748760266
20
-2.8867161788
11
-20.3748760266
21
1.8764235420
0
LINE
5
233
100
AcDbEntity
8
0
100
AcDbLine
62
7
6
CONTINUOUS
10
-20.3748760266
20
16.5988554064
11
-20.3748760266
21
21.3619951272
0
LINE
5
234
100
AcDbEntity
8
0
100
AcDbLine
62
7
6
CONTINUOUS
10
-20.2334546703
20
-2.8160055007
11
-20.2334546703
21
2.0532002373
0
LINE
5
235
100
AcDbEntity
8
0
100
AcDbLine
62
7
6
CONTINUOUS
10
-20.2334546703
20
16.6695660845
11
-20.2334546703
21
21.5387718225
0
LINE
5
236
100
AcDbEntity
8
0
100
AcDbLine
62
7
6
CONTINUOUS
10
-20.0213226360
20
-2.7099394835
11
-20.0213226360
21
2.0532002373
0
LINE
5
237
100
AcDbEntity
8
0
100
AcDbLine
62
7
6
CONTINUOUS
10
-20.0213226360
20
16.7756321017
11
-20.0213226360
21
21.5387718225
0
LINE
5
238
100
AcDbEntity
8
0
100
AcDbLine
62
7
6
CONTINUOUS
10
-19.8799012797
20
-2.6392288054
11
-19.8799012797
21
2.2299769326
0
LINE
5
239
100
AcDbEntity
8
0
100
AcDbLine
62
7
6
CONTINUOUS
10
-19.8799012797
20
16.8463427798
11
-19.8799012797
21
21.7155485178
0
LINE
5
23A
100
AcDbEntity
8
0
100
AcDbLine
62
7
6
CONTINUOUS
10
-18.8192411080
20
17.2571552383
11
-20.7991400953
21
16.1401236336
0
LINE
5
23B
100
AcDbEntity
8
0
100
AcDbLine
62
7
6
CONTINUOUS
10
-20.7284294172
20
16.4220787111
11
-20.5870080609
21
16.4927893892
0
LINE
5
23C
100
AcDbEntity
8
0
100
AcDbLine
62
7
6
CONTINUOUS
10
-20.3748760266
20
16.5988554064
11
-20.2334546703
21
16.6695660845
0
LINE
5
23D
100
AcDbEntity
8
0
100
AcDbLine
62
7
6
CONTINUOUS
10
-20.0213226360
20
16.7756321017
11
-19.8799012797
21
16.8463427798
0
LINE
5
23E
100
AcDbEntity
8
0
100
AcDbLine
62
7
6
CONTINUOUS
10
-19.6677692454
20
16.9524087970
11
-19.5263478891
21
17.0231194751
0
LINE
5
23F
100
AcDbEntity
8
0
100
AcDbLine
62
7
6
CONTINUOUS
10
-19.3142158548
20
17.1291854923
11
-19.1727944985
21
17.1998961704
0
LINE
5
240
100
AcDbEntity
8
0
100
AcDbLine
62
7
6
CONTINUOUS
10
-18.9606624642
20
17.3059621875
11
-18.8192411080
21
17.3766728657
0
LINE
5
241
100
AcDbEntity
8
0
100
AcDbLine
62
7
6
CONTINUOUS
10
-9.4175356562
20
-22.1196056287
11
-9.1446589067
21
-22.2560440035
0
LINE
5
242
100
AcDbEntity
8
0
100
AcDbLine
62
7
6
CONTINUOUS
10
-8.4683989518
20
-22.5941739810
11
-8.1836576576
21
-22.7365446281
0
LINE
5
243
100
AcDbEntity
8
0
100
AcDbLine
62
7
6
CONTINUOUS
10
-7.9345092903
20
-22.8611188117
11
-7.6497687032
21
-23.0034891052
0
LINE
5
244
100
AcDbEntity
8
0
100
AcDbLine
62
7
6
CONTINUOUS
10
-7.3768919537
20
-23.1399274800
11
-7.0921506596
21
-23.2822981271
0
LINE
5
245
100
AcDbEntity
8
0
100
AcDbLine
62
7
6
CONTINUOUS
10
-6.8192739101
20
-23.4187365018
11
-6.5345333230
21
-23.5611067953
0
LINE
5
246
100
AcDbEntity
8
0
100
AcDbLine
62
7
6
CONTINUOUS
10
-6.3091133380
20
-23.6738167878
11
-6.0243720438
21
-23.8161874349
0
LINE
5
247
100
AcDbEntity
8
0
100
AcDbLine
62
7
6
CONTINUOUS
10
-5.3955688534
20
-24.1305890302
11
-5.1108282663
21
-24.2729593237
0
LINE
5
248
100
AcDbEntity
8
0
100
AcDbLine
62
7
6
CONTINUOUS
10
-4.8854082813
20
-24.3856693162
11
-4.6006669871
21
-24.5280399633
0
LINE
5
249
100
AcDbEntity
8
0
100
AcDbLine
62
7
6
CONTINUOUS
10
-4.0667780328
20
-24.7949844404
11
-3.7464445188
21
-24.9551511974
0
LINE
5
24A
100
AcDbEntity
8
0
100
AcDbLine
62
7
6
CONTINUOUS
10
-9.3395150553
20
-22.0805953283
11
-9.1064609448
21
-22.1971223836
0
LINE
5
24B
100
AcDbEntity
8
0
100
AcDbLine
62
7
6
CONTINUOUS
10
-8.3903783509
20
-22.5551636805
11
-8.1621434804
21
-22.6692811158
0
LINE
5
24C
100
AcDbEntity
8
0
100
AcDbLine
62
7
6
CONTINUOUS
10
-7.8564886895
20
-22.8221085112
11
-7.6282545261
21
-22.9362255929
0
LINE
5
24D
100
AcDbEntity
8
0
100
AcDbLine
62
7
6
CONTINUOUS
10
-7.2988713529
20
-23.1009171795
11
-7.0556254745
21
-23.2225401187
0
LINE
5
24E
100
AcDbEntity
8
0
100
AcDbLine
62
7
6
CONTINUOUS
10
-6.7412533092
20
-23.3797262014
11
-6.5130191458
21
-23.4938432830
0
LINE
5
24F
100
AcDbEntity
8
0
100
AcDbLine
62
7
6
CONTINUOUS
10
-6.2310927371
20
-23.6348064874
11
-5.9873644397
21
-23.7566706361
0
LINE
5
250
100
AcDbEntity
8
0
100
AcDbLine
62
7
6
CONTINUOUS
10
-5.3175482525
20
-24.0915787297
11
-5.1059978485
21
-24.1973539317
0
LINE
5
251
100
AcDbEntity
8
0
100
AcDbLine
62
7
6
CONTINUOUS
10
-4.8073876804
20
-24.3466590158
11
-4.5791528100
21
-24.4607764510
0
LINE
5
252
100
AcDbEntity
8
0
100
AcDbLine
62
7
6
CONTINUOUS
10
-3.9887574319
20
-24.7559741400
11
-3.7525048748
21
-24.8741004186
0
LINE
5
253
100
AcDbEntity
8
0
100
AcDbLine
62
7
6
CONTINUOUS
10
-5.8259995272
20
-23.4971584831
11
-5.3751602643
21
-23.7225781145
0
LINE
5
254
100
AcDbEntity
8
0
100
AcDbLine
62
7
6
CONTINUOUS
10
-5.7479789263
20
-23.4581481827
11
-5.2971396634
21
-23.6835678141
0
LINE
5
255
100
AcDbEntity
8
0
100
AcDbLine
62
7
6
CONTINUOUS
10
-4.3750355303
20
-23.8226091132
11
-4.1258871631
21
-23.9471832969
0
LINE
5
256
100
AcDbEntity
8
0
100
AcDbLine
62
7
6
CONTINUOUS
10
-5.3479006170
20
-23.3361765699
11
-5.6207773665
21
-23.1997381951
0
LINE
5
257
100
AcDbEntity
8
0
100
AcDbLine
62
7
6
CONTINUOUS
10
-4.2970149294
20
-23.7835988128
11
-4.0478665622
21
-23.9081729964
0
LINE
5
258
100
AcDbEntity
8
0
100
AcDbLine
62
7
6
CONTINUOUS
10
-3.9206641497
20
-23.6497634749
11
-4.2765914434
21
-23.4717997884
0
LINE
5
259
100
AcDbEntity
8
0
100
AcDbLine
62
7
6
CONTINUOUS
10
-4.1261705821
20
-23.0015128987
11
-3.7702444047
21
-23.1794759912
0
LINE
5
25A
100
AcDbEntity
8
0
100
AcDbLine
62
7
6
CONTINUOUS
10
-4.0481499812
20
-22.9625025983
11
-3.6922237049
21
-23.1404657364
0
LINE
5
25B
100
AcDbEntity
8
0
100
AcDbLine
62
7
6
CONTINUOUS
10
-3.6243423243
20
-22.8523956368
11
-4.2887387000
21
-22.5201974715
0
LINE
5
25C
100
AcDbEntity
8
0
100
AcDbLine
62
7
6
CONTINUOUS
10
-4.9768624925
20
-22.1761355752
11
-5.2616037867
21
-22.0337649281
0
LINE
5
25D
100
AcDbEntity
8
0
100
AcDbLine
62
7
6
CONTINUOUS
10
-5.9378637416
20
-21.6956349506
11
-6.3649746223
21
-21.4820795103
0
LINE
5
25E
100
AcDbEntity
8
0
100
AcDbLine
62
7
6
CONTINUOUS
10
-6.8988642837
20
-21.2151346796
11
-7.3378397090
21
-20.9956469670
0
LINE
5
25F
100
AcDbEntity
8
0
100
AcDbLine
62
7
6
CONTINUOUS
10
-7.5869880762
20
-20.8710727834
11
-7.8717293704
21
-20.7287021363
0
LINE
5
260
100
AcDbEntity
8
0
100
AcDbLine
62
7
6
CONTINUOUS
10
-8.0852848107
20
-20.6219244161
11
-8.3700261049
21
-20.4795537690
0
LINE
5
261
100
AcDbEntity
8
0
100
AcDbLine
62
7
6
CONTINUOUS
10
-8.9988285882
20
-20.1651525273
11
-9.2835698824
21
-20.0227818803
0
LINE
5
262
100
AcDbEntity
8
0
100
AcDbLine
62
7
6
CONTINUOUS
10
-21.8967740994
20
-13.1907368217
11
9.2701561788
21
-28.7742019608
0
LINE
5
263
100
AcDbEntity
8
0
100
AcDbLine
62
7
6
CONTINUOUS
10
-21.5726969835
20
-12.8014305458
11
9.2701561788
21
-28.2228571269
0
LINE
5
264
100
AcDbEntity
8
0
100
AcDbLine
62
7
6
CONTINUOUS
10
9.2701561788
20
-27.2978345744
11
-20.6579125521
21
-12.3338002089
0
LINE
5
265
100
AcDbEntity
8
0
100
AcDbLine
62
7
6
CONTINUOUS
10
7.2376437788
20
-26.2625567933
11
3.3485564822
21
-24.3180131450
0
LINE
5
266
100
AcDbEntity
8
0
100
AcDbLine
62
7
6
CONTINUOUS
10
-8.6722587979
20
-18.3076055049
11
-12.5613460945
21
-16.3630618567
0
LINE
5
267
100
AcDbEntity
8
0
100
AcDbLine
62
7
6
CONTINUOUS
10
7.3790651350
20
-26.1918461152
11
3.4899778385
21
-24.2473024669
0
LINE
5
268
100
AcDbEntity
8
0
100
AcDbLine
62
7
6
CONTINUOUS
10
-8.5308374417
20
-18.2368948268
11
-12.4199247382
21
-16.2923511785
0
LINE
5
269
100
AcDbEntity
8
0
100
AcDbLine
62
7
6
CONTINUOUS
10
7.5911971694
20
-26.0857800980
11
3.7021098728
21
-24.1412364497
0
LINE
5
26A
100
AcDbEntity
8
0
100
AcDbLine
62
7
6
CONTINUOUS
10
-8.3187054073
20
-18.1308288096
11
-12.2077927039
21
-16.1862851614
0
LINE
5
26B
100
AcDbEntity
8
0
100
AcDbLine
62
7
6
CONTINUOUS
10
7.7326185256
20
-26.0150694199
11
3.8435312291
21
-24.0705257716
0
LINE
5
26C
100
AcDbEntity
8
0
100
AcDbLine
62
7
6
CONTINUOUS
10
-8.1772840511
20
-18.0601181315
11
-12.0663713476
21
-16.1155744832
0
LINE
5
26D
100
AcDbEntity
8
0
100
AcDbLine
62
7
6
CONTINUOUS
10
-8.5308374417
20
-18.2368948268
11
-8.4247714245
21
-18.3137656288
0
LINE
5
26E
100
AcDbEntity
8
0
100
AcDbLine
62
7
6
CONTINUOUS
10
-19.6677692454
20
-2.5331627882
11
-19.6677692454
21
2.2299769326
0
LINE
5
26F
100
AcDbEntity
8
0
100
AcDbLine
62
7
6
CONTINUOUS
10
-19.6677692454
20
16.9524087970
11
-19.6677692454
21
21.7155485178
0
LINE
5
270
100
AcDbEntity
8
0
100
AcDbLine
62
7
6
CONTINUOUS
10
-19.5263478891
20
-2.4624521101
11
-19.5263478891
21
2.4067536279
0
LINE
5
271
100
AcDbEntity
8
0
100
AcDbLine
62
7
6
CONTINUOUS
10
-19.5263478891
20
17.0231194751
11
-19.5263478891
21
21.8923252131
0
LINE
5
272
100
AcDbEntity
8
0
100
AcDbLine
62
7
6
CONTINUOUS
10
-19.3142158548
20
-2.3563860929
11
-19.3142158548
21
2.4067536279
0
LINE
5
273
100
AcDbEntity
8
0
100
AcDbLine
62
7
6
CONTINUOUS
10
-19.3142158548
20
17.1291854923
11
-19.3142158548
21
21.8923252131
0
LINE
5
274
100
AcDbEntity
8
0
100
AcDbLine
62
7
6
CONTINUOUS
10
-19.1727944985
20
-2.2856754148
11
-19.1727944985
21
2.5835303232
0
LINE
5
275
100
AcDbEntity
8
0
100
AcDbLine
62
7
6
CONTINUOUS
10
-19.1727944985
20
17.1998961704
11
-19.1727944985
21
22.0691019084
0
LINE
5
276
100
AcDbEntity
8
0
100
AcDbLine
62
7
6
CONTINUOUS
10
-18.9606624642
20
-2.1796093976
11
-18.9606624642
21
2.5835303232
0
LINE
5
277
100
AcDbEntity
8
0
100
AcDbLine
62
7
6
CONTINUOUS
10
-18.9606624642
20
17.3059621875
11
-18.9606624642
21
22.0691019084
0
LINE
5
278
100
AcDbEntity
8
0
100
AcDbLine
62
7
6
CONTINUOUS
10
-18.8192411080
20
22.4714622482
11
-18.8192411080
21
22.2458786037
0
LINE
5
279
100
AcDbEntity
8
0
100
AcDbLine
62
7
6
CONTINUOUS
10
-18.8192411080
20
17.3766728657
11
-18.8192411080
21
17.2571552383
0
LINE
5
27A
100
AcDbEntity
8
0
100
AcDbLine
62
7
6
CONTINUOUS
10
-18.8192411080
20
2.9858906631
11
-18.8192411080
21
2.7603070185
0
LINE
5
27B
100
AcDbEntity
8
0
100
AcDbLine
62
7
6
CONTINUOUS
10
-18.8192411080
20
-2.1088987195
11
-18.8192411080
21
-2.2284163469
0
LINE
5
27C
100
AcDbEntity
8
0
100
AcDbLine
62
7
6
CONTINUOUS
10
-18.8192411080
20
-2.1088987195
11
-18.8192411080
21
2.7603070185
0
LINE
5
27D
100
AcDbEntity
8
0
100
AcDbLine
62
7
6
CONTINUOUS
10
-18.8192411080
20
17.3766728657
11
-18.8192411080
21
22.2458786037
0
LINE
5
27E
100
AcDbEntity
8
0
100
AcDbLine
62
7
6
CONTINUOUS
10
-18.7606624642
20
22.4905432288
11
-18.7606624642
21
17.3794956140
0
LINE
5
27F
100
AcDbEntity
8
0
100
AcDbLine
62
7
6
CONTINUOUS
10
-18.7606624642
20
3.0049716436
11
-18.7606624642
21
-2.1060759712
0
LINE
5
280
100
AcDbEntity
8
0
100
AcDbLine
62
7
6
CONTINUOUS
10
-22.1587714970
20
-13.1073083472
11
-22.6862238498
21
-14.6611211546
0
LINE
5
281
100
AcDbEntity
8
0
100
AcDbLine
62
7
6
CONTINUOUS
10
-21.8967740994
20
-13.1907368217
11
-22.6851904448
21
-15.5133189634
0
LINE
5
282
100
AcDbEntity
8
0
100
AcDbLine
62
7
6
CONTINUOUS
10
7.9447505600
20
-25.9090034027
11
4.0556632634
21
-23.9644597544
0
LINE
5
283
100
AcDbEntity
8
0
100
AcDbLine
62
7
6
CONTINUOUS
10
-7.9651520167
20
-17.9540521143
11
-11.8542393133
21
-16.0095084661
0
LINE
5
284
100
AcDbEntity
8
0
100
AcDbLine
62
7
6
CONTINUOUS
10
8.0861719162
20
-25.8382927246
11
4.1970846197
21
-23.8937490763
0
LINE
5
285
100
AcDbEntity
8
0
100
AcDbLine
62
7
6
CONTINUOUS
10
-7.8237306605
20
-17.8833414362
11
-11.7128179570
21
-15.9387977879
0
LINE
5
286
100
AcDbEntity
8
0
100
AcDbLine
62
7
6
CONTINUOUS
10
8.2983039506
20
-25.7322267074
11
4.4092166540
21
-23.7876830591
0
LINE
5
287
100
AcDbEntity
8
0
100
AcDbLine
62
7
6
CONTINUOUS
10
-7.6115986261
20
-17.7772754190
11
-11.5006859227
21
-15.8327317708
0
LINE
5
288
100
AcDbEntity
8
0
100
AcDbLine
62
7
6
CONTINUOUS
10
8.4397253068
20
-25.6615160293
11
4.5506380103
21
-23.7169723810
0
LINE
5
289
100
AcDbEntity
8
0
100
AcDbLine
62
7
6
CONTINUOUS
10
-7.4701772699
20
-17.7065647409
11
-11.3592645664
21
-15.7620210927
0
LINE
5
28A
100
AcDbEntity
8
0
100
AcDbLine
62
7
6
CONTINUOUS
10
8.6518573411
20
-25.5554500121
11
4.7627700446
21
-23.6109063638
0
LINE
5
28B
100
AcDbEntity
8
0
100
AcDbLine
62
7
6
CONTINUOUS
10
-7.2580452356
20
-17.6004987237
11
-11.1471325321
21
-15.6559550755
0
LINE
5
28C
100
AcDbEntity
8
0
100
AcDbLine
62
7
6
CONTINUOUS
10
-11.0838334332
20
-15.5700210621
11
-11.0295489692
21
-15.5971632941
0
LINE
5
28D
100
AcDbEntity
8
0
100
AcDbLine
62
7
6
CONTINUOUS
10
-7.0105578621
20
-17.6066588476
11
-6.8263695876
21
-17.6987529849
0
LINE
5
28E
100
AcDbEntity
8
0
100
AcDbLine
62
7
6
CONTINUOUS
10
4.8260691435
20
-23.5249723504
11
4.8803536075
21
-23.5521145824
0
LINE
5
28F
100
AcDbEntity
8
0
100
AcDbLine
62
7
6
CONTINUOUS
10
8.8993447146
20
-25.5616101359
11
9.0835329891
21
-25.6537042732
0
LINE
5
290
100
AcDbEntity
8
0
100
AcDbLine
62
7
6
CONTINUOUS
10
8.7932786974
20
-25.4847393340
11
4.9041914009
21
-23.5401956857
0
LINE
5
291
100
AcDbEntity
8
0
100
AcDbLine
62
7
6
CONTINUOUS
10
-7.1166238793
20
-17.5297880456
11
-11.0057111758
21
-15.5852443974
0
LINE
5
292
100
AcDbEntity
8
0
100
AcDbLine
62
7
6
CONTINUOUS
10
-10.9620309109
20
-15.5805206062
11
-6.7692866717
21
-17.6768927258
0
LINE
5
293
100
AcDbEntity
8
0
100
AcDbLine
62
7
6
CONTINUOUS
10
4.9478716658
20
-23.5354718946
11
9.1406159050
21
-25.6318440142
0
LINE
5
294
100
AcDbEntity
8
0
100
AcDbLine
62
7
6
CONTINUOUS
10
-8.1772840511
20
-18.0601181315
11
-8.0712180339
21
-18.1369889335
0
LINE
5
295
100
AcDbEntity
8
0
100
AcDbLine
62
7
6
CONTINUOUS
10
-7.8237306605
20
-17.8833414362
11
-7.7176646433
21
-17.9602122382
0
LINE
5
296
100
AcDbEntity
8
0
100
AcDbLine
62
7
6
CONTINUOUS
10
-7.4701772699
20
-17.7065647409
11
-7.3641112527
21
-17.7834355429
0
LINE
5
297
100
AcDbEntity
8
0
100
AcDbLine
62
7
6
CONTINUOUS
10
-7.1166238793
20
-17.5297880456
11
-7.0105578621
21
-17.6066588476
0
LINE
5
298
100
AcDbEntity
8
0
100
AcDbLine
62
7
6
CONTINUOUS
10
7.3790651350
20
-26.1918461152
11
7.4851311522
21
-26.2687169171
0
LINE
5
299
100
AcDbEntity
8
0
100
AcDbLine
62
7
6
CONTINUOUS
10
7.7326185256
20
-26.0150694199
11
7.8386845428
21
-26.0919402218
0
LINE
5
29A
100
AcDbEntity
8
0
100
AcDbLine
62
7
6
CONTINUOUS
10
8.0861719162
20
-25.8382927246
11
8.1922379334
21
-25.9151635265
0
LINE
5
29B
100
AcDbEntity
8
0
100
AcDbLine
62
7
6
CONTINUOUS
10
8.4397253068
20
-25.6615160293
11
8.5457913240
21
-25.7383868312
0
LINE
5
29C
100
AcDbEntity
8
0
100
AcDbLine
62
7
6
CONTINUOUS
10
8.7932786974
20
-25.4847393340
11
8.8993447146
21
-25.5616101359
0
LINE
5
29D
100
AcDbEntity
8
0
100
AcDbLine
62
7
6
CONTINUOUS
10
-18.8192411080
20
2.7603070185
11
-20.7991400953
21
1.7703575248
0
LINE
5
29E
100
AcDbEntity
8
0
100
AcDbLine
62
7
6
CONTINUOUS
10
-20.7284294172
20
1.6996468467
11
-20.5870080609
21
1.7703575248
0
LINE
5
29F
100
AcDbEntity
8
0
100
AcDbLine
62
7
6
CONTINUOUS
10
-20.3748760266
20
1.8764235420
11
-20.2334546703
21
1.9471342201
0
LINE
5
2A0
100
AcDbEntity
8
0
100
AcDbLine
62
7
6
CONTINUOUS
10
-20.0213226360
20
2.0532002373
11
-19.8799012797
21
2.1239109154
0
LINE
5
2A1
100
AcDbEntity
8
0
100
AcDbLine
62
7
6
CONTINUOUS
10
-19.6677692454
20
2.2299769326
11
-19.5263478891
21
2.3006876107
0
LINE
5
2A2
100
AcDbEntity
8
0
100
AcDbLine
62
7
6
CONTINUOUS
10
-19.3142158548
20
2.4067536279
11
-19.1727944985
21
2.4774643060
0
LINE
5
2A3
100
AcDbEntity
8
0
100
AcDbLine
62
7
6
CONTINUOUS
10
-18.9606624642
20
2.5835303232
11
-18.8192411080
21
2.6542410013
0
LINE
5
2A4
100
AcDbEntity
8
0
100
AcDbLine
62
7
6
CONTINUOUS
10
-19.9701604294
20
2.8621175228
11
-20.7991400953
21
2.4497128534
0
LINE
5
2A5
100
AcDbEntity
8
0
100
AcDbLine
62
7
6
CONTINUOUS
10
-20.0491984305
20
2.8521497107
11
-20.7991400953
21
2.4792461452
0
LINE
5
2A6
100
AcDbEntity
8
0
100
AcDbLine
62
7
6
CONTINUOUS
10
-19.2301827372
20
3.1982878308
11
-20.7991400953
21
2.4466486168
0
LINE
5
2A7
100
AcDbEntity
8
0
100
AcDbLine
62
7
6
CONTINUOUS
10
-18.8192411080
20
2.9858906631
11
-20.7991400953
21
2.1230232804
0
LINE
5
2A8
100
AcDbEntity
8
0
100
AcDbLine
62
7
6
CONTINUOUS
10
-3.7464445188
20
-24.9551511974
11
-3.8142401358
21
-24.0484573452
0
LINE
5
2A9
100
AcDbEntity
8
0
100
AcDbLine
62
7
6
CONTINUOUS
10
-4.1258871631
20
-23.9471832969
11
-4.0667780328
21
-24.7949844404
0
LINE
5
2AA
100
AcDbEntity
8
0
100
AcDbLine
62
7
6
CONTINUOUS
10
-4.0478665622
20
-23.9081729964
11
-3.9887574319
21
-24.7559741400
0
LINE
5
2AB
100
AcDbEntity
8
0
100
AcDbLine
62
7
6
CONTINUOUS
10
-6.8193560578
20
-17.6950956994
11
-6.8193560578
21
-18.2072218343
0
LINE
5
2AC
100
AcDbEntity
8
0
100
AcDbLine
62
7
6
CONTINUOUS
10
-6.7679850229
20
-17.6793372675
11
-6.7679850229
21
-18.1898880520
0
LINE
5
2AD
100
AcDbEntity
8
0
100
AcDbLine
62
7
6
CONTINUOUS
10
-9.2835698824
20
-20.0227818803
11
-9.4175356562
21
-22.1196056287
0
LINE
5
2AE
100
AcDbEntity
8
0
100
AcDbLine
62
7
6
CONTINUOUS
10
-9.2103796994
20
-20.0593769718
11
-9.3395150553
21
-22.0805953283
0
LINE
5
2AF
100
AcDbEntity
8
0
100
AcDbLine
62
7
6
CONTINUOUS
10
-9.1065241667
20
-21.6205145890
11
-8.9988285882
21
-20.1651525273
0
LINE
5
2B0
100
AcDbEntity
8
0
100
AcDbLine
62
7
6
CONTINUOUS
10
-7.2586744639
20
-21.7807431919
11
-7.3768919537
21
-23.1399274800
0
LINE
5
2B1
100
AcDbEntity
8
0
100
AcDbLine
62
7
6
CONTINUOUS
10
-7.1806538630
20
-21.7417328915
11
-7.2988713529
21
-23.1009171795
0
LINE
5
2B2
100
AcDbEntity
8
0
100
AcDbLine
62
7
6
CONTINUOUS
10
-18.8192411080
20
-2.2284163469
11
-20.7991400953
21
-3.3454479516
0
LINE
5
2B3
100
AcDbEntity
8
0
100
AcDbLine
62
7
6
CONTINUOUS
10
-20.7284294172
20
-3.0634928741
11
-20.5870080609
21
-2.9927821960
0
LINE
5
2B4
100
AcDbEntity
8
0
100
AcDbLine
62
7
6
CONTINUOUS
10
-20.3748760266
20
-2.8867161788
11
-20.2334546703
21
-2.8160055007
0
LINE
5
2B5
100
AcDbEntity
8
0
100
AcDbLine
62
7
6
CONTINUOUS
10
-20.0213226360
20
-2.7099394835
11
-19.8799012797
21
-2.6392288054
0
LINE
5
2B6
100
AcDbEntity
8
0
100
AcDbLine
62
7
6
CONTINUOUS
10
-19.6677692454
20
-2.5331627882
11
-19.5263478891
21
-2.4624521101
0
LINE
5
2B7
100
AcDbEntity
8
0
100
AcDbLine
62
7
6
CONTINUOUS
10
-19.3142158548
20
-2.3563860929
11
-19.1727944985
21
-2.2856754148
0
LINE
5
2B8
100
AcDbEntity
8
0
100
AcDbLine
62
7
6
CONTINUOUS
10
-18.9606624642
20
-2.1796093976
11
-18.8192411080
21
-2.1088987195
0
LINE
5
2B9
100
AcDbEntity
8
0
100
AcDbLine
62
7
6
CONTINUOUS
10
-19.2301827372
20
3.1982878308
11
-18.8120334991
21
2.9892132117
0
LINE
5
2BA
100
AcDbEntity
8
0
100
AcDbLine
62
7
6
CONTINUOUS
10
-19.1795173381
20
3.2161927978
11
-18.7619641130
21
3.0074161853
0
LINE
5
2BB
100
AcDbEntity
8
0
100
AcDbLine
62
7
6
CONTINUOUS
10
-22.1587714970
20
26.3278610300
11
-22.6862238498
21
27.4067536057
0
LINE
5
2BC
100
AcDbEntity
8
0
100
AcDbLine
62
7
6
CONTINUOUS
10
-21.8967740994
20
26.3908318158
11
-22.6851904448
21
28.0035206914
0
LINE
5
2BD
100
AcDbEntity
8
0
100
AcDbLine
62
7
6
CONTINUOUS
10
-5.3751602643
20
-23.7225781145
11
-5.3955688534
21
-24.1305890302
0
LINE
5
2BE
100
AcDbEntity
8
0
100
AcDbLine
62
7
6
CONTINUOUS
10
-5.2971396634
20
-23.6835678141
11
-5.3175482525
21
-24.0915787297
0
LINE
5
2BF
100
AcDbEntity
8
0
100
AcDbLine
62
7
6
CONTINUOUS
10
-5.1108282663
20
-24.2729593237
11
-4.9768624925
21
-22.1761355752
0
LINE
5
2C0
100
AcDbEntity
8
0
100
AcDbLine
62
7
6
CONTINUOUS
10
-5.3047520132
20
-22.6849714412
11
-5.3479006170
21
-23.3361765699
0
LINE
5
2C1
100
AcDbEntity
8
0
100
AcDbLine
62
7
6
CONTINUOUS
10
-5.2267314123
20
-22.6459611408
11
-5.2698800162
21
-23.2971662694
0
LINE
5
2C2
100
AcDbEntity
8
0
100
AcDbLine
62
7
6
CONTINUOUS
10
-7.0289456111
20
-22.5683870489
11
-6.8988642837
21
-21.2151346796
0
LINE
5
2C3
100
AcDbEntity
8
0
100
AcDbLine
62
7
6
CONTINUOUS
10
-7.3713394765
20
-18.8676343012
11
-7.2887800517
21
-18.5315505620
0
LINE
5
2C4
100
AcDbEntity
8
0
100
AcDbLine
62
7
6
CONTINUOUS
10
-7.8717293704
20
-20.7287021363
11
-8.4683989518
21
-22.5941739810
0
LINE
5
2C5
100
AcDbEntity
8
0
100
AcDbLine
62
7
6
CONTINUOUS
10
-7.8152229467
20
-20.7569553481
11
-8.3903783509
21
-22.5551636805
0
LINE
5
2C6
100
AcDbEntity
8
0
100
AcDbLine
62
7
6
CONTINUOUS
10
-8.1836576576
20
-22.7365446281
11
-7.5869880762
21
-20.8710727834
0
LINE
5
2C7
100
AcDbEntity
8
0
100
AcDbLine
62
7
6
CONTINUOUS
10
-7.3378397090
20
-20.9956469670
11
-7.9345092903
21
-22.8611188117
0
LINE
5
2C8
100
AcDbEntity
8
0
100
AcDbLine
62
7
6
CONTINUOUS
10
-7.2813332852
20
-21.0239001788
11
-7.8564886895
21
-22.8221085112
0
LINE
5
2C9
100
AcDbEntity
8
0
100
AcDbLine
62
7
6
CONTINUOUS
10
-7.6497687032
20
-23.0034891052
11
-7.2586744639
21
-21.7807431919
0
LINE
5
2CA
100
AcDbEntity
8
0
100
AcDbLine
62
7
6
CONTINUOUS
10
-12.5698961000
20
-16.3778084350
11
-12.5613460945
21
-16.3630618567
0
LINE
5
2CB
100
AcDbEntity
8
0
100
AcDbLine
62
7
6
CONTINUOUS
10
-12.3031438774
20
-16.3507416089
11
-12.2077927039
21
-16.1862851614
0
LINE
5
2CC
100
AcDbEntity
8
0
100
AcDbLine
62
7
6
CONTINUOUS
10
-11.9495904868
20
-16.1739649136
11
-11.8542393133
21
-16.0095084661
0
LINE
5
2CD
100
AcDbEntity
8
0
100
AcDbLine
62
7
6
CONTINUOUS
10
-11.5960370962
20
-15.9971882183
11
-11.5006859227
21
-15.8327317708
0
LINE
5
2CE
100
AcDbEntity
8
0
100
AcDbLine
62
7
6
CONTINUOUS
10
-11.2424837056
20
-15.8204115231
11
-11.1471325321
21
-15.6559550755
0
LINE
5
2CF
100
AcDbEntity
8
0
100
AcDbLine
62
7
6
CONTINUOUS
10
-20.7991400953
20
-3.0634928741
11
-20.7284294172
21
-3.0634928741
0
LINE
5
2D0
100
AcDbEntity
8
0
100
AcDbLine
62
7
6
CONTINUOUS
10
-20.5870080609
20
-2.8867161788
11
-20.3748760266
21
-2.8867161788
0
LINE
5
2D1
100
AcDbEntity
8
0
100
AcDbLine
62
7
6
CONTINUOUS
10
-20.2334546703
20
-2.7099394835
11
-20.0213226360
21
-2.7099394835
0
LINE
5
2D2
100
AcDbEntity
8
0
100
AcDbLine
62
7
6
CONTINUOUS
10
-19.8799012797
20
-2.5331627882
11
-19.6677692454
21
-2.5331627882
0
LINE
5
2D3
100
AcDbEntity
8
0
100
AcDbLine
62
7
6
CONTINUOUS
10
-19.5263478891
20
-2.3563860929
11
-19.3142158548
21
-2.3563860929
0
LINE
5
2D4
100
AcDbEntity
8
0
100
AcDbLine
62
7
6
CONTINUOUS
10
-19.1727944985
20
-2.1796093976
11
-18.9606624642
21
-2.1796093976
0
LINE
5
2D5
100
AcDbEntity
8
0
100
AcDbLine
62
7
6
CONTINUOUS
10
-19.9419990386
20
2.8572785341
11
-19.9701604294
21
2.8621175228
0
LINE
5
2D6
100
AcDbEntity
8
0
100
AcDbLine
62
7
6
CONTINUOUS
10
40.2241751211
20
-22.3831279758
11
40.7191498680
21
-22.6306153493
0
LINE
5
2D7
100
AcDbEntity
8
0
100
AcDbLine
62
7
6
CONTINUOUS
10
-6.4281796707
20
-22.1959905885
11
-6.8192739101
21
-23.4187365018
0
LINE
5
2D8
100
AcDbEntity
8
0
100
AcDbLine
62
7
6
CONTINUOUS
10
-6.3501590698
20
-22.1569802881
11
-6.7412533092
21
-23.3797262014
0
LINE
5
2D9
100
AcDbEntity
8
0
100
AcDbLine
62
7
6
CONTINUOUS
10
-6.5345333230
20
-23.5611067953
11
-5.9378637416
21
-21.6956349506
0
LINE
5
2DA
100
AcDbEntity
8
0
100
AcDbLine
62
7
6
CONTINUOUS
10
-4.2887387000
20
-22.5201974715
11
-4.8854082813
21
-24.3856693162
0
LINE
5
2DB
100
AcDbEntity
8
0
100
AcDbLine
62
7
6
CONTINUOUS
10
-4.2322322757
20
-22.5484506817
11
-4.8073876804
21
-24.3466590158
0
LINE
5
2DC
100
AcDbEntity
8
0
100
AcDbLine
62
7
6
CONTINUOUS
10
-4.2765914434
20
-23.4717997884
11
-4.1261705821
21
-23.0015128987
0
LINE
5
2DD
100
AcDbEntity
8
0
100
AcDbLine
62
7
6
CONTINUOUS
10
-4.6006669871
20
-24.5280399633
11
-4.3750355303
21
-23.8226091132
0
LINE
5
2DE
100
AcDbEntity
8
0
100
AcDbLine
62
7
6
CONTINUOUS
10
-8.6808088035
20
-18.3223520832
11
-8.6722587979
21
-18.3076055049
0
LINE
5
2DF
100
AcDbEntity
8
0
100
AcDbLine
62
7
6
CONTINUOUS
10
-8.4247714245
20
-18.3137656288
11
-8.3187054073
21
-18.1308288096
0
LINE
5
2E0
100
AcDbEntity
8
0
100
AcDbLine
62
7
6
CONTINUOUS
10
-8.0712180339
20
-18.1369889335
11
-7.9651520167
21
-17.9540521143
0
LINE
5
2E1
100
AcDbEntity
8
0
100
AcDbLine
62
7
6
CONTINUOUS
10
-7.7176646433
20
-17.9602122382
11
-7.6115986261
21
-17.7772754190
0
LINE
5
2E2
100
AcDbEntity
8
0
100
AcDbLine
62
7
6
CONTINUOUS
10
-7.3641112527
20
-17.7834355429
11
-7.2580452356
21
-17.6004987237
0
LINE
5
2E3
100
AcDbEntity
8
0
100
AcDbLine
62
7
6
CONTINUOUS
10
-8.3700261049
20
-20.4795537690
11
-9.1065241667
21
-21.6205145890
0
LINE
5
2E4
100
AcDbEntity
8
0
100
AcDbLine
62
7
6
CONTINUOUS
10
-8.3300797462
20
-20.4995269484
11
-9.0285035658
21
-21.5815042886
0
LINE
5
2E5
100
AcDbEntity
8
0
100
AcDbLine
62
7
6
CONTINUOUS
10
-9.1446589067
20
-22.2560440035
11
-8.0852848107
21
-20.6219244161
0
LINE
5
2E6
100
AcDbEntity
8
0
100
AcDbLine
62
7
6
CONTINUOUS
10
39.4610960824
20
16.3350984362
11
40.0120430868
21
16.6459351104
0
LINE
5
2E7
100
AcDbEntity
8
0
100
AcDbLine
62
7
6
CONTINUOUS
10
-20.7991400953
20
-12.0902187281
11
-21.7139245267
21
-12.5578490650
0
LINE
5
2E8
100
AcDbEntity
8
0
100
AcDbLine
62
7
6
CONTINUOUS
10
-20.6579125521
20
-12.3338002089
11
-21.5726969835
21
-12.8014305458
0
LINE
5
2E9
100
AcDbEntity
8
0
100
AcDbLine
62
7
6
CONTINUOUS
10
35.7715299522
20
15.2700630827
11
38.7985928009
21
16.8168629403
0
LINE
5
2EA
100
AcDbEntity
8
0
100
AcDbLine
62
7
6
CONTINUOUS
10
37.1546091688
20
12.9815659841
11
40.2241751211
21
14.5501008248
0
LINE
5
2EB
100
AcDbEntity
8
0
100
AcDbLine
62
7
6
CONTINUOUS
10
-23.2542053959
20
-16.3591716964
11
-23.3267406533
21
-16.3955392453
0
LINE
5
2EC
100
AcDbEntity
8
0
100
AcDbLine
62
7
6
CONTINUOUS
10
40.1333747677
20
15.1626391813
11
40.7191498680
21
15.4263563160
0
LINE
5
2ED
100
AcDbEntity
8
0
100
AcDbLine
62
7
6
CONTINUOUS
10
-20.7991400953
20
1.6996468467
11
-20.7284294172
21
1.6996468467
0
LINE
5
2EE
100
AcDbEntity
8
0
100
AcDbLine
62
7
6
CONTINUOUS
10
-20.5870080609
20
1.8764235420
11
-20.3748760266
21
1.8764235420
0
LINE
5
2EF
100
AcDbEntity
8
0
100
AcDbLine
62
7
6
CONTINUOUS
10
-20.2334546703
20
2.0532002373
11
-20.0213226360
21
2.0532002373
0
LINE
5
2F0
100
AcDbEntity
8
0
100
AcDbLine
62
7
6
CONTINUOUS
10
-19.8799012797
20
2.2299769326
11
-19.6677692454
21
2.2299769326
0
LINE
5
2F1
100
AcDbEntity
8
0
100
AcDbLine
62
7
6
CONTINUOUS
10
-19.5263478891
20
2.4067536279
11
-19.3142158548
21
2.4067536279
0
LINE
5
2F2
100
AcDbEntity
8
0
100
AcDbLine
62
7
6
CONTINUOUS
10
-19.1727944985
20
2.5835303232
11
-18.9606624642
21
2.5835303232
0
LINE
5
2F3
100
AcDbEntity
8
0
100
AcDbLine
62
7
6
CONTINUOUS
10
9.0905465189
20
-25.6500469878
11
9.0905465189
21
-26.1621731226
0
LINE
5
2F4
100
AcDbEntity
8
0
100
AcDbLine
62
7
6
CONTINUOUS
10
9.1419175538
20
-25.6342885559
11
9.1419175538
21
-26.1448393404
0
LINE
5
2F5
100
AcDbEntity
8
0
100
AcDbLine
62
7
6
CONTINUOUS
10
9.2701561788
20
11.3359650134
11
9.2701561788
21
-30.7319097466
0
LINE
5
2F6
100
AcDbEntity
8
0
100
AcDbLine
62
7
6
CONTINUOUS
10
9.3321772101
20
11.2635740536
11
9.3321772101
21
-30.8043007067
0
LINE
5
2F7
100
AcDbEntity
8
0
100
AcDbLine
62
7
6
CONTINUOUS
10
-6.3649746223
20
-21.4820795103
11
-7.0289456111
21
-22.5683870489
0
LINE
5
2F8
100
AcDbEntity
8
0
100
AcDbLine
62
7
6
CONTINUOUS
10
-6.3234792065
20
-21.5028272182
11
-6.9509250103
21
-22.5293767484
0
LINE
5
2F9
100
AcDbEntity
8
0
100
AcDbLine
62
7
6
CONTINUOUS
10
-7.0921506596
20
-23.2822981271
11
-6.4281796707
21
-22.1959905885
0
LINE
5
2FA
100
AcDbEntity
8
0
100
AcDbLine
62
7
6
CONTINUOUS
10
-5.6207773665
20
-23.1997381951
11
-5.3047520132
21
-22.6849714412
0
LINE
5
2FB
100
AcDbEntity
8
0
100
AcDbLine
62
7
6
CONTINUOUS
10
-6.0243720438
20
-23.8161874349
11
-5.8259995272
21
-23.4971584831
0
LINE
5
2FC
100
AcDbEntity
8
0
100
AcDbLine
62
7
6
CONTINUOUS
10
-5.2616037867
20
-22.0337649281
11
-6.3091133380
21
-23.6738167878
0
LINE
5
2FD
100
AcDbEntity
8
0
100
AcDbLine
62
7
6
CONTINUOUS
10
-5.2213533466
20
-22.0538901481
11
-6.2310927371
21
-23.6348064874
0
LINE
5
2FE
100
AcDbEntity
8
0
100
AcDbLine
62
7
6
CONTINUOUS
10
-12.5613460945
20
-16.3630618567
11
-12.4199247382
21
-16.2923511785
0
LINE
5
2FF
100
AcDbEntity
8
0
100
AcDbLine
62
7
6
CONTINUOUS
10
-12.2077927039
20
-16.1862851614
11
-12.0663713476
21
-16.1155744832
0
LINE
5
300
100
AcDbEntity
8
0
100
AcDbLine
62
7
6
CONTINUOUS
10
-11.8542393133
20
-16.0095084661
11
-11.7128179570
21
-15.9387977879
0
LINE
5
301
100
AcDbEntity
8
0
100
AcDbLine
62
7
6
CONTINUOUS
10
-11.5006859227
20
-15.8327317708
11
-11.3592645664
21
-15.7620210927
0
LINE
5
302
100
AcDbEntity
8
0
100
AcDbLine
62
7
6
CONTINUOUS
10
-11.1471325321
20
-15.6559550755
11
-11.0057111758
21
-15.5852443974
0
LINE
5
303
100
AcDbEntity
8
0
100
AcDbLine
62
7
6
CONTINUOUS
10
-11.0838334332
20
-15.5700210621
11
-12.7159271040
21
-16.3047929330
0
LINE
5
304
100
AcDbEntity
8
0
100
AcDbLine
62
7
6
CONTINUOUS
10
10.3900919660
20
11.7922454844
11
10.3900919660
21
-32.3396267781
0
LINE
5
305
100
AcDbEntity
8
0
100
AcDbLine
62
7
6
CONTINUOUS
10
10.5258830929
20
11.7913367327
11
10.5258830929
21
-32.3405355298
0
LINE
5
306
100
AcDbEntity
8
0
100
AcDbLine
62
7
6
CONTINUOUS
10
10.7292004554
20
11.8121443082
11
10.7292004554
21
-32.5009956543
0
LINE
5
307
100
AcDbEntity
8
0
100
AcDbLine
62
7
6
CONTINUOUS
10
10.7603529563
20
11.7758813006
11
10.7603529563
21
-32.5372586575
0
LINE
5
308
100
AcDbEntity
8
0
100
AcDbLine
62
7
6
CONTINUOUS
10
8.5385631002
20
-26.8225855896
11
8.6211225250
21
-26.4865018503
0
LINE
5
309
100
AcDbEntity
8
0
100
AcDbLine
62
7
6
CONTINUOUS
10
3.3400064767
20
-24.3327597233
11
3.3485564822
21
-24.3180131450
0
LINE
5
30A
100
AcDbEntity
8
0
100
AcDbLine
62
7
6
CONTINUOUS
10
-7.0812685403
20
-18.4258113667
11
-6.8265636666
21
-18.2412153158
0
LINE
5
30B
100
AcDbEntity
8
0
100
AcDbLine
62
7
6
CONTINUOUS
10
-6.8263695876
20
-17.6987529849
11
-8.2959133295
21
-18.5147998202
0
LINE
5
30C
100
AcDbEntity
8
0
100
AcDbLine
62
7
6
CONTINUOUS
10
-7.0812685403
20
-18.4258113667
11
-7.7709869121
21
-18.7772630289
0
LINE
5
30D
100
AcDbEntity
8
0
100
AcDbLine
62
7
6
CONTINUOUS
10
-7.3713394765
20
-18.8676343012
11
-7.4805469817
21
-18.9224829941
0
LINE
5
30E
100
AcDbEntity
8
0
100
AcDbLine
62
7
6
CONTINUOUS
10
-8.6722587979
20
-18.3076055049
11
-8.5308374417
21
-18.2368948268
0
LINE
5
30F
100
AcDbEntity
8
0
100
AcDbLine
62
7
6
CONTINUOUS
10
-8.3187054073
20
-18.1308288096
11
-8.1772840511
21
-18.0601181315
0
LINE
5
310
100
AcDbEntity
8
0
100
AcDbLine
62
7
6
CONTINUOUS
10
-7.9651520167
20
-17.9540521143
11
-7.8237306605
21
-17.8833414362
0
LINE
5
311
100
AcDbEntity
8
0
100
AcDbLine
62
7
6
CONTINUOUS
10
-7.6115986261
20
-17.7772754190
11
-7.4701772699
21
-17.7065647409
0
LINE
5
312
100
AcDbEntity
8
0
100
AcDbLine
62
7
6
CONTINUOUS
10
-7.2580452356
20
-17.6004987237
11
-7.1166238793
21
-17.5297880456
0
LINE
5
313
100
AcDbEntity
8
0
100
AcDbLine
62
7
6
CONTINUOUS
10
-7.0105578621
20
-17.6066588476
11
-8.5613765684
21
-18.3820682008
0
LINE
5
314
100
AcDbEntity
8
0
100
AcDbLine
62
7
6
CONTINUOUS
10
-9.1065241667
20
-21.6205145890
11
-9.0285035658
21
-21.5815042886
0
LINE
5
315
100
AcDbEntity
8
0
100
AcDbLine
62
7
6
CONTINUOUS
10
-6.8193560578
20
-18.2072218343
11
-7.8670941155
21
-18.7292094272
0
LINE
5
316
100
AcDbEntity
8
0
100
AcDbLine
62
7
6
CONTINUOUS
10
-19.2301827372
20
22.6838594160
11
-18.8120334991
21
22.4747847969
0
LINE
5
317
100
AcDbEntity
8
0
100
AcDbLine
62
7
6
CONTINUOUS
10
-19.1795173381
20
22.7017643830
11
-18.7619641130
21
22.4929877705
0
LINE
5
318
100
AcDbEntity
8
0
100
AcDbLine
62
7
6
CONTINUOUS
10
9.2701561788
20
10.7517769488
11
-21.7928256893
21
26.2832678828
0
LINE
5
319
100
AcDbEntity
8
0
100
AcDbLine
62
7
6
CONTINUOUS
10
9.2701561788
20
10.8073666767
11
-21.8967740994
21
26.3908318158
0
LINE
5
31A
100
AcDbEntity
8
0
100
AcDbLine
62
7
6
CONTINUOUS
10
9.2234939808
20
11.7790170140
11
9.0660964905
21
12.1278772238
0
LINE
5
31B
100
AcDbEntity
8
0
100
AcDbLine
62
7
6
CONTINUOUS
10
9.0660964905
20
-31.3889624310
11
9.2701561788
21
-30.7100475740
0
LINE
5
31C
100
AcDbEntity
8
0
100
AcDbLine
62
7
6
CONTINUOUS
10
9.2230809977
20
-31.1259385694
11
9.2230006368
21
-31.1262059975
0
LINE
5
31D
100
AcDbEntity
8
0
100
AcDbLine
62
7
6
CONTINUOUS
10
3.6067586993
20
-24.3056928973
11
3.7021098728
21
-24.1412364497
0
LINE
5
31E
100
AcDbEntity
8
0
100
AcDbLine
62
7
6
CONTINUOUS
10
3.9603120899
20
-24.1289162020
11
4.0556632634
21
-23.9644597544
0
LINE
5
31F
100
AcDbEntity
8
0
100
AcDbLine
62
7
6
CONTINUOUS
10
4.3138654805
20
-23.9521395067
11
4.4092166540
21
-23.7876830591
0
LINE
5
320
100
AcDbEntity
8
0
100
AcDbLine
62
7
6
CONTINUOUS
10
4.6674188711
20
-23.7753628114
11
4.7627700446
21
-23.6109063638
0
LINE
5
321
100
AcDbEntity
8
0
100
AcDbLine
62
7
6
CONTINUOUS
10
7.2290937732
20
-26.2773033716
11
7.2376437788
21
-26.2625567933
0
LINE
5
322
100
AcDbEntity
8
0
100
AcDbLine
62
7
6
CONTINUOUS
10
7.4851311522
20
-26.2687169171
11
7.5911971694
21
-26.0857800980
0
LINE
5
323
100
AcDbEntity
8
0
100
AcDbLine
62
7
6
CONTINUOUS
10
7.8386845428
20
-26.0919402218
11
7.9447505600
21
-25.9090034027
0
LINE
5
324
100
AcDbEntity
8
0
100
AcDbLine
62
7
6
CONTINUOUS
10
8.1922379334
20
-25.9151635265
11
8.2983039506
21
-25.7322267074
0
LINE
5
325
100
AcDbEntity
8
0
100
AcDbLine
62
7
6
CONTINUOUS
10
-9.4175356562
20
-22.1196056287
11
-9.3395150553
21
-22.0805953283
0
LINE
5
326
100
AcDbEntity
8
0
100
AcDbLine
62
7
6
CONTINUOUS
10
-7.2586744639
20
-21.7807431919
11
-7.1806538630
21
-21.7417328915
0
LINE
5
327
100
AcDbEntity
8
0
100
AcDbLine
62
7
6
CONTINUOUS
10
-8.4683989518
20
-22.5941739810
11
-8.3903783509
21
-22.5551636805
0
LINE
5
328
100
AcDbEntity
8
0
100
AcDbLine
62
7
6
CONTINUOUS
10
-7.9345092903
20
-22.8611188117
11
-7.8564886895
21
-22.8221085112
0
LINE
5
329
100
AcDbEntity
8
0
100
AcDbLine
62
7
6
CONTINUOUS
10
-6.4281796707
20
-22.1959905885
11
-6.3501590698
21
-22.1569802881
0
LINE
5
32A
100
AcDbEntity
8
0
100
AcDbLine
62
7
6
CONTINUOUS
10
-7.0289456111
20
-22.5683870489
11
-6.9509250103
21
-22.5293767484
0
LINE
5
32B
100
AcDbEntity
8
0
100
AcDbLine
62
7
6
CONTINUOUS
10
-7.3768919537
20
-23.1399274800
11
-7.2988713529
21
-23.1009171795
0
LINE
5
32C
100
AcDbEntity
8
0
100
AcDbLine
62
7
6
CONTINUOUS
10
-6.8192739101
20
-23.4187365018
11
-6.7412533092
21
-23.3797262014
0
LINE
5
32D
100
AcDbEntity
8
0
100
AcDbLine
62
7
6
CONTINUOUS
10
-5.3047520132
20
-22.6849714412
11
-5.2267314123
21
-22.6459611408
0
LINE
5
32E
100
AcDbEntity
8
0
100
AcDbLine
62
7
6
CONTINUOUS
10
-6.3091133380
20
-23.6738167878
11
-6.2310927371
21
-23.6348064874
0
LINE
5
32F
100
AcDbEntity
8
0
100
AcDbLine
62
7
6
CONTINUOUS
10
-5.8259995272
20
-23.4971584831
11
-5.7479789263
21
-23.4581481827
0
LINE
5
330
100
AcDbEntity
8
0
100
AcDbLine
62
7
6
CONTINUOUS
10
-5.3479006170
20
-23.3361765699
11
-5.2698800162
21
-23.2971662694
0
LINE
5
331
100
AcDbEntity
8
0
100
AcDbLine
62
7
6
CONTINUOUS
10
-4.1261705821
20
-23.0015128987
11
-4.0481499812
21
-22.9625025983
0
LINE
5
332
100
AcDbEntity
8
0
100
AcDbLine
62
7
6
CONTINUOUS
10
-5.3751602643
20
-23.7225781145
11
-5.2971396634
21
-23.6835678141
0
LINE
5
333
100
AcDbEntity
8
0
100
AcDbLine
62
7
6
CONTINUOUS
10
-3.7702443116
20
-23.1794760397
11
-3.6922237049
21
-23.1404657364
0
LINE
5
334
100
AcDbEntity
8
0
100
AcDbLine
62
7
6
CONTINUOUS
10
-5.3955688534
20
-24.1305890302
11
-5.3175482525
21
-24.0915787297
0
LINE
5
335
100
AcDbEntity
8
0
100
AcDbLine
62
7
6
CONTINUOUS
10
-4.3750355303
20
-23.8226091132
11
-4.2970149294
21
-23.7835988128
0
LINE
5
336
100
AcDbEntity
8
0
100
AcDbLine
62
7
6
CONTINUOUS
10
-3.7810467471
20
-23.6482207831
11
-3.7030261462
21
-23.6092104827
0
LINE
5
337
100
AcDbEntity
8
0
100
AcDbLine
62
7
6
CONTINUOUS
10
-4.1258871631
20
-23.9471832969
11
-4.0478665622
21
-23.9081729964
0
LINE
5
338
100
AcDbEntity
8
0
100
AcDbLine
62
7
6
CONTINUOUS
10
-4.8854082813
20
-24.3856693162
11
-4.8073876804
21
-24.3466590158
0
LINE
5
339
100
AcDbEntity
8
0
100
AcDbLine
62
7
6
CONTINUOUS
10
-3.8142401358
20
-24.0484573452
11
-3.7362195349
21
-24.0094470447
0
LINE
5
33A
100
AcDbEntity
8
0
100
AcDbLine
62
7
6
CONTINUOUS
10
-4.0667780328
20
-24.7949844404
11
-3.9887574319
21
-24.7559741400
0
LINE
5
33B
100
AcDbEntity
8
0
100
AcDbLine
62
7
6
CONTINUOUS
10
-20.7991400953
20
16.4220787111
11
-20.7284294172
21
16.4220787111
0
LINE
5
33C
100
AcDbEntity
8
0
100
AcDbLine
62
7
6
CONTINUOUS
10
-20.5870080609
20
16.5988554064
11
-20.3748760266
21
16.5988554064
0
LINE
5
33D
100
AcDbEntity
8
0
100
AcDbLine
62
7
6
CONTINUOUS
10
-20.2334546703
20
16.7756321017
11
-20.0213226360
21
16.7756321017
0
LINE
5
33E
100
AcDbEntity
8
0
100
AcDbLine
62
7
6
CONTINUOUS
10
-19.8799012797
20
16.9524087970
11
-19.6677692454
21
16.9524087970
0
LINE
5
33F
100
AcDbEntity
8
0
100
AcDbLine
62
7
6
CONTINUOUS
10
-19.5263478891
20
17.1291854923
11
-19.3142158548
21
17.1291854923
0
LINE
5
340
100
AcDbEntity
8
0
100
AcDbLine
62
7
6
CONTINUOUS
10
-19.1727944985
20
17.3059621875
11
-18.9606624642
21
17.3059621875
0
LINE
5
341
100
AcDbEntity
8
0
100
AcDbLine
62
7
6
CONTINUOUS
10
-19.9419990386
20
22.3428501192
11
-19.9701604294
21
22.3476891079
0
LINE
5
342
100
AcDbEntity
8
0
100
AcDbLine
62
7
6
CONTINUOUS
10
-23.3716716945
20
29.8183577402
11
-23.3715559729
21
29.8183044389
0
LINE
5
343
100
AcDbEntity
8
0
100
AcDbLine
62
7
6
CONTINUOUS
10
9.9577846435
20
13.1536219731
11
9.9578691731
21
13.1535765497
0
LINE
5
344
100
AcDbEntity
8
0
100
AcDbLine
62
7
6
CONTINUOUS
10
8.5457913240
20
-25.7383868312
11
8.6518573411
21
-25.5554500121
0
LINE
5
345
100
AcDbEntity
8
0
100
AcDbLine
62
7
6
CONTINUOUS
10
3.3485564822
20
-24.3180131450
11
3.4899778385
21
-24.2473024669
0
LINE
5
346
100
AcDbEntity
8
0
100
AcDbLine
62
7
6
CONTINUOUS
10
3.7021098728
20
-24.1412364497
11
3.8435312291
21
-24.0705257716
0
LINE
5
347
100
AcDbEntity
8
0
100
AcDbLine
62
7
6
CONTINUOUS
10
4.0556632634
20
-23.9644597544
11
4.1970846197
21
-23.8937490763
0
LINE
5
348
100
AcDbEntity
8
0
100
AcDbLine
62
7
6
CONTINUOUS
10
4.4092166540
20
-23.7876830591
11
4.5506380103
21
-23.7169723810
0
LINE
5
349
100
AcDbEntity
8
0
100
AcDbLine
62
7
6
CONTINUOUS
10
4.7627700446
20
-23.6109063638
11
4.9041914009
21
-23.5401956857
0
LINE
5
34A
100
AcDbEntity
8
0
100
AcDbLine
62
7
6
CONTINUOUS
10
4.8260691435
20
-23.5249723504
11
3.1939754727
21
-24.2597442213
0
LINE
5
34B
100
AcDbEntity
8
0
100
AcDbLine
62
7
6
CONTINUOUS
10
-20.7991400953
20
21.1852184319
11
-20.7284294172
21
21.1852184319
0
LINE
5
34C
100
AcDbEntity
8
0
100
AcDbLine
62
7
6
CONTINUOUS
10
-20.5870080609
20
21.3619951272
11
-20.3748760266
21
21.3619951272
0
LINE
5
34D
100
AcDbEntity
8
0
100
AcDbLine
62
7
6
CONTINUOUS
10
-20.2334546703
20
21.5387718225
11
-20.0213226360
21
21.5387718225
0
LINE
5
34E
100
AcDbEntity
8
0
100
AcDbLine
62
7
6
CONTINUOUS
10
-19.8799012797
20
21.7155485178
11
-19.6677692454
21
21.7155485178
0
LINE
5
34F
100
AcDbEntity
8
0
100
AcDbLine
62
7
6
CONTINUOUS
10
-19.5263478891
20
21.8923252131
11
-19.3142158548
21
21.8923252131
0
LINE
5
350
100
AcDbEntity
8
0
100
AcDbLine
62
7
6
CONTINUOUS
10
-19.1727944985
20
22.0691019084
11
-18.9606624642
21
22.0691019084
0
LINE
5
351
100
AcDbEntity
8
0
100
AcDbLine
62
7
6
CONTINUOUS
10
8.8286340364
20
-26.3807626550
11
9.0833389100
21
-26.1961666041
0
LINE
5
352
100
AcDbEntity
8
0
100
AcDbLine
62
7
6
CONTINUOUS
10
9.0835329891
20
-25.6537042732
11
7.6139892472
21
-26.4697511086
0
LINE
5
353
100
AcDbEntity
8
0
100
AcDbLine
62
7
6
CONTINUOUS
10
8.8286340364
20
-26.3807626550
11
8.1389156646
21
-26.7322143173
0
LINE
5
354
100
AcDbEntity
8
0
100
AcDbLine
62
7
6
CONTINUOUS
10
8.5385631002
20
-26.8225855896
11
8.4293555950
21
-26.8774342825
0
LINE
5
355
100
AcDbEntity
8
0
100
AcDbLine
62
7
6
CONTINUOUS
10
7.2376437788
20
-26.2625567933
11
7.3790651350
21
-26.1918461152
0
LINE
5
356
100
AcDbEntity
8
0
100
AcDbLine
62
7
6
CONTINUOUS
10
7.5911971694
20
-26.0857800980
11
7.7326185256
21
-26.0150694199
0
LINE
5
357
100
AcDbEntity
8
0
100
AcDbLine
62
7
6
CONTINUOUS
10
7.9447505600
20
-25.9090034027
11
8.0861719162
21
-25.8382927246
0
LINE
5
358
100
AcDbEntity
8
0
100
AcDbLine
62
7
6
CONTINUOUS
10
8.2983039506
20
-25.7322267074
11
8.4397253068
21
-25.6615160293
0
LINE
5
359
100
AcDbEntity
8
0
100
AcDbLine
62
7
6
CONTINUOUS
10
8.6518573411
20
-25.5554500121
11
8.7932786974
21
-25.4847393340
0
LINE
5
35A
100
AcDbEntity
8
0
100
AcDbLine
62
7
6
CONTINUOUS
10
8.8993447146
20
-25.5616101359
11
7.3485260083
21
-26.3370194891
0
LINE
5
35B
100
AcDbEntity
8
0
100
AcDbLine
62
7
6
CONTINUOUS
10
9.0905465189
20
-26.1621731226
11
8.0428084612
21
-26.6841607156
0
LINE
5
35C
100
AcDbEntity
8
0
100
AcDbLine
62
7
6
CONTINUOUS
10
10.4697968971
20
-33.0620916626
11
10.4695196049
21
-33.0622357483
0
LINE
5
35D
100
AcDbEntity
8
0
100
AcDbLine
62
7
6
CONTINUOUS
10
10.5751827924
20
-32.7612749774
11
10.0008973995
21
-33.0593582716
0
LINE
5
35E
100
AcDbEntity
8
0
100
AcDbLine
62
7
6
CONTINUOUS
10
-42.0123435309
20
57.6581284192
11
40.0120430868
21
16.6459351104
0
LINE
5
35F
100
AcDbEntity
8
0
100
AcDbLine
62
7
6
CONTINUOUS
10
35.9566342920
20
-56.8114080064
11
35.9566342920
21
12.9786855869
0
LINE
5
360
100
AcDbEntity
8
0
100
AcDbLine
62
7
6
CONTINUOUS
10
37.1546091688
20
-56.8085276093
11
37.1546091688
21
12.9815659841
0
LINE
5
361
100
AcDbEntity
8
0
100
AcDbLine
62
7
6
CONTINUOUS
10
40.2241751211
20
-16.7119363073
11
40.7191498680
21
-16.3875281570
0
LINE
5
362
100
AcDbEntity
8
0
100
AcDbLine
62
7
6
CONTINUOUS
10
40.1534644430
20
16.5577271659
11
40.4363071555
21
16.3455951315
0
LINE
5
363
100
AcDbEntity
8
0
100
AcDbLine
62
7
6
CONTINUOUS
10
40.2241751211
20
14.5501008248
11
40.2241751211
21
-55.6132128524
0
LINE
5
364
100
AcDbEntity
8
0
100
AcDbLine
62
7
6
CONTINUOUS
10
40.7191498680
20
-22.6306153493
11
40.7191498680
21
-54.7217013905
0
LINE
5
365
100
AcDbEntity
8
0
100
AcDbLine
62
7
6
CONTINUOUS
10
40.7191498680
20
-16.3875281570
11
40.7191498680
21
15.7799097066
0
LINE
5
366
100
AcDbEntity
8
0
100
AcDbLine
62
7
6
CONTINUOUS
10
40.7191498680
20
-54.7217013905
11
40.2241751211
21
-54.9445400225
0
LINE
5
367
100
AcDbEntity
8
0
100
AcDbLine
62
7
6
CONTINUOUS
10
40.4366533009
20
-55.2729552724
11
40.2241751211
21
-55.3621388323
0
LINE
5
368
100
AcDbEntity
8
0
100
AcDbLine
62
7
6
CONTINUOUS
10
40.2241751211
20
-55.6132128524
11
37.1546091688
21
-56.8085276093
0
LINE
5
369
100
AcDbEntity
8
0
100
AcDbLine
62
7
6
CONTINUOUS
10
36.5689751702
20
-57.8744320077
11
39.6344797900
21
-56.6807583733
0
SPLINE
5
36A
100
AcDbEntity
8
0
100
AcDbSpline
62
7
6
CONTINUOUS
70
0
71
3
72
23
73
19
74
17
42
0.0000001000
43
0.0000001000
44
0.0000000001
12
1.1693934209
22
-0.5846967104
32
0.0000000000
13
-1.0815790256
23
-0.7367445384
33
0.0000000000
40
0.0000000000
40
0.0000000000
40
0.0000000000
40
0.0000000000
40
0.0538302705
40
0.1106579127
40
0.1700054518
40
0.2316717311
40
0.2967436553
40
0.3647164107
40
0.4343231741
40
0.5047758436
40
0.5765549701
40
0.6477864724
40
0.7164225135
40
0.7817793523
40
0.8447630974
40
0.9052228798
40
0.9628960207
40
1.0000000000
40
1.0000000000
40
1.0000000000
40
1.0000000000
10
-3.6243423243
20
-22.8523956368
30
0.0000000000
10
-3.6033594029
20
-22.8628870975
30
0.0000000000
10
-3.5621592106
20
-22.8884956976
30
0.0000000000
10
-3.5062612514
20
-22.9375586080
30
0.0000000000
10
-3.4561748451
20
-22.9970696208
30
0.0000000000
10
-3.4130783041
20
-23.0660727519
30
0.0000000000
10
-3.3782707736
20
-23.1437397090
30
0.0000000000
10
-3.3527676705
20
-23.2285387910
30
0.0000000000
10
-3.3374623222
20
-23.3181203746
30
0.0000000000
10
-3.3325742564
20
-23.4105078631
30
0.0000000000
10
-3.3381811019
20
-23.5035783591
30
0.0000000000
10
-3.3546402733
20
-23.5945579231
30
0.0000000000
10
-3.3807207478
20
-23.6803114039
30
0.0000000000
10
-3.4149655890
20
-23.7592431808
30
0.0000000000
10
-3.4567747545
20
-23.8303600898
30
0.0000000000
10
-3.5052726832
20
-23.8929250456
30
0.0000000000
10
-3.5538227297
20
-23.9403759211
30
0.0000000000
10
-3.5868028951
20
-23.9653960423
30
0.0000000000
10
-3.6001798570
20
-23.9745080937
30
0.0000000000
11
-3.6243423243
21
-22.8523956368
31
0.0000000000
11
-3.5644147951
21
-22.8892992258
31
0.0000000000
11
-3.5084008886
21
-22.9381109917
31
0.0000000000
11
-3.4582843099
21
-22.9973468457
31
0.0000000000
11
-3.4154521763
21
-23.0656521126
31
0.0000000000
11
-3.3804735393
21
-23.1432052904
31
0.0000000000
11
-3.3547288466
21
-23.2282636144
31
0.0000000000
11
-3.3392714276
21
-23.3179466582
31
0.0000000000
11
-3.3343267418
21
-23.4099251844
31
0.0000000000
11
-3.3400509166
21
-23.5035960264
31
0.0000000000
11
-3.3566311172
21
-23.5952378297
31
0.0000000000
11
-3.3827817973
21
-23.6810791663
31
0.0000000000
11
-3.4169622156
21
-23.7593940482
31
0.0000000000
11
-3.4588223771
21
-23.8303069621
31
0.0000000000
11
-3.5074105694
21
-23.8926569809
31
0.0000000000
11
-3.5614920154
21
-23.9452005451
31
0.0000000000
11
-3.6001798570
21
-23.9745080937
31
0.0000000000
0
SPLINE
5
36B
100
AcDbEntity
8
0
100
AcDbSpline
62
7
6
CONTINUOUS
70
0
71
3
72
9
73
5
74
3
42
0.0000001000
43
0.0000001000
44
0.0000000001
12
-0.0510918027
22
-0.0348024562
32
0.0000000000
13
-0.0552967900
23
-0.0276491661
33
0.0000000000
40
0.0000000000
40
0.0000000000
40
0.0000000000
40
0.0000000000
40
0.3856545175
40
1.0000000000
40
1.0000000000
40
1.0000000000
40
1.0000000000
10
-3.6001798570
20
-23.9745080937
30
0.0000000000
10
-3.6067477852
20
-23.9789820018
30
0.0000000000
10
-3.6240694703
20
-23.9901558879
30
0.0000000000
10
-3.6421092923
20
-24.0001609974
30
0.0000000000
10
-3.6534330700
20
-24.0058230442
30
0.0000000000
11
-3.6001798570
21
-23.9745080937
31
0.0000000000
11
-3.6202149655
21
-23.9874266897
31
0.0000000000
11
-3.6534330700
21
-24.0058230442
31
0.0000000000
0
SPLINE
5
36C
100
AcDbEntity
8
0
100
AcDbSpline
62
7
6
CONTINUOUS
70
0
71
3
72
12
73
8
74
6
42
0.0000001000
43
0.0000001000
44
0.0000000001
12
0.1292231505
22
-0.0646115753
32
0.0000000000
13
0.1294124897
23
0.0648306932
33
0.0000000000
40
0.0000000000
40
0.0000000000
40
0.0000000000
40
0.0000000000
40
0.2300516859
40
0.4701578951
40
0.7148627002
40
0.9740847020
40
1.0000000000
40
1.0000000000
40
1.0000000000
40
1.0000000000
10
-3.9206641497
20
-23.6497634749
30
0.0000000000
10
-3.9107548151
20
-23.6547181422
30
0.0000000000
10
-3.8892812265
20
-23.6625742650
30
0.0000000000
10
-3.8548304605
20
-23.6668604411
30
0.0000000000
10
-3.8188868213
20
-23.6631472386
30
0.0000000000
10
-3.7945315897
20
-23.6548030083
30
0.0000000000
10
-3.7821629508
20
-23.6487772145
30
0.0000000000
10
-3.7810450297
20
-23.6482171789
30
0.0000000000
11
-3.9206641497
21
-23.6497634749
31
0.0000000000
11
-3.8894568944
21
-23.6612002562
31
0.0000000000
11
-3.8550381571
21
-23.6655264227
31
0.0000000000
11
-3.8198664581
21
-23.6619413550
31
0.0000000000
11
-3.7844173482
21
-23.6498598658
31
0.0000000000
11
-3.7810450297
21
-23.6482171789
31
0.0000000000
0
SPLINE
5
36D
100
AcDbEntity
8
0
100
AcDbSpline
62
7
6
CONTINUOUS
70
0
71
3
72
15
73
11
74
9
42
0.0000001000
43
0.0000001000
44
0.0000000001
12
0.5226925647
22
-0.3918620742
32
0.0000000000
13
0.0000000000
23
-0.6526384249
33
0.0000000000
40
0.0000000000
40
0.0000000000
40
0.0000000000
40
0.0000000000
40
0.1008018485
40
0.2262105378
40
0.3566359437
40
0.4897573822
40
0.6230736654
40
0.7540708675
40
0.8803893406
40
1.0000000000
40
1.0000000000
40
1.0000000000
40
1.0000000000
10
40.4362809977
20
16.3456161865
30
0.0000000000
10
40.4538437899
20
16.3324493793
30
0.0000000000
10
40.4913961685
20
16.3004771283
30
0.0000000000
10
40.5443084670
20
16.2434731486
30
0.0000000000
10
40.5944803825
20
16.1751219920
30
0.0000000000
10
40.6378242656
20
16.1002640293
30
0.0000000000
10
40.6730509097
20
16.0211274824
30
0.0000000000
10
40.6991130840
20
15.9400570998
30
0.0000000000
10
40.7152332632
20
15.8594777692
30
0.0000000000
10
40.7191498680
20
15.8059305440
30
0.0000000000
10
40.7191498680
20
15.7799097066
30
0.0000000000
11
40.4362809977
21
16.3456161865
31
0.0000000000
11
40.4865188587
21
16.3031240519
31
0.0000000000
11
40.5423731727
21
16.2432980542
31
0.0000000000
11
40.5928562162
21
16.1747635066
31
0.0000000000
11
40.6364340876
21
16.0996027964
31
0.0000000000
11
40.6717826952
21
16.0200996439
31
0.0000000000
11
40.6978279896
21
15.9386697122
31
0.0000000000
11
40.7137785975
21
15.8577872084
31
0.0000000000
11
40.7191498680
21
15.7799097066
31
0.0000000000
0
SPLINE
5
36E
100
AcDbEntity
8
0
100
AcDbSpline
62
7
6
CONTINUOUS
70
0
71
3
72
12
73
8
74
6
42
0.0000001000
43
0.0000001000
44
0.0000000001
12
0.0000095694
22
-0.3980347923
32
0.0000000000
13
-0.1143149400
23
-0.3815820763
33
0.0000000000
40
0.0000000000
40
0.0000000000
40
0.0000000000
40
0.0000000000
40
0.2561792506
40
0.5175457661
40
0.7498146763
40
0.9505866956
40
1.0000000000
40
1.0000000000
40
1.0000000000
40
1.0000000000
10
9.2701563961
20
-30.7319220346
30
0.0000000000
10
9.2701572133
20
-30.7659114528
30
0.0000000000
10
9.2685077412
20
-30.8345918764
30
0.0000000000
10
9.2607134313
20
-30.9338200636
30
0.0000000000
10
9.2477022199
20
-31.0251007980
30
0.0000000000
10
9.2340397817
20
-31.0876904263
30
0.0000000000
10
9.2249746233
20
-31.1196565370
30
0.0000000000
10
9.2230917303
20
-31.1259416141
30
0.0000000000
11
9.2701563961
21
-30.7319220346
31
0.0000000000
11
9.2676102728
21
-30.8338569538
31
0.0000000000
11
9.2592565201
21
-30.9375481846
31
0.0000000000
11
9.2459183842
21
-31.0290268839
31
0.0000000000
11
9.2284782366
21
-31.1070103399
31
0.0000000000
11
9.2230917303
21
-31.1259416141
31
0.0000000000
0
SPLINE
5
36F
100
AcDbEntity
8
0
100
AcDbSpline
62
7
6
CONTINUOUS
70
0
71
3
72
26
73
22
74
20
42
0.0000001000
43
0.0000001000
44
0.0000000001
12
0.2776497423
22
-0.6154520820
32
0.0000000000
13
-0.0000004343
23
-0.6751258800
33
0.0000000000
40
0.0000000000
40
0.0000000000
40
0.0000000000
40
0.0000000000
40
0.0225513299
40
0.0722248812
40
0.1229623589
40
0.1744303575
40
0.2264908470
40
0.2791430046
40
0.3324861328
40
0.3866494907
40
0.4414749922
40
0.4969560856
40
0.5531470901
40
0.6101081884
40
0.6679065235
40
0.7266090042
40
0.7862516615
40
0.8468581802
40
0.9084526264
40
0.9710496239
40
1.0000000000
40
1.0000000000
40
1.0000000000
40
1.0000000000
10
9.1545608520
20
11.9967511016
30
0.0000000000
10
9.1566479756
20
11.9921246807
30
0.0000000000
10
9.1631654214
20
11.9772320167
30
0.0000000000
10
9.1734427174
20
11.9515326748
30
0.0000000000
10
9.1849541372
20
11.9193439020
30
0.0000000000
10
9.1955871450
20
11.8862912898
30
0.0000000000
10
9.2053896847
20
11.8525350158
30
0.0000000000
10
9.2144214815
20
11.8181286516
30
0.0000000000
10
9.2227380121
20
11.7830563716
30
0.0000000000
10
9.2303715570
20
11.7473291824
30
0.0000000000
10
9.2373394115
20
11.7109764717
30
0.0000000000
10
9.2436497777
20
11.6740410769
30
0.0000000000
10
9.2493137410
20
11.6365150695
30
0.0000000000
10
9.2543354534
20
11.5983717770
30
0.0000000000
10
9.2587124430
20
11.5595803498
30
0.0000000000
10
9.2624321245
20
11.5201142069
30
0.0000000000
10
9.2654745086
20
11.4799562444
30
0.0000000000
10
9.2678104413
20
11.4390990444
30
0.0000000000
10
9.2694038891
20
11.3975406394
30
0.0000000000
10
9.2700609695
20
11.3630822342
30
0.0000000000
10
9.2701562196
20
11.3424801432
30
0.0000000000
10
9.2701562154
20
11.3359650938
30
0.0000000000
11
9.1545608520
21
11.9967511016
31
0.0000000000
11
9.1606710828
21
11.9828048406
31
0.0000000000
11
9.1731624270
21
11.9516829083
31
0.0000000000
11
9.1847258096
21
11.9194402815
31
0.0000000000
11
9.1953886323
21
11.8863701637
31
0.0000000000
11
9.2052070595
21
11.8526228071
31
0.0000000000
11
9.2142455686
21
11.8182450734
31
0.0000000000
11
9.2225656591
21
11.7832068067
31
0.0000000000
11
9.2302150195
21
11.7474495472
31
0.0000000000
11
9.2371899700
21
11.7110993615
31
0.0000000000
11
9.2435039826
21
11.6741794606
31
0.0000000000
11
9.2491703364
21
11.6366698499
31
0.0000000000
11
9.2541937505
21
11.5985442809
31
0.0000000000
11
9.2585716083
21
11.5597703292
31
0.0000000000
11
9.2622924150
21
11.5203146695
31
0.0000000000
11
9.2653351980
21
11.4801643650
31
0.0000000000
11
9.2676708089
21
11.4393149294
31
0.0000000000
11
9.2692629084
21
11.3977623063
31
0.0000000000
11
9.2700662210
21
11.3555099955
31
0.0000000000
11
9.2701562154
21
11.3359650938
31
0.0000000000
0
SPLINE
5
370
100
AcDbEntity
8
0
100
AcDbSpline
62
7
6
CONTINUOUS
70
0
71
3
72
8
73
4
74
2
42
0.0000001000
43
0.0000001000
44
0.0000000001
12
-0.0000011866
22
-0.0498112486
32
0.0000000000
13
0.0022279754
23
-0.0497785291
33
0.0000000000
40
0.0000000000
40
0.0000000000
40
0.0000000000
40
0.0000000000
40
1.0000000000
40
1.0000000000
40
1.0000000000
40
1.0000000000
10
-23.9989897601
20
-15.1243931073
30
0.0000000000
10
-23.9989901556
20
-15.1409968569
30
0.0000000000
10
-23.9986074595
20
-15.1576046037
30
0.0000000000
10
-23.9978648011
20
-15.1741974468
30
0.0000000000
11
-23.9989897601
21
-15.1243931073
31
0.0000000000
11
-23.9978648011
21
-15.1741974468
31
0.0000000000
0
SPLINE
5
371
100
AcDbEntity
8
0
100
AcDbSpline
62
7
6
CONTINUOUS
70
0
71
3
72
19
73
15
74
13
42
0.0000001000
43
0.0000001000
44
0.0000000001
12
0.0576409193
22
-1.2878419370
32
0.0000000000
13
1.0741954382
23
-0.7132477732
33
0.0000000000
40
0.0000000000
40
0.0000000000
40
0.0000000000
40
0.0000000000
40
0.0299857156
40
0.1218821431
40
0.2163191542
40
0.3126536034
40
0.4101301301
40
0.5079464714
40
0.6052705108
40
0.7012298913
40
0.7950096391
40
0.8859117689
40
0.9734373878
40
1.0000000000
40
1.0000000000
40
1.0000000000
40
1.0000000000
10
-23.9978648011
20
-15.1741974468
30
0.0000000000
10
-23.9972886663
20
-15.1870697341
30
0.0000000000
10
-23.9940663196
20
-15.2393549212
30
0.0000000000
10
-23.9823115391
20
-15.3316300682
30
0.0000000000
10
-23.9563402888
20
-15.4503662388
30
0.0000000000
10
-23.9198844591
20
-15.5688064911
30
0.0000000000
10
-23.8735537066
20
-15.6853014719
30
0.0000000000
10
-23.8180431712
20
-15.7981843489
30
0.0000000000
10
-23.7541450674
20
-15.9057870548
30
0.0000000000
10
-23.6827516795
20
-16.0064624662
30
0.0000000000
10
-23.6048462568
20
-16.0986207724
30
0.0000000000
10
-23.5214442540
20
-16.1807893240
30
0.0000000000
10
-23.4527855908
20
-16.2361260889
30
0.0000000000
10
-23.4124257247
20
-16.2639956374
30
0.0000000000
10
-23.4029145791
20
-16.2703108787
30
0.0000000000
11
-23.9978648011
21
-15.1741974468
31
0.0000000000
11
-23.9954972929
21
-15.2127785758
31
0.0000000000
11
-23.9807482604
21
-15.3302511036
31
0.0000000000
11
-23.9548973554
21
-15.4491410683
31
0.0000000000
11
-23.9184776772
21
-15.5677898210
31
0.0000000000
11
-23.8721075093
21
-15.6844994150
31
0.0000000000
11
-23.8164885376
21
-15.7975834759
31
0.0000000000
11
-23.7524147079
21
-15.9053636274
31
0.0000000000
11
-23.6808072908
21
-16.0061435037
31
0.0000000000
11
-23.6026762812
21
-16.0983026167
31
0.0000000000
11
-23.5190877785
21
-16.1803306822
31
0.0000000000
11
-23.4311028940
21
-16.2508594334
31
0.0000000000
11
-23.4029145791
21
-16.2703108787
31
0.0000000000
0
SPLINE
5
372
100
AcDbEntity
8
0
100
AcDbSpline
62
7
6
CONTINUOUS
70
0
71
3
72
8
73
4
74
2
42
0.0000001000
43
0.0000001000
44
0.0000000001
12
0.0019478448
22
-0.0012933363
32
0.0000000000
13
0.0019510403
23
-0.0012884713
33
0.0000000000
40
0.0000000000
40
0.0000000000
40
0.0000000000
40
0.0000000000
40
1.0000000000
40
1.0000000000
40
1.0000000000
40
1.0000000000
10
-23.4029145791
20
-16.2703108787
30
0.0000000000
10
-23.4022652975
20
-16.2707419908
30
0.0000000000
10
-23.4016154830
20
-16.2711722944
30
0.0000000000
10
-23.4009651362
20
-16.2716017849
30
0.0000000000
11
-23.4029145791
21
-16.2703108787
31
0.0000000000
11
-23.4009651362
21
-16.2716017849
31
0.0000000000
0
SPLINE
5
373
100
AcDbEntity
8
0
100
AcDbSpline
62
7
6
CONTINUOUS
70
0
71
3
72
8
73
4
74
2
42
0.0000001000
43
0.0000001000
44
0.0000000001
12
0.0372958730
22
-0.0246302764
32
0.0000000000
13
0.0384490659
23
-0.0227490103
33
0.0000000000
40
0.0000000000
40
0.0000000000
40
0.0000000000
40
0.0000000000
40
1.0000000000
40
1.0000000000
40
1.0000000000
40
1.0000000000
10
-23.4009651362
20
-16.2716017849
30
0.0000000000
10
-23.3885331785
20
-16.2798118770
30
0.0000000000
10
-23.3759067292
20
-16.2877248158
30
0.0000000000
10
-23.3630903739
20
-16.2953078193
30
0.0000000000
11
-23.4009651362
21
-16.2716017849
31
0.0000000000
11
-23.3630903739
21
-16.2953078193
31
0.0000000000
0
SPLINE
5
374
100
AcDbEntity
8
0
100
AcDbSpline
62
7
6
CONTINUOUS
70
0
71
3
72
13
73
9
74
7
42
0.0000001000
43
0.0000001000
44
0.0000000001
12
31.8968617586
22
-18.8733326831
32
0.0000000000
13
34.2563324236
23
-14.1463116827
33
0.0000000000
40
0.0000000000
40
0.0000000000
40
0.0000000000
40
0.0000000000
40
0.1680646149
40
0.3360893406
40
0.5034664138
40
0.6702274310
40
0.8364048416
40
1.0000000000
40
1.0000000000
40
1.0000000000
40
1.0000000000
10
-23.3630979433
20
-16.2953029960
30
0.0000000000
10
-21.5761866802
20
-17.3526161260
30
0.0000000000
10
-17.9781865896
20
-19.4257380694
30
0.0000000000
10
-12.5171265420
20
-22.4040653046
30
0.0000000000
10
-7.0013437671
20
-25.2448661133
30
0.0000000000
10
-1.4398541211
20
-27.9432478435
30
0.0000000000
10
4.1423417938
20
-30.4877876124
30
0.0000000000
10
7.8893879121
20
-32.0881730620
30
0.0000000000
10
9.7574446217
20
-32.8595957621
30
0.0000000000
11
-23.3630979433
21
-16.2953029960
31
0.0000000000
11
-17.9658731871
21
-19.4047446778
31
0.0000000000
11
-12.4985584515
21
-22.3861364948
31
0.0000000000
11
-6.9835170558
21
-25.2262359389
31
0.0000000000
11
-1.4228116828
21
-27.9239474283
31
0.0000000000
11
4.1814363845
21
-30.4782761984
31
0.0000000000
11
9.7574446217
21
-32.8595957621
31
0.0000000000
0
SPLINE
5
375
100
AcDbEntity
8
0
100
AcDbSpline
62
7
6
CONTINUOUS
70
0
71
3
72
8
73
4
74
2
42
0.0000001000
43
0.0000001000
44
0.0000000001
12
0.0462806935
22
-0.0191118275
32
0.0000000000
13
0.0462844588
23
-0.0191026181
33
0.0000000000
40
0.0000000000
40
0.0000000000
40
0.0000000000
40
0.0000000000
40
1.0000000000
40
1.0000000000
40
1.0000000000
40
1.0000000000
10
9.7574446217
20
-32.8595957621
30
0.0000000000
10
9.7728715195
20
-32.8659663713
30
0.0000000000
10
9.7882990450
20
-32.8723354457
30
0.0000000000
10
9.8037271980
20
-32.8787029850
30
0.0000000000
11
9.7574446217
21
-32.8595957621
31
0.0000000000
11
9.8037271980
21
-32.8787029850
31
0.0000000000
0
SPLINE
5
376
100
AcDbEntity
8
0
100
AcDbSpline
62
7
6
CONTINUOUS
70
0
71
3
72
12
73
8
74
6
42
0.0000001000
43
0.0000001000
44
0.0000000001
12
0.4016717521
22
-0.1657805459
32
0.0000000000
13
0.4049183170
23
0.1588405510
33
0.0000000000
40
0.0000000000
40
0.0000000000
40
0.0000000000
40
0.0000000000
40
0.1901828147
40
0.4228527306
40
0.6435643398
40
0.8549555331
40
1.0000000000
40
1.0000000000
40
1.0000000000
40
1.0000000000
10
9.8037256830
20
-32.8787021527
30
0.0000000000
10
9.8291893712
20
-32.8892116897
30
0.0000000000
10
9.8870704515
20
-32.9096356636
30
0.0000000000
10
9.9786097697
20
-32.9288465418
30
0.0000000000
10
10.0752475632
20
-32.9327688457
30
0.0000000000
10
10.1584546173
20
-32.9209739806
30
0.0000000000
10
10.2078536043
20
-32.9054203705
30
0.0000000000
10
10.2274306581
20
-32.8977407228
30
0.0000000000
11
9.8037256830
21
-32.8787021527
31
0.0000000000
11
9.8817128232
21
-32.9060053887
31
0.0000000000
11
9.9806846256
21
-32.9263437316
31
0.0000000000
11
10.0764671700
21
-32.9298547385
31
0.0000000000
11
10.1673204893
21
-32.9167095059
31
0.0000000000
11
10.2274306581
21
-32.8977407228
31
0.0000000000
0
SPLINE
5
377
100
AcDbEntity
8
0
100
AcDbSpline
62
7
6
CONTINUOUS
70
0
71
3
72
14
73
10
74
8
42
0.0000001000
43
0.0000001000
44
0.0000000001
12
-0.5387375526
22
-0.3339338680
32
0.0000000000
13
0.0000224254
23
-0.6330826830
33
0.0000000000
40
0.0000000000
40
0.0000000000
40
0.0000000000
40
0.0000000000
40
0.0935095513
40
0.2303200005
40
0.3734022986
40
0.5254868727
40
0.6885570534
40
0.8623335626
40
1.0000000000
40
1.0000000000
40
1.0000000000
40
1.0000000000
10
-23.7500547382
20
29.5606268991
30
0.0000000000
10
-23.7668471071
20
29.5502182304
30
0.0000000000
10
-23.8064226279
20
29.5216874232
30
0.0000000000
10
-23.8620945871
20
29.4652977142
30
0.0000000000
10
-23.9134541570
20
29.3894601091
30
0.0000000000
10
-23.9537011640
20
29.3011288571
30
0.0000000000
10
-23.9819981453
20
29.2015873972
30
0.0000000000
10
-23.9963395728
20
29.1022687341
30
0.0000000000
10
-23.9989911531
20
29.0365171293
30
0.0000000000
10
-23.9989901240
20
29.0074657168
30
0.0000000000
11
-23.7500547382
21
29.5606268991
31
0.0000000000
11
-23.7981191889
21
29.5260208933
31
0.0000000000
11
-23.8591399710
21
29.4646035968
31
0.0000000000
11
-23.9102292621
21
29.3898472859
31
0.0000000000
11
-23.9505378563
21
29.3024518919
31
0.0000000000
11
-23.9791955893
21
29.2033158105
31
0.0000000000
11
-23.9953259276
21
29.0945348892
31
0.0000000000
11
-23.9989901240
21
29.0074657168
31
0.0000000000
0
SPLINE
5
378
100
AcDbEntity
8
0
100
AcDbSpline
62
7
6
CONTINUOUS
70
0
71
3
72
8
73
4
74
2
42
0.0000001000
43
0.0000001000
44
0.0000000001
12
0.2752855178
22
0.1080291225
32
0.0000000000
13
0.2752852879
23
0.1080297083
33
0.0000000000
40
0.0000000000
40
0.0000000000
40
0.0000000000
40
0.0000000000
40
1.0000000000
40
1.0000000000
40
1.0000000000
40
1.0000000000
10
10.2274405868
20
-32.8977385364
30
0.0000000000
10
10.3192024261
20
-32.8617288289
30
0.0000000000
10
10.4109642270
20
-32.8257190238
30
0.0000000000
10
10.5027259897
20
-32.7897091211
30
0.0000000000
11
10.2274405868
21
-32.8977385364
31
0.0000000000
11
10.5027259897
21
-32.7897091211
31
0.0000000000
0
SPLINE
5
379
100
AcDbEntity
8
0
100
AcDbSpline
62
7
6
CONTINUOUS
70
0
71
3
72
9
73
5
74
3
42
0.0000001000
43
0.0000001000
44
0.0000000001
12
0.2039158668
22
0.0800223353
32
0.0000000000
13
0.2039157407
23
0.0800226567
33
0.0000000000
40
0.0000000000
40
0.0000000000
40
0.0000000000
40
0.0000000000
40
0.7811245145
40
1.0000000000
40
1.0000000000
40
1.0000000000
40
1.0000000000
10
10.5027259897
20
-32.7897091211
30
0.0000000000
10
10.5558205505
20
-32.7688733185
30
0.0000000000
10
10.6237924897
20
-32.7421991649
30
0.0000000000
10
10.6917644079
20
-32.7155249577
30
0.0000000000
10
10.7066417934
20
-32.7096866251
30
0.0000000000
11
10.5027259897
21
-32.7897091211
31
0.0000000000
11
10.6620096337
21
-32.7272016152
31
0.0000000000
11
10.7066417934
21
-32.7096866251
31
0.0000000000
0
SPLINE
5
37A
100
AcDbEntity
8
0
100
AcDbSpline
62
7
6
CONTINUOUS
70
0
71
3
72
9
73
5
74
3
42
0.0000001000
43
0.0000001000
44
0.0000000001
12
-0.1505379374
22
-0.0932535706
32
0.0000000000
13
-0.1505378258
23
-0.0932537508
33
0.0000000000
40
0.0000000000
40
0.0000000000
40
0.0000000000
40
0.0000000000
40
0.0698469620
40
1.0000000000
40
1.0000000000
40
1.0000000000
40
1.0000000000
10
-23.3501257950
20
29.8083758496
30
0.0000000000
10
-23.3536306675
20
29.8062046901
30
0.0000000000
10
-23.4038099787
20
29.7751201645
30
0.0000000000
10
-23.4539892712
20
29.7440356088
30
0.0000000000
10
-23.5006636766
20
29.7151221889
30
0.0000000000
11
-23.3501257950
21
29.8083758496
31
0.0000000000
11
-23.3606404123
21
29.8018623706
31
0.0000000000
11
-23.5006636766
21
29.7151221889
31
0.0000000000
0
SPLINE
5
37B
100
AcDbEntity
8
0
100
AcDbSpline
62
7
6
CONTINUOUS
70
0
71
3
72
8
73
4
74
2
42
0.0000001000
43
0.0000001000
44
0.0000000001
12
-0.0033963103
22
-0.0021039142
32
0.0000000000
13
-0.0033963102
23
-0.0021039143
33
0.0000000000
40
0.0000000000
40
0.0000000000
40
0.0000000000
40
0.0000000000
40
1.0000000000
40
1.0000000000
40
1.0000000000
40
1.0000000000
10
-23.5006636766
20
29.7151221889
30
0.0000000000
10
-23.5017957800
20
29.7144208842
30
0.0000000000
10
-23.5029278834
20
29.7137195794
30
0.0000000000
10
-23.5040599868
20
29.7130182747
30
0.0000000000
11
-23.5006636766
21
29.7151221889
31
0.0000000000
11
-23.5040599868
21
29.7130182747
31
0.0000000000
0
SPLINE
5
37C
100
AcDbEntity
8
0
100
AcDbSpline
62
7
6
CONTINUOUS
70
0
71
3
72
8
73
4
74
2
42
0.0000001000
43
0.0000001000
44
0.0000000001
12
-0.1310383732
22
-0.0811744189
32
0.0000000000
13
-0.1310382886
23
-0.0811745555
33
0.0000000000
40
0.0000000000
40
0.0000000000
40
0.0000000000
40
0.0000000000
40
1.0000000000
40
1.0000000000
40
1.0000000000
40
1.0000000000
10
-23.5040599868
20
29.7130182747
30
0.0000000000
10
-23.5477394446
20
29.6859601350
30
0.0000000000
10
-23.5914188882
20
29.6589019726
30
0.0000000000
10
-23.6350983178
20
29.6318437875
30
0.0000000000
11
-23.5040599868
21
29.7130182747
31
0.0000000000
11
-23.6350983178
21
29.6318437875
31
0.0000000000
0
SPLINE
5
37D
100
AcDbEntity
8
0
100
AcDbSpline
62
7
6
CONTINUOUS
70
0
71
3
72
8
73
4
74
2
42
0.0000001000
43
0.0000001000
44
0.0000000001
12
-0.1149176426
22
-0.0711882661
32
0.0000000000
13
-0.1149175775
23
-0.0711883711
33
0.0000000000
40
0.0000000000
40
0.0000000000
40
0.0000000000
40
0.0000000000
40
1.0000000000
40
1.0000000000
40
1.0000000000
40
1.0000000000
10
-23.6350983178
20
29.6318437875
30
0.0000000000
10
-23.6734041986
20
29.6081143654
30
0.0000000000
10
-23.7117100686
20
29.5843849259
30
0.0000000000
10
-23.7500159278
20
29.5606554689
30
0.0000000000
11
-23.6350983178
21
29.6318437875
31
0.0000000000
11
-23.7500159278
21
29.5606554689
31
0.0000000000
0
SPLINE
5
37E
100
AcDbEntity
8
0
100
AcDbSpline
62
7
6
CONTINUOUS
70
0
71
3
72
13
73
9
74
7
42
0.0000001000
43
0.0000001000
44
0.0000000001
12
0.4228218689
22
0.2476565969
32
0.0000000000
13
0.4374291760
23
-0.2187145880
33
0.0000000000
40
0.0000000000
40
0.0000000000
40
0.0000000000
40
0.0000000000
40
0.0885502685
40
0.2535787791
40
0.4241150014
40
0.6038384629
40
0.7953296426
40
1.0000000000
40
1.0000000000
40
1.0000000000
40
1.0000000000
10
-42.4814197727
20
57.6746696641
30
0.0000000000
10
-42.4689394427
20
57.6819796835
30
0.0000000000
10
-42.4320012655
20
57.7008659991
30
0.0000000000
10
-42.3655747600
20
57.7218495696
30
0.0000000000
10
-42.2814368464
20
57.7302183804
30
0.0000000000
10
-42.1930081184
20
57.7222878987
30
0.0000000000
10
-42.1018357681
20
57.6984072013
30
0.0000000000
10
-42.0421864595
20
57.6730498835
30
0.0000000000
10
-42.0123435309
20
57.6581284192
30
0.0000000000
11
-42.4814197727
21
57.6746696641
31
0.0000000000
11
-42.4428028654
21
57.6943968296
31
0.0000000000
11
-42.3658969215
21
57.7188797107
31
0.0000000000
11
-42.2829415809
21
57.7275051856
31
0.0000000000
11
-42.1953562328
21
57.7201256701
31
0.0000000000
11
-42.1046394865
21
57.6968674296
31
0.0000000000
11
-42.0123435309
21
57.6581284192
31
0.0000000000
0
SPLINE
5
37F
100
AcDbEntity
8
0
100
AcDbSpline
62
7
6
CONTINUOUS
70
0
71
3
72
8
73
4
74
2
42
0.0000001000
43
0.0000001000
44
0.0000000001
12
-0.0003680906
22
0.0017415831
32
0.0000000000
13
-0.0007767484
23
0.0013422754
33
0.0000000000
40
0.0000000000
40
0.0000000000
40
0.0000000000
40
0.0000000000
40
1.0000000000
40
1.0000000000
40
1.0000000000
40
1.0000000000
10
-18.7614758121
20
3.0054787621
30
0.0000000000
10
-18.7615985090
20
3.0060592898
30
0.0000000000
10
-18.7617890067
20
3.0066029493
30
0.0000000000
10
-18.7620479228
20
3.0070503744
30
0.0000000000
11
-18.7614758121
21
3.0054787621
31
0.0000000000
11
-18.7620479228
21
3.0070503744
31
0.0000000000
0
SPLINE
5
380
100
AcDbEntity
8
0
100
AcDbSpline
62
7
6
CONTINUOUS
70
0
71
3
72
8
73
4
74
2
42
0.0000001000
43
0.0000001000
44
0.0000000001
12
-0.0003680906
22
0.0017415831
32
0.0000000000
13
-0.0007767484
23
0.0013422754
33
0.0000000000
40
0.0000000000
40
0.0000000000
40
0.0000000000
40
0.0000000000
40
1.0000000000
40
1.0000000000
40
1.0000000000
40
1.0000000000
10
-18.7614758121
20
22.4910503472
30
0.0000000000
10
-18.7615985090
20
22.4916308749
30
0.0000000000
10
-18.7617890067
20
22.4921745345
30
0.0000000000
10
-18.7620479228
20
22.4926219596
30
0.0000000000
11
-18.7614758121
21
22.4910503472
31
0.0000000000
11
-18.7620479228
21
22.4926219596
31
0.0000000000
0
SPLINE
5
381
100
AcDbEntity
8
0
100
AcDbSpline
62
7
6
CONTINUOUS
70
0
71
3
72
8
73
4
74
2
42
0.0000001000
43
0.0000001000
44
0.0000000001
12
0.0007939798
22
-0.0013580555
32
0.0000000000
13
0.0003717627
23
-0.0017712456
33
0.0000000000
40
0.0000000000
40
0.0000000000
40
0.0000000000
40
0.0000000000
40
1.0000000000
40
1.0000000000
40
1.0000000000
40
1.0000000000
10
-6.7693787612
20
-17.6772443027
30
0.0000000000
10
-6.7691141013
20
-17.6776969879
30
0.0000000000
10
-6.7689201321
20
-17.6782496996
30
0.0000000000
10
-6.7687962113
20
-17.6788401148
30
0.0000000000
11
-6.7693787612
21
-17.6772443027
31
0.0000000000
11
-6.7687962113
21
-17.6788401148
31
0.0000000000
0
SPLINE
5
382
100
AcDbEntity
8
0
100
AcDbSpline
62
7
6
CONTINUOUS
70
0
71
3
72
8
73
4
74
2
42
0.0000001000
43
0.0000001000
44
0.0000000001
12
-0.0059390022
22
0.0029665274
32
0.0000000000
13
-0.0060206029
23
0.0028053642
33
0.0000000000
40
0.0000000000
40
0.0000000000
40
0.0000000000
40
0.0000000000
40
1.0000000000
40
1.0000000000
40
1.0000000000
40
1.0000000000
10
-10.9623631896
20
-15.5803539474
30
0.0000000000
10
-10.9643428570
20
-15.5793651050
30
0.0000000000
10
-10.9663360794
20
-15.5784024837
30
0.0000000000
10
-10.9683429471
20
-15.5774673623
30
0.0000000000
11
-10.9623631896
21
-15.5803539474
31
0.0000000000
11
-10.9683429471
21
-15.5774673623
31
0.0000000000
0
SPLINE
5
383
100
AcDbEntity
8
0
100
AcDbSpline
62
7
6
CONTINUOUS
70
0
71
3
72
9
73
5
74
3
42
0.0000001000
43
0.0000001000
44
0.0000000001
12
-0.0722203980
22
0.0336518650
32
0.0000000000
13
-0.0798205951
23
-0.0044958319
33
0.0000000000
40
0.0000000000
40
0.0000000000
40
0.0000000000
40
0.0000000000
40
0.5410997204
40
1.0000000000
40
1.0000000000
40
1.0000000000
40
1.0000000000
10
-10.9683429471
20
-15.5774673623
30
0.0000000000
10
-10.9813690928
20
-15.5713976907
30
0.0000000000
10
-11.0065049822
20
-15.5623215541
30
0.0000000000
10
-11.0331590882
20
-15.5595773888
30
0.0000000000
10
-11.0453689860
20
-15.5602651017
30
0.0000000000
11
-10.9683429471
21
-15.5774673623
31
0.0000000000
11
-11.0090156553
21
-15.5634294317
31
0.0000000000
11
-11.0453689860
21
-15.5602651017
31
0.0000000000
0
SPLINE
5
384
100
AcDbEntity
8
0
100
AcDbSpline
62
7
6
CONTINUOUS
70
0
71
3
72
8
73
4
74
2
42
0.0000001000
43
0.0000001000
44
0.0000000001
12
-0.0314728076
22
-0.0017726810
32
0.0000000000
13
-0.0291277978
23
-0.0116021870
33
0.0000000000
40
0.0000000000
40
0.0000000000
40
0.0000000000
40
0.0000000000
40
1.0000000000
40
1.0000000000
40
1.0000000000
40
1.0000000000
10
-11.0453689860
20
-15.5602651017
30
0.0000000000
10
-11.0558599219
20
-15.5608559953
30
0.0000000000
10
-11.0663348533
20
-15.5628842730
30
0.0000000000
10
-11.0760441192
20
-15.5667516687
30
0.0000000000
11
-11.0453689860
21
-15.5602651017
31
0.0000000000
11
-11.0760441192
21
-15.5667516687
31
0.0000000000
0
SPLINE
5
385
100
AcDbEntity
8
0
100
AcDbSpline
62
7
6
CONTINUOUS
70
0
71
3
72
10
73
6
74
4
42
0.0000001000
43
0.0000001000
44
0.0000000001
12
0.0774178382
22
0.0632233885
32
0.0000000000
13
0.0237236076
23
0.0965743011
33
0.0000000000
40
0.0000000000
40
0.0000000000
40
0.0000000000
40
0.0000000000
40
0.0185822240
40
0.4830448330
40
1.0000000000
40
1.0000000000
40
1.0000000000
40
1.0000000000
10
-7.4207627853
20
-18.9524205506
30
0.0000000000
10
-7.4202832535
20
-18.9520289402
30
0.0000000000
10
-7.4079018023
20
-18.9417503138
30
0.0000000000
10
-7.3868921814
20
-18.9152309440
30
0.0000000000
10
-7.3754274904
20
-18.8842758292
30
0.0000000000
10
-7.3713394765
20
-18.8676343012
30
0.0000000000
11
-7.4207627853
21
-18.9524205506
31
0.0000000000
11
-7.4193339551
21
-18.9512343783
31
0.0000000000
11
-7.3900453870
21
-18.9155191601
31
0.0000000000
11
-7.3713394765
21
-18.8676343012
31
0.0000000000
0
SPLINE
5
386
100
AcDbEntity
8
0
100
AcDbSpline
62
7
6
CONTINUOUS
70
0
71
3
72
8
73
4
74
2
42
0.0000001000
43
0.0000001000
44
0.0000000001
12
0.0007939798
22
-0.0013580555
32
0.0000000000
13
0.0003717627
23
-0.0017712456
33
0.0000000000
40
0.0000000000
40
0.0000000000
40
0.0000000000
40
0.0000000000
40
1.0000000000
40
1.0000000000
40
1.0000000000
40
1.0000000000
10
9.1405238155
20
-25.6321955911
30
0.0000000000
10
9.1407884754
20
-25.6326482762
30
0.0000000000
10
9.1409824446
20
-25.6332009879
30
0.0000000000
10
9.1411063654
20
-25.6337914031
30
0.0000000000
11
9.1405238155
21
-25.6321955911
31
0.0000000000
11
9.1411063654
21
-25.6337914031
31
0.0000000000
0
SPLINE
5
387
100
AcDbEntity
8
0
100
AcDbSpline
62
7
6
CONTINUOUS
70
0
71
3
72
8
73
4
74
2
42
0.0000001000
43
0.0000001000
44
0.0000000001
12
-0.0059390022
22
0.0029665274
32
0.0000000000
13
-0.0060206029
23
0.0028053642
33
0.0000000000
40
0.0000000000
40
0.0000000000
40
0.0000000000
40
0.0000000000
40
1.0000000000
40
1.0000000000
40
1.0000000000
40
1.0000000000
10
4.9475393871
20
-23.5353052358
30
0.0000000000
10
4.9455597197
20
-23.5343163933
30
0.0000000000
10
4.9435664973
20
-23.5333537721
30
0.0000000000
10
4.9415596296
20
-23.5324186507
30
0.0000000000
11
4.9475393871
21
-23.5353052358
31
0.0000000000
11
4.9415596296
21
-23.5324186507
31
0.0000000000
0
SPLINE
5
388
100
AcDbEntity
8
0
100
AcDbSpline
62
7
6
CONTINUOUS
70
0
71
3
72
9
73
5
74
3
42
0.0000001000
43
0.0000001000
44
0.0000000001
12
-0.0722203980
22
0.0336518650
32
0.0000000000
13
-0.0798205951
23
-0.0044958319
33
0.0000000000
40
0.0000000000
40
0.0000000000
40
0.0000000000
40
0.0000000000
40
0.5410997204
40
1.0000000000
40
1.0000000000
40
1.0000000000
40
1.0000000000
10
4.9415596296
20
-23.5324186507
30
0.0000000000
10
4.9285334839
20
-23.5263489791
30
0.0000000000
10
4.9033975945
20
-23.5172728424
30
0.0000000000
10
4.8767434885
20
-23.5145286772
30
0.0000000000
10
4.8645335907
20
-23.5152163900
30
0.0000000000
11
4.9415596296
21
-23.5324186507
31
0.0000000000
11
4.9008869214
21
-23.5183807201
31
0.0000000000
11
4.8645335907
21
-23.5152163900
31
0.0000000000
0
SPLINE
5
389
100
AcDbEntity
8
0
100
AcDbSpline
62
7
6
CONTINUOUS
70
0
71
3
72
8
73
4
74
2
42
0.0000001000
43
0.0000001000
44
0.0000000001
12
-0.0314728076
22
-0.0017726810
32
0.0000000000
13
-0.0291277978
23
-0.0116021870
33
0.0000000000
40
0.0000000000
40
0.0000000000
40
0.0000000000
40
0.0000000000
40
1.0000000000
40
1.0000000000
40
1.0000000000
40
1.0000000000
10
4.8645335907
20
-23.5152163900
30
0.0000000000
10
4.8540426548
20
-23.5158072837
30
0.0000000000
10
4.8435677234
20
-23.5178355614
30
0.0000000000
10
4.8338584575
20
-23.5217029571
30
0.0000000000
11
4.8645335907
21
-23.5152163900
31
0.0000000000
11
4.8338584575
21
-23.5217029571
31
0.0000000000
0
SPLINE
5
38A
100
AcDbEntity
8
0
100
AcDbSpline
62
7
6
CONTINUOUS
70
0
71
3
72
10
73
6
74
4
42
0.0000001000
43
0.0000001000
44
0.0000000001
12
0.0774178382
22
0.0632233885
32
0.0000000000
13
0.0237236076
23
0.0965743011
33
0.0000000000
40
0.0000000000
40
0.0000000000
40
0.0000000000
40
0.0000000000
40
0.0185822240
40
0.4830448330
40
1.0000000000
40
1.0000000000
40
1.0000000000
40
1.0000000000
10
8.4891397914
20
-26.9073718389
30
0.0000000000
10
8.4896193232
20
-26.9069802285
30
0.0000000000
10
8.5020007744
20
-26.8967016021
30
0.0000000000
10
8.5230103953
20
-26.8701822323
30
0.0000000000
10
8.5344750863
20
-26.8392271175
30
0.0000000000
10
8.5385631002
20
-26.8225855896
30
0.0000000000
11
8.4891397914
21
-26.9073718389
31
0.0000000000
11
8.4905686216
21
-26.9061856666
31
0.0000000000
11
8.5198571897
21
-26.8704704484
31
0.0000000000
11
8.5385631002
21
-26.8225855896
31
0.0000000000
0
SPLINE
5
38B
100
AcDbEntity
8
0
100
AcDbSpline
62
7
6
CONTINUOUS
70
0
71
3
72
9
73
5
74
3
42
0.0000001000
43
0.0000001000
44
0.0000000001
12
0.1491928099
22
-0.0745964049
32
0.0000000000
13
0.1334988443
23
-0.1001267338
33
0.0000000000
40
0.0000000000
40
0.0000000000
40
0.0000000000
40
0.0000000000
40
0.6397343332
40
1.0000000000
40
1.0000000000
40
1.0000000000
40
1.0000000000
10
40.0120430868
20
16.6459351104
30
0.0000000000
10
40.0438576743
20
16.6300278166
30
0.0000000000
10
40.0919851300
20
16.6018650649
30
0.0000000000
10
40.1374340845
20
16.5697530072
30
0.0000000000
10
40.1534657679
20
16.5577289323
30
0.0000000000
11
40.0120430868
21
16.6459351104
31
0.0000000000
11
40.1043390424
21
16.5923781652
31
0.0000000000
11
40.1534657679
21
16.5577289323
31
0.0000000000
0
SPLINE
5
38C
100
AcDbEntity
8
0
100
AcDbSpline
62
7
6
CONTINUOUS
70
0
71
3
72
15
73
11
74
9
42
0.0000001000
43
0.0000001000
44
0.0000000001
12
0.0000000000
22
-0.6558651134
32
0.0000000000
13
-0.6058654147
23
-0.2542069574
33
0.0000000000
40
0.0000000000
40
0.0000000000
40
0.0000000000
40
0.0000000000
40
0.1679926138
40
0.3260511824
40
0.4740532138
40
0.6126084134
40
0.7431680501
40
0.8680522524
40
0.9903104934
40
1.0000000000
40
1.0000000000
40
1.0000000000
40
1.0000000000
10
40.7191498680
20
-54.7217013905
30
0.0000000000
10
40.7191498680
20
-54.7584282221
30
0.0000000000
10
40.7154595680
20
-54.8297901319
30
0.0000000000
10
40.6977894824
20
-54.9321828548
30
0.0000000000
10
40.6683680848
20
-55.0251844461
30
0.0000000000
10
40.6275698019
20
-55.1072056104
30
0.0000000000
10
40.5759304768
20
-55.1767777054
30
0.0000000000
10
40.5142124471
20
-55.2325126866
30
0.0000000000
10
40.4651624026
20
-55.2607263896
30
0.0000000000
10
40.4386099956
20
-55.2721338659
30
0.0000000000
10
40.4366531499
20
-55.2729549125
30
0.0000000000
11
40.7191498680
21
-54.7217013905
31
0.0000000000
11
40.7131004714
21
-54.8317156906
31
0.0000000000
11
40.6950557887
21
-54.9337982189
31
0.0000000000
11
40.6653245692
21
-55.0262023152
31
0.0000000000
11
40.6244155225
21
-55.1073469197
31
0.0000000000
11
40.5730286136
21
-55.1758436257
31
0.0000000000
11
40.5120430868
21
-55.2305204356
31
0.0000000000
11
40.4425024213
21
-55.2704418141
31
0.0000000000
11
40.4366531499
21
-55.2729549125
31
0.0000000000
0
SPLINE
5
38D
100
AcDbEntity
8
0
100
AcDbSpline
62
7
6
CONTINUOUS
70
0
71
3
72
16
73
12
74
10
42
0.0000001000
43
0.0000001000
44
0.0000000001
12
0.0000000000
22
-0.2939996082
32
0.0000000000
13
0.2629612437
23
-0.1314806219
33
0.0000000000
40
0.0000000000
40
0.0000000000
40
0.0000000000
40
0.0000000000
40
0.1058018525
40
0.2177845790
40
0.3332706824
40
0.4518669241
40
0.5711534359
40
0.6869878441
40
0.7976062179
40
0.9026535091
40
1.0000000000
40
1.0000000000
40
1.0000000000
40
1.0000000000
10
-20.7991400953
20
-12.0902187281
30
0.0000000000
10
-20.7991400953
20
-12.1005872959
30
0.0000000000
10
-20.7975855534
20
-12.1219485301
30
0.0000000000
10
-20.7911839351
20
-12.1540475931
30
0.0000000000
10
-20.7808118082
20
-12.1864098500
30
0.0000000000
10
-20.7667296523
20
-12.2181193152
30
0.0000000000
10
-20.7493262148
20
-12.2481766219
30
0.0000000000
10
-20.7292128486
20
-12.2755298709
30
0.0000000000
10
-20.7070371167
20
-12.2993795296
30
0.0000000000
10
-20.6834228502
20
-12.3190911305
30
0.0000000000
10
-20.6664453369
20
-12.3295338165
30
0.0000000000
10
-20.6579125521
20
-12.3338002089
30
0.0000000000
11
-20.7991400953
21
-12.0902187281
31
0.0000000000
11
-20.7970092547
21
-12.1212513608
31
0.0000000000
11
-20.7906578682
21
-12.1535557841
31
0.0000000000
11
-20.7803421287
21
-12.1859036255
31
0.0000000000
11
-20.7662043074
21
-12.2177759808
31
0.0000000000
11
-20.7486133059
21
-12.2481153074
31
0.0000000000
11
-20.7283927261
21
-12.2755176723
31
0.0000000000
11
-20.7061795047
21
-12.2992713579
31
0.0000000000
11
-20.6823816347
21
-12.3189557259
31
0.0000000000
11
-20.6579125521
21
-12.3338002089
31
0.0000000000
0
SPLINE
5
38E
100
AcDbEntity
8
0
100
AcDbSpline
62
7
6
CONTINUOUS
70
0
71
3
72
9
73
5
74
3
42
0.0000001000
43
0.0000001000
44
0.0000000001
12
-0.0071119390
22
-0.0044310389
32
0.0000000000
13
-0.0072979866
23
-0.0041174231
33
0.0000000000
40
0.0000000000
40
0.0000000000
40
0.0000000000
40
0.0000000000
40
0.4954042628
40
1.0000000000
40
1.0000000000
40
1.0000000000
40
1.0000000000
10
-18.8120334991
20
-2.2241436606
30
0.0000000000
10
-18.8132079274
20
-2.2248753791
30
0.0000000000
10
-18.8155952814
20
-2.2263257254
30
0.0000000000
10
-18.8180135970
20
-2.2277238022
30
0.0000000000
10
-18.8192411080
20
-2.2284163469
30
0.0000000000
11
-18.8120334991
21
-2.2241436606
31
0.0000000000
11
-18.8155809369
21
-2.2262995663
31
0.0000000000
11
-18.8192411080
21
-2.2284163469
31
0.0000000000
0
SPLINE
5
38F
100
AcDbEntity
8
0
100
AcDbSpline
62
7
6
CONTINUOUS
70
0
71
3
72
11
73
7
74
5
42
0.0000001000
43
0.0000001000
44
0.0000000001
12
0.0489846578
22
0.0234670429
32
0.0000000000
13
0.0494135743
23
-0.0305888273
33
0.0000000000
40
0.0000000000
40
0.0000000000
40
0.0000000000
40
0.0000000000
40
0.4610891923
40
0.7929713932
40
0.9683193185
40
1.0000000000
40
1.0000000000
40
1.0000000000
40
1.0000000000
10
-19.2301827372
20
3.1982878308
30
0.0000000000
10
-19.2226539718
20
3.2018946308
30
0.0000000000
10
-19.2096498860
20
3.2083246597
30
0.0000000000
10
-19.1931456833
20
3.2133722151
30
0.0000000000
10
-19.1838456477
20
3.2176899036
30
0.0000000000
10
-19.1798315725
20
3.2159976727
30
0.0000000000
10
-19.1793097539
20
3.2156746478
30
0.0000000000
11
-19.2301827372
21
3.1982878308
31
0.0000000000
11
-19.2073580692
21
3.2085959035
31
0.0000000000
11
-19.1904314495
21
3.2147960276
31
0.0000000000
11
-19.1810497499
21
3.2164371142
31
0.0000000000
11
-19.1793097539
21
3.2156746478
31
0.0000000000
0
SPLINE
5
390
100
AcDbEntity
8
0
100
AcDbSpline
62
7
6
CONTINUOUS
70
0
71
3
72
8
73
4
74
2
42
0.0000001000
43
0.0000001000
44
0.0000000001
12
0.0084230026
22
0.0051704006
32
0.0000000000
13
0.0077799496
23
0.0061590990
33
0.0000000000
40
0.0000000000
40
0.0000000000
40
0.0000000000
40
0.0000000000
40
1.0000000000
40
1.0000000000
40
1.0000000000
40
1.0000000000
10
-18.8120334991
20
-2.2241436606
30
0.0000000000
10
-18.8092258316
20
-2.2224201937
30
0.0000000000
10
-18.8065202348
20
-2.2205193413
30
0.0000000000
10
-18.8039269182
20
-2.2184663083
30
0.0000000000
11
-18.8120334991
21
-2.2241436606
31
0.0000000000
11
-18.8039269182
21
-2.2184663083
31
0.0000000000
0
SPLINE
5
391
100
AcDbEntity
8
0
100
AcDbSpline
62
7
6
CONTINUOUS
70
0
71
3
72
11
73
7
74
5
42
0.0000001000
43
0.0000001000
44
0.0000000001
12
0.0971290845
22
0.0768935123
32
0.0000000000
13
0.0000431592
23
0.1235786944
33
0.0000000000
40
0.0000000000
40
0.0000000000
40
0.0000000000
40
0.0000000000
40
0.1663313428
40
0.4459366564
40
0.7738222358
40
1.0000000000
40
1.0000000000
40
1.0000000000
40
1.0000000000
10
-18.8039269182
20
-2.2184663083
30
0.0000000000
10
-18.7985417146
20
-2.2142030413
30
0.0000000000
10
-18.7854019706
20
-2.2010138145
30
0.0000000000
10
-18.7697801570
20
-2.1727569588
30
0.0000000000
10
-18.7619687909
20
-2.1390010322
30
0.0000000000
10
-18.7606615152
20
-2.1161835691
30
0.0000000000
10
-18.7606582613
20
-2.1068666515
30
0.0000000000
11
-18.8039269182
21
-2.2184663083
31
0.0000000000
11
-18.7893152330
21
-2.2039335279
31
0.0000000000
11
-18.7721470193
21
-2.1740084257
31
0.0000000000
11
-18.7623760879
21
-2.1347486753
31
0.0000000000
11
-18.7606582613
21
-2.1068666515
31
0.0000000000
0
SPLINE
5
392
100
AcDbEntity
8
0
100
AcDbSpline
62
7
6
CONTINUOUS
70
0
71
3
72
9
73
5
74
3
42
0.0000001000
43
0.0000001000
44
0.0000000001
12
-0.0794699131
22
0.0136553629
32
0.0000000000
13
-0.0726390897
23
-0.0359957108
33
0.0000000000
40
0.0000000000
40
0.0000000000
40
0.0000000000
40
0.0000000000
40
0.5796113115
40
1.0000000000
40
1.0000000000
40
1.0000000000
40
1.0000000000
10
-19.9701604294
20
2.8621175228
30
0.0000000000
10
-19.9855143162
20
2.8647557904
30
0.0000000000
10
-20.0129941754
20
2.8655187561
30
0.0000000000
10
-20.0390610779
20
2.8571570022
30
0.0000000000
10
-20.0492399618
20
2.8521129390
30
0.0000000000
11
-19.9701604294
21
2.8621175228
31
0.0000000000
11
-20.0168949089
21
2.8625747946
31
0.0000000000
11
-20.0492399618
21
2.8521129390
31
0.0000000000
0
SPLINE
5
393
100
AcDbEntity
8
0
100
AcDbSpline
62
7
6
CONTINUOUS
70
0
71
3
72
9
73
5
74
3
42
0.0000001000
43
0.0000001000
44
0.0000000001
12
-0.0071119390
22
-0.0044310389
32
0.0000000000
13
-0.0072979866
23
-0.0041174231
33
0.0000000000
40
0.0000000000
40
0.0000000000
40
0.0000000000
40
0.0000000000
40
0.4954042628
40
1.0000000000
40
1.0000000000
40
1.0000000000
40
1.0000000000
10
-18.8120334991
20
17.2614279246
30
0.0000000000
10
-18.8132079274
20
17.2606962061
30
0.0000000000
10
-18.8155952814
20
17.2592458597
30
0.0000000000
10
-18.8180135970
20
17.2578477830
30
0.0000000000
10
-18.8192411080
20
17.2571552383
30
0.0000000000
11
-18.8120334991
21
17.2614279246
31
0.0000000000
11
-18.8155809369
21
17.2592720188
31
0.0000000000
11
-18.8192411080
21
17.2571552383
31
0.0000000000
0
SPLINE
5
394
100
AcDbEntity
8
0
100
AcDbSpline
62
7
6
CONTINUOUS
70
0
71
3
72
11
73
7
74
5
42
0.0000001000
43
0.0000001000
44
0.0000000001
12
0.0489846578
22
0.0234670429
32
0.0000000000
13
0.0494135743
23
-0.0305888273
33
0.0000000000
40
0.0000000000
40
0.0000000000
40
0.0000000000
40
0.0000000000
40
0.4610891923
40
0.7929713932
40
0.9683193185
40
1.0000000000
40
1.0000000000
40
1.0000000000
40
1.0000000000
10
-19.2301827372
20
22.6838594160
30
0.0000000000
10
-19.2226539718
20
22.6874662159
30
0.0000000000
10
-19.2096498860
20
22.6938962449
30
0.0000000000
10
-19.1931456833
20
22.6989438002
30
0.0000000000
10
-19.1838456477
20
22.7032614887
30
0.0000000000
10
-19.1798315725
20
22.7015692579
30
0.0000000000
10
-19.1793097539
20
22.7012462329
30
0.0000000000
11
-19.2301827372
21
22.6838594160
31
0.0000000000
11
-19.2073580692
21
22.6941674886
31
0.0000000000
11
-19.1904314495
21
22.7003676127
31
0.0000000000
11
-19.1810497499
21
22.7020086993
31
0.0000000000
11
-19.1793097539
21
22.7012462329
31
0.0000000000
0
SPLINE
5
395
100
AcDbEntity
8
0
100
AcDbSpline
62
7
6
CONTINUOUS
70
0
71
3
72
8
73
4
74
2
42
0.0000001000
43
0.0000001000
44
0.0000000001
12
0.0084230026
22
0.0051704006
32
0.0000000000
13
0.0077799496
23
0.0061590990
33
0.0000000000
40
0.0000000000
40
0.0000000000
40
0.0000000000
40
0.0000000000
40
1.0000000000
40
1.0000000000
40
1.0000000000
40
1.0000000000
10
-18.8120334991
20
17.2614279246
30
0.0000000000
10
-18.8092258316
20
17.2631513915
30
0.0000000000
10
-18.8065202348
20
17.2650522438
30
0.0000000000
10
-18.8039269182
20
17.2671052768
30
0.0000000000
11
-18.8120334991
21
17.2614279246
31
0.0000000000
11
-18.8039269182
21
17.2671052768
31
0.0000000000
0
SPLINE
5
396
100
AcDbEntity
8
0
100
AcDbSpline
62
7
6
CONTINUOUS
70
0
71
3
72
11
73
7
74
5
42
0.0000001000
43
0.0000001000
44
0.0000000001
12
0.0971290845
22
0.0768935123
32
0.0000000000
13
0.0000431592
23
0.1235786944
33
0.0000000000
40
0.0000000000
40
0.0000000000
40
0.0000000000
40
0.0000000000
40
0.1663313428
40
0.4459366564
40
0.7738222358
40
1.0000000000
40
1.0000000000
40
1.0000000000
40
1.0000000000
10
-18.8039269182
20
17.2671052768
30
0.0000000000
10
-18.7985417146
20
17.2713685439
30
0.0000000000
10
-18.7854019706
20
17.2845577706
30
0.0000000000
10
-18.7697801570
20
17.3128146264
30
0.0000000000
10
-18.7619687909
20
17.3465705530
30
0.0000000000
10
-18.7606615152
20
17.3693880160
30
0.0000000000
10
-18.7606582613
20
17.3787049336
30
0.0000000000
11
-18.8039269182
21
17.2671052768
31
0.0000000000
11
-18.7893152330
21
17.2816380572
31
0.0000000000
11
-18.7721470193
21
17.3115631595
31
0.0000000000
11
-18.7623760879
21
17.3508229099
31
0.0000000000
11
-18.7606582613
21
17.3787049336
31
0.0000000000
0
SPLINE
5
397
100
AcDbEntity
8
0
100
AcDbSpline
62
7
6
CONTINUOUS
70
0
71
3
72
9
73
5
74
3
42
0.0000001000
43
0.0000001000
44
0.0000000001
12
-0.0794699131
22
0.0136553629
32
0.0000000000
13
-0.0726390897
23
-0.0359957108
33
0.0000000000
40
0.0000000000
40
0.0000000000
40
0.0000000000
40
0.0000000000
40
0.5796113115
40
1.0000000000
40
1.0000000000
40
1.0000000000
40
1.0000000000
10
-19.9701604294
20
22.3476891079
30
0.0000000000
10
-19.9855143162
20
22.3503273755
30
0.0000000000
10
-20.0129941754
20
22.3510903413
30
0.0000000000
10
-20.0390610779
20
22.3427285873
30
0.0000000000
10
-20.0492399618
20
22.3376845241
30
0.0000000000
11
-19.9701604294
21
22.3476891079
31
0.0000000000
11
-20.0168949089
21
22.3481463797
31
0.0000000000
11
-20.0492399618
21
22.3376845241
31
0.0000000000
0
SPLINE
5
398
100
AcDbEntity
8
0
100
AcDbSpline
62
7
6
CONTINUOUS
70
0
71
3
72
9
73
5
74
3
42
0.0000001000
43
0.0000001000
44
0.0000000001
12
0.0077036343
22
0.0034681917
32
0.0000000000
13
0.0078730259
23
0.0030642778
33
0.0000000000
40
0.0000000000
40
0.0000000000
40
0.0000000000
40
0.0000000000
40
0.5038139722
40
1.0000000000
40
1.0000000000
40
1.0000000000
40
1.0000000000
10
-11.0838334332
20
-15.5700210621
30
0.0000000000
10
-11.0825397003
20
-15.5694386209
30
0.0000000000
10
-11.0799571270
20
-15.5683149023
30
0.0000000000
10
-11.0773462810
20
-15.5672584860
30
0.0000000000
10
-11.0760441192
20
-15.5667516687
30
0.0000000000
11
-11.0838334332
21
-15.5700210621
31
0.0000000000
11
-11.0799302509
21
-15.5683234139
31
0.0000000000
11
-11.0760441192
21
-15.5667516687
31
0.0000000000
0
SPLINE
5
399
100
AcDbEntity
8
0
100
AcDbSpline
62
7
6
CONTINUOUS
70
0
71
3
72
13
73
9
74
7
42
0.0000001000
43
0.0000001000
44
0.0000000001
12
0.0635281429
22
0.0460416957
32
0.0000000000
13
-0.0274942937
23
0.0599031400
33
0.0000000000
40
0.0000000000
40
0.0000000000
40
0.0000000000
40
0.0000000000
40
0.3320932760
40
0.6016748525
40
0.7994672382
40
0.9301754932
40
0.9994962578
40
1.0000000000
40
1.0000000000
40
1.0000000000
40
1.0000000000
10
-6.8265636666
20
-18.2412153158
30
0.0000000000
10
-6.8195312436
20
-18.2361186033
30
0.0000000000
10
-6.8068092350
20
-18.2267125225
30
0.0000000000
10
-6.7906394818
20
-18.2139170707
30
0.0000000000
10
-6.7782033331
20
-18.2033336591
30
0.0000000000
10
-6.7720971193
20
-18.1966223299
30
0.0000000000
10
-6.7673704660
20
-18.1912847240
30
0.0000000000
10
-6.7679942218
20
-18.1898871270
30
0.0000000000
10
-6.7679988385
20
-18.1898770685
30
0.0000000000
11
-6.8265636666
21
-18.2412153158
31
0.0000000000
11
-6.8056558568
21
-18.2256671147
31
0.0000000000
11
-6.7890992211
21
-18.2125052061
31
0.0000000000
11
-6.7774567938
21
-18.2022448619
31
0.0000000000
11
-6.7704526824
21
-18.1947542175
31
0.0000000000
11
-6.7679853399
21
-18.1899073167
31
0.0000000000
11
-6.7679988385
21
-18.1898770685
31
0.0000000000
0
SPLINE
5
39A
100
AcDbEntity
8
0
100
AcDbSpline
62
7
6
CONTINUOUS
70
0
71
3
72
9
73
5
74
3
42
0.0000001000
43
0.0000001000
44
0.0000000001
12
0.0077036343
22
0.0034681917
32
0.0000000000
13
0.0078730259
23
0.0030642778
33
0.0000000000
40
0.0000000000
40
0.0000000000
40
0.0000000000
40
0.0000000000
40
0.5038139722
40
1.0000000000
40
1.0000000000
40
1.0000000000
40
1.0000000000
10
4.8260691435
20
-23.5249723504
30
0.0000000000
10
4.8273628764
20
-23.5243899093
30
0.0000000000
10
4.8299454497
20
-23.5232661906
30
0.0000000000
10
4.8325562957
20
-23.5222097743
30
0.0000000000
10
4.8338584575
20
-23.5217029571
30
0.0000000000
11
4.8260691435
21
-23.5249723504
31
0.0000000000
11
4.8299723258
21
-23.5232747022
31
0.0000000000
11
4.8338584575
21
-23.5217029571
31
0.0000000000
0
SPLINE
5
39B
100
AcDbEntity
8
0
100
AcDbSpline
62
7
6
CONTINUOUS
70
0
71
3
72
13
73
9
74
7
42
0.0000001000
43
0.0000001000
44
0.0000000001
12
0.0635281429
22
0.0460416957
32
0.0000000000
13
-0.0274942937
23
0.0599031400
33
0.0000000000
40
0.0000000000
40
0.0000000000
40
0.0000000000
40
0.0000000000
40
0.3320932760
40
0.6016748525
40
0.7994672382
40
0.9301754932
40
0.9994962578
40
1.0000000000
40
1.0000000000
40
1.0000000000
40
1.0000000000
10
9.0833389100
20
-26.1961666041
30
0.0000000000
10
9.0903713331
20
-26.1910698916
30
0.0000000000
10
9.1030933417
20
-26.1816638108
30
0.0000000000
10
9.1192630949
20
-26.1688683590
30
0.0000000000
10
9.1316992436
20
-26.1582849474
30
0.0000000000
10
9.1378054574
20
-26.1515736182
30
0.0000000000
10
9.1425321107
20
-26.1462360123
30
0.0000000000
10
9.1419083549
20
-26.1448384154
30
0.0000000000
10
9.1419037382
20
-26.1448283568
30
0.0000000000
11
9.0833389100
21
-26.1961666041
31
0.0000000000
11
9.1042467199
21
-26.1806184030
31
0.0000000000
11
9.1208033556
21
-26.1674564944
31
0.0000000000
11
9.1324457829
21
-26.1571961503
31
0.0000000000
11
9.1394498943
21
-26.1497055059
31
0.0000000000
11
9.1419172368
21
-26.1448586050
31
0.0000000000
11
9.1419037382
21
-26.1448283568
31
0.0000000000
0
SPLINE
5
39C
100
AcDbEntity
8
0
100
AcDbSpline
62
7
6
CONTINUOUS
70
0
71
3
72
10
73
6
74
4
42
0.0000001000
43
0.0000001000
44
0.0000000001
12
-0.0070351600
22
0.0121572469
32
0.0000000000
13
-0.0149894349
23
-0.0057067634
33
0.0000000000
40
0.0000000000
40
0.0000000000
40
0.0000000000
40
0.0000000000
40
0.0423491130
40
0.6947250133
40
1.0000000000
40
1.0000000000
40
1.0000000000
40
1.0000000000
10
-18.7620479228
20
3.0070503744
30
0.0000000000
10
-18.7621472337
20
3.0072219906
30
0.0000000000
10
-18.7639415278
20
3.0098050449
30
0.0000000000
10
-18.7704369495
20
3.0067410114
30
0.0000000000
10
-18.7754839822
20
3.0047310809
30
0.0000000000
10
-18.7770092820
20
3.0041503702
30
0.0000000000
11
-18.7620479228
21
3.0070503744
31
0.0000000000
11
-18.7623760879
21
3.0075193986
31
0.0000000000
11
-18.7721470193
21
3.0061064408
31
0.0000000000
11
-18.7770092820
21
3.0041503702
31
0.0000000000
0
SPLINE
5
39D
100
AcDbEntity
8
0
100
AcDbSpline
62
7
6
CONTINUOUS
70
0
71
3
72
9
73
5
74
3
42
0.0000001000
43
0.0000001000
44
0.0000000001
12
-0.0383571091
22
-0.0146032820
32
0.0000000000
13
-0.0349186577
23
-0.0167428169
33
0.0000000000
40
0.0000000000
40
0.0000000000
40
0.0000000000
40
0.0000000000
40
0.3540958246
40
1.0000000000
40
1.0000000000
40
1.0000000000
40
1.0000000000
10
-18.7770092820
20
3.0041503702
30
0.0000000000
10
-18.7815366461
20
3.0024267165
30
0.0000000000
10
-18.7922431565
20
2.9990519003
30
0.0000000000
10
-18.8045154635
20
2.9928179635
30
0.0000000000
10
-18.8120334991
20
2.9892132117
30
0.0000000000
11
-18.7770092820
21
3.0041503702
31
0.0000000000
11
-18.7893152330
21
2.9996782123
31
0.0000000000
11
-18.8120334991
21
2.9892132117
31
0.0000000000
0
SPLINE
5
39E
100
AcDbEntity
8
0
100
AcDbSpline
62
7
6
CONTINUOUS
70
0
71
3
72
10
73
6
74
4
42
0.0000001000
43
0.0000001000
44
0.0000000001
12
-12.3541427848
22
5.1416753245
32
0.0000000000
13
-12.0668308451
23
5.7845431786
33
0.0000000000
40
0.0000000000
40
0.0000000000
40
0.0000000000
40
0.0000000000
40
0.4385674512
40
0.8786919591
40
1.0000000000
40
1.0000000000
40
1.0000000000
40
1.0000000000
10
9.0660964905
20
-31.3889624310
30
0.0000000000
10
7.2600548530
20
-30.6373052838
30
0.0000000000
10
3.6589529958
20
-29.0891385828
30
0.0000000000
10
-0.3973174825
20
-27.2328577674
30
0.0000000000
10
-2.6589751501
20
-26.1574524355
30
0.0000000000
10
-3.1469096866
20
-25.9235485687
30
0.0000000000
11
9.0660964905
21
-31.3889624310
31
0.0000000000
11
3.6745239536
21
-29.0712222922
31
0.0000000000
11
-1.6808966510
21
-26.6206241394
31
0.0000000000
11
-3.1469096866
21
-25.9235485687
31
0.0000000000
0
SPLINE
5
39F
100
AcDbEntity
8
0
100
AcDbSpline
62
7
6
CONTINUOUS
70
0
71
3
72
8
73
4
74
2
42
0.0000001000
43
0.0000001000
44
0.0000000001
12
-0.8762244651
22
0.4200405490
32
0.0000000000
13
-0.8746305922
23
0.4233506886
33
0.0000000000
40
0.0000000000
40
0.0000000000
40
0.0000000000
40
0.0000000000
40
1.0000000000
40
1.0000000000
40
1.0000000000
40
1.0000000000
10
-3.1469096866
20
-25.9235485687
30
0.0000000000
10
-3.4389845083
20
-25.7835350524
30
0.0000000000
10
-3.7307945149
20
-25.6429688858
30
0.0000000000
10
-4.0223380457
20
-25.5018519896
30
0.0000000000
11
-3.1469096866
21
-25.9235485687
31
0.0000000000
11
-4.0223380457
21
-25.5018519896
31
0.0000000000
0
SPLINE
5
3A0
100
AcDbEntity
8
0
100
AcDbSpline
62
7
6
CONTINUOUS
70
0
71
3
72
11
73
7
74
5
42
0.0000001000
43
0.0000001000
44
0.0000000001
12
-18.4307319657
22
8.9210955334
32
0.0000000000
13
-17.6786559249
23
10.3310761101
33
0.0000000000
40
0.0000000000
40
0.0000000000
40
0.0000000000
40
0.0000000000
40
0.1619225262
40
0.4516051605
40
0.7423155009
40
1.0000000000
40
1.0000000000
40
1.0000000000
40
1.0000000000
10
-4.0223380457
20
-25.5018519896
30
0.0000000000
10
-5.0171216053
20
-25.0203432146
30
0.0000000000
10
-7.7829399636
20
-23.6595226191
30
0.0000000000
10
-12.2886780492
20
-21.3416983317
30
0.0000000000
10
-17.3149000744
20
-18.6100216332
30
0.0000000000
10
-20.5651929488
20
-16.7532549039
30
0.0000000000
10
-22.0836981475
20
-15.8658688465
30
0.0000000000
11
-4.0223380457
21
-25.5018519896
31
0.0000000000
11
-6.9973153238
21
-24.0381661745
31
0.0000000000
11
-12.2719549554
21
-21.3250946153
31
0.0000000000
11
-17.5021170328
21
-18.4829014073
31
0.0000000000
11
-22.0836981475
21
-15.8658688465
31
0.0000000000
0
SPLINE
5
3A1
100
AcDbEntity
8
0
100
AcDbSpline
62
7
6
CONTINUOUS
70
0
71
3
72
8
73
4
74
2
42
0.0000001000
43
0.0000001000
44
0.0000000001
12
-0.6019522664
22
0.3517696541
32
0.0000000000
13
-0.6010317608
23
0.3533292167
33
0.0000000000
40
0.0000000000
40
0.0000000000
40
0.0000000000
40
0.0000000000
40
1.0000000000
40
1.0000000000
40
1.0000000000
40
1.0000000000
10
-22.0836981475
20
-15.8658688465
30
0.0000000000
10
-22.2843489030
20
-15.7486122952
30
0.0000000000
10
-22.4848465245
20
-15.6310953689
30
0.0000000000
10
-22.6851904448
20
-15.5133189634
30
0.0000000000
11
-22.0836981475
21
-15.8658688465
31
0.0000000000
11
-22.6851904448
21
-15.5133189634
31
0.0000000000
0
SPLINE
5
3A2
100
AcDbEntity
8
0
100
AcDbSpline
62
7
6
CONTINUOUS
70
0
71
3
72
10
73
6
74
4
42
0.0000001000
43
0.0000001000
44
0.0000000001
12
-0.0070351600
22
0.0121572469
32
0.0000000000
13
-0.0149894349
23
-0.0057067634
33
0.0000000000
40
0.0000000000
40
0.0000000000
40
0.0000000000
40
0.0000000000
40
0.0423491130
40
0.6947250133
40
1.0000000000
40
1.0000000000
40
1.0000000000
40
1.0000000000
10
-18.7620479228
20
22.4926219596
30
0.0000000000
10
-18.7621472337
20
22.4927935758
30
0.0000000000
10
-18.7639415278
20
22.4953766300
30
0.0000000000
10
-18.7704369495
20
22.4923125966
30
0.0000000000
10
-18.7754839822
20
22.4903026661
30
0.0000000000
10
-18.7770092820
20
22.4897219554
30
0.0000000000
11
-18.7620479228
21
22.4926219596
31
0.0000000000
11
-18.7623760879
21
22.4930909837
31
0.0000000000
11
-18.7721470193
21
22.4916780259
31
0.0000000000
11
-18.7770092820
21
22.4897219554
31
0.0000000000
0
SPLINE
5
3A3
100
AcDbEntity
8
0
100
AcDbSpline
62
7
6
CONTINUOUS
70
0
71
3
72
9
73
5
74
3
42
0.0000001000
43
0.0000001000
44
0.0000000001
12
-0.0383571091
22
-0.0146032820
32
0.0000000000
13
-0.0349186577
23
-0.0167428169
33
0.0000000000
40
0.0000000000
40
0.0000000000
40
0.0000000000
40
0.0000000000
40
0.3540958246
40
1.0000000000
40
1.0000000000
40
1.0000000000
40
1.0000000000
10
-18.7770092820
20
22.4897219554
30
0.0000000000
10
-18.7815366461
20
22.4879983016
30
0.0000000000
10
-18.7922431565
20
22.4846234854
30
0.0000000000
10
-18.8045154635
20
22.4783895487
30
0.0000000000
10
-18.8120334991
20
22.4747847969
30
0.0000000000
11
-18.7770092820
21
22.4897219554
31
0.0000000000
11
-18.7893152330
21
22.4852497974
31
0.0000000000
11
-18.8120334991
21
22.4747847969
31
0.0000000000
0
SPLINE
5
3A4
100
AcDbEntity
8
0
100
AcDbSpline
62
7
6
CONTINUOUS
70
0
71
3
72
10
73
6
74
4
42
0.0000001000
43
0.0000001000
44
0.0000000001
12
0.0027977932
22
-0.0706832750
32
0.0000000000
13
0.0324604730
23
-0.0628511791
33
0.0000000000
40
0.0000000000
40
0.0000000000
40
0.0000000000
40
0.0000000000
40
0.3539233778
40
0.6872856488
40
1.0000000000
40
1.0000000000
40
1.0000000000
40
1.0000000000
10
-22.7017456717
20
28.0717874134
30
0.0000000000
10
-22.7014156035
20
28.0634485922
30
0.0000000000
10
-22.6998198742
20
28.0472684878
30
0.0000000000
10
-22.6943514411
20
28.0242576840
30
0.0000000000
10
-22.6885740633
20
28.0100721800
30
0.0000000000
10
-22.6851904448
20
28.0035206914
30
0.0000000000
11
-22.7017456717
21
28.0717874134
31
0.0000000000
11
-22.6991986410
21
28.0468812578
31
0.0000000000
11
-22.6936410049
21
28.0239639281
31
0.0000000000
11
-22.6851904448
21
28.0035206914
31
0.0000000000
0
SPLINE
5
3A5
100
AcDbEntity
8
0
100
AcDbSpline
62
7
6
CONTINUOUS
70
0
71
3
72
15
73
11
74
9
42
0.0000001000
43
0.0000001000
44
0.0000000001
12
0.2537075367
22
-0.1331081999
32
0.0000000000
13
0.2612506218
23
0.1176155587
33
0.0000000000
40
0.0000000000
40
0.0000000000
40
0.0000000000
40
0.0000000000
40
0.1107425335
40
0.2320394359
40
0.3611086411
40
0.4945847467
40
0.6288011268
40
0.7600423145
40
0.8847920809
40
1.0000000000
40
1.0000000000
40
1.0000000000
40
1.0000000000
10
-22.9648318905
20
27.4120786040
30
0.0000000000
10
-22.9554664854
20
27.4071650242
30
0.0000000000
10
-22.9349798882
20
27.3984843720
30
0.0000000000
10
-22.9017175171
20
27.3891180653
30
0.0000000000
10
-22.8654961003
20
27.3830576442
30
0.0000000000
10
-22.8276304196
20
27.3805295132
30
0.0000000000
10
-22.7894895181
20
27.3816250641
30
0.0000000000
10
-22.7524546975
20
27.3863053600
30
0.0000000000
10
-22.7178734052
20
27.3943947445
30
0.0000000000
10
-22.6962565633
20
27.4022368578
30
0.0000000000
10
-22.6862238498
20
27.4067536057
30
0.0000000000
11
-22.9648318905
21
27.4120786040
31
0.0000000000
11
-22.9357096954
21
27.3994855715
31
0.0000000000
11
-22.9023010054
21
27.3899160622
31
0.0000000000
11
-22.8658439738
21
27.3837247406
31
0.0000000000
11
-22.8276897358
21
27.3811410723
31
0.0000000000
11
-22.7892523334
21
27.3822608193
31
0.0000000000
11
-22.7519563091
21
27.3870424890
31
0.0000000000
11
-22.7171839083
21
27.3953088713
31
0.0000000000
11
-22.6862238498
21
27.4067536057
31
0.0000000000
0
SPLINE
5
3A6
100
AcDbEntity
8
0
100
AcDbSpline
62
7
6
CONTINUOUS
70
0
71
3
72
9
73
5
74
3
42
0.0000001000
43
0.0000001000
44
0.0000000001
12
0.0072760471
22
0.0031710020
32
0.0000000000
13
0.0071341930
23
0.0034784199
33
0.0000000000
40
0.0000000000
40
0.0000000000
40
0.0000000000
40
0.0000000000
40
0.5053624906
40
1.0000000000
40
1.0000000000
40
1.0000000000
40
1.0000000000
10
-18.8192411080
20
22.4714622482
30
0.0000000000
10
-18.8180154275
20
22.4719964167
30
0.0000000000
10
-18.8156008096
20
22.4730782355
30
0.0000000000
10
-18.8132097789
20
22.4742112779
30
0.0000000000
10
-18.8120334991
20
22.4747847969
30
0.0000000000
11
-18.8192411080
21
22.4714622482
31
0.0000000000
11
-18.8155809369
21
22.4731029201
31
0.0000000000
11
-18.8120334991
21
22.4747847969
31
0.0000000000
0
SPLINE
5
3A7
100
AcDbEntity
8
0
100
AcDbSpline
62
7
6
CONTINUOUS
70
0
71
3
72
15
73
11
74
9
42
0.0000001000
43
0.0000001000
44
0.0000000001
12
0.2537075368
22
-0.1331081995
32
0.0000000000
13
0.2612506219
23
0.1176155583
33
0.0000000000
40
0.0000000000
40
0.0000000000
40
0.0000000000
40
0.0000000000
40
0.1107428254
40
0.2320399607
40
0.3611093042
40
0.4945854358
40
0.6288017335
40
0.7600427534
40
0.8847923035
40
1.0000000000
40
1.0000000000
40
1.0000000000
40
1.0000000000
10
-22.9648318905
20
-14.6557961563
30
0.0000000000
10
-22.9554664607
20
-14.6607097490
30
0.0000000000
10
-22.9349798150
20
-14.6693904167
30
0.0000000000
10
-22.9017173789
20
-14.6787567272
30
0.0000000000
10
-22.8654959217
20
-14.6848171373
30
0.0000000000
10
-22.8276302320
20
-14.6873452503
30
0.0000000000
10
-22.7894893524
20
-14.6862496824
30
0.0000000000
10
-22.7524545782
20
-14.6815693772
30
0.0000000000
10
-22.7178733450
20
-14.6734799956
30
0.0000000000
10
-22.6962565439
20
-14.6656378938
30
0.0000000000
10
-22.6862238498
20
-14.6611211546
30
0.0000000000
11
-22.9648318905
21
-14.6557961563
31
0.0000000000
11
-22.9357096164
21
-14.6683892168
31
0.0000000000
11
-22.9023008584
21
-14.6779587311
31
0.0000000000
11
-22.8658437848
21
-14.6841500419
31
0.0000000000
11
-22.8276895381
21
-14.6867336917
31
0.0000000000
11
-22.7892521599
21
-14.6856139274
31
0.0000000000
11
-22.7519561852
21
-14.6808322488
31
0.0000000000
11
-22.7171838471
21
-14.6725658706
31
0.0000000000
11
-22.6862238498
21
-14.6611211546
31
0.0000000000
0
SPLINE
5
3A8
100
AcDbEntity
8
0
100
AcDbSpline
62
7
6
CONTINUOUS
70
0
71
3
72
10
73
6
74
4
42
0.0000001000
43
0.0000001000
44
0.0000000001
12
0.0033061257
22
0.0800841170
32
0.0000000000
13
0.0278164907
23
0.0751707330
33
0.0000000000
40
0.0000000000
40
0.0000000000
40
0.0000000000
40
0.0000000000
40
0.3172870324
40
0.6517936082
40
1.0000000000
40
1.0000000000
40
1.0000000000
40
1.0000000000
10
-22.7017449642
20
-15.5914511645
30
0.0000000000
10
-22.7013953006
20
-15.5829812805
30
0.0000000000
10
-22.6995888060
20
-15.5656147646
30
0.0000000000
10
-22.6939795865
20
-15.5394505884
30
0.0000000000
10
-22.6884192367
20
-15.5220439282
30
0.0000000000
10
-22.6851906101
20
-15.5133189516
30
0.0000000000
11
-22.7017449642
21
-15.5914511645
31
0.0000000000
11
-22.6991982503
21
-15.5661477055
31
0.0000000000
11
-22.6936409082
21
-15.5399184944
31
0.0000000000
11
-22.6851906101
21
-15.5133189516
31
0.0000000000
0
SPLINE
5
3A9
100
AcDbEntity
8
0
100
AcDbSpline
62
7
6
CONTINUOUS
70
0
71
3
72
10
73
6
74
4
42
0.0000001000
43
0.0000001000
44
0.0000000001
12
-0.0034180829
22
0.0822838304
32
0.0000000000
13
0.0215950252
23
0.0794730578
33
0.0000000000
40
0.0000000000
40
0.0000000000
40
0.0000000000
40
0.0000000000
40
0.3203386028
40
0.6548901998
40
1.0000000000
40
1.0000000000
40
1.0000000000
40
1.0000000000
10
9.0562306744
20
-31.4704396745
30
0.0000000000
10
9.0558656931
20
-31.4616534454
30
0.0000000000
10
9.0561858036
20
-31.4436345597
30
0.0000000000
10
9.0595421541
20
-31.4163475771
30
0.0000000000
10
9.0636122723
20
-31.3981047414
30
0.0000000000
10
9.0660964905
20
-31.3889624310
30
0.0000000000
11
9.0562306744
21
-31.4704396745
31
0.0000000000
11
9.0566281818
21
-31.4440612499
31
0.0000000000
11
9.0599401640
21
-31.4167091111
31
0.0000000000
11
9.0660964905
21
-31.3889624310
31
0.0000000000
0
SPLINE
5
3AA
100
AcDbEntity
8
0
100
AcDbSpline
62
7
6
CONTINUOUS
70
0
71
3
72
12
73
8
74
6
42
0.0000001000
43
0.0000001000
44
0.0000000001
12
-0.0903559262
22
0.0430551608
32
0.0000000000
13
0.0001994521
23
0.1006191655
33
0.0000000000
40
0.0000000000
40
0.0000000000
40
0.0000000000
40
0.0000000000
40
0.2906632926
40
0.5444708845
40
0.7646388259
40
0.9621073234
40
1.0000000000
40
1.0000000000
40
1.0000000000
40
1.0000000000
10
9.3321772101
20
-30.8043007067
30
0.0000000000
10
9.3234228264
20
-30.8001291884
30
0.0000000000
10
9.3075180583
20
-30.7911567574
30
0.0000000000
10
9.2878903793
20
-30.7745654617
30
0.0000000000
10
9.2747316452
20
-30.7560423429
30
0.0000000000
10
9.2704458934
20
-30.7410836607
30
0.0000000000
10
9.2701601380
20
-30.7331929572
30
0.0000000000
10
9.2701626573
20
-30.7319220474
30
0.0000000000
11
9.3321772101
21
-30.8043007067
31
0.0000000000
11
9.3069910923
21
-30.7897395716
31
0.0000000000
11
9.2878520641
21
-30.7730351944
31
0.0000000000
11
9.2754694414
21
-30.7548066586
31
0.0000000000
11
9.2703021399
21
-30.7357295355
31
0.0000000000
11
9.2701626573
21
-30.7319220474
31
0.0000000000
0
SPLINE
5
3AB
100
AcDbEntity
8
0
100
AcDbSpline
62
7
6
CONTINUOUS
70
0
71
3
72
12
73
8
74
6
42
0.0000001000
43
0.0000001000
44
0.0000000001
12
-0.0903669593
22
0.0430604176
32
0.0000000000
13
0.0002242381
23
0.1006317149
33
0.0000000000
40
0.0000000000
40
0.0000000000
40
0.0000000000
40
0.0000000000
40
0.2906278419
40
0.5444044622
40
0.7645455255
40
0.9619899108
40
1.0000000000
40
1.0000000000
40
1.0000000000
40
1.0000000000
10
9.3321772101
20
11.2635740536
30
0.0000000000
10
9.3234228253
20
11.2677455724
30
0.0000000000
10
9.3075180557
20
11.2767180043
30
0.0000000000
10
9.2878903758
20
11.2933093019
30
0.0000000000
10
9.2747316426
20
11.3118324221
30
0.0000000000
10
9.2704447441
20
11.3267951127
30
0.0000000000
10
9.2701598420
20
11.3346899921
30
0.0000000000
10
9.2701626831
20
11.3359649989
30
0.0000000000
11
9.3321772101
21
11.2635740536
31
0.0000000000
11
9.3069910893
21
11.2781351907
31
0.0000000000
11
9.2878520605
21
11.2948395697
31
0.0000000000
11
9.2754694390
21
11.3130681065
31
0.0000000000
11
9.2703021395
21
11.3321452299
31
0.0000000000
11
9.2701626831
21
11.3359649989
31
0.0000000000
0
SPLINE
5
3AC
100
AcDbEntity
8
0
100
AcDbSpline
62
7
6
CONTINUOUS
70
0
71
3
72
10
73
6
74
4
42
0.0000001000
43
0.0000001000
44
0.0000000001
12
-0.0028593846
22
-0.0660724249
32
0.0000000000
13
0.0256655401
23
-0.0609509759
33
0.0000000000
40
0.0000000000
40
0.0000000000
40
0.0000000000
40
0.0000000000
40
0.3604015240
40
0.6937364168
40
1.0000000000
40
1.0000000000
40
1.0000000000
40
1.0000000000
10
9.0562313486
20
12.1927995942
30
0.0000000000
10
9.0558878398
20
12.1848620600
30
0.0000000000
10
9.0560742822
20
12.1695233755
30
0.0000000000
10
9.0592636353
20
12.1476432422
30
0.0000000000
10
9.0634761851
20
12.1340994014
30
0.0000000000
10
9.0660963252
20
12.1278770467
30
0.0000000000
11
9.0562313486
21
12.1927995942
31
0.0000000000
11
9.0566283849
21
12.1689680103
31
0.0000000000
11
9.0599400885
21
12.1471733221
31
0.0000000000
11
9.0660963252
21
12.1278770467
31
0.0000000000
0
SPLINE
5
3AD
100
AcDbEntity
8
0
100
AcDbSpline
62
7
6
CONTINUOUS
70
0
71
3
72
15
73
11
74
9
42
0.0000001000
43
0.0000001000
44
0.0000000001
12
0.0133553497
22
-0.2913677472
32
0.0000000000
13
0.2546295339
23
-0.1422579696
33
0.0000000000
40
0.0000000000
40
0.0000000000
40
0.0000000000
40
0.0000000000
40
0.1188614954
40
0.2459758093
40
0.3783372185
40
0.5125235757
40
0.6449756842
40
0.7722645331
40
0.8913700254
40
1.0000000000
40
1.0000000000
40
1.0000000000
40
1.0000000000
10
-21.7139245267
20
-12.5578490650
30
0.0000000000
10
-21.7133953811
20
-12.5693932003
30
0.0000000000
10
-21.7104435954
20
-12.5932169579
30
0.0000000000
10
-21.7013354124
20
-12.6289371315
30
0.0000000000
10
-21.6877054280
20
-12.6647865421
30
0.0000000000
10
-21.6700618528
20
-12.6994177627
30
0.0000000000
10
-21.6490646932
20
-12.7315399251
30
0.0000000000
10
-21.6254918183
20
-12.7599584609
30
0.0000000000
10
-21.6002265323
20
-12.7836145077
30
0.0000000000
10
-21.5819171168
20
-12.7962793859
30
0.0000000000
10
-21.5726969835
20
-12.8014305458
30
0.0000000000
11
-21.7139245267
21
-12.5578490650
31
0.0000000000
11
-21.7098491439
21
-12.5922774655
31
0.0000000000
11
-21.7008048060
21
-12.6282333022
31
0.0000000000
11
-21.6871378964
21
-12.6643396023
31
0.0000000000
11
-21.6693718201
21
-12.6992136424
31
0.0000000000
11
-21.6481869571
21
-12.7315198994
31
0.0000000000
11
-21.6243946057
21
-12.7600211925
31
0.0000000000
11
-21.5989059130
21
-12.7836260585
31
0.0000000000
11
-21.5726969835
21
-12.8014305458
31
0.0000000000
0
SPLINE
5
3AE
100
AcDbEntity
8
0
100
AcDbSpline
62
7
6
CONTINUOUS
70
0
71
3
72
14
73
10
74
8
42
0.0000001000
43
0.0000001000
44
0.0000000001
12
0.2750916652
22
-0.0258466086
32
0.0000000000
13
0.2437025383
23
-0.1302019364
33
0.0000000000
40
0.0000000000
40
0.0000000000
40
0.0000000000
40
0.0000000000
40
0.1177810244
40
0.2547083885
40
0.4048205903
40
0.5614104844
40
0.7174195131
40
0.8658203118
40
1.0000000000
40
1.0000000000
40
1.0000000000
40
1.0000000000
10
-22.1587714970
20
-13.1073083472
30
0.0000000000
10
-22.1479713043
20
-13.1083230939
30
0.0000000000
10
-22.1247295586
20
-13.1117293492
30
0.0000000000
10
-22.0882517444
20
-13.1195196736
30
0.0000000000
10
-22.0487776978
20
-13.1301339004
30
0.0000000000
10
-22.0081629511
20
-13.1430856194
30
0.0000000000
10
-21.9683096881
20
-13.1577736038
30
0.0000000000
10
-21.9310882376
20
-13.1735036422
30
0.0000000000
10
-21.9076740762
20
-13.1849133366
30
0.0000000000
10
-21.8967740994
20
-13.1907368217
30
0.0000000000
11
-22.1587714970
21
-13.1073083472
31
0.0000000000
11
-22.1265387132
21
-13.1117930445
31
0.0000000000
11
-22.0895135452
21
-13.1195717683
31
0.0000000000
11
-22.0494425527
21
-13.1302775791
31
0.0000000000
11
-22.0082159736
21
-13.1434054599
31
0.0000000000
11
-21.9677785578
21
-13.1583361392
31
0.0000000000
11
-21.9300378283
21
-13.1743653036
31
0.0000000000
11
-21.8967740994
21
-13.1907368217
31
0.0000000000
0
SPLINE
5
3AF
100
AcDbEntity
8
0
100
AcDbSpline
62
7
6
CONTINUOUS
70
0
71
3
72
24
73
20
74
18
42
0.0000001000
43
0.0000001000
44
0.0000000001
12
-0.7287105308
22
0.4693284103
32
0.0000000000
13
0.1428362655
23
0.8549187071
33
0.0000000000
40
0.0000000000
40
0.0000000000
40
0.0000000000
40
0.0000000000
40
0.0151669560
40
0.0344569389
40
0.0583569668
40
0.0872575603
40
0.1217038618
40
0.1619277166
40
0.2075009961
40
0.2576184870
40
0.3124251991
40
0.3724007256
40
0.4381319529
40
0.5102924796
40
0.5898081589
40
0.6776930301
40
0.7748213052
40
0.8819093091
40
1.0000000000
40
1.0000000000
40
1.0000000000
40
1.0000000000
10
-22.6851904448
20
-15.5133189634
30
0.0000000000
10
-22.6888745516
20
-15.5109462023
30
0.0000000000
10
-22.6962276271
20
-15.5039797621
30
0.0000000000
10
-22.7053183364
20
-15.4896680552
30
0.0000000000
10
-22.7135457860
20
-15.4704637974
30
0.0000000000
10
-22.7208109514
20
-15.4462881727
30
0.0000000000
10
-22.7270619528
20
-15.4169988802
30
0.0000000000
10
-22.7321845341
20
-15.3826200371
30
0.0000000000
10
-22.7360659809
20
-15.3435309564
30
0.0000000000
10
-22.7386568376
20
-15.3001169205
30
0.0000000000
10
-22.7399415936
20
-15.2524837823
30
0.0000000000
10
-22.7398839337
20
-15.2003233377
30
0.0000000000
10
-22.7383949639
20
-15.1431689785
30
0.0000000000
10
-22.7353272967
20
-15.0804248743
30
0.0000000000
10
-22.7304658678
20
-15.0113760378
30
0.0000000000
10
-22.7235207106
20
-14.9352584463
30
0.0000000000
10
-22.7141295292
20
-14.8513817605
30
0.0000000000
10
-22.7018397060
20
-14.7590678215
30
0.0000000000
10
-22.6918463942
20
-14.6947738015
30
0.0000000000
10
-22.6862238498
20
-14.6611211546
30
0.0000000000
11
-22.6851904448
21
-15.5133189634
31
0.0000000000
11
-22.6949630938
21
-15.5045258366
31
0.0000000000
11
-22.7042413496
21
-15.4906164552
31
0.0000000000
11
-22.7126412889
21
-15.4716801052
31
0.0000000000
11
-22.7200469945
21
-15.4477496913
31
0.0000000000
11
-22.7264311426
21
-15.4185832393
31
0.0000000000
11
-22.7316918023
21
-15.3841176249
31
0.0000000000
11
-22.7356900195
21
-15.3448189914
31
0.0000000000
11
-22.7383505082
21
-15.3014602597
31
0.0000000000
11
-22.7396890747
21
-15.2539743729
31
0.0000000000
11
-22.7396795839
21
-15.2019894571
31
0.0000000000
11
-22.7382370116
21
-15.1450339444
31
0.0000000000
11
-22.7352188185
21
-15.0825603137
31
0.0000000000
11
-22.7304105280
21
-15.0138065305
31
0.0000000000
11
-22.7235172698
21
-14.9379431954
31
0.0000000000
11
-22.7141734724
21
-14.8542755641
31
0.0000000000
11
-22.7019410166
21
-14.7622645851
31
0.0000000000
11
-22.6862238498
21
-14.6611211546
31
0.0000000000
0
SPLINE
5
3B0
100
AcDbEntity
8
0
100
AcDbSpline
62
7
6
CONTINUOUS
70
0
71
3
72
14
73
10
74
8
42
0.0000001000
43
0.0000001000
44
0.0000000001
12
0.1396408379
22
-0.0781895196
32
0.0000000000
13
0.0658192492
23
-0.1458902704
33
0.0000000000
40
0.0000000000
40
0.0000000000
40
0.0000000000
40
0.0000000000
40
0.0865931641
40
0.1959030409
40
0.3279761833
40
0.4835275418
40
0.6646466587
40
0.8719677420
40
1.0000000000
40
1.0000000000
40
1.0000000000
40
1.0000000000
10
9.0660964905
20
12.1278772238
30
0.0000000000
10
9.0701271379
20
12.1256203312
30
0.0000000000
10
9.0785960345
20
12.1193593463
30
0.0000000000
10
9.0908490090
20
12.1068106250
30
0.0000000000
10
9.1038689286
20
12.0900672429
30
0.0000000000
10
9.1175487788
20
12.0691109400
30
0.0000000000
10
9.1318584142
20
12.0438463549
30
0.0000000000
10
9.1442242985
20
12.0192146844
30
0.0000000000
10
9.1517494911
20
12.0029821908
30
0.0000000000
10
9.1545584868
20
11.9967559705
30
0.0000000000
11
9.0660964905
21
12.1278772238
31
0.0000000000
11
9.0773892834
21
12.1198441690
31
0.0000000000
11
9.0897729562
21
12.1074874961
31
0.0000000000
11
9.1028794514
21
12.0909044240
31
0.0000000000
11
9.1165956822
21
12.0701292727
31
0.0000000000
11
9.1309697086
21
12.0449577598
31
0.0000000000
11
9.1459300216
21
12.0153419721
31
0.0000000000
11
9.1545584868
21
11.9967559705
31
0.0000000000
0
SPLINE
5
3B1
100
AcDbEntity
8
0
100
AcDbSpline
62
7
6
CONTINUOUS
70
0
71
3
72
14
73
10
74
8
42
0.0000001000
43
0.0000001000
44
0.0000000001
12
-0.2563409238
22
0.1242309575
32
0.0000000000
13
-0.2019937011
23
-0.2008545362
33
0.0000000000
40
0.0000000000
40
0.0000000000
40
0.0000000000
40
0.0000000000
40
0.1234604681
40
0.2568487088
40
0.3991498064
40
0.5479982236
40
0.7001682707
40
0.8520326129
40
1.0000000000
40
1.0000000000
40
1.0000000000
40
1.0000000000
10
-21.8967740994
20
26.3908318158
30
0.0000000000
10
-21.9073234228
20
26.3959443532
30
0.0000000000
10
-21.9307104186
20
26.4037360551
30
0.0000000000
10
-21.9686106293
20
26.4078708122
30
0.0000000000
10
-22.0090150605
20
26.4048603624
30
0.0000000000
10
-22.0500854255
20
26.3948715144
30
0.0000000000
10
-22.0899795751
20
26.3783772539
30
0.0000000000
10
-22.1268705116
20
26.3561423539
30
0.0000000000
10
-22.1488086703
20
26.3377676703
30
0.0000000000
10
-22.1587714970
20
26.3278610300
30
0.0000000000
11
-21.8967740994
21
26.3908318158
31
0.0000000000
11
-21.9300378283
21
26.4022493776
31
0.0000000000
11
-21.9677785578
21
26.4066522954
31
0.0000000000
11
-22.0082159736
21
26.4038328736
31
0.0000000000
11
-22.0494425527
21
26.3939241108
31
0.0000000000
11
-22.0895135452
21
26.3773934253
31
0.0000000000
11
-22.1265387133
21
26.3550206064
31
0.0000000000
11
-22.1587714970
21
26.3278610300
31
0.0000000000
0
SPLINE
5
3B2
100
AcDbEntity
8
0
100
AcDbSpline
62
7
6
CONTINUOUS
70
0
71
3
72
25
73
21
74
19
42
0.0000001000
43
0.0000001000
44
0.0000000001
12
-0.1216264096
22
0.6185421961
32
0.0000000000
13
0.5779882887
23
-0.2516286352
33
0.0000000000
40
0.0000000000
40
0.0000000000
40
0.0000000000
40
0.0000000000
40
0.1322674755
40
0.2495118112
40
0.3534667668
40
0.4455684386
40
0.5273014979
40
0.6000426943
40
0.6648088093
40
0.7223208970
40
0.7732142353
40
0.8179909295
40
0.8568442642
40
0.8896044670
40
0.9165757712
40
0.9384438814
40
0.9561881053
40
0.9711043963
40
0.9850590490
40
1.0000000000
40
1.0000000000
40
1.0000000000
40
1.0000000000
10
-22.6862238498
20
27.4067536057
30
0.0000000000
10
-22.6915862558
20
27.4340246107
30
0.0000000000
10
-22.7011689991
20
27.4855760337
30
0.0000000000
10
-22.7131853986
20
27.5588764425
30
0.0000000000
10
-22.7224566320
20
27.6240590564
30
0.0000000000
10
-22.7294197510
20
27.6820186929
30
0.0000000000
10
-22.7344240848
20
27.7335940148
30
0.0000000000
10
-22.7377411785
20
27.7795483124
30
0.0000000000
10
-22.7395708227
20
27.8204924421
30
0.0000000000
10
-22.7400571899
20
27.8568843969
30
0.0000000000
10
-22.7393022802
20
27.8890722107
30
0.0000000000
10
-22.7373733559
20
27.9172851957
30
0.0000000000
10
-22.7343242827
20
27.9415683436
30
0.0000000000
10
-22.7302191683
20
27.9618982617
30
0.0000000000
10
-22.7251359928
20
27.9783162873
30
0.0000000000
10
-22.7190853194
20
27.9910059154
30
0.0000000000
10
-22.7119647276
20
28.0001555015
30
0.0000000000
10
-22.7034543055
20
28.0055588402
30
0.0000000000
10
-22.6940020487
20
28.0065647317
30
0.0000000000
10
-22.6880690097
20
28.0047738818
30
0.0000000000
10
-22.6851904448
20
28.0035206914
30
0.0000000000
11
-22.6862238498
21
27.4067536057
31
0.0000000000
11
-22.7014367581
21
27.4887336972
31
0.0000000000
11
-22.7133635158
21
27.5616743112
31
0.0000000000
11
-22.7225579256
21
27.6265579215
31
0.0000000000
11
-22.7294468463
21
27.6842074512
31
0.0000000000
11
-22.7343831994
21
27.7354938713
31
0.0000000000
11
-22.7376406548
21
27.7812331084
31
0.0000000000
11
-22.7394133885
21
27.8220223039
31
0.0000000000
11
-22.7398397168
21
27.8582746542
31
0.0000000000
11
-22.7390173529
21
27.8903465980
31
0.0000000000
11
-22.7370041358
21
27.9185013457
31
0.0000000000
11
-22.7338391203
21
27.9427886147
31
0.0000000000
11
-22.7296070193
21
27.9630019220
31
0.0000000000
11
-22.7243924141
21
27.9791848721
31
0.0000000000
11
-22.7182311606
21
27.9915167530
31
0.0000000000
11
-22.7110943095
21
28.0001298687
31
0.0000000000
11
-22.7030230477
21
28.0049539483
31
0.0000000000
11
-22.6942850588
21
28.0059696898
31
0.0000000000
11
-22.6851904448
21
28.0035206914
31
0.0000000000
0
SPLINE
5
3B3
100
AcDbEntity
8
0
100
AcDbSpline
62
7
6
CONTINUOUS
70
0
71
3
72
15
73
11
74
9
42
0.0000001000
43
0.0000001000
44
0.0000000001
12
-0.4653297507
22
-0.2286808431
32
0.0000000000
13
-0.1701406672
23
-0.4897742932
33
0.0000000000
40
0.0000000000
40
0.0000000000
40
0.0000000000
40
0.0000000000
40
0.1116490551
40
0.2298388233
40
0.3535357498
40
0.4813321252
40
0.6116332205
40
0.7427190084
40
0.8727570392
40
1.0000000000
40
1.0000000000
40
1.0000000000
40
1.0000000000
10
-21.5726969835
20
-12.8014305458
30
0.0000000000
10
-21.5900148592
20
-12.8099412124
30
0.0000000000
10
-21.6245866149
20
-12.8297220418
30
0.0000000000
10
-21.6740043393
20
-12.8658404603
30
0.0000000000
10
-21.7215178952
20
-12.9087172750
30
0.0000000000
10
-21.7660743413
20
-12.9575187192
30
0.0000000000
10
-21.8067149967
20
-13.0112300969
30
0.0000000000
10
-21.8425933223
20
-13.0686880662
30
0.0000000000
10
-21.8730107136
20
-13.1286144719
30
0.0000000000
10
-21.8895576986
20
-13.1699633780
30
0.0000000000
10
-21.8967740994
20
-13.1907368217
30
0.0000000000
11
-21.5726969835
21
-12.8014305458
31
0.0000000000
11
-21.6230259260
21
-12.8300322928
31
0.0000000000
11
-21.6725844960
21
-12.8660758823
31
0.0000000000
11
-21.7202717357
21
-12.9089620765
31
0.0000000000
11
-21.7650051543
21
-12.9578433180
31
0.0000000000
11
-21.8058039251
21
-13.0116921901
31
0.0000000000
11
-21.8418115422
21
-13.0693361910
31
0.0000000000
11
-21.8723090470
21
-13.1294671485
31
0.0000000000
11
-21.8967740994
21
-13.1907368217
31
0.0000000000
0
SPLINE
5
3B4
100
AcDbEntity
8
0
100
AcDbSpline
62
7
6
CONTINUOUS
70
0
71
3
72
19
73
15
74
13
42
0.0000001000
43
0.0000001000
44
0.0000000001
12
-1.1029892982
22
0.6526816420
32
0.0000000000
13
-0.0000375548
23
1.2816312716
33
0.0000000000
40
0.0000000000
40
0.0000000000
40
0.0000000000
40
0.0000000000
40
0.0729905060
40
0.1503965654
40
0.2316093677
40
0.3159044778
40
0.4024654113
40
0.4904720399
40
0.5790646277
40
0.6673719916
40
0.7545231523
40
0.8395939154
40
0.9216972539
40
1.0000000000
40
1.0000000000
40
1.0000000000
40
1.0000000000
10
-23.3846098265
20
-16.2437116378
30
0.0000000000
10
-23.4114457421
20
-16.2278317834
30
0.0000000000
10
-23.4648073478
20
-16.1917650858
30
0.0000000000
10
-23.5407075150
20
-16.1280551092
30
0.0000000000
10
-23.6136822911
20
-16.0540701982
30
0.0000000000
10
-23.6824717192
20
-15.9710567127
30
0.0000000000
10
-23.7459672695
20
-15.8803714435
30
0.0000000000
10
-23.8031729998
20
-15.7834617763
30
0.0000000000
10
-23.8532124604
20
-15.6818350603
30
0.0000000000
10
-23.8953145893
20
-15.5770640558
30
0.0000000000
10
-23.9288126260
20
-15.4708061243
30
0.0000000000
10
-23.9531638155
20
-15.3647932453
30
0.0000000000
10
-23.9679868446
20
-15.2608505279
30
0.0000000000
10
-23.9714855510
20
-15.1922892788
30
0.0000000000
10
-23.9714865312
20
-15.1588375295
30
0.0000000000
11
-23.3846098265
21
-16.2437116378
31
0.0000000000
11
-23.4622807575
21
-16.1915747815
31
0.0000000000
11
-23.5384290227
21
-16.1279880111
31
0.0000000000
11
-23.6116598565
21
-16.0540224478
31
0.0000000000
11
-23.6807050018
21
-15.9709298309
31
0.0000000000
11
-23.7444148470
21
-15.8801082390
31
0.0000000000
11
-23.8017963412
21
-15.7830030893
31
0.0000000000
11
-23.8519598037
21
-15.6811421699
31
0.0000000000
11
-23.8941269348
21
-15.5761132461
31
0.0000000000
11
-23.9276323095
21
-15.4695613397
31
0.0000000000
11
-23.9519170373
21
-15.3632709299
31
0.0000000000
11
-23.9665953344
21
-15.2590735111
31
0.0000000000
11
-23.9714865312
21
-15.1588375295
31
0.0000000000
0
SPLINE
5
3B5
100
AcDbEntity
8
0
100
AcDbSpline
62
7
6
CONTINUOUS
70
0
71
3
72
14
73
10
74
8
42
0.0000001000
43
0.0000001000
44
0.0000000001
12
-34.2545265984
22
14.1378265550
32
0.0000000000
13
-31.8959080217
23
18.8653842878
33
0.0000000000
40
0.0000000000
40
0.0000000000
40
0.0000000000
40
0.0000000000
40
0.1185074865
40
0.2698281638
40
0.4228119740
40
0.5712467759
40
0.7256533610
40
0.8798351661
40
1.0000000000
40
1.0000000000
40
1.0000000000
40
1.0000000000
10
9.7729347721
20
-32.8224839371
30
0.0000000000
10
8.4197954889
20
-32.2640045071
30
0.0000000000
10
5.3498759639
20
-30.9655364293
30
0.0000000000
10
0.5803494771
20
-28.8363622895
30
0.0000000000
10
-4.4752602712
20
-26.4444211443
30
0.0000000000
10
-9.5119909105
20
-23.9266234432
30
0.0000000000
10
-14.5064757052
20
-21.2940673953
30
0.0000000000
10
-19.1373206761
20
-18.7232801736
30
0.0000000000
10
-22.0684857910
20
-17.0221601984
30
0.0000000000
10
-23.3460746214
20
-16.2665082750
30
0.0000000000
11
9.7729347721
21
-32.8224839371
31
0.0000000000
11
5.7282413373
21
-31.1118051942
31
0.0000000000
11
0.6076718276
21
-28.8261125463
31
0.0000000000
11
-4.5169719292
21
-26.4017260392
31
0.0000000000
11
-9.4371720743
21
-23.9423941374
31
0.0000000000
11
-14.4990759560
21
-21.2745597669
31
0.0000000000
11
-19.4946289457
21
-18.5015818447
31
0.0000000000
11
-23.3460746214
21
-16.2665082750
31
0.0000000000
0
SPLINE
5
3B6
100
AcDbEntity
8
0
100
AcDbSpline
62
7
6
CONTINUOUS
70
0
71
3
72
8
73
4
74
2
42
0.0000001000
43
0.0000001000
44
0.0000000001
12
-0.0385371075
22
0.0227934361
32
0.0000000000
13
-0.0385333025
23
0.0227998380
33
0.0000000000
40
0.0000000000
40
0.0000000000
40
0.0000000000
40
0.0000000000
40
1.0000000000
40
1.0000000000
40
1.0000000000
40
1.0000000000
10
-23.3460746214
20
-16.2665082750
30
0.0000000000
10
-23.3589203239
20
-16.2589104629
30
0.0000000000
10
-23.3717653923
20
-16.2513115838
30
0.0000000000
10
-23.3846098265
20
-16.2437116378
30
0.0000000000
11
-23.3460746214
21
-16.2665082750
31
0.0000000000
11
-23.3846098265
21
-16.2437116378
31
0.0000000000
0
SPLINE
5
3B7
100
AcDbEntity
8
0
100
AcDbSpline
62
7
6
CONTINUOUS
70
0
71
3
72
13
73
9
74
7
42
0.0000001000
43
0.0000001000
44
0.0000000001
12
-0.1270047129
22
-0.0571777812
32
0.0000000000
13
-0.1258083656
23
0.0597641273
33
0.0000000000
40
0.0000000000
40
0.0000000000
40
0.0000000000
40
0.0000000000
40
0.1548006643
40
0.3244902069
40
0.5018435817
40
0.6787536532
40
0.8471624307
40
1.0000000000
40
1.0000000000
40
1.0000000000
40
1.0000000000
10
10.5258830929
20
-32.3405355298
30
0.0000000000
10
10.5193296216
20
-32.3434859159
30
0.0000000000
10
10.5049798665
20
-32.3483363723
30
0.0000000000
10
10.4820019157
20
-32.3525499051
30
0.0000000000
10
10.4576489193
20
-32.3538770604
30
0.0000000000
10
10.4333743097
20
-32.3522318429
30
0.0000000000
10
10.4106266061
20
-32.3477199172
30
0.0000000000
10
10.3965013810
20
-32.3426715127
30
0.0000000000
10
10.3900919660
20
-32.3396267781
30
0.0000000000
11
10.5258830929
21
-32.3405355298
31
0.0000000000
11
10.5055227441
21
-32.3476299697
31
0.0000000000
11
10.4822953812
21
-32.3519990873
31
0.0000000000
11
10.4576315183
21
-32.3533738099
31
0.0000000000
11
10.4330501297
21
-32.3516694856
31
0.0000000000
11
10.4100650961
21
-32.3469910944
31
0.0000000000
11
10.3900919660
21
-32.3396267781
31
0.0000000000
0
SPLINE
5
3B8
100
AcDbEntity
8
0
100
AcDbSpline
62
7
6
CONTINUOUS
70
0
71
3
72
19
73
15
74
13
42
0.0000001000
43
0.0000001000
44
0.0000000001
12
-0.0000305116
22
-0.9616609546
32
0.0000000000
13
-0.8889385058
23
0.3668516395
33
0.0000000000
40
0.0000000000
40
0.0000000000
40
0.0000000000
40
0.0000000000
40
0.0991541363
40
0.1932192328
40
0.2819071417
40
0.3654331186
40
0.4445128470
40
0.5203928478
40
0.5946910342
40
0.6692272796
40
0.7457917841
40
0.8258555902
40
0.9104391154
40
1.0000000000
40
1.0000000000
40
1.0000000000
40
1.0000000000
10
10.3900919660
20
-32.3396267781
30
0.0000000000
10
10.3900909576
20
-32.3714109985
30
0.0000000000
10
10.3869272527
20
-32.4334144047
30
0.0000000000
10
10.3717859405
20
-32.5227301681
30
0.0000000000
10
10.3464810793
20
-32.6045456490
30
0.0000000000
10
10.3113155391
20
-32.6773946492
30
0.0000000000
10
10.2667547312
20
-32.7400083711
30
0.0000000000
10
10.2134326967
20
-32.7912487060
30
0.0000000000
10
10.1522010149
20
-32.8301222889
30
0.0000000000
10
10.0841617371
20
-32.8558609710
30
0.0000000000
10
10.0106082058
20
-32.8680235926
30
0.0000000000
10
9.9329084425
20
-32.8665137245
30
0.0000000000
10
9.8524862537
20
-32.8515543267
30
0.0000000000
10
9.7994728118
20
-32.8334357896
30
0.0000000000
10
9.7729347721
20
-32.8224839371
30
0.0000000000
11
10.3900919660
21
-32.3396267781
31
0.0000000000
11
10.3849441329
21
-32.4348403793
31
0.0000000000
11
10.3694965111
21
-32.5239703569
31
0.0000000000
11
10.3439395061
21
-32.6053388466
31
0.0000000000
11
10.3086806297
21
-32.6775101963
31
0.0000000000
11
10.2643111132
21
-32.7392728643
31
0.0000000000
11
10.2115349898
21
-32.7896655562
31
0.0000000000
11
10.1511763763
21
-32.8279002577
31
0.0000000000
11
10.0841737436
21
-32.8533653017
31
0.0000000000
11
10.0115743392
21
-32.8656360002
31
0.0000000000
11
9.9345885633
21
-32.8644946264
31
0.0000000000
11
9.8545514865
21
-32.8499904368
31
0.0000000000
11
9.7729347721
21
-32.8224839371
31
0.0000000000
0
SPLINE
5
3B9
100
AcDbEntity
8
0
100
AcDbSpline
62
7
6
CONTINUOUS
70
0
71
3
72
15
73
11
74
9
42
0.0000001000
43
0.0000001000
44
0.0000000001
12
-0.0028541339
22
-0.6709686877
32
0.0000000000
13
-0.6256875970
23
-0.2454843995
33
0.0000000000
40
0.0000000000
40
0.0000000000
40
0.0000000000
40
0.0000000000
40
0.1583534976
40
0.3083754739
40
0.4497899282
40
0.5828943948
40
0.7087893953
40
0.8294260369
40
0.9473662078
40
1.0000000000
40
1.0000000000
40
1.0000000000
40
1.0000000000
10
10.5258824827
20
-32.3405351909
30
0.0000000000
10
10.5257318287
20
-32.3759519370
30
0.0000000000
10
10.5219397262
20
-32.4449801233
30
0.0000000000
10
10.5047827275
20
-32.5443541055
30
0.0000000000
10
10.4764542751
20
-32.6353062817
30
0.0000000000
10
10.4372885463
20
-32.7162576011
30
0.0000000000
10
10.3878048104
20
-32.7858026309
30
0.0000000000
10
10.3287025070
20
-32.8426832910
30
0.0000000000
10
10.2733660439
20
-32.8778796714
30
0.0000000000
10
10.2384160988
20
-32.8934267505
30
0.0000000000
10
10.2274386618
20
-32.8977336755
30
0.0000000000
11
10.5258824827
21
-32.3405351909
31
0.0000000000
11
10.5197354653
21
-32.4466084279
31
0.0000000000
11
10.5022470512
21
-32.5457385651
31
0.0000000000
11
10.4736352431
21
-32.6362074996
31
0.0000000000
11
10.4343580171
21
-32.7164167801
31
0.0000000000
11
10.3850741082
21
-32.7850220073
31
0.0000000000
11
10.3265655837
21
-32.8409568496
31
0.0000000000
11
10.2597434490
21
-32.8833494336
31
0.0000000000
11
10.2274386618
21
-32.8977336755
31
0.0000000000
0
SPLINE
5
3BA
100
AcDbEntity
8
0
100
AcDbSpline
62
7
6
CONTINUOUS
70
0
71
3
72
13
73
9
74
7
42
0.0000001000
43
0.0000001000
44
0.0000000001
12
-0.1270047135
22
-0.0571777790
32
0.0000000000
13
-0.1258083664
23
0.0597641246
33
0.0000000000
40
0.0000000000
40
0.0000000000
40
0.0000000000
40
0.0000000000
40
0.1548001197
40
0.3244891781
40
0.5018423017
40
0.6787524713
40
0.8471617095
40
1.0000000000
40
1.0000000000
40
1.0000000000
40
1.0000000000
10
10.5258830929
20
11.7913367327
30
0.0000000000
10
10.5193296446
20
11.7883863571
30
0.0000000000
10
10.5049799371
20
11.7835359118
30
0.0000000000
10
10.4820020478
20
11.7793223753
30
0.0000000000
10
10.4576490822
20
11.7779952021
30
0.0000000000
10
10.4333744570
20
11.7796403997
30
0.0000000000
10
10.4106266913
20
11.7841523188
30
0.0000000000
10
10.3965014113
20
11.7892007355
30
0.0000000000
10
10.3900919660
20
11.7922454844
30
0.0000000000
11
10.5258830929
21
11.7913367327
31
0.0000000000
11
10.5055228176
21
11.7842423125
31
0.0000000000
11
10.4822955238
21
11.7798731928
31
0.0000000000
11
10.4576316970
21
11.7784984521
31
0.0000000000
11
10.4330502934
21
11.7802027555
31
0.0000000000
11
10.4100651932
21
11.7848811413
31
0.0000000000
11
10.3900919660
21
11.7922454844
31
0.0000000000
0
SPLINE
5
3BB
100
AcDbEntity
8
0
100
AcDbSpline
62
7
6
CONTINUOUS
70
0
71
3
72
13
73
9
74
7
42
0.0000001000
43
0.0000001000
44
0.0000000001
12
-0.1224708440
22
-0.0722028485
32
0.0000000000
13
-0.0064126459
23
-0.1420254799
33
0.0000000000
40
0.0000000000
40
0.0000000000
40
0.0000000000
40
0.0000000000
40
0.1512853894
40
0.3176600720
40
0.4930492765
40
0.6701327382
40
0.8413711106
40
1.0000000000
40
1.0000000000
40
1.0000000000
40
1.0000000000
10
9.8419953256
20
12.9807939879
30
0.0000000000
10
9.8358193091
20
12.9771529092
30
0.0000000000
10
9.8237325015
20
12.9679815777
30
0.0000000000
10
9.8077868273
20
12.9507813145
30
0.0000000000
10
9.7939116794
20
12.9303748496
30
0.0000000000
10
9.7829627659
20
12.9080065792
30
0.0000000000
10
9.7756037905
20
12.8850495709
30
0.0000000000
10
9.7732738505
20
12.8694891303
30
0.0000000000
10
9.7729347735
20
12.8619793489
30
0.0000000000
11
9.8419953256
21
12.9807939879
31
0.0000000000
11
9.8247179414
21
12.9679839256
31
0.0000000000
11
9.8085318201
21
12.9507357842
31
0.0000000000
11
9.7944663004
21
12.9301464405
31
0.0000000000
11
9.7834158642
21
12.9075252518
31
0.0000000000
11
9.7760832520
21
12.8843107883
31
0.0000000000
11
9.7729347735
21
12.8619793489
31
0.0000000000
0
SPLINE
5
3BC
100
AcDbEntity
8
0
100
AcDbSpline
62
7
6
CONTINUOUS
70
0
71
3
72
19
73
15
74
13
42
0.0000001000
43
0.0000001000
44
0.0000000001
12
1.1335464446
22
-0.6111003025
32
0.0000000000
13
0.0000408563
23
-1.2877775895
33
0.0000000000
40
0.0000000000
40
0.0000000000
40
0.0000000000
40
0.0000000000
40
0.0743929413
40
0.1528431051
40
0.2347434890
40
0.3193917383
40
0.4060064087
40
0.4938108883
40
0.5819974497
40
0.6697493321
40
0.7562574866
40
0.8406658851
40
0.9221629754
40
1.0000000000
40
1.0000000000
40
1.0000000000
40
1.0000000000
10
9.7729347721
20
12.8619793482
30
0.0000000000
10
9.8010440569
20
12.8468254985
30
0.0000000000
10
9.8569758047
20
12.8122257015
30
0.0000000000
10
9.9367868774
20
12.7504565899
30
0.0000000000
10
10.0135400878
20
12.6783374382
30
0.0000000000
10
10.0859057596
20
12.5970842352
30
0.0000000000
10
10.1527147769
20
12.5080250877
30
0.0000000000
10
10.2129170179
20
12.4125791651
30
0.0000000000
10
10.2655867140
20
12.3122288542
30
0.0000000000
10
10.3099083695
20
12.2085248285
30
0.0000000000
10
10.3451756876
20
12.1031066158
30
0.0000000000
10
10.3708135323
20
11.9976908163
30
0.0000000000
10
10.3864172742
20
11.8940917830
30
0.0000000000
10
10.3900909060
20
11.8256577431
30
0.0000000000
10
10.3900919660
20
11.7922454844
30
0.0000000000
11
9.7729347721
21
12.8619793482
31
0.0000000000
11
9.8545514865
21
12.8118131110
31
0.0000000000
11
9.9345885633
21
12.7501657889
31
0.0000000000
11
10.0115743392
21
12.6780755585
31
0.0000000000
11
10.0841737436
21
12.5967607604
31
0.0000000000
11
10.1511763763
21
12.5075872494
31
0.0000000000
11
10.2115349898
21
12.4119720835
31
0.0000000000
11
10.2643111132
21
12.3114155482
31
0.0000000000
11
10.3086806297
21
12.2074854989
31
0.0000000000
11
10.3439395061
21
12.1018091128
31
0.0000000000
11
10.3694965112
21
11.9961570179
31
0.0000000000
11
10.3849441328
21
11.8923499852
31
0.0000000000
11
10.3900919660
21
11.7922454844
31
0.0000000000
0
SPLINE
5
3BD
100
AcDbEntity
8
0
100
AcDbSpline
62
7
6
CONTINUOUS
70
0
71
3
72
19
73
15
74
13
42
0.0000001000
43
0.0000001000
44
0.0000000001
12
1.2539434103
22
-0.6860567458
32
0.0000000000
13
0.0061032515
23
-1.4293392477
33
0.0000000000
40
0.0000000000
40
0.0000000000
40
0.0000000000
40
0.0000000000
40
0.0742845299
40
0.1526005498
40
0.2344325084
40
0.3190637425
40
0.4057010516
40
0.4935546415
40
0.5818047419
40
0.6696242471
40
0.7561900730
40
0.8406324112
40
0.9221224019
40
1.0000000000
40
1.0000000000
40
1.0000000000
40
1.0000000000
10
9.8419953256
20
12.9807939879
30
0.0000000000
10
9.8730448578
20
12.9638061869
30
0.0000000000
10
9.9347910918
20
12.9250868018
30
0.0000000000
10
10.0228786344
20
12.8561336373
30
0.0000000000
10
10.1076135510
20
12.7757594805
30
0.0000000000
10
10.1875657063
20
12.6852901768
30
0.0000000000
10
10.2614435589
20
12.5862050571
30
0.0000000000
10
10.3280871781
20
12.4800821529
30
0.0000000000
10
10.3864735706
20
12.3685675795
30
0.0000000000
10
10.4357001210
20
12.2533820788
30
0.0000000000
10
10.4749831592
20
12.1363443763
30
0.0000000000
10
10.5036816505
20
12.0193606782
30
0.0000000000
10
10.5213494219
20
11.9043962625
30
0.0000000000
10
10.5257240469
20
11.8284415742
30
0.0000000000
10
10.5258824824
20
11.7913370717
30
0.0000000000
11
9.8419953256
21
12.9807939879
31
0.0000000000
11
9.9321155655
21
12.9246488915
31
0.0000000000
11
10.0204246929
21
12.8558569868
31
0.0000000000
11
10.1054265152
21
12.7755083822
31
0.0000000000
11
10.1856446733
21
12.6849640992
31
0.0000000000
11
10.2597434539
21
12.5857444631
31
0.0000000000
11
10.3265655881
21
12.4794262439
31
0.0000000000
11
10.3850741121
21
12.3676757458
31
0.0000000000
11
10.4343580203
21
12.2522304147
31
0.0000000000
11
10.4736352456
21
12.1348968311
31
0.0000000000
11
10.5022470529
21
12.0176392723
31
0.0000000000
11
10.5197354662
21
11.9024817390
31
0.0000000000
11
10.5258824824
21
11.7913370717
31
0.0000000000
0
SPLINE
5
3BE
100
AcDbEntity
8
0
100
AcDbSpline
62
7
6
CONTINUOUS
70
0
71
3
72
13
73
9
74
7
42
0.0000001000
43
0.0000001000
44
0.0000000001
12
-0.1260332214
22
-0.0684269406
32
0.0000000000
13
0.0058970114
23
-0.1432893728
33
0.0000000000
40
0.0000000000
40
0.0000000000
40
0.0000000000
40
0.0000000000
40
0.1518884492
40
0.3168476906
40
0.4902280819
40
0.6660247610
40
0.8378720125
40
1.0000000000
40
1.0000000000
40
1.0000000000
40
1.0000000000
10
-23.3196935635
20
29.5616392734
30
0.0000000000
10
-23.3260745604
20
29.5581748527
30
0.0000000000
10
-23.3384857254
20
29.5492364003
30
0.0000000000
10
-23.3545018215
20
29.5319641263
30
0.0000000000
10
-23.3679113403
20
29.5112268762
30
0.0000000000
10
-23.3778944504
20
29.4882860239
30
0.0000000000
10
-23.3838509834
20
29.4645444105
30
0.0000000000
10
-23.3849285152
20
29.4484953874
30
0.0000000000
10
-23.3846098250
20
29.4407516482
30
0.0000000000
11
-23.3196935635
21
29.5616392734
31
0.0000000000
11
-23.3375004547
21
29.5490938118
31
0.0000000000
11
-23.3536967599
21
29.5318505723
31
0.0000000000
11
-23.3672524803
21
29.5110061330
31
0.0000000000
11
-23.3773055442
21
29.4878860894
31
0.0000000000
11
-23.3832166303
21
29.4639607531
31
0.0000000000
11
-23.3846098250
21
29.4407516482
31
0.0000000000
0
SPLINE
5
3BF
100
AcDbEntity
8
0
100
AcDbSpline
62
7
6
CONTINUOUS
70
0
71
3
72
9
73
5
74
3
42
0.0000001000
43
0.0000001000
44
0.0000000001
12
7.2834611731
22
-3.3428191181
32
0.0000000000
13
7.2316437819
23
-3.4535719027
33
0.0000000000
40
0.0000000000
40
0.0000000000
40
0.0000000000
40
0.0000000000
40
0.5360474225
40
1.0000000000
40
1.0000000000
40
1.0000000000
40
1.0000000000
10
-23.3846098265
20
29.4407516475
30
0.0000000000
10
-22.0831829636
20
28.8434484568
30
0.0000000000
10
-19.6600476302
20
27.7189418272
30
0.0000000000
10
-17.2455437126
20
26.5760356424
30
0.0000000000
10
-16.1271637885
20
26.0419377805
30
0.0000000000
11
-23.3846098265
21
29.4407516475
31
0.0000000000
11
-19.4878322740
21
27.6325836420
31
0.0000000000
11
-16.1271637885
21
26.0419377805
31
0.0000000000
0
SPLINE
5
3C0
100
AcDbEntity
8
0
100
AcDbSpline
62
7
6
CONTINUOUS
70
0
71
3
72
13
73
9
74
7
42
0.0000001000
43
0.0000001000
44
0.0000000001
12
26.2264235049
22
-12.5247927104
32
0.0000000000
13
25.5831799402
23
-13.7909006494
33
0.0000000000
40
0.0000000000
40
0.0000000000
40
0.0000000000
40
0.0000000000
40
0.0626680143
40
0.2565426564
40
0.4458277130
40
0.6438509410
40
0.8424740983
40
1.0000000000
40
1.0000000000
40
1.0000000000
40
1.0000000000
10
-16.1271637885
20
26.0419377805
30
0.0000000000
10
-15.5793111607
20
25.7803031509
30
0.0000000000
10
-13.3383820244
20
24.7054795677
30
0.0000000000
10
-9.4567759658
20
22.8111575600
30
0.0000000000
10
-4.4210762828
20
20.2923988462
30
0.0000000000
10
0.6313534018
20
17.7048189563
30
0.0000000000
10
5.3866852891
20
15.2126457251
30
0.0000000000
10
8.4295969427
20
13.5861207015
30
0.0000000000
10
9.7729347721
20
12.8619793482
30
0.0000000000
11
-16.1271637885
21
26.0419377805
31
0.0000000000
11
-14.4849245478
21
25.2542806511
31
0.0000000000
11
-9.4209315717
21
22.7833329227
31
0.0000000000
11
-4.5006432471
21
20.3226523020
31
0.0000000000
11
0.6220340540
21
17.6994677511
31
0.0000000000
11
5.7352368154
21
15.0200873679
31
0.0000000000
11
9.7729347721
21
12.8619793482
31
0.0000000000
0
SPLINE
5
3C1
100
AcDbEntity
8
0
100
AcDbSpline
62
7
6
CONTINUOUS
70
0
71
3
72
14
73
10
74
8
42
0.0000001000
43
0.0000001000
44
0.0000000001
12
33.7021868424
22
-15.4675293449
32
0.0000000000
13
32.6413659007
23
-17.5961101989
33
0.0000000000
40
0.0000000000
40
0.0000000000
40
0.0000000000
40
0.0000000000
40
0.1158620265
40
0.2652638370
40
0.4172341482
40
0.5656068360
40
0.7208289982
40
0.8765214754
40
1.0000000000
40
1.0000000000
40
1.0000000000
40
1.0000000000
10
-23.3196935635
20
29.5616392734
30
0.0000000000
10
-22.0180923424
20
28.9642728420
30
0.0000000000
10
-19.0438540499
20
27.5840492537
30
0.0000000000
10
-14.3861248732
20
25.3694817958
30
0.0000000000
10
-9.3900686122
20
22.9312989865
30
0.0000000000
10
-4.3537455810
20
20.4122281957
30
0.0000000000
10
0.6993016286
20
17.8243122378
30
0.0000000000
10
5.4552127376
20
15.3317983817
30
0.0000000000
10
8.4984927598
20
13.7050420704
30
0.0000000000
10
9.8419953268
20
12.9807948287
30
0.0000000000
11
-23.3196935635
21
29.5616392734
31
0.0000000000
11
-19.4223960736
21
27.7532743201
31
0.0000000000
11
-14.4188491902
21
25.3747065408
31
0.0000000000
11
-9.3542206072
21
22.9034681419
31
0.0000000000
11
-4.4333234758
21
20.4424828759
31
0.0000000000
11
0.6899791633
21
17.8189581609
31
0.0000000000
11
5.8037996434
21
15.1392142861
31
0.0000000000
11
9.8419953268
21
12.9807948287
31
0.0000000000
0
SPLINE
5
3C2
100
AcDbEntity
8
0
100
AcDbSpline
62
7
6
CONTINUOUS
70
0
71
3
72
19
73
15
74
13
42
0.0000001000
43
0.0000001000
44
0.0000000001
12
0.0000280736
22
0.9325727843
32
0.0000000000
13
0.8475824448
23
-0.3889678626
33
0.0000000000
40
0.0000000000
40
0.0000000000
40
0.0000000000
40
0.0000000000
40
0.1020948066
40
0.1985486080
40
0.2889489463
40
0.3734194461
40
0.4526387019
40
0.5278979875
40
0.6009623036
40
0.6738951365
40
0.7487814026
40
0.8273745015
40
0.9109147400
40
1.0000000000
40
1.0000000000
40
1.0000000000
40
1.0000000000
10
-23.9714865312
20
28.9730347330
30
0.0000000000
10
-23.9714855758
20
29.0047716790
30
0.0000000000
10
-23.9684974201
20
29.0665524651
30
0.0000000000
10
-23.9541485181
20
29.1554283932
30
0.0000000000
10
-23.9301610027
20
29.2365631227
30
0.0000000000
10
-23.8968133502
20
29.3085208371
30
0.0000000000
10
-23.8545210883
20
29.3700664893
30
0.0000000000
10
-23.8038428477
20
29.4200818631
30
0.0000000000
10
-23.7455532984
20
29.4575594926
30
0.0000000000
10
-23.6807146055
20
29.4817009981
30
0.0000000000
10
-23.6106147153
20
29.4920698563
30
0.0000000000
10
-23.5366032746
20
29.4886241758
30
0.0000000000
10
-23.4600440707
20
29.4716586829
30
0.0000000000
10
-23.4097788606
20
29.4523020819
30
0.0000000000
10
-23.3846098265
20
29.4407516475
30
0.0000000000
11
-23.9714865312
21
28.9730347330
31
0.0000000000
11
-23.9665956316
21
29.0681198674
31
0.0000000000
11
-23.9519185764
21
29.1568645617
31
0.0000000000
11
-23.9276349714
21
29.2375963515
31
0.0000000000
11
-23.8941299350
21
29.3088907812
31
0.0000000000
11
-23.8519625536
21
29.3695523816
31
0.0000000000
11
-23.8017987102
21
29.4186389335
31
0.0000000000
11
-23.7444182458
21
29.4553845604
31
0.0000000000
11
-23.6807097788
21
29.4792025216
31
0.0000000000
11
-23.6116656792
21
29.4896955677
31
0.0000000000
11
-23.5384340750
21
29.4866771081
31
0.0000000000
11
-23.4622825634
21
29.4702301358
31
0.0000000000
11
-23.3846098265
21
29.4407516475
31
0.0000000000
0
SPLINE
5
3C3
100
AcDbEntity
8
0
100
AcDbSpline
62
7
6
CONTINUOUS
70
0
71
3
72
18
73
14
74
12
42
0.0000001000
43
0.0000001000
44
0.0000000001
12
1.0448736845
22
-0.7836756177
32
0.0000000000
13
0.0000000000
23
-1.3055370021
33
0.0000000000
40
0.0000000000
40
0.0000000000
40
0.0000000000
40
0.0000000000
40
0.0405627630
40
0.1315299077
40
0.2261777922
40
0.3236522451
40
0.4229857968
40
0.5231403979
40
0.6230477341
40
0.7216485495
40
0.8179322641
40
0.9109782099
40
1.0000000000
40
1.0000000000
40
1.0000000000
40
1.0000000000
10
40.1534657679
20
16.5577289323
30
0.0000000000
10
40.1675934224
20
16.5471329162
30
0.0000000000
10
40.2125428971
20
16.5116277268
30
0.0000000000
10
40.2851050829
20
16.4448917559
30
0.0000000000
10
40.3677780991
20
16.3533373514
30
0.0000000000
10
40.4444175056
20
16.2520858371
30
0.0000000000
10
40.5137318523
20
16.1428469406
30
0.0000000000
10
40.5745519769
20
16.0274662116
30
0.0000000000
10
40.6258498702
20
15.9078937155
30
0.0000000000
10
40.6667580976
20
15.7861513828
30
0.0000000000
10
40.6965844152
20
15.6642879204
30
0.0000000000
10
40.7148220725
20
15.5443733762
30
0.0000000000
10
40.7191498680
20
15.4650967297
30
0.0000000000
10
40.7191498680
20
15.4263563160
30
0.0000000000
11
40.1534657679
21
16.5577289323
31
0.0000000000
11
40.1950557887
21
16.5249196594
31
0.0000000000
11
40.2826411368
21
16.4447138267
31
0.0000000000
11
40.3655964774
21
16.3531330113
31
0.0000000000
11
40.4425024213
21
16.2517441862
31
0.0000000000
11
40.5120430868
21
16.1422821423
31
0.0000000000
11
40.5730286136
21
16.0266198056
31
0.0000000000
11
40.6244155225
21
15.9067361906
31
0.0000000000
11
40.6653245692
21
15.7846825394
31
0.0000000000
11
40.6950557887
21
15.6625472237
31
0.0000000000
11
40.7131004714
21
15.5424200126
31
0.0000000000
11
40.7191498680
21
15.4263563160
31
0.0000000000
0
SPLINE
5
3C4
100
AcDbEntity
8
0
100
AcDbSpline
62
7
6
CONTINUOUS
70
0
71
3
72
20
73
16
74
14
42
0.0000001000
43
0.0000001000
44
0.0000000001
12
0.4975059127
22
0.2492313785
32
0.0000000000
13
-0.4967780282
23
0.2483890141
33
0.0000000000
40
0.0000000000
40
0.0000000000
40
0.0000000000
40
0.0000000000
40
0.0651335417
40
0.1401075043
40
0.2173708300
40
0.2982433105
40
0.3818650015
40
0.4660480853
40
0.5509577161
40
0.6363818726
40
0.7194473479
40
0.7973651003
40
0.8704183302
40
0.9382368620
40
1.0000000000
40
1.0000000000
40
1.0000000000
40
1.0000000000
10
-3.7810450297
20
-23.6482171789
30
0.0000000000
10
-3.7702435890
20
-23.6428060714
30
0.0000000000
10
-3.7482595906
20
-23.6286825036
30
0.0000000000
10
-3.7191691267
20
-23.6005114883
30
0.0000000000
10
-3.6939491493
20
-23.5652406782
30
0.0000000000
10
-3.6739686668
20
-23.5249861801
30
0.0000000000
10
-3.6600151211
20
-23.4809264713
30
0.0000000000
10
-3.6525163959
20
-23.4345865493
30
0.0000000000
10
-3.6515400802
20
-23.3873180325
30
0.0000000000
10
-3.6574645561
20
-23.3405968256
30
0.0000000000
10
-3.6702758456
20
-23.2965973266
30
0.0000000000
10
-3.6892438924
20
-23.2574170893
30
0.0000000000
10
-3.7128330242
20
-23.2242415579
30
0.0000000000
10
-3.7397668377
20
-23.1978381830
30
0.0000000000
10
-3.7600168813
20
-23.1845897528
30
0.0000000000
10
-3.7702444047
20
-23.1794759912
30
0.0000000000
11
-3.7810450297
21
-23.6482171789
31
0.0000000000
11
-3.7505024616
21
-23.6288026133
31
0.0000000000
11
-3.7204222015
21
-23.6000067050
31
0.0000000000
11
-3.6953038490
21
-23.5652128821
31
0.0000000000
11
-3.6752509521
21
-23.5250197603
31
0.0000000000
11
-3.6611483326
21
-23.4807678906
31
0.0000000000
11
-3.6536207912
21
-23.4346212911
31
0.0000000000
11
-3.6526940123
21
-23.3874703395
31
0.0000000000
11
-3.6587589012
21
-23.3404137323
31
0.0000000000
11
-3.6717888126
21
-23.2961561643
31
0.0000000000
11
-3.6907146492
21
-23.2572372411
31
0.0000000000
11
-3.7143483502
21
-23.2242559470
31
0.0000000000
11
-3.7414006494
21
-23.1980451296
31
0.0000000000
11
-3.7702444047
21
-23.1794759912
31
0.0000000000
0
SPLINE
5
3C5
100
AcDbEntity
8
0
100
AcDbSpline
62
7
6
CONTINUOUS
70
0
71
3
72
8
73
4
74
2
42
0.0000001000
43
0.0000001000
44
0.0000000001
12
-0.2033173077
22
-0.0797873035
32
0.0000000000
13
-0.2033174331
23
-0.0797869839
33
0.0000000000
40
0.0000000000
40
0.0000000000
40
0.0000000000
40
0.0000000000
40
1.0000000000
40
1.0000000000
40
1.0000000000
40
1.0000000000
10
10.7292004633
20
-32.2607483860
30
0.0000000000
10
10.6614280274
20
-32.2873441539
30
0.0000000000
10
10.5936555706
20
-32.3139398685
30
0.0000000000
10
10.5258830929
20
-32.3405355298
30
0.0000000000
11
10.7292004633
21
-32.2607483860
31
0.0000000000
11
10.5258830929
21
-32.3405355298
31
0.0000000000
0
SPLINE
5
3C6
100
AcDbEntity
8
0
100
AcDbSpline
62
7
6
CONTINUOUS
70
0
71
3
72
8
73
4
74
2
42
0.0000001000
43
0.0000001000
44
0.0000000001
12
0.1618233766
22
0.0821838978
32
0.0000000000
13
0.1618234707
23
0.0821837125
33
0.0000000000
40
0.0000000000
40
0.0000000000
40
0.0000000000
40
0.0000000000
40
1.0000000000
40
1.0000000000
40
1.0000000000
40
1.0000000000
10
9.8419953268
20
12.9807948146
30
0.0000000000
10
9.8959364523
20
13.0081894472
30
0.0000000000
10
9.9498775935
20
13.0355840489
30
0.0000000000
10
10.0038187504
20
13.0629786197
30
0.0000000000
11
9.8419953268
21
12.9807948146
31
0.0000000000
11
10.0038187504
21
13.0629786197
31
0.0000000000
0
SPLINE
5
3C7
100
AcDbEntity
8
0
100
AcDbSpline
62
7
6
CONTINUOUS
70
0
71
3
72
8
73
4
74
2
42
0.0000001000
43
0.0000001000
44
0.0000000001
12
0.0543843862
22
0.0276196694
32
0.0000000000
13
0.0543843968
23
0.0276196484
33
0.0000000000
40
0.0000000000
40
0.0000000000
40
0.0000000000
40
0.0000000000
40
1.0000000000
40
1.0000000000
40
1.0000000000
40
1.0000000000
10
10.0038187504
20
13.0629786197
30
0.0000000000
10
10.0219468792
20
13.0721851762
30
0.0000000000
10
10.0400750096
20
13.0813917292
30
0.0000000000
10
10.0582031419
20
13.0905982786
30
0.0000000000
11
10.0038187504
21
13.0629786197
31
0.0000000000
11
10.0582031419
21
13.0905982786
31
0.0000000000
0
SPLINE
5
3C8
100
AcDbEntity
8
0
100
AcDbSpline
62
7
6
CONTINUOUS
70
0
71
3
72
8
73
4
74
2
42
0.0000001000
43
0.0000001000
44
0.0000000001
12
0.1996393048
22
0.1014124455
32
0.0000000000
13
0.1996394484
23
0.1014121629
33
0.0000000000
40
0.0000000000
40
0.0000000000
40
0.0000000000
40
0.0000000000
40
1.0000000000
40
1.0000000000
40
1.0000000000
40
1.0000000000
10
10.5258830929
20
11.7913367327
30
0.0000000000
10
10.5924295278
20
11.8251408813
30
0.0000000000
10
10.6589759867
20
11.8589449827
30
0.0000000000
10
10.7255224695
20
11.8927490370
30
0.0000000000
11
10.5258830929
21
11.7913367327
31
0.0000000000
11
10.7255224695
21
11.8927490370
31
0.0000000000
0
SPLINE
5
3C9
100
AcDbEntity
8
0
100
AcDbSpline
62
7
6
CONTINUOUS
70
0
71
3
72
8
73
4
74
2
42
0.0000001000
43
0.0000001000
44
0.0000000001
12
-0.2148283936
22
-0.1331073132
32
0.0000000000
13
-0.2148281647
23
-0.1331076826
33
0.0000000000
40
0.0000000000
40
0.0000000000
40
0.0000000000
40
0.0000000000
40
1.0000000000
40
1.0000000000
40
1.0000000000
40
1.0000000000
10
-23.1048652832
20
29.6947467570
30
0.0000000000
10
-23.1764747477
20
29.6503776526
30
0.0000000000
10
-23.2480841741
20
29.6060084866
30
0.0000000000
10
-23.3196935623
20
29.5616392591
30
0.0000000000
11
-23.1048652832
21
29.6947467570
31
0.0000000000
11
-23.3196935623
21
29.5616392591
31
0.0000000000
0
SPLINE
5
3CA
100
AcDbEntity
8
0
100
AcDbSpline
62
7
6
CONTINUOUS
70
0
71
3
72
18
73
14
74
12
42
0.0000001000
43
0.0000001000
44
0.0000000001
12
-0.0928826459
22
-0.3090270403
32
0.0000000000
13
-0.3029624759
23
0.1110475022
33
0.0000000000
40
0.0000000000
40
0.0000000000
40
0.0000000000
40
0.0000000000
40
0.1603294578
40
0.3055967161
40
0.4358891054
40
0.5525052255
40
0.6559046574
40
0.7444863673
40
0.8177971222
40
0.8771576523
40
0.9250431064
40
0.9645895445
40
1.0000000000
40
1.0000000000
40
1.0000000000
40
1.0000000000
10
9.2230006397
20
-31.1262059983
30
0.0000000000
10
9.2180366983
20
-31.1427213776
30
0.0000000000
10
9.2081664751
20
-31.1740784833
30
0.0000000000
10
9.1927069408
20
-31.2183486931
30
0.0000000000
10
9.1773598333
20
-31.2576509857
30
0.0000000000
10
9.1621221251
20
-31.2921267621
30
0.0000000000
10
9.1470359357
20
-31.3217166884
30
0.0000000000
10
9.1322492850
20
-31.3461588772
30
0.0000000000
10
9.1179615885
20
-31.3652555354
30
0.0000000000
10
9.1042291052
20
-31.3791077385
30
0.0000000000
10
9.0909339336
20
-31.3879229154
30
0.0000000000
10
9.0779076668
20
-31.3915523124
30
0.0000000000
10
9.0696725036
20
-31.3902731786
30
0.0000000000
10
9.0660964905
20
-31.3889624310
30
0.0000000000
11
9.2230006397
21
-31.1262059983
31
0.0000000000
11
9.2074134745
21
-31.1755359863
31
0.0000000000
11
9.1918950433
21
-31.2197664319
31
0.0000000000
11
9.1765245363
21
-31.2588977820
31
0.0000000000
11
9.1612141705
21
-31.2932710864
31
0.0000000000
11
9.1459300216
21
-31.3229285369
31
0.0000000000
11
9.1309697086
21
-31.3472836649
31
0.0000000000
11
9.1165956822
21
-31.3660710297
31
0.0000000000
11
9.1028794514
21
-31.3794404754
31
0.0000000000
11
9.0897729562
21
-31.3876236081
31
0.0000000000
11
9.0773892834
21
-31.3907020253
31
0.0000000000
11
9.0660964905
21
-31.3889624310
31
0.0000000000
0
SPLINE
5
3CB
100
AcDbEntity
8
0
100
AcDbSpline
62
7
6
CONTINUOUS
70
0
71
3
72
11
73
7
74
5
42
0.0000001000
43
0.0000001000
44
0.0000000001
12
-0.1358423275
22
0.0681701843
32
0.0000000000
13
-0.0674628703
23
0.1359540401
33
0.0000000000
40
0.0000000000
40
0.0000000000
40
0.0000000000
40
0.0000000000
40
0.1940474390
40
0.4567761993
40
0.7243953489
40
1.0000000000
40
1.0000000000
40
1.0000000000
40
1.0000000000
10
-21.7931043150
20
26.2834087282
30
0.0000000000
10
-21.8018909336
20
26.2878181447
30
0.0000000000
10
-21.8218678129
20
26.2996084511
30
0.0000000000
10
-21.8501825632
20
26.3231965131
30
0.0000000000
10
-21.8765276540
20
26.3545690677
30
0.0000000000
10
-21.8905764058
20
26.3783419605
30
0.0000000000
10
-21.8967740994
20
26.3908318158
30
0.0000000000
11
-21.7931043150
21
26.2834087282
31
0.0000000000
11
-21.8184809873
21
26.2983921205
31
0.0000000000
11
-21.8491585238
21
26.3238655176
31
0.0000000000
11
-21.8753666222
21
26.3548958876
31
0.0000000000
11
-21.8967740994
21
26.3908318158
31
0.0000000000
0
SPLINE
5
3CC
100
AcDbEntity
8
0
100
AcDbSpline
62
7
6
CONTINUOUS
70
0
71
3
72
9
73
5
74
3
42
0.0000001000
43
0.0000001000
44
0.0000000001
12
-0.0227077755
22
-0.0559819504
32
0.0000000000
13
-0.0026522283
23
-0.0602505668
33
0.0000000000
40
0.0000000000
40
0.0000000000
40
0.0000000000
40
0.0000000000
40
0.4495718621
40
1.0000000000
40
1.0000000000
40
1.0000000000
40
1.0000000000
10
-21.7020089678
20
26.2378528561
30
0.0000000000
10
-21.7054118935
20
26.2294635528
30
0.0000000000
10
-21.7110999032
20
26.2100689327
30
0.0000000000
10
-21.7134379064
20
26.1899982946
30
0.0000000000
10
-21.7139245267
20
26.1789437588
30
0.0000000000
11
-21.7020089678
21
26.2378528561
31
0.0000000000
11
-21.7098491456
21
26.2118883686
31
0.0000000000
11
-21.7139245267
21
26.1789437588
31
0.0000000000
0
SPLINE
5
3CD
100
AcDbEntity
8
0
100
AcDbSpline
62
7
6
CONTINUOUS
70
0
71
3
72
11
73
7
74
5
42
0.0000001000
43
0.0000001000
44
0.0000000001
12
-0.0001105034
22
-0.0462662582
32
0.0000000000
13
0.0407384728
23
-0.0214394537
33
0.0000000000
40
0.0000000000
40
0.0000000000
40
0.0000000000
40
0.0000000000
40
0.0144667158
40
0.2915265242
40
0.6134482209
40
1.0000000000
40
1.0000000000
40
1.0000000000
40
1.0000000000
10
-23.9989885004
20
-15.1243984989
30
0.0000000000
10
-23.9989890333
20
-15.1246216058
30
0.0000000000
10
-23.9989363104
20
-15.1291169636
30
0.0000000000
10
-23.9960868505
20
-15.1384933372
30
0.0000000000
10
-23.9859471649
20
-15.1501019381
30
0.0000000000
10
-23.9767357076
20
-15.1560750432
30
0.0000000000
10
-23.9714865312
20
-15.1588375295
30
0.0000000000
11
-23.9989885004
21
-15.1243984989
31
0.0000000000
11
-23.9989805959
21
-15.1250676640
31
0.0000000000
11
-23.9955719890
21
-15.1373583658
31
0.0000000000
11
-23.9862152174
21
-15.1488509159
31
0.0000000000
11
-23.9714865312
21
-15.1588375295
31
0.0000000000
0
SPLINE
5
3CE
100
AcDbEntity
8
0
100
AcDbSpline
62
7
6
CONTINUOUS
70
0
71
3
72
9
73
5
74
3
42
0.0000001000
43
0.0000001000
44
0.0000000001
12
-0.0071103887
22
-0.0034668137
32
0.0000000000
13
-0.0069157758
23
-0.0038403736
33
0.0000000000
40
0.0000000000
40
0.0000000000
40
0.0000000000
40
0.0000000000
40
0.4954356311
40
1.0000000000
40
1.0000000000
40
1.0000000000
40
1.0000000000
10
-6.8193560578
20
-17.6950956994
30
0.0000000000
10
-6.8205303044
20
-17.6956682271
30
0.0000000000
10
-6.8228846111
20
-17.6968565398
30
0.0000000000
10
-6.8252064363
20
-17.6981070796
30
0.0000000000
10
-6.8263695876
20
-17.6987529849
30
0.0000000000
11
-6.8193560578
21
-17.6950956994
31
0.0000000000
11
-6.8228551465
21
-17.6968609661
31
0.0000000000
11
-6.8263695876
21
-17.6987529849
31
0.0000000000
0
SPLINE
5
3CF
100
AcDbEntity
8
0
100
AcDbSpline
62
7
6
CONTINUOUS
70
0
71
3
72
11
73
7
74
5
42
0.0000001000
43
0.0000001000
44
0.0000000001
12
-0.0507441935
22
0.0298722707
32
0.0000000000
13
0.0025114638
23
0.0583963495
33
0.0000000000
40
0.0000000000
40
0.0000000000
40
0.0000000000
40
0.0000000000
40
0.0858768895
40
0.3546150608
40
0.6559663850
40
1.0000000000
40
1.0000000000
40
1.0000000000
40
1.0000000000
10
-23.3630910936
20
-16.2952913635
30
0.0000000000
10
-23.3645436781
20
-16.2944362509
30
0.0000000000
10
-23.3702944547
20
-16.2904958395
30
0.0000000000
10
-23.3785107889
20
-16.2802564853
30
0.0000000000
10
-23.3842098496
20
-16.2630953884
30
0.0000000000
10
-23.3848978345
20
-16.2504084063
30
0.0000000000
10
-23.3846098252
20
-16.2437116372
30
0.0000000000
11
-23.3630910936
21
-16.2952913635
31
0.0000000000
11
-23.3672522321
21
-16.2924342183
31
0.0000000000
11
-23.3773053228
21
-16.2803647759
31
0.0000000000
11
-23.3832164922
21
-16.2637721859
31
0.0000000000
11
-23.3846098252
21
-16.2437116372
31
0.0000000000
0
SPLINE
5
3D0
100
AcDbEntity
8
0
100
AcDbSpline
62
7
6
CONTINUOUS
70
0
71
3
72
11
73
7
74
5
42
0.0000001000
43
0.0000001000
44
0.0000000001
12
-0.0626577347
22
0.0260054243
32
0.0000000000
13
-0.0029138225
23
0.0673187560
33
0.0000000000
40
0.0000000000
40
0.0000000000
40
0.0000000000
40
0.0000000000
40
0.1584943804
40
0.4068613788
40
0.6857651130
40
1.0000000000
40
1.0000000000
40
1.0000000000
40
1.0000000000
10
9.8037297885
20
-32.8786922625
30
0.0000000000
10
9.8004194889
20
-32.8773183579
30
0.0000000000
10
9.7923888600
20
-32.8726289116
30
0.0000000000
10
9.7822221754
20
-32.8606077085
30
0.0000000000
10
9.7750748503
20
-32.8428554734
30
0.0000000000
10
9.7732399817
20
-32.8295352370
30
0.0000000000
10
9.7729347735
20
-32.8224839364
30
0.0000000000
11
9.8037297885
21
-32.8786922625
31
0.0000000000
11
9.7944660847
21
-32.8732940931
31
0.0000000000
11
9.7834156609
21
-32.8607257935
31
0.0000000000
11
9.7760831203
21
-32.8434222706
31
0.0000000000
11
9.7729347735
21
-32.8224839364
31
0.0000000000
0
SPLINE
5
3D1
100
AcDbEntity
8
0
100
AcDbSpline
62
7
6
CONTINUOUS
70
0
71
3
72
11
73
7
74
5
42
0.0000001000
43
0.0000001000
44
0.0000000001
12
-0.0000947912
22
-0.0462580652
32
0.0000000000
13
0.0407313861
23
-0.0214357251
33
0.0000000000
40
0.0000000000
40
0.0000000000
40
0.0000000000
40
0.0000000000
40
0.0142971489
40
0.2914052443
40
0.6133825359
40
1.0000000000
40
1.0000000000
40
1.0000000000
40
1.0000000000
10
-23.9989885180
20
29.0074657146
30
0.0000000000
10
-23.9989889698
20
29.0072452618
30
0.0000000000
10
-23.9989354948
20
29.0027525792
30
0.0000000000
10
-23.9960868028
20
28.9933788517
30
0.0000000000
10
-23.9859471188
20
28.9817702933
30
0.0000000000
10
-23.9767356862
20
28.9757972083
30
0.0000000000
10
-23.9714865312
20
28.9730347330
30
0.0000000000
11
-23.9989885180
21
29.0074657146
31
0.0000000000
11
-23.9989805935
21
29.0068045098
31
0.0000000000
11
-23.9955719451
21
28.9945138155
31
0.0000000000
11
-23.9862151630
21
28.9830212984
31
0.0000000000
11
-23.9714865312
21
28.9730347330
31
0.0000000000
0
SPLINE
5
3D2
100
AcDbEntity
8
0
100
AcDbSpline
62
7
6
CONTINUOUS
70
0
71
3
72
13
73
9
74
7
42
0.0000001000
43
0.0000001000
44
0.0000000001
12
0.3814477565
22
0.2363522090
32
0.0000000000
13
0.4082672823
23
-0.1842191413
33
0.0000000000
40
0.0000000000
40
0.0000000000
40
0.0000000000
40
0.0000000000
40
0.0722857143
40
0.2416964642
40
0.4157891595
40
0.5985413328
40
0.7927385269
40
1.0000000000
40
1.0000000000
40
1.0000000000
40
1.0000000000
10
-23.7500128520
20
29.5606506484
30
0.0000000000
10
-23.7408217774
20
29.5663456112
30
0.0000000000
10
-23.7092417341
20
29.5840141257
30
0.0000000000
10
-23.6506473470
20
29.6058931985
30
0.0000000000
10
-23.5724277136
20
29.6176561660
30
0.0000000000
10
-23.4897780694
20
29.6141359528
30
0.0000000000
10
-23.4041741699
20
29.5956395390
30
0.0000000000
10
-23.3478995131
20
29.5743655708
30
0.0000000000
10
-23.3196934870
20
29.5616383939
30
0.0000000000
11
-23.7500128520
21
29.5606506484
31
0.0000000000
11
-23.7217102009
21
29.5764712952
31
0.0000000000
11
-23.6506628834
21
29.6031178814
31
0.0000000000
11
-23.5735998416
21
29.6150215636
31
0.0000000000
11
-23.4918011384
21
29.6119699044
31
0.0000000000
11
-23.4066853215
21
29.5940493363
31
0.0000000000
11
-23.3196934870
21
29.5616383939
31
0.0000000000
0
SPLINE
5
3D3
100
AcDbEntity
8
0
100
AcDbSpline
62
7
6
CONTINUOUS
70
0
71
3
72
11
73
7
74
5
42
0.0000001000
43
0.0000001000
44
0.0000000001
12
0.0482009592
22
0.0239889202
32
0.0000000000
13
0.0251738994
23
-0.0430584636
33
0.0000000000
40
0.0000000000
40
0.0000000000
40
0.0000000000
40
0.0000000000
40
0.4645705024
40
0.8050613832
40
0.9884282404
40
1.0000000000
40
1.0000000000
40
1.0000000000
40
1.0000000000
10
-6.8193560578
20
-17.6950956994
30
0.0000000000
10
-6.8118918098
20
-17.6913808512
30
0.0000000000
10
-6.7980831074
20
-17.6845513258
30
0.0000000000
10
-6.7836472268
20
-17.6803398068
30
0.0000000000
10
-6.7712719549
20
-17.6745071231
30
0.0000000000
10
-6.7694758633
20
-17.6770782153
30
0.0000000000
10
-6.7693787612
20
-17.6772443027
30
0.0000000000
11
-6.8193560578
21
-17.6950956994
31
0.0000000000
11
-6.7966377917
21
-17.6846306989
31
0.0000000000
11
-6.7794695780
21
-17.6782024704
31
0.0000000000
11
-6.7696986466
21
-17.6767895126
31
0.0000000000
11
-6.7693787612
21
-17.6772443027
31
0.0000000000
0
SPLINE
5
3D4
100
AcDbEntity
8
0
100
AcDbSpline
62
7
6
CONTINUOUS
70
0
71
3
72
9
73
5
74
3
42
0.0000001000
43
0.0000001000
44
0.0000000001
12
-0.0071103887
22
-0.0034668137
32
0.0000000000
13
-0.0069157758
23
-0.0038403736
33
0.0000000000
40
0.0000000000
40
0.0000000000
40
0.0000000000
40
0.0000000000
40
0.4954356311
40
1.0000000000
40
1.0000000000
40
1.0000000000
40
1.0000000000
10
9.0905465189
20
-25.6500469878
30
0.0000000000
10
9.0893722723
20
-25.6506195154
30
0.0000000000
10
9.0870179656
20
-25.6518078282
30
0.0000000000
10
9.0846961404
20
-25.6530583680
30
0.0000000000
10
9.0835329891
20
-25.6537042732
30
0.0000000000
11
9.0905465189
21
-25.6500469878
31
0.0000000000
11
9.0870474302
21
-25.6518122544
31
0.0000000000
11
9.0835329891
21
-25.6537042732
31
0.0000000000
0
SPLINE
5
3D5
100
AcDbEntity
8
0
100
AcDbSpline
62
7
6
CONTINUOUS
70
0
71
3
72
13
73
9
74
7
42
0.0000001000
43
0.0000001000
44
0.0000000001
12
32.2482481124
22
-14.8532139220
32
0.0000000000
13
31.2720485444
23
-16.8114975529
33
0.0000000000
40
0.0000000000
40
0.0000000000
40
0.0000000000
40
0.0000000000
40
0.1611356478
40
0.3245703068
40
0.4902427070
40
0.6580865847
40
0.8280309051
40
1.0000000000
40
1.0000000000
40
1.0000000000
40
1.0000000000
10
-22.6851904448
20
28.0035206914
30
0.0000000000
10
-20.9530763278
20
27.2057266089
30
0.0000000000
10
-17.4730800514
20
25.5792605913
30
0.0000000000
10
-12.2436546289
20
23.0659397815
30
0.0000000000
10
-6.9697991103
20
20.4625355128
30
0.0000000000
10
-1.6542156146
20
17.7703361329
30
0.0000000000
10
3.7003174063
20
14.9907966994
30
0.0000000000
10
7.2734878629
20
13.0915632297
30
0.0000000000
10
9.0660964905
20
12.1278772238
30
0.0000000000
11
-22.6851904448
21
28.0035206914
31
0.0000000000
11
-17.5021170328
21
25.5815375333
31
0.0000000000
11
-12.2719549554
21
23.0683163232
31
0.0000000000
11
-6.9973153238
21
20.4649711712
31
0.0000000000
11
-1.6808966510
21
17.7727873378
31
0.0000000000
11
3.6745239536
21
14.9932172158
31
0.0000000000
11
9.0660964905
21
12.1278772238
31
0.0000000000
0
SPLINE
5
3D6
100
AcDbEntity
8
0
100
AcDbSpline
62
7
6
CONTINUOUS
70
0
71
3
72
14
73
10
74
8
42
0.0000001000
43
0.0000001000
44
0.0000000001
12
0.2014795611
22
-0.1084619390
32
0.0000000000
13
0.0963971556
23
-0.2075543404
33
0.0000000000
40
0.0000000000
40
0.0000000000
40
0.0000000000
40
0.0000000000
40
0.1123684902
40
0.2412776141
40
0.3854974329
40
0.5457066810
40
0.7241806745
40
0.9216408884
40
1.0000000000
40
1.0000000000
40
1.0000000000
40
1.0000000000
10
9.0562306737
20
12.1927992403
30
0.0000000000
10
9.0637773251
20
12.1887366722
30
0.0000000000
10
9.0792542309
20
12.1786275215
30
0.0000000000
10
9.1014373384
20
12.1592134982
30
0.0000000000
10
9.1236360582
20
12.1346396346
30
0.0000000000
10
9.1455840081
20
12.1050015502
30
0.0000000000
10
9.1671771410
20
12.0702285690
30
0.0000000000
10
9.1833679985
20
12.0395662645
30
0.0000000000
10
9.1924341460
20
12.0205783051
30
0.0000000000
10
9.1949520111
20
12.0151570472
30
0.0000000000
11
9.0562306737
21
12.1927992403
31
0.0000000000
11
9.0778477468
21
12.1788776811
31
0.0000000000
11
9.1001719704
21
12.1595983798
31
0.0000000000
11
9.1224222492
21
12.1352275385
31
0.0000000000
11
9.1443616823
21
12.1058586030
31
0.0000000000
11
9.1660197262
21
12.0712365446
31
0.0000000000
11
9.1872211778
21
12.0313371065
31
0.0000000000
11
9.1949520111
21
12.0151570472
31
0.0000000000
0
SPLINE
5
3D7
100
AcDbEntity
8
0
100
AcDbSpline
62
7
6
CONTINUOUS
70
0
71
3
72
18
73
14
74
12
42
0.0000001000
43
0.0000001000
44
0.0000000001
12
0.3240689979
22
-0.6977584215
32
0.0000000000
13
-0.0000039601
23
-0.7692452358
33
0.0000000000
40
0.0000000000
40
0.0000000000
40
0.0000000000
40
0.0000000000
40
0.0404148888
40
0.1080774208
40
0.1799694047
40
0.2567448070
40
0.3391182689
40
0.4278493259
40
0.5239456027
40
0.6284534713
40
0.7421911161
40
0.8657402175
40
1.0000000000
40
1.0000000000
40
1.0000000000
40
1.0000000000
10
9.1949520111
20
12.0151570472
30
0.0000000000
10
9.1993177486
20
12.0057571042
30
0.0000000000
10
9.2105279834
20
11.9804038583
30
0.0000000000
10
9.2273664560
20
11.9374191920
30
0.0000000000
10
9.2452064120
20
11.8848775152
30
0.0000000000
10
9.2619045539
20
11.8280207201
30
0.0000000000
10
9.2774452995
20
11.7663743172
30
0.0000000000
10
9.2917397852
20
11.6993525052
30
0.0000000000
10
9.3046063397
20
11.6262708377
30
0.0000000000
10
9.3157349036
20
11.5464232990
30
0.0000000000
10
9.3246520362
20
11.4592160264
30
0.0000000000
10
9.3307067513
20
11.3641153093
30
0.0000000000
10
9.3321773873
20
11.2980002863
30
0.0000000000
10
9.3321772101
20
11.2635740536
30
0.0000000000
11
9.1949520111
21
12.0151570472
31
0.0000000000
11
9.2075481814
21
11.9867313388
31
0.0000000000
11
9.2266067033
21
11.9382970584
31
0.0000000000
11
9.2444493360
21
11.8859519127
31
0.0000000000
11
9.2611451847
21
11.8293018695
31
0.0000000000
11
9.2766819732
21
11.7678707597
31
0.0000000000
11
9.2909612043
21
11.7011251434
31
0.0000000000
11
9.3038149139
21
11.6283296384
31
0.0000000000
11
9.3149420538
21
11.5487112399
31
0.0000000000
11
9.3238621654
21
11.4616750037
31
0.0000000000
11
9.3299051006
21
11.3668277557
31
0.0000000000
11
9.3321772101
21
11.2635740536
31
0.0000000000
0
SPLINE
5
3D8
100
AcDbEntity
8
0
100
AcDbSpline
62
7
6
CONTINUOUS
70
0
71
3
72
13
73
9
74
7
42
0.0000001000
43
0.0000001000
44
0.0000000001
12
32.2548744225
22
-14.8566986629
32
0.0000000000
13
31.2788006670
23
-16.8147271166
33
0.0000000000
40
0.0000000000
40
0.0000000000
40
0.0000000000
40
0.0000000000
40
0.1611363626
40
0.3245714530
40
0.4902440060
40
0.6580877454
40
0.8280316250
40
1.0000000000
40
1.0000000000
40
1.0000000000
40
1.0000000000
10
-22.7017456721
20
28.0717874132
30
0.0000000000
10
-20.9692679584
20
27.2738026188
30
0.0000000000
10
-17.4885414319
20
25.6469567401
30
0.0000000000
10
-12.2580144694
20
23.1330720664
30
0.0000000000
10
-6.9830482325
20
20.5291081582
30
0.0000000000
10
-1.6663452180
20
17.8363535373
30
0.0000000000
10
3.6893159036
20
15.0562633834
30
0.0000000000
10
7.2632424999
20
13.1566663395
30
0.0000000000
10
9.0562306737
20
12.1927992403
30
0.0000000000
11
-22.7017456721
21
28.0717874132
31
0.0000000000
11
-17.5175799525
21
25.6492361473
31
0.0000000000
11
-12.2863162449
21
23.1354509199
31
0.0000000000
11
-7.0105656174
21
20.5315458683
31
0.0000000000
11
-1.6930271501
21
17.8388065445
31
0.0000000000
11
3.6635214647
21
15.0586856255
31
0.0000000000
11
9.0562306737
21
12.1927992403
31
0.0000000000
0
SPLINE
5
3D9
100
AcDbEntity
8
0
100
AcDbSpline
62
7
6
CONTINUOUS
70
0
71
3
72
25
73
21
74
19
42
0.0000001000
43
0.0000001000
44
0.0000000001
12
-0.0000001779
22
0.7912910064
32
0.0000000000
13
0.7188917594
23
-0.3306600900
33
0.0000000000
40
0.0000000000
40
0.0000000000
40
0.0000000000
40
0.0000000000
40
0.1233651616
40
0.2323918124
40
0.3288956491
40
0.4143602955
40
0.4902813112
40
0.5580378370
40
0.6186734665
40
0.6729671632
40
0.7216416224
40
0.7653369901
40
0.8044552479
40
0.8390746588
40
0.8697596035
40
0.8974955093
40
0.9235390589
40
0.9489668134
40
0.9743247480
40
1.0000000000
40
1.0000000000
40
1.0000000000
40
1.0000000000
10
-22.9648318905
20
27.4120786040
30
0.0000000000
10
-22.9648318978
20
27.4446178516
30
0.0000000000
10
-22.9636052023
20
27.5059234911
30
0.0000000000
10
-22.9582764524
20
27.5925337443
30
0.0000000000
10
-22.9503905618
20
27.6689042627
30
0.0000000000
10
-22.9405284202
20
27.7362289394
30
0.0000000000
10
-22.9290992862
20
27.7955997042
30
0.0000000000
10
-22.9163714654
20
27.8479888566
30
0.0000000000
10
-22.9025191121
20
27.8941670608
30
0.0000000000
10
-22.8876574204
20
27.9347111696
30
0.0000000000
10
-22.8718517151
20
27.9700586621
30
0.0000000000
10
-22.8551361333
20
28.0004987302
30
0.0000000000
10
-22.8375907241
20
28.0260987805
30
0.0000000000
10
-22.8193479152
20
28.0468415689
30
0.0000000000
10
-22.8005359553
20
28.0627654889
30
0.0000000000
10
-22.7811367582
20
28.0739981612
30
0.0000000000
10
-22.7611133500
20
28.0805373918
30
0.0000000000
10
-22.7407304760
20
28.0822423160
30
0.0000000000
10
-22.7206245459
20
28.0792629246
30
0.0000000000
10
-22.7078982478
20
28.0746173402
30
0.0000000000
10
-22.7017456721
20
28.0717874132
30
0.0000000000
11
-22.9648318905
21
27.4120786040
31
0.0000000000
11
-22.9628141610
21
27.5096754917
31
0.0000000000
11
-22.9574432874
21
27.5957799550
31
0.0000000000
11
-22.9495211647
21
27.6717305272
31
0.0000000000
11
-22.9396368096
21
27.7386316900
31
0.0000000000
11
-22.9281938886
21
27.7976074418
31
0.0000000000
11
-22.9154440535
21
27.8496845367
31
0.0000000000
11
-22.9015579361
21
27.8956116229
31
0.0000000000
11
-22.8866623241
21
27.9359088185
31
0.0000000000
11
-22.8708186177
21
27.9710148460
31
0.0000000000
11
-22.8540405565
21
28.0012469358
31
0.0000000000
11
-22.8363936502
21
28.0266778659
31
0.0000000000
11
-22.8181560466
21
28.0471185756
31
0.0000000000
11
-22.7994967672
21
28.0626551355
31
0.0000000000
11
-22.7804172851
21
28.0735018750
31
0.0000000000
11
-22.7607929165
21
28.0797927350
31
0.0000000000
11
-22.7407417966
21
28.0814652504
31
0.0000000000
11
-22.7208791455
21
28.0786192702
31
0.0000000000
11
-22.7017456721
21
28.0717874132
31
0.0000000000
0
SPLINE
5
3DA
100
AcDbEntity
8
0
100
AcDbSpline
62
7
6
CONTINUOUS
70
0
71
3
72
24
73
20
74
18
42
0.0000001000
43
0.0000001000
44
0.0000000001
12
-0.8600118081
22
0.5064161381
32
0.0000000000
13
0.0000114509
23
0.9980368805
33
0.0000000000
40
0.0000000000
40
0.0000000000
40
0.0000000000
40
0.0000000000
40
0.0252099767
40
0.0543389653
40
0.0871076224
40
0.1236538541
40
0.1644804172
40
0.2097379858
40
0.2589031091
40
0.3111523198
40
0.3666971797
40
0.4260327589
40
0.4897023288
40
0.5582838877
40
0.6325460585
40
0.7132849228
40
0.8011161996
40
0.8964669825
40
1.0000000000
40
1.0000000000
40
1.0000000000
40
1.0000000000
10
-22.7017456721
20
-15.5914515020
30
0.0000000000
10
-22.7089726313
20
-15.5871959223
30
0.0000000000
10
-22.7237798002
20
-15.5766854503
30
0.0000000000
10
-22.7449174167
20
-15.5567575019
30
0.0000000000
10
-22.7660702099
20
-15.5316768659
30
0.0000000000
10
-22.7869863855
20
-15.5015381922
30
0.0000000000
10
-22.8075665077
20
-15.4662719591
30
0.0000000000
10
-22.8276136975
20
-15.4259581968
30
0.0000000000
10
-22.8468070427
20
-15.3810717530
30
0.0000000000
10
-22.8649353926
20
-15.3320827349
30
0.0000000000
10
-22.8819396377
20
-15.2791296325
30
0.0000000000
10
-22.8978552844
20
-15.2218869957
30
0.0000000000
10
-22.9126673808
20
-15.1598812839
30
0.0000000000
10
-22.9262912388
20
-15.0925293022
30
0.0000000000
10
-22.9385537935
20
-15.0191514612
30
0.0000000000
10
-22.9491596932
20
-14.9390497058
30
0.0000000000
10
-22.9576580443
20
-14.8516422372
30
0.0000000000
10
-22.9634286569
20
-14.7564119398
30
0.0000000000
10
-22.9648322857
20
-14.6902394129
30
0.0000000000
10
-22.9648318905
20
-14.6557961563
30
0.0000000000
11
-22.7017456721
21
-15.5914515020
31
0.0000000000
11
-22.7223629320
21
-15.5770300362
31
0.0000000000
11
-22.7436532729
21
-15.5572337936
31
0.0000000000
11
-22.7648717155
21
-15.5323470342
31
0.0000000000
11
-22.7857923806
21
-15.5024687147
31
0.0000000000
11
-22.8064434113
21
-15.4673431496
31
0.0000000000
11
-22.8266578171
21
-15.4269501886
31
0.0000000000
11
-22.8460373129
21
-15.3818706671
31
0.0000000000
11
-22.8642064126
21
-15.3329916756
31
0.0000000000
11
-22.8812154518
21
-15.2802297331
31
0.0000000000
11
-22.8971304831
21
-15.2231892812
31
0.0000000000
11
-22.9119399648
21
-15.1613945180
31
0.0000000000
11
-22.9255501666
21
-15.0943143870
31
0.0000000000
11
-22.9378011531
21
-15.0212175204
31
0.0000000000
11
-22.9484061600
21
-14.9413380555
31
0.0000000000
11
-22.9569074536
21
-14.8540924103
31
0.0000000000
11
-22.9626665347
21
-14.7591032353
31
0.0000000000
11
-22.9648318905
21
-14.6557961563
31
0.0000000000
0
SPLINE
5
3DB
100
AcDbEntity
8
0
100
AcDbSpline
62
7
6
CONTINUOUS
70
0
71
3
72
10
73
6
74
4
42
0.0000001000
43
0.0000001000
44
0.0000000001
12
-12.3782099254
22
5.1518499632
32
0.0000000000
13
-12.0898532597
23
5.7969645068
33
0.0000000000
40
0.0000000000
40
0.0000000000
40
0.0000000000
40
0.0000000000
40
0.4378067341
40
0.8771671092
40
1.0000000000
40
1.0000000000
40
1.0000000000
40
1.0000000000
10
9.0562306737
20
-31.4704396749
30
0.0000000000
10
7.2498094534
20
-30.7186014726
30
0.0000000000
10
3.6479514367
20
-29.1700712065
30
0.0000000000
10
-0.4162294750
20
-27.3101441358
30
0.0000000000
10
-2.6853218164
20
-26.2310688119
30
0.0000000000
10
-3.1803323582
20
-25.9937161758
30
0.0000000000
11
9.0562306737
21
-31.4704396749
31
0.0000000000
11
3.6635214647
21
-29.1521532054
31
0.0000000000
11
-1.6930271501
21
-26.7010042131
31
0.0000000000
11
-3.1803323582
21
-25.9937161758
31
0.0000000000
0
SPLINE
5
3DC
100
AcDbEntity
8
0
100
AcDbSpline
62
7
6
CONTINUOUS
70
0
71
3
72
8
73
4
74
2
42
0.0000001000
43
0.0000001000
44
0.0000000001
12
-0.8767212699
22
0.4203791373
32
0.0000000000
13
-0.8751257830
23
0.4236918314
33
0.0000000000
40
0.0000000000
40
0.0000000000
40
0.0000000000
40
0.0000000000
40
1.0000000000
40
1.0000000000
40
1.0000000000
40
1.0000000000
10
-3.1803323582
20
-25.9937161758
30
0.0000000000
10
-3.4725727815
20
-25.8535897967
30
0.0000000000
10
-3.7645481216
20
-25.7129103407
30
0.0000000000
10
-4.0562567160
20
-25.5716797302
30
0.0000000000
11
-3.1803323582
21
-25.9937161758
31
0.0000000000
11
-4.0562567160
21
-25.5716797302
31
0.0000000000
0
SPLINE
5
3DD
100
AcDbEntity
8
0
100
AcDbSpline
62
7
6
CONTINUOUS
70
0
71
3
72
11
73
7
74
5
42
0.0000001000
43
0.0000001000
44
0.0000000001
12
-18.4351120419
22
8.9253528285
32
0.0000000000
13
-17.6827853854
23
10.3354887905
33
0.0000000000
40
0.0000000000
40
0.0000000000
40
0.0000000000
40
0.0000000000
40
0.1607557637
40
0.4504171460
40
0.7411056101
40
1.0000000000
40
1.0000000000
40
1.0000000000
40
1.0000000000
10
-4.0562567160
20
-25.5716797302
30
0.0000000000
10
-5.0441068879
20
-25.0934124267
30
0.0000000000
10
-7.8033661059
20
-23.7356589822
30
0.0000000000
10
-12.3030378978
20
-21.4209653102
30
0.0000000000
10
-17.3376963425
20
-18.6847370795
30
0.0000000000
10
-20.5958811534
20
-16.8232921809
30
0.0000000000
10
-22.1218724645
20
-15.9313588261
30
0.0000000000
11
-4.0562567160
21
-25.5716797302
31
0.0000000000
11
-7.0105656174
21
-24.1179907377
31
0.0000000000
11
-12.2863162449
21
-21.4043592815
31
0.0000000000
11
-17.5175799525
21
-18.5616020813
31
0.0000000000
11
-22.1218724645
21
-15.9313588261
31
0.0000000000
0
SPLINE
5
3DE
100
AcDbEntity
8
0
100
AcDbSpline
62
7
6
CONTINUOUS
70
0
71
3
72
8
73
4
74
2
42
0.0000001000
43
0.0000001000
44
0.0000000001
12
-0.5803006081
22
0.3391824478
32
0.0000000000
13
-0.5794452990
23
0.3406313987
33
0.0000000000
40
0.0000000000
40
0.0000000000
40
0.0000000000
40
0.0000000000
40
1.0000000000
40
1.0000000000
40
1.0000000000
40
1.0000000000
10
-22.1218724645
20
-15.9313588261
30
0.0000000000
10
-22.3153060006
20
-15.8182980101
30
0.0000000000
10
-22.5085972391
20
-15.7049953015
30
0.0000000000
10
-22.7017456721
20
-15.5914515020
30
0.0000000000
11
-22.1218724645
21
-15.9313588261
31
0.0000000000
11
-22.7017456721
21
-15.5914515020
31
0.0000000000
0
SPLINE
5
3DF
100
AcDbEntity
8
0
100
AcDbSpline
62
7
6
CONTINUOUS
70
0
71
3
72
24
73
20
74
18
42
0.0000001000
43
0.0000001000
44
0.0000000001
12
0.0000041337
22
-0.8029115762
32
0.0000000000
13
-0.7415151167
23
0.3079323479
33
0.0000000000
40
0.0000000000
40
0.0000000000
40
0.0000000000
40
0.0000000000
40
0.1259340139
40
0.2371453643
40
0.3355869626
40
0.4226509205
40
0.4997377577
40
0.5682641339
40
0.6294692846
40
0.6842994476
40
0.7336017016
40
0.7781471090
40
0.8184962444
40
0.8545288394
40
0.8866285775
40
0.9159092958
40
0.9438980362
40
0.9718147108
40
1.0000000000
40
1.0000000000
40
1.0000000000
40
1.0000000000
10
9.3321772101
20
-30.8043007067
30
0.0000000000
10
9.3321773836
20
-30.8380053325
30
0.0000000000
10
9.3307961459
20
-30.9014854012
30
0.0000000000
10
9.3248005480
20
-30.9911291933
30
0.0000000000
10
9.3159270935
20
-31.0700724395
30
0.0000000000
10
9.3048330110
20
-31.1394975106
30
0.0000000000
10
9.2919967949
20
-31.2004605355
30
0.0000000000
10
9.2777322281
20
-31.2539725027
30
0.0000000000
10
9.2622223427
20
-31.3009033480
30
0.0000000000
10
9.2455551339
20
-31.3419354785
30
0.0000000000
10
9.2277424308
20
-31.3775702724
30
0.0000000000
10
9.2087330127
20
-31.4081169652
30
0.0000000000
10
9.1885486775
20
-31.4335284981
30
0.0000000000
10
9.1673522900
20
-31.4535464096
30
0.0000000000
10
9.1454348965
20
-31.4679567928
30
0.0000000000
10
9.1229904772
20
-31.4767688514
30
0.0000000000
10
9.1002095731
20
-31.4800345804
30
0.0000000000
10
9.0776116101
20
-31.4779117144
30
0.0000000000
10
9.0631972797
20
-31.4733327290
30
0.0000000000
10
9.0562306737
20
-31.4704396749
30
0.0000000000
11
9.3321772101
21
-30.8043007067
31
0.0000000000
11
9.3299051006
21
-30.9053890530
31
0.0000000000
11
9.3238621654
21
-30.9944772198
31
0.0000000000
11
9.3149420538
21
-31.0730121624
31
0.0000000000
11
9.3038149139
21
-31.1420255539
31
0.0000000000
11
9.2909612043
21
-31.2025700725
31
0.0000000000
11
9.2766819732
21
-31.2557054870
31
0.0000000000
11
9.2611451847
21
-31.3023271151
31
0.0000000000
11
9.2444493360
21
-31.3430621269
31
0.0000000000
11
9.2266067033
21
-31.3783982335
31
0.0000000000
11
9.2075481814
21
-31.4086634142
31
0.0000000000
11
9.1872211778
21
-31.4338896861
31
0.0000000000
11
9.1660197262
21
-31.4535747184
31
0.0000000000
11
9.1443616823
21
-31.4675457461
31
0.0000000000
11
9.1224222491
21
-31.4759940165
31
0.0000000000
11
9.1001719704
21
-31.4791464153
31
0.0000000000
11
9.0778477467
21
-31.4771353754
31
0.0000000000
11
9.0562306737
21
-31.4704396749
31
0.0000000000
0
SPLINE
5
3E0
100
AcDbEntity
8
0
100
AcDbSpline
62
7
6
CONTINUOUS
70
0
71
3
72
9
73
5
74
3
42
0.0000001000
43
0.0000001000
44
0.0000000001
12
0.0072760471
22
0.0031710020
32
0.0000000000
13
0.0071341930
23
0.0034784199
33
0.0000000000
40
0.0000000000
40
0.0000000000
40
0.0000000000
40
0.0000000000
40
0.5053624906
40
1.0000000000
40
1.0000000000
40
1.0000000000
40
1.0000000000
10
-18.8192411080
20
2.9858906631
30
0.0000000000
10
-18.8180154275
20
2.9864248316
30
0.0000000000
10
-18.8156008096
20
2.9875066504
30
0.0000000000
10
-18.8132097789
20
2.9886396927
30
0.0000000000
10
-18.8120334991
20
2.9892132117
30
0.0000000000
11
-18.8192411080
21
2.9858906631
31
0.0000000000
11
-18.8155809369
21
2.9875313349
31
0.0000000000
11
-18.8120334991
21
2.9892132117
31
0.0000000000
0
SPLINE
5
3E1
100
AcDbEntity
8
0
100
AcDbSpline
62
7
6
CONTINUOUS
70
0
71
3
72
16
73
12
74
10
42
0.0000001000
43
0.0000001000
44
0.0000000001
12
-0.4853776741
22
-0.1889135752
32
0.0000000000
13
-0.2287654902
23
0.4679168472
33
0.0000000000
40
0.0000000000
40
0.0000000000
40
0.0000000000
40
0.0000000000
40
0.1238455589
40
0.2423733381
40
0.3557150753
40
0.4646962023
40
0.5707009044
40
0.6755039402
40
0.7809655240
40
0.8887530112
40
1.0000000000
40
1.0000000000
40
1.0000000000
40
1.0000000000
10
-21.7139245267
20
26.1789437588
30
0.0000000000
10
-21.7339618165
20
26.1711450564
30
0.0000000000
10
-21.7741239823
20
26.1581547988
30
0.0000000000
10
-21.8351003815
20
26.1471609183
30
0.0000000000
10
-21.8945074398
20
26.1455343913
30
0.0000000000
10
-21.9512383179
20
26.1535431448
30
0.0000000000
10
-22.0042175712
20
26.1711910640
30
0.0000000000
10
-22.0524121821
20
26.1981838269
30
0.0000000000
10
-22.0949254384
20
26.2339171744
30
0.0000000000
10
-22.1310618024
20
26.2774905872
30
0.0000000000
10
-22.1502883397
20
26.3105095832
30
0.0000000000
10
-22.1587714970
20
26.3278610300
30
0.0000000000
11
-21.7139245267
21
26.1789437588
31
0.0000000000
11
-21.7753668422
21
26.1593056190
31
0.0000000000
11
-21.8361633433
21
26.1485841074
31
0.0000000000
11
-21.8951805975
21
26.1471987796
31
0.0000000000
11
-21.9513593752
21
26.1553169384
31
0.0000000000
11
-22.0037085135
21
26.1728651084
31
0.0000000000
11
-22.0513340952
21
26.1995381991
31
0.0000000000
11
-22.0934511515
21
26.2347996128
31
0.0000000000
11
-22.1294256506
21
26.2778995322
31
0.0000000000
11
-22.1587714970
21
26.3278610300
31
0.0000000000
0
SPLINE
5
3E2
100
AcDbEntity
8
0
100
AcDbSpline
62
7
6
CONTINUOUS
70
0
71
3
72
11
73
7
74
5
42
0.0000001000
43
0.0000001000
44
0.0000000001
12
0.0482009592
22
0.0239889202
32
0.0000000000
13
0.0251738994
23
-0.0430584636
33
0.0000000000
40
0.0000000000
40
0.0000000000
40
0.0000000000
40
0.0000000000
40
0.4645705024
40
0.8050613832
40
0.9884282404
40
1.0000000000
40
1.0000000000
40
1.0000000000
40
1.0000000000
10
9.0905465189
20
-25.6500469878
30
0.0000000000
10
9.0980107669
20
-25.6463321395
30
0.0000000000
10
9.1118194693
20
-25.6395026141
30
0.0000000000
10
9.1262553499
20
-25.6352910952
30
0.0000000000
10
9.1386306218
20
-25.6294584115
30
0.0000000000
10
9.1404267134
20
-25.6320295037
30
0.0000000000
10
9.1405238155
20
-25.6321955911
30
0.0000000000
11
9.0905465189
21
-25.6500469878
31
0.0000000000
11
9.1132647850
21
-25.6395819872
31
0.0000000000
11
9.1304329987
21
-25.6331537587
31
0.0000000000
11
9.1402039301
21
-25.6317408009
31
0.0000000000
11
9.1405238155
21
-25.6321955911
31
0.0000000000
0
SPLINE
5
3E3
100
AcDbEntity
8
0
100
AcDbSpline
62
7
6
CONTINUOUS
70
0
71
3
72
15
73
11
74
9
42
0.0000001000
43
0.0000001000
44
0.0000000001
12
-0.6439405677
22
-0.3291862150
32
0.0000000000
13
-0.2324530183
23
-0.6848274331
33
0.0000000000
40
0.0000000000
40
0.0000000000
40
0.0000000000
40
0.0000000000
40
0.1107787913
40
0.2284791824
40
0.3519363568
40
0.4797299407
40
0.6102386975
40
0.7417063564
40
0.8722562620
40
1.0000000000
40
1.0000000000
40
1.0000000000
40
1.0000000000
10
-21.7139245267
20
-12.5578490650
30
0.0000000000
10
-21.7377028460
20
-12.5700046820
30
0.0000000000
10
-21.7851943798
20
-12.5981967209
30
0.0000000000
10
-21.8530082332
20
-12.6494282446
30
0.0000000000
10
-21.9182332574
20
-12.7101139243
30
0.0000000000
10
-21.9793969734
20
-12.7790553533
30
0.0000000000
10
-22.0351847636
20
-12.8548174590
30
0.0000000000
10
-22.0844330713
20
-12.9357600502
30
0.0000000000
10
-22.1261742775
20
-13.0200632675
30
0.0000000000
10
-22.1488733579
20
-13.0781475418
30
0.0000000000
10
-22.1587714970
20
-13.1073083472
30
0.0000000000
11
-21.7139245267
21
-12.5578490650
31
0.0000000000
11
-21.7829407769
21
-12.5985340085
31
0.0000000000
11
-21.8509854266
21
-12.6496765873
31
0.0000000000
11
-21.9164614752
21
-12.7103777681
31
0.0000000000
11
-21.9778817423
21
-12.7794367600
31
0.0000000000
11
-22.0338990136
21
-12.8554003927
31
0.0000000000
11
-22.0833364109
21
-12.9366145567
31
0.0000000000
11
-22.1252070247
21
-13.0212365297
31
0.0000000000
11
-22.1587714970
21
-13.1073083472
31
0.0000000000
0
SPLINE
5
3E4
100
AcDbEntity
8
0
100
AcDbSpline
62
7
6
CONTINUOUS
70
0
71
3
72
20
73
16
74
14
42
0.0000001000
43
0.0000001000
44
0.0000000001
12
0.4967896768
22
-0.2483948384
32
0.0000000000
13
-0.4976235770
23
-0.2490327307
33
0.0000000000
40
0.0000000000
40
0.0000000000
40
0.0000000000
40
0.0000000000
40
0.0656942086
40
0.1365191823
40
0.2114570097
40
0.2903598690
40
0.3710924756
40
0.4534704849
40
0.5363574210
40
0.6196534082
40
0.7013657944
40
0.7809761260
40
0.8569633601
40
0.9298269248
40
1.0000000000
40
1.0000000000
40
1.0000000000
40
1.0000000000
10
-3.6922237049
20
-23.1404657364
30
0.0000000000
10
-3.6813449701
20
-23.1459051038
30
0.0000000000
10
-3.6600903089
20
-23.1600324714
30
0.0000000000
10
-3.6323972361
20
-23.1880162776
30
0.0000000000
10
-3.6088041223
20
-23.2225289780
30
0.0000000000
10
-3.5905744225
20
-23.2621720658
30
0.0000000000
10
-3.5787387225
20
-23.3055815776
30
0.0000000000
10
-3.5734578861
20
-23.3509814327
30
0.0000000000
10
-3.5746795433
20
-23.3971312962
30
0.0000000000
10
-3.5821847140
20
-23.4425618056
30
0.0000000000
10
-3.5959580387
20
-23.4858802593
30
0.0000000000
10
-3.6154960933
20
-23.5254255816
30
0.0000000000
10
-3.6400401694
20
-23.5601086961
30
0.0000000000
10
-3.6690608269
20
-23.5887655490
30
0.0000000000
10
-3.6913861652
20
-23.6033854420
30
0.0000000000
10
-3.7030260908
20
-23.6092105728
30
0.0000000000
11
-3.6922237049
21
-23.1404657364
31
0.0000000000
11
-3.6616707960
21
-23.1604137205
31
0.0000000000
11
-3.6338288520
21
-23.1882043057
31
0.0000000000
11
-3.6102170460
21
-23.2224813994
31
0.0000000000
11
-3.5918401558
21
-23.2622671538
31
0.0000000000
11
-3.5799155929
21
-23.3054936700
31
0.0000000000
11
-3.5745521111
21
-23.3509332563
31
0.0000000000
11
-3.5757259788
21
-23.3969559921
31
0.0000000000
11
-3.5833271479
21
-23.4425921993
31
0.0000000000
11
-3.5971535779
21
-23.4858201727
31
0.0000000000
11
-3.6168167945
21
-23.5254253565
31
0.0000000000
11
-3.6413481550
21
-23.5597693467
31
0.0000000000
11
-3.6702925845
21
-23.5880549782
31
0.0000000000
11
-3.7030260908
21
-23.6092105728
31
0.0000000000
0
SPLINE
5
3E5
100
AcDbEntity
8
0
100
AcDbSpline
62
7
6
CONTINUOUS
70
0
71
3
72
9
73
5
74
3
42
0.0000001000
43
0.0000001000
44
0.0000000001
12
0.1209081367
22
0.0043439912
32
0.0000000000
13
0.1135508822
23
0.0422034610
33
0.0000000000
40
0.0000000000
40
0.0000000000
40
0.0000000000
40
0.0000000000
40
0.5905796912
40
1.0000000000
40
1.0000000000
40
1.0000000000
40
1.0000000000
10
-3.7362195349
20
-24.0094470447
30
0.0000000000
10
-3.7124175716
20
-24.0085918871
30
0.0000000000
10
-3.6721778076
20
-24.0029145708
30
0.0000000000
10
-3.6334904757
20
-23.9910958487
30
0.0000000000
10
-3.6179937966
20
-23.9853361973
30
0.0000000000
11
-3.7362195349
21
-24.0094470447
31
0.0000000000
11
-3.6654294609
21
-23.9997440453
31
0.0000000000
11
-3.6179937966
21
-23.9853361973
31
0.0000000000
0
SPLINE
5
3E6
100
AcDbEntity
8
0
100
AcDbSpline
62
7
6
CONTINUOUS
70
0
71
3
72
10
73
6
74
4
42
0.0000001000
43
0.0000001000
44
0.0000000001
12
-0.1499026600
22
-0.0749534204
32
0.0000000000
13
-0.1673161732
23
-0.0060113405
33
0.0000000000
40
0.0000000000
40
0.0000000000
40
0.0000000000
40
0.0000000000
40
0.1927914762
40
0.6014962594
40
1.0000000000
40
1.0000000000
40
1.0000000000
40
1.0000000000
10
-3.6534330700
20
-24.0058230442
30
0.0000000000
10
-3.6630663884
20
-24.0106398377
30
0.0000000000
10
-3.6936660642
20
-24.0245738222
30
0.0000000000
10
-3.7470639726
20
-24.0416317219
30
0.0000000000
10
-3.7920147621
20
-24.0476588313
30
0.0000000000
10
-3.8142401358
20
-24.0484573452
30
0.0000000000
11
-3.6534330700
21
-24.0058230442
31
0.0000000000
11
-3.6828380418
21
-24.0191946619
31
0.0000000000
11
-3.7480823205
21
-24.0398209574
31
0.0000000000
11
-3.8142401358
21
-24.0484573452
31
0.0000000000
0
SPLINE
5
3E7
100
AcDbEntity
8
0
100
AcDbSpline
62
7
6
CONTINUOUS
70
0
71
3
72
11
73
7
74
5
42
0.0000001000
43
0.0000001000
44
0.0000000001
12
79.8594033002
22
-45.1614233045
32
0.0000000000
13
83.9108561028
23
-37.0951031600
33
0.0000000000
40
0.0000000000
40
0.0000000000
40
0.0000000000
40
0.0000000000
40
0.2430551976
40
0.4907946452
40
0.7431398960
40
1.0000000000
40
1.0000000000
40
1.0000000000
40
1.0000000000
10
-43.2293333724
20
57.8308260269
30
0.0000000000
10
-36.7592523573
20
54.1719198059
30
0.0000000000
10
-23.5949740425
20
46.9580584150
30
0.0000000000
10
-3.3909858309
20
36.5470322850
30
0.0000000000
10
17.4423117568
20
26.4510123147
30
0.0000000000
10
31.6141423918
20
19.9929469591
30
0.0000000000
10
38.7985928008
20
16.8168629403
30
0.0000000000
11
-43.2293333724
21
57.8308260269
31
0.0000000000
11
-23.6766882545
21
47.1098206364
31
0.0000000000
11
-3.4750239562
21
36.6939888576
31
0.0000000000
11
17.3566156835
21
26.5931686674
31
0.0000000000
11
38.7985928008
21
16.8168629403
31
0.0000000000
0
SPLINE
5
3E8
100
AcDbEntity
8
0
100
AcDbSpline
62
7
6
CONTINUOUS
70
0
71
3
72
10
73
6
74
4
42
0.0000001000
43
0.0000001000
44
0.0000000001
12
33.8346944165
22
-15.5230543069
32
0.0000000000
13
32.7670443970
23
-17.6655914612
33
0.0000000000
40
0.0000000000
40
0.0000000000
40
0.0000000000
40
0.0000000000
40
0.3225760200
40
0.6599813606
40
1.0000000000
40
1.0000000000
40
1.0000000000
40
1.0000000000
10
-23.3715559533
20
29.8183044816
30
0.0000000000
10
-19.7334689324
20
28.1491827894
30
0.0000000000
10
-12.3299508209
20
24.6465846489
30
0.0000000000
10
-1.2322031984
20
19.0937909823
30
0.0000000000
10
6.2058085886
20
15.1764171791
30
0.0000000000
10
9.9196105398
20
13.1742070547
30
0.0000000000
11
-23.3715559533
21
29.8183044816
31
0.0000000000
11
-12.5152256740
21
24.6865511857
31
0.0000000000
11
-1.2810183160
21
19.0696574304
31
0.0000000000
11
9.9196105398
21
13.1742070547
31
0.0000000000
0
SPLINE
5
3E9
100
AcDbEntity
8
0
100
AcDbSpline
62
7
6
CONTINUOUS
70
0
71
3
72
8
73
4
74
2
42
0.0000001000
43
0.0000001000
44
0.0000000001
12
0.0381759402
22
-0.0205816721
32
0.0000000000
13
0.0381745630
23
-0.0205842054
33
0.0000000000
40
0.0000000000
40
0.0000000000
40
0.0000000000
40
0.0000000000
40
1.0000000000
40
1.0000000000
40
1.0000000000
40
1.0000000000
10
9.9196105398
20
13.1742070547
30
0.0000000000
10
9.9323358532
20
13.1673464973
30
0.0000000000
10
9.9450609370
20
13.1604855177
30
0.0000000000
10
9.9577857914
20
13.1536241159
30
0.0000000000
11
9.9196105398
21
13.1742070547
31
0.0000000000
11
9.9577857914
21
13.1536241159
31
0.0000000000
0
SPLINE
5
3EA
100
AcDbEntity
8
0
100
AcDbSpline
62
7
6
CONTINUOUS
70
0
71
3
72
10
73
6
74
4
42
0.0000001000
43
0.0000001000
44
0.0000000001
12
0.3203760894
22
0.1560088174
32
0.0000000000
13
0.3320738142
23
-0.1259195029
33
0.0000000000
40
0.0000000000
40
0.0000000000
40
0.0000000000
40
0.0000000000
40
0.3605347174
40
0.9541526292
40
1.0000000000
40
1.0000000000
40
1.0000000000
40
1.0000000000
10
-23.7634685932
20
29.8389967989
30
0.0000000000
10
-23.7249663589
20
29.8577456639
30
0.0000000000
10
-23.6125062893
20
29.8884370924
30
0.0000000000
10
-23.4936340941
20
29.8654810455
30
0.0000000000
10
-23.4225013049
20
29.8394300052
30
0.0000000000
10
-23.4174264011
20
29.8375056458
30
0.0000000000
11
-23.7634685932
21
29.8389967989
31
0.0000000000
11
-23.6398409913
21
29.8734303401
31
0.0000000000
11
-23.4327263319
21
29.8431070843
31
0.0000000000
11
-23.4174264011
21
29.8375056458
31
0.0000000000
0
SPLINE
5
3EB
100
AcDbEntity
8
0
100
AcDbSpline
62
7
6
CONTINUOUS
70
0
71
3
72
8
73
4
74
2
42
0.0000001000
43
0.0000001000
44
0.0000000001
12
0.0464558499
22
-0.0176156543
32
0.0000000000
13
0.0450584852
23
-0.0206186180
33
0.0000000000
40
0.0000000000
40
0.0000000000
40
0.0000000000
40
0.0000000000
40
1.0000000000
40
1.0000000000
40
1.0000000000
40
1.0000000000
10
-23.4174264011
20
29.8375056458
30
0.0000000000
10
-23.4019411178
20
29.8316337610
30
0.0000000000
10
-23.3866891841
20
29.8252349546
30
0.0000000000
10
-23.3716696890
20
29.8183620820
30
0.0000000000
11
-23.4174264011
21
29.8375056458
31
0.0000000000
11
-23.3716696890
21
29.8183620820
31
0.0000000000
0
SPLINE
5
3EC
100
AcDbEntity
8
0
100
AcDbSpline
62
7
6
CONTINUOUS
70
0
71
3
72
8
73
4
74
2
42
0.0000001000
43
0.0000001000
44
0.0000000001
12
0.0002183779
22
-0.1886254986
32
0.0000000000
13
-0.0364089911
23
-0.1858817793
33
0.0000000000
40
0.0000000000
40
0.0000000000
40
0.0000000000
40
0.0000000000
40
1.0000000000
40
1.0000000000
40
1.0000000000
40
1.0000000000
10
10.7292115456
20
-32.5010511299
30
0.0000000000
10
10.7292843382
20
-32.5639262961
30
0.0000000000
10
10.7242856808
20
-32.6270736095
30
0.0000000000
10
10.7121493504
20
-32.6890342026
30
0.0000000000
11
10.7292115456
21
-32.5010511299
31
0.0000000000
11
10.7121493504
21
-32.6890342026
31
0.0000000000
0
SPLINE
5
3ED
100
AcDbEntity
8
0
100
AcDbSpline
62
7
6
CONTINUOUS
70
0
71
3
72
9
73
5
74
3
42
0.0000001000
43
0.0000001000
44
0.0000000001
12
-0.0359079932
22
-0.1833239942
32
0.0000000000
13
-0.0837112316
23
-0.1687192943
33
0.0000000000
40
0.0000000000
40
0.0000000000
40
0.0000000000
40
0.0000000000
40
0.5212821522
40
1.0000000000
40
1.0000000000
40
1.0000000000
40
1.0000000000
10
10.7121493504
20
-32.6890342026
30
0.0000000000
10
10.7059099517
20
-32.7208887114
30
0.0000000000
10
10.6903215715
20
-32.7813950009
30
0.0000000000
10
10.6667573684
20
-32.8400174862
30
0.0000000000
10
10.6533993482
20
-32.8669404653
30
0.0000000000
11
10.7121493504
21
-32.6890342026
31
0.0000000000
11
10.6874907521
21
-32.7834585133
31
0.0000000000
11
10.6533993482
21
-32.8669404653
31
0.0000000000
0
SPLINE
5
3EE
100
AcDbEntity
8
0
100
AcDbSpline
62
7
6
CONTINUOUS
70
0
71
3
72
9
73
5
74
3
42
0.0000001000
43
0.0000001000
44
0.0000000001
12
-0.1216324129
22
-0.2451491215
32
0.0000000000
13
-0.2430469982
23
-0.1264524643
33
0.0000000000
40
0.0000000000
40
0.0000000000
40
0.0000000000
40
0.0000000000
40
0.5941260559
40
1.0000000000
40
1.0000000000
40
1.0000000000
40
1.0000000000
10
10.6533993482
20
-32.8669404653
30
0.0000000000
10
10.6293110196
20
-32.9154902922
30
0.0000000000
10
10.5773965293
20
-32.9909635232
30
0.0000000000
10
10.5021977627
20
-33.0441513694
30
0.0000000000
10
10.4693156148
20
-33.0612592896
30
0.0000000000
11
10.6533993482
21
-32.8669404653
31
0.0000000000
11
10.5594044987
21
-32.9973050946
31
0.0000000000
11
10.4693156148
21
-33.0612592896
31
0.0000000000
0
SPLINE
5
3EF
100
AcDbEntity
8
0
100
AcDbSpline
62
7
6
CONTINUOUS
70
0
71
3
72
8
73
4
74
2
42
0.0000001000
43
0.0000001000
44
0.0000000001
12
0.0785277490
22
-0.0423846403
32
0.0000000000
13
0.0745416462
23
-0.0488801612
33
0.0000000000
40
0.0000000000
40
0.0000000000
40
0.0000000000
40
0.0000000000
40
1.0000000000
40
1.0000000000
40
1.0000000000
40
1.0000000000
10
9.9578740555
20
13.1535855954
30
0.0000000000
10
9.9840499718
20
13.1394573820
30
0.0000000000
10
10.0095961691
20
13.1241019628
30
0.0000000000
10
10.0344433845
20
13.1078085758
30
0.0000000000
11
9.9578740555
21
13.1535855954
31
0.0000000000
11
10.0344433845
21
13.1078085758
31
0.0000000000
0
SPLINE
5
3F0
100
AcDbEntity
8
0
100
AcDbSpline
62
7
6
CONTINUOUS
70
0
71
3
72
8
73
4
74
2
42
0.0000001000
43
0.0000001000
44
0.0000000001
12
0.0890430646
22
-0.0583893645
32
0.0000000000
13
0.0831812635
23
-0.0658861985
33
0.0000000000
40
0.0000000000
40
0.0000000000
40
0.0000000000
40
0.0000000000
40
1.0000000000
40
1.0000000000
40
1.0000000000
40
1.0000000000
10
10.0344433845
20
13.1078085758
30
0.0000000000
10
10.0641244060
20
13.0883454543
30
0.0000000000
10
10.0928080304
20
13.0675439196
30
0.0000000000
10
10.1205351182
20
13.0455818535
30
0.0000000000
11
10.0344433845
21
13.1078085758
31
0.0000000000
11
10.1205351182
21
13.0455818535
31
0.0000000000
0
SPLINE
5
3F1
100
AcDbEntity
8
0
100
AcDbSpline
62
7
6
CONTINUOUS
70
0
71
3
72
8
73
4
74
2
42
0.0000001000
43
0.0000001000
44
0.0000000001
12
0.1780382618
22
-0.1410205105
32
0.0000000000
13
0.1529479293
23
-0.1676874290
33
0.0000000000
40
0.0000000000
40
0.0000000000
40
0.0000000000
40
0.0000000000
40
1.0000000000
40
1.0000000000
40
1.0000000000
40
1.0000000000
10
10.1205351182
20
13.0455818535
30
0.0000000000
10
10.1798812055
20
12.9985750166
30
0.0000000000
10
10.2348452439
20
12.9462515967
30
0.0000000000
10
10.2858278870
20
12.8903557870
30
0.0000000000
11
10.1205351182
21
13.0455818535
31
0.0000000000
11
10.2858278870
21
12.8903557870
31
0.0000000000
0
SPLINE
5
3F2
100
AcDbEntity
8
0
100
AcDbSpline
62
7
6
CONTINUOUS
70
0
71
3
72
10
73
6
74
4
42
0.0000001000
43
0.0000001000
44
0.0000000001
12
0.5754861224
22
-0.6309453731
32
0.0000000000
13
0.2086011742
23
-0.8279649822
33
0.0000000000
40
0.0000000000
40
0.0000000000
40
0.0000000000
40
0.0000000000
40
0.4266215391
40
0.8598882794
40
1.0000000000
40
1.0000000000
40
1.0000000000
40
1.0000000000
10
10.2858278870
20
12.8903557870
30
0.0000000000
10
10.3676661454
20
12.8006308250
30
0.0000000000
10
10.5119396843
20
12.6012298016
30
0.0000000000
10
10.6300888047
20
12.3406498241
30
0.0000000000
10
10.6759706211
20
12.1839178422
30
0.0000000000
10
10.6857131109
20
12.1452486428
30
0.0000000000
11
10.2858278870
21
12.8903557870
31
0.0000000000
11
10.5003193893
21
12.5966985590
31
0.0000000000
11
10.6522416481
21
12.2600792629
31
0.0000000000
11
10.6857131109
21
12.1452486428
31
0.0000000000
0
SPLINE
5
3F3
100
AcDbEntity
8
0
100
AcDbSpline
62
7
6
CONTINUOUS
70
0
71
3
72
9
73
5
74
3
42
0.0000001000
43
0.0000001000
44
0.0000000001
12
0.0821154873
22
-0.3259269669
32
0.0000000000
13
0.0001870594
23
-0.3372462564
33
0.0000000000
40
0.0000000000
40
0.0000000000
40
0.0000000000
40
0.0000000000
40
0.6776652548
40
1.0000000000
40
1.0000000000
40
1.0000000000
40
1.0000000000
10
10.6857131109
20
12.1452486428
30
0.0000000000
10
10.7042620484
20
12.0716255158
30
0.0000000000
10
10.7237745778
20
11.9610044981
30
0.0000000000
10
10.7292276742
20
11.8484742531
30
0.0000000000
10
10.7292477728
20
11.8122388577
30
0.0000000000
11
10.6857131109
21
12.1452486428
31
0.0000000000
11
10.7242514586
21
11.9208207007
31
0.0000000000
11
10.7292477728
21
11.8122388577
31
0.0000000000
0
SPLINE
5
3F4
100
AcDbEntity
8
0
100
AcDbSpline
62
7
6
CONTINUOUS
70
0
71
3
72
8
73
4
74
2
42
0.0000001000
43
0.0000001000
44
0.0000000001
12
-0.0064818911
22
-0.0232799956
32
0.0000000000
13
-0.0057806401
23
-0.0234354807
33
0.0000000000
40
0.0000000000
40
0.0000000000
40
0.0000000000
40
0.0000000000
40
1.0000000000
40
1.0000000000
40
1.0000000000
40
1.0000000000
10
-23.3689753391
20
29.8170681198
30
0.0000000000
10
-23.3711359694
20
29.8093081212
30
0.0000000000
10
-23.3731778873
20
29.8015207266
30
0.0000000000
10
-23.3751047674
20
29.7937088997
30
0.0000000000
11
-23.3689753391
21
29.8170681198
31
0.0000000000
11
-23.3751047674
21
29.7937088997
31
0.0000000000
0
SPLINE
5
3F5
100
AcDbEntity
8
0
100
AcDbSpline
62
7
6
CONTINUOUS
70
0
71
3
72
11
73
7
74
5
42
0.0000001000
43
0.0000001000
44
0.0000000001
12
1.0630828758
22
-0.4700789758
32
0.0000000000
13
1.0838334401
23
0.4236026098
33
0.0000000000
40
0.0000000000
40
0.0000000000
40
0.0000000000
40
0.0000000000
40
0.1506395548
40
0.5119271203
40
0.8561708211
40
1.0000000000
40
1.0000000000
40
1.0000000000
40
1.0000000000
10
35.4387617011
20
-57.8278829868
30
0.0000000000
10
35.4921424782
20
-57.8514871493
30
0.0000000000
10
35.6775934112
20
-57.9226860135
30
0.0000000000
10
36.0065525559
20
-57.9845892489
30
0.0000000000
10
36.3375091795
20
-57.9521564016
30
0.0000000000
10
36.5182702445
20
-57.8941961119
30
0.0000000000
10
36.5702325358
20
-57.8738873067
30
0.0000000000
11
35.4387617011
21
-57.8278829868
31
0.0000000000
11
35.6022574422
21
-57.8904290083
31
0.0000000000
11
36.0141062320
21
-57.9653805333
31
0.0000000000
11
36.4109161353
21
-57.9249416396
31
0.0000000000
11
36.5702325358
21
-57.8738873067
31
0.0000000000
0
SPLINE
5
3F6
100
AcDbEntity
8
0
100
AcDbSpline
62
7
6
CONTINUOUS
70
0
71
3
72
11
73
7
74
5
42
0.0000001000
43
0.0000001000
44
0.0000000001
12
79.2988672704
22
-44.8021544175
32
0.0000000000
13
83.2756509451
23
-36.8880856437
33
0.0000000000
40
0.0000000000
40
0.0000000000
40
0.0000000000
40
0.0000000000
40
0.2430605704
40
0.4930133482
40
0.7475817895
40
1.0000000000
40
1.0000000000
40
1.0000000000
40
1.0000000000
10
-46.3622459869
20
-16.9272371047
30
0.0000000000
10
-39.9374366822
20
-20.5571161746
30
0.0000000000
10
-26.8078463225
20
-27.7480266794
30
0.0000000000
10
-6.6300709700
20
-38.1447534340
30
0.0000000000
10
14.0515819818
20
-48.1685967997
30
0.0000000000
10
28.0565886707
20
-54.5579618722
30
0.0000000000
10
35.0633522675
20
-57.6617033946
30
0.0000000000
11
-46.3622459869
21
-16.9272371047
31
0.0000000000
11
-26.9483252757
21
-27.5661954275
31
0.0000000000
11
-6.7135378272
21
-37.9982699384
31
0.0000000000
11
14.1488433677
21
-48.1152683068
31
0.0000000000
11
35.0633522675
21
-57.6617033946
31
0.0000000000
0
SPLINE
5
3F7
100
AcDbEntity
8
0
100
AcDbSpline
62
7
6
CONTINUOUS
70
0
71
3
72
8
73
4
74
2
42
0.0000001000
43
0.0000001000
44
0.0000000001
12
0.3752289770
22
-0.1662127943
32
0.0000000000
13
0.3752938373
23
-0.1660648804
33
0.0000000000
40
0.0000000000
40
0.0000000000
40
0.0000000000
40
0.0000000000
40
1.0000000000
40
1.0000000000
40
1.0000000000
40
1.0000000000
10
35.0633522675
20
-57.6617033946
30
0.0000000000
10
35.1884285931
20
-57.7171076594
30
0.0000000000
10
35.3135157400
20
-57.7724872632
30
0.0000000000
10
35.4386136857
20
-57.8278422233
30
0.0000000000
11
35.0633522675
21
-57.6617033946
31
0.0000000000
11
35.4386136857
21
-57.8278422233
31
0.0000000000
0
SPLINE
5
3F8
100
AcDbEntity
8
0
100
AcDbSpline
62
7
6
CONTINUOUS
70
0
71
3
72
8
73
4
74
2
42
0.0000001000
43
0.0000001000
44
0.0000000001
12
-0.0000522736
22
-0.4373066089
32
0.0000000000
13
0.0855993658
23
-0.4297525542
33
0.0000000000
40
0.0000000000
40
0.0000000000
40
0.0000000000
40
0.0000000000
40
1.0000000000
40
1.0000000000
40
1.0000000000
40
1.0000000000
10
-47.4821730855
20
-14.9063380456
30
0.0000000000
10
-47.4821905100
20
-15.0521069153
30
0.0000000000
10
-47.4665249056
20
-15.1982905464
30
0.0000000000
10
-47.4379917837
20
-15.3415413978
30
0.0000000000
11
-47.4821730855
21
-14.9063380456
31
0.0000000000
11
-47.4379917837
21
-15.3415413978
31
0.0000000000
0
SPLINE
5
3F9
100
AcDbEntity
8
0
100
AcDbSpline
62
7
6
CONTINUOUS
70
0
71
3
72
8
73
4
74
2
42
0.0000001000
43
0.0000001000
44
0.0000000001
12
0.0377149408
22
-0.1893482738
32
0.0000000000
13
0.0523247127
23
-0.1855577709
33
0.0000000000
40
0.0000000000
40
0.0000000000
40
0.0000000000
40
0.0000000000
40
1.0000000000
40
1.0000000000
40
1.0000000000
40
1.0000000000
10
-47.4379917837
20
-15.3415413978
30
0.0000000000
10
-47.4254201368
20
-15.4046574890
30
0.0000000000
10
-47.4103505583
20
-15.4672042488
30
0.0000000000
10
-47.3929089874
20
-15.5290568391
30
0.0000000000
11
-47.4379917837
21
-15.3415413978
31
0.0000000000
11
-47.3929089874
21
-15.5290568391
31
0.0000000000
0
SPLINE
5
3FA
100
AcDbEntity
8
0
100
AcDbSpline
62
7
6
CONTINUOUS
70
0
71
3
72
9
73
5
74
3
42
0.0000001000
43
0.0000001000
44
0.0000000001
12
0.2626584605
22
-0.9314588823
32
0.0000000000
13
0.5875273264
23
-0.7692617149
33
0.0000000000
40
0.0000000000
40
0.0000000000
40
0.0000000000
40
0.0000000000
40
0.4034776290
40
1.0000000000
40
1.0000000000
40
1.0000000000
40
1.0000000000
10
-47.3929089874
20
-15.5290568391
30
0.0000000000
10
-47.3575833831
20
-15.6543311129
30
0.0000000000
10
-47.2459147537
20
-15.9577598557
30
0.0000000000
10
-47.0809036227
20
-16.2373256165
30
0.0000000000
10
-46.9640792248
20
-16.3902862238
30
0.0000000000
11
-47.3929089874
21
-15.5290568391
31
0.0000000000
11
-47.2587879457
21
-15.8952997774
31
0.0000000000
11
-46.9640792248
21
-16.3902862238
31
0.0000000000
0
SPLINE
5
3FB
100
AcDbEntity
8
0
100
AcDbSpline
62
7
6
CONTINUOUS
70
0
71
3
72
8
73
4
74
2
42
0.0000001000
43
0.0000001000
44
0.0000000001
12
0.3323073365
22
-0.4350968884
32
0.0000000000
13
0.4329656996
23
-0.3371517763
33
0.0000000000
40
0.0000000000
40
0.0000000000
40
0.0000000000
40
0.0000000000
40
1.0000000000
40
1.0000000000
40
1.0000000000
40
1.0000000000
10
-46.9640792248
20
-16.3902862238
30
0.0000000000
10
-46.8533101126
20
-16.5353185199
30
0.0000000000
10
-46.7260065801
20
-16.6679383603
30
0.0000000000
10
-46.5816846802
20
-16.7803222857
30
0.0000000000
11
-46.9640792248
21
-16.3902862238
31
0.0000000000
11
-46.5816846802
21
-16.7803222857
31
0.0000000000
0
SPLINE
5
3FC
100
AcDbEntity
8
0
100
AcDbSpline
62
7
6
CONTINUOUS
70
0
71
3
72
8
73
4
74
2
42
0.0000001000
43
0.0000001000
44
0.0000000001
12
0.2086688463
22
-0.1624910986
32
0.0000000000
13
0.2302478459
23
-0.1301216210
33
0.0000000000
40
0.0000000000
40
0.0000000000
40
0.0000000000
40
0.0000000000
40
1.0000000000
40
1.0000000000
40
1.0000000000
40
1.0000000000
10
-46.5816846802
20
-16.7803222857
30
0.0000000000
10
-46.5121283981
20
-16.8344859852
30
0.0000000000
10
-46.4386191221
20
-16.8839493251
30
0.0000000000
10
-46.3618698401
20
-16.9273231988
30
0.0000000000
11
-46.5816846802
21
-16.7803222857
31
0.0000000000
11
-46.3618698401
21
-16.9273231988
31
0.0000000000
0
SPLINE
5
3FD
100
AcDbEntity
8
0
100
AcDbSpline
62
7
6
CONTINUOUS
70
0
71
3
72
11
73
7
74
5
42
0.0000001000
43
0.0000001000
44
0.0000000001
12
-1.2669628682
22
-0.7915961427
32
0.0000000000
13
0.0001099471
23
-1.4913207577
33
0.0000000000
40
0.0000000000
40
0.0000000000
40
0.0000000000
40
0.0000000000
40
0.2045580277
40
0.4986371608
40
0.8124630172
40
1.0000000000
40
1.0000000000
40
1.0000000000
40
1.0000000000
10
-46.8437984896
20
56.1612712170
30
0.0000000000
10
-46.9301876314
20
56.1072954351
30
0.0000000000
10
-47.1244270595
20
55.9497316991
30
0.0000000000
10
-47.3546906922
20
55.6103395287
30
0.0000000000
10
-47.4650870317
20
55.2260166007
30
0.0000000000
10
-47.4822388979
20
54.9766262559
30
0.0000000000
10
-47.4822320248
20
54.8834003241
30
0.0000000000
11
-46.8437984896
21
56.1612712170
31
0.0000000000
11
-47.0806491814
21
55.9694813661
31
0.0000000000
11
-47.3285189213
21
55.6092809445
31
0.0000000000
11
-47.4620715524
21
55.1621964591
31
0.0000000000
11
-47.4822320248
21
54.8834003241
31
0.0000000000
0
SPLINE
5
3FE
100
AcDbEntity
8
0
100
AcDbSpline
62
7
6
CONTINUOUS
70
0
71
3
72
10
73
6
74
4
42
0.0000001000
43
0.0000001000
44
0.0000000001
12
0.7625296300
22
0.4702726830
32
0.0000000000
13
0.7737972526
23
-0.4375913647
33
0.0000000000
40
0.0000000000
40
0.0000000000
40
0.0000000000
40
0.0000000000
40
0.2625826464
40
0.6087652031
40
1.0000000000
40
1.0000000000
40
1.0000000000
40
1.0000000000
10
-44.0785008149
20
57.8834218104
30
0.0000000000
10
-44.0117584655
20
57.9245836256
30
0.0000000000
10
-43.8387417148
20
57.9917239664
30
0.0000000000
10
-43.5344700643
20
57.9746356871
30
0.0000000000
10
-43.3302455094
20
57.8878930165
30
0.0000000000
10
-43.2293333724
20
57.8308260269
30
0.0000000000
11
-44.0785008149
21
57.8834218104
31
0.0000000000
11
-43.8602293014
21
57.9680768010
31
0.0000000000
11
-43.5526190993
21
57.9590658219
31
0.0000000000
11
-43.2293333724
21
57.8308260269
31
0.0000000000
0
SPLINE
5
3FF
100
AcDbEntity
8
0
100
AcDbSpline
62
7
6
CONTINUOUS
70
0
71
3
72
9
73
5
74
3
42
0.0000001000
43
0.0000001000
44
0.0000000001
12
-2.1373305549
22
-1.3311808456
32
0.0000000000
13
-2.1373299485
23
-1.3311818193
33
0.0000000000
40
0.0000000000
40
0.0000000000
40
0.0000000000
40
0.0000000000
40
0.6499589217
40
1.0000000000
40
1.0000000000
40
1.0000000000
40
1.0000000000
10
-44.0786017231
20
57.8835886009
30
0.0000000000
10
-44.5416607440
20
57.5951843119
30
0.0000000000
10
-45.2541041966
20
57.1514572579
30
0.0000000000
10
-45.9665475481
20
56.7077300416
30
0.0000000000
10
-46.2159319748
20
56.5524072685
30
0.0000000000
11
-44.0786017231
21
57.8835886009
31
0.0000000000
11
-45.4677786577
21
57.0183755283
31
0.0000000000
11
-46.2159319748
21
56.5524072685
31
0.0000000000
0
SPLINE
5
400
100
AcDbEntity
8
0
100
AcDbSpline
62
7
6
CONTINUOUS
70
0
71
3
72
8
73
4
74
2
42
0.0000001000
43
0.0000001000
44
0.0000000001
12
-0.6267603146
22
-0.3903617860
32
0.0000000000
13
-0.6267602625
23
-0.3903618697
33
0.0000000000
40
0.0000000000
40
0.0000000000
40
0.0000000000
40
0.0000000000
40
1.0000000000
40
1.0000000000
40
1.0000000000
40
1.0000000000
10
-46.2159319748
20
56.5524072685
30
0.0000000000
10
-46.4248520797
20
56.4222866732
30
0.0000000000
10
-46.6337721759
20
56.2921660639
30
0.0000000000
10
-46.8426922634
20
56.1620454407
30
0.0000000000
11
-46.2159319748
21
56.5524072685
31
0.0000000000
11
-46.8426922634
21
56.1620454407
31
0.0000000000
0
SPLINE
5
401
100
AcDbEntity
8
0
100
AcDbSpline
62
7
6
CONTINUOUS
70
0
71
3
72
11
73
7
74
5
42
0.0000001000
43
0.0000001000
44
0.0000000001
12
0.0000000000
22
-1.2920335275
32
0.0000000000
13
-1.2122884874
23
-0.4732900883
33
0.0000000000
40
0.0000000000
40
0.0000000000
40
0.0000000000
40
0.0000000000
40
0.3102020706
40
0.5939778361
40
0.8486833286
40
1.0000000000
40
1.0000000000
40
1.0000000000
40
1.0000000000
10
40.2241751211
20
-55.6132129304
30
0.0000000000
10
40.2241751211
20
-55.7468100889
30
0.0000000000
10
40.1973392531
20
-56.0041324282
30
0.0000000000
10
40.0584753423
20
-56.3489177789
30
0.0000000000
10
39.8520715205
20
-56.5732385554
30
0.0000000000
10
39.6955402773
20
-56.6566627050
30
0.0000000000
10
39.6343937911
20
-56.6805349319
30
0.0000000000
11
40.2241751211
21
-55.6132129304
31
0.0000000000
11
40.1769573911
21
-56.0112132983
31
0.0000000000
11
40.0334399772
21
-56.3486053011
31
0.0000000000
11
39.8073459438
21
-56.5877295857
31
0.0000000000
11
39.6343937911
21
-56.6805349319
31
0.0000000000
0
SPLINE
5
402
100
AcDbEntity
8
0
100
AcDbSpline
62
7
6
CONTINUOUS
70
0
71
3
72
13
73
9
74
7
42
0.0000001000
43
0.0000001000
44
0.0000000001
12
2.5670534456
22
-1.1348366208
32
0.0000000000
13
0.0000000000
23
-2.8067093808
33
0.0000000000
40
0.0000000000
40
0.0000000000
40
0.0000000000
40
0.0000000000
40
0.1514244774
40
0.3197460253
40
0.4937562592
40
0.6694989175
40
0.8424807647
40
1.0000000000
40
1.0000000000
40
1.0000000000
40
1.0000000000
10
38.7985928008
20
16.8168629403
30
0.0000000000
10
38.9281643763
20
16.7595822595
30
0.0000000000
10
39.1865848235
20
16.6030491521
30
0.0000000000
10
39.5271035642
20
16.2871163592
30
0.0000000000
10
39.8198897399
20
15.8978323061
30
0.0000000000
10
40.0454818224
20
15.4612803159
30
0.0000000000
10
40.1883162387
20
15.0071843095
30
0.0000000000
10
40.2241751211
20
14.6974711413
30
0.0000000000
10
40.2241751211
20
14.5501009029
30
0.0000000000
11
38.7985928008
21
16.8168629403
31
0.0000000000
11
39.1644267360
21
16.6005429043
31
0.0000000000
11
39.5128759366
21
16.2815241820
31
0.0000000000
11
39.8073459438
21
15.8918856058
31
0.0000000000
11
40.0334399772
21
15.4534959362
31
0.0000000000
11
40.1769573911
21
14.9896829436
31
0.0000000000
11
40.2241751211
21
14.5501009029
31
0.0000000000
0
SPLINE
5
403
100
AcDbEntity
8
0
100
AcDbSpline
62
7
6
CONTINUOUS
70
0
71
3
72
8
73
4
74
2
42
0.0000001000
43
0.0000001000
44
0.0000000001
12
0.0614923985
22
-0.0253568026
32
0.0000000000
13
0.0637101071
23
-0.0202604067
33
0.0000000000
40
0.0000000000
40
0.0000000000
40
0.0000000000
40
0.0000000000
40
1.0000000000
40
1.0000000000
40
1.0000000000
40
1.0000000000
10
10.6323038327
20
-32.7316262556
30
0.0000000000
10
10.6528012988
20
-32.7400785232
30
0.0000000000
10
10.6737113897
20
-32.7477672250
30
0.0000000000
10
10.6949480920
20
-32.7545206939
30
0.0000000000
11
10.6323038327
21
-32.7316262556
31
0.0000000000
11
10.6949480920
21
-32.7545206939
31
0.0000000000
0
SPLINE
5
404
100
AcDbEntity
8
0
100
AcDbSpline
62
7
6
CONTINUOUS
70
0
71
3
72
10
73
6
74
4
42
0.0000001000
43
0.0000001000
44
0.0000000001
12
-0.4297489794
22
-0.2224833563
32
0.0000000000
13
-0.4458560578
23
0.1833421864
33
0.0000000000
40
0.0000000000
40
0.0000000000
40
0.0000000000
40
0.0000000000
40
0.2412975207
40
0.5777724798
40
1.0000000000
40
1.0000000000
40
1.0000000000
40
1.0000000000
10
10.4695104538
20
-33.0622180719
30
0.0000000000
10
10.4349446660
20
-33.0801129660
30
0.0000000000
10
10.3463397931
20
-33.1118599803
30
0.0000000000
10
10.1830871532
20
-33.1183593898
30
0.0000000000
10
10.0636461657
20
-33.0851188842
30
0.0000000000
10
10.0008952665
20
-33.0593148453
30
0.0000000000
11
10.4695104538
21
-33.0622180719
31
0.0000000000
11
10.3599384983
21
-33.1017479531
31
0.0000000000
11
10.1979556570
21
-33.1102944142
31
0.0000000000
11
10.0008952665
21
-33.0593148453
31
0.0000000000
0
SPLINE
5
405
100
AcDbEntity
8
0
100
AcDbSpline
62
7
6
CONTINUOUS
70
0
71
3
72
11
73
7
74
5
42
0.0000001000
43
0.0000001000
44
0.0000000001
12
1.2032634996
22
0.4729222708
32
0.0000000000
13
0.0267694248
23
1.2827082705
33
0.0000000000
40
0.0000000000
40
0.0000000000
40
0.0000000000
40
0.0000000000
40
0.1466684031
40
0.3996626934
40
0.6808234669
40
1.0000000000
40
1.0000000000
40
1.0000000000
40
1.0000000000
10
36.5702863737
20
-57.8736654393
30
0.0000000000
10
36.6291132857
20
-57.8505445212
30
0.0000000000
10
36.7818066841
20
-57.7679456771
30
0.0000000000
10
36.9812376272
20
-57.5456519866
30
0.0000000000
10
37.1205741281
20
-57.2025853442
30
0.0000000000
10
37.1516954312
20
-56.9449612697
30
0.0000000000
10
37.1545434886
20
-56.8084911435
30
0.0000000000
11
36.5702863737
21
-57.8736654393
31
0.0000000000
11
36.7363869252
21
-57.7834701063
31
0.0000000000
11
36.9574524859
21
-57.5457986277
31
0.0000000000
11
37.0996917494
21
-57.2143003940
31
0.0000000000
11
37.1545434886
21
-56.8084911435
31
0.0000000000
0
SPLINE
5
406
100
AcDbEntity
8
0
100
AcDbSpline
62
7
6
CONTINUOUS
70
0
71
3
72
8
73
4
74
2
42
0.0000001000
43
0.0000001000
44
0.0000000001
12
-0.5882235466
22
-0.3663636345
32
0.0000000000
13
-0.5882235007
23
-0.3663637082
33
0.0000000000
40
0.0000000000
40
0.0000000000
40
0.0000000000
40
0.0000000000
40
1.0000000000
40
1.0000000000
40
1.0000000000
40
1.0000000000
10
-43.2293333725
20
57.8308260269
30
0.0000000000
10
-43.4254078880
20
57.7087048154
30
0.0000000000
10
-43.6214823959
20
57.5865835916
30
0.0000000000
10
-43.8175568961
20
57.4644623556
30
0.0000000000
11
-43.2293333725
21
57.8308260269
31
0.0000000000
11
-43.8175568961
21
57.4644623556
31
0.0000000000
0
SPLINE
5
407
100
AcDbEntity
8
0
100
AcDbSpline
62
7
6
CONTINUOUS
70
0
71
3
72
9
73
5
74
3
42
0.0000001000
43
0.0000001000
44
0.0000000001
12
-2.1373260627
22
-1.3311924821
32
0.0000000000
13
-2.1373254564
23
-1.3311934556
33
0.0000000000
40
0.0000000000
40
0.0000000000
40
0.0000000000
40
0.0000000000
40
0.3623926093
40
1.0000000000
40
1.0000000000
40
1.0000000000
40
1.0000000000
10
-43.8175568961
20
57.4644623556
30
0.0000000000
10
-44.0757406190
20
57.3036575832
30
0.0000000000
10
-44.7881826033
20
56.8599266971
30
0.0000000000
10
-45.5006244864
20
56.4161956485
30
0.0000000000
10
-45.9548826555
20
56.1332693866
30
0.0000000000
11
-43.8175568961
21
57.4644623556
31
0.0000000000
11
-44.5921080251
21
56.9820479746
31
0.0000000000
11
-45.9548826555
21
56.1332693866
31
0.0000000000
0
SPLINE
5
408
100
AcDbEntity
8
0
100
AcDbSpline
62
7
6
CONTINUOUS
70
0
71
3
72
13
73
9
74
7
42
0.0000001000
43
0.0000001000
44
0.0000000001
12
0.0001150355
22
1.4777706254
32
0.0000000000
13
-1.3512076879
23
0.5983676282
33
0.0000000000
40
0.0000000000
40
0.0000000000
40
0.0000000000
40
0.0000000000
40
0.1588602802
40
0.3292708407
40
0.5057739538
40
0.6809524181
40
0.8478081081
40
1.0000000000
40
1.0000000000
40
1.0000000000
40
1.0000000000
10
35.9566342920
20
12.9786855869
30
0.0000000000
10
35.9566403835
20
13.0569386055
30
0.0000000000
10
35.9376699088
20
13.2194084157
30
0.0000000000
10
35.8625841876
20
13.4582276826
30
0.0000000000
10
35.7442186711
20
13.6879517768
30
0.0000000000
10
35.5899555038
20
13.8931475088
30
0.0000000000
10
35.4105896734
20
14.0597018915
30
0.0000000000
10
35.2748755137
20
14.1420486453
30
0.0000000000
10
35.2063278956
20
14.1724042124
30
0.0000000000
11
35.9566342920
21
12.9786855869
31
0.0000000000
11
35.9313727664
21
13.2120815377
31
0.0000000000
11
35.8569378825
21
13.4526572001
31
0.0000000000
11
35.7376481218
21
13.6846115585
31
0.0000000000
11
35.5816094591
21
13.8911726174
31
0.0000000000
11
35.3998183076
21
14.0577587237
31
0.0000000000
11
35.2063278956
21
14.1724042124
31
0.0000000000
0
SPLINE
5
409
100
AcDbEntity
8
0
100
AcDbSpline
62
7
6
CONTINUOUS
70
0
71
3
72
13
73
9
74
7
42
0.0000001000
43
0.0000001000
44
0.0000000001
12
-0.0592385842
22
2.7850659225
32
0.0000000000
13
-2.4956765991
23
1.2376185662
33
0.0000000000
40
0.0000000000
40
0.0000000000
40
0.0000000000
40
0.0000000000
40
0.1601833121
40
0.3315741057
40
0.5088827867
40
0.6838735407
40
0.8494511249
40
1.0000000000
40
1.0000000000
40
1.0000000000
40
1.0000000000
10
37.1545435050
20
12.9816024519
30
0.0000000000
10
37.1513804941
20
13.1303094798
30
0.0000000000
10
37.1105919654
20
13.4378267700
30
0.0000000000
10
36.9672464139
20
13.8901121077
30
0.0000000000
10
36.7484838262
20
14.3266536495
30
0.0000000000
10
36.4675680106
20
14.7195397066
30
0.0000000000
10
36.1431430703
20
15.0430783266
30
0.0000000000
10
35.8967731196
20
15.2078888609
30
0.0000000000
10
35.7715326847
20
15.2699962219
30
0.0000000000
11
37.1545435050
21
12.9816024519
31
0.0000000000
11
37.0996919031
21
13.4244403059
31
0.0000000000
11
36.9574527465
21
13.8802028330
31
0.0000000000
11
36.7363872172
21
14.3218983821
31
0.0000000000
11
36.4518388077
21
14.7177016115
31
0.0000000000
11
36.1229164047
21
15.0410597706
31
0.0000000000
11
35.7715326847
21
15.2699962219
31
0.0000000000
0
SPLINE
5
40A
100
AcDbEntity
8
0
100
AcDbSpline
62
7
6
CONTINUOUS
70
0
71
3
72
11
73
7
74
5
42
0.0000001000
43
0.0000001000
44
0.0000000001
12
1.1213853565
22
-0.4951660167
32
0.0000000000
13
1.1177905641
23
0.5032283346
33
0.0000000000
40
0.0000000000
40
0.0000000000
40
0.0000000000
40
0.0000000000
40
0.2379015795
40
0.5006341763
40
0.7630300099
40
1.0000000000
40
1.0000000000
40
1.0000000000
40
1.0000000000
10
35.9566342920
20
12.9786855869
30
0.0000000000
10
36.0455607411
20
12.9394186611
30
0.0000000000
10
36.2444442497
20
12.8831644130
30
0.0000000000
10
36.5565850923
20
12.8565926661
30
0.0000000000
10
36.8682167020
20
12.8845861814
30
0.0000000000
10
37.0663148945
20
12.9418159846
30
0.0000000000
10
37.1546091675
20
12.9815659891
30
0.0000000000
11
35.9566342920
21
12.9786855869
31
0.0000000000
11
36.2359157858
21
12.8947207689
31
0.0000000000
11
36.5567007538
21
12.8659870320
31
0.0000000000
11
36.8769297426
21
12.8962570771
31
0.0000000000
11
37.1546091675
21
12.9815659891
31
0.0000000000
0
SPLINE
5
40B
100
AcDbEntity
8
0
100
AcDbSpline
62
7
6
CONTINUOUS
70
0
71
3
72
11
73
7
74
5
42
0.0000001000
43
0.0000001000
44
0.0000000001
12
-83.6631944219
22
37.0229564858
32
0.0000000000
13
-79.6562272627
23
45.0012762719
33
0.0000000000
40
0.0000000000
40
0.0000000000
40
0.0000000000
40
0.0000000000
40
0.2567857837
40
0.5091346590
40
0.7569123581
40
1.0000000000
40
1.0000000000
40
1.0000000000
40
1.0000000000
10
35.2063278956
20
14.1724042124
30
0.0000000000
10
28.0451549134
20
17.3413938444
30
0.0000000000
10
13.9166502429
20
23.7846055767
30
0.0000000000
10
-6.8566547029
20
33.8541305980
30
0.0000000000
10
-27.0073265186
20
44.2352102666
30
0.0000000000
10
-40.1390175285
20
51.4258996219
30
0.0000000000
10
-46.5934990123
20
55.0723176663
30
0.0000000000
11
35.2063278956
21
14.1724042124
31
0.0000000000
11
13.8330579963
21
23.9247053628
31
0.0000000000
11
-6.9398466242
21
33.9995385897
31
0.0000000000
11
-27.0893679121
21
44.3859182707
31
0.0000000000
11
-46.5934990123
21
55.0723176663
31
0.0000000000
0
SPLINE
5
40C
100
AcDbEntity
8
0
100
AcDbSpline
62
7
6
CONTINUOUS
70
0
71
3
72
11
73
7
74
5
42
0.0000001000
43
0.0000001000
44
0.0000000001
12
-83.5880102184
22
36.9899403295
32
0.0000000000
13
-79.5848650855
23
44.9606537673
33
0.0000000000
40
0.0000000000
40
0.0000000000
40
0.0000000000
40
0.0000000000
40
0.2567855371
40
0.5091342309
40
0.7569119727
40
1.0000000000
40
1.0000000000
40
1.0000000000
40
1.0000000000
10
35.7715299524
20
15.2700630785
30
0.0000000000
10
28.6167992523
20
18.4362236436
30
0.0000000000
10
14.5009987851
20
24.8736720680
30
0.0000000000
10
-6.2536438359
20
34.9341685650
30
0.0000000000
10
-26.3862433112
20
45.3059207814
30
0.0000000000
10
-39.5061733559
20
52.4901371649
30
0.0000000000
10
-45.9548826415
20
56.1332693750
30
0.0000000000
11
35.7715299524
21
15.2700630785
31
0.0000000000
11
14.4174816964
21
25.0136414820
31
0.0000000000
11
-6.3367573077
21
35.0794383274
31
0.0000000000
11
-26.4682041947
21
45.4564844249
31
0.0000000000
11
-45.9548826415
21
56.1332693750
31
0.0000000000
0
SPLINE
5
40D
100
AcDbEntity
8
0
100
AcDbSpline
62
7
6
CONTINUOUS
70
0
71
3
72
11
73
7
74
5
42
0.0000001000
43
0.0000001000
44
0.0000000001
12
0.0000147379
22
1.2765353962
32
0.0000000000
13
1.0783252928
23
0.6831962975
33
0.0000000000
40
0.0000000000
40
0.0000000000
40
0.0000000000
40
0.0000000000
40
0.2472766170
40
0.5126117474
40
0.7711228831
40
1.0000000000
40
1.0000000000
40
1.0000000000
40
1.0000000000
10
35.2063279622
20
14.1724042500
30
0.0000000000
10
35.2063291770
20
14.2776233681
30
0.0000000000
10
35.2391432519
20
14.4960468442
30
0.0000000000
10
35.3583332759
20
14.8041974603
30
0.0000000000
10
35.5347838500
20
15.0741966732
30
0.0000000000
10
35.6892619577
20
15.2179404122
30
0.0000000000
10
35.7715299524
20
15.2700630785
30
0.0000000000
11
35.2063279622
21
14.1724042500
31
0.0000000000
11
35.2487887110
21
14.4851927571
31
0.0000000000
11
35.3701194607
21
14.8014254253
31
0.0000000000
11
35.5530472367
21
15.0760825110
31
0.0000000000
11
35.7715299524
21
15.2700630785
31
0.0000000000
0
SPLINE
5
40E
100
AcDbEntity
8
0
100
AcDbSpline
62
7
6
CONTINUOUS
70
0
71
3
72
13
73
9
74
7
42
0.0000001000
43
0.0000001000
44
0.0000000001
12
-0.9126825998
22
0.5152892238
32
0.0000000000
13
0.0000712825
23
-1.0480994738
33
0.0000000000
40
0.0000000000
40
0.0000000000
40
0.0000000000
40
0.0000000000
40
0.1756459630
40
0.3290922941
40
0.4724367496
40
0.6245423354
40
0.7988797201
40
1.0000000000
40
1.0000000000
40
1.0000000000
40
1.0000000000
10
-46.5934990123
20
55.0723176663
30
0.0000000000
10
-46.6469353504
20
55.1024871570
30
0.0000000000
10
-46.7544622793
20
55.1480561836
30
0.0000000000
10
-46.9238357053
20
55.1574596486
30
0.0000000000
10
-47.0734284374
20
55.0930810348
30
0.0000000000
10
-47.1817780667
20
54.9634552792
30
0.0000000000
10
-47.2447877318
20
54.7875270439
30
0.0000000000
10
-47.2568324358
20
54.6556812479
30
0.0000000000
10
-47.2568276570
20
54.5854165614
30
0.0000000000
11
-46.5934990123
21
55.0723176663
31
0.0000000000
11
-46.7646943124
21
55.1400150277
31
0.0000000000
11
-46.9254529676
21
55.1447038327
31
0.0000000000
11
-47.0633726128
21
55.0851219281
31
0.0000000000
11
-47.1687694975
21
54.9655108828
31
0.0000000000
11
-47.2345174514
21
54.7950266529
31
0.0000000000
11
-47.2568276570
21
54.5854165614
31
0.0000000000
0
SPLINE
5
40F
100
AcDbEntity
8
0
100
AcDbSpline
62
7
6
CONTINUOUS
70
0
71
3
72
10
73
6
74
4
42
0.0000001000
43
0.0000001000
44
0.0000000001
12
-0.8251407484
22
0.4160019497
32
0.0000000000
13
-0.7915216161
23
-0.4891600600
33
0.0000000000
40
0.0000000000
40
0.0000000000
40
0.0000000000
40
0.0000000000
40
0.3936036137
40
0.7369762272
40
1.0000000000
40
1.0000000000
40
1.0000000000
40
1.0000000000
10
-45.9548795354
20
56.1332023427
30
0.0000000000
10
-46.0631389956
20
56.1877822996
30
0.0000000000
10
-46.2793106634
20
56.2676886725
30
0.0000000000
10
-46.5947655608
20
56.2749392364
30
0.0000000000
10
-46.7732292310
20
56.2047943577
30
0.0000000000
10
-46.8426255649
20
56.1619074495
30
0.0000000000
11
-45.9548795354
21
56.1332023427
31
0.0000000000
11
-46.2986971273
21
56.2518665965
31
0.0000000000
11
-46.6159991303
21
56.2516207720
31
0.0000000000
11
-46.8426255649
21
56.1619074495
31
0.0000000000
0
SPLINE
5
410
100
AcDbEntity
8
0
100
AcDbSpline
62
7
6
CONTINUOUS
70
0
71
3
72
11
73
7
74
5
42
0.0000001000
43
0.0000001000
44
0.0000000001
12
0.0000463150
22
1.2908354686
32
0.0000000000
13
1.1530683204
23
0.5802496509
33
0.0000000000
40
0.0000000000
40
0.0000000000
40
0.0000000000
40
0.0000000000
40
0.2430268336
40
0.5044363386
40
0.7634211440
40
1.0000000000
40
1.0000000000
40
1.0000000000
40
1.0000000000
10
-46.5934989191
20
55.0723177076
30
0.0000000000
10
-46.5934951672
20
55.1768869264
30
0.0000000000
10
-46.5564240978
20
55.3943901690
30
0.0000000000
10
-46.4204018491
20
55.6966371193
30
0.0000000000
10
-46.2189846593
20
55.9563852728
30
0.0000000000
10
-46.0458100635
20
56.0874440765
30
0.0000000000
10
-45.9548795354
20
56.1332023427
30
0.0000000000
11
-46.5934989191
21
55.0723177076
31
0.0000000000
11
-46.5455180332
21
55.3823343660
31
0.0000000000
11
-46.4084263330
21
55.6906675721
31
0.0000000000
11
-46.2017392907
21
55.9534250362
31
0.0000000000
11
-45.9548795354
21
56.1332023427
31
0.0000000000
0
SPLINE
5
411
100
AcDbEntity
8
0
100
AcDbSpline
62
7
6
CONTINUOUS
70
0
71
3
72
9
73
5
74
3
42
0.0000001000
43
0.0000001000
44
0.0000000001
12
-0.3364401785
22
0.1904798740
32
0.0000000000
13
-0.0008241570
23
0.3854904046
33
0.0000000000
40
0.0000000000
40
0.0000000000
40
0.0000000000
40
0.0000000000
40
0.5649281266
40
1.0000000000
40
1.0000000000
40
1.0000000000
40
1.0000000000
10
-47.2568276570
20
54.5854165614
30
0.0000000000
10
-47.3201824969
20
54.6212857075
30
0.0000000000
10
-47.4278004849
20
54.6985924017
30
0.0000000000
10
-47.4821137361
20
54.8273898909
30
0.0000000000
10
-47.4822332586
20
54.8832952351
30
0.0000000000
11
-47.2568276570
21
54.5854165614
31
0.0000000000
11
-47.4247634780
21
54.7250641267
31
0.0000000000
11
-47.4822332586
21
54.8832952351
31
0.0000000000
0
SPLINE
5
412
100
AcDbEntity
8
0
100
AcDbSpline
62
7
6
CONTINUOUS
70
0
71
3
72
13
73
9
74
7
42
0.0000001000
43
0.0000001000
44
0.0000000001
12
-0.0001000759
22
-1.4582189979
32
0.0000000000
13
1.2694068507
23
-0.7176412079
33
0.0000000000
40
0.0000000000
40
0.0000000000
40
0.0000000000
40
0.0000000000
40
0.1617924581
40
0.3356967657
40
0.5147624692
40
0.6902896980
40
0.8543138740
40
1.0000000000
40
1.0000000000
40
1.0000000000
40
1.0000000000
10
-47.2568276570
20
-15.2046770319
30
0.0000000000
10
-47.2568330542
20
-15.2833199773
30
0.0000000000
10
-47.2399979370
20
-15.4466883073
30
0.0000000000
10
-47.1739938720
20
-15.6889784404
30
0.0000000000
10
-47.0699214975
20
-15.9248954916
30
0.0000000000
10
-46.9342315801
20
-16.1385857381
30
0.0000000000
10
-46.7764239864
20
-16.3153328423
30
0.0000000000
10
-46.6551440011
20
-16.4070344108
30
0.0000000000
10
-46.5934990123
20
-16.4418845333
30
0.0000000000
11
-47.2568276570
21
-15.2046770319
31
0.0000000000
11
-47.2345174364
21
-15.4395486352
31
0.0000000000
11
-47.1687695063
21
-15.6844677745
31
0.0000000000
11
-47.0633726112
21
-15.9233685657
31
0.0000000000
11
-46.9254529668
21
-16.1389891337
31
0.0000000000
11
-46.7646943136
21
-16.3160914891
31
0.0000000000
11
-46.5934990123
21
-16.4418845333
31
0.0000000000
0
SPLINE
5
413
100
AcDbEntity
8
0
100
AcDbSpline
62
7
6
CONTINUOUS
70
0
71
3
72
9
73
5
74
3
42
0.0000001000
43
0.0000001000
44
0.0000000001
12
-0.3364405648
22
0.1904790012
32
0.0000000000
13
-0.0008207041
23
0.3854901112
33
0.0000000000
40
0.0000000000
40
0.0000000000
40
0.0000000000
40
0.0000000000
40
0.5649059224
40
1.0000000000
40
1.0000000000
40
1.0000000000
40
1.0000000000
10
-47.2568276570
20
-15.2046770319
30
0.0000000000
10
-47.3201800795
20
-15.1688094600
30
0.0000000000
10
-47.4277976586
20
-15.0915036134
30
0.0000000000
10
-47.4821142588
20
-14.9627072641
30
0.0000000000
10
-47.4822332867
20
-14.9067991093
30
0.0000000000
11
-47.2568276570
21
-15.2046770319
31
0.0000000000
11
-47.4247583559
21
-15.0650368165
31
0.0000000000
11
-47.4822332867
21
-14.9067991093
31
0.0000000000
0
SPLINE
5
414
100
AcDbEntity
8
0
100
AcDbSpline
62
7
6
CONTINUOUS
70
0
71
3
72
8
73
4
74
2
42
0.0000001000
43
0.0000001000
44
0.0000000001
12
0.3819802352
22
-0.2158106086
32
0.0000000000
13
0.3820937412
23
-0.2156110976
33
0.0000000000
40
0.0000000000
40
0.0000000000
40
0.0000000000
40
0.0000000000
40
1.0000000000
40
1.0000000000
40
1.0000000000
40
1.0000000000
10
-46.5934990123
20
-16.4418845333
30
0.0000000000
10
-46.4661722673
20
-16.5138214028
30
0.0000000000
10
-46.3388265845
20
-16.5857250073
30
0.0000000000
10
-46.2114620041
20
-16.6575953731
30
0.0000000000
11
-46.5934990123
21
-16.4418845333
31
0.0000000000
11
-46.2114620041
21
-16.6575953731
31
0.0000000000
0
SPLINE
5
415
100
AcDbEntity
8
0
100
AcDbSpline
62
7
6
CONTINUOUS
70
0
71
3
72
11
73
7
74
5
42
0.0000001000
43
0.0000001000
44
0.0000000001
12
79.2966434913
22
-44.7461826558
32
0.0000000000
13
83.2629753079
23
-36.8432805845
33
0.0000000000
40
0.0000000000
40
0.0000000000
40
0.0000000000
40
0.0000000000
40
0.2394427556
40
0.4884149987
40
0.7419790524
40
1.0000000000
40
1.0000000000
40
1.0000000000
40
1.0000000000
10
-46.2114620041
20
-16.6575953731
30
0.0000000000
10
-39.8824597292
20
-20.2289784652
30
0.0000000000
10
-26.8773847542
20
-27.3464620770
30
0.0000000000
10
-6.8567188944
20
-37.6607031727
30
0.0000000000
10
13.9165866674
20
-47.7300894005
30
0.0000000000
10
28.0451306323
20
-54.1730185974
30
0.0000000000
10
35.2063278956
20
-57.3417979872
30
0.0000000000
11
-46.2114620041
21
-16.6575953731
31
0.0000000000
11
-27.0893743747
21
-27.1287531650
31
0.0000000000
11
-6.9398546166
21
-37.5152770998
31
0.0000000000
11
13.8330511262
21
-47.5899662757
31
0.0000000000
11
35.2063278956
21
-57.3417979872
31
0.0000000000
0
SPLINE
5
416
100
AcDbEntity
8
0
100
AcDbSpline
62
7
6
CONTINUOUS
70
0
71
3
72
10
73
6
74
4
42
0.0000001000
43
0.0000001000
44
0.0000000001
12
-0.0000057099
22
-0.5587962557
32
0.0000000000
13
0.4937841770
23
-0.2740113628
33
0.0000000000
40
0.0000000000
40
0.0000000000
40
0.0000000000
40
0.0000000000
40
0.4864723195
40
0.9014455609
40
1.0000000000
40
1.0000000000
40
1.0000000000
40
1.0000000000
10
-46.5934989370
20
-16.4418845000
30
0.0000000000
10
-46.5934998630
20
-16.5324974702
30
0.0000000000
10
-46.5693067110
20
-16.7031038493
30
0.0000000000
10
-46.4592033373
20
-16.8650193887
30
0.0000000000
10
-46.3782749825
20
-16.9178884485
30
0.0000000000
10
-46.3620534416
20
-16.9268901272
30
0.0000000000
11
-46.5934989370
21
-16.4418845000
31
0.0000000000
11
-46.5455283028
21
-16.7094573154
31
0.0000000000
11
-46.4084397280
21
-16.8964803214
31
0.0000000000
11
-46.3620534416
21
-16.9268901272
31
0.0000000000
0
SPLINE
5
417
100
AcDbEntity
8
0
100
AcDbSpline
62
7
6
CONTINUOUS
70
0
71
3
72
13
73
9
74
7
42
0.0000001000
43
0.0000001000
44
0.0000000001
12
1.0338960358
22
-0.4571648949
32
0.0000000000
13
-0.0000872098
23
1.1304604134
33
0.0000000000
40
0.0000000000
40
0.0000000000
40
0.0000000000
40
0.0000000000
40
0.1783209454
40
0.3392151514
40
0.4900113053
40
0.6438567492
40
0.8119421601
40
1.0000000000
40
1.0000000000
40
1.0000000000
40
1.0000000000
10
35.2063278956
20
-57.3417979872
30
0.0000000000
10
35.2677830018
20
-57.3689720126
30
0.0000000000
10
35.3916163652
20
-57.4075095228
30
0.0000000000
10
35.5801182043
20
-57.4049385754
30
0.0000000000
10
35.7457892398
20
-57.3331856495
30
0.0000000000
10
35.8693330394
20
-57.1984071304
30
0.0000000000
10
35.9424482435
20
-57.0173113593
30
0.0000000000
10
35.9566397588
20
-56.8822719876
30
0.0000000000
10
35.9566342920
20
-56.8114080064
30
0.0000000000
11
35.2063278956
21
-57.3417979872
31
0.0000000000
11
35.3998183063
21
-57.3983477933
31
0.0000000000
11
35.5816094600
21
-57.3925203490
31
0.0000000000
11
35.7376481237
21
-57.3238789352
31
0.0000000000
11
35.8569378725
21
-57.1973214578
31
0.0000000000
11
35.9313727835
21
-57.0224937494
31
0.0000000000
11
35.9566342920
21
-56.8114080064
31
0.0000000000
0
SPLINE
5
418
100
AcDbEntity
8
0
100
AcDbSpline
62
7
6
CONTINUOUS
70
0
71
3
72
10
73
6
74
4
42
0.0000001000
43
0.0000001000
44
0.0000000001
12
0.0000309396
22
-0.5640073642
32
0.0000000000
13
0.5265972554
23
-0.2289032482
33
0.0000000000
40
0.0000000000
40
0.0000000000
40
0.0000000000
40
0.0000000000
40
0.4754819922
40
0.8590709495
40
1.0000000000
40
1.0000000000
40
1.0000000000
40
1.0000000000
10
35.2063279780
20
-57.3417979406
30
0.0000000000
10
35.2063328818
20
-57.4311897223
30
0.0000000000
10
35.2259776640
20
-57.5942154372
30
0.0000000000
10
35.3275745772
20
-57.7647392145
30
0.0000000000
10
35.4143404189
20
-57.8160217502
30
0.0000000000
10
35.4390780359
20
-57.8267747893
30
0.0000000000
11
35.2063279780
21
-57.3417979406
31
0.0000000000
11
35.2487983826
21
-57.6065889539
31
0.0000000000
11
35.3701320940
21
-57.7857094541
31
0.0000000000
11
35.4390780359
21
-57.8267747893
31
0.0000000000
0
SPLINE
5
419
100
AcDbEntity
8
0
100
AcDbSpline
62
7
6
CONTINUOUS
70
0
71
3
72
11
73
7
74
5
42
0.0000001000
43
0.0000001000
44
0.0000000001
12
1.1213844841
22
-0.4951688444
32
0.0000000000
13
1.1177896595
23
0.5032311823
33
0.0000000000
40
0.0000000000
40
0.0000000000
40
0.0000000000
40
0.0000000000
40
0.2379128920
40
0.5006493665
40
0.7630401118
40
1.0000000000
40
1.0000000000
40
1.0000000000
40
1.0000000000
10
35.9566342920
20
-56.8114080064
30
0.0000000000
10
36.0455649005
20
-56.8506770237
30
0.0000000000
10
36.2444549353
20
-56.9069321744
30
0.0000000000
10
36.5566002202
20
-56.9335016378
30
0.0000000000
10
36.8682270550
20
-56.9055056306
30
0.0000000000
10
37.0663187312
20
-56.8482761442
30
0.0000000000
10
37.1546091688
20
-56.8085276093
30
0.0000000000
11
35.9566342920
21
-56.8114080064
31
0.0000000000
11
36.2359294220
21
-56.8953759172
31
0.0000000000
11
36.5567194699
21
-56.9241072361
31
0.0000000000
11
36.8769420464
21
-56.8938346763
31
0.0000000000
11
37.1546091688
21
-56.8085276093
31
0.0000000000
0
SPLINE
5
41A
100
AcDbEntity
8
0
100
AcDbSpline
62
7
6
CONTINUOUS
70
0
71
3
72
8
73
4
74
2
42
0.0000001000
43
0.0000001000
44
0.0000000001
12
-0.0880412066
22
-0.0423740683
32
0.0000000000
13
-0.0880412035
23
-0.0423740749
33
0.0000000000
40
0.0000000000
40
0.0000000000
40
0.0000000000
40
0.0000000000
40
1.0000000000
40
1.0000000000
40
1.0000000000
40
1.0000000000
10
-23.9548244546
20
29.2899343744
30
0.0000000000
10
-23.9841715235
20
29.2758096850
30
0.0000000000
10
-24.0135185920
20
29.2616849947
30
0.0000000000
10
-24.0428656598
20
29.2475603031
30
0.0000000000
11
-23.9548244546
21
29.2899343744
31
0.0000000000
11
-24.0428656598
21
29.2475603031
31
0.0000000000
0
SPLINE
5
41B
100
AcDbEntity
8
0
100
AcDbSpline
62
7
6
CONTINUOUS
70
0
71
3
72
8
73
4
74
2
42
0.0000001000
43
0.0000001000
44
0.0000000001
12
-0.0438761088
22
-0.0219994410
32
0.0000000000
13
-0.0438761097
23
-0.0219994392
33
0.0000000000
40
0.0000000000
40
0.0000000000
40
0.0000000000
40
0.0000000000
40
1.0000000000
40
1.0000000000
40
1.0000000000
40
1.0000000000
10
-23.9989895506
20
-15.0435802149
30
0.0000000000
10
-24.0136149202
20
-15.0509133619
30
0.0000000000
10
-24.0282402899
20
-15.0582465087
30
0.0000000000
10
-24.0428656598
20
-15.0655796551
30
0.0000000000
11
-23.9989895506
21
-15.0435802149
31
0.0000000000
11
-24.0428656598
21
-15.0655796551
31
0.0000000000
0
SPLINE
5
41C
100
AcDbEntity
8
0
100
AcDbSpline
62
7
6
CONTINUOUS
70
0
71
3
72
8
73
4
74
2
42
0.0000001000
43
0.0000001000
44
0.0000000001
12
0.1483074212
22
-0.0799012892
32
0.0000000000
13
0.1357100305
23
-0.1005293729
33
0.0000000000
40
0.0000000000
40
0.0000000000
40
0.0000000000
40
0.0000000000
40
1.0000000000
40
1.0000000000
40
1.0000000000
40
1.0000000000
10
9.9363127707
20
13.2054218253
30
0.0000000000
10
9.9857485777
20
13.1787880622
30
0.0000000000
10
10.0331348330
20
13.1482286581
30
0.0000000000
10
10.0783715098
20
13.1147188671
30
0.0000000000
11
9.9363127707
21
13.2054218253
31
0.0000000000
11
10.0783715098
21
13.1147188671
31
0.0000000000
0
SPLINE
5
41D
100
AcDbEntity
8
0
100
AcDbSpline
62
7
6
CONTINUOUS
70
0
71
3
72
9
73
5
74
3
42
0.0000001000
43
0.0000001000
44
0.0000000001
12
0.2586175806
22
-0.1915751040
32
0.0000000000
13
0.2117720050
23
-0.2415508683
33
0.0000000000
40
0.0000000000
40
0.0000000000
40
0.0000000000
40
0.0000000000
40
0.2546281743
40
1.0000000000
40
1.0000000000
40
1.0000000000
40
1.0000000000
10
10.0783715098
20
13.1147188671
30
0.0000000000
10
10.1003219506
20
13.0984587274
30
0.0000000000
10
10.1845401057
20
13.0318721506
30
0.0000000000
10
10.2607756939
20
12.9562896440
30
0.0000000000
10
10.3133919892
20
12.8962745735
30
0.0000000000
11
10.0783715098
21
13.1147188671
31
0.0000000000
11
10.1426930270
21
13.0639658348
31
0.0000000000
11
10.3133919892
21
12.8962745735
31
0.0000000000
0
SPLINE
5
41E
100
AcDbEntity
8
0
100
AcDbSpline
62
7
6
CONTINUOUS
70
0
71
3
72
11
73
7
74
5
42
0.0000001000
43
0.0000001000
44
0.0000000001
12
0.5742928830
22
-0.6550485488
32
0.0000000000
13
0.2115995137
23
-0.8453477296
33
0.0000000000
40
0.0000000000
40
0.0000000000
40
0.0000000000
40
0.0000000000
40
0.2647828275
40
0.5290691194
40
0.8046065703
40
1.0000000000
40
1.0000000000
40
1.0000000000
40
1.0000000000
10
10.3133919892
20
12.8962745735
30
0.0000000000
10
10.3640796204
20
12.8384593712
30
0.0000000000
10
10.4575576352
20
12.7161171750
30
0.0000000000
10
10.5757867389
20
12.5141383410
30
0.0000000000
10
10.6605191971
20
12.3176879764
30
0.0000000000
10
10.7004304568
20
12.1867353040
30
0.0000000000
10
10.7142121750
20
12.1316768399
30
0.0000000000
11
10.3133919892
21
12.8962745735
31
0.0000000000
11
10.4537038628
21
12.7133801901
31
0.0000000000
11
10.5700328869
21
12.5148701690
31
0.0000000000
11
10.6648388536
21
12.2945208136
31
0.0000000000
11
10.7142121750
21
12.1316768399
31
0.0000000000
0
SPLINE
5
41F
100
AcDbEntity
8
0
100
AcDbSpline
62
7
6
CONTINUOUS
70
0
71
3
72
9
73
5
74
3
42
0.0000001000
43
0.0000001000
44
0.0000000001
12
0.0781228786
22
-0.3121037328
32
0.0000000000
13
0.0094623093
23
-0.3214407165
33
0.0000000000
40
0.0000000000
40
0.0000000000
40
0.0000000000
40
0.0000000000
40
0.2717076056
40
1.0000000000
40
1.0000000000
40
1.0000000000
40
1.0000000000
10
10.7142121750
20
12.1316768399
30
0.0000000000
10
10.7212877018
20
12.1034098540
30
0.0000000000
10
10.7446339445
20
11.9986719365
30
0.0000000000
10
10.7575028764
20
11.8916319767
30
0.0000000000
10
10.7597999856
20
11.8135977004
30
0.0000000000
11
10.7142121750
21
12.1316768399
31
0.0000000000
11
10.7332009175
21
12.0463237281
31
0.0000000000
11
10.7597999856
21
11.8135977004
31
0.0000000000
0
SPLINE
5
420
100
AcDbEntity
8
0
100
AcDbSpline
62
7
6
CONTINUOUS
70
0
71
3
72
8
73
4
74
2
42
0.0000001000
43
0.0000001000
44
0.0000000001
12
0.0011102268
22
-0.0377151150
32
0.0000000000
13
-0.0000106328
23
-0.0377129045
33
0.0000000000
40
0.0000000000
40
0.0000000000
40
0.0000000000
40
0.0000000000
40
1.0000000000
40
1.0000000000
40
1.0000000000
40
1.0000000000
10
10.7597999856
20
11.8135977004
30
0.0000000000
10
10.7601700612
20
11.8010259954
30
0.0000000000
10
10.7603565005
20
11.7884522688
30
0.0000000000
10
10.7603529563
20
11.7758813006
30
0.0000000000
11
10.7597999856
21
11.8135977004
31
0.0000000000
11
10.7603529563
21
11.7758813006
31
0.0000000000
0
SPLINE
5
421
100
AcDbEntity
8
0
100
AcDbSpline
62
7
6
CONTINUOUS
70
0
71
3
72
9
73
5
74
3
42
0.0000001000
43
0.0000001000
44
0.0000000001
12
-0.0026199505
22
-0.0577406800
32
0.0000000000
13
0.0512767038
23
-0.0295771714
33
0.0000000000
40
0.0000000000
40
0.0000000000
40
0.0000000000
40
0.0000000000
40
0.6580372400
40
1.0000000000
40
1.0000000000
40
1.0000000000
40
1.0000000000
10
9.9363131703
20
13.2054220352
30
0.0000000000
10
9.9357384953
20
13.1927568627
30
0.0000000000
10
9.9373247894
20
13.1720178846
30
0.0000000000
10
9.9521332500
20
13.1573288911
30
0.0000000000
10
9.9579781577
20
13.1539574607
30
0.0000000000
11
9.9363131703
21
13.2054220352
31
0.0000000000
11
9.9435515466
21
13.1680825449
31
0.0000000000
11
9.9579781577
21
13.1539574607
31
0.0000000000
0
SPLINE
5
422
100
AcDbEntity
8
0
100
AcDbSpline
62
7
6
CONTINUOUS
70
0
71
3
72
9
73
5
74
3
42
0.0000001000
43
0.0000001000
44
0.0000000001
12
-0.0444077928
22
0.0210777175
32
0.0000000000
13
-0.0005334120
23
0.0511424448
33
0.0000000000
40
0.0000000000
40
0.0000000000
40
0.0000000000
40
0.0000000000
40
0.7161549407
40
1.0000000000
40
1.0000000000
40
1.0000000000
40
1.0000000000
10
10.7603529563
20
11.7758813006
30
0.0000000000
10
10.7497520029
20
11.7809129378
30
0.0000000000
10
10.7338280289
20
11.7901979708
30
0.0000000000
10
10.7300080173
20
11.8073133613
30
0.0000000000
10
10.7299575485
20
11.8121522047
30
0.0000000000
11
10.7603529563
21
11.7758813006
31
0.0000000000
11
10.7331517924
21
11.7982279996
31
0.0000000000
11
10.7299575485
21
11.8121522047
31
0.0000000000
0
SPLINE
5
423
100
AcDbEntity
8
0
100
AcDbSpline
62
7
6
CONTINUOUS
70
0
71
3
72
8
73
4
74
2
42
0.0000001000
43
0.0000001000
44
0.0000000001
12
0.0000267386
22
-0.0854157180
32
0.0000000000
13
-0.0061913069
23
-0.0853819077
33
0.0000000000
40
0.0000000000
40
0.0000000000
40
0.0000000000
40
0.0000000000
40
1.0000000000
40
1.0000000000
40
1.0000000000
40
1.0000000000
10
10.7603529563
20
-32.5372586575
30
0.0000000000
10
10.7603618692
20
-32.5657305635
30
0.0000000000
10
10.7593954051
20
-32.5942576798
30
0.0000000000
10
10.7573316361
20
-32.6227183157
30
0.0000000000
11
10.7603529563
21
-32.5372586575
31
0.0000000000
11
10.7573316361
21
-32.6227183157
31
0.0000000000
0
SPLINE
5
424
100
AcDbEntity
8
0
100
AcDbSpline
62
7
6
CONTINUOUS
70
0
71
3
72
8
73
4
74
2
42
0.0000001000
43
0.0000001000
44
0.0000000001
12
-0.0057430923
22
-0.0792007541
32
0.0000000000
13
-0.0117001200
23
-0.0785661484
33
0.0000000000
40
0.0000000000
40
0.0000000000
40
0.0000000000
40
0.0000000000
40
1.0000000000
40
1.0000000000
40
1.0000000000
40
1.0000000000
10
10.7573316361
20
-32.6227183157
30
0.0000000000
10
10.7554172720
20
-32.6491185671
30
0.0000000000
10
10.7525587291
20
-32.6754616152
30
0.0000000000
10
10.7486586891
20
-32.7016503313
30
0.0000000000
11
10.7573316361
21
-32.6227183157
31
0.0000000000
11
10.7486586891
21
-32.7016503313
31
0.0000000000
0
SPLINE
5
425
100
AcDbEntity
8
0
100
AcDbSpline
62
7
6
CONTINUOUS
70
0
71
3
72
9
73
5
74
3
42
0.0000001000
43
0.0000001000
44
0.0000000001
12
-0.0208009037
22
-0.1396777890
32
0.0000000000
13
-0.0422966279
23
-0.1347710239
33
0.0000000000
40
0.0000000000
40
0.0000000000
40
0.0000000000
40
0.0000000000
40
0.5206217302
40
1.0000000000
40
1.0000000000
40
1.0000000000
40
1.0000000000
10
10.7486586891
20
-32.7016503313
30
0.0000000000
10
10.7450488883
20
-32.7258900954
30
0.0000000000
10
10.7364014380
20
-32.7721954003
30
0.0000000000
10
10.7241774213
20
-32.8177287586
30
0.0000000000
10
10.7174187265
20
-32.8392641921
30
0.0000000000
11
10.7486586891
21
-32.7016503313
31
0.0000000000
11
10.7350753697
21
-32.7738959575
31
0.0000000000
11
10.7174187265
21
-32.8392641921
31
0.0000000000
0
SPLINE
5
426
100
AcDbEntity
8
0
100
AcDbSpline
62
7
6
CONTINUOUS
70
0
71
3
72
8
73
4
74
2
42
0.0000001000
43
0.0000001000
44
0.0000000001
12
-0.0188110488
22
-0.0599382135
32
0.0000000000
13
-0.0236366460
23
-0.0581536702
33
0.0000000000
40
0.0000000000
40
0.0000000000
40
0.0000000000
40
0.0000000000
40
1.0000000000
40
1.0000000000
40
1.0000000000
40
1.0000000000
10
10.7174187265
20
-32.8392641921
30
0.0000000000
10
10.7111483769
20
-32.8592435966
30
0.0000000000
10
10.7041044480
20
-32.8789714415
30
0.0000000000
10
10.6962255660
20
-32.8983559982
30
0.0000000000
11
10.7174187265
21
-32.8392641921
31
0.0000000000
11
10.6962255660
21
-32.8983559982
31
0.0000000000
0
SPLINE
5
427
100
AcDbEntity
8
0
100
AcDbSpline
62
7
6
CONTINUOUS
70
0
71
3
72
11
73
7
74
5
42
0.0000001000
43
0.0000001000
44
0.0000000001
12
-0.1748934947
22
-0.4302936470
32
0.0000000000
13
-0.4417450358
23
-0.1471845885
33
0.0000000000
40
0.0000000000
40
0.0000000000
40
0.0000000000
40
0.0000000000
40
0.1271320636
40
0.4695149873
40
0.7853534757
40
1.0000000000
40
1.0000000000
40
1.0000000000
40
1.0000000000
10
10.6962255660
20
-32.8983559982
30
0.0000000000
10
10.6888140424
20
-32.9165907047
30
0.0000000000
10
10.6587137219
20
-32.9828119491
30
0.0000000000
10
10.5903437646
20
-33.0849074121
30
0.0000000000
10
10.4845664329
20
-33.1718942150
30
0.0000000000
10
10.4090900618
20
-33.2058792240
30
0.0000000000
10
10.3774837163
20
-33.2164101108
30
0.0000000000
11
10.6962255660
21
-32.8983559982
31
0.0000000000
11
10.6717234009
21
-32.9520724536
31
0.0000000000
11
10.5819549836
21
-33.0829542189
31
0.0000000000
11
10.4683369704
21
-33.1752857564
31
0.0000000000
11
10.3774837163
21
-33.2164101108
31
0.0000000000
0
SPLINE
5
428
100
AcDbEntity
8
0
100
AcDbSpline
62
7
6
CONTINUOUS
70
0
71
3
72
10
73
6
74
4
42
0.0000001000
43
0.0000001000
44
0.0000000001
12
-0.4290426289
22
-0.1429522862
32
0.0000000000
13
-0.4161474480
23
0.1717908351
33
0.0000000000
40
0.0000000000
40
0.0000000000
40
0.0000000000
40
0.0000000000
40
0.1163503595
40
0.5093278369
40
1.0000000000
40
1.0000000000
40
1.0000000000
40
1.0000000000
10
10.3774837163
20
-33.2164101108
30
0.0000000000
10
10.3608439616
20
-33.2219542941
30
0.0000000000
10
10.2867084053
20
-33.2423169816
30
0.0000000000
10
10.1342284599
20
-33.2480071362
30
0.0000000000
10
10.0043767602
20
-33.2117139621
30
0.0000000000
10
9.9363127707
20
-33.1836163019
30
0.0000000000
11
10.3774837163
21
-33.2164101108
31
0.0000000000
11
10.3267890117
21
-33.2303461834
31
0.0000000000
11
10.1500915044
21
-33.2392788528
31
0.0000000000
11
9.9363127707
21
-33.1836163019
31
0.0000000000
0
SPLINE
5
429
100
AcDbEntity
8
0
100
AcDbSpline
62
7
6
CONTINUOUS
70
0
71
3
72
9
73
5
74
3
42
0.0000001000
43
0.0000001000
44
0.0000000001
12
-0.0443606693
22
0.0210553510
32
0.0000000000
13
-0.0006142467
23
0.0510896195
33
0.0000000000
40
0.0000000000
40
0.0000000000
40
0.0000000000
40
0.0000000000
40
0.7169243469
40
1.0000000000
40
1.0000000000
40
1.0000000000
40
1.0000000000
10
10.7603529563
20
-32.5372586575
30
0.0000000000
10
10.7497518750
20
-32.5322269596
30
0.0000000000
10
10.7338447237
20
-32.5229516864
30
0.0000000000
10
10.7300161189
20
-32.5058627818
30
0.0000000000
10
10.7299581594
20
-32.5010420393
30
0.0000000000
11
10.7603529563
21
-32.5372586575
31
0.0000000000
11
10.7331515645
21
-32.5149115669
31
0.0000000000
11
10.7299581594
21
-32.5010420393
31
0.0000000000
0
SPLINE
5
42A
100
AcDbEntity
8
0
100
AcDbSpline
62
7
6
CONTINUOUS
70
0
71
3
72
8
73
4
74
2
42
0.0000001000
43
0.0000001000
44
0.0000000001
12
-0.2221723801
22
0.0916133014
32
0.0000000000
13
-0.2220859554
23
0.0918253508
33
0.0000000000
40
0.0000000000
40
0.0000000000
40
0.0000000000
40
0.0000000000
40
1.0000000000
40
1.0000000000
40
1.0000000000
40
1.0000000000
10
9.9363127707
20
-33.1836163019
30
0.0000000000
10
9.8622553106
20
-33.1530785348
30
0.0000000000
10
9.7882122373
20
-33.1225054116
30
0.0000000000
10
9.7141835855
20
-33.0918969613
30
0.0000000000
11
9.9363127707
21
-33.1836163019
31
0.0000000000
11
9.7141835855
21
-33.0918969613
31
0.0000000000
0
SPLINE
5
42B
100
AcDbEntity
8
0
100
AcDbSpline
62
7
6
CONTINUOUS
70
0
71
3
72
9
73
5
74
3
42
0.0000001000
43
0.0000001000
44
0.0000000001
12
-13.7264350149
22
5.6754363788
32
0.0000000000
13
-13.3731448731
23
6.4649088500
33
0.0000000000
40
0.0000000000
40
0.0000000000
40
0.0000000000
40
0.0000000000
40
0.5169155409
40
1.0000000000
40
1.0000000000
40
1.0000000000
40
1.0000000000
10
9.7141835855
20
-33.0918969613
30
0.0000000000
10
7.3490477254
20
-32.1139898728
30
0.0000000000
10
2.8020470711
20
-30.1524187051
30
0.0000000000
10
-1.6856088688
20
-28.0594345806
30
0.0000000000
10
-3.8390616880
20
-27.0184022490
30
0.0000000000
11
9.7141835855
21
-33.0918969613
31
0.0000000000
11
2.6640741272
21
-30.0509428681
31
0.0000000000
11
-3.8390616880
21
-27.0184022490
31
0.0000000000
0
SPLINE
5
42C
100
AcDbEntity
8
0
100
AcDbSpline
62
7
6
CONTINUOUS
70
0
71
3
72
8
73
4
74
2
42
0.0000001000
43
0.0000001000
44
0.0000000001
12
-0.2549019160
22
0.1232258880
32
0.0000000000
13
-0.2547666902
23
0.1235054439
33
0.0000000000
40
0.0000000000
40
0.0000000000
40
0.0000000000
40
0.0000000000
40
1.0000000000
40
1.0000000000
40
1.0000000000
40
1.0000000000
10
-3.8390616880
20
-27.0184022490
30
0.0000000000
10
-3.9240289933
20
-26.9773269530
30
0.0000000000
10
-4.0089737811
20
-26.9362050398
30
0.0000000000
10
-4.0938960111
20
-26.8950365585
30
0.0000000000
11
-3.8390616880
21
-27.0184022490
31
0.0000000000
11
-4.0938960111
21
-26.8950365585
31
0.0000000000
0
SPLINE
5
42D
100
AcDbEntity
8
0
100
AcDbSpline
62
7
6
CONTINUOUS
70
0
71
3
72
10
73
6
74
4
42
0.0000001000
43
0.0000001000
44
0.0000000001
12
-19.7318595796
22
9.5655836151
32
0.0000000000
13
-18.8681184037
23
11.1719953268
33
0.0000000000
40
0.0000000000
40
0.0000000000
40
0.0000000000
40
0.0000000000
40
0.3037574659
40
0.6333716363
40
1.0000000000
40
1.0000000000
40
1.0000000000
40
1.0000000000
10
-4.0938960111
20
-26.8950365585
30
0.0000000000
10
-6.0917958992
20
-25.9264974121
30
0.0000000000
10
-10.2316292218
20
-23.8532309239
30
0.0000000000
10
-16.6785244158
20
-20.4073087167
30
0.0000000000
10
-21.0964372554
20
-17.8796335148
30
0.0000000000
10
-23.4022997141
20
-16.5143100595
30
0.0000000000
11
-4.0938960111
21
-26.8950365585
31
0.0000000000
11
-10.0496176523
21
-23.9127341813
31
0.0000000000
11
-16.4240544252
21
-20.5060616844
31
0.0000000000
11
-23.4022997141
21
-16.5143100595
31
0.0000000000
0
SPLINE
5
42E
100
AcDbEntity
8
0
100
AcDbSpline
62
7
6
CONTINUOUS
70
0
71
3
72
8
73
4
74
2
42
0.0000001000
43
0.0000001000
44
0.0000000001
12
-0.2326361065
22
0.0959252968
32
0.0000000000
13
-0.2325413021
23
0.0961578955
33
0.0000000000
40
0.0000000000
40
0.0000000000
40
0.0000000000
40
0.0000000000
40
1.0000000000
40
1.0000000000
40
1.0000000000
40
1.0000000000
10
10.0008973983
20
-33.0593582475
30
0.0000000000
10
9.9233520294
20
-33.0273831486
30
0.0000000000
10
9.8458224413
20
-32.9953692665
30
0.0000000000
10
9.7683086739
20
-32.9633166347
30
0.0000000000
11
10.0008973983
21
-33.0593582475
31
0.0000000000
11
9.7683086739
21
-32.9633166347
31
0.0000000000
0
SPLINE
5
42F
100
AcDbEntity
8
0
100
AcDbSpline
62
7
6
CONTINUOUS
70
0
71
3
72
9
73
5
74
3
42
0.0000001000
43
0.0000001000
44
0.0000000001
12
-13.7111968325
22
5.6697017673
32
0.0000000000
13
-13.3585029352
23
6.4577999905
33
0.0000000000
40
0.0000000000
40
0.0000000000
40
0.0000000000
40
0.0000000000
40
0.5165452574
40
1.0000000000
40
1.0000000000
40
1.0000000000
40
1.0000000000
10
9.7683086739
20
-32.9633166347
30
0.0000000000
10
7.4074907748
20
-31.9870974484
30
0.0000000000
10
2.8655027980
20
-30.0276098525
30
0.0000000000
10
-1.6172436978
20
-27.9369360392
30
0.0000000000
10
-3.7699875637
20
-26.8962513618
30
0.0000000000
11
9.7683086739
21
-32.9633166347
31
0.0000000000
11
2.7310128303
21
-29.9277664234
31
0.0000000000
11
-3.7699875637
21
-26.8962513618
31
0.0000000000
0
SPLINE
5
430
100
AcDbEntity
8
0
100
AcDbSpline
62
7
6
CONTINUOUS
70
0
71
3
72
8
73
4
74
2
42
0.0000001000
43
0.0000001000
44
0.0000000001
12
-0.2624344747
22
0.1268667123
32
0.0000000000
13
-0.2622910685
23
0.1271631684
33
0.0000000000
40
0.0000000000
40
0.0000000000
40
0.0000000000
40
0.0000000000
40
1.0000000000
40
1.0000000000
40
1.0000000000
40
1.0000000000
10
-3.7699875637
20
-26.8962513618
30
0.0000000000
10
-3.8574657219
20
-26.8539624577
30
0.0000000000
10
-3.9449200010
20
-26.8116241175
30
0.0000000000
10
-4.0323503572
20
-26.7692363947
30
0.0000000000
11
-3.7699875637
21
-26.8962513618
31
0.0000000000
11
-4.0323503572
21
-26.7692363947
31
0.0000000000
0
SPLINE
5
431
100
AcDbEntity
8
0
100
AcDbSpline
62
7
6
CONTINUOUS
70
0
71
3
72
8
73
4
74
2
42
0.0000001000
43
0.0000001000
44
0.0000000001
12
-0.0521199557
22
0.0252686405
32
0.0000000000
13
-0.0521142870
23
0.0252803387
33
0.0000000000
40
0.0000000000
40
0.0000000000
40
0.0000000000
40
0.0000000000
40
1.0000000000
40
1.0000000000
40
1.0000000000
40
1.0000000000
10
-4.0323503572
20
-26.7692363947
30
0.0000000000
10
-4.0497236758
20
-26.7608135146
30
0.0000000000
10
-4.0670960497
20
-26.7523886845
30
0.0000000000
10
-4.0844674787
20
-26.7439619049
30
0.0000000000
11
-4.0323503572
21
-26.7692363947
31
0.0000000000
11
-4.0844674787
21
-26.7439619049
31
0.0000000000
0
SPLINE
5
432
100
AcDbEntity
8
0
100
AcDbSpline
62
7
6
CONTINUOUS
70
0
71
3
72
10
73
6
74
4
42
0.0000001000
43
0.0000001000
44
0.0000000001
12
-19.6631952963
22
9.5385021028
32
0.0000000000
13
-18.8046774587
23
11.1346835534
33
0.0000000000
40
0.0000000000
40
0.0000000000
40
0.0000000000
40
0.0000000000
40
0.3016423563
40
0.6322572213
40
1.0000000000
40
1.0000000000
40
1.0000000000
40
1.0000000000
10
-4.0844674787
20
-26.7439619049
30
0.0000000000
10
-6.0615516659
20
-25.7848898217
30
0.0000000000
10
-10.1799611023
20
-23.7216975831
30
0.0000000000
10
-16.6052047948
20
-20.2873173610
30
0.0000000000
10
-21.0216458726
20
-17.7604390380
30
0.0000000000
10
-23.3267406531
20
-16.3955392146
30
0.0000000000
11
-4.0844674787
21
-26.7439619049
31
0.0000000000
11
-9.9784924640
21
-23.7916089986
31
0.0000000000
11
-16.3508084744
21
-20.3860393732
31
0.0000000000
11
-23.3267406531
21
-16.3955392146
31
0.0000000000
0
SPLINE
5
433
100
AcDbEntity
8
0
100
AcDbSpline
62
7
6
CONTINUOUS
70
0
71
3
72
10
73
6
74
4
42
0.0000001000
43
0.0000001000
44
0.0000000001
12
-0.0063269742
22
0.1455501337
32
0.0000000000
13
0.1284496043
23
0.0687427899
33
0.0000000000
40
0.0000000000
40
0.0000000000
40
0.0000000000
40
0.0000000000
40
0.3384430777
40
0.6899625258
40
1.0000000000
40
1.0000000000
40
1.0000000000
40
1.0000000000
10
9.9363127738
20
-33.1836163003
30
0.0000000000
10
9.9355990003
20
-33.1671961552
30
0.0000000000
10
9.9413406042
20
-33.1333080229
30
0.0000000000
10
9.9636388335
20
-33.0895736200
30
0.0000000000
10
9.9876226680
20
-33.0664625278
30
0.0000000000
10
10.0008973983
20
-33.0593582475
30
0.0000000000
11
9.9363127738
21
-33.1836163003
31
0.0000000000
11
9.9435521066
21
-33.1348436871
31
0.0000000000
11
9.9671704031
21
-33.0894031000
31
0.0000000000
11
10.0008973983
21
-33.0593582475
31
0.0000000000
0
SPLINE
5
434
100
AcDbEntity
8
0
100
AcDbSpline
62
7
6
CONTINUOUS
70
0
71
3
72
14
73
10
74
8
42
0.0000001000
43
0.0000001000
44
0.0000000001
12
-1.4726869157
22
0.8711922814
32
0.0000000000
13
0.0005320768
23
1.7110764038
33
0.0000000000
40
0.0000000000
40
0.0000000000
40
0.0000000000
40
0.0000000000
40
0.1431556803
40
0.2813162438
40
0.4152474240
40
0.5495160591
40
0.6899211622
40
0.8408294577
40
1.0000000000
40
1.0000000000
40
1.0000000000
40
1.0000000000
10
-23.4022997141
20
-16.5143100595
30
0.0000000000
10
-23.4725742132
20
-16.4727380183
30
0.0000000000
10
-23.6011881261
20
-16.3745998256
30
0.0000000000
10
-23.7633974885
20
-16.2010594911
30
0.0000000000
10
-23.8981895783
20
-16.0117662238
30
0.0000000000
10
-24.0103838232
20
-15.8069362481
30
0.0000000000
10
-24.1017354080
20
-15.5813982326
30
0.0000000000
10
-24.1672743022
20
-15.3322247552
30
0.0000000000
10
-24.1855108247
20
-15.1551252019
30
0.0000000000
10
-24.1854825944
20
-15.0643408822
30
0.0000000000
11
-23.4022997141
21
-16.5143100595
31
0.0000000000
11
-23.5986235050
21
-16.3678258363
31
0.0000000000
11
-23.7609156394
21
-16.1959311610
31
0.0000000000
11
-23.8942569129
21
-16.0095514776
31
0.0000000000
11
-24.0047655464
21
-15.8081312612
31
0.0000000000
11
-24.0948003656
21
-15.5853963321
31
0.0000000000
11
-24.1597066861
21
-15.3354713749
31
0.0000000000
11
-24.1854825944
21
-15.0643408822
31
0.0000000000
0
SPLINE
5
435
100
AcDbEntity
8
0
100
AcDbSpline
62
7
6
CONTINUOUS
70
0
71
3
72
8
73
4
74
2
42
0.0000001000
43
0.0000001000
44
0.0000000001
12
-0.0644628544
22
0.0382625388
32
0.0000000000
13
-0.0614987874
23
0.0430420122
33
0.0000000000
40
0.0000000000
40
0.0000000000
40
0.0000000000
40
0.0000000000
40
1.0000000000
40
1.0000000000
40
1.0000000000
40
1.0000000000
10
-23.3267405478
20
-16.3955363630
30
0.0000000000
10
-23.3482281659
20
-16.3827821834
30
0.0000000000
10
-23.3692223899
20
-16.3691748606
30
0.0000000000
10
-23.3897219857
20
-16.3548275232
30
0.0000000000
11
-23.3267405478
21
-16.3955363630
31
0.0000000000
11
-23.3897219857
21
-16.3548275232
31
0.0000000000
0
SPLINE
5
436
100
AcDbEntity
8
0
100
AcDbSpline
62
7
6
CONTINUOUS
70
0
71
3
72
9
73
5
74
3
42
0.0000001000
43
0.0000001000
44
0.0000000001
12
-0.1824357325
22
0.1276838351
32
0.0000000000
13
-0.1563594916
23
0.1584252442
33
0.0000000000
40
0.0000000000
40
0.0000000000
40
0.0000000000
40
0.0000000000
40
0.6709803602
40
1.0000000000
40
1.0000000000
40
1.0000000000
40
1.0000000000
10
-23.3897219857
20
-16.3548275232
30
0.0000000000
10
-23.4305255836
20
-16.3262697413
30
0.0000000000
10
-23.4884168723
20
-16.2793389119
30
0.0000000000
10
-23.5419337770
20
-16.2278774759
30
0.0000000000
10
-23.5590822248
20
-16.2105024703
30
0.0000000000
11
-23.3897219857
21
-16.3548275232
31
0.0000000000
11
-23.5062440073
21
-16.2612506663
31
0.0000000000
11
-23.5590822248
21
-16.2105024703
31
0.0000000000
0
SPLINE
5
437
100
AcDbEntity
8
0
100
AcDbSpline
62
7
6
CONTINUOUS
70
0
71
3
72
12
73
8
74
6
42
0.0000001000
43
0.0000001000
44
0.0000000001
12
-0.7172506170
22
0.7267266154
32
0.0000000000
13
-0.1843973651
23
1.0050012560
33
0.0000000000
40
0.0000000000
40
0.0000000000
40
0.0000000000
40
0.0000000000
40
0.1405028026
40
0.3462544977
40
0.5524924682
40
0.7681527818
40
1.0000000000
40
1.0000000000
40
1.0000000000
40
1.0000000000
10
-23.5590822248
20
-16.2105024703
30
0.0000000000
10
-23.5926741321
20
-16.1764667616
30
0.0000000000
10
-23.6711110653
20
-16.0883983566
30
0.0000000000
10
-23.7801852451
20
-15.9348377844
30
0.0000000000
10
-23.8827325199
20
-15.7471557916
30
0.0000000000
10
-23.9662160018
20
-15.5405447542
30
0.0000000000
10
-24.0049751682
20
-15.3929634626
30
0.0000000000
10
-24.0192258402
20
-15.3152945475
30
0.0000000000
11
-23.5590822248
21
-16.2105024703
31
0.0000000000
11
-23.6546707326
21
-16.1036488858
31
0.0000000000
11
-23.7765915735
21
-15.9328066858
31
0.0000000000
11
-23.8775956904
21
-15.7482575385
31
0.0000000000
11
-23.9598785502
21
-15.5442321842
31
0.0000000000
11
-24.0192258402
21
-15.3152945475
31
0.0000000000
0
SPLINE
5
438
100
AcDbEntity
8
0
100
AcDbSpline
62
7
6
CONTINUOUS
70
0
71
3
72
8
73
4
74
2
42
0.0000001000
43
0.0000001000
44
0.0000000001
12
-0.0453379971
22
0.2471008410
32
0.0000000000
13
0.0001909299
23
0.2508104620
33
0.0000000000
40
0.0000000000
40
0.0000000000
40
0.0000000000
40
0.0000000000
40
1.0000000000
40
1.0000000000
40
1.0000000000
40
1.0000000000
10
-24.0192258402
20
-15.3152945475
30
0.0000000000
10
-24.0343385059
20
-15.2329276005
30
0.0000000000
10
-24.0428946699
20
-15.1492007792
30
0.0000000000
10
-24.0428310266
20
-15.0655972919
30
0.0000000000
11
-24.0192258402
21
-15.3152945475
31
0.0000000000
11
-24.0428310266
21
-15.0655972919
31
0.0000000000
0
SPLINE
5
439
100
AcDbEntity
8
0
100
AcDbSpline
62
7
6
CONTINUOUS
70
0
71
3
72
10
73
6
74
4
42
0.0000001000
43
0.0000001000
44
0.0000000001
12
0.0062934790
22
0.1458029575
32
0.0000000000
13
0.1313484284
23
0.0636058224
33
0.0000000000
40
0.0000000000
40
0.0000000000
40
0.0000000000
40
0.0000000000
40
0.3292866375
40
0.6820323437
40
1.0000000000
40
1.0000000000
40
1.0000000000
40
1.0000000000
10
-23.4022992942
20
-16.5143098596
30
0.0000000000
10
-23.4016085080
20
-16.4983062044
30
0.0000000000
10
-23.3926376250
20
-16.4654433332
30
0.0000000000
10
-23.3663961756
20
-16.4239305968
30
0.0000000000
10
-23.3406620651
20
-16.4022778944
30
0.0000000000
10
-23.3267405478
20
-16.3955363630
30
0.0000000000
11
-23.4022992942
21
-16.5143098596
31
0.0000000000
11
-23.3908654067
21
-16.4676342375
31
0.0000000000
11
-23.3632338035
21
-16.4241991315
31
0.0000000000
11
-23.3267405478
21
-16.3955363630
31
0.0000000000
0
SPLINE
5
43A
100
AcDbEntity
8
0
100
AcDbSpline
62
7
6
CONTINUOUS
70
0
71
3
72
10
73
6
74
4
42
0.0000001000
43
0.0000001000
44
0.0000000001
12
0.1295385706
22
-0.0682298951
32
0.0000000000
13
0.1314036386
23
0.0645650340
33
0.0000000000
40
0.0000000000
40
0.0000000000
40
0.0000000000
40
0.0000000000
40
0.3190856473
40
0.6764019549
40
1.0000000000
40
1.0000000000
40
1.0000000000
40
1.0000000000
10
-24.1854825944
20
-15.0643408822
30
0.0000000000
10
-24.1717046282
20
-15.0715979423
30
0.0000000000
10
-24.1390636987
20
-15.0803165544
30
0.0000000000
10
-24.0900138684
20
-15.0807013253
30
0.0000000000
10
-24.0570396467
20
-15.0725440280
30
0.0000000000
10
-24.0428656598
20
-15.0655796551
30
0.0000000000
11
-24.1854825944
21
-15.0643408822
31
0.0000000000
11
-24.1407891989
21
-15.0779414654
31
0.0000000000
11
-24.0884768922
21
-15.0783958566
31
0.0000000000
11
-24.0428656598
21
-15.0655796551
31
0.0000000000
0
SPLINE
5
43B
100
AcDbEntity
8
0
100
AcDbSpline
62
7
6
CONTINUOUS
70
0
71
3
72
13
73
9
74
7
42
0.0000001000
43
0.0000001000
44
0.0000000001
12
-0.0003172303
22
0.9148894108
32
0.0000000000
13
0.9148584568
23
0.0797025032
33
0.0000000000
40
0.0000000000
40
0.0000000000
40
0.0000000000
40
0.0000000000
40
0.2592811086
40
0.4631727844
40
0.6318354418
40
0.7850802886
40
0.9425280005
40
1.0000000000
40
1.0000000000
40
1.0000000000
40
1.0000000000
10
-24.1854825944
20
29.2487990760
30
0.0000000000
10
-24.1855100117
20
29.3278702562
30
0.0000000000
10
-24.1728416772
20
29.4698249786
30
0.0000000000
10
-24.1127228492
20
29.6547432990
30
0.0000000000
10
-24.0248397321
20
29.7912733101
30
0.0000000000
10
-23.9112305644
20
29.8870795514
30
0.0000000000
10
-23.8041657494
20
29.9277358803
30
0.0000000000
10
-23.7389775117
20
29.9370196663
30
0.0000000000
10
-23.7214512634
20
29.9385465538
30
0.0000000000
11
-24.1854825944
21
29.2487990760
31
0.0000000000
11
-24.1614862019
21
29.4847957789
31
0.0000000000
11
-24.1013374791
21
29.6613706520
31
0.0000000000
11
-24.0160890230
21
29.7899924367
31
0.0000000000
11
-23.9081599249
21
29.8794795167
31
0.0000000000
11
-23.7736494564
21
29.9310211986
31
0.0000000000
11
-23.7214512634
21
29.9385465538
31
0.0000000000
0
SPLINE
5
43C
100
AcDbEntity
8
0
100
AcDbSpline
62
7
6
CONTINUOUS
70
0
71
3
72
9
73
5
74
3
42
0.0000001000
43
0.0000001000
44
0.0000000001
12
0.2510211922
22
0.0218689757
32
0.0000000000
13
0.2379465224
23
-0.0831613839
33
0.0000000000
40
0.0000000000
40
0.0000000000
40
0.0000000000
40
0.0000000000
40
0.4599935451
40
1.0000000000
40
1.0000000000
40
1.0000000000
40
1.0000000000
10
-23.7214512634
20
29.9385465538
30
0.0000000000
10
-23.6829618874
20
29.9418997496
30
0.0000000000
10
-23.5983008769
20
29.9391692331
30
0.0000000000
10
-23.5164019077
20
29.9185388367
30
0.0000000000
10
-23.4735710217
20
29.9035696087
30
0.0000000000
11
-23.7214512634
21
29.9385465538
31
0.0000000000
11
-23.6056592822
21
29.9356002014
31
0.0000000000
11
-23.4735710217
21
29.9035696087
31
0.0000000000
0
SPLINE
5
43D
100
AcDbEntity
8
0
100
AcDbSpline
62
7
6
CONTINUOUS
70
0
71
3
72
8
73
4
74
2
42
0.0000001000
43
0.0000001000
44
0.0000000001
12
0.0727186594
22
-0.0254148886
32
0.0000000000
13
0.0697170746
23
-0.0320160516
33
0.0000000000
40
0.0000000000
40
0.0000000000
40
0.0000000000
40
0.0000000000
40
1.0000000000
40
1.0000000000
40
1.0000000000
40
1.0000000000
10
-23.4735710217
20
29.9035696087
30
0.0000000000
10
-23.4493314686
20
29.8950979792
30
0.0000000000
10
-23.4255387390
20
29.8854000849
30
0.0000000000
10
-23.4022997141
20
29.8747280677
30
0.0000000000
11
-23.4735710217
21
29.9035696087
31
0.0000000000
11
-23.4022997141
21
29.8747280677
31
0.0000000000
0
SPLINE
5
43E
100
AcDbEntity
8
0
100
AcDbSpline
62
7
6
CONTINUOUS
70
0
71
3
72
12
73
8
74
6
42
0.0000001000
43
0.0000001000
44
0.0000000001
12
-0.0005339354
22
0.6869759892
32
0.0000000000
13
0.6189542075
23
0.3050551069
33
0.0000000000
40
0.0000000000
40
0.0000000000
40
0.0000000000
40
0.0000000000
40
0.3161406770
40
0.5647460043
40
0.7702560603
40
0.9568039802
40
1.0000000000
40
1.0000000000
40
1.0000000000
40
1.0000000000
10
-24.0428632283
20
29.2475590672
30
0.0000000000
10
-24.0429194946
20
29.3199527519
30
0.0000000000
10
-24.0314565653
20
29.4499242236
30
0.0000000000
10
-23.9766403734
20
29.6192639042
30
0.0000000000
10
-23.8964255323
20
29.7442982376
30
0.0000000000
10
-23.8190590830
20
29.8097334401
30
0.0000000000
10
-23.7725636460
20
29.8348933297
30
0.0000000000
10
-23.7636515266
20
29.8392857185
30
0.0000000000
11
-24.0428632283
21
29.2475590672
31
0.0000000000
11
-24.0210833687
21
29.4636453383
31
0.0000000000
11
-23.9662186985
21
29.6253787796
31
0.0000000000
11
-23.8883910455
21
29.7431700981
31
0.0000000000
11
-23.7898475839
21
29.8251007327
31
0.0000000000
11
-23.7636515266
21
29.8392857185
31
0.0000000000
0
SPLINE
5
43F
100
AcDbEntity
8
0
100
AcDbSpline
62
7
6
CONTINUOUS
70
0
71
3
72
10
73
6
74
4
42
0.0000001000
43
0.0000001000
44
0.0000000001
12
0.1295385683
22
-0.0682298942
32
0.0000000000
13
0.1314036510
23
0.0645650031
33
0.0000000000
40
0.0000000000
40
0.0000000000
40
0.0000000000
40
0.0000000000
40
0.3190910155
40
0.6764065245
40
1.0000000000
40
1.0000000000
40
1.0000000000
40
1.0000000000
10
-24.1854825944
20
29.2487990760
30
0.0000000000
10
-24.1717043966
20
29.2415418939
30
0.0000000000
10
-24.1390631990
20
29.2328233222
30
0.0000000000
10
-24.0900133731
20
29.2324387227
30
0.0000000000
10
-24.0570394479
20
29.2405960331
30
0.0000000000
10
-24.0428656598
20
29.2475603043
30
0.0000000000
11
-24.1854825944
21
29.2487990760
31
0.0000000000
11
-24.1407884124
21
29.2351983805
31
0.0000000000
11
-24.0884762218
21
29.2347441929
31
0.0000000000
11
-24.0428656598
21
29.2475603043
31
0.0000000000
0
SPLINE
5
440
100
AcDbEntity
8
0
100
AcDbSpline
62
7
6
CONTINUOUS
70
0
71
3
72
8
73
4
74
2
42
0.0000001000
43
0.0000001000
44
0.0000000001
12
0.0469140831
22
-0.0215241172
32
0.0000000000
13
0.0469119171
23
-0.0215288622
33
0.0000000000
40
0.0000000000
40
0.0000000000
40
0.0000000000
40
0.0000000000
40
1.0000000000
40
1.0000000000
40
1.0000000000
40
1.0000000000
10
-23.4022997141
20
29.8747280677
30
0.0000000000
10
-23.3866616865
20
29.8675533619
30
0.0000000000
10
-23.3710240198
20
29.8603778652
30
0.0000000000
10
-23.3553867141
20
29.8532015778
30
0.0000000000
11
-23.4022997141
21
29.8747280677
31
0.0000000000
11
-23.3553867141
21
29.8532015778
31
0.0000000000
0
SPLINE
5
441
100
AcDbEntity
8
0
100
AcDbSpline
62
7
6
CONTINUOUS
70
0
71
3
72
12
73
8
74
6
42
0.0000001000
43
0.0000001000
44
0.0000000001
12
33.8353541478
22
-15.5277533437
32
0.0000000000
13
32.7682064806
23
-17.6687974284
33
0.0000000000
40
0.0000000000
40
0.0000000000
40
0.0000000000
40
0.0000000000
40
0.2060685193
40
0.3965763886
40
0.5830908100
40
0.7793502024
40
1.0000000000
40
1.0000000000
40
1.0000000000
40
1.0000000000
10
-23.3553867141
20
29.8532015778
30
0.0000000000
10
-21.0312529379
20
28.7866078647
30
0.0000000000
10
-16.5738308306
20
26.7003478058
30
0.0000000000
10
-10.0626476209
20
23.5437492890
30
0.0000000000
10
-3.6998275390
20
20.3614125881
30
0.0000000000
10
2.9569056641
20
16.9317558771
30
0.0000000000
10
7.5262133946
20
14.5049606842
30
0.0000000000
10
9.9363127707
20
13.2054218253
30
0.0000000000
11
-23.3553867141
21
29.8532015778
31
0.0000000000
11
-16.4067587152
21
26.6021176746
31
0.0000000000
11
-10.0245738958
21
23.5088919672
31
0.0000000000
11
-3.8141058414
21
20.4034588637
31
0.0000000000
11
2.6812206409
21
17.0577017245
31
0.0000000000
11
9.9363127707
21
13.2054218253
31
0.0000000000
0
SPLINE
5
442
100
AcDbEntity
8
0
100
AcDbSpline
62
7
6
CONTINUOUS
70
0
71
3
72
9
73
5
74
3
42
0.0000001000
43
0.0000001000
44
0.0000000001
12
0.0027350883
22
-0.0661933498
32
0.0000000000
13
0.0605599330
23
-0.0294725186
33
0.0000000000
40
0.0000000000
40
0.0000000000
40
0.0000000000
40
0.0000000000
40
0.6197739894
40
1.0000000000
40
1.0000000000
40
1.0000000000
40
1.0000000000
10
-23.4022997108
20
29.8747280692
30
0.0000000000
10
-23.4017346653
20
29.8610530971
30
0.0000000000
10
-23.3969803478
20
29.8380194787
30
0.0000000000
10
-23.3792703487
20
29.8222510222
30
0.0000000000
10
-23.3715948615
20
29.8185156162
30
0.0000000000
11
-23.4022997108
21
29.8747280692
31
0.0000000000
11
-23.3908649269
21
29.8352925145
31
0.0000000000
11
-23.3715948615
21
29.8185156162
31
0.0000000000
0
ENDSEC
0
SECTION
2
OBJECTS
0
DICTIONARY
5
443
100
AcDbDictionary
3
ACAD_GROUP
350
444
3
ACAD_MLINESTYLE
350
445
0
DICTIONARY
5
444
102
{ACAD_REACTORS
330
443
102
}
100
AcDbDictionary
0
DICTIONARY
5
445
102
{ACAD_REACTORS
330
443
102
}
100
AcDbDictionary
3
STANDARD
350
446
0
MLINESTYLE
5
446
102
{ACAD_REACTORS
330
445
102
}
100
AcDbMlineStyle
2
STANDARD
70
0
3

62
256
51
90.0
52
90.0
71
2
49
0.5
62
256
6
BYLAYER
49
-0.5
62
256
6
BYLAYER
0
ENDSEC
0
EOF
