  0
SECTION
  2
HEADER
  9
$ACADVER
  1
AC1015
  9
$DWGCODEPAGE
  3
ANSI_1252
  9
$EXTMAX
 10
297.0
 20
210.0
 30
0.0
  9
$EXTMIN
 10
0.0
 20
0.0
 30
0.0
  9
$LIMMIN
 10
0.0
 20
0.0
  9
$LIMMAX
 10
297.0
 20
210.0
  9
$VIEWCTR
 10
148.5
 20
105.0
  9
$VIEWSIZE
 40
210.0
  9
$CLAYER
  8
0
  9
$LTSCALE
 40
16.335
  9
$CELTYPE
  6
BYLAYER
  9
$DIMSCALE
 40
1.0
  9
$DIMASZ
 40
3.0
  9
$DIMEXO
 40
0.5
  9
$DIMDLI
 40
11.286
  9
$DIMEXE
 40
1.5
  9
$DIMCEN
 40
2.673
  9
$DIMLFAC
 40
1.0
  9
$DIMBLK
  1
_FILLED
  9
$DIMTXT
 40
3.0
  9
$DIMTOL
 70
1
  9
$DIMLIM
 70
0
  9
$DIMTFAC
 40
1.0
  9
$DIMTP
 40
0.01
  9
$DIMTM
 40
0.01
  9
$DIMGAP
 40
0.625
  9
$DIMDSEP
 70
44
  9
$PDMODE
 70
3
  9
$PDSIZE
 40
3.0
  9
$HANDSEED
  5
409
  9
$TILEMODE
 70
1
  9
$MEASUREMENT
 70
1
  9
$INSUNITS
 70
4
  0
ENDSEC
  0
SECTION
  2
CLASSES
  0
CLASS
  1
ACDBDICTIONARYWDFLT
  2
AcDbDictionaryWithDefault
  3
AutoCAD 2000
 90
0
280
0
281
0
  0
CLASS
  1
ACDBPLACEHOLDER
  2
AcDbPlaceHolder
  3
AutoCAD 2000
 90
0
280
0
281
0
  0
CLASS
  1
LAYOUT
  2
AcDbLayout
  3
AutoCAD 2000
 90
0
280
0
281
0
  0
ENDSEC
  0
SECTION
  2
TABLES
  0
TABLE
  2
VPORT
  5
8
100
AcDbSymbolTable
 70
2
  0
VPORT
  5
1F4
100
AcDbSymbolTableRecord
100
AcDbViewportTableRecord
  2
*ACTIVE
 70
0
 10
0.0
 20
0.0
 11
1.0
 21
1.0
 12
148.5
 22
105.0
 13
0.0
 23
0.0
 14
1.0
 24
1.0
 15
0.0
 25
0.0
 16
0.0
 26
0.0
 36
1.0
 17
0.0
 27
0.0
 37
0.0
 40
210.0
 41
1.4142857143
 42
50.0
 43
0.0
 44
0.0
 50
0.0
 51
0.0
 71
0
 72
100
 73
1
 74
1
 75
0
 76
0
 77
0
 78
0
  0
ENDTAB
  0
TABLE
  2
LTYPE
  5
5
100
AcDbSymbolTable
 70
6
  0
LTYPE
  5
14
100
AcDbSymbolTableRecord
100
AcDbLinetypeTableRecord
  2
BYBLOCK
 70
0
  3

 72
65
 73
0
 40
0.0
  0
LTYPE
  5
15
100
AcDbSymbolTableRecord
100
AcDbLinetypeTableRecord
  2
BYLAYER
 70
0
  3

 72
65
 73
0
 40
0.0
  0
LTYPE
  5
16
100
AcDbSymbolTableRecord
100
AcDbLinetypeTableRecord
  2
CONTINUOUS
 70
64
  3
Solid line
 72
65
 73
0
 40
0.0
  0
LTYPE
  5
1F5
100
AcDbSymbolTableRecord
100
AcDbLinetypeTableRecord
  2
CENTER
 70
64
  3
____ _ ____ _ ____ _ ____ _ ____ _ ____ _ ____
 72
65
 73
4
 40
0.6
 49
0.375
 74
0
 49
-0.075
 74
0
 49
0.075
 74
0
 49
-0.075
 74
0
  0
LTYPE
  5
1F6
100
AcDbSymbolTableRecord
100
AcDbLinetypeTableRecord
  2
HIDDEN
 70
64
  3
- - - - - - - - - - - - - - - - - - - -
 72
65
 73
2
 40
0.2
 49
0.1
 74
0
 49
-0.1
 74
0
  0
LTYPE
  5
1F7
100
AcDbSymbolTableRecord
100
AcDbLinetypeTableRecord
  2
PHANTOM
 70
64
  3
_____ _ _ _____ _ _ _____ _ _ _____
 72
65
 73
6
 40
0.8
 49
0.45
 74
0
 49
-0.05
 74
0
 49
0.1
 74
0
 49
-0.05
 74
0
 49
0.1
 74
0
 49
-0.05
 74
0
  0
LTYPE
  5
1F8
100
AcDbSymbolTableRecord
100
AcDbLinetypeTableRecord
  2
DOT
 70
64
  3
. . . . . . . . . . . . . . . . . . . .
 72
65
 73
2
 40
0.2
 49
0.1
 74
0
 49
-0.1
 74
0
  0
LTYPE
  5
1F9
100
AcDbSymbolTableRecord
100
AcDbLinetypeTableRecord
  2
DASHED
 70
64
  3
- - - - - - - - - - - - - - - - - - - -
 72
65
 73
2
 40
0.2
 49
0.1
 74
0
 49
-0.1
 74
0
  0
ENDTAB
  0
TABLE
  2
LAYER
  5
2
100
AcDbSymbolTable
 70
36
  0
LAYER
  5
10
100
AcDbSymbolTableRecord
100
AcDbLayerTableRecord
  2
0
 70
0
 62
7
  6
CONTINUOUS
370
-3
390
F
  0
LAYER
  5
1FA
100
AcDbSymbolTableRecord
100
AcDbLayerTableRecord
  2
DEFAULT_1
 70
0
 62
7
  6
CENTER
370
-3
390
F
  0
LAYER
  5
1FB
100
AcDbSymbolTableRecord
100
AcDbLayerTableRecord
  2
DEFAULT_2
 70
0
 62
7
  6
HIDDEN
370
-3
390
F
  0
LAYER
  5
1FC
100
AcDbSymbolTableRecord
100
AcDbLayerTableRecord
  2
DEFAULT_3
 70
0
 62
7
  6
PHANTOM
370
-3
390
F
  0
LAYER
  5
1FD
100
AcDbSymbolTableRecord
100
AcDbLayerTableRecord
  2
ASSI
 70
0
 62
7
  6
CONTINUOUS
370
-3
390
F
  0
LAYER
  5
1FE
100
AcDbSymbolTableRecord
100
AcDbLayerTableRecord
  2
COORDINATE
 70
0
 62
7
  6
CONTINUOUS
370
-3
390
F
  0
LAYER
  5
1FF
100
AcDbSymbolTableRecord
100
AcDbLayerTableRecord
  2
COORD_ORIGINE
 70
0
 62
7
  6
CONTINUOUS
370
-3
390
F
  0
LAYER
  5
200
100
AcDbSymbolTableRecord
100
AcDbLayerTableRecord
  2
COPY_PLACCA
 70
0
 62
7
  6
CONTINUOUS
370
-3
390
F
  0
LAYER
  5
201
100
AcDbSymbolTableRecord
100
AcDbLayerTableRecord
  2
COPY_SUPP
 70
0
 62
7
  6
CONTINUOUS
370
-3
390
F
  0
LAYER
  5
202
100
AcDbSymbolTableRecord
100
AcDbLayerTableRecord
  2
CURVE
 70
0
 62
7
  6
CONTINUOUS
370
-3
390
F
  0
LAYER
  5
203
100
AcDbSymbolTableRecord
100
AcDbLayerTableRecord
  2
DRAFT
 70
0
 62
7
  6
CONTINUOUS
370
-3
390
F
  0
LAYER
  5
204
100
AcDbSymbolTableRecord
100
AcDbLayerTableRecord
  2
NOTE
 70
0
 62
7
  6
CONTINUOUS
370
-3
390
F
  0
LAYER
  5
205
100
AcDbSymbolTableRecord
100
AcDbLayerTableRecord
  2
PIANI
 70
0
 62
7
  6
CONTINUOUS
370
-3
390
F
  0
LAYER
  5
206
100
AcDbSymbolTableRecord
100
AcDbLayerTableRecord
  2
PIANI_ORIGINE
 70
0
 62
7
  6
CONTINUOUS
370
-3
390
F
  0
LAYER
  5
207
100
AcDbSymbolTableRecord
100
AcDbLayerTableRecord
  2
RACCORDO
 70
0
 62
7
  6
CONTINUOUS
370
-3
390
F
  0
LAYER
  5
208
100
AcDbSymbolTableRecord
100
AcDbLayerTableRecord
  2
SKELETON
 70
0
 62
7
  6
CONTINUOUS
370
-3
390
F
  0
LAYER
  5
209
100
AcDbSymbolTableRecord
100
AcDbLayerTableRecord
  2
SMUSSO
 70
0
 62
7
  6
CONTINUOUS
370
-3
390
F
  0
LAYER
  5
20A
100
AcDbSymbolTableRecord
100
AcDbLayerTableRecord
  2
SUPERFICI
 70
0
 62
7
  6
CONTINUOUS
370
-3
390
F
  0
LAYER
  5
20B
100
AcDbSymbolTableRecord
100
AcDbLayerTableRecord
  2
TRASH
 70
0
 62
7
  6
CONTINUOUS
370
-3
390
F
  0
LAYER
  5
20C
100
AcDbSymbolTableRecord
100
AcDbLayerTableRecord
  2
WHITE
 70
0
 62
7
  6
CONTINUOUS
370
-3
390
F
  0
LAYER
  5
20D
100
AcDbSymbolTableRecord
100
AcDbLayerTableRecord
  2
XSEC_DATUMS
 70
0
 62
7
  6
CONTINUOUS
370
-3
390
F
  0
ENDTAB
  0
TABLE
  2
STYLE
  5
3
100
AcDbSymbolTable
 70
1
  0
STYLE
  5
11
100
AcDbSymbolTableRecord
100
AcDbTextStyleTableRecord
  2
STANDARD
 70
0
 40
0.0
 41
0.8
 50
0.0
 71
0
 42
0.2
  3
txt
  4

  0
STYLE
  5
20E
100
AcDbSymbolTableRecord
100
AcDbTextStyleTableRecord
  2
TEXTSTYLE_1
 70
0
 40
0.0
 41
0.8
 50
0.0
 71
0
 42
0.2
  3
gdt
  4

  0
ENDTAB
  0
TABLE
  2
VIEW
  5
6
100
AcDbSymbolTable
 70
0
  0
ENDTAB
  0
TABLE
  2
UCS
  5
7
100
AcDbSymbolTable
 70
0
  0
ENDTAB
  0
TABLE
  2
APPID
  5
9
100
AcDbSymbolTable
 70
1
  0
APPID
  5
20F
100
AcDbSymbolTableRecord
100
AcDbRegAppTableRecord
  2
ACAD
 70
0
  0
ENDTAB
  0
TABLE
  2
BLOCK_RECORD
  5
1
100
AcDbSymbolTable
 70
0
  0
BLOCK_RECORD
  5
210
100
AcDbSymbolTableRecord
100
AcDbBlockTableRecord
  2
*Model_Space
  0
BLOCK_RECORD
  5
211
100
AcDbSymbolTableRecord
100
AcDbBlockTableRecord
  2
*Paper_Space
  0
ENDTAB
  0
TABLE
  2
DIMSTYLE
  5
A
100
AcDbSymbolTable
 70
1
100
AcDbDimStyleTable
 71
0
  0
DIMSTYLE
105
212
100
AcDbSymbolTableRecord
100
AcDbDimStyleTableRecord
  2
STANDARD
 70
0
  3

  4

 40
1.0
 41
3.0
 42
0.5
 43
0.38
 44
1.5
 45
0.0
 46
0.0
 47
0.01
 48
0.01
140
3.0
141
0.09
142
0.0
143
25.4
144
1.0
145
0.0
146
1.0
147
0.625
 71
1.0
 72
0.0
 73
0
 74
0
 75
0
 76
0
 77
1
 78
8
170
0
171
2
172
0
173
0
174
0
175
0
176
0
177
0
178
0
270
2
271
2
272
2
273
2
274
2
275
0
280
0
281
0
282
0
283
1
284
8
285
0
286
0
287
3
288
0
340
11
278
44
  0
ENDTAB
  0
ENDSEC
  0
SECTION
  2
BLOCKS
  0
BLOCK
  5
20
100
AcDbEntity
  8
0
100
AcDbBlockBegin
  2
*Model_Space
 70
0
 10
0.0
 20
0.0
 30
0.0
  3
*Model_Space
  1

  0
ENDBLK
  5
21
100
AcDbEntity
  8
0
100
AcDbBlockEnd
  0
BLOCK
  5
1C
100
AcDbEntity
  8
0
100
AcDbBlockBegin
  2
*Paper_Space
 70
0
 10
0.0
 20
0.0
 30
0.0
  3
*Paper_Space
  1

  0
ENDBLK
  5
1D
100
AcDbEntity
  8
0
100
AcDbBlockEnd
  0
ENDSEC
  0
SECTION
  2
ENTITIES
  0
LWPOLYLINE
  5
213
100
AcDbEntity
  8
RACCORDO
100
AcDbPolyline
 62
7
  6
CONTINUOUS
 90
11
 70
0
 10
95.9233599661
 20
156.4922723455
 10
95.8620249092
 20
156.4384568073
 10
95.7814689544
 20
156.3541713277
 10
95.7084997293
 20
156.2601582691
 10
95.6441206893
 20
156.157019352
 10
95.5892640777
 20
156.0457838811
 10
95.5444545161
 20
155.9271033447
 10
95.5100947325
 20
155.8015624792
 10
95.4865496834
 20
155.6700669436
 10
95.4740494935
 20
155.5332614224
 10
95.471914345
 20
155.4467547145
  0
LINE
  5
214
100
AcDbEntity
  8
RACCORDO
100
AcDbLine
 62
7
  6
CONTINUOUS
 10
99.9626808827
 20
158.8540566431
 11
97.1473042829
 21
156.5478351459
  0
LINE
  5
215
100
AcDbEntity
  8
RACCORDO
100
AcDbLine
 62
7
  6
CONTINUOUS
 10
98.7501582161
 20
158.8078632289
 11
95.9203684015
 21
156.4898345021
  0
LWPOLYLINE
  5
216
100
AcDbEntity
  8
RACCORDO
100
AcDbPolyline
 62
7
  6
CONTINUOUS
 90
12
 70
0
 10
98.7509733434
 20
158.8084765131
 10
98.763136413
 20
158.8182354271
 10
98.854636343
 20
158.8807832368
 10
98.9544569874
 20
158.9308066572
 10
99.0625868395
 20
158.9683376709
 10
99.1772983262
 20
158.9924312732
 10
99.2994153227
 20
159.0027341949
 10
99.4281191973
 20
158.9996034827
 10
99.559216481
 20
158.9831580727
 10
99.6913092459
 20
158.9534375382
 10
99.825797037
 20
158.9104034797
 10
99.9626808827
 20
158.8540566431
  0
LINE
  5
217
100
AcDbEntity
  8
SMUSSO
100
AcDbLine
 62
7
  6
CONTINUOUS
 10
101.2353515747
 20
158.9193443949
 11
100.6770254769
 21
158.5313355759
  0
LINE
  5
218
100
AcDbEntity
  8
DRAFT
100
AcDbLine
 62
7
  6
CONTINUOUS
 10
100.7559055772
 20
158.9092456382
 11
100.376719354
 21
158.6670055498
  0
LWPOLYLINE
  5
219
100
AcDbEntity
  8
SMUSSO
100
AcDbPolyline
 62
7
  6
CONTINUOUS
 90
80
 70
0
 10
100.7559059745
 20
158.909245505
 10
100.7591372691
 20
158.9112860035
 10
100.7639049683
 20
158.9142120675
 10
100.7687222191
 20
158.9170688963
 10
100.773588576
 20
158.9198562238
 10
100.7785035935
 20
158.922573784
 10
100.7834668258
 20
158.925221311
 10
100.7884778274
 20
158.9277985386
 10
100.7935361386
 20
158.9303052031
 10
100.7986412432
 20
158.9327410505
 10
100.8037926109
 20
158.9351058288
 10
100.8089897114
 20
158.9373992863
 10
100.8142320145
 20
158.9396211711
 10
100.8195189899
 20
158.9417712315
 10
100.8248501072
 20
158.9438492155
 10
100.8302248362
 20
158.9458548714
 10
100.8356426466
 20
158.9477879474
 10
100.8411029921
 20
158.9496482022
 10
100.8466052623
 20
158.9514354366
 10
100.8521488305
 20
158.9531494621
 10
100.8577330705
 20
158.95479009
 10
100.8633573556
 20
158.9563571318
 10
100.8690210593
 20
158.9578503988
 10
100.8747235553
 20
158.9592697025
 10
100.8804642169
 20
158.9606148542
 10
100.8862424178
 20
158.9618856653
 10
100.8920575225
 20
158.9630819622
 10
100.8979088606
 20
158.9642036305
 10
100.9037957526
 20
158.9652505708
 10
100.9097175191
 20
158.9662226836
 10
100.9156734808
 20
158.9671198697
 10
100.9216629583
 20
158.9679420294
 10
100.9276852721
 20
158.9686890634
 10
100.9337397429
 20
158.9693608723
 10
100.9398256914
 20
158.9699573566
 10
100.9459424353
 20
158.9704784319
 10
100.9520892814
 20
158.9709240735
 10
100.9582655337
 20
158.9712942718
 10
100.9644704962
 20
158.9715890169
 10
100.9707034728
 20
158.9718082994
 10
100.9769637676
 20
158.9719521093
 10
100.9832506846
 20
158.9720204372
 10
100.9895635277
 20
158.9720132732
 10
100.9959016009
 20
158.9719306076
 10
101.0022642218
 20
158.9717724412
 10
101.0086507622
 20
158.9715388159
 10
101.0150606073
 20
158.9712297842
 10
101.0214931425
 20
158.9708453982
 10
101.0279477531
 20
158.9703857104
 10
101.0344238244
 20
158.9698507731
 10
101.0409207419
 20
158.9692406387
 10
101.0474378907
 20
158.9685553596
 10
101.0539746562
 20
158.967794988
 10
101.0605304171
 20
158.9669595833
 10
101.0671045253
 20
158.9660492332
 10
101.0736963261
 20
158.965064032
 10
101.0803051648
 20
158.9640040744
 10
101.0869303866
 20
158.9628694549
 10
101.0935713367
 20
158.961660268
 10
101.1002273605
 20
158.9603766083
 10
101.1068978032
 20
158.9590185703
 10
101.1135820101
 20
158.9575862485
 10
101.1202792737
 20
158.9560797695
 10
101.1269886757
 20
158.9544993875
 10
101.1337092449
 20
158.9528453885
 10
101.1404400103
 20
158.9511180586
 10
101.1471800006
 20
158.9493176841
 10
101.1539282449
 20
158.9474445511
 10
101.1606837721
 20
158.9454989455
 10
101.1674456109
 20
158.9434811537
 10
101.1742127903
 20
158.9413914617
 10
101.1809845506
 20
158.9392300849
 10
101.1877609774
 20
158.936996956
 10
101.1945423677
 20
158.9346919369
 10
101.2013290185
 20
158.9323148894
 10
101.2081212268
 20
158.9298656756
 10
101.2149192895
 20
158.9273441573
 10
101.2217235038
 20
158.9247501965
 10
101.2285341665
 20
158.922083655
 10
101.2353515747
 20
158.9193443949
  0
LWPOLYLINE
  5
21A
100
AcDbEntity
  8
RACCORDO
100
AcDbPolyline
 62
7
  6
CONTINUOUS
 90
8
 70
0
 10
96.8360327567
 20
87.1050510872
 10
96.838695728
 20
87.0535107701
 10
96.8466390776
 20
87.0066924905
 10
96.8597268926
 20
86.9653973219
 10
96.8777352368
 20
86.9303318362
 10
96.9003559822
 20
86.9020960134
 10
96.9272020813
 20
86.8811729764
 10
96.9397501261
 20
86.8746014046
  0
LWPOLYLINE
  5
21B
100
AcDbEntity
  8
RACCORDO
100
AcDbPolyline
 62
7
  6
CONTINUOUS
 90
3
 70
0
 10
95.471914405
 20
89.095642462
 10
95.475214437
 20
88.9858210651
 10
95.4926774811
 20
88.8169973285
  0
LWPOLYLINE
  5
21C
100
AcDbEntity
  8
RACCORDO
100
AcDbPolyline
 62
7
  6
CONTINUOUS
 90
25
 70
0
 10
95.6600227317
 20
88.871238027
 10
95.6610423042
 20
88.8041463104
 10
95.6665630544
 20
88.7331061174
 10
95.6765850625
 20
88.6581175058
 10
95.6907532067
 20
88.5788699914
 10
95.7094229505
 20
88.4956743041
 10
95.7336604155
 20
88.4094624387
 10
95.7638238573
 20
88.3196739195
 10
95.7995560174
 20
88.2268699391
 10
95.8408499593
 20
88.1336651486
 10
95.8880237249
 20
88.0400815702
 10
95.9407608872
 20
87.9460983433
 10
95.9981027929
 20
87.8542657849
 10
96.0604101436
 20
87.7646199378
 10
96.1273240562
 20
87.6771260683
 10
96.1968060024
 20
87.5942279705
 10
96.2690677359
 20
87.5162309906
 10
96.3438987029
 20
87.4428306476
 10
96.418625869
 20
87.3755552428
 10
96.4932251809
 20
87.3148592471
 10
96.5677206337
 20
87.2602881497
 10
96.6395100062
 20
87.2120058723
 10
96.7077252114
 20
87.1700665663
 10
96.7732329853
 20
87.1344151083
 10
96.8360327567
 20
87.1050510872
  0
LINE
  5
21D
100
AcDbEntity
  8
RACCORDO
100
AcDbLine
 62
7
  6
CONTINUOUS
 10
95.4719132106
 20
155.4467070576
 11
95.4719132106
 21
89.0953914696
  0
LINE
  5
21E
100
AcDbEntity
  8
RACCORDO
100
AcDbLine
 62
7
  6
CONTINUOUS
 10
95.6600227317
 20
155.2225536144
 11
95.6600227317
 21
88.871238027
  0
LWPOLYLINE
  5
21F
100
AcDbEntity
  8
RACCORDO
100
AcDbPolyline
 62
7
  6
CONTINUOUS
 90
13
 70
0
 10
96.8360327567
 20
155.9138228075
 10
96.8386957224
 20
155.9692032272
 10
96.846639057
 20
156.0274762473
 10
96.8597268514
 20
156.0876448037
 10
96.8777351739
 20
156.1486793988
 10
96.9003559005
 20
156.2095357139
 10
96.9272019861
 20
156.269172478
 10
96.9578140892
 20
156.3265692892
 10
96.9916684298
 20
156.3807440695
 10
97.0281857492
 20
156.4307698674
 10
97.0667412252
 20
156.4757907241
 10
97.1066751636
 20
156.515036319
 10
97.1473042829
 20
156.5478351459
  0
LWPOLYLINE
  5
220
100
AcDbEntity
  8
RACCORDO
100
AcDbPolyline
 62
7
  6
CONTINUOUS
 90
11
 70
0
 10
95.525051491
 20
88.6453003197
 10
95.5720457306
 20
88.4723006043
 10
95.6326827868
 20
88.300920552
 10
95.7059923356
 20
88.1328444604
 10
95.7914658598
 20
87.9686086425
 10
95.8882264448
 20
87.809602865
 10
95.9954605823
 20
87.6570155515
 10
96.112413265
 20
87.5118772915
 10
96.2382536431
 20
87.3753639158
 10
96.372434625
 20
87.2483012672
 10
96.5139106538
 20
87.1320812663
  0
LINE
  5
221
100
AcDbEntity
  8
RACCORDO
100
AcDbLine
 62
7
  6
CONTINUOUS
 10
95.4926774811
 20
88.8169973285
 11
95.525051491
 21
88.6453003197
  0
LWPOLYLINE
  5
222
100
AcDbEntity
  8
RACCORDO
100
AcDbPolyline
 62
7
  6
CONTINUOUS
 90
29
 70
0
 10
114.7220392766
 20
134.4192377034
 10
114.7175148796
 20
134.4152389627
 10
114.7037478804
 20
134.4025002719
 10
114.6903631979
 20
134.3892291495
 10
114.6773782733
 20
134.3754336007
 10
114.6648086309
 20
134.361121294
 10
114.6526690595
 20
134.3462998244
 10
114.6409745513
 20
134.3309779585
 10
114.6297387849
 20
134.3151646288
 10
114.6189749545
 20
134.2988691376
 10
114.6086959094
 20
134.2821009954
 10
114.5989135445
 20
134.2648697624
 10
114.5896392471
 20
134.247185719
 10
114.5808839416
 20
134.2290589279
 10
114.5726582888
 20
134.2105001614
 10
114.5649714653
 20
134.191519094
 10
114.5578316374
 20
134.1721229982
 10
114.5512480204
 20
134.1523219661
 10
114.5452289414
 20
134.1321259481
 10
114.5397814127
 20
134.1115405785
 10
114.5349137929
 20
134.0905753743
 10
114.5306338761
 20
134.0692403974
 10
114.5269484173
 20
134.0475408752
 10
114.5238654593
 20
134.0254870225
 10
114.5213924043
 20
134.0030878858
 10
114.5195360704
 20
133.9803459207
 10
114.5183044085
 20
133.9572680366
 10
114.5177051916
 20
133.9338679594
 10
114.5176437791
 20
133.9235419731
  0
LINE
  5
223
100
AcDbEntity
  8
RACCORDO
100
AcDbLine
 62
7
  6
CONTINUOUS
 10
115.0897491253
 20
134.740616529
 11
114.72202793
 21
134.4192279327
  0
LINE
  5
224
100
AcDbEntity
  8
RACCORDO
100
AcDbLine
 62
7
  6
CONTINUOUS
 10
115.4451923374
 20
134.6218916158
 11
115.2915872849
 21
134.4876307304
  0
LINE
  5
225
100
AcDbEntity
  8
RACCORDO
100
AcDbLine
 62
7
  6
CONTINUOUS
 10
114.6326356339
 20
134.6567565344
 11
114.6335976618
 21
134.6575464895
  0
LINE
  5
226
100
AcDbEntity
  8
RACCORDO
100
AcDbLine
 62
7
  6
CONTINUOUS
 10
114.6649608387
 20
134.3612946039
 11
114.4354093238
 21
134.1732570113
  0
LWPOLYLINE
  5
227
100
AcDbEntity
  8
RACCORDO
100
AcDbPolyline
 62
7
  6
CONTINUOUS
 90
5
 70
0
 10
114.632658381
 20
134.6567745266
 10
114.6444115084
 20
134.6661031
 10
114.7029772715
 20
134.7035163816
 10
114.7681647602
 20
134.7313443178
 10
114.8402133168
 20
134.7494391201
  0
LWPOLYLINE
  5
228
100
AcDbEntity
  8
RACCORDO
100
AcDbPolyline
 62
7
  6
CONTINUOUS
 90
11
 70
0
 10
192.1154369313
 20
48.6590611557
 10
192.2764040045
 20
48.6200552151
 10
192.4350459108
 20
48.5960758439
 10
192.5905852654
 20
48.5869029549
 10
192.7425338663
 20
48.5924105616
 10
192.8898593388
 20
48.6124427167
 10
193.0315395784
 20
48.6467969478
 10
193.1668835034
 20
48.6953168819
 10
193.2947494331
 20
48.7576259118
 10
193.4138579646
 20
48.8331694068
 10
193.4767225479
 20
48.8813200565
  0
LWPOLYLINE
  5
229
100
AcDbEntity
  8
RACCORDO
100
AcDbPolyline
 62
7
  6
CONTINUOUS
 90
10
 70
0
 10
193.1904478048
 20
49.7008205457
 10
193.2652704835
 20
49.679323152
 10
193.345296111
 20
49.6652845859
 10
193.4282829611
 20
49.659098104
 10
193.5119063562
 20
49.660937006
 10
193.5938237872
 20
49.6707497792
 10
193.6717405337
 20
49.6882615425
 10
193.7434739448
 20
49.7129817457
 10
193.8070145808
 20
49.7442179117
 10
193.8605825032
 20
49.781095034
  0
LINE
  5
22A
100
AcDbEntity
  8
RACCORDO
100
AcDbLine
 62
7
  6
CONTINUOUS
 10
192.0031559152
 20
48.6949414594
 11
192.1154369313
 21
48.6590611557
  0
LWPOLYLINE
  5
22B
100
AcDbEntity
  8
RACCORDO
100
AcDbPolyline
 62
7
  6
CONTINUOUS
 90
3
 70
0
 10
96.5139106538
 20
87.1320812663
 10
96.6610153919
 20
87.0283214901
 10
96.8126550466
 20
86.9380281327
  0
LWPOLYLINE
  5
22C
100
AcDbEntity
  8
RACCORDO
100
AcDbPolyline
 62
7
  6
CONTINUOUS
 90
58
 70
0
 10
114.5968862502
 20
93.2252689901
 10
114.5971057813
 20
93.2080112447
 10
114.5977613142
 20
93.19059759
 10
114.5988528497
 20
93.1730280266
 10
114.6003817379
 20
93.1552896262
 10
114.602346632
 20
93.1373953196
 10
114.6047434889
 20
93.119383897
 10
114.6075731971
 20
93.1012557851
 10
114.6108348749
 20
93.0830105623
 10
114.6145218243
 20
93.0646857466
 10
114.6186349168
 20
93.046281228
 10
114.6231732909
 20
93.027797124
 10
114.6281276492
 20
93.0092712947
 10
114.6334988303
 20
92.9907036919
 10
114.6392860085
 20
92.9720943735
 10
114.6454773912
 20
92.9534813587
 10
114.6520738228
 20
92.9348645986
 10
114.6590744743
 20
92.9162441538
 10
114.666465043
 20
92.8976582074
 10
114.6742463252
 20
92.8791068534
 10
114.6824175423
 20
92.8605900113
 10
114.6909620299
 20
92.8421456026
 10
114.6998805736
 20
92.823773752
 10
114.7091724073
 20
92.8054743496
 10
114.7188185388
 20
92.7872849654
 10
114.7288196906
 20
92.7692058516
 10
114.739175161
 20
92.7512367718
 10
114.7498638207
 20
92.7334145619
 10
114.7608863811
 20
92.7157394975
 10
114.7722421524
 20
92.6982113195
 10
114.783907903
 20
92.680866062
 10
114.7958842632
 20
92.6637041273
 10
114.8081706246
 20
92.6467251297
 10
114.8207418955
 20
92.6299639202
 10
114.8335986908
 20
92.6134209236
 10
114.8467404174
 20
92.5970957316
 10
114.8601401705
 20
92.5810219445
 10
114.8737984891
 20
92.5652000862
 10
114.8877148551
 20
92.5496296487
 10
114.9018607757
 20
92.5343426838
 10
114.9162367617
 20
92.5193397519
 10
114.9308423219
 20
92.5046203075
 10
114.9456474584
 20
92.4902147416
 10
114.9606525648
 20
92.4761237321
 10
114.9758572653
 20
92.4623466147
 10
114.9912304061
 20
92.4489117652
 10
115.0067723628
 20
92.4358198701
 10
115.0224827753
 20
92.4230702547
 10
115.0383293838
 20
92.4106892517
 10
115.0543125301
 20
92.3986775984
 10
115.0704318853
 20
92.3870345673
 10
115.0866541807
 20
92.3757842913
 10
115.1029804208
 20
92.364927182
 10
115.1194096111
 20
92.3544628354
 10
115.1359054808
 20
92.3444141582
 10
115.1524559411
 20
92.3347887869
 10
115.1690730871
 20
92.3255790898
 10
115.1857569219
 20
92.3167850692
  0
LWPOLYLINE
  5
22D
100
AcDbEntity
  8
RACCORDO
100
AcDbPolyline
 62
7
  6
CONTINUOUS
 90
55
 70
0
 10
114.5176437371
 20
93.3167154692
 10
114.5176873679
 20
93.3079797047
 10
114.5182308192
 20
93.2845161643
 10
114.5193933829
 20
93.2608955245
 10
114.5211728995
 20
93.2371272524
 10
114.523566083
 20
93.2132288497
 10
114.5265679097
 20
93.1892277351
 10
114.5301744938
 20
93.1651359165
 10
114.5343813692
 20
93.1409670869
 10
114.539180688
 20
93.1167521147
 10
114.5445669805
 20
93.0925044755
 10
114.5505344191
 20
93.0682374121
 10
114.5570723758
 20
93.0439823209
 10
114.5641732317
 20
93.0197547768
 10
114.5718302733
 20
92.9955661357
 10
114.5800322236
 20
92.9714421974
 10
114.5887697138
 20
92.9473998969
 10
114.5980356425
 20
92.9234491943
 10
114.6078210033
 20
92.8996060161
 10
114.6181170769
 20
92.8758842522
 10
114.6289154865
 20
92.8522968211
 10
114.6402071118
 20
92.8288586833
 10
114.6519828347
 20
92.8055835726
 10
114.6642339899
 20
92.7824844022
 10
114.6769514362
 20
92.7595751957
 10
114.6901258208
 20
92.7368693295
 10
114.7037481224
 20
92.7143798562
 10
114.7178089568
 20
92.6921203822
 10
114.7322984596
 20
92.6701044112
 10
114.7472075512
 20
92.6483445695
 10
114.7625273644
 20
92.6268530137
 10
114.7782480635
 20
92.6056427398
 10
114.7943601609
 20
92.5847266217
 10
114.8108548121
 20
92.5641163413
 10
114.8277221334
 20
92.5438246045
 10
114.8449523459
 20
92.5238643156
 10
114.862536417
 20
92.5042470145
 10
114.8804648764
 20
92.4849846892
 10
114.8987272231
 20
92.4660907164
 10
114.9173126415
 20
92.4475780857
 10
114.9362115683
 20
92.4294585327
 10
114.9554131499
 20
92.4117452115
 10
114.9749044676
 20
92.3944523696
 10
114.9946750619
 20
92.3775920258
 10
115.0147144355
 20
92.3611762679
 10
115.0350096873
 20
92.3452185109
 10
115.0555503512
 20
92.3297303523
 10
115.0763256024
 20
92.3147235387
 10
115.0973222463
 20
92.3002109746
 10
115.1185290646
 20
92.2862043471
 10
115.1399357875
 20
92.2727145472
 10
115.1615314078
 20
92.2597527283
 10
115.1833055414
 20
92.2473299603
 10
115.2052463399
 20
92.2354576772
 10
115.2150272821
 20
92.2303714957
  0
LINE
  5
22E
100
AcDbEntity
  8
RACCORDO
100
AcDbLine
 62
7
  6
CONTINUOUS
 10
114.2930773978
 20
93.304855809
 11
114.2930773978
 21
134.160450132
  0
LINE
  5
22F
100
AcDbEntity
  8
RACCORDO
100
AcDbLine
 62
7
  6
CONTINUOUS
 10
114.4354093238
 20
93.3176626883
 11
114.4354093238
 21
134.1732570113
  0
LINE
  5
230
100
AcDbEntity
  8
RACCORDO
100
AcDbLine
 62
7
  6
CONTINUOUS
 10
114.5176436583
 20
133.9235411147
 11
114.5176436583
 21
93.3167137839
  0
LINE
  5
231
100
AcDbEntity
  8
RACCORDO
100
AcDbLine
 62
7
  6
CONTINUOUS
 10
114.5968862502
 20
133.8320963208
 11
114.5968862502
 21
93.2252689901
  0
LINE
  5
232
100
AcDbEntity
  8
RACCORDO
100
AcDbLine
 62
7
  6
CONTINUOUS
 10
115.6157516897
 20
93.4839897151
 11
115.6157516897
 21
132.6893243885
  0
LINE
  5
233
100
AcDbEntity
  8
RACCORDO
100
AcDbLine
 62
7
  6
CONTINUOUS
 10
115.8938967506
 20
93.5049017839
 11
115.8938967506
 21
132.7102364574
  0
LWPOLYLINE
  5
234
100
AcDbEntity
  8
RACCORDO
100
AcDbPolyline
 62
7
  6
CONTINUOUS
 90
49
 70
0
 10
115.6157516897
 20
132.6893243885
 10
115.6160272075
 20
132.7078490108
 10
115.6167872092
 20
132.7259561445
 10
115.6180316959
 20
132.7436457905
 10
115.619773926
 20
132.7609400742
 10
115.6220006454
 20
132.7778168735
 10
115.6246720871
 20
132.7942098184
 10
115.6277911003
 20
132.8101147004
 10
115.6313548434
 20
132.8255357339
 10
115.6353150139
 20
132.840419184
 10
115.639675003
 20
132.8547612695
 10
115.6444314293
 20
132.8685657791
 10
115.6495258303
 20
132.8817903333
 10
115.6549613113
 20
132.8944290419
 10
115.6607347776
 20
132.9064878031
 10
115.6667784654
 20
132.9179419193
 10
115.673092082
 20
132.9287816645
 10
115.67967593
 20
132.9390167722
 10
115.6864631359
 20
132.9486517329
 10
115.6934509176
 20
132.9576787989
 10
115.7006420656
 20
132.9661057244
 10
115.7079780624
 20
132.9739602501
 10
115.7154574526
 20
132.9812393451
 10
115.723081698
 20
132.9879460452
 10
115.7307966539
 20
132.9941171904
 10
115.7386006548
 20
132.999750453
 10
115.7464953705
 20
133.0048481639
 10
115.7544316567
 20
133.0094541487
 10
115.7624057274
 20
133.0135663171
 10
115.7704213706
 20
133.0171867609
 10
115.7784408012
 20
133.0203655775
 10
115.7864631206
 20
133.0231028597
 10
115.7944892276
 20
133.0253985148
 10
115.8024840314
 20
133.0273023607
 10
115.810446826
 20
133.0288141511
 10
115.8183783158
 20
133.029934131
 10
115.8262455247
 20
133.0307128538
 10
115.8340441206
 20
133.0311504182
 10
115.8417784323
 20
133.0312467232
 10
115.8494284739
 20
133.0310520213
 10
115.8569887007
 20
133.0305685049
 10
115.8644646534
 20
133.0297939787
 10
115.8718529731
 20
133.0287721125
 10
115.879150777
 20
133.0275061746
 10
115.8863609439
 20
133.0259928938
 10
115.8934887576
 20
133.0242661315
 10
115.9005359779
 20
133.0223371739
 10
115.9075008415
 20
133.0201947322
 10
115.9143833466
 20
133.0178388049
  0
LWPOLYLINE
  5
235
100
AcDbEntity
  8
RACCORDO
100
AcDbPolyline
 62
7
  6
CONTINUOUS
 90
11
 70
0
 10
114.4354093238
 20
134.1732570113
 10
114.4382944814
 20
134.2454703601
 10
114.4466212119
 20
134.3122609537
 10
114.4597203564
 20
134.3735349283
 10
114.4768121938
 20
134.4289962787
 10
114.4973203969
 20
134.4790513921
 10
114.521105049
 20
134.5246259032
 10
114.5477353099
 20
134.5657262559
 10
114.5768225165
 20
134.6024677927
 10
114.6087051272
 20
134.635645371
 10
114.6326356339
 20
134.6567565344
  0
LWPOLYLINE
  5
236
100
AcDbEntity
  8
RACCORDO
100
AcDbPolyline
 62
7
  6
CONTINUOUS
 90
16
 70
0
 10
114.2930773978
 20
134.160450132
 10
114.2974502815
 20
134.2393397491
 10
114.3063307832
 20
134.3122535843
 10
114.3197190232
 20
134.3791917287
 10
114.3380555562
 20
134.4397799182
 10
114.360900271
 20
134.4943927524
 10
114.3869322911
 20
134.5441536192
 10
114.4158111887
 20
134.589152101
 10
114.4478778982
 20
134.6292989989
 10
114.4828335137
 20
134.6654494741
 10
114.5204266496
 20
134.6978510558
 10
114.560909302
 20
134.7262566771
 10
114.6047377015
 20
134.7507796532
 10
114.651790912
 20
134.7717514427
 10
114.7021907704
 20
134.7888412694
 10
114.7567578969
 20
134.8011692705
  0
LWPOLYLINE
  5
237
100
AcDbEntity
  8
RACCORDO
100
AcDbPolyline
 62
7
  6
CONTINUOUS
 90
9
 70
0
 10
117.0159557104
 20
132.2995175316
 10
117.014318696
 20
132.2951969391
 10
117.0124316068
 20
132.2893928248
 10
117.0107893965
 20
132.2834128572
 10
117.0093947197
 20
132.277266702
 10
117.0082498306
 20
132.2709642936
 10
117.0073565798
 20
132.2645158189
 10
117.0067164111
 20
132.2579317008
 10
117.0063303593
 20
132.2512225817
  0
LINE
  5
238
100
AcDbEntity
  8
DRAFT
100
AcDbLine
 62
7
  6
CONTINUOUS
 10
118.1235195893
 20
124.095669413
 11
118.0668768088
 21
124.049827512
  0
LINE
  5
239
100
AcDbEntity
  8
RACCORDO
100
AcDbLine
 62
7
  6
CONTINUOUS
 10
117.0553688883
 20
132.2838091763
 11
117.0063303593
 21
132.2512225817
  0
LWPOLYLINE
  5
23A
100
AcDbEntity
  8
RACCORDO
100
AcDbPolyline
 62
7
  6
CONTINUOUS
 90
28
 70
0
 10
117.0063303593
 20
132.2512225817
 10
116.9945530174
 20
132.2436109288
 10
116.9828134525
 20
132.2364525142
 10
116.9711116646
 20
132.2297473381
 10
116.959435137
 20
132.2234891939
 10
116.9477963864
 20
132.2176842881
 10
116.9362329628
 20
132.21235124
 10
116.9247486807
 20
132.2074936738
 10
116.9133397256
 20
132.2031079654
 10
116.9020322038
 20
132.1992018613
 10
116.8908297653
 20
132.1957768677
 10
116.8797287602
 20
132.1928314785
 10
116.8687443453
 20
132.1903689217
 10
116.8578748849
 20
132.1883887299
 10
116.8471220147
 20
132.1868913706
 10
116.8365057979
 20
132.1858814736
 10
116.826022775
 20
132.1853600913
 10
116.8156764056
 20
132.1853261713
 10
116.8054971315
 20
132.1857811869
 10
116.7954848044
 20
132.1867279329
 10
116.7856395726
 20
132.1881636144
 10
116.7759923232
 20
132.1900813203
 10
116.7665437914
 20
132.1924843291
 10
116.757293242
 20
132.1953693622
 10
116.7482693559
 20
132.1987196732
 10
116.7394816937
 20
132.2025296799
 10
116.7309206948
 20
132.2068049644
 10
116.7225863594
 20
132.2115455267
  0
LWPOLYLINE
  5
23B
100
AcDbEntity
  8
RACCORDO
100
AcDbPolyline
 62
7
  6
CONTINUOUS
 90
25
 70
0
 10
191.9077076178
 20
48.9221231222
 10
191.9819532785
 20
48.8972765915
 10
192.0581217987
 20
48.8770720388
 10
192.1362135093
 20
48.8615097746
 10
192.2169288687
 20
48.8500277496
 10
192.299568192
 20
48.8431887397
 10
192.3820312154
 20
48.8426799382
 10
192.464672535
 20
48.8489099939
 10
192.5471375293
 20
48.8614702364
 10
192.62626113
 20
48.880820963
 10
192.7016566944
 20
48.9074536734
 10
192.7737096482
 20
48.9408757282
 10
192.8404121516
 20
48.9800703953
 10
192.9013617919
 20
49.025349412
 10
192.9569593964
 20
49.0763995541
 10
193.0064016559
 20
49.1312663376
 10
193.0493272518
 20
49.1901280862
 10
193.0860961916
 20
49.2528052456
 10
193.1169872072
 20
49.3168065631
 10
193.1416852098
 20
49.3821459757
 10
193.1605045366
 20
49.4488088405
 10
193.1746682512
 20
49.5142612162
 10
193.1845839789
 20
49.5776583968
 10
193.1898438486
 20
49.6398448573
 10
193.1904478048
 20
49.7008205457
  0
LWPOLYLINE
  5
23C
100
AcDbEntity
  8
RACCORDO
100
AcDbPolyline
 62
7
  6
CONTINUOUS
 90
13
 70
0
 10
192.0031530387
 20
48.6949415949
 10
183.7781506334
 20
51.6188522346
 10
175.605465394
 20
54.5906842133
 10
167.4859450539
 20
57.6101299321
 10
159.4204320772
 20
60.6768767772
 10
151.4097629011
 20
63.7906074058
 10
143.4547678184
 20
66.95099981
 10
135.5562717733
 20
70.1577270095
 10
127.7150944033
 20
73.4104570145
 10
119.9320492108
 20
76.7088531545
 10
112.207943604
 20
80.0525740682
 10
104.5435788647
 20
83.4412737189
 10
96.9397501261
 20
86.8746014046
  0
LWPOLYLINE
  5
23D
100
AcDbEntity
  8
RACCORDO
100
AcDbPolyline
 62
7
  6
CONTINUOUS
 90
13
 70
0
 10
96.8360327567
 20
87.1050510872
 10
104.4384181799
 20
83.6723663549
 10
112.1021117918
 20
80.2839408204
 10
119.8263361403
 20
76.9401391388
 10
127.6105613403
 20
73.6412149073
 10
135.4537462049
 20
70.3876334066
 10
143.3543195204
 20
67.1800566481
 10
151.3114615069
 20
64.0188174679
 10
159.3243457053
 20
60.9042442152
 10
167.3913489263
 20
57.8369578031
 10
175.5113523612
 20
54.8173604195
 10
183.6837597034
 20
51.8456507586
 10
191.9077076178
 20
48.9221231222
  0
LINE
  5
23E
100
AcDbEntity
  8
RACCORDO
100
AcDbLine
 62
7
  6
CONTINUOUS
 10
96.8126550466
 20
86.9380281327
 11
96.9400090353
 21
86.8744844987
  0
LWPOLYLINE
  5
23F
100
AcDbEntity
  8
RACCORDO
100
AcDbPolyline
 62
7
  6
CONTINUOUS
 90
7
 70
0
 10
95.6600227317
 20
88.871238027
 10
95.5992126775
 20
88.9042137779
 10
95.5488428903
 20
88.9425449139
 10
95.5103243682
 20
88.9851576878
 10
95.4847361272
 20
89.030858412
 10
95.4727949763
 20
89.0783668921
 10
95.4719132106
 20
89.0953914589
  0
LWPOLYLINE
  5
240
100
AcDbEntity
  8
RACCORDO
100
AcDbPolyline
 62
7
  6
CONTINUOUS
 90
19
 70
0
 10
115.9143833466
 20
133.0178388049
 10
115.9150201684
 20
133.0105758043
 10
115.9158849903
 20
133.0035008228
 10
115.916976167
 20
132.9966273205
 10
115.9182916226
 20
132.989968374
 10
115.9198288545
 20
132.9835366521
 10
115.921584938
 20
132.977344391
 10
115.9235565323
 20
132.9714033712
 10
115.9257398864
 20
132.9657248956
 10
115.9281308465
 20
132.9603197674
 10
115.9307248639
 20
132.9551982698
 10
115.9335170035
 20
132.9503701463
 10
115.9365019532
 20
132.9458445824
 10
115.9396740342
 20
132.9416301879
 10
115.9430272117
 20
132.9377349806
 10
115.9465551064
 20
132.9341663711
 10
115.9502510063
 20
132.9309311488
 10
115.9541078802
 20
132.9280354684
 10
115.9581183904
 20
132.925484839
  0
LWPOLYLINE
  5
241
100
AcDbEntity
  8
RACCORDO
100
AcDbPolyline
 62
7
  6
CONTINUOUS
 90
40
 70
0
 10
117.0063304647
 20
95.5972894886
 10
117.0067165155
 20
95.5908460237
 10
117.0073566833
 20
95.5842988177
 10
117.0082499333
 20
95.5776584533
 10
117.0093948217
 20
95.5709356637
 10
117.0107894978
 20
95.5641413152
 10
117.0124317074
 20
95.5572863899
 10
117.014318796
 20
95.5503819679
 10
117.0164477135
 20
95.5434392092
 10
117.0188150186
 20
95.5364693356
 10
117.021416885
 20
95.529483613
 10
117.0242491072
 20
95.5224933327
 10
117.0273071072
 20
95.5155097936
 10
117.0305859422
 20
95.5085442835
 10
117.0340803124
 20
95.501608061
 10
117.0377845697
 20
95.4947123376
 10
117.0416927267
 20
95.4878682593
 10
117.0457984664
 20
95.4810868883
 10
117.0500951525
 20
95.4743791859
 10
117.0545758399
 20
95.467755994
 10
117.0592332864
 20
95.461228018
 10
117.0640599637
 20
95.4548058094
 10
117.0690480704
 20
95.4484997488
 10
117.0741895439
 20
95.442320029
 10
117.0794760736
 20
95.4362766384
 10
117.0848991148
 20
95.4303793455
 10
117.0904499019
 20
95.4246376822
 10
117.0961194628
 20
95.4190609292
 10
117.1018986336
 20
95.4136581003
 10
117.1077780731
 20
95.4084379284
 10
117.1137482779
 20
95.4034088513
 10
117.1197995983
 20
95.3985789975
 10
117.125922253
 20
95.3939561739
 10
117.1321063459
 20
95.3895478525
 10
117.1383418828
 20
95.3853611578
 10
117.1446187833
 20
95.381402858
 10
117.1509268966
 20
95.3776793537
 10
117.1572560249
 20
95.3741966637
 10
117.1635959396
 20
95.3709604156
 10
117.1699363934
 20
95.3679758399
  0
LWPOLYLINE
  5
242
100
AcDbEntity
  8
RACCORDO
100
AcDbPolyline
 62
7
  6
CONTINUOUS
 90
37
 70
0
 10
115.185756922
 20
134.2293264281
 10
115.1853367595
 20
134.2366747317
 10
115.1851411124
 20
134.2441791067
 10
115.1851703435
 20
134.2518256351
 10
115.1854243986
 20
134.2596001349
 10
115.1859028066
 20
134.2674881871
 10
115.1866046801
 20
134.2754751618
 10
115.1875287174
 20
134.2835462457
 10
115.1886732047
 20
134.2916864697
 10
115.1900360194
 20
134.2998807361
 10
115.1916146338
 20
134.3081138473
 10
115.1934061202
 20
134.3163705336
 10
115.1954071559
 20
134.3246354814
 10
115.1976140297
 20
134.3328933619
 10
115.2000226484
 20
134.3411288594
 10
115.202628545
 20
134.3493266997
 10
115.2054268862
 20
134.3574716785
 10
115.2084124821
 20
134.3655486895
 10
115.2115797954
 20
134.3735427524
 10
115.2149229517
 20
134.3814390408
 10
115.2184357506
 20
134.3892229096
 10
115.2221116769
 20
134.3968799224
 10
115.2259439129
 20
134.4043958777
 10
115.2299253512
 20
134.4117568359
 10
115.2340486073
 20
134.4189491448
 10
115.2383060342
 20
134.4259594651
 10
115.2426897354
 20
134.4327747947
 10
115.2471915808
 20
134.4393824936
 10
115.2518032208
 20
134.4457703065
 10
115.2565161024
 20
134.451926386
 10
115.2613214846
 20
134.4578393147
 10
115.2662104551
 20
134.4634981261
 10
115.2711739463
 20
134.4688923247
 10
115.2762027526
 20
134.4740119061
 10
115.2812875472
 20
134.4788473752
 10
115.2864188995
 20
134.4833897637
 10
115.2915872923
 20
134.4876306469
  0
LINE
  5
243
100
AcDbEntity
  8
RACCORDO
100
AcDbLine
 62
7
  6
CONTINUOUS
 10
117.8629694914
 20
96.2858376557
 11
117.8629694914
 21
131.9619351778
  0
LINE
  5
244
100
AcDbEntity
  8
DRAFT
100
AcDbLine
 62
7
  6
CONTINUOUS
 10
118.0668768088
 20
96.0403379958
 11
118.0668768088
 21
106.713230072
  0
LINE
  5
245
100
AcDbEntity
  8
DRAFT
100
AcDbLine
 62
7
  6
CONTINUOUS
 10
118.0668768088
 20
107.6667866262
 11
118.0668768088
 21
123.0962709578
  0
LINE
  5
246
100
AcDbEntity
  8
DRAFT
100
AcDbLine
 62
7
  6
CONTINUOUS
 10
118.0668768088
 20
124.049827512
 11
118.0668768088
 21
131.8806667101
  0
LINE
  5
247
100
AcDbEntity
  8
DRAFT
100
AcDbLine
 62
7
  6
CONTINUOUS
 10
118.1235195893
 20
106.7619316434
 11
118.1235195893
 21
107.7126285272
  0
LINE
  5
248
100
AcDbEntity
  8
DRAFT
100
AcDbLine
 62
7
  6
CONTINUOUS
 10
118.1235195893
 20
123.1449725292
 11
118.1235195893
 21
124.095669413
  0
LWPOLYLINE
  5
249
100
AcDbEntity
  8
RACCORDO
100
AcDbPolyline
 62
7
  6
CONTINUOUS
 90
20
 70
0
 10
115.1857569223
 20
92.3167850695
 10
115.1853367574
 20
92.3100680004
 10
115.185141108
 20
92.3035330899
 10
115.1851703369
 20
92.297192458
 10
115.1854243901
 20
92.2910578646
 10
115.1859027961
 20
92.2851406874
 10
115.1866046679
 20
92.2794519009
 10
115.1875287036
 20
92.2740020559
 10
115.1886731894
 20
92.26880126
 10
115.1900360027
 20
92.2638591593
 10
115.191614616
 20
92.2591849195
 10
115.1934061013
 20
92.2547872101
 10
115.1954071361
 20
92.2506741872
 10
115.1976140091
 20
92.2468534792
 10
115.2000226272
 20
92.2433321723
 10
115.2026285232
 20
92.2401167975
 10
115.2054268641
 20
92.2372133181
 10
115.2084124598
 20
92.2346271192
 10
115.2115797729
 20
92.2323629974
 10
115.2150259133
 20
92.2303720778
  0
LWPOLYLINE
  5
24A
100
AcDbEntity
  8
RACCORDO
100
AcDbPolyline
 62
7
  6
CONTINUOUS
 90
19
 70
0
 10
115.9143833467
 20
92.896825856
 10
115.9150201685
 20
92.9038109439
 10
115.9158849905
 20
92.9109569442
 10
115.9169761672
 20
92.9182502616
 10
115.9182916228
 20
92.9256770207
 10
115.9198288547
 20
92.9332230922
 10
115.9215849383
 20
92.9408741198
 10
115.9235565326
 20
92.9486155475
 10
115.9257398867
 20
92.9564326474
 10
115.9281308468
 20
92.9643105475
 10
115.9307248642
 20
92.9722342602
 10
115.9335170037
 20
92.9801887108
 10
115.9365019534
 20
92.988158766
 10
115.9396740344
 20
92.9961292629
 10
115.9430272119
 20
93.0040850377
 10
115.9465551065
 20
93.0120109548
 10
115.9502510064
 20
93.019891935
 10
115.9541078803
 20
93.027712985
 10
115.9581183904
 20
93.0354592253
  0
LWPOLYLINE
  5
24B
100
AcDbEntity
  8
RACCORDO
100
AcDbPolyline
 62
7
  6
CONTINUOUS
 90
10
 70
0
 10
115.1755446021
 20
91.941588432
 10
115.1775497458
 20
91.9560215767
 10
115.1813333604
 20
91.9714096562
 10
115.186780062
 20
91.9872833997
 10
115.1937237491
 20
92.0031587255
 10
115.201952669
 20
92.0185515037
 10
115.2112158745
 20
92.0329923201
 10
115.2212308774
 20
92.0460407913
 10
115.2316922626
 20
92.0572989943
 10
115.2422810023
 20
92.066423602
  0
LINE
  5
24C
100
AcDbEntity
  8
DRAFT
100
AcDbLine
 62
7
  6
CONTINUOUS
 10
118.1235195893
 20
123.1449725292
 11
118.0668768088
 21
123.0962709578
  0
LWPOLYLINE
  5
24D
100
AcDbEntity
  8
RACCORDO
100
AcDbPolyline
 62
7
  6
CONTINUOUS
 90
58
 70
0
 10
172.1380353359
 20
69.4434660991
 10
172.1555991695
 20
69.4385057562
 10
172.1730929468
 20
69.4340159725
 10
172.1905166648
 20
69.4299967451
 10
172.207882917
 20
69.4264457744
 10
172.2251791043
 20
69.4233653552
 10
172.2423674337
 20
69.4207623751
 10
172.2594469828
 20
69.4186380254
 10
172.2764186649
 20
69.4169911067
 10
172.293247438
 20
69.4158249179
 10
172.3099329451
 20
69.4151404611
 10
172.3264755314
 20
69.4149367237
 10
172.3428412052
 20
69.4152139798
 10
172.3590295669
 20
69.4159732077
 10
172.3750410021
 20
69.4172134167
 10
172.3908426939
 20
69.4189319254
 10
172.4064342323
 20
69.4211297145
 10
172.4218160112
 20
69.4238057892
 10
172.4369564177
 20
69.4269545022
 10
172.4518549145
 20
69.430576812
 10
172.4665120212
 20
69.4346717444
 10
172.4808977069
 20
69.4392307516
 10
172.4950114126
 20
69.4442547816
 10
172.5088536786
 20
69.4497428696
 10
172.5223961215
 20
69.4556835976
 10
172.5356380892
 20
69.4620778719
 10
172.5485802144
 20
69.4689247689
 10
172.5611960394
 20
69.4762101245
 10
172.5734848973
 20
69.4839348334
 10
172.5854474354
 20
69.4920979834
 10
172.5970591664
 20
69.500682699
 10
172.6083193395
 20
69.5096898132
 10
172.6192286861
 20
69.5191184758
 10
172.6297649418
 20
69.5289492859
 10
172.6399273453
 20
69.5391830617
 10
172.6497166391
 20
69.5498189685
 10
172.6591128142
 20
69.5608351251
 10
172.6681150507
 20
69.5722322863
 10
172.6767241509
 20
69.5840096818
 10
172.6849225384
 20
69.5961431428
 10
172.6927093752
 20
69.6086333986
 10
172.7000854833
 20
69.6214797058
 10
172.7070357763
 20
69.6346556869
 10
172.7135593655
 20
69.6481619737
 10
172.7196571256
 20
69.6619979221
 10
172.7253166154
 20
69.6761352406
 10
172.7305369511
 20
69.6905745524
 10
172.735319005
 20
69.7053152241
 10
172.7396529697
 20
69.7203270797
 10
172.7435379264
 20
69.7356107193
 10
172.746974785
 20
69.7511655348
 10
172.7499564821
 20
69.7669595389
 10
172.7524820847
 20
69.7829940132
 10
172.7545525198
 20
69.7992676706
 10
172.7561635148
 20
69.8157446716
 10
172.7573136446
 20
69.8324130687
 10
172.7580043313
 20
69.8492848066
 10
172.7582355741
 20
69.8663598847
  0
LWPOLYLINE
  5
24E
100
AcDbEntity
  8
RACCORDO
100
AcDbPolyline
 62
7
  6
CONTINUOUS
 90
33
 70
0
 10
172.1900359279
 20
69.3479689036
 10
172.1991243753
 20
69.3453331567
 10
172.2226035333
 20
69.338968724
 10
172.2460312705
 20
69.3332588809
 10
172.2693964683
 20
69.3282048742
 10
172.2926826278
 20
69.3238084347
 10
172.3158663583
 20
69.3200719195
 10
172.3389356044
 20
69.3169951308
 10
172.3618771916
 20
69.3145775227
 10
172.3846661125
 20
69.3128193476
 10
172.4072896284
 20
69.3117189834
 10
172.4297350902
 20
69.3112741213
 10
172.4519775514
 20
69.3114821433
 10
172.4740044374
 20
69.3123395476
 10
172.4958032134
 20
69.3138421172
 10
172.5173487937
 20
69.3159840729
 10
172.5386291157
 20
69.3187598654
 10
172.5596313907
 20
69.3221630567
 10
172.5803293185
 20
69.3261839951
 10
172.600705856
 20
69.3308132888
 10
172.6207541936
 20
69.3360428863
 10
172.6404630431
 20
69.3418634404
 10
172.6598157301
 20
69.3482635781
 10
172.6788056312
 20
69.3552343476
 10
172.6974354006
 20
69.3627705489
 10
172.7156933108
 20
69.3708621671
 10
172.7335674112
 20
69.3794985307
 10
172.7510585819
 20
69.3886747629
 10
172.7681550293
 20
69.3983800582
 10
172.7848451601
 20
69.408603239
 10
172.8011289685
 20
69.4193398917
 10
172.8169948758
 20
69.4305783119
 10
172.8268677653
 20
69.4379851364
  0
LWPOLYLINE
  5
24F
100
AcDbEntity
  8
RACCORDO
100
AcDbPolyline
 62
7
  6
CONTINUOUS
 90
16
 70
0
 10
171.3945310568
 20
70.7709461138
 10
170.7881303016
 20
70.9509798128
 10
170.1451838821
 20
71.143387426
 10
169.4657464715
 20
71.3484000494
 10
168.7491974787
 20
71.566462907
 10
167.9962787735
 20
71.7976388431
 10
167.2090914728
 20
72.0415942251
 10
166.3877092765
 20
72.2986086167
 10
165.5321955214
 20
72.5689643718
 10
164.6446343041
 20
72.8523224843
 10
163.7254707975
 20
73.1488617657
 10
162.7744024477
 20
73.4590054169
 10
161.7923890486
 20
73.7827739007
 10
160.7828513858
 20
74.1193652062
 10
159.7425140193
 20
74.4702122097
 10
158.6623156928
 20
74.8387891123
  0
LWPOLYLINE
  5
250
100
AcDbEntity
  8
RACCORDO
100
AcDbPolyline
 62
7
  6
CONTINUOUS
 90
55
 70
0
 10
171.3715794547
 20
70.6239656457
 10
170.7654788667
 20
70.8051755938
 10
170.1228035515
 20
70.9991220955
 10
169.4436119624
 20
71.2058562023
 10
168.7272909887
 20
71.4254298445
 10
167.9745819594
 20
71.6579025613
 10
167.1875764911
 20
71.9033378296
 10
166.3663483751
 20
72.1617800425
 10
165.5109639443
 20
72.4333052758
 10
164.6235004159
 20
72.7180213223
 10
163.7044075425
 20
73.0158560233
 10
162.7533849657
 20
73.3270083329
 10
161.7713827771
 20
73.6519905279
 10
160.761831758
 20
73.9896787361
 10
159.7214582909
 20
74.3413283087
 10
158.6411823371
 20
74.7110425021
 10
157.522733708
 20
75.098179499
 10
156.3646130659
 20
75.5035726855
 10
155.1529697619
 20
75.9335996155
 10
153.87948293
 20
76.3913803358
 10
152.5528492751
 20
76.8741050923
 10
151.1847593237
 20
77.379268103
 10
149.7686362286
 20
77.9097974678
 10
148.311396041
 20
78.4630381547
 10
146.84481581
 20
79.0279806864
 10
145.3736079791
 20
79.6032220861
 10
143.8931461113
 20
80.1902237283
 10
142.4210085069
 20
80.7821144618
 10
140.9555217202
 20
81.3798602399
 10
139.4983234835
 20
81.9824531386
 10
138.0718000315
 20
82.5799317305
 10
136.6746846785
 20
83.1730410948
 10
135.3080332443
 20
83.7608544563
 10
133.9975316147
 20
84.3307549886
 10
132.7536929679
 20
84.8779692715
 10
131.5655974953
 20
85.4069374581
 10
130.4267163427
 20
85.9188120779
 10
129.3396321893
 20
86.4120484818
 10
128.3014596864
 20
86.8879462947
 10
127.2975410832
 20
87.3519833327
 10
126.3249260026
 20
87.8052657914
 10
125.3863855157
 20
88.246542918
 10
124.475907379
 20
88.6778074612
 10
123.5906646759
 20
89.1002758893
 10
122.7333502282
 20
89.5126244201
 10
121.9062444587
 20
89.9130460565
 10
121.1091618183
 20
90.301541457
 10
120.3421500032
 20
90.6780012428
 10
119.6078309105
 20
91.0404472376
 10
118.9061316693
 20
91.3888219505
 10
118.236990619
 20
91.7230780471
 10
117.6030393917
 20
92.0412474554
 10
117.0051107892
 20
92.3426399214
 10
116.442244728
 20
92.6278475363
 10
115.9143833466
 20
92.8968258559
  0
LWPOLYLINE
  5
251
100
AcDbEntity
  8
RACCORDO
100
AcDbPolyline
 62
7
  6
CONTINUOUS
 90
13
 70
0
 10
172.2665235863
 20
69.0125640906
 10
167.4027533385
 20
70.4874358924
 10
162.5567432473
 20
72.0421070746
 10
157.7286947254
 20
73.6765268415
 10
152.9182520419
 20
75.3908521177
 10
148.1261773631
 20
77.1848259735
 10
143.3543274011
 20
79.0577581257
 10
138.602884232
 20
81.0095944619
 10
133.8720222541
 20
83.0402458252
 10
129.1635430777
 20
85.1489336611
 10
124.4781403176
 20
87.3353305047
 10
119.8154234016
 20
89.5995791148
 10
115.1755445199
 20
91.9415883697
  0
LWPOLYLINE
  5
252
100
AcDbEntity
  8
RACCORDO
100
AcDbPolyline
 62
7
  6
CONTINUOUS
 90
13
 70
0
 10
172.3144252394
 20
69.1449631553
 10
167.4530899899
 20
70.6189323446
 10
162.608358556
 20
72.1731576886
 10
157.7810425872
 20
73.8073486325
 10
152.9720433688
 20
75.5211527444
 10
148.1820835273
 20
77.314306549
 10
143.4117066254
 20
79.1866492939
 10
138.6617584006
 20
81.1378823707
 10
133.9330166619
 20
83.167652082
 10
129.225923087
 20
85.275724156
 10
124.5411663595
 20
87.4617959849
 10
119.8796817519
 20
89.7254825911
 10
115.2422809508
 20
92.066422963
  0
LWPOLYLINE
  5
253
100
AcDbEntity
  8
RACCORDO
100
AcDbPolyline
 62
7
  6
CONTINUOUS
 90
40
 70
0
 10
158.6623156928
 20
74.8387891123
 10
157.5439666717
 20
75.2249835394
 10
156.3859649652
 20
75.6298184338
 10
155.1744962681
 20
76.0587538093
 10
153.9012266327
 20
76.5155322579
 10
152.5748232265
 20
76.9978787056
 10
151.2069901606
 20
77.5022793203
 10
149.7911838871
 20
78.0318680512
 10
148.3343013242
 20
78.5847932904
 10
146.8680855485
 20
79.149458253
 10
145.3972833036
 20
79.7241931116
 10
143.9172830484
 20
80.310942888
 10
142.4456111772
 20
80.9027968927
 10
140.9806183892
 20
81.500330288
 10
139.5239690619
 20
82.1027663184
 10
138.0980004811
 20
82.7005643037
 10
136.7014482667
 20
83.2937963929
 10
135.3354017208
 20
83.8815326494
 10
134.0255342483
 20
84.452045119
 10
132.7823220524
 20
84.999857712
 10
131.5948432172
 20
85.5289032505
 10
130.4566063484
 20
86.0413292479
 10
129.3701811648
 20
86.5353059795
 10
128.3326535446
 20
87.011526216
 10
127.3293951386
 20
87.4761874617
 10
126.3574635357
 20
87.9302599542
 10
125.4196215735
 20
88.372085162
 10
124.5098629623
 20
88.804149323
 10
123.6253613255
 20
89.22750452
 10
122.7688065539
 20
89.6405819643
 10
121.9424793372
 20
90.0419856604
 10
121.1461936755
 20
90.4315112907
 10
120.3799947325
 20
90.8088424189
 10
119.6465015718
 20
91.1723888913
 10
118.9456417602
 20
91.5219061765
 10
118.277349094
 20
91.8571434844
 10
117.6442455546
 20
92.1764829029
 10
117.0471608767
 20
92.4792279262
 10
116.4851376844
 20
92.7656214859
 10
115.9581183905
 20
93.0354592252
  0
LWPOLYLINE
  5
254
100
AcDbEntity
  8
RACCORDO
100
AcDbPolyline
 62
7
  6
CONTINUOUS
 90
37
 70
0
 10
172.7582355741
 20
69.8663598847
 10
172.7654043019
 20
69.8638251307
 10
172.772752713
 20
69.8614657217
 10
172.7802677789
 20
69.8592858409
 10
172.7879361752
 20
69.8572893531
 10
172.7957443058
 20
69.8554797982
 10
172.8036783269
 20
69.8538603845
 10
172.8117241716
 20
69.8524339832
 10
172.8198675744
 20
69.8512031233
 10
172.8280940972
 20
69.8501699872
 10
172.8363891543
 20
69.8493364066
 10
172.8447380385
 20
69.8487038595
 10
172.8531259473
 20
69.8482734673
 10
172.8615380088
 20
69.8480459931
 10
172.8699593086
 20
69.8480218403
 10
172.8783749156
 20
69.8482010516
 10
172.8867699088
 20
69.8485833094
 10
172.8951294041
 20
69.8491679359
 10
172.90343858
 20
69.8499538945
 10
172.9116827043
 20
69.8509397917
 10
172.9198471601
 20
69.8521238796
 10
172.9279174719
 20
69.8535040588
 10
172.935879331
 20
69.8550778821
 10
172.943718621
 20
69.8568425592
 10
172.9514214429
 20
69.8587949614
 10
172.9589741394
 20
69.860931627
 10
172.9663633198
 20
69.8632487676
 10
172.9735758828
 20
69.8657422751
 10
172.9805990408
 20
69.8684077284
 10
172.9874203415
 20
69.8712404016
 10
172.9940276909
 20
69.8742352725
 10
173.000409374
 20
69.8773870311
 10
173.0065540761
 20
69.8806900893
 10
173.0124509028
 20
69.8841385908
 10
173.0180893988
 20
69.8877264215
 10
173.0234595671
 20
69.89144722
 10
173.0285518865
 20
69.8952943895
  0
LWPOLYLINE
  5
255
100
AcDbEntity
  8
RACCORDO
100
AcDbPolyline
 62
7
  6
CONTINUOUS
 90
24
 70
0
 10
171.6855907167
 20
70.9650782969
 10
171.6784463183
 20
70.9678603188
 10
171.671517949
 20
70.9708166369
 10
171.6648185245
 20
70.9739417402
 10
171.658360534
 20
70.9772298028
 10
171.6521560163
 20
70.9806746951
 10
171.6462165379
 20
70.9842699951
 10
171.6405531713
 20
70.9880090006
 10
171.6351764741
 20
70.9918847412
 10
171.6300964694
 20
70.9958899919
 10
171.6253226275
 20
71.0000172861
 10
171.6208638477
 20
71.0042589296
 10
171.6167284421
 20
71.0086070152
 10
171.6129241199
 20
71.0130534372
 10
171.6094579732
 20
71.0175899067
 10
171.6063364635
 20
71.0222079667
 10
171.6035654099
 20
71.0268990082
 10
171.6011499784
 20
71.0316542863
 10
171.5990946716
 20
71.0364649362
 10
171.5974033212
 20
71.0413219897
 10
171.5960790802
 20
71.0462163926
 10
171.5951244172
 20
71.0511390205
 10
171.5945411119
 20
71.0560806968
 10
171.5943294504
 20
71.0613522142
  0
LINE
  5
256
100
AcDbEntity
  8
0
100
AcDbLine
 62
7
  6
CONTINUOUS
 10
140.8379696437
 20
82.2056854673
 11
140.5213947125
 21
82.3322684832
  0
LINE
  5
257
100
AcDbEntity
  8
0
100
AcDbLine
 62
7
  6
CONTINUOUS
 10
140.8864115497
 20
82.2751019914
 11
140.5942377321
 21
82.3919379917
  0
LINE
  5
258
100
AcDbEntity
  8
0
100
AcDbLine
 62
7
  6
CONTINUOUS
 10
141.952455038
 20
81.7595581344
 11
141.6223031967
 21
81.8917981187
  0
LINE
  5
259
100
AcDbEntity
  8
0
100
AcDbLine
 62
7
  6
CONTINUOUS
 10
141.9816021417
 20
81.8366875404
 11
141.6951144462
 21
81.9514416025
  0
LINE
  5
25A
100
AcDbEntity
  8
0
100
AcDbLine
 62
7
  6
CONTINUOUS
 10
142.5713407943
 20
81.5114861539
 11
142.2412925226
 21
81.6438109773
  0
LINE
  5
25B
100
AcDbEntity
  8
0
100
AcDbLine
 62
7
  6
CONTINUOUS
 10
142.6004837016
 20
81.5886222118
 11
142.3140921121
 21
81.7034449099
  0
LINE
  5
25C
100
AcDbEntity
  8
0
100
AcDbLine
 62
7
  6
CONTINUOUS
 10
143.2175259957
 20
81.2522195256
 11
142.8875854112
 21
81.3846325612
  0
LINE
  5
25D
100
AcDbEntity
  8
0
100
AcDbLine
 62
7
  6
CONTINUOUS
 10
143.2640051304
 20
81.3224075271
 11
142.9603775512
 21
81.4442603915
  0
LINE
  5
25E
100
AcDbEntity
  8
0
100
AcDbLine
 62
7
  6
CONTINUOUS
 10
143.8635006622
 20
80.9927804362
 11
143.5336675503
 21
81.1252815082
  0
LINE
  5
25F
100
AcDbEntity
  8
0
100
AcDbLine
 62
7
  6
CONTINUOUS
 10
143.8926495766
 20
81.0699417068
 11
143.6064570538
 21
81.1849071789
  0
LINE
  5
260
100
AcDbEntity
  8
0
100
AcDbLine
 62
7
  6
CONTINUOUS
 10
144.4543143496
 20
80.755270209
 11
144.1245796173
 21
80.8878518689
  0
LINE
  5
261
100
AcDbEntity
  8
0
100
AcDbLine
 62
7
  6
CONTINUOUS
 10
144.5013610745
 20
80.8252542704
 11
144.1973709225
 21
80.9474790155
  0
LINE
  5
262
100
AcDbEntity
  8
0
100
AcDbLine
 62
7
  6
CONTINUOUS
 10
145.2292218171
 20
80.9215018549
 11
144.707235722
 21
81.131499733
  0
LINE
  5
263
100
AcDbEntity
  8
0
100
AcDbLine
 62
7
  6
CONTINUOUS
 10
145.3020244374
 20
80.9811382701
 11
144.780030809
 21
81.1911299774
  0
LINE
  5
264
100
AcDbEntity
  8
0
100
AcDbLine
 62
7
  6
CONTINUOUS
 10
145.5118412085
 20
80.3295992643
 11
145.1822834772
 21
80.462325915
  0
LINE
  5
265
100
AcDbEntity
  8
0
100
AcDbLine
 62
7
  6
CONTINUOUS
 10
145.5217676335
 20
80.4145727792
 11
145.2550881091
 21
80.5219639781
  0
LINE
  5
266
100
AcDbEntity
  8
0
100
AcDbLine
 62
7
  6
CONTINUOUS
 10
146.1313668698
 20
80.16892562
 11
145.8455194562
 21
80.2841405561
  0
LINE
  5
267
100
AcDbEntity
  8
0
100
AcDbLine
 62
7
  6
CONTINUOUS
 10
146.1021597283
 20
80.0916834196
 11
145.7727016952
 21
80.2244917383
  0
LINE
  5
268
100
AcDbEntity
  8
0
100
AcDbLine
 62
7
  6
CONTINUOUS
 10
147.0876306916
 20
79.7831225504
 11
146.7925897751
 21
79.9022170909
  0
LINE
  5
269
100
AcDbEntity
  8
0
100
AcDbLine
 62
7
  6
CONTINUOUS
 10
147.0901963927
 20
79.6929820531
 11
146.7197422997
 21
79.8425439325
  0
LWPOLYLINE
  5
26A
100
AcDbEntity
  8
RACCORDO
100
AcDbPolyline
 62
7
  6
CONTINUOUS
 90
37
 70
0
 10
115.6157516897
 20
93.4839897151
 10
115.622753017
 20
93.4810904946
 10
115.6299660083
 20
93.4783673236
 10
115.6373772172
 20
93.4758252786
 10
115.6449728277
 20
93.4734690984
 10
115.6527386801
 20
93.4713031755
 10
115.6606602973
 20
93.4693315475
 10
115.6687229119
 20
93.4675578899
 10
115.6769114935
 20
93.4659855092
 10
115.685210777
 20
93.4646173367
 10
115.6936052908
 20
93.4634559228
 10
115.7020793861
 20
93.4625034327
 10
115.7106172652
 20
93.461761642
 10
115.719203012
 20
93.4612319335
 10
115.7278206209
 20
93.4609152948
 10
115.736454027
 20
93.4608123161
 10
115.7450871359
 20
93.4609231894
 10
115.7537038537
 20
93.4612477079
 10
115.7622881173
 20
93.4617852668
 10
115.7708239237
 20
93.4625348639
 10
115.7792953607
 20
93.4634951018
 10
115.7876866357
 20
93.4646641905
 10
115.7959821058
 20
93.4660399505
 10
115.8041663065
 20
93.4676198171
 10
115.8122239809
 20
93.4694008451
 10
115.8201401078
 20
93.4713797145
 10
115.8278999301
 20
93.4735527361
 10
115.8354889819
 20
93.4759158589
 10
115.8428931157
 20
93.4784646778
 10
115.8500985288
 20
93.4811944412
 10
115.8570917887
 20
93.4841000602
 10
115.8638598587
 20
93.4871761182
 10
115.8703901217
 20
93.4904168808
 10
115.8766704041
 20
93.4938163067
 10
115.8826889982
 20
93.4973680585
 10
115.888434684
 20
93.5010655152
 10
115.8938967506
 20
93.5049017839
  0
LWPOLYLINE
  5
26B
100
AcDbEntity
  8
RACCORDO
100
AcDbPolyline
 62
7
  6
CONTINUOUS
 90
23
 70
0
 10
114.5968862502
 20
93.2252689901
 10
114.5902817051
 20
93.2282658929
 10
114.5839029727
 20
93.231419614
 10
114.5777613625
 20
93.2347245617
 10
114.5718677636
 20
93.2381748765
 10
114.5662326253
 20
93.2417644408
 10
114.5608659388
 20
93.2454868905
 10
114.5557772193
 20
93.2493356256
 10
114.550975489
 20
93.2533038223
 10
114.5464692614
 20
93.257384445
 10
114.5422665262
 20
93.2615702588
 10
114.5383747348
 20
93.2658538422
 10
114.5348007873
 20
93.2702276005
 10
114.5315510204
 20
93.2746837788
 10
114.5286311959
 20
93.2792144765
 10
114.5260464908
 20
93.2838116606
 10
114.5238014877
 20
93.2884671803
 10
114.521900167
 20
93.2931727814
 10
114.5203458998
 20
93.2979201207
 10
114.5191414419
 20
93.3027007814
 10
114.5182889287
 20
93.3075062872
 10
114.5177898717
 20
93.3123281179
 10
114.5176436583
 20
93.3167137838
  0
LWPOLYLINE
  5
26C
100
AcDbEntity
  8
RACCORDO
100
AcDbPolyline
 62
7
  6
CONTINUOUS
 90
40
 70
0
 10
115.2150259133
 20
92.2303720778
 10
116.6253655632
 20
91.5102366777
 10
118.0507618921
 20
90.7907756818
 10
119.478365415
 20
90.078587661
 10
120.9081340446
 20
89.3736932736
 10
122.3400533063
 20
88.676098738
 10
123.7741344168
 20
87.9857980834
 10
125.2103512421
 20
87.3028036901
 10
126.6486761669
 20
86.6271280027
 10
128.0891185689
 20
85.9587662558
 10
129.5316514098
 20
85.2977309378
 10
130.9762465992
 20
84.6440343363
 10
132.4229122924
 20
83.9976724726
 10
133.8716207838
 20
83.3586577262
 10
135.3223443813
 20
82.7270018049
 10
136.7750915944
 20
82.1027008054
 10
138.229834558
 20
81.4857668009
 10
139.6865451817
 20
80.8762112932
 10
141.1452319535
 20
80.2740306227
 10
142.6058667848
 20
79.6792365779
 10
144.0684213367
 20
79.0918403873
 10
145.5329040219
 20
78.5118386623
 10
146.9992865146
 20
77.9392429144
 10
148.4675402316
 20
77.3740640986
 10
149.9376734791
 20
76.8162991097
 10
151.4096577017
 20
76.2659591791
 10
152.8834640539
 20
75.7230549921
 10
154.3591006668
 20
75.1875837499
 10
155.8365389043
 20
74.6595563501
 10
157.3157495992
 20
74.1389832371
 10
158.7967403253
 20
73.625862054
 10
160.2794815466
 20
73.1202036403
 10
161.7639442778
 20
72.6220179908
 10
163.2501371398
 20
72.1313026235
 10
164.7380305964
 20
71.6480680299
 10
166.2275961364
 20
71.1723237592
 10
167.7188441278
 20
70.7040670944
 10
169.2117583252
 20
70.2433041389
 10
170.7062930888
 20
69.790049452
 10
172.1900364755
 20
69.347968663
  0
LWPOLYLINE
  5
26D
100
AcDbEntity
  8
RACCORDO
100
AcDbPolyline
 62
7
  6
CONTINUOUS
 90
40
 70
0
 10
115.1857569219
 20
92.3167850692
 10
116.6078279042
 20
91.5907212697
 10
118.0320629094
 20
90.8719382011
 10
119.4584575765
 20
90.1604385196
 10
120.8870073827
 20
89.4562260195
 10
122.3177080981
 20
88.7593022064
 10
123.7505557886
 20
88.069666299
 10
125.1855565137
 20
87.3873156059
 10
126.6226954329
 20
86.7122581204
 10
128.0619371207
 20
86.0445089839
 10
129.5032861676
 20
85.3840666545
 10
130.946728883
 20
84.7309377487
 10
132.3922020382
 20
84.0851493491
 10
133.8396872172
 20
83.4467098201
 10
135.2891931422
 20
82.8156154171
 10
136.7406969673
 20
82.191874806
 10
138.1941968495
 20
81.5754887058
 10
139.6496847893
 20
80.9664609069
 10
141.1071285135
 20
80.3648045278
 10
142.5665282622
 20
79.7705195321
 10
144.0278736952
 20
79.1836102629
 10
145.4911163784
 20
78.6040961722
 10
146.9562457414
 20
78.0319813145
 10
148.4232618445
 20
77.467265606
 10
149.8921319122
 20
76.9099620536
 10
151.3628474878
 20
76.3600734774
 10
152.8354062743
 20
75.8176008202
 10
154.30978455
 20
75.2825541167
 10
155.7859906782
 20
74.7549302475
 10
157.2640054114
 20
74.2347359767
 10
158.7437633065
 20
73.7219959026
 10
160.2252492917
 20
73.2167149621
 10
161.7084670132
 20
72.7188913879
 10
163.1933787517
 20
72.2285394152
 10
164.6799678841
 20
71.7456636916
 10
166.1682393444
 20
71.2702624892
 10
167.6581876256
 20
70.8023403669
 10
169.1498070002
 20
70.341899813
 10
170.6430915181
 20
69.8889412431
 10
172.1380353359
 20
69.4434660991
  0
LINE
  5
26E
100
AcDbEntity
  8
RACCORDO
100
AcDbLine
 62
7
  6
CONTINUOUS
 10
116.7852843408
 20
95.1862476774
 11
116.7986323547
 21
95.1793765194
  0
LWPOLYLINE
  5
26F
100
AcDbEntity
  8
RACCORDO
100
AcDbPolyline
 62
7
  6
CONTINUOUS
 90
49
 70
0
 10
115.9143833466
 20
92.8968258559
 10
115.9075923586
 20
92.9003743448
 10
115.9006908503
 20
92.904223422
 10
115.8936788239
 20
92.9083730892
 10
115.8865494159
 20
92.9128146785
 10
115.8793094946
 20
92.9175568613
 10
115.8719796597
 20
92.9226256485
 10
115.8645645473
 20
92.9280168297
 10
115.8570595252
 20
92.9337346182
 10
115.8494712897
 20
92.9398176601
 10
115.8417946326
 20
92.9462687288
 10
115.8340347661
 20
92.9530850538
 10
115.8262140164
 20
92.9602969657
 10
115.8183291886
 20
92.967907191
 10
115.8103834805
 20
92.9759130054
 10
115.8024088063
 20
92.9843365624
 10
115.7944053558
 20
92.9931773021
 10
115.7863729406
 20
93.0024357856
 10
115.7783429059
 20
93.0121358471
 10
115.7703115481
 20
93.0222817616
 10
115.7622825708
 20
93.0328692541
 10
115.7542984285
 20
93.0439093327
 10
115.7463568281
 20
93.0554059717
 10
115.7384600605
 20
93.0673551952
 10
115.7306574542
 20
93.0797560847
 10
115.7229484989
 20
93.0926102278
 10
115.7153337005
 20
93.1059160336
 10
115.7078639089
 20
93.1196678138
 10
115.7005364147
 20
93.1338718855
 10
115.6933539209
 20
93.1485219267
 10
115.686375394
 20
93.1635932894
 10
115.6795980546
 20
93.1790966505
 10
115.6730246737
 20
93.1950213268
 10
115.666722541
 20
93.2113106278
 10
115.6606922691
 20
93.2279719099
 10
115.6549332352
 20
93.2449978091
 10
115.6495108737
 20
93.2623095538
 10
115.644427949
 20
93.2799096447
 10
115.6396816861
 20
93.297795573
 10
115.6353292074
 20
93.3158810512
 10
115.6313731516
 20
93.3341681674
 10
115.6278108702
 20
93.352654826
 10
115.6246915549
 20
93.3712484626
 10
115.6220176909
 20
93.3899508812
 10
115.6197867853
 20
93.408760272
 10
115.6180405619
 20
93.4275786507
 10
115.6167929271
 20
93.4463733546
 10
115.61602997
 20
93.465177043
 10
115.6157516897
 20
93.4839897151
  0
LINE
  5
270
100
AcDbEntity
  8
RACCORDO
100
AcDbLine
 62
7
  6
CONTINUOUS
 10
116.7726219321
 20
95.1928549719
 11
116.7852843408
 21
95.1862476774
  0
LINE
  5
271
100
AcDbEntity
  8
RACCORDO
100
AcDbLine
 62
7
  6
CONTINUOUS
 10
116.760736604
 20
95.1991506706
 11
116.7726219321
 21
95.1928549719
  0
LINE
  5
272
100
AcDbEntity
  8
RACCORDO
100
AcDbLine
 62
7
  6
CONTINUOUS
 10
115.2422809508
 20
92.066422963
 11
115.1713564084
 21
92.1061624223
  0
LWPOLYLINE
  5
273
100
AcDbEntity
  8
RACCORDO
100
AcDbPolyline
 62
7
  6
CONTINUOUS
 90
22
 70
0
 10
115.1755445199
 20
91.9415883697
 10
115.0974830804
 20
91.9862417621
 10
115.0236676732
 20
92.0333580826
 10
114.9540973615
 20
92.0829366201
 10
114.8889820568
 20
92.1353198239
 10
114.8281101088
 20
92.1901639255
 10
114.7708484334
 20
92.2464390356
 10
114.7172266656
 20
92.3037793552
 10
114.6672139684
 20
92.3625497719
 10
114.6200868327
 20
92.4228166402
 10
114.5756914037
 20
92.4844002006
 10
114.5341807588
 20
92.5474796236
 10
114.4952919663
 20
92.6126597944
 10
114.4587453186
 20
92.6799595203
 10
114.4248199511
 20
92.7493595607
 10
114.3940912017
 20
92.8214077333
 10
114.3661915932
 20
92.8964915166
 10
114.3414880619
 20
92.9742230225
 10
114.3216574301
 20
93.0539869166
 10
114.3072584197
 20
93.1355779214
 10
114.2977317888
 20
93.2192009207
 10
114.2930773978
 20
93.304855809
  0
LWPOLYLINE
  5
274
100
AcDbEntity
  8
RACCORDO
100
AcDbPolyline
 62
7
  6
CONTINUOUS
 90
8
 70
0
 10
116.7225864195
 20
95.2203484152
 10
116.7264392956
 20
95.2180992749
 10
116.7305699753
 20
95.2157265875
 10
116.734970995
 20
95.2132346401
 10
116.7396344026
 20
95.2106279353
 10
116.744551772
 20
95.2079111831
 10
116.7497142183
 20
95.2050892923
 10
116.760736604
 20
95.1991506706
  0
LWPOLYLINE
  5
275
100
AcDbEntity
  8
RACCORDO
100
AcDbPolyline
 62
7
  6
CONTINUOUS
 90
49
 70
0
 10
115.9581183905
 20
93.0354592253
 10
115.9548163474
 20
93.0374248076
 10
115.9515063652
 20
93.0396373117
 10
115.9481882039
 20
93.0420971743
 10
115.9448565433
 20
93.0447960105
 10
115.9415167578
 20
93.0477428465
 10
115.9381849972
 20
93.0509640673
 10
115.9348644166
 20
93.0544565036
 10
115.9315533311
 20
93.0582232907
 10
115.9282608708
 20
93.0623001872
 10
115.9249863721
 20
93.0666882797
 10
115.92173308
 20
93.0713860314
 10
115.9185162288
 20
93.0764252
 10
115.9153374348
 20
93.0818066446
 10
115.9121994462
 20
93.0875282412
 10
115.9091196685
 20
93.0936170543
 10
115.9061022622
 20
93.1000710451
 10
115.9031495366
 20
93.1068899736
 10
115.9002766668
 20
93.114103351
 10
115.8974877141
 20
93.1217121642
 10
115.8947874103
 20
93.1297120667
 10
115.8921925506
 20
93.1381242832
 10
115.88970935
 20
93.1469490727
 10
115.8873429961
 20
93.1561815308
 10
115.8851093959
 20
93.1658348022
 10
115.8830167876
 20
93.1759065953
 10
115.8810710395
 20
93.186393182
 10
115.8792852113
 20
93.1973051935
 10
115.8776686378
 20
93.2086434016
 10
115.8762290533
 20
93.2203995285
 10
115.8749778289
 20
93.2325702611
 10
115.8739262078
 20
93.2451595813
 10
115.8730828868
 20
93.258154491
 10
115.8724557252
 20
93.2715259704
 10
115.8720577392
 20
93.28527527
 10
115.8718977475
 20
93.2993909606
 10
115.8719769792
 20
93.3138250198
 10
115.8723088478
 20
93.3285745701
 10
115.8729025993
 20
93.343631616
 10
115.8737525734
 20
93.3589406256
 10
115.8748720295
 20
93.3744982704
 10
115.8762707015
 20
93.3902965747
 10
115.8779370197
 20
93.4062732252
 10
115.8798838386
 20
93.4224237379
 10
115.8821211409
 20
93.4387411137
 10
115.8846325926
 20
93.4551594037
 10
115.8874202194
 20
93.4716527878
 10
115.8905045438
 20
93.488235514
 10
115.8938967506
 20
93.5049017839
  0
LWPOLYLINE
  5
276
100
AcDbEntity
  8
RACCORDO
100
AcDbPolyline
 62
7
  6
CONTINUOUS
 90
3
 70
0
 10
115.1713564084
 20
92.1061624223
 10
115.1038256319
 20
92.1497036964
 10
115.0399972842
 20
92.1962305335
  0
LWPOLYLINE
  5
277
100
AcDbEntity
  8
RACCORDO
100
AcDbPolyline
 62
7
  6
CONTINUOUS
 90
19
 70
0
 10
115.0399972842
 20
92.1962305335
 10
114.9803982536
 20
92.2447172286
 10
114.924828952
 20
92.2946780027
 10
114.8724704143
 20
92.34634864
 10
114.8234649829
 20
92.3992195261
 10
114.7778143929
 20
92.4529123836
 10
114.7346479042
 20
92.5081987913
 10
114.6941099505
 20
92.5648107486
 10
114.6563033316
 20
92.6224981751
 10
114.6205741833
 20
92.6822891864
 10
114.5871913023
 20
92.7440236071
 10
114.556435148
 20
92.8074630465
 10
114.52803815
 20
92.8736177988
 10
114.5024492971
 20
92.9423995063
 10
114.4802463586
 20
93.0133316046
 10
114.4617307086
 20
93.0867893845
 10
114.4475530427
 20
93.1625378098
 10
114.4385349777
 20
93.23972967
 10
114.4354093238
 20
93.3176626883
  0
LWPOLYLINE
  5
278
100
AcDbEntity
  8
RACCORDO
100
AcDbPolyline
 62
7
  6
CONTINUOUS
 90
6
 70
0
 10
115.1755450331
 20
134.7571147287
 10
115.1775501244
 20
134.7431347151
 10
115.1813336821
 20
134.7309760537
 10
115.1867803246
 20
134.7210095299
 10
115.1937239529
 20
134.7135390792
 10
115.2024941634
 20
134.708593655
  0
LINE
  5
279
100
AcDbEntity
  8
SUPERFICI
100
AcDbLine
 62
7
  6
CONTINUOUS
 10
132.7866120931
 20
91.7750960799
 11
132.7866120931
 21
91.290688615
  0
LINE
  5
27A
100
AcDbEntity
  8
SUPERFICI
100
AcDbLine
 62
7
  6
CONTINUOUS
 10
132.8170024739
 20
91.8059841975
 11
132.8170024739
 21
91.3226710238
  0
LINE
  5
27B
100
AcDbEntity
  8
RACCORDO
100
AcDbLine
 62
7
  6
CONTINUOUS
 10
116.7225864195
 20
95.2203484152
 11
116.6302638279
 21
95.0290653224
  0
LINE
  5
27C
100
AcDbEntity
  8
RACCORDO
100
AcDbLine
 62
7
  6
CONTINUOUS
 10
116.6302638279
 20
95.0290653224
 11
116.4458034275
 21
94.6470083067
  0
LINE
  5
27D
100
AcDbEntity
  8
RACCORDO
100
AcDbLine
 62
7
  6
CONTINUOUS
 10
116.4458034275
 20
94.6470083067
 11
116.2615896806
 21
94.2656308386
  0
LINE
  5
27E
100
AcDbEntity
  8
RACCORDO
100
AcDbLine
 62
7
  6
CONTINUOUS
 10
116.2615896806
 20
94.2656308386
 11
116.0776209267
 21
93.8849289915
  0
LINE
  5
27F
100
AcDbEntity
  8
RACCORDO
100
AcDbLine
 62
7
  6
CONTINUOUS
 10
116.0776209267
 20
93.8849289915
 11
115.8938967506
 21
93.5049017839
  0
LINE
  5
280
100
AcDbEntity
  8
RACCORDO
100
AcDbLine
 62
7
  6
CONTINUOUS
 10
116.9610590283
 20
95.1011961484
 11
116.625950549
 21
94.4103971114
  0
LINE
  5
281
100
AcDbEntity
  8
RACCORDO
100
AcDbLine
 62
7
  6
CONTINUOUS
 10
116.625950549
 20
94.4103971114
 11
115.9581183905
 21
93.0354592252
  0
LINE
  5
282
100
AcDbEntity
  8
DRAFT
100
AcDbLine
 62
7
  6
CONTINUOUS
 10
118.1235195893
 20
106.7619316434
 11
118.0668768088
 21
106.713230072
  0
LINE
  5
283
100
AcDbEntity
  8
DRAFT
100
AcDbLine
 62
7
  6
CONTINUOUS
 10
118.1235195893
 20
107.7126285272
 11
118.0668768088
 21
107.6667866262
  0
LWPOLYLINE
  5
284
100
AcDbEntity
  8
RACCORDO
100
AcDbPolyline
 62
7
  6
CONTINUOUS
 90
10
 70
0
 10
114.2930773978
 20
93.304855809
 10
114.308207155
 20
93.29942294
 10
114.3247798766
 20
93.295619488
 10
114.3422675113
 20
93.2935666411
 10
114.360112856
 20
93.2933298082
 10
114.3777473104
 20
93.294916536
 10
114.3946089936
 20
93.2982762683
 10
114.4101606472
 20
93.3033019558
 10
114.4239067533
 20
93.3098334662
 10
114.4354093238
 20
93.3176626883
  0
LWPOLYLINE
  5
285
100
AcDbEntity
  8
SUPERFICI
100
AcDbPolyline
 62
7
  6
CONTINUOUS
 90
10
 70
0
 10
164.8248092032
 20
78.952437762
 10
164.8147105867
 20
78.9561807163
 10
164.8014532259
 20
78.9601483243
 10
164.7886122846
 20
78.9629341442
 10
164.7763524928
 20
78.9645096345
 10
164.764736617
 20
78.9648806405
 10
164.753775886
 20
78.9641167718
 10
164.7435326798
 20
78.9623037003
 10
164.7340340491
 20
78.9594988224
 10
164.7252779734
 20
78.9557262436
  0
LWPOLYLINE
  5
286
100
AcDbEntity
  8
SUPERFICI
100
AcDbPolyline
 62
7
  6
CONTINUOUS
 90
10
 70
0
 10
146.393887689
 20
86.2727961126
 10
146.3837647683
 20
86.2765473844
 10
146.3705091735
 20
86.2805125003
 10
146.3576704343
 20
86.2832958822
 10
146.3454132549
 20
86.284869283
 10
146.3338004037
 20
86.2852386117
 10
146.3228429374
 20
86.2844734977
 10
146.3126029617
 20
86.2826598111
 10
146.3031074074
 20
86.2798550033
 10
146.2943542583
 20
86.2760831174
  0
LWPOLYLINE
  5
287
100
AcDbEntity
  8
SUPERFICI
100
AcDbPolyline
 62
7
  6
CONTINUOUS
 90
10
 70
0
 10
127.9629672101
 20
93.7569845372
 10
127.9528685937
 20
93.7607274915
 10
127.9396112328
 20
93.7646950994
 10
127.9267702916
 20
93.7674809194
 10
127.9145104998
 20
93.7690564097
 10
127.902894624
 20
93.7694274157
 10
127.891933893
 20
93.768663547
 10
127.8816906868
 20
93.7668504755
 10
127.8721920561
 20
93.7640455976
 10
127.8634359804
 20
93.7602730188
  0
LWPOLYLINE
  5
288
100
AcDbEntity
  8
0
100
AcDbPolyline
 62
7
  6
CONTINUOUS
 90
27
 70
0
 10
146.9575786554
 20
81.1404059174
 10
146.9642558026
 20
81.1378788178
 10
146.9711301976
 20
81.1356448336
 10
146.9782018352
 20
81.1337039499
 10
146.9854840298
 20
81.132045528
 10
146.9929634562
 20
81.1306801758
 10
147.0006001491
 20
81.1296397456
 10
147.0083993604
 20
81.1289273914
 10
147.0163558254
 20
81.1285399217
 10
147.0244138036
 20
81.1284996678
 10
147.0325713848
 20
81.128810085
 10
147.040830466
 20
81.1294676778
 10
147.0491410176
 20
81.1304843507
 10
147.0575047283
 20
81.1318632364
 10
147.065919897
 20
81.1336011631
 10
147.07433141
 20
81.1357005797
 10
147.0827348893
 20
81.1381624592
 10
147.0911347025
 20
81.1409857949
 10
147.0994888553
 20
81.1441700693
 10
147.1077901102
 20
81.1477118536
 10
147.1160456969
 20
81.1516145502
 10
147.1242353228
 20
81.1558878916
 10
147.1323566067
 20
81.1605319233
 10
147.1404119242
 20
81.16554658
 10
147.1483881195
 20
81.1709414298
 10
147.1562890837
 20
81.1767190609
 10
147.1643937493
 20
81.1831081475
  0
LWPOLYLINE
  5
289
100
AcDbEntity
  8
RACCORDO
100
AcDbPolyline
 62
7
  6
CONTINUOUS
 90
19
 70
0
 10
117.1699363933
 20
95.3679758398
 10
119.7961846656
 20
94.3226241711
 10
122.5274124396
 20
93.2337238273
 10
125.363619715
 20
92.1012748082
 10
128.299751036
 20
90.9271356119
 10
131.3408618585
 20
89.7094477403
 10
134.5021185507
 20
88.4426356997
 10
137.8251539511
 20
87.1101352
 10
141.2683352213
 20
85.7285105312
 10
144.7219302135
 20
84.341879069
 10
148.1938848692
 20
82.9470849751
 10
151.676253247
 20
81.5472840877
 10
155.0354653753
 20
80.1960612974
 10
158.2239866835
 20
78.9126551163
 10
161.2893517421
 20
77.6778270323
 10
164.2405942912
 20
76.4874463995
 10
167.0807255776
 20
75.340136336
 10
169.8067343545
 20
74.2372737236
 10
171.5943294502
 20
73.5128862284
  0
LINE
  5
28A
100
AcDbEntity
  8
0
100
AcDbLine
 62
7
  6
CONTINUOUS
 10
140.7975309058
 20
84.6951447649
 11
141.1275734313
 21
84.5628152343
  0
LINE
  5
28B
100
AcDbEntity
  8
0
100
AcDbLine
 62
7
  6
CONTINUOUS
 10
141.8563531402
 20
84.2705349307
 11
142.1863377621
 21
84.1381579683
  0
LINE
  5
28C
100
AcDbEntity
  8
0
100
AcDbLine
 62
7
  6
CONTINUOUS
 10
142.4338145128
 20
84.0388656496
 11
142.7637679533
 21
83.9064631449
  0
LINE
  5
28D
100
AcDbEntity
  8
0
100
AcDbLine
 62
7
  6
CONTINUOUS
 10
143.0524626724
 20
83.7905990412
 11
143.5610823581
 21
83.5864305645
  0
LWPOLYLINE
  5
28E
100
AcDbEntity
  8
RACCORDO
100
AcDbPolyline
 62
7
  6
CONTINUOUS
 90
9
 70
0
 10
147.9861689464
 20
82.6166652845
 10
151.472238159
 20
81.2174198898
 10
154.8353994923
 20
79.8680336716
 10
158.0280133245
 20
78.5878281029
 10
161.097748247
 20
77.3576128274
 10
164.053784129
 20
76.1731465596
 10
166.8993027253
 20
75.03349065
 10
169.6314324495
 20
73.9408053435
 10
171.5943294502
 20
73.1575443053
  0
LINE
  5
28F
100
AcDbEntity
  8
0
100
AcDbLine
 62
7
  6
CONTINUOUS
 10
144.179617436
 20
83.338071325
 11
144.6744009761
 21
83.1393474634
  0
LINE
  5
290
100
AcDbEntity
  8
RACCORDO
100
AcDbLine
 62
7
  6
CONTINUOUS
 10
171.5943294502
 20
74.5425062669
 11
118.0265753769
 21
96.0565239595
  0
LINE
  5
291
100
AcDbEntity
  8
SUPERFICI
100
AcDbLine
 62
7
  6
CONTINUOUS
 10
168.0816210834
 20
76.0701051715
 11
163.5762848398
 21
77.8795497774
  0
LINE
  5
292
100
AcDbEntity
  8
SUPERFICI
100
AcDbLine
 62
7
  6
CONTINUOUS
 10
131.2197790904
 20
90.8746519467
 11
126.7144428468
 21
92.6840965526
  0
LINE
  5
293
100
AcDbEntity
  8
SUPERFICI
100
AcDbLine
 62
7
  6
CONTINUOUS
 10
168.1963363706
 20
76.1640744336
 11
163.6910001271
 21
77.9735190395
  0
LINE
  5
294
100
AcDbEntity
  8
SUPERFICI
100
AcDbLine
 62
7
  6
CONTINUOUS
 10
131.3344943776
 20
90.9686212088
 11
126.829158134
 21
92.7780658147
  0
LINE
  5
295
100
AcDbEntity
  8
SUPERFICI
100
AcDbLine
 62
7
  6
CONTINUOUS
 10
168.3684093015
 20
76.3050283267
 11
163.863073058
 21
78.1144729326
  0
LINE
  5
296
100
AcDbEntity
  8
SUPERFICI
100
AcDbLine
 62
7
  6
CONTINUOUS
 10
131.5065673085
 20
91.1095751019
 11
127.001231065
 21
92.9190197078
  0
LINE
  5
297
100
AcDbEntity
  8
SUPERFICI
100
AcDbLine
 62
7
  6
CONTINUOUS
 10
168.4831245888
 20
76.3989975888
 11
163.9777883452
 21
78.2084421947
  0
LINE
  5
298
100
AcDbEntity
  8
SUPERFICI
100
AcDbLine
 62
7
  6
CONTINUOUS
 10
131.6212825958
 20
91.203544364
 11
127.1159463522
 21
93.0129889699
  0
LINE
  5
299
100
AcDbEntity
  8
SUPERFICI
100
AcDbLine
 62
7
  6
CONTINUOUS
 10
168.6551975197
 20
76.5399514819
 11
164.1498612761
 21
78.3493960878
  0
LINE
  5
29A
100
AcDbEntity
  8
SUPERFICI
100
AcDbLine
 62
7
  6
CONTINUOUS
 10
131.7933555267
 20
91.3444982571
 11
127.2880192831
 21
93.153942863
  0
LINE
  5
29B
100
AcDbEntity
  8
SUPERFICI
100
AcDbLine
 62
7
  6
CONTINUOUS
 10
168.769912807
 20
76.633920744
 11
164.2645765634
 21
78.4433653499
  0
LINE
  5
29C
100
AcDbEntity
  8
SUPERFICI
100
AcDbLine
 62
7
  6
CONTINUOUS
 10
131.908070814
 20
91.4384675192
 11
127.4027345704
 21
93.247912125
  0
LINE
  5
29D
100
AcDbEntity
  8
SUPERFICI
100
AcDbLine
 62
7
  6
CONTINUOUS
 10
168.9419857379
 20
76.7748746371
 11
164.4366494943
 21
78.584319243
  0
LINE
  5
29E
100
AcDbEntity
  8
SUPERFICI
100
AcDbLine
 62
7
  6
CONTINUOUS
 10
132.0801437449
 20
91.5794214123
 11
127.5748075013
 21
93.3888660182
  0
LINE
  5
29F
100
AcDbEntity
  8
SUPERFICI
100
AcDbLine
 62
7
  6
CONTINUOUS
 10
169.0567010252
 20
76.8688438992
 11
164.5513647816
 21
78.6782885051
  0
LINE
  5
2A0
100
AcDbEntity
  8
SUPERFICI
100
AcDbLine
 62
7
  6
CONTINUOUS
 10
132.1948590322
 20
91.6733906744
 11
127.6895227886
 21
93.4828352802
  0
LINE
  5
2A1
100
AcDbEntity
  8
SUPERFICI
100
AcDbLine
 62
7
  6
CONTINUOUS
 10
169.2287739561
 20
77.0097977923
 11
164.7234377125
 21
78.8192423982
  0
LINE
  5
2A2
100
AcDbEntity
  8
SUPERFICI
100
AcDbLine
 62
7
  6
CONTINUOUS
 10
132.3669319631
 20
91.8143445675
 11
127.8615957195
 21
93.6237891734
  0
LINE
  5
2A3
100
AcDbEntity
  8
SUPERFICI
100
AcDbLine
 62
7
  6
CONTINUOUS
 10
146.2798944697
 20
86.2668697917
 11
151.2119787113
 21
84.2860335691
  0
LINE
  5
2A4
100
AcDbEntity
  8
SUPERFICI
100
AcDbLine
 62
7
  6
CONTINUOUS
 10
146.3944623388
 20
86.2725536663
 11
151.2464861575
 21
84.3238715143
  0
LINE
  5
2A5
100
AcDbEntity
  8
SUPERFICI
100
AcDbLine
 62
7
  6
CONTINUOUS
 10
127.8489734732
 20
93.7510583838
 11
127.9616959615
 21
93.7057864912
  0
LINE
  5
2A6
100
AcDbEntity
  8
SUPERFICI
100
AcDbLine
 62
7
  6
CONTINUOUS
 10
132.5676837158
 20
91.8559179695
 11
132.7810577148
 21
91.7702221611
  0
LINE
  5
2A7
100
AcDbEntity
  8
SUPERFICI
100
AcDbLine
 62
7
  6
CONTINUOUS
 10
164.7108154662
 20
78.9465116086
 11
164.8235379545
 21
78.901239716
  0
LINE
  5
2A8
100
AcDbEntity
  8
SUPERFICI
100
AcDbLine
 62
7
  6
CONTINUOUS
 10
169.4295257088
 20
77.0513711943
 11
169.6428997078
 21
76.9656753859
  0
LINE
  5
2A9
100
AcDbEntity
  8
SUPERFICI
100
AcDbLine
 62
7
  6
CONTINUOUS
 10
169.3434892433
 20
77.1037670544
 11
164.8381529998
 21
78.9132116603
  0
LINE
  5
2AA
100
AcDbEntity
  8
SUPERFICI
100
AcDbLine
 62
7
  6
CONTINUOUS
 10
132.4816472503
 20
91.9083138296
 11
127.9763110067
 21
93.7177584354
  0
LINE
  5
2AB
100
AcDbEntity
  8
SUPERFICI
100
AcDbLine
 62
7
  6
CONTINUOUS
 10
127.9635404856
 20
93.7567426023
 11
132.8155660177
 21
91.8080597623
  0
LINE
  5
2AC
100
AcDbEntity
  8
SUPERFICI
100
AcDbLine
 62
7
  6
CONTINUOUS
 10
164.8253824786
 20
78.9521958272
 11
169.6774080107
 21
77.0035129871
  0
LINE
  5
2AD
100
AcDbEntity
  8
RACCORDO
100
AcDbLine
 62
7
  6
CONTINUOUS
 10
141.0545472068
 20
85.4006409807
 11
143.6821995774
 21
84.3450986748
  0
LINE
  5
2AE
100
AcDbEntity
  8
RACCORDO
100
AcDbLine
 62
7
  6
CONTINUOUS
 10
143.6821995774
 20
84.3450986748
 11
147.9861689464
 21
82.6166652845
  0
LINE
  5
2AF
100
AcDbEntity
  8
0
100
AcDbLine
 62
7
  6
CONTINUOUS
 10
145.4577272731
 20
82.8246350189
 11
145.7875191091
 21
82.6921001355
  0
LINE
  5
2B0
100
AcDbEntity
  8
0
100
AcDbLine
 62
7
  6
CONTINUOUS
 10
144.9670884493
 20
81.4841721289
 11
145.2830521424
 21
81.3570884171
  0
LINE
  5
2B1
100
AcDbEntity
  8
0
100
AcDbLine
 62
7
  6
CONTINUOUS
 10
146.5844428565
 20
82.3717475474
 11
147.3537874673
 21
82.062360498
  0
LINE
  5
2B2
100
AcDbEntity
  8
0
100
AcDbLine
 62
7
  6
CONTINUOUS
 10
147.1623842205
 20
81.6818660206
 11
146.7503173546
 21
81.8476762797
  0
LINE
  5
2B3
100
AcDbEntity
  8
0
100
AcDbLine
 62
7
  6
CONTINUOUS
 10
147.2352237867
 20
81.7415327002
 11
146.8231437683
 21
81.9073321853
  0
LWPOLYLINE
  5
2B4
100
AcDbEntity
  8
RACCORDO
100
AcDbPolyline
 62
7
  6
CONTINUOUS
 90
5
 70
0
 10
125.145531226
 20
91.7996038853
 10
131.1222319753
 20
89.3938589352
 10
134.2843725345
 20
88.1218414357
 10
137.6090321373
 20
86.785274696
 10
141.0545472068
 20
85.4006409807
  0
LINE
  5
2B5
100
AcDbEntity
  8
0
100
AcDbLine
 62
7
  6
CONTINUOUS
 10
146.7703915543
 20
80.8472577188
 11
146.482050572
 21
80.9634115867
  0
LINE
  5
2B6
100
AcDbEntity
  8
0
100
AcDbLine
 62
7
  6
CONTINUOUS
 10
146.5456108669
 20
81.3062973382
 11
146.9575786535
 21
81.1404059181
  0
LINE
  5
2B7
100
AcDbEntity
  8
0
100
AcDbLine
 62
7
  6
CONTINUOUS
 10
146.6975556738
 20
80.7875940584
 11
146.4092237311
 21
80.9037553311
  0
LWPOLYLINE
  5
2B8
100
AcDbEntity
  8
RACCORDO
100
AcDbPolyline
 62
7
  6
CONTINUOUS
 90
4
 70
0
 10
116.9610590283
 20
95.1011961484
 10
119.5828796321
 20
94.0413979465
 10
122.3111017176
 20
92.941101806
 10
125.145531226
 20
91.7996038853
  0
LWPOLYLINE
  5
2B9
100
AcDbEntity
  8
0
100
AcDbPolyline
 62
7
  6
CONTINUOUS
 90
70
 70
0
 10
147.353787465
 20
82.0623604989
 10
147.3669955197
 20
82.0567796505
 10
147.3800770287
 20
82.050686047
 10
147.3930320106
 20
82.0440797446
 10
147.4058807395
 20
82.0369538026
 10
147.4186029795
 20
82.0293152779
 10
147.4311379837
 20
82.0211852222
 10
147.4434805272
 20
82.0125637753
 10
147.4556358725
 20
82.0034509112
 10
147.4675590023
 20
81.9938674264
 10
147.4792414012
 20
81.983821383
 10
147.4906916204
 20
81.9733048267
 10
147.5018902408
 20
81.9623145262
 10
147.5128412916
 20
81.950850135
 10
147.5235407794
 20
81.9389121078
 10
147.5339572515
 20
81.9264984135
 10
147.5441000933
 20
81.9135962819
 10
147.5539599543
 20
81.9002185892
 10
147.5634772747
 20
81.8864017635
 10
147.5726476694
 20
81.8721462221
 10
147.5814755514
 20
81.8574516315
 10
147.5899145519
 20
81.8423532753
 10
147.5979555716
 20
81.8268611126
 10
147.6056077297
 20
81.8109652431
 10
147.6128519817
 20
81.7946711494
 10
147.6196900861
 20
81.7779760599
 10
147.6261202998
 20
81.7608827919
 10
147.6321183235
 20
81.743405203
 10
147.6376878891
 20
81.7255290068
 10
147.6428252741
 20
81.7072685167
 10
147.6474949917
 20
81.6886804697
 10
147.6516938422
 20
81.6697652777
 10
147.6554250225
 20
81.6505225175
 10
147.6586626332
 20
81.6310076478
 10
147.6614027937
 20
81.6112351716
 10
147.6636493699
 20
81.5911905373
 10
147.6653880762
 20
81.5708856045
 10
147.6666206809
 20
81.5503045148
 10
147.6673453949
 20
81.5294630588
 10
147.6675425905
 20
81.5084205529
 10
147.6672112623
 20
81.4871646551
 10
147.6663523833
 20
81.465707603
 10
147.6649492842
 20
81.4441455535
 10
147.6629998376
 20
81.4224803377
 10
147.6605061246
 20
81.4007099773
 10
147.6574577795
 20
81.3789248866
 10
147.6538543195
 20
81.357142474
 10
147.64969617
 20
81.3353451499
 10
147.6449743221
 20
81.3135708127
 10
147.6396761363
 20
81.2918003389
 10
147.6338141892
 20
81.2700526546
 10
147.6274172933
 20
81.2484227227
 10
147.620480278
 20
81.2269056619
 10
147.6130082478
 20
81.2055061477
 10
147.6050454274
 20
81.1843334753
 10
147.5965924462
 20
81.163394648
 10
147.5876486098
 20
81.1426824618
 10
147.5782561579
 20
81.1222849061
 10
147.5684255082
 20
81.1022215731
 10
147.5581461833
 20
81.0824726875
 10
147.5474290823
 20
81.0630671936
 10
147.5362604365
 20
81.0439899753
 10
147.5246539594
 20
81.0252559817
 10
147.5126617773
 20
81.0069392676
 10
147.5002790919
 20
80.9890416565
 10
147.4875106567
 20
80.9715611918
 10
147.4744229326
 20
80.9545662795
 10
147.4610223851
 20
80.9380677584
 10
147.4473025176
 20
80.9220547008
 10
147.4333103557
 20
80.9065628856
  0
LWPOLYLINE
  5
2BA
100
AcDbEntity
  8
RACCORDO
100
AcDbPolyline
 62
7
  6
CONTINUOUS
 90
7
 70
0
 10
173.1963097224
 20
69.6479897651
 10
173.1822342741
 20
69.6542863753
 10
173.1703348283
 20
69.6619180168
 10
173.1609905252
 20
69.6706415172
 10
173.1544990892
 20
69.6801789144
 10
173.1510673388
 20
69.6902263196
 10
173.1505261281
 20
69.6961457666
  0
LINE
  5
2BB
100
AcDbEntity
  8
RACCORDO
100
AcDbLine
 62
7
  6
CONTINUOUS
 10
116.9470949066
 20
95.1075404246
 11
116.9610590281
 21
95.1011961479
  0
LINE
  5
2BC
100
AcDbEntity
  8
RACCORDO
100
AcDbLine
 62
7
  6
CONTINUOUS
 10
116.932647442
 20
95.1141894328
 11
116.9470949066
 21
95.1075404246
  0
LINE
  5
2BD
100
AcDbEntity
  8
RACCORDO
100
AcDbLine
 62
7
  6
CONTINUOUS
 10
116.9178210054
 20
95.1210951391
 11
116.932647442
 21
95.1141894328
  0
LINE
  5
2BE
100
AcDbEntity
  8
RACCORDO
100
AcDbLine
 62
7
  6
CONTINUOUS
 10
116.8951056369
 20
95.1318254585
 11
116.9178210054
 21
95.1210951391
  0
LINE
  5
2BF
100
AcDbEntity
  8
RACCORDO
100
AcDbLine
 62
7
  6
CONTINUOUS
 10
116.8721479835
 20
95.1428464666
 11
116.8951056369
 21
95.1318254585
  0
LINE
  5
2C0
100
AcDbEntity
  8
RACCORDO
100
AcDbLine
 62
7
  6
CONTINUOUS
 10
116.8493209269
 20
95.1539791581
 11
116.8721479835
 21
95.1428464666
  0
LINE
  5
2C1
100
AcDbEntity
  8
RACCORDO
100
AcDbLine
 62
7
  6
CONTINUOUS
 10
116.826995228
 20
95.1650427142
 11
116.8493209269
 21
95.1539791581
  0
LINE
  5
2C2
100
AcDbEntity
  8
RACCORDO
100
AcDbLine
 62
7
  6
CONTINUOUS
 10
116.8125695454
 20
95.1722911363
 11
116.826995228
 21
95.1650427142
  0
LINE
  5
2C3
100
AcDbEntity
  8
RACCORDO
100
AcDbLine
 62
7
  6
CONTINUOUS
 10
116.7986323547
 20
95.1793765194
 11
116.8125695454
 21
95.1722911363
  0
LINE
  5
2C4
100
AcDbEntity
  8
SUPERFICI
100
AcDbLine
 62
7
  6
CONTINUOUS
 10
131.3344943776
 20
90.9686212088
 11
131.4205308431
 21
90.9162253487
  0
LINE
  5
2C5
100
AcDbEntity
  8
SUPERFICI
100
AcDbLine
 62
7
  6
CONTINUOUS
 10
131.6212825958
 20
91.203544364
 11
131.7073190613
 21
91.1511485039
  0
LINE
  5
2C6
100
AcDbEntity
  8
SUPERFICI
100
AcDbLine
 62
7
  6
CONTINUOUS
 10
131.908070814
 20
91.4384675192
 11
131.9941072794
 21
91.3860716591
  0
LINE
  5
2C7
100
AcDbEntity
  8
SUPERFICI
100
AcDbLine
 62
7
  6
CONTINUOUS
 10
132.1948590322
 20
91.6733906744
 11
132.2808954976
 21
91.6209948143
  0
LINE
  5
2C8
100
AcDbEntity
  8
SUPERFICI
100
AcDbLine
 62
7
  6
CONTINUOUS
 10
132.4816472503
 20
91.9083138296
 11
132.5676837158
 21
91.8559179695
  0
LWPOLYLINE
  5
2C9
100
AcDbEntity
  8
RACCORDO
100
AcDbPolyline
 62
7
  6
CONTINUOUS
 90
49
 70
0
 10
115.8938967506
 20
132.7102364574
 10
115.8905143694
 20
132.7215863874
 10
115.887436171
 20
132.7327192334
 10
115.8846515407
 20
132.743626319
 10
115.8821401791
 20
132.7543069068
 10
115.879900922
 20
132.7647461331
 10
115.8779513954
 20
132.7749152772
 10
115.8762819506
 20
132.7848082404
 10
115.87487988
 20
132.7944196559
 10
115.8737574666
 20
132.8037234949
 10
115.8729050955
 20
132.8127164125
 10
115.872309629
 20
132.8213947635
 10
115.8719771746
 20
132.8297342089
 10
115.8718985619
 20
132.8377330826
 10
115.8720601426
 20
132.8453912509
 10
115.8724604097
 20
132.8526894219
 10
115.8730903393
 20
132.8596260228
 10
115.8739368001
 20
132.8662064947
 10
115.8749917673
 20
132.8724245938
 10
115.8762464622
 20
132.878281095
 10
115.8776896239
 20
132.8837833614
 10
115.8793098978
 20
132.8889364288
 10
115.8810998856
 20
132.893744566
 10
115.883049897
 20
132.8982139952
 10
115.8851458278
 20
132.9023533533
 10
115.8873814929
 20
132.9061680372
 10
115.8897488797
 20
132.9096650185
 10
115.892231831
 20
132.912855832
 10
115.8948245823
 20
132.9157461703
 10
115.8975215049
 20
132.9183441063
 10
115.9003073327
 20
132.9206648078
 10
115.9031783297
 20
132.9227151772
 10
115.9061294833
 20
132.9245021013
 10
115.909144237
 20
132.9260405445
 10
115.9122200704
 20
132.927337402
 10
115.9153530828
 20
132.9283997422
 10
115.9185252136
 20
132.9292429015
 10
115.9217332836
 20
132.9298736913
 10
115.9249761985
 20
132.9302995578
 10
115.9282394906
 20
132.930536612
 10
115.9315196747
 20
132.9305918179
 10
115.9348177144
 20
132.9304716334
 10
115.9381260021
 20
132.9301903139
 10
115.9414422394
 20
132.9297542074
 10
115.9447672899
 20
132.9291683783
 10
115.9480981542
 20
132.9284434617
 10
115.9514334231
 20
132.9275857241
 10
115.95477357
 20
132.9265979996
 10
115.9581183905
 20
132.9254848392
  0
LWPOLYLINE
  5
2CA
100
AcDbEntity
  8
SUPERFICI
100
AcDbPolyline
 62
7
  6
CONTINUOUS
 90
3
 70
0
 10
132.8170024641
 20
91.8064566709
 10
132.8168129844
 20
91.8072577691
 10
132.8160802779
 20
91.8078649184
  0
LINE
  5
2CB
100
AcDbEntity
  8
SUPERFICI
100
AcDbLine
 62
7
  6
CONTINUOUS
 10
132.1006189933
 20
90.6864234769
 11
132.1092323466
 21
90.7151096319
  0
LINE
  5
2CC
100
AcDbEntity
  8
SUPERFICI
100
AcDbLine
 62
7
  6
CONTINUOUS
 10
126.6703433957
 20
92.5849918539
 11
126.7144428468
 21
92.6840965526
  0
LINE
  5
2CD
100
AcDbEntity
  8
SUPERFICI
100
AcDbLine
 62
7
  6
CONTINUOUS
 10
126.9219300458
 20
92.7408065234
 11
127.001231065
 21
92.9190197078
  0
LINE
  5
2CE
100
AcDbEntity
  8
SUPERFICI
100
AcDbLine
 62
7
  6
CONTINUOUS
 10
127.208718264
 20
92.9757296786
 11
127.2880192831
 21
93.153942863
  0
LINE
  5
2CF
100
AcDbEntity
  8
SUPERFICI
100
AcDbLine
 62
7
  6
CONTINUOUS
 10
127.4955064822
 20
93.2106528338
 11
127.5748075013
 21
93.3888660182
  0
LINE
  5
2D0
100
AcDbEntity
  8
SUPERFICI
100
AcDbLine
 62
7
  6
CONTINUOUS
 10
127.7822947003
 20
93.445575989
 11
127.8615957195
 21
93.6237891734
  0
LINE
  5
2D1
100
AcDbEntity
  8
SUPERFICI
100
AcDbLine
 62
7
  6
CONTINUOUS
 10
131.1756796393
 20
90.7755472481
 11
131.2197790904
 21
90.8746519467
  0
LINE
  5
2D2
100
AcDbEntity
  8
SUPERFICI
100
AcDbLine
 62
7
  6
CONTINUOUS
 10
131.4205308431
 20
90.9162253487
 11
131.5065673085
 21
91.1095751019
  0
LINE
  5
2D3
100
AcDbEntity
  8
SUPERFICI
100
AcDbLine
 62
7
  6
CONTINUOUS
 10
131.7073190613
 20
91.1511485039
 11
131.7933555267
 21
91.3444982571
  0
LINE
  5
2D4
100
AcDbEntity
  8
SUPERFICI
100
AcDbLine
 62
7
  6
CONTINUOUS
 10
131.9941072794
 20
91.3860716591
 11
132.0801437449
 21
91.5794214123
  0
LINE
  5
2D5
100
AcDbEntity
  8
SUPERFICI
100
AcDbLine
 62
7
  6
CONTINUOUS
 10
132.2808954976
 20
91.6209948143
 11
132.3669319631
 21
91.8143445675
  0
LWPOLYLINE
  5
2D6
100
AcDbEntity
  8
RACCORDO
100
AcDbPolyline
 62
7
  6
CONTINUOUS
 90
28
 70
0
 10
117.0063304647
 20
95.5972894886
 10
116.9945574763
 20
95.5876123924
 10
116.98282154
 20
95.5775370532
 10
116.9711226555
 20
95.5670634711
 10
116.9594482552
 20
95.5561794957
 10
116.9478109068
 20
95.5448972774
 10
116.9362483138
 20
95.5332532669
 10
116.9247640141
 20
95.5212490707
 10
116.9133544699
 20
95.5088830822
 10
116.9020467709
 20
95.4961869329
 10
116.890844696
 20
95.4831644926
 10
116.8797444662
 20
95.4698118915
 10
116.8687618351
 20
95.4561491515
 10
116.857895761
 20
95.442175129
 10
116.8471472854
 20
95.4278909674
 10
116.8365352862
 20
95.4133201191
 10
116.8260563375
 20
95.3984567263
 10
116.8157138651
 20
95.3833066467
 10
116.8055370238
 20
95.3679109056
 10
116.7955251364
 20
95.3522658004
 10
116.7856788801
 20
95.3363750337
 10
116.7760294423
 20
95.3202907393
 10
116.7665776617
 20
95.3040109154
 10
116.7573226997
 20
95.2875375637
 10
116.7482932273
 20
95.2709288239
 10
116.7394988017
 20
95.2542040758
 10
116.7309298657
 20
95.2373439396
 10
116.7225864195
 20
95.2203484152
  0
LINE
  5
2D7
100
AcDbEntity
  8
RACCORDO
100
AcDbLine
 62
7
  6
CONTINUOUS
 10
114.5176436583
 20
93.3850251115
 11
114.4354093238
 21
93.3176626883
  0
LINE
  5
2D8
100
AcDbEntity
  8
RACCORDO
100
AcDbLine
 62
7
  6
CONTINUOUS
 10
115.3551073281
 20
92.1588449207
 11
115.2422809508
 21
92.066422963
  0
LINE
  5
2D9
100
AcDbEntity
  8
RACCORDO
100
AcDbLine
 62
7
  6
CONTINUOUS
 10
117.8629694914
 20
96.2858376557
 11
117.0063304647
 21
95.5972894886
  0
LINE
  5
2DA
100
AcDbEntity
  8
RACCORDO
100
AcDbLine
 62
7
  6
CONTINUOUS
 10
118.0265753769
 20
96.0565239595
 11
117.1699363933
 21
95.3679758398
  0
LWPOLYLINE
  5
2DB
100
AcDbEntity
  8
RACCORDO
100
AcDbPolyline
 62
7
  6
CONTINUOUS
 90
28
 70
0
 10
117.1699364445
 20
95.3679756883
 10
117.1612805771
 20
95.3611749548
 10
117.1526402916
 20
95.3540788608
 10
117.1440213955
 20
95.3466925081
 10
117.1354261483
 20
95.3390188625
 10
117.1268639307
 20
95.3310656679
 10
117.1183511145
 20
95.3228463559
 10
117.1098957144
 20
95.3143701005
 10
117.1015009246
 20
95.3056416302
 10
117.093175669
 20
95.2966689272
 10
117.0849280545
 20
95.2874624218
 10
117.0767607434
 20
95.2780268313
 10
117.0686745291
 20
95.2683613832
 10
117.0606741006
 20
95.2584725176
 10
117.052765557
 20
95.2483686086
 10
117.044952028
 20
95.2380511715
 10
117.0372362339
 20
95.2275240041
 10
117.0296262595
 20
95.2167984221
 10
117.0221331767
 20
95.2058874518
 10
117.0147609465
 20
95.1947976179
 10
117.0075156734
 20
95.1835391218
 10
117.0004110058
 20
95.1721314762
 10
116.9934514929
 20
95.1605838282
 10
116.9866413143
 20
95.1489053564
 10
116.9799926406
 20
95.1371165805
 10
116.973511733
 20
95.1252309242
 10
116.9671993774
 20
95.1132542724
 10
116.9610589163
 20
95.101196203
  0
LINE
  5
2DC
100
AcDbEntity
  8
DRAFT
100
AcDbLine
 62
7
  6
CONTINUOUS
 10
118.1235195893
 20
107.7126285272
 11
118.0668768088
 21
107.7353775448
  0
LINE
  5
2DD
100
AcDbEntity
  8
SUPERFICI
100
AcDbLine
 62
7
  6
CONTINUOUS
 10
168.1963363706
 20
76.1640744336
 11
168.2823728361
 21
76.1116785735
  0
LINE
  5
2DE
100
AcDbEntity
  8
SUPERFICI
100
AcDbLine
 62
7
  6
CONTINUOUS
 10
168.4831245888
 20
76.3989975888
 11
168.5691610543
 21
76.3466017287
  0
LINE
  5
2DF
100
AcDbEntity
  8
SUPERFICI
100
AcDbLine
 62
7
  6
CONTINUOUS
 10
168.769912807
 20
76.633920744
 11
168.8559492724
 21
76.5815248839
  0
LINE
  5
2E0
100
AcDbEntity
  8
SUPERFICI
100
AcDbLine
 62
7
  6
CONTINUOUS
 10
169.0567010252
 20
76.8688438992
 11
169.1427374906
 21
76.8164480391
  0
LINE
  5
2E1
100
AcDbEntity
  8
SUPERFICI
100
AcDbLine
 62
7
  6
CONTINUOUS
 10
169.3434892433
 20
77.1037670544
 11
169.4295257088
 21
77.0513711943
  0
LINE
  5
2E2
100
AcDbEntity
  8
0
100
AcDbLine
 62
7
  6
CONTINUOUS
 10
147.0612530278
 20
80.7034237483
 11
147.0645373114
 21
80.5894602938
  0
LWPOLYLINE
  5
2E3
100
AcDbEntity
  8
0
100
AcDbPolyline
 62
7
  6
CONTINUOUS
 90
4
 70
0
 10
147.0645373114
 20
80.5894602938
 10
147.0710546588
 20
80.362802494
 10
147.0742877429
 20
80.2501081453
 10
147.0775037538
 20
80.137836833
  0
LWPOLYLINE
  5
2E4
100
AcDbEntity
  8
0
100
AcDbPolyline
 62
7
  6
CONTINUOUS
 90
4
 70
0
 10
147.0775037538
 20
80.137836833
 10
147.0838843521
 20
79.9145633495
 10
147.0870489396
 20
79.8035611783
 10
147.0901963927
 20
79.6929820531
  0
LINE
  5
2E5
100
AcDbEntity
  8
0
100
AcDbLine
 62
7
  6
CONTINUOUS
 10
146.7197422997
 20
79.8425439325
 11
146.6975556738
 21
80.7875940584
  0
LINE
  5
2E6
100
AcDbEntity
  8
0
100
AcDbLine
 62
7
  6
CONTINUOUS
 10
146.7925897751
 20
79.9022170909
 11
146.7703915543
 21
80.8472577188
  0
LINE
  5
2E7
100
AcDbEntity
  8
0
100
AcDbLine
 62
7
  6
CONTINUOUS
 10
145.1822834772
 20
80.462325915
 11
145.2292218171
 21
80.9215018549
  0
LINE
  5
2E8
100
AcDbEntity
  8
0
100
AcDbLine
 62
7
  6
CONTINUOUS
 10
145.2550881091
 20
80.5219639781
 11
145.3020244374
 21
80.9811382701
  0
LWPOLYLINE
  5
2E9
100
AcDbEntity
  8
0
100
AcDbPolyline
 62
7
  6
CONTINUOUS
 90
3
 70
0
 10
140.5213947125
 20
82.3322684832
 10
140.5528490192
 20
82.6018469012
 10
140.584110106
 20
82.8696661894
  0
LWPOLYLINE
  5
2EA
100
AcDbEntity
  8
0
100
AcDbPolyline
 62
7
  6
CONTINUOUS
 90
3
 70
0
 10
140.5942377321
 20
82.3919379917
 10
140.625696555
 20
82.6615382751
 10
140.6569616027
 20
82.9293744313
  0
LWPOLYLINE
  5
2EB
100
AcDbEntity
  8
0
100
AcDbPolyline
 62
7
  6
CONTINUOUS
 90
4
 70
0
 10
140.584110106
 20
82.8696661894
 10
140.6460524961
 20
83.4000274065
 10
140.6767337994
 20
83.6625693353
 10
140.7072222548
 20
83.9233520446
  0
LWPOLYLINE
  5
2EC
100
AcDbEntity
  8
0
100
AcDbPolyline
 62
7
  6
CONTINUOUS
 90
4
 70
0
 10
140.6569616027
 20
82.9293744313
 10
140.7189102496
 20
83.4597543916
 10
140.7495938489
 20
83.7222981957
 10
140.7800840409
 20
83.9830777836
  0
LINE
  5
2ED
100
AcDbEntity
  8
0
100
AcDbLine
 62
7
  6
CONTINUOUS
 10
145.7875191091
 20
82.6921001355
 11
145.5118412085
 21
80.3295992643
  0
LWPOLYLINE
  5
2EE
100
AcDbEntity
  8
0
100
AcDbPolyline
 62
7
  6
CONTINUOUS
 90
3
 70
0
 10
140.7072222548
 20
83.9233520446
 10
140.76762087
 20
84.4396397444
 10
140.7975309058
 20
84.6951447649
  0
LWPOLYLINE
  5
2EF
100
AcDbEntity
  8
0
100
AcDbPolyline
 62
7
  6
CONTINUOUS
 90
3
 70
0
 10
140.7800840409
 20
83.9830777836
 10
140.8404844487
 20
84.4993442516
 10
140.8604536516
 20
84.669917774
  0
LINE
  5
2F0
100
AcDbEntity
  8
0
100
AcDbLine
 62
7
  6
CONTINUOUS
 10
145.2830521424
 20
81.3570884171
 11
145.3704157909
 21
82.0908830845
  0
LINE
  5
2F1
100
AcDbEntity
  8
0
100
AcDbLine
 62
7
  6
CONTINUOUS
 10
145.3558531203
 20
81.4167234869
 11
145.4432142117
 21
82.1505160597
  0
LINE
  5
2F2
100
AcDbEntity
  8
0
100
AcDbLine
 62
7
  6
CONTINUOUS
 10
141.1275734313
 20
84.5628152343
 11
140.9185418206
 21
82.9214604456
  0
LINE
  5
2F3
100
AcDbEntity
  8
0
100
AcDbLine
 62
7
  6
CONTINUOUS
 10
142.8875854112
 20
81.3846325612
 11
143.1029481998
 21
82.9185557778
  0
LINE
  5
2F4
100
AcDbEntity
  8
0
100
AcDbLine
 62
7
  6
CONTINUOUS
 10
142.9603775512
 20
81.4442603915
 11
143.1757433255
 21
82.9781860538
  0
LINE
  5
2F5
100
AcDbEntity
  8
0
100
AcDbLine
 62
7
  6
CONTINUOUS
 10
143.5610823581
 20
83.5864305645
 11
143.3319560028
 21
82.0580114154
  0
LINE
  5
2F6
100
AcDbEntity
  8
0
100
AcDbLine
 62
7
  6
CONTINUOUS
 10
132.7810577148
 20
91.7702221611
 11
131.5386285235
 21
90.6297787936
  0
LWPOLYLINE
  5
2F7
100
AcDbEntity
  8
SUPERFICI
100
AcDbPolyline
 62
7
  6
CONTINUOUS
 90
7
 70
0
 10
132.0535405462
 20
90.6134644522
 10
132.0575257737
 20
90.6168865808
 10
132.0689184827
 20
90.628301701
 10
132.0789490204
 20
90.6409867916
 10
132.0875345161
 20
90.6548623829
 10
132.0947578404
 20
90.6700079447
 10
132.1006189933
 20
90.6864234769
  0
LWPOLYLINE
  5
2F8
100
AcDbEntity
  8
SUPERFICI
100
AcDbPolyline
 62
7
  6
CONTINUOUS
 90
10
 70
0
 10
132.7866120931
 20
91.7750960799
 10
132.7929084563
 20
91.7804857401
 10
132.7986112271
 20
91.785484595
 10
132.8036585368
 20
91.7900772238
 10
132.8079930366
 20
91.794263365
 10
132.8115471113
 20
91.7980019138
 10
132.8142532371
 20
91.8012092642
 10
132.8160650483
 20
91.8038299185
 10
132.8169306004
 20
91.8058536848
 10
132.8170024641
 20
91.8064566709
  0
LINE
  5
2F9
100
AcDbEntity
  8
0
100
AcDbLine
 62
7
  6
CONTINUOUS
 10
132.7866120931
 20
91.290688615
 11
131.8579024983
 21
90.5015511675
  0
LINE
  5
2FA
100
AcDbEntity
  8
SUPERFICI
100
AcDbLine
 62
7
  6
CONTINUOUS
 10
126.7144428468
 20
92.6840965526
 11
126.829158134
 21
92.7780658147
  0
LINE
  5
2FB
100
AcDbEntity
  8
SUPERFICI
100
AcDbLine
 62
7
  6
CONTINUOUS
 10
127.001231065
 20
92.9190197078
 11
127.1159463522
 21
93.0129889699
  0
LINE
  5
2FC
100
AcDbEntity
  8
SUPERFICI
100
AcDbLine
 62
7
  6
CONTINUOUS
 10
127.2880192831
 20
93.153942863
 11
127.4027345704
 21
93.247912125
  0
LINE
  5
2FD
100
AcDbEntity
  8
SUPERFICI
100
AcDbLine
 62
7
  6
CONTINUOUS
 10
127.5748075013
 20
93.3888660182
 11
127.6895227886
 21
93.4828352802
  0
LINE
  5
2FE
100
AcDbEntity
  8
SUPERFICI
100
AcDbLine
 62
7
  6
CONTINUOUS
 10
127.8615957195
 20
93.6237891734
 11
127.9763110067
 21
93.7177584354
  0
LINE
  5
2FF
100
AcDbEntity
  8
SUPERFICI
100
AcDbLine
 62
7
  6
CONTINUOUS
 10
131.2197790904
 20
90.8746519467
 11
131.3344943776
 21
90.9686212088
  0
LINE
  5
300
100
AcDbEntity
  8
SUPERFICI
100
AcDbLine
 62
7
  6
CONTINUOUS
 10
131.5065673085
 20
91.1095751019
 11
131.6212825958
 21
91.203544364
  0
LINE
  5
301
100
AcDbEntity
  8
SUPERFICI
100
AcDbLine
 62
7
  6
CONTINUOUS
 10
131.7933555267
 20
91.3444982571
 11
131.908070814
 21
91.4384675192
  0
LINE
  5
302
100
AcDbEntity
  8
SUPERFICI
100
AcDbLine
 62
7
  6
CONTINUOUS
 10
132.0801437449
 20
91.5794214123
 11
132.1948590322
 21
91.6733906744
  0
LINE
  5
303
100
AcDbEntity
  8
SUPERFICI
100
AcDbLine
 62
7
  6
CONTINUOUS
 10
132.3669319631
 20
91.8143445675
 11
132.4816472503
 21
91.9083138296
  0
LINE
  5
304
100
AcDbEntity
  8
SUPERFICI
100
AcDbLine
 62
7
  6
CONTINUOUS
 10
132.5676837158
 20
91.8559179695
 11
131.2247405093
 21
90.7558432966
  0
LINE
  5
305
100
AcDbEntity
  8
0
100
AcDbLine
 62
7
  6
CONTINUOUS
 10
127.8489734732
 20
93.7510583838
 11
126.4055162516
 21
92.6913524054
  0
LINE
  5
306
100
AcDbEntity
  8
SUPERFICI
100
AcDbLine
 62
7
  6
CONTINUOUS
 10
127.8634359804
 20
93.7602730188
 11
127.8554265634
 21
93.7555713596
  0
LINE
  5
307
100
AcDbEntity
  8
SMUSSO
100
AcDbLine
 62
7
  6
CONTINUOUS
 10
196.6943833325
 20
83.9813471996
 11
196.762744267
 21
83.9538919071
  0
LWPOLYLINE
  5
308
100
AcDbEntity
  8
SUPERFICI
100
AcDbPolyline
 62
7
  6
CONTINUOUS
 90
3
 70
0
 10
151.2479234606
 20
84.3222681285
 10
151.247735112
 20
84.3230672387
 10
151.2470013256
 20
84.3236762652
  0
LINE
  5
309
100
AcDbEntity
  8
SUPERFICI
100
AcDbLine
 62
7
  6
CONTINUOUS
 10
151.2175330896
 20
84.2909074879
 11
151.2175330896
 21
83.8884152274
  0
LINE
  5
30A
100
AcDbEntity
  8
SUPERFICI
100
AcDbLine
 62
7
  6
CONTINUOUS
 10
151.2479234704
 20
84.3217967555
 11
151.2479234704
 21
83.9203975955
  0
LINE
  5
30B
100
AcDbEntity
  8
SUPERFICI
100
AcDbLine
 62
7
  6
CONTINUOUS
 10
150.5315399898
 20
83.2841500893
 11
150.5401533431
 21
83.3128362444
  0
LINE
  5
30C
100
AcDbEntity
  8
0
100
AcDbLine
 62
7
  6
CONTINUOUS
 10
142.7637679533
 20
83.9064631449
 11
141.952455038
 21
81.7595581344
  0
LINE
  5
30D
100
AcDbEntity
  8
0
100
AcDbLine
 62
7
  6
CONTINUOUS
 10
142.2412925226
 20
81.6438109773
 11
143.0524626724
 21
83.7905990412
  0
LINE
  5
30E
100
AcDbEntity
  8
0
100
AcDbLine
 62
7
  6
CONTINUOUS
 10
142.3140921121
 20
81.7034449099
 11
143.0961098461
 21
83.7730802867
  0
LINE
  5
30F
100
AcDbEntity
  8
0
100
AcDbLine
 62
7
  6
CONTINUOUS
 10
143.1029481998
 20
82.9185557778
 11
142.5713407943
 21
81.5114861539
  0
LINE
  5
310
100
AcDbEntity
  8
0
100
AcDbLine
 62
7
  6
CONTINUOUS
 10
143.5336675503
 20
81.1252815082
 11
144.0651701216
 21
82.532265257
  0
LINE
  5
311
100
AcDbEntity
  8
0
100
AcDbLine
 62
7
  6
CONTINUOUS
 10
143.6064570538
 20
81.1849071789
 11
144.137959569
 21
82.5918908817
  0
LINE
  5
312
100
AcDbEntity
  8
0
100
AcDbLine
 62
7
  6
CONTINUOUS
 10
144.6744009761
 20
83.1393474634
 11
143.8635006622
 21
80.9927804362
  0
LINE
  5
313
100
AcDbEntity
  8
0
100
AcDbLine
 62
7
  6
CONTINUOUS
 10
141.6223031967
 20
81.8917981187
 11
142.4338145128
 21
84.0388656496
  0
LINE
  5
314
100
AcDbEntity
  8
0
100
AcDbLine
 62
7
  6
CONTINUOUS
 10
141.6951144462
 20
81.9514416025
 11
142.4774630864
 21
84.0213517338
  0
LINE
  5
315
100
AcDbEntity
  8
0
100
AcDbLine
 62
7
  6
CONTINUOUS
 10
145.7727016952
 20
80.2244917383
 11
146.5844428565
 21
82.3717475474
  0
LINE
  5
316
100
AcDbEntity
  8
0
100
AcDbLine
 62
7
  6
CONTINUOUS
 10
145.8455194562
 20
80.2841405561
 11
146.6280785473
 21
82.3542027363
  0
LINE
  5
317
100
AcDbEntity
  8
0
100
AcDbLine
 62
7
  6
CONTINUOUS
 10
146.7503173546
 20
81.8476762797
 11
146.5456108669
 21
81.3062973382
  0
LINE
  5
318
100
AcDbEntity
  8
0
100
AcDbLine
 62
7
  6
CONTINUOUS
 10
146.4092237311
 20
80.9037553311
 11
146.1021597283
 21
80.0916834196
  0
LINE
  5
319
100
AcDbEntity
  8
0
100
AcDbLine
 62
7
  6
CONTINUOUS
 10
144.0651701216
 20
82.532265257
 11
143.2175259957
 21
81.2522195256
  0
LINE
  5
31A
100
AcDbEntity
  8
0
100
AcDbLine
 62
7
  6
CONTINUOUS
 10
143.3319560028
 20
82.0580114154
 11
144.179617436
 21
83.338071325
  0
LINE
  5
31B
100
AcDbEntity
  8
0
100
AcDbLine
 62
7
  6
CONTINUOUS
 10
143.4047469779
 20
82.1176382915
 11
144.205926756
 21
83.3275056442
  0
LINE
  5
31C
100
AcDbEntity
  8
0
100
AcDbLine
 62
7
  6
CONTINUOUS
 10
140.9185418206
 20
82.9214604456
 11
141.8563531402
 21
84.2705349307
  0
LINE
  5
31D
100
AcDbEntity
  8
0
100
AcDbLine
 62
7
  6
CONTINUOUS
 10
140.991379588
 20
82.9811256516
 11
141.8808764711
 21
84.2606978482
  0
LINE
  5
31E
100
AcDbEntity
  8
0
100
AcDbLine
 62
7
  6
CONTINUOUS
 10
142.1863377621
 20
84.1381579683
 11
140.8379696437
 21
82.2056854673
  0
LINE
  5
31F
100
AcDbEntity
  8
SUPERFICI
100
AcDbLine
 62
7
  6
CONTINUOUS
 10
132.0535988765
 20
90.6134860644
 11
131.8980272775
 21
90.4854361516
  0
LINE
  5
320
100
AcDbEntity
  8
0
100
AcDbLine
 62
7
  6
CONTINUOUS
 10
132.1006189933
 20
90.6864234769
 11
131.8700079163
 21
90.4966893588
  0
LINE
  5
321
100
AcDbEntity
  8
DRAFT
100
AcDbLine
 62
7
  6
CONTINUOUS
 10
118.1235195893
 20
124.095669413
 11
118.0668768088
 21
124.1184184306
  0
LINE
  5
322
100
AcDbEntity
  8
RACCORDO
100
AcDbLine
 62
7
  6
CONTINUOUS
 10
116.7375647634
 20
132.4578918068
 11
115.9581183905
 21
132.9254848392
  0
LINE
  5
323
100
AcDbEntity
  8
RACCORDO
100
AcDbLine
 62
7
  6
CONTINUOUS
 10
116.9610589906
 20
132.323247174
 11
116.7375647634
 21
132.4578918068
  0
LINE
  5
324
100
AcDbEntity
  8
RACCORDO
100
AcDbLine
 62
7
  6
CONTINUOUS
 10
116.7225863594
 20
132.2115455267
 11
115.8938967506
 21
132.7102364574
  0
LINE
  5
325
100
AcDbEntity
  8
0
100
AcDbLine
 62
7
  6
CONTINUOUS
 10
145.3704157909
 20
82.0908830845
 11
144.9670884493
 21
81.4841721289
  0
LINE
  5
326
100
AcDbEntity
  8
0
100
AcDbLine
 62
7
  6
CONTINUOUS
 10
144.707235722
 20
81.131499733
 11
144.4543143496
 21
80.755270209
  0
LINE
  5
327
100
AcDbEntity
  8
0
100
AcDbLine
 62
7
  6
CONTINUOUS
 10
144.1245796173
 20
80.8878518689
 11
145.4577272731
 21
82.8246350189
  0
LINE
  5
328
100
AcDbEntity
  8
0
100
AcDbLine
 62
7
  6
CONTINUOUS
 10
144.1973709225
 20
80.9474790155
 11
145.4825967759
 21
82.8146413263
  0
LINE
  5
329
100
AcDbEntity
  8
0
100
AcDbLine
 62
7
  6
CONTINUOUS
 10
147.4333103557
 20
80.9065628856
 11
147.4190518657
 21
80.8915983794
  0
LWPOLYLINE
  5
32A
100
AcDbEntity
  8
0
100
AcDbPolyline
 62
7
  6
CONTINUOUS
 90
5
 70
0
 10
147.4190518657
 20
80.8915983794
 10
147.4045210622
 20
80.8771550655
 10
147.3897470482
 20
80.8632504658
 10
147.374712276
 20
80.8498784021
 10
147.3602838528
 20
80.8377398137
  0
LINE
  5
32B
100
AcDbEntity
  8
0
100
AcDbLine
 62
7
  6
CONTINUOUS
 10
151.2119787113
 20
84.2860335691
 11
150.0316282808
 21
83.2025731762
  0
LWPOLYLINE
  5
32C
100
AcDbEntity
  8
SUPERFICI
100
AcDbPolyline
 62
7
  6
CONTINUOUS
 90
10
 70
0
 10
151.2175330896
 20
84.2909074879
 10
151.2238275037
 20
84.2962955297
 10
151.229528893
 20
84.3012930711
 10
151.2345753794
 20
84.3058847249
 10
151.2389095758
 20
84.3100703056
 10
151.2424638781
 20
84.3138086972
 10
151.2451707689
 20
84.3170162029
 10
151.2469838082
 20
84.3196374042
 10
151.2478509309
 20
84.3216620934
 10
151.2479234606
 20
84.3222681285
  0
LWPOLYLINE
  5
32D
100
AcDbEntity
  8
0
100
AcDbPolyline
 62
7
  6
CONTINUOUS
 90
59
 70
0
 10
147.1643937493
 20
81.1831081475
 10
147.1718288029
 20
81.1894166523
 10
147.1794525869
 20
81.1963471643
 10
147.1869724127
 20
81.2036596419
 10
147.1943338661
 20
81.2113295824
 10
147.2015370342
 20
81.2193625925
 10
147.2085818353
 20
81.2277530792
 10
147.215413604
 20
81.2364597503
 10
147.2220259843
 20
81.2454796672
 10
147.2284253431
 20
81.2548157991
 10
147.2345761032
 20
81.2644357239
 10
147.2404804819
 20
81.2743392213
 10
147.246136277
 20
81.2845265552
 10
147.251501284
 20
81.2949660379
 10
147.2565829072
 20
81.3056808526
 10
147.2613737616
 20
81.3166478734
 10
147.2658094624
 20
81.3277659552
 10
147.2698765054
 20
81.3390419344
 10
147.2735884176
 20
81.3504690442
 10
147.2769213613
 20
81.3619257367
 10
147.2798656808
 20
81.3733987343
 10
147.2824310532
 20
81.3849013801
 10
147.2846226367
 20
81.3963520514
 10
147.2864389165
 20
81.407732881
 10
147.2878814251
 20
81.4190617906
 10
147.2889598891
 20
81.4303108331
 10
147.2896736427
 20
81.4414927431
 10
147.2900233667
 20
81.4525948335
 10
147.2900208055
 20
81.4635510163
 10
147.289662491
 20
81.4743580279
 10
147.2889519015
 20
81.4850191649
 10
147.2879111975
 20
81.4954781695
 10
147.2865404191
 20
81.5057262586
 10
147.2848395313
 20
81.5157722325
 10
147.2828305777
 20
81.5255861982
 10
147.280516104
 20
81.5351560617
 10
147.2778935655
 20
81.5444939218
 10
147.2749773694
 20
81.5536061706
 10
147.2717648365
 20
81.5624981702
 10
147.2682586453
 20
81.5711645586
 10
147.264481238
 20
81.5795956375
 10
147.260431998
 20
81.5877951844
 10
147.2561115387
 20
81.5957594138
 10
147.2515441461
 20
81.6034672783
 10
147.246720687
 20
81.6109287294
 10
147.2416502886
 20
81.6181337991
 10
147.2363846247
 20
81.6250315524
 10
147.2309266628
 20
81.6316121737
 10
147.2252734247
 20
81.6378854475
 10
147.2194676632
 20
81.6438298298
 10
147.2135051421
 20
81.6494452618
 10
147.2073900852
 20
81.6547317655
 10
147.2011779327
 20
81.659667913
 10
147.1948720598
 20
81.6642471877
 10
147.1884690776
 20
81.6684760644
 10
147.1820142794
 20
81.6723525988
 10
147.1755227585
 20
81.6758761289
 10
147.1689794082
 20
81.6790472759
 10
147.1623842222
 20
81.6818660199
  0
LWPOLYLINE
  5
32E
100
AcDbEntity
  8
0
100
AcDbPolyline
 62
7
  6
CONTINUOUS
 90
59
 70
0
 10
147.2372391727
 20
81.2427796345
 10
147.2446900645
 20
81.2491020144
 10
147.2523145956
 20
81.2560342018
 10
147.2598350575
 20
81.2633483814
 10
147.267197004
 20
81.2710199878
 10
147.2744005102
 20
81.2790546243
 10
147.2814455066
 20
81.2874467019
 10
147.2882773327
 20
81.2961548762
 10
147.2948896286
 20
81.305176201
 10
147.3012887656
 20
81.3145136537
 10
147.3074391831
 20
81.3241347837
 10
147.3133431026
 20
81.3340393761
 10
147.3189983179
 20
81.3442276898
 10
147.3243626296
 20
81.3546679922
 10
147.3294434291
 20
81.3653834661
 10
147.3342333445
 20
81.3763509862
 10
147.3386680343
 20
81.3874693652
 10
147.3427339865
 20
81.3987454136
 10
147.3464447364
 20
81.4101723903
 10
147.3497765137
 20
81.4216287815
 10
147.3527196747
 20
81.4331012956
 10
147.3552838848
 20
81.4446032894
 10
147.3574743344
 20
81.4560532162
 10
147.3592895164
 20
81.4674332253
 10
147.3607309558
 20
81.4787612215
 10
147.3618083891
 20
81.4900092844
 10
147.3625211484
 20
81.5011901543
 10
147.3628699169
 20
81.5122911378
 10
147.3628664548
 20
81.5232461563
 10
147.3625072977
 20
81.5340519347
 10
147.3617959203
 20
81.5447117806
 10
147.3607544875
 20
81.5551694796
 10
147.3593830441
 20
81.5654162489
 10
147.3576815504
 20
81.5754608879
 10
147.3556720414
 20
81.5852735459
 10
147.3533570614
 20
81.5948421387
 10
147.3507340669
 20
81.604178755
 10
147.3478174601
 20
81.6132897979
 10
147.344604561
 20
81.6221806357
 10
147.3410980486
 20
81.6308458997
 10
147.3373203625
 20
81.639275884
 10
147.3332708846
 20
81.6474743647
 10
147.3289502294
 20
81.6554375571
 10
147.3243826831
 20
81.6631444091
 10
147.3195591148
 20
81.6706048658
 10
147.3144886491
 20
81.6778089653
 10
147.3092229529
 20
81.6847057859
 10
147.3037649958
 20
81.6912855131
 10
147.2981117973
 20
81.6975579302
 10
147.2923060963
 20
81.7035015048
 10
147.2863436544
 20
81.7091161815
 10
147.2802286974
 20
81.7144019787
 10
147.2740166583
 20
81.7193374697
 10
147.2677109138
 20
81.7239161384
 10
147.2613080733
 20
81.7281444592
 10
147.2548534184
 20
81.7320204884
 10
147.2483620385
 20
81.7355435642
 10
147.2418188306
 20
81.7387143077
 10
147.2352237884
 20
81.7415326996
  0
LINE
  5
32F
100
AcDbEntity
  8
0
100
AcDbLine
 62
7
  6
CONTINUOUS
 10
140.991379588
 20
82.9811256516
 11
140.9185418206
 21
82.9214604456
  0
LINE
  5
330
100
AcDbEntity
  8
0
100
AcDbLine
 62
7
  6
CONTINUOUS
 10
140.5942377321
 20
82.3919379917
 11
140.5213947125
 21
82.3322684832
  0
LINE
  5
331
100
AcDbEntity
  8
0
100
AcDbLine
 62
7
  6
CONTINUOUS
 10
141.6951144462
 20
81.9514416025
 11
141.6223031967
 21
81.8917981187
  0
LINE
  5
332
100
AcDbEntity
  8
0
100
AcDbLine
 62
7
  6
CONTINUOUS
 10
143.1757433255
 20
82.9781860538
 11
143.1029481998
 21
82.9185557778
  0
LINE
  5
333
100
AcDbEntity
  8
0
100
AcDbLine
 62
7
  6
CONTINUOUS
 10
142.3140921121
 20
81.7034449099
 11
142.2412925226
 21
81.6438109773
  0
LINE
  5
334
100
AcDbEntity
  8
0
100
AcDbLine
 62
7
  6
CONTINUOUS
 10
143.4047469779
 20
82.1176382915
 11
143.3319560028
 21
82.0580114154
  0
LINE
  5
335
100
AcDbEntity
  8
0
100
AcDbLine
 62
7
  6
CONTINUOUS
 10
144.137959569
 20
82.5918908817
 11
144.0651701216
 21
82.532265257
  0
LINE
  5
336
100
AcDbEntity
  8
0
100
AcDbLine
 62
7
  6
CONTINUOUS
 10
142.9603775512
 20
81.4442603915
 11
142.8875854112
 21
81.3846325612
  0
LINE
  5
337
100
AcDbEntity
  8
0
100
AcDbLine
 62
7
  6
CONTINUOUS
 10
143.6064570538
 20
81.1849071789
 11
143.5336675503
 21
81.1252815082
  0
LINE
  5
338
100
AcDbEntity
  8
0
100
AcDbLine
 62
7
  6
CONTINUOUS
 10
145.4432142117
 20
82.1505160597
 11
145.3704157909
 21
82.0908830845
  0
LINE
  5
339
100
AcDbEntity
  8
0
100
AcDbLine
 62
7
  6
CONTINUOUS
 10
144.1973709225
 20
80.9474790155
 11
144.1245796173
 21
80.8878518689
  0
LINE
  5
33A
100
AcDbEntity
  8
0
100
AcDbLine
 62
7
  6
CONTINUOUS
 10
144.780030809
 20
81.1911299774
 11
144.707235722
 21
81.131499733
  0
LINE
  5
33B
100
AcDbEntity
  8
0
100
AcDbLine
 62
7
  6
CONTINUOUS
 10
145.3558531203
 20
81.4167234869
 11
145.2830521424
 21
81.3570884171
  0
LINE
  5
33C
100
AcDbEntity
  8
0
100
AcDbLine
 62
7
  6
CONTINUOUS
 10
145.3020244374
 20
80.9811382701
 11
145.2292218171
 21
80.9215018549
  0
LINE
  5
33D
100
AcDbEntity
  8
0
100
AcDbLine
 62
7
  6
CONTINUOUS
 10
146.8231437683
 20
81.9073321853
 11
146.7503173546
 21
81.8476762797
  0
LINE
  5
33E
100
AcDbEntity
  8
0
100
AcDbLine
 62
7
  6
CONTINUOUS
 10
145.2550881091
 20
80.5219639781
 11
145.1822834772
 21
80.462325915
  0
LINE
  5
33F
100
AcDbEntity
  8
0
100
AcDbLine
 62
7
  6
CONTINUOUS
 10
147.2352237867
 20
81.7415327002
 11
147.1623842205
 21
81.6818660206
  0
LINE
  5
340
100
AcDbEntity
  8
0
100
AcDbLine
 62
7
  6
CONTINUOUS
 10
146.482050572
 20
80.9634115867
 11
146.4092237311
 21
80.9037553311
  0
LINE
  5
341
100
AcDbEntity
  8
RACCORDO
100
AcDbLine
 62
7
  6
CONTINUOUS
 10
192.1689414204
 20
118.3850034588
 11
194.9843180202
 21
120.691224956
  0
LINE
  5
342
100
AcDbEntity
  8
0
100
AcDbLine
 62
7
  6
CONTINUOUS
 10
145.8455194562
 20
80.2841405561
 11
145.7727016952
 21
80.2244917383
  0
LINE
  5
343
100
AcDbEntity
  8
SUPERFICI
100
AcDbLine
 62
7
  6
CONTINUOUS
 10
147.1643919856
 20
81.1831109325
 11
147.2372374129
 21
81.2427824132
  0
LINE
  5
344
100
AcDbEntity
  8
0
100
AcDbLine
 62
7
  6
CONTINUOUS
 10
146.7703915543
 20
80.8472577188
 11
146.6975556738
 21
80.7875940584
  0
LINE
  5
345
100
AcDbEntity
  8
RACCORDO
100
AcDbLine
 62
7
  6
CONTINUOUS
 10
172.3986678447
 20
111.7234749465
 11
172.2574777747
 21
111.6088448437
  0
LINE
  5
346
100
AcDbEntity
  8
RACCORDO
100
AcDbLine
 62
7
  6
CONTINUOUS
 10
173.1481509712
 20
110.5992302252
 11
173.0285518865
 21
110.5021217203
  0
LINE
  5
347
100
AcDbEntity
  8
0
100
AcDbLine
 62
7
  6
CONTINUOUS
 10
146.2798944697
 20
86.2668697917
 11
144.9085605016
 21
85.2601126932
  0
LINE
  5
348
100
AcDbEntity
  8
SMUSSO
100
AcDbLine
 62
7
  6
CONTINUOUS
 10
195.6447399315
 20
120.3300576944
 11
196.2587041411
 21
120.7558237529
  0
LINE
  5
349
100
AcDbEntity
  8
SUPERFICI
100
AcDbLine
 62
7
  6
CONTINUOUS
 10
146.2943542583
 20
86.2760831174
 11
146.2863475599
 21
86.2713827676
  0
LWPOLYLINE
  5
34A
100
AcDbEntity
  8
RACCORDO
100
AcDbPolyline
 62
7
  6
CONTINUOUS
 90
33
 70
0
 10
115.2915872849
 20
134.4876307304
 10
115.2705940959
 20
134.4945917498
 10
115.2496602746
 20
134.5009692336
 10
115.2288005968
 20
134.5067592491
 10
115.2080303738
 20
134.511958572
 10
115.1873636556
 20
134.5165637739
 10
115.166813231
 20
134.52057117
 10
115.1463932932
 20
134.5239784206
 10
115.1261185365
 20
134.5267835157
 10
115.10600236
 20
134.5289838523
 10
115.0860589965
 20
134.5305782868
 10
115.0663024087
 20
134.5315661371
 10
115.0467453928
 20
134.5319461333
 10
115.0274017002
 20
134.531718369
 10
115.008284925
 20
134.5308833848
 10
114.9894073958
 20
134.5294411918
 10
114.9707823067
 20
134.5273931
 10
114.9524227968
 20
134.5247408763
 10
114.9343408366
 20
134.5214858308
 10
114.9165491084
 20
134.5176305105
 10
114.8990600749
 20
134.5131778986
 10
114.8818850604
 20
134.5081305682
 10
114.8650360552
 20
134.5024922563
 10
114.8485248836
 20
134.4962671487
 10
114.8323622702
 20
134.4894590826
 10
114.8165595055
 20
134.4820729861
 10
114.8011276327
 20
134.4741142047
 10
114.7860766246
 20
134.4655877718
 10
114.7714169335
 20
134.4564997295
 10
114.7571588386
 20
134.4468565755
 10
114.7433116391
 20
134.4366645802
 10
114.7298849722
 20
134.4259309293
 10
114.7220388504
 20
134.4192374768
  0
LWPOLYLINE
  5
34B
100
AcDbEntity
  8
RACCORDO
100
AcDbPolyline
 62
7
  6
CONTINUOUS
 90
58
 70
0
 10
115.1857569219
 20
134.2293264281
 10
115.1690714892
 20
134.2350063147
 10
115.1524531216
 20
134.2402131921
 10
115.1359018157
 20
134.2449470577
 10
115.1194056031
 20
134.2492107231
 10
115.1029764462
 20
134.253001372
 10
115.0866502356
 20
134.2563105586
 10
115.0704278382
 20
134.2591370458
 10
115.0543083771
 20
134.2614820631
 10
115.0383251242
 20
134.2633408615
 10
115.0224784064
 20
134.2647124142
 10
115.0067678837
 20
134.2655977383
 10
114.9912258251
 20
134.2659951482
 10
114.9758525953
 20
134.2659036373
 10
114.9606478139
 20
134.2653242004
 10
114.9456426289
 20
134.2642581519
 10
114.930837413
 20
134.2627044804
 10
114.9162317756
 20
134.2606641837
 10
114.9018557174
 20
134.2581415881
 10
114.8877097299
 20
134.2551356979
 10
114.873793302
 20
134.251647494
 10
114.8601349279
 20
134.2476842655
 10
114.8467351189
 20
134.2432450256
 10
114.8335933429
 20
134.2383307453
 10
114.8207365269
 20
134.23295165
 10
114.8081652698
 20
134.2271067896
 10
114.795878951
 20
134.2207970978
 10
114.7839026671
 20
134.2140356237
 10
114.7722370307
 20
134.206821428
 10
114.7608814073
 20
134.1991554333
 10
114.7498590213
 20
134.1910534809
 10
114.7391705652
 20
134.1825146898
 10
114.7288153248
 20
134.1735399245
 10
114.718814414
 20
134.1641476432
 10
114.7091685355
 20
134.1543369799
 10
114.6998769656
 20
134.1441087848
 10
114.6909586774
 20
134.1334840901
 10
114.6824144303
 20
134.1224620919
 10
114.6742434453
 20
134.1110435794
 10
114.6664623869
 20
134.0992519743
 10
114.6590720336
 20
134.0870864987
 10
114.6520715891
 20
134.0745479172
 10
114.6454753562
 20
134.0616619651
 10
114.6392841634
 20
134.0484279615
 10
114.6334971667
 20
134.0348465756
 10
114.62812616
 20
134.0209455686
 10
114.6231719695
 20
134.0067242702
 10
114.6186337563
 20
133.9921833411
 10
114.6145208167
 20
133.9773525386
 10
114.6108340131
 20
133.9622312166
 10
114.6075724732
 20
133.9468200138
 10
114.6047428924
 20
133.9311506161
 10
114.6023461493
 20
133.9152216974
 10
114.6003813585
 20
133.8990345786
 10
114.5988525696
 20
133.882624917
 10
114.5977611315
 20
133.8660045973
 10
114.597105692
 20
133.8491617321
 10
114.5968862502
 20
133.8320963208
  0
LINE
  5
34C
100
AcDbEntity
  8
RACCORDO
100
AcDbLine
 62
7
  6
CONTINUOUS
 10
115.1833681366
 20
134.7151047199
 11
115.2024838369
 21
134.7085642694
  0
LWPOLYLINE
  5
34D
100
AcDbEntity
  8
RACCORDO
100
AcDbPolyline
 62
7
  6
CONTINUOUS
 90
37
 70
0
 10
172.7582355741
 20
110.4731872154
 10
172.7654042997
 20
110.4706524622
 10
172.7727527088
 20
110.4682930538
 10
172.7802677726
 20
110.4661131734
 10
172.7879361669
 20
110.4641166859
 10
172.7957442957
 20
110.4623071312
 10
172.8036783151
 20
110.4606877175
 10
172.8117241581
 20
110.4592613162
 10
172.8198675595
 20
110.4580304562
 10
172.828094081
 20
110.4569973199
 10
172.836389137
 20
110.456163739
 10
172.8447380202
 20
110.4555311914
 10
172.8531259283
 20
110.4551007988
 10
172.8615379892
 20
110.4548733242
 10
172.8699592886
 20
110.4548491709
 10
172.8783748953
 20
110.4550283818
 10
172.8867698886
 20
110.4554106391
 10
172.895129384
 20
110.455995265
 10
172.9034385602
 20
110.4567812232
 10
172.9116826849
 20
110.45776712
 10
172.9198471414
 20
110.4589512075
 10
172.9279174539
 20
110.4603313863
 10
172.9358793139
 20
110.4619052093
 10
172.9437186049
 20
110.4636698862
 10
172.9514214278
 20
110.4656222882
 10
172.9589741256
 20
110.4677589536
 10
172.9663633072
 20
110.4700760943
 10
172.9735758715
 20
110.4725696018
 10
172.9805990308
 20
110.4752350552
 10
172.9874203329
 20
110.4780677287
 10
172.9940276836
 20
110.4810625998
 10
173.0004093681
 20
110.4842143588
 10
173.0065540715
 20
110.4875174175
 10
173.0124508994
 20
110.4909659196
 10
173.0180893966
 20
110.4945537508
 10
173.0234595661
 20
110.4982745501
 10
173.0285518865
 20
110.5021217203
  0
LWPOLYLINE
  5
34E
100
AcDbEntity
  8
RACCORDO
100
AcDbPolyline
 62
7
  6
CONTINUOUS
 90
55
 70
0
 10
115.9143833466
 20
133.0178388049
 10
116.4422447283
 20
132.8301461612
 10
117.0051107897
 20
132.6291267857
 10
117.6030393923
 20
132.4148251225
 10
118.2369906199
 20
132.1871545537
 10
118.9061316704
 20
131.9462998598
 10
119.607830912
 20
131.6927126934
 10
120.3421500048
 20
131.4264517164
 10
121.1091618202
 20
131.1475630921
 10
121.9062444608
 20
130.8564745934
 10
122.7333502307
 20
130.5532818489
 10
123.5906646786
 20
130.2379979505
 10
124.475907382
 20
129.9109207432
 10
125.3863855188
 20
129.5731653445
 10
126.3249260061
 20
129.2237239506
 10
127.2975410869
 20
128.859720654
 10
128.3014596904
 20
128.4824463349
 10
129.3396321936
 20
128.0907546703
 10
130.4267163474
 20
127.6781643028
 10
131.5655975004
 20
127.243936989
 10
132.7536929733
 20
126.7890559964
 10
133.9975316206
 20
126.3096811104
 10
135.3080332505
 20
125.8017447212
 10
136.6746846851
 20
125.2696477056
 10
138.0718000384
 20
124.7222015748
 10
139.4983234904
 20
124.1596047663
 10
140.9555217271
 20
123.5818405387
 10
142.4210085136
 20
122.9972500174
 10
143.8931461178
 20
122.4062001805
 10
145.3736079851
 20
121.8083660206
 10
146.8448158157
 20
121.2109212255
 10
148.3113960462
 20
120.6115540004
 10
149.7686362334
 20
120.0125177424
 10
151.184759328
 20
119.427675727
 10
152.5528492791
 20
118.8593966458
 10
153.8794829336
 20
118.3050387394
 10
155.1529697651
 20
117.7708206082
 10
156.3646130687
 20
117.2602281531
 10
157.5227337105
 20
116.7694651804
 10
158.6411823394
 20
116.2938385153
 10
159.7214582929
 20
115.8327412785
 10
160.7618317598
 20
115.3865887804
 10
161.7713827788
 20
114.9522826224
 10
162.7533849671
 20
114.5283838878
 10
163.7044075437
 20
114.1162000144
 10
164.623500417
 20
113.7167742803
 10
165.5109639452
 20
113.3298913668
 10
166.3663483758
 20
112.9556397975
 10
167.1875764916
 20
112.5955164284
 10
167.9745819598
 20
112.2494703182
 10
168.727290989
 20
111.9174319396
 10
169.4436119626
 20
111.6008670611
 10
170.1228035516
 20
111.3002258921
 10
170.7654788668
 20
111.0149467538
 10
171.3715794547
 20
110.7449785947
  0
LWPOLYLINE
  5
34F
100
AcDbEntity
  8
RACCORDO
100
AcDbPolyline
 62
7
  6
CONTINUOUS
 90
55
 70
0
 10
115.9581183905
 20
132.9254848392
 10
116.4851376851
 20
132.7379591806
 10
117.0471608781
 20
132.5374656895
 10
117.6442455564
 20
132.3238830551
 10
118.277349096
 20
132.0967612139
 10
118.9456417625
 20
131.8562812282
 10
119.6465015742
 20
131.6032660399
 10
120.3799947352
 20
131.3375720879
 10
121.1461936786
 20
131.0590500043
 10
121.9424793406
 20
130.7685256956
 10
122.7688065577
 20
130.4658905166
 10
123.6253613295
 20
130.1509481616
 10
124.5098629666
 20
129.8244091362
 10
125.4196215782
 20
129.487145484
 10
126.3574635407
 20
129.1379848492
 10
127.3293951439
 20
128.7745428848
 10
128.3326535503
 20
128.397693191
 10
129.3701811709
 20
128.0061636893
 10
130.456606355
 20
127.5942149766
 10
131.5948432243
 20
127.1604693841
 10
132.7823220599
 20
126.7056190642
 10
134.0255342564
 20
126.2268640346
 10
135.3354017293
 20
125.7196217538
 10
136.7014482757
 20
125.187556616
 10
138.0980004905
 20
124.6403802226
 10
139.5239690714
 20
124.0783204987
 10
140.9806183988
 20
123.5006804286
 10
142.4456111866
 20
122.9161897818
 10
143.9172830576
 20
122.3254714135
 10
145.3972833124
 20
121.7278245085
 10
146.8680855569
 20
121.1303436945
 10
148.3343013321
 20
120.531218826
 10
149.7911838946
 20
119.9324559234
 10
151.2069901676
 20
119.3472931015
 10
152.574823233
 20
118.7788956094
 10
153.9012266388
 20
118.2248519169
 10
155.1744962737
 20
117.6903641121
 10
156.3859649704
 20
117.1794275585
 10
157.5439666765
 20
116.6888675234
 10
158.6623156973
 20
116.2130987534
 10
159.7425140235
 20
115.7516967965
 10
160.7828513897
 20
115.3055964716
 10
161.7923890522
 20
114.8710923803
 10
162.7744024511
 20
114.4469206315
 10
163.7254708007
 20
114.0346995197
 10
164.6446343071
 20
113.634990005
 10
165.5321955241
 20
113.2478017747
 10
166.3877092789
 20
112.8734659329
 10
167.209091475
 20
112.5130302829
 10
167.9962787757
 20
112.1666549793
 10
168.749197481
 20
111.8345004765
 10
169.4657464737
 20
111.5176201371
 10
170.1451838838
 20
111.2164639952
 10
170.7881303026
 20
110.9308708076
 10
171.3945310568
 20
110.6609717277
  0
LWPOLYLINE
  5
350
100
AcDbEntity
  8
RACCORDO
100
AcDbPolyline
 62
7
  6
CONTINUOUS
 90
12
 70
0
 10
115.2024941634
 20
134.708593655
 10
119.6783883782
 20
133.1096120786
 10
124.3687325175
 20
131.3959217007
 10
129.0836962412
 20
129.6345789914
 10
133.8222318783
 20
127.8259914942
 10
138.5833746976
 20
125.970544577
 10
143.3661941063
 20
124.068611662
 10
148.1697206471
 20
122.1205812366
 10
152.9929546354
 20
120.1268548055
 10
157.8349210387
 20
118.0878234817
 10
162.6946002095
 20
116.0038979442
 10
167.570822168
 20
113.8755603198
  0
LWPOLYLINE
  5
351
100
AcDbEntity
  8
RACCORDO
100
AcDbPolyline
 62
7
  6
CONTINUOUS
 90
13
 70
0
 10
115.1755445199
 20
134.7571143396
 10
119.8154083958
 20
133.0988252711
 10
124.4781150792
 20
131.3939982597
 10
129.1635124477
 20
129.6427244784
 10
133.871993812
 20
127.844878698
 10
138.6028629747
 20
126.000770976
 10
143.3543103036
 20
124.1111274275
 10
148.126155952
 20
122.1760021249
 10
152.9182231669
 20
120.1954841623
 10
157.72866337
 20
118.1703164835
 10
162.5567171934
 20
116.1007736451
 10
167.4027377163
 20
113.9866812209
 10
172.2665235863
 20
111.8280900605
  0
LWPOLYLINE
  5
352
100
AcDbEntity
  8
RACCORDO
100
AcDbPolyline
 62
7
  6
CONTINUOUS
 90
10
 70
0
 10
114.2930773978
 20
134.160450132
 10
114.3082072468
 20
134.1550172364
 10
114.3247800464
 20
134.1512137822
 10
114.3422677328
 20
134.1491609508
 10
114.3601130916
 20
134.1489241427
 10
114.3777475245
 20
134.1505108939
 10
114.3946091652
 20
134.1538706407
 10
114.4101607646
 20
134.1588963295
 10
114.4239068099
 20
134.1654278242
 10
114.4354093238
 20
134.1732570115
  0
LWPOLYLINE
  5
353
100
AcDbEntity
  8
RACCORDO
100
AcDbPolyline
 62
7
  6
CONTINUOUS
 90
37
 70
0
 10
116.9610589905
 20
132.3232471741
 10
116.9541437424
 20
132.3257729478
 10
116.9470948676
 20
132.3279647176
 10
116.9399251023
 20
132.3298185232
 10
116.9326474014
 20
132.3313310152
 10
116.9252749146
 20
132.3324994606
 10
116.917820963
 20
132.3333217482
 10
116.9102990149
 20
132.3337963922
 10
116.9027226614
 20
132.3339225351
 10
116.8951055918
 20
132.3336999489
 10
116.8874615692
 20
132.3331290359
 10
116.8798044053
 20
132.3322108274
 10
116.8721479354
 20
132.3309469827
 10
116.8645059938
 20
132.3293397854
 10
116.8568923884
 20
132.3273921393
 10
116.8493208759
 20
132.3251075637
 10
116.841805137
 20
132.3224901865
 10
116.8343587516
 20
132.3195447368
 10
116.8269951743
 20
132.3162765367
 10
116.8197277099
 20
132.3126914914
 10
116.8125694899
 20
132.3087960786
 10
116.8055334482
 20
132.3045973367
 10
116.7986322978
 20
132.3001028522
 10
116.7918785082
 20
132.2953207462
 10
116.7852842826
 20
132.2902596591
 10
116.7788615358
 20
132.2849287357
 10
116.7726218728
 20
132.2793376082
 10
116.7665765678
 20
132.273496379
 10
116.7607365439
 20
132.2674156024
 10
116.7551123531
 20
132.2611062655
 10
116.7497141577
 20
132.2545797684
 10
116.7445517113
 20
132.2478479035
 10
116.7396343418
 20
132.2409228345
 10
116.7349709343
 20
132.2338170739
 10
116.7305699147
 20
132.2265434609
 10
116.7264392352
 20
132.2191151378
 10
116.7225863594
 20
132.2115455267
  0
LWPOLYLINE
  5
354
100
AcDbEntity
  8
RACCORDO
100
AcDbPolyline
 62
7
  6
CONTINUOUS
 90
24
 70
0
 10
171.6855907167
 20
110.1704129703
 10
171.678446317
 20
110.1731949927
 10
171.6715179465
 20
110.1761513114
 10
171.664818521
 20
110.1792764153
 10
171.6583605296
 20
110.1825644785
 10
171.6521560112
 20
110.1860093714
 10
171.6462165323
 20
110.1896046721
 10
171.6405531653
 20
110.1933436782
 10
171.6351764677
 20
110.1972194194
 10
171.6300964629
 20
110.2012246707
 10
171.625322621
 20
110.2053519654
 10
171.6208638413
 20
110.2095936094
 10
171.6167284359
 20
110.2139416955
 10
171.612924114
 20
110.2183881179
 10
171.6094579677
 20
110.2229245877
 10
171.6063364585
 20
110.227542648
 10
171.6035654055
 20
110.2322336898
 10
171.6011499745
 20
110.236988968
 10
171.5990946684
 20
110.241799618
 10
171.5974033186
 20
110.2466566716
 10
171.5960790782
 20
110.2515510744
 10
171.5951244159
 20
110.2564737022
 10
171.5945411112
 20
110.2614153782
 10
171.5943294502
 20
110.2666916456
  0
LINE
  5
355
100
AcDbEntity
  8
RACCORDO
100
AcDbLine
 62
7
  6
CONTINUOUS
 10
119.5750799737
 20
131.2838799855
 11
116.9610589906
 21
132.323247174
  0
LWPOLYLINE
  5
356
100
AcDbEntity
  8
RACCORDO
100
AcDbPolyline
 62
7
  6
CONTINUOUS
 90
13
 70
0
 10
116.9804267287
 20
132.3136777977
 10
121.6264776193
 20
130.4619667469
 10
126.2767770961
 20
128.6031560507
 10
130.917578327
 20
126.745022536
 10
135.548727306
 20
124.8886065158
 10
140.1705679333
 20
123.0343283467
 10
144.783988391
 20
121.1820663692
 10
149.3895291933
 20
119.331714741
 10
153.9866345514
 20
117.4833889221
 10
158.5745197696
 20
115.6371780019
 10
163.1528468825
 20
113.7926741653
 10
167.7216707096
 20
111.9489135432
 10
171.5791505304
 20
110.3877232511
  0
LWPOLYLINE
  5
357
100
AcDbEntity
  8
RACCORDO
100
AcDbPolyline
 62
7
  6
CONTINUOUS
 90
18
 70
0
 10
171.578499257
 20
110.3903485982
 10
169.624664223
 20
111.1828955571
 10
166.8924415487
 20
112.2887478523
 10
164.0534971196
 20
113.4357933073
 10
161.112413513
 20
114.6225516148
 10
158.0642847428
 20
115.8512404365
 10
154.8947773499
 20
117.1276425307
 10
151.5609654531
 20
118.469050764
 10
148.1057432061
 20
119.8582519911
 10
144.6435177741
 20
121.2492579588
 10
141.1684358051
 20
122.6444522868
 10
137.6864208225
 20
124.0413986541
 10
134.3294230239
 20
125.3871510312
 10
131.1457675233
 20
126.6623062568
 10
128.0871285428
 20
127.886213966
 10
125.140480048
 20
129.0640803119
 10
122.3016153734
 20
130.1973587494
 10
119.5750799737
 20
131.2838799855
  0
LWPOLYLINE
  5
358
100
AcDbEntity
  8
RACCORDO
100
AcDbPolyline
 62
7
  6
CONTINUOUS
 90
37
 70
0
 10
115.6157516897
 20
132.6893243885
 10
115.6227530157
 20
132.6864251686
 10
115.6299660056
 20
132.6837019981
 10
115.6373772132
 20
132.6811599534
 10
115.6449728224
 20
132.6788037735
 10
115.6527386736
 20
132.6766378507
 10
115.6606602896
 20
132.6746662228
 10
115.668722903
 20
132.6728925652
 10
115.6769114835
 20
132.6713201845
 10
115.685210766
 20
132.6699520118
 10
115.693605279
 20
132.6687905978
 10
115.7020793734
 20
132.6678381074
 10
115.7106172519
 20
132.6670963165
 10
115.7192029981
 20
132.6665666077
 10
115.7278206066
 20
132.6662499687
 10
115.7364540123
 20
132.6661469896
 10
115.745087121
 20
132.6662578625
 10
115.7537038388
 20
132.6665823807
 10
115.7622881024
 20
132.6671199392
 10
115.7708239091
 20
132.667869536
 10
115.7792953463
 20
132.6688297735
 10
115.7876866218
 20
132.6699988619
 10
115.7959820924
 20
132.6713746216
 10
115.8041662937
 20
132.6729544879
 10
115.8122239688
 20
132.6747355158
 10
115.8201400966
 20
132.676714385
 10
115.8278999198
 20
132.6788874065
 10
115.8354889725
 20
132.6812505294
 10
115.8428931073
 20
132.6837993483
 10
115.8500985214
 20
132.6865291117
 10
115.8570917824
 20
132.6894347309
 10
115.8638598535
 20
132.6925107892
 10
115.8703901176
 20
132.6957515522
 10
115.8766704011
 20
132.6991509785
 10
115.8826889962
 20
132.7027027308
 10
115.8884346831
 20
132.706400188
 10
115.8938967506
 20
132.7102364574
  0
LWPOLYLINE
  5
359
100
AcDbEntity
  8
RACCORDO
100
AcDbPolyline
 62
7
  6
CONTINUOUS
 90
4
 70
0
 10
116.9804267287
 20
132.3136777977
 10
116.9735003997
 20
132.3166618208
 10
116.9671934109
 20
132.3197929044
 10
116.9610588709
 20
132.3232470471
  0
LINE
  5
35A
100
AcDbEntity
  8
RACCORDO
100
AcDbLine
 62
7
  6
CONTINUOUS
 10
167.570822168
 20
113.8755603198
 11
172.2799848682
 21
111.7849748428
  0
LWPOLYLINE
  5
35B
100
AcDbEntity
  8
RACCORDO
100
AcDbPolyline
 62
7
  6
CONTINUOUS
 90
40
 70
0
 10
172.1380353359
 20
111.356007458
 10
170.643091063
 20
112.022377029
 10
169.1498062393
 20
112.684597845
 10
167.6581867077
 20
113.3426684641
 10
166.1682384777
 20
113.9965862953
 10
164.6799672162
 20
114.6463510244
 10
163.1933782497
 20
115.291964616
 10
161.7084665894
 20
115.9334306546
 10
160.2252489137
 20
116.5707426364
 10
158.743762927
 20
117.2038872809
 10
157.2640049484
 20
117.8328668803
 10
155.7859900849
 20
118.4576759732
 10
154.3097838684
 20
119.0782893429
 10
152.8354055987
 20
119.6946993349
 10
151.36284686
 20
120.3069099588
 10
149.8921313049
 20
120.9149132322
 10
148.4232611926
 20
121.5187087894
 10
146.9562450183
 20
122.1182932335
 10
145.4911156032
 20
122.7136538794
 10
144.0278729023
 20
123.3047909181
 10
142.5665274704
 20
123.8917001876
 10
141.1071277418
 20
124.4743622362
 10
139.6496840717
 20
125.0527728279
 10
138.1941962047
 20
125.626931892
 10
136.7406963686
 20
126.1968259878
 10
135.2891925251
 20
126.762451902
 10
133.8396865554
 20
127.3238083388
 10
132.3922013726
 20
127.88088458
 10
130.9467283061
 20
128.4336834793
 10
129.5032857201
 20
128.9821975628
 10
128.0619367564
 20
129.5264003668
 10
126.6226950723
 20
130.0662858002
 10
125.1855561112
 20
130.60185488
 10
123.7505553129
 20
131.1330915088
 10
122.3177074652
 20
131.6599895497
 10
120.8870065615
 20
132.1825498381
 10
119.458456708
 20
132.7007666304
 10
118.032062191
 20
133.2146362455
 10
116.6078274756
 20
133.7241570636
 10
115.1857569219
 20
134.2293264281
  0
LWPOLYLINE
  5
35C
100
AcDbEntity
  8
RACCORDO
100
AcDbPolyline
 62
7
  6
CONTINUOUS
 90
40
 70
0
 10
172.2574777747
 20
111.6088448437
 10
170.7622200839
 20
112.2753984781
 10
169.2685873054
 20
112.9378156686
 10
167.7766024919
 20
113.5960871878
 10
166.2863061473
 20
114.2501948672
 10
164.7977038607
 20
114.900138843
 10
163.310766262
 20
115.5459368454
 10
161.8255054264
 20
116.1875841909
 10
160.3419552454
 20
116.8250665775
 10
158.8601190159
 20
117.4583865426
 10
157.3800105323
 20
118.0875388036
 10
155.9016619265
 20
118.712509694
 10
154.4251039865
 20
119.3332891206
 10
152.9503737308
 20
119.9498623851
 10
151.4774800594
 20
120.562226103
 10
150.006411568
 20
121.1703869364
 10
148.5371881957
 20
121.7743369971
 10
147.0698358815
 20
122.3740656609
 10
145.6043522044
 20
122.9695748914
 10
144.1407549943
 20
123.5608576633
 10
142.6790722879
 20
124.1479023903
 10
141.219316971
 20
124.7307038974
 10
139.7615174909
 20
125.3092510855
 10
138.3056912668
 20
125.8835368236
 10
136.8518346462
 20
126.4535615872
 10
135.3999737631
 20
127.0193150854
 10
133.9501283615
 20
127.580789269
 10
132.5022852193
 20
128.1379873674
 10
131.0564540165
 20
128.6909053049
 10
129.6126709916
 20
129.2395283579
 10
128.1709627735
 20
129.7838435575
 10
126.7313617175
 20
130.3238386687
 10
125.2938813947
 20
130.859507984
 10
123.8585202735
 20
131.3908482572
 10
122.4253120097
 20
131.9178466601
 10
120.9942689144
 20
132.4404980824
 10
119.5653574966
 20
132.9588100467
 10
118.1385819716
 20
133.472778483
 10
116.7139842168
 20
133.9823884736
 10
115.2915872849
 20
134.4876307304
  0
LWPOLYLINE
  5
35D
100
AcDbEntity
  8
RACCORDO
100
AcDbPolyline
 62
7
  6
CONTINUOUS
 90
7
 70
0
 10
173.1963097224
 20
110.5035840881
 10
173.1822343493
 20
110.509880658
 10
173.1703349342
 20
110.5175122587
 10
173.1609906244
 20
110.5262357269
 10
173.1544991551
 20
110.5357731099
 10
173.1510673618
 20
110.545820521
 10
173.1505261037
 20
110.5517801612
  0
LWPOLYLINE
  5
35E
100
AcDbEntity
  8
RACCORDO
100
AcDbPolyline
 62
7
  6
CONTINUOUS
 90
23
 70
0
 10
114.5968862502
 20
133.8320963208
 10
114.5902817031
 20
133.8350932246
 10
114.5839029691
 20
133.8382469466
 10
114.5777613575
 20
133.8415518953
 10
114.5718677574
 20
133.845002211
 10
114.5662326182
 20
133.8485917763
 10
114.560865931
 20
133.8523142269
 10
114.555777211
 20
133.8561629629
 10
114.5509754805
 20
133.8601311604
 10
114.5464692529
 20
133.8642117839
 10
114.5422665178
 20
133.8683975984
 10
114.5383747266
 20
133.8726811825
 10
114.5348007795
 20
133.8770549413
 10
114.5315510132
 20
133.8815111201
 10
114.5286311894
 20
133.8860418182
 10
114.526046485
 20
133.8906390026
 10
114.5238014826
 20
133.8952945225
 10
114.5219001628
 20
133.9000001236
 10
114.5203458965
 20
133.904747463
 10
114.5191414394
 20
133.9095281235
 10
114.5182889271
 20
133.9143336291
 10
114.517789871
 20
133.9191554596
 10
114.5176436583
 20
133.9235411147
  0
LWPOLYLINE
  5
35F
100
AcDbEntity
  8
RACCORDO
100
AcDbPolyline
 62
7
  6
CONTINUOUS
 90
49
 70
0
 10
171.3715794547
 20
110.7449785947
 10
171.3787182522
 20
110.7417150147
 10
171.3859733225
 20
110.7381555584
 10
171.3933446674
 20
110.7343002278
 10
171.4008395071
 20
110.7301579826
 10
171.4084506258
 20
110.7257198668
 10
171.4161563719
 20
110.7209590081
 10
171.4239518753
 20
110.715879425
 10
171.4318420097
 20
110.710477102
 10
171.4398197389
 20
110.7047131146
 10
171.4478905422
 20
110.6985849117
 10
171.4560489438
 20
110.6920950474
 10
171.4642714739
 20
110.6852122547
 10
171.4725614945
 20
110.6779339439
 10
171.4809156463
 20
110.6702627071
 10
171.4893003767
 20
110.6621750484
 10
171.4977154875
 20
110.6536715211
 10
171.5061611782
 20
110.6447515731
 10
171.5146044913
 20
110.6353900494
 10
171.5230493212
 20
110.6255828314
 10
171.5314917734
 20
110.6153340378
 10
171.5398872062
 20
110.6046308685
 10
171.5482380286
 20
110.5934694446
 10
171.5565418297
 20
110.5818536435
 10
171.5647467353
 20
110.5697822983
 10
171.5728532776
 20
110.5572538394
 10
171.5808609205
 20
110.5442698329
 10
171.5887161853
 20
110.5308338138
 10
171.5964219152
 20
110.5169395747
 10
171.6039752612
 20
110.5025933179
 10
171.6113142052
 20
110.4878171916
 10
171.6184416618
 20
110.4726006296
 10
171.6253547087
 20
110.4569541915
 10
171.6319825703
 20
110.4409317119
 10
171.6383245922
 20
110.4245258005
 10
171.6443814198
 20
110.4077438396
 10
171.6500842251
 20
110.390661821
 10
171.6554300898
 20
110.373277118
 10
171.6604219228
 20
110.3555923488
 10
171.6649996357
 20
110.3376913718
 10
171.6691604435
 20
110.3195719785
 10
171.6729071225
 20
110.3012363696
 10
171.6761879261
 20
110.2827750164
 10
171.6790002321
 20
110.264186003
 10
171.6813466558
 20
110.2454712391
 10
171.6831833069
 20
110.2267269344
 10
171.6844955538
 20
110.2079851576
 10
171.685298024
 20
110.1892138365
 10
171.6855907167
 20
110.1704129703
  0
LWPOLYLINE
  5
360
100
AcDbEntity
  8
RACCORDO
100
AcDbPolyline
 62
7
  6
CONTINUOUS
 90
7
 70
0
 10
171.3945310569
 20
110.6609717277
 10
171.3981717534
 20
110.6592835541
 10
171.4019197238
 20
110.6574298288
 10
171.4057708494
 20
110.6554065451
 10
171.4097177701
 20
110.6532117004
 10
171.4137589254
 20
110.6508393929
 10
171.4174859671
 20
110.6485409731
  0
LINE
  5
361
100
AcDbEntity
  8
RACCORDO
100
AcDbLine
 62
7
  6
CONTINUOUS
 10
172.280012668
 20
111.7849623367
 11
172.3776102575
 21
111.7362224704
  0
LWPOLYLINE
  5
362
100
AcDbEntity
  8
RACCORDO
100
AcDbPolyline
 62
7
  6
CONTINUOUS
 90
3
 70
0
 10
172.2665235863
 20
111.8280900605
 10
172.348709507
 20
111.7868152452
 10
172.4264359818
 20
111.7429026838
  0
LWPOLYLINE
  5
363
100
AcDbEntity
  8
RACCORDO
100
AcDbPolyline
 62
7
  6
CONTINUOUS
 90
7
 70
0
 10
95.6600227317
 20
155.2225536144
 10
95.5992126005
 20
155.255529415
 10
95.5488427836
 20
155.293860599
 10
95.5103242707
 20
155.3364734102
 10
95.4847360657
 20
155.3821741529
 10
95.4727949608
 20
155.4296826302
 10
95.4719132106
 20
155.4467070576
  0
LWPOLYLINE
  5
364
100
AcDbEntity
  8
RACCORDO
100
AcDbPolyline
 62
7
  6
CONTINUOUS
 90
3
 70
0
 10
172.3776102575
 20
111.7362224704
 10
172.4736490408
 20
111.6780839631
 10
172.5670182106
 20
111.6111762603
  0
LINE
  5
365
100
AcDbEntity
  8
RACCORDO
100
AcDbLine
 62
7
  6
CONTINUOUS
 10
171.4391023434
 20
110.6328022659
 11
171.3945310568
 21
110.6609717277
  0
LWPOLYLINE
  5
366
100
AcDbEntity
  8
RACCORDO
100
AcDbPolyline
 62
7
  6
CONTINUOUS
 90
4
 70
0
 10
172.4264359818
 20
111.7429026838
 10
172.4997021663
 20
111.696351628
 10
172.5682852298
 20
111.646809046
 10
172.6324064366
 20
111.5946265813
  0
LWPOLYLINE
  5
367
100
AcDbEntity
  8
RACCORDO
100
AcDbPolyline
 62
7
  6
CONTINUOUS
 90
71
 70
0
 10
171.4174866608
 20
110.6485405206
 10
171.4209115895
 20
110.6463264397
 10
171.4242665241
 20
110.6440542393
 10
171.4277213616
 20
110.6416090883
 10
171.4312710685
 20
110.6389866397
 10
171.4348945072
 20
110.6361953155
 10
171.4385830728
 20
110.6332357701
 10
171.4423307344
 20
110.6301070985
 10
171.4461197815
 20
110.62681894
 10
171.4499416147
 20
110.6233744903
 10
171.4537902491
 20
110.6197753442
 10
171.4576519308
 20
110.6160311308
 10
171.4615191723
 20
110.6121465158
 10
171.4653861068
 20
110.6081251032
 10
171.4692422415
 20
110.6039760925
 10
171.4730815197
 20
110.599704844
 10
171.4768993183
 20
110.5953155892
 10
171.4806879856
 20
110.5908165595
 10
171.4844427179
 20
110.5862132911
 10
171.4881603518
 20
110.5815097054
 10
171.4918366129
 20
110.5767114528
 10
171.4954671737
 20
110.571824702
 10
171.4990498944
 20
110.5668529789
 10
171.5025842581
 20
110.5617975507
 10
171.5060670946
 20
110.5566635619
 10
171.5094967985
 20
110.5514541275
 10
171.5128751535
 20
110.5461670881
 10
171.5161998174
 20
110.5408064487
 10
171.5194690483
 20
110.5353753741
 10
171.5226852397
 20
110.5298700159
 10
171.5258463349
 20
110.5242938073
 10
171.5289506299
 20
110.5186497492
 10
171.5320006175
 20
110.5129329842
 10
171.5349944362
 20
110.5071462679
 10
171.537930302
 20
110.5012923459
 10
171.5408103821
 20
110.4953658844
 10
171.5436338108
 20
110.4893672043
 10
171.5463975389
 20
110.4833013455
 10
171.5491001812
 20
110.4771699456
 10
171.5517402768
 20
110.4709747477
 10
171.5543157351
 20
110.4647190974
 10
171.5568243281
 20
110.4584069709
 10
171.5592643849
 20
110.4520412184
 10
171.5616344418
 20
110.4456242827
 10
171.5639327062
 20
110.4391595946
 10
171.56615766
 20
110.4326499621
 10
171.5683079809
 20
110.4260977723
 10
171.5703822448
 20
110.4195058498
 10
171.5723791989
 20
110.4128766055
 10
171.574297468
 20
110.406212956
 10
171.5761355043
 20
110.3995185819
 10
171.5778921548
 20
110.3927958867
 10
171.5795661397
 20
110.3860478891
 10
171.5811558468
 20
110.3792792888
 10
171.5826602057
 20
110.3724928888
 10
171.5840781852
 20
110.3656914319
 10
171.5854083931
 20
110.3588796547
 10
171.5866498627
 20
110.3520605267
 10
171.5878016807
 20
110.3452369101
 10
171.5888626805
 20
110.3384135576
 10
171.5898320571
 20
110.3315934682
 10
171.5907090322
 20
110.3247796347
 10
171.5914926377
 20
110.3179769627
 10
171.5921821804
 20
110.3111886426
 10
171.5927769997
 20
110.3044178535
 10
171.5932763363
 20
110.2976697243
 10
171.593679668
 20
110.290947488
 10
171.5939864953
 20
110.2842544987
 10
171.5941962948
 20
110.2775963021
 10
171.5943087057
 20
110.2709773636
 10
171.594329416
 20
110.2666933531
  0
LWPOLYLINE
  5
368
100
AcDbEntity
  8
SUPERFICI
100
AcDbPolyline
 62
7
  6
CONTINUOUS
 90
3
 70
0
 10
169.6788444571
 20
77.0019098958
 10
169.6786549774
 20
77.0027109939
 10
169.6779222709
 20
77.0033181432
  0
LWPOLYLINE
  5
369
100
AcDbEntity
  8
RACCORDO
100
AcDbPolyline
 62
7
  6
CONTINUOUS
 90
22
 70
0
 10
172.138035336
 20
69.4434660992
 10
172.1386961203
 20
69.4363149015
 10
172.1395571777
 20
69.4293555986
 10
172.1406169112
 20
69.4226010978
 10
172.1418733552
 20
69.4160639264
 10
172.1433241796
 20
69.4097562089
 10
172.1449666935
 20
69.4036896439
 10
172.1467978505
 20
69.3978754831
 10
172.1488142545
 20
69.3923245097
 10
172.1510121657
 20
69.3870470191
 10
172.1533875077
 20
69.3820527994
 10
172.1559358749
 20
69.3773511131
 10
172.158652541
 20
69.3729506804
 10
172.1615324674
 20
69.3688596627
 10
172.1645703129
 20
69.3650856474
 10
172.1677604431
 20
69.3616356343
 10
172.1710969414
 20
69.3585160218
 10
172.1745736197
 20
69.355732596
 10
172.1781840299
 20
69.3532905191
 10
172.1819214758
 20
69.3511943205
 10
172.1857790257
 20
69.3494478879
 10
172.1900359279
 20
69.3479689036
  0
LWPOLYLINE
  5
36A
100
AcDbEntity
  8
RACCORDO
100
AcDbPolyline
 62
7
  6
CONTINUOUS
 90
19
 70
0
 10
171.3715794546
 20
70.6239656457
 10
171.3711339961
 20
70.6313854018
 10
171.3708963847
 20
70.6389741641
 10
171.3708670727
 20
70.6467174951
 10
171.3710461158
 20
70.6546006632
 10
171.3714331732
 20
70.6626086706
 10
171.3720275088
 20
70.6707262824
 10
171.3728279917
 20
70.6789380549
 10
171.3738330991
 20
70.6872283652
 10
171.3750409187
 20
70.6955814412
 10
171.3764491527
 20
70.7039813913
 10
171.378055122
 20
70.7124122346
 10
171.3798557711
 20
70.7208579316
 10
171.3818476745
 20
70.7293024145
 10
171.3840270424
 20
70.7377296177
 10
171.3863897288
 20
70.7461235086
 10
171.3889312386
 20
70.7544681179
 10
171.3916467366
 20
70.7627475702
 10
171.3945310566
 20
70.7709461139
  0
LINE
  5
36B
100
AcDbEntity
  8
RACCORDO
100
AcDbLine
 62
7
  6
CONTINUOUS
 10
173.191401767
 20
110.5890312686
 11
173.1963097224
 21
110.5035840881
  0
LWPOLYLINE
  5
36C
100
AcDbEntity
  8
RACCORDO
100
AcDbPolyline
 62
7
  6
CONTINUOUS
 90
10
 70
0
 10
172.2665240484
 20
69.0125645003
 10
172.266209402
 20
69.0279292453
 10
172.2675606937
 20
69.0442941292
 10
172.2705367149
 20
69.0611600951
 10
172.2750467107
 20
69.0780128054
 10
172.2809531459
 20
69.0943383269
 10
172.2880758992
 20
69.1096388037
 10
172.2961977579
 20
69.1234476388
 10
172.3050710415
 20
69.1353437232
 10
172.3144251539
 20
69.1449642784
  0
LWPOLYLINE
  5
36D
100
AcDbEntity
  8
RACCORDO
100
AcDbPolyline
 62
7
  6
CONTINUOUS
 90
58
 70
0
 10
173.0285518865
 20
110.5021217203
 10
173.0282164716
 20
110.5236306297
 10
173.0273092306
 20
110.5453405221
 10
173.0258309566
 20
110.5672366015
 10
173.0237829264
 20
110.5893037369
 10
173.0211665979
 20
110.6115270684
 10
173.017983544
 20
110.6338920374
 10
173.0142359121
 20
110.6563836814
 10
173.0099263997
 20
110.6789863497
 10
173.0050579197
 20
110.7016843198
 10
172.9996338309
 20
110.7244619351
 10
172.9936578934
 20
110.7473037435
 10
172.9871341773
 20
110.7701942306
 10
172.9800671142
 20
110.7931176522
 10
172.9724615535
 20
110.8160583552
 10
172.9643227086
 20
110.8390009138
 10
172.9556560344
 20
110.8619296023
 10
172.946467451
 20
110.8848286479
 10
172.936763375
 20
110.907682553
 10
172.9265503257
 20
110.9304755419
 10
172.9158352135
 20
110.9531919793
 10
172.9046255343
 20
110.9758166235
 10
172.8929287739
 20
110.9983338671
 10
172.8807528357
 20
111.0207281832
 10
172.8681063123
 20
111.042984541
 10
172.8549976632
 20
111.0650875067
 10
172.8414356967
 20
111.0870218473
 10
172.8274299747
 20
111.10877297
 10
172.8129898066
 20
111.130325817
 10
172.7981249127
 20
111.1516654278
 10
172.7828458937
 20
111.1727775392
 10
172.7671629541
 20
111.1936474275
 10
172.7510865856
 20
111.2142606383
 10
172.7346282157
 20
111.2346035418
 10
172.7177987782
 20
111.2546619652
 10
172.7006095621
 20
111.2744219131
 10
172.6830728889
 20
111.2938702941
 10
172.6652004381
 20
111.3129934833
 10
172.6470041576
 20
111.331778129
 10
172.6284971032
 20
111.3502118661
 10
172.6096915598
 20
111.3682817718
 10
172.5906001258
 20
111.3859751462
 10
172.5712366252
 20
111.4032803206
 10
172.551613984
 20
111.4201850617
 10
172.5317452735
 20
111.4366775081
 10
172.5116447937
 20
111.4527469496
 10
172.4913259075
 20
111.4683820162
 10
172.4708021915
 20
111.4835716433
 10
172.4500884806
 20
111.4983060096
 10
172.4291984484
 20
111.5125747006
 10
172.408146141
 20
111.5263674975
 10
172.3869471325
 20
111.5396753614
 10
172.3656158545
 20
111.5524886007
 10
172.3441662204
 20
111.5647982739
 10
172.322613154
 20
111.5765969433
 10
172.3009712156
 20
111.5878765462
 10
172.2792546028
 20
111.5986284501
 10
172.2574777747
 20
111.6088448437
  0
LWPOLYLINE
  5
36E
100
AcDbEntity
  8
RACCORDO
100
AcDbPolyline
 62
7
  6
CONTINUOUS
 90
58
 70
0
 10
172.7582355741
 20
110.4731872154
 10
172.7580042371
 20
110.4904352901
 10
172.7573134521
 20
110.5078200679
 10
172.7561632196
 20
110.5253415496
 10
172.75455212
 20
110.5430126063
 10
172.7524815761
 20
110.5608203697
 10
172.7499558536
 20
110.5787262317
 10
172.7469740222
 20
110.5967297316
 10
172.7435370182
 20
110.6148313357
 10
172.739651908
 20
110.6329938274
 10
172.7353177821
 20
110.6512172861
 10
172.7305355588
 20
110.6695016405
 10
172.7253150461
 20
110.6878094489
 10
172.7196553726
 20
110.7061407326
 10
172.7135574213
 20
110.7244954805
 10
172.7070336321
 20
110.7428362039
 10
172.7000831298
 20
110.7611629262
 10
172.6927068035
 20
110.7794756363
 10
172.6849197398
 20
110.797736793
 10
172.6767211166
 20
110.8159462812
 10
172.6681117719
 20
110.8341042303
 10
172.659109282
 20
110.8521734654
 10
172.6497128378
 20
110.8701538429
 10
172.6399232661
 20
110.8880455221
 10
172.6297605961
 20
110.9058117828
 10
172.6192240867
 20
110.9234523573
 10
172.6083144979
 20
110.9409675299
 10
172.5970541104
 20
110.9583214077
 10
172.5854421957
 20
110.9755137014
 10
172.5734795019
 20
110.9925447176
 10
172.5611905239
 20
111.009379457
 10
172.5485746185
 20
111.026017507
 10
172.5356324486
 20
111.0424592978
 10
172.5223904665
 20
111.0586710928
 10
172.5088480455
 20
111.0746524577
 10
172.4950058317
 20
111.0904038443
 10
172.4808921851
 20
111.1058928439
 10
172.4665065579
 20
111.121118926
 10
172.4518495166
 20
111.1360826378
 10
172.4369510903
 20
111.1507531861
 10
172.4218107601
 20
111.1651300039
 10
172.4064290626
 20
111.1792136738
 10
172.3908376079
 20
111.1929751256
 10
172.3750359991
 20
111.2064136785
 10
172.3590246492
 20
111.2195300274
 10
172.3428363813
 20
111.2322971639
 10
172.3264708151
 20
111.2447143976
 10
172.3099283448
 20
111.2567824311
 10
172.293242953
 20
111.2684763431
 10
172.2764142923
 20
111.2797953915
 10
172.2594427217
 20
111.2907403287
 10
172.2423632802
 20
111.3012884717
 10
172.2251749199
 20
111.3114393734
 10
172.2078786976
 20
111.321193489
 10
172.1905128065
 20
111.3305294864
 10
172.1730899786
 20
111.339440256
 10
172.1555974875
 20
111.3479329123
 10
172.1380353359
 20
111.356007458
  0
LINE
  5
36F
100
AcDbEntity
  8
SUPERFICI
100
AcDbLine
 62
7
  6
CONTINUOUS
 10
169.6484540861
 20
76.9705493047
 11
169.6484540861
 21
76.4861418399
  0
LINE
  5
370
100
AcDbEntity
  8
SUPERFICI
100
AcDbLine
 62
7
  6
CONTINUOUS
 10
169.6788444669
 20
77.0014374223
 11
169.6788444669
 21
76.5181242486
  0
LINE
  5
371
100
AcDbEntity
  8
RACCORDO
100
AcDbLine
 62
7
  6
CONTINUOUS
 10
171.6855907167
 20
110.1704129703
 11
171.6855907167
 21
70.9650782969
  0
LINE
  5
372
100
AcDbEntity
  8
RACCORDO
100
AcDbLine
 62
7
  6
CONTINUOUS
 10
172.7582355741
 20
69.8663598847
 11
172.7582355741
 21
110.4731872154
  0
LINE
  5
373
100
AcDbEntity
  8
RACCORDO
100
AcDbLine
 62
7
  6
CONTINUOUS
 10
173.0285518865
 20
69.8952943895
 11
173.0285518865
 21
110.5021217203
  0
LINE
  5
374
100
AcDbEntity
  8
RACCORDO
100
AcDbLine
 62
7
  6
CONTINUOUS
 10
173.1505261037
 20
110.5517801609
 11
173.1505261037
 21
69.6961858335
  0
LINE
  5
375
100
AcDbEntity
  8
RACCORDO
100
AcDbLine
 62
7
  6
CONTINUOUS
 10
173.1963097224
 20
110.5035840881
 11
173.1963097224
 21
69.6479897651
  0
LWPOLYLINE
  5
376
100
AcDbEntity
  8
RACCORDO
100
AcDbPolyline
 62
7
  6
CONTINUOUS
 90
15
 70
0
 10
171.5943294502
 20
110.2666916456
 10
171.5943221114
 20
71.0588177952
 10
171.594090024
 20
71.0469624161
 10
171.5935494117
 20
71.0355946214
 10
171.5927236177
 20
71.0247189773
 10
171.5916360001
 20
71.0143405153
 10
171.5903103513
 20
71.0044672816
 10
171.5887698645
 20
70.9951017598
 10
171.587038307
 20
70.9862474623
 10
171.5851416218
 20
70.977914444
 10
171.5831042793
 20
70.9701032114
 10
171.5809511273
 20
70.9628129496
 10
171.5787107723
 20
70.9560507331
 10
171.5764106367
 20
70.9498163305
 10
171.575441766
 20
70.9473753334
  0
LWPOLYLINE
  5
377
100
AcDbEntity
  8
RACCORDO
100
AcDbPolyline
 62
7
  6
CONTINUOUS
 90
49
 70
0
 10
171.6855907167
 20
70.9650782969
 10
171.6853009296
 20
70.946541986
 10
171.6845015677
 20
70.9284026104
 10
171.6831926321
 20
70.9106601708
 10
171.6813601811
 20
70.8932919825
 10
171.6790181603
 20
70.8763207338
 10
171.6762084018
 20
70.8598144864
 10
171.6729279159
 20
70.8437773337
 10
171.6691796993
 20
70.8282051885
 10
171.6650145637
 20
70.8131538407
 10
171.6604289516
 20
70.7986269358
 10
171.6554264295
 20
70.7846208362
 10
171.6500684949
 20
70.7711804078
 10
171.6443518918
 20
70.7583114175
 10
171.6382798858
 20
70.746008107
 10
171.6319237551
 20
70.7342980524
 10
171.6252838168
 20
70.7231910002
 10
171.6183597628
 20
70.7126772121
 10
171.6112219312
 20
70.7027550356
 10
171.6038732556
 20
70.6934323426
 10
171.5963108099
 20
70.6847012679
 10
171.5885961402
 20
70.6765365514
 10
171.5807307831
 20
70.6689412909
 10
171.5727132078
 20
70.6619123938
 10
171.5646003575
 20
70.6554153126
 10
171.5563939875
 20
70.6494524485
 10
171.5480923462
 20
70.6440214037
 10
171.5397471139
 20
70.6390804299
 10
171.5313622736
 20
70.6346317787
 10
171.5229338439
 20
70.6306732
 10
171.5145015569
 20
70.6271561913
 10
171.5060663576
 20
70.6240806976
 10
171.4976273011
 20
70.6214467741
 10
171.4892212829
 20
70.6192060812
 10
171.4808490441
 20
70.6173588936
 10
171.4725098422
 20
70.6159049356
 10
171.4642383466
 20
70.6147950405
 10
171.4560391088
 20
70.6140292893
 10
171.4479075744
 20
70.6136075986
 10
171.4398647527
 20
70.6134805539
 10
171.431916469
 20
70.6136461927
 10
171.4240568945
 20
70.6141064744
 10
171.4162895566
 20
70.614817867
 10
171.4086174822
 20
70.6157772204
 10
171.4010376409
 20
70.6169876817
 10
171.3935444747
 20
70.6184151647
 10
171.3861361299
 20
70.6200483066
 10
171.3788144571
 20
70.6218984673
 10
171.3715794547
 20
70.6239656457
  0
LWPOLYLINE
  5
378
100
AcDbEntity
  8
RACCORDO
100
AcDbPolyline
 62
7
  6
CONTINUOUS
 90
6
 70
0
 10
172.2665236603
 20
111.8280901261
 10
172.266209058
 20
111.8150417919
 10
172.2675603994
 20
111.8038600221
 10
172.2705364743
 20
111.7948858131
 10
172.275046525
 20
111.7883928401
 10
172.2799848321
 20
111.7849747629
  0
LWPOLYLINE
  5
379
100
AcDbEntity
  8
RACCORDO
100
AcDbPolyline
 62
7
  6
CONTINUOUS
 90
3
 70
0
 10
173.1505253928
 20
69.6961457677
 10
173.147111726
 20
69.6210847285
 10
173.1346636407
 20
69.5385662112
  0
LINE
  5
37A
100
AcDbEntity
  8
RACCORDO
100
AcDbLine
 62
7
  6
CONTINUOUS
 10
173.1963097224
 20
69.6479897651
 11
173.1916986092
 21
69.5689050019
  0
LWPOLYLINE
  5
37B
100
AcDbEntity
  8
RACCORDO
100
AcDbPolyline
 62
7
  6
CONTINUOUS
 90
19
 70
0
 10
171.3715794548
 20
110.7449785947
 10
171.3711339961
 20
110.7381502623
 10
171.3708963848
 20
110.7315180429
 10
171.3708670727
 20
110.7250945541
 10
171.3710461157
 20
110.7188920166
 10
171.3714331732
 20
110.7129222307
 10
171.3720275087
 20
110.7071965537
 10
171.3728279917
 20
110.7017258787
 10
171.373833099
 20
110.6965206135
 10
171.3750409186
 20
110.6915906612
 10
171.3764491526
 20
110.6869454009
 10
171.3780551219
 20
110.6825936701
 10
171.3798557711
 20
110.678543748
 10
171.3818476744
 20
110.6748033394
 10
171.3840270424
 20
110.6713795605
 10
171.3863897288
 20
110.668278925
 10
171.3889312386
 20
110.6655073317
 10
171.3916467367
 20
110.6630700536
 10
171.3945310567
 20
110.6609717275
  0
LWPOLYLINE
  5
37C
100
AcDbEntity
  8
RACCORDO
100
AcDbPolyline
 62
7
  6
CONTINUOUS
 90
37
 70
0
 10
172.1380353362
 20
111.3560074582
 10
172.1386961187
 20
111.3629216297
 10
172.1395571745
 20
111.3700016092
 10
172.1406169064
 20
111.3772342656
 10
172.141873349
 20
111.3846061846
 10
172.1433241721
 20
111.3921036939
 10
172.1449666848
 20
111.3997128877
 10
172.1467978408
 20
111.4074196537
 10
172.1488142439
 20
111.4152096981
 10
172.1510121544
 20
111.423068573
 10
172.1533874957
 20
111.4309817027
 10
172.1559358624
 20
111.4389344109
 10
172.1586525281
 20
111.4469119478
 10
172.1615324543
 20
111.4548995176
 10
172.1645702996
 20
111.4628823061
 10
172.1677604297
 20
111.4708455077
 10
172.1710969282
 20
111.4787743533
 10
172.1745736067
 20
111.4866541373
 10
172.1781840172
 20
111.4944702453
 10
172.1819214635
 20
111.5022081809
 10
172.1857790139
 20
111.5098535928
 10
172.1897495138
 20
111.5173923012
 10
172.1938255993
 20
111.5248103241
 10
172.1979997105
 20
111.5320939037
 10
172.2022641058
 20
111.539229531
 10
172.2066108762
 20
111.546203972
 10
172.2110319596
 20
111.5530042911
 10
172.2155191565
 20
111.559617876
 10
172.2200641446
 20
111.5660324607
 10
172.2246584943
 20
111.5722361482
 10
172.2292936847
 20
111.5782174325
 10
172.2339611189
 20
111.5839652203
 10
172.2386521403
 20
111.5894688514
 10
172.2433580486
 20
111.5947181183
 10
172.2480701159
 20
111.5997032853
 10
172.2527796028
 20
111.6044151064
 10
172.2574777747
 20
111.6088448428
  0
LINE
  5
37D
100
AcDbEntity
  8
SUPERFICI
100
AcDbLine
 62
7
  6
CONTINUOUS
 10
163.5321853887
 20
77.7804450787
 11
163.5762848398
 21
77.8795497774
  0
LINE
  5
37E
100
AcDbEntity
  8
SUPERFICI
100
AcDbLine
 62
7
  6
CONTINUOUS
 10
163.7837720388
 20
77.9362597482
 11
163.863073058
 21
78.1144729326
  0
LINE
  5
37F
100
AcDbEntity
  8
SUPERFICI
100
AcDbLine
 62
7
  6
CONTINUOUS
 10
164.070560257
 20
78.1711829034
 11
164.1498612761
 21
78.3493960878
  0
LINE
  5
380
100
AcDbEntity
  8
SUPERFICI
100
AcDbLine
 62
7
  6
CONTINUOUS
 10
164.3573484752
 20
78.4061060586
 11
164.4366494943
 21
78.584319243
  0
LINE
  5
381
100
AcDbEntity
  8
SUPERFICI
100
AcDbLine
 62
7
  6
CONTINUOUS
 10
164.6441366933
 20
78.6410292138
 11
164.7234377125
 21
78.8192423982
  0
LINE
  5
382
100
AcDbEntity
  8
SMUSSO
100
AcDbLine
 62
7
  6
CONTINUOUS
 10
196.4574403685
 20
119.3674253937
 11
196.9223202892
 21
119.8292666406
  0
LWPOLYLINE
  5
383
100
AcDbEntity
  8
SUPERFICI
100
AcDbPolyline
 62
7
  6
CONTINUOUS
 90
7
 70
0
 10
150.4844615427
 20
83.2111910646
 10
150.4884467702
 20
83.2146131933
 10
150.4998394792
 20
83.2260283134
 10
150.5098700169
 20
83.238713404
 10
150.5184555126
 20
83.2525889954
 10
150.5256788369
 20
83.2677345571
 10
150.5315399898
 20
83.2841500893
  0
LINE
  5
384
100
AcDbEntity
  8
0
100
AcDbLine
 62
7
  6
CONTINUOUS
 10
151.2175330896
 20
83.8884152274
 11
150.2888234948
 21
83.0992777799
  0
LINE
  5
385
100
AcDbEntity
  8
SUPERFICI
100
AcDbLine
 62
7
  6
CONTINUOUS
 10
150.484519873
 20
83.2112126768
 11
150.328948274
 21
83.083162764
  0
LINE
  5
386
100
AcDbEntity
  8
0
100
AcDbLine
 62
7
  6
CONTINUOUS
 10
150.5315399898
 20
83.2841500893
 11
150.3009289128
 21
83.0944159712
  0
LINE
  5
387
100
AcDbEntity
  8
0
100
AcDbLine
 62
7
  6
CONTINUOUS
 10
147.134100969
 20
80.7630972883
 11
147.0612530278
 21
80.7034237483
  0
LINE
  5
388
100
AcDbEntity
  8
0
100
AcDbLine
 62
7
  6
CONTINUOUS
 10
146.7925897751
 20
79.9022170909
 11
146.7197422997
 21
79.8425439325
  0
LINE
  5
389
100
AcDbEntity
  8
RACCORDO
100
AcDbLine
 62
7
  6
CONTINUOUS
 10
193.8605825032
 20
116.1324106214
 11
196.6943833325
 21
118.4537243639
  0
LWPOLYLINE
  5
38A
100
AcDbEntity
  8
0
100
AcDbPolyline
 62
7
  6
CONTINUOUS
 90
20
 70
0
 10
147.3602838528
 20
80.8377398137
 10
147.3439948096
 20
80.8247864094
 10
147.3283900336
 20
80.8131078251
 10
147.3126237813
 20
80.8020040126
 10
147.2967892686
 20
80.7914952027
 10
147.2809015688
 20
80.7815928345
 10
147.2649456281
 20
80.7722855381
 10
147.2489694776
 20
80.7635593491
 10
147.2329741758
 20
80.7554132983
 10
147.2169586905
 20
80.7478484439
 10
147.2009679199
 20
80.7408538704
 10
147.1849898904
 20
80.734426006
 10
147.1690366072
 20
80.7285685264
 10
147.1531889401
 20
80.7232813969
 10
147.1374453643
 20
80.7185689235
 10
147.1218074423
 20
80.7144269202
 10
147.1063606788
 20
80.710842621
 10
147.0911335893
 20
80.7078118133
 10
147.0760976989
 20
80.7053388351
 10
147.0612530278
 20
80.7034237483
  0
LWPOLYLINE
  5
38B
100
AcDbEntity
  8
0
100
AcDbPolyline
 62
7
  6
CONTINUOUS
 90
3
 70
0
 10
147.3958228496
 20
80.8689687213
 10
147.385509037
 20
80.861704038
 10
147.3696719962
 20
80.8511922888
  0
LINE
  5
38C
100
AcDbEntity
  8
0
100
AcDbLine
 62
7
  6
CONTINUOUS
 10
147.3696719962
 20
80.8511922888
 11
147.3537816573
 21
80.8412871313
  0
LWPOLYLINE
  5
38D
100
AcDbEntity
  8
0
100
AcDbPolyline
 62
7
  6
CONTINUOUS
 90
15
 70
0
 10
147.3537816573
 20
80.8412871313
 10
147.3378229766
 20
80.8319771903
 10
147.3218440904
 20
80.8232485447
 10
147.3058460766
 20
80.8151002415
 10
147.2898278834
 20
80.8075333213
 10
147.2738344561
 20
80.8005368618
 10
147.2578538106
 20
80.7941072904
 10
147.2418979624
 20
80.7882482822
 10
147.2260478594
 20
80.7829597952
 10
147.2103019744
 20
80.7782461428
 10
147.1946618725
 20
80.7741031307
 10
147.1792131434
 20
80.7705179624
 10
147.1639843311
 20
80.767486415
 10
147.1489469329
 20
80.7650128363
 10
147.134100969
 20
80.7630972883
  0
LINE
  5
38E
100
AcDbEntity
  8
RACCORDO
100
AcDbLine
 62
7
  6
CONTINUOUS
 10
114.8787814757
 20
134.8121622921
 11
114.9462902282
 21
134.8087075546
  0
LWPOLYLINE
  5
38F
100
AcDbEntity
  8
RACCORDO
100
AcDbPolyline
 62
7
  6
CONTINUOUS
 90
9
 70
0
 10
116.977087167
 20
132.314667272
 10
116.9770252155
 20
132.3146705202
 10
116.9768783649
 20
132.3146806322
 10
116.9770275067
 20
132.3146601413
 10
116.9774695966
 20
132.31458067
 10
116.9781702087
 20
132.3144184145
 10
116.9790360399
 20
132.3141706946
 10
116.9800178603
 20
132.3138344641
 10
116.9804263072
 20
132.3136779683
  0
LWPOLYLINE
  5
390
100
AcDbEntity
  8
RACCORDO
100
AcDbPolyline
 62
7
  6
CONTINUOUS
 90
4
 70
0
 10
114.9462902282
 20
134.8087075546
 10
115.0182935261
 20
134.7980790357
 10
115.0947112871
 20
134.7808810422
 10
115.1755445199
 20
134.7571143396
  0
LWPOLYLINE
  5
391
100
AcDbEntity
  8
RACCORDO
100
AcDbPolyline
 62
7
  6
CONTINUOUS
 90
10
 70
0
 10
193.1904478048
 20
116.0521361331
 10
193.2652703762
 20
116.0306387644
 10
193.3452959154
 20
116.0166001981
 10
193.4282827077
 20
116.0104136988
 10
193.511906085
 20
116.0122525751
 10
193.5938235363
 20
116.0220653245
 10
193.6717403291
 20
116.0395770729
 10
193.7434738033
 20
116.0642972751
 10
193.8070145117
 20
116.0955334591
 10
193.8605825032
 20
116.1324106213
  0
LWPOLYLINE
  5
392
100
AcDbEntity
  8
RACCORDO
100
AcDbPolyline
 62
7
  6
CONTINUOUS
 90
13
 70
0
 10
191.9077076178
 20
117.7308948425
 10
183.6837597034
 20
120.6544224788
 10
175.5113523612
 20
123.6261321398
 10
167.3913489263
 20
126.6457295234
 10
159.3243457053
 20
129.7130159355
 10
151.3114615069
 20
132.8275891882
 10
143.3543195204
 20
135.9888283684
 10
135.4537462049
 20
139.1964051269
 10
127.6105613403
 20
142.4499866276
 10
119.8263361403
 20
145.7489108591
 10
112.1021117918
 20
149.0927125406
 10
104.4384181799
 20
152.4811380752
 10
96.8360327567
 20
155.9138228075
  0
LWPOLYLINE
  5
393
100
AcDbEntity
  8
RACCORDO
100
AcDbPolyline
 62
7
  6
CONTINUOUS
 90
13
 70
0
 10
192.1689414204
 20
118.3850034588
 10
183.9479299902
 20
121.3074769724
 10
175.7801354245
 20
124.2775155358
 10
167.6655577235
 20
127.2951191491
 10
159.6030921385
 20
130.3607070473
 10
151.5938434181
 20
133.4738599953
 10
143.6411258083
 20
136.6333202886
 10
135.7449810091
 20
139.839120016
 10
127.9053673205
 20
143.0912270887
 10
120.1254738889
 20
146.3882875352
 10
112.4063637632
 20
149.7298500317
 10
104.7469738945
 20
153.1163659019
 10
97.1473042829
 20
156.5478351459
  0
LWPOLYLINE
  5
394
100
AcDbEntity
  8
RACCORDO
100
AcDbPolyline
 62
7
  6
CONTINUOUS
 90
15
 70
0
 10
97.1473042829
 20
156.5478351459
 10
97.0639281048
 20
156.5824651162
 10
96.9759164876
 20
156.6140501464
 10
96.883620231
 20
156.6416349757
 10
96.7869201402
 20
156.6643409726
 10
96.6869731646
 20
156.6808815165
 10
96.5861170196
 20
156.6900087162
 10
96.4850208151
 20
156.6910120873
 10
96.3844436631
 20
156.6831942441
 10
96.2866923716
 20
156.6661810331
 10
96.192467659
 20
156.6398004564
 10
96.1023888495
 20
156.603920753
 10
96.0182353233
 20
156.5591276543
 10
95.9404709847
 20
156.5058302055
 10
95.9232615215
 20
156.4921988297
  0
LWPOLYLINE
  5
395
100
AcDbEntity
  8
RACCORDO
100
AcDbPolyline
 62
7
  6
CONTINUOUS
 90
25
 70
0
 10
96.8360327567
 20
155.9138228075
 10
96.773588664
 20
155.9416503101
 10
96.708354932
 20
155.9657173434
 10
96.6403321463
 20
155.9860243289
 10
96.5686430481
 20
156.0033240696
 10
96.4941662827
 20
156.0168647601
 10
96.4195357032
 20
156.0243894858
 10
96.3447249674
 20
156.0254598061
 10
96.2697605
 20
156.0205142192
 10
96.197354028
 20
156.0086102989
 10
96.1277188561
 20
155.9892400411
 10
96.0606404819
 20
155.9629105862
 10
95.9981878588
 20
155.9302014597
 10
95.9407268605
 20
155.8907400874
 10
95.8878897824
 20
155.8448977254
 10
95.8406447041
 20
155.7943692808
 10
95.7993146391
 20
155.7388397543
 10
95.7635749481
 20
155.6786229759
 10
95.7334222185
 20
155.6163570871
 10
95.7092172384
 20
155.5522707719
 10
95.6905982198
 20
155.4861346275
 10
95.6764781025
 20
155.4198998211
 10
95.6664944443
 20
155.3542166778
 10
95.6610093472
 20
155.288434628
 10
95.6600227317
 20
155.2225536144
  0
LWPOLYLINE
  5
396
100
AcDbEntity
  8
RACCORDO
100
AcDbPolyline
 62
7
  6
CONTINUOUS
 90
10
 70
0
 10
172.5670182106
 20
111.6111762603
 10
172.6566630799
 20
111.5362107918
 10
172.7414826703
 20
111.4540611205
 10
172.8204329259
 20
111.3656944249
 10
172.8926268999
 20
111.2721048847
 10
172.9571947725
 20
111.1744045302
 10
173.0133774243
 20
111.0737727167
 10
173.0605390872
 20
110.9713819131
 10
173.0981509307
 20
110.8685235437
 10
173.1257943712
 20
110.766470802
  0
LWPOLYLINE
  5
397
100
AcDbEntity
  8
RACCORDO
100
AcDbPolyline
 62
7
  6
CONTINUOUS
 90
13
 70
0
 10
172.6324064366
 20
111.5946265813
 10
172.6927312607
 20
111.5408606557
 10
172.7492272678
 20
111.4858747751
 10
172.8019258102
 20
111.4293044741
 10
172.8515882966
 20
111.3711144435
 10
172.8983760832
 20
111.3114905877
 10
172.9421271147
 20
111.2502463819
 10
172.9831178426
 20
111.1867880158
 10
173.0216425262
 20
111.121108602
 10
173.0574063921
 20
111.0532145713
 10
173.0898023484
 20
110.9825320948
 10
173.1192172655
 20
110.9086895796
 10
173.1452637871
 20
110.8320581868
  0
LWPOLYLINE
  5
398
100
AcDbEntity
  8
RACCORDO
100
AcDbPolyline
 62
7
  6
CONTINUOUS
 90
4
 70
0
 10
173.1452637871
 20
110.8320581868
 10
173.1661733604
 20
110.75317811
 10
173.1813562713
 20
110.6722292388
 10
173.191401767
 20
110.5890312686
  0
LWPOLYLINE
  5
399
100
AcDbEntity
  8
RACCORDO
100
AcDbPolyline
 62
7
  6
CONTINUOUS
 90
4
 70
0
 10
173.1257943712
 20
110.766470802
 10
173.1432335323
 20
110.6664392689
 10
173.1503130965
 20
110.5696794009
 10
173.1504905921
 20
110.5518630443
  0
LWPOLYLINE
  5
39A
100
AcDbEntity
  8
RACCORDO
100
AcDbPolyline
 62
7
  6
CONTINUOUS
 90
4
 70
0
 10
173.1916986092
 20
69.5689050019
 10
173.1823344235
 20
69.4955949559
 10
173.1682172731
 20
69.4280597231
 10
173.1488829929
 20
69.366654227
  0
LWPOLYLINE
  5
39B
100
AcDbEntity
  8
RACCORDO
100
AcDbPolyline
 62
7
  6
CONTINUOUS
 90
4
 70
0
 10
173.1346636407
 20
69.5385662112
 10
173.1131801621
 20
69.4613602703
 10
173.0827889572
 20
69.3902688097
 10
173.0437103332
 20
69.3260595224
  0
LINE
  5
39C
100
AcDbEntity
  8
SUPERFICI
100
AcDbLine
 62
7
  6
CONTINUOUS
 10
168.9624609863
 20
75.8818767018
 11
168.9710743396
 21
75.9105628568
  0
LINE
  5
39D
100
AcDbEntity
  8
RACCORDO
100
AcDbLine
 62
7
  6
CONTINUOUS
 10
171.5943294502
 20
71.266575369
 11
171.3945310568
 21
70.7709461138
  0
LWPOLYLINE
  5
39E
100
AcDbEntity
  8
RACCORDO
100
AcDbPolyline
 62
7
  6
CONTINUOUS
 90
38
 70
0
 10
171.5754392846
 20
70.9473695674
 10
171.5735632903
 20
70.942788611
 10
171.5682943276
 20
70.93040926
 10
171.5629260939
 20
70.9184860513
 10
171.5574855953
 20
70.9070591643
 10
171.5519858195
 20
70.8961334189
 10
171.5464329673
 20
70.8856976968
 10
171.5408460754
 20
70.8757672624
 10
171.5352390408
 20
70.8663455332
 10
171.5296189035
 20
70.8574216887
 10
171.523995206
 20
70.8489892086
 10
171.5183794663
 20
70.8410471989
 10
171.5127807609
 20
70.8335889347
 10
171.5072049839
 20
70.8265990534
 10
171.5016631494
 20
70.8200761141
 10
171.4961641722
 20
70.8140138841
 10
171.4907107066
 20
70.8083897677
 10
171.4853141884
 20
70.8032027181
 10
171.4799821375
 20
70.7984462113
 10
171.4747108787
 20
70.7940895639
 10
171.4695086909
 20
70.7901295949
 10
171.4643843345
 20
70.7865624872
 10
171.4593342598
 20
70.7833568067
 10
171.4543660405
 20
70.7805097974
 10
171.4494875742
 20
70.7780176651
 10
171.4446954696
 20
70.7758475009
 10
171.4399986243
 20
70.7739971777
 10
171.435402268
 20
70.7724626369
 10
171.4308970298
 20
70.77120824
 10
171.426490922
 20
70.7702307314
 10
171.4221881334
 20
70.7695278739
 10
171.4179725747
 20
70.7690660005
 10
171.4138492139
 20
70.7688409501
 10
171.4098229385
 20
70.7688523694
 10
171.4058763293
 20
70.7690728973
 10
171.4020059789
 20
70.7694923218
 10
171.398223001
 20
70.7701173004
 10
171.3945310569
 20
70.7709461138
  0
LINE
  5
39F
100
AcDbEntity
  8
SUPERFICI
100
AcDbLine
 62
7
  6
CONTINUOUS
 10
168.0375216323
 20
75.9710004729
 11
168.0816210834
 21
76.0701051715
  0
LINE
  5
3A0
100
AcDbEntity
  8
SUPERFICI
100
AcDbLine
 62
7
  6
CONTINUOUS
 10
168.2823728361
 20
76.1116785735
 11
168.3684093015
 21
76.3050283267
  0
LINE
  5
3A1
100
AcDbEntity
  8
SUPERFICI
100
AcDbLine
 62
7
  6
CONTINUOUS
 10
168.5691610543
 20
76.3466017287
 11
168.6551975197
 21
76.5399514819
  0
LINE
  5
3A2
100
AcDbEntity
  8
SUPERFICI
100
AcDbLine
 62
7
  6
CONTINUOUS
 10
168.8559492724
 20
76.5815248839
 11
168.9419857379
 21
76.7748746371
  0
LINE
  5
3A3
100
AcDbEntity
  8
SUPERFICI
100
AcDbLine
 62
7
  6
CONTINUOUS
 10
169.1427374906
 20
76.8164480391
 11
169.2287739561
 21
77.0097977923
  0
LINE
  5
3A4
100
AcDbEntity
  8
SUPERFICI
100
AcDbLine
 62
7
  6
CONTINUOUS
 10
163.5762848398
 20
77.8795497774
 11
163.6910001271
 21
77.9735190395
  0
LINE
  5
3A5
100
AcDbEntity
  8
SUPERFICI
100
AcDbLine
 62
7
  6
CONTINUOUS
 10
163.863073058
 20
78.1144729326
 11
163.9777883452
 21
78.2084421947
  0
LINE
  5
3A6
100
AcDbEntity
  8
SUPERFICI
100
AcDbLine
 62
7
  6
CONTINUOUS
 10
164.1498612761
 20
78.3493960878
 11
164.2645765634
 21
78.4433653499
  0
LINE
  5
3A7
100
AcDbEntity
  8
SUPERFICI
100
AcDbLine
 62
7
  6
CONTINUOUS
 10
164.4366494943
 20
78.584319243
 11
164.5513647816
 21
78.6782885051
  0
LINE
  5
3A8
100
AcDbEntity
  8
SUPERFICI
100
AcDbLine
 62
7
  6
CONTINUOUS
 10
164.7234377125
 20
78.8192423982
 11
164.8381529998
 21
78.9132116603
  0
LINE
  5
3A9
100
AcDbEntity
  8
0
100
AcDbLine
 62
7
  6
CONTINUOUS
 10
163.2673582446
 20
77.8868056302
 11
164.7108154662
 21
78.9465116086
  0
LINE
  5
3AA
100
AcDbEntity
  8
SUPERFICI
100
AcDbLine
 62
7
  6
CONTINUOUS
 10
164.7252779734
 20
78.9557262436
 11
164.7172685564
 21
78.9510245844
  0
LWPOLYLINE
  5
3AB
100
AcDbEntity
  8
RACCORDO
100
AcDbPolyline
 62
7
  6
CONTINUOUS
 90
3
 70
0
 10
114.7567578969
 20
134.8011692705
 10
114.8156853328
 20
134.8090461487
 10
114.8787814757
 20
134.8121622921
  0
LWPOLYLINE
  5
3AC
100
AcDbEntity
  8
RACCORDO
100
AcDbPolyline
 62
7
  6
CONTINUOUS
 90
5
 70
0
 10
114.8402133168
 20
134.7494391201
 10
114.9187462686
 20
134.7572940303
 10
115.0027697177
 20
134.7543677551
 10
115.0913370078
 20
134.7403654887
 10
115.1833681366
 20
134.7151047199
  0
LWPOLYLINE
  5
3AD
100
AcDbEntity
  8
RACCORDO
100
AcDbPolyline
 62
7
  6
CONTINUOUS
 90
13
 70
0
 10
194.9843180202
 20
120.691224956
 10
186.7602685664
 20
123.613067988
 10
178.5903264159
 20
126.582463813
 10
170.4744915684
 20
129.5994124308
 10
162.4118707149
 20
132.6642589804
 10
154.4033571645
 20
135.7766583228
 10
146.4516308451
 20
138.9355750416
 10
138.5567140938
 20
142.1410274343
 10
130.7185845734
 20
145.3929972032
 10
122.9398552005
 20
148.6903940395
 10
115.2213969471
 20
152.0328545067
 10
107.5623388412
 20
155.4207420412
 10
99.9626808827
 20
158.8540566431
  0
LWPOLYLINE
  5
3AE
100
AcDbEntity
  8
RACCORDO
100
AcDbPolyline
 62
7
  6
CONTINUOUS
 90
19
 70
0
 10
194.9843180202
 20
120.691224956
 10
195.133539273
 20
120.632665535
 10
195.2801864164
 20
120.5627894658
 10
195.42425858
 20
120.4815959389
 10
195.5672808469
 20
120.3879487576
 10
195.707726764
 20
120.2829828455
 10
195.8410167263
 20
120.1701027312
 10
195.9662518923
 20
120.0496411437
 10
196.0843267081
 20
119.9212612357
 10
196.1933497166
 20
119.787361496
 10
196.29330317
 20
119.6479216913
 10
196.3842005117
 20
119.5029580139
 10
196.4641964682
 20
119.3549230222
 10
196.5333070845
 20
119.2029036931
 10
196.5915126284
 20
119.0478095834
 10
196.6369139376
 20
118.8948269111
 10
196.6688771051
 20
118.7456836131
 10
196.6880337554
 20
118.5986496051
 10
196.6943833325
 20
118.4537243639
  0
LWPOLYLINE
  5
3AF
100
AcDbEntity
  8
SMUSSO
100
AcDbPolyline
 62
7
  6
CONTINUOUS
 90
3
 70
0
 10
192.2994286922
 20
122.3255485623
 10
193.6191874883
 20
121.8021085791
 10
196.258702826
 20
120.7558237371
  0
LINE
  5
3B0
100
AcDbEntity
  8
SMUSSO
100
AcDbLine
 62
7
  6
CONTINUOUS
 10
189.6599087661
 20
123.3730233292
 11
192.2994286922
 21
122.3255485623
  0
LINE
  5
3B1
100
AcDbEntity
  8
SMUSSO
100
AcDbLine
 62
7
  6
CONTINUOUS
 10
187.0203856217
 20
124.4212907315
 11
189.6599087661
 21
123.3730233292
  0
LINE
  5
3B2
100
AcDbEntity
  8
SMUSSO
100
AcDbLine
 62
7
  6
CONTINUOUS
 10
184.3808591319
 20
125.4703502511
 11
187.0203856217
 21
124.4212907315
  0
LINE
  5
3B3
100
AcDbEntity
  8
SMUSSO
100
AcDbLine
 62
7
  6
CONTINUOUS
 10
181.7413292416
 20
126.5202013667
 11
184.3808591319
 21
125.4703502511
  0
LINE
  5
3B4
100
AcDbEntity
  8
SMUSSO
100
AcDbLine
 62
7
  6
CONTINUOUS
 10
179.1017961858
 20
127.5708435458
 11
181.7413292416
 21
126.5202013667
  0
LINE
  5
3B5
100
AcDbEntity
  8
SMUSSO
100
AcDbLine
 62
7
  6
CONTINUOUS
 10
176.4622602721
 20
128.6222762526
 11
179.1017961858
 21
127.5708435458
  0
LWPOLYLINE
  5
3B6
100
AcDbEntity
  8
SMUSSO
100
AcDbPolyline
 62
7
  6
CONTINUOUS
 90
3
 70
0
 10
172.5029517153
 20
130.2009063808
 10
173.8227218078
 20
129.6744989516
 10
176.4622602721
 20
128.6222762526
  0
LINE
  5
3B7
100
AcDbEntity
  8
SMUSSO
100
AcDbLine
 62
7
  6
CONTINUOUS
 10
169.8634099889
 20
131.2543130968
 11
172.5029517153
 21
130.2009063808
  0
LINE
  5
3B8
100
AcDbEntity
  8
SMUSSO
100
AcDbLine
 62
7
  6
CONTINUOUS
 10
167.2238664035
 20
132.3085086645
 11
169.8634099889
 21
131.2543130968
  0
LINE
  5
3B9
100
AcDbEntity
  8
SMUSSO
100
AcDbLine
 62
7
  6
CONTINUOUS
 10
164.5843211893
 20
133.3634927463
 11
167.2238664035
 21
132.3085086645
  0
LINE
  5
3BA
100
AcDbEntity
  8
SMUSSO
100
AcDbLine
 62
7
  6
CONTINUOUS
 10
161.9447745766
 20
134.4192650051
 11
164.5843211893
 21
133.3634927463
  0
LINE
  5
3BB
100
AcDbEntity
  8
SMUSSO
100
AcDbLine
 62
7
  6
CONTINUOUS
 10
159.3052267956
 20
135.4758251069
 11
161.9447745766
 21
134.4192650051
  0
LINE
  5
3BC
100
AcDbEntity
  8
SMUSSO
100
AcDbLine
 62
7
  6
CONTINUOUS
 10
156.6656780771
 20
136.5331727958
 11
159.3052267956
 21
135.4758251069
  0
LINE
  5
3BD
100
AcDbEntity
  8
SMUSSO
100
AcDbLine
 62
7
  6
CONTINUOUS
 10
154.0261286521
 20
137.5913078937
 11
156.6656780771
 21
136.5331727958
  0
LINE
  5
3BE
100
AcDbEntity
  8
SMUSSO
100
AcDbLine
 62
7
  6
CONTINUOUS
 10
151.3865787518
 20
138.6502302258
 11
154.0261286521
 21
137.5913078937
  0
LWPOLYLINE
  5
3BF
100
AcDbEntity
  8
SMUSSO
100
AcDbPolyline
 62
7
  6
CONTINUOUS
 90
52
 70
0
 10
196.2587041411
 20
120.7558237529
 10
196.2655215668
 20
120.7530869561
 10
196.2723322428
 20
120.7502828605
 10
196.2791364667
 20
120.7474113653
 10
196.2859345361
 20
120.7444723699
 10
196.2927267486
 20
120.7414657735
 10
196.2995134018
 20
120.7383914755
 10
196.3062947933
 20
120.735249375
 10
196.3130712207
 20
120.7320393714
 10
196.3198429816
 20
120.7287613639
 10
196.3266101621
 20
120.725415351
 10
196.3333720025
 20
120.7220017274
 10
196.3401275315
 20
120.7185209873
 10
196.3468757779
 20
120.7149736244
 10
196.3536157706
 20
120.7113601329
 10
196.3603465382
 20
120.7076810066
 10
196.3670671097
 20
120.7039367396
 10
196.3737765136
 20
120.7001278258
 10
196.3804737789
 20
120.6962547592
 10
196.387157987
 20
120.6923180233
 10
196.3938284306
 20
120.68831806
 10
196.4004844549
 20
120.6842553004
 10
196.4071254053
 20
120.680130176
 10
196.4137506271
 20
120.6759431182
 10
196.4203594656
 20
120.6716945581
 10
196.4269512661
 20
120.6673849273
 10
196.433525374
 20
120.663014657
 10
196.4400811346
 20
120.6585841785
 10
196.4466178999
 20
120.6540939249
 10
196.4531350485
 20
120.6495443358
 10
196.4596319657
 20
120.6449358528
 10
196.4661080369
 20
120.6402689171
 10
196.4725626474
 20
120.6355439702
 10
196.4789951824
 20
120.6307614534
 10
196.4854050273
 20
120.6259218082
 10
196.4917915674
 20
120.621025476
 10
196.498154188
 20
120.6160728981
 10
196.5044922609
 20
120.6110645371
 10
196.5108051037
 20
120.6060009407
 10
196.5170920202
 20
120.6008826775
 10
196.5233523146
 20
120.5957103162
 10
196.5295852909
 20
120.5904844257
 10
196.535790253
 20
120.5852055747
 10
196.541966505
 20
120.579874332
 10
196.5481133508
 20
120.5744912662
 10
196.5542300945
 20
120.5690569462
 10
196.5603160429
 20
120.5635719535
 10
196.5663705137
 20
120.5580369203
 10
196.5723928277
 20
120.552452492
 10
196.5783823053
 20
120.5468193136
 10
196.5843382672
 20
120.5411380303
 10
196.590260034
 20
120.5354092872
  0
LINE
  5
3C0
100
AcDbEntity
  8
SMUSSO
100
AcDbLine
 62
7
  6
CONTINUOUS
 10
148.747028607
 20
139.7099396176
 11
151.3865787518
 21
138.6502302258
  0
LINE
  5
3C1
100
AcDbEntity
  8
SMUSSO
100
AcDbLine
 62
7
  6
CONTINUOUS
 10
144.787703439
 20
141.3009791512
 11
148.747028607
 21
139.7099396176
  0
LINE
  5
3C2
100
AcDbEntity
  8
SMUSSO
100
AcDbLine
 62
7
  6
CONTINUOUS
 10
142.1481537006
 20
142.3626557596
 11
144.787703439
 21
141.3009791512
  0
LINE
  5
3C3
100
AcDbEntity
  8
SMUSSO
100
AcDbLine
 62
7
  6
CONTINUOUS
 10
139.5086045341
 20
143.4251192226
 11
142.1481537006
 21
142.3626557596
  0
LINE
  5
3C4
100
AcDbEntity
  8
SMUSSO
100
AcDbLine
 62
7
  6
CONTINUOUS
 10
136.8690561736
 20
144.4883695281
 11
139.5086045341
 21
143.4251192226
  0
LINE
  5
3C5
100
AcDbEntity
  8
SMUSSO
100
AcDbLine
 62
7
  6
CONTINUOUS
 10
134.2295088531
 20
145.5524066913
 11
136.8690561736
 21
144.4883695281
  0
LINE
  5
3C6
100
AcDbEntity
  8
SMUSSO
100
AcDbLine
 62
7
  6
CONTINUOUS
 10
131.5899628054
 20
146.6172308362
 11
134.2295088531
 21
145.5524066913
  0
LINE
  5
3C7
100
AcDbEntity
  8
SMUSSO
100
AcDbLine
 62
7
  6
CONTINUOUS
 10
128.9504182634
 20
147.6828421141
 11
131.5899628054
 21
146.6172308362
  0
LINE
  5
3C8
100
AcDbEntity
  8
SMUSSO
100
AcDbLine
 62
7
  6
CONTINUOUS
 10
126.3108754599
 20
148.7492406764
 11
128.9504182634
 21
147.6828421141
  0
LINE
  5
3C9
100
AcDbEntity
  8
SMUSSO
100
AcDbLine
 62
7
  6
CONTINUOUS
 10
123.6713346294
 20
149.8164266772
 11
126.3108754599
 21
148.7492406764
  0
LINE
  5
3CA
100
AcDbEntity
  8
SMUSSO
100
AcDbLine
 62
7
  6
CONTINUOUS
 10
119.71202769
 20
151.4186826249
 11
123.6713346294
 21
149.8164266772
  0
LINE
  5
3CB
100
AcDbEntity
  8
SMUSSO
100
AcDbLine
 62
7
  6
CONTINUOUS
 10
117.0724930542
 20
152.4878383033
 11
119.71202769
 21
151.4186826249
  0
LINE
  5
3CC
100
AcDbEntity
  8
SMUSSO
100
AcDbLine
 62
7
  6
CONTINUOUS
 10
114.4329614409
 20
153.5577823539
 11
117.0724930542
 21
152.4878383033
  0
LINE
  5
3CD
100
AcDbEntity
  8
SMUSSO
100
AcDbLine
 62
7
  6
CONTINUOUS
 10
111.7934331525
 20
154.6285150705
 11
114.4329614409
 21
153.5577823539
  0
LINE
  5
3CE
100
AcDbEntity
  8
SMUSSO
100
AcDbLine
 62
7
  6
CONTINUOUS
 10
109.1539082803
 20
155.7000369072
 11
111.7934331525
 21
154.6285150705
  0
LINE
  5
3CF
100
AcDbEntity
  8
SMUSSO
100
AcDbLine
 62
7
  6
CONTINUOUS
 10
106.5143867042
 20
156.7723484784
 11
109.1539082803
 21
155.7000369072
  0
LINE
  5
3D0
100
AcDbEntity
  8
SMUSSO
100
AcDbLine
 62
7
  6
CONTINUOUS
 10
103.8748682951
 20
157.8454504053
 11
106.5143867042
 21
156.7723484784
  0
LINE
  5
3D1
100
AcDbEntity
  8
SMUSSO
100
AcDbLine
 62
7
  6
CONTINUOUS
 10
101.2353529237
 20
158.9193433092
 11
103.8748682951
 21
157.8454504053
  0
LINE
  5
3D2
100
AcDbEntity
  8
SMUSSO
100
AcDbLine
 62
7
  6
CONTINUOUS
 10
196.9223202892
 20
83.6129755476
 11
196.762744267
 21
83.9538919071
  0
LWPOLYLINE
  5
3D3
100
AcDbEntity
  8
RACCORDO
100
AcDbPolyline
 62
7
  6
CONTINUOUS
 90
8
 70
0
 10
191.9077076178
 20
48.9221231222
 10
191.9099425043
 20
48.8707547931
 10
191.9166089255
 20
48.8244493878
 10
191.9275928204
 20
48.7839992072
 10
191.9427062553
 20
48.7500963681
 10
191.9616906382
 20
48.7233209629
 10
191.9842211428
 20
48.7041311319
 10
192.0031530387
 20
48.6949415949
  0
LWPOLYLINE
  5
3D4
100
AcDbEntity
  8
RACCORDO
100
AcDbPolyline
 62
7
  6
CONTINUOUS
 90
13
 70
0
 10
191.9077076178
 20
117.7308948425
 10
191.9099425095
 20
117.7864472552
 10
191.9166089449
 20
117.845233171
 10
191.9275928593
 20
117.9062467466
 10
191.9427063148
 20
117.9684440228
 10
191.9616907158
 20
118.0307607865
 10
191.9842212337
 20
118.0921307803
 10
192.0099123649
 20
118.1515039465
 10
192.0383245269
 20
118.2078643939
 10
192.0689715795
 20
118.2602477795
 10
192.1013291428
 20
118.3077578095
 10
192.1348435702
 20
118.3495815745
 10
192.1689414204
 20
118.3850034588
  0
LWPOLYLINE
  5
3D5
100
AcDbEntity
  8
RACCORDO
100
AcDbPolyline
 62
7
  6
CONTINUOUS
 90
7
 70
0
 10
173.1488829929
 20
69.366654227
 10
173.1247961463
 20
69.311023898
 10
173.0973499351
 20
69.2601045936
 10
173.0669037392
 20
69.2138222562
 10
173.0330986337
 20
69.1722513477
 10
172.9962502983
 20
69.1345504471
 10
172.9566242945
 20
69.1004836375
  0
LWPOLYLINE
  5
3D6
100
AcDbEntity
  8
RACCORDO
100
AcDbPolyline
 62
7
  6
CONTINUOUS
 90
3
 70
0
 10
173.0437103332
 20
69.3260595224
 10
172.9962055823
 20
69.2694770744
 10
172.9578009931
 20
69.2344584716
  0
LINE
  5
3D7
100
AcDbEntity
  8
0
100
AcDbLine
 62
7
  6
CONTINUOUS
 10
169.6428997078
 20
76.9656753859
 11
168.4004705166
 21
75.8252320185
  0
LWPOLYLINE
  5
3D8
100
AcDbEntity
  8
SUPERFICI
100
AcDbPolyline
 62
7
  6
CONTINUOUS
 90
7
 70
0
 10
168.9153825392
 20
75.808917677
 10
168.9193677667
 20
75.8123398057
 10
168.9307604757
 20
75.8237549258
 10
168.9407910134
 20
75.8364400164
 10
168.9493765091
 20
75.8503156078
 10
168.9565998334
 20
75.8654611695
 10
168.9624609863
 20
75.8818767018
  0
LWPOLYLINE
  5
3D9
100
AcDbEntity
  8
SUPERFICI
100
AcDbPolyline
 62
7
  6
CONTINUOUS
 90
10
 70
0
 10
169.6484540861
 20
76.9705493047
 10
169.6547504493
 20
76.9759389649
 10
169.6604532201
 20
76.9809378199
 10
169.6655005298
 20
76.9855304486
 10
169.6698350296
 20
76.9897165898
 10
169.6733891043
 20
76.9934551386
 10
169.6760952301
 20
76.9966624891
 10
169.6779070414
 20
76.9992831433
 10
169.6787725934
 20
77.0013069096
 10
169.6788444571
 20
77.0019098958
  0
LINE
  5
3DA
100
AcDbEntity
  8
0
100
AcDbLine
 62
7
  6
CONTINUOUS
 10
169.6484540861
 20
76.4861418399
 11
168.7197444913
 21
75.6970043924
  0
LINE
  5
3DB
100
AcDbEntity
  8
SUPERFICI
100
AcDbLine
 62
7
  6
CONTINUOUS
 10
168.9154408695
 20
75.8089392892
 11
168.7598692705
 21
75.6808893764
  0
LINE
  5
3DC
100
AcDbEntity
  8
0
100
AcDbLine
 62
7
  6
CONTINUOUS
 10
168.9624609863
 20
75.8818767018
 11
168.7318499093
 21
75.6921425836
  0
LINE
  5
3DD
100
AcDbEntity
  8
SUPERFICI
100
AcDbLine
 62
7
  6
CONTINUOUS
 10
168.0816210834
 20
76.0701051715
 11
168.1963363706
 21
76.1640744336
  0
LINE
  5
3DE
100
AcDbEntity
  8
SUPERFICI
100
AcDbLine
 62
7
  6
CONTINUOUS
 10
168.3684093015
 20
76.3050283267
 11
168.4831245888
 21
76.3989975888
  0
LINE
  5
3DF
100
AcDbEntity
  8
SUPERFICI
100
AcDbLine
 62
7
  6
CONTINUOUS
 10
168.6551975197
 20
76.5399514819
 11
168.769912807
 21
76.633920744
  0
LINE
  5
3E0
100
AcDbEntity
  8
SUPERFICI
100
AcDbLine
 62
7
  6
CONTINUOUS
 10
168.9419857379
 20
76.7748746371
 11
169.0567010252
 21
76.8688438992
  0
LINE
  5
3E1
100
AcDbEntity
  8
SUPERFICI
100
AcDbLine
 62
7
  6
CONTINUOUS
 10
169.2287739561
 20
77.0097977923
 11
169.3434892433
 21
77.1037670544
  0
LINE
  5
3E2
100
AcDbEntity
  8
SUPERFICI
100
AcDbLine
 62
7
  6
CONTINUOUS
 10
169.4295257088
 20
77.0513711943
 11
168.0865825024
 21
75.9512965214
  0
LINE
  5
3E3
100
AcDbEntity
  8
RACCORDO
100
AcDbLine
 62
7
  6
CONTINUOUS
 10
172.5243120364
 20
69.3168923542
 11
172.3144252394
 21
69.1449631553
  0
LINE
  5
3E4
100
AcDbEntity
  8
RACCORDO
100
AcDbLine
 62
7
  6
CONTINUOUS
 10
172.9586680018
 20
69.2351665767
 11
172.9578264464
 21
69.2344788654
  0
LWPOLYLINE
  5
3E5
100
AcDbEntity
  8
RACCORDO
100
AcDbPolyline
 62
7
  6
CONTINUOUS
 90
28
 70
0
 10
172.8268665351
 20
69.4379841846
 10
172.8414355162
 20
69.4496248539
 10
172.8549974878
 20
69.4613555715
 10
172.8681061413
 20
69.4736007192
 10
172.8807526677
 20
69.48635199
 10
172.8929286086
 20
69.4996007506
 10
172.9046253728
 20
69.5133376954
 10
172.9158350577
 20
69.5275534481
 10
172.9265501765
 20
69.5422383766
 10
172.9367632327
 20
69.5573822997
 10
172.9464673154
 20
69.5729748876
 10
172.9556559056
 20
69.5890055209
 10
172.9643225876
 20
69.6054631214
 10
172.9724614425
 20
69.6223363829
 10
172.9800670138
 20
69.6396138357
 10
172.9871340845
 20
69.6572837312
 10
172.9936578029
 20
69.6753339684
 10
172.9996337416
 20
69.693752205
 10
173.0050578357
 20
69.7125259425
 10
173.0099263274
 20
69.7316423849
 10
173.0142358531
 20
69.7510883572
 10
173.0179834956
 20
69.7708504235
 10
173.021166555
 20
69.7909146579
 10
173.0237828889
 20
69.8112675995
 10
173.0258309292
 20
69.8318962092
 10
173.0273092157
 20
69.8527866414
 10
173.0282164669
 20
69.8739242159
 10
173.0285518865
 20
69.8952943895
  0
LWPOLYLINE
  5
3E6
100
AcDbEntity
  8
RACCORDO
100
AcDbPolyline
 62
7
  6
CONTINUOUS
 90
13
 70
0
 10
172.9578264464
 20
69.2344788654
 10
172.9485135721
 20
69.2270589587
 10
172.9094537261
 20
69.1994064699
 10
172.8671287764
 20
69.1748640066
 10
172.8215826476
 20
69.1536821472
 10
172.7729066266
 20
69.1361161821
 10
172.7201794673
 20
69.1221871562
 10
172.6632829229
 20
69.1123676295
 10
172.602407276
 20
69.107190048
 10
172.536966606
 20
69.1071834138
 10
172.4668611298
 20
69.1130444742
 10
172.392564388
 20
69.1254306075
 10
172.3144252394
 20
69.1449631553
  0
LINE
  5
3E7
100
AcDbEntity
  8
RACCORDO
100
AcDbLine
 62
7
  6
CONTINUOUS
 10
173.1505261037
 20
69.988844984
 11
173.0285518865
 21
69.8952943895
  0
LINE
  5
3E8
100
AcDbEntity
  8
RACCORDO
100
AcDbLine
 62
7
  6
CONTINUOUS
 10
172.8268644492
 20
69.4379825848
 11
173.150057729
 21
69.685862594
  0
LWPOLYLINE
  5
3E9
100
AcDbEntity
  8
SMUSSO
100
AcDbPolyline
 62
7
  6
CONTINUOUS
 90
32
 70
0
 10
196.590260034
 20
120.5354092872
 10
196.6566190683
 20
120.4700070317
 10
196.6585248379
 20
120.4681109374
 10
196.6604171387
 20
120.466201735
 10
196.6622952304
 20
120.4642801676
 10
196.6641598532
 20
120.4623454919
 10
196.666012063
 20
120.4603966689
 10
196.667851808
 20
120.458433795
 10
196.66967914
 20
120.4564567738
 10
196.67149527
 20
120.4544642766
 10
196.6733020321
 20
120.452454259
 10
196.6750975922
 20
120.4504287654
 10
196.6768776586
 20
120.4483926015
 10
196.678640747
 20
120.4463473921
 10
196.6803883418
 20
120.4442915122
 10
196.6821206051
 20
120.442224893
 10
196.6838365924
 20
120.4401487471
 10
196.6855372483
 20
120.4380618619
 10
196.6872255687
 20
120.4359605306
 10
196.6889036252
 20
120.4338421673
 10
196.6905693463
 20
120.431709358
 10
196.6922195133
 20
120.4295661539
 10
196.6938541476
 20
120.4274124025
 10
196.6954732279
 20
120.4252482563
 10
196.6970734716
 20
120.4230782235
 10
196.69865187
 20
120.420906478
 10
196.7002114319
 20
120.4187288459
 10
196.7017579008
 20
120.4165373138
 10
196.7032944675
 20
120.4143273936
 10
196.7048179412
 20
120.4121035734
 10
196.7063244925
 20
120.4098713045
 10
196.7078136648
 20
120.4076311201
  0
LWPOLYLINE
  5
3EA
100
AcDbEntity
  8
SMUSSO
100
AcDbPolyline
 62
7
  6
CONTINUOUS
 90
31
 70
0
 10
196.5961469263
 20
120.5296337295
 10
196.6019982647
 20
120.5238120023
 10
196.6078133697
 20
120.5179447508
 10
196.6135915709
 20
120.5120326279
 10
196.6193322329
 20
120.5060763176
 10
196.6250347291
 20
120.5000765118
 10
196.6306984332
 20
120.4940339023
 10
196.6363227185
 20
120.4879491809
 10
196.6419069587
 20
120.4818230395
 10
196.6474505271
 20
120.4756561698
 10
196.6529527974
 20
120.4694492638
 10
196.658413143
 20
120.4632030132
 10
196.6638309534
 20
120.4569181075
 10
196.6692056823
 20
120.4505952268
 10
196.6745367995
 20
120.4442350489
 10
196.6798237748
 20
120.4378382516
 10
196.6850660777
 20
120.4314055126
 10
196.6902631781
 20
120.4249375096
 10
196.6954145457
 20
120.4184349205
 10
196.7005196502
 20
120.411898423
 10
196.7055779613
 20
120.4053286948
 10
196.7105889629
 20
120.3987264048
 10
196.7155521953
 20
120.3920921859
 10
196.7204672128
 20
120.385426662
 10
196.7253335699
 20
120.3787304571
 10
196.730150821
 20
120.3720041953
 10
196.7349185205
 20
120.3652485003
 10
196.7396362227
 20
120.3584639963
 10
196.7443034822
 20
120.3516513071
 10
196.7489198532
 20
120.3448110568
 10
196.753484887
 20
120.3379438838
  0
LWPOLYLINE
  5
3EB
100
AcDbEntity
  8
RACCORDO
100
AcDbPolyline
 62
7
  6
CONTINUOUS
 90
25
 70
0
 10
193.8605825032
 20
116.1324106214
 10
193.8581616027
 20
116.2214863144
 10
193.8504038183
 20
116.3157647522
 10
193.836732342
 20
116.4151406055
 10
193.816570537
 20
116.5195334144
 10
193.7893451698
 20
116.6285929824
 10
193.7545424087
 20
116.7416853114
 10
193.7114828042
 20
116.8588519805
 10
193.6598786653
 20
116.979078835
 10
193.6002040875
 20
117.1000296565
 10
193.5324748001
 20
117.2209199158
 10
193.4566781454
 20
117.341170521
 10
193.3738454991
 20
117.4587932401
 10
193.2842072615
 20
117.5732343996
 10
193.1882559621
 20
117.6837059891
 10
193.0879281472
 20
117.7881504829
 10
192.9838181583
 20
117.8862075443
 10
192.876637857
 20
117.9774766538
 10
192.7688976671
 20
118.060401185
 10
192.661353334
 20
118.1350559471
 10
192.5546659735
 20
118.2016029528
 10
192.451368101
 20
118.2593233187
 10
192.3526811134
 20
118.3085297812
 10
192.2584210353
 20
118.3502040053
 10
192.1689414204
 20
118.3850034588
  0
LWPOLYLINE
  5
3EC
100
AcDbEntity
  8
RACCORDO
100
AcDbPolyline
 62
7
  6
CONTINUOUS
 90
25
 70
0
 10
193.1904478048
 20
116.0521361331
 10
193.1893344606
 20
116.1191510364
 10
193.183305995
 20
116.1897753332
 10
193.172362475
 20
116.2640090866
 10
193.1568919417
 20
116.3421897462
 10
193.1365066396
 20
116.4239801305
 10
193.1100430768
 20
116.5083684834
 10
193.0771109633
 20
116.5958890394
 10
193.0381014225
 20
116.6860083467
 10
192.9930232622
 20
116.776113287
 10
192.9415307655
 20
116.866159168
 10
192.883971
 20
116.9561919496
 10
192.8213919379
 20
117.0437344807
 10
192.7534016399
 20
117.1287251298
 10
192.680393568
 20
117.2112269562
 10
192.6045933815
 20
117.2889494545
 10
192.5257712227
 20
117.3615724487
 10
192.4441579564
 20
117.4294170574
 10
192.3626694498
 20
117.4911538963
 10
192.281331876
 20
117.546330231
 10
192.2001190164
 20
117.5953987509
 10
192.1218670959
 20
117.6383872189
 10
192.0475209539
 20
117.6753043555
 10
191.9761346206
 20
117.7061403795
 10
191.9077076178
 20
117.7308948425
  0
LINE
  5
3ED
100
AcDbEntity
  8
RACCORDO
100
AcDbLine
 62
7
  6
CONTINUOUS
 10
193.1904478048
 20
49.7008205457
 11
193.1904478048
 21
116.0521361331
  0
LINE
  5
3EE
100
AcDbEntity
  8
RACCORDO
100
AcDbLine
 62
7
  6
CONTINUOUS
 10
193.8605825032
 20
49.781095034
 11
193.8605825032
 21
116.1324106214
  0
LINE
  5
3EF
100
AcDbEntity
  8
RACCORDO
100
AcDbLine
 62
7
  6
CONTINUOUS
 10
196.6943833325
 20
118.4537243639
 11
196.6943833325
 21
52.1024087765
  0
LINE
  5
3F0
100
AcDbEntity
  8
SMUSSO
100
AcDbLine
 62
7
  6
CONTINUOUS
 10
196.9223202892
 20
119.8292666406
 11
196.9223202892
 21
89.6942421462
  0
LINE
  5
3F1
100
AcDbEntity
  8
SMUSSO
100
AcDbLine
 62
7
  6
CONTINUOUS
 10
196.9223202892
 20
83.6129755476
 11
196.9223202892
 21
53.4779510532
  0
LWPOLYLINE
  5
3F2
100
AcDbEntity
  8
SMUSSO
100
AcDbPolyline
 62
7
  6
CONTINUOUS
 90
60
 70
0
 10
196.9223202892
 20
53.4779510532
 10
196.9222848638
 20
53.4711487151
 10
196.9221794775
 20
53.4643816181
 10
196.9220041479
 20
53.4576494599
 10
196.921758893
 20
53.4509519381
 10
196.9214437303
 20
53.44428875
 10
196.9210586776
 20
53.4376595932
 10
196.9206037528
 20
53.4310641654
 10
196.9200789736
 20
53.4245021639
 10
196.9194843577
 20
53.4179732865
 10
196.9188199381
 20
53.4114774346
 10
196.9180858087
 20
53.4050153263
 10
196.9172820788
 20
53.3985878837
 10
196.9164088576
 20
53.392196029
 10
196.9154662541
 20
53.3858406843
 10
196.9144543777
 20
53.3795227718
 10
196.9133733374
 20
53.3732432135
 10
196.9122232424
 20
53.3670029316
 10
196.9110042021
 20
53.3608028482
 10
196.9097163357
 20
53.3546438289
 10
196.9083598044
 20
53.3485265124
 10
196.9069347792
 20
53.3424514811
 10
196.9054414314
 20
53.3364193172
 10
196.9038799322
 20
53.330430603
 10
196.9022504529
 20
53.3244859207
 10
196.9005531647
 20
53.3185858525
 10
196.8987882388
 20
53.3127309808
 10
196.8969558464
 20
53.3069218878
 10
196.895056163
 20
53.3011591479
 10
196.893089381
 20
53.2954433041
 10
196.891055697
 20
53.2897748915
 10
196.8889553077
 20
53.2841544453
 10
196.8867884095
 20
53.2785825007
 10
196.8845551992
 20
53.2730595928
 10
196.8822558734
 20
53.2675862567
 10
196.8798906286
 20
53.2621630277
 10
196.8774596615
 20
53.2567904409
 10
196.8749631842
 20
53.2514690377
 10
196.8724014703
 20
53.2461993846
 10
196.869774809
 20
53.2409820543
 10
196.8670834893
 20
53.2358176198
 10
196.8643278004
 20
53.2307066537
 10
196.8615080315
 20
53.2256497287
 10
196.8586244716
 20
53.2206474178
 10
196.8556774098
 20
53.2157002937
 10
196.8526671354
 20
53.2108089291
 10
196.8495939532
 20
53.205973891
 10
196.8464582314
 20
53.2011957229
 10
196.8432603541
 20
53.1964749626
 10
196.8400007052
 20
53.1918121476
 10
196.8366796689
 20
53.1872078158
 10
196.8332976292
 20
53.1826625047
 10
196.82985497
 20
53.1781767521
 10
196.8263520754
 20
53.1737510958
 10
196.8227893294
 20
53.1693860733
 10
196.8191671253
 20
53.1650822061
 10
196.8154858931
 20
53.1608399504
 10
196.811746072
 20
53.1566597462
 10
196.8079481012
 20
53.1525420335
 10
196.8044011652
 20
53.148807416
  0
LWPOLYLINE
  5
3F3
100
AcDbEntity
  8
RACCORDO
100
AcDbPolyline
 62
7
  6
CONTINUOUS
 90
9
 70
0
 10
196.6943833325
 20
52.1024087765
 10
196.6879926132
 20
51.9618569763
 10
196.6688322596
 20
51.8282042969
 10
196.6369028261
 20
51.7014512602
 10
196.5915879101
 20
51.5803487693
 10
196.5335061858
 20
51.4661480582
 10
196.4645111348
 20
51.3626004377
 10
196.38461431
 20
51.2705562822
 10
196.306617333
 20
51.199473559
  0
LINE
  5
3F4
100
AcDbEntity
  8
SMUSSO
100
AcDbLine
 62
7
  6
CONTINUOUS
 10
196.9223202892
 20
89.6942421462
 11
196.6943833325
 21
89.402199863
  0
LWPOLYLINE
  5
3F5
100
AcDbEntity
  8
RACCORDO
100
AcDbPolyline
 62
7
  6
CONTINUOUS
 90
12
 70
0
 10
172.9566242945
 20
69.1004836375
 10
172.9139556094
 20
69.0702873231
 10
172.8677641184
 20
69.0438286157
 10
172.8181781204
 20
69.0207820882
 10
172.7650701263
 20
69.0014738866
 10
172.7075765359
 20
68.9867486665
 10
172.6454953183
 20
68.9762883616
 10
172.5790297992
 20
68.9704121869
 10
172.5079246372
 20
68.9709209182
 10
172.4320952902
 20
68.9784153211
 10
172.3516279702
 20
68.9922961101
 10
172.2665235863
 20
69.0125640906
  0
LINE
  5
3F6
100
AcDbEntity
  8
SMUSSO
100
AcDbLine
 62
7
  6
CONTINUOUS
 10
196.9223202892
 20
83.6129755476
 11
196.6943833325
 21
83.4521237238
  0
LWPOLYLINE
  5
3F7
100
AcDbEntity
  8
SMUSSO
100
AcDbPolyline
 62
7
  6
CONTINUOUS
 90
72
 70
0
 10
196.7078136648
 20
120.4076311201
 10
196.7579981223
 20
120.3310504844
 10
196.7624590947
 20
120.3241315694
 10
196.7668673396
 20
120.3171878499
 10
196.7712223926
 20
120.3102200365
 10
196.7755237891
 20
120.3032288401
 10
196.7797710647
 20
120.2962149716
 10
196.783963755
 20
120.2891791418
 10
196.7881013954
 20
120.2821220616
 10
196.7921835257
 20
120.2750444554
 10
196.7962097024
 20
120.2679471024
 10
196.8001794863
 20
120.2608307953
 10
196.8040924382
 20
120.2536963269
 10
196.8079481189
 20
120.2465444899
 10
196.8117460891
 20
120.2393760772
 10
196.8154859097
 20
120.2321918814
 10
196.8191671414
 20
120.2249926954
 10
196.8227893449
 20
120.2177793119
 10
196.8263520904
 20
120.2105525325
 10
196.8298549844
 20
120.2033131946
 10
196.8332976431
 20
120.1960621443
 10
196.8366796823
 20
120.1888002278
 10
196.8400007182
 20
120.1815282912
 10
196.8432603665
 20
120.1742471807
 10
196.8464582433
 20
120.1669577426
 10
196.8495939647
 20
120.1596608228
 10
196.8526671464
 20
120.1523572678
 10
196.8556774204
 20
120.1450479166
 10
196.8586244817
 20
120.1377335813
 10
196.8615080412
 20
120.1304150668
 10
196.8643278097
 20
120.123093178
 10
196.8670834982
 20
120.1157687201
 10
196.8697748175
 20
120.108442498
 10
196.8724014784
 20
120.1011153167
 10
196.8749631919
 20
120.0937879813
 10
196.8774596689
 20
120.0864612966
 10
196.8798906356
 20
120.0791360492
 10
196.88225588
 20
120.0718129506
 10
196.8845552054
 20
120.064492694
 10
196.8867884154
 20
120.0571759724
 10
196.8889553132
 20
120.0498634789
 10
196.8910557022
 20
120.0425559066
 10
196.8930893859
 20
120.0352539485
 10
196.8950561675
 20
120.0279582978
 10
196.8969558506
 20
120.0206696474
 10
196.8987882427
 20
120.0133886949
 10
196.9005531683
 20
120.0061161558
 10
196.9022504563
 20
119.9988527497
 10
196.9038799353
 20
119.9915991966
 10
196.9054414342
 20
119.9843562162
 10
196.9069347818
 20
119.9771245284
 10
196.9083598067
 20
119.9699048531
 10
196.9097163379
 20
119.96269791
 10
196.911004204
 20
119.9555044189
 10
196.9122232442
 20
119.9483251481
 10
196.9133733389
 20
119.941161059
 10
196.914454379
 20
119.9340131614
 10
196.9154662553
 20
119.9268824652
 10
196.9164088586
 20
119.9197699801
 10
196.9172820797
 20
119.912676716
 10
196.9180858094
 20
119.9056036827
 10
196.9188199387
 20
119.8985518899
 10
196.9194843581
 20
119.8915223475
 10
196.920078974
 20
119.8845158491
 10
196.9206037531
 20
119.8775323226
 10
196.9210586778
 20
119.8705714798
 10
196.9214437304
 20
119.8636330325
 10
196.921758893
 20
119.8567166925
 10
196.922004148
 20
119.8498221716
 10
196.9221794775
 20
119.8429491815
 10
196.9222848638
 20
119.8360974339
 10
196.9223202892
 20
119.8292666406
  0
LINE
  5
3F8
100
AcDbEntity
  8
DRAFT
100
AcDbLine
 62
7
  6
CONTINUOUS
 10
196.6943833325
 20
53.0345884816
 11
196.8044011934
 21
53.1488071929
  0
LINE
  5
3F9
100
AcDbEntity
  8
SMUSSO
100
AcDbLine
 62
7
  6
CONTINUOUS
 10
196.9223202892
 20
53.4779510532
 11
196.6943833325
 21
53.2515039997
  0
LWPOLYLINE
  5
3FA
100
AcDbEntity
  8
RACCORDO
100
AcDbPolyline
 62
7
  6
CONTINUOUS
 90
12
 70
0
 10
193.478328666
 20
48.8826208003
 10
193.5529989643
 20
48.9508340261
 10
193.6179594068
 20
49.0238340124
 10
193.6746989891
 20
49.1020170729
 10
193.7233693471
 20
49.1846455956
 10
193.7637447272
 20
49.2699663553
 10
193.7962789497
 20
49.3570901126
 10
193.8214954278
 20
49.445234796
 10
193.8397807166
 20
49.5325563193
 10
193.8518632177
 20
49.617895869
 10
193.858556172
 20
49.7009358954
 10
193.8605825032
 20
49.781095034
  0
LINE
  5
3FB
100
AcDbEntity
  8
RACCORDO
100
AcDbLine
 62
7
  6
CONTINUOUS
 10
193.8605825032
 20
49.781095034
 11
196.6943833325
 21
52.1024087765
  0
LINE
  5
3FC
100
AcDbEntity
  8
RACCORDO
100
AcDbLine
 62
7
  6
CONTINUOUS
 10
193.4767455327
 20
48.8813236533
 11
196.3065454484
 21
51.1993594854
  0
ELLIPSE
  5
3FD
100
AcDbEntity
  8
SUPERFICI
100
AcDbEllipse
 62
7
  6
CONTINUOUS
 10
151.0479234704
 20
83.7855286374
 30
0.0
 11
0.19974097
 21
0.1359120531
 31
0.0
 40
0.0748697584
 41
-0.60940585
 42
-0.0505345048
  0
ELLIPSE
  5
3FE
100
AcDbEntity
  8
SUPERFICI
100
AcDbEllipse
 62
7
  6
CONTINUOUS
 10
132.6170024739
 20
91.187802025
 30
0.0
 11
0.19974097
 21
0.1359120531
 31
0.0
 40
0.0748697584
 41
-0.60940585
 42
-0.0505348179
  0
ELLIPSE
  5
3FF
100
AcDbEntity
  8
SUPERFICI
100
AcDbEllipse
 62
7
  6
CONTINUOUS
 10
169.4788444669
 20
76.3832552498
 30
0.0
 11
0.19974097
 21
0.1359120531
 31
0.0
 40
0.0748697584
 41
-0.60940585
 42
-0.0505348179
  0
ELLIPSE
  5
400
100
AcDbEntity
  8
SUPERFICI
100
AcDbEllipse
 62
7
  6
CONTINUOUS
 10
164.7108154662
 20
78.7826811997
 30
0.0
 11
0.0820063524
 21
0.1825471329
 31
0.0
 40
0.504400903
 41
0.6752534469
 42
0.7276133244
  0
ELLIPSE
  5
401
100
AcDbEntity
  8
SUPERFICI
100
AcDbEllipse
 62
7
  6
CONTINUOUS
 10
127.8489734732
 20
93.5872279749
 30
0.0
 11
0.0820063524
 21
0.1825471329
 31
0.0
 40
0.504400903
 41
0.6752534469
 42
0.7276133244
  0
ELLIPSE
  5
402
100
AcDbEntity
  8
SUPERFICI
100
AcDbEllipse
 62
7
  6
CONTINUOUS
 10
146.2798944697
 20
86.1030393829
 30
0.0
 11
0.0820063524
 21
0.1825471329
 31
0.0
 40
0.504400903
 41
0.6752534469
 42
0.7276133244
  0
ELLIPSE
  5
403
100
AcDbEntity
  8
RACCORDO
100
AcDbEllipse
 62
7
  6
CONTINUOUS
 10
118.0270247322
 20
96.2203987291
 30
0.0
 11
-0.1268434165
 21
0.1546379889
 31
0.0
 40
0.6728141967
 41
0.6869639216
 42
2.2550211926
  0
ELLIPSE
  5
404
100
AcDbEntity
  8
SUPERFICI
100
AcDbEllipse
 62
7
  6
CONTINUOUS
 10
169.6428997078
 20
76.8018449771
 30
0.0
 11
0.067652159
 21
0.1883288026
 31
0.0
 40
0.4341965489
 41
0.6388247178
 42
0.6911845954
  0
ELLIPSE
  5
405
100
AcDbEntity
  8
SUPERFICI
100
AcDbEllipse
 62
7
  6
CONTINUOUS
 10
132.7810577148
 20
91.6063917523
 30
0.0
 11
0.067652159
 21
0.1883288026
 31
0.0
 40
0.4341965489
 41
0.6388247178
 42
0.6911845954
  0
ELLIPSE
  5
406
100
AcDbEntity
  8
SUPERFICI
100
AcDbEllipse
 62
7
  6
CONTINUOUS
 10
151.2119787113
 20
84.1222031602
 30
0.0
 11
0.067652159
 21
0.1883288026
 31
0.0
 40
0.4341965489
 41
0.6388247178
 42
0.6911845954
  0
ENDSEC
  0
SECTION
  2
OBJECTS
  0
DICTIONARY
  5
C
100
AcDbDictionary
280
0
281
1
  3
ACAD_GROUP
350
D
  3
ACAD_MLINESTYLE
350
17
  3
ACAD_LAYOUT
350
1A
  3
ACAD_PLOTSETTINGS
350
19
  3
ACAD_PLOTSTYLENAME
350
E
  0
DICTIONARY
  5
D
102
{ACAD_REACTORS
330
C
102
}
100
AcDbDictionary
280
0
281
1
  0
ACDBDICTIONARYWDFLT
  5
E
102
{ACAD_REACTORS
330
C
102
}
100
AcDbDictionary
281
1
  3
Normal
350
F
100
AcDbDictionaryWithDefault
340
F
  0
DICTIONARY
  5
17
102
{ACAD_REACTORS
330
C
102
}
100
AcDbDictionary
280
0
281
1
  3
Standard
350
18
  0
DICTIONARY
  5
19
102
{ACAD_REACTORS
330
C
102
}
100
AcDbDictionary
281
1
  0
DICTIONARY
  5
1A
102
{ACAD_REACTORS
330
C
102
}
100
AcDbDictionary
281
1
  3
Model
350
407
  3
Layout1
350
408
  0
ACDBPLACEHOLDER
  5
F
102
{ACAD_REACTORS
330
E
102
}
  0
MLINESTYLE
  5
18
102
{ACAD_REACTORS
330
17
102
}
100
AcDbMlineStyle
  2
STANDARD
 70
0
  3

 62
256
 51
90.0
 52
90.0
 71
2
 49
0.5
 62
256
  6
BYLAYER
 49
-0.5
 62
256
  6
BYLAYER
  0
LAYOUT
  5
407
102
{ACAD_REACTORS
330
1A
102
}
100
AcDbPlotSettings
  1

  2
none_device
  4
ISO_A4_(297.00_x_210.00_MM)
  6

 40
0.0
 41
0.0
 42
0.0
 43
0.0
 44
297.0
 45
210.0
 46
0.0
 47
0.0
 48
0.0
 49
0.0
140
0.0
141
0.0
142
1.0
143
1.0
 70
1024
 72
1
 73
0
 74
0
  7

 75
0
147
1.0
148
0.0
149
0.0
100
AcDbLayout
  1
Model
 70
0
 71
0
 10
0.0
 20
0.0
 11
297.0
 21
210.0
 12
0.0
 22
0.0
 32
0.0
 14
0.0
 24
0.0
 34
0.0
 15
0.0
 25
0.0
 35
0.0
146
0.0
 13
0.0
 23
0.0
 33
0.0
 16
1.0
 26
0.0
 36
0.0
 17
0.0
 27
1.0
 37
0.0
 76
0
330
210
345
0
346
0
  0
LAYOUT
  5
408
102
{ACAD_REACTORS
330
1A
102
}
100
AcDbPlotSettings
  1

  2
none_device
  4
ISO_A4_(297.00_x_210.00_MM)
  6

 40
0.0
 41
0.0
 42
0.0
 43
0.0
 44
297.0
 45
210.0
 46
0.0
 47
0.0
 48
0.0
 49
0.0
140
0.0
141
0.0
142
1.0
143
1.0
 70
0
 72
1
 73
0
 74
0
  7

 75
0
147
1.0
148
0.0
149
0.0
100
AcDbLayout
  1
Layout1
 70
0
 71
1
 10
0.0
 20
0.0
 11
297.0
 21
210.0
 12
0.0
 22
0.0
 32
0.0
 14
0.0
 24
0.0
 34
0.0
 15
0.0
 25
0.0
 35
0.0
146
0.0
 13
0.0
 23
0.0
 33
0.0
 16
1.0
 26
0.0
 36
0.0
 17
0.0
 27
1.0
 37
0.0
 76
0
330
211
345
0
346
0
  0
ENDSEC
  0
EOF
