0
SECTION
2
HEADER
9
$ACADVER
1
AC1014
9
$HANDSEED
5
       3DC
9
$EXTMAX
10
297.0000000000
20
210.0000000000
9
$EXTMIN
10
0.0000000000
20
0.0000000000
9
$LIMMIN
10
0.0000000000
20
0.0000000000
9
$LIMMAX
10
297.0000000000
20
210.0000000000
9
$VIEWCTR
10
148.5000000000
20
105.0000000000
9
$VIEWSIZE
40
210.0000000000
9
$CLAYER
8
0
9
$LTSCALE
40
16.3350000000
9
$CELTYPE
6
BYLAYER
9
$DIMSCALE
40
1
9
$DIMASZ
40
3.0000000000
9
$DIMEXO
40
1.8562500000
9
$DIMDLI
40
11.2860000000
9
$DIMEXE
40
5.3460000000
9
$DIMCEN
40
2.6730000000
9
$DIMLFAC
40
1.0000000000
9
$DIMTXT
40
3.0000000000
9
$DIMTOL
70
1
9
$DIMLIM
70
0
9
$DIMTFAC
40
1.0000000000
9
$DIMTP
40
0.0100000000
9
$DIMTM
40
0.0100000000
9
$MEASUREMENT
70
1
0
ENDSEC
0
SECTION
2
CLASSES
0
ENDSEC
0
SECTION
2
TABLES
0
TABLE
2
VPORT
5
8
100
AcDbSymbolTable
70
2
0
VPORT
5
1F4
100
AcDbSymbolTableRecord
100
AcDbViewportTableRecord
2
*ACTIVE
70
0
10
0.0
20
0.0
11
1.0
21
1.0
12
148.5000000000
22
105.0000000000
13
0.0
23
0.0
14
1.0
24
1.0
15
0.0
25
0.0
16
0.0
26
0.0
36
1.0
17
0.0
27
0.0
37
0.0
40
210.0000000000
41
1.4142857143
42
50.0
43
0.0
44
0.0
50
0.0
51
0.0
71
0
72
100
73
1
74
1
75
0
76
0
77
0
78
0
0
ENDTAB
0
TABLE
2
LTYPE
5
5
100
AcDbSymbolTable
70
6
0
LTYPE
5
14
100
AcDbSymbolTableRecord
100
AcDbLinetypeTableRecord
2
BYBLOCK
70
0
3

72
65
73
0
40
0.0
0
LTYPE
5
15
100
AcDbSymbolTableRecord
100
AcDbLinetypeTableRecord
2
BYLAYER
70
0
3

72
65
73
0
40
0.0
0
LTYPE
5
16
100
AcDbSymbolTableRecord
100
AcDbLinetypeTableRecord
2
CONTINUOUS
70
64
3
Solid line
72
65
73
0
40
0
0
LTYPE
5
1F5
100
AcDbSymbolTableRecord
100
AcDbLinetypeTableRecord
2
CENTER
70
64
3
____ _ ____ _ ____ _ ____ _ ____ _ ____ _ ____
72
65
73
4
40
0.6
49
0.375
74
0
49
-0.075
74
0
49
0.075
74
0
49
-0.075
74
0
0
LTYPE
5
1F6
100
AcDbSymbolTableRecord
100
AcDbLinetypeTableRecord
2
HIDDEN
70
64
3
- - - - - - - - - - - - - - - - - - - -
72
65
73
2
40
0.2
49
0.1
74
0
49
-0.1
74
0
0
LTYPE
5
1F7
100
AcDbSymbolTableRecord
100
AcDbLinetypeTableRecord
2
PHANTOM
70
64
3
_____ _ _ _____ _ _ _____ _ _ _____
72
65
73
6
40
0.8
49
0.45
74
0
49
-0.05
74
0
49
0.1
74
0
49
-0.05
74
0
49
0.1
74
0
49
-0.05
74
0
0
LTYPE
5
1F8
100
AcDbSymbolTableRecord
100
AcDbLinetypeTableRecord
2
DOT
70
64
3
. . . . . . . . . . . . . . . . . . . .
72
65
73
2
40
0.2
49
0.1
74
0
49
-0.1
74
0
0
LTYPE
5
1F9
100
AcDbSymbolTableRecord
100
AcDbLinetypeTableRecord
2
DASHED
70
64
3
- - - - - - - - - - - - - - - - - - - -
72
65
73
2
40
0.2
49
0.1
74
0
49
-0.1
74
0
0
ENDTAB
0
TABLE
2
LAYER
5
2
100
AcDbSymbolTable
70
36
0
LAYER
5
10
100
AcDbSymbolTableRecord
100
AcDbLayerTableRecord
2
0
70
0
62
7
6
CONTINUOUS
0
LAYER
5
1FA
100
AcDbSymbolTableRecord
100
AcDbLayerTableRecord
2
DEFAULT_1
70
0
62
7
6
CENTER
0
LAYER
5
1FB
100
AcDbSymbolTableRecord
100
AcDbLayerTableRecord
2
DEFAULT_2
70
0
62
8
6
HIDDEN
0
LAYER
5
1FC
100
AcDbSymbolTableRecord
100
AcDbLayerTableRecord
2
DEFAULT_3
70
0
62
7
6
PHANTOM
0
LAYER
5
1FD
100
AcDbSymbolTableRecord
100
AcDbLayerTableRecord
2
_BLACK_HOLE
70
0
62
7
6
CONTINUOUS
0
LAYER
5
1FE
100
AcDbSymbolTableRecord
100
AcDbLayerTableRecord
2
ASSI
70
0
62
7
6
CONTINUOUS
0
LAYER
5
1FF
100
AcDbSymbolTableRecord
100
AcDbLayerTableRecord
2
COORDINATE
70
0
62
7
6
CONTINUOUS
0
LAYER
5
200
100
AcDbSymbolTableRecord
100
AcDbLayerTableRecord
2
COORD_ORIGINE
70
0
62
7
6
CONTINUOUS
0
LAYER
5
201
100
AcDbSymbolTableRecord
100
AcDbLayerTableRecord
2
COPY_PLACCA
70
0
62
7
6
CONTINUOUS
0
LAYER
5
202
100
AcDbSymbolTableRecord
100
AcDbLayerTableRecord
2
CURVE
70
0
62
7
6
CONTINUOUS
0
LAYER
5
203
100
AcDbSymbolTableRecord
100
AcDbLayerTableRecord
2
DRAFT
70
0
62
7
6
CONTINUOUS
0
LAYER
5
204
100
AcDbSymbolTableRecord
100
AcDbLayerTableRecord
2
IMPORT_SCRITTE
70
0
62
7
6
CONTINUOUS
0
LAYER
5
205
100
AcDbSymbolTableRecord
100
AcDbLayerTableRecord
2
NOTE
70
0
62
7
6
CONTINUOUS
0
LAYER
5
206
100
AcDbSymbolTableRecord
100
AcDbLayerTableRecord
2
PIANI
70
0
62
7
6
CONTINUOUS
0
LAYER
5
207
100
AcDbSymbolTableRecord
100
AcDbLayerTableRecord
2
PIANI_ORIGINE
70
0
62
7
6
CONTINUOUS
0
LAYER
5
208
100
AcDbSymbolTableRecord
100
AcDbLayerTableRecord
2
PUNTI
70
0
62
7
6
CONTINUOUS
0
LAYER
5
209
100
AcDbSymbolTableRecord
100
AcDbLayerTableRecord
2
RACCORDO
70
0
62
7
6
CONTINUOUS
0
LAYER
5
20A
100
AcDbSymbolTableRecord
100
AcDbLayerTableRecord
2
SKELETON
70
0
62
7
6
CONTINUOUS
0
LAYER
5
20B
100
AcDbSymbolTableRecord
100
AcDbLayerTableRecord
2
SUPERFICI
70
0
62
7
6
CONTINUOUS
0
LAYER
5
20C
100
AcDbSymbolTableRecord
100
AcDbLayerTableRecord
2
SUPP
70
0
62
7
6
CONTINUOUS
0
LAYER
5
20D
100
AcDbSymbolTableRecord
100
AcDbLayerTableRecord
2
TRASH
70
0
62
7
6
CONTINUOUS
0
LAYER
5
20E
100
AcDbSymbolTableRecord
100
AcDbLayerTableRecord
2
XSEC_DATUMS
70
0
62
7
6
CONTINUOUS
0
ENDTAB
0
TABLE
2
STYLE
5
3
100
AcDbSymbolTable
70
1
0
STYLE
5
11
100
AcDbSymbolTableRecord
100
AcDbTextStyleTableRecord
2
STANDARD
70
0
40
0.0
41
0.8000000000
50
0.0
71
0
42
0.2
3
txt
4

0
ENDTAB
0
TABLE
2
VIEW
5
6
100
AcDbSymbolTable
70
0
0
ENDTAB
0
TABLE
2
UCS
5
7
100
AcDbSymbolTable
70
0
0
ENDTAB
0
TABLE
2
APPID
5
9
100
AcDbSymbolTable
70
1
0
APPID
5
20F
100
AcDbSymbolTableRecord
100
AcDbRegAppTableRecord
2
ACAD
70
0
0
ENDTAB
0
TABLE
2
DIMSTYLE
5
A
100
AcDbSymbolTable
70
1
0
DIMSTYLE
105
210
100
AcDbSymbolTableRecord
100
AcDbDimStyleTableRecord
2
STANDARD
70
0
3

4

5

6

7

40
1.0
41
3.0000000000
42
0.0625
43
0.38
44
0.18
45
0.0
46
0.0
47
0.0100000000
48
0.0100000000
140
3.0000000000
141
0.09
142
0.0
143
25.4
144
1.0000000000
145
0.0
146
1.0000000000
147
0.09
71
1
72
0
73
0
74
0
75
0
76
0
77
1
78
8
170
0
171
2
172
0
173
0
174
0
175
0
176
0
177
0
178
0
270
2
271
2
272
2
273
2
274
2
340
11
275
0
280
0
281
0
282
0
283
1
284
8
285
0
286
0
287
3
288
0
0
ENDTAB
0
TABLE
2
BLOCK_RECORD
5
1
100
AcDbSymbolTable
70
0
0
BLOCK_RECORD
5
1B
100
AcDbSymbolTableRecord
100
AcDbBlockTableRecord
2
*MODEL_SPACE
0
BLOCK_RECORD
5
1C
100
AcDbSymbolTableRecord
100
AcDbBlockTableRecord
2
*PAPER_SPACE
0
ENDTAB
0
ENDSEC
0
SECTION
2
BLOCKS
0
BLOCK
5
1E
100
AcDbEntity
8
0
100
AcDbBlockBegin
2
*MODEL_SPACE
70
0
10
0.0
20
0.0
30
0.0
3
*MODEL_SPACE
1

0
ENDBLK
5
1F
100
AcDbEntity
8
0
100
AcDbBlockEnd
0
BLOCK
5
20
100
AcDbEntity
8
0
100
AcDbBlockBegin
2
*PAPER_SPACE
70
0
10
0.0
20
0.0
30
0.0
3
*PAPER_SPACE
1

0
ENDBLK
5
21
100
AcDbEntity
8
0
100
AcDbBlockEnd
0
ENDSEC
0
SECTION
2
ENTITIES
0
LINE
5
211
100
AcDbEntity
8
0
100
AcDbLine
62
7
6
CONTINUOUS
10
-45.4349901105
20
54.8876283279
11
-45.4342408932
21
54.8880952449
0
LINE
5
212
100
AcDbEntity
8
0
100
AcDbLine
62
7
6
CONTINUOUS
10
-41.0729622044
20
56.4007417591
11
-41.3021096940
21
56.2665122377
0
LINE
5
213
100
AcDbEntity
8
0
100
AcDbLine
62
7
6
CONTINUOUS
10
-40.6038825149
20
56.3841946281
11
-41.0563183436
21
56.1289365957
0
LINE
5
214
100
AcDbEntity
8
0
100
AcDbLine
62
7
6
CONTINUOUS
10
-46.0737755038
20
-16.1807331882
11
-46.0737755038
21
53.6093629979
0
LINE
5
215
100
AcDbEntity
8
0
100
AcDbLine
62
7
6
CONTINUOUS
10
-45.8483666410
20
-16.4786118572
11
-45.8483666410
21
53.3114838045
0
LINE
5
216
100
AcDbEntity
8
0
100
AcDbLine
62
7
6
CONTINUOUS
10
-30.0596929820
20
32.0279812697
11
-30.0561031688
21
32.0297335141
0
LINE
5
217
100
AcDbEntity
8
0
100
AcDbLine
62
7
6
CONTINUOUS
10
-28.2581692781
20
28.9462363941
11
-28.3310984284
21
28.9178514787
0
LINE
5
218
100
AcDbEntity
8
0
100
AcDbLine
62
7
6
CONTINUOUS
10
36.8472685554
20
-59.1018627368
11
36.8470751557
21
-59.1017772415
0
LINE
5
219
100
AcDbEntity
8
0
100
AcDbLine
62
7
6
CONTINUOUS
10
-44.9537609581
20
-18.2011267450
11
-44.9538623383
21
-18.2010694602
0
LINE
5
21A
100
AcDbEntity
8
0
100
AcDbLine
62
7
6
CONTINUOUS
10
-30.4786211351
20
-11.5931180541
11
-30.4786211351
21
31.4396750013
0
LINE
5
21B
100
AcDbEntity
8
0
100
AcDbLine
62
7
6
CONTINUOUS
10
-30.3351935059
20
-11.5947889305
11
-30.3351935059
21
31.4380041249
0
LINE
5
21C
100
AcDbEntity
8
0
100
AcDbLine
62
7
6
CONTINUOUS
10
-30.2945495969
20
-11.6582417957
11
-30.2945495969
21
31.1991108978
0
LINE
5
21D
100
AcDbEntity
8
0
100
AcDbLine
62
7
6
CONTINUOUS
10
-30.2678580382
20
-11.6922486789
11
-30.2678580382
21
31.1651040145
0
LINE
5
21E
100
AcDbEntity
8
0
100
AcDbLine
62
7
6
CONTINUOUS
10
42.1276108839
20
-24.1817507086
11
41.6326361371
21
-24.3030198222
0
LINE
5
21F
100
AcDbEntity
8
0
100
AcDbLine
62
7
6
CONTINUOUS
10
-29.3303867602
20
30.4145559756
11
-29.3303867602
21
-11.9506826767
0
LINE
5
220
100
AcDbEntity
8
0
100
AcDbLine
62
7
6
CONTINUOUS
10
-29.0501412227
20
29.6275646238
11
-29.0501412227
21
-11.1760802307
0
LINE
5
221
100
AcDbEntity
8
0
100
AcDbLine
62
7
6
CONTINUOUS
10
-27.4163410458
20
-9.3513215360
11
-27.4163410458
21
28.5253222779
0
LINE
5
222
100
AcDbEntity
8
0
100
AcDbLine
62
7
6
CONTINUOUS
10
-27.1688536724
20
-9.6480329319
11
-27.1688536724
21
28.4015785912
0
LINE
5
223
100
AcDbEntity
8
0
100
AcDbLine
62
7
6
CONTINUOUS
10
-28.7759724475
20
-10.3684111551
11
-29.0501412227
21
-11.1760802307
0
LINE
5
224
100
AcDbEntity
8
0
100
AcDbLine
62
7
6
CONTINUOUS
10
-28.5139750499
20
-10.4518396296
11
-28.7881438250
21
-11.2595087052
0
LINE
5
225
100
AcDbEntity
8
0
100
AcDbLine
62
7
6
CONTINUOUS
10
-8.0255611056
20
-23.4450839227
11
-7.7526843561
21
-23.5815222975
0
LINE
5
226
100
AcDbEntity
8
0
100
AcDbLine
62
7
6
CONTINUOUS
10
-7.0764244011
20
-23.9196522749
11
-6.7916831070
21
-24.0620229220
0
LINE
5
227
100
AcDbEntity
8
0
100
AcDbLine
62
7
6
CONTINUOUS
10
-6.5425347397
20
-24.1865971056
11
-6.2577941526
21
-24.3289673992
0
LINE
5
228
100
AcDbEntity
8
0
100
AcDbLine
62
7
6
CONTINUOUS
10
-5.9849174031
20
-24.4654057739
11
-5.7001761090
21
-24.6077764210
0
LINE
5
229
100
AcDbEntity
8
0
100
AcDbLine
62
7
6
CONTINUOUS
10
-5.4272993595
20
-24.7442147958
11
-5.1425587724
21
-24.8865850893
0
LINE
5
22A
100
AcDbEntity
8
0
100
AcDbLine
62
7
6
CONTINUOUS
10
-4.9171387874
20
-24.9992950818
11
-4.6323974932
21
-25.1416657289
0
LINE
5
22B
100
AcDbEntity
8
0
100
AcDbLine
62
7
6
CONTINUOUS
10
-4.0035943028
20
-25.4560673241
11
-3.7188537157
21
-25.5984376177
0
LINE
5
22C
100
AcDbEntity
8
0
100
AcDbLine
62
7
6
CONTINUOUS
10
-3.4934337307
20
-25.7111476102
11
-3.2086924365
21
-25.8535182572
0
LINE
5
22D
100
AcDbEntity
8
0
100
AcDbLine
62
7
6
CONTINUOUS
10
-2.6748034822
20
-26.1204627344
11
-2.3544699682
21
-26.2806294914
0
LINE
5
22E
100
AcDbEntity
8
0
100
AcDbLine
62
7
6
CONTINUOUS
10
-7.9475405047
20
-23.4060736223
11
-7.7144863942
21
-23.5226006776
0
LINE
5
22F
100
AcDbEntity
8
0
100
AcDbLine
62
7
6
CONTINUOUS
10
-6.9984038003
20
-23.8806419745
11
-6.7701689298
21
-23.9947594097
0
LINE
5
230
100
AcDbEntity
8
0
100
AcDbLine
62
7
6
CONTINUOUS
10
-6.4645141389
20
-24.1475868052
11
-6.2362799755
21
-24.2617038869
0
LINE
5
231
100
AcDbEntity
8
0
100
AcDbLine
62
7
6
CONTINUOUS
10
-5.9068968023
20
-24.4263954735
11
-5.6636509239
21
-24.5480184127
0
LINE
5
232
100
AcDbEntity
8
0
100
AcDbLine
62
7
6
CONTINUOUS
10
-5.3492787586
20
-24.7052044953
11
-5.1210445952
21
-24.8193215770
0
LINE
5
233
100
AcDbEntity
8
0
100
AcDbLine
62
7
6
CONTINUOUS
10
-4.8391181865
20
-24.9602847814
11
-4.5953898891
21
-25.0821489301
0
LINE
5
234
100
AcDbEntity
8
0
100
AcDbLine
62
7
6
CONTINUOUS
10
-3.9255737019
20
-25.4170570237
11
-3.7140232979
21
-25.5228322257
0
LINE
5
235
100
AcDbEntity
8
0
100
AcDbLine
62
7
6
CONTINUOUS
10
-3.4154131298
20
-25.6721373097
11
-3.1871782594
21
-25.7862547449
0
LINE
5
236
100
AcDbEntity
8
0
100
AcDbLine
62
7
6
CONTINUOUS
10
-2.5967828813
20
-26.0814524340
11
-2.3605303242
21
-26.1995787125
0
LINE
5
237
100
AcDbEntity
8
0
100
AcDbLine
62
7
6
CONTINUOUS
10
-4.4340249766
20
-24.8226367771
11
-3.9831857137
21
-25.0480564085
0
LINE
5
238
100
AcDbEntity
8
0
100
AcDbLine
62
7
6
CONTINUOUS
10
-4.3560043757
20
-24.7836264766
11
-3.9051651128
21
-25.0090461081
0
LINE
5
239
100
AcDbEntity
8
0
100
AcDbLine
62
7
6
CONTINUOUS
10
-2.9830609797
20
-25.1480874072
11
-2.7339126125
21
-25.2726615908
0
LINE
5
23A
100
AcDbEntity
8
0
100
AcDbLine
62
7
6
CONTINUOUS
10
-3.9559260664
20
-24.6616548639
11
-4.2288028159
21
-24.5252164891
0
LINE
5
23B
100
AcDbEntity
8
0
100
AcDbLine
62
7
6
CONTINUOUS
10
-2.9050403788
20
-25.1090771068
11
-2.6558920116
21
-25.2336512904
0
LINE
5
23C
100
AcDbEntity
8
0
100
AcDbLine
62
7
6
CONTINUOUS
10
-2.5286892228
20
-24.9752419570
11
-2.8846168928
21
-24.7972780824
0
LINE
5
23D
100
AcDbEntity
8
0
100
AcDbLine
62
7
6
CONTINUOUS
10
-2.7341960315
20
-24.3269911927
11
-2.3782698885
21
-24.5049542679
0
LINE
5
23E
100
AcDbEntity
8
0
100
AcDbLine
62
7
6
CONTINUOUS
10
-2.6561754306
20
-24.2879808922
11
-2.3002491543
21
-24.4659440304
0
LINE
5
23F
100
AcDbEntity
8
0
100
AcDbLine
62
7
6
CONTINUOUS
10
-2.2323674651
20
-24.1778740850
11
-2.8967641494
21
-23.8456757655
0
LINE
5
240
100
AcDbEntity
8
0
100
AcDbLine
62
7
6
CONTINUOUS
10
-3.5848879419
20
-23.5016138692
11
-3.8696292361
21
-23.3592432221
0
LINE
5
241
100
AcDbEntity
8
0
100
AcDbLine
62
7
6
CONTINUOUS
10
-4.5458891910
20
-23.0211132446
11
-4.9730000717
21
-22.8075578043
0
LINE
5
242
100
AcDbEntity
8
0
100
AcDbLine
62
7
6
CONTINUOUS
10
-5.5068897331
20
-22.5406129736
11
-5.9458651584
21
-22.3211252609
0
LINE
5
243
100
AcDbEntity
8
0
100
AcDbLine
62
7
6
CONTINUOUS
10
-6.1950135256
20
-22.1965510773
11
-6.4797548198
21
-22.0541804302
0
LINE
5
244
100
AcDbEntity
8
0
100
AcDbLine
62
7
6
CONTINUOUS
10
-6.6933102601
20
-21.9474027101
11
-6.9780515543
21
-21.8050320630
0
LINE
5
245
100
AcDbEntity
8
0
100
AcDbLine
62
7
6
CONTINUOUS
10
-7.6068540376
20
-21.4906308213
11
-7.8915953318
21
-21.3482601742
0
LINE
5
246
100
AcDbEntity
8
0
100
AcDbLine
62
7
6
CONTINUOUS
10
-28.5139750499
20
-10.4518396296
11
18.9323367188
21
-34.1749955140
0
LINE
5
247
100
AcDbEntity
8
0
100
AcDbLine
62
7
6
CONTINUOUS
10
-28.1898979340
20
-10.0625333536
11
18.9323367188
21
-33.6236506801
0
LINE
5
248
100
AcDbEntity
8
0
100
AcDbLine
62
7
6
CONTINUOUS
10
18.9323367188
20
-32.6986281275
11
-27.2751135026
21
-9.5949030168
0
LINE
5
249
100
AcDbEntity
8
0
100
AcDbLine
62
7
6
CONTINUOUS
10
16.6010560831
20
-31.5139662285
11
12.7119687866
21
-29.5694225803
0
LINE
5
24A
100
AcDbEntity
8
0
100
AcDbLine
62
7
6
CONTINUOUS
10
-15.2187490703
20
-15.6040636518
11
-19.1078363668
21
-13.6595200036
0
LINE
5
24B
100
AcDbEntity
8
0
100
AcDbLine
62
7
6
CONTINUOUS
10
16.7424774393
20
-31.4432555504
11
12.8533901428
21
-29.4987119022
0
LINE
5
24C
100
AcDbEntity
8
0
100
AcDbLine
62
7
6
CONTINUOUS
10
-15.0773277141
20
-15.5333529737
11
-18.9664150106
21
-13.5888093255
0
LINE
5
24D
100
AcDbEntity
8
0
100
AcDbLine
62
7
6
CONTINUOUS
10
16.9546094737
20
-31.3371895332
11
13.0655221772
21
-29.3926458850
0
LINE
5
24E
100
AcDbEntity
8
0
100
AcDbLine
62
7
6
CONTINUOUS
10
-14.8651956797
20
-15.4272869566
11
-18.7542829762
21
-13.4827433083
0
LINE
5
24F
100
AcDbEntity
8
0
100
AcDbLine
62
7
6
CONTINUOUS
10
17.0960308299
20
-31.2664788551
11
13.2069435334
21
-29.3219352069
0
LINE
5
250
100
AcDbEntity
8
0
100
AcDbLine
62
7
6
CONTINUOUS
10
-14.7237743235
20
-15.3565762784
11
-18.6128616200
21
-13.4120326302
0
LINE
5
251
100
AcDbEntity
8
0
100
AcDbLine
62
7
6
CONTINUOUS
10
17.3081628643
20
-31.1604128380
11
13.4190755677
21
-29.2158691897
0
LINE
5
252
100
AcDbEntity
8
0
100
AcDbLine
62
7
6
CONTINUOUS
10
-14.5116422891
20
-15.2505102613
11
-18.4007295857
21
-13.3059666130
0
LINE
5
253
100
AcDbEntity
8
0
100
AcDbLine
62
7
6
CONTINUOUS
10
17.4495842205
20
-31.0897021598
11
13.5604969240
21
-29.1451585116
0
LINE
5
254
100
AcDbEntity
8
0
100
AcDbLine
62
7
6
CONTINUOUS
10
-14.3702209329
20
-15.1797995831
11
-18.2593082294
21
-13.2352559349
0
LINE
5
255
100
AcDbEntity
8
0
100
AcDbLine
62
7
6
CONTINUOUS
10
-15.0773277141
20
-15.5333529737
11
-14.9712616969
21
-15.6102237757
0
LINE
5
256
100
AcDbEntity
8
0
100
AcDbLine
62
7
6
CONTINUOUS
10
-14.7237743235
20
-15.3565762784
11
-14.6177083063
21
-15.4334470804
0
LINE
5
257
100
AcDbEntity
8
0
100
AcDbLine
62
7
6
CONTINUOUS
10
-14.3702209329
20
-15.1797995831
11
-14.2641549157
21
-15.2566703851
0
LINE
5
258
100
AcDbEntity
8
0
100
AcDbLine
62
7
6
CONTINUOUS
10
-14.0166675423
20
-15.0030228878
11
-13.9106015251
21
-15.0798936898
0
LINE
5
259
100
AcDbEntity
8
0
100
AcDbLine
62
7
6
CONTINUOUS
10
-13.6631141517
20
-14.8262461925
11
-13.5570481345
21
-14.9031169945
0
LINE
5
25A
100
AcDbEntity
8
0
100
AcDbLine
62
7
6
CONTINUOUS
10
17.6617162549
20
-30.9836361427
11
13.7726289583
21
-29.0390924944
0
LINE
5
25B
100
AcDbEntity
8
0
100
AcDbLine
62
7
6
CONTINUOUS
10
-14.1580888985
20
-15.0737335660
11
-18.0471761951
21
-13.1291899177
0
LINE
5
25C
100
AcDbEntity
8
0
100
AcDbLine
62
7
6
CONTINUOUS
10
17.8031376111
20
-30.9129254645
11
13.9140503146
21
-28.9683818163
0
LINE
5
25D
100
AcDbEntity
8
0
100
AcDbLine
62
7
6
CONTINUOUS
10
-14.0166675423
20
-15.0030228878
11
-17.9057548388
21
-13.0584792396
0
LINE
5
25E
100
AcDbEntity
8
0
100
AcDbLine
62
7
6
CONTINUOUS
10
18.0152696455
20
-30.8068594474
11
14.1261823489
21
-28.8623157991
0
LINE
5
25F
100
AcDbEntity
8
0
100
AcDbLine
62
7
6
CONTINUOUS
10
-13.8045355079
20
-14.8969568707
11
-17.6936228045
21
-12.9524132224
0
LINE
5
260
100
AcDbEntity
8
0
100
AcDbLine
62
7
6
CONTINUOUS
10
-1.7204211289
20
-20.9080330377
11
2.5370427167
21
-23.0367649605
0
LINE
5
261
100
AcDbEntity
8
0
100
AcDbLine
62
7
6
CONTINUOUS
10
-1.5986175603
20
-20.9185331050
11
2.5941245863
21
-23.0149041783
0
LINE
5
262
100
AcDbEntity
8
0
100
AcDbLine
62
7
6
CONTINUOUS
10
-17.6303237056
20
-12.8664792090
11
-17.5760392416
21
-12.8936214410
0
LINE
5
263
100
AcDbEntity
8
0
100
AcDbLine
62
7
6
CONTINUOUS
10
-13.5570481345
20
-14.9031169945
11
-13.3728598600
21
-14.9952111318
0
LINE
5
264
100
AcDbEntity
8
0
100
AcDbLine
62
7
6
CONTINUOUS
10
14.1894814478
20
-28.7763817857
11
14.2437659118
21
-28.8035240177
0
LINE
5
265
100
AcDbEntity
8
0
100
AcDbLine
62
7
6
CONTINUOUS
10
18.2627570189
20
-30.8130195712
11
18.4469452934
21
-30.9051137085
0
LINE
5
266
100
AcDbEntity
8
0
100
AcDbLine
62
7
6
CONTINUOUS
10
18.1566910017
20
-30.7361487692
11
14.2676037052
21
-28.7916051210
0
LINE
5
267
100
AcDbEntity
8
0
100
AcDbLine
62
7
6
CONTINUOUS
10
-13.6631141517
20
-14.8262461925
11
-17.5522014482
21
-12.8817025443
0
LINE
5
268
100
AcDbEntity
8
0
100
AcDbLine
62
7
6
CONTINUOUS
10
-17.5085211833
20
-12.8769787531
11
-13.3157769441
21
-14.9733508727
0
LINE
5
269
100
AcDbEntity
8
0
100
AcDbLine
62
7
6
CONTINUOUS
10
14.3112839701
20
-28.7868813298
11
18.5040282093
21
-30.8832534494
0
LINE
5
26A
100
AcDbEntity
8
0
100
AcDbLine
62
7
6
CONTINUOUS
10
16.7424774393
20
-31.4432555504
11
16.8485434565
21
-31.5201263524
0
LINE
5
26B
100
AcDbEntity
8
0
100
AcDbLine
62
7
6
CONTINUOUS
10
17.0960308299
20
-31.2664788551
11
17.2020968471
21
-31.3433496571
0
LINE
5
26C
100
AcDbEntity
8
0
100
AcDbLine
62
7
6
CONTINUOUS
10
17.4495842205
20
-31.0897021598
11
17.5556502377
21
-31.1665729618
0
LINE
5
26D
100
AcDbEntity
8
0
100
AcDbLine
62
7
6
CONTINUOUS
10
-13.3658463302
20
-14.9915538463
11
-13.3658463302
21
-15.5036799812
0
LINE
5
26E
100
AcDbEntity
8
0
100
AcDbLine
62
7
6
CONTINUOUS
10
-13.3144752953
20
-14.9757954144
11
-13.3144752953
21
-15.4863461990
0
LINE
5
26F
100
AcDbEntity
8
0
100
AcDbLine
62
7
6
CONTINUOUS
10
-13.9178297489
20
-16.1640924481
11
-13.8352703241
21
-15.8280087089
0
LINE
5
270
100
AcDbEntity
8
0
100
AcDbLine
62
7
6
CONTINUOUS
10
-19.1163863724
20
-13.6742665819
11
-19.1078363668
21
-13.6595200036
0
LINE
5
271
100
AcDbEntity
8
0
100
AcDbLine
62
7
6
CONTINUOUS
10
-18.8496341498
20
-13.6471997559
11
-18.7542829762
21
-13.4827433083
0
LINE
5
272
100
AcDbEntity
8
0
100
AcDbLine
62
7
6
CONTINUOUS
10
17.8031376111
20
-30.9129254645
11
17.9092036283
21
-30.9897962665
0
LINE
5
273
100
AcDbEntity
8
0
100
AcDbLine
62
7
6
CONTINUOUS
10
18.1566910017
20
-30.7361487692
11
18.2627570189
21
-30.8130195712
0
LINE
5
274
100
AcDbEntity
8
0
100
AcDbLine
62
7
6
CONTINUOUS
10
-28.7759724475
20
29.0667582221
11
-29.0501412227
21
29.6275646238
0
LINE
5
275
100
AcDbEntity
8
0
100
AcDbLine
62
7
6
CONTINUOUS
10
-28.5139750499
20
29.1297290079
11
-28.7881438250
21
29.6905354096
0
LINE
5
276
100
AcDbEntity
8
0
100
AcDbLine
62
7
6
CONTINUOUS
10
-2.3544699682
20
-26.2806294914
11
-2.4222655852
21
-25.3739356391
0
LINE
5
277
100
AcDbEntity
8
0
100
AcDbLine
62
7
6
CONTINUOUS
10
-2.7339126125
20
-25.2726615908
11
-2.6748034822
21
-26.1204627344
0
LINE
5
278
100
AcDbEntity
8
0
100
AcDbLine
62
7
6
CONTINUOUS
10
-2.6558920116
20
-25.2336512904
11
-2.5967828813
21
-26.0814524340
0
LINE
5
279
100
AcDbEntity
8
0
100
AcDbLine
62
7
6
CONTINUOUS
10
-7.8915953318
20
-21.3482601742
11
-8.0255611056
21
-23.4450839227
0
LINE
5
27A
100
AcDbEntity
8
0
100
AcDbLine
62
7
6
CONTINUOUS
10
-7.8184051488
20
-21.3848552657
11
-7.9475405047
21
-23.4060736223
0
LINE
5
27B
100
AcDbEntity
8
0
100
AcDbLine
62
7
6
CONTINUOUS
10
-7.7145496161
20
-22.9459928830
11
-7.6068540376
21
-21.4906308213
0
LINE
5
27C
100
AcDbEntity
8
0
100
AcDbLine
62
7
6
CONTINUOUS
10
-18.4960807592
20
-13.4704230606
11
-18.4007295857
21
-13.3059666130
0
LINE
5
27D
100
AcDbEntity
8
0
100
AcDbLine
62
7
6
CONTINUOUS
10
-18.1425273686
20
-13.2936463653
11
-18.0471761951
21
-13.1291899177
0
LINE
5
27E
100
AcDbEntity
8
0
100
AcDbLine
62
7
6
CONTINUOUS
10
-17.7889739780
20
-13.1168696700
11
-17.6936228045
21
-12.9524132224
0
LINE
5
27F
100
AcDbEntity
8
0
100
AcDbLine
62
7
6
CONTINUOUS
10
-15.2272990759
20
-15.6188102301
11
-15.2187490703
21
-15.6040636518
0
LINE
5
280
100
AcDbEntity
8
0
100
AcDbLine
62
7
6
CONTINUOUS
10
-14.9712616969
20
-15.6102237757
11
-14.8651956797
21
-15.4272869566
0
LINE
5
281
100
AcDbEntity
8
0
100
AcDbLine
62
7
6
CONTINUOUS
10
-14.6177083063
20
-15.4334470804
11
-14.5116422891
21
-15.2505102613
0
LINE
5
282
100
AcDbEntity
8
0
100
AcDbLine
62
7
6
CONTINUOUS
10
-14.2641549157
20
-15.2566703851
11
-14.1580888985
21
-15.0737335660
0
LINE
5
283
100
AcDbEntity
8
0
100
AcDbLine
62
7
6
CONTINUOUS
10
-13.9106015251
20
-15.0798936898
11
-13.8045355079
21
-14.8969568707
0
LINE
5
284
100
AcDbEntity
8
0
100
AcDbLine
62
7
6
CONTINUOUS
10
-3.9831857137
20
-25.0480564085
11
-4.0035943028
21
-25.4560673241
0
LINE
5
285
100
AcDbEntity
8
0
100
AcDbLine
62
7
6
CONTINUOUS
10
-3.9051651128
20
-25.0090461081
11
-3.9255737019
21
-25.4170570237
0
LINE
5
286
100
AcDbEntity
8
0
100
AcDbLine
62
7
6
CONTINUOUS
10
-3.7188537157
20
-25.5984376177
11
-3.5848879419
21
-23.5016138692
0
LINE
5
287
100
AcDbEntity
8
0
100
AcDbLine
62
7
6
CONTINUOUS
10
-3.9127774626
20
-24.0104497352
11
-3.9559260664
21
-24.6616548639
0
LINE
5
288
100
AcDbEntity
8
0
100
AcDbLine
62
7
6
CONTINUOUS
10
-3.8347568617
20
-23.9714394348
11
-3.8779054656
21
-24.6226445634
0
LINE
5
289
100
AcDbEntity
8
0
100
AcDbLine
62
7
6
CONTINUOUS
10
-5.8666999133
20
-23.1062214859
11
-5.9849174031
21
-24.4654057739
0
LINE
5
28A
100
AcDbEntity
8
0
100
AcDbLine
62
7
6
CONTINUOUS
10
-5.7886793124
20
-23.0672111855
11
-5.9068968023
21
-24.4263954735
0
LINE
5
28B
100
AcDbEntity
8
0
100
AcDbLine
62
7
6
CONTINUOUS
10
-5.6369710605
20
-23.8938653429
11
-5.5068897331
21
-22.5406129736
0
LINE
5
28C
100
AcDbEntity
8
0
100
AcDbLine
62
7
6
CONTINUOUS
10
-6.4797548198
20
-22.0541804302
11
-7.0764244011
21
-23.9196522749
0
LINE
5
28D
100
AcDbEntity
8
0
100
AcDbLine
62
7
6
CONTINUOUS
10
-6.4232483961
20
-22.0824336421
11
-6.9984038003
21
-23.8806419745
0
LINE
5
28E
100
AcDbEntity
8
0
100
AcDbLine
62
7
6
CONTINUOUS
10
-6.7916831070
20
-24.0620229220
11
-6.1950135256
21
-22.1965510773
0
LINE
5
28F
100
AcDbEntity
8
0
100
AcDbLine
62
7
6
CONTINUOUS
10
-27.4163410458
20
-9.3513215360
11
-28.3310987683
21
-9.8189382194
0
LINE
5
290
100
AcDbEntity
8
0
100
AcDbLine
62
7
6
CONTINUOUS
10
-27.2751135026
20
-9.5949030168
11
-28.1898979340
21
-10.0625333536
0
LINE
5
291
100
AcDbEntity
8
0
100
AcDbLine
62
7
6
CONTINUOUS
10
-29.5825898387
20
-12.8852888230
11
-29.6474696572
21
-12.9178018253
0
LINE
5
292
100
AcDbEntity
8
0
100
AcDbLine
62
7
6
CONTINUOUS
10
41.6326361371
20
-23.6570617669
11
42.1276108839
21
-23.9045491404
0
LINE
5
293
100
AcDbEntity
8
0
100
AcDbLine
62
7
6
CONTINUOUS
10
2.5440562465
20
-23.0331076751
11
2.5440562465
21
-23.4586312696
0
LINE
5
294
100
AcDbEntity
8
0
100
AcDbLine
62
7
6
CONTINUOUS
10
2.5954272814
20
-23.0173488473
11
2.5954272814
21
-23.4412974768
0
LINE
5
295
100
AcDbEntity
8
0
100
AcDbLine
62
7
6
CONTINUOUS
10
-5.9458651584
20
-22.3211252609
11
-6.5425347397
21
-24.1865971056
0
LINE
5
296
100
AcDbEntity
8
0
100
AcDbLine
62
7
6
CONTINUOUS
10
-5.8893587346
20
-22.3493784728
11
-6.4645141389
21
-24.1475868052
0
LINE
5
297
100
AcDbEntity
8
0
100
AcDbLine
62
7
6
CONTINUOUS
10
-6.2577941526
20
-24.3289673992
11
-5.8666999133
21
-23.1062214859
0
LINE
5
298
100
AcDbEntity
8
0
100
AcDbLine
62
7
6
CONTINUOUS
10
-5.0362051201
20
-23.5214688825
11
-5.4272993595
21
-24.7442147958
0
LINE
5
299
100
AcDbEntity
8
0
100
AcDbLine
62
7
6
CONTINUOUS
10
-4.9581845192
20
-23.4824585820
11
-5.3492787586
21
-24.7052044953
0
LINE
5
29A
100
AcDbEntity
8
0
100
AcDbLine
62
7
6
CONTINUOUS
10
-5.1425587724
20
-24.8865850893
11
-4.5458891910
21
-23.0211132446
0
LINE
5
29B
100
AcDbEntity
8
0
100
AcDbLine
62
7
6
CONTINUOUS
10
-2.8967641494
20
-23.8456757655
11
-3.4934337307
21
-25.7111476102
0
LINE
5
29C
100
AcDbEntity
8
0
100
AcDbLine
62
7
6
CONTINUOUS
10
-2.8402577251
20
-23.8739289757
11
-3.4154131298
21
-25.6721373097
0
LINE
5
29D
100
AcDbEntity
8
0
100
AcDbLine
62
7
6
CONTINUOUS
10
-2.8846168928
20
-24.7972780824
11
-2.7341960315
21
-24.3269911927
0
LINE
5
29E
100
AcDbEntity
8
0
100
AcDbLine
62
7
6
CONTINUOUS
10
-3.2086924365
20
-25.8535182572
11
-2.9830609797
21
-25.1480874072
0
LINE
5
29F
100
AcDbEntity
8
0
100
AcDbLine
62
7
6
CONTINUOUS
10
-6.9780515543
20
-21.8050320630
11
-7.7145496161
21
-22.9459928830
0
LINE
5
2A0
100
AcDbEntity
8
0
100
AcDbLine
62
7
6
CONTINUOUS
10
-6.9381051956
20
-21.8250052423
11
-7.6365290152
21
-22.9069825826
0
LINE
5
2A1
100
AcDbEntity
8
0
100
AcDbLine
62
7
6
CONTINUOUS
10
-13.6277588126
20
-15.7222695136
11
-13.3730539390
21
-15.5376734627
0
LINE
5
2A2
100
AcDbEntity
8
0
100
AcDbLine
62
7
6
CONTINUOUS
10
37.1799917399
20
13.9961299641
11
40.2070392700
21
15.5429218883
0
LINE
5
2A3
100
AcDbEntity
8
0
100
AcDbLine
62
7
6
CONTINUOUS
10
-19.1078363668
20
-13.6595200036
11
-18.9664150106
21
-13.5888093255
0
LINE
5
2A4
100
AcDbEntity
8
0
100
AcDbLine
62
7
6
CONTINUOUS
10
-18.7542829762
20
-13.4827433083
11
-18.6128616200
21
-13.4120326302
0
LINE
5
2A5
100
AcDbEntity
8
0
100
AcDbLine
62
7
6
CONTINUOUS
10
-18.4007295857
20
-13.3059666130
11
-18.2593082294
21
-13.2352559349
0
LINE
5
2A6
100
AcDbEntity
8
0
100
AcDbLine
62
7
6
CONTINUOUS
10
-18.0471761951
20
-13.1291899177
11
-17.9057548388
21
-13.0584792396
0
LINE
5
2A7
100
AcDbEntity
8
0
100
AcDbLine
62
7
6
CONTINUOUS
10
-17.6936228045
20
-12.9524132224
11
-17.5522014482
21
-12.8817025443
0
LINE
5
2A8
100
AcDbEntity
8
0
100
AcDbLine
62
7
6
CONTINUOUS
10
41.5418350182
20
13.8887050456
11
42.1276108839
21
14.1524225249
0
LINE
5
2A9
100
AcDbEntity
8
0
100
AcDbLine
62
7
6
CONTINUOUS
10
-17.6303237056
20
-12.8664792090
11
-19.2624173763
21
-13.6012510799
0
LINE
5
2AA
100
AcDbEntity
8
0
100
AcDbLine
62
7
6
CONTINUOUS
10
1.9920728278
20
-24.1190437365
11
2.0746322526
21
-23.7829599973
0
LINE
5
2AB
100
AcDbEntity
8
0
100
AcDbLine
62
7
6
CONTINUOUS
10
-4.9730000717
20
-22.8075578043
11
-5.6369710605
21
-23.8938653429
0
LINE
5
2AC
100
AcDbEntity
8
0
100
AcDbLine
62
7
6
CONTINUOUS
10
-4.9315046559
20
-22.8283055122
11
-5.5589504597
21
-23.8548550424
0
LINE
5
2AD
100
AcDbEntity
8
0
100
AcDbLine
62
7
6
CONTINUOUS
10
-5.7001761090
20
-24.6077764210
11
-5.0362051201
21
-23.5214688825
0
LINE
5
2AE
100
AcDbEntity
8
0
100
AcDbLine
62
7
6
CONTINUOUS
10
-4.2288028159
20
-24.5252164891
11
-3.9127774626
21
-24.0104497352
0
LINE
5
2AF
100
AcDbEntity
8
0
100
AcDbLine
62
7
6
CONTINUOUS
10
-4.6323974932
20
-25.1416657289
11
-4.4340249766
21
-24.8226367771
0
LINE
5
2B0
100
AcDbEntity
8
0
100
AcDbLine
62
7
6
CONTINUOUS
10
-3.8696292361
20
-23.3592432221
11
-4.9171387874
21
-24.9992950818
0
LINE
5
2B1
100
AcDbEntity
8
0
100
AcDbLine
62
7
6
CONTINUOUS
10
-3.8293787960
20
-23.3793684421
11
-4.8391181865
21
-24.9602847814
0
LINE
5
2B2
100
AcDbEntity
8
0
100
AcDbLine
62
7
6
CONTINUOUS
10
-7.7526843561
20
-23.5815222975
11
-6.6933102601
21
-21.9474027101
0
LINE
5
2B3
100
AcDbEntity
8
0
100
AcDbLine
62
7
6
CONTINUOUS
10
40.8695496795
20
15.0611604595
11
41.4205041027
21
15.3720013193
0
LINE
5
2B4
100
AcDbEntity
8
0
100
AcDbLine
62
7
6
CONTINUOUS
10
-13.3728598600
20
-14.9952111318
11
-14.8424036018
21
-15.8112579672
0
LINE
5
2B5
100
AcDbEntity
8
0
100
AcDbLine
62
7
6
CONTINUOUS
10
38.5630701848
20
11.7076332271
11
41.6326361371
21
13.2761679729
0
LINE
5
2B6
100
AcDbEntity
8
0
100
AcDbLine
62
7
6
CONTINUOUS
10
-13.6277588126
20
-15.7222695136
11
-14.3174771845
21
-16.0737211759
0
LINE
5
2B7
100
AcDbEntity
8
0
100
AcDbLine
62
7
6
CONTINUOUS
10
-13.9178297489
20
-16.1640924481
11
-14.0270372541
21
-16.2189411411
0
LINE
5
2B8
100
AcDbEntity
8
0
100
AcDbLine
62
7
6
CONTINUOUS
10
-15.2187490703
20
-15.6040636518
11
-15.0773277141
21
-15.5333529737
0
LINE
5
2B9
100
AcDbEntity
8
0
100
AcDbLine
62
7
6
CONTINUOUS
10
-14.8651956797
20
-15.4272869566
11
-14.7237743235
21
-15.3565762784
0
LINE
5
2BA
100
AcDbEntity
8
0
100
AcDbLine
62
7
6
CONTINUOUS
10
-14.5116422891
20
-15.2505102613
11
-14.3702209329
21
-15.1797995831
0
LINE
5
2BB
100
AcDbEntity
8
0
100
AcDbLine
62
7
6
CONTINUOUS
10
-14.1580888985
20
-15.0737335660
11
-14.0166675423
21
-15.0030228878
0
LINE
5
2BC
100
AcDbEntity
8
0
100
AcDbLine
62
7
6
CONTINUOUS
10
-13.8045355079
20
-14.8969568707
11
-13.6631141517
21
-14.8262461925
0
LINE
5
2BD
100
AcDbEntity
8
0
100
AcDbLine
62
7
6
CONTINUOUS
10
-13.5570481345
20
-14.9031169945
11
-15.1078668408
21
-15.6785263477
0
LINE
5
2BE
100
AcDbEntity
8
0
100
AcDbLine
62
7
6
CONTINUOUS
10
-13.3658463302
20
-15.5036799812
11
-14.4135843878
21
-16.0256675742
0
LINE
5
2BF
100
AcDbEntity
8
0
100
AcDbLine
62
7
6
CONTINUOUS
10
18.9323367188
20
5.3509833956
11
-28.4100302715
21
29.0221668908
0
LINE
5
2C0
100
AcDbEntity
8
0
100
AcDbLine
62
7
6
CONTINUOUS
10
18.9323367188
20
5.4065731236
11
-28.5139750499
21
29.1297290079
0
LINE
5
2C1
100
AcDbEntity
8
0
100
AcDbLine
62
7
6
CONTINUOUS
10
19.5868191420
20
7.3730687440
11
19.5868877712
21
7.3730306094
0
LINE
5
2C2
100
AcDbEntity
8
0
100
AcDbLine
62
7
6
CONTINUOUS
10
18.4539588232
20
-30.9014564230
11
18.4539588232
21
-31.4135825579
0
LINE
5
2C3
100
AcDbEntity
8
0
100
AcDbLine
62
7
6
CONTINUOUS
10
18.5053298581
20
-30.8856979911
11
18.5053298581
21
-31.3962487757
0
LINE
5
2C4
100
AcDbEntity
8
0
100
AcDbLine
62
7
6
CONTINUOUS
10
18.9323367188
20
-35.7461869612
11
18.9323367188
21
6.0299962567
0
LINE
5
2C5
100
AcDbEntity
8
0
100
AcDbLine
62
7
6
CONTINUOUS
10
18.9960966566
20
-36.1139243874
11
18.9960966566
21
6.2513142638
0
LINE
5
2C6
100
AcDbEntity
8
0
100
AcDbLine
62
7
6
CONTINUOUS
10
20.0050786962
20
6.0286356473
11
20.0050786962
21
-36.8287170461
0
LINE
5
2C7
100
AcDbEntity
8
0
100
AcDbLine
62
7
6
CONTINUOUS
10
20.1400055233
20
6.0281326266
11
20.1400055233
21
-36.8292200668
0
LINE
5
2C8
100
AcDbEntity
8
0
100
AcDbLine
62
7
6
CONTINUOUS
10
20.3467635999
20
6.0476426344
11
20.3467635999
21
-36.9851504244
0
LINE
5
2C9
100
AcDbEntity
8
0
100
AcDbLine
62
7
6
CONTINUOUS
10
20.3787803077
20
6.0109742798
11
20.3787803077
21
-37.0218187757
0
LINE
5
2CA
100
AcDbEntity
8
0
100
AcDbLine
62
7
6
CONTINUOUS
10
2.2821437641
20
-23.6772208019
11
2.5368486377
21
-23.4926247511
0
LINE
5
2CB
100
AcDbEntity
8
0
100
AcDbLine
62
7
6
CONTINUOUS
10
2.5370427167
20
-23.0367649605
11
1.1495628684
21
-23.8072412023
0
LINE
5
2CC
100
AcDbEntity
8
0
100
AcDbLine
62
7
6
CONTINUOUS
10
-7.7145496161
20
-22.9459928830
11
-7.6365290152
21
-22.9069825826
0
LINE
5
2CD
100
AcDbEntity
8
0
100
AcDbLine
62
7
6
CONTINUOUS
10
-8.0255611056
20
-23.4450839227
11
-7.9475405047
21
-23.4060736223
0
LINE
5
2CE
100
AcDbEntity
8
0
100
AcDbLine
62
7
6
CONTINUOUS
10
-5.8666999133
20
-23.1062214859
11
-5.7886793124
21
-23.0672111855
0
LINE
5
2CF
100
AcDbEntity
8
0
100
AcDbLine
62
7
6
CONTINUOUS
10
-7.0764244011
20
-23.9196522749
11
-6.9984038003
21
-23.8806419745
0
LINE
5
2D0
100
AcDbEntity
8
0
100
AcDbLine
62
7
6
CONTINUOUS
10
-6.5425347397
20
-24.1865971056
11
-6.4645141389
21
-24.1475868052
0
LINE
5
2D1
100
AcDbEntity
8
0
100
AcDbLine
62
7
6
CONTINUOUS
10
-5.0362051201
20
-23.5214688825
11
-4.9581845192
21
-23.4824585820
0
LINE
5
2D2
100
AcDbEntity
8
0
100
AcDbLine
62
7
6
CONTINUOUS
10
-5.6369710605
20
-23.8938653429
11
-5.5589504597
21
-23.8548550424
0
LINE
5
2D3
100
AcDbEntity
8
0
100
AcDbLine
62
7
6
CONTINUOUS
10
-5.9849174031
20
-24.4654057739
11
-5.9068968023
21
-24.4263954735
0
LINE
5
2D4
100
AcDbEntity
8
0
100
AcDbLine
62
7
6
CONTINUOUS
10
-5.4272993595
20
-24.7442147958
11
-5.3492787586
21
-24.7052044953
0
LINE
5
2D5
100
AcDbEntity
8
0
100
AcDbLine
62
7
6
CONTINUOUS
10
-3.9127774626
20
-24.0104497352
11
-3.8347568617
21
-23.9714394348
0
LINE
5
2D6
100
AcDbEntity
8
0
100
AcDbLine
62
7
6
CONTINUOUS
10
-4.9171387874
20
-24.9992950818
11
-4.8391181865
21
-24.9602847814
0
LINE
5
2D7
100
AcDbEntity
8
0
100
AcDbLine
62
7
6
CONTINUOUS
10
-4.4340249766
20
-24.8226367771
11
-4.3560043757
21
-24.7836264766
0
LINE
5
2D8
100
AcDbEntity
8
0
100
AcDbLine
62
7
6
CONTINUOUS
10
-3.9559260664
20
-24.6616548639
11
-3.8779054656
21
-24.6226445634
0
LINE
5
2D9
100
AcDbEntity
8
0
100
AcDbLine
62
7
6
CONTINUOUS
10
-2.7341960315
20
-24.3269911927
11
-2.6561754306
21
-24.2879808922
0
LINE
5
2DA
100
AcDbEntity
8
0
100
AcDbLine
62
7
6
CONTINUOUS
10
-3.9831857137
20
-25.0480564085
11
-3.9051651128
21
-25.0090461081
0
LINE
5
2DB
100
AcDbEntity
8
0
100
AcDbLine
62
7
6
CONTINUOUS
10
-2.3782697610
20
-24.5049543337
11
-2.3002491543
21
-24.4659440304
0
LINE
5
2DC
100
AcDbEntity
8
0
100
AcDbLine
62
7
6
CONTINUOUS
10
-4.0035943028
20
-25.4560673241
11
-3.9255737019
21
-25.4170570237
0
LINE
5
2DD
100
AcDbEntity
8
0
100
AcDbLine
62
7
6
CONTINUOUS
10
-2.9830609797
20
-25.1480874072
11
-2.9050403788
21
-25.1090771068
0
LINE
5
2DE
100
AcDbEntity
8
0
100
AcDbLine
62
7
6
CONTINUOUS
10
-2.3890721965
20
-24.9736990771
11
-2.3110515956
21
-24.9346887766
0
LINE
5
2DF
100
AcDbEntity
8
0
100
AcDbLine
62
7
6
CONTINUOUS
10
-2.7339126125
20
-25.2726615908
11
-2.6558920116
21
-25.2336512904
0
LINE
5
2E0
100
AcDbEntity
8
0
100
AcDbLine
62
7
6
CONTINUOUS
10
-3.4934337307
20
-25.7111476102
11
-3.4154131298
21
-25.6721373097
0
LINE
5
2E1
100
AcDbEntity
8
0
100
AcDbLine
62
7
6
CONTINUOUS
10
-1.7204211289
20
-20.9080330377
11
-3.2613736124
21
-21.6017729619
0
LINE
5
2E2
100
AcDbEntity
8
0
100
AcDbLine
62
7
6
CONTINUOUS
10
-29.6926165103
20
32.0128114722
11
-29.6925068600
21
32.0127632414
0
LINE
5
2E3
100
AcDbEntity
8
0
100
AcDbLine
62
7
6
CONTINUOUS
10
17.9019754045
20
-32.0739950248
11
17.9845348293
21
-31.7379112856
0
LINE
5
2E4
100
AcDbEntity
8
0
100
AcDbLine
62
7
6
CONTINUOUS
10
12.7034187810
20
-29.5841691586
11
12.7119687866
21
-29.5694225803
0
LINE
5
2E5
100
AcDbEntity
8
0
100
AcDbLine
62
7
6
CONTINUOUS
10
12.9701710036
20
-29.5571023326
11
13.0655221772
21
-29.3926458850
0
LINE
5
2E6
100
AcDbEntity
8
0
100
AcDbLine
62
7
6
CONTINUOUS
10
13.3237243942
20
-29.3803256373
11
13.4190755677
21
-29.2158691897
0
LINE
5
2E7
100
AcDbEntity
8
0
100
AcDbLine
62
7
6
CONTINUOUS
10
13.6772777848
20
-29.2035489420
11
13.7726289583
21
-29.0390924944
0
LINE
5
2E8
100
AcDbEntity
8
0
100
AcDbLine
62
7
6
CONTINUOUS
10
2.2821437641
20
-23.6772208019
11
1.5924253922
21
-24.0286724642
0
LINE
5
2E9
100
AcDbEntity
8
0
100
AcDbLine
62
7
6
CONTINUOUS
10
1.9920728278
20
-24.1190437365
11
1.8828653226
21
-24.1738924294
0
LINE
5
2EA
100
AcDbEntity
8
0
100
AcDbLine
62
7
6
CONTINUOUS
10
-2.4222655852
20
-25.3739356391
11
-2.3442449843
21
-25.3349253387
0
LINE
5
2EB
100
AcDbEntity
8
0
100
AcDbLine
62
7
6
CONTINUOUS
10
-2.6748034822
20
-26.1204627344
11
-2.5967828813
21
-26.0814524340
0
LINE
5
2EC
100
AcDbEntity
8
0
100
AcDbLine
62
7
6
CONTINUOUS
10
2.5440562465
20
-23.4586312696
11
1.4963181889
21
-23.9806188625
0
LINE
5
2ED
100
AcDbEntity
8
0
100
AcDbLine
62
7
6
CONTINUOUS
10
14.0308311754
20
-29.0267722467
11
14.1261823489
21
-28.8623157991
0
LINE
5
2EE
100
AcDbEntity
8
0
100
AcDbLine
62
7
6
CONTINUOUS
10
16.5925060775
20
-31.5287128068
11
16.6010560831
21
-31.5139662285
0
LINE
5
2EF
100
AcDbEntity
8
0
100
AcDbLine
62
7
6
CONTINUOUS
10
16.8485434565
20
-31.5201263524
11
16.9546094737
21
-31.3371895332
0
LINE
5
2F0
100
AcDbEntity
8
0
100
AcDbLine
62
7
6
CONTINUOUS
10
17.2020968471
20
-31.3433496571
11
17.3081628643
21
-31.1604128380
0
LINE
5
2F1
100
AcDbEntity
8
0
100
AcDbLine
62
7
6
CONTINUOUS
10
17.5556502377
20
-31.1665729618
11
17.6617162549
21
-30.9836361427
0
LINE
5
2F2
100
AcDbEntity
8
0
100
AcDbLine
62
7
6
CONTINUOUS
10
17.9092036283
20
-30.9897962665
11
18.0152696455
21
-30.8068594474
0
LINE
5
2F3
100
AcDbEntity
8
0
100
AcDbLine
62
7
6
CONTINUOUS
10
18.1920463408
20
-31.6321720903
11
18.4467512144
21
-31.4475760394
0
LINE
5
2F4
100
AcDbEntity
8
0
100
AcDbLine
62
7
6
CONTINUOUS
10
18.4469452934
20
-30.9051137085
11
16.9774015516
21
-31.7211605439
0
LINE
5
2F5
100
AcDbEntity
8
0
100
AcDbLine
62
7
6
CONTINUOUS
10
18.1920463408
20
-31.6321720903
11
17.5023279689
21
-31.9836237526
0
LINE
5
2F6
100
AcDbEntity
8
0
100
AcDbLine
62
7
6
CONTINUOUS
10
17.9019754045
20
-32.0739950248
11
17.7927678993
21
-32.1288437178
0
LINE
5
2F7
100
AcDbEntity
8
0
100
AcDbLine
62
7
6
CONTINUOUS
10
12.7119687866
20
-29.5694225803
11
12.8533901428
21
-29.4987119022
0
LINE
5
2F8
100
AcDbEntity
8
0
100
AcDbLine
62
7
6
CONTINUOUS
10
13.0655221772
20
-29.3926458850
11
13.2069435334
21
-29.3219352069
0
LINE
5
2F9
100
AcDbEntity
8
0
100
AcDbLine
62
7
6
CONTINUOUS
10
13.4190755677
20
-29.2158691897
11
13.5604969240
21
-29.1451585116
0
LINE
5
2FA
100
AcDbEntity
8
0
100
AcDbLine
62
7
6
CONTINUOUS
10
13.7726289583
20
-29.0390924944
11
13.9140503146
21
-28.9683818163
0
LINE
5
2FB
100
AcDbEntity
8
0
100
AcDbLine
62
7
6
CONTINUOUS
10
14.1261823489
20
-28.8623157991
11
14.2676037052
21
-28.7916051210
0
LINE
5
2FC
100
AcDbEntity
8
0
100
AcDbLine
62
7
6
CONTINUOUS
10
16.6010560831
20
-31.5139662285
11
16.7424774393
21
-31.4432555504
0
LINE
5
2FD
100
AcDbEntity
8
0
100
AcDbLine
62
7
6
CONTINUOUS
10
16.9546094737
20
-31.3371895332
11
17.0960308299
21
-31.2664788551
0
LINE
5
2FE
100
AcDbEntity
8
0
100
AcDbLine
62
7
6
CONTINUOUS
10
17.3081628643
20
-31.1604128380
11
17.4495842205
21
-31.0897021598
0
LINE
5
2FF
100
AcDbEntity
8
0
100
AcDbLine
62
7
6
CONTINUOUS
10
17.6617162549
20
-30.9836361427
11
17.8031376111
21
-30.9129254645
0
LINE
5
300
100
AcDbEntity
8
0
100
AcDbLine
62
7
6
CONTINUOUS
10
18.0152696455
20
-30.8068594474
11
18.1566910017
21
-30.7361487692
0
LINE
5
301
100
AcDbEntity
8
0
100
AcDbLine
62
7
6
CONTINUOUS
10
18.2627570189
20
-30.8130195712
11
16.7119383126
21
-31.5884289244
0
LINE
5
302
100
AcDbEntity
8
0
100
AcDbLine
62
7
6
CONTINUOUS
10
18.4539588232
20
-31.4135825579
11
17.4062207656
21
-31.9355701509
0
LINE
5
303
100
AcDbEntity
8
0
100
AcDbLine
62
7
6
CONTINUOUS
10
14.1894814478
20
-28.7763817857
11
12.5573877770
21
-29.5111536566
0
LINE
5
304
100
AcDbEntity
8
0
100
AcDbLine
62
7
6
CONTINUOUS
10
-40.6038825149
20
56.3841946281
11
41.4205041027
21
15.3720013193
0
LINE
5
305
100
AcDbEntity
8
0
100
AcDbLine
62
7
6
CONTINUOUS
10
37.3650953079
20
11.7047528300
11
37.3650953079
21
-58.0853428317
0
LINE
5
306
100
AcDbEntity
8
0
100
AcDbLine
62
7
6
CONTINUOUS
10
38.5630701848
20
11.7076332271
11
38.5630701848
21
-58.0824624345
0
LINE
5
307
100
AcDbEntity
8
0
100
AcDbLine
62
7
6
CONTINUOUS
10
41.6326361371
20
13.2761679729
11
41.6326361371
21
-56.8871475826
0
LINE
5
308
100
AcDbEntity
8
0
100
AcDbLine
62
7
6
CONTINUOUS
10
41.6326361371
20
-17.9858700984
11
42.1276108839
21
-17.6614619481
0
LINE
5
309
100
AcDbEntity
8
0
100
AcDbLine
62
7
6
CONTINUOUS
10
41.5619254590
20
15.2837933748
11
41.8447681714
21
15.0716613404
0
LINE
5
30A
100
AcDbEntity
8
0
100
AcDbLine
62
7
6
CONTINUOUS
10
42.1276108839
20
-17.6614619481
11
42.1276108839
21
14.5059759155
0
LINE
5
30B
100
AcDbEntity
8
0
100
AcDbLine
62
7
6
CONTINUOUS
10
42.1276108839
20
-23.9045491404
11
42.1276108839
21
-55.9956351816
0
LINE
5
30C
100
AcDbEntity
8
0
100
AcDbLine
62
7
6
CONTINUOUS
10
20.2608369630
20
-37.2286241291
11
19.6293738484
21
-37.5562235782
0
LINE
5
30D
100
AcDbEntity
8
0
100
AcDbLine
62
7
6
CONTINUOUS
10
20.0834614141
20
-37.5482675240
11
20.0834239684
21
-37.5482869563
0
LINE
5
30E
100
AcDbEntity
8
0
100
AcDbLine
62
7
6
CONTINUOUS
10
19.8388254552
20
-37.3874941827
11
19.8387931797
21
-37.3875068950
0
LINE
5
30F
100
AcDbEntity
8
0
100
AcDbLine
62
7
6
CONTINUOUS
10
42.1276108839
20
-55.9956351816
11
41.6326361371
21
-56.2184738136
0
LINE
5
310
100
AcDbEntity
8
0
100
AcDbLine
62
7
6
CONTINUOUS
10
41.8451143169
20
-56.5468890635
11
41.6326361371
21
-56.6360726234
0
LINE
5
311
100
AcDbEntity
8
0
100
AcDbLine
62
7
6
CONTINUOUS
10
41.6326361371
20
-56.8871475826
11
38.5630701848
21
-58.0824624345
0
LINE
5
312
100
AcDbEntity
8
0
100
AcDbLine
62
7
6
CONTINUOUS
10
37.9774362725
20
-59.1483706437
11
41.0429344220
21
-57.9546955805
0
SPLINE
5
313
100
AcDbEntity
8
0
100
AcDbSpline
62
7
6
CONTINUOUS
70
0
71
3
72
31
73
27
74
25
42
0.0000001000
43
0.0000001000
44
0.0000000001
12
1.2250932597
22
-0.6125466298
32
0.0000000000
13
-1.2257547019
23
-0.6128808043
33
0.0000000000
40
0.0000000000
40
0.0000000000
40
0.0000000000
40
0.0000000000
40
0.0356929757
40
0.0728212101
40
0.1111884263
40
0.1506616096
40
0.1915324402
40
0.2336686814
40
0.2766936756
40
0.3203397008
40
0.3649084974
40
0.4102572667
40
0.4560880047
40
0.5022413031
40
0.5489772671
40
0.5957671891
40
0.6419919247
40
0.6873003659
40
0.7320087027
40
0.7758903598
40
0.8186948763
40
0.8604272307
40
0.9013610386
40
0.9412567953
40
0.9798116075
40
1.0000000000
40
1.0000000000
40
1.0000000000
40
1.0000000000
10
-2.2323674651
20
-24.1778740850
30
0.0000000000
10
-2.2177917238
20
-24.1851619557
30
0.0000000000
10
-2.1889860062
20
-24.2019611891
30
0.0000000000
10
-2.1483762649
20
-24.2325969258
30
0.0000000000
10
-2.1101576050
20
-24.2687284796
30
0.0000000000
10
-2.0748254153
20
-24.3099521295
30
0.0000000000
10
-2.0428192001
20
-24.3559181709
30
0.0000000000
10
-2.0146468833
20
-24.4061942752
30
0.0000000000
10
-1.9908456811
20
-24.4600626909
30
0.0000000000
10
-1.9715805973
20
-24.5168798615
30
0.0000000000
10
-1.9569694948
20
-24.5761581031
30
0.0000000000
10
-1.9471539393
20
-24.6374232445
30
0.0000000000
10
-1.9421952367
20
-24.6999927397
30
0.0000000000
10
-1.9420942685
20
-24.7633899136
30
0.0000000000
10
-1.9469620403
20
-24.8270443019
30
0.0000000000
10
-1.9569815008
20
-24.8901307187
30
0.0000000000
10
-1.9719505386
20
-24.9515549395
30
0.0000000000
10
-1.9914565000
20
-25.0106893827
30
0.0000000000
10
-2.0152701191
20
-25.0670707199
30
0.0000000000
10
-2.0433035914
20
-25.1201964535
30
0.0000000000
10
-2.0752797479
20
-25.1694396159
30
0.0000000000
10
-2.1108928242
20
-25.2144217086
30
0.0000000000
10
-2.1498885884
20
-25.2546952865
30
0.0000000000
10
-2.1918938469
20
-25.2896041932
30
0.0000000000
10
-2.2295816377
20
-25.3144290253
30
0.0000000000
10
-2.2532095299
20
-25.3271779937
30
0.0000000000
10
-2.2614582023
20
-25.3313023531
30
0.0000000000
11
-2.2323674651
21
-24.1778740850
31
0.0000000000
11
-2.1900844365
21
-24.2024145238
31
0.0000000000
11
-2.1494278148
21
-24.2329629796
31
0.0000000000
11
-2.1111832763
21
-24.2690047179
31
0.0000000000
11
-2.0759456468
21
-24.3100104452
31
0.0000000000
11
-2.0439102432
21
-24.3559186309
31
0.0000000000
11
-2.0156534478
21
-24.4062419902
31
0.0000000000
11
-1.9917718089
21
-24.4601172976
31
0.0000000000
11
-1.9725236671
21
-24.5167156234
31
0.0000000000
11
-1.9578741192
21
-24.5759774831
31
0.0000000000
11
-1.9480052590
21
-24.6373024985
31
0.0000000000
11
-1.9430147711
21
-24.6998779886
31
0.0000000000
11
-1.9429105525
21
-24.7630938865
31
0.0000000000
11
-1.9478206711
21
-24.8269193549
31
0.0000000000
11
-1.9578816595
21
-24.8902126698
31
0.0000000000
11
-1.9728656554
21
-24.9517278797
31
0.0000000000
11
-1.9923332229
21
-25.0106541623
31
0.0000000000
11
-2.0162182355
21
-25.0670408186
31
0.0000000000
11
-2.0443252264
21
-25.1201685054
31
0.0000000000
11
-2.0763017471
21
-25.1693099524
31
0.0000000000
11
-2.1118428644
21
-25.2140778778
31
0.0000000000
11
-2.1509169814
21
-25.2542861752
31
0.0000000000
11
-2.1929789736
21
-25.2891698505
31
0.0000000000
11
-2.2371088132
21
-25.3181746951
31
0.0000000000
11
-2.2614582023
21
-25.3313023531
31
0.0000000000
0
SPLINE
5
314
100
AcDbEntity
8
0
100
AcDbSpline
62
7
6
CONTINUOUS
70
0
71
3
72
13
73
9
74
7
42
0.0000001000
43
0.0000001000
44
0.0000000001
12
0.1293538127
22
-0.0646769064
32
0.0000000000
13
0.1294923960
23
0.0647402446
33
0.0000000000
40
0.0000000000
40
0.0000000000
40
0.0000000000
40
0.0000000000
40
0.1676817776
40
0.3384208063
40
0.5112336446
40
0.6878348126
40
0.8692777095
40
1.0000000000
40
1.0000000000
40
1.0000000000
40
1.0000000000
10
-2.5286892228
20
-24.9752419570
30
0.0000000000
10
-2.5214591304
20
-24.9788570032
30
0.0000000000
10
-2.5062364664
20
-24.9849604484
30
0.0000000000
10
-2.4820659996
20
-24.9902901244
30
0.0000000000
10
-2.4569150801
20
-24.9916411255
30
0.0000000000
10
-2.4313638422
20
-24.9888473663
30
0.0000000000
10
-2.4085633983
20
-24.9825082318
30
0.0000000000
10
-2.3947140503
20
-24.9765194551
30
0.0000000000
10
-2.3890715361
20
-24.9736984574
30
0.0000000000
11
-2.5286892228
21
-24.9752419570
31
0.0000000000
11
-2.5061831231
21
-24.9842730496
31
0.0000000000
11
-2.4820728951
21
-24.9896042819
31
0.0000000000
11
-2.4571171337
21
-24.9909594907
31
0.0000000000
11
-2.4317260722
21
-24.9882015234
31
0.0000000000
11
-2.4064381585
21
-24.9811949595
31
0.0000000000
11
-2.3890715361
21
-24.9736984574
31
0.0000000000
0
SPLINE
5
315
100
AcDbEntity
8
0
100
AcDbSpline
62
7
6
CONTINUOUS
70
0
71
3
72
20
73
16
74
14
42
0.0000001000
43
0.0000001000
44
0.0000000001
12
46.3889545720
22
-29.5734929010
32
0.0000000000
13
51.5584629557
23
-19.1898829404
33
0.0000000000
40
0.0000000000
40
0.0000000000
40
0.0000000000
40
0.0000000000
40
0.0780364189
40
0.1560271316
40
0.2337683594
40
0.3112726543
40
0.3885524178
40
0.4656202110
40
0.5424886719
40
0.6191705048
40
0.6956784678
40
0.7720253590
40
0.8482239337
40
0.9242872116
40
1.0000000000
40
1.0000000000
40
1.0000000000
40
1.0000000000
10
-29.6841544177
20
-12.8209098412
30
0.0000000000
10
-28.4774784543
20
-13.5901796677
30
0.0000000000
10
-26.0527907959
20
-15.1094746959
30
0.0000000000
10
-22.3846129735
20
-17.3282308969
30
0.0000000000
10
-18.6900878851
20
-19.4835569287
30
0.0000000000
10
-14.9729695869
20
-21.5732000074
30
0.0000000000
10
-11.2336132695
20
-23.5969692824
30
0.0000000000
10
-7.4723868239
20
-25.5546713682
30
0.0000000000
10
-3.6896620735
20
-27.4461157565
30
0.0000000000
10
0.1141824099
20
-29.2711132064
30
0.0000000000
10
3.9387618764
20
-31.0294760185
30
0.0000000000
10
7.7836821869
20
-32.7210166671
30
0.0000000000
10
11.6485500302
20
-34.3455517541
30
0.0000000000
10
15.5290647102
20
-35.9013361134
30
0.0000000000
10
18.1294619791
20
-36.8939768254
30
0.0000000000
10
19.4306736442
20
-37.3782833408
30
0.0000000000
11
-29.6841544177
21
-12.8209098412
31
0.0000000000
11
-26.0461737674
21
-15.1003138769
31
0.0000000000
11
-22.3748877921
21
-17.3208225456
31
0.0000000000
11
-18.6806667453
21
-19.4758495596
31
0.0000000000
11
-14.9638559962
21
-21.5652045773
31
0.0000000000
11
-11.2248185975
21
-23.5886922369
31
0.0000000000
11
-7.4639201347
21
-25.5461208150
31
0.0000000000
11
-3.6815323378
21
-27.4373000972
31
0.0000000000
11
0.1219667595
21
-29.2620413453
31
0.0000000000
11
3.9461925604
21
-31.0201571626
31
0.0000000000
11
7.7907536069
21
-32.7114612941
31
0.0000000000
11
11.6552477526
21
-34.3357670407
31
0.0000000000
11
15.5392780454
21
-35.8928941149
31
0.0000000000
11
19.4306736442
21
-37.3782833408
31
0.0000000000
0
SPLINE
5
316
100
AcDbEntity
8
0
100
AcDbSpline
62
7
6
CONTINUOUS
70
0
71
3
72
14
73
10
74
8
42
0.0000001000
43
0.0000001000
44
0.0000000001
12
0.3912369129
22
-0.1456151702
32
0.0000000000
13
0.3885672009
23
0.1530092517
33
0.0000000000
40
0.0000000000
40
0.0000000000
40
0.0000000000
40
0.0000000000
40
0.1377491193
40
0.2970984288
40
0.4496813840
40
0.5966299357
40
0.7390367339
40
0.8779834131
40
1.0000000000
40
1.0000000000
40
1.0000000000
40
1.0000000000
10
19.4306739968
20
-37.3782834137
30
0.0000000000
10
19.4486381768
20
-37.3849695342
30
0.0000000000
10
19.4879345306
20
-37.3979581108
30
0.0000000000
10
19.5489167496
20
-37.4123537084
30
0.0000000000
10
19.6123332606
20
-37.4206561134
30
0.0000000000
10
19.6739240516
20
-37.4220682641
30
0.0000000000
10
19.7334021953
20
-37.4167267518
30
0.0000000000
10
19.7884562459
20
-37.4051925792
30
0.0000000000
10
19.8229864708
20
-37.3937310552
30
0.0000000000
10
19.8387903520
20
-37.3875078330
30
0.0000000000
11
19.4306739968
21
-37.3782834137
31
0.0000000000
11
19.4852911673
21
-37.3962662137
31
0.0000000000
11
19.5500448696
21
-37.4114371772
31
0.0000000000
11
19.6132026255
21
-37.4196001336
31
0.0000000000
11
19.6745200354
21
-37.4209136076
31
0.0000000000
11
19.7337108345
21
-37.4155214578
31
0.0000000000
11
19.7904586854
21
-37.4035746805
31
0.0000000000
11
19.8387903520
21
-37.3875078330
31
0.0000000000
0
SPLINE
5
317
100
AcDbEntity
8
0
100
AcDbSpline
62
7
6
CONTINUOUS
70
0
71
3
72
17
73
13
74
11
42
0.0000001000
43
0.0000001000
44
0.0000000001
12
-0.5374993851
22
-0.3320169637
32
0.0000000000
13
0.0000078838
23
-0.6313865579
33
0.0000000000
40
0.0000000000
40
0.0000000000
40
0.0000000000
40
0.0000000000
40
0.0202851289
40
0.1148800420
40
0.2121715962
40
0.3128937135
40
0.4178517719
40
0.5278999379
40
0.6435879881
40
0.7648747789
40
0.8914317715
40
1.0000000000
40
1.0000000000
40
1.0000000000
40
1.0000000000
10
-30.0474561869
20
31.7511201404
30
0.0000000000
10
-30.0510906017
20
31.7488751381
30
0.0000000000
10
-30.0714771379
20
31.7358439286
30
0.0000000000
10
-30.1069829129
20
31.7085295867
30
0.0000000000
10
-30.1502559870
20
31.6644592454
30
0.0000000000
10
-30.1886055153
20
31.6133061370
30
0.0000000000
10
-30.2215904992
20
31.5554477087
30
0.0000000000
10
-30.2488603262
20
31.4912677131
30
0.0000000000
10
-30.2700936034
20
31.4212644860
30
0.0000000000
10
-30.2850261942
20
31.3461220725
30
0.0000000000
10
-30.2929961013
20
31.2714575406
30
0.0000000000
10
-30.2945499685
20
31.2219580259
30
0.0000000000
10
-30.2945496831
20
31.1991085192
30
0.0000000000
11
-30.0474561869
21
31.7511201404
31
0.0000000000
11
-30.0582539431
21
31.7442183079
31
0.0000000000
11
-30.1056242927
21
31.7078566576
31
0.0000000000
11
-30.1487300010
21
31.6641046731
31
0.0000000000
11
-30.1869790226
21
31.6133102743
31
0.0000000000
11
-30.2199309872
21
31.5558259721
31
0.0000000000
11
-30.2472538366
21
31.4919519449
31
0.0000000000
11
-30.2686152440
21
31.4221128593
31
0.0000000000
11
-30.2836989096
21
31.3470459308
31
0.0000000000
11
-30.2923252788
21
31.2676186039
31
0.0000000000
11
-30.2945496831
21
31.1991085192
31
0.0000000000
0
SPLINE
5
318
100
AcDbEntity
8
0
100
AcDbSpline
62
7
6
CONTINUOUS
70
0
71
3
72
23
73
19
74
17
42
0.0000001000
43
0.0000001000
44
0.0000000001
12
-0.0000120384
22
-1.3622087491
32
0.0000000000
13
1.1486988711
23
-0.7322916679
33
0.0000000000
40
0.0000000000
40
0.0000000000
40
0.0000000000
40
0.0000000000
40
0.0510409948
40
0.1132108529
40
0.1767613263
40
0.2414856639
40
0.3071405965
40
0.3734566684
40
0.4401503230
40
0.5069287634
40
0.5734936567
40
0.6395326521
40
0.7047419982
40
0.7688423007
40
0.8315846172
40
0.8927648121
40
0.9522373976
40
1.0000000000
40
1.0000000000
40
1.0000000000
40
1.0000000000
10
-30.2945496318
20
-11.6582400742
30
0.0000000000
10
-30.2945498367
20
-11.6814162374
30
0.0000000000
10
-30.2929125044
20
-11.7328347569
30
0.0000000000
10
-30.2851724530
20
-11.8127724120
30
0.0000000000
10
-30.2712057939
20
-11.8981639734
30
0.0000000000
10
-30.2516169362
20
-11.9840612752
30
0.0000000000
10
-30.2266086822
20
-12.0698458172
30
0.0000000000
10
-30.1964043428
20
-12.1548887491
30
0.0000000000
10
-30.1612494293
20
-12.2385600255
30
0.0000000000
10
-30.1214117411
20
-12.3202313777
30
0.0000000000
10
-30.0771854171
20
-12.3992725350
30
0.0000000000
10
-30.0288924776
20
-12.4750553985
30
0.0000000000
10
-29.9768809084
20
-12.5469628476
30
0.0000000000
10
-29.9215160880
20
-12.6144010940
30
0.0000000000
10
-29.8631736507
20
-12.6768054145
30
0.0000000000
10
-29.8022273400
20
-12.7336439325
30
0.0000000000
10
-29.7425676591
20
-12.7815842429
30
0.0000000000
10
-29.7024403549
20
-12.8092526917
30
0.0000000000
10
-29.6841520724
20
-12.8209114103
30
0.0000000000
11
-30.2945496318
21
-11.6582400742
31
0.0000000000
11
-30.2923986264
21
-11.7277353665
31
0.0000000000
11
-30.2843244676
21
-11.8120295305
31
0.0000000000
11
-30.2704206130
21
-11.8974660493
31
0.0000000000
11
-30.2508712836
21
-11.9834305624
31
0.0000000000
11
-30.2258796041
21
-12.0692943347
31
0.0000000000
11
-30.1956707238
21
-12.1544205207
31
0.0000000000
11
-30.1604915042
21
-12.2381739745
31
0.0000000000
11
-30.1206112322
21
-12.3199222307
31
0.0000000000
11
-30.0763230424
21
-12.3990357024
31
0.0000000000
11
-30.0279550584
21
-12.4748746476
31
0.0000000000
11
-29.9758611693
21
-12.5468136232
31
0.0000000000
11
-29.9204115001
21
-12.6142544318
31
0.0000000000
11
-29.8619891779
21
-12.6766258480
31
0.0000000000
11
-29.8009798747
21
-12.7333892497
31
0.0000000000
11
-29.7377612236
21
-12.7840389146
31
0.0000000000
11
-29.6841520724
21
-12.8209114103
31
0.0000000000
0
SPLINE
5
319
100
AcDbEntity
8
0
100
AcDbSpline
62
7
6
CONTINUOUS
70
0
71
3
72
9
73
5
74
3
42
0.0000001000
43
0.0000001000
44
0.0000000001
12
-0.1419924906
22
-0.0877260578
32
0.0000000000
13
-0.1419923964
23
-0.0877262102
33
0.0000000000
40
0.0000000000
40
0.0000000000
40
0.0000000000
40
0.0000000000
40
0.1639663844
40
1.0000000000
40
1.0000000000
40
1.0000000000
40
1.0000000000
10
-29.6526044940
20
31.9950694568
30
0.0000000000
10
-29.6603651590
20
31.9902747487
30
0.0000000000
10
-29.7076959867
20
31.9610327252
30
0.0000000000
10
-29.7550267986
20
31.9317906764
30
0.0000000000
10
-29.7945969375
20
31.9073433228
30
0.0000000000
11
-29.6526044940
21
31.9950694568
31
0.0000000000
11
-29.6758864880
21
31.9806853303
31
0.0000000000
11
-29.7945969375
21
31.9073433228
31
0.0000000000
0
SPLINE
5
31A
100
AcDbEntity
8
0
100
AcDbSpline
62
7
6
CONTINUOUS
70
0
71
3
72
8
73
4
74
2
42
0.0000001000
43
0.0000001000
44
0.0000000001
12
-0.0165853386
22
-0.0102468086
32
0.0000000000
13
-0.0165853374
23
-0.0102468106
33
0.0000000000
40
0.0000000000
40
0.0000000000
40
0.0000000000
40
0.0000000000
40
1.0000000000
40
1.0000000000
40
1.0000000000
40
1.0000000000
10
-29.7945969375
20
31.9073433228
30
0.0000000000
10
-29.8001253837
20
31.9039277200
30
0.0000000000
10
-29.8056538297
20
31.9005121168
30
0.0000000000
10
-29.8111822755
20
31.8970965132
30
0.0000000000
11
-29.7945969375
21
31.9073433228
31
0.0000000000
11
-29.8111822755
21
31.8970965132
31
0.0000000000
0
SPLINE
5
31B
100
AcDbEntity
8
0
100
AcDbSpline
62
7
6
CONTINUOUS
70
0
71
3
72
8
73
4
74
2
42
0.0000001000
43
0.0000001000
44
0.0000000001
12
-0.2362896576
22
-0.1459852958
32
0.0000000000
13
-0.2362893967
23
-0.1459857180
33
0.0000000000
40
0.0000000000
40
0.0000000000
40
0.0000000000
40
0.0000000000
40
1.0000000000
40
1.0000000000
40
1.0000000000
40
1.0000000000
10
-29.8111822755
20
31.8970965132
30
0.0000000000
10
-29.8899454947
20
31.8484347480
30
0.0000000000
10
-29.9687086704
20
31.7997729123
30
0.0000000000
10
-30.0474718026
20
31.7511110063
30
0.0000000000
11
-29.8111822755
21
31.8970965132
31
0.0000000000
11
-30.0474718026
21
31.7511110063
31
0.0000000000
0
SPLINE
5
31C
100
AcDbEntity
8
0
100
AcDbSpline
62
7
6
CONTINUOUS
70
0
71
3
72
8
73
4
74
2
42
0.0000001000
43
0.0000001000
44
0.0000000001
12
0.2652522515
22
0.1044852559
32
0.0000000000
13
0.2652520482
23
0.1044857719
33
0.0000000000
40
0.0000000000
40
0.0000000000
40
0.0000000000
40
0.0000000000
40
1.0000000000
40
1.0000000000
40
1.0000000000
40
1.0000000000
10
19.8388254491
20
-37.3874943275
30
0.0000000000
10
19.9272428662
20
-37.3526659089
30
0.0000000000
10
20.0156602495
20
-37.3178374043
30
0.0000000000
10
20.1040775989
20
-37.2830088137
30
0.0000000000
11
19.8388254491
21
-37.3874943275
31
0.0000000000
11
20.1040775989
21
-37.2830088137
31
0.0000000000
0
SPLINE
5
31D
100
AcDbEntity
8
0
100
AcDbSpline
62
7
6
CONTINUOUS
70
0
71
3
72
9
73
5
74
3
42
0.0000001000
43
0.0000001000
44
0.0000000001
12
0.2191486825
22
0.0863251364
32
0.0000000000
13
0.2191485438
23
0.0863254886
33
0.0000000000
40
0.0000000000
40
0.0000000000
40
0.0000000000
40
0.0000000000
40
0.6856590909
40
1.0000000000
40
1.0000000000
40
1.0000000000
40
1.0000000000
10
20.1040775989
20
-37.2830088137
30
0.0000000000
10
20.1541646944
20
-37.2632789421
30
0.0000000000
10
20.2272142394
20
-37.2345038564
30
0.0000000000
10
20.3002637613
20
-37.2057287120
30
0.0000000000
10
20.3232262121
20
-37.1966835011
30
0.0000000000
11
20.1040775989
21
-37.2830088137
31
0.0000000000
11
20.2543388528
21
-37.2238191163
31
0.0000000000
11
20.3232262121
21
-37.1966835011
31
0.0000000000
0
SPLINE
5
31E
100
AcDbEntity
8
0
100
AcDbSpline
62
7
6
CONTINUOUS
70
0
71
3
72
19
73
15
74
13
42
0.0000001000
43
0.0000001000
44
0.0000000001
12
0.5224067680
22
-0.3918485357
32
0.0000000000
13
0.0000000000
23
-0.6527895111
33
0.0000000000
40
0.0000000000
40
0.0000000000
40
0.0000000000
40
0.0000000000
40
0.0269261587
40
0.1101697612
40
0.1967008846
40
0.2858772985
40
0.3769644955
40
0.4691650995
40
0.5616464198
40
0.6535670059
40
0.7441029615
40
0.8324747454
40
0.9179752414
40
1.0000000000
40
1.0000000000
40
1.0000000000
40
1.0000000000
10
41.8447766681
20
15.0716557852
30
0.0000000000
10
41.8494654706
20
15.0681387933
30
0.0000000000
10
41.8684109575
20
15.0534303968
30
0.0000000000
10
41.9005063687
20
15.0250224858
30
0.0000000000
10
41.9393286937
20
14.9840927696
30
0.0000000000
10
41.9757573311
20
14.9388130262
30
0.0000000000
10
42.0092684920
20
14.8898359662
30
0.0000000000
10
42.0393798515
20
14.8378677994
30
0.0000000000
10
42.0656570706
20
14.7836585395
30
0.0000000000
10
42.0877208915
20
14.7279903605
30
0.0000000000
10
42.1052527297
20
14.6716667547
30
0.0000000000
10
42.1179992356
20
14.6154968139
30
0.0000000000
10
42.1257753890
20
14.5602951783
30
0.0000000000
10
42.1276108839
20
14.5238242162
30
0.0000000000
10
42.1276108839
20
14.5059759155
30
0.0000000000
11
41.8447766681
21
15.0716557852
31
0.0000000000
11
41.8586683579
21
15.0608773183
31
0.0000000000
11
41.8994292535
21
15.0249406403
31
0.0000000000
11
41.9383619465
21
14.9840140903
31
0.0000000000
11
41.9748987106
21
14.9386944695
31
0.0000000000
11
42.0085067575
21
14.8896426401
31
0.0000000000
11
42.0386960062
21
14.8375738883
31
0.0000000000
11
42.0650262295
21
14.7832474935
31
0.0000000000
11
42.0871134734
21
14.7274556571
31
0.0000000000
11
42.1046356562
21
14.6710119496
31
0.0000000000
11
42.1173372649
21
14.6147394474
31
0.0000000000
11
42.1250330816
21
14.5594587302
31
0.0000000000
11
42.1276108839
21
14.5059759155
31
0.0000000000
0
SPLINE
5
31F
100
AcDbEntity
8
0
100
AcDbSpline
62
7
6
CONTINUOUS
70
0
71
3
72
18
73
14
74
12
42
0.0000001000
43
0.0000001000
44
0.0000000001
12
0.0000000000
22
-0.6562421252
32
0.0000000000
13
-0.6056612388
23
-0.2542019907
33
0.0000000000
40
0.0000000000
40
0.0000000000
40
0.0000000000
40
0.0000000000
40
0.1195484231
40
0.2342504723
40
0.3438729620
40
0.4485709956
40
0.5483782212
40
0.6439006808
40
0.7355563975
40
0.8244084620
40
0.9112667779
40
0.9975170240
40
1.0000000000
40
1.0000000000
40
1.0000000000
40
1.0000000000
10
42.1276108839
20
-55.9956351816
30
0.0000000000
10
42.1276108839
20
-56.0217860854
30
0.0000000000
10
42.1257188280
20
-56.0730541087
30
0.0000000000
10
42.1168266194
20
-56.1478356302
30
0.0000000000
10
42.1020003673
20
-56.2183714100
30
0.0000000000
10
42.0813559822
20
-56.2840365571
30
0.0000000000
10
42.0550365632
20
-56.3443084548
30
0.0000000000
10
42.0232554285
20
-56.3986303611
30
0.0000000000
10
41.9862331837
20
-56.4465559630
30
0.0000000000
10
41.9442939337
20
-56.4876044025
30
0.0000000000
10
41.8977617798
20
-56.5214095458
30
0.0000000000
10
41.8635125056
20
-56.5391213138
30
0.0000000000
10
41.8456147474
20
-56.5466790201
30
0.0000000000
10
41.8451134666
20
-56.5468894126
30
0.0000000000
11
42.1276108839
21
-55.9956351816
31
0.0000000000
11
42.1245947925
21
-56.0740298951
31
0.0000000000
11
42.1155690462
21
-56.1487591232
31
0.0000000000
11
42.1006201449
21
-56.2191276890
31
0.0000000000
11
42.0798551467
21
-56.2846219822
31
0.0000000000
11
42.0534868104
21
-56.3445774683
31
0.0000000000
11
42.0216873691
21
-56.3985988790
31
0.0000000000
11
41.9847989799
21
-56.4461075080
31
0.0000000000
11
41.9430480133
21
-56.4868105077
31
0.0000000000
11
41.8968945535
21
-56.5202599909
31
0.0000000000
11
41.8466159326
21
-56.5462549628
31
0.0000000000
11
41.8451134666
21
-56.5468894126
31
0.0000000000
0
SPLINE
5
320
100
AcDbEntity
8
0
100
AcDbSpline
62
7
6
CONTINUOUS
70
0
71
3
72
15
73
11
74
9
42
0.0000001000
43
0.0000001000
44
0.0000000001
12
0.4226917561
22
0.2475623954
32
0.0000000000
13
0.4377257967
23
-0.2188628983
33
0.0000000000
40
0.0000000000
40
0.0000000000
40
0.0000000000
40
0.0000000000
40
0.0982488086
40
0.2144335214
40
0.3330093236
40
0.4551361166
40
0.5822340886
40
0.7149913311
40
0.8541753849
40
1.0000000000
40
1.0000000000
40
1.0000000000
40
1.0000000000
10
-41.0729647591
20
56.4007397370
30
0.0000000000
10
-41.0591217720
20
56.4088473071
30
0.0000000000
10
-41.0277748443
20
56.4246104704
30
0.0000000000
10
-40.9761166955
20
56.4420654582
30
0.0000000000
10
-40.9186223316
20
56.4524303204
30
0.0000000000
10
-40.8584841196
20
56.4547375180
30
0.0000000000
10
-40.7962728851
20
56.4490030308
30
0.0000000000
10
-40.7324886637
20
56.4353081148
30
0.0000000000
10
-40.6676951472
20
56.4138050127
30
0.0000000000
10
-40.6251595802
20
56.3948331607
30
0.0000000000
10
-40.6038825149
20
56.3841946281
30
0.0000000000
11
-41.0729647591
21
56.4007397370
31
0.0000000000
11
-41.0299943448
21
56.4223423960
31
0.0000000000
11
-40.9761440899
21
56.4405961341
31
0.0000000000
11
-40.9190537252
21
56.4509971543
31
0.0000000000
11
-40.8593354475
21
56.4534325002
31
0.0000000000
11
-40.7973823061
21
56.4478877545
31
0.0000000000
11
-40.7338237493
21
56.4344170663
31
0.0000000000
11
-40.6691228446
21
56.4131208504
31
0.0000000000
11
-40.6038825149
21
56.3841946281
31
0.0000000000
0
SPLINE
5
321
100
AcDbEntity
8
0
100
AcDbSpline
62
7
6
CONTINUOUS
70
0
71
3
72
8
73
4
74
2
42
0.0000001000
43
0.0000001000
44
0.0000000001
12
0.0007951701
22
-0.0013582526
32
0.0000000000
13
0.0003735520
23
-0.0017705114
33
0.0000000000
40
0.0000000000
40
0.0000000000
40
0.0000000000
40
0.0000000000
40
1.0000000000
40
1.0000000000
40
1.0000000000
40
1.0000000000
10
2.5940320462
20
-23.0152574164
30
0.0000000000
10
2.5942971029
20
-23.0157101673
30
0.0000000000
10
2.5944916420
20
-23.0162627661
30
0.0000000000
10
2.5946161593
20
-23.0168529366
30
0.0000000000
11
2.5940320462
21
-23.0152574164
31
0.0000000000
11
2.5946161593
21
-23.0168529366
31
0.0000000000
0
SPLINE
5
322
100
AcDbEntity
8
0
100
AcDbSpline
62
7
6
CONTINUOUS
70
0
71
3
72
11
73
7
74
5
42
0.0000001000
43
0.0000001000
44
0.0000000001
12
-0.0962579058
22
0.0480804570
32
0.0000000000
13
-0.1040711262
23
-0.0280509646
33
0.0000000000
40
0.0000000000
40
0.0000000000
40
0.0000000000
40
0.0000000000
40
0.0619591381
40
0.4623564793
40
0.8018984402
40
1.0000000000
40
1.0000000000
40
1.0000000000
40
1.0000000000
10
-1.5989512918
20
-20.9183657142
30
0.0000000000
10
-1.6009393107
20
-20.9173727063
30
0.0000000000
10
-1.6158764692
20
-20.9101599397
30
0.0000000000
10
-1.6431120434
20
-20.9003294352
30
0.0000000000
10
-1.6768946117
20
-20.8968554665
30
0.0000000000
10
-1.6962024981
20
-20.8997434814
30
0.0000000000
10
-1.7030747156
20
-20.9015957947
30
0.0000000000
11
-1.5989512918
21
-20.9183657142
31
0.0000000000
11
-1.6049564473
21
-20.9154673198
31
0.0000000000
11
-1.6456231084
21
-20.9014370972
31
0.0000000000
11
-1.6819665897
21
-20.8982776452
31
0.0000000000
11
-1.7030747156
21
-20.9015957947
31
0.0000000000
0
SPLINE
5
323
100
AcDbEntity
8
0
100
AcDbSpline
62
7
6
CONTINUOUS
70
0
71
3
72
8
73
4
74
2
42
0.0000001000
43
0.0000001000
44
0.0000000001
12
-0.0097440503
22
-0.0026263770
32
0.0000000000
13
-0.0093453823
23
-0.0037226009
33
0.0000000000
40
0.0000000000
40
0.0000000000
40
0.0000000000
40
0.0000000000
40
1.0000000000
40
1.0000000000
40
1.0000000000
40
1.0000000000
10
-1.7030747156
20
-20.9015957947
30
0.0000000000
10
-1.7063227324
20
-20.9024712537
30
0.0000000000
10
-1.7095166874
20
-20.9035227774
30
0.0000000000
10
-1.7126318149
20
-20.9047636444
30
0.0000000000
11
-1.7030747156
21
-20.9015957947
31
0.0000000000
11
-1.7126318149
21
-20.9047636444
31
0.0000000000
0
SPLINE
5
324
100
AcDbEntity
8
0
100
AcDbSpline
62
7
6
CONTINUOUS
70
0
71
3
72
10
73
6
74
4
42
0.0000001000
43
0.0000001000
44
0.0000000001
12
0.0774178382
22
0.0632233885
32
0.0000000000
13
0.0237236076
23
0.0965743011
33
0.0000000000
40
0.0000000000
40
0.0000000000
40
0.0000000000
40
0.0000000000
40
0.0185822240
40
0.4830448330
40
1.0000000000
40
1.0000000000
40
1.0000000000
40
1.0000000000
10
1.9426495190
20
-24.2038299858
30
0.0000000000
10
1.9431290508
20
-24.2034383755
30
0.0000000000
10
1.9555105020
20
-24.1931597490
30
0.0000000000
10
1.9765201229
20
-24.1666403793
30
0.0000000000
10
1.9879848139
20
-24.1356852645
30
0.0000000000
10
1.9920728278
20
-24.1190437365
30
0.0000000000
11
1.9426495190
21
-24.2038299858
31
0.0000000000
11
1.9440783492
21
-24.2026438135
31
0.0000000000
11
1.9733669173
21
-24.1669285954
31
0.0000000000
11
1.9920728278
21
-24.1190437365
31
0.0000000000
0
SPLINE
5
325
100
AcDbEntity
8
0
100
AcDbSpline
62
7
6
CONTINUOUS
70
0
71
3
72
8
73
4
74
2
42
0.0000001000
43
0.0000001000
44
0.0000000001
12
0.0007939798
22
-0.0013580555
32
0.0000000000
13
0.0003717627
23
-0.0017712456
33
0.0000000000
40
0.0000000000
40
0.0000000000
40
0.0000000000
40
0.0000000000
40
1.0000000000
40
1.0000000000
40
1.0000000000
40
1.0000000000
10
-13.3158690336
20
-14.9737024496
30
0.0000000000
10
-13.3156043737
20
-14.9741551348
30
0.0000000000
10
-13.3154104045
20
-14.9747078465
30
0.0000000000
10
-13.3152864836
20
-14.9752982617
30
0.0000000000
11
-13.3158690336
21
-14.9737024496
31
0.0000000000
11
-13.3152864836
21
-14.9752982617
31
0.0000000000
0
SPLINE
5
326
100
AcDbEntity
8
0
100
AcDbSpline
62
7
6
CONTINUOUS
70
0
71
3
72
11
73
7
74
5
42
0.0000001000
43
0.0000001000
44
0.0000000001
12
-0.0962552428
22
0.0480794250
32
0.0000000000
13
-0.1040694768
23
-0.0280463984
33
0.0000000000
40
0.0000000000
40
0.0000000000
40
0.0000000000
40
0.0000000000
40
0.0617005584
40
0.4621855957
40
0.8018322241
40
1.0000000000
40
1.0000000000
40
1.0000000000
40
1.0000000000
10
-17.5088534620
20
-12.8768120943
30
0.0000000000
10
-17.5108331294
20
-12.8758232519
30
0.0000000000
10
-17.5257639294
20
-12.8686124635
30
0.0000000000
10
-17.5529952546
20
-12.8587797010
30
0.0000000000
10
-17.5867859083
20
-12.8553007947
30
0.0000000000
10
-17.6060996766
20
-12.8581885405
30
0.0000000000
10
-17.6129740822
20
-12.8600411713
30
0.0000000000
11
-17.5088534620
21
-12.8768120943
31
0.0000000000
11
-17.5148332195
21
-12.8739255093
31
0.0000000000
11
-17.5555059276
21
-12.8598875786
31
0.0000000000
11
-17.5918592584
21
-12.8567232486
31
0.0000000000
11
-17.6129740822
21
-12.8600411713
31
0.0000000000
0
SPLINE
5
327
100
AcDbEntity
8
0
100
AcDbSpline
62
7
6
CONTINUOUS
70
0
71
3
72
8
73
4
74
2
42
0.0000001000
43
0.0000001000
44
0.0000000001
12
-0.0097473490
22
-0.0026268801
32
0.0000000000
13
-0.0093484860
23
-0.0037236898
33
0.0000000000
40
0.0000000000
40
0.0000000000
40
0.0000000000
40
0.0000000000
40
1.0000000000
40
1.0000000000
40
1.0000000000
40
1.0000000000
10
-17.6129740822
20
-12.8600411713
30
0.0000000000
10
-17.6162231985
20
-12.8609167980
30
0.0000000000
10
-17.6194182296
20
-12.8619685857
30
0.0000000000
10
-17.6225343916
20
-12.8632098156
30
0.0000000000
11
-17.6129740822
21
-12.8600411713
31
0.0000000000
11
-17.6225343916
21
-12.8632098156
31
0.0000000000
0
SPLINE
5
328
100
AcDbEntity
8
0
100
AcDbSpline
62
7
6
CONTINUOUS
70
0
71
3
72
10
73
6
74
4
42
0.0000001000
43
0.0000001000
44
0.0000000001
12
0.0774178382
22
0.0632233885
32
0.0000000000
13
0.0237236076
23
0.0965743011
33
0.0000000000
40
0.0000000000
40
0.0000000000
40
0.0000000000
40
0.0000000000
40
0.0185822240
40
0.4830448330
40
1.0000000000
40
1.0000000000
40
1.0000000000
40
1.0000000000
10
-13.9672530577
20
-16.2488786975
30
0.0000000000
10
-13.9667735259
20
-16.2484870871
30
0.0000000000
10
-13.9543920747
20
-16.2382084607
30
0.0000000000
10
-13.9333824538
20
-16.2116890909
30
0.0000000000
10
-13.9219177627
20
-16.1807339761
30
0.0000000000
10
-13.9178297489
20
-16.1640924481
30
0.0000000000
11
-13.9672530577
21
-16.2488786975
31
0.0000000000
11
-13.9658242275
21
-16.2476925252
31
0.0000000000
11
-13.9365356594
21
-16.2119773070
31
0.0000000000
11
-13.9178297489
21
-16.1640924481
31
0.0000000000
0
SPLINE
5
329
100
AcDbEntity
8
0
100
AcDbSpline
62
7
6
CONTINUOUS
70
0
71
3
72
8
73
4
74
2
42
0.0000001000
43
0.0000001000
44
0.0000000001
12
0.0007939798
22
-0.0013580555
32
0.0000000000
13
0.0003717627
23
-0.0017712456
33
0.0000000000
40
0.0000000000
40
0.0000000000
40
0.0000000000
40
0.0000000000
40
1.0000000000
40
1.0000000000
40
1.0000000000
40
1.0000000000
10
18.5039361198
20
-30.8836050263
30
0.0000000000
10
18.5042007797
20
-30.8840577115
30
0.0000000000
10
18.5043947489
20
-30.8846104232
30
0.0000000000
10
18.5045186698
20
-30.8852008384
30
0.0000000000
11
18.5039361198
21
-30.8836050263
31
0.0000000000
11
18.5045186698
21
-30.8852008384
31
0.0000000000
0
SPLINE
5
32A
100
AcDbEntity
8
0
100
AcDbSpline
62
7
6
CONTINUOUS
70
0
71
3
72
11
73
7
74
5
42
0.0000001000
43
0.0000001000
44
0.0000000001
12
-0.0962552428
22
0.0480794250
32
0.0000000000
13
-0.1040694768
23
-0.0280463984
33
0.0000000000
40
0.0000000000
40
0.0000000000
40
0.0000000000
40
0.0000000000
40
0.0617005584
40
0.4621855957
40
0.8018322241
40
1.0000000000
40
1.0000000000
40
1.0000000000
40
1.0000000000
10
14.3109516914
20
-28.7867146710
30
0.0000000000
10
14.3089720240
20
-28.7857258286
30
0.0000000000
10
14.2940412240
20
-28.7785150402
30
0.0000000000
10
14.2668098988
20
-28.7686822777
30
0.0000000000
10
14.2330192451
20
-28.7652033714
30
0.0000000000
10
14.2137054768
20
-28.7680911172
30
0.0000000000
10
14.2068310712
20
-28.7699437480
30
0.0000000000
11
14.3109516914
21
-28.7867146710
31
0.0000000000
11
14.3049719339
21
-28.7838280859
31
0.0000000000
11
14.2642992258
21
-28.7697901553
31
0.0000000000
11
14.2279458950
21
-28.7666258253
31
0.0000000000
11
14.2068310712
21
-28.7699437480
31
0.0000000000
0
SPLINE
5
32B
100
AcDbEntity
8
0
100
AcDbSpline
62
7
6
CONTINUOUS
70
0
71
3
72
8
73
4
74
2
42
0.0000001000
43
0.0000001000
44
0.0000000001
12
-0.0097473490
22
-0.0026268801
32
0.0000000000
13
-0.0093484860
23
-0.0037236898
33
0.0000000000
40
0.0000000000
40
0.0000000000
40
0.0000000000
40
0.0000000000
40
1.0000000000
40
1.0000000000
40
1.0000000000
40
1.0000000000
10
14.2068310712
20
-28.7699437480
30
0.0000000000
10
14.2035819549
20
-28.7708193747
30
0.0000000000
10
14.2003869238
20
-28.7718711624
30
0.0000000000
10
14.1972707618
20
-28.7731123923
30
0.0000000000
11
14.2068310712
21
-28.7699437480
31
0.0000000000
11
14.1972707618
21
-28.7731123923
31
0.0000000000
0
SPLINE
5
32C
100
AcDbEntity
8
0
100
AcDbSpline
62
7
6
CONTINUOUS
70
0
71
3
72
10
73
6
74
4
42
0.0000001000
43
0.0000001000
44
0.0000000001
12
0.0774178382
22
0.0632233885
32
0.0000000000
13
0.0237236076
23
0.0965743011
33
0.0000000000
40
0.0000000000
40
0.0000000000
40
0.0000000000
40
0.0000000000
40
0.0185822240
40
0.4830448330
40
1.0000000000
40
1.0000000000
40
1.0000000000
40
1.0000000000
10
17.8525520957
20
-32.1587812742
30
0.0000000000
10
17.8530316275
20
-32.1583896638
30
0.0000000000
10
17.8654130787
20
-32.1481110374
30
0.0000000000
10
17.8864226996
20
-32.1215916676
30
0.0000000000
10
17.8978873906
20
-32.0906365528
30
0.0000000000
10
17.9019754045
20
-32.0739950248
30
0.0000000000
11
17.8525520957
21
-32.1587812742
31
0.0000000000
11
17.8539809259
21
-32.1575951019
31
0.0000000000
11
17.8832694940
21
-32.1218798837
31
0.0000000000
11
17.9019754045
21
-32.0739950248
31
0.0000000000
0
SPLINE
5
32D
100
AcDbEntity
8
0
100
AcDbSpline
62
7
6
CONTINUOUS
70
0
71
3
72
19
73
15
74
13
42
0.0000001000
43
0.0000001000
44
0.0000000001
12
0.0000000000
22
-0.2940802327
32
0.0000000000
13
0.2630333565
23
-0.1315166782
33
0.0000000000
40
0.0000000000
40
0.0000000000
40
0.0000000000
40
0.0000000000
40
0.0789655314
40
0.1620756543
40
0.2479244256
40
0.3351270017
40
0.4232776837
40
0.5115927841
40
0.5992057616
40
0.6852013424
40
0.7689678995
40
0.8501342629
40
0.9275071327
40
1.0000000000
40
1.0000000000
40
1.0000000000
40
1.0000000000
10
-27.4163410458
20
-9.3513215360
30
0.0000000000
10
-27.4163410458
20
-9.3590622699
30
0.0000000000
10
-27.4154751797
20
-9.3749589188
30
0.0000000000
10
-27.4118130285
20
-9.3990177715
30
0.0000000000
10
-27.4058210399
20
-9.4234361973
30
0.0000000000
10
-27.3976396426
20
-9.4477289399
30
0.0000000000
10
-27.3874283190
20
-9.4715029039
30
0.0000000000
10
-27.3753418233
20
-9.4944257590
30
0.0000000000
10
-27.3615752313
20
-9.5161317971
30
0.0000000000
10
-27.3463415860
20
-9.5362805006
30
0.0000000000
10
-27.3298500353
20
-9.5545743902
30
0.0000000000
10
-27.3123509478
20
-9.5706920532
30
0.0000000000
10
-27.2941867273
20
-9.5842859309
30
0.0000000000
10
-27.2814695167
20
-9.5917250098
30
0.0000000000
10
-27.2751135026
20
-9.5949030168
30
0.0000000000
11
-27.4163410458
21
-9.3513215360
31
0.0000000000
11
-27.4151345631
21
-9.3745123759
31
0.0000000000
11
-27.4115010746
21
-9.3986818279
31
0.0000000000
11
-27.4055149521
21
-9.4232083114
31
0.0000000000
11
-27.3973481826
21
-9.4475177133
31
0.0000000000
11
-27.3871246580
21
-9.4713399889
31
0.0000000000
11
-27.3750086160
21
-9.4943124081
31
0.0000000000
11
-27.3611971260
21
-9.5160630536
31
0.0000000000
11
-27.3459250336
21
-9.5362206102
31
0.0000000000
11
-27.3294027432
21
-9.5544922340
31
0.0000000000
11
-27.3118109119
21
-9.5706253313
31
0.0000000000
11
-27.2935539753
21
-9.5842055050
31
0.0000000000
11
-27.2751135026
21
-9.5949030168
31
0.0000000000
0
SPLINE
5
32E
100
AcDbEntity
8
0
100
AcDbSpline
62
7
6
CONTINUOUS
70
0
71
3
72
10
73
6
74
4
42
0.0000001000
43
0.0000001000
44
0.0000000001
12
0.1492388292
22
-0.0746194146
32
0.0000000000
13
0.1335125782
23
-0.1001323580
33
0.0000000000
40
0.0000000000
40
0.0000000000
40
0.0000000000
40
0.0000000000
40
0.4474929325
40
0.9144357866
40
1.0000000000
40
1.0000000000
40
1.0000000000
40
1.0000000000
10
41.4205041027
20
15.3720013193
30
0.0000000000
10
41.4427652098
20
15.3608707657
30
0.0000000000
10
41.4872234201
20
15.3360142985
30
0.0000000000
10
41.5334059981
20
15.3049241026
30
0.0000000000
10
41.5581189678
20
15.2866482785
30
0.0000000000
10
41.5619269341
20
15.2837923631
30
0.0000000000
11
41.4205041027
21
15.3720013193
31
0.0000000000
11
41.4857444324
21
15.3356872119
31
0.0000000000
11
41.5504453372
21
15.2922825230
31
0.0000000000
11
41.5619269341
21
15.2837923631
31
0.0000000000
0
SPLINE
5
32F
100
AcDbEntity
8
0
100
AcDbSpline
62
7
6
CONTINUOUS
70
0
71
3
72
9
73
5
74
3
42
0.0000001000
43
0.0000001000
44
0.0000000001
12
0.0077036343
22
0.0034681917
32
0.0000000000
13
0.0078730259
23
0.0030642778
33
0.0000000000
40
0.0000000000
40
0.0000000000
40
0.0000000000
40
0.0000000000
40
0.5038142726
40
1.0000000000
40
1.0000000000
40
1.0000000000
40
1.0000000000
10
-1.7204211289
20
-20.9080330377
30
0.0000000000
10
-1.7191273952
20
-20.9074505962
30
0.0000000000
10
-1.7165448219
20
-20.9063268776
30
0.0000000000
10
-1.7139339759
20
-20.9052704613
30
0.0000000000
10
-1.7126318149
20
-20.9047636444
30
0.0000000000
11
-1.7204211289
21
-20.9080330377
31
0.0000000000
11
-1.7165179442
21
-20.9063353885
31
0.0000000000
11
-1.7126318149
21
-20.9047636444
31
0.0000000000
0
SPLINE
5
330
100
AcDbEntity
8
0
100
AcDbSpline
62
7
6
CONTINUOUS
70
0
71
3
72
13
73
9
74
7
42
0.0000001000
43
0.0000001000
44
0.0000000001
12
0.0635281444
22
0.0460416969
32
0.0000000000
13
-0.0274930923
23
0.0599039553
33
0.0000000000
40
0.0000000000
40
0.0000000000
40
0.0000000000
40
0.0000000000
40
0.3320801164
40
0.6016802820
40
0.7994755187
40
0.9301792682
40
0.9994965244
40
1.0000000000
40
1.0000000000
40
1.0000000000
40
1.0000000000
10
2.5368486377
20
-23.4926247511
30
0.0000000000
10
2.5438807822
20
-23.4875282404
30
0.0000000000
10
2.5566029046
20
-23.4781220794
30
0.0000000000
10
2.5727728337
20
-23.4653265159
30
0.0000000000
10
2.5852093027
20
-23.4547427855
30
0.0000000000
10
2.5913154584
20
-23.4480314909
30
0.0000000000
10
2.5960417899
20
-23.4426940910
30
0.0000000000
10
2.5954180878
20
-23.4412965523
30
0.0000000000
10
2.5954134737
20
-23.4412864989
30
0.0000000000
11
2.5368486377
21
-23.4926247511
31
0.0000000000
11
2.5577556285
21
-23.4770771777
31
0.0000000000
11
2.5743134116
21
-23.4639143680
31
0.0000000000
11
2.5859559821
21
-23.4536538474
31
0.0000000000
11
2.5929598045
21
-23.4461634164
31
0.0000000000
11
2.5954269648
21
-23.4413167315
31
0.0000000000
11
2.5954134737
21
-23.4412864989
31
0.0000000000
0
SPLINE
5
331
100
AcDbEntity
8
0
100
AcDbSpline
62
7
6
CONTINUOUS
70
0
71
3
72
9
73
5
74
3
42
0.0000001000
43
0.0000001000
44
0.0000000001
12
0.0077036343
22
0.0034681917
32
0.0000000000
13
0.0078730259
23
0.0030642778
33
0.0000000000
40
0.0000000000
40
0.0000000000
40
0.0000000000
40
0.0000000000
40
0.5038139722
40
1.0000000000
40
1.0000000000
40
1.0000000000
40
1.0000000000
10
-17.6303237056
20
-12.8664792090
30
0.0000000000
10
-17.6290299727
20
-12.8658967678
30
0.0000000000
10
-17.6264473994
20
-12.8647730492
30
0.0000000000
10
-17.6238365534
20
-12.8637166329
30
0.0000000000
10
-17.6225343916
20
-12.8632098156
30
0.0000000000
11
-17.6303237056
21
-12.8664792090
31
0.0000000000
11
-17.6264205232
21
-12.8647815608
31
0.0000000000
11
-17.6225343916
21
-12.8632098156
31
0.0000000000
0
SPLINE
5
332
100
AcDbEntity
8
0
100
AcDbSpline
62
7
6
CONTINUOUS
70
0
71
3
72
13
73
9
74
7
42
0.0000001000
43
0.0000001000
44
0.0000000001
12
0.0635281429
22
0.0460416957
32
0.0000000000
13
-0.0274942937
23
0.0599031400
33
0.0000000000
40
0.0000000000
40
0.0000000000
40
0.0000000000
40
0.0000000000
40
0.3320932760
40
0.6016748525
40
0.7994672382
40
0.9301754932
40
0.9994962578
40
1.0000000000
40
1.0000000000
40
1.0000000000
40
1.0000000000
10
-13.3730539390
20
-15.5376734627
30
0.0000000000
10
-13.3660215160
20
-15.5325767502
30
0.0000000000
10
-13.3532995074
20
-15.5231706694
30
0.0000000000
10
-13.3371297542
20
-15.5103752176
30
0.0000000000
10
-13.3246936055
20
-15.4997918060
30
0.0000000000
10
-13.3185873917
20
-15.4930804768
30
0.0000000000
10
-13.3138607384
20
-15.4877428709
30
0.0000000000
10
-13.3144844942
20
-15.4863452740
30
0.0000000000
10
-13.3144891109
20
-15.4863352154
30
0.0000000000
11
-13.3730539390
21
-15.5376734627
31
0.0000000000
11
-13.3521461292
21
-15.5221252616
31
0.0000000000
11
-13.3355894935
21
-15.5089633530
31
0.0000000000
11
-13.3239470662
21
-15.4987030088
31
0.0000000000
11
-13.3169429548
21
-15.4912123645
31
0.0000000000
11
-13.3144756123
21
-15.4863654636
31
0.0000000000
11
-13.3144891109
21
-15.4863352154
31
0.0000000000
0
SPLINE
5
333
100
AcDbEntity
8
0
100
AcDbSpline
62
7
6
CONTINUOUS
70
0
71
3
72
9
73
5
74
3
42
0.0000001000
43
0.0000001000
44
0.0000000001
12
0.0077036343
22
0.0034681917
32
0.0000000000
13
0.0078730259
23
0.0030642778
33
0.0000000000
40
0.0000000000
40
0.0000000000
40
0.0000000000
40
0.0000000000
40
0.5038139722
40
1.0000000000
40
1.0000000000
40
1.0000000000
40
1.0000000000
10
14.1894814478
20
-28.7763817857
30
0.0000000000
10
14.1907751807
20
-28.7757993445
30
0.0000000000
10
14.1933577540
20
-28.7746756259
30
0.0000000000
10
14.1959686000
20
-28.7736192096
30
0.0000000000
10
14.1972707618
20
-28.7731123923
30
0.0000000000
11
14.1894814478
21
-28.7763817857
31
0.0000000000
11
14.1933846302
21
-28.7746841375
31
0.0000000000
11
14.1972707618
21
-28.7731123923
31
0.0000000000
0
SPLINE
5
334
100
AcDbEntity
8
0
100
AcDbSpline
62
7
6
CONTINUOUS
70
0
71
3
72
13
73
9
74
7
42
0.0000001000
43
0.0000001000
44
0.0000000001
12
0.0635281429
22
0.0460416957
32
0.0000000000
13
-0.0274942937
23
0.0599031400
33
0.0000000000
40
0.0000000000
40
0.0000000000
40
0.0000000000
40
0.0000000000
40
0.3320932760
40
0.6016748525
40
0.7994672382
40
0.9301754932
40
0.9994962578
40
1.0000000000
40
1.0000000000
40
1.0000000000
40
1.0000000000
10
18.4467512144
20
-31.4475760394
30
0.0000000000
10
18.4537836374
20
-31.4424793269
30
0.0000000000
10
18.4665056460
20
-31.4330732461
30
0.0000000000
10
18.4826753992
20
-31.4202777943
30
0.0000000000
10
18.4951115479
20
-31.4096943827
30
0.0000000000
10
18.5012177617
20
-31.4029830535
30
0.0000000000
10
18.5059444150
20
-31.3976454476
30
0.0000000000
10
18.5053206592
20
-31.3962478507
30
0.0000000000
10
18.5053160425
20
-31.3962377921
30
0.0000000000
11
18.4467512144
21
-31.4475760394
31
0.0000000000
11
18.4676590242
21
-31.4320278383
31
0.0000000000
11
18.4842156599
21
-31.4188659297
31
0.0000000000
11
18.4958580872
21
-31.4086055855
31
0.0000000000
11
18.5028621986
21
-31.4011149412
31
0.0000000000
11
18.5053295411
21
-31.3962680403
31
0.0000000000
11
18.5053160425
21
-31.3962377921
31
0.0000000000
0
SPLINE
5
335
100
AcDbEntity
8
0
100
AcDbSpline
62
7
6
CONTINUOUS
70
0
71
3
72
26
73
22
74
20
42
0.0000001000
43
0.0000001000
44
0.0000000001
12
0.4976196538
22
0.2487869489
32
0.0000000000
13
-0.4970870991
23
0.2485435495
33
0.0000000000
40
0.0000000000
40
0.0000000000
40
0.0000000000
40
0.0000000000
40
0.0141681286
40
0.0634406015
40
0.1144743570
40
0.1674814623
40
0.2222494827
40
0.2792656044
40
0.3384077233
40
0.3984717737
40
0.4582107577
40
0.5176685998
40
0.5768066804
40
0.6350366266
40
0.6923761127
40
0.7489114745
40
0.8039422912
40
0.8565689984
40
0.9068867707
40
0.9548895922
40
1.0000000000
40
1.0000000000
40
1.0000000000
40
1.0000000000
10
-2.3890715361
20
-24.9736984574
30
0.0000000000
10
-2.3867214230
20
-24.9725235089
30
0.0000000000
10
-2.3763203076
20
-24.9670192115
30
0.0000000000
10
-2.3586215000
20
-24.9551926023
30
0.0000000000
10
-2.3374135016
20
-24.9361715319
30
0.0000000000
10
-2.3182015713
20
-24.9137875691
30
0.0000000000
10
-2.3012407520
20
-24.8883213699
30
0.0000000000
10
-2.2867306150
20
-24.8601056148
30
0.0000000000
10
-2.2750311753
20
-24.8295567253
30
0.0000000000
10
-2.2666305116
20
-24.7974231768
30
0.0000000000
10
-2.2615346551
20
-24.7645530745
30
0.0000000000
10
-2.2597154963
20
-24.7315111841
30
0.0000000000
10
-2.2612274668
20
-24.6987314265
30
0.0000000000
10
-2.2660363229
20
-24.6666664076
30
0.0000000000
10
-2.2741344006
20
-24.6357599984
30
0.0000000000
10
-2.2855397456
20
-24.6065445826
30
0.0000000000
10
-2.2998908721
20
-24.5796436401
30
0.0000000000
10
-2.3167207831
20
-24.5556118947
30
0.0000000000
10
-2.3355754586
20
-24.5348515735
30
0.0000000000
10
-2.3560032533
20
-24.5177286410
30
0.0000000000
10
-2.3707952879
20
-24.5086915682
30
0.0000000000
10
-2.3782698885
20
-24.5049542679
30
0.0000000000
11
-2.3890715361
21
-24.9736984574
31
0.0000000000
11
-2.3821052374
21
-24.9700126055
31
0.0000000000
11
-2.3592878047
21
-24.9548722337
31
0.0000000000
11
-2.3381209460
21
-24.9359937429
31
0.0000000000
11
-2.3188852260
21
-24.9136815469
31
0.0000000000
11
-2.3019559873
21
-24.8883859737
31
0.0000000000
11
-2.2874288671
21
-24.8602248754
31
0.0000000000
11
-2.2756629380
21
-24.8295341021
31
0.0000000000
11
-2.2671729060
21
-24.7972505965
31
0.0000000000
11
-2.2620723557
21
-24.7644441768
31
0.0000000000
11
-2.2602711970
21
-24.7314489950
31
0.0000000000
11
-2.2618006328
21
-24.6986180044
31
0.0000000000
11
-2.2666337708
21
-24.6666190552
31
0.0000000000
11
-2.2747633018
21
-24.6358064450
31
0.0000000000
11
-2.2862108549
21
-24.6065459474
31
0.0000000000
11
-2.3006391537
21
-24.5795792702
31
0.0000000000
11
-2.3174610889
21
-24.5556531706
31
0.0000000000
11
-2.3363156102
21
-24.5350006421
31
0.0000000000
11
-2.3568219954
21
-24.5179358506
31
0.0000000000
11
-2.3782698885
21
-24.5049542679
31
0.0000000000
0
SPLINE
5
336
100
AcDbEntity
8
0
100
AcDbSpline
62
7
6
CONTINUOUS
70
0
71
3
72
11
73
7
74
5
42
0.0000001000
43
0.0000001000
44
0.0000000001
12
-0.1499204394
22
-0.0749606421
32
0.0000000000
13
-0.1674176793
23
-0.0060149874
33
0.0000000000
40
0.0000000000
40
0.0000000000
40
0.0000000000
40
0.0000000000
40
0.1392337572
40
0.4350920080
40
0.7224062432
40
1.0000000000
40
1.0000000000
40
1.0000000000
40
1.0000000000
10
-2.2614582023
20
-25.3313023531
30
0.0000000000
10
-2.2684161976
20
-25.3347813704
30
0.0000000000
10
-2.2904448192
20
-25.3450812932
30
0.0000000000
10
-2.3283913272
20
-25.3590539098
30
0.0000000000
10
-2.3752925699
20
-25.3700985749
30
0.0000000000
10
-2.4067742177
20
-25.3733790648
30
0.0000000000
10
-2.4222655852
20
-25.3739356391
30
0.0000000000
11
-2.2614582023
21
-25.3313023531
31
0.0000000000
11
-2.2825995259
21
-25.3411805433
31
0.0000000000
11
-2.3291342927
21
-25.3582419529
31
0.0000000000
11
-2.3760035670
21
-25.3691968783
31
0.0000000000
11
-2.4222655852
21
-25.3739356391
31
0.0000000000
0
SPLINE
5
337
100
AcDbEntity
8
0
100
AcDbSpline
62
7
6
CONTINUOUS
70
0
71
3
72
21
73
17
74
15
42
0.0000001000
43
0.0000001000
44
0.0000000001
12
49.4865973756
22
-21.7374178480
32
0.0000000000
13
47.2291739380
23
-26.2839073131
33
0.0000000000
40
0.0000000000
40
0.0000000000
40
0.0000000000
40
0.0000000000
40
0.0675181949
40
0.1356399765
40
0.2043610364
40
0.2736770878
40
0.3435833236
40
0.4140757400
40
0.4851596414
40
0.5568491007
40
0.6291585590
40
0.7020939578
40
0.7756513447
40
0.8498252677
40
0.9246102170
40
1.0000000000
40
1.0000000000
40
1.0000000000
40
1.0000000000
10
-29.3303867602
20
30.4145559756
30
0.0000000000
10
-28.2166381855
20
29.9253322377
30
0.0000000000
10
-25.9829034539
20
28.9340213673
30
0.0000000000
10
-22.6286467692
20
27.4155406416
30
0.0000000000
10
-19.2561402056
20
25.8590673353
30
0.0000000000
10
-15.8657806632
20
24.2647874345
30
0.0000000000
10
-12.4579478776
20
22.6328903435
30
0.0000000000
10
-9.0328585975
20
20.9634964109
30
0.0000000000
10
-5.5904186669
20
19.2565757119
30
0.0000000000
10
-2.1302360711
20
17.5119405092
30
0.0000000000
10
1.3480887181
20
15.7293826037
30
0.0000000000
10
4.8446649464
20
13.9088302573
30
0.0000000000
10
8.3592868184
20
12.0503745820
30
0.0000000000
10
11.8915731472
20
10.1542068385
30
0.0000000000
10
15.4411129346
20
8.2205451034
30
0.0000000000
10
17.8092309316
20
6.9118269534
30
0.0000000000
10
18.9960966566
20
6.2513142638
30
0.0000000000
11
-29.3303867602
21
30.4145559756
31
0.0000000000
11
-25.9946827522
21
28.9343328331
31
0.0000000000
11
-22.6403349893
21
27.4159414139
31
0.0000000000
11
-19.2677390345
21
25.8595557988
31
0.0000000000
11
-15.8772803979
21
24.2653568363
31
0.0000000000
11
-12.4693611659
21
22.6335443800
31
0.0000000000
11
-9.0443356067
21
20.9643060220
31
0.0000000000
11
-5.6020999481
21
19.2576096502
31
0.0000000000
11
-2.1421261206
21
17.5132013415
31
0.0000000000
11
1.3361276011
21
15.7308001628
31
0.0000000000
11
4.8327917512
21
13.9103210432
31
0.0000000000
11
8.3475258516
21
12.0519237030
31
0.0000000000
11
11.8799252102
21
10.1558116719
31
0.0000000000
11
15.4295902232
21
8.2221966099
31
0.0000000000
11
18.9960966566
21
6.2513142638
31
0.0000000000
0
SPLINE
5
338
100
AcDbEntity
8
0
100
AcDbSpline
62
7
6
CONTINUOUS
70
0
71
3
72
26
73
22
74
20
42
0.0000001000
43
0.0000001000
44
0.0000000001
12
0.4970889258
22
-0.2485444629
32
0.0000000000
13
-0.4976095629
23
-0.2487888086
33
0.0000000000
40
0.0000000000
40
0.0000000000
40
0.0000000000
40
0.0000000000
40
0.0452231767
40
0.0941825803
40
0.1460244699
40
0.2000032445
40
0.2548748311
40
0.3105174510
40
0.3668571656
40
0.4244544049
40
0.4834949631
40
0.5433571280
40
0.6025262492
40
0.6607302616
40
0.7179904560
40
0.7743899242
40
0.8297624521
40
0.8828853023
40
0.9335218765
40
0.9822194838
40
1.0000000000
40
1.0000000000
40
1.0000000000
40
1.0000000000
10
-2.3002491543
20
-24.4659440304
30
0.0000000000
10
-2.2927558409
20
-24.4696906871
30
0.0000000000
10
-2.2777956520
20
-24.4788348769
30
0.0000000000
10
-2.2570280683
20
-24.4963083863
30
0.0000000000
10
-2.2377953219
20
-24.5176928101
30
0.0000000000
10
-2.2208627507
20
-24.5422716053
30
0.0000000000
10
-2.2067116921
20
-24.5693399581
30
0.0000000000
10
-2.1956463146
20
-24.5982756101
30
0.0000000000
10
-2.1878089860
20
-24.6287626221
30
0.0000000000
10
-2.1831369980
20
-24.6605220604
30
0.0000000000
10
-2.1816965198
20
-24.6932443630
30
0.0000000000
10
-2.1835888573
20
-24.7262342119
30
0.0000000000
10
-2.1886968363
20
-24.7587212428
30
0.0000000000
10
-2.1968996508
20
-24.7900754579
30
0.0000000000
10
-2.2082089077
20
-24.8199027216
30
0.0000000000
10
-2.2223943268
20
-24.8478874937
30
0.0000000000
10
-2.2391999070
20
-24.8734806093
30
0.0000000000
10
-2.2583066818
20
-24.8960327172
30
0.0000000000
10
-2.2792531006
20
-24.9151023146
30
0.0000000000
10
-2.2972352691
20
-24.9273807977
30
0.0000000000
10
-2.3081020723
20
-24.9332131237
30
0.0000000000
10
-2.3110513239
20
-24.9346876549
30
0.0000000000
11
-2.3002491543
21
-24.4659440304
31
0.0000000000
11
-2.2787500747
21
-24.4789622569
31
0.0000000000
11
-2.2578651302
21
-24.4964033533
31
0.0000000000
11
-2.2385405025
21
-24.5177733502
31
0.0000000000
11
-2.2214746378
21
-24.5424455692
31
0.0000000000
11
-2.2073150256
21
-24.5694545410
31
0.0000000000
11
-2.1962483138
21
-24.5983305877
31
0.0000000000
11
-2.1884021911
21
-24.6286430896
31
0.0000000000
11
-2.1837120569
21
-24.6603080032
31
0.0000000000
11
-2.1822540248
21
-24.6930881104
31
0.0000000000
11
-2.1841439440
21
-24.7263035221
31
0.0000000000
11
-2.1892660653
21
-24.7587861206
31
0.0000000000
11
-2.1974965124
21
-24.7900691312
31
0.0000000000
11
-2.2087881879
21
-24.8198215276
31
0.0000000000
11
-2.2229926412
21
-24.8477629603
31
0.0000000000
11
-2.2399421635
21
-24.8734485706
31
0.0000000000
11
-2.2590763692
21
-24.8959325591
31
0.0000000000
11
-2.2799363959
21
-24.9148223925
31
0.0000000000
11
-2.3023362926
21
-24.9300118851
31
0.0000000000
11
-2.3110513239
21
-24.9346876549
31
0.0000000000
0
SPLINE
5
339
100
AcDbEntity
8
0
100
AcDbSpline
62
7
6
CONTINUOUS
70
0
71
3
72
9
73
5
74
3
42
0.0000001000
43
0.0000001000
44
0.0000000001
12
0.0998658602
22
0.0035879836
32
0.0000000000
13
0.0953998674
23
0.0299616647
33
0.0000000000
40
0.0000000000
40
0.0000000000
40
0.0000000000
40
0.0000000000
40
0.4885771294
40
1.0000000000
40
1.0000000000
40
1.0000000000
40
1.0000000000
10
-2.3442449843
20
-25.3349253387
30
0.0000000000
10
-2.3279809259
20
-25.3343410031
30
0.0000000000
10
-2.2947393912
20
-25.3307634395
30
0.0000000000
10
-2.2623058856
20
-25.3227833077
30
0.0000000000
10
-2.2460426610
20
-25.3176756141
30
0.0000000000
11
-2.3442449843
21
-25.3349253387
31
0.0000000000
11
-2.2956917014
21
-25.3297942450
31
0.0000000000
11
-2.2460426610
21
-25.3176756141
31
0.0000000000
0
SPLINE
5
33A
100
AcDbEntity
8
0
100
AcDbSpline
62
7
6
CONTINUOUS
70
0
71
3
72
8
73
4
74
2
42
0.0000001000
43
0.0000001000
44
0.0000000001
12
0.0236009228
22
0.0074122004
32
0.0000000000
13
0.0231145172
23
0.0088144631
33
0.0000000000
40
0.0000000000
40
0.0000000000
40
0.0000000000
40
0.0000000000
40
1.0000000000
40
1.0000000000
40
1.0000000000
40
1.0000000000
10
-2.2460426610
20
-25.3176756141
30
0.0000000000
10
-2.2381756867
20
-25.3152048807
30
0.0000000000
10
-2.2303845288
20
-25.3124939604
30
0.0000000000
10
-2.2226796897
20
-25.3095558061
30
0.0000000000
11
-2.2460426610
21
-25.3176756141
31
0.0000000000
11
-2.2226796897
21
-25.3095558061
31
0.0000000000
0
SPLINE
5
33B
100
AcDbEntity
8
0
100
AcDbSpline
62
7
6
CONTINUOUS
70
0
71
3
72
9
73
5
74
3
42
0.0000001000
43
0.0000001000
44
0.0000000001
12
-0.0071103887
22
-0.0034668137
32
0.0000000000
13
-0.0069157758
23
-0.0038403736
33
0.0000000000
40
0.0000000000
40
0.0000000000
40
0.0000000000
40
0.0000000000
40
0.4954353307
40
1.0000000000
40
1.0000000000
40
1.0000000000
40
1.0000000000
10
2.5440562465
20
-23.0331076751
30
0.0000000000
10
2.5428820006
20
-23.0336802024
30
0.0000000000
10
2.5405276939
20
-23.0348685151
30
0.0000000000
10
2.5382058687
20
-23.0361190549
30
0.0000000000
10
2.5370427167
20
-23.0367649605
30
0.0000000000
11
2.5440562465
21
-23.0331076751
31
0.0000000000
11
2.5405571600
21
-23.0348729406
31
0.0000000000
11
2.5370427167
21
-23.0367649605
31
0.0000000000
0
SPLINE
5
33C
100
AcDbEntity
8
0
100
AcDbSpline
62
7
6
CONTINUOUS
70
0
71
3
72
11
73
7
74
5
42
0.0000001000
43
0.0000001000
44
0.0000000001
12
0.0481999906
22
0.0239892823
32
0.0000000000
13
0.0252175720
23
-0.0430748496
33
0.0000000000
40
0.0000000000
40
0.0000000000
40
0.0000000000
40
0.0000000000
40
0.4644562302
40
0.8049366114
40
0.9883797280
40
1.0000000000
40
1.0000000000
40
1.0000000000
40
1.0000000000
10
2.5440562465
20
-23.0331076751
30
0.0000000000
10
2.5515185085
20
-23.0293936845
30
0.0000000000
10
2.5653233061
20
-23.0225650985
30
0.0000000000
10
2.5797627559
20
-23.0183546056
30
0.0000000000
10
2.5921339336
20
-23.0125174177
30
0.0000000000
10
2.5939343678
20
-23.0150905692
30
0.0000000000
10
2.5940320462
20
-23.0152574164
30
0.0000000000
11
2.5440562465
21
-23.0331076751
31
0.0000000000
11
2.5667685477
21
-23.0226452139
31
0.0000000000
11
2.5839357244
21
-23.0162165136
31
0.0000000000
11
2.5937102562
21
-23.0148006715
31
0.0000000000
11
2.5940320462
21
-23.0152574164
31
0.0000000000
0
SPLINE
5
33D
100
AcDbEntity
8
0
100
AcDbSpline
62
7
6
CONTINUOUS
70
0
71
3
72
14
73
10
74
8
42
0.0000001000
43
0.0000001000
44
0.0000000001
12
-22.0600482454
22
8.2495686372
32
0.0000000000
13
-21.1985562745
23
10.2631690914
33
0.0000000000
40
0.0000000000
40
0.0000000000
40
0.0000000000
40
0.0000000000
40
0.1621398455
40
0.3244791032
40
0.4870361116
40
0.6498298038
40
0.8128782869
40
0.9762020334
40
1.0000000000
40
1.0000000000
40
1.0000000000
40
1.0000000000
10
18.9960966566
20
-36.1139243874
30
0.0000000000
10
17.8038257189
20
-35.6680631261
30
0.0000000000
10
15.4245905301
20
-34.7575590805
30
0.0000000000
10
11.8746750183
20
-33.3366840752
30
0.0000000000
10
8.3420171249
20
-31.8600452975
30
0.0000000000
10
4.8270380606
20
-30.3278246528
30
0.0000000000
10
1.3301169212
20
-28.7402108870
30
0.0000000000
10
-1.1557795397
20
-27.5661881326
30
0.0000000000
10
-2.4787135359
20
-26.9274743851
30
0.0000000000
10
-2.6468743804
20
-26.8460602002
30
0.0000000000
11
18.9960966566
21
-36.1139243874
31
0.0000000000
11
15.4295902232
21
-34.7490976074
31
0.0000000000
11
11.8799252102
21
-33.3283616773
31
0.0000000000
11
8.3475258517
21
-31.8518759379
31
0.0000000000
11
4.8327917513
21
-30.3198137730
31
0.0000000000
11
1.3361276012
21
-28.7323748717
31
0.0000000000
11
-2.1421261205
21
-27.0897529018
31
0.0000000000
11
-2.6468743804
21
-26.8460602002
31
0.0000000000
0
SPLINE
5
33E
100
AcDbEntity
8
0
100
AcDbSpline
62
7
6
CONTINUOUS
70
0
71
3
72
8
73
4
74
2
42
0.0000001000
43
0.0000001000
44
0.0000000001
12
-0.0010127333
22
0.0004903095
32
0.0000000000
13
-0.0010127311
23
0.0004903139
33
0.0000000000
40
0.0000000000
40
0.0000000000
40
0.0000000000
40
0.0000000000
40
1.0000000000
40
1.0000000000
40
1.0000000000
40
1.0000000000
10
-2.6468743804
20
-26.8460602002
30
0.0000000000
10
-2.6472119581
20
-26.8458967637
30
0.0000000000
10
-2.6475495355
20
-26.8457333264
30
0.0000000000
10
-2.6478871126
20
-26.8455698885
30
0.0000000000
11
-2.6468743804
21
-26.8460602002
31
0.0000000000
11
-2.6478871126
21
-26.8455698885
31
0.0000000000
0
SPLINE
5
33F
100
AcDbEntity
8
0
100
AcDbSpline
62
7
6
CONTINUOUS
70
0
71
3
72
8
73
4
74
2
42
0.0000001000
43
0.0000001000
44
0.0000000001
12
-1.4790277209
22
0.7160714458
32
0.0000000000
13
-1.4744309552
23
0.7254893212
33
0.0000000000
40
0.0000000000
40
0.0000000000
40
0.0000000000
40
0.0000000000
40
1.0000000000
40
1.0000000000
40
1.0000000000
40
1.0000000000
10
-2.6478871126
20
-26.8455698885
30
0.0000000000
10
-3.1408963529
20
-26.6068794066
30
0.0000000000
10
-3.6331433659
20
-26.3666146051
30
0.0000000000
10
-4.1246203509
20
-26.1247848314
30
0.0000000000
11
-2.6478871126
21
-26.8455698885
31
0.0000000000
11
-4.1246203509
21
-26.1247848314
31
0.0000000000
0
SPLINE
5
340
100
AcDbEntity
8
0
100
AcDbSpline
62
7
6
CONTINUOUS
70
0
71
3
72
15
73
11
74
9
42
0.0000001000
43
0.0000001000
44
0.0000000001
12
-25.0643239262
22
12.3328252753
32
0.0000000000
13
-23.6308114315
23
14.8962773878
33
0.0000000000
40
0.0000000000
40
0.0000000000
40
0.0000000000
40
0.0000000000
40
0.0590406696
40
0.1973322214
40
0.3359956834
40
0.4750663328
40
0.6145605621
40
0.7544921695
40
0.8948749306
40
1.0000000000
40
1.0000000000
40
1.0000000000
40
1.0000000000
10
-4.1246203509
20
-26.1247848314
30
0.0000000000
10
-4.6178918401
20
-25.8820720773
30
0.0000000000
10
-6.2639655791
20
-25.0655819191
30
0.0000000000
10
-9.0518158505
20
-23.6455468730
30
0.0000000000
10
-12.4772221632
20
-21.8362436092
30
0.0000000000
10
-15.8853603920
20
-19.9711799442
30
0.0000000000
10
-19.2760099574
20
-18.0504402396
30
0.0000000000
10
-22.6487919803
20
-16.0742155330
30
0.0000000000
10
-25.7187845723
20
-14.2150399920
30
0.0000000000
10
-27.6591666401
20
-13.0063194897
30
0.0000000000
10
-28.4872302043
20
-12.4843287581
30
0.0000000000
11
-4.1246203509
21
-26.1247848314
31
0.0000000000
11
-5.6020999480
21
-25.3919267551
31
0.0000000000
11
-9.0443356066
21
-23.6386480197
31
0.0000000000
11
-12.4693611658
21
-21.8296301179
31
0.0000000000
11
-15.8772803977
21
-19.9647770714
31
0.0000000000
11
-19.2677390344
21
-18.0442427209
31
0.0000000000
11
-22.6403349891
21
-16.0682307794
31
0.0000000000
11
-25.9946827520
21
-14.0369605296
31
0.0000000000
11
-28.4872302043
21
-12.4843287581
31
0.0000000000
0
SPLINE
5
341
100
AcDbEntity
8
0
100
AcDbSpline
62
7
6
CONTINUOUS
70
0
71
3
72
8
73
4
74
2
42
0.0000001000
43
0.0000001000
44
0.0000000001
12
-0.8441268027
22
0.5321165987
32
0.0000000000
13
-0.8421849537
23
0.5351728117
33
0.0000000000
40
0.0000000000
40
0.0000000000
40
0.0000000000
40
0.0000000000
40
1.0000000000
40
1.0000000000
40
1.0000000000
40
1.0000000000
10
-28.4872302043
20
-12.4843287581
30
0.0000000000
10
-28.7686058052
20
-12.3069565585
30
0.0000000000
10
-29.0496584423
20
-12.1290736140
30
0.0000000000
10
-29.3303867602
20
-11.9506826767
30
0.0000000000
11
-28.4872302043
21
-12.4843287581
31
0.0000000000
11
-29.3303867602
21
-11.9506826767
31
0.0000000000
0
SPLINE
5
342
100
AcDbEntity
8
0
100
AcDbSpline
62
7
6
CONTINUOUS
70
0
71
3
72
9
73
5
74
3
42
0.0000001000
43
0.0000001000
44
0.0000000001
12
-0.0071103887
22
-0.0034668137
32
0.0000000000
13
-0.0069157758
23
-0.0038403736
33
0.0000000000
40
0.0000000000
40
0.0000000000
40
0.0000000000
40
0.0000000000
40
0.4954356311
40
1.0000000000
40
1.0000000000
40
1.0000000000
40
1.0000000000
10
-13.3658463302
20
-14.9915538463
30
0.0000000000
10
-13.3670205768
20
-14.9921263740
30
0.0000000000
10
-13.3693748835
20
-14.9933146868
30
0.0000000000
10
-13.3716967086
20
-14.9945652266
30
0.0000000000
10
-13.3728598600
20
-14.9952111318
30
0.0000000000
11
-13.3658463302
21
-14.9915538463
31
0.0000000000
11
-13.3693454188
21
-14.9933191130
31
0.0000000000
11
-13.3728598600
21
-14.9952111318
31
0.0000000000
0
SPLINE
5
343
100
AcDbEntity
8
0
100
AcDbSpline
62
7
6
CONTINUOUS
70
0
71
3
72
22
73
18
74
16
42
0.0000001000
43
0.0000001000
44
0.0000000001
12
1.0448271342
22
-0.7836041071
32
0.0000000000
13
0.0000000000
23
-1.3057471901
33
0.0000000000
40
0.0000000000
40
0.0000000000
40
0.0000000000
40
0.0000000000
40
0.0510404850
40
0.1152076000
40
0.1812185801
40
0.2489185740
40
0.3178396733
40
0.3878028789
40
0.4582721519
40
0.5290529726
40
0.5995922889
40
0.6696845715
40
0.7388106939
40
0.8067591070
40
0.8730944617
40
0.9376091665
40
1.0000000000
40
1.0000000000
40
1.0000000000
40
1.0000000000
10
41.5619269341
20
15.2837923631
30
0.0000000000
10
41.5797030953
20
15.2704605185
30
0.0000000000
10
41.6188818628
20
15.2391077924
30
0.0000000000
10
41.6771913610
20
15.1859004530
30
0.0000000000
10
41.7368508207
20
15.1237003678
30
0.0000000000
10
41.7938007542
20
15.0562836026
30
0.0000000000
10
41.8476008631
20
14.9841735205
30
0.0000000000
10
41.8977545326
20
14.9080361292
30
0.0000000000
10
41.9438771796
20
14.8284560920
30
0.0000000000
10
41.9855404736
20
14.7461725119
30
0.0000000000
10
42.0224243663
20
14.6618173930
30
0.0000000000
10
42.0541879856
20
14.5761703667
30
0.0000000000
10
42.0805841124
20
14.4898964924
30
0.0000000000
10
42.1013724072
20
14.4037810650
30
0.0000000000
10
42.1163866608
20
14.3185055206
30
0.0000000000
10
42.1254928455
20
14.2348310599
30
0.0000000000
10
42.1276108839
20
14.1795780767
30
0.0000000000
10
42.1276108839
20
14.1524225249
30
0.0000000000
11
41.5619269341
21
15.2837923631
31
0.0000000000
11
41.6140038940
21
15.2421946545
31
0.0000000000
11
41.6759570354
21
15.1857862587
31
0.0000000000
11
41.7356753130
21
15.1236326353
31
0.0000000000
11
41.7927656777
21
15.0561412503
31
0.0000000000
11
41.8466159326
21
14.9840372573
31
0.0000000000
11
41.8968945535
21
14.9077636646
31
0.0000000000
11
41.9430480133
21
14.8281607216
31
0.0000000000
11
41.9847989799
21
14.7457067552
31
0.0000000000
11
42.0216873691
21
14.6613097371
31
0.0000000000
11
42.0534868104
21
14.5754888850
31
0.0000000000
11
42.0798551467
21
14.4891650626
31
0.0000000000
11
42.1006201449
21
14.4029057713
31
0.0000000000
11
42.1155690462
21
14.3175883042
31
0.0000000000
11
42.1245947925
21
14.2338333298
31
0.0000000000
11
42.1276108839
21
14.1524225249
31
0.0000000000
0
SPLINE
5
344
100
AcDbEntity
8
0
100
AcDbSpline
62
7
6
CONTINUOUS
70
0
71
3
72
13
73
9
74
7
42
0.0000001000
43
0.0000001000
44
0.0000000001
12
-21.0062189235
22
7.8667950962
32
0.0000000000
13
-20.2271450156
23
9.6964497868
33
0.0000000000
40
0.0000000000
40
0.0000000000
40
0.0000000000
40
0.0000000000
40
0.1804107181
40
0.3632776379
40
0.5464534322
40
0.7298443552
40
0.9135759111
40
1.0000000000
40
1.0000000000
40
1.0000000000
40
1.0000000000
10
18.8895785843
20
-35.9887200193
30
0.0000000000
10
17.6263295710
20
-35.5156353019
30
0.0000000000
10
15.0902959831
20
-34.5424189293
30
0.0000000000
10
11.2998334126
20
-33.0167174124
30
0.0000000000
10
7.5142021492
20
-31.4207701776
30
0.0000000000
10
3.7490883821
20
-29.7609214633
30
0.0000000000
10
0.6684913578
20
-28.3428614804
30
0.0000000000
10
-1.1562970235
20
-27.4765534347
30
0.0000000000
10
-1.7390012162
20
-27.1972178220
30
0.0000000000
11
18.8895785843
21
-35.9887200193
31
0.0000000000
11
15.1114297111
21
-34.5388731074
31
0.0000000000
11
11.3062164616
21
-33.0072833051
31
0.0000000000
11
7.5200881140
21
-31.4111837344
31
0.0000000000
11
3.7559730343
21
-29.7518413620
31
0.0000000000
11
0.0122612683
21
-28.0286111686
31
0.0000000000
11
-1.7390012162
21
-27.1972178220
31
0.0000000000
0
SPLINE
5
345
100
AcDbEntity
8
0
100
AcDbSpline
62
7
6
CONTINUOUS
70
0
71
3
72
8
73
4
74
2
42
0.0000001000
43
0.0000001000
44
0.0000000001
12
-0.8745515458
22
0.4192408342
32
0.0000000000
13
-0.8729632162
23
0.4225382094
33
0.0000000000
40
0.0000000000
40
0.0000000000
40
0.0000000000
40
0.0000000000
40
1.0000000000
40
1.0000000000
40
1.0000000000
40
1.0000000000
10
-1.7390012162
20
-27.1972178220
30
0.0000000000
10
-2.0305183982
20
-27.0574708773
30
0.0000000000
10
-2.3217716867
20
-26.9171734327
30
0.0000000000
10
-2.6127594254
20
-26.7763273629
30
0.0000000000
11
-1.7390012162
21
-27.1972178220
31
0.0000000000
11
-2.6127594254
21
-26.7763273629
31
0.0000000000
0
SPLINE
5
346
100
AcDbEntity
8
0
100
AcDbSpline
62
7
6
CONTINUOUS
70
0
71
3
72
8
73
4
74
2
42
0.0000001000
43
0.0000001000
44
0.0000000001
12
-0.0010108206
22
0.0004892650
32
0.0000000000
13
-0.0010108185
23
0.0004892694
33
0.0000000000
40
0.0000000000
40
0.0000000000
40
0.0000000000
40
0.0000000000
40
1.0000000000
40
1.0000000000
40
1.0000000000
40
1.0000000000
10
-2.6127594254
20
-26.7763273629
30
0.0000000000
10
-2.6130963656
20
-26.7761642745
30
0.0000000000
10
-2.6134333055
20
-26.7760011855
30
0.0000000000
10
-2.6137702450
20
-26.7758380957
30
0.0000000000
11
-2.6127594254
21
-26.7763273629
31
0.0000000000
11
-2.6137702450
21
-26.7758380957
31
0.0000000000
0
SPLINE
5
347
100
AcDbEntity
8
0
100
AcDbSpline
62
7
6
CONTINUOUS
70
0
71
3
72
15
73
11
74
9
42
0.0000001000
43
0.0000001000
44
0.0000000001
12
-26.6152775292
22
12.8826698698
32
0.0000000000
13
-25.0151560917
23
15.7661166159
33
0.0000000000
40
0.0000000000
40
0.0000000000
40
0.0000000000
40
0.0000000000
40
0.0412611166
40
0.1812485496
40
0.3216046336
40
0.4623704533
40
0.6035871113
40
0.7452950124
40
0.8875348057
40
1.0000000000
40
1.0000000000
40
1.0000000000
40
1.0000000000
10
-2.6137702450
20
-26.7758380957
30
0.0000000000
10
-2.9798289347
20
-26.5986536479
30
0.0000000000
10
-4.5859763969
20
-25.8165180738
30
0.0000000000
10
-7.4213982190
20
-24.3991101181
30
0.0000000000
10
-11.1040012119
20
-22.4841284758
30
0.0000000000
10
-14.7663926362
20
-20.5051583490
30
0.0000000000
10
-18.4087033854
20
-18.4620978217
30
0.0000000000
10
-22.0310637479
20
-16.3548263980
30
0.0000000000
10
-25.3774085095
20
-14.3376411993
30
0.0000000000
10
-27.5093658341
20
-13.0119229582
30
0.0000000000
10
-28.4471439645
20
-12.4208765019
30
0.0000000000
11
-2.6137702450
21
-26.7758380957
31
0.0000000000
11
-3.7106822799
21
-26.2416838359
31
0.0000000000
11
-7.4131515304
21
-24.3909367958
31
0.0000000000
11
-11.0952809002
21
-22.4763020508
31
0.0000000000
11
-14.7572084388
21
-20.4976918260
31
0.0000000000
11
-18.3990721878
21
-18.4549997729
31
0.0000000000
11
-22.0209916255
21
-16.3481113689
31
0.0000000000
11
-25.6230919821
21
-14.1768905317
31
0.0000000000
11
-28.4471439645
21
-12.4208765019
31
0.0000000000
0
SPLINE
5
348
100
AcDbEntity
8
0
100
AcDbSpline
62
7
6
CONTINUOUS
70
0
71
3
72
8
73
4
74
2
42
0.0000001000
43
0.0000001000
44
0.0000000001
12
-0.7591414320
22
0.4784584314
32
0.0000000000
13
-0.7575703665
23
0.4809314508
33
0.0000000000
40
0.0000000000
40
0.0000000000
40
0.0000000000
40
0.0000000000
40
1.0000000000
40
1.0000000000
40
1.0000000000
40
1.0000000000
10
-28.4471439645
20
-12.4208765019
30
0.0000000000
10
-28.7001911085
20
-12.2613903581
30
0.0000000000
10
-28.9529769042
20
-12.1014910436
30
0.0000000000
10
-29.2055003597
20
-11.9411805600
30
0.0000000000
11
-28.4471439645
21
-12.4208765019
31
0.0000000000
11
-29.2055003597
21
-11.9411805600
31
0.0000000000
0
SPLINE
5
349
100
AcDbEntity
8
0
100
AcDbSpline
62
7
6
CONTINUOUS
70
0
71
3
72
20
73
16
74
14
42
0.0000001000
43
0.0000001000
44
0.0000000001
12
-51.5439109723
22
19.1849685095
32
0.0000000000
13
-46.3762303311
23
29.5648953204
33
0.0000000000
40
0.0000000000
40
0.0000000000
40
0.0000000000
40
0.0000000000
40
0.0759076708
40
0.1519371728
40
0.2281021353
40
0.3044157052
40
0.3808902857
40
0.4575378396
40
0.5343750719
40
0.6114081185
40
0.6886535632
40
0.7661231461
40
0.8438288992
40
0.9217834915
40
1.0000000000
40
1.0000000000
40
1.0000000000
40
1.0000000000
10
19.3974777779
20
-37.3211888396
30
0.0000000000
10
18.0932850367
20
-36.8357600819
30
0.0000000000
10
15.4908824694
20
-35.8422660504
30
0.0000000000
10
11.6093520162
20
-34.2858683880
30
0.0000000000
10
7.7473246307
20
-32.6623590662
30
0.0000000000
10
3.9052084398
20
-30.9719218888
30
0.0000000000
10
0.0834130055
20
-29.2147470917
30
0.0000000000
10
-3.7177150026
20
-27.3910000523
30
0.0000000000
10
-7.4977346535
20
-25.5008937292
30
0.0000000000
10
-11.2562907282
20
-23.5446059918
30
0.0000000000
10
-14.9929578984
20
-21.5223574544
30
0.0000000000
10
-18.7074145952
20
-19.4343173097
30
0.0000000000
10
-22.3992903537
20
-17.2806858616
30
0.0000000000
10
-26.0682320283
20
-15.0616601299
30
0.0000000000
10
-28.4945180732
20
-13.5414474071
30
0.0000000000
10
-29.7036470111
20
-12.7706264451
30
0.0000000000
11
19.3974777779
21
-37.3211888396
31
0.0000000000
11
15.4971982672
21
-35.8322772224
31
0.0000000000
11
11.6160467886
21
-34.2760981985
31
0.0000000000
11
7.7543949022
21
-32.6528188936
31
0.0000000000
11
3.9126317381
21
-30.9626153911
31
0.0000000000
11
0.0911757338
21
-29.2056809306
31
0.0000000000
11
-3.7095419582
21
-27.3822211136
31
0.0000000000
11
-7.4893326404
21
-25.4923257652
31
0.0000000000
11
-11.2474968464
21
-23.5363446224
31
0.0000000000
11
-14.9838586015
21
-21.5143702130
31
0.0000000000
11
-18.6980139032
21
-19.4266144740
31
0.0000000000
11
-22.3895840026
21
-17.2732827690
31
0.0000000000
11
-26.0582312535
21
-15.0545624447
31
0.0000000000
11
-29.7036470111
21
-12.7706264451
31
0.0000000000
0
SPLINE
5
34A
100
AcDbEntity
8
0
100
AcDbSpline
62
7
6
CONTINUOUS
70
0
71
3
72
16
73
12
74
10
42
0.0000001000
43
0.0000001000
44
0.0000000001
12
-0.1261962083
22
-0.0568137886
32
0.0000000000
13
-0.1255449575
23
0.0582387604
33
0.0000000000
40
0.0000000000
40
0.0000000000
40
0.0000000000
40
0.0000000000
40
0.1011102878
40
0.2097186196
40
0.3239482659
40
0.4416205248
40
0.5603855098
40
0.6778408796
40
0.7916472659
40
0.8996476868
40
1.0000000000
40
1.0000000000
40
1.0000000000
40
1.0000000000
10
20.1400055233
20
-36.8292200668
30
0.0000000000
10
20.1357522784
20
-36.8311348863
30
0.0000000000
10
20.1266715575
20
-36.8345442078
30
0.0000000000
10
20.1121911680
20
-36.8383247249
30
0.0000000000
10
20.0966712787
20
-36.8408825884
30
0.0000000000
10
20.0805254420
20
-36.8421482369
30
0.0000000000
10
20.0641816082
20
-36.8420879147
30
0.0000000000
10
20.0480750873
20
-36.8407032570
30
0.0000000000
10
20.0326326388
20
-36.8380311833
30
0.0000000000
10
20.0182655880
20
-36.8341443092
30
0.0000000000
10
20.0092782718
20
-36.8306651776
30
0.0000000000
10
20.0050786962
20
-36.8287170461
30
0.0000000000
11
20.1400055233
21
-36.8292200668
31
0.0000000000
11
20.1269279652
21
-36.8341987326
31
0.0000000000
11
20.1123959290
21
-36.8380390083
31
0.0000000000
11
20.0968020289
21
-36.8406371410
31
0.0000000000
11
20.0805675673
21
-36.8419229369
31
0.0000000000
11
20.0641311527
21
-36.8418616582
31
0.0000000000
11
20.0479368493
21
-36.8404549611
31
0.0000000000
11
20.0324221796
21
-36.8377408511
31
0.0000000000
11
20.0180063040
21
-36.8337926564
31
0.0000000000
11
20.0050786962
21
-36.8287170461
31
0.0000000000
0
SPLINE
5
34B
100
AcDbEntity
8
0
100
AcDbSpline
62
7
6
CONTINUOUS
70
0
71
3
72
11
73
7
74
5
42
0.0000001000
43
0.0000001000
44
0.0000000001
12
0.0482009592
22
0.0239889202
32
0.0000000000
13
0.0251738994
23
-0.0430584636
33
0.0000000000
40
0.0000000000
40
0.0000000000
40
0.0000000000
40
0.0000000000
40
0.4645705024
40
0.8050613832
40
0.9884282404
40
1.0000000000
40
1.0000000000
40
1.0000000000
40
1.0000000000
10
-13.3658463302
20
-14.9915538463
30
0.0000000000
10
-13.3583820822
20
-14.9878389981
30
0.0000000000
10
-13.3445733797
20
-14.9810094727
30
0.0000000000
10
-13.3301374992
20
-14.9767979538
30
0.0000000000
10
-13.3177622273
20
-14.9709652701
30
0.0000000000
10
-13.3159661357
20
-14.9735363622
30
0.0000000000
10
-13.3158690336
20
-14.9737024496
30
0.0000000000
11
-13.3658463302
21
-14.9915538463
31
0.0000000000
11
-13.3431280640
21
-14.9810888458
31
0.0000000000
11
-13.3259598504
21
-14.9746606173
31
0.0000000000
11
-13.3161889190
21
-14.9732476595
31
0.0000000000
11
-13.3158690336
21
-14.9737024496
31
0.0000000000
0
SPLINE
5
34C
100
AcDbEntity
8
0
100
AcDbSpline
62
7
6
CONTINUOUS
70
0
71
3
72
24
73
20
74
18
42
0.0000001000
43
0.0000001000
44
0.0000000001
12
-0.0000099322
22
-0.9509407226
32
0.0000000000
13
-0.8912136586
23
0.3317023859
33
0.0000000000
40
0.0000000000
40
0.0000000000
40
0.0000000000
40
0.0000000000
40
0.0705046164
40
0.1383991783
40
0.2036098423
40
0.2661680757
40
0.3261975817
40
0.3839211697
40
0.4396598376
40
0.4938330027
40
0.5469451651
40
0.5995661917
40
0.6522969068
40
0.7057334575
40
0.7604289610
40
0.8168668478
40
0.8754375896
40
0.9364284312
40
1.0000000000
40
1.0000000000
40
1.0000000000
40
1.0000000000
10
20.0050786962
20
-36.8287170461
30
0.0000000000
10
20.0050784627
20
-36.8510656164
30
0.0000000000
10
20.0034806199
20
-36.8949569497
30
0.0000000000
10
19.9959943682
20
-36.9591329884
30
0.0000000000
10
19.9835144240
20
-37.0199715701
30
0.0000000000
10
19.9661281165
20
-37.0770028113
30
0.0000000000
10
19.9439555424
20
-37.1297978893
30
0.0000000000
10
19.9171487189
20
-37.1779533317
30
0.0000000000
10
19.8858935829
20
-37.2210922838
30
0.0000000000
10
19.8504139768
20
-37.2588647212
30
0.0000000000
10
19.8109753566
20
-37.2909534049
30
0.0000000000
10
19.7678872662
20
-37.3170822318
30
0.0000000000
10
19.7214998268
20
-37.3370272139
30
0.0000000000
10
19.6721955530
20
-37.3506243226
30
0.0000000000
10
19.6203767353
20
-37.3577718282
30
0.0000000000
10
19.5664571862
20
-37.3584266616
30
0.0000000000
10
19.5108556132
20
-37.3525971239
30
0.0000000000
10
19.4540117689
20
-37.3403449733
30
0.0000000000
10
19.4163630614
20
-37.3282177866
30
0.0000000000
10
19.3974777779
20
-37.3211888396
30
0.0000000000
11
20.0050786962
21
-36.8287170461
31
0.0000000000
11
20.0025445682
21
-36.8957148486
31
0.0000000000
11
19.9949601075
21
-36.9598315220
31
0.0000000000
11
19.9823868194
21
-37.0205549571
31
0.0000000000
11
19.9649238704
21
-37.0774232872
31
0.0000000000
11
19.9427066237
21
-37.1300068805
31
0.0000000000
11
19.9159042384
21
-37.1779102418
31
0.0000000000
11
19.8847201541
21
-37.2207704195
31
0.0000000000
11
19.8493897468
21
-37.2582618298
31
0.0000000000
11
19.8101798930
21
-37.2900972776
31
0.0000000000
11
19.7673855734
21
-37.3160317232
31
0.0000000000
11
19.7213298023
21
-37.3358626350
31
0.0000000000
11
19.6723602562
21
-37.3494327116
31
0.0000000000
11
19.6208485762
21
-37.3566308960
31
0.0000000000
11
19.5671849198
21
-37.3573942158
31
0.0000000000
11
19.5117786300
21
-37.3517080338
31
0.0000000000
11
19.4550561609
21
-37.3396081249
31
0.0000000000
11
19.3974777779
21
-37.3211888396
31
0.0000000000
0
SPLINE
5
34D
100
AcDbEntity
8
0
100
AcDbSpline
62
7
6
CONTINUOUS
70
0
71
3
72
18
73
14
74
12
42
0.0000001000
43
0.0000001000
44
0.0000000001
12
-0.0027856138
22
-0.6737608497
32
0.0000000000
13
-0.6273750896
23
-0.2471701171
33
0.0000000000
40
0.0000000000
40
0.0000000000
40
0.0000000000
40
0.0000000000
40
0.1108003118
40
0.2174419726
40
0.3198555461
40
0.4180747974
40
0.5122793189
40
0.6028037770
40
0.6901380014
40
0.7749286761
40
0.8579602612
40
0.9401253837
40
1.0000000000
40
1.0000000000
40
1.0000000000
40
1.0000000000
10
20.1400054332
20
-36.8292200167
30
0.0000000000
10
20.1399025509
20
-36.8541043208
30
0.0000000000
10
20.1379371121
20
-36.9029552375
30
0.0000000000
10
20.1293818169
20
-36.9743580149
30
0.0000000000
10
20.1153367066
20
-37.0420178383
30
0.0000000000
10
20.0958988768
20
-37.1054255550
30
0.0000000000
10
20.0712029323
20
-37.1641046589
30
0.0000000000
10
20.0414182038
20
-37.2176075234
30
0.0000000000
10
20.0067509019
20
-37.2655162804
30
0.0000000000
10
19.9674483817
20
-37.3074428987
30
0.0000000000
10
19.9238033610
20
-37.3430354024
30
0.0000000000
10
19.8804648137
20
-37.3693693536
30
0.0000000000
10
19.8513465085
20
-37.3825605329
30
0.0000000000
10
19.8388252275
20
-37.3874936049
30
0.0000000000
11
20.1400054332
21
-36.8292200167
31
0.0000000000
11
20.1368997080
21
-36.9038089370
31
0.0000000000
11
20.1282372462
21
-36.9751364405
31
0.0000000000
11
20.1140880150
21
-37.0426730381
31
0.0000000000
11
20.0945636554
21
-37.1059041625
31
0.0000000000
11
20.0698154025
21
-37.1643524398
31
0.0000000000
11
20.0400316534
21
-37.2175783349
31
0.0000000000
11
20.0054384343
21
-37.2651786942
31
0.0000000000
11
19.9662968153
21
-37.3067920408
31
0.0000000000
11
19.9229023084
21
-37.3420997988
31
0.0000000000
11
19.8755810980
21
-37.3708303658
31
0.0000000000
11
19.8388252275
21
-37.3874936049
31
0.0000000000
0
SPLINE
5
34E
100
AcDbEntity
8
0
100
AcDbSpline
62
7
6
CONTINUOUS
70
0
71
3
72
16
73
12
74
10
42
0.0000001000
43
0.0000001000
44
0.0000000001
12
-0.1261962084
22
-0.0568137882
32
0.0000000000
13
-0.1255449576
23
0.0582387600
33
0.0000000000
40
0.0000000000
40
0.0000000000
40
0.0000000000
40
0.0000000000
40
0.1011102343
40
0.2097185129
40
0.3239481140
40
0.4416203431
40
0.5603853195
40
0.6778407049
40
0.7916471312
40
0.8996476125
40
1.0000000000
40
1.0000000000
40
1.0000000000
40
1.0000000000
10
20.1400055233
20
6.0281326266
30
0.0000000000
10
20.1357522806
20
6.0262178081
30
0.0000000000
10
20.1266715645
20
6.0228084881
30
0.0000000000
10
20.1121911821
20
6.0190279717
30
0.0000000000
10
20.0966712989
20
6.0164701076
30
0.0000000000
10
20.0805254662
20
6.0152044576
30
0.0000000000
10
20.0641816334
20
6.0152647776
30
0.0000000000
10
20.0480751102
20
6.0166494335
30
0.0000000000
10
20.0326326561
20
6.0193215062
30
0.0000000000
10
20.0182655971
20
6.0232083810
30
0.0000000000
10
20.0092782749
20
6.0266875144
30
0.0000000000
10
20.0050786962
20
6.0286356473
30
0.0000000000
11
20.1400055233
21
6.0281326266
31
0.0000000000
11
20.1269279723
21
6.0231539631
31
0.0000000000
11
20.1123959435
21
6.0193136882
31
0.0000000000
11
20.0968020498
21
6.0167155550
31
0.0000000000
11
20.0805675925
21
6.0154297575
31
0.0000000000
11
20.0641311791
21
6.0154910341
31
0.0000000000
11
20.0479368733
21
6.0168977293
31
0.0000000000
11
20.0324221979
21
6.0196118383
31
0.0000000000
11
20.0180063138
21
6.0235600338
31
0.0000000000
11
20.0050786962
21
6.0286356473
31
0.0000000000
0
SPLINE
5
34F
100
AcDbEntity
8
0
100
AcDbSpline
62
7
6
CONTINUOUS
70
0
71
3
72
16
73
12
74
10
42
0.0000001000
43
0.0000001000
44
0.0000000001
12
-0.1214419414
22
-0.0732493763
32
0.0000000000
13
-0.0096607686
23
-0.1414930592
33
0.0000000000
40
0.0000000000
40
0.0000000000
40
0.0000000000
40
0.0000000000
40
0.0988493262
40
0.2053733335
40
0.3179640944
40
0.4346250385
40
0.5531231924
40
0.6711242367
40
0.7863209697
40
0.8965634868
40
1.0000000000
40
1.0000000000
40
1.0000000000
40
1.0000000000
10
19.4675011119
20
7.2034763025
30
0.0000000000
10
19.4634996272
20
7.2010627520
30
0.0000000000
10
19.4555570335
20
7.1954195435
30
0.0000000000
10
19.4444262641
20
7.1852740594
30
0.0000000000
10
19.4338808321
20
7.1733721921
30
0.0000000000
10
19.4242147542
20
7.1600444619
30
0.0000000000
10
19.4156947967
20
7.1456592656
30
0.0000000000
10
19.4085580197
20
7.1306166661
30
0.0000000000
10
19.4030022243
20
7.1153331157
30
0.0000000000
10
19.3991814449
20
7.1002351197
30
0.0000000000
10
19.3978108701
20
7.0901969841
30
0.0000000000
10
19.3974777781
20
7.0853184679
30
0.0000000000
11
19.4675011119
21
7.2034763025
31
0.0000000000
11
19.4560283375
21
7.1954196655
31
0.0000000000
11
19.4448250834
21
7.1852843990
31
0.0000000000
11
19.4342082855
21
7.1733572256
31
0.0000000000
11
19.4244782885
21
7.1599755602
31
0.0000000000
11
19.4159103503
21
7.1455179649
31
0.0000000000
11
19.4087468544
21
7.1303934392
31
0.0000000000
11
19.4031904533
21
7.1150298500
31
0.0000000000
11
19.3993983354
21
7.0998618271
31
0.0000000000
11
19.3974777781
21
7.0853184679
31
0.0000000000
0
SPLINE
5
350
100
AcDbEntity
8
0
100
AcDbSpline
62
7
6
CONTINUOUS
70
0
71
3
72
24
73
20
74
18
42
0.0000001000
43
0.0000001000
44
0.0000000001
12
1.1096193169
22
-0.6182908033
32
0.0000000000
13
0.0000132665
23
-1.2702513710
33
0.0000000000
40
0.0000000000
40
0.0000000000
40
0.0000000000
40
0.0000000000
40
0.0530825421
40
0.1079993714
40
0.1645844707
40
0.2226551245
40
0.2820007589
40
0.3423887939
40
0.4035661849
40
0.4652681055
40
0.5272208272
40
0.5891483840
40
0.6507741567
40
0.7118282216
40
0.7720498804
40
0.8311950280
40
0.8890363263
40
0.9453689250
40
1.0000000000
40
1.0000000000
40
1.0000000000
40
1.0000000000
10
19.3974777779
20
7.0853184678
30
0.0000000000
10
19.4171115826
20
7.0743783186
30
0.0000000000
10
19.4561737930
20
7.0505007668
30
0.0000000000
10
19.5128370944
20
7.0098386527
30
0.0000000000
10
19.5681826152
20
6.9640129532
30
0.0000000000
10
19.6217782347
20
6.9133884783
30
0.0000000000
10
19.6732210530
20
6.8583562298
30
0.0000000000
10
19.7221233721
20
6.7993392295
30
0.0000000000
10
19.7681180035
20
6.7367884534
30
0.0000000000
10
19.8108594981
20
6.6711804651
30
0.0000000000
10
19.8500276141
20
6.6030125808
30
0.0000000000
10
19.8853286808
20
6.5328002569
30
0.0000000000
10
19.9164979582
20
6.4610726997
30
0.0000000000
10
19.9433009915
20
6.3883699924
30
0.0000000000
10
19.9655355855
20
6.3152377430
30
0.0000000000
10
19.9830325716
20
6.2422255848
30
0.0000000000
10
19.9956564610
20
6.1698815977
30
0.0000000000
10
20.0033070404
20
6.0987660946
30
0.0000000000
10
20.0050784546
20
6.0517673799
30
0.0000000000
10
20.0050786962
20
6.0286356473
30
0.0000000000
11
19.3974777779
21
7.0853184678
31
0.0000000000
11
19.4550561609
21
7.0502287517
31
0.0000000000
11
19.5117786300
21
7.0096237660
31
0.0000000000
11
19.5671849198
21
6.9638363300
31
0.0000000000
11
19.6208485762
21
6.9132261728
31
0.0000000000
11
19.6723602562
21
6.8581873212
31
0.0000000000
11
19.7213298023
21
6.7991441301
31
0.0000000000
11
19.7673855734
21
6.7365516915
31
0.0000000000
11
19.8101798930
21
6.6708889747
31
0.0000000000
11
19.8493897468
21
6.6026572096
31
0.0000000000
11
19.8847201541
21
6.5323740779
31
0.0000000000
11
19.9159042384
21
6.4605733392
31
0.0000000000
11
19.9427066237
21
6.3877979549
31
0.0000000000
11
19.9649238704
21
6.3145987022
31
0.0000000000
11
19.9823868194
21
6.2415272109
31
0.0000000000
11
19.9949601075
21
6.1691380373
31
0.0000000000
11
20.0025445682
21
6.0979845599
31
0.0000000000
11
20.0050786962
21
6.0286356473
31
0.0000000000
0
SPLINE
5
351
100
AcDbEntity
8
0
100
AcDbSpline
62
7
6
CONTINUOUS
70
0
71
3
72
24
73
20
74
18
42
0.0000001000
43
0.0000001000
44
0.0000000001
12
1.2266510905
22
-0.6948337705
32
0.0000000000
13
0.0058502850
23
-1.4097633278
33
0.0000000000
40
0.0000000000
40
0.0000000000
40
0.0000000000
40
0.0000000000
40
0.0529404251
40
0.1077291717
40
0.1642258951
40
0.2222433491
40
0.2815670592
40
0.3419599992
40
0.4031644976
40
0.4649108932
40
0.5269204642
40
0.5889123638
40
0.6506048544
40
0.7117226187
40
0.7719994710
40
0.8311856865
40
0.8890484812
40
0.9453765770
40
1.0000000000
40
1.0000000000
40
1.0000000000
40
1.0000000000
10
19.4675011119
20
7.2034763025
30
0.0000000000
10
19.4891475886
20
7.1912147041
30
0.0000000000
10
19.5322075431
20
7.1644823072
30
0.0000000000
10
19.5946617715
20
7.1190440457
30
0.0000000000
10
19.6556807200
20
7.0678974714
30
0.0000000000
10
19.7147987828
20
7.0114417628
30
0.0000000000
10
19.7715713919
20
6.9501130250
30
0.0000000000
10
19.8255707927
20
6.8843825316
30
0.0000000000
10
19.8763915756
20
6.8147525135
30
0.0000000000
10
19.9236521188
20
6.7417534297
30
0.0000000000
10
19.9669984684
20
6.6659384975
30
0.0000000000
10
20.0061057977
20
6.5878808060
30
0.0000000000
10
20.0406809654
20
6.5081684993
30
0.0000000000
10
20.0704639830
20
6.4274017000
30
0.0000000000
10
20.0952302443
20
6.3461865503
30
0.0000000000
10
20.1147914418
20
6.2651333621
30
0.0000000000
10
20.1289962065
20
6.1848508885
30
0.0000000000
10
20.1377333999
20
6.1059478207
30
0.0000000000
10
20.1398989123
20
6.0538013762
30
0.0000000000
10
20.1400054332
20
6.0281326767
30
0.0000000000
11
19.4675011119
21
7.2034763025
31
0.0000000000
11
19.5309637617
21
7.1641985374
31
0.0000000000
11
19.5934759467
21
7.1188309478
31
0.0000000000
11
19.6545657707
21
7.0677252861
31
0.0000000000
11
19.7137621540
21
7.0112837119
31
0.0000000000
11
19.7706138369
21
6.9499454414
31
0.0000000000
11
19.8246902494
21
6.8841834172
31
0.0000000000
11
19.8755810976
21
6.8145044834
31
0.0000000000
11
19.9229023080
21
6.7414418134
31
0.0000000000
11
19.9662968150
21
6.6655530902
31
0.0000000000
11
20.0054384340
21
6.5874137267
31
0.0000000000
11
20.0400316531
21
6.5076168889
31
0.0000000000
11
20.0698154023
21
6.4267659490
31
0.0000000000
11
20.0945636552
21
6.3454727439
31
0.0000000000
11
20.1140880148
21
6.2643499239
31
0.0000000000
11
20.1282372462
21
6.1840128649
31
0.0000000000
11
20.1368997080
21
6.1050767851
31
0.0000000000
11
20.1400054332
21
6.0281326767
31
0.0000000000
0
SPLINE
5
352
100
AcDbEntity
8
0
100
AcDbSpline
62
7
6
CONTINUOUS
70
0
71
3
72
16
73
12
74
10
42
0.0000001000
43
0.0000001000
44
0.0000000001
12
-0.1267305304
22
-0.0676978903
32
0.0000000000
13
0.0085387611
23
-0.1434249674
33
0.0000000000
40
0.0000000000
40
0.0000000000
40
0.0000000000
40
0.0000000000
40
0.0998886995
40
0.2058090922
40
0.3167905202
40
0.4314537424
40
0.5481504281
40
0.6650923057
40
0.7804746131
40
0.8925988706
40
1.0000000000
40
1.0000000000
40
1.0000000000
40
1.0000000000
10
-29.6397449785
20
31.7570994676
30
0.0000000000
10
-29.6439646278
20
31.7548453828
30
0.0000000000
10
-29.6522724817
20
31.7494533613
30
0.0000000000
10
-29.6637036511
20
31.7394106506
30
0.0000000000
10
-29.6741981027
20
31.7274367689
30
0.0000000000
10
-29.6834654265
20
31.7138662349
30
0.0000000000
10
-29.6912528359
20
31.6990739464
30
0.0000000000
10
-29.6973449028
20
31.6834702073
30
0.0000000000
10
-29.7015726656
20
31.6674856452
30
0.0000000000
10
-29.7038180814
20
31.6515661370
30
0.0000000000
10
-29.7039527013
20
31.6410155305
30
0.0000000000
10
-29.7036470104
20
31.6358808627
30
0.0000000000
11
-29.6397449785
21
31.7570994676
31
0.0000000000
11
-29.6518213843
21
31.7493446324
31
0.0000000000
11
-29.6632917297
21
31.7393428948
31
0.0000000000
11
-29.6738315228
21
31.7273772005
31
0.0000000000
11
-29.6831425964
21
31.7137860546
31
0.0000000000
11
-29.6909615437
21
31.6989539461
31
0.0000000000
11
-29.6970671692
21
31.6833004699
31
0.0000000000
11
-29.7012867470
21
31.6672684576
31
0.0000000000
11
-29.7035009066
21
31.6513114491
31
0.0000000000
11
-29.7036470104
21
31.6358808627
31
0.0000000000
0
SPLINE
5
353
100
AcDbEntity
8
0
100
AcDbSpline
62
7
6
CONTINUOUS
70
0
71
3
72
9
73
5
74
3
42
0.0000001000
43
0.0000001000
44
0.0000000001
12
-0.0071103887
22
-0.0034668137
32
0.0000000000
13
-0.0069157758
23
-0.0038403736
33
0.0000000000
40
0.0000000000
40
0.0000000000
40
0.0000000000
40
0.0000000000
40
0.4954356311
40
1.0000000000
40
1.0000000000
40
1.0000000000
40
1.0000000000
10
18.4539588232
20
-30.9014564230
30
0.0000000000
10
18.4527845766
20
-30.9020289507
30
0.0000000000
10
18.4504302699
20
-30.9032172635
30
0.0000000000
10
18.4481084447
20
-30.9044678033
30
0.0000000000
10
18.4469452934
20
-30.9051137085
30
0.0000000000
11
18.4539588232
21
-30.9014564230
31
0.0000000000
11
18.4504597345
21
-30.9032216897
31
0.0000000000
11
18.4469452934
21
-30.9051137085
31
0.0000000000
0
SPLINE
5
354
100
AcDbEntity
8
0
100
AcDbSpline
62
7
6
CONTINUOUS
70
0
71
3
72
20
73
16
74
14
42
0.0000001000
43
0.0000001000
44
0.0000000001
12
50.2950028165
22
-22.0523488358
32
0.0000000000
13
47.9727933082
23
-26.7302169782
33
0.0000000000
40
0.0000000000
40
0.0000000000
40
0.0000000000
40
0.0000000000
40
0.0726127242
40
0.1459547503
40
0.2200242046
40
0.2948185476
40
0.3703343253
40
0.4465674912
40
0.5235185790
40
0.6011774155
40
0.6795441868
40
0.7586141103
40
0.8383826335
40
0.9188457932
40
1.0000000000
40
1.0000000000
40
1.0000000000
40
1.0000000000
10
-29.7036470111
20
31.6358808623
30
0.0000000000
10
-28.4862946212
20
31.1021204874
30
0.0000000000
10
-26.0438279553
20
30.0190249333
30
0.0000000000
10
-22.3752444908
20
28.3564367634
30
0.0000000000
10
-18.6837467656
20
26.6479695062
30
0.0000000000
10
-14.9696796192
20
24.8938286413
30
0.0000000000
10
-11.2334152673
20
23.0942248484
30
0.0000000000
10
-7.4752728688
20
21.2493348851
30
0.0000000000
10
-3.6956791003
20
19.3593789343
30
0.0000000000
10
0.1050115796
20
17.4245341911
30
0.0000000000
10
3.9263602715
20
15.4450130701
30
0.0000000000
10
7.7680206315
20
13.4209714534
30
0.0000000000
10
11.6295805614
20
11.3525907148
30
0.0000000000
10
15.5106452557
20
9.2400349673
30
0.0000000000
10
18.0997464478
20
7.8084083202
30
0.0000000000
10
19.3974777779
20
7.0853184678
30
0.0000000000
11
-29.7036470111
21
31.6358808623
31
0.0000000000
11
-26.0582311460
21
30.0195374636
31
0.0000000000
11
-22.3895838390
21
28.3571065002
31
0.0000000000
11
-18.6980137629
21
26.6487861932
31
0.0000000000
11
-14.9838584557
21
24.8947786850
31
0.0000000000
11
-11.2474966343
21
23.0952974902
31
0.0000000000
11
-7.4893323758
21
21.2505610369
31
0.0000000000
11
-3.7095416921
21
19.3606656960
31
0.0000000000
11
0.0911759495
21
17.4259612005
31
0.0000000000
11
3.9126318881
21
15.4465335100
31
0.0000000000
11
7.7543950480
21
13.4225817863
31
0.0000000000
11
11.6160469607
21
11.3542911016
31
0.0000000000
11
15.4971983815
21
9.2418226965
31
0.0000000000
11
19.3974777779
21
7.0853184678
31
0.0000000000
0
SPLINE
5
355
100
AcDbEntity
8
0
100
AcDbSpline
62
7
6
CONTINUOUS
70
0
71
3
72
20
73
16
74
14
42
0.0000001000
43
0.0000001000
44
0.0000000001
12
50.3016413733
22
-22.0542904955
32
0.0000000000
13
47.9784004799
23
-26.7342466044
33
0.0000000000
40
0.0000000000
40
0.0000000000
40
0.0000000000
40
0.0000000000
40
0.0726129029
40
0.1459549734
40
0.2200244535
40
0.2948188035
40
0.3703345722
40
0.4465677153
40
0.5235187694
40
0.6011775631
40
0.6795442854
40
0.7586141554
40
0.8383826234
40
0.9188457251
40
1.0000000000
40
1.0000000000
40
1.0000000000
40
1.0000000000
10
-29.6397449785
20
31.7570994676
30
0.0000000000
10
-28.4222289113
20
31.2232907827
30
0.0000000000
10
-25.9794373832
20
30.1400944200
30
0.0000000000
10
-22.3103711782
20
28.4773415634
30
0.0000000000
10
-18.6183944979
20
26.7686960768
30
0.0000000000
10
-14.9038503903
20
25.0143626610
30
0.0000000000
10
-11.1671111849
20
23.2145520377
30
0.0000000000
10
-7.4084960852
20
21.3694409884
30
0.0000000000
10
-3.6284318443
20
19.4792497323
30
0.0000000000
10
0.1727270313
20
17.5441554887
30
0.0000000000
10
3.9945415678
20
15.5643707114
30
0.0000000000
10
7.8366653777
20
13.5400513027
30
0.0000000000
10
11.6986862585
20
11.4713787034
30
0.0000000000
10
15.5802113258
20
9.3585159485
30
0.0000000000
10
18.1696170145
20
7.9266758868
30
0.0000000000
10
19.4675011147
20
7.2034764210
30
0.0000000000
11
-29.6397449785
21
31.7570994676
31
0.0000000000
11
-25.9938408430
21
30.1406042434
31
0.0000000000
11
-22.3247127288
21
28.4780095234
31
0.0000000000
11
-18.6326636902
21
26.7695110621
31
0.0000000000
11
-14.9180314658
21
25.0153110940
31
0.0000000000
11
-11.1811948162
21
23.2156231523
31
0.0000000000
11
-7.4225579067
21
21.3706657073
31
0.0000000000
11
-3.6422967546
21
19.4805351319
31
0.0000000000
11
0.1588890373
21
17.5455812273
31
0.0000000000
11
3.9808108044
21
15.5658899550
31
0.0000000000
11
7.8230373853
21
13.5416605219
31
0.0000000000
11
11.6851502744
21
11.4730780217
31
0.0000000000
11
15.5667600217
21
9.3603038060
31
0.0000000000
11
19.4675011147
21
7.2034764210
31
0.0000000000
0
SPLINE
5
356
100
AcDbEntity
8
0
100
AcDbSpline
62
7
6
CONTINUOUS
70
0
71
3
72
24
73
20
74
18
42
0.0000001000
43
0.0000001000
44
0.0000000001
12
0.0000087972
22
0.9089997337
32
0.0000000000
13
0.8324977942
23
-0.3650040254
33
0.0000000000
40
0.0000000000
40
0.0000000000
40
0.0000000000
40
0.0000000000
40
0.0736497358
40
0.1443092451
40
0.2118431306
40
0.2762282956
40
0.3375436707
40
0.3959823174
40
0.4518572174
40
0.5056090086
40
0.5577987397
40
0.6090899006
40
0.6602089204
40
0.7118972568
40
0.7648568899
40
0.8197083783
40
0.8769574095
40
0.9369801110
40
1.0000000000
40
1.0000000000
40
1.0000000000
40
1.0000000000
10
-30.2678580382
20
31.1651040145
30
0.0000000000
10
-30.2678578222
20
31.1874198779
30
0.0000000000
10
-30.2663833181
20
31.2311643197
30
0.0000000000
10
-30.2594516915
20
31.2950396707
30
0.0000000000
10
-30.2478928959
20
31.3553984468
30
0.0000000000
10
-30.2317875313
20
31.4117781340
30
0.0000000000
10
-30.2112449827
20
31.4637589634
30
0.0000000000
10
-30.1864016234
20
31.5109487105
30
0.0000000000
10
-30.1574219818
20
31.5529820604
30
0.0000000000
10
-30.1245030950
20
31.5895182539
30
0.0000000000
10
-30.0878810335
20
31.6202444549
30
0.0000000000
10
-30.0478382484
20
31.6448841793
30
0.0000000000
10
-30.0047040847
20
31.6632125462
30
0.0000000000
10
-29.9588458721
20
31.6750704516
30
0.0000000000
10
-29.9106510884
20
31.6803701991
30
0.0000000000
10
-29.8605135624
20
31.6790899486
30
0.0000000000
10
-29.8088251164
20
31.6712616681
30
0.0000000000
10
-29.7559923742
20
31.6569702421
30
0.0000000000
10
-29.7211349840
20
31.6435483667
30
0.0000000000
10
-29.7036470111
20
31.6358808623
30
0.0000000000
11
-30.2678580382
21
31.1651040145
31
0.0000000000
11
-30.2655069281
21
31.2320103080
31
0.0000000000
11
-30.2584701240
21
31.2958531531
31
0.0000000000
11
-30.2468043855
21
31.3561228134
31
0.0000000000
11
-30.2306012244
21
31.4123612495
31
0.0000000000
11
-30.2099855650
21
31.4641440492
31
0.0000000000
11
-30.1851135420
21
31.5110822294
31
0.0000000000
11
-30.1561729810
21
31.5528206454
31
0.0000000000
11
-30.1233812595
21
31.5890427128
31
0.0000000000
11
-30.0869849422
21
31.6194713923
31
0.0000000000
11
-30.0472566711
21
31.6438728137
31
0.0000000000
11
-30.0044951442
21
31.6620566034
31
0.0000000000
11
-29.9590220298
21
31.6738784641
31
0.0000000000
11
-29.9111813625
21
31.6792411422
31
0.0000000000
11
-29.8613345251
21
31.6780960525
31
0.0000000000
11
-29.8098609071
21
31.6704435345
31
0.0000000000
11
-29.7571560125
21
31.6563348384
31
0.0000000000
11
-29.7036470111
21
31.6358808623
31
0.0000000000
0
SPLINE
5
357
100
AcDbEntity
8
0
100
AcDbSpline
62
7
6
CONTINUOUS
70
0
71
3
72
24
73
20
74
18
42
0.0000001000
43
0.0000001000
44
0.0000000001
12
-1.0640267655
22
0.6783347006
32
0.0000000000
13
-0.0000123035
23
1.2618601046
33
0.0000000000
40
0.0000000000
40
0.0000000000
40
0.0000000000
40
0.0000000000
40
0.0516127574
40
0.1053249639
40
0.1609680828
40
0.2183501429
40
0.2772472624
40
0.3374102357
40
0.3985664567
40
0.4604288925
40
0.5226990190
40
0.5850739734
40
0.6472482104
40
0.7089206277
40
0.7697973002
40
0.8295989175
40
0.8880610158
40
0.9449397139
40
1.0000000000
40
1.0000000000
40
1.0000000000
40
1.0000000000
10
-29.7036470111
20
-12.7706264451
30
0.0000000000
10
-29.7219527962
20
-12.7589562036
30
0.0000000000
10
-29.7583542900
20
-12.7336157319
30
0.0000000000
10
-29.8109873945
20
-12.6909427673
30
0.0000000000
10
-29.8623869931
20
-12.6431526694
30
0.0000000000
10
-29.9121534231
20
-12.5906249758
30
0.0000000000
10
-29.9599137655
20
-12.5337648084
30
0.0000000000
10
-30.0053091096
20
-12.4730091044
30
0.0000000000
10
-30.0479996471
20
-12.4088222023
30
0.0000000000
10
-30.0876657633
20
-12.3416935003
30
0.0000000000
10
-30.1240113160
20
-12.2721323892
30
0.0000000000
10
-30.1567649139
20
-12.2006654942
30
0.0000000000
10
-30.1856820668
20
-12.1278321509
30
0.0000000000
10
-30.2105463890
20
-12.0541815045
30
0.0000000000
10
-30.2311713963
20
-11.9802671387
30
0.0000000000
10
-30.2474012534
20
-11.9066453385
30
0.0000000000
10
-30.2591113424
20
-11.8338697501
30
0.0000000000
10
-30.2662097226
20
-11.7625044450
30
0.0000000000
10
-30.2678578124
20
-11.7154081384
30
0.0000000000
10
-30.2678580382
20
-11.6922486789
30
0.0000000000
11
-29.7036470111
21
-12.7706264451
31
0.0000000000
11
-29.7571574376
21
-12.7335009689
31
0.0000000000
11
-29.8098623768
21
-12.6908869982
31
0.0000000000
11
-29.8613360383
21
-12.6431329998
31
0.0000000000
11
-29.9111829217
21
-12.5906141856
31
0.0000000000
11
-29.9590236062
21
-12.5337395848
31
0.0000000000
11
-30.0044967223
21
-12.4729479288
31
0.0000000000
11
-30.0472582339
21
-12.4087081131
31
0.0000000000
11
-30.0869864707
21
-12.3415121132
31
0.0000000000
11
-30.1233826427
21
-12.2718735029
31
0.0000000000
11
-30.1561741381
21
-12.2003211408
31
0.0000000000
11
-30.1851144888
21
-12.1273987656
31
0.0000000000
11
-30.2099863152
21
-12.0536583412
31
0.0000000000
11
-30.2306017909
21
-11.9796584536
31
0.0000000000
11
-30.2468047824
21
-11.9059572521
31
0.0000000000
11
-30.2584703710
21
-11.8331144561
31
0.0000000000
11
-30.2655070496
21
-11.7616872699
31
0.0000000000
11
-30.2678580382
21
-11.6922486789
31
0.0000000000
0
SPLINE
5
358
100
AcDbEntity
8
0
100
AcDbSpline
62
7
6
CONTINUOUS
70
0
71
3
72
19
73
15
74
13
42
0.0000001000
43
0.0000001000
44
0.0000000001
12
-0.1858582667
22
-0.7277943003
32
0.0000000000
13
0.2254745292
23
-0.7164345547
33
0.0000000000
40
0.0000000000
40
0.0000000000
40
0.0000000000
40
0.0000000000
40
0.0052368461
40
0.1482361935
40
0.2769173599
40
0.3930394430
40
0.4980735670
40
0.5929929939
40
0.6788254875
40
0.7565252766
40
0.8269414967
40
0.8908611714
40
0.9484523593
40
1.0000000000
40
1.0000000000
40
1.0000000000
40
1.0000000000
10
18.9323059548
20
-35.2465497365
30
0.0000000000
10
18.9319815178
20
-35.2478201854
30
0.0000000000
10
18.9228238283
20
-35.2837885888
30
0.0000000000
10
18.9070903707
20
-35.3513266494
30
0.0000000000
10
18.8888199447
20
-35.4467075277
30
0.0000000000
10
18.8756977482
20
-35.5333261629
30
0.0000000000
10
18.8669217307
20
-35.6119913924
30
0.0000000000
10
18.8618724712
20
-35.6833826106
30
0.0000000000
10
18.8600598266
20
-35.7480837540
30
0.0000000000
10
18.8610967216
20
-35.8066679223
30
0.0000000000
10
18.8646900400
20
-35.8596554147
30
0.0000000000
10
18.8706150657
20
-35.9073687692
30
0.0000000000
10
18.8786763273
20
-35.9499697177
30
0.0000000000
10
18.8857043576
20
-35.9764098490
30
0.0000000000
10
18.8895785843
20
-35.9887200193
30
0.0000000000
11
18.9323059548
21
-35.2465497365
31
0.0000000000
11
18.9313353951
21
-35.2503617797
31
0.0000000000
11
18.9070072425
21
-35.3549737725
31
0.0000000000
11
18.8888778319
21
-35.4499077124
31
0.0000000000
11
18.8758759478
21
-35.5361498052
31
0.0000000000
11
18.8671980114
21
-35.6145598115
31
0.0000000000
11
18.8622430039
21
-35.6856792434
31
0.0000000000
11
18.8605184197
21
-35.7501230162
31
0.0000000000
11
18.8616391031
21
-35.8084708090
31
0.0000000000
11
18.8653140986
21
-35.8612310038
31
0.0000000000
11
18.8713386693
21
-35.9088601161
31
0.0000000000
11
18.8794992184
21
-35.9513387979
31
0.0000000000
11
18.8895785843
21
-35.9887200193
31
0.0000000000
0
SPLINE
5
359
100
AcDbEntity
8
0
100
AcDbSpline
62
7
6
CONTINUOUS
70
0
71
3
72
10
73
6
74
4
42
0.0000001000
43
0.0000001000
44
0.0000000001
12
0.0342871378
22
-0.1755237710
32
0.0000000000
13
0.0629940056
23
-0.1673796800
33
0.0000000000
40
0.0000000000
40
0.0000000000
40
0.0000000000
40
0.0000000000
40
0.3135700253
40
0.6502652675
40
1.0000000000
40
1.0000000000
40
1.0000000000
40
1.0000000000
10
18.9468720151
20
-35.9421799678
30
0.0000000000
10
18.9504558214
20
-35.9605262989
30
0.0000000000
10
18.9590225257
20
-35.9983576431
30
0.0000000000
10
18.9753782103
20
-36.0557119063
30
0.0000000000
10
18.9887529261
20
-36.0944115280
30
0.0000000000
10
18.9960966566
20
-36.1139243572
30
0.0000000000
11
18.9468720151
21
-35.9421799678
31
0.0000000000
11
18.9591989450
21
-35.9968876509
31
0.0000000000
11
18.9756816564
21
-36.0548028239
31
0.0000000000
11
18.9960966566
21
-36.1139243572
31
0.0000000000
0
SPLINE
5
35A
100
AcDbEntity
8
0
100
AcDbSpline
62
7
6
CONTINUOUS
70
0
71
3
72
11
73
7
74
5
42
0.0000001000
43
0.0000001000
44
0.0000000001
12
0.0645062447
22
0.0369766801
32
0.0000000000
13
0.0408612097
23
0.0621183710
33
0.0000000000
40
0.0000000000
40
0.0000000000
40
0.0000000000
40
0.0000000000
40
0.3062230101
40
0.5769370758
40
0.8086313701
40
1.0000000000
40
1.0000000000
40
1.0000000000
40
1.0000000000
10
18.8895785875
20
-35.9887200325
30
0.0000000000
10
18.8961630196
20
-35.9849456624
30
0.0000000000
10
18.9083620799
20
-35.9774625692
30
0.0000000000
10
18.9246069496
20
-35.9656778575
30
0.0000000000
10
18.9374579443
20
-35.9542096584
30
0.0000000000
10
18.9442649212
20
-35.9461425866
30
0.0000000000
10
18.9468714392
20
-35.9421800840
30
0.0000000000
11
18.8895785875
21
-35.9887200325
31
0.0000000000
11
18.9089413949
21
-35.9767414168
31
0.0000000000
11
18.9251623841
21
-35.9648238114
31
0.0000000000
11
18.9378961223
21
-35.9532210054
31
0.0000000000
11
18.9468714392
21
-35.9421800840
31
0.0000000000
0
SPLINE
5
35B
100
AcDbEntity
8
0
100
AcDbSpline
62
7
6
CONTINUOUS
70
0
71
3
72
10
73
6
74
4
42
0.0000001000
43
0.0000001000
44
0.0000000001
12
0.0939315749
22
-0.1351452657
32
0.0000000000
13
0.1169363253
23
-0.1158157132
33
0.0000000000
40
0.0000000000
40
0.0000000000
40
0.0000000000
40
0.0000000000
40
0.3056029928
40
0.6419294706
40
1.0000000000
40
1.0000000000
40
1.0000000000
40
1.0000000000
10
18.8895785875
20
-35.9887200325
30
0.0000000000
10
18.8991471776
20
-36.0024869650
30
0.0000000000
10
18.9202748785
20
-36.0306989861
30
0.0000000000
10
18.9558192712
20
-36.0725253591
30
0.0000000000
10
18.9821395041
20
-36.1001009845
30
0.0000000000
10
18.9960966547
20
-36.1139243824
30
0.0000000000
11
18.8895785875
21
-35.9887200325
31
0.0000000000
11
18.9196465471
21
-36.0290399400
31
0.0000000000
11
18.9554307212
21
-36.0712713953
31
0.0000000000
11
18.9960966547
21
-36.1139243824
31
0.0000000000
0
SPLINE
5
35C
100
AcDbEntity
8
0
100
AcDbSpline
62
7
6
CONTINUOUS
70
0
71
3
72
10
73
6
74
4
42
0.0000001000
43
0.0000001000
44
0.0000000001
12
-0.1244142697
22
-0.0147378119
32
0.0000000000
13
-0.1252386410
23
-0.0033758588
33
0.0000000000
40
0.0000000000
40
0.0000000000
40
0.0000000000
40
0.0000000000
40
0.3354144325
40
0.6727305934
40
1.0000000000
40
1.0000000000
40
1.0000000000
40
1.0000000000
10
-29.2055003496
20
-11.9411805605
30
0.0000000000
10
-29.2194104635
20
-11.9428283187
30
0.0000000000
10
-29.2473530812
20
-11.9457811410
30
0.0000000000
10
-29.2889945552
20
-11.9490070921
30
0.0000000000
10
-29.3167244996
20
-11.9503144045
30
0.0000000000
10
-29.3303867581
20
-11.9506826762
30
0.0000000000
11
-29.2055003496
21
-11.9411805605
31
0.0000000000
11
-29.2472917097
21
-11.9455782418
31
0.0000000000
11
-29.2894272459
21
-11.9488239790
31
0.0000000000
11
-29.3303867581
21
-11.9506826762
31
0.0000000000
0
SPLINE
5
35D
100
AcDbEntity
8
0
100
AcDbSpline
62
7
6
CONTINUOUS
70
0
71
3
72
11
73
7
74
5
42
0.0000001000
43
0.0000001000
44
0.0000000001
12
0.0698830350
22
-0.0919210872
32
0.0000000000
13
0.0351454950
23
-0.1099905406
33
0.0000000000
40
0.0000000000
40
0.0000000000
40
0.0000000000
40
0.0000000000
40
0.2510630556
40
0.5038234693
40
0.7546515789
40
1.0000000000
40
1.0000000000
40
1.0000000000
40
1.0000000000
10
-29.2588197752
20
-11.8393345696
30
0.0000000000
10
-29.2529714258
20
-11.8470272326
30
0.0000000000
10
-29.2418955777
20
-11.8629779922
30
0.0000000000
10
-29.2273472826
20
-11.8881552125
30
0.0000000000
10
-29.2150304498
20
-11.9142535435
30
0.0000000000
10
-29.2083746468
20
-11.9321852253
30
0.0000000000
10
-29.2055003496
20
-11.9411805605
30
0.0000000000
11
-29.2588197752
21
-11.8393345696
31
0.0000000000
11
-29.2422713640
21
-11.8631373506
31
0.0000000000
11
-29.2276693651
21
-11.8884080055
31
0.0000000000
11
-29.2153247326
21
-11.9146083899
31
0.0000000000
11
-29.2055003496
21
-11.9411805605
31
0.0000000000
0
SPLINE
5
35E
100
AcDbEntity
8
0
100
AcDbSpline
62
7
6
CONTINUOUS
70
0
71
3
72
10
73
6
74
4
42
0.0000001000
43
0.0000001000
44
0.0000000001
12
-0.0782987802
22
-0.1068209840
32
0.0000000000
13
-0.0638209377
23
-0.1160530462
33
0.0000000000
40
0.0000000000
40
0.0000000000
40
0.0000000000
40
0.0000000000
40
0.3316278752
40
0.6687139340
40
1.0000000000
40
1.0000000000
40
1.0000000000
40
1.0000000000
10
-29.2588194898
20
-11.8393342160
30
0.0000000000
10
-29.2674748425
20
-11.8511424880
30
0.0000000000
10
-29.2844723893
20
-11.8752918106
30
0.0000000000
10
-29.3084209527
20
-11.9123926457
30
0.0000000000
10
-29.3233390977
20
-11.9378670570
30
0.0000000000
10
-29.3303867602
20
-11.9506826427
30
0.0000000000
11
-29.2588194898
21
-11.8393342160
31
0.0000000000
11
-29.2840919441
21
-11.8752571448
31
0.0000000000
11
-29.3082830094
21
-11.9127800934
31
0.0000000000
11
-29.3303867602
21
-11.9506826427
31
0.0000000000
0
SPLINE
5
35F
100
AcDbEntity
8
0
100
AcDbSpline
62
7
6
CONTINUOUS
70
0
71
3
72
19
73
15
74
13
42
0.0000001000
43
0.0000001000
44
0.0000000001
12
-0.2609884387
22
-0.7688239877
32
0.0000000000
13
-0.7019558472
23
-0.4079991149
33
0.0000000000
40
0.0000000000
40
0.0000000000
40
0.0000000000
40
0.0000000000
40
0.1450471065
40
0.2737691472
40
0.3882471381
40
0.4903903566
40
0.5817113219
40
0.6632901886
40
0.7362121834
40
0.8014460635
40
0.8598582144
40
0.9121783767
40
0.9587014493
40
1.0000000000
40
1.0000000000
40
1.0000000000
40
1.0000000000
10
-28.7881438250
20
-11.2595087052
30
0.0000000000
10
-28.8007623643
20
-11.2966806035
30
0.0000000000
10
-28.8260909762
20
-11.3663400163
30
0.0000000000
10
-28.8662357667
20
-11.4634754235
30
0.0000000000
10
-28.9055509204
20
-11.5482980515
30
0.0000000000
10
-28.9437827884
20
-11.6223809569
30
0.0000000000
10
-28.9807967063
20
-11.6869919487
30
0.0000000000
10
-29.0165176257
20
-11.7431477686
30
0.0000000000
10
-29.0509159204
20
-11.7916912612
30
0.0000000000
10
-29.0840297868
20
-11.8333657857
30
0.0000000000
10
-29.1159217740
20
-11.8687787799
30
0.0000000000
10
-29.1465962566
20
-11.8983420945
30
0.0000000000
10
-29.1760127526
20
-11.9223548641
30
0.0000000000
10
-29.1958371067
20
-11.9355639693
30
0.0000000000
10
-29.2055003597
20
-11.9411805600
30
0.0000000000
11
-28.7881438250
21
-11.2595087052
31
0.0000000000
11
-28.8284375994
21
-11.3701667809
31
0.0000000000
11
-28.8684201320
21
-11.4667276909
31
0.0000000000
11
-28.9075788363
21
-11.5510225299
31
0.0000000000
11
-28.9456884573
21
-11.6246791783
31
0.0000000000
11
-28.9826256410
21
-11.6889683633
31
0.0000000000
11
-29.0182594097
21
-11.7448013216
31
0.0000000000
11
-29.0525780790
21
-11.7930468436
31
0.0000000000
11
-29.0856187907
21
-11.8344416805
31
0.0000000000
11
-29.1174517858
21
-11.8695964139
31
0.0000000000
11
-29.1481381320
21
-11.8989708298
31
0.0000000000
11
-29.1774995204
21
-11.9227340440
31
0.0000000000
11
-29.2055003597
21
-11.9411805600
31
0.0000000000
0
SPLINE
5
360
100
AcDbEntity
8
0
100
AcDbSpline
62
7
6
CONTINUOUS
70
0
71
3
72
18
73
14
74
12
42
0.0000001000
43
0.0000001000
44
0.0000000001
12
0.2751133568
22
-0.0258486532
32
0.0000000000
13
0.2437217580
23
-0.1302121984
33
0.0000000000
40
0.0000000000
40
0.0000000000
40
0.0000000000
40
0.0000000000
40
0.0724624454
40
0.1534702972
40
0.2416312108
40
0.3353797662
40
0.4330226291
40
0.5327800617
40
0.6328261779
40
0.7313288355
40
0.8264894925
40
0.9165832891
40
1.0000000000
40
1.0000000000
40
1.0000000000
40
1.0000000000
10
-29.0501412227
20
-11.1760802307
30
0.0000000000
10
-29.0434960938
20
-11.1767045829
30
0.0000000000
10
-29.0294646237
20
-11.1784892701
30
0.0000000000
10
-29.0075393705
20
-11.1823480000
30
0.0000000000
10
-28.9838681831
20
-11.1874867600
30
0.0000000000
10
-28.9589031799
20
-11.1938108309
30
0.0000000000
10
-28.9331204251
20
-11.2012021264
30
0.0000000000
10
-28.9070125690
20
-11.2095207060
30
0.0000000000
10
-28.8810783642
20
-11.2186081556
30
0.0000000000
10
-28.8558131819
20
-11.2282906438
30
0.0000000000
10
-28.8316988305
20
-11.2383824002
30
0.0000000000
10
-28.8091953166
20
-11.2486889970
30
0.0000000000
10
-28.7949206474
20
-11.2558880808
30
0.0000000000
10
-28.7881438250
20
-11.2595087052
30
0.0000000000
11
-29.0501412227
21
-11.1760802307
31
0.0000000000
11
-29.0302695002
21
-11.1785384060
31
0.0000000000
11
-29.0082158028
21
-11.1823724734
31
0.0000000000
11
-28.9844024152
21
-11.1875090171
31
0.0000000000
11
-28.9592853162
21
-11.1938496815
31
0.0000000000
11
-28.9333454470
21
-11.2012730543
31
0.0000000000
11
-28.9070795017
21
-11.2096369920
31
0.0000000000
11
-28.8809904159
21
-11.2187813417
31
0.0000000000
11
-28.8555777369
21
-11.2285310078
31
0.0000000000
11
-28.8313280578
21
-11.2386993050
31
0.0000000000
11
-28.8087057005
21
-11.2490915331
31
0.0000000000
11
-28.7881438250
21
-11.2595087052
31
0.0000000000
0
SPLINE
5
361
100
AcDbEntity
8
0
100
AcDbSpline
62
7
6
CONTINUOUS
70
0
71
3
72
19
73
15
74
13
42
0.0000001000
43
0.0000001000
44
0.0000000001
12
-0.1263543341
22
-0.6875282358
32
0.0000000000
13
-0.4130308486
23
-0.5639734133
33
0.0000000000
40
0.0000000000
40
0.0000000000
40
0.0000000000
40
0.0000000000
40
0.1497231699
40
0.2822879053
40
0.3997774530
40
0.5041112959
40
0.5968099816
40
0.6789514359
40
0.7516121317
40
0.8157346870
40
0.8721346881
40
0.9214613710
40
0.9639278142
40
1.0000000000
40
1.0000000000
40
1.0000000000
40
1.0000000000
10
-29.0501412227
20
-11.1760802307
30
0.0000000000
10
-29.0564472798
20
-11.2103931996
30
0.0000000000
10
-29.0690941931
20
-11.2749508235
30
0.0000000000
10
-29.0891556064
20
-11.3659268995
30
0.0000000000
10
-29.1088015212
20
-11.4461410694
30
0.0000000000
10
-29.1279047461
20
-11.5169028561
30
0.0000000000
10
-29.1463969809
20
-11.5792778221
30
0.0000000000
10
-29.1642396404
20
-11.6341270707
30
0.0000000000
10
-29.1814160856
20
-11.6821692560
30
0.0000000000
10
-29.1979430498
20
-11.7240497887
30
0.0000000000
10
-29.2138481660
20
-11.7603021118
30
0.0000000000
10
-29.2291309928
20
-11.7912835684
30
0.0000000000
10
-29.2437670061
20
-11.8172537904
30
0.0000000000
10
-29.2538531813
20
-11.8325529648
30
0.0000000000
10
-29.2588194898
20
-11.8393342160
30
0.0000000000
11
-29.0501412227
21
-11.1760802307
31
0.0000000000
11
-29.0702901510
21
-11.2787853252
31
0.0000000000
11
-29.0902813931
21
-11.3692716831
31
0.0000000000
11
-29.1098607073
21
-11.4490339496
31
0.0000000000
11
-29.1289153946
21
-11.5194346421
31
0.0000000000
11
-29.1473839068
21
-11.5815474130
31
0.0000000000
11
-29.1652006298
21
-11.6361337071
31
0.0000000000
11
-29.1823597293
21
-11.6839404625
31
0.0000000000
11
-29.1988797781
21
-11.7256095681
31
0.0000000000
11
-29.2147959079
21
-11.7616801427
31
0.0000000000
11
-29.2301389666
21
-11.7925599253
31
0.0000000000
11
-29.2448194416
21
-11.8183617353
31
0.0000000000
11
-29.2588194898
21
-11.8393342160
31
0.0000000000
0
SPLINE
5
362
100
AcDbEntity
8
0
100
AcDbSpline
62
7
6
CONTINUOUS
70
0
71
3
72
18
73
14
74
12
42
0.0000001000
43
0.0000001000
44
0.0000000001
12
0.2751133577
22
-0.0258486469
32
0.0000000000
13
0.2437217557
23
-0.1302122035
33
0.0000000000
40
0.0000000000
40
0.0000000000
40
0.0000000000
40
0.0000000000
40
0.0724622392
40
0.1534698651
40
0.2416305602
40
0.3353789319
40
0.4330216707
40
0.5327790579
40
0.6328252187
40
0.7313280127
40
0.8264888893
40
0.9165829697
40
1.0000000000
40
1.0000000000
40
1.0000000000
40
1.0000000000
10
-28.7759724475
20
-10.3684111551
30
0.0000000000
10
-28.7693273376
20
-10.3690355054
30
0.0000000000
10
-28.7552959068
20
-10.3708201860
30
0.0000000000
10
-28.7333707119
20
-10.3746789013
30
0.0000000000
10
-28.7096995798
20
-10.3798176434
30
0.0000000000
10
-28.6847346219
20
-10.3861416958
30
0.0000000000
10
-28.6589518963
20
-10.3935329751
30
0.0000000000
10
-28.6328440487
20
-10.4018515438
30
0.0000000000
10
-28.6069098296
20
-10.4109389904
30
0.0000000000
10
-28.5816446103
20
-10.4206214852
30
0.0000000000
10
-28.5575302022
20
-10.4307132588
30
0.0000000000
10
-28.5350266176
20
-10.4410198833
30
0.0000000000
10
-28.5207518982
20
-10.4482189912
30
0.0000000000
10
-28.5139750499
20
-10.4518396296
30
0.0000000000
11
-28.7759724475
21
-10.3684111551
31
0.0000000000
11
-28.7561007814
21
-10.3708693215
31
0.0000000000
11
-28.7340471447
21
-10.3747033741
31
0.0000000000
11
-28.7102338149
21
-10.3798398995
31
0.0000000000
11
-28.6851167634
21
-10.3861805447
31
0.0000000000
11
-28.6591769251
21
-10.3936039008
31
0.0000000000
11
-28.6329109893
21
-10.4019678272
31
0.0000000000
11
-28.6068218893
21
-10.4111121737
31
0.0000000000
11
-28.5814091725
21
-10.4208618466
31
0.0000000000
11
-28.5571594351
21
-10.4310301617
31
0.0000000000
11
-28.5345370047
21
-10.4414224188
31
0.0000000000
11
-28.5139750499
21
-10.4518396296
31
0.0000000000
0
SPLINE
5
363
100
AcDbEntity
8
0
100
AcDbSpline
62
7
6
CONTINUOUS
70
0
71
3
72
18
73
14
74
12
42
0.0000001000
43
0.0000001000
44
0.0000000001
12
-0.6440849424
22
-0.3292585697
32
0.0000000000
13
-0.2325243962
23
-0.6849737396
33
0.0000000000
40
0.0000000000
40
0.0000000000
40
0.0000000000
40
0.0000000000
40
0.0811331285
40
0.1653414613
40
0.2524020132
40
0.3419703592
40
0.4336380615
40
0.5269429360
40
0.6213893558
40
0.7164525245
40
0.8115981511
40
0.9062889663
40
1.0000000000
40
1.0000000000
40
1.0000000000
40
1.0000000000
10
-28.3310987683
20
-9.8189382194
30
0.0000000000
10
-28.3485176438
20
-9.8278428120
30
0.0000000000
10
-28.3831909749
20
-9.8476419983
30
0.0000000000
10
-28.4333751661
20
-9.8821818556
30
0.0000000000
10
-28.4822922665
20
-9.9218100454
30
0.0000000000
10
-28.5294772331
20
-9.9661465886
30
0.0000000000
10
-28.5744809076
20
-10.0147636376
30
0.0000000000
10
-28.6168726443
20
-10.0671920657
30
0.0000000000
10
-28.6562470157
20
-10.1229262462
30
0.0000000000
10
-28.6922278498
20
-10.1814295030
30
0.0000000000
10
-28.7244718758
20
-10.2421400065
30
0.0000000000
10
-28.7526706753
20
-10.3044714563
30
0.0000000000
10
-28.7687090804
20
-10.3470146227
30
0.0000000000
10
-28.7759724475
20
-10.3684111551
30
0.0000000000
11
-28.3310987683
21
-9.8189382194
31
0.0000000000
11
-28.3821128871
21
-9.8479544323
31
0.0000000000
11
-28.4323407278
21
-9.8824159959
31
0.0000000000
11
-28.4813211667
21
-9.9220008531
31
0.0000000000
11
-28.5285792586
21
-9.9663234547
31
0.0000000000
11
-28.5736578811
21
-10.0149529337
31
0.0000000000
11
-28.6161202850
21
-10.0674154109
31
0.0000000000
11
-28.6555576304
21
-10.1232026037
31
0.0000000000
11
-28.6915891105
21
-10.1817722687
31
0.0000000000
11
-28.7238687635
21
-10.2425579916
31
0.0000000000
11
-28.7520865402
21
-10.3049716063
31
0.0000000000
11
-28.7759724475
21
-10.3684111551
31
0.0000000000
0
SPLINE
5
364
100
AcDbEntity
8
0
100
AcDbSpline
62
7
6
CONTINUOUS
70
0
71
3
72
18
73
14
74
12
42
0.0000001000
43
0.0000001000
44
0.0000000001
12
-0.4654145171
22
-0.2287270027
32
0.0000000000
13
-0.1701772028
23
-0.4898636894
33
0.0000000000
40
0.0000000000
40
0.0000000000
40
0.0000000000
40
0.0000000000
40
0.0816792178
40
0.1663403096
40
0.2537192485
40
0.3434753976
40
0.4352069842
40
0.5284609437
40
0.6227529230
40
0.7175713242
40
0.8123968025
40
0.9067093508
40
1.0000000000
40
1.0000000000
40
1.0000000000
40
1.0000000000
10
-28.1898977600
20
-10.0625334407
30
0.0000000000
10
-28.2025693245
20
-10.0687608549
30
0.0000000000
10
-28.2278012393
20
-10.0826399734
30
0.0000000000
10
-28.2643597513
20
-10.1069493856
30
0.0000000000
10
-28.3000010182
20
-10.1349076770
30
0.0000000000
10
-28.3343802738
20
-10.1662420354
30
0.0000000000
10
-28.3671700155
20
-10.2006499405
30
0.0000000000
10
-28.3980564359
20
-10.2377991197
30
0.0000000000
10
-28.4267441308
20
-10.2773311335
30
0.0000000000
10
-28.4529590647
20
-10.3188651710
30
0.0000000000
10
-28.4764512684
20
-10.3620024152
30
0.0000000000
10
-28.4969959597
20
-10.4063258918
30
0.0000000000
10
-28.5086830693
20
-10.4366063957
30
0.0000000000
10
-28.5139750499
20
-10.4518396296
30
0.0000000000
11
-28.1898977600
21
-10.0625334407
31
0.0000000000
11
-28.2270441824
21
-10.0828874680
31
0.0000000000
11
-28.2636369601
21
-10.1071465070
31
0.0000000000
11
-28.2993207472
21
-10.1350739852
31
0.0000000000
11
-28.3337494907
21
-10.1663977774
31
0.0000000000
11
-28.3665901410
21
-10.2008132535
31
0.0000000000
11
-28.3975245091
21
-10.2379849164
31
0.0000000000
11
-28.4262547644
21
-10.2775525011
31
0.0000000000
11
-28.4525035258
21
-10.3191312939
31
0.0000000000
11
-28.4760188240
21
-10.3623190834
31
0.0000000000
11
-28.4965750192
21
-10.4066982164
31
0.0000000000
11
-28.5139750499
21
-10.4518396296
31
0.0000000000
0
SPLINE
5
365
100
AcDbEntity
8
0
100
AcDbSpline
62
7
6
CONTINUOUS
70
0
71
3
72
19
73
15
74
13
42
0.0000001000
43
0.0000001000
44
0.0000000001
12
0.0133603997
22
-0.2914759434
32
0.0000000000
13
0.2547241128
23
-0.1423107593
33
0.0000000000
40
0.0000000000
40
0.0000000000
40
0.0000000000
40
0.0000000000
40
0.0782003412
40
0.1604598880
40
0.2459789623
40
0.3338356102
40
0.4230261101
40
0.5125020197
40
0.6012054972
40
0.6881042766
40
0.7722275983
40
0.8527046056
40
0.9288071948
40
1.0000000000
40
1.0000000000
40
1.0000000000
40
1.0000000000
10
-28.3311255324
20
-9.8189519010
30
0.0000000000
10
-28.3307772698
20
-9.8265497404
30
0.0000000000
10
-28.3292608893
20
-9.8421102923
30
0.0000000000
10
-28.3248269977
20
-9.8656470471
30
0.0000000000
10
-28.3182443931
20
-9.8896502698
30
0.0000000000
10
-28.3096239633
20
-9.9137136569
30
0.0000000000
10
-28.2991107228
20
-9.9374330445
30
0.0000000000
10
-28.2868818804
20
-9.9604082493
30
0.0000000000
10
-28.2731437073
20
-9.9822518733
30
0.0000000000
10
-28.2581276670
20
-10.0025959058
30
0.0000000000
10
-28.2420866105
20
-10.0210980406
30
0.0000000000
10
-28.2252877537
20
-10.0374487307
30
0.0000000000
10
-28.2080140711
20
-10.0513722448
30
0.0000000000
10
-28.1959427754
20
-10.0591561862
30
0.0000000000
10
-28.1898979340
20
-10.0625333536
30
0.0000000000
11
-28.3311255324
21
-9.8189519010
31
0.0000000000
11
-28.3289724370
21
-9.8416675396
31
0.0000000000
11
-28.3245742178
21
-9.8652629766
31
0.0000000000
11
-28.3180058680
21
-9.8893358920
31
0.0000000000
11
-28.3093793831
21
-9.9134758240
31
0.0000000000
11
-28.2988418515
21
-9.9372711685
31
0.0000000000
11
-28.2865729461
21
-9.9603161971
31
0.0000000000
11
-28.2727818612
21
-9.9822179748
31
0.0000000000
11
-28.2577037453
21
-10.0026030603
31
0.0000000000
11
-28.2415956916
21
-10.0211238731
31
0.0000000000
11
-28.2247323544
21
-10.0374646200
31
0.0000000000
11
-28.2074012660
21
-10.0513466797
31
0.0000000000
11
-28.1898979340
21
-10.0625333536
31
0.0000000000
0
SPLINE
5
366
100
AcDbEntity
8
0
100
AcDbSpline
62
7
6
CONTINUOUS
70
0
71
3
72
13
73
9
74
7
42
0.0000001000
43
0.0000001000
44
0.0000000001
12
-0.0654913267
22
0.0244039782
32
0.0000000000
13
-0.0044642541
23
0.0695342486
33
0.0000000000
40
0.0000000000
40
0.0000000000
40
0.0000000000
40
0.0000000000
40
0.0982546246
40
0.2538127460
40
0.4191125259
40
0.5978278835
40
0.7915422684
40
1.0000000000
40
1.0000000000
40
1.0000000000
40
1.0000000000
10
19.4306742030
20
-37.3782818410
30
0.0000000000
10
19.4285292611
20
-37.3774825731
30
0.0000000000
10
19.4231664871
20
-37.3749366912
30
0.0000000000
10
19.4154242065
20
-37.3688607178
30
0.0000000000
10
19.4082235828
20
-37.3596375032
30
0.0000000000
10
19.4027063091
20
-37.3483478097
30
0.0000000000
10
19.3989830150
20
-37.3353206319
30
0.0000000000
10
19.3977879813
20
-37.3260204898
30
0.0000000000
10
19.3974777786
20
-37.3211888392
30
0.0000000000
11
19.4306742030
21
-37.3782818410
31
0.0000000000
11
19.4244782611
21
-37.3753415830
31
0.0000000000
11
19.4159103212
21
-37.3687029180
31
0.0000000000
11
19.4087468270
21
-37.3596840017
31
0.0000000000
11
19.4031904314
21
-37.3485399761
31
0.0000000000
11
19.3993983228
21
-37.3355861017
31
0.0000000000
11
19.3974777786
21
-37.3211888392
31
0.0000000000
0
SPLINE
5
367
100
AcDbEntity
8
0
100
AcDbSpline
62
7
6
CONTINUOUS
70
0
71
3
72
12
73
8
74
6
42
0.0000001000
43
0.0000001000
44
0.0000000001
12
-0.0477387891
22
0.0304707590
32
0.0000000000
13
0.0035841711
23
0.0563475616
33
0.0000000000
40
0.0000000000
40
0.0000000000
40
0.0000000000
40
0.0000000000
40
0.1564773868
40
0.3416913689
40
0.5417127699
40
0.7607072421
40
1.0000000000
40
1.0000000000
40
1.0000000000
40
1.0000000000
10
-29.6841541494
20
-12.8209094207
30
0.0000000000
10
-29.6866441630
20
-12.8193200924
30
0.0000000000
10
-29.6916436002
20
-12.8151582407
30
0.0000000000
10
-29.6975917807
20
-12.8067356183
30
0.0000000000
10
-29.7017697115
20
-12.7960591958
30
0.0000000000
10
-29.7038960558
20
-12.7837854037
30
0.0000000000
10
-29.7039328997
20
-12.7751209661
30
0.0000000000
10
-29.7036470110
20
-12.7706264450
30
0.0000000000
11
-29.6841541494
21
-12.8209094207
31
0.0000000000
11
-29.6909615077
21
-12.8152669112
31
0.0000000000
11
-29.6970671371
21
-12.8067769463
31
0.0000000000
11
-29.7012867222
21
-12.7963013484
31
0.0000000000
11
-29.7035008929
21
-12.7841364681
31
0.0000000000
11
-29.7036470110
21
-12.7706264450
31
0.0000000000
0
SPLINE
5
368
100
AcDbEntity
8
0
100
AcDbSpline
62
7
6
CONTINUOUS
70
0
71
3
72
11
73
7
74
5
42
0.0000001000
43
0.0000001000
44
0.0000000001
12
0.0482009592
22
0.0239889202
32
0.0000000000
13
0.0251738994
23
-0.0430584636
33
0.0000000000
40
0.0000000000
40
0.0000000000
40
0.0000000000
40
0.0000000000
40
0.4645705024
40
0.8050613832
40
0.9884282404
40
1.0000000000
40
1.0000000000
40
1.0000000000
40
1.0000000000
10
18.4539588232
20
-30.9014564230
30
0.0000000000
10
18.4614230712
20
-30.8977415748
30
0.0000000000
10
18.4752317736
20
-30.8909120494
30
0.0000000000
10
18.4896676542
20
-30.8867005305
30
0.0000000000
10
18.5020429261
20
-30.8808678468
30
0.0000000000
10
18.5038390177
20
-30.8834389389
30
0.0000000000
10
18.5039361198
20
-30.8836050263
30
0.0000000000
11
18.4539588232
21
-30.9014564230
31
0.0000000000
11
18.4766770894
21
-30.8909914225
31
0.0000000000
11
18.4938453030
21
-30.8845631940
31
0.0000000000
11
18.5036162344
21
-30.8831502362
31
0.0000000000
11
18.5039361198
21
-30.8836050263
31
0.0000000000
0
SPLINE
5
369
100
AcDbEntity
8
0
100
AcDbSpline
62
7
6
CONTINUOUS
70
0
71
3
72
18
73
14
74
12
42
0.0000001000
43
0.0000001000
44
0.0000000001
12
-0.4855896680
22
-0.1889939670
32
0.0000000000
13
-0.2288634913
23
0.4681212957
33
0.0000000000
40
0.0000000000
40
0.0000000000
40
0.0000000000
40
0.0000000000
40
0.1031455091
40
0.2017272267
40
0.2961253750
40
0.3868829478
40
0.4747595843
40
0.5607036557
40
0.6458072814
40
0.7312216381
40
0.8180754459
40
0.9073859081
40
1.0000000000
40
1.0000000000
40
1.0000000000
40
1.0000000000
10
-28.3310984284
20
28.9178514787
30
0.0000000000
10
-28.3477938930
20
28.9113535190
30
0.0000000000
10
-28.3810948642
20
28.9002219981
30
0.0000000000
10
-28.4314644435
20
28.8892948977
30
0.0000000000
10
-28.4806539422
20
28.8846280300
30
0.0000000000
10
-28.5281910638
20
28.8862925929
30
0.0000000000
10
-28.5736041180
20
28.8942986533
30
0.0000000000
10
-28.6164251830
20
28.9085891584
30
0.0000000000
10
-28.6562010610
20
28.9290291577
30
0.0000000000
10
-28.6925097278
20
28.9554017745
30
0.0000000000
10
-28.7249785817
20
28.9874181521
30
0.0000000000
10
-28.7532882337
20
29.0247206147
30
0.0000000000
10
-28.7689071194
20
29.0523066792
30
0.0000000000
10
-28.7759724475
20
29.0667582221
30
0.0000000000
11
-28.3310984284
21
28.9178514787
31
0.0000000000
11
-28.3821128054
21
28.9009342840
31
0.0000000000
11
-28.4323405882
21
28.8901704946
31
0.0000000000
11
-28.4813209504
21
28.8856531481
31
0.0000000000
11
-28.5285790023
21
28.8874243339
31
0.0000000000
11
-28.5736576041
21
28.8954647870
31
0.0000000000
11
-28.6161199934
21
28.9096938809
31
0.0000000000
11
-28.6555573866
21
28.9299714914
31
0.0000000000
11
-28.6915888951
21
28.9560982249
31
0.0000000000
11
-28.7238686295
21
28.9878192404
31
0.0000000000
11
-28.7520864703
21
29.0248254941
31
0.0000000000
11
-28.7759724475
21
29.0667582221
31
0.0000000000
0
SPLINE
5
36A
100
AcDbEntity
8
0
100
AcDbSpline
62
7
6
CONTINUOUS
70
0
71
3
72
12
73
8
74
6
42
0.0000001000
43
0.0000001000
44
0.0000000001
12
0.0000184353
22
-0.0454643482
32
0.0000000000
13
0.0398315828
23
-0.0214661782
33
0.0000000000
40
0.0000000000
40
0.0000000000
40
0.0000000000
40
0.0000000000
40
0.0990510692
40
0.2884971126
40
0.4977440378
40
0.7340315726
40
1.0000000000
40
1.0000000000
40
1.0000000000
40
1.0000000000
10
-30.2945457008
20
31.1991085208
30
0.0000000000
10
-30.2945450922
20
31.1976074233
30
0.0000000000
10
-30.2941570269
20
31.1932347383
30
0.0000000000
10
-30.2915649202
20
31.1860624301
30
0.0000000000
10
-30.2859009349
20
31.1782199435
30
0.0000000000
10
-30.2778422016
20
31.1710384805
30
0.0000000000
10
-30.2713893527
20
31.1670071230
30
0.0000000000
10
-30.2678580382
20
31.1651040145
30
0.0000000000
11
-30.2945457008
21
31.1991085208
31
0.0000000000
11
-30.2941472622
21
31.1946302428
31
0.0000000000
11
-30.2913338679
21
31.1865330911
31
0.0000000000
11
-30.2859056480
21
31.1787757563
31
0.0000000000
11
-30.2780092586
21
31.1715678184
31
0.0000000000
11
-30.2678580382
21
31.1651040145
31
0.0000000000
0
SPLINE
5
36B
100
AcDbEntity
8
0
100
AcDbSpline
62
7
6
CONTINUOUS
70
0
71
3
72
15
73
11
74
9
42
0.0000001000
43
0.0000001000
44
0.0000000001
12
0.3610835048
22
0.2230591501
32
0.0000000000
13
0.3895919154
23
-0.1674101348
33
0.0000000000
40
0.0000000000
40
0.0000000000
40
0.0000000000
40
0.0000000000
40
0.0632500997
40
0.1856657397
40
0.3095356463
40
0.4365004029
40
0.5680050647
40
0.7052236998
40
0.8490233885
40
1.0000000000
40
1.0000000000
40
1.0000000000
40
1.0000000000
10
-30.0474549978
20
31.7511198034
30
0.0000000000
10
-30.0398421419
20
31.7558226412
30
0.0000000000
10
-30.0169733284
20
31.7687820919
30
0.0000000000
10
-29.9765725610
20
31.7859910975
30
0.0000000000
10
-29.9253417734
20
31.7993479416
30
0.0000000000
10
-29.8714716449
20
31.8054490320
30
0.0000000000
10
-29.8154007006
20
31.8042679573
30
0.0000000000
10
-29.7575665432
20
31.7958373693
30
0.0000000000
10
-29.6984125567
20
31.7802454704
30
0.0000000000
10
-29.6593513874
20
31.7655243459
30
0.0000000000
10
-29.6397449650
20
31.7570993409
30
0.0000000000
11
-30.0474549978
21
31.7511198034
31
0.0000000000
11
-30.0241025224
21
31.7643462930
31
0.0000000000
11
-29.9763525549
21
31.7847048190
31
0.0000000000
11
-29.9255438813
21
31.7980243002
31
0.0000000000
11
-29.8720608574
21
31.8041952174
31
0.0000000000
11
-29.8163074909
21
31.8031619167
31
0.0000000000
11
-29.7587078834
21
31.7949228627
31
0.0000000000
11
-29.6997054312
21
31.7795331338
31
0.0000000000
11
-29.6397449650
21
31.7570993409
31
0.0000000000
0
SPLINE
5
36C
100
AcDbEntity
8
0
100
AcDbSpline
62
7
6
CONTINUOUS
70
0
71
3
72
18
73
14
74
12
42
0.0000001000
43
0.0000001000
44
0.0000000001
12
-0.2565380139
22
0.1243264735
32
0.0000000000
13
-0.2021490058
23
-0.2010089650
33
0.0000000000
40
0.0000000000
40
0.0000000000
40
0.0000000000
40
0.0000000000
40
0.0774659528
40
0.1589486506
40
0.2444243211
40
0.3335878716
40
0.4259051689
40
0.5206653797
40
0.6170310670
40
0.7140858888
40
0.8108805979
40
0.9064783014
40
1.0000000000
40
1.0000000000
40
1.0000000000
40
1.0000000000
10
-28.5139750499
20
29.1297290079
30
0.0000000000
10
-28.5205993704
20
29.1329393642
30
0.0000000000
10
-28.5347483320
20
29.1384209359
30
0.0000000000
10
-28.5574526782
20
29.1436295943
30
0.0000000000
10
-28.5817437803
20
29.1459536725
30
0.0000000000
10
-28.6071591817
20
29.1453563516
30
0.0000000000
10
-28.6332249278
20
29.1418562650
30
0.0000000000
10
-28.6594511770
20
29.1355225284
30
0.0000000000
10
-28.6853447445
20
29.1264764049
30
0.0000000000
10
-28.7104173191
20
29.1148895869
30
0.0000000000
10
-28.7341966237
20
29.1009800871
30
0.0000000000
10
-28.7562307003
20
29.0850128341
30
0.0000000000
10
-28.7696706748
20
29.0730244554
30
0.0000000000
10
-28.7759724475
20
29.0667582221
30
0.0000000000
11
-28.5139750499
21
29.1297290079
31
0.0000000000
11
-28.5345370047
21
29.1377849438
31
0.0000000000
11
-28.5571594351
21
29.1430579239
31
0.0000000000
11
-28.5814091725
21
29.1454469824
31
0.0000000000
11
-28.6068218893
21
29.1449063743
31
0.0000000000
11
-28.6329109893
21
29.1414464510
31
0.0000000000
11
-28.6591769251
21
29.1351334623
31
0.0000000000
11
-28.6851167634
21
29.1260882876
31
0.0000000000
11
-28.7102338149
21
29.1144841216
31
0.0000000000
11
-28.7340471447
21
29.1005431578
31
0.0000000000
11
-28.7561007814
21
29.0845323343
31
0.0000000000
11
-28.7759724475
21
29.0667582221
31
0.0000000000
0
SPLINE
5
36D
100
AcDbEntity
8
0
100
AcDbSpline
62
7
6
CONTINUOUS
70
0
71
3
72
19
73
15
74
13
42
0.0000001000
43
0.0000001000
44
0.0000000001
12
-0.1424035625
22
0.6466386616
32
0.0000000000
13
-0.3259358841
23
0.5763559080
33
0.0000000000
40
0.0000000000
40
0.0000000000
40
0.0000000000
40
0.0000000000
40
0.1348539211
40
0.2571893634
40
0.3681196279
40
0.4688563271
40
0.5604457822
40
0.6435549098
40
0.7189287050
40
0.7872691286
40
0.8491937385
40
0.9052647841
40
0.9554998079
40
1.0000000000
40
1.0000000000
40
1.0000000000
40
1.0000000000
10
-29.0501412227
20
29.6275646238
30
0.0000000000
10
-29.0565424489
20
29.6566318768
30
0.0000000000
10
-29.0693849516
20
29.7119306068
30
0.0000000000
10
-29.0894732167
20
29.7906617884
30
0.0000000000
10
-29.1091417446
20
29.8617126112
30
0.0000000000
10
-29.1282612754
20
29.9258601482
30
0.0000000000
10
-29.1467630710
20
29.9837719986
30
0.0000000000
10
-29.1646092482
20
30.0360049718
30
0.0000000000
10
-29.1817825521
20
30.0830337797
30
0.0000000000
10
-29.1982994275
20
30.1253128814
30
0.0000000000
10
-29.2141952571
20
30.1632479679
30
0.0000000000
10
-29.2294753594
20
30.1970944581
30
0.0000000000
10
-29.2441129002
20
30.2269939708
30
0.0000000000
10
-29.2539847533
20
30.2454335545
30
0.0000000000
10
-29.2588194898
20
30.2539828707
30
0.0000000000
11
-29.0501412227
21
29.6275646238
31
0.0000000000
11
-29.0703378494
21
29.7145417720
31
0.0000000000
11
-29.0903725971
21
29.7930273774
31
0.0000000000
11
-29.1099838651
21
29.8638114852
31
0.0000000000
11
-29.1290556644
21
29.9277278723
31
0.0000000000
11
-29.1475339673
21
29.9854885642
31
0.0000000000
11
-29.1653507792
21
30.0375537749
31
0.0000000000
11
-29.1824972083
21
30.0844233548
31
0.0000000000
11
-29.1989935615
21
30.1265597354
31
0.0000000000
11
-29.2148740309
21
30.1643618839
31
0.0000000000
11
-29.2301897921
21
30.1981820612
31
0.0000000000
11
-29.2448598036
21
30.2280345273
31
0.0000000000
11
-29.2588194898
21
30.2539828707
31
0.0000000000
0
SPLINE
5
36E
100
AcDbEntity
8
0
100
AcDbSpline
62
7
6
CONTINUOUS
70
0
71
3
72
12
73
8
74
6
42
0.0000001000
43
0.0000001000
44
0.0000000001
12
0.0000141927
22
-0.0454667198
32
0.0000000000
13
0.0398336664
23
-0.0214673010
33
0.0000000000
40
0.0000000000
40
0.0000000000
40
0.0000000000
40
0.0000000000
40
0.0990979019
40
0.2885340324
40
0.4977700408
40
0.7340453060
40
1.0000000000
40
1.0000000000
40
1.0000000000
40
1.0000000000
10
-30.2945457017
20
-11.6582417945
30
0.0000000000
10
-30.2945452329
20
-11.6597436800
30
0.0000000000
10
-30.2941573010
20
-11.6641171925
30
0.0000000000
10
-30.2915649267
20
-11.6712902518
30
0.0000000000
10
-30.2859009428
20
-11.6791327418
30
0.0000000000
10
-30.2778422073
20
-11.6863142092
30
0.0000000000
10
-30.2713893551
20
-11.6903455691
30
0.0000000000
10
-30.2678580382
20
-11.6922486789
30
0.0000000000
11
-30.2945457017
21
-11.6582417945
31
0.0000000000
11
-30.2941472646
21
-11.6627224375
31
0.0000000000
11
-30.2913338742
21
-11.6708195904
31
0.0000000000
11
-30.2859056562
21
-11.6785769281
31
0.0000000000
11
-30.2780092651
21
-11.6857848701
31
0.0000000000
11
-30.2678580382
21
-11.6922486789
31
0.0000000000
0
SPLINE
5
36F
100
AcDbEntity
8
0
100
AcDbSpline
62
7
6
CONTINUOUS
70
0
71
3
72
18
73
14
74
12
42
0.0000001000
43
0.0000001000
44
0.0000000001
12
-0.2565380135
22
0.1243264760
32
0.0000000000
13
-0.2021490042
23
-0.2010089678
33
0.0000000000
40
0.0000000000
40
0.0000000000
40
0.0000000000
40
0.0000000000
40
0.0774656503
40
0.1589480880
40
0.2444235525
40
0.3335869627
40
0.4259041939
40
0.5206644165
40
0.6170301914
40
0.7140851685
40
0.8108800870
40
0.9064780370
40
1.0000000000
40
1.0000000000
40
1.0000000000
40
1.0000000000
10
-28.7881438250
20
29.6905354096
30
0.0000000000
10
-28.7947681197
20
29.6937457533
30
0.0000000000
10
-28.8089170289
20
29.6992273102
30
0.0000000000
10
-28.8316212996
20
29.7044359692
30
0.0000000000
10
-28.8559123418
20
29.7067600657
30
0.0000000000
10
-28.8813277046
20
29.7061627733
30
0.0000000000
10
-28.9073934362
20
29.7026627176
30
0.0000000000
10
-28.9336196952
20
29.6963290074
30
0.0000000000
10
-28.9595132941
20
29.6872828999
30
0.0000000000
10
-28.9845859172
20
29.6756960835
30
0.0000000000
10
-29.0083652808
20
29.6617865688
30
0.0000000000
10
-29.0303994194
20
29.6458192842
30
0.0000000000
10
-29.0438394321
20
29.6338308748
30
0.0000000000
10
-29.0501412227
20
29.6275646238
30
0.0000000000
11
-28.7881438250
21
29.6905354096
31
0.0000000000
11
-28.8087056972
21
29.6985913202
31
0.0000000000
11
-28.8313280515
21
29.7038643000
31
0.0000000000
11
-28.8555777283
21
29.7062533765
31
0.0000000000
11
-28.8809904057
21
29.7057127968
31
0.0000000000
11
-28.9070794908
21
29.7022529046
31
0.0000000000
11
-28.9333454366
21
29.6959399424
31
0.0000000000
11
-28.9592853070
21
29.6868947837
31
0.0000000000
11
-28.9844024080
21
29.6752906190
31
0.0000000000
11
-29.0082157979
21
29.6613496397
31
0.0000000000
11
-29.0302694979
21
29.6453387835
31
0.0000000000
11
-29.0501412227
21
29.6275646238
31
0.0000000000
0
SPLINE
5
370
100
AcDbEntity
8
0
100
AcDbSpline
62
7
6
CONTINUOUS
70
0
71
3
72
19
73
15
74
13
42
0.0000001000
43
0.0000001000
44
0.0000000001
12
-0.3252218255
22
0.6652277496
32
0.0000000000
13
-0.5275919183
23
0.5195613173
33
0.0000000000
40
0.0000000000
40
0.0000000000
40
0.0000000000
40
0.0000000000
40
0.1198126193
40
0.2315686548
40
0.3355454888
40
0.4323235351
40
0.5224753221
40
0.6063053373
40
0.6842677113
40
0.7568408443
40
0.8244760738
40
0.8876229542
40
0.9461491143
40
1.0000000000
40
1.0000000000
40
1.0000000000
40
1.0000000000
10
-28.7881438250
20
29.6905354096
30
0.0000000000
10
-28.8011323846
20
29.7171029693
30
0.0000000000
10
-28.8271881128
20
29.7679911881
30
0.0000000000
10
-28.8673138375
20
29.8404557441
30
0.0000000000
10
-28.9066172036
20
29.9068380348
30
0.0000000000
10
-28.9448350323
20
29.9676340469
30
0.0000000000
10
-28.9818266630
20
30.0233007679
30
0.0000000000
10
-29.0175145076
20
30.0742342844
30
0.0000000000
10
-29.0518648413
20
30.1207853395
30
0.0000000000
10
-29.0849110931
20
30.1633100744
30
0.0000000000
10
-29.1167254102
20
30.2021398841
30
0.0000000000
10
-29.1473158236
20
30.2374685663
30
0.0000000000
10
-29.1766255357
20
30.2693808919
30
0.0000000000
10
-29.1960299185
20
30.2892094980
30
0.0000000000
10
-29.2055003492
20
30.2985357770
30
0.0000000000
11
-28.7881438250
21
29.6905354096
31
0.0000000000
11
-28.8285326013
21
29.7695264719
31
0.0000000000
11
-28.8686020436
21
29.8419305399
31
0.0000000000
11
-28.9078246018
21
29.9081825716
31
0.0000000000
11
-28.9459684372
21
29.9688488225
31
0.0000000000
11
-28.9829252421
21
30.0244401425
31
0.0000000000
11
-29.0185592518
21
30.0752669094
31
0.0000000000
11
-29.0528526681
21
30.1217059468
31
0.0000000000
11
-29.0858460062
21
30.1641234432
31
0.0000000000
11
-29.1176075086
21
30.2028456047
31
0.0000000000
11
-29.1482392518
21
30.2381733133
31
0.0000000000
11
-29.1775796050
21
30.2700673930
31
0.0000000000
11
-29.2055003492
21
30.2985357770
31
0.0000000000
0
SPLINE
5
371
100
AcDbEntity
8
0
100
AcDbSpline
62
7
6
CONTINUOUS
70
0
71
3
72
10
73
6
74
4
42
0.0000001000
43
0.0000001000
44
0.0000000001
12
-0.0866600361
22
0.1531979794
32
0.0000000000
13
-0.0575063844
23
0.1663508296
33
0.0000000000
40
0.0000000000
40
0.0000000000
40
0.0000000000
40
0.0000000000
40
0.3093823347
40
0.6458706422
40
1.0000000000
40
1.0000000000
40
1.0000000000
40
1.0000000000
10
-29.2588194898
20
30.2539828707
30
0.0000000000
10
-29.2677565179
20
30.2697817869
30
0.0000000000
10
-29.2852951905
20
30.3034057206
30
0.0000000000
10
-29.3092431577
20
30.3569990606
30
0.0000000000
10
-29.3235985272
20
30.3949193747
30
0.0000000000
10
-29.3303867602
20
30.4145559455
30
0.0000000000
11
-29.2588194898
21
30.2539828707
31
0.0000000000
11
-29.2840838335
21
30.3022218482
31
0.0000000000
11
-29.3083023421
21
30.3562691231
31
0.0000000000
11
-29.3303867602
21
30.4145559455
31
0.0000000000
0
SPLINE
5
372
100
AcDbEntity
8
0
100
AcDbSpline
62
7
6
CONTINUOUS
70
0
71
3
72
11
73
7
74
5
42
0.0000001000
43
0.0000001000
44
0.0000000001
12
-0.0575073287
22
-0.0390714932
32
0.0000000000
13
-0.0513757563
23
-0.0468423538
33
0.0000000000
40
0.0000000000
40
0.0000000000
40
0.0000000000
40
0.0000000000
40
0.1752727345
40
0.4035921082
40
0.6804089852
40
1.0000000000
40
1.0000000000
40
1.0000000000
40
1.0000000000
10
-29.2055003597
20
30.2985357869
30
0.0000000000
10
-29.2088601819
20
30.2962530644
30
0.0000000000
10
-29.2163554627
20
30.2906457204
30
0.0000000000
10
-29.2285839796
20
30.2806888881
30
0.0000000000
10
-29.2430621944
20
30.2682078218
30
0.0000000000
10
-29.2533466456
20
30.2589727145
30
0.0000000000
10
-29.2588197223
20
30.2539825827
30
0.0000000000
11
-29.2055003597
21
30.2985357869
31
0.0000000000
11
-29.2153247072
21
30.2913264011
31
0.0000000000
11
-29.2276693183
21
30.2813469847
31
0.0000000000
11
-29.2422713086
21
30.2688100525
31
0.0000000000
11
-29.2588197223
21
30.2539825827
31
0.0000000000
0
SPLINE
5
373
100
AcDbEntity
8
0
100
AcDbSpline
62
7
6
CONTINUOUS
70
0
71
3
72
10
73
6
74
4
42
0.0000001000
43
0.0000001000
44
0.0000000001
12
-0.1347259482
22
0.1047364141
32
0.0000000000
13
-0.1146921005
23
0.1263586944
33
0.0000000000
40
0.0000000000
40
0.0000000000
40
0.0000000000
40
0.0000000000
40
0.3173800845
40
0.6541511366
40
1.0000000000
40
1.0000000000
40
1.0000000000
40
1.0000000000
10
-29.2055003597
20
30.2985357869
30
0.0000000000
10
-29.2197534706
20
30.3096162042
30
0.0000000000
10
-29.2484579273
20
30.3333315038
30
0.0000000000
10
-29.2902186473
20
30.3719945393
30
0.0000000000
10
-29.3171647142
20
30.3999889669
30
0.0000000000
10
-29.3303867584
20
30.4145559705
30
0.0000000000
11
-29.2055003597
21
30.2985357869
31
0.0000000000
11
-29.2472806314
21
30.3329995398
31
0.0000000000
11
-29.2894597013
21
30.3720335479
31
0.0000000000
11
-29.3303867584
21
30.4145559705
31
0.0000000000
0
SPLINE
5
374
100
AcDbEntity
8
0
100
AcDbSpline
62
7
6
CONTINUOUS
70
0
71
3
72
12
73
8
74
6
42
0.0000001000
43
0.0000001000
44
0.0000000001
12
-0.0433074492
22
-0.1144180100
32
0.0000000000
13
-0.0000016388
23
-0.1223494124
33
0.0000000000
40
0.0000000000
40
0.0000000000
40
0.0000000000
40
0.0000000000
40
0.1405929271
40
0.3112410341
40
0.5142651622
40
0.7512934555
40
1.0000000000
40
1.0000000000
40
1.0000000000
40
1.0000000000
10
18.9468720151
20
6.1511371177
30
0.0000000000
10
18.9448424414
20
6.1457749967
30
0.0000000000
10
18.9412392837
20
6.1335677008
30
0.0000000000
10
18.9372730776
20
6.1129545712
30
0.0000000000
10
18.9343614811
20
6.0882025757
30
0.0000000000
10
18.9326683497
20
6.0601547117
30
0.0000000000
10
18.9323367460
20
6.0403443443
30
0.0000000000
10
18.9323366102
20
6.0302013112
30
0.0000000000
11
18.9468720151
21
6.1511371177
31
0.0000000000
11
18.9418326441
21
6.1346918042
31
0.0000000000
11
18.9377522613
21
6.1142173907
31
0.0000000000
11
18.9347399171
21
6.0895628135
31
0.0000000000
11
18.9329024262
21
6.0606231056
31
0.0000000000
11
18.9323366102
21
6.0302013112
31
0.0000000000
0
SPLINE
5
375
100
AcDbEntity
8
0
100
AcDbSpline
62
7
6
CONTINUOUS
70
0
71
3
72
12
73
8
74
6
42
0.0000001000
43
0.0000001000
44
0.0000000001
12
-0.1360504976
22
0.0681189575
32
0.0000000000
13
-0.0675667623
23
0.1361649471
33
0.0000000000
40
0.0000000000
40
0.0000000000
40
0.0000000000
40
0.0000000000
40
0.1211012650
40
0.3339593880
40
0.5498348717
40
0.7711632457
40
1.0000000000
40
1.0000000000
40
1.0000000000
40
1.0000000000
10
-28.4101508980
20
29.0222281390
30
0.0000000000
10
-28.4156428604
20
29.0249779030
30
0.0000000000
10
-28.4304653706
20
29.0332051927
30
0.0000000000
10
-28.4531409286
20
29.0495696986
30
0.0000000000
10
-28.4767945387
20
29.0726601439
30
0.0000000000
10
-28.4974223214
20
29.0995000745
30
0.0000000000
10
-28.5088211303
20
29.1193424931
30
0.0000000000
10
-28.5139750499
20
29.1297290079
30
0.0000000000
11
-28.4101508980
21
29.0222281390
31
0.0000000000
11
-28.4262547747
21
29.0311698542
31
0.0000000000
11
-28.4525035230
21
29.0500883778
31
0.0000000000
11
-28.4760188326
21
29.0729756817
31
0.0000000000
11
-28.4965750265
21
29.0996088754
31
0.0000000000
11
-28.5139750499
21
29.1297290079
31
0.0000000000
0
SPLINE
5
376
100
AcDbEntity
8
0
100
AcDbSpline
62
7
6
CONTINUOUS
70
0
71
3
72
11
73
7
74
5
42
0.0000001000
43
0.0000001000
44
0.0000000001
12
0.0831443331
22
-0.0815937463
32
0.0000000000
13
0.0282668317
23
-0.1130110870
33
0.0000000000
40
0.0000000000
40
0.0000000000
40
0.0000000000
40
0.0000000000
40
0.2503145585
40
0.5008479157
40
0.7509489571
40
1.0000000000
40
1.0000000000
40
1.0000000000
40
1.0000000000
10
18.8895788211
20
6.2509965632
30
0.0000000000
10
18.8965162334
20
6.2441885290
30
0.0000000000
10
18.9094767009
20
6.2295918461
30
0.0000000000
10
18.9257320687
20
6.2052774350
30
0.0000000000
10
18.9385005237
20
6.1790182201
30
0.0000000000
10
18.9445252753
20
6.1605189382
30
0.0000000000
10
18.9468719033
20
6.1511370952
30
0.0000000000
11
18.8895788211
21
6.2509965632
31
0.0000000000
11
18.9089417779
21
6.2291936028
31
0.0000000000
11
18.9251628613
21
6.2049313532
31
0.0000000000
11
18.9378966289
21
6.1787264993
31
0.0000000000
11
18.9468719033
21
6.1511370952
31
0.0000000000
0
SPLINE
5
377
100
AcDbEntity
8
0
100
AcDbSpline
62
7
6
CONTINUOUS
70
0
71
3
72
10
73
6
74
4
42
0.0000001000
43
0.0000001000
44
0.0000000001
12
-0.0226958759
22
-0.0559788178
32
0.0000000000
13
-0.0026543656
23
-0.0602987652
33
0.0000000000
40
0.0000000000
40
0.0000000000
40
0.0000000000
40
0.0000000000
40
0.2770256378
40
0.6278268348
40
1.0000000000
40
1.0000000000
40
1.0000000000
40
1.0000000000
10
-28.3192084312
20
28.9767525753
30
0.0000000000
10
-28.3213042111
20
28.9715833861
30
0.0000000000
10
-28.3253273004
20
28.9595768832
30
0.0000000000
10
-28.3294418593
20
28.9398359795
30
0.0000000000
10
-28.3307962323
20
28.9253214591
30
0.0000000000
10
-28.3311255269
20
28.9178409317
30
0.0000000000
11
-28.3192084312
21
28.9767525753
31
0.0000000000
11
-28.3245742127
21
28.9609123410
31
0.0000000000
11
-28.3289724318
21
28.9402008223
31
0.0000000000
11
-28.3311255269
21
28.9178409317
31
0.0000000000
0
SPLINE
5
378
100
AcDbEntity
8
0
100
AcDbSpline
62
7
6
CONTINUOUS
70
0
71
3
72
19
73
15
74
13
42
0.0000001000
43
0.0000001000
44
0.0000000001
12
-0.3131944851
22
-0.2194441091
32
0.0000000000
13
0.1430080770
23
-0.3547160782
33
0.0000000000
40
0.0000000000
40
0.0000000000
40
0.0000000000
40
0.0000000000
40
0.0361567332
40
0.0766069395
40
0.1237653497
40
0.1795164817
40
0.2458884349
40
0.3248623339
40
0.4185546934
40
0.5292975998
40
0.6595794232
40
0.8127711268
40
0.9931249295
40
1.0000000000
40
1.0000000000
40
1.0000000000
40
1.0000000000
10
18.8895785873
20
6.2509963128
30
0.0000000000
10
18.8858038909
20
6.2483515188
30
0.0000000000
10
18.8786305787
20
6.2415024451
30
0.0000000000
10
18.8704255394
20
6.2278589190
30
0.0000000000
10
18.8645169714
20
6.2104509658
30
0.0000000000
10
18.8610100387
20
6.1890859017
30
0.0000000000
10
18.8600759063
20
6.1634156947
30
0.0000000000
10
18.8619938636
20
6.1329654599
30
0.0000000000
10
18.8671492098
20
6.0971760029
30
0.0000000000
10
18.8760360167
20
6.0554168895
30
0.0000000000
10
18.8892815393
20
6.0069173025
30
0.0000000000
10
18.9077015845
20
5.9507104423
30
0.0000000000
10
18.9230803956
20
5.9101180050
30
0.0000000000
10
18.9319890409
20
5.8879736699
30
0.0000000000
10
18.9323167711
20
5.8871607705
30
0.0000000000
11
18.8895785873
21
6.2509963128
31
0.0000000000
11
18.8794992190
21
6.2415308094
31
0.0000000000
11
18.8713386692
21
6.2283893955
31
0.0000000000
11
18.8653140986
21
6.2113910298
31
0.0000000000
11
18.8616391032
21
6.1903896932
31
0.0000000000
11
18.8605184196
21
6.1650323580
31
0.0000000000
11
18.8622430039
21
6.1348802898
31
0.0000000000
11
18.8671980114
21
6.0993945537
31
0.0000000000
11
18.8758759479
21
6.0579426629
31
0.0000000000
11
18.8888778318
21
6.0098464613
31
0.0000000000
11
18.9070072427
21
5.9541383540
31
0.0000000000
11
18.9313353948
21
5.8896002004
31
0.0000000000
11
18.9323167711
21
5.8871607705
31
0.0000000000
0
SPLINE
5
379
100
AcDbEntity
8
0
100
AcDbSpline
62
7
6
CONTINUOUS
70
0
71
3
72
10
73
6
74
4
42
0.0000001000
43
0.0000001000
44
0.0000000001
12
-0.1063993434
22
-0.0063750045
32
0.0000000000
13
-0.1062592957
23
0.0083918440
33
0.0000000000
40
0.0000000000
40
0.0000000000
40
0.0000000000
40
0.0000000000
40
0.3818591646
40
0.7175784495
40
1.0000000000
40
1.0000000000
40
1.0000000000
40
1.0000000000
10
18.9960966548
20
6.2513142635
30
0.0000000000
10
18.9825534667
20
6.2505028122
30
0.0000000000
10
18.9570760780
20
6.2493678204
30
0.0000000000
10
18.9215366665
20
6.2492303339
30
0.0000000000
10
18.8995818972
20
6.2502063054
30
0.0000000000
10
18.8895785921
20
6.2509963179
30
0.0000000000
11
18.9960966548
21
6.2513142635
31
0.0000000000
11
18.9554308377
21
6.2495883137
31
0.0000000000
11
18.9196465057
21
6.2495359567
31
0.0000000000
11
18.8895785921
21
6.2509963179
31
0.0000000000
0
SPLINE
5
37A
100
AcDbEntity
8
0
100
AcDbSpline
62
7
6
CONTINUOUS
70
0
71
3
72
10
73
6
74
4
42
0.0000001000
43
0.0000001000
44
0.0000000001
12
-0.0559957357
22
-0.0966767216
32
0.0000000000
13
-0.0395566766
23
-0.1044853112
33
0.0000000000
40
0.0000000000
40
0.0000000000
40
0.0000000000
40
0.0000000000
40
0.3785341470
40
0.7142948170
40
1.0000000000
40
1.0000000000
40
1.0000000000
40
1.0000000000
10
18.9960966566
20
6.2513142387
30
0.0000000000
10
18.9890312239
20
6.2391157586
30
0.0000000000
10
18.9761336313
20
6.2158385743
30
0.0000000000
10
18.9596744435
20
6.1824162349
30
0.0000000000
10
18.9506391976
20
6.1610877827
30
0.0000000000
10
18.9468720151
20
6.1511371177
30
0.0000000000
11
18.9960966566
21
6.2513142387
31
0.0000000000
11
18.9756816982
21
6.2142772467
31
0.0000000000
11
18.9591989688
21
6.1805805006
31
0.0000000000
11
18.9468720151
21
6.1511371177
31
0.0000000000
0
SPLINE
5
37B
100
AcDbEntity
8
0
100
AcDbSpline
62
7
6
CONTINUOUS
70
0
71
3
72
31
73
27
74
25
42
0.0000001000
43
0.0000001000
44
0.0000000001
12
49.2446400275
22
-21.6443451607
32
0.0000000000
13
47.0075099252
23
-26.1496894725
33
0.0000000000
40
0.0000000000
40
0.0000000000
40
0.0000000000
40
0.0000000000
40
0.0762818860
40
0.1532962131
40
0.2310451217
40
0.3095250169
40
0.3865653238
40
0.4569060763
40
0.5190754319
40
0.5745295422
40
0.6242550505
40
0.6689656693
40
0.7093368458
40
0.7458993336
40
0.7791151508
40
0.8093425203
40
0.8368778027
40
0.8620127992
40
0.8850116717
40
0.9061349946
40
0.9256466049
40
0.9436416473
40
0.9600119563
40
0.9747164852
40
0.9879545415
40
1.0000000000
40
1.0000000000
40
1.0000000000
40
1.0000000000
10
-29.2055003492
20
30.2985357770
30
0.0000000000
10
-27.9533423433
20
29.7481786201
30
0.0000000000
10
-25.4417063648
20
28.6314465907
30
0.0000000000
10
-21.6703578803
20
26.9169101959
30
0.0000000000
10
-17.8773663618
20
25.1550836747
30
0.0000000000
10
-14.0981566309
20
23.3628039308
30
0.0000000000
10
-10.4524878623
20
21.5992232135
30
0.0000000000
10
-7.0818324198
20
19.9389640230
30
0.0000000000
10
-4.0677540597
20
18.4308933765
30
0.0000000000
10
-1.3915683747
20
17.0737011379
30
0.0000000000
10
0.9996165748
20
15.8467210898
30
0.0000000000
10
3.1455357909
20
14.7341978095
30
0.0000000000
10
5.0781702155
20
13.7231063729
30
0.0000000000
10
6.8251307597
20
12.8017551155
30
0.0000000000
10
8.4087166980
20
11.9605401938
30
0.0000000000
10
9.8473055565
20
11.1914102514
30
0.0000000000
10
11.1564243377
20
10.4874388900
30
0.0000000000
10
12.3499885825
20
9.8422520238
30
0.0000000000
10
13.4412463731
20
9.2495814819
30
0.0000000000
10
14.4429193509
20
8.7032340527
30
0.0000000000
10
15.3649980756
20
8.1983337479
30
0.0000000000
10
16.2116259170
20
7.7330890531
30
0.0000000000
10
16.9821326582
20
7.3082974981
30
0.0000000000
10
17.6774701279
20
6.9238282000
30
0.0000000000
10
18.3045604594
20
6.5761895908
30
0.0000000000
10
18.7008362503
20
6.3559913128
30
0.0000000000
10
18.8895785873
20
6.2509963128
30
0.0000000000
11
-29.2055003492
21
30.2985357770
31
0.0000000000
11
-25.4560301104
21
28.6316203697
31
0.0000000000
11
-21.6846874256
21
26.9172711520
31
0.0000000000
11
-17.8916097158
21
25.1555865056
31
0.0000000000
11
-14.0772045533
21
23.3467949103
31
0.0000000000
11
-10.3466054282
21
21.5422922666
31
0.0000000000
11
-6.9522532857
21
19.8704802082
31
0.0000000000
11
-3.9615096907
21
18.3741644516
31
0.0000000000
11
-1.3010912510
21
17.0250232132
31
0.0000000000
11
1.0787156642
21
15.8039199524
31
0.0000000000
11
3.2138884828
21
14.6969953366
31
0.0000000000
11
5.1380946526
21
13.6903329425
31
0.0000000000
11
6.8777307208
21
12.7728590190
31
0.0000000000
11
8.4556464889
21
11.9346666457
31
0.0000000000
11
9.8895509244
21
11.1680491027
31
0.0000000000
11
11.1940628810
21
10.4665608578
31
0.0000000000
11
12.3834613548
21
9.8236301849
31
0.0000000000
11
13.4706141469
21
9.2331924522
31
0.0000000000
11
14.4681345960
21
8.6891125054
31
0.0000000000
11
15.3887174271
21
8.1850332821
31
0.0000000000
11
16.2370453457
21
7.7188558842
31
0.0000000000
11
17.0081968861
21
7.2937100101
31
0.0000000000
11
17.7004071122
21
6.9109706766
31
0.0000000000
11
18.3232026989
21
6.5657135371
31
0.0000000000
11
18.8895785873
21
6.2509963128
31
0.0000000000
0
SPLINE
5
37C
100
AcDbEntity
8
0
100
AcDbSpline
62
7
6
CONTINUOUS
70
0
71
3
72
12
73
8
74
6
42
0.0000001000
43
0.0000001000
44
0.0000000001
12
0.0000050293
22
-0.1965735158
32
0.0000000000
13
0.0376834180
23
-0.1929209593
33
0.0000000000
40
0.0000000000
40
0.0000000000
40
0.0000000000
40
0.0000000000
40
0.2311216797
40
0.4593214833
40
0.6632378267
40
0.8432222680
40
1.0000000000
40
1.0000000000
40
1.0000000000
40
1.0000000000
10
18.9323366668
20
-35.7464182887
30
0.0000000000
10
18.9323370543
20
-35.7615624224
30
0.0000000000
10
18.9326864413
20
-35.7916595138
30
0.0000000000
10
18.9344100295
20
-35.8350891819
30
0.0000000000
10
18.9373557509
20
-35.8750964201
30
0.0000000000
10
18.9413621308
20
-35.9103055273
30
0.0000000000
10
18.9449027082
20
-35.9320980643
30
0.0000000000
10
18.9468720151
20
-35.9421799678
30
0.0000000000
11
18.9323366668
21
-35.7464182887
31
0.0000000000
11
18.9329024262
21
-35.7918458737
31
0.0000000000
11
18.9347399171
21
-35.8366647450
31
0.0000000000
11
18.9377522613
21
-35.8766345909
31
0.0000000000
11
18.9418326442
21
-35.9117774799
31
0.0000000000
11
18.9468720151
21
-35.9421799678
31
0.0000000000
0
SPLINE
5
37D
100
AcDbEntity
8
0
100
AcDbSpline
62
7
6
CONTINUOUS
70
0
71
3
72
8
73
4
74
2
42
0.0000001000
43
0.0000001000
44
0.0000000001
12
0.1633179258
22
0.0827006999
32
0.0000000000
13
0.1633180166
23
0.0827005205
33
0.0000000000
40
0.0000000000
40
0.0000000000
40
0.0000000000
40
0.0000000000
40
1.0000000000
40
1.0000000000
40
1.0000000000
40
1.0000000000
10
19.4675011148
20
7.2034764235
30
0.0000000000
10
19.5219404234
20
7.2310433234
30
0.0000000000
10
19.5763797471
20
7.2586101935
30
0.0000000000
10
19.6308190860
20
7.2861770337
30
0.0000000000
11
19.4675011148
21
7.2034764235
31
0.0000000000
11
19.6308190860
21
7.2861770337
31
0.0000000000
0
SPLINE
5
37E
100
AcDbEntity
8
0
100
AcDbSpline
62
7
6
CONTINUOUS
70
0
71
3
72
8
73
4
74
2
42
0.0000001000
43
0.0000001000
44
0.0000000001
12
0.0512310547
22
0.0259422382
32
0.0000000000
13
0.0512310636
23
0.0259422206
33
0.0000000000
40
0.0000000000
40
0.0000000000
40
0.0000000000
40
0.0000000000
40
1.0000000000
40
1.0000000000
40
1.0000000000
40
1.0000000000
10
19.6308190860
20
7.2861770337
30
0.0000000000
10
19.6478961042
20
7.2948244464
30
0.0000000000
10
19.6649731239
20
7.3034718562
30
0.0000000000
10
19.6820501451
20
7.3121192631
30
0.0000000000
11
19.6308190860
21
7.2861770337
31
0.0000000000
11
19.6820501451
21
7.3121192631
31
0.0000000000
0
SPLINE
5
37F
100
AcDbEntity
8
0
100
AcDbSpline
62
7
6
CONTINUOUS
70
0
71
3
72
8
73
4
74
2
42
0.0000001000
43
0.0000001000
44
0.0000000001
12
0.1438983880
22
0.0728838185
32
0.0000000000
13
0.1438984587
23
0.0728836789
33
0.0000000000
40
0.0000000000
40
0.0000000000
40
0.0000000000
40
0.0000000000
40
1.0000000000
40
1.0000000000
40
1.0000000000
40
1.0000000000
10
20.1400055233
20
6.0281326266
30
0.0000000000
10
20.1879716527
20
6.0524272328
30
0.0000000000
10
20.2359377938
20
6.0767218157
30
0.0000000000
10
20.2839039467
20
6.1010163753
30
0.0000000000
11
20.1400055233
21
6.0281326266
31
0.0000000000
11
20.2839039467
21
6.1010163753
31
0.0000000000
0
SPLINE
5
380
100
AcDbEntity
8
0
100
AcDbSpline
62
7
6
CONTINUOUS
70
0
71
3
72
8
73
4
74
2
42
0.0000001000
43
0.0000001000
44
0.0000000001
12
0.0591473747
22
0.0299577793
32
0.0000000000
13
0.0591473866
23
0.0299577557
33
0.0000000000
40
0.0000000000
40
0.0000000000
40
0.0000000000
40
0.0000000000
40
1.0000000000
40
1.0000000000
40
1.0000000000
40
1.0000000000
10
20.2839039467
20
6.1010163753
30
0.0000000000
10
20.3036197383
20
6.1110023018
30
0.0000000000
10
20.3233355318
20
6.1209882242
30
0.0000000000
10
20.3430513273
20
6.1309741428
30
0.0000000000
11
20.2839039467
21
6.1010163753
31
0.0000000000
11
20.3430513273
21
6.1309741428
31
0.0000000000
0
SPLINE
5
381
100
AcDbEntity
8
0
100
AcDbSpline
62
7
6
CONTINUOUS
70
0
71
3
72
8
73
4
74
2
42
0.0000001000
43
0.0000001000
44
0.0000000001
12
-0.2188374138
22
-0.1352291517
32
0.0000000000
13
-0.2188371885
23
-0.1352295163
33
0.0000000000
40
0.0000000000
40
0.0000000000
40
0.0000000000
40
0.0000000000
40
1.0000000000
40
1.0000000000
40
1.0000000000
40
1.0000000000
10
-29.4209076776
20
31.8923288043
30
0.0000000000
10
-29.4938534822
20
31.8472524204
30
0.0000000000
10
-29.5667992493
20
31.8021759757
30
0.0000000000
10
-29.6397449788
20
31.7570994703
30
0.0000000000
11
-29.4209076776
21
31.8923288043
31
0.0000000000
11
-29.6397449788
21
31.7570994703
31
0.0000000000
0
SPLINE
5
382
100
AcDbEntity
8
0
100
AcDbSpline
62
7
6
CONTINUOUS
70
0
71
3
72
8
73
4
74
2
42
0.0000001000
43
0.0000001000
44
0.0000000001
12
-0.2067580222
22
-0.0814442107
32
0.0000000000
13
-0.2067581457
23
-0.0814438971
33
0.0000000000
40
0.0000000000
40
0.0000000000
40
0.0000000000
40
0.0000000000
40
1.0000000000
40
1.0000000000
40
1.0000000000
40
1.0000000000
10
20.3467636073
20
-36.7477760129
30
0.0000000000
10
20.2778442666
20
-36.7749240831
30
0.0000000000
10
20.2089249052
20
-36.8020721011
30
0.0000000000
10
20.1400055233
20
-36.8292200668
30
0.0000000000
11
20.3467636073
21
-36.7477760129
31
0.0000000000
11
20.1400055233
21
-36.8292200668
31
0.0000000000
0
SPLINE
5
383
100
AcDbEntity
8
0
100
AcDbSpline
62
7
6
CONTINUOUS
70
0
71
3
72
11
73
7
74
5
42
0.0000001000
43
0.0000001000
44
0.0000000001
12
79.8589997521
22
-45.1621611938
32
0.0000000000
13
83.9111604938
23
-37.0944441890
33
0.0000000000
40
0.0000000000
40
0.0000000000
40
0.0000000000
40
0.0000000000
40
0.2430539917
40
0.4907930558
40
0.7431387194
40
1.0000000000
40
1.0000000000
40
1.0000000000
40
1.0000000000
10
-41.8208868781
20
56.5568849623
30
0.0000000000
10
-35.3508706573
20
52.8979371118
30
0.0000000000
10
-22.1866805859
20
45.6840102458
30
0.0000000000
10
-1.9827426852
20
35.2729568453
30
0.0000000000
10
18.8506132701
20
25.1769641262
30
0.0000000000
10
33.0225298884
20
18.7189640347
30
0.0000000000
10
40.2070392699
20
15.5429218883
30
0.0000000000
11
-41.8208868781
21
56.5568849623
31
0.0000000000
11
-22.2684084938
21
45.8357995479
31
0.0000000000
11
-2.0667953686
21
35.4199388374
31
0.0000000000
11
18.7649021223
21
25.3191442398
31
0.0000000000
11
40.2070392699
21
15.5429218883
31
0.0000000000
0
SPLINE
5
384
100
AcDbEntity
8
0
100
AcDbSpline
62
7
6
CONTINUOUS
70
0
71
3
72
11
73
7
74
5
42
0.0000001000
43
0.0000001000
44
0.0000000001
12
0.0000000000
22
-1.2920393281
32
0.0000000000
13
-1.2122937530
23
-0.4732921145
33
0.0000000000
40
0.0000000000
40
0.0000000000
40
0.0000000000
40
0.0000000000
40
0.3102006484
40
0.5939759126
40
0.8486820255
40
1.0000000000
40
1.0000000000
40
1.0000000000
40
1.0000000000
10
41.6326361371
20
-56.8871476513
30
0.0000000000
10
41.6326361371
20
-57.0207447971
30
0.0000000000
10
41.6057999244
20
-57.2780674852
30
0.0000000000
10
41.4669343895
20
-57.6228534378
30
0.0000000000
10
41.2605284228
20
-57.8471748615
30
0.0000000000
10
41.1039957064
20
-57.9305996160
30
0.0000000000
10
41.0428484280
20
-57.9544721507
30
0.0000000000
11
41.6326361371
21
-56.8871476513
31
0.0000000000
11
41.5854179656
21
-57.2851479284
31
0.0000000000
11
41.4418991721
21
-57.6225404293
31
0.0000000000
11
41.2158029011
21
-57.8616657346
31
0.0000000000
11
41.0428484280
21
-57.9544721507
31
0.0000000000
0
SPLINE
5
385
100
AcDbEntity
8
0
100
AcDbSpline
62
7
6
CONTINUOUS
70
0
71
3
72
13
73
9
74
7
42
0.0000001000
43
0.0000001000
44
0.0000000001
12
2.5670652241
22
-1.1348175515
32
0.0000000000
13
-0.0000000000
23
-2.8067124434
33
0.0000000000
40
0.0000000000
40
0.0000000000
40
0.0000000000
40
0.0000000000
40
0.1514252130
40
0.3197471015
40
0.4937573070
40
0.6694997013
40
0.8424811397
40
1.0000000000
40
1.0000000000
40
1.0000000000
40
1.0000000000
10
40.2070392699
20
15.5429218883
30
0.0000000000
10
40.3366120694
20
15.4856418918
30
0.0000000000
10
40.5950349904
20
15.3291102821
30
0.0000000000
10
40.9355573962
20
15.0131792049
30
0.0000000000
10
41.2283466549
20
14.6238967036
30
0.0000000000
10
41.4539410673
20
14.1873460004
30
0.0000000000
10
41.5967769332
20
13.7332508767
30
0.0000000000
10
41.6326361371
20
13.4235380900
30
0.0000000000
10
41.6326361371
20
13.2761680416
30
0.0000000000
11
40.2070392699
21
15.5429218883
31
0.0000000000
11
40.5728771508
21
15.3266035581
31
0.0000000000
11
40.9213299519
21
15.0075865888
31
0.0000000000
11
41.2158029011
21
14.6179496681
31
0.0000000000
11
41.4418991721
21
14.1795613804
31
0.0000000000
11
41.5854179656
21
13.7157494616
31
0.0000000000
11
41.6326361371
21
13.2761680416
31
0.0000000000
0
SPLINE
5
386
100
AcDbEntity
8
0
100
AcDbSpline
62
7
6
CONTINUOUS
70
0
71
3
72
8
73
4
74
2
42
0.0000001000
43
0.0000001000
44
0.0000000001
12
0.0488656254
22
-0.0181694487
32
0.0000000000
13
0.0501804398
23
-0.0149765767
33
0.0000000000
40
0.0000000000
40
0.0000000000
40
0.0000000000
40
0.0000000000
40
1.0000000000
40
1.0000000000
40
1.0000000000
40
1.0000000000
10
20.2608369631
20
-37.2286241291
30
0.0000000000
10
20.2771255049
20
-37.2346806120
30
0.0000000000
10
20.2936566413
20
-37.2402448993
30
0.0000000000
10
20.3103834546
20
-37.2452370915
30
0.0000000000
11
20.2608369631
21
-37.2286241291
31
0.0000000000
11
20.3103834546
21
-37.2452370915
31
0.0000000000
0
SPLINE
5
387
100
AcDbEntity
8
0
100
AcDbSpline
62
7
6
CONTINUOUS
70
0
71
3
72
11
73
7
74
5
42
0.0000001000
43
0.0000001000
44
0.0000000001
12
50.4419856792
22
-22.1075796106
32
0.0000000000
13
48.1082015489
23
-26.8093292086
33
0.0000000000
40
0.0000000000
40
0.0000000000
40
0.0000000000
40
0.0000000000
40
0.2367848706
40
0.4851027124
40
0.7411006094
40
1.0000000000
40
1.0000000000
40
1.0000000000
40
1.0000000000
10
-29.6925068333
20
32.0127633022
30
0.0000000000
10
-25.7112071489
20
30.2678498429
30
0.0000000000
10
-17.6030598110
20
26.5817716743
30
0.0000000000
10
-5.3624798251
20
20.6402141008
30
0.0000000000
10
7.0938647060
20
14.2227528505
30
0.0000000000
10
15.3988367825
20
9.7069141855
30
0.0000000000
10
19.5505648038
20
7.3932745207
30
0.0000000000
11
-29.6925068333
21
32.0127633022
31
0.0000000000
11
-17.8186554292
21
26.6210182620
31
0.0000000000
11
-5.5132788584
21
20.6539494379
31
0.0000000000
11
7.0221352862
21
14.2010866969
31
0.0000000000
11
19.5505648038
21
7.3932745207
31
0.0000000000
0
SPLINE
5
388
100
AcDbEntity
8
0
100
AcDbSpline
62
7
6
CONTINUOUS
70
0
71
3
72
8
73
4
74
2
42
0.0000001000
43
0.0000001000
44
0.0000000001
12
0.0362553047
22
-0.0202040477
32
0.0000000000
13
0.0362540766
23
-0.0202062333
33
0.0000000000
40
0.0000000000
40
0.0000000000
40
0.0000000000
40
0.0000000000
40
1.0000000000
40
1.0000000000
40
1.0000000000
40
1.0000000000
10
19.5505648038
20
7.3932745207
30
0.0000000000
10
19.5626499054
20
7.3865398381
30
0.0000000000
10
19.5747348023
20
7.3798047912
30
0.0000000000
10
19.5868194945
20
7.3730693801
30
0.0000000000
11
19.5505648038
21
7.3932745207
31
0.0000000000
11
19.5868194945
21
7.3730693801
31
0.0000000000
0
SPLINE
5
389
100
AcDbEntity
8
0
100
AcDbSpline
62
7
6
CONTINUOUS
70
0
71
3
72
10
73
6
74
4
42
0.0000001000
43
0.0000001000
44
0.0000000001
12
0.2947288171
22
0.1436640882
32
0.0000000000
13
0.3084797200
23
-0.1084642598
33
0.0000000000
40
0.0000000000
40
0.0000000000
40
0.0000000000
40
0.0000000000
40
0.3703810043
40
0.9819865289
40
1.0000000000
40
1.0000000000
40
1.0000000000
40
1.0000000000
10
-30.0595134913
20
32.0276701101
30
0.0000000000
10
-30.0231261729
20
32.0454069265
30
0.0000000000
10
-29.9169287107
20
32.0749571938
30
0.0000000000
10
-29.8073833001
20
32.0549041055
30
0.0000000000
10
-29.7425241244
20
32.0324190219
30
0.0000000000
10
-29.7406718609
20
32.0317677493
30
0.0000000000
11
-30.0595134913
21
32.0276701101
31
0.0000000000
11
-29.9428205064
21
32.0606929422
31
0.0000000000
11
-29.7462387476
21
32.0336975533
31
0.0000000000
11
-29.7406718609
21
32.0317677493
31
0.0000000000
0
SPLINE
5
38A
100
AcDbEntity
8
0
100
AcDbSpline
62
7
6
CONTINUOUS
70
0
71
3
72
8
73
4
74
2
42
0.0000001000
43
0.0000001000
44
0.0000000001
12
0.0488360826
22
-0.0171712084
32
0.0000000000
13
0.0472797676
23
-0.0206652085
33
0.0000000000
40
0.0000000000
40
0.0000000000
40
0.0000000000
40
0.0000000000
40
1.0000000000
40
1.0000000000
40
1.0000000000
40
1.0000000000
10
-29.7406718609
20
32.0317677493
30
0.0000000000
10
-29.7243931666
20
32.0260440132
30
0.0000000000
10
-29.7083743713
20
32.0197045472
30
0.0000000000
10
-29.6926144487
20
32.0128161444
30
0.0000000000
11
-29.7406718609
21
32.0317677493
31
0.0000000000
11
-29.6926144487
21
32.0128161444
31
0.0000000000
0
SPLINE
5
38B
100
AcDbEntity
8
0
100
AcDbSpline
62
7
6
CONTINUOUS
70
0
71
3
72
8
73
4
74
2
42
0.0000001000
43
0.0000001000
44
0.0000000001
12
0.0002192854
22
-0.1894191928
32
0.0000000000
13
-0.0371107311
23
-0.1865653359
33
0.0000000000
40
0.0000000000
40
0.0000000000
40
0.0000000000
40
0.0000000000
40
1.0000000000
40
1.0000000000
40
1.0000000000
40
1.0000000000
10
20.3467767990
20
-36.9852019243
30
0.0000000000
10
20.3468498941
20
-37.0483416553
30
0.0000000000
10
20.3417486253
20
-37.1117746472
30
0.0000000000
10
20.3293783816
20
-37.1739630925
30
0.0000000000
11
20.3467767990
21
-36.9852019243
31
0.0000000000
11
20.3293783816
21
-37.1739630925
31
0.0000000000
0
SPLINE
5
38C
100
AcDbEntity
8
0
100
AcDbSpline
62
7
6
CONTINUOUS
70
0
71
3
72
9
73
5
74
3
42
0.0000001000
43
0.0000001000
44
0.0000000001
12
-0.0366820607
22
-0.1844102977
32
0.0000000000
13
-0.0853655498
23
-0.1692538597
33
0.0000000000
40
0.0000000000
40
0.0000000000
40
0.0000000000
40
0.0000000000
40
0.5208190665
40
1.0000000000
40
1.0000000000
40
1.0000000000
40
1.0000000000
10
20.3293783816
20
-37.1739630925
30
0.0000000000
10
20.3230101427
20
-37.2059778922
30
0.0000000000
10
20.3070839243
20
-37.2668146958
30
0.0000000000
10
20.2830021460
20
-37.3256620543
30
0.0000000000
10
20.2693669648
20
-37.3526964618
30
0.0000000000
11
20.3293783816
21
-37.1739630925
31
0.0000000000
11
20.3042085703
21
-37.2688081848
31
0.0000000000
11
20.2693669648
21
-37.3526964618
31
0.0000000000
0
SPLINE
5
38D
100
AcDbEntity
8
0
100
AcDbSpline
62
7
6
CONTINUOUS
70
0
71
3
72
9
73
5
74
3
42
0.0000001000
43
0.0000001000
44
0.0000000001
12
-0.1241055137
22
-0.2460633975
32
0.0000000000
13
-0.2448778903
23
-0.1269167955
33
0.0000000000
40
0.0000000000
40
0.0000000000
40
0.0000000000
40
0.0000000000
40
0.5970219043
40
1.0000000000
40
1.0000000000
40
1.0000000000
40
1.0000000000
10
20.2693669648
20
-37.3526964618
30
0.0000000000
10
20.2446690614
20
-37.4016648745
30
0.0000000000
10
20.1917838766
20
-37.4772885473
30
0.0000000000
10
20.1158900608
20
-37.5304033756
30
0.0000000000
10
20.0829965855
20
-37.5474516051
30
0.0000000000
11
20.2693669648
21
-37.3526964618
31
0.0000000000
11
20.1733207490
21
-37.4839399093
31
0.0000000000
11
20.0829965855
21
-37.5474516051
31
0.0000000000
0
SPLINE
5
38E
100
AcDbEntity
8
0
100
AcDbSpline
62
7
6
CONTINUOUS
70
0
71
3
72
8
73
4
74
2
42
0.0000001000
43
0.0000001000
44
0.0000000001
12
0.0756427059
22
-0.0421942338
32
0.0000000000
13
0.0719581825
23
-0.0480454990
33
0.0000000000
40
0.0000000000
40
0.0000000000
40
0.0000000000
40
0.0000000000
40
1.0000000000
40
1.0000000000
40
1.0000000000
40
1.0000000000
10
19.5868912146
20
7.3730367824
30
0.0000000000
10
19.6121054499
20
7.3589720378
30
0.0000000000
10
19.6367337590
20
7.3438126028
30
0.0000000000
10
19.6607198199
20
7.3277974365
30
0.0000000000
11
19.5868912146
21
7.3730367824
31
0.0000000000
11
19.6607198199
21
7.3277974365
31
0.0000000000
0
SPLINE
5
38F
100
AcDbEntity
8
0
100
AcDbSpline
62
7
6
CONTINUOUS
70
0
71
3
72
8
73
4
74
2
42
0.0000001000
43
0.0000001000
44
0.0000000001
12
0.0886096263
22
-0.0591634414
32
0.0000000000
13
0.0828673732
23
-0.0664490754
33
0.0000000000
40
0.0000000000
40
0.0000000000
40
0.0000000000
40
0.0000000000
40
1.0000000000
40
1.0000000000
40
1.0000000000
40
1.0000000000
10
19.6607198199
20
7.3277974365
30
0.0000000000
10
19.6902563620
20
7.3080762894
30
0.0000000000
10
19.7188190264
20
7.2870575480
30
0.0000000000
10
19.7464414841
20
7.2649078562
30
0.0000000000
11
19.6607198199
21
7.3277974365
31
0.0000000000
11
19.7464414841
21
7.2649078562
31
0.0000000000
0
SPLINE
5
390
100
AcDbEntity
8
0
100
AcDbSpline
62
7
6
CONTINUOUS
70
0
71
3
72
8
73
4
74
2
42
0.0000001000
43
0.0000001000
44
0.0000000001
12
0.1765171820
22
-0.1415442904
32
0.0000000000
13
0.1518969461
23
-0.1675017941
33
0.0000000000
40
0.0000000000
40
0.0000000000
40
0.0000000000
40
0.0000000000
40
1.0000000000
40
1.0000000000
40
1.0000000000
40
1.0000000000
10
19.7464414841
20
7.2649078562
30
0.0000000000
10
19.8052805448
20
7.2177264261
30
0.0000000000
10
19.8598535142
20
7.1654134241
30
0.0000000000
10
19.9104858295
20
7.1095794927
30
0.0000000000
11
19.7464414841
21
7.2649078562
31
0.0000000000
11
19.9104858295
21
7.1095794927
31
0.0000000000
0
SPLINE
5
391
100
AcDbEntity
8
0
100
AcDbSpline
62
7
6
CONTINUOUS
70
0
71
3
72
10
73
6
74
4
42
0.0000001000
43
0.0000001000
44
0.0000000001
12
0.5665059608
22
-0.6247048886
32
0.0000000000
13
0.2047766244
23
-0.8179885349
33
0.0000000000
40
0.0000000000
40
0.0000000000
40
0.0000000000
40
0.0000000000
40
0.4278791258
40
0.8603512720
40
1.0000000000
40
1.0000000000
40
1.0000000000
40
1.0000000000
10
19.9104858295
20
7.1095794927
30
0.0000000000
10
19.9912845213
20
7.0204800988
30
0.0000000000
10
20.1335713233
20
6.8232961551
30
0.0000000000
10
20.2500310315
20
6.5658581915
30
0.0000000000
10
20.2950279737
20
6.4113486948
30
0.0000000000
10
20.3045602387
20
6.3732716753
30
0.0000000000
11
19.9104858295
21
7.1095794927
31
0.0000000000
11
20.1224011345
21
6.8183377442
31
0.0000000000
11
20.2717725732
21
6.4863466068
31
0.0000000000
11
20.3045602387
21
6.3732716753
31
0.0000000000
0
SPLINE
5
392
100
AcDbEntity
8
0
100
AcDbSpline
62
7
6
CONTINUOUS
70
0
71
3
72
9
73
5
74
3
42
0.0000001000
43
0.0000001000
44
0.0000000001
12
0.0797849643
22
-0.3187042770
32
0.0000000000
13
0.0001725056
23
-0.3296500794
33
0.0000000000
40
0.0000000000
40
0.0000000000
40
0.0000000000
40
0.0000000000
40
0.6824245831
40
1.0000000000
40
1.0000000000
40
1.0000000000
40
1.0000000000
10
20.3045602387
20
6.3732716753
30
0.0000000000
10
20.3227093124
20
6.3007744642
30
0.0000000000
10
20.3415964200
20
6.1926121454
30
0.0000000000
10
20.3467850044
20
6.0826260874
30
0.0000000000
10
20.3468032656
20
6.0477298336
30
0.0000000000
11
20.3045602387
21
6.3732716753
31
0.0000000000
11
20.3421079178
21
6.1522998922
31
0.0000000000
11
20.3468032656
21
6.0477298336
31
0.0000000000
0
SPLINE
5
393
100
AcDbEntity
8
0
100
AcDbSpline
62
7
6
CONTINUOUS
70
0
71
3
72
11
73
7
74
5
42
0.0000001000
43
0.0000001000
44
0.0000000001
12
79.2988428141
22
-44.8021975422
32
0.0000000000
13
83.2756812590
23
-36.8880449358
33
0.0000000000
40
0.0000000000
40
0.0000000000
40
0.0000000000
40
0.0000000000
40
0.2432462619
40
0.4932025407
40
0.7477743797
40
1.0000000000
40
1.0000000000
40
1.0000000000
40
1.0000000000
10
-44.9537861119
20
-18.2011712936
30
0.0000000000
10
-38.5240704161
20
-21.8338269860
30
0.0000000000
10
-25.3893696656
20
-29.0273715050
30
0.0000000000
10
-5.2062020680
20
-39.4264029229
30
0.0000000000
10
15.4705604072
20
-49.4474126182
30
0.0000000000
10
29.4703963801
20
-55.8342698878
30
0.0000000000
10
36.4718165019
20
-58.9356398935
30
0.0000000000
11
-44.9537861119
21
-18.2011712936
31
0.0000000000
11
-25.5249347030
21
-28.8480768478
31
0.0000000000
11
-5.2896689216
21
-39.2799225755
31
0.0000000000
11
15.5731757591
21
-49.3966777778
31
0.0000000000
11
36.4718165019
21
-58.9356398935
31
0.0000000000
0
SPLINE
5
394
100
AcDbEntity
8
0
100
AcDbSpline
62
7
6
CONTINUOUS
70
0
71
3
72
8
73
4
74
2
42
0.0000001000
43
0.0000001000
44
0.0000000001
12
0.3752262077
22
-0.1662113237
32
0.0000000000
13
0.3752910685
23
-0.1660634102
33
0.0000000000
40
0.0000000000
40
0.0000000000
40
0.0000000000
40
0.0000000000
40
1.0000000000
40
1.0000000000
40
1.0000000000
40
1.0000000000
10
36.4718165019
20
-58.9356398935
30
0.0000000000
10
36.5968919044
20
-58.9910436681
30
0.0000000000
10
36.7219781282
20
-59.0464227818
30
0.0000000000
10
36.8470751511
20
-59.1017772518
30
0.0000000000
11
36.4718165019
21
-58.9356398935
31
0.0000000000
11
36.8470751511
21
-59.1017772518
31
0.0000000000
0
SPLINE
5
395
100
AcDbEntity
8
0
100
AcDbSpline
62
7
6
CONTINUOUS
70
0
71
3
72
11
73
7
74
5
42
0.0000001000
43
0.0000001000
44
0.0000000001
12
1.0631889589
22
-0.4701980899
32
0.0000000000
13
1.0840130033
23
0.4238351293
33
0.0000000000
40
0.0000000000
40
0.0000000000
40
0.0000000000
40
0.0000000000
40
0.1672862122
40
0.5262649744
40
0.8679558926
40
1.0000000000
40
1.0000000000
40
1.0000000000
40
1.0000000000
10
36.8472784759
20
-59.1018401705
30
0.0000000000
10
36.9065640938
20
-59.1280593897
30
0.0000000000
10
37.0976962368
20
-59.2002639712
30
0.0000000000
10
37.4319851178
20
-59.2590116730
30
0.0000000000
10
37.7560880715
20
-59.2235483322
30
0.0000000000
10
37.9312037212
20
-59.1664007350
30
0.0000000000
10
37.9789162310
20
-59.1477457579
30
0.0000000000
11
36.8472784759
21
-59.1018401705
31
0.0000000000
11
37.0292438456
21
-59.1702667510
31
0.0000000000
11
37.4393916040
21
-59.2399006533
31
0.0000000000
11
37.8328637480
21
-59.1953858281
31
0.0000000000
11
37.9789162310
21
-59.1477457579
31
0.0000000000
0
SPLINE
5
396
100
AcDbEntity
8
0
100
AcDbSpline
62
7
6
CONTINUOUS
70
0
71
3
72
11
73
7
74
5
42
0.0000001000
43
0.0000001000
44
0.0000000001
12
-1.2671679658
22
-0.7913707101
32
0.0000000000
13
0.0001299993
23
-1.4918085722
33
0.0000000000
40
0.0000000000
40
0.0000000000
40
0.0000000000
40
0.0000000000
40
0.1903268713
40
0.4841126156
40
0.8128788745
40
1.0000000000
40
1.0000000000
40
1.0000000000
40
1.0000000000
10
-45.4351676659
20
54.8874622381
30
0.0000000000
10
-45.5155597041
20
54.8372558677
30
0.0000000000
10
-45.7052589462
20
54.6860944935
30
0.0000000000
10
-45.9412914709
20
54.3502879340
30
0.0000000000
10
-46.0561440310
20
53.9590399777
30
0.0000000000
10
-46.0738410869
20
53.7023424367
30
0.0000000000
10
-46.0738329784
20
53.6092928037
30
0.0000000000
11
-45.4351676659
21
54.8874622381
31
0.0000000000
11
-45.6571250406
21
54.7108516950
31
0.0000000000
11
-45.9105442345
21
54.3550187468
31
0.0000000000
11
-46.0537036486
21
53.8875844253
31
0.0000000000
11
-46.0738329784
21
53.6092928037
31
0.0000000000
0
SPLINE
5
397
100
AcDbEntity
8
0
100
AcDbSpline
62
7
6
CONTINUOUS
70
0
71
3
72
8
73
4
74
2
42
0.0000001000
43
0.0000001000
44
0.0000000001
12
-0.0000641284
22
-0.4498375851
32
0.0000000000
13
0.0903809486
23
-0.4416394892
33
0.0000000000
40
0.0000000000
40
0.0000000000
40
0.0000000000
40
0.0000000000
40
1.0000000000
40
1.0000000000
40
1.0000000000
40
1.0000000000
10
-46.0737402928
20
-16.1801807702
30
0.0000000000
10
-46.0737616689
20
-16.3301266319
30
0.0000000000
10
-46.0571811832
20
-16.4805097108
30
0.0000000000
10
-46.0270542003
20
-16.6277228739
30
0.0000000000
11
-46.0737402928
21
-16.1801807702
31
0.0000000000
11
-46.0270542003
21
-16.6277228739
31
0.0000000000
0
SPLINE
5
398
100
AcDbEntity
8
0
100
AcDbSpline
62
7
6
CONTINUOUS
70
0
71
3
72
8
73
4
74
2
42
0.0000001000
43
0.0000001000
44
0.0000000001
12
0.0381123495
22
-0.1862330374
32
0.0000000000
13
0.0522103126
23
-0.1824973538
33
0.0000000000
40
0.0000000000
40
0.0000000000
40
0.0000000000
40
0.0000000000
40
1.0000000000
40
1.0000000000
40
1.0000000000
40
1.0000000000
10
-46.0270542003
20
-16.6277228739
30
0.0000000000
10
-46.0143500838
20
-16.6898005530
30
0.0000000000
10
-45.9992371455
20
-16.7513145615
30
0.0000000000
10
-45.9818337080
20
-16.8121470128
30
0.0000000000
11
-46.0270542003
21
-16.6277228739
31
0.0000000000
11
-45.9818337080
21
-16.8121470128
31
0.0000000000
0
SPLINE
5
399
100
AcDbEntity
8
0
100
AcDbSpline
62
7
6
CONTINUOUS
70
0
71
3
72
9
73
5
74
3
42
0.0000001000
43
0.0000001000
44
0.0000000001
12
0.2637561333
22
-0.9219403987
32
0.0000000000
13
0.5825527845
23
-0.7622869681
33
0.0000000000
40
0.0000000000
40
0.0000000000
40
0.0000000000
40
0.0000000000
40
0.3990008525
40
1.0000000000
40
1.0000000000
40
1.0000000000
40
1.0000000000
10
-45.9818337080
20
-16.8121470128
30
0.0000000000
10
-45.9467540673
20
-16.9347653478
30
0.0000000000
10
-45.8355117056
20
-17.2351386663
30
0.0000000000
10
-45.6719008766
20
-17.5120539156
30
0.0000000000
10
-45.5551963010
20
-17.6647651882
30
0.0000000000
11
-45.9818337080
21
-16.8121470128
31
0.0000000000
11
-45.8496453250
21
-17.1707292041
31
0.0000000000
11
-45.5551963010
21
-17.6647651882
31
0.0000000000
0
SPLINE
5
39A
100
AcDbEntity
8
0
100
AcDbSpline
62
7
6
CONTINUOUS
70
0
71
3
72
9
73
5
74
3
42
0.0000001000
43
0.0000001000
44
0.0000000001
12
0.4919747473
22
-0.6437630176
32
0.0000000000
13
0.7070771854
23
-0.3997656902
33
0.0000000000
40
0.0000000000
40
0.0000000000
40
0.0000000000
40
0.0000000000
40
0.7036928436
40
1.0000000000
40
1.0000000000
40
1.0000000000
40
1.0000000000
10
-45.5551963010
20
-17.6647651882
30
0.0000000000
10
-45.4397965981
20
-17.8157689977
30
0.0000000000
10
-45.2502739738
20
-18.0113006487
30
0.0000000000
10
-45.0236669279
20
-18.1615270493
30
0.0000000000
10
-44.9538295845
20
-18.2010115276
30
0.0000000000
11
-45.5551963010
21
-17.6647651882
31
0.0000000000
11
-45.1547015712
21
-18.0685230269
31
0.0000000000
11
-44.9538295845
21
-18.2010115276
31
0.0000000000
0
SPLINE
5
39B
100
AcDbEntity
8
0
100
AcDbSpline
62
7
6
CONTINUOUS
70
0
71
3
72
10
73
6
74
4
42
0.0000001000
43
0.0000001000
44
0.0000000001
12
0.7625218918
22
0.4702676029
32
0.0000000000
13
0.7737850825
23
-0.4375938433
33
0.0000000000
40
0.0000000000
40
0.0000000000
40
0.0000000000
40
0.0000000000
40
0.2625815381
40
0.6087638857
40
1.0000000000
40
1.0000000000
40
1.0000000000
40
1.0000000000
10
-42.6700443171
20
56.6094861184
30
0.0000000000
10
-42.6033029267
20
56.6506473152
30
0.0000000000
10
-42.4302881806
20
56.7177866054
30
0.0000000000
10
-42.1260196498
20
56.7006963145
30
0.0000000000
10
-41.9217977678
20
56.6139524673
30
0.0000000000
10
-41.8208868781
20
56.5568849623
30
0.0000000000
11
-42.6700443171
21
56.6094861184
31
0.0000000000
11
-42.4517758631
21
56.6941394963
31
0.0000000000
11
-42.1441691464
21
56.6851267067
31
0.0000000000
11
-41.8208868781
21
56.5568849623
31
0.0000000000
0
SPLINE
5
39C
100
AcDbEntity
8
0
100
AcDbSpline
62
7
6
CONTINUOUS
70
0
71
3
72
9
73
5
74
3
42
0.0000001000
43
0.0000001000
44
0.0000000001
12
-2.1373263556
22
-1.3311781493
32
0.0000000000
13
-2.1373257491
23
-1.3311791231
33
0.0000000000
40
0.0000000000
40
0.0000000000
40
0.0000000000
40
0.0000000000
40
0.6499583087
40
1.0000000000
40
1.0000000000
40
1.0000000000
40
1.0000000000
10
-42.6701452325
20
56.6096529210
30
0.0000000000
10
-43.1332029070
20
56.3212494882
30
0.0000000000
10
-43.8456449598
20
55.8775233329
30
0.0000000000
10
-44.5580869115
20
55.4337970153
30
0.0000000000
10
-44.8074712849
20
55.2784742848
30
0.0000000000
11
-42.6701452325
21
56.6096529210
31
0.0000000000
11
-44.0593181277
21
55.7444424168
31
0.0000000000
11
-44.8074712849
21
55.2784742848
31
0.0000000000
0
SPLINE
5
39D
100
AcDbEntity
8
0
100
AcDbSpline
62
7
6
CONTINUOUS
70
0
71
3
72
8
73
4
74
2
42
0.0000001000
43
0.0000001000
44
0.0000000001
12
-0.6267600037
22
-0.3903615687
32
0.0000000000
13
-0.6267599516
23
-0.3903616524
33
0.0000000000
40
0.0000000000
40
0.0000000000
40
0.0000000000
40
0.0000000000
40
1.0000000000
40
1.0000000000
40
1.0000000000
40
1.0000000000
10
-44.8074712849
20
55.2784742848
30
0.0000000000
10
-45.0163912861
20
55.1483537619
30
0.0000000000
10
-45.2253112787
20
55.0182332250
30
0.0000000000
10
-45.4342312625
20
54.8881126742
30
0.0000000000
11
-44.8074712849
21
55.2784742848
31
0.0000000000
11
-45.4342312625
21
54.8881126742
31
0.0000000000
0
SPLINE
5
39E
100
AcDbEntity
8
0
100
AcDbSpline
62
7
6
CONTINUOUS
70
0
71
3
72
8
73
4
74
2
42
0.0000001000
43
0.0000001000
44
0.0000000001
12
-0.5882139487
22
-0.3663576351
32
0.0000000000
13
-0.5882139028
23
-0.3663577087
33
0.0000000000
40
0.0000000000
40
0.0000000000
40
0.0000000000
40
0.0000000000
40
1.0000000000
40
1.0000000000
40
1.0000000000
40
1.0000000000
10
-41.8208868781
20
56.5568849623
30
0.0000000000
10
-42.0169581944
20
56.4347657507
30
0.0000000000
10
-42.2130295029
20
56.3126465267
30
0.0000000000
10
-42.4091008038
20
56.1905272905
30
0.0000000000
11
-41.8208868781
21
56.5568849623
31
0.0000000000
11
-42.4091008038
21
56.1905272905
31
0.0000000000
0
SPLINE
5
39F
100
AcDbEntity
8
0
100
AcDbSpline
62
7
6
CONTINUOUS
70
0
71
3
72
9
73
5
74
3
42
0.0000001000
43
0.0000001000
44
0.0000000001
12
-2.1373218626
22
-1.3311897878
32
0.0000000000
13
-2.1373212562
23
-1.3311907615
33
0.0000000000
40
0.0000000000
40
0.0000000000
40
0.0000000000
40
0.0000000000
40
0.3623945842
40
1.0000000000
40
1.0000000000
40
1.0000000000
40
1.0000000000
10
-42.4091008038
20
56.1905272905
30
0.0000000000
10
-42.6672854264
20
56.0297219672
30
0.0000000000
10
-43.3797260107
20
55.5859919792
30
0.0000000000
10
-44.0921664937
20
55.1422618286
30
0.0000000000
10
-44.5464223631
20
54.8593370156
30
0.0000000000
11
-42.4091008038
21
56.1905272905
31
0.0000000000
11
-43.1836546317
21
55.7081112569
31
0.0000000000
11
-44.5464223631
21
54.8593370156
31
0.0000000000
0
SPLINE
5
3A0
100
AcDbEntity
8
0
100
AcDbSpline
62
7
6
CONTINUOUS
70
0
71
3
72
13
73
9
74
7
42
0.0000001000
43
0.0000001000
44
0.0000000001
12
-1.2694621185
22
0.7175449398
32
0.0000000000
13
-0.0003012639
23
1.4582197092
33
0.0000000000
40
0.0000000000
40
0.0000000000
40
0.0000000000
40
0.0000000000
40
0.1456848826
40
0.3094623551
40
0.4846780198
40
0.6637413154
40
0.8383460696
40
1.0000000000
40
1.0000000000
40
1.0000000000
40
1.0000000000
10
-45.1850383668
20
-17.7158191508
30
0.0000000000
10
-45.2466855134
20
-17.6809740007
30
0.0000000000
10
-45.3678643233
20
-17.5893377016
30
0.0000000000
10
-45.5255130423
20
-17.4128219771
30
0.0000000000
10
-45.6611371250
20
-17.1994165609
30
0.0000000000
10
-45.7653997879
20
-16.9633798704
30
0.0000000000
10
-45.8315351805
20
-16.7208280259
30
0.0000000000
10
-45.8483504075
20
-16.5571875063
30
0.0000000000
10
-45.8483666410
20
-16.4786118572
30
0.0000000000
11
-45.1850383668
21
-17.7158191508
31
0.0000000000
11
-45.3562316141
21
-17.5900261916
31
0.0000000000
11
-45.5167704301
21
-17.4132099778
31
0.0000000000
11
-45.6545269131
21
-17.1980242341
31
0.0000000000
11
-45.7600413725
21
-16.9591790377
31
0.0000000000
11
-45.8260953838
21
-16.7132843677
31
0.0000000000
11
-45.8483666410
21
-16.4786118572
31
0.0000000000
0
SPLINE
5
3A1
100
AcDbEntity
8
0
100
AcDbSpline
62
7
6
CONTINUOUS
70
0
71
3
72
13
73
9
74
7
42
0.0000001000
43
0.0000001000
44
0.0000000001
12
0.0002165514
22
1.0481044437
32
0.0000000000
13
0.9126478921
23
-0.5153608413
33
0.0000000000
40
0.0000000000
40
0.0000000000
40
0.0000000000
40
0.0000000000
40
0.2009683433
40
0.3759699693
40
0.5280141602
40
0.6711204880
40
0.8243574747
40
1.0000000000
40
1.0000000000
40
1.0000000000
40
1.0000000000
10
-45.8483666410
20
53.3114838045
30
0.0000000000
10
-45.8483521344
20
53.3816957423
30
0.0000000000
10
-45.8363273770
20
53.5137132956
30
0.0000000000
10
-45.7732292896
20
53.6898183129
30
0.0000000000
10
-45.6646072975
20
53.8193980608
30
0.0000000000
10
-45.5151273635
20
53.8835175385
30
0.0000000000
10
-45.3459361066
20
53.8740923961
30
0.0000000000
10
-45.2384716269
20
53.8285582134
30
0.0000000000
10
-45.1850383668
20
53.7983851202
30
0.0000000000
11
-45.8483666410
21
53.3114838045
31
0.0000000000
11
-45.8260953827
21
53.5209389045
31
0.0000000000
11
-45.7600413730
21
53.6920521974
31
0.0000000000
11
-45.6545269132
21
53.8114746962
31
0.0000000000
11
-45.5167704294
21
53.8708065229
31
0.0000000000
11
-45.3562316149
21
53.8660802559
31
0.0000000000
11
-45.1850383668
21
53.7983851202
31
0.0000000000
0
SPLINE
5
3A2
100
AcDbEntity
8
0
100
AcDbSpline
62
7
6
CONTINUOUS
70
0
71
3
72
11
73
7
74
5
42
0.0000001000
43
0.0000001000
44
0.0000000001
12
79.5848905827
22
-44.9606105052
32
0.0000000000
13
83.5879913262
23
-36.9899852950
33
0.0000000000
40
0.0000000000
40
0.0000000000
40
0.0000000000
40
0.0000000000
40
0.2430881056
40
0.4908659121
40
0.7432145990
40
1.0000000000
40
1.0000000000
40
1.0000000000
40
1.0000000000
10
-44.5464223630
20
54.8593370120
30
0.0000000000
10
-38.0977089346
20
51.2162071341
30
0.0000000000
10
-24.9777719731
20
44.0319940788
30
0.0000000000
10
-4.8451670753
20
33.6602429352
30
0.0000000000
10
15.9094723986
20
23.5997449943
30
0.0000000000
10
30.0252664397
20
17.1622927004
30
0.0000000000
10
37.1799917292
20
13.9961299652
30
0.0000000000
11
-44.5464223630
21
54.8593370120
31
0.0000000000
11
-25.0597329864
21
44.1825566529
31
0.0000000000
11
-4.9282790510
21
33.8055108196
31
0.0000000000
11
15.8259584301
21
23.7397117386
31
0.0000000000
11
37.1799917292
21
13.9961299652
31
0.0000000000
0
SPLINE
5
3A3
100
AcDbEntity
8
0
100
AcDbSpline
62
7
6
CONTINUOUS
70
0
71
3
72
11
73
7
74
5
42
0.0000001000
43
0.0000001000
44
0.0000000001
12
79.6562520632
22
-45.0012326310
32
0.0000000000
13
83.6631747594
23
-37.0230012323
33
0.0000000000
40
0.0000000000
40
0.0000000000
40
0.0000000000
40
0.0000000000
40
0.2430877179
40
0.4908654801
40
0.7432143428
40
1.0000000000
40
1.0000000000
40
1.0000000000
40
1.0000000000
10
-45.1850383668
20
53.7983851202
30
0.0000000000
10
-38.7305528557
20
50.1519694720
30
0.0000000000
10
-25.5988551492
20
42.9612835543
30
0.0000000000
10
-5.4481783452
20
32.5802051763
30
0.0000000000
10
15.3251233219
20
22.5106787429
30
0.0000000000
10
29.4536215600
20
16.0674631722
30
0.0000000000
10
36.6147893301
20
12.8984712718
30
0.0000000000
11
-45.1850383668
21
53.7983851202
31
0.0000000000
11
-25.6808966886
21
43.1119904977
31
0.0000000000
11
-5.5313686600
21
32.7256112281
31
0.0000000000
11
15.2415337830
21
22.6507760656
31
0.0000000000
11
36.6147893301
21
12.8984712718
31
0.0000000000
0
SPLINE
5
3A4
100
AcDbEntity
8
0
100
AcDbSpline
62
7
6
CONTINUOUS
70
0
71
3
72
11
73
7
74
5
42
0.0000001000
43
0.0000001000
44
0.0000000001
12
-1.1531190725
22
-0.5802854420
32
0.0000000000
13
0.0000137390
23
-1.2908968934
33
0.0000000000
40
0.0000000000
40
0.0000000000
40
0.0000000000
40
0.0000000000
40
0.2365771387
40
0.4955623319
40
0.7569729668
40
1.0000000000
40
1.0000000000
40
1.0000000000
40
1.0000000000
10
-44.5464223630
20
54.8593370120
30
0.0000000000
10
-44.6373562332
20
54.8135762555
30
0.0000000000
10
-44.8105364966
20
54.6825081302
30
0.0000000000
10
-45.0119560629
20
54.4227419610
30
0.0000000000
10
-45.1479750600
20
54.1204752955
30
0.0000000000
10
-45.1850394156
20
53.9029594293
30
0.0000000000
10
-45.1850383027
20
53.7983851486
30
0.0000000000
11
-44.5464223630
21
54.8593370120
31
0.0000000000
11
-44.7932891915
21
54.6795484993
31
0.0000000000
11
-44.9999793263
21
54.4167725913
31
0.0000000000
11
-45.1370677923
21
54.1084187788
31
0.0000000000
11
-45.1850383027
21
53.7983851486
31
0.0000000000
0
SPLINE
5
3A5
100
AcDbEntity
8
0
100
AcDbSpline
62
7
6
CONTINUOUS
70
0
71
3
72
13
73
9
74
7
42
0.0000001000
43
0.0000001000
44
0.0000000001
12
2.4957376013
22
-1.2375267954
32
0.0000000000
13
0.0597661902
23
-2.7850685353
33
0.0000000000
40
0.0000000000
40
0.0000000000
40
0.0000000000
40
0.0000000000
40
0.1504423557
40
0.3159011146
40
0.4907798741
40
0.6679258922
40
0.8398561758
40
1.0000000000
40
1.0000000000
40
1.0000000000
40
1.0000000000
10
37.1799943239
20
13.9960668307
30
0.0000000000
10
37.3051492052
20
13.9340080152
30
0.0000000000
10
37.5513497749
20
13.7693249644
30
0.0000000000
10
37.8756079883
20
13.4460669143
30
0.0000000000
10
38.1564150044
20
13.0535533827
30
0.0000000000
10
38.3754706002
20
12.6168879762
30
0.0000000000
10
38.5190150976
20
12.1643110067
30
0.0000000000
10
38.5598290268
20
11.8563319059
30
0.0000000000
10
38.5630194222
20
11.7076613973
30
0.0000000000
11
37.1799943239
21
13.9960668307
31
0.0000000000
11
37.5311451590
21
13.7673126851
31
0.0000000000
11
37.8598874694
21
13.4442402324
31
0.0000000000
11
38.1443635178
21
13.0487662519
31
0.0000000000
11
38.3654082023
21
12.6075642808
31
0.0000000000
11
38.5081853501
21
12.1503928208
31
0.0000000000
11
38.5630194222
21
11.7076613973
31
0.0000000000
0
SPLINE
5
3A6
100
AcDbEntity
8
0
100
AcDbSpline
62
7
6
CONTINUOUS
70
0
71
3
72
13
73
9
74
7
42
0.0000001000
43
0.0000001000
44
0.0000000001
12
1.3512529154
22
-0.5982678101
32
0.0000000000
13
0.0003462737
23
-1.4777715297
33
0.0000000000
40
0.0000000000
40
0.0000000000
40
0.0000000000
40
0.0000000000
40
0.1521904602
40
0.3187977583
40
0.4936718151
40
0.6701779045
40
0.8412752420
40
1.0000000000
40
1.0000000000
40
1.0000000000
40
1.0000000000
10
36.6147893301
20
12.8984712718
30
0.0000000000
10
36.6833385978
20
12.8681210540
30
0.0000000000
10
36.8189432179
20
12.7858300209
30
0.0000000000
10
36.9981289145
20
12.6194937405
30
0.0000000000
10
37.1523130793
20
12.4145828841
30
0.0000000000
10
37.2708923098
20
12.1847578465
30
0.0000000000
10
37.3461292321
20
11.9456793216
30
0.0000000000
10
37.3650769872
20
11.7829391395
30
0.0000000000
10
37.3650953079
20
11.7047528300
30
0.0000000000
11
36.6147893301
21
12.8984712718
31
0.0000000000
11
36.8082774203
21
12.7838257340
31
0.0000000000
11
36.9898199077
21
12.6175113560
31
0.0000000000
11
37.1456738227
21
12.4113743282
31
0.0000000000
11
37.2650965196
21
12.1794832506
31
0.0000000000
11
37.3398778985
21
11.9379522644
31
0.0000000000
11
37.3650953079
21
11.7047528300
31
0.0000000000
0
SPLINE
5
3A7
100
AcDbEntity
8
0
100
AcDbSpline
62
7
6
CONTINUOUS
70
0
71
3
72
11
73
7
74
5
42
0.0000001000
43
0.0000001000
44
0.0000000001
12
-1.0782780951
22
-0.6831597890
32
0.0000000000
13
-0.0000671551
23
-1.2764759861
33
0.0000000000
40
0.0000000000
40
0.0000000000
40
0.0000000000
40
0.0000000000
40
0.2288784683
40
0.4873890501
40
0.7527231613
40
1.0000000000
40
1.0000000000
40
1.0000000000
40
1.0000000000
10
37.1799943239
20
13.9960668307
30
0.0000000000
10
37.0977294443
20
13.9439466419
30
0.0000000000
10
36.9432563301
20
13.8002119473
30
0.0000000000
10
36.7668077937
20
13.5302295557
30
0.0000000000
10
36.6476148682
20
13.2220972811
30
0.0000000000
10
36.6147949430
20
13.0036856311
30
0.0000000000
10
36.6147894077
20
12.8984713156
30
0.0000000000
11
37.1799943239
21
13.9960668307
31
0.0000000000
11
36.9615180108
21
13.8020969334
31
0.0000000000
11
36.7785929873
21
13.5274573164
31
0.0000000000
11
36.6572593429
21
13.2112440359
31
0.0000000000
11
36.6147894077
21
12.8984713156
31
0.0000000000
0
SPLINE
5
3A8
100
AcDbEntity
8
0
100
AcDbSpline
62
7
6
CONTINUOUS
70
0
71
3
72
11
73
7
74
5
42
0.0000001000
43
0.0000001000
44
0.0000000001
12
-1.1177896469
22
-0.5032312139
32
0.0000000000
13
-1.1213844856
23
0.4951688446
33
0.0000000000
40
0.0000000000
40
0.0000000000
40
0.0000000000
40
0.0000000000
40
0.2369598882
40
0.4993506329
40
0.7620871078
40
1.0000000000
40
1.0000000000
40
1.0000000000
40
1.0000000000
10
38.5630701848
20
11.7076332271
30
0.0000000000
10
38.4747797482
20
11.6678846897
30
0.0000000000
10
38.2766880724
20
11.6106551998
30
0.0000000000
10
37.9650612367
20
11.5826591968
30
0.0000000000
10
37.6529159518
20
11.6092286614
30
0.0000000000
10
37.4540259167
20
11.6654838127
30
0.0000000000
10
37.3650953079
20
11.7047528300
30
0.0000000000
11
38.5630701848
21
11.7076332271
31
0.0000000000
11
38.2854030634
21
11.6223261556
31
0.0000000000
11
37.9651804869
21
11.5920535980
31
0.0000000000
11
37.6443904383
21
11.6207849186
31
0.0000000000
11
37.3650953079
21
11.7047528300
31
0.0000000000
0
SPLINE
5
3A9
100
AcDbEntity
8
0
100
AcDbSpline
62
7
6
CONTINUOUS
70
0
71
3
72
11
73
7
74
5
42
0.0000001000
43
0.0000001000
44
0.0000000001
12
-0.0270082689
22
-1.2826207939
32
0.0000000000
13
-1.2031512374
23
-0.4729525433
33
0.0000000000
40
0.0000000000
40
0.0000000000
40
0.0000000000
40
0.0000000000
40
0.3191198360
40
0.6011260680
40
0.8538497832
40
1.0000000000
40
1.0000000000
40
1.0000000000
40
1.0000000000
10
38.5630194224
20
-58.0824342288
30
0.0000000000
10
38.5601464643
20
-58.2188708079
30
0.0000000000
10
38.5290126754
20
-58.4768037768
30
0.0000000000
10
38.3895060383
20
-58.8200790248
30
0.0000000000
10
38.1898406737
20
-59.0421591628
30
0.0000000000
10
38.0374379644
20
-59.1245219899
30
0.0000000000
10
37.9788243597
20
-59.1475626955
30
0.0000000000
11
38.5630194224
21
-58.0824342288
31
0.0000000000
11
38.5081853686
21
-58.4881459154
31
0.0000000000
11
38.3654082438
21
-58.8205683859
31
0.0000000000
11
38.1443635832
21
-59.0577565432
31
0.0000000000
11
37.9788243597
21
-59.1475626955
31
0.0000000000
0
SPLINE
5
3AA
100
AcDbEntity
8
0
100
AcDbSpline
62
7
6
CONTINUOUS
70
0
71
3
72
13
73
9
74
7
42
0.0000001000
43
0.0000001000
44
0.0000000001
12
-0.0002649046
22
-1.1304644453
32
0.0000000000
13
-1.0338658452
23
0.4572432026
33
0.0000000000
40
0.0000000000
40
0.0000000000
40
0.0000000000
40
0.0000000000
40
0.1879141359
40
0.3566474475
40
0.5104567075
40
0.6610098777
40
0.8216821835
40
1.0000000000
40
1.0000000000
40
1.0000000000
40
1.0000000000
10
37.3650953079
20
-58.0853428317
30
0.0000000000
10
37.3650787148
20
-58.1561529148
30
0.0000000000
10
37.3509118553
20
-58.2913755795
30
0.0000000000
10
37.2776767588
20
-58.4726602304
30
0.0000000000
10
37.1538522279
20
-58.6073802704
30
0.0000000000
10
36.9883057453
20
-58.6788817138
30
0.0000000000
10
36.7999985567
20
-58.6814167432
30
0.0000000000
10
36.6762415634
20
-58.6429112024
30
0.0000000000
10
36.6147893301
20
-58.6157329992
30
0.0000000000
11
37.3650953079
21
-58.0853428317
31
0.0000000000
11
37.3398778973
21
-58.2962710079
31
0.0000000000
11
37.2650965202
21
-58.4717479844
31
0.0000000000
11
37.1456738227
21
-58.5981246021
31
0.0000000000
11
36.9898199069
21
-58.6665051447
31
0.0000000000
11
36.8082774212
21
-58.6722807134
31
0.0000000000
11
36.6147893301
21
-58.6157329992
31
0.0000000000
0
SPLINE
5
3AB
100
AcDbEntity
8
0
100
AcDbSpline
62
7
6
CONTINUOUS
70
0
71
3
72
11
73
7
74
5
42
0.0000001000
43
0.0000001000
44
0.0000000001
12
-1.1177890401
22
-0.5032331717
32
0.0000000000
13
-1.1213838222
23
0.4951709672
33
0.0000000000
40
0.0000000000
40
0.0000000000
40
0.0000000000
40
0.0000000000
40
0.2369677702
40
0.4993623773
40
0.7620957807
40
1.0000000000
40
1.0000000000
40
1.0000000000
40
1.0000000000
10
38.5630701848
20
-58.0824624345
30
0.0000000000
10
38.4747768593
20
-58.1222124487
30
0.0000000000
10
38.2766801752
20
-58.1794427167
30
0.0000000000
10
37.9650495436
20
-58.2074370968
30
0.0000000000
10
37.6529075833
20
-58.1808655869
30
0.0000000000
10
37.4540226222
20
-58.1246105858
30
0.0000000000
10
37.3650953079
20
-58.0853428317
30
0.0000000000
11
38.5630701848
21
-58.0824624345
31
0.0000000000
11
38.2853935723
21
-58.1677717153
31
0.0000000000
11
37.9651660181
21
-58.1980426245
31
0.0000000000
11
37.6443798762
21
-58.1693091555
31
0.0000000000
11
37.3650953079
21
-58.0853428317
31
0.0000000000
0
SPLINE
5
3AC
100
AcDbEntity
8
0
100
AcDbSpline
62
7
6
CONTINUOUS
70
0
71
3
72
11
73
7
74
5
42
0.0000001000
43
0.0000001000
44
0.0000000001
12
-83.2629972645
22
36.8432368111
32
0.0000000000
13
-79.2966210745
23
44.7462272023
33
0.0000000000
40
0.0000000000
40
0.0000000000
40
0.0000000000
40
0.0000000000
40
0.2580206530
40
0.5115846431
40
0.7605569924
40
1.0000000000
40
1.0000000000
40
1.0000000000
40
1.0000000000
10
36.6147893301
20
-58.6157329992
30
0.0000000000
10
29.4535983539
20
-55.4469609918
30
0.0000000000
10
15.3250612171
20
-49.0040419772
30
0.0000000000
10
-5.4482396610
20
-38.9346621437
30
0.0000000000
10
-25.4689128858
20
-28.6204144353
30
0.0000000000
10
-38.4739949613
20
-21.5029202505
30
0.0000000000
10
-44.8030021099
20
-17.9315298433
30
0.0000000000
11
36.6147893301
21
-58.6157329992
31
0.0000000000
11
15.2415323656
21
-48.8639210229
31
0.0000000000
11
-5.5313703094
21
-38.7892374402
31
0.0000000000
11
-25.6808980234
21
-28.4027065485
31
0.0000000000
11
-44.8030021099
21
-17.9315298433
31
0.0000000000
0
SPLINE
5
3AD
100
AcDbEntity
8
0
100
AcDbSpline
62
7
6
CONTINUOUS
70
0
71
3
72
8
73
4
74
2
42
0.0000001000
43
0.0000001000
44
0.0000000001
12
-0.3820929904
22
0.2156109495
32
0.0000000000
13
-0.3819794834
23
0.2158104619
33
0.0000000000
40
0.0000000000
40
0.0000000000
40
0.0000000000
40
0.0000000000
40
1.0000000000
40
1.0000000000
40
1.0000000000
40
1.0000000000
10
-44.8030021099
20
-17.9315298433
30
0.0000000000
10
-44.9303664400
20
-17.8596595268
30
0.0000000000
10
-45.0577118723
20
-17.7877559714
30
0.0000000000
10
-45.1850383668
20
-17.7158191508
30
0.0000000000
11
-44.8030021099
21
-17.9315298433
31
0.0000000000
11
-45.1850383668
21
-17.7158191508
31
0.0000000000
0
SPLINE
5
3AE
100
AcDbEntity
8
0
100
AcDbSpline
62
7
6
CONTINUOUS
70
0
71
3
72
8
73
4
74
2
42
0.0000001000
43
0.0000001000
44
0.0000000001
12
-0.0831497167
22
-0.0400406692
32
0.0000000000
13
-0.0831497140
23
-0.0400406747
33
0.0000000000
40
0.0000000000
40
0.0000000000
40
0.0000000000
40
0.0000000000
40
1.0000000000
40
1.0000000000
40
1.0000000000
40
1.0000000000
10
-30.2520437904
20
31.4780447966
30
0.0000000000
10
-30.2797603626
20
31.4646979069
30
0.0000000000
10
-30.3074769345
20
31.4513510165
30
0.0000000000
10
-30.3351935059
20
31.4380041249
30
0.0000000000
11
-30.2520437904
21
31.4780447966
31
0.0000000000
11
-30.3351935059
21
31.4380041249
31
0.0000000000
0
SPLINE
5
3AF
100
AcDbEntity
8
0
100
AcDbSpline
62
7
6
CONTINUOUS
70
0
71
3
72
8
73
4
74
2
42
0.0000001000
43
0.0000001000
44
0.0000000001
12
-0.0406439098
22
-0.0203686202
32
0.0000000000
13
-0.0406439105
23
-0.0203686188
33
0.0000000000
40
0.0000000000
40
0.0000000000
40
0.0000000000
40
0.0000000000
40
1.0000000000
40
1.0000000000
40
1.0000000000
40
1.0000000000
10
-30.2945495957
20
-11.5744203110
30
0.0000000000
10
-30.3080975656
20
-11.5812098510
30
0.0000000000
10
-30.3216455357
20
-11.5879993909
30
0.0000000000
10
-30.3351935059
20
-11.5947889305
30
0.0000000000
11
-30.2945495957
21
-11.5744203110
31
0.0000000000
11
-30.3351935059
21
-11.5947889305
31
0.0000000000
0
SPLINE
5
3B0
100
AcDbEntity
8
0
100
AcDbSpline
62
7
6
CONTINUOUS
70
0
71
3
72
8
73
4
74
2
42
0.0000001000
43
0.0000001000
44
0.0000000001
12
0.1460484731
22
-0.0813439689
32
0.0000000000
13
0.1338297724
23
-0.1008316019
33
0.0000000000
40
0.0000000000
40
0.0000000000
40
0.0000000000
40
0.0000000000
40
1.0000000000
40
1.0000000000
40
1.0000000000
40
1.0000000000
10
19.5674348466
20
7.4237897055
30
0.0000000000
10
19.6161176710
20
7.3966750492
30
0.0000000000
10
19.6628130775
20
7.3658745267
30
0.0000000000
10
19.7074230016
20
7.3322639927
30
0.0000000000
11
19.5674348466
21
7.4237897055
31
0.0000000000
11
19.7074230016
21
7.3322639927
31
0.0000000000
0
SPLINE
5
3B1
100
AcDbEntity
8
0
100
AcDbSpline
62
7
6
CONTINUOUS
70
0
71
3
72
9
73
5
74
3
42
0.0000001000
43
0.0000001000
44
0.0000000001
12
0.2548249090
22
-0.1919931815
32
0.0000000000
13
0.2092349996
23
-0.2401554907
33
0.0000000000
40
0.0000000000
40
0.0000000000
40
0.0000000000
40
0.0000000000
40
0.2548389291
40
1.0000000000
40
1.0000000000
40
1.0000000000
40
1.0000000000
10
19.7074230016
20
7.3322639927
30
0.0000000000
10
19.7290694373
20
7.3159548804
30
0.0000000000
10
19.8120842118
20
7.2493608696
30
0.0000000000
10
19.8873653675
20
7.1741197866
30
0.0000000000
10
19.9393366263
20
7.1144682790
30
0.0000000000
11
19.7074230016
21
7.3322639927
31
0.0000000000
11
19.7708779863
21
7.2814518219
31
0.0000000000
11
19.9393366263
21
7.1144682790
31
0.0000000000
0
SPLINE
5
3B2
100
AcDbEntity
8
0
100
AcDbSpline
62
7
6
CONTINUOUS
70
0
71
3
72
11
73
7
74
5
42
0.0000001000
43
0.0000001000
44
0.0000000001
12
0.5651050396
22
-0.6486155681
32
0.0000000000
13
0.2075066652
23
-0.8351429322
33
0.0000000000
40
0.0000000000
40
0.0000000000
40
0.0000000000
40
0.0000000000
40
0.2658018396
40
0.5307178936
40
0.8058287183
40
1.0000000000
40
1.0000000000
40
1.0000000000
40
1.0000000000
10
19.9393366263
20
7.1144682790
30
0.0000000000
10
19.9894052794
20
7.0570005420
30
0.0000000000
10
20.0817308711
20
6.9356134334
30
0.0000000000
10
20.1983296441
20
6.7356624083
30
0.0000000000
10
20.2815664148
20
6.5417968622
30
0.0000000000
10
20.3206121197
20
6.4128621067
30
0.0000000000
10
20.3340427314
20
6.3588085155
30
0.0000000000
11
19.9393366263
21
7.1144682790
31
0.0000000000
11
20.0779885490
21
6.9328271280
31
0.0000000000
11
20.1927838297
21
6.7361231514
31
0.0000000000
11
20.2858771170
21
6.5186993066
31
0.0000000000
11
20.3340427314
21
6.3588085155
31
0.0000000000
0
SPLINE
5
3B3
100
AcDbEntity
8
0
100
AcDbSpline
62
7
6
CONTINUOUS
70
0
71
3
72
9
73
5
74
3
42
0.0000001000
43
0.0000001000
44
0.0000000001
12
0.0755278974
22
-0.3039738009
32
0.0000000000
13
0.0094297062
23
-0.3129320450
33
0.0000000000
40
0.0000000000
40
0.0000000000
40
0.0000000000
40
0.0000000000
40
0.2733134990
40
1.0000000000
40
1.0000000000
40
1.0000000000
40
1.0000000000
10
20.3340427314
20
6.3588085155
30
0.0000000000
10
20.3409236627
20
6.3311151345
30
0.0000000000
10
20.3634825702
20
6.2291132381
30
0.0000000000
10
20.3759237342
20
6.1249109614
30
0.0000000000
10
20.3782078809
20
6.0491097971
30
0.0000000000
11
20.3340427314
21
6.3588085155
31
0.0000000000
11
20.3524991724
21
6.2751937751
31
0.0000000000
11
20.3782078809
21
6.0491097971
31
0.0000000000
0
SPLINE
5
3B4
100
AcDbEntity
8
0
100
AcDbSpline
62
7
6
CONTINUOUS
70
0
71
3
72
8
73
4
74
2
42
0.0000001000
43
0.0000001000
44
0.0000000001
12
0.0011491064
22
-0.0381339795
32
0.0000000000
13
-0.0000109197
23
-0.0381319473
33
0.0000000000
40
0.0000000000
40
0.0000000000
40
0.0000000000
40
0.0000000000
40
1.0000000000
40
1.0000000000
40
1.0000000000
40
1.0000000000
10
20.3782078809
20
6.0491097971
30
0.0000000000
10
20.3785909164
20
6.0363984706
30
0.0000000000
10
20.3787839477
20
6.0236849288
30
0.0000000000
10
20.3787803077
20
6.0109742798
30
0.0000000000
11
20.3782078809
21
6.0491097971
31
0.0000000000
11
20.3787803077
21
6.0109742798
31
0.0000000000
0
SPLINE
5
3B5
100
AcDbEntity
8
0
100
AcDbSpline
62
7
6
CONTINUOUS
70
0
71
3
72
9
73
5
74
3
42
0.0000001000
43
0.0000001000
44
0.0000000001
12
-0.0038234221
22
-0.0558175642
32
0.0000000000
13
0.0492844432
23
-0.0294824456
33
0.0000000000
40
0.0000000000
40
0.0000000000
40
0.0000000000
40
0.0000000000
40
0.6674434235
40
1.0000000000
40
1.0000000000
40
1.0000000000
40
1.0000000000
10
19.5674349592
20
7.4237897661
30
0.0000000000
10
19.5665843199
20
7.4113714107
30
0.0000000000
10
19.5674024029
20
7.3911583907
30
0.0000000000
10
19.5815895718
20
7.3767276339
30
0.0000000000
10
19.5870528603
20
7.3734594402
30
0.0000000000
11
19.5674349592
21
7.4237897661
31
0.0000000000
11
19.5736320382
21
7.3869652029
31
0.0000000000
11
19.5870528603
21
7.3734594402
31
0.0000000000
0
SPLINE
5
3B6
100
AcDbEntity
8
0
100
AcDbSpline
62
7
6
CONTINUOUS
70
0
71
3
72
9
73
5
74
3
42
0.0000001000
43
0.0000001000
44
0.0000000001
12
-0.0454241471
22
0.0210541441
32
0.0000000000
13
-0.0007339781
23
0.0520826416
33
0.0000000000
40
0.0000000000
40
0.0000000000
40
0.0000000000
40
0.0000000000
40
0.7134106613
40
1.0000000000
40
1.0000000000
40
1.0000000000
40
1.0000000000
10
20.3787803077
20
6.0109742798
30
0.0000000000
10
20.3679782842
20
6.0159810300
30
0.0000000000
10
20.3516611574
20
6.0252220613
30
0.0000000000
10
20.3476066900
20
6.0426780845
30
0.0000000000
10
20.3475365732
20
6.0476535277
30
0.0000000000
11
20.3787803077
21
6.0109742798
31
0.0000000000
11
20.3509377988
21
6.0333473898
31
0.0000000000
11
20.3475365732
21
6.0476535277
31
0.0000000000
0
SPLINE
5
3B7
100
AcDbEntity
8
0
100
AcDbSpline
62
7
6
CONTINUOUS
70
0
71
3
72
8
73
4
74
2
42
0.0000001000
43
0.0000001000
44
0.0000000001
12
0.0000223043
22
-0.0835747641
32
0.0000000000
13
-0.0059854019
23
-0.0835411876
33
0.0000000000
40
0.0000000000
40
0.0000000000
40
0.0000000000
40
0.0000000000
40
1.0000000000
40
1.0000000000
40
1.0000000000
40
1.0000000000
10
20.3787803077
20
-37.0218187757
30
0.0000000000
10
20.3787877425
20
-37.0496770303
30
0.0000000000
10
20.3778501519
20
-37.0775871372
30
0.0000000000
10
20.3758550179
20
-37.1054341998
30
0.0000000000
11
20.3787803077
21
-37.0218187757
31
0.0000000000
11
20.3758550179
21
-37.1054341998
31
0.0000000000
0
SPLINE
5
3B8
100
AcDbEntity
8
0
100
AcDbSpline
62
7
6
CONTINUOUS
70
0
71
3
72
8
73
4
74
2
42
0.0000001000
43
0.0000001000
44
0.0000000001
12
-0.0055655662
22
-0.0776813349
32
0.0000000000
13
-0.0113232791
23
-0.0770771478
33
0.0000000000
40
0.0000000000
40
0.0000000000
40
0.0000000000
40
0.0000000000
40
1.0000000000
40
1.0000000000
40
1.0000000000
40
1.0000000000
10
20.3758550179
20
-37.1054341998
30
0.0000000000
10
20.3739998292
20
-37.1313279781
30
0.0000000000
10
20.3712302531
20
-37.1571672461
30
0.0000000000
10
20.3674558267
20
-37.1828596287
30
0.0000000000
11
20.3758550179
21
-37.1054341998
31
0.0000000000
11
20.3674558267
21
-37.1828596287
31
0.0000000000
0
SPLINE
5
3B9
100
AcDbEntity
8
0
100
AcDbSpline
62
7
6
CONTINUOUS
70
0
71
3
72
9
73
5
74
3
42
0.0000001000
43
0.0000001000
44
0.0000000001
12
-0.0292615869
22
-0.1991825539
32
0.0000000000
13
-0.0746653248
23
-0.1868538125
33
0.0000000000
40
0.0000000000
40
0.0000000000
40
0.0000000000
40
0.0000000000
40
0.3591862429
40
1.0000000000
40
1.0000000000
40
1.0000000000
40
1.0000000000
10
20.3674558267
20
-37.1828596287
30
0.0000000000
10
20.3639523735
20
-37.2067075064
30
0.0000000000
10
20.3517882043
20
-37.2727493610
30
0.0000000000
10
20.3323528227
20
-37.3372377029
30
0.0000000000
10
20.3164039670
20
-37.3771505342
30
0.0000000000
11
20.3674558267
21
-37.1828596287
31
0.0000000000
11
20.3542758753
21
-37.2539497316
31
0.0000000000
11
20.3164039670
21
-37.3771505342
31
0.0000000000
0
SPLINE
5
3BA
100
AcDbEntity
8
0
100
AcDbSpline
62
7
6
CONTINUOUS
70
0
71
3
72
8
73
4
74
2
42
0.0000001000
43
0.0000001000
44
0.0000000001
12
-0.0217524144
22
-0.0544365349
32
0.0000000000
13
-0.0262292467
23
-0.0524669933
33
0.0000000000
40
0.0000000000
40
0.0000000000
40
0.0000000000
40
0.0000000000
40
1.0000000000
40
1.0000000000
40
1.0000000000
40
1.0000000000
10
20.3164039670
20
-37.3771505342
30
0.0000000000
10
20.3091531622
20
-37.3952960458
30
0.0000000000
10
20.3011801108
20
-37.4131496769
30
0.0000000000
10
20.2924370286
20
-37.4306386746
30
0.0000000000
11
20.3164039670
21
-37.3771505342
31
0.0000000000
11
20.2924370286
21
-37.4306386746
31
0.0000000000
0
SPLINE
5
3BB
100
AcDbEntity
8
0
100
AcDbSpline
62
7
6
CONTINUOUS
70
0
71
3
72
10
73
6
74
4
42
0.0000001000
43
0.0000001000
44
0.0000000001
12
-0.1812181886
22
-0.3624951036
32
0.0000000000
13
-0.3818230356
23
-0.1378528001
33
0.0000000000
40
0.0000000000
40
0.0000000000
40
0.0000000000
40
0.0000000000
40
0.3917340525
40
0.7542085955
40
1.0000000000
40
1.0000000000
40
1.0000000000
40
1.0000000000
10
20.2924370286
20
-37.4306386746
30
0.0000000000
10
20.2687739168
20
-37.4779725666
30
0.0000000000
10
20.2123553186
20
-37.5639624119
30
0.0000000000
10
20.1081992055
20
-37.6525255666
30
0.0000000000
10
20.0335611335
20
-37.6882168694
30
0.0000000000
10
20.0022781934
20
-37.6995112138
30
0.0000000000
11
20.2924370286
21
-37.4306386746
31
0.0000000000
11
20.2041946223
21
-37.5621201460
31
0.0000000000
11
20.0920390284
21
-37.6564038976
31
0.0000000000
11
20.0022781934
21
-37.6995112138
31
0.0000000000
0
SPLINE
5
3BC
100
AcDbEntity
8
0
100
AcDbSpline
62
7
6
CONTINUOUS
70
0
71
3
72
10
73
6
74
4
42
0.0000001000
43
0.0000001000
44
0.0000000001
12
-0.4181666015
22
-0.1509742251
32
0.0000000000
13
-0.4148808840
23
0.1544547780
33
0.0000000000
40
0.0000000000
40
0.0000000000
40
0.0000000000
40
0.0000000000
40
0.1177263840
40
0.5125493871
40
1.0000000000
40
1.0000000000
40
1.0000000000
40
1.0000000000
10
20.0022781934
20
-37.6995112138
30
0.0000000000
10
19.9858684461
20
-37.7054357637
30
0.0000000000
10
19.9130796930
20
-37.7274824001
30
0.0000000000
10
19.7634824650
20
-37.7378132624
30
0.0000000000
10
19.6348461605
20
-37.7067320991
30
0.0000000000
10
19.5674348468
20
-37.6816357404
30
0.0000000000
11
20.0022781934
21
-37.6995112138
31
0.0000000000
11
19.9522259809
21
-37.7146797002
31
0.0000000000
11
19.7780100524
21
-37.7288066503
31
0.0000000000
11
19.5674348468
21
-37.6816357404
31
0.0000000000
0
SPLINE
5
3BD
100
AcDbEntity
8
0
100
AcDbSpline
62
7
6
CONTINUOUS
70
0
71
3
72
9
73
5
74
3
42
0.0000001000
43
0.0000001000
44
0.0000000001
12
-0.0453802247
22
0.0210337863
32
0.0000000000
13
-0.0008102417
23
0.0520341304
33
0.0000000000
40
0.0000000000
40
0.0000000000
40
0.0000000000
40
0.0000000000
40
0.7141037923
40
1.0000000000
40
1.0000000000
40
1.0000000000
40
1.0000000000
10
20.3787803077
20
-37.0218187757
30
0.0000000000
10
20.3679782442
20
-37.0168120068
30
0.0000000000
10
20.3516768698
20
-37.0075798831
30
0.0000000000
10
20.3476145368
20
-36.9901486812
30
0.0000000000
10
20.3475373218
20
-36.9851898943
30
0.0000000000
11
20.3787803077
21
-37.0218187757
31
0.0000000000
11
20.3509377261
21
-36.9994455451
31
0.0000000000
11
20.3475373218
21
-36.9851898943
31
0.0000000000
0
SPLINE
5
3BE
100
AcDbEntity
8
0
100
AcDbSpline
62
7
6
CONTINUOUS
70
0
71
3
72
24
73
20
74
18
42
0.0000001000
43
0.0000001000
44
0.0000000001
12
-51.7525037170
22
19.2431704443
32
0.0000000000
13
-46.5489441683
23
29.6954044683
33
0.0000000000
40
0.0000000000
40
0.0000000000
40
0.0000000000
40
0.0000000000
40
0.0302749200
40
0.0710106121
40
0.1208023175
40
0.1783010856
40
0.2421570521
40
0.3110164484
40
0.3835181519
40
0.4582916169
40
0.5339547089
40
0.6091077762
40
0.6823322959
40
0.7521948995
40
0.8172482543
40
0.8760326445
40
0.9270779755
40
0.9689073460
40
1.0000000000
40
1.0000000000
40
1.0000000000
40
1.0000000000
10
19.5674348468
20
-37.6816357404
30
0.0000000000
10
19.0451672104
20
-37.4874405919
30
0.0000000000
10
17.8216959604
20
-37.0278499697
30
0.0000000000
10
15.7465219080
20
-36.2297139268
30
0.0000000000
10
13.2135404263
20
-35.2264227348
30
0.0000000000
10
10.2987637663
20
-34.0320424955
30
0.0000000000
10
7.0771058096
20
-32.6617688470
30
0.0000000000
10
3.6230112194
20
-31.1334292458
30
0.0000000000
10
0.0101556860
20
-29.4684025669
30
0.0000000000
10
-3.6888159989
20
-27.6922524107
30
0.0000000000
10
-7.4024651338
20
-25.8351612075
30
0.0000000000
10
-11.0606973344
20
-23.9321796762
30
0.0000000000
10
-14.5948927363
20
-22.0231761046
30
0.0000000000
10
-17.9380048398
20
-20.1524824688
30
0.0000000000
10
-21.0245828596
20
-18.3683574913
30
0.0000000000
10
-23.7906076440
20
-16.7222927989
30
0.0000000000
10
-26.1731808198
20
-15.2680888721
30
0.0000000000
10
-28.1094456908
20
-14.0611679591
30
0.0000000000
10
-29.2431792693
20
-13.3428766252
30
0.0000000000
10
-29.7256226741
20
-13.0351069799
30
0.0000000000
11
19.5674348468
21
-37.6816357404
31
0.0000000000
11
18.0025891641
21
-37.0938133634
31
0.0000000000
11
15.9033083590
21
-36.2864151521
31
0.0000000000
11
13.3472890692
21
-35.2740171749
31
0.0000000000
11
10.4095903076
21
-34.0702738117
31
0.0000000000
11
7.1650930073
21
-32.6903289259
31
0.0000000000
11
3.6881956338
21
-31.1519605136
31
0.0000000000
11
0.0525506539
21
-29.4765041430
31
0.0000000000
11
-3.6692259804
21
-27.6894851868
31
0.0000000000
11
-7.4057920607
21
-25.8210268981
31
0.0000000000
11
-11.0870728730
21
-23.9061550627
31
0.0000000000
11
-14.6443798395
21
-21.9847605450
31
0.0000000000
11
-18.0106557325
21
-20.1011877276
31
0.0000000000
11
-21.1204319980
21
-18.3037254484
31
0.0000000000
11
-23.9096652852
21
-16.6439040448
31
0.0000000000
11
-26.3154136724
21
-15.1755917722
31
0.0000000000
11
-28.2754177789
21
-13.9538941712
31
0.0000000000
11
-29.7256226741
21
-13.0351069799
31
0.0000000000
0
SPLINE
5
3BF
100
AcDbEntity
8
0
100
AcDbSpline
62
7
6
CONTINUOUS
70
0
71
3
72
8
73
4
74
2
42
0.0000001000
43
0.0000001000
44
0.0000000001
12
-0.2327822803
22
0.0865517007
32
0.0000000000
13
-0.2326962417
23
0.0867832815
33
0.0000000000
40
0.0000000000
40
0.0000000000
40
0.0000000000
40
0.0000000000
40
1.0000000000
40
1.0000000000
40
1.0000000000
40
1.0000000000
10
19.6293738483
20
-37.5562235781
30
0.0000000000
10
19.5517797549
20
-37.5273730112
30
0.0000000000
10
19.4741999820
20
-37.4984838340
30
0.0000000000
10
19.3966345681
20
-37.4695560735
30
0.0000000000
11
19.6293738483
21
-37.5562235781
31
0.0000000000
11
19.3966345681
21
-37.4695560735
31
0.0000000000
0
SPLINE
5
3C0
100
AcDbEntity
8
0
100
AcDbSpline
62
7
6
CONTINUOUS
70
0
71
3
72
15
73
11
74
9
42
0.0000001000
43
0.0000001000
44
0.0000000001
12
-22.5048631356
22
8.3931130914
32
0.0000000000
13
-21.6107422809
23
10.4833498596
33
0.0000000000
40
0.0000000000
40
0.0000000000
40
0.0000000000
40
0.0000000000
40
0.0592328883
40
0.1528445852
40
0.2672671861
40
0.3994007451
40
0.5461432249
40
0.7043836324
40
0.8709940810
40
1.0000000000
40
1.0000000000
40
1.0000000000
40
1.0000000000
10
19.3966345681
20
-37.4695560735
30
0.0000000000
10
18.9522918869
20
-37.3038399635
30
0.0000000000
10
17.8069256680
20
-36.8729587140
30
0.0000000000
10
15.8096854917
20
-36.1048272252
30
0.0000000000
10
13.2775203596
20
-35.1018941285
30
0.0000000000
10
10.3636859334
20
-33.9079349163
30
0.0000000000
10
7.1430728874
20
-32.5381378699
30
0.0000000000
10
3.6901025810
20
-31.0103224974
30
0.0000000000
10
0.3898342094
20
-29.4893727990
30
0.0000000000
10
-1.7458577514
20
-28.4691284815
30
0.0000000000
10
-2.6751623077
20
-28.0183237538
30
0.0000000000
11
19.3966345681
21
-37.4695560735
31
0.0000000000
11
18.0650274243
21
-36.9686142123
31
0.0000000000
11
15.9664212723
21
-36.1615072923
31
0.0000000000
11
13.4112255999
21
-35.1494705957
31
0.0000000000
11
10.4744763792
21
-33.9461515150
31
0.0000000000
11
7.2310314143
21
-32.5666865984
31
0.0000000000
11
3.7552658091
21
-31.0288458823
31
0.0000000000
11
0.1208086784
21
-29.3539562341
31
0.0000000000
11
-2.6751623077
21
-28.0183237538
31
0.0000000000
0
SPLINE
5
3C1
100
AcDbEntity
8
0
100
AcDbSpline
62
7
6
CONTINUOUS
70
0
71
3
72
17
73
13
74
11
42
0.0000001000
43
0.0000001000
44
0.0000000001
12
-27.8277658216
22
13.4992218744
32
0.0000000000
13
-26.0746011891
23
16.6345442957
33
0.0000000000
40
0.0000000000
40
0.0000000000
40
0.0000000000
40
0.0000000000
40
0.0332574529
40
0.1682871151
40
0.3024065717
40
0.4330843142
40
0.5577623341
40
0.6738577056
40
0.7787654014
40
0.8698618587
40
0.9445113625
40
1.0000000000
40
1.0000000000
40
1.0000000000
40
1.0000000000
10
-2.6751623077
20
-28.0183237538
30
0.0000000000
10
-2.9836558443
20
-27.8686738421
30
0.0000000000
10
-4.5431663357
20
-27.1083174261
30
0.0000000000
10
-7.3317572834
20
-25.7138216809
30
0.0000000000
10
-10.9887803206
20
-23.8114588016
30
0.0000000000
10
-14.5218033621
20
-21.9030684715
30
0.0000000000
10
-17.8638026669
20
-20.0329692091
30
0.0000000000
10
-20.9493500003
20
-18.2494054811
30
0.0000000000
10
-23.7144485276
20
-16.6038540308
30
0.0000000000
10
-26.0962219193
20
-15.1501000459
30
0.0000000000
10
-28.0318361263
20
-13.9435498114
30
0.0000000000
10
-29.1651882934
20
-13.2254778909
30
0.0000000000
10
-29.6474696575
20
-12.9178018251
30
0.0000000000
11
-2.6751623077
21
-28.0183237538
31
0.0000000000
11
-3.5997471052
21
-27.5675335594
31
0.0000000000
11
-7.3350824631
21
-25.6996906258
31
0.0000000000
11
-11.0151463479
21
-23.7854413965
31
0.0000000000
11
-14.5712732030
21
-21.8646641583
31
0.0000000000
11
-17.9364284732
21
-19.9816898825
31
0.0000000000
11
-21.0451662227
21
-18.1847931103
31
0.0000000000
11
-23.8334655124
21
-16.5254892299
31
0.0000000000
11
-26.2384064091
21
-15.0576312274
31
0.0000000000
11
-28.1977513602
21
-13.8363091679
31
0.0000000000
11
-29.6474696575
21
-12.9178018251
31
0.0000000000
0
SPLINE
5
3C2
100
AcDbEntity
8
0
100
AcDbSpline
62
7
6
CONTINUOUS
70
0
71
3
72
10
73
6
74
4
42
0.0000001000
43
0.0000001000
44
0.0000000001
12
-0.0093592367
22
0.1453471091
32
0.0000000000
13
0.1278320459
23
0.0698021882
33
0.0000000000
40
0.0000000000
40
0.0000000000
40
0.0000000000
40
0.0000000000
40
0.3406111863
40
0.6918742390
40
1.0000000000
40
1.0000000000
40
1.0000000000
40
1.0000000000
10
19.5674348469
20
-37.6816357403
30
0.0000000000
10
19.5663722267
20
-37.6651334566
30
0.0000000000
10
19.5713332875
20
-37.6310413004
30
0.0000000000
10
19.5926691051
20
-37.5868281692
30
0.0000000000
10
19.6162443995
20
-37.5633928622
30
0.0000000000
10
19.6293738483
20
-37.5562235781
30
0.0000000000
11
19.5674348469
21
-37.6816357403
31
0.0000000000
11
19.5736322062
21
-37.6324149773
31
0.0000000000
11
19.5962872844
21
-37.5865436842
31
0.0000000000
11
19.6293738483
21
-37.5562235781
31
0.0000000000
0
SPLINE
5
3C3
100
AcDbEntity
8
0
100
AcDbSpline
62
7
6
CONTINUOUS
70
0
71
3
72
14
73
10
74
8
42
0.0000001000
43
0.0000001000
44
0.0000000001
12
-1.4210278384
22
0.9058707337
32
0.0000000000
13
0.0005202950
23
1.6852067033
33
0.0000000000
40
0.0000000000
40
0.0000000000
40
0.0000000000
40
0.0000000000
40
0.1430128823
40
0.2814085172
40
0.4159248199
40
0.5508281800
40
0.6915123300
40
0.8419807381
40
1.0000000000
40
1.0000000000
40
1.0000000000
40
1.0000000000
10
-29.7256226741
20
-13.0351069799
30
0.0000000000
10
-29.7933644364
20
-12.9919232517
30
0.0000000000
10
-29.9172537432
20
-12.8918272050
30
0.0000000000
10
-30.0735485453
20
-12.7172833418
30
0.0000000000
10
-30.2035041996
20
-12.5279369327
30
0.0000000000
10
-30.3115035315
20
-12.3239258928
30
0.0000000000
10
-30.3990231986
20
-12.1005652906
30
0.0000000000
10
-30.4613907283
20
-11.8553959474
30
0.0000000000
10
-30.4786485407
20
-11.6818830939
30
0.0000000000
10
-30.4786211351
20
-11.5931180541
30
0.0000000000
11
-29.7256226741
21
-13.0351069799
31
0.0000000000
11
-29.9146007691
21
-12.8855365739
31
0.0000000000
11
-30.0709979964
21
-12.7125223247
31
0.0000000000
11
-30.1996657051
21
-12.5258890667
31
0.0000000000
11
-30.3061557981
21
-12.3250324963
31
0.0000000000
11
-30.3924881452
21
-12.1042281813
31
0.0000000000
11
-30.4542575406
21
-11.8582963198
31
0.0000000000
11
-30.4786211351
21
-11.5931180541
31
0.0000000000
0
SPLINE
5
3C4
100
AcDbEntity
8
0
100
AcDbSpline
62
7
6
CONTINUOUS
70
0
71
3
72
8
73
4
74
2
42
0.0000001000
43
0.0000001000
44
0.0000000001
12
-0.0620087168
22
0.0397375947
32
0.0000000000
13
-0.0590870639
23
0.0441172620
33
0.0000000000
40
0.0000000000
40
0.0000000000
40
0.0000000000
40
0.0000000000
40
1.0000000000
40
1.0000000000
40
1.0000000000
40
1.0000000000
10
-29.6474696095
20
-12.9178010099
30
0.0000000000
10
-29.6681391818
20
-12.9045551450
30
0.0000000000
10
-29.6883202436
20
-12.8905279006
30
0.0000000000
10
-29.7080159316
20
-12.8758221466
30
0.0000000000
11
-29.6474696095
21
-12.9178010099
31
0.0000000000
11
-29.7080159316
21
-12.8758221466
31
0.0000000000
0
SPLINE
5
3C5
100
AcDbEntity
8
0
100
AcDbSpline
62
7
6
CONTINUOUS
70
0
71
3
72
9
73
5
74
3
42
0.0000001000
43
0.0000001000
44
0.0000000001
12
-0.1756042893
22
0.1311146625
32
0.0000000000
13
-0.1502277405
23
0.1594559875
33
0.0000000000
40
0.0000000000
40
0.0000000000
40
0.0000000000
40
0.0000000000
40
0.6706288397
40
1.0000000000
40
1.0000000000
40
1.0000000000
40
1.0000000000
10
-29.7080159316
20
-12.8758221466
30
0.0000000000
10
-29.7472710318
20
-12.8465123886
30
0.0000000000
10
-29.8029307543
20
-12.7987884488
30
0.0000000000
10
-29.8543586126
20
-12.7468824658
30
0.0000000000
10
-29.8708521743
20
-12.7293757313
30
0.0000000000
11
-29.7080159316
21
-12.8758221466
31
0.0000000000
11
-29.8200218106
21
-12.7806214430
31
0.0000000000
11
-29.8708521743
21
-12.7293757313
31
0.0000000000
0
SPLINE
5
3C6
100
AcDbEntity
8
0
100
AcDbSpline
62
7
6
CONTINUOUS
70
0
71
3
72
12
73
8
74
6
42
0.0000001000
43
0.0000001000
44
0.0000000001
12
-0.6909579541
22
0.7334023834
32
0.0000000000
13
-0.1757674433
23
0.9928429585
33
0.0000000000
40
0.0000000000
40
0.0000000000
40
0.0000000000
40
0.0000000000
40
0.1405079138
40
0.3467390949
40
0.5535529375
40
0.7692430131
40
1.0000000000
40
1.0000000000
40
1.0000000000
40
1.0000000000
10
-29.8708521743
20
-12.7293757313
30
0.0000000000
10
-29.9032138612
20
-12.6950261183
30
0.0000000000
10
-29.9788441875
20
-12.6063607794
30
0.0000000000
10
-30.0839319328
20
-12.4526293259
30
0.0000000000
10
-30.1825407684
20
-12.2656242217
30
0.0000000000
10
-30.2624382529
20
-12.0609353759
30
0.0000000000
10
-30.2993674574
20
-11.9153381177
30
0.0000000000
10
-30.3128873126
20
-11.8389696345
30
0.0000000000
11
-29.8708521743
21
-12.7293757313
31
0.0000000000
11
-29.9628987071
21
-12.6219140534
31
0.0000000000
11
-30.0804227473
21
-12.4507612947
31
0.0000000000
11
-30.1776528969
21
-12.2666543216
31
0.0000000000
11
-30.2564702383
21
-12.0643235263
31
0.0000000000
11
-30.3128873126
21
-11.8389696345
31
0.0000000000
0
SPLINE
5
3C7
100
AcDbEntity
8
0
100
AcDbSpline
62
7
6
CONTINUOUS
70
0
71
3
72
8
73
4
74
2
42
0.0000001000
43
0.0000001000
44
0.0000000001
12
-0.0428066409
22
0.2417983171
32
0.0000000000
13
0.0001820033
23
0.2451788086
33
0.0000000000
40
0.0000000000
40
0.0000000000
40
0.0000000000
40
0.0000000000
40
1.0000000000
40
1.0000000000
40
1.0000000000
40
1.0000000000
10
-30.3128873126
20
-11.8389696345
30
0.0000000000
10
-30.3271561929
20
-11.7583701955
30
0.0000000000
10
-30.3352231400
20
-11.6765310037
30
0.0000000000
10
-30.3351624722
20
-11.5948047341
30
0.0000000000
11
-30.3128873126
21
-11.8389696345
31
0.0000000000
11
-30.3351624722
21
-11.5948047341
31
0.0000000000
0
SPLINE
5
3C8
100
AcDbEntity
8
0
100
AcDbSpline
62
7
6
CONTINUOUS
70
0
71
3
72
10
73
6
74
4
42
0.0000001000
43
0.0000001000
44
0.0000000001
12
0.0092949356
22
0.1457235464
32
0.0000000000
13
0.1320971939
23
0.0622260329
33
0.0000000000
40
0.0000000000
40
0.0000000000
40
0.0000000000
40
0.0000000000
40
0.3270669652
40
0.6801474334
40
1.0000000000
40
1.0000000000
40
1.0000000000
40
1.0000000000
10
-29.7256225530
20
-13.0351069236
30
0.0000000000
10
-29.7246091975
20
-13.0192198042
30
0.0000000000
10
-29.7148748789
20
-12.9866440601
30
0.0000000000
10
-29.6877126491
20
-12.9457150915
30
0.0000000000
10
-29.6615534850
20
-12.9244353953
30
0.0000000000
10
-29.6474696095
20
-12.9178010099
30
0.0000000000
11
-29.7256225530
21
-13.0351069236
31
0.0000000000
11
-29.7132261280
21
-12.9889856085
31
0.0000000000
11
-29.6846405329
21
-12.9460792353
31
0.0000000000
11
-29.6474696095
21
-12.9178010099
31
0.0000000000
0
SPLINE
5
3C9
100
AcDbEntity
8
0
100
AcDbSpline
62
7
6
CONTINUOUS
70
0
71
3
72
10
73
6
74
4
42
0.0000001000
43
0.0000001000
44
0.0000000001
12
0.1296544871
22
-0.0699321272
32
0.0000000000
13
0.1322140889
23
0.0649632443
33
0.0000000000
40
0.0000000000
40
0.0000000000
40
0.0000000000
40
0.0000000000
40
0.3181126359
40
0.6757932450
40
1.0000000000
40
1.0000000000
40
1.0000000000
40
1.0000000000
10
-30.4786211351
20
-11.5931180541
30
0.0000000000
10
-30.4648728916
20
-11.6005334852
30
0.0000000000
10
-30.4320775118
20
-11.6094631906
30
0.0000000000
10
-30.3827288749
20
-11.6099815271
30
0.0000000000
10
-30.3494817394
20
-11.6018094380
30
0.0000000000
10
-30.3351935059
20
-11.5947889305
30
0.0000000000
11
-30.4786211351
21
-11.5931180541
31
0.0000000000
11
-30.4338749173
21
-11.6070393097
31
0.0000000000
11
-30.3811878913
21
-11.6076530982
31
0.0000000000
11
-30.3351935059
21
-11.5947889305
31
0.0000000000
0
SPLINE
5
3CA
100
AcDbEntity
8
0
100
AcDbSpline
62
7
6
CONTINUOUS
70
0
71
3
72
12
73
8
74
6
42
0.0000001000
43
0.0000001000
44
0.0000000001
12
-0.0002441767
22
0.8460722203
32
0.0000000000
13
0.8281677851
23
0.1884491396
33
0.0000000000
40
0.0000000000
40
0.0000000000
40
0.0000000000
40
0.0000000000
40
0.2746220699
40
0.4916450846
40
0.6714820869
40
0.8342471427
40
1.0000000000
40
1.0000000000
40
1.0000000000
40
1.0000000000
10
-30.4786211351
20
31.4396750013
30
0.0000000000
10
-30.4786434872
20
31.5171250361
30
0.0000000000
10
-30.4666192282
20
31.6564214903
30
0.0000000000
10
-30.4094613317
20
31.8386648674
30
0.0000000000
10
-30.3253970742
20
31.9744753306
30
0.0000000000
10
-30.2162199677
20
32.0709508766
30
0.0000000000
10
-30.1287184242
20
32.1066766528
30
0.0000000000
10
-30.0829613653
20
32.1170886473
30
0.0000000000
11
-30.4786211351
21
31.4396750013
31
0.0000000000
11
-30.4559046687
21
31.6709119743
31
0.0000000000
11
-30.3985707676
21
31.8453484445
31
0.0000000000
11
-30.3167391214
21
31.9736245357
31
0.0000000000
11
-30.2127015538
21
32.0638492743
31
0.0000000000
11
-30.0829613653
21
32.1170886473
31
0.0000000000
0
SPLINE
5
3CB
100
AcDbEntity
8
0
100
AcDbSpline
62
7
6
CONTINUOUS
70
0
71
3
72
9
73
5
74
3
42
0.0000001000
43
0.0000001000
44
0.0000000001
12
0.2855510916
22
0.0649769992
32
0.0000000000
13
0.2782220332
23
-0.0917089331
33
0.0000000000
40
0.0000000000
40
0.0000000000
40
0.0000000000
40
0.0000000000
40
0.5550779887
40
1.0000000000
40
1.0000000000
40
1.0000000000
40
1.0000000000
10
-30.0829613653
20
32.1170886473
30
0.0000000000
10
-30.0301269901
20
32.1291110813
30
0.0000000000
10
-29.9310800463
20
32.1324832310
30
0.0000000000
10
-29.8354548959
20
32.1102859376
30
0.0000000000
10
-29.7941925271
20
32.0966848299
30
0.0000000000
11
-30.0829613653
21
32.1170886473
31
0.0000000000
11
-29.9212237276
21
32.1249764521
31
0.0000000000
11
-29.7941925271
21
32.0966848299
31
0.0000000000
0
SPLINE
5
3CC
100
AcDbEntity
8
0
100
AcDbSpline
62
7
6
CONTINUOUS
70
0
71
3
72
8
73
4
74
2
42
0.0000001000
43
0.0000001000
44
0.0000000001
12
0.0699068925
22
-0.0230430583
32
0.0000000000
13
0.0671236671
23
-0.0294489419
33
0.0000000000
40
0.0000000000
40
0.0000000000
40
0.0000000000
40
0.0000000000
40
1.0000000000
40
1.0000000000
40
1.0000000000
40
1.0000000000
10
-29.7941925271
20
32.0966848299
30
0.0000000000
10
-29.7708902296
20
32.0890038105
30
0.0000000000
10
-29.7479972300
20
32.0801347800
30
0.0000000000
10
-29.7256226743
20
32.0703184660
30
0.0000000000
11
-29.7941925271
21
32.0966848299
31
0.0000000000
11
-29.7256226743
21
32.0703184660
31
0.0000000000
0
SPLINE
5
3CD
100
AcDbEntity
8
0
100
AcDbSpline
62
7
6
CONTINUOUS
70
0
71
3
72
12
73
8
74
6
42
0.0000001000
43
0.0000001000
44
0.0000000001
12
-0.0005011319
22
0.6835330869
32
0.0000000000
13
0.6159742384
23
0.3037086176
33
0.0000000000
40
0.0000000000
40
0.0000000000
40
0.0000000000
40
0.0000000000
40
0.3111454614
40
0.5570460648
40
0.7606239272
40
0.9446403825
40
1.0000000000
40
1.0000000000
40
1.0000000000
40
1.0000000000
10
-30.3351927660
20
31.4380037488
30
0.0000000000
10
-30.3352447409
20
31.5088964880
30
0.0000000000
10
-30.3243790222
20
31.6364052531
30
0.0000000000
10
-30.2723403887
20
31.8032631200
30
0.0000000000
10
-30.1957055233
20
31.9276140667
30
0.0000000000
10
-30.1189692066
20
31.9956709974
30
0.0000000000
10
-30.0710372074
20
32.0223312909
30
0.0000000000
10
-30.0596705080
20
32.0279356885
30
0.0000000000
11
-30.3351927660
21
31.4380037488
31
0.0000000000
11
-30.3146061153
21
31.6496833142
31
0.0000000000
11
-30.2623746554
21
31.8094430685
31
0.0000000000
11
-30.1877505358
21
31.9268934293
31
0.0000000000
11
-30.0928616492
21
32.0094588708
31
0.0000000000
11
-30.0596705080
21
32.0279356885
31
0.0000000000
0
SPLINE
5
3CE
100
AcDbEntity
8
0
100
AcDbSpline
62
7
6
CONTINUOUS
70
0
71
3
72
10
73
6
74
4
42
0.0000001000
43
0.0000001000
44
0.0000000001
12
0.1296544850
22
-0.0699321268
32
0.0000000000
13
0.1322141002
23
0.0649632170
33
0.0000000000
40
0.0000000000
40
0.0000000000
40
0.0000000000
40
0.0000000000
40
0.3181142886
40
0.6757946600
40
1.0000000000
40
1.0000000000
40
1.0000000000
40
1.0000000000
10
-30.4786211351
20
31.4396750013
30
0.0000000000
10
-30.4648728204
20
31.4322595317
30
0.0000000000
10
-30.4320773566
20
31.4233298390
30
0.0000000000
10
-30.3827287215
20
31.4228115605
30
0.0000000000
10
-30.3494816783
20
31.4309836513
30
0.0000000000
10
-30.3351935059
20
31.4380041253
30
0.0000000000
11
-30.4786211351
21
31.4396750013
31
0.0000000000
11
-30.4338746739
21
31.4257537106
31
0.0000000000
11
-30.3811876828
21
31.4251399884
31
0.0000000000
11
-30.3351935059
21
31.4380041253
31
0.0000000000
0
SPLINE
5
3CF
100
AcDbEntity
8
0
100
AcDbSpline
62
7
6
CONTINUOUS
70
0
71
3
72
8
73
4
74
2
42
0.0000001000
43
0.0000001000
44
0.0000000001
12
0.0489132067
22
-0.0214381035
32
0.0000000000
13
0.0489108145
23
-0.0214435666
33
0.0000000000
40
0.0000000000
40
0.0000000000
40
0.0000000000
40
0.0000000000
40
1.0000000000
40
1.0000000000
40
1.0000000000
40
1.0000000000
10
-29.7256226743
20
32.0703184660
30
0.0000000000
10
-29.7093182720
20
32.0631724315
30
0.0000000000
10
-29.6930142685
20
32.0560254863
30
0.0000000000
10
-29.6767106637
20
32.0488776307
30
0.0000000000
11
-29.7256226743
21
32.0703184660
31
0.0000000000
11
-29.6767106637
21
32.0488776307
31
0.0000000000
0
SPLINE
5
3D0
100
AcDbEntity
8
0
100
AcDbSpline
62
7
6
CONTINUOUS
70
0
71
3
72
24
73
20
74
18
42
0.0000001000
43
0.0000001000
44
0.0000000001
12
50.4435386109
22
-22.1155462586
32
0.0000000000
13
48.1108244210
23
-26.8141061239
33
0.0000000000
40
0.0000000000
40
0.0000000000
40
0.0000000000
40
0.0000000000
40
0.0278847803
40
0.0668593265
40
0.1147393533
40
0.1703591635
40
0.2325354707
40
0.3000546151
40
0.3716621696
40
0.4460566803
40
0.5218856059
40
0.5977330740
40
0.6721205284
40
0.7435223452
40
0.8103728141
40
0.8710744368
40
0.9240072361
40
0.9675400737
40
1.0000000000
40
1.0000000000
40
1.0000000000
40
1.0000000000
10
-29.6767106637
20
32.0488776307
30
0.0000000000
10
-29.2078416669
20
31.8433152480
30
0.0000000000
10
-28.0844252540
20
31.3486332741
30
0.0000000000
10
-26.1597343008
20
30.4923707231
30
0.0000000000
10
-23.7749882075
20
29.4175416272
30
0.0000000000
10
-21.0090108639
20
28.1519864760
30
0.0000000000
10
-17.9241301517
20
26.7169541118
30
0.0000000000
10
-14.5837182912
20
25.1354983333
30
0.0000000000
10
-11.0524783745
20
23.4331001886
30
0.0000000000
10
-7.3966388134
20
21.6380799084
30
0.0000000000
10
-3.6842080865
20
19.7819423198
30
0.0000000000
10
0.0148688304
20
17.8996226328
30
0.0000000000
10
3.6288201527
20
16.0294526580
30
0.0000000000
10
7.0844002805
20
14.2128359695
30
0.0000000000
10
10.3073320947
20
12.4938068774
30
0.0000000000
10
13.2225942597
20
10.9185633256
30
0.0000000000
10
15.7547001556
20
9.5348392817
30
0.0000000000
10
17.8273006769
20
8.3915574787
30
0.0000000000
10
19.0468769078
20
7.7139176753
30
0.0000000000
10
19.5674348466
20
7.4237897055
30
0.0000000000
11
-29.6767106637
21
32.0488776307
31
0.0000000000
11
-28.2710913948
21
31.4299424596
31
0.0000000000
11
-26.3097554314
21
30.5574068447
31
0.0000000000
11
-23.9054893256
21
29.4738328235
31
0.0000000000
11
-21.1197438038
21
28.1993120951
31
0.0000000000
11
-18.0146418281
21
26.7549784416
31
0.0000000000
11
-14.6533904614
21
25.1637876202
31
0.0000000000
11
-11.1006004165
21
23.4511458394
31
0.0000000000
11
-7.4224432163
21
21.6453180420
31
0.0000000000
11
-3.6867325233
21
19.7776942343
31
0.0000000000
11
0.0365674179
21
17.8831962278
31
0.0000000000
11
3.6754204084
21
16.0002680816
31
0.0000000000
11
7.1564653300
21
14.1703697132
31
0.0000000000
11
10.4052929206
21
12.4376129518
31
0.0000000000
11
13.3467339803
21
10.8482839245
31
0.0000000000
11
15.9051267893
21
9.4502328297
31
0.0000000000
11
18.0046258246
21
8.2921336580
31
0.0000000000
11
19.5674348466
21
7.4237897055
31
0.0000000000
0
SPLINE
5
3D1
100
AcDbEntity
8
0
100
AcDbSpline
62
7
6
CONTINUOUS
70
0
71
3
72
9
73
5
74
3
42
0.0000001000
43
0.0000001000
44
0.0000000001
12
0.0040831080
22
-0.0683991009
32
0.0000000000
13
0.0631337593
23
-0.0292174718
33
0.0000000000
40
0.0000000000
40
0.0000000000
40
0.0000000000
40
0.0000000000
40
0.6100930471
40
1.0000000000
40
1.0000000000
40
1.0000000000
40
1.0000000000
10
-29.7256226741
20
32.0703184661
30
0.0000000000
10
-29.7247923156
20
32.0564085275
30
0.0000000000
10
-29.7192797931
20
32.0327695150
30
0.0000000000
10
-29.7007639377
20
32.0167341720
30
0.0000000000
10
-29.6925585071
20
32.0129368069
30
0.0000000000
11
-29.7256226741
21
32.0703184661
31
0.0000000000
11
-29.7132259959
21
32.0303947218
31
0.0000000000
11
-29.6925585071
21
32.0129368069
31
0.0000000000
0
SPLINE
5
3D2
100
AcDbEntity
8
0
100
AcDbSpline
62
7
6
CONTINUOUS
70
0
71
3
72
10
73
6
74
4
42
0.0000001000
43
0.0000001000
44
0.0000000001
12
-0.4154133598
22
-0.2149970152
32
0.0000000000
13
-0.4370428155
23
0.1616311711
33
0.0000000000
40
0.0000000000
40
0.0000000000
40
0.0000000000
40
0.0000000000
40
0.2286424171
40
0.5729976948
40
1.0000000000
40
1.0000000000
40
1.0000000000
40
1.0000000000
10
20.0834107381
20
-37.5482613931
30
0.0000000000
10
20.0517503666
20
-37.5646472055
30
0.0000000000
10
19.9674434767
20
-37.5962629375
30
0.0000000000
10
19.8100229484
20
-37.6075758874
30
0.0000000000
10
19.6915772582
20
-37.5791901271
30
0.0000000000
10
19.6293711616
20
-37.5561844995
30
0.0000000000
11
20.0834107381
21
-37.5482613931
31
0.0000000000
11
19.9835300832
21
-37.5858765222
31
0.0000000000
11
19.8236275582
21
-37.5992445567
31
0.0000000000
11
19.6293711616
21
-37.5561844995
31
0.0000000000
0
SPLINE
5
3D3
100
AcDbEntity
8
0
100
AcDbSpline
62
7
6
CONTINUOUS
70
0
71
3
72
10
73
6
74
4
42
0.0000001000
43
0.0000001000
44
0.0000000001
12
-0.5266054295
22
0.2289751786
32
0.0000000000
13
-0.0000067828
23
0.5640421624
33
0.0000000000
40
0.0000000000
40
0.0000000000
40
0.0000000000
40
0.0000000000
40
0.1409057177
40
0.5245028916
40
1.0000000000
40
1.0000000000
40
1.0000000000
40
1.0000000000
10
36.8475163444
20
-59.1007625796
30
0.0000000000
10
36.8227824391
20
-59.0900079423
30
0.0000000000
10
36.7360185432
20
-59.0387154708
30
0.0000000000
10
36.6344294296
20
-58.8681735239
30
0.0000000000
10
36.6147904619
20
-58.7051331062
30
0.0000000000
10
36.6147893868
20
-58.6157329671
30
0.0000000000
11
36.8475163444
21
-59.1007625796
31
0.0000000000
11
36.7785811404
21
-59.0596950449
31
0.0000000000
11
36.6572502736
21
-58.8805508988
31
0.0000000000
11
36.6147893868
21
-58.6157329671
31
0.0000000000
0
SPLINE
5
3D4
100
AcDbEntity
8
0
100
AcDbSpline
62
7
6
CONTINUOUS
70
0
71
3
72
9
73
5
74
3
42
0.0000001000
43
0.0000001000
44
0.0000000001
12
0.0009567107
22
-0.3854215207
32
0.0000000000
13
0.3363792074
23
-0.1904461747
33
0.0000000000
40
0.0000000000
40
0.0000000000
40
0.0000000000
40
0.0000000000
40
0.4349860369
40
1.0000000000
40
1.0000000000
40
1.0000000000
40
1.0000000000
10
-46.0737721038
20
53.6092928226
30
0.0000000000
10
-46.0736333852
20
53.5534084960
30
0.0000000000
10
-46.0193176024
20
53.4246444825
30
0.0000000000
10
-45.9117196240
20
53.3473520538
30
0.0000000000
10
-45.8483666410
20
53.3114838045
30
0.0000000000
11
-46.0737721038
21
53.6092928226
31
0.0000000000
11
-46.0162984948
21
53.4511264855
31
0.0000000000
11
-45.8483666410
21
53.3114838045
31
0.0000000000
0
SPLINE
5
3D5
100
AcDbEntity
8
0
100
AcDbSpline
62
7
6
CONTINUOUS
70
0
71
3
72
9
73
5
74
3
42
0.0000001000
43
0.0000001000
44
0.0000000001
12
0.0008241582
22
-0.3854904076
32
0.0000000000
13
0.3364401803
23
-0.1904798748
33
0.0000000000
40
0.0000000000
40
0.0000000000
40
0.0000000000
40
0.0000000000
40
0.4350718748
40
1.0000000000
40
1.0000000000
40
1.0000000000
40
1.0000000000
10
-46.0737722426
20
-16.1807331812
30
0.0000000000
10
-46.0736527200
20
-16.2366385260
30
0.0000000000
10
-46.0193394697
20
-16.3654360160
30
0.0000000000
10
-45.9117214811
20
-16.4427427110
30
0.0000000000
10
-45.8483666410
20
-16.4786118572
30
0.0000000000
11
-46.0737722426
21
-16.1807331812
31
0.0000000000
11
-46.0163024622
21
-16.3389642911
31
0.0000000000
11
-45.8483666410
21
-16.4786118572
31
0.0000000000
0
SPLINE
5
3D6
100
AcDbEntity
8
0
100
AcDbSpline
62
7
6
CONTINUOUS
70
0
71
3
72
10
73
6
74
4
42
0.0000001000
43
0.0000001000
44
0.0000000001
12
-0.4935961853
22
0.2740386593
32
0.0000000000
13
-0.0000182720
23
0.5586531556
33
0.0000000000
40
0.0000000000
40
0.0000000000
40
0.0000000000
40
0.0000000000
40
0.0983939440
40
0.5134443557
40
1.0000000000
40
1.0000000000
40
1.0000000000
40
1.0000000000
10
-44.9536701945
20
-18.2007233724
30
0.0000000000
10
-44.9698591530
20
-18.1917354576
30
0.0000000000
10
-45.0507482007
20
-18.1388830074
30
0.0000000000
10
-45.1608356464
20
-17.9770169782
30
0.0000000000
10
-45.1850353156
20
-17.8064243940
30
0.0000000000
10
-45.1850382791
20
-17.7158191120
30
0.0000000000
11
-44.9536701945
21
-18.2007233724
31
0.0000000000
11
-44.9999667192
21
-18.1703675430
31
0.0000000000
11
-45.1370581271
21
-17.9833667886
31
0.0000000000
11
-45.1850382791
21
-17.7158191120
31
0.0000000000
0
SPLINE
5
3D7
100
AcDbEntity
8
0
100
AcDbSpline
62
7
6
CONTINUOUS
70
0
71
3
72
10
73
6
74
4
42
0.0000001000
43
0.0000001000
44
0.0000000001
12
0.7915260033
22
0.4891072570
32
0.0000000000
13
0.8251257166
23
-0.4160353180
33
0.0000000000
40
0.0000000000
40
0.0000000000
40
0.0000000000
40
0.0000000000
40
0.2634537596
40
0.6066450814
40
1.0000000000
40
1.0000000000
40
1.0000000000
40
1.0000000000
10
-45.4341673553
20
54.8879762380
30
0.0000000000
10
-45.3646571882
20
54.9309286199
30
0.0000000000
10
-45.1860859395
20
55.0010342391
30
0.0000000000
10
-44.8706507895
20
54.9936854055
30
0.0000000000
10
-44.6546085060
20
54.9138235415
30
0.0000000000
10
-44.5464194196
20
54.8592736953
30
0.0000000000
11
-45.4341673553
21
54.8879762380
31
0.0000000000
11
-45.2071459689
21
54.9777568902
31
0.0000000000
11
-44.8900108769
21
54.9778906740
31
0.0000000000
11
-44.5464194196
21
54.8592736953
31
0.0000000000
0
ENDSEC
0
SECTION
2
OBJECTS
0
DICTIONARY
5
3D8
100
AcDbDictionary
3
ACAD_GROUP
350
3D9
3
ACAD_MLINESTYLE
350
3DA
0
DICTIONARY
5
3D9
102
{ACAD_REACTORS
330
3D8
102
}
100
AcDbDictionary
0
DICTIONARY
5
3DA
102
{ACAD_REACTORS
330
3D8
102
}
100
AcDbDictionary
3
STANDARD
350
3DB
0
MLINESTYLE
5
3DB
102
{ACAD_REACTORS
330
3DA
102
}
100
AcDbMlineStyle
2
STANDARD
70
0
3

62
256
51
90.0
52
90.0
71
2
49
0.5
62
256
6
BYLAYER
49
-0.5
62
256
6
BYLAYER
0
ENDSEC
0
EOF
