  0
SECTION
  2
HEADER
  9
$ACADVER
  1
AC1015
  9
$DWGCODEPAGE
  3
ANSI_1252
  9
$EXTMAX
 10
297.0
 20
210.0
 30
0.0
  9
$EXTMIN
 10
0.0
 20
0.0
 30
0.0
  9
$LIMMIN
 10
0.0
 20
0.0
  9
$LIMMAX
 10
297.0
 20
210.0
  9
$VIEWCTR
 10
148.5
 20
105.0
  9
$VIEWSIZE
 40
210.0
  9
$CLAYER
  8
0
  9
$LTSCALE
 40
16.335
  9
$CELTYPE
  6
BYLAYER
  9
$DIMSCALE
 40
1.0
  9
$DIMASZ
 40
3.0
  9
$DIMEXO
 40
0.5
  9
$DIMDLI
 40
11.286
  9
$DIMEXE
 40
1.5
  9
$DIMCEN
 40
2.673
  9
$DIMLFAC
 40
1.0
  9
$DIMBLK
  1
_FILLED
  9
$DIMTXT
 40
3.0
  9
$DIMTOL
 70
1
  9
$DIMLIM
 70
0
  9
$DIMTFAC
 40
1.0
  9
$DIMTP
 40
0.01
  9
$DIMTM
 40
0.01
  9
$DIMGAP
 40
0.625
  9
$DIMDSEP
 70
44
  9
$PDMODE
 70
3
  9
$PDSIZE
 40
3.0
  9
$HANDSEED
  5
3FC
  9
$TILEMODE
 70
1
  9
$MEASUREMENT
 70
1
  9
$INSUNITS
 70
4
  0
ENDSEC
  0
SECTION
  2
CLASSES
  0
CLASS
  1
ACDBDICTIONARYWDFLT
  2
AcDbDictionaryWithDefault
  3
AutoCAD 2000
 90
0
280
0
281
0
  0
CLASS
  1
ACDBPLACEHOLDER
  2
AcDbPlaceHolder
  3
AutoCAD 2000
 90
0
280
0
281
0
  0
CLASS
  1
LAYOUT
  2
AcDbLayout
  3
AutoCAD 2000
 90
0
280
0
281
0
  0
ENDSEC
  0
SECTION
  2
TABLES
  0
TABLE
  2
VPORT
  5
8
100
AcDbSymbolTable
 70
2
  0
VPORT
  5
1F4
100
AcDbSymbolTableRecord
100
AcDbViewportTableRecord
  2
*ACTIVE
 70
0
 10
0.0
 20
0.0
 11
1.0
 21
1.0
 12
148.5
 22
105.0
 13
0.0
 23
0.0
 14
1.0
 24
1.0
 15
0.0
 25
0.0
 16
0.0
 26
0.0
 36
1.0
 17
0.0
 27
0.0
 37
0.0
 40
210.0
 41
1.4142857143
 42
50.0
 43
0.0
 44
0.0
 50
0.0
 51
0.0
 71
0
 72
100
 73
1
 74
1
 75
0
 76
0
 77
0
 78
0
  0
ENDTAB
  0
TABLE
  2
LTYPE
  5
5
100
AcDbSymbolTable
 70
6
  0
LTYPE
  5
14
100
AcDbSymbolTableRecord
100
AcDbLinetypeTableRecord
  2
BYBLOCK
 70
0
  3

 72
65
 73
0
 40
0.0
  0
LTYPE
  5
15
100
AcDbSymbolTableRecord
100
AcDbLinetypeTableRecord
  2
BYLAYER
 70
0
  3

 72
65
 73
0
 40
0.0
  0
LTYPE
  5
16
100
AcDbSymbolTableRecord
100
AcDbLinetypeTableRecord
  2
CONTINUOUS
 70
64
  3
Solid line
 72
65
 73
0
 40
0.0
  0
LTYPE
  5
1F5
100
AcDbSymbolTableRecord
100
AcDbLinetypeTableRecord
  2
CENTER
 70
64
  3
____ _ ____ _ ____ _ ____ _ ____ _ ____ _ ____
 72
65
 73
4
 40
0.6
 49
0.375
 74
0
 49
-0.075
 74
0
 49
0.075
 74
0
 49
-0.075
 74
0
  0
LTYPE
  5
1F6
100
AcDbSymbolTableRecord
100
AcDbLinetypeTableRecord
  2
HIDDEN
 70
64
  3
- - - - - - - - - - - - - - - - - - - -
 72
65
 73
2
 40
0.2
 49
0.1
 74
0
 49
-0.1
 74
0
  0
LTYPE
  5
1F7
100
AcDbSymbolTableRecord
100
AcDbLinetypeTableRecord
  2
PHANTOM
 70
64
  3
_____ _ _ _____ _ _ _____ _ _ _____
 72
65
 73
6
 40
0.8
 49
0.45
 74
0
 49
-0.05
 74
0
 49
0.1
 74
0
 49
-0.05
 74
0
 49
0.1
 74
0
 49
-0.05
 74
0
  0
LTYPE
  5
1F8
100
AcDbSymbolTableRecord
100
AcDbLinetypeTableRecord
  2
DOT
 70
64
  3
. . . . . . . . . . . . . . . . . . . .
 72
65
 73
2
 40
0.2
 49
0.1
 74
0
 49
-0.1
 74
0
  0
LTYPE
  5
1F9
100
AcDbSymbolTableRecord
100
AcDbLinetypeTableRecord
  2
DASHED
 70
64
  3
- - - - - - - - - - - - - - - - - - - -
 72
65
 73
2
 40
0.2
 49
0.1
 74
0
 49
-0.1
 74
0
  0
ENDTAB
  0
TABLE
  2
LAYER
  5
2
100
AcDbSymbolTable
 70
36
  0
LAYER
  5
10
100
AcDbSymbolTableRecord
100
AcDbLayerTableRecord
  2
0
 70
0
 62
7
  6
CONTINUOUS
370
-3
390
F
  0
LAYER
  5
1FA
100
AcDbSymbolTableRecord
100
AcDbLayerTableRecord
  2
DEFAULT_1
 70
0
 62
7
  6
CENTER
370
-3
390
F
  0
LAYER
  5
1FB
100
AcDbSymbolTableRecord
100
AcDbLayerTableRecord
  2
DEFAULT_2
 70
0
 62
7
  6
HIDDEN
370
-3
390
F
  0
LAYER
  5
1FC
100
AcDbSymbolTableRecord
100
AcDbLayerTableRecord
  2
DEFAULT_3
 70
0
 62
7
  6
PHANTOM
370
-3
390
F
  0
LAYER
  5
1FD
100
AcDbSymbolTableRecord
100
AcDbLayerTableRecord
  2
ASSI
 70
0
 62
7
  6
CONTINUOUS
370
-3
390
F
  0
LAYER
  5
1FE
100
AcDbSymbolTableRecord
100
AcDbLayerTableRecord
  2
COORDINATE
 70
0
 62
7
  6
CONTINUOUS
370
-3
390
F
  0
LAYER
  5
1FF
100
AcDbSymbolTableRecord
100
AcDbLayerTableRecord
  2
COORD_ORIGINE
 70
0
 62
7
  6
CONTINUOUS
370
-3
390
F
  0
LAYER
  5
200
100
AcDbSymbolTableRecord
100
AcDbLayerTableRecord
  2
COPY_DENTE
 70
0
 62
7
  6
CONTINUOUS
370
-3
390
F
  0
LAYER
  5
201
100
AcDbSymbolTableRecord
100
AcDbLayerTableRecord
  2
COPY_PLACCA
 70
0
 62
7
  6
CONTINUOUS
370
-3
390
F
  0
LAYER
  5
202
100
AcDbSymbolTableRecord
100
AcDbLayerTableRecord
  2
COPY_SUPP
 70
0
 62
7
  6
CONTINUOUS
370
-3
390
F
  0
LAYER
  5
203
100
AcDbSymbolTableRecord
100
AcDbLayerTableRecord
  2
CURVE
 70
0
 62
7
  6
CONTINUOUS
370
-3
390
F
  0
LAYER
  5
204
100
AcDbSymbolTableRecord
100
AcDbLayerTableRecord
  2
DRAFT
 70
0
 62
7
  6
CONTINUOUS
370
-3
390
F
  0
LAYER
  5
205
100
AcDbSymbolTableRecord
100
AcDbLayerTableRecord
  2
NOTE
 70
0
 62
7
  6
CONTINUOUS
370
-3
390
F
  0
LAYER
  5
206
100
AcDbSymbolTableRecord
100
AcDbLayerTableRecord
  2
PIANI
 70
0
 62
7
  6
CONTINUOUS
370
-3
390
F
  0
LAYER
  5
207
100
AcDbSymbolTableRecord
100
AcDbLayerTableRecord
  2
PIANI_ORIGINE
 70
0
 62
7
  6
CONTINUOUS
370
-3
390
F
  0
LAYER
  5
208
100
AcDbSymbolTableRecord
100
AcDbLayerTableRecord
  2
RACCORDO
 70
0
 62
7
  6
CONTINUOUS
370
-3
390
F
  0
LAYER
  5
209
100
AcDbSymbolTableRecord
100
AcDbLayerTableRecord
  2
SCRITTE
 70
0
 62
7
  6
CONTINUOUS
370
-3
390
F
  0
LAYER
  5
20A
100
AcDbSymbolTableRecord
100
AcDbLayerTableRecord
  2
SKELETON
 70
0
 62
7
  6
CONTINUOUS
370
-3
390
F
  0
LAYER
  5
20B
100
AcDbSymbolTableRecord
100
AcDbLayerTableRecord
  2
SMUSSO
 70
0
 62
7
  6
CONTINUOUS
370
-3
390
F
  0
LAYER
  5
20C
100
AcDbSymbolTableRecord
100
AcDbLayerTableRecord
  2
SUPERFICI
 70
0
 62
7
  6
CONTINUOUS
370
-3
390
F
  0
LAYER
  5
20D
100
AcDbSymbolTableRecord
100
AcDbLayerTableRecord
  2
TRASH
 70
0
 62
7
  6
CONTINUOUS
370
-3
390
F
  0
LAYER
  5
20E
100
AcDbSymbolTableRecord
100
AcDbLayerTableRecord
  2
WHITE
 70
0
 62
7
  6
CONTINUOUS
370
-3
390
F
  0
LAYER
  5
20F
100
AcDbSymbolTableRecord
100
AcDbLayerTableRecord
  2
XSEC_DATUMS
 70
0
 62
7
  6
CONTINUOUS
370
-3
390
F
  0
ENDTAB
  0
TABLE
  2
STYLE
  5
3
100
AcDbSymbolTable
 70
1
  0
STYLE
  5
11
100
AcDbSymbolTableRecord
100
AcDbTextStyleTableRecord
  2
STANDARD
 70
0
 40
0.0
 41
0.8
 50
0.0
 71
0
 42
0.2
  3
txt
  4

  0
STYLE
  5
210
100
AcDbSymbolTableRecord
100
AcDbTextStyleTableRecord
  2
TEXTSTYLE_1
 70
0
 40
0.0
 41
0.8
 50
0.0
 71
0
 42
0.2
  3
gdt
  4

  0
ENDTAB
  0
TABLE
  2
VIEW
  5
6
100
AcDbSymbolTable
 70
0
  0
ENDTAB
  0
TABLE
  2
UCS
  5
7
100
AcDbSymbolTable
 70
0
  0
ENDTAB
  0
TABLE
  2
APPID
  5
9
100
AcDbSymbolTable
 70
1
  0
APPID
  5
211
100
AcDbSymbolTableRecord
100
AcDbRegAppTableRecord
  2
ACAD
 70
0
  0
ENDTAB
  0
TABLE
  2
BLOCK_RECORD
  5
1
100
AcDbSymbolTable
 70
0
  0
BLOCK_RECORD
  5
212
100
AcDbSymbolTableRecord
100
AcDbBlockTableRecord
  2
*Model_Space
  0
BLOCK_RECORD
  5
213
100
AcDbSymbolTableRecord
100
AcDbBlockTableRecord
  2
*Paper_Space
  0
ENDTAB
  0
TABLE
  2
DIMSTYLE
  5
A
100
AcDbSymbolTable
 70
1
100
AcDbDimStyleTable
 71
0
  0
DIMSTYLE
105
214
100
AcDbSymbolTableRecord
100
AcDbDimStyleTableRecord
  2
STANDARD
 70
0
  3

  4

 40
1.0
 41
3.0
 42
0.5
 43
0.38
 44
1.5
 45
0.0
 46
0.0
 47
0.01
 48
0.01
140
3.0
141
0.09
142
0.0
143
25.4
144
1.0
145
0.0
146
1.0
147
0.625
 71
1.0
 72
0.0
 73
0
 74
0
 75
0
 76
0
 77
1
 78
8
170
0
171
2
172
0
173
0
174
0
175
0
176
0
177
0
178
0
270
2
271
2
272
2
273
2
274
2
275
0
280
0
281
0
282
0
283
1
284
8
285
0
286
0
287
3
288
0
340
11
278
44
  0
ENDTAB
  0
ENDSEC
  0
SECTION
  2
BLOCKS
  0
BLOCK
  5
20
100
AcDbEntity
  8
0
100
AcDbBlockBegin
  2
*Model_Space
 70
0
 10
0.0
 20
0.0
 30
0.0
  3
*Model_Space
  1

  0
ENDBLK
  5
21
100
AcDbEntity
  8
0
100
AcDbBlockEnd
  0
BLOCK
  5
1C
100
AcDbEntity
  8
0
100
AcDbBlockBegin
  2
*Paper_Space
 70
0
 10
0.0
 20
0.0
 30
0.0
  3
*Paper_Space
  1

  0
ENDBLK
  5
1D
100
AcDbEntity
  8
0
100
AcDbBlockEnd
  0
ENDSEC
  0
SECTION
  2
ENTITIES
  0
LWPOLYLINE
  5
215
100
AcDbEntity
  8
RACCORDO
100
AcDbPolyline
 62
7
  6
CONTINUOUS
 90
11
 70
0
 10
87.7311142392
 20
161.3695671688
 10
87.6673775049
 20
161.3134715675
 10
87.5854547546
 20
161.2271356562
 10
87.5114688426
 20
161.1308460209
 10
87.4464435141
 20
161.0252607176
 10
87.3913600021
 20
160.9114281472
 10
87.346725157
 20
160.7900695732
 10
87.3129511749
 20
160.6618121468
 10
87.2904082575
 20
160.5275966892
 10
87.279305518
 20
160.3881215175
 10
87.2780862382
 20
160.3227557528
  0
LINE
  5
216
100
AcDbEntity
  8
RACCORDO
100
AcDbLine
 62
7
  6
CONTINUOUS
 10
90.5545796528
 20
163.6824262746
 11
87.7292289077
 21
161.3680344359
  0
LINE
  5
217
100
AcDbEntity
  8
RACCORDO
100
AcDbLine
 62
7
  6
CONTINUOUS
 10
91.7760653545
 20
163.7359617773
 11
88.9621243289
 21
161.4309162338
  0
LINE
  5
218
100
AcDbEntity
  8
0
100
AcDbLine
 62
7
  6
CONTINUOUS
 10
92.4134693343
 20
163.9124640095
 11
92.0498204432
 21
163.614580277
  0
LINE
  5
219
100
AcDbEntity
  8
0
100
AcDbLine
 62
7
  6
CONTINUOUS
 10
93.0471566085
 20
163.9580267322
 11
92.424874738
 21
163.4482832659
  0
LWPOLYLINE
  5
21A
100
AcDbEntity
  8
RACCORDO
100
AcDbPolyline
 62
7
  6
CONTINUOUS
 90
12
 70
0
 10
90.5553236468
 20
163.6829759525
 10
90.5676916422
 20
163.6928999539
 10
90.6599114159
 20
163.7560149782
 10
90.7605214903
 20
163.8066439284
 10
90.8694999147
 20
163.8448258245
 10
90.9850703342
 20
163.8696114364
 10
91.1080261187
 20
163.8806553761
 10
91.237577506
 20
163.8783056845
 10
91.3695719748
 20
163.8626521985
 10
91.5026252963
 20
163.8337248251
 10
91.6381228479
 20
163.7914945062
 10
91.7760653545
 20
163.7359617773
  0
LWPOLYLINE
  5
21B
100
AcDbEntity
  8
0
100
AcDbPolyline
 62
7
  6
CONTINUOUS
 90
33
 70
0
 10
92.4134693343
 20
163.9124640095
 10
92.4294286375
 20
163.9249479306
 10
92.444486863
 20
163.9357170286
 10
92.4600027475
 20
163.9458810157
 10
92.4759645084
 20
163.9554321735
 10
92.4923600245
 20
163.9643632491
 10
92.5091768454
 20
163.9726674603
 10
92.5264022005
 20
163.9803385009
 10
92.5440230093
 20
163.9873705458
 10
92.5620258906
 20
163.9937582548
 10
92.5803971733
 20
163.9994967773
 10
92.5991229066
 20
164.0045817554
 10
92.6181888705
 20
164.0090093277
 10
92.6375805863
 20
164.012776132
 10
92.6572833285
 20
164.0158793079
 10
92.677282135
 20
164.0183164987
 10
92.6975618189
 20
164.0200858538
 10
92.7181069802
 20
164.0211860296
 10
92.7389020172
 20
164.0216161904
 10
92.7599311384
 20
164.0213760098
 10
92.7811783745
 20
164.0204656701
 10
92.8026275908
 20
164.0188858626
 10
92.824262499
 20
164.016637787
 10
92.8460666699
 20
164.0137231504
 10
92.8680235456
 20
164.0101441661
 10
92.8901164524
 20
164.0059035521
 10
92.9123286134
 20
164.0010045285
 10
92.9346431608
 20
163.9954508156
 10
92.9570431494
 20
163.9892466309
 10
92.9795115688
 20
163.9823966857
 10
93.002031357
 20
163.9749061817
 10
93.0245854126
 20
163.9667808071
 10
93.0471566085
 20
163.9580267322
  0
LWPOLYLINE
  5
21C
100
AcDbEntity
  8
RACCORDO
100
AcDbPolyline
 62
7
  6
CONTINUOUS
 90
6
 70
0
 10
88.6546964364
 20
91.9863959557
 10
88.6593669572
 20
91.9187098928
 10
88.673236608
 20
91.8599525757
 10
88.6958839662
 20
91.8119093156
 10
88.7266209033
 20
91.7760398823
 10
88.7580115399
 20
91.7561279483
  0
LWPOLYLINE
  5
21D
100
AcDbEntity
  8
RACCORDO
100
AcDbPolyline
 62
7
  6
CONTINUOUS
 90
3
 70
0
 10
87.278086292
 20
93.9716135187
 10
87.2801053119
 20
93.8860606703
 10
87.2959166978
 20
93.7145897789
  0
LWPOLYLINE
  5
21E
100
AcDbEntity
  8
RACCORDO
100
AcDbPolyline
 62
7
  6
CONTINUOUS
 90
28
 70
0
 10
87.4702178703
 20
93.7454117447
 10
87.4710348808
 20
93.6859955527
 10
87.4754100757
 20
93.6232228557
 10
87.4833434894
 20
93.5570936789
 10
87.4945659297
 20
93.4873568787
 10
87.5093467352
 20
93.4142637063
 10
87.5284938044
 20
93.3385678285
 10
87.5522268871
 20
93.2599327416
 10
87.580326653
 20
93.1786952574
 10
87.6129424781
 20
93.0966190892
 10
87.6502767056
 20
93.0136972667
 10
87.6921276986
 20
92.9299372789
 10
87.7380388982
 20
92.8471245533
 10
87.7882270316
 20
92.765262326
 10
87.8424762457
 20
92.6843480031
 10
87.8996809913
 20
92.6061581798
 10
87.9600359178
 20
92.5307927812
 10
88.0233471565
 20
92.4581524561
 10
88.0879260444
 20
92.3897146376
 10
88.1538395084
 20
92.3257246656
 10
88.2210209904
 20
92.2659374719
 10
88.2875810933
 20
92.2110945051
 10
88.3534604829
 20
92.1614777827
 10
88.4187183051
 20
92.1168051494
 10
88.4816423615
 20
92.0769714119
 10
88.541661601
 20
92.0419412719
 10
88.5993463914
 20
92.0117495258
 10
88.6546964364
 20
91.9863959557
  0
LINE
  5
21F
100
AcDbEntity
  8
RACCORDO
100
AcDbLine
 62
7
  6
CONTINUOUS
 10
87.2780844586
 20
160.3227034649
 11
87.2780844586
 21
93.9713878761
  0
LINE
  5
220
100
AcDbEntity
  8
RACCORDO
100
AcDbLine
 62
7
  6
CONTINUOUS
 10
87.4702178703
 20
160.0967273321
 11
87.4702178703
 21
93.7454117447
  0
LWPOLYLINE
  5
221
100
AcDbEntity
  8
RACCORDO
100
AcDbPolyline
 62
7
  6
CONTINUOUS
 90
10
 70
0
 10
88.6546964364
 20
160.795167676
 10
88.659366956
 20
160.8697258684
 10
88.6732366041
 20
160.948890787
 10
88.695883959
 20
161.0302570463
 10
88.7266208932
 20
161.1113523741
 10
88.7645134808
 20
161.1897127297
 10
88.8084103749
 20
161.2629571725
 10
88.8569777906
 20
161.3288602067
 10
88.9087400318
 20
161.3854194015
 10
88.9621243289
 20
161.4309162338
  0
LWPOLYLINE
  5
222
100
AcDbEntity
  8
RACCORDO
100
AcDbPolyline
 62
7
  6
CONTINUOUS
 90
21
 70
0
 10
202.6337215532
 20
46.323107056
 10
202.7070961166
 20
46.3283488735
 10
202.7786875015
 20
46.3389694861
 10
202.8483269329
 20
46.3552819439
 10
202.9161827586
 20
46.3769728059
 10
202.9805569085
 20
46.4037881688
 10
203.0412364683
 20
46.4359816385
 10
203.0984336235
 20
46.4732989409
 10
203.1510876962
 20
46.5147241182
 10
203.1989642645
 20
46.5604431155
 10
203.242296989
 20
46.6102692892
 10
203.2807272427
 20
46.6626277294
 10
203.3140225109
 20
46.7176579782
 10
203.3424147232
 20
46.7752199567
 10
203.3662419687
 20
46.8333193691
 10
203.3852773127
 20
46.8917772095
 10
203.3997473642
 20
46.9507721849
 10
203.4106706185
 20
47.0088466528
 10
203.4183865483
 20
47.0655147088
 10
203.4225555762
 20
47.1212621611
 10
203.4231776779
 20
47.1760889877
  0
LWPOLYLINE
  5
223
100
AcDbEntity
  8
RACCORDO
100
AcDbPolyline
 62
7
  6
CONTINUOUS
 90
10
 70
0
 10
87.374313863
 20
93.3631572022
 10
87.4355928317
 20
93.1883135537
 10
87.510166611
 20
93.0170284322
 10
87.5974899236
 20
92.8497819085
 10
87.6966389757
 20
92.688043307
 10
87.8066979116
 20
92.533078274
 10
87.9268938205
 20
92.3859559355
 10
88.0563441302
 20
92.2478512066
 10
88.1945070174
 20
92.1196463171
 10
88.340227156
 20
92.0028053422
  0
LWPOLYLINE
  5
224
100
AcDbEntity
  8
RACCORDO
100
AcDbPolyline
 62
7
  6
CONTINUOUS
 90
3
 70
0
 10
87.2959166978
 20
93.7145897789
 10
87.3273931981
 20
93.539705592
 10
87.374313863
 20
93.3631572022
  0
LWPOLYLINE
  5
225
100
AcDbEntity
  8
RACCORDO
100
AcDbPolyline
 62
7
  6
CONTINUOUS
 90
40
 70
0
 10
108.6176729006
 20
137.0416557924
 10
108.6210497355
 20
137.04874695
 10
108.624664415
 20
137.0557182532
 10
108.6285113644
 20
137.0625589508
 10
108.6325846511
 20
137.0692584934
 10
108.6368779933
 20
137.0758065489
 10
108.6413847699
 20
137.0821930189
 10
108.6460980304
 20
137.0884080543
 10
108.6510105062
 20
137.0944420704
 10
108.6561146214
 20
137.1002857615
 10
108.6614025043
 20
137.1059301155
 10
108.6668660001
 20
137.1113664279
 10
108.6724966831
 20
137.1165863147
 10
108.6782858695
 20
137.121581726
 10
108.6842246316
 20
137.1263449578
 10
108.6903038104
 20
137.1308686643
 10
108.6965140308
 20
137.1351458692
 10
108.7028457154
 20
137.1391699761
 10
108.7092890997
 20
137.1429347791
 10
108.7158342465
 20
137.1464344722
 10
108.7224710622
 20
137.1496636582
 10
108.7291893114
 20
137.1526173571
 10
108.7359786334
 20
137.1552910137
 10
108.7428285577
 20
137.1576805047
 10
108.7497285205
 20
137.159782145
 10
108.7566678806
 20
137.1615926937
 10
108.7636359364
 20
137.1631093583
 10
108.7706219416
 20
137.1643298
 10
108.7776151226
 20
137.1652521366
 10
108.7846046946
 20
137.1658749457
 10
108.7915798782
 20
137.1661972667
 10
108.7985299166
 20
137.1662186027
 10
108.8054440912
 20
137.1659389207
 10
108.8123117393
 20
137.165358652
 10
108.8191222696
 20
137.1644786915
 10
108.8258651789
 20
137.1633003962
 10
108.8325300685
 20
137.1618255835
 10
108.8391066597
 20
137.1600565276
 10
108.8455848102
 20
137.1579959567
 10
108.8519545296
 20
137.1556470488
  0
LWPOLYLINE
  5
226
100
AcDbEntity
  8
RACCORDO
100
AcDbPolyline
 62
7
  6
CONTINUOUS
 90
8
 70
0
 10
106.5255242327
 20
139.3441372752
 10
106.4833929912
 20
139.3042731916
 10
106.4376966346
 20
139.2474752098
 10
106.3996539163
 20
139.1830098956
 10
106.3696555465
 20
139.1115322155
 10
106.3480042136
 20
139.0337671455
 10
106.334928697
 20
138.9504873115
 10
106.3305661333
 20
138.8625242596
  0
LWPOLYLINE
  5
227
100
AcDbEntity
  8
RACCORDO
100
AcDbPolyline
 62
7
  6
CONTINUOUS
 90
29
 70
0
 10
106.6161263241
 20
139.1118755198
 10
106.6108578229
 20
139.1072101433
 10
106.5971183109
 20
139.0944505395
 10
106.5837611494
 20
139.0811613646
 10
106.5708037173
 20
139.0673505306
 10
106.558261562
 20
139.0530255514
 10
106.546149214
 20
139.038194204
 10
106.5344814682
 20
139.022865345
 10
106.5232721247
 20
139.0070476814
 10
106.512534206
 20
138.9907505915
 10
106.5022803283
 20
138.9739837263
 10
106.4925224444
 20
138.9567565031
 10
106.4832719025
 20
138.9390791857
 10
106.4745394387
 20
138.9209620128
 10
106.4663356696
 20
138.9024157234
 10
106.4586698147
 20
138.8834499274
 10
106.4515499071
 20
138.864072111
 10
106.4449850564
 20
138.8442924184
 10
106.438983623
 20
138.8241207479
 10
106.4335525098
 20
138.8035629364
 10
106.4286999507
 20
138.7826285855
 10
106.424433714
 20
138.7613276979
 10
106.4207604492
 20
138.739665608
 10
106.4176880718
 20
138.7176526076
 10
106.4152238889
 20
138.6952977538
 10
106.4133746258
 20
138.6726035221
 10
106.4121480994
 20
138.6495769389
 10
106.4115519343
 20
138.626231959
 10
106.4114911927
 20
138.6159701549
  0
LINE
  5
228
100
AcDbEntity
  8
RACCORDO
100
AcDbLine
 62
7
  6
CONTINUOUS
 10
106.9811331841
 20
139.4309383339
 11
106.6161046538
 21
139.1118566048
  0
LINE
  5
229
100
AcDbEntity
  8
RACCORDO
100
AcDbLine
 62
7
  6
CONTINUOUS
 10
107.1908015422
 20
139.1795123641
 11
107.3421427718
 21
139.3118109675
  0
LINE
  5
22A
100
AcDbEntity
  8
RACCORDO
100
AcDbLine
 62
7
  6
CONTINUOUS
 10
106.529161071
 20
139.3471468107
 11
106.5255242327
 21
139.3441372752
  0
LINE
  5
22B
100
AcDbEntity
  8
RACCORDO
100
AcDbLine
 62
7
  6
CONTINUOUS
 10
106.5484322376
 20
139.0409897243
 11
106.3305661333
 21
138.8625242596
  0
LWPOLYLINE
  5
22C
100
AcDbEntity
  8
RACCORDO
100
AcDbPolyline
 62
7
  6
CONTINUOUS
 90
4
 70
0
 10
106.5257319654
 20
139.3442818602
 10
106.554959273
 20
139.3666414747
 10
106.6184956149
 20
139.4030504325
 10
106.6887981214
 20
139.4287809992
  0
LWPOLYLINE
  5
22D
100
AcDbEntity
  8
RACCORDO
100
AcDbPolyline
 62
7
  6
CONTINUOUS
 90
10
 70
0
 10
106.3305661333
 20
138.8625242596
 10
106.3190862995
 20
138.8547079804
 10
106.3053702198
 20
138.8481843661
 10
106.2898533653
 20
138.843160534
 10
106.2730283796
 20
138.8397959845
 10
106.2554294377
 20
138.8381975386
 10
106.2376152863
 20
138.8384159467
 10
106.2201515049
 20
138.8404442752
 10
106.2035925493
 20
138.844218126
 10
106.1884641479
 20
138.8496176832
  0
LWPOLYLINE
  5
22E
100
AcDbEntity
  8
RACCORDO
100
AcDbPolyline
 62
7
  6
CONTINUOUS
 90
10
 70
0
 10
202.5153897303
 20
46.1008515224
 10
202.6808774888
 20
46.0749015575
 10
202.8428414042
 20
46.065265843
 10
203.0008746314
 20
46.0717238811
 10
203.1537776486
 20
46.0941520302
 10
203.3003785397
 20
46.1322841253
 10
203.439943108
 20
46.1859523238
 10
203.5710995489
 20
46.2547604285
 10
203.6923881867
 20
46.3379799056
 10
203.7155665314
 20
46.3564633691
  0
LWPOLYLINE
  5
22F
100
AcDbEntity
  8
RACCORDO
100
AcDbPolyline
 62
7
  6
CONTINUOUS
 90
22
 70
0
 10
107.8992672628
 20
137.679778225
 10
107.8998053657
 20
137.6731668932
 10
107.9005322668
 20
137.6667108263
 10
107.9014468183
 20
137.660420218
 10
107.9025475763
 20
137.6543050006
 10
107.9038328026
 20
137.6483748297
 10
107.9053004681
 20
137.6426390686
 10
107.9069482554
 20
137.6371067737
 10
107.9087735627
 20
137.63178668
 10
107.910773508
 20
137.6266871876
 10
107.9129449336
 20
137.6218163482
 10
107.9152844108
 20
137.6171818527
 10
107.917788246
 20
137.6127910184
 10
107.9204524856
 20
137.6086507783
 10
107.923272923
 20
137.6047676694
 10
107.9262451049
 20
137.601147823
 10
107.9293643385
 20
137.5977969545
 10
107.9326256988
 20
137.5947203547
 10
107.9360240362
 20
137.5919228813
 10
107.9395539851
 20
137.5894089514
 10
107.9432099718
 20
137.5871825342
 10
107.9469862239
 20
137.5852471452
  0
LWPOLYLINE
  5
230
100
AcDbEntity
  8
RACCORDO
100
AcDbPolyline
 62
7
  6
CONTINUOUS
 90
40
 70
0
 10
107.084499657
 20
138.9213189453
 10
107.0841360425
 20
138.9280854852
 10
107.0839631046
 20
138.9349862708
 10
107.0839811167
 20
138.9420103912
 10
107.0841900504
 20
138.9491467405
 10
107.0845895753
 20
138.9563840351
 10
107.0851790598
 20
138.9637108321
 10
107.0859575717
 20
138.971115547
 10
107.0869238802
 20
138.9785864719
 10
107.0880764573
 20
138.9861117944
 10
107.0894134808
 20
138.9936796162
 10
107.0909328367
 20
139.0012779716
 10
107.0926321226
 20
139.0088948466
 10
107.0945086518
 20
139.0165181982
 10
107.0965594573
 20
139.0241359728
 10
107.0987812964
 20
139.0317361258
 10
107.1011706563
 20
139.0393066405
 10
107.1037237591
 20
139.0468355471
 10
107.1064365679
 20
139.0543109413
 10
107.1093047935
 20
139.0617210037
 10
107.1123239009
 20
139.0690540182
 10
107.1154891166
 20
139.0762983903
 10
107.1187954359
 20
139.0834426658
 10
107.1222376311
 20
139.0904755488
 10
107.1258102598
 20
139.0973859195
 10
107.1295076732
 20
139.1041628516
 10
107.1333240252
 20
139.1107956301
 10
107.1372532818
 20
139.1172737678
 10
107.1412892302
 20
139.123587022
 10
107.1454254892
 20
139.1297254105
 10
107.1496555189
 20
139.135679228
 10
107.153972631
 20
139.1414390607
 10
107.1583699998
 20
139.1469958016
 10
107.1628406724
 20
139.1523406649
 10
107.1673775801
 20
139.1574651997
 10
107.1719735497
 20
139.1623613035
 10
107.1766213142
 20
139.1670212349
 10
107.1813135251
 20
139.1714376261
 10
107.1860427634
 20
139.1756034942
 10
107.1908015515
 20
139.1795122524
  0
LWPOLYLINE
  5
231
100
AcDbEntity
  8
RACCORDO
100
AcDbPolyline
 62
7
  6
CONTINUOUS
 90
16
 70
0
 10
106.1884641479
 20
98.5132670871
 10
106.1936034886
 20
98.4115589257
 10
106.207830559
 20
98.3087535347
 10
106.2311456305
 20
98.2048511205
 10
106.2639780654
 20
98.0987647045
 10
106.305899588
 20
97.9915820924
 10
106.3556241595
 20
97.8865657793
 10
106.4133329211
 20
97.7838646586
 10
106.478846502
 20
97.6833311849
 10
106.5503379237
 20
97.5877830639
 10
106.628066545
 20
97.4972732031
 10
106.7117749014
 20
97.4117501385
 10
106.7988601886
 20
97.3338745672
 10
106.8884550168
 20
97.2645335498
 10
106.981427915
 20
97.2028408952
 10
107.0777795389
 20
97.1487971037
  0
LWPOLYLINE
  5
232
100
AcDbEntity
  8
RACCORDO
100
AcDbPolyline
 62
7
  6
CONTINUOUS
 90
14
 70
0
 10
106.3305661333
 20
98.5261736635
 10
106.3349340361
 20
98.4343266618
 10
106.3480218982
 20
98.3396323058
 10
106.3696854827
 20
98.2430351234
 10
106.3996847127
 20
98.1454773623
 10
106.4377127242
 20
98.0479423349
 10
106.4833923231
 20
97.9514442311
 10
106.5362035964
 20
97.8569801174
 10
106.5956247789
 20
97.7654176092
 10
106.6611928002
 20
97.6775558391
 10
106.7323016458
 20
97.5942050662
 10
106.8081986569
 20
97.5162584254
 10
106.8881349867
 20
97.4445809877
 10
106.9713000574
 20
97.3799052709
  0
LWPOLYLINE
  5
233
100
AcDbEntity
  8
RACCORDO
100
AcDbPolyline
 62
7
  6
CONTINUOUS
 90
61
 70
0
 10
106.4911709045
 20
98.4333908583
 10
106.4913706975
 20
98.4169435036
 10
106.4919677063
 20
98.4003532337
 10
106.4929619314
 20
98.3836200493
 10
106.4943544963
 20
98.366732615
 10
106.4961442796
 20
98.3497022676
 10
106.4983279148
 20
98.3325630155
 10
106.5009061327
 20
98.3153153889
 10
106.5038782064
 20
98.2979588606
 10
106.5072385838
 20
98.2805258523
 10
106.5109879861
 20
98.2630162684
 10
106.5151256979
 20
98.2454302089
 10
106.5196440126
 20
98.2278003896
 10
106.524543634
 20
98.2101267319
 10
106.5298238658
 20
98.19240932
 10
106.5354749025
 20
98.1746811136
 10
106.5414974399
 20
98.1569420804
 10
106.5478907911
 20
98.1391922595
 10
106.5546430768
 20
98.121464718
 10
106.5617549663
 20
98.1037595029
 10
106.5692258008
 20
98.086076575
 10
106.5770417087
 20
98.0684488726
 10
106.5852033344
 20
98.0508765024
 10
106.5937100452
 20
98.0333593663
 10
106.6025460543
 20
98.0159300948
 10
106.6117119813
 20
97.9985888479
 10
106.621207219
 20
97.9813354749
 10
106.6310141403
 20
97.9642021404
 10
106.6411333343
 20
97.947189064
 10
106.6515642248
 20
97.930296036
 10
106.6622874371
 20
97.9135545758
 10
106.6733035257
 20
97.8969649623
 10
106.6846119492
 20
97.8805269268
 10
106.6961916882
 20
97.864271167
 10
106.7080432642
 20
97.8481980143
 10
106.7201661688
 20
97.8323071476
 10
106.7325378367
 20
97.8166282853
 10
106.7451587376
 20
97.8011618287
 10
106.7580284147
 20
97.7859073866
 10
106.7711229128
 20
97.7708934883
 10
106.784442664
 20
97.756120579
 10
106.7979872485
 20
97.741588223
 10
106.8117314312
 20
97.7273236266
 10
106.8256756044
 20
97.7133272816
 10
106.8398193874
 20
97.6995987051
 10
106.8541363845
 20
97.6861636404
 10
106.8686269196
 20
97.6730226463
 10
106.8832906792
 20
97.660175172
 10
106.8981003104
 20
97.6476452954
 10
106.9130560913
 20
97.6354336103
 10
106.9281577529
 20
97.6235395298
 10
106.9433771193
 20
97.6119853602
 10
106.9587144606
 20
97.6007717154
 10
106.9741695142
 20
97.5898979873
 10
106.9897133033
 20
97.5793846476
 10
107.0053466155
 20
97.5692320634
 10
107.0210686692
 20
97.5594398721
 10
107.0368481318
 20
97.5500274501
 10
107.0526745603
 20
97.5410012568
 10
107.0685584013
 20
97.5323548355
 10
107.0844996569
 20
97.5240881877
  0
LWPOLYLINE
  5
234
100
AcDbEntity
  8
RACCORDO
100
AcDbPolyline
 62
7
  6
CONTINUOUS
 90
55
 70
0
 10
106.4114912287
 20
98.525026437
 10
106.4115356821
 20
98.5162130906
 10
106.412085043
 20
98.4926645706
 10
106.4132590454
 20
98.4689588854
 10
106.415055378
 20
98.4451050577
 10
106.4174707902
 20
98.4211203706
 10
106.4205004134
 20
98.3970323231
 10
106.4241401001
 20
98.372853576
 10
106.4283855299
 20
98.3485978893
 10
106.4332290562
 20
98.3242957372
 10
106.4386649407
 20
98.2999606545
 10
106.4446876049
 20
98.275606036
 10
106.4512865031
 20
98.2512631088
 10
106.4584539354
 20
98.2269471641
 10
106.4661834088
 20
98.202670203
 10
106.4744630482
 20
98.1784593595
 10
106.4832833607
 20
98.1543315328
 10
106.4926374433
 20
98.1302970508
 10
106.5025151276
 20
98.1063737459
 10
106.5129074493
 20
98.0825759167
 10
106.523806176
 20
98.0589163856
 10
106.5352011014
 20
98.0354111803
 10
106.5470827903
 20
98.0120747552
 10
106.559442653
 20
97.9889195536
 10
106.5722713419
 20
97.9659589466
 10
106.5855595688
 20
97.9432066028
 10
106.5992980339
 20
97.9206755168
 10
106.6134775206
 20
97.8983784509
 10
106.6280883994
 20
97.8763290462
 10
106.6431211316
 20
97.8545400092
 10
106.6585670265
 20
97.8330231251
 10
106.674416349
 20
97.8117916031
 10
106.6906592111
 20
97.7908582725
 10
106.7072870452
 20
97.7702346655
 10
106.7242899385
 20
97.7499336519
 10
106.7416577853
 20
97.7299680955
 10
106.7593818807
 20
97.7103495458
 10
106.7774527809
 20
97.6910899161
 10
106.795859596
 20
97.6722027823
 10
106.8145913243
 20
97.6537016888
 10
106.8336382839
 20
97.6355983099
 10
106.8529893634
 20
97.6179059777
 10
106.8726311109
 20
97.6006396281
 10
106.8925528362
 20
97.5838112508
 10
106.9127438783
 20
97.5674330801
 10
106.9331907048
 20
97.5515190613
 10
106.9538826319
 20
97.5360807594
 10
106.9748086966
 20
97.5211300383
 10
106.9959550413
 20
97.5066801842
 10
107.0173101475
 20
97.4927429227
 10
107.0388636116
 20
97.4793291513
 10
107.0606040035
 20
97.466450188
 10
107.0825206131
 20
97.4541171582
 10
107.1046012725
 20
97.4423415097
 10
107.1144814081
 20
97.4372811681
  0
LINE
  5
235
100
AcDbEntity
  8
RACCORDO
100
AcDbLine
 62
7
  6
CONTINUOUS
 10
106.1884641479
 20
138.8496176832
 11
106.1884641479
 21
98.5132670871
  0
LINE
  5
236
100
AcDbEntity
  8
RACCORDO
100
AcDbLine
 62
7
  6
CONTINUOUS
 10
106.3305661333
 20
138.8625242596
 11
106.3305661333
 21
98.5261736635
  0
LINE
  5
237
100
AcDbEntity
  8
RACCORDO
100
AcDbLine
 62
7
  6
CONTINUOUS
 10
106.4114911234
 20
138.615969479
 11
106.4114911234
 21
98.525025048
  0
LINE
  5
238
100
AcDbEntity
  8
RACCORDO
100
AcDbLine
 62
7
  6
CONTINUOUS
 10
106.4911709045
 20
138.5243352893
 11
106.4911709045
 21
98.4333908583
  0
LINE
  5
239
100
AcDbEntity
  8
RACCORDO
100
AcDbLine
 62
7
  6
CONTINUOUS
 10
107.5999866822
 20
98.6282953366
 11
107.5999866822
 21
137.3724823352
  0
LINE
  5
23A
100
AcDbEntity
  8
RACCORDO
100
AcDbLine
 62
7
  6
CONTINUOUS
 10
107.8777447828
 20
98.6493746284
 11
107.8777447828
 21
137.393561627
  0
LINE
  5
23B
100
AcDbEntity
  8
RACCORDO
100
AcDbLine
 62
7
  6
CONTINUOUS
 10
109.7569232826
 20
101.1337413104
 11
109.7569232826
 21
136.7954679199
  0
LINE
  5
23C
100
AcDbEntity
  8
0
100
AcDbLine
 62
7
  6
CONTINUOUS
 10
109.9455662602
 20
100.8943721557
 11
109.9455662602
 21
136.7204519475
  0
LWPOLYLINE
  5
23D
100
AcDbEntity
  8
RACCORDO
100
AcDbPolyline
 62
7
  6
CONTINUOUS
 90
52
 70
0
 10
107.5999866822
 20
137.3724823352
 10
107.6002114641
 20
137.3885397616
 10
107.6008419799
 20
137.4042752624
 10
107.6018782299
 20
137.4196888378
 10
107.6033289022
 20
137.434796561
 10
107.605185311
 20
137.4495823605
 10
107.6074213963
 20
137.4639980204
 10
107.6100391178
 20
137.4780416241
 10
107.6130365197
 20
137.4917150913
 10
107.6163816684
 20
137.5049759602
 10
107.6200777667
 20
137.5178236992
 10
107.6241216168
 20
137.530258844
 10
107.6284716841
 20
137.5422405338
 10
107.6331313441
 20
137.5537653544
 10
107.638097227
 20
137.5648367246
 10
107.6433176795
 20
137.5754240331
 10
107.648792302
 20
137.585518337
 10
107.6545214998
 20
137.5951285835
 10
107.6604548258
 20
137.6042509966
 10
107.6665890864
 20
137.6128784603
 10
107.6729274804
 20
137.6210180944
 10
107.6794291482
 20
137.6286874756
 10
107.686093026
 20
137.6358853424
 10
107.6929201823
 20
137.6426129597
 10
107.6998729545
 20
137.6488916937
 10
107.706951136
 20
137.6547209401
 10
107.7141549372
 20
137.660101306
 10
107.7214473208
 20
137.6650559742
 10
107.7288272146
 20
137.6695836352
 10
107.7362956934
 20
137.6736856006
 10
107.7438189395
 20
137.6773889832
 10
107.7513977572
 20
137.680693166
 10
107.7590313438
 20
137.6835987674
 10
107.7666834702
 20
137.686134752
 10
107.7743529348
 20
137.6882995405
 10
107.7820409397
 20
137.6900947128
 10
107.7897148598
 20
137.6915539718
 10
107.7973720449
 20
137.6926763639
 10
107.8050151447
 20
137.6934628423
 10
107.8126194829
 20
137.6939499704
 10
107.8201832941
 20
137.69413779
 10
107.8277083425
 20
137.6940262582
 10
107.8351752461
 20
137.6936518103
 10
107.8425808651
 20
137.6930153516
 10
107.8499283374
 20
137.6921159753
 10
107.8572076965
 20
137.6909873989
 10
107.8644217757
 20
137.6896294497
 10
107.8715677396
 20
137.6880422988
 10
107.8786271185
 20
137.6862601785
 10
107.8855937547
 20
137.6842944989
 10
107.8924738031
 20
137.682133848
 10
107.8992672627
 20
137.6797782248
  0
LWPOLYLINE
  5
23E
100
AcDbEntity
  8
RACCORDO
100
AcDbPolyline
 62
7
  6
CONTINUOUS
 90
9
 70
0
 10
108.8860283851
 20
137.089653386
 10
108.8864144452
 20
137.0963624869
 10
108.8870546212
 20
137.1029465873
 10
108.8879478784
 20
137.1093950448
 10
108.8890927728
 20
137.1156974364
 10
108.8904874541
 20
137.1218435755
 10
108.8921296678
 20
137.1278235275
 10
108.8940167597
 20
137.133627627
 10
108.8956580836
 20
137.1379595789
  0
LWPOLYLINE
  5
23F
100
AcDbEntity
  8
RACCORDO
100
AcDbPolyline
 62
7
  6
CONTINUOUS
 90
22
 70
0
 10
107.0844996571
 20
97.5240881878
 10
107.0841360397
 20
97.5178624093
 10
107.083963099
 20
97.5117914192
 10
107.0839811086
 20
97.5058848164
 10
107.0841900398
 20
97.5001519402
 10
107.0845895624
 20
97.4946018548
 10
107.0851790447
 20
97.4892433355
 10
107.0859575545
 20
97.4840848549
 10
107.0869238611
 20
97.4791345691
 10
107.0880764366
 20
97.4744003051
 10
107.0894134585
 20
97.4698895484
 10
107.0909328129
 20
97.4656094311
 10
107.0926320976
 20
97.4615667204
 10
107.0945086257
 20
97.4577678084
 10
107.0965594302
 20
97.4542187017
 10
107.0987812686
 20
97.4509250118
 10
107.1011706278
 20
97.4478919465
 10
107.1037237301
 20
97.4451243013
 10
107.1064365386
 20
97.4426264523
 10
107.109304764
 20
97.4404023489
 10
107.1123238714
 20
97.4384555076
 10
107.1144799318
 20
97.4372818453
  0
LWPOLYLINE
  5
240
100
AcDbEntity
  8
RACCORDO
100
AcDbPolyline
 62
7
  6
CONTINUOUS
 90
22
 70
0
 10
107.8992673519
 20
98.0630601226
 10
107.8998054481
 20
98.0694343396
 10
107.9005323426
 20
98.0759433184
 10
107.9014468877
 20
98.0825767818
 10
107.9025476394
 20
98.089324256
 10
107.9038328597
 20
98.0961750873
 10
107.9053005193
 20
98.1031184586
 10
107.9069483008
 20
98.1101434068
 10
107.9087736026
 20
98.1172388399
 10
107.9107735426
 20
98.1243935549
 10
107.912944963
 20
98.1315962548
 10
107.9152844354
 20
98.1388355671
 10
107.9177882658
 20
98.1461000614
 10
107.9204525008
 20
98.1533782675
 10
107.9232729339
 20
98.1606586937
 10
107.9262451118
 20
98.1679298447
 10
107.9293643415
 20
98.1751802398
 10
107.9326256981
 20
98.1823984312
 10
107.936024032
 20
98.1895730217
 10
107.9395539776
 20
98.1966926832
 10
107.9432099613
 20
98.2037461742
 10
107.9469862105
 20
98.2107223578
  0
LINE
  5
241
100
AcDbEntity
  8
RACCORDO
100
AcDbLine
 62
7
  6
CONTINUOUS
 10
108.8860283851
 20
137.089653386
 11
108.9351123433
 21
137.1222701549
  0
LINE
  5
242
100
AcDbEntity
  8
RACCORDO
100
AcDbLine
 62
7
  6
CONTINUOUS
 10
202.3472225519
 20
46.1433789861
 11
202.5153897303
 21
46.1008515224
  0
LWPOLYLINE
  5
243
100
AcDbEntity
  8
RACCORDO
100
AcDbPolyline
 62
7
  6
CONTINUOUS
 90
10
 70
0
 10
203.4231776779
 20
47.1760889877
 10
203.4981389539
 20
47.1540283135
 10
203.5784939388
 20
47.139500121
 10
203.661961037
 20
47.1329169229
 10
203.7461702876
 20
47.1344656424
 10
203.8287306568
 20
47.1441023051
 10
203.9072979295
 20
47.1615532881
 10
203.9796412702
 20
47.1863230889
 10
204.0437065652
 20
47.2177083951
 10
204.0976747477
 20
47.2548180536
  0
LINE
  5
244
100
AcDbEntity
  8
RACCORDO
100
AcDbLine
 62
7
  6
CONTINUOUS
 10
202.2456555793
 20
46.1769020836
 11
202.3472225519
 21
46.1433789861
  0
LWPOLYLINE
  5
245
100
AcDbEntity
  8
RACCORDO
100
AcDbPolyline
 62
7
  6
CONTINUOUS
 90
8
 70
0
 10
202.149289605
 20
46.4044086635
 10
202.2132020901
 20
46.3823754827
 10
202.2789811418
 20
46.3636985982
 10
202.3466269612
 20
46.3483781946
 10
202.4166221938
 20
46.3359693123
 10
202.4884846513
 20
46.3269173302
 10
202.5607671218
 20
46.3225577925
 10
202.6337215532
 20
46.323107056
  0
LWPOLYLINE
  5
246
100
AcDbEntity
  8
RACCORDO
100
AcDbPolyline
 62
7
  6
CONTINUOUS
 90
13
 70
0
 10
202.2456452122
 20
46.1769037415
 10
192.4832022885
 20
49.7172684033
 10
182.7739010762
 20
53.3054244346
 10
173.1184521604
 20
56.941109633
 10
163.5175623547
 20
60.6240582608
 10
153.971934173
 20
64.354001247
 10
144.4822657643
 20
68.1306662235
 10
135.0492514907
 20
71.9537773002
 10
125.6735819375
 20
75.8230550489
 10
116.3559433513
 20
79.7382167273
 10
107.0970177001
 20
83.6989762574
 10
97.8974826489
 20
87.7050442371
 10
88.7580115399
 20
91.7561279483
  0
LWPOLYLINE
  5
247
100
AcDbEntity
  8
RACCORDO
100
AcDbPolyline
 62
7
  6
CONTINUOUS
 90
13
 70
0
 10
88.6546964364
 20
91.9863959557
 10
97.79298601
 20
87.9358298438
 10
106.9919871912
 20
83.9299785048
 10
116.2510389528
 20
79.9691444336
 10
125.569689236
 20
76.0535379828
 10
134.9470568502
 20
72.1835462854
 10
144.3818183281
 20
68.3597227155
 10
153.8732831028
 20
64.582347161
 10
163.4207558145
 20
60.851696366
 10
173.0228762432
 20
57.1682947721
 10
182.6787084238
 20
53.5324850344
 10
192.3877534355
 20
49.9444387263
 10
202.149289605
 20
46.4044086635
  0
LINE
  5
248
100
AcDbEntity
  8
RACCORDO
100
AcDbLine
 62
7
  6
CONTINUOUS
 10
88.6477833229
 20
91.8094474393
 11
88.7582734296
 21
91.7560112223
  0
LWPOLYLINE
  5
249
100
AcDbEntity
  8
RACCORDO
100
AcDbPolyline
 62
7
  6
CONTINUOUS
 90
7
 70
0
 10
87.4702178703
 20
93.7454117447
 10
87.408437641
 20
93.7782695116
 10
87.3571530705
 20
93.8166106728
 10
87.3178203463
 20
93.8593465836
 10
87.2915562996
 20
93.905263815
 10
87.2791066972
 20
93.9530585984
 10
87.2780844586
 20
93.9713878591
  0
LWPOLYLINE
  5
24A
100
AcDbEntity
  8
RACCORDO
100
AcDbPolyline
 62
7
  6
CONTINUOUS
 90
3
 70
0
 10
88.340227156
 20
92.0028053422
 10
88.4917173983
 20
91.8990589403
 10
88.6477833229
 20
91.8094474393
  0
LINE
  5
24B
100
AcDbEntity
  8
RACCORDO
100
AcDbLine
 62
7
  6
CONTINUOUS
 10
108.4529031402
 20
99.7671558788
 11
108.6176729999
 21
100.087708693
  0
LINE
  5
24C
100
AcDbEntity
  8
RACCORDO
100
AcDbLine
 62
7
  6
CONTINUOUS
 10
108.2061150737
 20
99.2873178516
 11
108.4529031402
 21
99.7671558788
  0
LINE
  5
24D
100
AcDbEntity
  8
RACCORDO
100
AcDbLine
 62
7
  6
CONTINUOUS
 10
108.0418329471
 20
98.9680837923
 11
108.2061150737
 21
99.2873178516
  0
LINE
  5
24E
100
AcDbEntity
  8
RACCORDO
100
AcDbLine
 62
7
  6
CONTINUOUS
 10
107.8777447828
 20
98.6493746284
 11
108.0418329471
 21
98.9680837923
  0
LINE
  5
24F
100
AcDbEntity
  8
RACCORDO
100
AcDbLine
 62
7
  6
CONTINUOUS
 10
108.5496568452
 20
99.3749011013
 11
108.8519548397
 21
99.9596352115
  0
LINE
  5
250
100
AcDbEntity
  8
RACCORDO
100
AcDbLine
 62
7
  6
CONTINUOUS
 10
108.1475927191
 20
98.5980019777
 11
108.5496568452
 21
99.3749011013
  0
LINE
  5
251
100
AcDbEntity
  8
RACCORDO
100
AcDbLine
 62
7
  6
CONTINUOUS
 10
107.9469862238
 20
98.2107223476
 11
108.1475927191
 21
98.5980019777
  0
LWPOLYLINE
  5
252
100
AcDbEntity
  8
RACCORDO
100
AcDbPolyline
 62
7
  6
CONTINUOUS
 90
28
 70
0
 10
108.6176729999
 20
100.087708693
 10
108.6258063537
 20
100.1032933456
 10
108.6341289625
 20
100.118746646
 10
108.6426408263
 20
100.1340685941
 10
108.6513500653
 20
100.1492751502
 10
108.6602485592
 20
100.1643503541
 10
108.669311948
 20
100.1792463246
 10
108.6785405509
 20
100.1939610302
 10
108.6879340487
 20
100.2084965025
 10
108.6974671238
 20
100.2228109549
 10
108.7071404665
 20
100.2369031434
 10
108.7169533866
 20
100.250774312
 10
108.7268784959
 20
100.2643864067
 10
108.7369130417
 20
100.2777343242
 10
108.7470597767
 20
100.2908231678
 10
108.7572995714
 20
100.3036301932
 10
108.767629811
 20
100.3161521819
 10
108.7780531102
 20
100.3283923524
 10
108.7885581838
 20
100.3403376154
 10
108.7991470958
 20
100.3519904088
 10
108.8098177821
 20
100.3633482948
 10
108.8205527653
 20
100.3743908697
 10
108.8313554514
 20
100.3851205681
 10
108.8422224343
 20
100.3955349556
 10
108.8531260188
 20
100.4056063249
 10
108.8640569729
 20
100.4153254404
 10
108.8750245286
 20
100.4247015379
 10
108.8860286857
 20
100.4337346173
  0
LWPOLYLINE
  5
253
100
AcDbEntity
  8
RACCORDO
100
AcDbPolyline
 62
7
  6
CONTINUOUS
 90
28
 70
0
 10
108.8519546137
 20
99.9596353744
 10
108.8579465571
 20
99.9706907339
 10
108.8640823959
 20
99.9816638299
 10
108.8703593225
 20
99.9925468898
 10
108.8767766982
 20
100.0033350965
 10
108.8833292667
 20
100.0140176023
 10
108.8900068416
 20
100.0245778995
 10
108.8968059355
 20
100.0350084569
 10
108.9037228901
 20
100.045301951
 10
108.9107465958
 20
100.055442955
 10
108.9178729943
 20
100.0654244254
 10
108.9250980333
 20
100.0752397184
 10
108.932410061
 20
100.0848749333
 10
108.9398023647
 20
100.094320943
 10
108.9472727909
 20
100.1035748166
 10
108.9548162945
 20
100.1126324907
 10
108.9624265505
 20
100.1214860269
 10
108.9701009045
 20
100.130131993
 10
108.9778399514
 20
100.1385726989
 10
108.9856408132
 20
100.1468038155
 10
108.9934975205
 20
100.1548178687
 10
109.0014061525
 20
100.1626119285
 10
109.0093645876
 20
100.1701824749
 10
109.0173659079
 20
100.1775215534
 10
109.0253989125
 20
100.1846200313
 10
109.0334567229
 20
100.1914718592
 10
109.0415368493
 20
100.1980735854
 10
109.0496345914
 20
100.2044206501
  0
LWPOLYLINE
  5
254
100
AcDbEntity
  8
RACCORDO
100
AcDbPolyline
 62
7
  6
CONTINUOUS
 90
7
 70
0
 10
107.1129740824
 20
97.2404219927
 10
107.1037850263
 20
97.2259478232
 10
107.0956358496
 20
97.2105191295
 10
107.0887749432
 20
97.1946061906
 10
107.083411432
 20
97.1786940453
 10
107.0797088006
 20
97.1632677079
 10
107.0777799078
 20
97.148797385
  0
LWPOLYLINE
  5
255
100
AcDbEntity
  8
RACCORDO
100
AcDbPolyline
 62
7
  6
CONTINUOUS
 90
12
 70
0
 10
182.5887028851
 20
66.821907934
 10
182.6900180649
 20
66.7966445896
 10
182.7877302958
 20
66.7818207706
 10
182.8818389693
 20
66.7774359412
 10
182.9732293264
 20
66.7836670341
 10
183.0610150656
 20
66.8003361824
 10
183.1425378985
 20
66.826910328
 10
183.2175521317
 20
66.8636467638
 10
183.2863017463
 20
66.9102866866
 10
183.346862441
 20
66.9655224306
 10
183.3990449547
 20
67.0296761356
 10
183.4430369463
 20
67.1024242475
  0
LWPOLYLINE
  5
256
100
AcDbEntity
  8
RACCORDO
100
AcDbPolyline
 62
7
  6
CONTINUOUS
 90
10
 70
0
 10
182.6372578111
 20
66.9540842924
 10
182.7290943257
 20
66.9311615989
 10
182.8192478165
 20
66.9176846564
 10
182.9068433072
 20
66.913790937
 10
182.9910589462
 20
66.9195388957
 10
183.0710558869
 20
66.9348561013
 10
183.1459890753
 20
66.9595341179
 10
183.2151024438
 20
66.9932971329
 10
183.277788796
 20
67.0358185549
 10
183.2852271576
 20
67.0417984573
  0
LWPOLYLINE
  5
257
100
AcDbEntity
  8
RACCORDO
100
AcDbPolyline
 62
7
  6
CONTINUOUS
 90
61
 70
0
 10
182.4641296742
 20
67.2499293787
 10
182.4808496933
 20
67.2450783197
 10
182.4975101441
 20
67.2406540438
 10
182.514111025
 20
67.2366565497
 10
182.5306633964
 20
67.2330836682
 10
182.5471561946
 20
67.2299375655
 10
182.5635562306
 20
67.227224742
 10
182.5798625713
 20
67.2249462353
 10
182.5960761445
 20
67.2231010031
 10
182.6121665512
 20
67.2216924245
 10
182.6281335096
 20
67.2207213278
 10
182.6439772945
 20
67.2201868786
 10
182.65966834
 20
67.2200899605
 10
182.6752063562
 20
67.2204313845
 10
182.6905916247
 20
67.2212103323
 10
182.7057954344
 20
67.2224252415
 10
182.7208174447
 20
67.2240769253
 10
182.7356579866
 20
67.2261645621
 10
182.7502893549
 20
67.2286841366
 10
182.7647111385
 20
67.2316364494
 10
182.7789237379
 20
67.2350206906
 10
182.792900664
 20
67.2388304284
 10
182.8066414616
 20
67.2430664479
 10
182.8201465746
 20
67.247727954
 10
182.8333908611
 20
67.2528061439
 10
182.8463738262
 20
67.2583017861
 10
182.859095953
 20
67.2642141017
 10
182.8715335651
 20
67.2705319653
 10
182.8836861234
 20
67.2772561238
 10
182.895554155
 20
67.2843858198
 10
182.9071155823
 20
67.2919076707
 10
182.9183698248
 20
67.2998223966
 10
182.929317451
 20
67.3081292669
 10
182.9399381063
 20
67.3168127221
 10
182.9502311778
 20
67.3258734575
 10
182.9601972667
 20
67.3353107674
 10
182.9698178391
 20
67.3451069912
 10
182.9790922409
 20
67.3552627826
 10
182.988021115
 20
67.365777478
 10
182.9965878729
 20
67.37663144
 10
183.0047918371
 20
67.3878252906
 10
183.0126336746
 20
67.3993583985
 10
183.0200988144
 20
67.411209247
 10
183.0271865539
 20
67.4233784212
 10
183.0338975862
 20
67.4358653276
 10
183.040219433
 20
67.448646681
 10
183.0461513642
 20
67.4617230101
 10
183.0516941017
 20
67.4750937789
 10
183.0568373449
 20
67.4887341049
 10
183.0615803553
 20
67.502644482
 10
183.0659238646
 20
67.5168244101
 10
183.0698597775
 20
67.5312475159
 10
183.0733873385
 20
67.545914291
 10
183.0765072978
 20
67.5608242391
 10
183.0792138191
 20
67.575949505
 10
183.0815061324
 20
67.5912911125
 10
183.0833850041
 20
67.6068480346
 10
183.0848469033
 20
67.6225893414
 10
183.0858906525
 20
67.6385047223
 10
183.0865174273
 20
67.6546044861
 10
183.0867272274
 20
67.6708886326
  0
LWPOLYLINE
  5
258
100
AcDbEntity
  8
RACCORDO
100
AcDbPolyline
 62
7
  6
CONTINUOUS
 90
33
 70
0
 10
182.5152991022
 20
67.1546497332
 10
182.5244802838
 20
67.151922318
 10
182.5480266983
 20
67.145376899
 10
182.5715248512
 20
67.1394910063
 10
182.5949645394
 20
67.1342655989
 10
182.6183291481
 20
67.1297026396
 10
182.6415941928
 20
67.1258050512
 10
182.6647472718
 20
67.1225725717
 10
182.687774965
 20
67.1200049167
 10
182.7106512044
 20
67.1181027571
 10
182.7333631945
 20
67.1168641471
 10
182.755898255
 20
67.116286957
 10
182.7782307098
 20
67.1163688414
 10
182.8003480289
 20
67.1171059134
 10
182.8222374303
 20
67.1184941215
 10
182.8438729228
 20
67.1205278543
 10
182.8652425046
 20
67.1232010647
 10
182.8863332263
 20
67.1265073711
 10
182.907117881
 20
67.1304372015
 10
182.9275792474
 20
67.1349805721
 10
182.9477106828
 20
67.1401293279
 10
182.9675007768
 20
67.1458742849
 10
182.9869327445
 20
67.1522035543
 10
183.0060001417
 20
67.1591079224
 10
183.0247060098
 20
67.1665825623
 10
183.043038612
 20
67.1746171906
 10
183.0609860701
 20
67.1832007325
 10
183.0785495928
 20
67.1923287523
 10
183.0957172361
 20
67.2019904153
 10
183.112477506
 20
67.2121741263
 10
183.1288307559
 20
67.222875813
 10
183.1447650591
 20
67.2340839435
 10
183.1560887653
 20
67.2425499617
  0
LINE
  5
259
100
AcDbEntity
  8
RACCORDO
100
AcDbLine
 62
7
  6
CONTINUOUS
 10
176.2158917619
 20
68.9437883494
 11
182.6372578111
 21
66.9540842924
  0
LINE
  5
25A
100
AcDbEntity
  8
RACCORDO
100
AcDbLine
 62
7
  6
CONTINUOUS
 10
107.0568379012
 20
97.3228351231
 11
107.1438730225
 21
97.2739295821
  0
LWPOLYLINE
  5
25B
100
AcDbEntity
  8
RACCORDO
100
AcDbPolyline
 62
7
  6
CONTINUOUS
 90
52
 70
0
 10
107.9469862238
 20
98.2107223476
 10
107.9436629588
 20
98.2126324658
 10
107.9403453395
 20
98.2147542195
 10
107.9370337713
 20
98.2170878432
 10
107.9337282336
 20
98.2196249264
 10
107.9304300127
 20
98.2223741199
 10
107.927141474
 20
98.2253613342
 10
107.9238611549
 20
98.2285874251
 10
107.9205922471
 20
98.2320517581
 10
107.9173441021
 20
98.235778117
 10
107.9141174272
 20
98.2397668962
 10
107.9109143484
 20
98.24401745
 10
107.9077465958
 20
98.2485519227
 10
107.9046157532
 20
98.2533712472
 10
107.9015244329
 20
98.2584736003
 10
107.8984862724
 20
98.2638768109
 10
107.895504172
 20
98.2695817766
 10
107.8925810027
 20
98.2755858942
 10
107.8897307753
 20
98.281901489
 10
107.886957597
 20
98.2885293283
 10
107.8842647811
 20
98.2954660261
 10
107.8816655463
 20
98.3027173959
 10
107.8791655716
 20
98.3102817338
 10
107.876768189
 20
98.3181571767
 10
107.8744834657
 20
98.3263490437
 10
107.872317659
 20
98.3348545365
 10
107.870275105
 20
98.3436719787
 10
107.8683634284
 20
98.3528081371
 10
107.8665891889
 20
98.3622622321
 10
107.8649581975
 20
98.3720296105
 10
107.8634774654
 20
98.3821109737
 10
107.8621547831
 20
98.3925043541
 10
107.8609965148
 20
98.4032052554
 10
107.8600080706
 20
98.4142103027
 10
107.8591982045
 20
98.4255204011
 10
107.858574237
 20
98.4371270687
 10
107.8581398314
 20
98.4490125924
 10
107.8579050524
 20
98.4611826272
 10
107.8578774338
 20
98.4736229128
 10
107.8580564184
 20
98.4862858822
 10
107.8584523148
 20
98.4991704303
 10
107.8590720692
 20
98.512268724
 10
107.8599087707
 20
98.5255234822
 10
107.8609713487
 20
98.538927745
 10
107.862266853
 20
98.5524796995
 10
107.8637844045
 20
98.5661301614
 10
107.8655323337
 20
98.5798745358
 10
107.8675175094
 20
98.5937087274
 10
107.8697262571
 20
98.607584496
 10
107.8721587692
 20
98.6214829327
 10
107.8748292637
 20
98.635414394
 10
107.8777447828
 20
98.6493746283
  0
LINE
  5
25C
100
AcDbEntity
  8
RACCORDO
100
AcDbLine
 62
7
  6
CONTINUOUS
 10
106.9713000574
 20
97.3799052709
 11
107.0568379012
 21
97.3228351231
  0
LWPOLYLINE
  5
25D
100
AcDbEntity
  8
RACCORDO
100
AcDbPolyline
 62
7
  6
CONTINUOUS
 90
52
 70
0
 10
107.8777447828
 20
137.3935616269
 10
107.8748236742
 20
137.4030131496
 10
107.872149696
 20
137.4123020761
 10
107.8697154882
 20
137.4214214968
 10
107.8675066578
 20
137.4303686262
 10
107.8655225833
 20
137.4391335729
 10
107.8637763262
 20
137.4476994154
 10
107.8622608662
 20
137.4560614998
 10
107.8609676418
 20
137.4642142438
 10
107.8599069707
 20
137.4721402346
 10
107.8590717377
 20
137.4798371534
 10
107.8584529189
 20
137.4872998889
 10
107.858057137
 20
137.4945083626
 10
107.8578774623
 20
137.5014610124
 10
107.8579039047
 20
137.5081557736
 10
107.8581373909
 20
137.5145741028
 10
107.8585706854
 20
137.5207131851
 10
107.8591936885
 20
137.5265768373
 10
107.8600024311
 20
137.5321585392
 10
107.8609893791
 20
137.537457133
 10
107.8621458377
 20
137.5424780355
 10
107.8634663851
 20
137.5472253438
 10
107.8649445629
 20
137.5517014423
 10
107.8665726637
 20
137.5559094497
 10
107.8683439985
 20
137.5598545354
 10
107.8702531945
 20
137.5635400408
 10
107.8722933158
 20
137.5669692004
 10
107.8744558202
 20
137.5701471338
 10
107.8767358815
 20
137.573077324
 10
107.8791276939
 20
137.5757640649
 10
107.8816216694
 20
137.5782139077
 10
107.8842144506
 20
137.5804312822
 10
107.8869004182
 20
137.5824203078
 10
107.8896669826
 20
137.584187521
 10
107.892510898
 20
137.5857373994
 10
107.8954280172
 20
137.5870752866
 10
107.8984047941
 20
137.5882096551
 10
107.9014380442
 20
137.5891454054
 10
107.9045251774
 20
137.5898882902
 10
107.907653936
 20
137.5904483263
 10
107.9108220078
 20
137.5908307423
 10
107.9140274327
 20
137.5910409826
 10
107.9172588232
 20
137.5910892809
 10
107.9205136691
 20
137.5909809262
 10
107.923791538
 20
137.5907210626
 10
107.9270843845
 20
137.5903192366
 10
107.9303928729
 20
137.589779916
 10
107.933714358
 20
137.5891080096
 10
107.9370360638
 20
137.5883134887
 10
107.9403534709
 20
137.5874029145
 10
107.9436702562
 20
137.5863792526
 10
107.9469862238
 20
137.5852471449
  0
LINE
  5
25E
100
AcDbEntity
  8
SUPERFICI
100
AcDbLine
 62
7
  6
CONTINUOUS
 10
124.5986506799
 20
96.6558987296
 11
124.5986506799
 21
96.1714912648
  0
LINE
  5
25F
100
AcDbEntity
  8
SUPERFICI
100
AcDbLine
 62
7
  6
CONTINUOUS
 10
124.6290410607
 20
96.6867868473
 11
124.6290410607
 21
96.2034736735
  0
LINE
  5
260
100
AcDbEntity
  8
SUPERFICI
100
AcDbLine
 62
7
  6
CONTINUOUS
 10
123.9126575801
 20
95.5672261267
 11
123.9212709333
 21
95.5959122817
  0
LINE
  5
261
100
AcDbEntity
  8
SUPERFICI
100
AcDbLine
 62
7
  6
CONTINUOUS
 10
118.4823819824
 20
97.4657945037
 11
118.5264814335
 21
97.5648992023
  0
LINE
  5
262
100
AcDbEntity
  8
SUPERFICI
100
AcDbLine
 62
7
  6
CONTINUOUS
 10
118.7339686326
 20
97.6216091732
 11
118.8132696517
 21
97.7998223575
  0
LINE
  5
263
100
AcDbEntity
  8
SUPERFICI
100
AcDbLine
 62
7
  6
CONTINUOUS
 10
119.0207568507
 20
97.8565323284
 11
119.1000578699
 21
98.0347455127
  0
LINE
  5
264
100
AcDbEntity
  8
SUPERFICI
100
AcDbLine
 62
7
  6
CONTINUOUS
 10
119.3075450689
 20
98.0914554836
 11
119.3868460881
 21
98.2696686679
  0
LINE
  5
265
100
AcDbEntity
  8
SUPERFICI
100
AcDbLine
 62
7
  6
CONTINUOUS
 10
119.5943332871
 20
98.3263786388
 11
119.6736343062
 21
98.5045918231
  0
LINE
  5
266
100
AcDbEntity
  8
SUPERFICI
100
AcDbLine
 62
7
  6
CONTINUOUS
 10
122.987718226
 20
95.6563498978
 11
123.0318176771
 21
95.7554545965
  0
LINE
  5
267
100
AcDbEntity
  8
SUPERFICI
100
AcDbLine
 62
7
  6
CONTINUOUS
 10
123.2325694298
 20
95.7970279985
 11
123.3186058953
 21
95.9903777517
  0
LINE
  5
268
100
AcDbEntity
  8
SUPERFICI
100
AcDbLine
 62
7
  6
CONTINUOUS
 10
123.519357648
 20
96.0319511537
 11
123.6053941135
 21
96.2253009069
  0
LINE
  5
269
100
AcDbEntity
  8
SUPERFICI
100
AcDbLine
 62
7
  6
CONTINUOUS
 10
123.8061458662
 20
96.2668743089
 11
123.8921823316
 21
96.4602240621
  0
LINE
  5
26A
100
AcDbEntity
  8
SUPERFICI
100
AcDbLine
 62
7
  6
CONTINUOUS
 10
124.0929340844
 20
96.5017974641
 11
124.1789705498
 21
96.6951472173
  0
LWPOLYLINE
  5
26B
100
AcDbEntity
  8
RACCORDO
100
AcDbPolyline
 62
7
  6
CONTINUOUS
 90
4
 70
0
 10
107.1438730822
 20
97.2739303745
 10
107.133328317
 20
97.2647845638
 10
107.122922929
 20
97.2535004535
 10
107.1129740824
 20
97.2404219927
  0
LINE
  5
26C
100
AcDbEntity
  8
RACCORDO
100
AcDbLine
 62
7
  6
CONTINUOUS
 10
106.4114911234
 20
98.5924635347
 11
106.3305661333
 21
98.5261736635
  0
LINE
  5
26D
100
AcDbEntity
  8
RACCORDO
100
AcDbLine
 62
7
  6
CONTINUOUS
 10
107.2562250223
 20
97.3659629524
 11
107.1438730225
 21
97.2739295821
  0
LINE
  5
26E
100
AcDbEntity
  8
RACCORDO
100
AcDbLine
 62
7
  6
CONTINUOUS
 10
108.8860286857
 20
100.4337346173
 11
109.7569232826
 21
101.1337413104
  0
LINE
  5
26F
100
AcDbEntity
  8
RACCORDO
100
AcDbLine
 62
7
  6
CONTINUOUS
 10
109.0496345659
 20
100.2044211845
 11
109.9205291676
 21
100.9044276166
  0
LWPOLYLINE
  5
270
100
AcDbEntity
  8
RACCORDO
100
AcDbPolyline
 62
7
  6
CONTINUOUS
 90
58
 70
0
 10
181.6371537243
 20
68.6150897734
 10
180.86337061
 20
68.8497469398
 10
180.0622200541
 20
69.0943739843
 10
179.2337401316
 20
69.349137643
 10
178.3801111064
 20
69.6135527529
 10
177.4992322891
 20
69.888450124
 10
176.584730254
 20
70.1760138024
 10
175.6366452367
 20
70.4764701392
 10
174.6550450181
 20
70.7900590255
 10
173.6336174521
 20
71.1190721635
 10
172.5722925875
 20
71.4638505499
 10
171.4712839121
 20
71.8246649324
 10
170.324728356
 20
72.2038036487
 10
169.13269949
 20
72.6016535768
 10
167.8953110033
 20
73.0186110315
 10
166.606788114
 20
73.4570955092
 10
165.2676768468
 20
73.9174408873
 10
163.8776714749
 20
74.4002996311
 10
162.4297560691
 20
74.908717775
 10
160.9208843255
 20
75.4444540981
 10
159.3544216999
 20
76.0070344505
 10
157.7329911638
 20
76.5962351048
 10
156.050107502
 20
77.2151846297
 10
154.3126172356
 20
77.8621581104
 10
152.5430796442
 20
78.5293787614
 10
150.7376482321
 20
79.2188146956
 10
148.9004322446
 20
79.9294094466
 10
147.0657485249
 20
80.6481288954
 10
145.2452525541
 20
81.3703196547
 10
143.4272976573
 20
82.1005145714
 10
141.6111354467
 20
82.8390136836
 10
139.7851266565
 20
83.5906368361
 10
137.9609738785
 20
84.350654198
 10
136.1728229183
 20
85.1045961708
 10
134.4245970788
 20
85.850286929
 10
132.7121567049
 20
86.5889643288
 10
131.0573571661
 20
87.3105660868
 10
129.4665618039
 20
88.0115099227
 10
127.9330204291
 20
88.6939830466
 10
126.4588372159
 20
89.3563159054
 10
125.0469475466
 20
89.9964532566
 10
123.6940709279
 20
90.615177379
 10
122.393010798
 20
91.2151561349
 10
121.1431898357
 20
91.7960947928
 10
119.9449313779
 20
92.3573094574
 10
118.7924279889
 20
92.901032915
 10
117.6855896808
 20
93.4268602603
 10
116.6242992873
 20
93.9344228505
 10
115.6027392812
 20
94.4261236109
 10
114.6209606778
 20
94.9015859446
 10
113.6787470704
 20
95.360584726
 10
112.7699065382
 20
95.8058508879
 10
111.8943744861
 20
96.2371443129
 10
111.0520831289
 20
96.6542500561
 10
110.2368589016
 20
97.0600228019
 10
109.4466148144
 20
97.4553137412
 10
108.6833397171
 20
97.8389344398
 10
107.9469862238
 20
98.2107223476
  0
LWPOLYLINE
  5
271
100
AcDbEntity
  8
RACCORDO
100
AcDbPolyline
 62
7
  6
CONTINUOUS
 90
58
 70
0
 10
181.6099520283
 20
68.4591872841
 10
180.8368001009
 20
68.6958011166
 10
180.0362345441
 20
68.9425812559
 10
179.2082942922
 20
69.1995613901
 10
178.3551595859
 20
69.4659500675
 10
177.4747301376
 20
69.7426076186
 10
176.5606361051
 20
70.0320557374
 10
175.6129233221
 20
70.3342817763
 10
174.6316584255
 20
70.6493948254
 10
173.6105269234
 20
70.9801199643
 10
172.5494646412
 20
71.3264899799
 10
171.448686176
 20
71.6886002248
 10
170.3023224576
 20
72.0692928623
 10
169.1104525747
 20
72.4685664013
 10
167.8731925307
 20
72.8865871777
 10
166.584759452
 20
73.3264750703
 10
165.2457049457
 20
73.788073796
 10
163.8557260186
 20
74.2717477118
 10
162.4077968748
 20
74.7814301614
 10
160.8988747671
 20
75.3183084847
 10
159.3323304604
 20
75.881467131
 10
157.7107798627
 20
76.4717022244
 10
156.0277310246
 20
77.0917127305
 10
154.2900394508
 20
77.7390962834
 10
152.5202733029
 20
78.4069379699
 10
150.7145671731
 20
79.0972106876
 10
148.8770302884
 20
79.8081330696
 10
147.042007284
 20
80.527003702
 10
145.2211400045
 20
81.24944616
 10
143.402766996
 20
81.9798085463
 10
141.5861628142
 20
82.7183809209
 10
139.7596757608
 20
83.4701804583
 10
137.9349968466
 20
84.2302099299
 10
136.1462972891
 20
84.9836426398
 10
134.3975019945
 20
85.7290298384
 10
132.6844537665
 20
86.4676218439
 10
131.0290098387
 20
87.1884874239
 10
129.4375544843
 20
87.8887085295
 10
127.9033411909
 20
88.5709053184
 10
126.4284587607
 20
89.2323972449
 10
125.0158459311
 20
89.8715657374
 10
123.662231245
 20
90.4897599291
 10
122.360409539
 20
91.0887687251
 10
121.1098021559
 20
91.6685839714
 10
119.9107325757
 20
92.2290092093
 10
118.7573888613
 20
92.7715830874
 10
117.6496854182
 20
93.2961275065
 10
116.5875049364
 20
93.802659385
 10
115.5650198029
 20
94.2930353047
 10
114.5822875672
 20
94.7670505747
 10
113.6390925019
 20
95.2247852285
 10
112.7292257648
 20
95.6685455317
 10
111.8526322058
 20
96.0982183249
 10
111.0092477095
 20
96.5138233747
 10
110.1928757331
 20
96.9178864267
 10
109.401426297
 20
97.3112302847
 10
108.6369040684
 20
97.6929656396
 10
107.8992672627
 20
98.0630600544
  0
LWPOLYLINE
  5
272
100
AcDbEntity
  8
RACCORDO
100
AcDbPolyline
 62
7
  6
CONTINUOUS
 90
40
 70
0
 10
183.0867272274
 20
67.6708886326
 10
183.0933388109
 20
67.6685281874
 10
183.1001055964
 20
67.6663171689
 10
183.1070173241
 20
67.6642589293
 10
183.1140635141
 20
67.6623565895
 10
183.121233483
 20
67.6606130338
 10
183.1285163595
 20
67.6590309059
 10
183.1359011011
 20
67.6576126046
 10
183.143376511
 20
67.6563602803
 10
183.1509312548
 20
67.6552758318
 10
183.1585538778
 20
67.6543609035
 10
183.1662328224
 20
67.6536168825
 10
183.1739564457
 20
67.653044897
 10
183.1817130369
 20
67.6526458141
 10
183.1894908354
 20
67.6524202391
 10
183.1972780483
 20
67.6523685139
 10
183.2050628685
 20
67.6524907169
 10
183.2128334924
 20
67.6527866629
 10
183.2205781381
 20
67.6532559031
 10
183.228285063
 20
67.6538977261
 10
183.2359425817
 20
67.6547111588
 10
183.2435390837
 20
67.6556949677
 10
183.251063051
 20
67.6568476612
 10
183.2585030757
 20
67.6581674916
 10
183.265847877
 20
67.6596524577
 10
183.2730863187
 20
67.661300308
 10
183.2802074255
 20
67.6631085439
 10
183.2872004003
 20
67.6650744239
 10
183.2940546404
 20
67.6671949672
 10
183.300759753
 20
67.6694669585
 10
183.3073055719
 20
67.6718869531
 10
183.313682172
 20
67.6744512816
 10
183.3198798851
 20
67.6771560561
 10
183.325889314
 20
67.6799971754
 10
183.3317013472
 20
67.6829703318
 10
183.3373071723
 20
67.6860710174
 10
183.3426982896
 20
67.6892945308
 10
183.347866525
 20
67.6926359845
 10
183.3528040424
 20
67.6960903121
 10
183.3575033554
 20
67.699652276
  0
LWPOLYLINE
  5
273
100
AcDbEntity
  8
SUPERFICI
100
AcDbPolyline
 62
7
  6
CONTINUOUS
 90
10
 70
0
 10
175.0677687864
 20
76.4309670242
 10
175.05767017
 20
76.4347099785
 10
175.0444128091
 20
76.4386775864
 10
175.0315718679
 20
76.4414634064
 10
175.019312076
 20
76.4430388967
 10
175.0076962003
 20
76.4434099027
 10
174.9967354693
 20
76.442646034
 10
174.9864922631
 20
76.4408329625
 10
174.9769936323
 20
76.4380280846
 10
174.9682375566
 20
76.4342555058
  0
LWPOLYLINE
  5
274
100
AcDbEntity
  8
SUPERFICI
100
AcDbPolyline
 62
7
  6
CONTINUOUS
 90
10
 70
0
 10
156.6368472722
 20
83.7513253748
 10
156.6267243516
 20
83.7550766466
 10
156.6134687568
 20
83.7590417624
 10
156.6006300176
 20
83.7618251443
 10
156.5883728381
 20
83.7633985452
 10
156.5767599869
 20
83.7637678739
 10
156.5658025207
 20
83.7630027599
 10
156.5555625449
 20
83.7611890733
 10
156.5460669906
 20
83.7583842655
 10
156.5373138415
 20
83.7546123796
  0
LWPOLYLINE
  5
275
100
AcDbEntity
  8
SUPERFICI
100
AcDbPolyline
 62
7
  6
CONTINUOUS
 90
10
 70
0
 10
138.2059262757
 20
91.1535987624
 10
138.1958033551
 20
91.1573500342
 10
138.1825477603
 20
91.16131515
 10
138.1697090211
 20
91.1640985319
 10
138.1574518416
 20
91.1656719328
 10
138.1458389904
 20
91.1660412615
 10
138.1348815242
 20
91.1652761475
 10
138.1246415484
 20
91.1634624609
 10
138.1151459941
 20
91.1606576531
 10
138.106392845
 20
91.1568857672
  0
LWPOLYLINE
  5
276
100
AcDbEntity
  8
SUPERFICI
100
AcDbPolyline
 62
7
  6
CONTINUOUS
 90
10
 70
0
 10
119.7750057969
 20
98.637787187
 10
119.7649071804
 20
98.6415301413
 10
119.7516498196
 20
98.6454977492
 10
119.7388088784
 20
98.6482835691
 10
119.7265490865
 20
98.6498590594
 10
119.7149332108
 20
98.6502300654
 10
119.7039724798
 20
98.6494661968
 10
119.6937292736
 20
98.6476531253
 10
119.6842306428
 20
98.6448482474
 10
119.6754745671
 20
98.6410756686
  0
LWPOLYLINE
  5
277
100
AcDbEntity
  8
0
100
AcDbPolyline
 62
7
  6
CONTINUOUS
 90
29
 70
0
 10
147.9854911147
 20
82.3204104896
 10
147.99176268
 20
82.3180334637
 10
147.9981963438
 20
82.3159143376
 10
148.004792103
 20
82.3140531027
 10
148.0115586493
 20
82.3124424556
 10
148.0184872847
 20
82.3110896819
 10
148.0255519207
 20
82.3100166549
 10
148.032762366
 20
82.3092252445
 10
148.0401088046
 20
82.3087135599
 10
148.0475357116
 20
82.3084978319
 10
148.0550278455
 20
82.3085793398
 10
148.0626004404
 20
82.3089567822
 10
148.070243684
 20
82.309642518
 10
148.0779641169
 20
82.3106358938
 10
148.0857551911
 20
82.3119375407
 10
148.0935874616
 20
82.3135617442
 10
148.1014692472
 20
82.3155122465
 10
148.1093922219
 20
82.3177852836
 10
148.1173019741
 20
82.3203838827
 10
148.1251929307
 20
82.3233085951
 10
148.1330706592
 20
82.3265588513
 10
148.1408974599
 20
82.3301360007
 10
148.148666305
 20
82.3340378416
 10
148.1563842184
 20
82.338266562
 10
148.1640345787
 20
82.342830097
 10
148.1716200569
 20
82.3477335274
 10
148.1791379795
 20
82.3529717629
 10
148.1865637095
 20
82.3585374842
 10
148.1923251014
 20
82.3631348023
  0
LWPOLYLINE
  5
278
100
AcDbEntity
  8
RACCORDO
100
AcDbPolyline
 62
7
  6
CONTINUOUS
 90
26
 70
0
 10
181.923603596
 20
68.7782551973
 10
181.9170222338
 20
68.7808220049
 10
181.9106241266
 20
68.7835369673
 10
181.904419406
 20
68.7863957855
 10
181.8984178973
 20
68.7893939323
 10
181.8926291039
 20
68.7925266602
 10
181.8870621925
 20
68.7957890084
 10
181.8817259785
 20
68.7991758109
 10
181.8766289118
 20
68.8026817047
 10
181.8717790638
 20
68.806301138
 10
181.8671841142
 20
68.8100283796
 10
181.8628513393
 20
68.8138575271
 10
181.8587876001
 20
68.8177825171
 10
181.8549993315
 20
68.8217971343
 10
181.8514925325
 20
68.8258950214
 10
181.848272756
 20
68.8300696894
 10
181.8453451007
 20
68.8343145276
 10
181.8427142026
 20
68.8386228142
 10
181.8403842277
 20
68.842987727
 10
181.8383588656
 20
68.8474023539
 10
181.8366413235
 20
68.8518597045
 10
181.8352343211
 20
68.8563527204
 10
181.8341400865
 20
68.8608742867
 10
181.8333603524
 20
68.8654172436
 10
181.8328963535
 20
68.8699743971
 10
181.8327486397
 20
68.8743791859
  0
LWPOLYLINE
  5
279
100
AcDbEntity
  8
RACCORDO
100
AcDbPolyline
 62
7
  6
CONTINUOUS
 90
19
 70
0
 10
109.0496345659
 20
100.2044211845
 10
112.539078873
 20
98.817474602
 10
116.177192226
 20
97.3684843802
 10
119.963974625
 20
95.8574505191
 10
123.8993918523
 20
94.2840087479
 10
127.9834781257
 20
92.6485233375
 10
132.2163360981
 20
90.9520870997
 10
136.6454584861
 20
89.1759477621
 10
141.2233525732
 20
87.3388575972
 10
145.8076428636
 20
85.4981662346
 10
150.4047030434
 20
83.6514274666
 10
155.0081594266
 20
81.8010875009
 10
159.4565154586
 20
80.01183459
 10
163.6959077136
 20
78.3056200345
 10
167.7801996176
 20
76.6604925339
 10
171.7094848934
 20
75.075286439
 10
175.4837947821
 20
73.5496132001
 10
179.1030980428
 20
72.0838613671
 10
181.8327486397
 20
70.9761542992
  0
LINE
  5
27A
100
AcDbEntity
  8
0
100
AcDbLine
 62
7
  6
CONTINUOUS
 10
141.8660228079
 20
83.3858052984
 11
141.5495850168
 21
83.5125006529
  0
LINE
  5
27B
100
AcDbEntity
  8
0
100
AcDbLine
 62
7
  6
CONTINUOUS
 10
141.9144569652
 20
83.4552234373
 11
141.6224138948
 21
83.5721585772
  0
LWPOLYLINE
  5
27C
100
AcDbEntity
  8
RACCORDO
100
AcDbPolyline
 62
7
  6
CONTINUOUS
 90
6
 70
0
 10
163.5005395786
 20
77.9835559273
 10
167.5898075214
 20
76.3449338759
 10
171.5248797004
 20
74.767917445
 10
175.3061420177
 20
73.2530543704
 10
178.9338507618
 20
71.8024951359
 10
181.8327486397
 20
70.6471350365
  0
LINE
  5
27D
100
AcDbEntity
  8
0
100
AcDbLine
 62
7
  6
CONTINUOUS
 10
142.9801482639
 20
82.9393831213
 11
142.6500832713
 21
83.0716942478
  0
LINE
  5
27E
100
AcDbEntity
  8
0
100
AcDbLine
 62
7
  6
CONTINUOUS
 10
143.0092955021
 20
83.0165215163
 11
142.7228896687
 21
83.1313337571
  0
LINE
  5
27F
100
AcDbEntity
  8
0
100
AcDbLine
 62
7
  6
CONTINUOUS
 10
143.5989156219
 20
82.6912141545
 11
143.2689233051
 21
82.8235848136
  0
LINE
  5
280
100
AcDbEntity
  8
0
100
AcDbLine
 62
7
  6
CONTINUOUS
 10
143.6280598464
 20
82.7683570764
 11
143.3417213828
 21
82.8832175078
  0
LINE
  5
281
100
AcDbEntity
  8
0
100
AcDbLine
 62
7
  6
CONTINUOUS
 10
141.8253377183
 20
85.8750627964
 11
142.1553255356
 21
85.7426884516
  0
LINE
  5
282
100
AcDbEntity
  8
RACCORDO
100
AcDbLine
 62
7
  6
CONTINUOUS
 10
159.2188723325
 20
79.7004753862
 11
163.5005395786
 21
77.9835559273
  0
LINE
  5
283
100
AcDbEntity
  8
0
100
AcDbLine
 62
7
  6
CONTINUOUS
 10
144.2450386296
 20
82.4318965801
 11
143.91512198
 21
82.5643292222
  0
LINE
  5
284
100
AcDbEntity
  8
0
100
AcDbLine
 62
7
  6
CONTINUOUS
 10
144.2915188874
 20
82.5020870068
 11
143.9879146738
 21
82.6239575061
  0
LINE
  5
285
100
AcDbEntity
  8
0
100
AcDbLine
 62
7
  6
CONTINUOUS
 10
142.8840039034
 20
85.4503251342
 11
143.2139513301
 21
85.3179177033
  0
LINE
  5
286
100
AcDbEntity
  8
0
100
AcDbLine
 62
7
  6
CONTINUOUS
 10
143.4614037013
 20
85.218605414
 11
143.7913292942
 21
85.0861800979
  0
LWPOLYLINE
  5
287
100
AcDbEntity
  8
RACCORDO
100
AcDbPolyline
 62
7
  6
CONTINUOUS
 90
3
 70
0
 10
150.1969382595
 20
83.3212619921
 10
154.8041651846
 20
81.4720072985
 10
159.2188723325
 20
79.7004753862
  0
LINE
  5
288
100
AcDbEntity
  8
0
100
AcDbLine
 62
7
  6
CONTINUOUS
 10
144.0800039906
 20
84.9702995926
 11
144.5885982071
 21
84.7661102528
  0
LINE
  5
289
100
AcDbEntity
  8
0
100
AcDbLine
 62
7
  6
CONTINUOUS
 10
145.2071190935
 20
84.5177393883
 11
145.7019045067
 21
84.319017061
  0
LINE
  5
28A
100
AcDbEntity
  8
RACCORDO
100
AcDbLine
 62
7
  6
CONTINUOUS
 10
145.5966738659
 20
85.1684659671
 11
150.1969382595
 21
83.3212619921
  0
LINE
  5
28B
100
AcDbEntity
  8
RACCORDO
100
AcDbLine
 62
7
  6
CONTINUOUS
 10
181.8327486397
 20
72.0228590535
 11
109.9205291676
 21
100.9044276166
  0
LINE
  5
28C
100
AcDbEntity
  8
SUPERFICI
100
AcDbLine
 62
7
  6
CONTINUOUS
 10
178.3245806666
 20
73.5486344337
 11
173.819244423
 21
75.3580790396
  0
LINE
  5
28D
100
AcDbEntity
  8
SUPERFICI
100
AcDbLine
 62
7
  6
CONTINUOUS
 10
123.0318176771
 20
95.7554545965
 11
118.5264814335
 21
97.5648992023
  0
LINE
  5
28E
100
AcDbEntity
  8
SUPERFICI
100
AcDbLine
 62
7
  6
CONTINUOUS
 10
178.4392959539
 20
73.6426036958
 11
173.9339597103
 21
75.4520483017
  0
LINE
  5
28F
100
AcDbEntity
  8
SUPERFICI
100
AcDbLine
 62
7
  6
CONTINUOUS
 10
123.1465329644
 20
95.8494238586
 11
118.6411967208
 21
97.6588684644
  0
LINE
  5
290
100
AcDbEntity
  8
SUPERFICI
100
AcDbLine
 62
7
  6
CONTINUOUS
 10
178.6113688848
 20
73.7835575889
 11
174.1060326412
 21
75.5930021948
  0
LINE
  5
291
100
AcDbEntity
  8
SUPERFICI
100
AcDbLine
 62
7
  6
CONTINUOUS
 10
123.3186058953
 20
95.9903777517
 11
118.8132696517
 21
97.7998223575
  0
LINE
  5
292
100
AcDbEntity
  8
SUPERFICI
100
AcDbLine
 62
7
  6
CONTINUOUS
 10
178.7260841721
 20
73.877526851
 11
174.2207479285
 21
75.6869714569
  0
LINE
  5
293
100
AcDbEntity
  8
SUPERFICI
100
AcDbLine
 62
7
  6
CONTINUOUS
 10
123.4333211826
 20
96.0843470138
 11
118.927984939
 21
97.8937916196
  0
LINE
  5
294
100
AcDbEntity
  8
SUPERFICI
100
AcDbLine
 62
7
  6
CONTINUOUS
 10
178.898157103
 20
74.0184807441
 11
174.3928208594
 21
75.82792535
  0
LINE
  5
295
100
AcDbEntity
  8
SUPERFICI
100
AcDbLine
 62
7
  6
CONTINUOUS
 10
123.6053941135
 20
96.2253009069
 11
119.1000578699
 21
98.0347455127
  0
LINE
  5
296
100
AcDbEntity
  8
SUPERFICI
100
AcDbLine
 62
7
  6
CONTINUOUS
 10
179.0128723902
 20
74.1124500062
 11
174.5075361467
 21
75.9218946121
  0
LINE
  5
297
100
AcDbEntity
  8
SUPERFICI
100
AcDbLine
 62
7
  6
CONTINUOUS
 10
123.7201094007
 20
96.319270169
 11
119.2147731572
 21
98.1287147748
  0
LINE
  5
298
100
AcDbEntity
  8
SUPERFICI
100
AcDbLine
 62
7
  6
CONTINUOUS
 10
179.1849453212
 20
74.2534038993
 11
174.6796090776
 21
76.0628485052
  0
LINE
  5
299
100
AcDbEntity
  8
SUPERFICI
100
AcDbLine
 62
7
  6
CONTINUOUS
 10
123.8921823316
 20
96.4602240621
 11
119.3868460881
 21
98.2696686679
  0
LINE
  5
29A
100
AcDbEntity
  8
SUPERFICI
100
AcDbLine
 62
7
  6
CONTINUOUS
 10
179.2996606084
 20
74.3473731614
 11
174.7943243648
 21
76.1568177673
  0
LINE
  5
29B
100
AcDbEntity
  8
SUPERFICI
100
AcDbLine
 62
7
  6
CONTINUOUS
 10
124.0068976189
 20
96.5541933242
 11
119.5015613753
 21
98.36363793
  0
LINE
  5
29C
100
AcDbEntity
  8
SUPERFICI
100
AcDbLine
 62
7
  6
CONTINUOUS
 10
179.4717335393
 20
74.4883270545
 11
174.9663972957
 21
76.2977716604
  0
LINE
  5
29D
100
AcDbEntity
  8
SUPERFICI
100
AcDbLine
 62
7
  6
CONTINUOUS
 10
124.1789705498
 20
96.6951472173
 11
119.6736343062
 21
98.5045918231
  0
LINE
  5
29E
100
AcDbEntity
  8
SUPERFICI
100
AcDbLine
 62
7
  6
CONTINUOUS
 10
138.0919330565
 20
91.1476724415
 11
143.024017298
 21
89.1668362189
  0
LINE
  5
29F
100
AcDbEntity
  8
SUPERFICI
100
AcDbLine
 62
7
  6
CONTINUOUS
 10
156.522854053
 20
83.7453990539
 11
161.4549382945
 21
81.7645628313
  0
LINE
  5
2A0
100
AcDbEntity
  8
SUPERFICI
100
AcDbLine
 62
7
  6
CONTINUOUS
 10
138.2065009255
 20
91.153356316
 11
143.0585247443
 21
89.2046741641
  0
LINE
  5
2A1
100
AcDbEntity
  8
SUPERFICI
100
AcDbLine
 62
7
  6
CONTINUOUS
 10
156.637421922
 20
83.7510829284
 11
161.4894457408
 21
81.8024007765
  0
LINE
  5
2A2
100
AcDbEntity
  8
SUPERFICI
100
AcDbLine
 62
7
  6
CONTINUOUS
 10
119.66101206
 20
98.6318610335
 11
119.7737345482
 21
98.586589141
  0
LINE
  5
2A3
100
AcDbEntity
  8
SUPERFICI
100
AcDbLine
 62
7
  6
CONTINUOUS
 10
124.3797223025
 20
96.7367206193
 11
124.5930963015
 21
96.6510248109
  0
LINE
  5
2A4
100
AcDbEntity
  8
SUPERFICI
100
AcDbLine
 62
7
  6
CONTINUOUS
 10
174.9537750495
 20
76.4250408708
 11
175.0664975377
 21
76.3797689782
  0
LINE
  5
2A5
100
AcDbEntity
  8
SUPERFICI
100
AcDbLine
 62
7
  6
CONTINUOUS
 10
179.6724852921
 20
74.5299004565
 11
179.885859291
 21
74.4442046481
  0
LINE
  5
2A6
100
AcDbEntity
  8
SUPERFICI
100
AcDbLine
 62
7
  6
CONTINUOUS
 10
179.5864488266
 20
74.5822963166
 11
175.081112583
 21
76.3917409225
  0
LINE
  5
2A7
100
AcDbEntity
  8
SUPERFICI
100
AcDbLine
 62
7
  6
CONTINUOUS
 10
124.2936858371
 20
96.7891164794
 11
119.7883495935
 21
98.5985610852
  0
LINE
  5
2A8
100
AcDbEntity
  8
SUPERFICI
100
AcDbLine
 62
7
  6
CONTINUOUS
 10
119.7755790723
 20
98.6375452521
 11
124.6276046045
 21
96.688862412
  0
LINE
  5
2A9
100
AcDbEntity
  8
SUPERFICI
100
AcDbLine
 62
7
  6
CONTINUOUS
 10
175.0683420618
 20
76.4307250894
 11
179.920367594
 21
74.4820422493
  0
LINE
  5
2AA
100
AcDbEntity
  8
0
100
AcDbLine
 62
7
  6
CONTINUOUS
 10
144.8910136289
 20
82.1724577634
 11
144.5611725414
 21
82.3049523023
  0
LINE
  5
2AB
100
AcDbEntity
  8
0
100
AcDbLine
 62
7
  6
CONTINUOUS
 10
144.9201619465
 20
82.2496180742
 11
144.6339632218
 21
82.3645789369
  0
LINE
  5
2AC
100
AcDbEntity
  8
0
100
AcDbLine
 62
7
  6
CONTINUOUS
 10
146.4852578325
 20
84.0043267572
 11
146.8150699076
 21
83.8718084528
  0
LINE
  5
2AD
100
AcDbEntity
  8
0
100
AcDbLine
 62
7
  6
CONTINUOUS
 10
145.4818823855
 20
81.9349926463
 11
145.1521104562
 21
82.0675438362
  0
LINE
  5
2AE
100
AcDbEntity
  8
0
100
AcDbLine
 62
7
  6
CONTINUOUS
 10
145.5289269085
 20
82.0049729379
 11
145.2249022477
 21
82.127171381
  0
LINE
  5
2AF
100
AcDbEntity
  8
0
100
AcDbLine
 62
7
  6
CONTINUOUS
 10
145.9946622296
 20
82.6638992717
 11
146.3106711356
 21
82.536852596
  0
LINE
  5
2B0
100
AcDbEntity
  8
0
100
AcDbLine
 62
7
  6
CONTINUOUS
 10
147.6120644283
 20
83.5515138387
 11
148.381507105
 21
83.2422071201
  0
LINE
  5
2B1
100
AcDbEntity
  8
RACCORDO
100
AcDbLine
 62
7
  6
CONTINUOUS
 10
131.9993217404
 20
90.6324848717
 11
136.4297188243
 21
88.8516432923
  0
LINE
  5
2B2
100
AcDbEntity
  8
RACCORDO
100
AcDbLine
 62
7
  6
CONTINUOUS
 10
136.4297188243
 20
88.8516432923
 11
140.9258267945
 21
87.044818924
  0
LINE
  5
2B3
100
AcDbEntity
  8
RACCORDO
100
AcDbLine
 62
7
  6
CONTINUOUS
 10
140.9258267945
 20
87.044818924
 11
145.5966738659
 21
85.1684659671
  0
LINE
  5
2B4
100
AcDbEntity
  8
0
100
AcDbLine
 62
7
  6
CONTINUOUS
 10
146.2568797577
 20
82.1012979378
 11
145.7348068099
 21
82.3112246703
  0
LINE
  5
2B5
100
AcDbEntity
  8
0
100
AcDbLine
 62
7
  6
CONTINUOUS
 10
146.3296792295
 20
82.1609317739
 11
145.8076011371
 21
82.3708542923
  0
LINE
  5
2B6
100
AcDbEntity
  8
0
100
AcDbLine
 62
7
  6
CONTINUOUS
 10
148.1901819977
 20
82.861776651
 11
147.7780380719
 21
83.0275237862
  0
LINE
  5
2B7
100
AcDbEntity
  8
0
100
AcDbLine
 62
7
  6
CONTINUOUS
 10
148.2630069473
 20
82.9214313573
 11
147.8508539293
 21
83.0871710446
  0
LINE
  5
2B8
100
AcDbEntity
  8
RACCORDO
100
AcDbLine
 62
7
  6
CONTINUOUS
 10
127.7660818057
 20
92.335323632
 11
131.9993217404
 21
90.6324848717
  0
LINE
  5
2B9
100
AcDbEntity
  8
0
100
AcDbLine
 62
7
  6
CONTINUOUS
 10
146.5396393898
 20
81.5095102256
 11
146.2099917138
 21
81.642163198
  0
LINE
  5
2BA
100
AcDbEntity
  8
0
100
AcDbLine
 62
7
  6
CONTINUOUS
 10
146.549551752
 20
81.5944602134
 11
146.2827925712
 21
81.7017981691
  0
LINE
  5
2BB
100
AcDbEntity
  8
0
100
AcDbLine
 62
7
  6
CONTINUOUS
 10
147.5734166805
 20
82.4862145515
 11
147.9854911127
 21
82.3204104904
  0
LINE
  5
2BC
100
AcDbEntity
  8
0
100
AcDbLine
 62
7
  6
CONTINUOUS
 10
147.1593496715
 20
81.3489769424
 11
146.8733927708
 21
81.464113063
  0
LINE
  5
2BD
100
AcDbEntity
  8
0
100
AcDbLine
 62
7
  6
CONTINUOUS
 10
147.7255160404
 20
81.9676378741
 11
147.4370958779
 21
82.0837268814
  0
LINE
  5
2BE
100
AcDbEntity
  8
0
100
AcDbLine
 62
7
  6
CONTINUOUS
 10
147.7983384477
 20
82.027290498
 11
147.5099120374
 21
82.1433743874
  0
LINE
  5
2BF
100
AcDbEntity
  8
0
100
AcDbLine
 62
7
  6
CONTINUOUS
 10
147.1301607399
 20
81.2717605298
 11
146.800582873
 21
81.4044706864
  0
LINE
  5
2C0
100
AcDbEntity
  8
0
100
AcDbLine
 62
7
  6
CONTINUOUS
 10
148.1160535926
 20
80.9635186827
 11
147.8208440342
 21
81.0825016493
  0
LINE
  5
2C1
100
AcDbEntity
  8
0
100
AcDbLine
 62
7
  6
CONTINUOUS
 10
148.1186588106
 20
80.8734371252
 11
147.7480136036
 21
81.0228424531
  0
LWPOLYLINE
  5
2C2
100
AcDbEntity
  8
RACCORDO
100
AcDbPolyline
 62
7
  6
CONTINUOUS
 90
5
 70
0
 10
108.8519548397
 20
99.9596352115
 10
112.3333238809
 20
98.5507448718
 10
115.9658243053
 20
97.0854459575
 10
119.7490420232
 20
95.562260793
 10
127.7660818057
 20
92.335323632
  0
LWPOLYLINE
  5
2C3
100
AcDbEntity
  8
RACCORDO
100
AcDbPolyline
 62
7
  6
CONTINUOUS
 90
40
 70
0
 10
107.5999866822
 20
98.6282953366
 10
107.6064428519
 20
98.6256259775
 10
107.6130790675
 20
98.6231060621
 10
107.6198848202
 20
98.6207395808
 10
107.6268493332
 20
98.618530281
 10
107.633961578
 20
98.6164816611
 10
107.6412102921
 20
98.6145969651
 10
107.6485839971
 20
98.6128791776
 10
107.6560710166
 20
98.6113310186
 10
107.6636594948
 20
98.6099549397
 10
107.6713374151
 20
98.60875312
 10
107.6790926194
 20
98.6077274625
 10
107.6869128272
 20
98.6068795914
 10
107.6947856551
 20
98.6062108494
 10
107.7026986362
 20
98.6057222953
 10
107.7106392402
 20
98.6054147029
 10
107.718594893
 20
98.6052885591
 10
107.7265529967
 20
98.6053440638
 10
107.7345009495
 20
98.6055811291
 10
107.7424261656
 20
98.6059993795
 10
107.7503160953
 20
98.6065981528
 10
107.7581582447
 20
98.6073765008
 10
107.7659401957
 20
98.6083331909
 10
107.7736496253
 20
98.6094667082
 10
107.7812743256
 20
98.6107752579
 10
107.7888022226
 20
98.6122567676
 10
107.7962213958
 20
98.6139088916
 10
107.8035200969
 20
98.6157290135
 10
107.8106867681
 20
98.6177142512
 10
107.8177100608
 20
98.619861461
 10
107.8245788537
 20
98.6221672428
 10
107.8312822698
 20
98.6246279454
 10
107.8378096941
 20
98.6272396721
 10
107.8441507903
 20
98.6299982872
 10
107.8502955172
 20
98.6328994224
 10
107.8562341444
 20
98.6359384838
 10
107.8619572681
 20
98.6391106589
 10
107.8674558255
 20
98.6424109244
 10
107.8727211097
 20
98.6458340544
 10
107.8777447828
 20
98.6493746283
  0
LWPOLYLINE
  5
2C4
100
AcDbEntity
  8
0
100
AcDbPolyline
 62
7
  6
CONTINUOUS
 90
73
 70
0
 10
148.3815071026
 20
83.2422071211
 10
148.3941758601
 20
83.2368724086
 10
148.4067545783
 20
83.2310475398
 10
148.4192432693
 20
83.2247325509
 10
148.4316634587
 20
83.2179223249
 10
148.4439936462
 20
83.2106220537
 10
148.4561693058
 20
83.202847236
 10
148.4681863959
 20
83.194596122
 10
148.4800489836
 20
83.1858705366
 10
148.4917047049
 20
83.1766913373
 10
148.5031491536
 20
83.1670595923
 10
148.5143867604
 20
83.1569743051
 10
148.5253784151
 20
83.1464532312
 10
148.5361194141
 20
83.1355016227
 10
148.5466144838
 20
83.1241142943
 10
148.5568386593
 20
83.1122933427
 10
148.5667983637
 20
83.1000312221
 10
148.5764871957
 20
83.0873355431
 10
148.585860952
 20
83.0742311312
 10
148.5949180841
 20
83.0607172977
 10
148.6036601588
 20
83.0467947852
 10
148.6120476423
 20
83.0324905582
 10
148.6200743301
 20
83.0178107082
 10
148.6277464406
 20
83.002749184
 10
148.6350430716
 20
82.9873147292
 10
148.6419626363
 20
82.971511485
 10
148.6485067323
 20
82.9553353413
 10
148.6546592327
 20
82.9387826595
 10
148.6604264889
 20
82.9218358122
 10
148.6658021582
 20
82.9045124517
 10
148.6707510694
 20
82.8868618502
 10
148.6752707163
 20
82.8688822657
 10
148.6793636061
 20
82.8505754418
 10
148.683002083
 20
82.8319958621
 10
148.6861824117
 20
82.8131506077
 10
148.6889083207
 20
82.7940325752
 10
148.6911633456
 20
82.7746749582
 10
148.6929466402
 20
82.7550828533
 10
148.6942590381
 20
82.7352511236
 10
148.695086592
 20
82.7151976034
 10
148.69543053
 20
82.6949001593
 10
148.695289607
 20
82.6743808708
 10
148.6946461613
 20
82.653723877
 10
148.6934980479
 20
82.6329284267
 10
148.6918473857
 20
82.6119951894
 10
148.6896829021
 20
82.5910104164
 10
148.6870042646
 20
82.5699832237
 10
148.6838117717
 20
82.5489043904
 10
148.6800950936
 20
82.5278326469
 10
148.6758491806
 20
82.5067726983
 10
148.671079043
 20
82.4857197189
 10
148.6657894386
 20
82.4647181339
 10
148.6599704665
 20
82.4437498125
 10
148.6536319856
 20
82.422832758
 10
148.6468083917
 20
82.4020655924
 10
148.6394972152
 20
82.3814489599
 10
148.6317008827
 20
82.3609820863
 10
148.6234611343
 20
82.3407614668
 10
148.6147837355
 20
82.3208015238
 10
148.6056628797
 20
82.3010877114
 10
148.5961229492
 20
82.2816730745
 10
148.5861656454
 20
82.2625613628
 10
148.5757892288
 20
82.2437487136
 10
148.5650129218
 20
82.2252767576
 10
148.5538239067
 20
82.2071350822
 10
148.5422349669
 20
82.189333999
 10
148.5303037294
 20
82.1719462347
 10
148.518027258
 20
82.154974937
 10
148.5054084621
 20
82.1384168814
 10
148.4925137432
 20
82.1223352522
 10
148.4793544892
 20
82.1067452737
 10
148.4659192947
 20
82.091631674
 10
148.4522403744
 20
82.077011907
  0
LWPOLYLINE
  5
2C5
100
AcDbEntity
  8
RACCORDO
100
AcDbPolyline
 62
7
  6
CONTINUOUS
 90
25
 70
0
 10
106.4911709045
 20
98.4333908583
 10
106.4850424852
 20
98.4361470853
 10
106.4791057896
 20
98.4390380708
 10
106.473369819
 20
98.4420594316
 10
106.4678432705
 20
98.4452065864
 10
106.4625345236
 20
98.4484747637
 10
106.4574516274
 20
98.4518590081
 10
106.4526022889
 20
98.4553541883
 10
106.4479938606
 20
98.458955005
 10
106.4436333299
 20
98.4626559984
 10
106.4395273085
 20
98.4664515572
 10
106.435682022
 20
98.4703359263
 10
106.4321033006
 20
98.4743032163
 10
106.4287965706
 20
98.4783474118
 10
106.4257668457
 20
98.4824623809
 10
106.4230187196
 20
98.4866418845
 10
106.4205563591
 20
98.4908795856
 10
106.4183834978
 20
98.4951690588
 10
106.4165034301
 20
98.4995038003
 10
106.4149190067
 20
98.5038772378
 10
106.41363263
 20
98.5082827401
 10
106.4126462504
 20
98.5127136275
 10
106.4119613634
 20
98.5171631818
 10
106.4115790076
 20
98.5216246565
 10
106.4114911234
 20
98.5250250479
  0
LINE
  5
2C6
100
AcDbEntity
  8
RACCORDO
100
AcDbLine
 62
7
  6
CONTINUOUS
 10
108.8519546592
 20
99.9596353399
 11
108.8455849391
 21
99.962543079
  0
LINE
  5
2C7
100
AcDbEntity
  8
RACCORDO
100
AcDbLine
 62
7
  6
CONTINUOUS
 10
108.8455849391
 20
99.962543079
 11
108.8325301962
 21
99.9686062754
  0
LWPOLYLINE
  5
2C8
100
AcDbEntity
  8
RACCORDO
100
AcDbPolyline
 62
7
  6
CONTINUOUS
 90
40
 70
0
 10
109.049634566
 20
100.2044211845
 10
109.0432940968
 20
100.2074057682
 10
109.0369541719
 20
100.2106420228
 10
109.0306250387
 20
100.2141247175
 10
109.0243169275
 20
100.217848223
 10
109.0180400343
 20
100.2218065208
 10
109.0118045048
 20
100.2259932129
 10
109.0056204177
 20
100.2304015322
 10
108.9994977686
 20
100.2350243533
 10
108.9934464541
 20
100.2398542041
 10
108.987476255
 20
100.2448832778
 10
108.9815968213
 20
100.2501034457
 10
108.9758176562
 20
100.2555062703
 10
108.9701481009
 20
100.2610830186
 10
108.9645973193
 20
100.2668246767
 10
108.9591742835
 20
100.272721964
 10
108.953887759
 20
100.2787653486
 10
108.9487462906
 20
100.2849450621
 10
108.9437581887
 20
100.291251116
 10
108.9389315159
 20
100.2976733175
 10
108.9342740738
 20
100.304201286
 10
108.9297933903
 20
100.3108244702
 10
108.925496708
 20
100.3175321646
 10
108.9213909716
 20
100.3243135273
 10
108.9174828175
 20
100.3311575971
 10
108.9137785627
 20
100.3380533117
 10
108.9102841945
 20
100.3449895253
 10
108.907005361
 20
100.3519550264
 10
108.9039473619
 20
100.3589385564
 10
108.9011151402
 20
100.3659288274
 10
108.8985132735
 20
100.3729145408
 10
108.8961459676
 20
100.3798844051
 10
108.8940170486
 20
100.3868271548
 10
108.8921299578
 20
100.3937315677
 10
108.8904877453
 20
100.4005864841
 10
108.8890930655
 20
100.4073808239
 10
108.8879481727
 20
100.4141036051
 10
108.8870549174
 20
100.4207439614
 10
108.8864147435
 20
100.4272911597
 10
108.8860286857
 20
100.4337346173
  0
LINE
  5
2C9
100
AcDbEntity
  8
RACCORDO
100
AcDbLine
 62
7
  6
CONTINUOUS
 10
108.8325301962
 20
99.9686062754
 11
108.8191223967
 21
99.9749683974
  0
LINE
  5
2CA
100
AcDbEntity
  8
RACCORDO
100
AcDbLine
 62
7
  6
CONTINUOUS
 10
108.8191223967
 20
99.9749683974
 11
108.8054442183
 21
99.9815902136
  0
LINE
  5
2CB
100
AcDbEntity
  8
RACCORDO
100
AcDbLine
 62
7
  6
CONTINUOUS
 10
108.8054442183
 20
99.9815902136
 11
108.7915800056
 21
99.9884308915
  0
LWPOLYLINE
  5
2CC
100
AcDbEntity
  8
RACCORDO
100
AcDbPolyline
 62
7
  6
CONTINUOUS
 90
13
 70
0
 10
107.0777795389
 20
97.1487971037
 10
113.2259525503
 20
94.0902282486
 10
119.4020283842
 20
91.127525905
 10
125.6058304696
 20
88.260792886
 10
131.8378041492
 20
85.4898655432
 10
138.0971524412
 20
82.8151157339
 10
144.3818106933
 20
80.237430424
 10
150.6915708298
 20
77.7569127056
 10
157.0262324295
 20
75.3736234246
 10
163.3836961717
 20
73.0883483758
 10
169.7631003629
 20
70.9013821529
 10
176.1648455173
 20
68.812548647
 10
182.5887028851
 20
66.821907934
  0
LWPOLYLINE
  5
2CD
100
AcDbEntity
  8
RACCORDO
100
AcDbPolyline
 62
7
  6
CONTINUOUS
 90
12
 70
0
 10
107.1438730225
 20
97.2739295821
 10
113.2894836456
 20
94.2164542992
 10
119.464444295
 20
91.2542581772
 10
125.6678239401
 20
88.3877529999
 10
131.8985566324
 20
85.6173770893
 10
138.1558456482
 20
82.9434790435
 10
144.4391638902
 20
80.3663320454
 10
150.7476071391
 20
77.8863431225
 10
157.0802173027
 20
75.5038528831
 10
163.4363864688
 20
73.2190444312
 10
169.8152909634
 20
71.0322205158
 10
176.2158917619
 20
68.9437883494
  0
LWPOLYLINE
  5
2CE
100
AcDbEntity
  8
RACCORDO
100
AcDbPolyline
 62
7
  6
CONTINUOUS
 90
43
 70
0
 10
107.1144799318
 20
97.4372818453
 10
108.853643042
 20
96.5622237589
 10
110.6080061687
 20
95.6883944057
 10
112.3646931576
 20
94.8223047133
 10
114.1236650947
 20
93.963973522
 10
115.8849087113
 20
93.1134065009
 10
117.6484345603
 20
92.270598076
 10
119.4142184569
 20
91.4355595741
 10
121.1822350836
 20
90.6083023492
 10
122.9524935995
 20
89.7888217612
 10
124.7249691207
 20
88.9771292207
 10
126.4996358216
 20
88.173236027
 10
128.2765017359
 20
87.3771382523
 10
130.0555414631
 20
86.588847223
 10
131.836729516
 20
85.8083737753
 10
133.6200740685
 20
85.0357141172
 10
135.4055495061
 20
84.2708793747
 10
137.1931301055
 20
83.5138801892
 10
138.9828241356
 20
82.7647129263
 10
140.7746058487
 20
82.0233884729
 10
142.5684492855
 20
81.2899172768
 10
144.3643626435
 20
80.564295937
 10
146.1623199728
 20
79.8465351321
 10
147.9622951285
 20
79.1366450941
 10
149.7642962486
 20
78.4346226499
 10
151.568297196
 20
77.7404782632
 10
153.3742716411
 20
77.0542219508
 10
155.1822276529
 20
76.3758507729
 10
156.9921389534
 20
75.7053749617
 10
158.8039789627
 20
75.042804342
 10
160.6177555028
 20
74.3881362697
 10
162.4334421517
 20
73.7413807455
 10
164.2510121647
 20
73.1025473743
 10
166.0704730704
 20
72.4716338227
 10
167.8917977124
 20
71.8486500593
 10
169.7149594803
 20
71.2336053439
 10
171.5399669013
 20
70.6264972027
 10
173.366792957
 20
70.0273352899
 10
175.1954113974
 20
69.4361285237
 10
177.025832073
 20
68.8528742731
 10
178.8580401813
 20
68.2775781337
 10
180.6919937511
 20
67.7102537408
 10
182.515299522
 20
67.1546495001
  0
LWPOLYLINE
  5
2CF
100
AcDbEntity
  8
RACCORDO
100
AcDbPolyline
 62
7
  6
CONTINUOUS
 90
43
 70
0
 10
107.0844996569
 20
97.5240881877
 10
108.8354350826
 20
96.6431582003
 10
110.5886870953
 20
95.7699601682
 10
112.3442517584
 20
94.9044965909
 10
114.1021385933
 20
94.0467642821
 10
115.8623302124
 20
93.1967714434
 10
117.624782158
 20
92.3545375392
 10
119.389487024
 20
91.5200665296
 10
121.1564439695
 20
90.693359194
 10
122.9256181171
 20
89.8744300221
 10
124.6970020707
 20
89.0632826302
 10
126.4705947152
 20
88.2599179496
 10
128.2463703985
 20
87.4643462921
 10
130.0243336766
 20
86.6765659267
 10
131.8044713167
 20
85.8965830134
 10
133.5867307295
 20
85.1244195003
 10
135.3710925185
 20
84.3600837226
 10
137.1575669714
 20
83.6035714374
 10
138.9461458348
 20
82.8548855747
 10
140.7368379133
 20
82.1140224888
 10
142.5296252961
 20
81.380989925
 10
144.3244594847
 20
80.6558077598
 10
146.1213357411
 20
79.9384780365
 10
147.9202493313
 20
79.229002516
 10
149.7211514551
 20
78.5274003993
 10
151.5240237626
 20
77.8336785045
 10
153.3288747729
 20
77.1478335195
 10
155.1356958213
 20
76.4698693091
 10
156.9444970507
 20
75.7997819111
 10
158.7552584983
 20
75.1375787974
 10
160.5679261578
 20
74.4832808302
 10
162.3824858279
 20
73.8368928668
 10
164.1989414861
 20
73.1984132117
 10
166.0172661549
 20
72.5678526919
 10
167.837457899
 20
71.9452116019
 10
169.6595082922
 20
71.3304926795
 10
171.4833804408
 20
70.7237102599
 10
173.3090724693
 20
70.1248646562
 10
175.1365756678
 20
69.5339583796
 10
176.9658426485
 20
68.9510088483
 10
178.7968539293
 20
68.3760226666
 10
180.6296180851
 20
67.8089957545
 10
182.4641296742
 20
67.2499293787
  0
LINE
  5
2D0
100
AcDbEntity
  8
RACCORDO
100
AcDbLine
 62
7
  6
CONTINUOUS
 10
108.7915800056
 20
99.9884308915
 11
108.7776152508
 21
99.9954482487
  0
LINE
  5
2D1
100
AcDbEntity
  8
RACCORDO
100
AcDbLine
 62
7
  6
CONTINUOUS
 10
108.7776152508
 20
99.9954482487
 11
108.7636360658
 21
100.0025990136
  0
LWPOLYLINE
  5
2D2
100
AcDbEntity
  8
RACCORDO
100
AcDbPolyline
 62
7
  6
CONTINUOUS
 90
52
 70
0
 10
107.8992672627
 20
98.0630600544
 10
107.8924573594
 20
98.0665691097
 10
107.8855760368
 20
98.070337408
 10
107.8786232959
 20
98.0743649501
 10
107.8716002513
 20
98.0786414198
 10
107.8645057906
 20
98.0831771348
 10
107.8573365734
 20
98.0880030467
 10
107.8500875315
 20
98.0931210592
 10
107.8427637355
 20
98.0985292703
 10
107.8353770532
 20
98.1042529236
 10
107.8279250241
 20
98.1102933264
 10
107.8204101106
 20
98.1166491729
 10
107.8128515651
 20
98.1233417857
 10
107.8052466741
 20
98.1303736272
 10
107.7975981524
 20
98.1377422361
 10
107.7899333943
 20
98.1454615491
 10
107.7822503612
 20
98.1535344077
 10
107.7745510921
 20
98.1619579707
 10
107.7668690964
 20
98.1707376499
 10
107.7592028867
 20
98.1798766032
 10
107.7515539499
 20
98.1893716723
 10
107.7439602555
 20
98.1992187937
 10
107.7364225513
 20
98.209418385
 10
107.7289400879
 20
98.2199700272
 10
107.7215485885
 20
98.2308684021
 10
107.7142485878
 20
98.2421132044
 10
107.7070395483
 20
98.2537047372
 10
107.6999555832
 20
98.2656385934
 10
107.6929950536
 20
98.2779178153
 10
107.6861595947
 20
98.2905393579
 10
107.6794882294
 20
98.3034896827
 10
107.6729801387
 20
98.3167709303
 10
107.666636137
 20
98.3303809567
 10
107.6604976964
 20
98.3442997964
 10
107.6545628538
 20
98.3585337541
 10
107.6488335671
 20
98.3730765211
 10
107.6433571889
 20
98.3878892112
 10
107.6381319077
 20
98.4029839623
 10
107.6331595293
 20
98.4183486321
 10
107.6284928316
 20
98.4339079127
 10
107.6241347891
 20
98.4496650391
 10
107.6200824215
 20
98.4656167719
 10
107.6163795736
 20
98.4816780908
 10
107.6130303469
 20
98.4978450345
 10
107.6100306348
 20
98.5141215603
 10
107.6074119698
 20
98.5304345268
 10
107.6051766484
 20
98.5467831038
 10
107.6033223702
 20
98.5631681184
 10
107.6018737717
 20
98.5795189153
 10
107.6008390644
 20
98.595811942
 10
107.6002100347
 20
98.6120707492
 10
107.5999866822
 20
98.6282953366
  0
LINE
  5
2D3
100
AcDbEntity
  8
RACCORDO
100
AcDbLine
 62
7
  6
CONTINUOUS
 10
108.7636360658
 20
100.0025990136
 11
108.7497286516
 21
100.0098390919
  0
LINE
  5
2D4
100
AcDbEntity
  8
RACCORDO
100
AcDbLine
 62
7
  6
CONTINUOUS
 10
108.7497286516
 20
100.0098390919
 11
108.7359787665
 21
100.0171238386
  0
LINE
  5
2D5
100
AcDbEntity
  8
RACCORDO
100
AcDbLine
 62
7
  6
CONTINUOUS
 10
108.7359787665
 20
100.0171238386
 11
108.7224711975
 21
100.024408333
  0
LINE
  5
2D6
100
AcDbEntity
  8
RACCORDO
100
AcDbLine
 62
7
  6
CONTINUOUS
 10
108.7224711975
 20
100.024408333
 11
108.7092892374
 21
100.0316476563
  0
LWPOLYLINE
  5
2D7
100
AcDbEntity
  8
RACCORDO
100
AcDbPolyline
 62
7
  6
CONTINUOUS
 90
18
 70
0
 10
108.7092892374
 20
100.0316476563
 10
108.6965141712
 20
100.0387971681
 10
108.6903039522
 20
100.0423244385
 10
108.6842247748
 20
100.0458127817
 10
108.6782860142
 20
100.0492568181
 10
108.6724968292
 20
100.0526512362
 10
108.6668661477
 20
100.0559908014
 10
108.6614026534
 20
100.0592703632
 10
108.656114772
 20
100.062484864
 10
108.6510106583
 20
100.0656293465
 10
108.646098184
 20
100.0686989613
 10
108.6413849249
 20
100.0716889743
 10
108.6368781499
 20
100.0745947745
 10
108.6325848091
 20
100.0774118806
 10
108.6285115238
 20
100.080135948
 10
108.6246645758
 20
100.0827627758
 10
108.6210498976
 20
100.0852883128
 10
108.617673064
 20
100.0877086643
  0
LINE
  5
2D8
100
AcDbEntity
  8
SUPERFICI
100
AcDbLine
 62
7
  6
CONTINUOUS
 10
123.1465329644
 20
95.8494238586
 11
123.2325694298
 21
95.7970279985
  0
LINE
  5
2D9
100
AcDbEntity
  8
SUPERFICI
100
AcDbLine
 62
7
  6
CONTINUOUS
 10
123.4333211826
 20
96.0843470138
 11
123.519357648
 21
96.0319511537
  0
LINE
  5
2DA
100
AcDbEntity
  8
SUPERFICI
100
AcDbLine
 62
7
  6
CONTINUOUS
 10
123.7201094007
 20
96.319270169
 11
123.8061458662
 21
96.2668743089
  0
LINE
  5
2DB
100
AcDbEntity
  8
SUPERFICI
100
AcDbLine
 62
7
  6
CONTINUOUS
 10
124.0068976189
 20
96.5541933242
 11
124.0929340844
 21
96.5017974641
  0
LINE
  5
2DC
100
AcDbEntity
  8
SUPERFICI
100
AcDbLine
 62
7
  6
CONTINUOUS
 10
124.2936858371
 20
96.7891164794
 11
124.3797223025
 21
96.7367206193
  0
LWPOLYLINE
  5
2DD
100
AcDbEntity
  8
SUPERFICI
100
AcDbPolyline
 62
7
  6
CONTINUOUS
 90
3
 70
0
 10
124.6290410509
 20
96.6872593207
 10
124.6288515712
 20
96.6880604189
 10
124.6281188646
 20
96.6886675681
  0
LINE
  5
2DE
100
AcDbEntity
  8
0
100
AcDbLine
 62
7
  6
CONTINUOUS
 10
124.5930963015
 20
96.6510248109
 11
123.3506671103
 21
95.5105814434
  0
LINE
  5
2DF
100
AcDbEntity
  8
SUPERFICI
100
AcDbLine
 62
7
  6
CONTINUOUS
 10
118.5264814335
 20
97.5648992023
 11
118.6411967208
 21
97.6588684644
  0
LINE
  5
2E0
100
AcDbEntity
  8
SUPERFICI
100
AcDbLine
 62
7
  6
CONTINUOUS
 10
118.8132696517
 20
97.7998223575
 11
118.927984939
 21
97.8937916196
  0
LINE
  5
2E1
100
AcDbEntity
  8
SUPERFICI
100
AcDbLine
 62
7
  6
CONTINUOUS
 10
119.1000578699
 20
98.0347455127
 11
119.2147731572
 21
98.1287147748
  0
LINE
  5
2E2
100
AcDbEntity
  8
SUPERFICI
100
AcDbLine
 62
7
  6
CONTINUOUS
 10
119.3868460881
 20
98.2696686679
 11
119.5015613753
 21
98.36363793
  0
LINE
  5
2E3
100
AcDbEntity
  8
SUPERFICI
100
AcDbLine
 62
7
  6
CONTINUOUS
 10
119.6736343062
 20
98.5045918231
 11
119.7883495935
 21
98.5985610852
  0
LINE
  5
2E4
100
AcDbEntity
  8
0
100
AcDbLine
 62
7
  6
CONTINUOUS
 10
119.66101206
 20
98.6318610335
 11
118.2175548383
 21
97.5721550551
  0
LWPOLYLINE
  5
2E5
100
AcDbEntity
  8
RACCORDO
100
AcDbPolyline
 62
7
  6
CONTINUOUS
 90
10
 70
0
 10
106.3305661333
 20
98.5261736635
 10
106.3190892349
 20
98.5183590392
 10
106.3053763099
 20
98.5118361497
 10
106.2898622749
 20
98.5068122183
 10
106.2730395292
 20
98.5034469688
 10
106.2554417482
 20
98.5018474042
 10
106.237626889
 20
98.5020646015
 10
106.2201604109
 20
98.5040921544
 10
106.2035973713
 20
98.5078661312
 10
106.1884641514
 20
98.513267085
  0
LINE
  5
2E6
100
AcDbEntity
  8
SUPERFICI
100
AcDbLine
 62
7
  6
CONTINUOUS
 10
178.4392959539
 20
73.6426036958
 11
178.5253324194
 21
73.5902078357
  0
LINE
  5
2E7
100
AcDbEntity
  8
SUPERFICI
100
AcDbLine
 62
7
  6
CONTINUOUS
 10
178.7260841721
 20
73.877526851
 11
178.8121206375
 21
73.8251309909
  0
LINE
  5
2E8
100
AcDbEntity
  8
SUPERFICI
100
AcDbLine
 62
7
  6
CONTINUOUS
 10
179.0128723902
 20
74.1124500062
 11
179.0989088557
 21
74.0600541461
  0
LINE
  5
2E9
100
AcDbEntity
  8
SUPERFICI
100
AcDbLine
 62
7
  6
CONTINUOUS
 10
179.2996606084
 20
74.3473731614
 11
179.3856970739
 21
74.2949773013
  0
LINE
  5
2EA
100
AcDbEntity
  8
SUPERFICI
100
AcDbLine
 62
7
  6
CONTINUOUS
 10
179.5864488266
 20
74.5822963166
 11
179.6724852921
 21
74.5299004565
  0
LWPOLYLINE
  5
2EB
100
AcDbEntity
  8
SUPERFICI
100
AcDbPolyline
 62
7
  6
CONTINUOUS
 90
3
 70
0
 10
143.0599620473
 20
89.2030707783
 10
143.0597736987
 20
89.2038698885
 10
143.0590399124
 20
89.204478915
  0
LINE
  5
2EC
100
AcDbEntity
  8
0
100
AcDbLine
 62
7
  6
CONTINUOUS
 10
148.0893177106
 20
81.8835530149
 11
148.1186588106
 21
80.8734371252
  0
LINE
  5
2ED
100
AcDbEntity
  8
0
100
AcDbLine
 62
7
  6
CONTINUOUS
 10
147.7480136036
 20
81.0228424531
 11
147.7255160404
 21
81.9676378741
  0
LINE
  5
2EE
100
AcDbEntity
  8
0
100
AcDbLine
 62
7
  6
CONTINUOUS
 10
147.8208440342
 20
81.0825016493
 11
147.7983384477
 21
82.027290498
  0
LINE
  5
2EF
100
AcDbEntity
  8
SUPERFICI
100
AcDbLine
 62
7
  6
CONTINUOUS
 10
143.0295716764
 20
89.1717101376
 11
143.0295716764
 21
88.7692178772
  0
LINE
  5
2F0
100
AcDbEntity
  8
SUPERFICI
100
AcDbLine
 62
7
  6
CONTINUOUS
 10
143.0599620572
 20
89.2025994053
 11
143.0599620572
 21
88.8012002452
  0
LINE
  5
2F1
100
AcDbEntity
  8
0
100
AcDbLine
 62
7
  6
CONTINUOUS
 10
146.2099917138
 20
81.642163198
 11
146.2568797577
 21
82.1012979378
  0
LINE
  5
2F2
100
AcDbEntity
  8
0
100
AcDbLine
 62
7
  6
CONTINUOUS
 10
146.2827925712
 20
81.7017981691
 11
146.3296792295
 21
82.1609317739
  0
LINE
  5
2F3
100
AcDbEntity
  8
0
100
AcDbLine
 62
7
  6
CONTINUOUS
 10
146.8150699076
 20
83.8718084528
 11
146.5396393898
 21
81.5095102256
  0
LINE
  5
2F4
100
AcDbEntity
  8
0
100
AcDbLine
 62
7
  6
CONTINUOUS
 10
141.5495850168
 20
83.5125006529
 11
141.8253377183
 21
85.8750627964
  0
LINE
  5
2F5
100
AcDbEntity
  8
0
100
AcDbLine
 62
7
  6
CONTINUOUS
 10
141.6224138948
 20
83.5721585772
 11
141.8882584179
 21
85.849823384
  0
LINE
  5
2F6
100
AcDbEntity
  8
0
100
AcDbLine
 62
7
  6
CONTINUOUS
 10
146.3106711356
 20
82.536852596
 11
146.3979828117
 21
83.2706046902
  0
LINE
  5
2F7
100
AcDbEntity
  8
0
100
AcDbLine
 62
7
  6
CONTINUOUS
 10
146.3834694772
 20
82.5964855064
 11
146.4707793979
 21
83.3302361626
  0
LINE
  5
2F8
100
AcDbEntity
  8
0
100
AcDbLine
 62
7
  6
CONTINUOUS
 10
142.1553255356
 20
85.7426884516
 11
141.9465365307
 21
84.1015323939
  0
LINE
  5
2F9
100
AcDbEntity
  8
0
100
AcDbLine
 62
7
  6
CONTINUOUS
 10
143.91512198
 20
82.5643292222
 11
144.1304893202
 21
84.0982561671
  0
LINE
  5
2FA
100
AcDbEntity
  8
0
100
AcDbLine
 62
7
  6
CONTINUOUS
 10
143.9879146738
 20
82.6239575061
 11
144.203284169
 21
84.1578862163
  0
LINE
  5
2FB
100
AcDbEntity
  8
0
100
AcDbLine
 62
7
  6
CONTINUOUS
 10
144.5885982071
 20
84.7661102528
 11
144.3594730759
 21
83.2376921064
  0
LINE
  5
2FC
100
AcDbEntity
  8
SUPERFICI
100
AcDbLine
 62
7
  6
CONTINUOUS
 10
142.3435785766
 20
88.1649527391
 11
142.3521919298
 21
88.1936388941
  0
LWPOLYLINE
  5
2FD
100
AcDbEntity
  8
SUPERFICI
100
AcDbPolyline
 62
7
  6
CONTINUOUS
 90
7
 70
0
 10
123.8655791329
 20
95.4942671019
 10
123.8695643604
 20
95.4976892306
 10
123.8809570695
 20
95.5091043508
 10
123.8909876071
 20
95.5217894414
 10
123.8995731028
 20
95.5356650327
 10
123.9067964272
 20
95.5508105945
 10
123.9126575801
 20
95.5672261267
  0
LWPOLYLINE
  5
2FE
100
AcDbEntity
  8
SUPERFICI
100
AcDbPolyline
 62
7
  6
CONTINUOUS
 90
10
 70
0
 10
124.5986506799
 20
96.6558987296
 10
124.604947043
 20
96.6612883899
 10
124.6106498138
 20
96.6662872448
 10
124.6156971235
 20
96.6708798735
 10
124.6200316234
 20
96.6750660148
 10
124.6235856981
 20
96.6788045636
 10
124.6262918239
 20
96.682011914
 10
124.6281036351
 20
96.6846325683
 10
124.6289691872
 20
96.6866563346
 10
124.6290410509
 20
96.6872593207
  0
LINE
  5
2FF
100
AcDbEntity
  8
0
100
AcDbLine
 62
7
  6
CONTINUOUS
 10
124.5986506799
 20
96.1714912648
 11
123.669941085
 21
95.3823538173
  0
LINE
  5
300
100
AcDbEntity
  8
SUPERFICI
100
AcDbLine
 62
7
  6
CONTINUOUS
 10
123.8656374633
 20
95.4942887142
 11
123.7100658643
 21
95.3662388013
  0
LINE
  5
301
100
AcDbEntity
  8
0
100
AcDbLine
 62
7
  6
CONTINUOUS
 10
123.9126575801
 20
95.5672261267
 11
123.682046503
 21
95.3774920085
  0
LINE
  5
302
100
AcDbEntity
  8
SUPERFICI
100
AcDbLine
 62
7
  6
CONTINUOUS
 10
123.0318176771
 20
95.7554545965
 11
123.1465329644
 21
95.8494238586
  0
LINE
  5
303
100
AcDbEntity
  8
SUPERFICI
100
AcDbLine
 62
7
  6
CONTINUOUS
 10
123.3186058953
 20
95.9903777517
 11
123.4333211826
 21
96.0843470138
  0
LINE
  5
304
100
AcDbEntity
  8
SUPERFICI
100
AcDbLine
 62
7
  6
CONTINUOUS
 10
123.6053941135
 20
96.2253009069
 11
123.7201094007
 21
96.319270169
  0
LINE
  5
305
100
AcDbEntity
  8
SUPERFICI
100
AcDbLine
 62
7
  6
CONTINUOUS
 10
123.8921823316
 20
96.4602240621
 11
124.0068976189
 21
96.5541933242
  0
LINE
  5
306
100
AcDbEntity
  8
SUPERFICI
100
AcDbLine
 62
7
  6
CONTINUOUS
 10
124.1789705498
 20
96.6951472173
 11
124.2936858371
 21
96.7891164794
  0
LINE
  5
307
100
AcDbEntity
  8
SUPERFICI
100
AcDbLine
 62
7
  6
CONTINUOUS
 10
124.3797223025
 20
96.7367206193
 11
123.0367790961
 21
95.6366459464
  0
LINE
  5
308
100
AcDbEntity
  8
SUPERFICI
100
AcDbLine
 62
7
  6
CONTINUOUS
 10
119.6754745671
 20
98.6410756686
 11
119.6674651501
 21
98.6363740094
  0
LINE
  5
309
100
AcDbEntity
  8
0
100
AcDbLine
 62
7
  6
CONTINUOUS
 10
206.9269258369
 20
81.4640601955
 11
207.1960789828
 21
81.3559622242
  0
LINE
  5
30A
100
AcDbEntity
  8
0
100
AcDbLine
 62
7
  6
CONTINUOUS
 10
142.6500832713
 20
83.0716942478
 11
143.4614037013
 21
85.218605414
  0
LINE
  5
30B
100
AcDbEntity
  8
0
100
AcDbLine
 62
7
  6
CONTINUOUS
 10
142.7228896687
 20
83.1313337571
 11
143.5050518867
 21
85.2010867919
  0
LINE
  5
30C
100
AcDbEntity
  8
0
100
AcDbLine
 62
7
  6
CONTINUOUS
 10
143.7913292942
 20
85.0861800979
 11
142.9801482639
 21
82.9393831213
  0
LINE
  5
30D
100
AcDbEntity
  8
0
100
AcDbLine
 62
7
  6
CONTINUOUS
 10
143.2689233051
 20
82.8235848136
 11
144.0800039906
 21
84.9702995926
  0
LINE
  5
30E
100
AcDbEntity
  8
0
100
AcDbLine
 62
7
  6
CONTINUOUS
 10
143.3417213828
 20
82.8832175078
 11
144.1236511181
 21
84.9527776071
  0
LINE
  5
30F
100
AcDbEntity
  8
0
100
AcDbLine
 62
7
  6
CONTINUOUS
 10
144.1304893202
 20
84.0982561671
 11
143.5989156219
 21
82.6912141545
  0
LINE
  5
310
100
AcDbEntity
  8
0
100
AcDbLine
 62
7
  6
CONTINUOUS
 10
144.5611725414
 20
82.3049523023
 11
145.0926724811
 21
83.7119338953
  0
LINE
  5
311
100
AcDbEntity
  8
0
100
AcDbLine
 62
7
  6
CONTINUOUS
 10
144.6339632218
 20
82.3645789369
 11
145.165463105
 21
83.7715604837
  0
LINE
  5
312
100
AcDbEntity
  8
0
100
AcDbLine
 62
7
  6
CONTINUOUS
 10
145.7019045067
 20
84.319017061
 11
144.8910136289
 21
82.1724577634
  0
LINE
  5
313
100
AcDbEntity
  8
0
100
AcDbLine
 62
7
  6
CONTINUOUS
 10
146.800582873
 20
81.4044706864
 11
147.6120644283
 21
83.5515138387
  0
LINE
  5
314
100
AcDbEntity
  8
0
100
AcDbLine
 62
7
  6
CONTINUOUS
 10
146.8733927708
 20
81.464113063
 11
147.6557029388
 21
83.5339737814
  0
LINE
  5
315
100
AcDbEntity
  8
0
100
AcDbLine
 62
7
  6
CONTINUOUS
 10
147.7780380719
 20
83.0275237862
 11
147.5734166805
 21
82.4862145515
  0
LINE
  5
316
100
AcDbEntity
  8
0
100
AcDbLine
 62
7
  6
CONTINUOUS
 10
147.4370958779
 20
82.0837268814
 11
147.1301607399
 21
81.2717605298
  0
LINE
  5
317
100
AcDbEntity
  8
0
100
AcDbLine
 62
7
  6
CONTINUOUS
 10
144.3594730759
 20
83.2376921064
 11
145.2071190935
 21
84.5177393883
  0
LINE
  5
318
100
AcDbEntity
  8
0
100
AcDbLine
 62
7
  6
CONTINUOUS
 10
144.4322649007
 20
83.2973196784
 11
145.2334288416
 21
84.5071733182
  0
LINE
  5
319
100
AcDbEntity
  8
0
100
AcDbLine
 62
7
  6
CONTINUOUS
 10
145.0926724811
 20
83.7119338953
 11
144.2450386296
 21
82.4318965801
  0
LINE
  5
31A
100
AcDbEntity
  8
0
100
AcDbLine
 62
7
  6
CONTINUOUS
 10
146.3979828117
 20
83.2706046902
 11
145.9946622296
 21
82.6638992717
  0
LINE
  5
31B
100
AcDbEntity
  8
0
100
AcDbLine
 62
7
  6
CONTINUOUS
 10
145.7348068099
 20
82.3112246703
 11
145.4818823855
 21
81.9349926463
  0
LINE
  5
31C
100
AcDbEntity
  8
0
100
AcDbLine
 62
7
  6
CONTINUOUS
 10
145.1521104562
 20
82.0675438362
 11
146.4852578325
 21
84.0043267572
  0
LINE
  5
31D
100
AcDbEntity
  8
0
100
AcDbLine
 62
7
  6
CONTINUOUS
 10
145.2249022477
 20
82.127171381
 11
146.5101282542
 21
83.9943343434
  0
LINE
  5
31E
100
AcDbEntity
  8
0
100
AcDbLine
 62
7
  6
CONTINUOUS
 10
141.9465365307
 20
84.1015323939
 11
142.8840039034
 21
85.4503251342
  0
LINE
  5
31F
100
AcDbEntity
  8
0
100
AcDbLine
 62
7
  6
CONTINUOUS
 10
142.0193616956
 20
84.1611872766
 11
142.9085269417
 21
85.4404845786
  0
LINE
  5
320
100
AcDbEntity
  8
0
100
AcDbLine
 62
7
  6
CONTINUOUS
 10
143.2139513301
 20
85.3179177033
 11
141.8660228079
 21
83.3858052984
  0
LINE
  5
321
100
AcDbEntity
  8
0
100
AcDbLine
 62
7
  6
CONTINUOUS
 10
143.024017298
 20
89.1668362189
 11
141.8436668676
 21
88.083375826
  0
LWPOLYLINE
  5
322
100
AcDbEntity
  8
SUPERFICI
100
AcDbPolyline
 62
7
  6
CONTINUOUS
 90
7
 70
0
 10
142.2965001294
 20
88.0919937144
 10
142.3004853569
 20
88.095415843
 10
142.311878066
 20
88.1068309632
 10
142.3219086036
 20
88.1195160538
 10
142.3304940993
 20
88.1333916451
 10
142.3377174237
 20
88.1485372069
 10
142.3435785766
 20
88.1649527391
  0
LWPOLYLINE
  5
323
100
AcDbEntity
  8
SUPERFICI
100
AcDbPolyline
 62
7
  6
CONTINUOUS
 90
10
 70
0
 10
143.0295716764
 20
89.1717101376
 10
143.0358660905
 20
89.1770981795
 10
143.0415674797
 20
89.1820957209
 10
143.0466139662
 20
89.1866873746
 10
143.0509481626
 20
89.1908729553
 10
143.0545024649
 20
89.1946113469
 10
143.0572093557
 20
89.1978188527
 10
143.0590223949
 20
89.200440054
 10
143.0598895177
 20
89.2024647431
 10
143.0599620473
 20
89.2030707783
  0
LINE
  5
324
100
AcDbEntity
  8
0
100
AcDbLine
 62
7
  6
CONTINUOUS
 10
143.0295716764
 20
88.7692178772
 11
142.1008620815
 21
87.9800804297
  0
LINE
  5
325
100
AcDbEntity
  8
SUPERFICI
100
AcDbLine
 62
7
  6
CONTINUOUS
 10
142.2965584598
 20
88.0920153266
 11
142.1409868608
 21
87.9639654138
  0
LINE
  5
326
100
AcDbEntity
  8
0
100
AcDbLine
 62
7
  6
CONTINUOUS
 10
142.3435785766
 20
88.1649527391
 11
142.1129674995
 21
87.9752186209
  0
LINE
  5
327
100
AcDbEntity
  8
0
100
AcDbLine
 62
7
  6
CONTINUOUS
 10
138.0919330565
 20
91.1476724415
 11
136.7205990884
 21
90.140915343
  0
LINE
  5
328
100
AcDbEntity
  8
SUPERFICI
100
AcDbLine
 62
7
  6
CONTINUOUS
 10
138.106392845
 20
91.1568857672
 11
138.0983861466
 21
91.1521854174
  0
LWPOLYLINE
  5
329
100
AcDbEntity
  8
RACCORDO
100
AcDbPolyline
 62
7
  6
CONTINUOUS
 90
3
 70
0
 10
108.8519544729
 20
137.1556469127
 10
108.8579520419
 20
137.1529737027
 10
108.8600901335
 20
137.1521035521
  0
LWPOLYLINE
  5
32A
100
AcDbEntity
  8
RACCORDO
100
AcDbPolyline
 62
7
  6
CONTINUOUS
 90
28
 70
0
 10
108.6176728181
 20
137.0416558293
 10
108.6258146935
 20
137.0380100938
 10
108.6341446329
 20
137.0347745346
 10
108.6426626364
 20
137.0319491518
 10
108.6513767884
 20
137.0295301148
 10
108.6602790045
 20
137.0275212541
 10
108.6693450313
 20
137.025934061
 10
108.6785752627
 20
137.0247709815
 10
108.6879693049
 20
137.0240295695
 10
108.6975017223
 20
137.023713978
 10
108.7071728506
 20
137.0238263792
 10
108.7169823541
 20
137.0243646009
 10
108.7269037906
 20
137.0253262789
 10
108.7369344619
 20
137.0267123333
 10
108.7470770663
 20
137.0285218441
 10
108.7573132565
 20
137.0307496875
 10
108.7676406099
 20
137.0333952198
 10
108.7780615492
 20
137.0364590848
 10
108.7885649951
 20
137.0399380898
 10
108.7991533063
 20
137.0438329704
 10
108.8098241242
 20
137.048142991
 10
108.8205592934
 20
137.0528627516
 10
108.8313622803
 20
137.0579949583
 10
108.8422296185
 20
137.0635369049
 10
108.8531327535
 20
137.0694750729
 10
108.8640621672
 20
137.0758049559
 10
108.8750273777
 20
137.0825310603
 10
108.8860283851
 20
137.089653386
  0
LWPOLYLINE
  5
32B
100
AcDbEntity
  8
RACCORDO
100
AcDbPolyline
 62
7
  6
CONTINUOUS
 90
25
 70
0
 10
106.4911709045
 20
138.5243352893
 10
106.4850424828
 20
138.5270915174
 10
106.4791057851
 20
138.5299825041
 10
106.4733698127
 20
138.533003866
 10
106.4678432627
 20
138.5361510221
 10
106.4625345145
 20
138.5394192005
 10
106.4574516174
 20
138.542803446
 10
106.4526022781
 20
138.5462986274
 10
106.4479938494
 20
138.5498994451
 10
106.4436333185
 20
138.5536004396
 10
106.4395272971
 20
138.5573959993
 10
106.4356820107
 20
138.5612803693
 10
106.4321032897
 20
138.56524766
 10
106.4287965602
 20
138.5692918562
 10
106.425766836
 20
138.5734068259
 10
106.4230187106
 20
138.5775863301
 10
106.4205563511
 20
138.5818240315
 10
106.4183834907
 20
138.5861135049
 10
106.416503424
 20
138.5904482466
 10
106.4149190017
 20
138.5948216842
 10
106.4136326261
 20
138.5992271864
 10
106.4126462475
 20
138.6036580736
 10
106.4119613616
 20
138.6081076277
 10
106.4115790069
 20
138.612569102
 10
106.4114911234
 20
138.615969479
  0
LINE
  5
32C
100
AcDbEntity
  8
RACCORDO
100
AcDbLine
 62
7
  6
CONTINUOUS
 10
107.9469862238
 20
137.5852471449
 11
108.3484826165
 21
137.3952191406
  0
LINE
  5
32D
100
AcDbEntity
  8
RACCORDO
100
AcDbLine
 62
7
  6
CONTINUOUS
 10
107.8777447828
 20
137.393561627
 11
108.2061150634
 21
137.2377608055
  0
LWPOLYLINE
  5
32E
100
AcDbEntity
  8
RACCORDO
100
AcDbPolyline
 62
7
  6
CONTINUOUS
 90
3
 70
0
 10
108.3484826165
 20
137.3952191406
 10
108.7511171756
 20
137.2037435299
 10
108.8519547168
 20
137.1556475412
  0
LWPOLYLINE
  5
32F
100
AcDbEntity
  8
RACCORDO
100
AcDbPolyline
 62
7
  6
CONTINUOUS
 90
3
 70
0
 10
108.2061150634
 20
137.2377608055
 10
108.5352634958
 20
137.0809975568
 10
108.6176728181
 20
137.0416558293
  0
LWPOLYLINE
  5
330
100
AcDbEntity
  8
RACCORDO
100
AcDbPolyline
 62
7
  6
CONTINUOUS
 90
6
 70
0
 10
107.1042316791
 20
139.3975145873
 10
107.0956296313
 20
139.4024054857
 10
107.0887694956
 20
139.4098517065
 10
107.0834080234
 20
139.4197934652
 10
107.0797087482
 20
139.4319275231
 10
107.0777845033
 20
139.4458837732
  0
LWPOLYLINE
  5
331
100
AcDbEntity
  8
SUPERFICI
100
AcDbPolyline
 62
7
  6
CONTINUOUS
 90
3
 70
0
 10
161.4908830438
 20
81.8007973907
 10
161.4906946952
 20
81.8015965009
 10
161.4899609089
 20
81.8022055274
  0
LINE
  5
332
100
AcDbEntity
  8
SUPERFICI
100
AcDbLine
 62
7
  6
CONTINUOUS
 10
161.4604926729
 20
81.76943675
 11
161.4604926729
 21
81.3669444896
  0
LINE
  5
333
100
AcDbEntity
  8
SUPERFICI
100
AcDbLine
 62
7
  6
CONTINUOUS
 10
161.4908830537
 20
81.8003260177
 11
161.4908830537
 21
81.3989268576
  0
LINE
  5
334
100
AcDbEntity
  8
SUPERFICI
100
AcDbLine
 62
7
  6
CONTINUOUS
 10
160.7744995731
 20
80.7626793515
 11
160.7831129263
 21
80.7913655065
  0
LWPOLYLINE
  5
335
100
AcDbEntity
  8
0
100
AcDbPolyline
 62
7
  6
CONTINUOUS
 90
6
 70
0
 10
148.4522403744
 20
82.077011907
 10
148.4383193043
 20
82.0628872848
 10
148.4241544976
 20
82.0492564686
 10
148.4097734278
 20
82.0361329455
 10
148.3951649542
 20
82.0235144892
 10
148.3883682154
 20
82.017878687
  0
LWPOLYLINE
  5
336
100
AcDbEntity
  8
0
100
AcDbPolyline
 62
7
  6
CONTINUOUS
 90
64
 70
0
 10
148.2651541079
 20
82.4227928313
 10
148.2667423902
 20
82.424103509
 10
148.2739895328
 20
82.4303310403
 10
148.2811040275
 20
82.436861525
 10
148.2880813928
 20
82.4436917614
 10
148.2949261124
 20
82.4508249561
 10
148.3016112409
 20
82.4582461672
 10
148.3081352869
 20
82.4659540383
 10
148.3144997462
 20
82.4739499375
 10
148.3206821557
 20
82.4822230131
 10
148.3266896113
 20
82.4907858596
 10
148.3325150239
 20
82.4996259007
 10
148.3381146537
 20
82.5086945322
 10
148.343489269
 20
82.5179973072
 10
148.348638111
 20
82.5275286991
 10
148.3535151505
 20
82.5372234891
 10
148.3581143872
 20
82.5470762833
 10
148.3624418331
 20
82.5570925088
 10
148.3664694792
 20
82.5672231814
 10
148.3701897028
 20
82.5774645261
 10
148.3736101392
 20
82.5878203545
 10
148.3767256659
 20
82.5982530627
 10
148.3795378552
 20
82.608774932
 10
148.3820451472
 20
82.6193737176
 10
148.384237721
 20
82.6299750246
 10
148.3861132401
 20
82.6405776014
 10
148.3876740522
 20
82.6511827328
 10
148.3889173608
 20
82.6617198239
 10
148.3898394866
 20
82.6721779727
 10
148.390444118
 20
82.6825681083
 10
148.390739509
 20
82.6928523789
 10
148.3907253006
 20
82.7030235966
 10
148.3904018586
 20
82.7130889704
 10
148.3897785234
 20
82.7230322405
 10
148.3888543707
 20
82.7328646618
 10
148.3876303302
 20
82.7425749962
 10
148.3861185211
 20
82.7521132407
 10
148.3843174763
 20
82.7614746538
 10
148.3822286654
 20
82.7706639851
 10
148.3798686116
 20
82.7796454626
 10
148.3772364279
 20
82.78840862
 10
148.3743330012
 20
82.7969639242
 10
148.3711775147
 20
82.8053069987
 10
148.3677681401
 20
82.8134415819
 10
148.3641067042
 20
82.8213639321
 10
148.3602178725
 20
82.8290584495
 10
148.3560961283
 20
82.8365322283
 10
148.3517469852
 20
82.843778166
 10
148.347211652
 20
82.8507593629
 10
148.3424902515
 20
82.8574705326
 10
148.3375826552
 20
82.8639169457
 10
148.3325296939
 20
82.8700775334
 10
148.3273399709
 20
82.875942974
 10
148.3220048757
 20
82.8815225688
 10
148.316539417
 20
82.8868231814
 10
148.3109383211
 20
82.8918512503
 10
148.3052068547
 20
82.896600317
 10
148.2993758371
 20
82.9010578997
 10
148.2934315993
 20
82.9052281742
 10
148.2873878028
 20
82.9091069428
 10
148.2813162618
 20
82.9126691609
 10
148.2752409116
 20
82.9159064714
 10
148.2691378087
 20
82.9188272072
 10
148.2630069492
 20
82.9214313566
  0
LWPOLYLINE
  5
337
100
AcDbEntity
  8
0
100
AcDbPolyline
 62
7
  6
CONTINUOUS
 90
64
 70
0
 10
148.1923251014
 20
82.3631348023
 10
148.1939024923
 20
82.364436425
 10
148.2011490818
 20
82.3706628479
 10
148.2082631056
 20
82.3771922301
 10
148.2152400884
 20
82.3840213726
 10
148.2220845076
 20
82.3911534789
 10
148.2287694215
 20
82.3985736336
 10
148.2352933402
 20
82.4062804781
 10
148.241657758
 20
82.4142753825
 10
148.2478402106
 20
82.4225475279
 10
148.2538477939
 20
82.4311095063
 10
148.2596734185
 20
82.4399487435
 10
148.2652733448
 20
82.4490166756
 10
148.2706483492
 20
82.4583188685
 10
148.2757976645
 20
82.4678497824
 10
148.2806752371
 20
82.4775441995
 10
148.2852750694
 20
82.4873967302
 10
148.2896031703
 20
82.4974127971
 10
148.2936314968
 20
82.5075434029
 10
148.2973524227
 20
82.5177847691
 10
148.3007735866
 20
82.5281407107
 10
148.3038898429
 20
82.5385736211
 10
148.3067027605
 20
82.5490957831
 10
148.3092107829
 20
82.5596949505
 10
148.3114040757
 20
82.5702967208
 10
148.3132803028
 20
82.5808998533
 10
148.3148418114
 20
82.591505622
 10
148.3160857907
 20
82.6020433929
 10
148.3170085585
 20
82.6125022656
 10
148.317613806
 20
82.6228931678
 10
148.3179097814
 20
82.633178202
 10
148.3178961226
 20
82.6433501625
 10
148.3175731984
 20
82.6534162765
 10
148.3169503526
 20
82.6633602924
 10
148.3160266622
 20
82.6731934684
 10
148.3148030555
 20
82.6829045633
 10
148.313291651
 20
82.6924435721
 10
148.3114909816
 20
82.7018057565
 10
148.3094025169
 20
82.7109958633
 10
148.3070427793
 20
82.7199781089
 10
148.3044108798
 20
82.7287420288
 10
148.3015077073
 20
82.7372980885
 10
148.2983524499
 20
82.7456418955
 10
148.2949432819
 20
82.7537771785
 10
148.2912820276
 20
82.7617002058
 10
148.2873933482
 20
82.7693953911
 10
148.2832717244
 20
82.7768698368
 10
148.2789226725
 20
82.7841164326
 10
148.2743874058
 20
82.7910982684
 10
148.2696660464
 20
82.7978100567
 10
148.2647584667
 20
82.8042570693
 10
148.2597055035
 20
82.8104182303
 10
148.2545157593
 20
82.8162842172
 10
148.2491806245
 20
82.821864332
 10
148.2437151184
 20
82.8271654336
 10
148.2381139701
 20
82.8321939576
 10
148.2323824434
 20
82.8369434483
 10
148.2265513587
 20
82.8414014268
 10
148.2206070448
 20
82.8455720708
 10
148.2145631655
 20
82.8494511806
 10
148.2084915428
 20
82.8530137094
 10
148.2024161146
 20
82.8562512992
 10
148.1963129348
 20
82.8591722833
 10
148.1901819996
 20
82.8617766502
  0
LINE
  5
338
100
AcDbEntity
  8
0
100
AcDbLine
 62
7
  6
CONTINUOUS
 10
142.0193616956
 20
84.1611872766
 11
141.9465365307
 21
84.1015323939
  0
LINE
  5
339
100
AcDbEntity
  8
0
100
AcDbLine
 62
7
  6
CONTINUOUS
 10
141.6224138948
 20
83.5721585772
 11
141.5495850168
 21
83.5125006529
  0
LINE
  5
33A
100
AcDbEntity
  8
0
100
AcDbLine
 62
7
  6
CONTINUOUS
 10
142.7228896687
 20
83.1313337571
 11
142.6500832713
 21
83.0716942478
  0
LINE
  5
33B
100
AcDbEntity
  8
0
100
AcDbLine
 62
7
  6
CONTINUOUS
 10
144.203284169
 20
84.1578862163
 11
144.1304893202
 21
84.0982561671
  0
LINE
  5
33C
100
AcDbEntity
  8
0
100
AcDbLine
 62
7
  6
CONTINUOUS
 10
143.3417213828
 20
82.8832175078
 11
143.2689233051
 21
82.8235848136
  0
LINE
  5
33D
100
AcDbEntity
  8
0
100
AcDbLine
 62
7
  6
CONTINUOUS
 10
144.4322649007
 20
83.2973196784
 11
144.3594730759
 21
83.2376921064
  0
LINE
  5
33E
100
AcDbEntity
  8
0
100
AcDbLine
 62
7
  6
CONTINUOUS
 10
145.165463105
 20
83.7715604837
 11
145.0926724811
 21
83.7119338953
  0
LINE
  5
33F
100
AcDbEntity
  8
0
100
AcDbLine
 62
7
  6
CONTINUOUS
 10
143.9879146738
 20
82.6239575061
 11
143.91512198
 21
82.5643292222
  0
LINE
  5
340
100
AcDbEntity
  8
0
100
AcDbLine
 62
7
  6
CONTINUOUS
 10
144.6339632218
 20
82.3645789369
 11
144.5611725414
 21
82.3049523023
  0
LINE
  5
341
100
AcDbEntity
  8
0
100
AcDbLine
 62
7
  6
CONTINUOUS
 10
146.4707793979
 20
83.3302361626
 11
146.3979828117
 21
83.2706046902
  0
LINE
  5
342
100
AcDbEntity
  8
0
100
AcDbLine
 62
7
  6
CONTINUOUS
 10
145.2249022477
 20
82.127171381
 11
145.1521104562
 21
82.0675438362
  0
LINE
  5
343
100
AcDbEntity
  8
0
100
AcDbLine
 62
7
  6
CONTINUOUS
 10
145.8076011371
 20
82.3708542923
 11
145.7348068099
 21
82.3112246703
  0
LINE
  5
344
100
AcDbEntity
  8
0
100
AcDbLine
 62
7
  6
CONTINUOUS
 10
146.3834694772
 20
82.5964855064
 11
146.3106711356
 21
82.536852596
  0
LINE
  5
345
100
AcDbEntity
  8
0
100
AcDbLine
 62
7
  6
CONTINUOUS
 10
146.3296792295
 20
82.1609317739
 11
146.2568797577
 21
82.1012979378
  0
LINE
  5
346
100
AcDbEntity
  8
0
100
AcDbLine
 62
7
  6
CONTINUOUS
 10
147.8508539293
 20
83.0871710446
 11
147.7780380719
 21
83.0275237862
  0
LINE
  5
347
100
AcDbEntity
  8
0
100
AcDbLine
 62
7
  6
CONTINUOUS
 10
146.2827925712
 20
81.7017981691
 11
146.2099917138
 21
81.642163198
  0
LINE
  5
348
100
AcDbEntity
  8
0
100
AcDbLine
 62
7
  6
CONTINUOUS
 10
148.2630069473
 20
82.9214313573
 11
148.1901819977
 21
82.861776651
  0
LINE
  5
349
100
AcDbEntity
  8
0
100
AcDbLine
 62
7
  6
CONTINUOUS
 10
147.5099120374
 20
82.1433743874
 11
147.4370958779
 21
82.0837268814
  0
LINE
  5
34A
100
AcDbEntity
  8
0
100
AcDbLine
 62
7
  6
CONTINUOUS
 10
146.8733927708
 20
81.464113063
 11
146.800582873
 21
81.4044706864
  0
LINE
  5
34B
100
AcDbEntity
  8
SUPERFICI
100
AcDbLine
 62
7
  6
CONTINUOUS
 10
148.1923260929
 20
82.3631332379
 11
148.2651550992
 21
82.4227912673
  0
LINE
  5
34C
100
AcDbEntity
  8
0
100
AcDbLine
 62
7
  6
CONTINUOUS
 10
147.7983384477
 20
82.027290498
 11
147.7255160404
 21
81.9676378741
  0
LINE
  5
34D
100
AcDbEntity
  8
0
100
AcDbLine
 62
7
  6
CONTINUOUS
 10
148.1621484586
 20
81.943212471
 11
148.0893177106
 21
81.8835530149
  0
LINE
  5
34E
100
AcDbEntity
  8
0
100
AcDbLine
 62
7
  6
CONTINUOUS
 10
147.8208440342
 20
81.0825016493
 11
147.7480136036
 21
81.0228424531
  0
LINE
  5
34F
100
AcDbEntity
  8
RACCORDO
100
AcDbLine
 62
7
  6
CONTINUOUS
 10
182.7227662845
 20
109.0136527241
 11
182.5831209574
 21
108.9002572069
  0
LINE
  5
350
100
AcDbEntity
  8
RACCORDO
100
AcDbLine
 62
7
  6
CONTINUOUS
 10
183.4743560636
 20
107.8854894156
 11
183.3575033554
 21
107.790596707
  0
LWPOLYLINE
  5
351
100
AcDbEntity
  8
0
100
AcDbPolyline
 62
7
  6
CONTINUOUS
 90
21
 70
0
 10
148.3883682154
 20
82.017878687
 10
148.3803402128
 20
82.0114033187
 10
148.3653600966
 20
81.9998196004
 10
148.3502236175
 20
81.9887661268
 10
148.3349317673
 20
81.9782401233
 10
148.3195484127
 20
81.9682534184
 10
148.3040820323
 20
81.9588113709
 10
148.2885241588
 20
81.9499086619
 10
148.2729132436
 20
81.9415411123
 10
148.2572359218
 20
81.9337029975
 10
148.241505574
 20
81.9264000949
 10
148.2258007728
 20
81.9196454871
 10
148.2101172176
 20
81.9134424009
 10
148.1944592308
 20
81.907787679
 10
148.1789183234
 20
81.9026848385
 10
148.1634878819
 20
81.8981392851
 10
148.1481745458
 20
81.8941456937
 10
148.1330897084
 20
81.8906914901
 10
148.1182705106
 20
81.887772512
 10
148.10367984
 20
81.8853930065
 10
148.0893177106
 20
81.8835530149
  0
LWPOLYLINE
  5
352
100
AcDbEntity
  8
0
100
AcDbPolyline
 62
7
  6
CONTINUOUS
 90
4
 70
0
 10
148.4240037778
 20
82.0491189285
 10
148.4230824971
 20
82.0484460978
 10
148.4077890065
 20
82.037918022
 10
148.392403951
 20
82.0279293406
  0
LINE
  5
353
100
AcDbEntity
  8
0
100
AcDbLine
 62
7
  6
CONTINUOUS
 10
148.392403951
 20
82.0279293406
 11
148.3769358087
 21
82.0184854172
  0
LWPOLYLINE
  5
354
100
AcDbEntity
  8
RACCORDO
100
AcDbPolyline
 62
7
  6
CONTINUOUS
 90
10
 70
0
 10
203.4231776779
 20
113.5274045751
 10
203.4981387757
 20
113.5053439435
 10
203.5784936136
 20
113.4908157513
 10
203.6619606156
 20
113.4842325243
 10
203.7461698367
 20
113.485781201
 10
203.8287302405
 20
113.495417824
 10
203.9072975908
 20
113.512868782
 10
203.9796410361
 20
113.537638581
 10
204.043706451
 20
113.5690239168
 10
204.0976747477
 20
113.606133641
  0
LINE
  5
355
100
AcDbEntity
  8
RACCORDO
100
AcDbLine
 62
7
  6
CONTINUOUS
 10
107.0777795389
 20
139.4458799919
 11
106.9812041162
 21
139.4750259179
  0
LINE
  5
356
100
AcDbEntity
  8
RACCORDO
100
AcDbLine
 62
7
  6
CONTINUOUS
 10
107.0290858063
 20
139.4209697528
 11
107.1042316791
 21
139.3975145873
  0
LWPOLYLINE
  5
357
100
AcDbEntity
  8
RACCORDO
100
AcDbPolyline
 62
7
  6
CONTINUOUS
 90
35
 70
0
 10
107.1908015422
 20
139.1795123641
 10
107.1707488729
 20
139.1862496413
 10
107.1507468985
 20
139.1924576986
 10
107.1308084342
 20
139.1981330291
 10
107.1109467398
 20
139.2032727093
 10
107.0911740374
 20
139.2078736481
 10
107.0715015116
 20
139.2119325474
 10
107.0519415086
 20
139.2154472184
 10
107.032506792
 20
139.2184157393
 10
107.0132090602
 20
139.2208356965
 10
106.9940607204
 20
139.2227058816
 10
106.9750739322
 20
139.2240254721
 10
106.9562598686
 20
139.2247931568
 10
106.9376305114
 20
139.2250087472
 10
106.9191977805
 20
139.2246724221
 10
106.9009725736
 20
139.2237839277
 10
106.8829664862
 20
139.22234409
 10
106.8651910221
 20
139.2203541069
 10
106.8476567236
 20
139.2178147919
 10
106.830374748
 20
139.2147279867
 10
106.8133561028
 20
139.2110958994
 10
106.7966108572
 20
139.2069203973
 10
106.7801496453
 20
139.2022043203
 10
106.7639829434
 20
139.1969508722
 10
106.7481203069
 20
139.1911629571
 10
106.7325717863
 20
139.1848443923
 10
106.7173472727
 20
139.1779993586
 10
106.70245578
 20
139.1706317843
 10
106.6879067275
 20
139.162746445
 10
106.6737093582
 20
139.1543484725
 10
106.659872092
 20
139.1454427953
 10
106.6464036663
 20
139.136035121
 10
106.6333126243
 20
139.1261315021
 10
106.6206067409
 20
139.115737834
 10
106.6161246248
 20
139.1118740609
  0
LWPOLYLINE
  5
358
100
AcDbEntity
  8
RACCORDO
100
AcDbPolyline
 62
7
  6
CONTINUOUS
 90
61
 70
0
 10
107.0844996569
 20
138.9213189452
 10
107.0685596749
 20
138.9268089732
 10
107.0526768108
 20
138.9318702108
 10
107.0368510626
 20
138.9365026565
 10
107.0210718831
 20
138.9407088997
 10
107.0053498161
 20
138.9444863484
 10
106.9897164951
 20
138.947827228
 10
106.9741728042
 20
138.9507304609
 10
106.9587178535
 20
138.9531971203
 10
106.9433806137
 20
138.955222657
 10
106.928161346
 20
138.9568062261
 10
106.9130597816
 20
138.9579486668
 10
106.8981040938
 20
138.9586479547
 10
106.8832945502
 20
138.9589032605
 10
106.868630874
 20
138.9587154065
 10
106.8541404208
 20
138.9580848446
 10
106.8398235051
 20
138.9570107406
 10
106.8256798019
 20
138.9554939207
 10
106.8117357053
 20
138.9535373261
 10
106.7979915962
 20
138.9511401318
 10
106.7844470821
 20
138.9483031541
 10
106.7711273958
 20
138.9450317956
 10
106.7580329594
 20
138.9413252443
 10
106.7451633385
 20
138.9371843027
 10
106.73254248
 20
138.9326167951
 10
106.7201708431
 20
138.9276219237
 10
106.7080479556
 20
138.9222004762
 10
106.6961963663
 20
138.9163626544
 10
106.6846165764
 20
138.9101076803
 10
106.6733080715
 20
138.9034363216
 10
106.6622918756
 20
138.8963610982
 10
106.6515685295
 20
138.8888812571
 10
106.6411374792
 20
138.8809975411
 10
106.6310181065
 20
138.8727247126
 10
106.6212109832
 20
138.8640620427
 10
106.6117155245
 20
138.8550102505
 10
106.6025493772
 20
138.8455862699
 10
106.5937131527
 20
138.8357894122
 10
106.585206227
 20
138.8256203568
 10
106.5770443936
 20
138.8150980896
 10
106.5692282871
 20
138.8042219534
 10
106.5617572612
 20
138.7929925966
 10
106.554645188
 20
138.7814309633
 10
106.5478927266
 20
138.7695364328
 10
106.5414992073
 20
138.7573096179
 10
106.5354765091
 20
138.7447733126
 10
106.5298253185
 20
138.7319269528
 10
106.5245449399
 20
138.7187710958
 10
106.5196451785
 20
138.7053302184
 10
106.5151267304
 20
138.691603792
 10
106.5109888919
 20
138.6775923396
 10
106.507239369
 20
138.6633219154
 10
106.5038788754
 20
138.648791994
 10
106.5009066915
 20
138.6340030964
 10
106.4983283726
 20
138.6189828477
 10
106.4961446483
 20
138.6037301912
 10
106.4943547851
 20
138.5882461805
 10
106.4929621439
 20
138.5725616066
 10
106.4919678443
 20
138.5566867324
 10
106.4913707646
 20
138.5406112935
 10
106.4911709045
 20
138.5243352893
  0
LWPOLYLINE
  5
359
100
AcDbEntity
  8
RACCORDO
100
AcDbPolyline
 62
7
  6
CONTINUOUS
 90
40
 70
0
 10
183.0867272274
 20
107.7618330636
 10
183.0933388091
 20
107.759472619
 10
183.1001055929
 20
107.757261601
 10
183.1070173189
 20
107.7552033618
 10
183.1140635074
 20
107.7533010223
 10
183.1212334747
 20
107.7515574668
 10
183.1285163498
 20
107.7499753389
 10
183.13590109
 20
107.7485570376
 10
183.1433764987
 20
107.7473047132
 10
183.1509312413
 20
107.7462202646
 10
183.1585538633
 20
107.7453053361
 10
183.166232807
 20
107.7445613149
 10
183.1739564295
 20
107.743989329
 10
183.1817130202
 20
107.7435902458
 10
183.1894908182
 20
107.7433646704
 10
183.1972780307
 20
107.7433129448
 10
183.2050628507
 20
107.7434351475
 10
183.2128334746
 20
107.7437310931
 10
183.2205781203
 20
107.7442003329
 10
183.2282850454
 20
107.7448421555
 10
183.2359425644
 20
107.7456555878
 10
183.2435390669
 20
107.7466393963
 10
183.2510630347
 20
107.7477920895
 10
183.2585030601
 20
107.7491119196
 10
183.2658478621
 20
107.7505968855
 10
183.2730863045
 20
107.7522447356
 10
183.2802074123
 20
107.7540529714
 10
183.2872003881
 20
107.7560188513
 10
183.2940546291
 20
107.7581393945
 10
183.3007597428
 20
107.7604113859
 10
183.3073055627
 20
107.7628313806
 10
183.3136821639
 20
107.7653957093
 10
183.3198798781
 20
107.7681004839
 10
183.3258893082
 20
107.7709416035
 10
183.3317013424
 20
107.7739147603
 10
183.3373071685
 20
107.7770154463
 10
183.3426982869
 20
107.7802389601
 10
183.3478665233
 20
107.7835804143
 10
183.3528040416
 20
107.7870347424
 10
183.3575033554
 20
107.790596707
  0
LWPOLYLINE
  5
35A
100
AcDbEntity
  8
RACCORDO
100
AcDbPolyline
 62
7
  6
CONTINUOUS
 90
58
 70
0
 10
107.8992672627
 20
137.6797782248
 10
108.6369040684
 20
137.4147649672
 10
109.401426297
 20
137.139197229
 10
110.1928757331
 20
136.8531074472
 10
111.0092477095
 20
136.5574273817
 10
111.8526322058
 20
136.2512917778
 10
112.7292257648
 20
135.9320475378
 10
113.6390925019
 20
135.5998013522
 10
114.5822875672
 20
135.2545399234
 10
115.5650198028
 20
134.8934502627
 10
116.5875049363
 20
134.5166173313
 10
117.6496854182
 20
134.1240808255
 10
118.7573888612
 20
133.7129824566
 10
119.9107325757
 20
133.2834820587
 10
121.1098021558
 20
132.8355809784
 10
122.360409539
 20
132.3662086033
 10
123.662231245
 20
131.8757449001
 10
125.0158459311
 20
131.3640145146
 10
126.4284587607
 20
130.8271460537
 10
127.9033411909
 20
130.2641682286
 10
129.4375544843
 20
129.6763217666
 10
131.0290098387
 20
129.0630711919
 10
132.6844537665
 20
128.4219162951
 10
134.3975019945
 20
127.7556551769
 10
136.1462972891
 20
127.0716432033
 10
137.9349968466
 20
126.3680287707
 10
139.7596757608
 20
125.6468619139
 10
141.5861628143
 20
124.9211973193
 10
143.4027669961
 20
124.1954423085
 10
145.2211400046
 20
123.465169614
 10
147.0420072842
 20
122.730086886
 10
148.8770302886
 20
121.9852602438
 10
150.7145671733
 20
121.2356518903
 10
152.5202733031
 20
120.4957182851
 10
154.2900394511
 20
119.7666363624
 10
156.0277310248
 20
119.0470376574
 10
157.7107798629
 20
118.3474054264
 10
159.3323304607
 20
117.670257171
 10
160.8988747673
 20
117.0127787901
 10
162.407796875
 20
116.3773970955
 10
163.8557260188
 20
115.7654042948
 10
165.2457049459
 20
115.1752363915
 10
166.5847594521
 20
114.6050530074
 10
167.8731925308
 20
114.0546756003
 10
169.1104525749
 20
113.5240746384
 10
170.3023224578
 20
113.0116657648
 10
171.4486861761
 20
112.5174598333
 10
172.5494646413
 20
112.0412811452
 10
173.6105269235
 20
111.5812914893
 10
174.6316584256
 20
111.137560297
 10
175.6129233222
 20
110.7098899975
 10
176.5606361051
 20
110.2960651116
 10
177.4747301377
 20
109.8961035938
 10
178.355159586
 20
109.5098910471
 10
179.2082942922
 20
109.1350342448
 10
180.0362345441
 20
108.7707156786
 10
180.8368001009
 20
108.4176839778
 10
181.6099520283
 20
108.0759054545
  0
LWPOLYLINE
  5
35B
100
AcDbEntity
  8
RACCORDO
100
AcDbPolyline
 62
7
  6
CONTINUOUS
 90
58
 70
0
 10
107.9469862238
 20
137.5852471449
 10
108.6833397173
 20
137.3206199422
 10
109.4466148148
 20
137.0457035038
 10
110.236858902
 20
136.7604005886
 10
111.0520831294
 20
136.4653480604
 10
111.8943744866
 20
136.1597075107
 10
112.7699065386
 20
135.8411434971
 10
113.6787470708
 20
135.5095224415
 10
114.6209606783
 20
135.1647061373
 10
115.6027392817
 20
134.8043018372
 10
116.6242992879
 20
134.4280869946
 10
117.6855896813
 20
134.0359303411
 10
118.7924279895
 20
133.625517301
 10
119.9449313785
 20
133.1966213374
 10
121.1431898363
 20
132.749017584
 10
122.3930107986
 20
132.2803266302
 10
123.6940709286
 20
131.7904398539
 10
125.0469475473
 20
131.2788999015
 10
126.4588372167
 20
130.7427185693
 10
127.9330204299
 20
130.1803473539
 10
129.4665618048
 20
129.59259063
 10
131.057357167
 20
128.9799415983
 10
132.7121567058
 20
128.3394642485
 10
134.4245970798
 20
127.6732746246
 10
136.1728229193
 20
126.9896025547
 10
137.9609738795
 20
126.2866041577
 10
139.7851266576
 20
125.5655962633
 10
141.6111354479
 20
124.8399685601
 10
143.4272976585
 20
124.1144084682
 10
145.2452525553
 20
123.3843035822
 10
147.0657485262
 20
122.6493531099
 10
148.9004322459
 20
121.9048175077
 10
150.7376482335
 20
121.1553896043
 10
152.5430796455
 20
120.4151726681
 10
154.312617237
 20
119.6860732433
 10
156.0501075033
 20
118.9667271681
 10
157.7329911651
 20
118.2667421083
 10
159.3544217012
 20
117.5893066521
 10
160.9208843267
 20
116.9320411681
 10
162.4297560703
 20
116.2963531537
 10
163.8776714761
 20
115.6839692965
 10
165.2676768479
 20
115.0938971581
 10
166.606788115
 20
114.5234193254
 10
167.8953110043
 20
113.9726398127
 10
169.132699491
 20
113.4420160936
 10
170.324728357
 20
112.9292761978
 10
171.471283913
 20
112.4346549005
 10
172.5722925883
 20
111.9583615727
 10
173.6336174529
 20
111.4980197255
 10
174.6550450189
 20
111.0538669897
 10
175.6366452375
 20
110.6260111767
 10
176.5847302547
 20
110.2118234514
 10
177.4992322898
 20
109.8114437831
 10
178.3801111072
 20
109.4249948286
 10
179.2337401324
 20
109.049772721
 10
180.0622200547
 20
108.684934075
 10
180.8633706104
 20
108.3315167912
 10
181.6371537243
 20
107.9896145708
  0
LWPOLYLINE
  5
35C
100
AcDbEntity
  8
RACCORDO
100
AcDbPolyline
 62
7
  6
CONTINUOUS
 90
12
 70
0
 10
107.1042316791
 20
139.3975145873
 10
113.0850373015
 20
137.2421178913
 10
119.2927121028
 20
134.9579689223
 10
125.5302944887
 20
132.6153630038
 10
131.7965787394
 20
130.2147704223
 10
138.0904591211
 20
127.7566331601
 10
144.4108710224
 20
125.2413786226
 10
150.7567039048
 20
122.6694520641
 10
157.1268167131
 20
120.0413119176
 10
163.5201000542
 20
117.3574032828
 10
169.9353881914
 20
114.6181958614
 10
176.3713418474
 20
111.8242409236
  0
LINE
  5
35D
100
AcDbEntity
  8
RACCORDO
100
AcDbLine
 62
7
  6
CONTINUOUS
 10
113.2259556619
 20
137.229434109
 11
107.0777795389
 21
139.4458799919
  0
LINE
  5
35E
100
AcDbEntity
  8
RACCORDO
100
AcDbLine
 62
7
  6
CONTINUOUS
 10
108.8598320608
 20
137.1522034888
 11
108.8600915558
 21
137.1521030117
  0
LWPOLYLINE
  5
35F
100
AcDbEntity
  8
RACCORDO
100
AcDbPolyline
 62
7
  6
CONTINUOUS
 90
26
 70
0
 10
181.923603596
 20
107.5224421959
 10
181.9170222339
 20
107.5250090035
 10
181.9106241268
 20
107.5277239659
 10
181.9044194063
 20
107.530582784
 10
181.8984178976
 20
107.5335809308
 10
181.8926291043
 20
107.5367136586
 10
181.887062193
 20
107.5399760068
 10
181.881725979
 20
107.5433628092
 10
181.8766289123
 20
107.546868703
 10
181.8717790643
 20
107.5504881363
 10
181.8671841147
 20
107.5542153778
 10
181.8628513398
 20
107.5580445253
 10
181.8587876005
 20
107.5619695153
 10
181.854999332
 20
107.5659841325
 10
181.8514925329
 20
107.5700820196
 10
181.8482727564
 20
107.5742566875
 10
181.8453451011
 20
107.5785015257
 10
181.8427142029
 20
107.5828098123
 10
181.840384228
 20
107.5871747251
 10
181.8383588658
 20
107.591589352
 10
181.8366413236
 20
107.5960467026
 10
181.8352343212
 20
107.6005397185
 10
181.8341400866
 20
107.6050612849
 10
181.8333603525
 20
107.6096042417
 10
181.8328963536
 20
107.6141613953
 10
181.8327486397
 20
107.6185694988
  0
LINE
  5
360
100
AcDbEntity
  8
RACCORDO
100
AcDbLine
 62
7
  6
CONTINUOUS
 10
112.3303396017
 20
135.7743063153
 11
108.8519547168
 21
137.1556475412
  0
LWPOLYLINE
  5
361
100
AcDbEntity
  8
RACCORDO
100
AcDbPolyline
 62
7
  6
CONTINUOUS
 90
19
 70
0
 10
108.8601146593
 20
137.1520938158
 10
112.9800937135
 20
135.5137384485
 10
117.1064721538
 20
133.8673396084
 10
121.2267131434
 20
132.2201058813
 10
125.3407048882
 20
130.573328671
 10
129.4488761658
 20
128.9273382889
 10
133.552341178
 20
127.2820712918
 10
137.6514125577
 20
125.637647054
 10
141.7458178634
 20
123.9942837402
 10
145.8357773469
 20
122.3519776671
 10
149.9214255381
 20
120.7107232001
 10
154.0026216821
 20
119.0705274562
 10
158.0791666255
 20
117.4313890683
 10
162.1512906834
 20
115.7931082979
 10
166.2187059572
 20
114.1555553852
 10
170.2804134456
 20
112.5187622867
 10
174.3359991372
 20
110.8824089388
 10
178.3854343669
 20
109.2452787468
 10
181.7533636346
 20
107.8791656149
  0
LWPOLYLINE
  5
362
100
AcDbEntity
  8
RACCORDO
100
AcDbPolyline
 62
7
  6
CONTINUOUS
 90
18
 70
0
 10
181.7528365382
 20
107.8799637835
 10
178.9308631054
 20
109.0260483592
 10
175.3029012315
 20
110.4953054341
 10
171.5241166801
 20
112.0223610783
 10
167.5936592738
 20
113.6083363055
 10
163.511732041
 20
115.253653438
 10
159.2797097521
 20
116.957770476
 10
154.8503816322
 20
118.739768636
 10
150.2708294533
 20
120.5809038836
 10
145.6839401765
 20
122.4237345545
 10
141.083531459
 20
124.2707564387
 10
136.4758322294
 20
126.1194320349
 10
132.0222417534
 20
127.9050028667
 10
127.7771794691
 20
129.6054672848
 10
123.6863702434
 20
131.2424992343
 10
119.7482442891
 20
132.8167159791
 10
115.96257268
 20
134.3277071119
 10
112.3303396017
 20
135.7743063153
  0
LWPOLYLINE
  5
363
100
AcDbEntity
  8
RACCORDO
100
AcDbPolyline
 62
7
  6
CONTINUOUS
 90
40
 70
0
 10
107.5999866822
 20
137.3724823352
 10
107.6064428478
 20
137.3698129777
 10
107.6130790593
 20
137.3672930636
 10
107.6198848081
 20
137.3649265834
 10
107.6268493171
 20
137.3627172845
 10
107.6339615579
 20
137.3606686652
 10
107.6412102683
 20
137.3587839696
 10
107.6485839698
 20
137.3570661822
 10
107.6560709859
 20
137.3555180232
 10
107.663659461
 20
137.354141944
 10
107.6713373784
 20
137.3529401239
 10
107.6790925801
 20
137.3519144659
 10
107.6869127856
 20
137.3510665941
 10
107.6947856115
 20
137.3503978512
 10
107.702698591
 20
137.3499092962
 10
107.7106391937
 20
137.3496017028
 10
107.7185948456
 20
137.349475558
 10
107.7265529486
 20
137.3495310616
 10
107.7345009011
 20
137.3497681257
 10
107.7424261173
 20
137.3501863751
 10
107.7503160474
 20
137.3507851472
 10
107.7581581976
 20
137.3515634942
 10
107.7659401497
 20
137.3525201833
 10
107.7736495807
 20
137.3536536998
 10
107.7812742826
 20
137.3549622486
 10
107.7888021816
 20
137.3564437577
 10
107.7962213571
 20
137.358095881
 10
107.8035200606
 20
137.3599160025
 10
107.8106867344
 20
137.36190124
 10
107.81771003
 20
137.3640484498
 10
107.8245788258
 20
137.3663542317
 10
107.831282245
 20
137.3688149345
 10
107.8378096725
 20
137.3714266617
 10
107.8441507719
 20
137.3741852775
 10
107.850295502
 20
137.3770864136
 10
107.8562341324
 20
137.380125476
 10
107.8619572593
 20
137.3832976524
 10
107.8674558198
 20
137.3865979194
 10
107.8727211069
 20
137.3900210512
 10
107.8777447828
 20
137.3935616269
  0
LINE
  5
364
100
AcDbEntity
  8
RACCORDO
100
AcDbLine
 62
7
  6
CONTINUOUS
 10
176.3713418474
 20
111.8242409236
 11
182.6026124099
 21
109.0756915859
  0
LWPOLYLINE
  5
365
100
AcDbEntity
  8
RACCORDO
100
AcDbPolyline
 62
7
  6
CONTINUOUS
 90
12
 70
0
 10
182.5887028851
 20
109.1189908221
 10
176.1648487923
 20
111.9517558867
 10
169.7631058355
 20
114.7296158599
 10
163.3837027761
 20
117.4525106762
 10
157.0262385567
 20
120.1206356755
 10
150.6915754424
 20
122.7336770573
 10
144.3818144184
 20
125.2907913638
 10
138.0971569908
 20
127.7918791206
 10
131.8378101268
 20
130.2368758449
 10
125.6058368535
 20
132.6249527639
 10
119.4020336281
 20
134.9557574319
 10
113.2259556619
 20
137.229434109
  0
LWPOLYLINE
  5
366
100
AcDbEntity
  8
RACCORDO
100
AcDbPolyline
 62
7
  6
CONTINUOUS
 90
43
 70
0
 10
182.4641296742
 20
108.6471601362
 10
180.6296179448
 20
109.4596284566
 10
178.7968536988
 20
110.2676939024
 10
176.9658423776
 20
111.0713552068
 10
175.1365754267
 20
111.8706163441
 10
173.3090723074
 20
112.6654708155
 10
171.4833803467
 20
113.4559015192
 10
169.6595082375
 20
114.2419055514
 10
167.8374578723
 20
115.0234829919
 10
166.0172661362
 20
115.8006210003
 10
164.198941438
 20
116.5733167959
 10
162.3824857304
 20
117.3415701273
 10
160.5679260354
 20
118.1053717912
 10
158.7552583982
 20
118.8647240033
 10
156.9444969971
 20
119.6196213859
 10
155.1356958142
 20
120.3700431403
 10
153.3288748096
 20
121.1159813947
 10
151.5240238429
 20
121.8574405112
 10
149.721151563
 20
122.594417888
 10
147.9202494377
 20
123.3269173985
 10
146.1213358302
 20
124.0549316634
 10
144.3244595635
 20
124.7784410614
 10
142.5296253868
 20
125.4974435511
 10
140.736838023
 20
126.2119373696
 10
138.9461459472
 20
126.9219030608
 10
137.1575670569
 20
127.6273334412
 10
135.3710925609
 20
128.3282315948
 10
133.5867307288
 20
129.0245933285
 10
131.8044712701
 20
129.7164224852
 10
130.024333584
 20
130.4037111297
 10
128.2463702838
 20
131.0864372506
 10
126.4705946246
 20
131.7645952078
 10
124.6970020281
 20
132.4381862122
 10
122.925618103
 20
133.1071983283
 10
121.1564439472
 20
133.7716305819
 10
119.3894869742
 20
134.4314793997
 10
117.6247820699
 20
135.0867287971
 10
115.8623300586
 20
135.7373776022
 10
114.1021383632
 20
136.3834222475
 10
112.3442514999
 20
137.0248429513
 10
110.5886868755
 20
137.6616314062
 10
108.835434949
 20
138.293790904
 10
107.0844996569
 20
138.9213189452
  0
LWPOLYLINE
  5
367
100
AcDbEntity
  8
RACCORDO
100
AcDbPolyline
 62
7
  6
CONTINUOUS
 90
43
 70
0
 10
182.5831209574
 20
108.9002572069
 10
180.7483389832
 20
109.7128801877
 10
178.9152729386
 20
110.5211129231
 10
177.0839439914
 20
111.3249466117
 10
175.2543751872
 20
112.1243704556
 10
173.426585808
 20
112.919377888
 10
171.6005913661
 20
113.7099664779
 10
169.7764164749
 20
114.496126376
 10
167.954078817
 20
115.2778503381
 10
166.133583489
 20
116.0551396809
 10
164.3149549533
 20
116.8279846089
 10
162.4982110061
 20
117.5963778912
 10
160.6833467202
 20
118.3603243334
 10
158.8703742916
 20
119.1198192449
 10
157.0593237458
 20
119.8748500755
 10
155.2502168861
 20
120.62540966
 10
153.4430899906
 20
121.3714835263
 10
151.6379489946
 20
122.113069492
 10
149.8347701751
 20
122.8501784595
 10
148.033561291
 20
123.5828073079
 10
146.2343567733
 20
124.3109417998
 10
144.4371728995
 20
125.0345757476
 10
142.6420309919
 20
125.7537008212
 10
140.84895192
 20
126.4683084058
 10
139.0579512817
 20
127.1783918869
 10
137.2690636483
 20
127.8839377885
 10
135.4822966385
 20
128.5849430558
 10
133.6976254288
 20
129.2814162835
 10
131.9150564244
 20
129.9733546981
 10
130.1346254335
 20
130.6607438201
 10
128.3563517487
 20
131.34357431
 10
126.5802655911
 20
132.0218345226
 10
124.8063789611
 20
132.6955194304
 10
123.0346838335
 20
133.364629429
 10
121.265198341
 20
134.0291573181
 10
119.4979466094
 20
134.6890933796
 10
117.7329296276
 20
135.344433853
 10
115.970165538
 20
135.9951715939
 10
114.2096784942
 20
136.6412968661
 10
112.4514785217
 20
137.2828018452
 10
110.6955830738
 20
137.9196783454
 10
108.9420170247
 20
138.5519179188
 10
107.1908015422
 20
139.1795123641
  0
LWPOLYLINE
  5
368
100
AcDbEntity
  8
RACCORDO
100
AcDbPolyline
 62
7
  6
CONTINUOUS
 90
52
 70
0
 10
181.6099520283
 20
108.0759054545
 10
181.6170875762
 20
108.0726631517
 10
181.6242980229
 20
108.069164456
 10
181.6315833692
 20
108.0654093683
 10
181.638942449
 20
108.0614081627
 10
181.6463764305
 20
108.0571505667
 10
181.6538888156
 20
108.0526057614
 10
181.6614849175
 20
108.0477720439
 10
181.6691594251
 20
108.0426511189
 10
181.6768999045
 20
108.0372172793
 10
181.6847089359
 20
108.0314693156
 10
181.6925839408
 20
108.0254084387
 10
181.700504746
 20
108.0190125717
 10
181.7084741965
 20
108.0122793598
 10
181.7164894486
 20
108.0052111589
 10
181.7245217956
 20
107.9977929571
 10
181.7325733743
 20
107.9900219934
 10
181.7406420485
 20
107.9819010293
 10
181.7486927009
 20
107.9734233361
 10
181.75672689
 20
107.9645858138
 10
181.7647430569
 20
107.955391562
 10
181.7727014078
 20
107.9458431498
 10
181.7806011576
 20
107.9359401289
 10
181.7884430899
 20
107.9256829463
 10
181.7961897631
 20
107.9150755127
 10
181.8038406138
 20
107.9041181099
 10
181.8113962029
 20
107.8928104539
 10
181.818820774
 20
107.8811556058
 10
181.8261160412
 20
107.869150585
 10
181.8332802873
 20
107.856798369
 10
181.8402726081
 20
107.8441109556
 10
181.8470938578
 20
107.8310862329
 10
181.8537431783
 20
107.817726309
 10
181.8601770968
 20
107.8040495106
 10
181.8663976658
 20
107.7900496063
 10
181.8724028281
 20
107.7757328233
 10
181.8781429458
 20
107.761136176
 10
181.8836199118
 20
107.746247593
 10
181.888831828
 20
107.7310791411
 10
181.8937233684
 20
107.7157040409
 10
181.8982914094
 20
107.7001189352
 10
181.9025390693
 20
107.6843271765
 10
181.9064203849
 20
107.6684120497
 10
181.9099310518
 20
107.6523773502
 10
181.9130753697
 20
107.6362192785
 10
181.9158202816
 20
107.6200097273
 10
181.9181633761
 20
107.6037494329
 10
181.9201070611
 20
107.587437656
 10
181.9216255091
 20
107.5711440765
 10
181.9227101104
 20
107.5548919207
 10
181.9233694728
 20
107.5386579606
 10
181.923603596
 20
107.5224421959
  0
LINE
  5
369
100
AcDbEntity
  8
RACCORDO
100
AcDbLine
 62
7
  6
CONTINUOUS
 10
181.6371537243
 20
107.9896145708
 11
181.6425520942
 21
107.9871119713
  0
LINE
  5
36A
100
AcDbEntity
  8
RACCORDO
100
AcDbLine
 62
7
  6
CONTINUOUS
 10
181.6371537243
 20
107.9896145708
 11
181.6473113301
 21
107.9846907617
  0
LINE
  5
36B
100
AcDbEntity
  8
RACCORDO
100
AcDbLine
 62
7
  6
CONTINUOUS
 10
182.6897832676
 20
109.068820603
 11
182.5887028851
 21
109.1189908221
  0
LINE
  5
36C
100
AcDbEntity
  8
RACCORDO
100
AcDbLine
 62
7
  6
CONTINUOUS
 10
182.6026435673
 20
109.0756321279
 11
182.7015031365
 21
109.0265285978
  0
LINE
  5
36D
100
AcDbEntity
  8
RACCORDO
100
AcDbLine
 62
7
  6
CONTINUOUS
 10
181.6425604495
 20
107.9871079207
 11
181.6455635401
 21
107.9856110337
  0
LWPOLYLINE
  5
36E
100
AcDbEntity
  8
RACCORDO
100
AcDbPolyline
 62
7
  6
CONTINUOUS
 90
3
 70
0
 10
181.6455635401
 20
107.9856110337
 10
181.6486193269
 20
107.9840020561
 10
181.6518222464
 20
107.9822250396
  0
LWPOLYLINE
  5
36F
100
AcDbEntity
  8
RACCORDO
100
AcDbPolyline
 62
7
  6
CONTINUOUS
 90
7
 70
0
 10
87.4702178703
 20
160.0967273321
 10
87.4084375113
 20
160.1295851813
 10
87.3571528906
 20
160.1679264221
 10
87.3178201814
 20
160.2106623952
 10
87.2915561949
 20
160.2565796572
 10
87.2791066695
 20
160.3043744356
 10
87.2780844586
 20
160.3227034649
  0
LINE
  5
370
100
AcDbEntity
  8
RACCORDO
100
AcDbLine
 62
7
  6
CONTINUOUS
 10
181.6518222464
 20
107.9822250396
 11
181.6551649274
 21
107.9802736865
  0
LWPOLYLINE
  5
371
100
AcDbEntity
  8
RACCORDO
100
AcDbPolyline
 62
7
  6
CONTINUOUS
 90
3
 70
0
 10
182.7015031365
 20
109.0265285978
 10
182.8003022123
 20
108.966700936
 10
182.8963667091
 20
108.8975004439
  0
LWPOLYLINE
  5
372
100
AcDbEntity
  8
RACCORDO
100
AcDbPolyline
 62
7
  6
CONTINUOUS
 90
64
 70
0
 10
181.6551649274
 20
107.9802736865
 10
181.6586298193
 20
107.978148773
 10
181.6622105827
 20
107.9758452749
 10
181.6659016787
 20
107.9733577438
 10
181.6696847464
 20
107.9706903454
 10
181.6735515397
 20
107.9678415047
 10
181.6774948559
 20
107.9648092028
 10
181.6814971802
 20
107.9616002991
 10
181.6855499817
 20
107.9582159702
 10
181.6896454833
 20
107.9546572537
 10
181.693767497
 20
107.95093338
 10
181.6979076459
 20
107.9470479938
 10
181.7020590496
 20
107.9430039624
 10
181.706208478
 20
107.9388111083
 10
181.7103483136
 20
107.9344747218
 10
181.7144728167
 20
107.9299987945
 10
181.718572077
 20
107.9253925087
 10
181.7226396153
 20
107.9206620717
 10
181.7266707407
 20
107.9158121259
 10
181.730659031
 20
107.9108499222
 10
181.7345987211
 20
107.9057825617
 10
181.7384869916
 20
107.9006137933
 10
181.7423223583
 20
107.8953456449
 10
181.7461007483
 20
107.8899838274
 10
181.7498196542
 20
107.8845321742
 10
181.7534801835
 20
107.8789891278
 10
181.7570790697
 20
107.8733595214
 10
181.7606137557
 20
107.8676473405
 10
181.7640860345
 20
107.8618494261
 10
181.7674930177
 20
107.8559700984
 10
181.7708322575
 20
107.850013162
 10
181.774105797
 20
107.8439741792
 10
181.777311263
 20
107.8378563569
 10
181.7804460075
 20
107.8316636412
 10
181.7835111956
 20
107.8253923064
 10
181.7865043886
 20
107.8190455216
 10
181.789422868
 20
107.8126272239
 10
181.7922668441
 20
107.8061348357
 10
181.7950336292
 20
107.7995720526
 10
181.79772077
 20
107.7929422269
 10
181.8003282931
 20
107.7862423651
 10
181.8028534276
 20
107.7794761943
 10
181.805293617
 20
107.7726471091
 10
181.8076486325
 20
107.765751723
 10
181.8099155392
 20
107.7587939823
 10
181.8120915402
 20
107.751777625
 10
181.8141759485
 20
107.7446992621
 10
181.816165578
 20
107.7375633192
 10
181.8180574687
 20
107.7303737021
 10
181.8198505168
 20
107.7231267548
 10
181.8215412993
 20
107.7158271947
 10
181.8231264821
 20
107.7084797159
 10
181.8246042711
 20
107.7010813551
 10
181.8259709948
 20
107.6936373251
 10
181.8272229789
 20
107.68615324
 10
181.8283576162
 20
107.6786277677
 10
181.8293710005
 20
107.6710667879
 10
181.8302591585
 20
107.6634773384
 10
181.8310187136
 20
107.6558611537
 10
181.8316456075
 20
107.6482253742
 10
181.8321358032
 20
107.6405780874
 10
181.8324855105
 20
107.6329240224
 10
181.8326907229
 20
107.6252711314
 10
181.8327486361
 20
107.6185747308
  0
LWPOLYLINE
  5
373
100
AcDbEntity
  8
RACCORDO
100
AcDbPolyline
 62
7
  6
CONTINUOUS
 90
6
 70
0
 10
182.6026124099
 20
109.0756915859
 10
182.5975671893
 20
109.0791570427
 10
182.592972352
 20
109.0856859858
 10
182.5899094282
 20
109.0946955996
 10
182.5884717772
 20
109.1059112641
 10
182.5887032197
 20
109.1189911172
  0
LWPOLYLINE
  5
374
100
AcDbEntity
  8
RACCORDO
100
AcDbPolyline
 62
7
  6
CONTINUOUS
 90
7
 70
0
 10
183.4766039293
 20
67.5023875149
 10
183.4771319389
 20
67.4965368597
 10
183.4805323954
 20
67.4865045874
 10
183.4869830167
 20
67.4769777203
 10
183.4962790024
 20
67.4682587252
 10
183.5081252149
 20
67.4606244212
 10
183.5221455497
 20
67.4543171891
  0
LWPOLYLINE
  5
375
100
AcDbEntity
  8
RACCORDO
100
AcDbPolyline
 62
7
  6
CONTINUOUS
 90
24
 70
0
 10
182.4641296743
 20
67.2499293788
 10
182.4646970076
 20
67.2433297156
 10
182.4654358887
 20
67.2368925234
 10
182.4663451492
 20
67.2306279803
 10
182.4674233515
 20
67.2245459911
 10
182.4686687909
 20
67.2186561724
 10
182.4700794981
 20
67.2129678365
 10
182.4716532428
 20
67.2074899774
 10
182.4733875364
 20
67.2022312563
 10
182.4752796371
 20
67.1971999877
 10
182.4773265531
 20
67.1924041269
 10
182.4795250479
 20
67.1878512566
 10
182.4818716456
 20
67.1835485753
 10
182.4843626359
 20
67.1795028863
 10
182.4869940802
 20
67.1757205862
 10
182.4897618178
 20
67.1722076552
 10
182.4926614728
 20
67.1689696478
 10
182.4956884602
 20
67.1660116835
 10
182.4988379943
 20
67.1633384394
 10
182.502105095
 20
67.1609541421
 10
182.5054845968
 20
67.1588625615
 10
182.5089711563
 20
67.1570670046
 10
182.5125592608
 20
67.1555703104
 10
182.5152991022
 20
67.1546497332
  0
LWPOLYLINE
  5
376
100
AcDbEntity
  8
RACCORDO
100
AcDbPolyline
 62
7
  6
CONTINUOUS
 90
22
 70
0
 10
181.6099520284
 20
68.4591872842
 10
181.6095737571
 20
68.4659295422
 10
181.6093684887
 20
68.4728129056
 10
181.6093365474
 20
68.4798265059
 10
181.6094779836
 20
68.4869592692
 10
181.609792574
 20
68.4941999333
 10
181.6102798219
 20
68.5015370657
 10
181.610938958
 20
68.5089590816
 10
181.6117689415
 20
68.5164542622
 10
181.612768462
 20
68.5240107731
 10
181.6139359412
 20
68.5316166831
 10
181.6152695358
 20
68.5392599831
 10
181.6167671402
 20
68.5469286047
 10
181.6184263897
 20
68.5546104397
 10
181.6202446645
 20
68.5622933592
 10
181.6222190937
 20
68.5699652322
 10
181.6243465597
 20
68.5776139455
 10
181.6266237036
 20
68.5852274223
 10
181.6290469297
 20
68.5927936414
 10
181.6316124121
 20
68.6003006562
 10
181.6343161
 20
68.6077366139
 10
181.6371537244
 20
68.6150897734
  0
LINE
  5
377
100
AcDbEntity
  8
SUPERFICI
100
AcDbLine
 62
7
  6
CONTINUOUS
 10
179.8914136694
 20
74.4490785669
 11
179.8914136694
 21
73.964671102
  0
LINE
  5
378
100
AcDbEntity
  8
SUPERFICI
100
AcDbLine
 62
7
  6
CONTINUOUS
 10
179.9218040502
 20
74.4799666845
 11
179.9218040502
 21
73.9966535108
  0
LINE
  5
379
100
AcDbEntity
  8
0
100
AcDbLine
 62
7
  6
CONTINUOUS
 10
161.4549382945
 20
81.7645628313
 11
160.2745878641
 21
80.6811024384
  0
LWPOLYLINE
  5
37A
100
AcDbEntity
  8
SUPERFICI
100
AcDbPolyline
 62
7
  6
CONTINUOUS
 90
7
 70
0
 10
160.7274211259
 20
80.6897203268
 10
160.7314063534
 20
80.6931424554
 10
160.7427990625
 20
80.7045575756
 10
160.7528296001
 20
80.7172426662
 10
160.7614150958
 20
80.7311182575
 10
160.7686384202
 20
80.7462638193
 10
160.7744995731
 20
80.7626793515
  0
LWPOLYLINE
  5
37B
100
AcDbEntity
  8
SUPERFICI
100
AcDbPolyline
 62
7
  6
CONTINUOUS
 90
10
 70
0
 10
161.4604926729
 20
81.76943675
 10
161.466787087
 20
81.7748247919
 10
161.4724884762
 20
81.7798223333
 10
161.4775349627
 20
81.7844139871
 10
161.4818691591
 20
81.7885995678
 10
161.4854234614
 20
81.7923379594
 10
161.4881303522
 20
81.7955454651
 10
161.4899433914
 20
81.7981666664
 10
161.4908105142
 20
81.8001913556
 10
161.4908830438
 20
81.8007973907
  0
LINE
  5
37C
100
AcDbEntity
  8
0
100
AcDbLine
 62
7
  6
CONTINUOUS
 10
161.4604926729
 20
81.3669444896
 11
160.531783078
 21
80.5778070421
  0
LINE
  5
37D
100
AcDbEntity
  8
SUPERFICI
100
AcDbLine
 62
7
  6
CONTINUOUS
 10
160.7274794563
 20
80.689741939
 11
160.5719078573
 21
80.5616920262
  0
LINE
  5
37E
100
AcDbEntity
  8
0
100
AcDbLine
 62
7
  6
CONTINUOUS
 10
160.7744995731
 20
80.7626793515
 11
160.543888496
 21
80.5729452334
  0
LINE
  5
37F
100
AcDbEntity
  8
RACCORDO
100
AcDbLine
 62
7
  6
CONTINUOUS
 10
202.414682463
 20
115.8658111591
 11
205.2286234885
 21
118.1708567026
  0
LINE
  5
380
100
AcDbEntity
  8
0
100
AcDbLine
 62
7
  6
CONTINUOUS
 10
205.8319752545
 20
117.8459414909
 11
206.4997147425
 21
118.3929216575
  0
LINE
  5
381
100
AcDbEntity
  8
0
100
AcDbLine
 62
7
  6
CONTINUOUS
 10
206.7278897593
 20
116.7606796447
 11
207.3188667868
 21
117.2447796849
  0
LINE
  5
382
100
AcDbEntity
  8
RACCORDO
100
AcDbLine
 62
7
  6
CONTINUOUS
 10
204.0976747477
 20
113.606133641
 11
206.9269258369
 21
115.9237204546
  0
LINE
  5
383
100
AcDbEntity
  8
0
100
AcDbLine
 62
7
  6
CONTINUOUS
 10
156.522854053
 20
83.7453990539
 11
155.1515200849
 21
82.7386419554
  0
LINE
  5
384
100
AcDbEntity
  8
SUPERFICI
100
AcDbLine
 62
7
  6
CONTINUOUS
 10
156.5373138415
 20
83.7546123796
 11
156.5293071431
 21
83.7499120298
  0
LWPOLYLINE
  5
385
100
AcDbEntity
  8
0
100
AcDbPolyline
 62
7
  6
CONTINUOUS
 90
15
 70
0
 10
148.3769358087
 20
82.0184854172
 10
148.3613761126
 20
82.0095809272
 10
148.3457633601
 20
82.0012117101
 10
148.3300841914
 20
81.9933720459
 10
148.3143519819
 20
81.9860677063
 10
148.2986453356
 20
81.9793117771
 10
148.2829599446
 20
81.9731074852
 10
148.2673001387
 20
81.9674516725
 10
148.2517574816
 20
81.9623478567
 10
148.2363253591
 20
81.957801449
 10
148.2210104119
 20
81.9538071185
 10
148.20592409
 20
81.950352276
 10
148.1911035537
 20
81.9474327544
 10
148.1765116718
 20
81.9450528056
 10
148.1621484586
 20
81.943212471
  0
LWPOLYLINE
  5
386
100
AcDbEntity
  8
RACCORDO
100
AcDbPolyline
 62
7
  6
CONTINUOUS
 90
9
 70
0
 10
108.8570925933
 20
137.153078863
 10
108.8569915545
 20
137.1530811686
 10
108.856623547
 20
137.1530976883
 10
108.8565527385
 20
137.153103013
 10
108.8567788066
 20
137.1530703001
 10
108.8572747785
 20
137.1529754434
 10
108.8579701091
 20
137.1528075023
 10
108.8588258073
 20
137.1525559554
 10
108.8598320608
 20
137.1522034888
  0
LWPOLYLINE
  5
387
100
AcDbEntity
  8
RACCORDO
100
AcDbPolyline
 62
7
  6
CONTINUOUS
 90
3
 70
0
 10
106.8880745769
 20
139.4936036581
 10
106.7983902514
 20
139.5016127012
 10
106.7113064574
 20
139.4989093384
  0
LINE
  5
388
100
AcDbEntity
  8
RACCORDO
100
AcDbLine
 62
7
  6
CONTINUOUS
 10
106.9812041162
 20
139.4750259179
 11
106.8880745769
 21
139.4936036581
  0
LWPOLYLINE
  5
389
100
AcDbEntity
  8
RACCORDO
100
AcDbPolyline
 62
7
  6
CONTINUOUS
 90
13
 70
0
 10
205.2286234885
 20
118.1708567026
 10
195.4671440631
 20
121.7096483325
 10
185.7602901706
 20
125.2958822635
 10
176.108061811
 20
128.9295584954
 10
166.5097152317
 20
132.6109663433
 10
156.9659941854
 20
136.3398164922
 10
147.4791299301
 20
140.1152409976
 10
138.0491378544
 20
143.9372524653
 10
128.6760025697
 20
147.8058382895
 10
119.3619091681
 20
151.7200927089
 10
110.1075860137
 20
155.6797138032
 10
100.9123047425
 20
159.6850034926
 10
91.7760653545
 20
163.7359617773
  0
LWPOLYLINE
  5
38A
100
AcDbEntity
  8
RACCORDO
100
AcDbPolyline
 62
7
  6
CONTINUOUS
 90
13
 70
0
 10
202.149289605
 20
115.2131803838
 10
192.3877534355
 20
118.7532104466
 10
182.6787084238
 20
122.3412567547
 10
173.0228762432
 20
125.9770664924
 10
163.4207558145
 20
129.6604680862
 10
153.8732831028
 20
133.3911188813
 10
144.3818183281
 20
137.1684944358
 10
134.9470568502
 20
140.9923180056
 10
125.569689236
 20
144.862309703
 10
116.2510389528
 20
148.7779161539
 10
106.9919871912
 20
152.7387502251
 10
97.79298601
 20
156.7446015641
 10
88.6546964364
 20
160.795167676
  0
LWPOLYLINE
  5
38B
100
AcDbEntity
  8
RACCORDO
100
AcDbPolyline
 62
7
  6
CONTINUOUS
 90
6
 70
0
 10
202.414682463
 20
115.8658111591
 10
192.6555954198
 20
119.4049459004
 10
182.9504057578
 20
122.9915718573
 10
173.299113477
 20
126.6256890296
 10
163.7007921196
 20
130.3076522575
 10
154.1563681434
 20
134.037106701
  0
LWPOLYLINE
  5
38C
100
AcDbEntity
  8
RACCORDO
100
AcDbPolyline
 62
7
  6
CONTINUOUS
 90
8
 70
0
 10
154.1563681434
 20
134.037106701
 10
144.6686209215
 20
137.8129878397
 10
135.2375800171
 20
141.635318241
 10
125.8632158669
 20
145.5040753377
 10
116.5482191546
 20
149.4181269074
 10
107.2934867748
 20
153.377095543
 10
98.0981218329
 20
157.3813586518
 10
88.9621243289
 20
161.4309162338
  0
LWPOLYLINE
  5
38D
100
AcDbEntity
  8
RACCORDO
100
AcDbPolyline
 62
7
  6
CONTINUOUS
 90
19
 70
0
 10
205.2286234885
 20
118.1708567026
 10
205.376911843
 20
118.1114326647
 10
205.5225982738
 20
118.0407331572
 10
205.6656821514
 20
117.9587576061
 10
205.8076523004
 20
117.8643807251
 10
205.9470188984
 20
117.7587268913
 10
206.0793123436
 20
117.6451691065
 10
206.20367923
 20
117.5240192632
 10
206.3209698516
 20
117.3949626172
 10
206.429268895
 20
117.2604310555
 10
206.528549123
 20
117.1204053133
 10
206.6188346997
 20
116.9749018356
 10
206.6982869745
 20
116.8264056709
 10
206.7669155202
 20
116.6740321148
 10
206.8247081298
 20
116.5186634521
 10
206.869793325
 20
116.3654350694
 10
206.9015466711
 20
116.216058203
 10
206.9205909742
 20
116.0688201197
 10
206.9269258369
 20
115.9237204546
  0
LWPOLYLINE
  5
38E
100
AcDbEntity
  8
RACCORDO
100
AcDbPolyline
 62
7
  6
CONTINUOUS
 90
16
 70
0
 10
88.9621243289
 20
161.4309162338
 10
88.8889901065
 20
161.4610558867
 10
88.8120664723
 20
161.4890055269
 10
88.7315803706
 20
161.5141000674
 10
88.6474558669
 20
161.5357298237
 10
88.560423738
 20
161.5530139898
 10
88.4719782235
 20
161.5650395918
 10
88.3825443124
 20
161.5712409864
 10
88.2926405969
 20
161.571044805
 10
88.2038490583
 20
161.5639848584
 10
88.1166639741
 20
161.5497692257
 10
88.0315966607
 20
161.528134529
 10
87.9500683777
 20
161.4991937068
 10
87.8725136199
 20
161.4630133635
 10
87.7992747661
 20
161.4196635254
 10
87.7311845048
 20
161.3696315644
  0
LWPOLYLINE
  5
38F
100
AcDbEntity
  8
RACCORDO
100
AcDbPolyline
 62
7
  6
CONTINUOUS
 90
28
 70
0
 10
88.6546964364
 20
160.795167676
 10
88.5999657902
 20
160.8190827022
 10
88.542830622
 20
160.8403286359
 10
88.4832912341
 20
160.8589056993
 10
88.4207808759
 20
160.8753682555
 10
88.3558669946
 20
160.8891624533
 10
88.2902509667
 20
160.8986260297
 10
88.2238686048
 20
160.9035355642
 10
88.1567843076
 20
160.9041146322
 10
88.0908918121
 20
160.8993710832
 10
88.0262518491
 20
160.8890021236
 10
87.9628033411
 20
160.8733102917
 10
87.9022568006
 20
160.8522110599
 10
87.8447975718
 20
160.8254230685
 10
87.7902395417
 20
160.7932271119
 10
87.7397356893
 20
160.7563816376
 10
87.6935029756
 20
160.7146735781
 10
87.651323561
 20
160.6683153556
 10
87.613698093
 20
160.6187035561
 10
87.5808398193
 20
160.5656541775
 10
87.5525347744
 20
160.5093506947
 10
87.5286428164
 20
160.4517409316
 10
87.5093933356
 20
160.3929485812
 10
87.494556515
 20
160.3328496372
 10
87.4833035029
 20
160.2730204491
 10
87.4753579762
 20
160.2139864378
 10
87.4709961101
 20
160.1552220739
 10
87.4702178703
 20
160.0967273321
  0
LWPOLYLINE
  5
390
100
AcDbEntity
  8
RACCORDO
100
AcDbPolyline
 62
7
  6
CONTINUOUS
 90
4
 70
0
 10
182.9727376887
 20
108.8708072347
 10
182.8813458203
 20
108.9451550613
 10
182.7873311112
 20
109.0108755242
 10
182.6897832676
 20
109.068820603
  0
LWPOLYLINE
  5
391
100
AcDbEntity
  8
RACCORDO
100
AcDbPolyline
 62
7
  6
CONTINUOUS
 90
9
 70
0
 10
182.8963667091
 20
108.8975004439
 10
182.9883978773
 20
108.8198095392
 10
183.0751966929
 20
108.7345624629
 10
183.1556952316
 20
108.6428597003
 10
183.2288610757
 20
108.545887972
 10
183.2936867302
 20
108.4449691363
 10
183.3495170637
 20
108.3413377543
 10
183.3958258536
 20
108.2360867756
 10
183.4319775126
 20
108.1306279186
  0
LWPOLYLINE
  5
392
100
AcDbEntity
  8
SUPERFICI
100
AcDbPolyline
 62
7
  6
CONTINUOUS
 90
3
 70
0
 10
179.9218040404
 20
74.4804391579
 10
179.9216145607
 20
74.4812402561
 10
179.9208818541
 20
74.4818474054
  0
LWPOLYLINE
  5
393
100
AcDbEntity
  8
RACCORDO
100
AcDbPolyline
 62
7
  6
CONTINUOUS
 90
7
 70
0
 10
183.4766039097
 20
107.8387743424
 10
183.4771307596
 20
107.8328940426
 10
183.4805289717
 20
107.8228620013
 10
183.4869778384
 20
107.8133343281
 10
183.4962734685
 20
107.8046136083
 10
183.5081212787
 20
107.7969771417
 10
183.522145546
 20
107.7906677871
  0
LWPOLYLINE
  5
394
100
AcDbEntity
  8
RACCORDO
100
AcDbPolyline
 62
7
  6
CONTINUOUS
 90
3
 70
0
 10
183.5221455497
 20
107.7906677852
 10
183.5167480949
 20
107.8921645118
 10
183.5018066838
 20
107.9943847492
  0
LWPOLYLINE
  5
395
100
AcDbEntity
  8
RACCORDO
100
AcDbPolyline
 62
7
  6
CONTINUOUS
 90
61
 70
0
 10
183.3575033554
 20
107.790596707
 10
183.3571963903
 20
107.8110996387
 10
183.3563703922
 20
107.8317866074
 10
183.3550260227
 20
107.8526447996
 10
183.3531643487
 20
107.8736611509
 10
183.3507865738
 20
107.8948227663
 10
183.3478939903
 20
107.916116943
 10
183.3444883939
 20
107.9375306995
 10
183.3405720205
 20
107.9590505287
 10
183.3361472542
 20
107.9806628265
 10
183.3312168867
 20
108.0023540457
 10
183.3257840361
 20
108.0241108191
 10
183.3198520326
 20
108.0459197269
 10
183.3134245434
 20
108.0677671784
 10
183.3065055979
 20
108.0896395871
 10
183.2990995002
 20
108.1115234923
 10
183.2912107928
 20
108.1334052436
 10
183.2828443813
 20
108.1552711978
 10
183.2740055377
 20
108.1771078948
 10
183.2646996711
 20
108.1989016677
 10
183.2549325287
 20
108.2206389228
 10
183.2447103017
 20
108.2423063361
 10
183.2340392282
 20
108.2638903195
 10
183.2229258713
 20
108.2853773834
 10
183.2113773043
 20
108.3067544148
 10
183.1994005541
 20
108.3280079884
 10
183.1870029683
 20
108.3491247833
 10
183.174192478
 20
108.3700919418
 10
183.1609768657
 20
108.3908962669
 10
183.1473642203
 20
108.4115246887
 10
183.13336329
 20
108.4319646756
 10
183.1189825722
 20
108.4522033314
 10
183.1042308527
 20
108.4722279106
 10
183.0891176499
 20
108.4920262803
 10
183.0736521319
 20
108.5115859145
 10
183.057843732
 20
108.5308944659
 10
183.041702681
 20
108.5499402771
 10
183.0252387662
 20
108.5687112639
 10
183.0084620178
 20
108.5871955443
 10
182.9913833189
 20
108.6053820056
 10
182.9740130129
 20
108.6232590824
 10
182.9563616803
 20
108.6408154144
 10
182.9384408211
 20
108.6580404717
 10
182.9202612821
 20
108.674923269
 10
182.9018341334
 20
108.6914530376
 10
182.8831714435
 20
108.7076198829
 10
182.864284529
 20
108.7234134419
 10
182.8451848641
 20
108.7388236233
 10
182.8258849573
 20
108.7538412805
 10
182.8063965163
 20
108.7684567451
 10
182.7867313681
 20
108.7826606437
 10
182.766902369
 20
108.7964446366
 10
182.7469214361
 20
108.8097998767
 10
182.7268007959
 20
108.8227176788
 10
182.7065539081
 20
108.8351903526
 10
182.686193284
 20
108.8472096688
 10
182.6657310433
 20
108.8587679902
 10
182.6451801575
 20
108.8698589134
 10
182.6245532688
 20
108.8804755431
 10
182.6038626892
 20
108.890610533
 10
182.5831209574
 20
108.9002572069
  0
LWPOLYLINE
  5
396
100
AcDbEntity
  8
RACCORDO
100
AcDbPolyline
 62
7
  6
CONTINUOUS
 90
61
 70
0
 10
183.0867272274
 20
107.7618330636
 10
183.0865174273
 20
107.7782735965
 10
183.0858906525
 20
107.7948405631
 10
183.0848469033
 20
107.8115339635
 10
183.0833850041
 20
107.8283649853
 10
183.0815061324
 20
107.8453224426
 10
183.0792138191
 20
107.8623727768
 10
183.0765072978
 20
107.8795155364
 10
183.0733873385
 20
107.896751176
 10
183.0698597775
 20
107.9140474955
 10
183.0659238646
 20
107.9314045639
 10
183.0615803553
 20
107.9488223168
 10
183.0568373449
 20
107.9662683537
 10
183.0516941017
 20
107.9837427282
 10
183.0461513642
 20
108.0012453926
 10
183.040219433
 20
108.0187437953
 10
183.0338975862
 20
108.0362379481
 10
183.0271865539
 20
108.0537278464
 10
183.0200988144
 20
108.0711809136
 10
183.0126336746
 20
108.0885970843
 10
183.0047918371
 20
108.1059764323
 10
182.9965878729
 20
108.12328659
 10
182.988021115
 20
108.1405274367
 10
182.9790922409
 20
108.1576991023
 10
182.9698178391
 20
108.1747695958
 10
182.9601972667
 20
108.1917387466
 10
182.9502311778
 20
108.2086067351
 10
182.9399381063
 20
108.2253420964
 10
182.929317451
 20
108.2419445877
 10
182.9183698248
 20
108.2584144621
 10
182.9071155823
 20
108.2747209983
 10
182.895554155
 20
108.2908639042
 10
182.8836861234
 20
108.3068434824
 10
182.8715335651
 20
108.3226299026
 10
182.859095953
 20
108.3382228153
 10
182.8463738262
 20
108.3536225806
 10
182.8333908611
 20
108.3688004318
 10
182.8201465746
 20
108.3837559647
 10
182.8066414616
 20
108.3984895941
 10
182.792900664
 20
108.4129737804
 10
182.7789237379
 20
108.4272080737
 10
182.7647111385
 20
108.441192934
 10
182.7502893549
 20
108.4549021858
 10
182.7356579866
 20
108.4683353313
 10
182.7208174447
 20
108.4814928775
 10
182.7057954344
 20
108.4943501556
 10
182.6905916247
 20
108.5069066029
 10
182.6752063562
 20
108.5191627905
 10
182.65966834
 20
108.531095749
 10
182.6439772945
 20
108.54270488
 10
182.6281335096
 20
108.5539907893
 10
182.6121665512
 20
108.5649323117
 10
182.5960761445
 20
108.5755288263
 10
182.5798625713
 20
108.58578096
 10
182.5635562306
 20
108.5956694179
 10
182.5471561946
 20
108.6051938566
 10
182.5306633964
 20
108.6143546241
 10
182.514111025
 20
108.6231334606
 10
182.4975101441
 20
108.6315242801
 10
182.4808496933
 20
108.6395331715
 10
182.4641296742
 20
108.6471601362
  0
LINE
  5
397
100
AcDbEntity
  8
RACCORDO
100
AcDbLine
 62
7
  6
CONTINUOUS
 10
181.8327486397
 20
107.6185694988
 11
181.8327486397
 21
68.8743825002
  0
LINE
  5
398
100
AcDbEntity
  8
RACCORDO
100
AcDbLine
 62
7
  6
CONTINUOUS
 10
181.923603596
 20
107.5224421959
 11
181.923603596
 21
68.7782551973
  0
LINE
  5
399
100
AcDbEntity
  8
RACCORDO
100
AcDbLine
 62
7
  6
CONTINUOUS
 10
183.0867272274
 20
67.6708886326
 11
183.0867272274
 21
107.7618330636
  0
LINE
  5
39A
100
AcDbEntity
  8
RACCORDO
100
AcDbLine
 62
7
  6
CONTINUOUS
 10
183.3575033554
 20
67.699652276
 11
183.3575033554
 21
107.790596707
  0
LINE
  5
39B
100
AcDbEntity
  8
RACCORDO
100
AcDbLine
 62
7
  6
CONTINUOUS
 10
183.4766039293
 20
67.5023875149
 11
183.4766039097
 21
107.8387740383
  0
LINE
  5
39C
100
AcDbEntity
  8
RACCORDO
100
AcDbLine
 62
7
  6
CONTINUOUS
 10
183.5221455497
 20
67.4543171891
 11
183.5221455497
 21
107.7906677852
  0
LINE
  5
39D
100
AcDbEntity
  8
RACCORDO
100
AcDbLine
 62
7
  6
CONTINUOUS
 10
183.47660402
 20
107.8388592254
 11
183.4766039097
 21
107.8387743424
  0
LWPOLYLINE
  5
39E
100
AcDbEntity
  8
RACCORDO
100
AcDbPolyline
 62
7
  6
CONTINUOUS
 90
17
 70
0
 10
181.832748636
 20
68.8743791859
 10
181.8326465918
 20
68.8655898375
 10
181.8323377319
 20
68.8568716128
 10
181.8318337774
 20
68.8484576864
 10
181.8311468559
 20
68.8403551015
 10
181.8302901812
 20
68.8325762947
 10
181.8292765707
 20
68.8251248086
 10
181.8281190715
 20
68.818004181
 10
181.8268328541
 20
68.8112263957
 10
181.8254319716
 20
68.8047931407
 10
181.8239306147
 20
68.7987058025
 10
181.8223459765
 20
68.7929743142
 10
181.8206935126
 20
68.7875979912
 10
181.8189884666
 20
68.7825750316
 10
181.8172493242
 20
68.7779108887
 10
181.8154932934
 20
68.7736038235
 10
181.8152523108
 20
68.7730412715
  0
LWPOLYLINE
  5
39F
100
AcDbEntity
  8
RACCORDO
100
AcDbPolyline
 62
7
  6
CONTINUOUS
 90
52
 70
0
 10
181.923603596
 20
68.7782551973
 10
181.9233694728
 20
68.7622143428
 10
181.9227101104
 20
68.7464729831
 10
181.9216255092
 20
68.7310311189
 10
181.9201070612
 20
68.715871955
 10
181.9181633763
 20
68.7010122881
 10
181.9158202819
 20
68.6865025062
 10
181.91307537
 20
68.6723436733
 10
181.9099310521
 20
68.6585347284
 10
181.9064203853
 20
68.6451228726
 10
181.9025390697
 20
68.6321075247
 10
181.8982914098
 20
68.61948927
 10
181.8937233689
 20
68.6073170599
 10
181.8888318286
 20
68.5955965833
 10
181.8836199124
 20
68.5843221557
 10
181.8781429464
 20
68.5735256684
 10
181.8724028289
 20
68.5632177759
 10
181.8663976666
 20
68.5533878282
 10
181.8601770977
 20
68.5440357578
 10
181.8537431793
 20
68.535166261
 10
181.8470938589
 20
68.5267746457
 10
181.8402726093
 20
68.5188467617
 10
181.8332802884
 20
68.5113840813
 10
181.8261160425
 20
68.5043851357
 10
181.8188207753
 20
68.4978313632
 10
181.8113962042
 20
68.4917244622
 10
181.8038406152
 20
68.486062737
 10
181.7961897645
 20
68.4808225336
 10
181.7884430914
 20
68.4760039901
 10
181.7806011592
 20
68.4716069706
 10
181.7727014094
 20
68.4676074088
 10
181.7647430585
 20
68.4640063393
 10
181.7567268917
 20
68.460802729
 10
181.7486927027
 20
68.4579694098
 10
181.7406420503
 20
68.4555083166
 10
181.7325733762
 20
68.453417515
 10
181.7245217976
 20
68.4516640312
 10
181.7164894506
 20
68.4502490295
 10
181.7084741985
 20
68.4491713452
 10
181.700504748
 20
68.4483945103
 10
181.6925839427
 20
68.4479187536
 10
181.6847089378
 20
68.4477438452
 10
181.6768999063
 20
68.4478326283
 10
181.6691594269
 20
68.4481843841
 10
181.6614849191
 20
68.4487998299
 10
181.6538888171
 20
68.4496439618
 10
181.6463764318
 20
68.4507145123
 10
181.6389424501
 20
68.4520137471
 10
181.63158337
 20
68.4535134627
 10
181.6242980234
 20
68.4552042576
 10
181.6170875765
 20
68.4570955316
 10
181.6099520283
 20
68.4591872841
  0
LWPOLYLINE
  5
3A0
100
AcDbEntity
  8
RACCORDO
100
AcDbPolyline
 62
7
  6
CONTINUOUS
 90
3
 70
0
 10
183.4765556849
 20
67.5023875816
 10
183.4734398217
 20
67.4301397956
 10
183.4611268251
 20
67.3464974125
  0
LINE
  5
3A1
100
AcDbEntity
  8
RACCORDO
100
AcDbLine
 62
7
  6
CONTINUOUS
 10
183.5168075582
 20
67.3570578829
 11
183.5221455497
 21
67.4543171891
  0
LWPOLYLINE
  5
3A2
100
AcDbEntity
  8
RACCORDO
100
AcDbPolyline
 62
7
  6
CONTINUOUS
 90
22
 70
0
 10
181.6099521094
 20
108.0759055259
 10
181.6095738312
 20
108.0696622241
 10
181.6093685561
 20
108.0635805309
 10
181.6093366083
 20
108.0576700488
 10
181.6094780382
 20
108.0519401102
 10
181.6097926225
 20
108.0463997622
 10
181.6102798646
 20
108.0410577526
 10
181.6109389951
 20
108.0359225161
 10
181.6117689732
 20
108.0310021609
 10
181.6127684885
 20
108.0263044559
 10
181.6139359629
 20
108.0218368185
 10
181.6152695528
 20
108.0176063027
 10
181.6167671528
 20
108.0136195883
 10
181.6184263982
 20
108.00988297
 10
181.6202446692
 20
108.0064023477
 10
181.6222190948
 20
108.003183217
 10
181.6243465575
 20
108.0002306608
 10
181.6266236983
 20
107.9975493409
 10
181.6290469216
 20
107.9951434909
 10
181.6316124014
 20
107.9930169096
 10
181.634316087
 20
107.9911729546
 10
181.6371537093
 20
107.9896145374
  0
LWPOLYLINE
  5
3A3
100
AcDbEntity
  8
RACCORDO
100
AcDbPolyline
 62
7
  6
CONTINUOUS
 90
40
 70
0
 10
182.4641296744
 20
108.6471601364
 10
182.4646970055
 20
108.6535527875
 10
182.4654358845
 20
108.6600873671
 10
182.4663451431
 20
108.6667535434
 10
182.4674233436
 20
108.6735407763
 10
182.4686687814
 20
108.6804383343
 10
182.4700794871
 20
108.6874353117
 10
182.4716532304
 20
108.6945206453
 10
182.4733875229
 20
108.7016831323
 10
182.4752796225
 20
108.708911448
 10
182.4773265375
 20
108.7161941637
 10
182.4795250316
 20
108.7235197643
 10
182.4818716287
 20
108.7308766672
 10
182.4843626185
 20
108.7382532404
 10
182.4869940624
 20
108.7456378205
 10
182.4897617999
 20
108.7530187317
 10
182.4926614548
 20
108.7603843037
 10
182.4956884423
 20
108.7677228909
 10
182.4988379765
 20
108.7750228899
 10
182.5021050776
 20
108.7822727585
 10
182.5054845798
 20
108.789461034
 10
182.5089711399
 20
108.7965763507
 10
182.512559245
 20
108.8036074585
 10
182.5162432221
 20
108.8105432403
 10
182.5200172462
 20
108.8173727298
 10
182.5238753502
 20
108.8240851288
 10
182.5278114339
 20
108.8306698242
 10
182.531819274
 20
108.8371164047
 10
182.5358925335
 20
108.8434146776
 10
182.5400247721
 20
108.8495546845
 10
182.5442094564
 20
108.8555267173
 10
182.5484399697
 20
108.8613213335
 10
182.5527096231
 20
108.8669293712
 10
182.5570116658
 20
108.8723419633
 10
182.5613392957
 20
108.8775505519
 10
182.5656856704
 20
108.8825469016
 10
182.5700439177
 20
108.8873231125
 10
182.5744071466
 20
108.8918716328
 10
182.5787684584
 20
108.8961852709
 10
182.5831209574
 20
108.9002572064
  0
LINE
  5
3A4
100
AcDbEntity
  8
SUPERFICI
100
AcDbLine
 62
7
  6
CONTINUOUS
 10
179.2054205696
 20
73.3604059639
 11
179.2140339228
 21
73.389092119
  0
LINE
  5
3A5
100
AcDbEntity
  8
SUPERFICI
100
AcDbLine
 62
7
  6
CONTINUOUS
 10
173.775144972
 20
75.2589743409
 11
173.819244423
 21
75.3580790396
  0
LINE
  5
3A6
100
AcDbEntity
  8
SUPERFICI
100
AcDbLine
 62
7
  6
CONTINUOUS
 10
174.0267316221
 20
75.4147890104
 11
174.1060326412
 21
75.5930021948
  0
LINE
  5
3A7
100
AcDbEntity
  8
SUPERFICI
100
AcDbLine
 62
7
  6
CONTINUOUS
 10
174.3135198402
 20
75.6497121656
 11
174.3928208594
 21
75.82792535
  0
LINE
  5
3A8
100
AcDbEntity
  8
SUPERFICI
100
AcDbLine
 62
7
  6
CONTINUOUS
 10
174.6003080584
 20
75.8846353208
 11
174.6796090776
 21
76.0628485052
  0
LINE
  5
3A9
100
AcDbEntity
  8
SUPERFICI
100
AcDbLine
 62
7
  6
CONTINUOUS
 10
174.8870962766
 20
76.119558476
 11
174.9663972957
 21
76.2977716604
  0
LINE
  5
3AA
100
AcDbEntity
  8
SUPERFICI
100
AcDbLine
 62
7
  6
CONTINUOUS
 10
178.2804812155
 20
73.4495297351
 11
178.3245806666
 21
73.5486344337
  0
LINE
  5
3AB
100
AcDbEntity
  8
SUPERFICI
100
AcDbLine
 62
7
  6
CONTINUOUS
 10
178.5253324194
 20
73.5902078357
 11
178.6113688848
 21
73.7835575889
  0
LINE
  5
3AC
100
AcDbEntity
  8
SUPERFICI
100
AcDbLine
 62
7
  6
CONTINUOUS
 10
178.8121206375
 20
73.8251309909
 11
178.898157103
 21
74.0184807441
  0
LINE
  5
3AD
100
AcDbEntity
  8
SUPERFICI
100
AcDbLine
 62
7
  6
CONTINUOUS
 10
179.0989088557
 20
74.0600541461
 11
179.1849453212
 21
74.2534038993
  0
LINE
  5
3AE
100
AcDbEntity
  8
SUPERFICI
100
AcDbLine
 62
7
  6
CONTINUOUS
 10
179.3856970739
 20
74.2949773013
 11
179.4717335393
 21
74.4883270545
  0
LINE
  5
3AF
100
AcDbEntity
  8
SUPERFICI
100
AcDbLine
 62
7
  6
CONTINUOUS
 10
173.819244423
 20
75.3580790396
 11
173.9339597103
 21
75.4520483017
  0
LINE
  5
3B0
100
AcDbEntity
  8
SUPERFICI
100
AcDbLine
 62
7
  6
CONTINUOUS
 10
174.1060326412
 20
75.5930021948
 11
174.2207479285
 21
75.6869714569
  0
LINE
  5
3B1
100
AcDbEntity
  8
SUPERFICI
100
AcDbLine
 62
7
  6
CONTINUOUS
 10
174.3928208594
 20
75.82792535
 11
174.5075361467
 21
75.9218946121
  0
LINE
  5
3B2
100
AcDbEntity
  8
SUPERFICI
100
AcDbLine
 62
7
  6
CONTINUOUS
 10
174.6796090776
 20
76.0628485052
 11
174.7943243648
 21
76.1568177673
  0
LINE
  5
3B3
100
AcDbEntity
  8
SUPERFICI
100
AcDbLine
 62
7
  6
CONTINUOUS
 10
174.9663972957
 20
76.2977716604
 11
175.081112583
 21
76.3917409225
  0
LINE
  5
3B4
100
AcDbEntity
  8
0
100
AcDbLine
 62
7
  6
CONTINUOUS
 10
174.9537750495
 20
76.4250408708
 11
173.5103178278
 21
75.3653348924
  0
LINE
  5
3B5
100
AcDbEntity
  8
SUPERFICI
100
AcDbLine
 62
7
  6
CONTINUOUS
 10
174.9682375566
 20
76.4342555058
 11
174.9602281396
 21
76.4295538466
  0
LWPOLYLINE
  5
3B6
100
AcDbEntity
  8
RACCORDO
100
AcDbPolyline
 62
7
  6
CONTINUOUS
 90
5
 70
0
 10
106.6887981214
 20
139.4287809992
 10
106.76584407
 20
139.4438064672
 10
106.849086853
 20
139.4476548356
 10
106.9372452386
 20
139.4400619339
 10
107.0290858063
 20
139.4209697528
  0
LWPOLYLINE
  5
3B7
100
AcDbEntity
  8
RACCORDO
100
AcDbPolyline
 62
7
  6
CONTINUOUS
 90
12
 70
0
 10
106.7113064574
 20
139.4989093384
 10
106.6276667095
 20
139.4856363874
 10
106.550002229
 20
139.4622228189
 10
106.4785452377
 20
139.428400305
 10
106.4130616247
 20
139.3844357343
 10
106.3553825327
 20
139.3315604609
 10
106.3056864421
 20
139.2694435145
 10
106.2637931032
 20
139.1984145183
 10
106.2309953909
 20
139.1206955865
 10
106.2077238596
 20
139.0370271163
 10
106.1935468687
 20
138.9466678838
 10
106.1884641479
 20
138.8496176832
  0
LINE
  5
3B8
100
AcDbEntity
  8
0
100
AcDbLine
 62
7
  6
CONTINUOUS
 10
93.0471566085
 20
163.9580267322
 11
206.4997147425
 21
118.3929216575
  0
LWPOLYLINE
  5
3B9
100
AcDbEntity
  8
0
100
AcDbPolyline
 62
7
  6
CONTINUOUS
 90
10
 70
0
 10
206.4997147425
 20
118.3929216575
 10
206.5222859384
 20
118.3835455301
 10
206.544839994
 20
118.3735544703
 10
206.5673597822
 20
118.3629560651
 10
206.5898282016
 20
118.3517583627
 10
206.6122281902
 20
118.3399698667
 10
206.6345427376
 20
118.3275995289
 10
206.6567548986
 20
118.3146567433
 10
206.6788478054
 20
118.3011513384
 10
206.6999084209
 20
118.2876799542
  0
LINE
  5
3BA
100
AcDbEntity
  8
0
100
AcDbLine
 62
7
  6
CONTINUOUS
 10
206.6999084209
 20
118.2876799542
 11
206.8865997999
 21
118.1656479389
  0
LWPOLYLINE
  5
3BB
100
AcDbEntity
  8
0
100
AcDbPolyline
 62
7
  6
CONTINUOUS
 90
33
 70
0
 10
206.6999084209
 20
118.2876799542
 10
206.722608852
 20
118.2724941135
 10
206.7442437602
 20
118.2573640553
 10
206.7656929765
 20
118.2417148852
 10
206.7869402127
 20
118.2255584868
 10
206.8079693338
 20
118.2089071291
 10
206.8287643708
 20
118.1917734569
 10
206.8493095321
 20
118.1741704813
 10
206.869589216
 20
118.1561115697
 10
206.8895880225
 20
118.1376104357
 10
206.9092907647
 20
118.118681129
 10
206.9286824806
 20
118.0993380241
 10
206.9477484444
 20
118.07959581
 10
206.9664741777
 20
118.0594694785
 10
206.9848454604
 20
118.0389743134
 10
207.0028483417
 20
118.0181258784
 10
207.0204691505
 20
117.9969400055
 10
207.0376945056
 20
117.9754327829
 10
207.0545113265
 20
117.953620543
 10
207.0709068426
 20
117.9315198496
 10
207.0868686035
 20
117.9091474857
 10
207.102384488
 20
117.8865204406
 10
207.1174427135
 20
117.8636558968
 10
207.1320318451
 20
117.8405712175
 10
207.146140804
 20
117.8172839329
 10
207.159758876
 20
117.7938117268
 10
207.1728757198
 20
117.7701724239
 10
207.1854813746
 20
117.7463839754
 10
207.1975662678
 20
117.722464446
 10
207.2091212224
 20
117.6984319999
 10
207.2201374637
 20
117.6743048869
 10
207.2306066261
 20
117.6501014288
 10
207.2390663211
 20
117.6294896903
  0
LWPOLYLINE
  5
3BC
100
AcDbEntity
  8
0
100
AcDbPolyline
 62
7
  6
CONTINUOUS
 90
26
 70
0
 10
206.8865945852
 20
118.1656503432
 10
206.8994027482
 20
118.1570569322
 10
206.913068912
 20
118.1473909738
 10
206.9265804373
 20
118.1373111931
 10
206.9399378866
 20
118.1268190959
 10
206.953092537
 20
118.1159529535
 10
206.9660436479
 20
118.1047113999
 10
206.9787919598
 20
118.093095801
 10
206.9912909718
 20
118.0811485263
 10
207.0035397732
 20
118.0688683645
 10
207.0155392746
 20
118.0562565269
 10
207.0272457062
 20
118.0433590168
 10
207.0386579977
 20
118.0301747909
 10
207.0497772195
 20
118.0167048925
 10
207.0605628127
 20
118.0029984548
 10
207.071013559
 20
117.989054614
 10
207.0811306766
 20
117.9748742338
 10
207.0908772622
 20
117.9605090391
 10
207.1002519625
 20
117.9459583549
 10
207.1092561308
 20
117.9312228561
 10
207.1178569231
 20
117.9163562925
 10
207.1260528663
 20
117.9013581853
 10
207.1338454337
 20
117.8862290132
 10
207.1412062007
 20
117.8710239618
 10
207.1481335904
 20
117.855742754
 10
207.1546291797
 20
117.8403856669
  0
LWPOLYLINE
  5
3BD
100
AcDbEntity
  8
RACCORDO
100
AcDbPolyline
 62
7
  6
CONTINUOUS
 90
8
 70
0
 10
183.4428427132
 20
108.202066467
 10
183.3988211374
 20
108.3075288161
 10
183.3466087332
 20
108.4105072161
 10
183.2860169069
 20
108.5108466684
 10
183.2172358553
 20
108.6087035868
 10
183.1421855088
 20
108.7013364074
 10
183.0605953877
 20
108.7886831126
 10
182.9727376887
 20
108.8708072347
  0
LWPOLYLINE
  5
3BE
100
AcDbEntity
  8
RACCORDO
100
AcDbPolyline
 62
7
  6
CONTINUOUS
 90
4
 70
0
 10
183.4319775126
 20
108.1306279186
 10
183.4576192521
 20
108.0262836508
 10
183.4725267118
 20
107.9241127371
 10
183.4765646467
 20
107.838859339
  0
LWPOLYLINE
  5
3BF
100
AcDbEntity
  8
RACCORDO
100
AcDbPolyline
 62
7
  6
CONTINUOUS
 90
3
 70
0
 10
183.5018066838
 20
107.9943847492
 10
183.4773215616
 20
108.0973287139
 10
183.4428427132
 20
108.202066467
  0
LWPOLYLINE
  5
3C0
100
AcDbEntity
  8
RACCORDO
100
AcDbPolyline
 62
7
  6
CONTINUOUS
 90
6
 70
0
 10
202.149289605
 20
46.4044086635
 10
202.1533214972
 20
46.3369792533
 10
202.1652946786
 20
46.2789836568
 10
202.1848453689
 20
46.2321840567
 10
202.2113795503
 20
46.198002456
 10
202.2456452123
 20
46.1769037415
  0
LWPOLYLINE
  5
3C1
100
AcDbEntity
  8
RACCORDO
100
AcDbPolyline
 62
7
  6
CONTINUOUS
 90
5
 70
0
 10
183.4611268251
 20
67.3464974125
 10
183.4395819828
 20
67.2683735307
 10
183.4089940073
 20
67.1965547203
 10
183.3695333154
 20
67.1318396609
 10
183.32152915
 20
67.0749270138
  0
LWPOLYLINE
  5
3C2
100
AcDbEntity
  8
RACCORDO
100
AcDbPolyline
 62
7
  6
CONTINUOUS
 90
3
 70
0
 10
183.4774793384
 20
67.1814904221
 10
183.5019187396
 20
67.2661155553
 10
183.5168075582
 20
67.3570578829
  0
LINE
  5
3C3
100
AcDbEntity
  8
RACCORDO
100
AcDbLine
 62
7
  6
CONTINUOUS
 10
181.8327486397
 20
69.0718644122
 11
181.6371537243
 21
68.6150897734
  0
LWPOLYLINE
  5
3C4
100
AcDbEntity
  8
RACCORDO
100
AcDbPolyline
 62
7
  6
CONTINUOUS
 90
40
 70
0
 10
181.8152518268
 20
68.7730401765
 10
181.8143788369
 20
68.7710246416
 10
181.8096665911
 20
68.7604879924
 10
181.8048764115
 20
68.7503360943
 10
181.8000194464
 20
68.7405757044
 10
181.7950987717
 20
68.7311958902
 10
181.7901276114
 20
68.7222075823
 10
181.7851154624
 20
68.7136125086
 10
181.7800677577
 20
68.7054040659
 10
181.7749917146
 20
68.6975805579
 10
181.769895122
 20
68.6901407965
 10
181.764784758
 20
68.6830808984
 10
181.7596660254
 20
68.6763951764
 10
181.7545469395
 20
68.6700827307
 10
181.7494336913
 20
68.6641392199
 10
181.7443285746
 20
68.6585538937
 10
181.7392377254
 20
68.6533242229
 10
181.7341683801
 20
68.6484475863
 10
181.7291242648
 20
68.6439131249
 10
181.7241115789
 20
68.6397188739
 10
181.7191371238
 20
68.635861525
 10
181.7142057428
 20
68.6323280103
 10
181.7093250024
 20
68.6291173464
 10
181.7045002113
 20
68.6262249842
 10
181.6997330837
 20
68.6236322832
 10
181.6950308663
 20
68.6213377828
 10
181.6903985791
 20
68.6193374045
 10
181.6858345904
 20
68.6176084975
 10
181.681345702
 20
68.6161491043
 10
181.67693641
 20
68.6149558501
 10
181.6726013462
 20
68.6140040356
 10
181.6683462345
 20
68.6132911535
 10
181.6641753602
 20
68.6128148047
 10
181.6600807063
 20
68.6125506691
 10
181.6560684251
 20
68.6124956286
 10
181.6521410231
 20
68.6126484079
 10
181.6482842442
 20
68.6129878724
 10
181.6444954898
 20
68.6135058981
 10
181.6407842259
 20
68.6142071023
 10
181.6371537243
 20
68.6150897734
  0
LINE
  5
3C5
100
AcDbEntity
  8
RACCORDO
100
AcDbLine
 62
7
  6
CONTINUOUS
 10
183.4430369463
 20
67.1024242475
 11
183.4774793384
 21
67.1814904221
  0
LINE
  5
3C6
100
AcDbEntity
  8
0
100
AcDbLine
 62
7
  6
CONTINUOUS
 10
179.885859291
 20
74.4442046481
 11
178.6434300998
 21
73.3037612807
  0
LWPOLYLINE
  5
3C7
100
AcDbEntity
  8
SUPERFICI
100
AcDbPolyline
 62
7
  6
CONTINUOUS
 90
7
 70
0
 10
179.1583421224
 20
73.2874469392
 10
179.1623273499
 20
73.2908690678
 10
179.173720059
 20
73.302284188
 10
179.1837505966
 20
73.3149692786
 10
179.1923360923
 20
73.32884487
 10
179.1995594167
 20
73.3439904317
 10
179.2054205696
 20
73.3604059639
  0
LWPOLYLINE
  5
3C8
100
AcDbEntity
  8
SUPERFICI
100
AcDbPolyline
 62
7
  6
CONTINUOUS
 90
10
 70
0
 10
179.8914136694
 20
74.4490785669
 10
179.8977100325
 20
74.4544682271
 10
179.9034128033
 20
74.459467082
 10
179.9084601131
 20
74.4640597108
 10
179.9127946129
 20
74.468245852
 10
179.9163486876
 20
74.4719844008
 10
179.9190548134
 20
74.4751917512
 10
179.9208666246
 20
74.4778124055
 10
179.9217321767
 20
74.4798361718
 10
179.9218040404
 20
74.4804391579
  0
LINE
  5
3C9
100
AcDbEntity
  8
0
100
AcDbLine
 62
7
  6
CONTINUOUS
 10
179.8914136694
 20
73.964671102
 11
178.9627040745
 21
73.1755336545
  0
LINE
  5
3CA
100
AcDbEntity
  8
SUPERFICI
100
AcDbLine
 62
7
  6
CONTINUOUS
 10
179.1584004528
 20
73.2874685514
 11
179.0028288538
 21
73.1594186386
  0
LINE
  5
3CB
100
AcDbEntity
  8
0
100
AcDbLine
 62
7
  6
CONTINUOUS
 10
179.2054205696
 20
73.3604059639
 11
178.9748094925
 21
73.1706718458
  0
LINE
  5
3CC
100
AcDbEntity
  8
SUPERFICI
100
AcDbLine
 62
7
  6
CONTINUOUS
 10
178.3245806666
 20
73.5486344337
 11
178.4392959539
 21
73.6426036958
  0
LINE
  5
3CD
100
AcDbEntity
  8
SUPERFICI
100
AcDbLine
 62
7
  6
CONTINUOUS
 10
178.6113688848
 20
73.7835575889
 11
178.7260841721
 21
73.877526851
  0
LINE
  5
3CE
100
AcDbEntity
  8
SUPERFICI
100
AcDbLine
 62
7
  6
CONTINUOUS
 10
178.898157103
 20
74.0184807441
 11
179.0128723902
 21
74.1124500062
  0
LINE
  5
3CF
100
AcDbEntity
  8
SUPERFICI
100
AcDbLine
 62
7
  6
CONTINUOUS
 10
179.1849453212
 20
74.2534038993
 11
179.2996606084
 21
74.3473731614
  0
LINE
  5
3D0
100
AcDbEntity
  8
SUPERFICI
100
AcDbLine
 62
7
  6
CONTINUOUS
 10
179.4717335393
 20
74.4883270545
 11
179.5864488266
 21
74.5822963166
  0
LINE
  5
3D1
100
AcDbEntity
  8
SUPERFICI
100
AcDbLine
 62
7
  6
CONTINUOUS
 10
179.6724852921
 20
74.5299004565
 11
178.3295420856
 21
73.4298257836
  0
LINE
  5
3D2
100
AcDbEntity
  8
0
100
AcDbLine
 62
7
  6
CONTINUOUS
 10
207.3188667868
 20
81.0287634082
 11
207.1960789828
 21
81.3559622242
  0
LWPOLYLINE
  5
3D3
100
AcDbEntity
  8
RACCORDO
100
AcDbPolyline
 62
7
  6
CONTINUOUS
 90
28
 70
0
 10
204.0976747477
 20
113.606133641
 10
204.0957725385
 20
113.6851333112
 10
204.0896986808
 20
113.7685451508
 10
204.0790080154
 20
113.8563137047
 10
204.0632393018
 20
113.9484722769
 10
204.0419491475
 20
114.0447319668
 10
204.0147822768
 20
114.1444655955
 10
203.9812746986
 20
114.247661086
 10
203.9411588404
 20
114.3537114461
 10
203.8946528815
 20
114.4610035845
 10
203.8416954667
 20
114.5690134629
 10
203.7822034641
 20
114.6773552546
 10
203.7167435074
 20
114.7846109323
 10
203.6454330087
 20
114.8903293709
 10
203.5684871102
 20
114.993983176
 10
203.4869476
 20
115.0941469182
 10
203.4011182032
 20
115.1904841994
 10
203.3114425716
 20
115.2825527277
 10
203.2194629745
 20
115.3690265727
 10
203.1256784448
 20
115.4497462549
 10
203.0305821656
 20
115.5245897993
 10
202.9358995021
 20
115.5926729756
 10
202.8421532569
 20
115.6541353603
 10
202.7497654743
 20
115.7091877724
 10
202.6603677176
 20
115.7574719711
 10
202.5747403183
 20
115.7992517764
 10
202.4927677849
 20
115.8352067812
 10
202.414682463
 20
115.8658111591
  0
LWPOLYLINE
  5
3D4
100
AcDbEntity
  8
RACCORDO
100
AcDbPolyline
 62
7
  6
CONTINUOUS
 90
28
 70
0
 10
203.4231776779
 20
113.5274045751
 10
203.4222983086
 20
113.5867696857
 10
203.4175891904
 20
113.6492688488
 10
203.4090503529
 20
113.7149020914
 10
203.3969716456
 20
113.7839374787
 10
203.381063345
 20
113.8561070613
 10
203.3604561798
 20
113.9306068983
 10
203.3349140096
 20
114.0077600675
 10
203.3046733358
 20
114.0872438226
 10
203.2695739346
 20
114.1672855645
 10
203.2293986993
 20
114.2478801696
 10
203.1843653447
 20
114.3290333194
 10
203.1349659092
 20
114.4089886494
 10
203.0809680166
 20
114.4877301046
 10
203.0226047962
 20
114.5652744309
 10
202.9610664426
 20
114.6399143704
 10
202.8961443056
 20
114.7115385291
 10
202.8280477086
 20
114.7802589182
 10
202.7585935161
 20
114.8447031209
 10
202.6877101058
 20
114.9046219513
 10
202.615469419
 20
114.9602648871
 10
202.5439032277
 20
115.0110071063
 10
202.4730751431
 20
115.0565700951
 10
202.4029213927
 20
115.0972322188
 10
202.3352822235
 20
115.133203562
 10
202.2707707767
 20
115.1645539012
 10
202.2087733224
 20
115.1912129198
 10
202.149289605
 20
115.2131803838
  0
LINE
  5
3D5
100
AcDbEntity
  8
RACCORDO
100
AcDbLine
 62
7
  6
CONTINUOUS
 10
203.4231776779
 20
47.1760889877
 11
203.4231776779
 21
113.5274045751
  0
LINE
  5
3D6
100
AcDbEntity
  8
RACCORDO
100
AcDbLine
 62
7
  6
CONTINUOUS
 10
204.0976747477
 20
47.2548180536
 11
204.0976747477
 21
113.606133641
  0
LINE
  5
3D7
100
AcDbEntity
  8
RACCORDO
100
AcDbLine
 62
7
  6
CONTINUOUS
 10
206.9269258369
 20
115.9237204546
 11
206.9269258369
 21
49.5724048671
  0
LINE
  5
3D8
100
AcDbEntity
  8
0
100
AcDbLine
 62
7
  6
CONTINUOUS
 10
207.3188667868
 20
117.2447796849
 11
207.3188667868
 21
87.1094803743
  0
LINE
  5
3D9
100
AcDbEntity
  8
0
100
AcDbLine
 62
7
  6
CONTINUOUS
 10
207.3188667868
 20
81.0287634082
 11
207.3188667868
 21
50.8934640975
  0
LWPOLYLINE
  5
3DA
100
AcDbEntity
  8
0
100
AcDbPolyline
 62
7
  6
CONTINUOUS
 90
26
 70
0
 10
207.3188667868
 20
50.8934640975
 10
207.3185557605
 20
50.8710178168
 10
207.3176229179
 20
50.8488384118
 10
207.3160689673
 20
50.8269427253
 10
207.3138950887
 20
50.8053473844
 10
207.3111029331
 20
50.7840687885
 10
207.3076946206
 20
50.7631230962
 10
207.3036727396
 20
50.7425262134
 10
207.2990403442
 20
50.7222937809
 10
207.2938009521
 20
50.7024411632
 10
207.2879585421
 20
50.6829834359
 10
207.2815175509
 20
50.663935375
 10
207.2744828696
 20
50.6453114453
 10
207.2668598402
 20
50.6271257896
 10
207.2586542517
 20
50.6093922178
 10
207.2498723352
 20
50.5921241965
 10
207.2405207595
 20
50.5753348388
 10
207.2306066261
 20
50.5590368943
 10
207.2201374637
 20
50.5432427395
 10
207.2091212224
 20
50.5279643682
 10
207.1975662678
 20
50.5132133826
 10
207.1854813746
 20
50.4990009843
 10
207.1728757198
 20
50.4853379661
 10
207.159758876
 20
50.4722347036
 10
207.146140804
 20
50.459701147
 10
207.1334020167
 20
50.4488647043
  0
LWPOLYLINE
  5
3DB
100
AcDbEntity
  8
RACCORDO
100
AcDbPolyline
 62
7
  6
CONTINUOUS
 90
9
 70
0
 10
206.9269258369
 20
49.5724048671
 10
206.9205421954
 20
49.4317572084
 10
206.9014921574
 20
49.2981327677
 10
206.8697761186
 20
49.1715319088
 10
206.8247891499
 20
49.05073293
 10
206.7671378
 20
48.9369590215
 10
206.6986399056
 20
48.8338780905
 10
206.6192968237
 20
48.7423076868
 10
206.5418934013
 20
48.6717157605
  0
LWPOLYLINE
  5
3DC
100
AcDbEntity
  8
RACCORDO
100
AcDbPolyline
 62
7
  6
CONTINUOUS
 90
10
 70
0
 10
202.149289605
 20
115.2131803838
 10
202.1533215192
 20
115.2879950651
 10
202.165294754
 20
115.3679216355
 10
202.1848455085
 20
115.4505315663
 10
202.2113797427
 20
115.5333147967
 10
202.2440912271
 20
115.6137559998
 10
202.2819860392
 20
115.6894110098
 10
202.3239127642
 20
115.7579810878
 10
202.3685974796
 20
115.8173827673
 10
202.414682463
 20
115.8658111591
  0
LINE
  5
3DD
100
AcDbEntity
  8
0
100
AcDbLine
 62
7
  6
CONTINUOUS
 10
207.3188667868
 20
87.1094803743
 11
206.9269258369
 21
86.6897221718
  0
LWPOLYLINE
  5
3DE
100
AcDbEntity
  8
RACCORDO
100
AcDbPolyline
 62
7
  6
CONTINUOUS
 90
10
 70
0
 10
182.6372548804
 20
66.9541258706
 10
182.627857445
 20
66.9445154587
 10
182.6189288085
 20
66.9326332439
 10
182.6107413073
 20
66.9188416516
 10
182.6035446716
 20
66.9035613467
 10
182.5975584099
 20
66.8872584011
 10
182.5929651135
 20
66.870430078
 10
182.5899048852
 20
66.853589666
 10
182.5884710656
 20
66.8372508231
 10
182.5887073882
 20
66.821911908
  0
LINE
  5
3DF
100
AcDbEntity
  8
RACCORDO
100
AcDbLine
 62
7
  6
CONTINUOUS
 10
183.32152915
 20
67.0749270138
 11
183.2853938303
 21
67.0419581628
  0
LINE
  5
3E0
100
AcDbEntity
  8
RACCORDO
100
AcDbLine
 62
7
  6
CONTINUOUS
 10
183.2852271576
 20
67.0417984573
 11
183.2855906203
 21
67.0420964358
  0
LINE
  5
3E1
100
AcDbEntity
  8
RACCORDO
100
AcDbLine
 62
7
  6
CONTINUOUS
 10
182.8400039016
 20
67.1201641669
 11
182.6372578111
 21
66.9540842924
  0
LWPOLYLINE
  5
3E2
100
AcDbEntity
  8
RACCORDO
100
AcDbPolyline
 62
7
  6
CONTINUOUS
 90
30
 70
0
 10
183.156088317
 20
67.242549508
 10
183.1609768657
 20
67.2463498432
 10
183.1741924779
 20
67.2571610567
 10
183.1870029683
 20
67.2684459196
 10
183.1994005541
 20
67.280197506
 10
183.2113773042
 20
67.2924083006
 10
183.2229258712
 20
67.3050707439
 10
183.2340392282
 20
67.3181770387
 10
183.2447103017
 20
67.3317188916
 10
183.2549325287
 20
67.3456879054
 10
183.2646996711
 20
67.3600754496
 10
183.2740055377
 20
67.3748724832
 10
183.2828443813
 20
67.3900698104
 10
183.2912107927
 20
67.4056580206
 10
183.2990995002
 20
67.4216273744
 10
183.3065055979
 20
67.4379679128
 10
183.3134245434
 20
67.4546695104
 10
183.3198520326
 20
67.4717218308
 10
183.3257840361
 20
67.4891142328
 10
183.3312168867
 20
67.5068359122
 10
183.3361472542
 20
67.5248759724
 10
183.3405720205
 20
67.5432232249
 10
183.3444883939
 20
67.5618661728
 10
183.3478939903
 20
67.5807931585
 10
183.3507865738
 20
67.5999921114
 10
183.3531643487
 20
67.6194512671
 10
183.3550260227
 20
67.6391591781
 10
183.3563703922
 20
67.6591037747
 10
183.3571963903
 20
67.679272347
 10
183.3575033554
 20
67.699652276
  0
LINE
  5
3E3
100
AcDbEntity
  8
RACCORDO
100
AcDbLine
 62
7
  6
CONTINUOUS
 10
183.3575033554
 20
67.699652276
 11
183.4766039097
 21
67.7909844601
  0
LINE
  5
3E4
100
AcDbEntity
  8
RACCORDO
100
AcDbLine
 62
7
  6
CONTINUOUS
 10
183.1560883183
 20
67.242549509
 11
183.475927341
 21
67.4878181172
  0
LINE
  5
3E5
100
AcDbEntity
  8
0
100
AcDbLine
 62
7
  6
CONTINUOUS
 10
207.3188667868
 20
81.0287634082
 11
206.9269258369
 21
80.8064031499
  0
LINE
  5
3E6
100
AcDbEntity
  8
0
100
AcDbLine
 62
7
  6
CONTINUOUS
 10
207.2390663211
 20
117.6294896903
 11
207.1546291797
 21
117.8403856669
  0
LWPOLYLINE
  5
3E7
100
AcDbEntity
  8
0
100
AcDbPolyline
 62
7
  6
CONTINUOUS
 90
18
 70
0
 10
207.2390663211
 20
117.6294896903
 10
207.2405207595
 20
117.6258400054
 10
207.2498723352
 20
117.6015390404
 10
207.2586542517
 20
117.5772169878
 10
207.2668598402
 20
117.5528923173
 10
207.2744828696
 20
117.5285835007
 10
207.2815175509
 20
117.5043089978
 10
207.2879585421
 20
117.4800872423
 10
207.2938009521
 20
117.4559366279
 10
207.2990403442
 20
117.4318754942
 10
207.3036727396
 20
117.4079221129
 10
207.3076946206
 20
117.3840946738
 10
207.3111029331
 20
117.3604112713
 10
207.3138950887
 20
117.3368898901
 10
207.3160689673
 20
117.313548392
 10
207.3176229179
 20
117.2904045022
 10
207.3185557605
 20
117.267475796
 10
207.3188667868
 20
117.2447796849
  0
LINE
  5
3E8
100
AcDbEntity
  8
0
100
AcDbLine
 62
7
  6
CONTINUOUS
 10
207.3188667868
 20
50.8934640975
 11
206.9269258369
 21
50.5724048671
  0
LINE
  5
3E9
100
AcDbEntity
  8
0
100
AcDbLine
 62
7
  6
CONTINUOUS
 10
207.1334020167
 20
50.4488647043
 11
206.9269258369
 21
50.2797293194
  0
LWPOLYLINE
  5
3EA
100
AcDbEntity
  8
RACCORDO
100
AcDbPolyline
 62
7
  6
CONTINUOUS
 90
14
 70
0
 10
203.7168041411
 20
46.3574760993
 10
203.7384183763
 20
46.3757391652
 10
203.8017993531
 20
46.4362972048
 10
203.859028692
 20
46.5019926669
 10
203.9095874347
 20
46.5716981471
 10
203.9536298908
 20
46.6448785021
 10
203.9913059339
 20
46.7209458728
 10
204.0224872169
 20
46.7984056319
 10
204.0475199872
 20
46.8763895907
 10
204.0669345087
 20
46.9545273901
 10
204.0811541037
 20
47.0319557886
 10
204.0906815339
 20
47.1080515799
 10
204.0960261885
 20
47.1824712389
 10
204.0976747477
 20
47.2548180536
  0
LINE
  5
3EB
100
AcDbEntity
  8
RACCORDO
100
AcDbLine
 62
7
  6
CONTINUOUS
 10
204.0976747477
 20
47.2548180536
 11
206.9269258369
 21
49.5724048671
  0
LINE
  5
3EC
100
AcDbEntity
  8
RACCORDO
100
AcDbLine
 62
7
  6
CONTINUOUS
 10
203.715582808
 20
46.3564766125
 11
206.5418878038
 21
48.6716490798
  0
ELLIPSE
  5
3ED
100
AcDbEntity
  8
SUPERFICI
100
AcDbEllipse
 62
7
  6
CONTINUOUS
 10
142.8599620572
 20
88.6663312871
 30
0.0
 11
0.19974097
 21
0.1359120531
 31
0.0
 40
0.0748697584
 41
-0.60940585
 42
-0.0505345049
  0
ELLIPSE
  5
3EE
100
AcDbEntity
  8
SUPERFICI
100
AcDbEllipse
 62
7
  6
CONTINUOUS
 10
161.2908830537
 20
81.2640578996
 30
0.0
 11
0.19974097
 21
0.1359120531
 31
0.0
 40
0.0748697584
 41
-0.60940585
 42
-0.0505345049
  0
ELLIPSE
  5
3EF
100
AcDbEntity
  8
SUPERFICI
100
AcDbEllipse
 62
7
  6
CONTINUOUS
 10
124.4290410607
 20
96.0686046747
 30
0.0
 11
0.19974097
 21
0.1359120531
 31
0.0
 40
0.0748697584
 41
-0.60940585
 42
-0.0505348179
  0
ELLIPSE
  5
3F0
100
AcDbEntity
  8
SUPERFICI
100
AcDbEllipse
 62
7
  6
CONTINUOUS
 10
179.7218040502
 20
73.861784512
 30
0.0
 11
0.19974097
 21
0.1359120531
 31
0.0
 40
0.0748697584
 41
-0.60940585
 42
-0.0505348179
  0
ELLIPSE
  5
3F1
100
AcDbEntity
  8
SUPERFICI
100
AcDbEllipse
 62
7
  6
CONTINUOUS
 10
174.9537750495
 20
76.2612104619
 30
0.0
 11
0.0820063524
 21
0.1825471329
 31
0.0
 40
0.504400903
 41
0.6752534469
 42
0.7276133244
  0
ELLIPSE
  5
3F2
100
AcDbEntity
  8
SUPERFICI
100
AcDbEllipse
 62
7
  6
CONTINUOUS
 10
119.66101206
 20
98.4680306247
 30
0.0
 11
0.0820063524
 21
0.1825471329
 31
0.0
 40
0.504400903
 41
0.6752534469
 42
0.7276133244
  0
ELLIPSE
  5
3F3
100
AcDbEntity
  8
SUPERFICI
100
AcDbEllipse
 62
7
  6
CONTINUOUS
 10
156.522854053
 20
83.5815686451
 30
0.0
 11
0.0820063524
 21
0.1825471329
 31
0.0
 40
0.504400903
 41
0.6752534469
 42
0.7276133244
  0
ELLIPSE
  5
3F4
100
AcDbEntity
  8
SUPERFICI
100
AcDbEllipse
 62
7
  6
CONTINUOUS
 10
138.0919330565
 20
90.9838420326
 30
0.0
 11
0.0820063524
 21
0.1825471329
 31
0.0
 40
0.504400903
 41
0.6752534469
 42
0.7276133244
  0
ELLIPSE
  5
3F5
100
AcDbEntity
  8
RACCORDO
100
AcDbEllipse
 62
7
  6
CONTINUOUS
 10
109.9209785234
 20
101.068302386
 30
0.0
 11
-0.1268434165
 21
0.1546379889
 31
0.0
 40
0.6728141967
 41
0.6869639216
 42
2.2550211926
  0
ELLIPSE
  5
3F6
100
AcDbEntity
  8
SUPERFICI
100
AcDbEllipse
 62
7
  6
CONTINUOUS
 10
179.885859291
 20
74.2803742393
 30
0.0
 11
0.067652159
 21
0.1883288026
 31
0.0
 40
0.4341965489
 41
0.6388247178
 42
0.6911845954
  0
ELLIPSE
  5
3F7
100
AcDbEntity
  8
SUPERFICI
100
AcDbEllipse
 62
7
  6
CONTINUOUS
 10
124.5930963015
 20
96.487194402
 30
0.0
 11
0.067652159
 21
0.1883288026
 31
0.0
 40
0.4341965489
 41
0.6388247178
 42
0.6911845954
  0
ELLIPSE
  5
3F8
100
AcDbEntity
  8
SUPERFICI
100
AcDbEllipse
 62
7
  6
CONTINUOUS
 10
161.4549382945
 20
81.6007324224
 30
0.0
 11
0.067652159
 21
0.1883288026
 31
0.0
 40
0.4341965489
 41
0.6388247178
 42
0.6911845954
  0
ELLIPSE
  5
3F9
100
AcDbEntity
  8
SUPERFICI
100
AcDbEllipse
 62
7
  6
CONTINUOUS
 10
143.024017298
 20
89.00300581
 30
0.0
 11
0.067652159
 21
0.1883288026
 31
0.0
 40
0.4341965489
 41
0.6388247178
 42
0.6911845954
  0
ENDSEC
  0
SECTION
  2
OBJECTS
  0
DICTIONARY
  5
C
100
AcDbDictionary
280
0
281
1
  3
ACAD_GROUP
350
D
  3
ACAD_MLINESTYLE
350
17
  3
ACAD_LAYOUT
350
1A
  3
ACAD_PLOTSETTINGS
350
19
  3
ACAD_PLOTSTYLENAME
350
E
  0
DICTIONARY
  5
D
102
{ACAD_REACTORS
330
C
102
}
100
AcDbDictionary
280
0
281
1
  0
ACDBDICTIONARYWDFLT
  5
E
102
{ACAD_REACTORS
330
C
102
}
100
AcDbDictionary
281
1
  3
Normal
350
F
100
AcDbDictionaryWithDefault
340
F
  0
DICTIONARY
  5
17
102
{ACAD_REACTORS
330
C
102
}
100
AcDbDictionary
280
0
281
1
  3
Standard
350
18
  0
DICTIONARY
  5
19
102
{ACAD_REACTORS
330
C
102
}
100
AcDbDictionary
281
1
  0
DICTIONARY
  5
1A
102
{ACAD_REACTORS
330
C
102
}
100
AcDbDictionary
281
1
  3
Model
350
3FA
  3
Layout1
350
3FB
  0
ACDBPLACEHOLDER
  5
F
102
{ACAD_REACTORS
330
E
102
}
  0
MLINESTYLE
  5
18
102
{ACAD_REACTORS
330
17
102
}
100
AcDbMlineStyle
  2
STANDARD
 70
0
  3

 62
256
 51
90.0
 52
90.0
 71
2
 49
0.5
 62
256
  6
BYLAYER
 49
-0.5
 62
256
  6
BYLAYER
  0
LAYOUT
  5
3FA
102
{ACAD_REACTORS
330
1A
102
}
100
AcDbPlotSettings
  1

  2
none_device
  4
ISO_A4_(297.00_x_210.00_MM)
  6

 40
0.0
 41
0.0
 42
0.0
 43
0.0
 44
297.0
 45
210.0
 46
0.0
 47
0.0
 48
0.0
 49
0.0
140
0.0
141
0.0
142
1.0
143
1.0
 70
1024
 72
1
 73
0
 74
0
  7

 75
0
147
1.0
148
0.0
149
0.0
100
AcDbLayout
  1
Model
 70
0
 71
0
 10
0.0
 20
0.0
 11
297.0
 21
210.0
 12
0.0
 22
0.0
 32
0.0
 14
0.0
 24
0.0
 34
0.0
 15
0.0
 25
0.0
 35
0.0
146
0.0
 13
0.0
 23
0.0
 33
0.0
 16
1.0
 26
0.0
 36
0.0
 17
0.0
 27
1.0
 37
0.0
 76
0
330
212
345
0
346
0
  0
LAYOUT
  5
3FB
102
{ACAD_REACTORS
330
1A
102
}
100
AcDbPlotSettings
  1

  2
none_device
  4
ISO_A4_(297.00_x_210.00_MM)
  6

 40
0.0
 41
0.0
 42
0.0
 43
0.0
 44
297.0
 45
210.0
 46
0.0
 47
0.0
 48
0.0
 49
0.0
140
0.0
141
0.0
142
1.0
143
1.0
 70
0
 72
1
 73
0
 74
0
  7

 75
0
147
1.0
148
0.0
149
0.0
100
AcDbLayout
  1
Layout1
 70
0
 71
1
 10
0.0
 20
0.0
 11
297.0
 21
210.0
 12
0.0
 22
0.0
 32
0.0
 14
0.0
 24
0.0
 34
0.0
 15
0.0
 25
0.0
 35
0.0
146
0.0
 13
0.0
 23
0.0
 33
0.0
 16
1.0
 26
0.0
 36
0.0
 17
0.0
 27
1.0
 37
0.0
 76
0
330
213
345
0
346
0
  0
ENDSEC
  0
EOF
